  0
SECTION
  2
HEADER
  9
$ACADVER
  1
AC1021
  9
$DWGCODEPAGE
  3
ANSI_1252
  9
$EXTMAX
 10
297.0
 20
210.0
 30
0.0
  9
$EXTMIN
 10
0.0
 20
0.0
 30
0.0
  9
$LIMMIN
 10
0.0
 20
0.0
  9
$LIMMAX
 10
297.0
 20
210.0
  9
$VIEWCTR
 10
148.5
 20
105.0
  9
$VIEWSIZE
 40
210.0
  9
$CLAYER
  8
0
  9
$LTSCALE
 40
16.335
  9
$CELTYPE
  6
BYLAYER
  9
$DIMSCALE
 40
1.0
  9
$DIMASZ
 40
3.0
  9
$DIMEXO
 40
0.5
  9
$DIMDLI
 40
11.286
  9
$DIMEXE
 40
1.5
  9
$DIMCEN
 40
2.673
  9
$DIMLFAC
 40
1.0
  9
$DIMBLK
  1
_FILLED
  9
$DIMALT
 70
0
  9
$DIMALTF
 40
25.4
  9
$DIMTXT
 40
3.0
  9
$DIMTOL
 70
1
  9
$DIMLIM
 70
0
  9
$DIMTFAC
 40
1.0
  9
$DIMTP
 40
0.01
  9
$DIMTM
 40
0.01
  9
$DIMGAP
 40
0.625
  9
$DIMDSEP
 70
44
  9
$AUNITS
 70
0
  9
$PDMODE
 70
3
  9
$PDSIZE
 40
3.0
  9
$HANDSEED
  5
A5A
  9
$TILEMODE
 70
1
  9
$MEASUREMENT
 70
1
  9
$INSUNITS
 70
4
  0
ENDSEC
  0
SECTION
  2
CLASSES
  0
CLASS
  1
ACDBDICTIONARYWDFLT
  2
AcDbDictionaryWithDefault
  3
AutoCAD 2000
 90
0
 91
1
280
0
281
0
  0
CLASS
  1
ACDBPLACEHOLDER
  2
AcDbPlaceHolder
  3
AutoCAD 2000
 90
0
 91
1
280
0
281
0
  0
CLASS
  1
LAYOUT
  2
AcDbLayout
  3
AutoCAD 2000
 90
0
 91
0
280
0
281
0
  0
ENDSEC
  0
SECTION
  2
TABLES
  0
TABLE
  2
VPORT
  5
8
100
AcDbSymbolTable
 70
2
  0
VPORT
  5
1F4
100
AcDbSymbolTableRecord
100
AcDbViewportTableRecord
  2
*ACTIVE
 70
0
 10
0.0
 20
0.0
 11
1.0
 21
1.0
 12
148.5
 22
105.0
 13
0.0
 23
0.0
 14
1.0
 24
1.0
 15
0.0
 25
0.0
 16
0.0
 26
0.0
 36
1.0
 17
0.0
 27
0.0
 37
0.0
 40
210.0
 41
1.4142857143
 42
50.0
 43
0.0
 44
0.0
 50
0.0
 51
0.0
 71
0
 72
100
 73
1
 74
1
 75
0
 76
0
 77
0
 78
0
  0
ENDTAB
  0
TABLE
  2
LTYPE
  5
5
100
AcDbSymbolTable
 70
6
  0
LTYPE
  5
14
100
AcDbSymbolTableRecord
100
AcDbLinetypeTableRecord
  2
BYBLOCK
 70
0
  3

 72
65
 73
0
 40
0.0
  0
LTYPE
  5
15
100
AcDbSymbolTableRecord
100
AcDbLinetypeTableRecord
  2
BYLAYER
 70
0
  3

 72
65
 73
0
 40
0.0
  0
LTYPE
  5
16
100
AcDbSymbolTableRecord
100
AcDbLinetypeTableRecord
  2
CONTINUOUS
 70
64
  3
Solid line
 72
65
 73
0
 40
0.0
  0
LTYPE
  5
1F5
100
AcDbSymbolTableRecord
100
AcDbLinetypeTableRecord
  2
CENTER
 70
64
  3
____ _ ____ _ ____ _ ____ _ ____ _ ____ _ ____
 72
65
 73
4
 40
0.6
 49
0.375
 74
0
 49
-0.075
 74
0
 49
0.075
 74
0
 49
-0.075
 74
0
  0
LTYPE
  5
1F6
100
AcDbSymbolTableRecord
100
AcDbLinetypeTableRecord
  2
HIDDEN
 70
64
  3
- - - - - - - - - - - - - - - - - - - -
 72
65
 73
2
 40
0.2
 49
0.1
 74
0
 49
-0.1
 74
0
  0
LTYPE
  5
1F7
100
AcDbSymbolTableRecord
100
AcDbLinetypeTableRecord
  2
PHANTOM
 70
64
  3
_____ _ _ _____ _ _ _____ _ _ _____
 72
65
 73
6
 40
0.8
 49
0.45
 74
0
 49
-0.05
 74
0
 49
0.1
 74
0
 49
-0.05
 74
0
 49
0.1
 74
0
 49
-0.05
 74
0
  0
LTYPE
  5
1F8
100
AcDbSymbolTableRecord
100
AcDbLinetypeTableRecord
  2
DOT
 70
64
  3
. . . . . . . . . . . . . . . . . . . .
 72
65
 73
2
 40
0.2
 49
0.1
 74
0
 49
-0.1
 74
0
  0
LTYPE
  5
1F9
100
AcDbSymbolTableRecord
100
AcDbLinetypeTableRecord
  2
DASHED
 70
64
  3
- - - - - - - - - - - - - - - - - - - -
 72
65
 73
2
 40
0.2
 49
0.1
 74
0
 49
-0.1
 74
0
  0
ENDTAB
  0
TABLE
  2
LAYER
  5
2
100
AcDbSymbolTable
 70
36
  0
LAYER
  5
10
100
AcDbSymbolTableRecord
100
AcDbLayerTableRecord
  2
0
 70
0
 62
7
  6
CONTINUOUS
370
-3
390
F
  0
LAYER
  5
1FA
100
AcDbSymbolTableRecord
100
AcDbLayerTableRecord
  2
DEFAULT_1
 70
0
 62
7
  6
CENTER
370
-3
390
F
  0
LAYER
  5
1FB
100
AcDbSymbolTableRecord
100
AcDbLayerTableRecord
  2
DEFAULT_2
 70
0
 62
7
  6
HIDDEN
370
-3
390
F
  0
LAYER
  5
1FC
100
AcDbSymbolTableRecord
100
AcDbLayerTableRecord
  2
DEFAULT_3
 70
0
 62
7
  6
PHANTOM
370
-3
390
F
  0
LAYER
  5
1FD
100
AcDbSymbolTableRecord
100
AcDbLayerTableRecord
  2
ASSI
 70
0
 62
7
  6
CONTINUOUS
370
-3
390
F
  0
LAYER
  5
1FE
100
AcDbSymbolTableRecord
100
AcDbLayerTableRecord
  2
COORDINATE
 70
0
 62
7
  6
CONTINUOUS
370
-3
390
F
  0
LAYER
  5
1FF
100
AcDbSymbolTableRecord
100
AcDbLayerTableRecord
  2
COPY_PUBLISH
 70
0
 62
7
  6
CONTINUOUS
370
-3
390
F
  0
LAYER
  5
200
100
AcDbSymbolTableRecord
100
AcDbLayerTableRecord
  2
COSMETIC
 70
0
 62
7
  6
CONTINUOUS
370
-3
390
F
  0
LAYER
  5
201
100
AcDbSymbolTableRecord
100
AcDbLayerTableRecord
  2
COSMETICI
 70
0
 62
7
  6
CONTINUOUS
370
-3
390
F
  0
LAYER
  5
202
100
AcDbSymbolTableRecord
100
AcDbLayerTableRecord
  2
CURVE
 70
0
 62
7
  6
CONTINUOUS
370
-3
390
F
  0
LAYER
  5
203
100
AcDbSymbolTableRecord
100
AcDbLayerTableRecord
  2
DRAFT
 70
0
 62
7
  6
CONTINUOUS
370
-3
390
F
  0
LAYER
  5
204
100
AcDbSymbolTableRecord
100
AcDbLayerTableRecord
  2
IMPORT_IGES
 70
0
 62
7
  6
CONTINUOUS
370
-3
390
F
  0
LAYER
  5
205
100
AcDbSymbolTableRecord
100
AcDbLayerTableRecord
  2
INTFCLR_1
 70
0
 62
7
  6
CONTINUOUS
370
-3
390
F
  0
LAYER
  5
206
100
AcDbSymbolTableRecord
100
AcDbLayerTableRecord
  2
INTF_1
 70
0
 62
7
  6
CONTINUOUS
370
-3
390
F
  0
LAYER
  5
207
100
AcDbSymbolTableRecord
100
AcDbLayerTableRecord
  2
NOTE
 70
0
 62
7
  6
CONTINUOUS
370
-3
390
F
  0
LAYER
  5
208
100
AcDbSymbolTableRecord
100
AcDbLayerTableRecord
  2
PIANI
 70
0
 62
7
  6
CONTINUOUS
370
-3
390
F
  0
LAYER
  5
209
100
AcDbSymbolTableRecord
100
AcDbLayerTableRecord
  2
PUNTI
 70
0
 62
7
  6
CONTINUOUS
370
-3
390
F
  0
LAYER
  5
20A
100
AcDbSymbolTableRecord
100
AcDbLayerTableRecord
  2
RACCORDO
 70
0
 62
7
  6
CONTINUOUS
370
-3
390
F
  0
LAYER
  5
20B
100
AcDbSymbolTableRecord
100
AcDbLayerTableRecord
  2
SIMBOLI
 70
0
 62
7
  6
CONTINUOUS
370
-3
390
F
  0
LAYER
  5
20C
100
AcDbSymbolTableRecord
100
AcDbLayerTableRecord
  2
SMUSSO
 70
0
 62
7
  6
CONTINUOUS
370
-3
390
F
  0
LAYER
  5
20D
100
AcDbSymbolTableRecord
100
AcDbLayerTableRecord
  2
SNAPLINE
 70
0
 62
7
  6
CONTINUOUS
370
-3
390
F
  0
LAYER
  5
20E
100
AcDbSymbolTableRecord
100
AcDbLayerTableRecord
  2
SUPERFICI
 70
0
 62
7
  6
CONTINUOUS
370
-3
390
F
  0
LAYER
  5
20F
100
AcDbSymbolTableRecord
100
AcDbLayerTableRecord
  2
TRASH
 70
0
 62
7
  6
CONTINUOUS
370
-3
390
F
  0
LAYER
  5
210
100
AcDbSymbolTableRecord
100
AcDbLayerTableRecord
  2
XSEC_DATUMS
 70
0
 62
7
  6
CONTINUOUS
370
-3
390
F
  0
ENDTAB
  0
TABLE
  2
STYLE
  5
3
100
AcDbSymbolTable
 70
1
  0
STYLE
  5
11
100
AcDbSymbolTableRecord
100
AcDbTextStyleTableRecord
  2
STANDARD
 70
0
 40
0.0
 41
0.8
 50
0.0
 71
0
 42
0.2
  3
txt
  4

  0
STYLE
  5
211
100
AcDbSymbolTableRecord
100
AcDbTextStyleTableRecord
  2
TEXTSTYLE_1
 70
0
 40
0.0
 41
0.8
 50
0.0
 71
0
 42
0.2
  3
gdt
  4

  0
ENDTAB
  0
TABLE
  2
VIEW
  5
6
100
AcDbSymbolTable
 70
0
  0
ENDTAB
  0
TABLE
  2
UCS
  5
7
100
AcDbSymbolTable
 70
0
  0
ENDTAB
  0
TABLE
  2
APPID
  5
9
100
AcDbSymbolTable
 70
1
  0
APPID
  5
212
100
AcDbSymbolTableRecord
100
AcDbRegAppTableRecord
  2
ACAD
 70
0
  0
ENDTAB
  0
TABLE
  2
BLOCK_RECORD
  5
1
100
AcDbSymbolTable
 70
0
  0
BLOCK_RECORD
  5
213
100
AcDbSymbolTableRecord
100
AcDbBlockTableRecord
  2
*Model_Space
  0
BLOCK_RECORD
  5
214
100
AcDbSymbolTableRecord
100
AcDbBlockTableRecord
  2
*Paper_Space
  0
BLOCK_RECORD
  5
215
100
AcDbSymbolTableRecord
100
AcDbBlockTableRecord
  2
_FILLED
  0
ENDTAB
  0
TABLE
  2
DIMSTYLE
  5
A
100
AcDbSymbolTable
 70
1
100
AcDbDimStyleTable
 71
0
  0
DIMSTYLE
105
216
100
AcDbSymbolTableRecord
100
AcDbDimStyleTableRecord
  2
STANDARD
 70
0
  3

  4

 40
1.0
 41
3.0
 42
0.5
 43
0.38
 44
1.5
 45
0.0
 46
0.0
 47
0.01
 48
0.01
140
3.0
141
0.09
142
0.0
143
25.4
144
1.0
145
0.0
146
1.0
147
0.625
 71
1.0
 72
0.0
 73
0
 74
0
 75
0
 76
0
 77
1
 78
8
 79
2
170
0
171
1
172
0
173
0
174
0
175
0
176
0
177
0
178
0
270
2
179
2
271
2
272
2
273
2
274
2
275
0
280
0
281
0
282
0
283
1
284
8
285
0
286
0
287
3
288
0
340
11
278
44
341
215
342
215
343
215
344
215
  0
ENDTAB
  0
ENDSEC
  0
SECTION
  2
BLOCKS
  0
BLOCK
  5
20
100
AcDbEntity
  8
0
100
AcDbBlockBegin
  2
*Model_Space
 70
0
 10
0.0
 20
0.0
 30
0.0
  3
*Model_Space
  1

  0
ENDBLK
  5
21
100
AcDbEntity
  8
0
100
AcDbBlockEnd
  0
BLOCK
  5
1C
100
AcDbEntity
  8
0
100
AcDbBlockBegin
  2
*Paper_Space
 70
0
 10
0.0
 20
0.0
 30
0.0
  3
*Paper_Space
  1

  0
ENDBLK
  5
1D
100
AcDbEntity
  8
0
100
AcDbBlockEnd
  0
BLOCK
  5
217
100
AcDbEntity
  8
0
100
AcDbBlockBegin
  2
_FILLED
 70
64
 10
0.0
 20
0.0
  3
_FILLED
  1

  0
SOLID
  5
218
100
AcDbEntity
  8
0
  6
BYBLOCK
 62
0
100
AcDbTrace
 10
0.0
 20
0.0
 11
-1.0
 21
0.1333333333
 12
-1.0
 22
-0.1333333333
 13
-1.0
 23
-0.1333333333
  0
ENDBLK
  5
219
100
AcDbEntity
  8
0
  6
BYBLOCK
 62
0
100
AcDbBlockEnd
  0
ENDSEC
  0
SECTION
  2
ENTITIES
  0
LINE
  5
21A
100
AcDbEntity
  8
0
100
AcDbLine
 62
7
  6
CONTINUOUS
 10
4.3526929703
 20
-46.5010043246
 11
4.3489338919
 21
-46.4666963506
  0
LINE
  5
21B
100
AcDbEntity
  8
RACCORDO
100
AcDbLine
 62
7
  6
CONTINUOUS
 10
-15.6547010988
 20
-41.0661656293
 11
-15.512183302
 21
-42.5148906756
  0
LINE
  5
21C
100
AcDbEntity
  8
RACCORDO
100
AcDbLine
 62
7
  6
CONTINUOUS
 10
-15.7836765376
 20
-40.912560007
 11
-15.6399560719
 21
-42.3742856315
  0
LINE
  5
21D
100
AcDbEntity
  8
RACCORDO
100
AcDbLine
 62
7
  6
CONTINUOUS
 10
-9.0729100441
 20
-0.8285694615
 11
-9.0698578479
 21
-0.8603336934
  0
LINE
  5
21E
100
AcDbEntity
  8
RACCORDO
100
AcDbLine
 62
7
  6
CONTINUOUS
 10
-7.3179584282
 20
-35.417017878
 11
-7.3140775172
 21
-35.4613571038
  0
LINE
  5
21F
100
AcDbEntity
  8
RACCORDO
100
AcDbLine
 62
7
  6
CONTINUOUS
 10
-7.3179584282
 20
11.2746486465
 11
-7.3140775172
 21
11.2303094207
  0
LINE
  5
220
100
AcDbEntity
  8
RACCORDO
100
AcDbLine
 62
7
  6
CONTINUOUS
 10
-10.1304304927
 20
9.4027786605
 11
-10.1356886099
 21
9.4657881346
  0
LINE
  5
221
100
AcDbEntity
  8
RACCORDO
100
AcDbLine
 62
7
  6
CONTINUOUS
 10
-15.7771595264
 20
-39.5949996035
 11
-15.6547010988
 21
-41.0661656293
  0
LINE
  5
222
100
AcDbEntity
  8
RACCORDO
100
AcDbLine
 62
7
  6
CONTINUOUS
 10
-15.9069610125
 20
-39.4282179447
 11
-15.7836765376
 21
-40.912560007
  0
LINE
  5
223
100
AcDbEntity
  8
0
100
AcDbLine
 62
7
  6
CONTINUOUS
 10
-2.1704828655
 20
-44.7925449053
 11
-2.1308795786
 21
-45.2692017779
  0
LINE
  5
224
100
AcDbEntity
  8
0
100
AcDbLine
 62
7
  6
CONTINUOUS
 10
2.9941519058
 20
-46.8722000086
 11
3.0333037921
 21
-47.3432545052
  0
LINE
  5
225
100
AcDbEntity
  8
0
100
AcDbLine
 62
7
  6
CONTINUOUS
 10
3.394636068
 20
-47.6293249753
 11
3.3596899719
 21
-47.2093342458
  0
LINE
  5
226
100
AcDbEntity
  8
0
100
AcDbLine
 62
7
  6
CONTINUOUS
 10
-2.2463401093
 20
-45.3637815076
 11
-2.2858624126
 21
-44.8870631491
  0
LINE
  5
227
100
AcDbEntity
  8
0
100
AcDbLine
 62
7
  6
CONTINUOUS
 10
-1.7676211014
 20
-45.5560458537
 11
-1.8071434047
 21
-45.0793274952
  0
LINE
  5
228
100
AcDbEntity
  8
0
100
AcDbLine
 62
7
  6
CONTINUOUS
 10
2.9178432613
 20
-47.4378342351
 11
2.8787714322
 21
-46.9667188921
  0
LINE
  5
229
100
AcDbEntity
  8
0
100
AcDbLine
 62
7
  6
CONTINUOUS
 10
3.3596899719
 20
-47.2093342458
 11
3.3264852252
 21
-46.7876474074
  0
LINE
  5
22A
100
AcDbEntity
  8
0
100
AcDbLine
 62
7
  6
CONTINUOUS
 10
-2.2078385176
 20
-44.3137081676
 11
-2.1704828655
 21
-44.7925449053
  0
LINE
  5
22B
100
AcDbEntity
  8
0
100
AcDbLine
 62
7
  6
CONTINUOUS
 10
2.9571952255
 20
-46.3990161727
 11
2.9941519058
 21
-46.8722000086
  0
LINE
  5
22C
100
AcDbEntity
  8
0
100
AcDbLine
 62
7
  6
CONTINUOUS
 10
-2.2858624126
 20
-44.8870631491
 11
-2.3231424328
 21
-44.4081595179
  0
LINE
  5
22D
100
AcDbEntity
  8
0
100
AcDbLine
 62
7
  6
CONTINUOUS
 10
-1.8071434047
 20
-45.0793274952
 11
-1.8444234249
 21
-44.600423864
  0
LINE
  5
22E
100
AcDbEntity
  8
0
100
AcDbLine
 62
7
  6
CONTINUOUS
 10
2.8787714322
 20
-46.9667188921
 11
2.8418895811
 21
-46.4934689348
  0
LINE
  5
22F
100
AcDbEntity
  8
0
100
AcDbLine
 62
7
  6
CONTINUOUS
 10
4.0681265445
 20
-46.927530796
 11
4.0671719451
 21
-46.9147608633
  0
LINE
  5
230
100
AcDbEntity
  8
0
100
AcDbLine
 62
7
  6
CONTINUOUS
 10
2.9224342649
 20
-45.9237099022
 11
2.9571952255
 21
-46.3990161727
  0
LINE
  5
231
100
AcDbEntity
  8
0
100
AcDbLine
 62
7
  6
CONTINUOUS
 10
-2.2429460037
 20
-43.8326987191
 11
-2.2078385176
 21
-44.3137081676
  0
LINE
  5
232
100
AcDbEntity
  8
0
100
AcDbLine
 62
7
  6
CONTINUOUS
 10
2.8418895811
 20
-46.4934689348
 11
2.8071985451
 21
-46.0180956454
  0
LINE
  5
233
100
AcDbEntity
  8
0
100
AcDbLine
 62
7
  6
CONTINUOUS
 10
-2.3231424328
 20
-44.4081595179
 11
-2.358179308
 21
-43.9270822521
  0
LINE
  5
234
100
AcDbEntity
  8
0
100
AcDbLine
 62
7
  6
CONTINUOUS
 10
-1.8444234249
 20
-44.600423864
 11
-1.8794603001
 21
-44.1193465982
  0
LINE
  5
235
100
AcDbEntity
  8
0
100
AcDbLine
 62
7
  6
CONTINUOUS
 10
3.2841803393
 20
-46.427322711
 11
3.2493217343
 21
-45.9312605442
  0
LINE
  5
236
100
AcDbEntity
  8
RACCORDO
100
AcDbLine
 62
7
  6
CONTINUOUS
 10
-15.8795120214
 20
-38.1019408656
 11
-15.7771595264
 21
-39.5949996035
  0
LINE
  5
237
100
AcDbEntity
  8
RACCORDO
100
AcDbLine
 62
7
  6
CONTINUOUS
 10
-16.0097680709
 20
-37.9218034807
 11
-15.9069610125
 21
-39.4282179447
  0
LINE
  5
238
100
AcDbEntity
  8
0
100
AcDbLine
 62
7
  6
CONTINUOUS
 10
2.8898710779
 20
-45.4463088172
 11
2.9224342649
 21
-45.9237099022
  0
LINE
  5
239
100
AcDbEntity
  8
0
100
AcDbLine
 62
7
  6
CONTINUOUS
 10
-2.2758031993
 20
-43.349545178
 11
-2.2429460037
 21
-43.8326987191
  0
LINE
  5
23A
100
AcDbEntity
  8
0
100
AcDbLine
 62
7
  6
CONTINUOUS
 10
2.8071985451
 20
-46.0180956454
 11
2.7747016735
 21
-45.5406441528
  0
LINE
  5
23B
100
AcDbEntity
  8
0
100
AcDbLine
 62
7
  6
CONTINUOUS
 10
-2.358179308
 20
-43.9270822521
 11
-2.3909695895
 21
-43.4438779043
  0
LINE
  5
23C
100
AcDbEntity
  8
0
100
AcDbLine
 62
7
  6
CONTINUOUS
 10
-1.8794603001
 20
-44.1193465982
 11
-1.9122505816
 21
-43.6361422503
  0
LINE
  5
23D
100
AcDbEntity
  8
0
100
AcDbLine
 62
7
  6
CONTINUOUS
 10
3.2493217343
 20
-45.9312605442
 11
3.2426352278
 21
-45.8317760918
  0
LINE
  5
23E
100
AcDbEntity
  8
0
100
AcDbLine
 62
7
  6
CONTINUOUS
 10
2.882666525
 20
-45.334686863
 11
2.8898710779
 21
-45.4463088172
  0
LINE
  5
23F
100
AcDbEntity
  8
0
100
AcDbLine
 62
7
  6
CONTINUOUS
 10
-2.2821111283
 20
-43.2514415659
 11
-2.2758031993
 21
-43.349545178
  0
LINE
  5
240
100
AcDbEntity
  8
0
100
AcDbLine
 62
7
  6
CONTINUOUS
 10
2.7747016735
 20
-45.5406441528
 11
2.75927584
 21
-45.3011362598
  0
LINE
  5
241
100
AcDbEntity
  8
0
100
AcDbLine
 62
7
  6
CONTINUOUS
 10
-2.3909695895
 20
-43.4438779043
 11
-2.4065224732
 21
-43.201475165
  0
LINE
  5
242
100
AcDbEntity
  8
0
100
AcDbLine
 62
7
  6
CONTINUOUS
 10
-1.9122505816
 20
-43.6361422503
 11
-1.9278034653
 21
-43.3937395111
  0
LINE
  5
243
100
AcDbEntity
  8
RACCORDO
100
AcDbLine
 62
7
  6
CONTINUOUS
 10
-9.1287923283
 20
-36.8785782501
 11
-9.1309801514
 21
-36.8440042706
  0
LINE
  5
244
100
AcDbEntity
  8
RACCORDO
100
AcDbLine
 62
7
  6
CONTINUOUS
 10
-9.8078989679
 20
-36.9783921188
 11
-9.8114378695
 21
-36.9219094428
  0
LINE
  5
245
100
AcDbEntity
  8
RACCORDO
100
AcDbLine
 62
7
  6
CONTINUOUS
 10
-9.4540219891
 20
9.5078837512
 11
-9.4564126278
 21
9.5473707468
  0
LINE
  5
246
100
AcDbEntity
  8
RACCORDO
100
AcDbLine
 62
7
  6
CONTINUOUS
 10
-16.1513861148
 20
-34.9147718021
 11
-16.1516904589
 21
-34.9094821482
  0
LINE
  5
247
100
AcDbEntity
  8
RACCORDO
100
AcDbLine
 62
7
  6
CONTINUOUS
 10
-8.7077000688
 20
46.1269995059
 11
-8.7058007214
 21
46.0928605924
  0
LINE
  5
248
100
AcDbEntity
  8
RACCORDO
100
AcDbLine
 62
7
  6
CONTINUOUS
 10
-15.9617094177
 20
-36.5875777966
 11
-15.8795120214
 21
-38.1019408656
  0
LINE
  5
249
100
AcDbEntity
  8
RACCORDO
100
AcDbLine
 62
7
  6
CONTINUOUS
 10
-16.0920649915
 20
-36.3939931513
 11
-16.0097680709
 21
-37.9218034807
  0
LINE
  5
24A
100
AcDbEntity
  8
RACCORDO
100
AcDbLine
 62
7
  6
CONTINUOUS
 10
-8.163260848
 20
-36.1102179451
 11
-8.165437807
 21
-36.0678952199
  0
LINE
  5
24B
100
AcDbEntity
  8
RACCORDO
100
AcDbLine
 62
7
  6
CONTINUOUS
 10
-8.165437807
 20
10.6246694001
 11
-8.1632813857
 21
10.5819592092
  0
LINE
  5
24C
100
AcDbEntity
  8
RACCORDO
100
AcDbLine
 62
7
  6
CONTINUOUS
 10
-16.4527668412
 20
-16.679917069
 11
-16.453125
 21
-16.671511346
  0
LINE
  5
24D
100
AcDbEntity
  8
RACCORDO
100
AcDbLine
 62
7
  6
CONTINUOUS
 10
-16.4527668412
 20
30.0117494554
 11
-16.453125
 21
30.020155174
  0
LINE
  5
24E
100
AcDbEntity
  8
RACCORDO
100
AcDbLine
 62
7
  6
CONTINUOUS
 10
-16.0237165674
 20
-35.052490991
 11
-15.9617094177
 21
-36.5875777966
  0
LINE
  5
24F
100
AcDbEntity
  8
RACCORDO
100
AcDbLine
 62
7
  6
CONTINUOUS
 10
-16.1516904735
 20
-34.9094817139
 11
-16.0920649915
 21
-36.3939931513
  0
LINE
  5
250
100
AcDbEntity
  8
RACCORDO
100
AcDbLine
 62
7
  6
CONTINUOUS
 10
-9.8114378695
 20
-36.9219094428
 11
-9.8819829758
 21
-34.9230434022
  0
LINE
  5
251
100
AcDbEntity
  8
RACCORDO
100
AcDbLine
 62
7
  6
CONTINUOUS
 10
-9.1309804182
 20
-36.8440044844
 11
-9.2011330765
 21
-34.8469693088
  0
LINE
  5
252
100
AcDbEntity
  8
RACCORDO
100
AcDbLine
 62
7
  6
CONTINUOUS
 10
-16.0562807189
 20
-34.0543769161
 11
-16.0237166418
 21
-35.0524909611
  0
LINE
  5
253
100
AcDbEntity
  8
RACCORDO
100
AcDbLine
 62
7
  6
CONTINUOUS
 10
-16.2135983276
 20
-32.9569681137
 11
-16.1516904836
 21
-34.909482149
  0
LINE
  5
254
100
AcDbEntity
  8
RACCORDO
100
AcDbLine
 62
7
  6
CONTINUOUS
 10
-9.8819829758
 20
-34.9230434022
 11
-9.9434881558
 21
-32.9338379563
  0
LINE
  5
255
100
AcDbEntity
  8
RACCORDO
100
AcDbLine
 62
7
  6
CONTINUOUS
 10
-9.2011330765
 20
-34.8469693088
 11
-9.2626393076
 21
-32.8600419447
  0
LINE
  5
256
100
AcDbEntity
  8
RACCORDO
100
AcDbLine
 62
7
  6
CONTINUOUS
 10
-16.0869844171
 20
-33.0544457741
 11
-16.0562807189
 21
-34.0543769161
  0
LINE
  5
257
100
AcDbEntity
  8
RACCORDO
100
AcDbLine
 62
7
  6
CONTINUOUS
 10
-9.0739298605
 20
-0.7948949677
 11
-9.0729100441
 21
-0.8285694615
  0
LINE
  5
258
100
AcDbEntity
  8
RACCORDO
100
AcDbLine
 62
7
  6
CONTINUOUS
 10
-16.1513861401
 20
48.7998776215
 11
-16.1517095421
 21
48.8106132186
  0
LINE
  5
259
100
AcDbEntity
  8
RACCORDO
100
AcDbLine
 62
7
  6
CONTINUOUS
 10
-7.3192468669
 20
-35.3738380859
 11
-7.3179584282
 21
-35.417017878
  0
LINE
  5
25A
100
AcDbEntity
  8
RACCORDO
100
AcDbLine
 62
7
  6
CONTINUOUS
 10
-7.3192468669
 20
11.3178284386
 11
-7.3179584282
 21
11.2746486465
  0
LINE
  5
25B
100
AcDbEntity
  8
RACCORDO
100
AcDbLine
 62
7
  6
CONTINUOUS
 10
-16.1158276349
 20
-32.0527054772
 11
-16.0869844171
 21
-33.0544457741
  0
LINE
  5
25C
100
AcDbEntity
  8
RACCORDO
100
AcDbLine
 62
7
  6
CONTINUOUS
 10
-16.2699407032
 20
-30.9383509902
 11
-16.2135983276
 21
-32.9569681137
  0
LINE
  5
25D
100
AcDbEntity
  8
RACCORDO
100
AcDbLine
 62
7
  6
CONTINUOUS
 10
-10.1356886099
 20
9.4657881346
 11
-10.1373681129
 21
9.5276245769
  0
LINE
  5
25E
100
AcDbEntity
  8
RACCORDO
100
AcDbLine
 62
7
  6
CONTINUOUS
 10
-16.1428101833
 20
-31.0491677082
 11
-16.1158276349
 21
-32.0527054772
  0
LINE
  5
25F
100
AcDbEntity
  8
RACCORDO
100
AcDbLine
 62
7
  6
CONTINUOUS
 10
-9.2626393076
 20
-32.8600419447
 11
-9.3154991117
 21
-30.8832223923
  0
LINE
  5
260
100
AcDbEntity
  8
RACCORDO
100
AcDbLine
 62
7
  6
CONTINUOUS
 10
-9.9434881558
 20
-32.9338379563
 11
-9.9961468059
 21
-30.9545247899
  0
LINE
  5
261
100
AcDbEntity
  8
RACCORDO
100
AcDbLine
 62
7
  6
CONTINUOUS
 10
-14.8722540368
 20
64.1534443717
 11
-14.8725657935
 21
64.1658007282
  0
LINE
  5
262
100
AcDbEntity
  8
RACCORDO
100
AcDbLine
 62
7
  6
CONTINUOUS
 10
-16.1679321103
 20
-30.0438367188
 11
-16.1428101833
 21
-31.0491677082
  0
LINE
  5
263
100
AcDbEntity
  8
RACCORDO
100
AcDbLine
 62
7
  6
CONTINUOUS
 10
-16.3187418399
 20
-28.9123726522
 11
-16.2699407032
 21
-30.9383509902
  0
LINE
  5
264
100
AcDbEntity
  8
RACCORDO
100
AcDbLine
 62
7
  6
CONTINUOUS
 10
-16.1911936262
 20
-29.0367092642
 11
-16.1679321103
 21
-30.0438367188
  0
LINE
  5
265
100
AcDbEntity
  8
RACCORDO
100
AcDbLine
 62
7
  6
CONTINUOUS
 10
-9.9961468059
 20
-30.9545247899
 11
-10.0401361447
 21
-28.9853752516
  0
LINE
  5
266
100
AcDbEntity
  8
RACCORDO
100
AcDbLine
 62
7
  6
CONTINUOUS
 10
-9.3154991117
 20
-30.8832223923
 11
-9.3595090978
 21
-28.9163362303
  0
LINE
  5
267
100
AcDbEntity
  8
RACCORDO
100
AcDbLine
 62
7
  6
CONTINUOUS
 10
-16.21259459
 20
-28.0277947799
 11
-16.1911936262
 21
-29.0367092642
  0
LINE
  5
268
100
AcDbEntity
  8
RACCORDO
100
AcDbLine
 62
7
  6
CONTINUOUS
 10
-16.3600003637
 20
-26.8790960909
 11
-16.3187418399
 21
-28.9123726522
  0
LINE
  5
269
100
AcDbEntity
  8
RACCORDO
100
AcDbLine
 62
7
  6
CONTINUOUS
 10
-16.2321349525
 20
-27.0170997162
 11
-16.21259459
 21
-28.0277947799
  0
LINE
  5
26A
100
AcDbEntity
  8
RACCORDO
100
AcDbLine
 62
7
  6
CONTINUOUS
 10
-10.0401361447
 20
-28.9853752516
 11
-10.0756621257
 21
-27.0265690861
  0
LINE
  5
26B
100
AcDbEntity
  8
RACCORDO
100
AcDbLine
 62
7
  6
CONTINUOUS
 10
-9.3595090978
 20
-28.9163362303
 11
-9.3948726569
 21
-26.9595578798
  0
LINE
  5
26C
100
AcDbEntity
  8
RACCORDO
100
AcDbLine
 62
7
  6
CONTINUOUS
 10
-16.2498149242
 20
-26.0046162294
 11
-16.2321349525
 21
-27.0170997162
  0
LINE
  5
26D
100
AcDbEntity
  8
RACCORDO
100
AcDbLine
 62
7
  6
CONTINUOUS
 10
-16.3937151128
 20
-24.8385853318
 11
-16.3600003637
 21
-26.8790960909
  0
LINE
  5
26E
100
AcDbEntity
  8
RACCORDO
100
AcDbLine
 62
7
  6
CONTINUOUS
 10
-16.2656343464
 20
-24.9903522142
 11
-16.2498149242
 21
-26.0046162294
  0
LINE
  5
26F
100
AcDbEntity
  8
RACCORDO
100
AcDbLine
 62
7
  6
CONTINUOUS
 10
-10.0756621257
 20
-27.0265690861
 11
-10.102957956
 21
-25.0781932312
  0
LINE
  5
270
100
AcDbEntity
  8
RACCORDO
100
AcDbLine
 62
7
  6
CONTINUOUS
 10
-9.3948726569
 20
-26.9595578798
 11
-9.4221999612
 21
-25.013410605
  0
LINE
  5
271
100
AcDbEntity
  8
RACCORDO
100
AcDbLine
 62
7
  6
CONTINUOUS
 10
-16.2795930877
 20
-23.9743155736
 11
-16.2656343464
 21
-24.9903522142
  0
LINE
  5
272
100
AcDbEntity
  8
RACCORDO
100
AcDbLine
 62
7
  6
CONTINUOUS
 10
-16.4198851572
 20
-22.7909042962
 11
-16.3937151128
 21
-24.8385853318
  0
LINE
  5
273
100
AcDbEntity
  8
RACCORDO
100
AcDbLine
 62
7
  6
CONTINUOUS
 10
-16.2916912349
 20
-22.9564983361
 11
-16.2795930877
 21
-23.9743155736
  0
LINE
  5
274
100
AcDbEntity
  8
RACCORDO
100
AcDbLine
 62
7
  6
CONTINUOUS
 10
-16.3019285817
 20
-21.936908442
 11
-16.2916912349
 21
-22.9564983361
  0
LINE
  5
275
100
AcDbEntity
  8
RACCORDO
100
AcDbLine
 62
7
  6
CONTINUOUS
 10
-10.102957956
 20
-25.0781932312
 11
-10.1222248688
 21
-23.1404175621
  0
LINE
  5
276
100
AcDbEntity
  8
RACCORDO
100
AcDbLine
 62
7
  6
CONTINUOUS
 10
-9.4221999612
 20
-25.013410605
 11
-9.4416944016
 21
-23.078068827
  0
LINE
  5
277
100
AcDbEntity
  8
RACCORDO
100
AcDbLine
 62
7
  6
CONTINUOUS
 10
-16.4385097873
 20
-20.736117442
 11
-16.4198851572
 21
-22.7909042962
  0
LINE
  5
278
100
AcDbEntity
  8
RACCORDO
100
AcDbLine
 62
7
  6
CONTINUOUS
 10
-16.3103049507
 20
-20.9155536713
 11
-16.3019285817
 21
-21.936908442
  0
LINE
  5
279
100
AcDbEntity
  8
RACCORDO
100
AcDbLine
 62
7
  6
CONTINUOUS
 10
-8.7074097498
 20
-38.3826101548
 11
-8.7077000685
 21
-38.3470526722
  0
LINE
  5
27A
100
AcDbEntity
  8
RACCORDO
100
AcDbLine
 62
7
  6
CONTINUOUS
 10
-16.3168203069
 20
-19.892425674
 11
-16.3103049507
 21
-20.9155536713
  0
LINE
  5
27B
100
AcDbEntity
  8
RACCORDO
100
AcDbLine
 62
7
  6
CONTINUOUS
 10
-10.1222248688
 20
-23.1404175621
 11
-10.1336335665
 21
-21.2134961819
  0
LINE
  5
27C
100
AcDbEntity
  8
RACCORDO
100
AcDbLine
 62
7
  6
CONTINUOUS
 10
-9.4416944016
 20
-23.078068827
 11
-9.4531525871
 21
-21.1533581246
  0
LINE
  5
27D
100
AcDbEntity
  8
RACCORDO
100
AcDbLine
 62
7
  6
CONTINUOUS
 10
-16.4495885333
 20
-18.6742886273
 11
-16.4385097873
 21
-20.736117442
  0
LINE
  5
27E
100
AcDbEntity
  8
RACCORDO
100
AcDbLine
 62
7
  6
CONTINUOUS
 10
-16.3214744358
 20
-18.8675268463
 11
-16.3168203069
 21
-19.892425674
  0
LINE
  5
27F
100
AcDbEntity
  8
RACCORDO
100
AcDbLine
 62
7
  6
CONTINUOUS
 10
-16.3242670494
 20
-17.8408704202
 11
-16.3214744358
 21
-18.8675268463
  0
LINE
  5
280
100
AcDbEntity
  8
RACCORDO
100
AcDbLine
 62
7
  6
CONTINUOUS
 10
-10.1336335665
 20
-21.2134961819
 11
-10.1373681137
 21
-19.2976352823
  0
LINE
  5
281
100
AcDbEntity
  8
RACCORDO
100
AcDbLine
 62
7
  6
CONTINUOUS
 10
-16.4531249998
 20
-16.6715113404
 11
-16.4495885333
 21
-18.6742886273
  0
LINE
  5
282
100
AcDbEntity
  8
RACCORDO
100
AcDbLine
 62
7
  6
CONTINUOUS
 10
-9.4531525871
 20
-21.1533581246
 11
-9.4565745179
 21
-19.2392784977
  0
LINE
  5
283
100
AcDbEntity
  8
RACCORDO
100
AcDbLine
 62
7
  6
CONTINUOUS
 10
-16.453125
 20
30.0201551784
 11
-16.453125
 21
-16.671511346
  0
LINE
  5
284
100
AcDbEntity
  8
RACCORDO
100
AcDbLine
 62
7
  6
CONTINUOUS
 10
-16.3251979309
 20
29.8792002865
 11
-16.3242670494
 21
-17.8408704202
  0
LINE
  5
285
100
AcDbEntity
  8
RACCORDO
100
AcDbLine
 62
7
  6
CONTINUOUS
 10
-10.1373681129
 20
-19.2976352827
 11
-10.1373681129
 21
-1.4312324433
  0
LINE
  5
286
100
AcDbEntity
  8
RACCORDO
100
AcDbLine
 62
7
  6
CONTINUOUS
 10
-10.1373681129
 20
9.5276245769
 11
-10.1373681129
 21
27.3940273928
  0
LINE
  5
287
100
AcDbEntity
  8
RACCORDO
100
AcDbLine
 62
7
  6
CONTINUOUS
 10
-9.4564126278
 20
9.5473707468
 11
-9.4565745179
 21
27.4523880267
  0
LINE
  5
288
100
AcDbEntity
  8
RACCORDO
100
AcDbLine
 62
7
  6
CONTINUOUS
 10
-9.4565745179
 20
-19.2392784977
 11
-9.4564193601
 21
-1.3366556694
  0
LINE
  5
289
100
AcDbEntity
  8
RACCORDO
100
AcDbLine
 62
7
  6
CONTINUOUS
 10
-8.165437807
 20
45.7334778514
 11
-8.165437807
 21
10.6246694001
  0
LINE
  5
28A
100
AcDbEntity
  8
RACCORDO
100
AcDbLine
 62
7
  6
CONTINUOUS
 10
-8.165437807
 20
-1.348480395
 11
-8.165437807
 21
-36.0669971243
  0
LINE
  5
28B
100
AcDbEntity
  8
RACCORDO
100
AcDbLine
 62
7
  6
CONTINUOUS
 10
-7.3192468669
 20
45.393628493
 11
-7.3192468669
 21
11.3178284386
  0
LINE
  5
28C
100
AcDbEntity
  8
RACCORDO
100
AcDbLine
 62
7
  6
CONTINUOUS
 10
-7.3192468669
 20
-1.6883297534
 11
-7.3192468669
 21
-35.3738380859
  0
LINE
  5
28D
100
AcDbEntity
  8
RACCORDO
100
AcDbLine
 62
7
  6
CONTINUOUS
 10
-16.3242670494
 20
30.9093153488
 11
-16.3251979307
 21
29.8792002864
  0
LINE
  5
28E
100
AcDbEntity
  8
RACCORDO
100
AcDbLine
 62
7
  6
CONTINUOUS
 10
-16.4495691953
 20
32.0349162474
 11
-16.4531249998
 21
30.020155174
  0
LINE
  5
28F
100
AcDbEntity
  8
RACCORDO
100
AcDbLine
 62
7
  6
CONTINUOUS
 10
-10.1373681137
 20
27.3940273932
 11
-10.1336172519
 21
29.3192633141
  0
LINE
  5
290
100
AcDbEntity
  8
RACCORDO
100
AcDbLine
 62
7
  6
CONTINUOUS
 10
-9.4565745179
 20
27.4523880267
 11
-9.4531188464
 21
29.3753408263
  0
LINE
  5
291
100
AcDbEntity
  8
RACCORDO
100
AcDbLine
 62
7
  6
CONTINUOUS
 10
-16.3214744358
 20
31.9410981226
 11
-16.3242670494
 21
30.9093153488
  0
LINE
  5
292
100
AcDbEntity
  8
RACCORDO
100
AcDbLine
 62
7
  6
CONTINUOUS
 10
-16.3168203069
 20
32.9745404073
 11
-16.3214744358
 21
31.9410981226
  0
LINE
  5
293
100
AcDbEntity
  8
RACCORDO
100
AcDbLine
 62
7
  6
CONTINUOUS
 10
-16.4384705317
 20
34.1170869693
 11
-16.4495691953
 21
32.0349162474
  0
LINE
  5
294
100
AcDbEntity
  8
RACCORDO
100
AcDbLine
 62
7
  6
CONTINUOUS
 10
-10.1336172519
 20
29.3192633141
 11
-10.1221710667
 21
31.2658259961
  0
LINE
  5
295
100
AcDbEntity
  8
RACCORDO
100
AcDbLine
 62
7
  6
CONTINUOUS
 10
-9.4531188464
 20
29.3753408263
 11
-9.4416266373
 21
31.3197681895
  0
LINE
  5
296
100
AcDbEntity
  8
RACCORDO
100
AcDbLine
 62
7
  6
CONTINUOUS
 10
-16.3103049507
 20
34.0096285304
 11
-16.3168203069
 21
32.9745404073
  0
LINE
  5
297
100
AcDbEntity
  8
RACCORDO
100
AcDbLine
 62
7
  6
CONTINUOUS
 10
-8.7074097498
 20
46.1630326068
 11
-8.7077000688
 21
46.1269995059
  0
LINE
  5
298
100
AcDbEntity
  8
RACCORDO
100
AcDbLine
 62
7
  6
CONTINUOUS
 10
-16.3019285817
 20
35.0463597131
 11
-16.3103049507
 21
34.0096285304
  0
LINE
  5
299
100
AcDbEntity
  8
RACCORDO
100
AcDbLine
 62
7
  6
CONTINUOUS
 10
-16.4198262359
 20
36.2060405307
 11
-16.4384705317
 21
34.1170869693
  0
LINE
  5
29A
100
AcDbEntity
  8
RACCORDO
100
AcDbLine
 62
7
  6
CONTINUOUS
 10
-10.1221710667
 20
31.2658259961
 11
-10.1028557928
 21
33.2338022389
  0
LINE
  5
29B
100
AcDbEntity
  8
RACCORDO
100
AcDbLine
 62
7
  6
CONTINUOUS
 10
-16.2916912349
 20
36.0847421558
 11
-16.3019285817
 21
35.0463597131
  0
LINE
  5
29C
100
AcDbEntity
  8
RACCORDO
100
AcDbLine
 62
7
  6
CONTINUOUS
 10
-9.4416266373
 20
31.3197681895
 11
-9.4220978906
 21
33.2856701161
  0
LINE
  5
29D
100
AcDbEntity
  8
RACCORDO
100
AcDbLine
 62
7
  6
CONTINUOUS
 10
-16.2795930877
 20
37.1247677738
 11
-16.2916912349
 21
36.0847421558
  0
LINE
  5
29E
100
AcDbEntity
  8
RACCORDO
100
AcDbLine
 62
7
  6
CONTINUOUS
 10
-16.3936370016
 20
38.3017120082
 11
-16.4198262359
 21
36.2060405307
  0
LINE
  5
29F
100
AcDbEntity
  8
RACCORDO
100
AcDbLine
 62
7
  6
CONTINUOUS
 10
-16.2656343464
 20
38.1664283029
 11
-16.2795930877
 21
37.1247677738
  0
LINE
  5
2A0
100
AcDbEntity
  8
RACCORDO
100
AcDbLine
 62
7
  6
CONTINUOUS
 10
-10.1028557928
 20
33.2338022389
 11
-10.075510397
 21
35.2232431993
  0
LINE
  5
2A1
100
AcDbEntity
  8
RACCORDO
100
AcDbLine
 62
7
  6
CONTINUOUS
 10
-9.4220978906
 20
33.2856701161
 11
-9.3947243531
 21
35.2729312638
  0
LINE
  5
2A2
100
AcDbEntity
  8
RACCORDO
100
AcDbLine
 62
7
  6
CONTINUOUS
 10
-16.2498149242
 20
39.2097318073
 11
-16.2656343464
 21
38.1664283029
  0
LINE
  5
2A3
100
AcDbEntity
  8
RACCORDO
100
AcDbLine
 62
7
  6
CONTINUOUS
 10
-16.3599037624
 20
40.404035416
 11
-16.3936370016
 21
38.3017120082
  0
LINE
  5
2A4
100
AcDbEntity
  8
RACCORDO
100
AcDbLine
 62
7
  6
CONTINUOUS
 10
-16.2321349525
 20
40.2546701548
 11
-16.2498149242
 21
39.2097318073
  0
LINE
  5
2A5
100
AcDbEntity
  8
RACCORDO
100
AcDbLine
 62
7
  6
CONTINUOUS
 10
-9.3947243531
 20
35.2729312638
 11
-9.359314278
 21
37.281666975
  0
LINE
  5
2A6
100
AcDbEntity
  8
RACCORDO
100
AcDbLine
 62
7
  6
CONTINUOUS
 10
-10.075510397
 20
35.2232431993
 11
-10.039945106
 21
37.2342660009
  0
LINE
  5
2A7
100
AcDbEntity
  8
RACCORDO
100
AcDbLine
 62
7
  6
CONTINUOUS
 10
-16.21259459
 20
41.301235205
 11
-16.2321349525
 21
40.2546701548
  0
LINE
  5
2A8
100
AcDbEntity
  8
RACCORDO
100
AcDbLine
 62
7
  6
CONTINUOUS
 10
-16.3186276738
 20
42.5129448722
 11
-16.3599037624
 21
40.404035416
  0
LINE
  5
2A9
100
AcDbEntity
  8
RACCORDO
100
AcDbLine
 62
7
  6
CONTINUOUS
 10
-16.1911936262
 20
42.3494351397
 11
-16.21259459
 21
41.301235205
  0
LINE
  5
2AA
100
AcDbEntity
  8
RACCORDO
100
AcDbLine
 62
7
  6
CONTINUOUS
 10
-10.039945106
 20
37.2342660009
 11
-9.9959399583
 21
39.2670548185
  0
LINE
  5
2AB
100
AcDbEntity
  8
RACCORDO
100
AcDbLine
 62
7
  6
CONTINUOUS
 10
-9.359314278
 20
37.281666975
 11
-9.3152924255
 21
39.3122232769
  0
LINE
  5
2AC
100
AcDbEntity
  8
RACCORDO
100
AcDbLine
 62
7
  6
CONTINUOUS
 10
-16.1679321105
 20
43.3992634149
 11
-16.1911936262
 21
42.3494351397
  0
LINE
  5
2AD
100
AcDbEntity
  8
RACCORDO
100
AcDbLine
 62
7
  6
CONTINUOUS
 10
-16.2698101226
 20
44.6283739867
 11
-16.3186276738
 21
42.5129448722
  0
LINE
  5
2AE
100
AcDbEntity
  8
RACCORDO
100
AcDbLine
 62
7
  6
CONTINUOUS
 10
-16.1428101837
 20
44.4507103774
 11
-16.1679321105
 21
43.3992634149
  0
LINE
  5
2AF
100
AcDbEntity
  8
RACCORDO
100
AcDbLine
 62
7
  6
CONTINUOUS
 10
-16.1158276349
 20
45.5037796495
 11
-16.1428101837
 21
44.4507103774
  0
LINE
  5
2B0
100
AcDbEntity
  8
RACCORDO
100
AcDbLine
 62
7
  6
CONTINUOUS
 10
-9.9959399583
 20
39.2670548185
 11
-9.9433008046
 21
41.3217247025
  0
LINE
  5
2B1
100
AcDbEntity
  8
RACCORDO
100
AcDbLine
 62
7
  6
CONTINUOUS
 10
-9.3152924255
 20
39.3122232769
 11
-9.2624670488
 21
41.3647155118
  0
LINE
  5
2B2
100
AcDbEntity
  8
RACCORDO
100
AcDbLine
 62
7
  6
CONTINUOUS
 10
-16.2134527079
 20
46.7502570392
 11
-16.2698101226
 21
44.6283739867
  0
LINE
  5
2B3
100
AcDbEntity
  8
RACCORDO
100
AcDbLine
 62
7
  6
CONTINUOUS
 10
-16.0869844158
 20
46.5584670692
 11
-16.1158276349
 21
45.5037796495
  0
LINE
  5
2B4
100
AcDbEntity
  8
RACCORDO
100
AcDbLine
 62
7
  6
CONTINUOUS
 10
-10.1373681129
 20
-1.4312324433
 11
-10.1357165862
 21
-1.3711619465
  0
LINE
  5
2B5
100
AcDbEntity
  8
RACCORDO
100
AcDbLine
 62
7
  6
CONTINUOUS
 10
-9.0739298605
 20
8.0370855478
 11
-9.072910022
 21
8.0724312045
  0
LINE
  5
2B6
100
AcDbEntity
  8
RACCORDO
100
AcDbLine
 62
7
  6
CONTINUOUS
 10
-16.0562807153
 20
47.6147606331
 11
-16.0869844158
 21
46.5584670692
  0
LINE
  5
2B7
100
AcDbEntity
  8
RACCORDO
100
AcDbLine
 62
7
  6
CONTINUOUS
 10
-9.9433008046
 20
41.3217247025
 11
-9.8818607922
 21
43.3983203595
  0
LINE
  5
2B8
100
AcDbEntity
  8
RACCORDO
100
AcDbLine
 62
7
  6
CONTINUOUS
 10
-9.2624670488
 20
41.3647155118
 11
-9.2010298947
 21
43.4390283374
  0
LINE
  5
2B9
100
AcDbEntity
  8
RACCORDO
100
AcDbLine
 62
7
  6
CONTINUOUS
 10
-16.151709537
 20
48.8106133787
 11
-16.2134527079
 21
46.7502570392
  0
LINE
  5
2BA
100
AcDbEntity
  8
RACCORDO
100
AcDbLine
 62
7
  6
CONTINUOUS
 10
-16.0237166351
 20
48.6726522329
 11
-16.0562807153
 21
47.6147606331
  0
LINE
  5
2BB
100
AcDbEntity
  8
RACCORDO
100
AcDbLine
 62
7
  6
CONTINUOUS
 10
-9.8818607922
 20
43.3983203595
 11
-9.8114378695
 21
45.4969185636
  0
LINE
  5
2BC
100
AcDbEntity
  8
RACCORDO
100
AcDbLine
 62
7
  6
CONTINUOUS
 10
-9.2010298947
 20
43.4390283374
 11
-9.1309809631
 21
45.5351617537
  0
LINE
  5
2BD
100
AcDbEntity
  8
RACCORDO
100
AcDbLine
 62
7
  6
CONTINUOUS
 10
-16.0918580495
 20
50.4097227343
 11
-16.1517095189
 21
48.8106132179
  0
LINE
  5
2BE
100
AcDbEntity
  8
RACCORDO
100
AcDbLine
 62
7
  6
CONTINUOUS
 10
-15.9617094082
 20
50.3215478815
 11
-16.023716561
 21
48.6726522032
  0
LINE
  5
2BF
100
AcDbEntity
  8
RACCORDO
100
AcDbLine
 62
7
  6
CONTINUOUS
 10
-16.0095330228
 20
52.0877379772
 11
-16.0918580495
 21
50.4097227343
  0
LINE
  5
2C0
100
AcDbEntity
  8
RACCORDO
100
AcDbLine
 62
7
  6
CONTINUOUS
 10
-15.8795120015
 20
51.9867562222
 11
-15.9617094082
 21
50.3215478815
  0
LINE
  5
2C1
100
AcDbEntity
  8
RACCORDO
100
AcDbLine
 62
7
  6
CONTINUOUS
 10
-9.8114378695
 20
45.4969185636
 11
-9.8079666357
 21
45.5548165957
  0
LINE
  5
2C2
100
AcDbEntity
  8
RACCORDO
100
AcDbLine
 62
7
  6
CONTINUOUS
 10
-15.9067299271
 20
53.7816276895
 11
-16.0095330228
 21
52.0877379772
  0
LINE
  5
2C3
100
AcDbEntity
  8
RACCORDO
100
AcDbLine
 62
7
  6
CONTINUOUS
 10
-15.7771594821
 20
53.6676390529
 11
-15.8795120015
 21
51.9867562222
  0
LINE
  5
2C4
100
AcDbEntity
  8
RACCORDO
100
AcDbLine
 62
7
  6
CONTINUOUS
 10
-15.7834914641
 20
55.4906472625
 11
-15.9067299271
 21
53.7816276895
  0
LINE
  5
2C5
100
AcDbEntity
  8
RACCORDO
100
AcDbLine
 62
7
  6
CONTINUOUS
 10
-15.6547009916
 20
55.3635381857
 11
-15.7771594821
 21
53.6676390529
  0
LINE
  5
2C6
100
AcDbEntity
  8
RACCORDO
100
AcDbLine
 62
7
  6
CONTINUOUS
 10
-15.6398694771
 20
57.2141634462
 11
-15.7834914641
 21
55.4906472625
  0
LINE
  5
2C7
100
AcDbEntity
  8
RACCORDO
100
AcDbLine
 62
7
  6
CONTINUOUS
 10
-15.5121830981
 20
57.0738183378
 11
-15.6547009916
 21
55.3635381857
  0
LINE
  5
2C8
100
AcDbEntity
  8
RACCORDO
100
AcDbLine
 62
7
  6
CONTINUOUS
 10
-15.4759157623
 20
58.9515896775
 11
-15.6398694771
 21
57.2141634462
  0
LINE
  5
2C9
100
AcDbEntity
  8
RACCORDO
100
AcDbLine
 62
7
  6
CONTINUOUS
 10
-15.3496477309
 20
58.7978686491
 11
-15.5121830981
 21
57.0738183378
  0
LINE
  5
2CA
100
AcDbEntity
  8
RACCORDO
100
AcDbLine
 62
7
  6
CONTINUOUS
 10
-15.1671551975
 20
60.5350453325
 11
-15.3496477309
 21
58.7978686491
  0
LINE
  5
2CB
100
AcDbEntity
  8
RACCORDO
100
AcDbLine
 62
7
  6
CONTINUOUS
 10
-15.2916890261
 20
60.7022921063
 11
-15.4759157623
 21
58.9515896775
  0
LINE
  5
2CC
100
AcDbEntity
  8
RACCORDO
100
AcDbLine
 62
7
  6
CONTINUOUS
 10
-14.8725657935
 20
64.1658007282
 11
-14.872392521
 21
64.1673004595
  0
LINE
  5
2CD
100
AcDbEntity
  8
RACCORDO
100
AcDbLine
 62
7
  6
CONTINUOUS
 10
-14.9647862031
 20
62.2846706588
 11
-15.1671551975
 21
60.5350453325
  0
LINE
  5
2CE
100
AcDbEntity
  8
RACCORDO
100
AcDbLine
 62
7
  6
CONTINUOUS
 10
-15.087277928
 20
62.465498941
 11
-15.2916890261
 21
60.7022921063
  0
LINE
  5
2CF
100
AcDbEntity
  8
RACCORDO
100
AcDbLine
 62
7
  6
CONTINUOUS
 10
-14.7426238348
 20
64.0460767701
 11
-14.9647862031
 21
62.2846706588
  0
LINE
  5
2D0
100
AcDbEntity
  8
RACCORDO
100
AcDbLine
 62
7
  6
CONTINUOUS
 10
-14.872392521
 20
64.1673004595
 11
-15.087277928
 21
62.465498941
  0
LINE
  5
2D1
100
AcDbEntity
  8
RACCORDO
100
AcDbLine
 62
7
  6
CONTINUOUS
 10
-14.8650255512
 20
64.2147680293
 11
-14.8723868562
 21
64.1673067912
  0
LINE
  5
2D2
100
AcDbEntity
  8
RACCORDO
100
AcDbLine
 62
7
  6
CONTINUOUS
 10
-14.7364701493
 20
64.0847709708
 11
-14.7426238348
 21
64.0460767701
  0
LINE
  5
2D3
100
AcDbEntity
  8
RACCORDO
100
AcDbLine
 62
7
  6
CONTINUOUS
 10
17.0907819161
 20
-61.2766838001
 11
17.1171835546
 21
-61.274706219
  0
LINE
  5
2D4
100
AcDbEntity
  8
RACCORDO
100
AcDbLine
 62
7
  6
CONTINUOUS
 10
17.4572209284
 20
-60.9733198528
 11
17.487283864
 21
-60.9712802615
  0
LINE
  5
2D5
100
AcDbEntity
  8
RACCORDO
100
AcDbLine
 62
7
  6
CONTINUOUS
 10
17.2626112185
 20
-61.3828125
 11
17.3110218906
 21
-61.3797280138
  0
LINE
  5
2D6
100
AcDbEntity
  8
RACCORDO
100
AcDbLine
 62
7
  6
CONTINUOUS
 10
17.0631507745
 20
-61.2768095713
 11
17.0907819161
 21
-61.2766838001
  0
LINE
  5
2D7
100
AcDbEntity
  8
RACCORDO
100
AcDbLine
 62
7
  6
CONTINUOUS
 10
17.4274412001
 20
-60.973153744
 11
17.4572209284
 21
-60.9733198528
  0
LINE
  5
2D8
100
AcDbEntity
  8
RACCORDO
100
AcDbLine
 62
7
  6
CONTINUOUS
 10
17.2129430349
 20
-61.3824470484
 11
17.2626112185
 21
-61.3828125
  0
LINE
  5
2D9
100
AcDbEntity
  8
0
100
AcDbLine
 62
7
  6
CONTINUOUS
 10
3.7464756991
 20
-46.5795558581
 11
3.7290252764
 21
-46.5791714085
  0
LINE
  5
2DA
100
AcDbEntity
  8
RACCORDO
100
AcDbLine
 62
7
  6
CONTINUOUS
 10
17.0346029571
 20
-61.2751038165
 11
17.0631507745
 21
-61.2768095713
  0
LINE
  5
2DB
100
AcDbEntity
  8
0
100
AcDbLine
 62
7
  6
CONTINUOUS
 10
4.0786221275
 20
-46.9166227217
 11
4.0895913903
 21
-46.9173482089
  0
LINE
  5
2DC
100
AcDbEntity
  8
RACCORDO
100
AcDbLine
 62
7
  6
CONTINUOUS
 10
8.9177946134
 20
-45.3955314646
 11
8.8573524719
 21
-45.3913223185
  0
LINE
  5
2DD
100
AcDbEntity
  8
RACCORDO
100
AcDbLine
 62
7
  6
CONTINUOUS
 10
17.1620918888
 20
-61.3786346861
 11
17.2129430349
 21
-61.3824470484
  0
LINE
  5
2DE
100
AcDbEntity
  8
0
100
AcDbLine
 62
7
  6
CONTINUOUS
 10
3.7290252764
 20
-46.5791714085
 11
3.7111411519
 21
-46.5777378623
  0
LINE
  5
2DF
100
AcDbEntity
  8
RACCORDO
100
AcDbLine
 62
7
  6
CONTINUOUS
 10
17.3982501181
 20
-60.9707836387
 11
17.4274412001
 21
-60.973153744
  0
LINE
  5
2E0
100
AcDbEntity
  8
RACCORDO
100
AcDbLine
 62
7
  6
CONTINUOUS
 10
9.0401786325
 20
-44.7142215697
 11
9.0037681709
 21
-44.7107820962
  0
LINE
  5
2E1
100
AcDbEntity
  8
0
100
AcDbLine
 62
7
  6
CONTINUOUS
 10
4.1912629188
 20
-46.8221582656
 11
4.1999515684
 21
-46.8231165186
  0
LINE
  5
2E2
100
AcDbEntity
  8
RACCORDO
100
AcDbLine
 62
7
  6
CONTINUOUS
 10
-9.6596943538
 20
-36.9616827063
 11
-9.6186621535
 21
-36.9665350652
  0
LINE
  5
2E3
100
AcDbEntity
  8
RACCORDO
100
AcDbLine
 62
7
  6
CONTINUOUS
 10
17.0051540955
 20
-61.2715531196
 11
17.0346029571
 21
-61.2751038165
  0
LINE
  5
2E4
100
AcDbEntity
  8
RACCORDO
100
AcDbLine
 62
7
  6
CONTINUOUS
 10
8.8573524719
 20
-45.3913223185
 11
8.7954663169
 21
-45.3829882549
  0
LINE
  5
2E5
100
AcDbEntity
  8
0
100
AcDbLine
 62
7
  6
CONTINUOUS
 10
3.7111411519
 20
-46.5777378623
 11
3.6927755771
 21
-46.5752483639
  0
LINE
  5
2E6
100
AcDbEntity
  8
RACCORDO
100
AcDbLine
 62
7
  6
CONTINUOUS
 10
17.1101043284
 20
-61.3713580161
 11
17.1620918888
 21
-61.3786346861
  0
LINE
  5
2E7
100
AcDbEntity
  8
RACCORDO
100
AcDbLine
 62
7
  6
CONTINUOUS
 10
17.3699470841
 20
-60.9662338462
 11
17.3982501181
 21
-60.9707836387
  0
LINE
  5
2E8
100
AcDbEntity
  8
RACCORDO
100
AcDbLine
 62
7
  6
CONTINUOUS
 10
9.0037681709
 20
-44.7107820962
 11
8.9666318056
 21
-44.704804791
  0
LINE
  5
2E9
100
AcDbEntity
  8
0
100
AcDbLine
 62
7
  6
CONTINUOUS
 10
4.0671719451
 20
-46.9147608633
 11
4.0786221275
 21
-46.9166227217
  0
LINE
  5
2EA
100
AcDbEntity
  8
RACCORDO
100
AcDbLine
 62
7
  6
CONTINUOUS
 10
-9.6997684373
 20
-36.954737343
 11
-9.6596943538
 21
-36.9616827063
  0
LINE
  5
2EB
100
AcDbEntity
  8
RACCORDO
100
AcDbLine
 62
7
  6
CONTINUOUS
 10
16.9747874529
 20
-61.2661721768
 11
17.0051540955
 21
-61.2715531196
  0
LINE
  5
2EC
100
AcDbEntity
  8
0
100
AcDbLine
 62
7
  6
CONTINUOUS
 10
3.6927755771
 20
-46.5752483639
 11
3.6741162496
 21
-46.5719434304
  0
LINE
  5
2ED
100
AcDbEntity
  8
RACCORDO
100
AcDbLine
 62
7
  6
CONTINUOUS
 10
8.7954663169
 20
-45.3829882549
 11
8.733047369
 21
-45.3707611633
  0
LINE
  5
2EE
100
AcDbEntity
  8
RACCORDO
100
AcDbLine
 62
7
  6
CONTINUOUS
 10
17.057028173
 20
-61.3605871609
 11
17.1101043284
 21
-61.3713580161
  0
LINE
  5
2EF
100
AcDbEntity
  8
0
100
AcDbLine
 62
7
  6
CONTINUOUS
 10
4.182466446
 20
-46.8203171372
 11
4.1912629188
 21
-46.8221582656
  0
LINE
  5
2F0
100
AcDbEntity
  8
0
100
AcDbLine
 62
7
  6
CONTINUOUS
 10
3.6741162496
 20
-46.5719434304
 11
3.6551738298
 21
-46.5678393623
  0
LINE
  5
2F1
100
AcDbEntity
  8
RACCORDO
100
AcDbLine
 62
7
  6
CONTINUOUS
 10
8.9666318056
 20
-44.704804791
 11
8.9290114855
 21
-44.69637414
  0
LINE
  5
2F2
100
AcDbEntity
  8
RACCORDO
100
AcDbLine
 62
7
  6
CONTINUOUS
 10
16.9437673748
 20
-61.2590233585
 11
16.9747874529
 21
-61.2661721768
  0
LINE
  5
2F3
100
AcDbEntity
  8
RACCORDO
100
AcDbLine
 62
7
  6
CONTINUOUS
 10
-9.7385993747
 20
-36.9457483747
 11
-9.6997684373
 21
-36.954737343
  0
LINE
  5
2F4
100
AcDbEntity
  8
RACCORDO
100
AcDbLine
 62
7
  6
CONTINUOUS
 10
17.3428223914
 20
-60.959551032
 11
17.3699470841
 21
-60.9662338462
  0
LINE
  5
2F5
100
AcDbEntity
  8
0
100
AcDbLine
 62
7
  6
CONTINUOUS
 10
3.3578184882
 20
-45.7374234886
 11
3.3999599727
 21
-45.74783359
  0
LINE
  5
2F6
100
AcDbEntity
  8
0
100
AcDbLine
 62
7
  6
CONTINUOUS
 10
3.2426352278
 20
-45.8317760918
 11
3.2852232777
 21
-45.8423029414
  0
LINE
  5
2F7
100
AcDbEntity
  8
0
100
AcDbLine
 62
7
  6
CONTINUOUS
 10
3.6551738298
 20
-46.5678393623
 11
3.6359374928
 21
-46.5629200169
  0
LINE
  5
2F8
100
AcDbEntity
  8
RACCORDO
100
AcDbLine
 62
7
  6
CONTINUOUS
 10
8.733047369
 20
-45.3707611633
 11
8.670398576
 21
-45.3547190516
  0
LINE
  5
2F9
100
AcDbEntity
  8
RACCORDO
100
AcDbLine
 62
7
  6
CONTINUOUS
 10
17.0029265922
 20
-61.3462997939
 11
17.057028173
 21
-61.3605871609
  0
LINE
  5
2FA
100
AcDbEntity
  8
0
100
AcDbLine
 62
7
  6
CONTINUOUS
 10
2.8078268493
 20
-45.3140231286
 11
2.75927584
 21
-45.3011362598
  0
LINE
  5
2FB
100
AcDbEntity
  8
0
100
AcDbLine
 62
7
  6
CONTINUOUS
 10
2.8563731659
 20
-45.3272922868
 11
2.8078268493
 21
-45.3140231286
  0
LINE
  5
2FC
100
AcDbEntity
  8
0
100
AcDbLine
 62
7
  6
CONTINUOUS
 10
3.3999599727
 20
-45.74783359
 11
3.4419130475
 21
-45.7594498924
  0
LINE
  5
2FD
100
AcDbEntity
  8
0
100
AcDbLine
 62
7
  6
CONTINUOUS
 10
3.2852232777
 20
-45.8423029414
 11
3.3276081854
 21
-45.854057193
  0
LINE
  5
2FE
100
AcDbEntity
  8
0
100
AcDbLine
 62
7
  6
CONTINUOUS
 10
2.9049147175
 20
-45.3409438024
 11
2.8563731659
 21
-45.3272922868
  0
LINE
  5
2FF
100
AcDbEntity
  8
RACCORDO
100
AcDbLine
 62
7
  6
CONTINUOUS
 10
16.9121817803
 20
-61.250127682
 11
16.9437673748
 21
-61.2590233585
  0
LINE
  5
300
100
AcDbEntity
  8
RACCORDO
100
AcDbLine
 62
7
  6
CONTINUOUS
 10
8.9290114855
 20
-44.69637414
 11
8.8910925042
 21
-44.685569791
  0
LINE
  5
301
100
AcDbEntity
  8
0
100
AcDbLine
 62
7
  6
CONTINUOUS
 10
3.6359374928
 20
-46.5629200169
 11
3.6165627676
 21
-46.5573771899
  0
LINE
  5
302
100
AcDbEntity
  8
0
100
AcDbLine
 62
7
  6
CONTINUOUS
 10
2.9534184357
 20
-45.3549250692
 11
2.9049147175
 21
-45.3409438024
  0
LINE
  5
303
100
AcDbEntity
  8
RACCORDO
100
AcDbLine
 62
7
  6
CONTINUOUS
 10
-9.7759109788
 20
-36.934779736
 11
-9.7385993747
 21
-36.9457483747
  0
LINE
  5
304
100
AcDbEntity
  8
0
100
AcDbLine
 62
7
  6
CONTINUOUS
 10
3.0019172618
 20
-45.369288813
 11
2.9534184357
 21
-45.3549250692
  0
LINE
  5
305
100
AcDbEntity
  8
0
100
AcDbLine
 62
7
  6
CONTINUOUS
 10
3.0505101271
 20
-45.3841931115
 11
3.0019172618
 21
-45.369288813
  0
LINE
  5
306
100
AcDbEntity
  8
0
100
AcDbLine
 62
7
  6
CONTINUOUS
 10
3.4419130475
 20
-45.7594498924
 11
3.4836775084
 21
-45.7722725899
  0
LINE
  5
307
100
AcDbEntity
  8
0
100
AcDbLine
 62
7
  6
CONTINUOUS
 10
3.3276081854
 20
-45.854057193
 11
3.369789741
 21
-45.8670390457
  0
LINE
  5
308
100
AcDbEntity
  8
0
100
AcDbLine
 62
7
  6
CONTINUOUS
 10
3.6165627676
 20
-46.5573771899
 11
3.5971014791
 21
-46.551274831
  0
LINE
  5
309
100
AcDbEntity
  8
RACCORDO
100
AcDbLine
 62
7
  6
CONTINUOUS
 10
8.670398576
 20
-45.3547190516
 11
8.6072146843
 21
-45.3347859818
  0
LINE
  5
30A
100
AcDbEntity
  8
0
100
AcDbLine
 62
7
  6
CONTINUOUS
 10
3.0992065672
 20
-45.3996369897
 11
3.0505101271
 21
-45.3841931115
  0
LINE
  5
30B
100
AcDbEntity
  8
RACCORDO
100
AcDbLine
 62
7
  6
CONTINUOUS
 10
16.9478684166
 20
-61.3284535633
 11
17.0029265922
 21
-61.3462997939
  0
LINE
  5
30C
100
AcDbEntity
  8
0
100
AcDbLine
 62
7
  6
CONTINUOUS
 10
3.1479969147
 20
-45.4156215466
 11
3.0992065672
 21
-45.3996369897
  0
LINE
  5
30D
100
AcDbEntity
  8
RACCORDO
100
AcDbLine
 62
7
  6
CONTINUOUS
 10
16.8799421763
 20
-61.2394647953
 11
16.9121817803
 21
-61.250127682
  0
LINE
  5
30E
100
AcDbEntity
  8
0
100
AcDbLine
 62
7
  6
CONTINUOUS
 10
3.4836775084
 20
-45.7722725899
 11
3.5251902875
 21
-45.7862760047
  0
LINE
  5
30F
100
AcDbEntity
  8
0
100
AcDbLine
 62
7
  6
CONTINUOUS
 10
3.369789741
 20
-45.8670390457
 11
3.4118340126
 21
-45.8812900685
  0
LINE
  5
310
100
AcDbEntity
  8
RACCORDO
100
AcDbLine
 62
7
  6
CONTINUOUS
 10
17.3171542475
 20
-60.9508037392
 11
17.3428223914
 21
-60.959551032
  0
LINE
  5
311
100
AcDbEntity
  8
0
100
AcDbLine
 62
7
  6
CONTINUOUS
 10
3.1969512743
 20
-45.4323079906
 11
3.1479969147
 21
-45.4156215466
  0
LINE
  5
312
100
AcDbEntity
  8
0
100
AcDbLine
 62
7
  6
CONTINUOUS
 10
3.5971014791
 20
-46.551274831
 11
3.5775017348
 21
-46.5445490553
  0
LINE
  5
313
100
AcDbEntity
  8
RACCORDO
100
AcDbLine
 62
7
  6
CONTINUOUS
 10
8.8910925042
 20
-44.685569791
 11
8.8529948552
 21
-44.6724393465
  0
LINE
  5
314
100
AcDbEntity
  8
0
100
AcDbLine
 62
7
  6
CONTINUOUS
 10
3.2460785262
 20
-45.4496945945
 11
3.1969512743
 21
-45.4323079906
  0
LINE
  5
315
100
AcDbEntity
  8
RACCORDO
100
AcDbLine
 62
7
  6
CONTINUOUS
 10
-9.8114378685
 20
-36.9219094419
 11
-9.7759109788
 21
-36.934779736
  0
LINE
  5
316
100
AcDbEntity
  8
RACCORDO
100
AcDbLine
 62
7
  6
CONTINUOUS
 10
9.3018961594
 20
-42.8038910178
 11
9.3079014713
 21
-42.8060793468
  0
LINE
  5
317
100
AcDbEntity
  8
RACCORDO
100
AcDbLine
 62
7
  6
CONTINUOUS
 10
-10.1373681129
 20
-1.4312324433
 11
-10.1018380205
 21
-1.4442571363
  0
LINE
  5
318
100
AcDbEntity
  8
0
100
AcDbLine
 62
7
  6
CONTINUOUS
 10
3.2953696888
 20
-45.4677831811
 11
3.2460785262
 21
-45.4496945945
  0
LINE
  5
319
100
AcDbEntity
  8
0
100
AcDbLine
 62
7
  6
CONTINUOUS
 10
3.5251902875
 20
-45.7862760047
 11
3.5665141939
 21
-45.8014860598
  0
LINE
  5
31A
100
AcDbEntity
  8
0
100
AcDbLine
 62
7
  6
CONTINUOUS
 10
3.4118340126
 20
-45.8812900685
 11
3.4536746686
 21
-45.896768942
  0
LINE
  5
31B
100
AcDbEntity
  8
RACCORDO
100
AcDbLine
 62
7
  6
CONTINUOUS
 10
9.0264199371
 20
-42.7016886142
 11
9.3018961594
 21
-42.8038910178
  0
LINE
  5
31C
100
AcDbEntity
  8
0
100
AcDbLine
 62
7
  6
CONTINUOUS
 10
3.5775017348
 20
-46.5445490553
 11
3.5577635149
 21
-46.5371998821
  0
LINE
  5
31D
100
AcDbEntity
  8
RACCORDO
100
AcDbLine
 62
7
  6
CONTINUOUS
 10
8.6072146843
 20
-45.3347859818
 11
8.5434951247
 21
-45.3109624649
  0
LINE
  5
31E
100
AcDbEntity
  8
RACCORDO
100
AcDbLine
 62
7
  6
CONTINUOUS
 10
-9.1350917766
 20
-0.7720104664
 11
-9.0739298605
 21
-0.7948949677
  0
LINE
  5
31F
100
AcDbEntity
  8
RACCORDO
100
AcDbLine
 62
7
  6
CONTINUOUS
 10
8.7524182848
 20
-42.598204397
 11
9.0264199371
 21
-42.7016886142
  0
LINE
  5
320
100
AcDbEntity
  8
RACCORDO
100
AcDbLine
 62
7
  6
CONTINUOUS
 10
16.9025959252
 20
-61.3113472939
 11
16.9478684166
 21
-61.3284535633
  0
LINE
  5
321
100
AcDbEntity
  8
RACCORDO
100
AcDbLine
 62
7
  6
CONTINUOUS
 10
16.8470484191
 20
-61.2270348648
 11
16.8799421763
 21
-61.2394647953
  0
LINE
  5
322
100
AcDbEntity
  8
0
100
AcDbLine
 62
7
  6
CONTINUOUS
 10
3.3448680701
 20
-45.4867402876
 11
3.2953696888
 21
-45.4677831811
  0
LINE
  5
323
100
AcDbEntity
  8
RACCORDO
100
AcDbLine
 62
7
  6
CONTINUOUS
 10
8.4799084168
 20
-42.4934446491
 11
8.7524182848
 21
-42.598204397
  0
LINE
  5
324
100
AcDbEntity
  8
RACCORDO
100
AcDbLine
 62
7
  6
CONTINUOUS
 10
-8.4360762579
 20
-37.7286867458
 11
-8.4577985244
 21
-37.7202668025
  0
LINE
  5
325
100
AcDbEntity
  8
RACCORDO
100
AcDbLine
 62
7
  6
CONTINUOUS
 10
-8.9893204428
 20
-1.0177799494
 11
-8.9735666626
 21
-1.0239187939
  0
LINE
  5
326
100
AcDbEntity
  8
RACCORDO
100
AcDbLine
 62
7
  6
CONTINUOUS
 10
8.2088731188
 20
-42.3874030876
 11
8.4799084168
 21
-42.4934446491
  0
LINE
  5
327
100
AcDbEntity
  8
RACCORDO
100
AcDbLine
 62
7
  6
CONTINUOUS
 10
7.9393123907
 20
-42.2800797126
 11
8.2088731188
 21
-42.3874030876
  0
LINE
  5
328
100
AcDbEntity
  8
0
100
AcDbLine
 62
7
  6
CONTINUOUS
 10
3.3946232344
 20
-45.5065839903
 11
3.3448680701
 21
-45.4867402876
  0
LINE
  5
329
100
AcDbEntity
  8
0
100
AcDbLine
 62
7
  6
CONTINUOUS
 10
3.5665141939
 20
-45.8014860598
 11
3.6078379131
 21
-45.8179802788
  0
LINE
  5
32A
100
AcDbEntity
  8
0
100
AcDbLine
 62
7
  6
CONTINUOUS
 10
3.4536746686
 20
-45.896768942
 11
3.4951129804
 21
-45.9133514565
  0
LINE
  5
32B
100
AcDbEntity
  8
RACCORDO
100
AcDbLine
 62
7
  6
CONTINUOUS
 10
-14.0261408335
 20
-48.8896749665
 11
16.9026330423
 21
-61.3113678279
  0
LINE
  5
32C
100
AcDbEntity
  8
RACCORDO
100
AcDbLine
 62
7
  6
CONTINUOUS
 10
-14.0817253557
 20
-48.8053420439
 11
16.8470484191
 21
-61.2270348648
  0
LINE
  5
32D
100
AcDbEntity
  8
0
100
AcDbLine
 62
7
  6
CONTINUOUS
 10
4.5882002858
 20
-48.1086872734
 11
4.1277282255
 21
-47.9237513129
  0
LINE
  5
32E
100
AcDbEntity
  8
0
100
AcDbLine
 62
7
  6
CONTINUOUS
 10
3.394636068
 20
-47.6293249753
 11
2.9178432613
 21
-47.4378342351
  0
LINE
  5
32F
100
AcDbEntity
  8
0
100
AcDbLine
 62
7
  6
CONTINUOUS
 10
2.7772678986
 20
-47.3813757382
 11
2.2727177501
 21
-47.1787370238
  0
LINE
  5
330
100
AcDbEntity
  8
0
100
AcDbLine
 62
7
  6
CONTINUOUS
 10
1.3646721452
 20
-46.8140454374
 11
0.8911473804
 21
-46.6238672165
  0
LINE
  5
331
100
AcDbEntity
  8
0
100
AcDbLine
 62
7
  6
CONTINUOUS
 10
0.8159754356
 20
-46.5936764687
 11
0.3476612969
 21
-46.4055909528
  0
LINE
  5
332
100
AcDbEntity
  8
0
100
AcDbLine
 62
7
  6
CONTINUOUS
 10
-0.3198902785
 20
-46.1374871905
 11
-0.3870304375
 21
-46.110522189
  0
LINE
  5
333
100
AcDbEntity
  8
0
100
AcDbLine
 62
7
  6
CONTINUOUS
 10
-1.0519328753
 20
-45.8434823801
 11
-1.5099117726
 21
-45.6595477301
  0
LINE
  5
334
100
AcDbEntity
  8
0
100
AcDbLine
 62
7
  6
CONTINUOUS
 10
-1.7676211014
 20
-45.5560458537
 11
-2.2463401093
 21
-45.3637815076
  0
LINE
  5
335
100
AcDbEntity
  8
0
100
AcDbLine
 62
7
  6
CONTINUOUS
 10
-3.1611789422
 20
-44.9963616078
 11
-3.5830504366
 21
-44.8269285048
  0
LINE
  5
336
100
AcDbEntity
  8
0
100
AcDbLine
 62
7
  6
CONTINUOUS
 10
-3.4675899059
 20
-44.732348775
 11
-3.1233328567
 21
-44.8706101671
  0
LINE
  5
337
100
AcDbEntity
  8
0
100
AcDbLine
 62
7
  6
CONTINUOUS
 10
-2.1308795786
 20
-45.2692017779
 11
-1.7799011538
 21
-45.4101626259
  0
LINE
  5
338
100
AcDbEntity
  8
0
100
AcDbLine
 62
7
  6
CONTINUOUS
 10
-1.3944512418
 20
-45.5649680003
 11
-1.0534587799
 21
-45.7019182605
  0
LINE
  5
339
100
AcDbEntity
  8
0
100
AcDbLine
 62
7
  6
CONTINUOUS
 10
0.4631218276
 20
-46.311011223
 11
0.7891129768
 21
-46.4419366178
  0
LINE
  5
33A
100
AcDbEntity
  8
0
100
AcDbLine
 62
7
  6
CONTINUOUS
 10
1.0066079111
 20
-46.5292874867
 11
1.3973372866
 21
-46.6862132127
  0
LINE
  5
33B
100
AcDbEntity
  8
0
100
AcDbLine
 62
7
  6
CONTINUOUS
 10
2.3881782808
 20
-47.084157294
 11
2.717140783
 21
-47.2162760511
  0
LINE
  5
33C
100
AcDbEntity
  8
0
100
AcDbLine
 62
7
  6
CONTINUOUS
 10
3.0333037921
 20
-47.3432545052
 11
3.3822860865
 21
-47.4834136623
  0
LINE
  5
33D
100
AcDbEntity
  8
0
100
AcDbLine
 62
7
  6
CONTINUOUS
 10
4.2431887562
 20
-47.8291715831
 11
4.5347034977
 21
-47.9462504753
  0
LINE
  5
33E
100
AcDbEntity
  8
0
100
AcDbLine
 62
7
  6
CONTINUOUS
 10
2.1130585807
 20
-46.7002896982
 11
1.4611225007
 21
-46.4384574709
  0
LINE
  5
33F
100
AcDbEntity
  8
0
100
AcDbLine
 62
7
  6
CONTINUOUS
 10
1.5765102967
 20
-46.3439373219
 11
2.2284463767
 21
-46.6057695492
  0
LINE
  5
340
100
AcDbEntity
  8
0
100
AcDbLine
 62
7
  6
CONTINUOUS
 10
1.9910624316
 20
-46.3291540255
 11
1.5327231074
 21
-46.1450746199
  0
LINE
  5
341
100
AcDbEntity
  8
0
100
AcDbLine
 62
7
  6
CONTINUOUS
 10
3.5831629283
 20
-46.8907349597
 11
3.3264852252
 21
-46.7876474074
  0
LINE
  5
342
100
AcDbEntity
  8
0
100
AcDbLine
 62
7
  6
CONTINUOUS
 10
3.4418067763
 20
-46.6931815231
 11
3.6984844794
 21
-46.7962690753
  0
LINE
  5
343
100
AcDbEntity
  8
0
100
AcDbLine
 62
7
  6
CONTINUOUS
 10
3.5577635152
 20
-46.5371998823
 11
3.2841803393
 21
-46.427322711
  0
LINE
  5
344
100
AcDbEntity
  8
0
100
AcDbLine
 62
7
  6
CONTINUOUS
 10
1.9134274203
 20
-44.9365919961
 11
1.4503239078
 21
-44.7505991851
  0
LINE
  5
345
100
AcDbEntity
  8
0
100
AcDbLine
 62
7
  6
CONTINUOUS
 10
0.4413440262
 20
-44.3453701177
 11
-0.0323011539
 21
-44.1551435353
  0
LINE
  5
346
100
AcDbEntity
  8
0
100
AcDbLine
 62
7
  6
CONTINUOUS
 10
-0.9846833633
 20
-43.7726453691
 11
-1.4630067208
 21
-43.5805399252
  0
LINE
  5
347
100
AcDbEntity
  8
0
100
AcDbLine
 62
7
  6
CONTINUOUS
 10
-2.5841678365
 20
-43.1302563451
 11
-3.0625600028
 21
-42.938123266
  0
LINE
  5
348
100
AcDbEntity
  8
0
100
AcDbLine
 62
7
  6
CONTINUOUS
 10
-3.9502349347
 20
-42.5816130012
 11
-4.4702719717
 21
-42.3727544032
  0
LINE
  5
349
100
AcDbEntity
  8
0
100
AcDbLine
 62
7
  6
CONTINUOUS
 10
-1.9278034653
 20
-43.3937395111
 11
-2.4065224732
 21
-43.201475165
  0
LINE
  5
34A
100
AcDbEntity
  8
RACCORDO
100
AcDbLine
 62
7
  6
CONTINUOUS
 10
8.5434951247
 20
-45.3109624649
 11
-8.7074097498
 21
-38.3826101548
  0
LINE
  5
34B
100
AcDbEntity
  8
RACCORDO
100
AcDbLine
 62
7
  6
CONTINUOUS
 10
8.8529948552
 20
-44.6724393465
 11
-8.4360760891
 21
-37.7286866101
  0
LINE
  5
34C
100
AcDbEntity
  8
RACCORDO
100
AcDbLine
 62
7
  6
CONTINUOUS
 10
-7.5101161716
 20
-36.9855107024
 11
9.3367928932
 21
-43.7516091875
  0
LINE
  5
34D
100
AcDbEntity
  8
DRAFT
100
AcDbLine
 62
7
  6
CONTINUOUS
 10
-4.3479682736
 20
-37.3452307875
 11
7.9393123907
 21
-42.2800797126
  0
LINE
  5
34E
100
AcDbEntity
  8
RACCORDO
100
AcDbLine
 62
7
  6
CONTINUOUS
 10
-8.9734857865
 20
-1.0239501094
 11
8.3284027215
 21
-7.9727785961
  0
LINE
  5
34F
100
AcDbEntity
  8
RACCORDO
100
AcDbLine
 62
7
  6
CONTINUOUS
 10
-9.0739298605
 20
-0.7948949677
 11
8.2279586472
 21
-7.7437234544
  0
LINE
  5
350
100
AcDbEntity
  8
RACCORDO
100
AcDbLine
 62
7
  6
CONTINUOUS
 10
-4.3479682736
 20
-37.3452307875
 11
-4.6159917967
 21
-37.2366482078
  0
LINE
  5
351
100
AcDbEntity
  8
RACCORDO
100
AcDbLine
 62
7
  6
CONTINUOUS
 10
-4.6159917967
 20
-37.2366482078
 11
-4.8824196519
 21
-37.1268324501
  0
LINE
  5
352
100
AcDbEntity
  8
0
100
AcDbLine
 62
7
  6
CONTINUOUS
 10
3.4445855925
 20
-45.5272962364
 11
3.3946232344
 21
-45.5065839903
  0
LINE
  5
353
100
AcDbEntity
  8
RACCORDO
100
AcDbLine
 62
7
  6
CONTINUOUS
 10
8.3284491763
 20
-7.9727993858
 11
8.3488204667
 21
-7.9812911125
  0
LINE
  5
354
100
AcDbEntity
  8
RACCORDO
100
AcDbLine
 62
7
  6
CONTINUOUS
 10
-8.4577985244
 20
-37.7202668025
 11
-8.4792612955
 21
-37.7113066938
  0
LINE
  5
355
100
AcDbEntity
  8
RACCORDO
100
AcDbLine
 62
7
  6
CONTINUOUS
 10
-8.7074097498
 20
-38.3826101548
 11
-8.7419187173
 21
-38.3681531934
  0
LINE
  5
356
100
AcDbEntity
  8
RACCORDO
100
AcDbLine
 62
7
  6
CONTINUOUS
 10
-4.8824196519
 20
-37.1268324501
 11
-5.1472518393
 21
-37.0157835145
  0
LINE
  5
357
100
AcDbEntity
  8
RACCORDO
100
AcDbLine
 62
7
  6
CONTINUOUS
 10
-14.0705956201
 20
-48.8707804372
 11
-14.0260939172
 21
-48.8896886432
  0
LINE
  5
358
100
AcDbEntity
  8
RACCORDO
100
AcDbLine
 62
7
  6
CONTINUOUS
 10
-14.1149108747
 20
-48.7912420158
 11
-14.0817253557
 21
-48.8053420439
  0
LINE
  5
359
100
AcDbEntity
  8
RACCORDO
100
AcDbLine
 62
7
  6
CONTINUOUS
 10
-5.1472518393
 20
-37.0157835145
 11
-5.4105045398
 21
-36.9034942714
  0
LINE
  5
35A
100
AcDbEntity
  8
RACCORDO
100
AcDbLine
 62
7
  6
CONTINUOUS
 10
8.3240920468
 20
-7.9709401615
 11
8.328402743
 21
-7.9727786048
  0
LINE
  5
35B
100
AcDbEntity
  8
RACCORDO
100
AcDbLine
 62
7
  6
CONTINUOUS
 10
-8.9777972641
 20
-1.022111312
 11
-8.9735662466
 21
-1.0239177581
  0
LINE
  5
35C
100
AcDbEntity
  8
RACCORDO
100
AcDbLine
 62
7
  6
CONTINUOUS
 10
8.2279586472
 20
-7.7437234544
 11
8.2886924344
 21
-7.7697670392
  0
LINE
  5
35D
100
AcDbEntity
  8
0
100
AcDbLine
 62
7
  6
CONTINUOUS
 10
3.5831629301
 20
-46.8907349604
 11
3.6031086268
 21
-46.8993138427
  0
LINE
  5
35E
100
AcDbEntity
  8
0
100
AcDbLine
 62
7
  6
CONTINUOUS
 10
3.6078379131
 20
-45.8179802788
 11
3.6492243544
 21
-45.8357844896
  0
LINE
  5
35F
100
AcDbEntity
  8
0
100
AcDbLine
 62
7
  6
CONTINUOUS
 10
3.4951129804
 20
-45.9133514565
 11
3.53608272
 21
-45.9309961942
  0
LINE
  5
360
100
AcDbEntity
  8
0
100
AcDbLine
 62
7
  6
CONTINUOUS
 10
3.6984844794
 20
-46.7962690753
 11
3.7171914077
 21
-46.8043442321
  0
LINE
  5
361
100
AcDbEntity
  8
0
100
AcDbLine
 62
7
  6
CONTINUOUS
 10
3.4946497461
 20
-45.5489893477
 11
3.4445855925
 21
-45.5272962364
  0
LINE
  5
362
100
AcDbEntity
  8
RACCORDO
100
AcDbLine
 62
7
  6
CONTINUOUS
 10
-5.4105045398
 20
-36.9034942714
 11
-5.6721615725
 21
-36.7899718504
  0
LINE
  5
363
100
AcDbEntity
  8
RACCORDO
100
AcDbLine
 62
7
  6
CONTINUOUS
 10
9.2913968996
 20
-27.1006672357
 11
9.2579068376
 21
-27.0859719058
  0
LINE
  5
364
100
AcDbEntity
  8
RACCORDO
100
AcDbLine
 62
7
  6
CONTINUOUS
 10
9.2913968996
 20
-9.2342624836
 11
9.2579068376
 21
-9.2195671537
  0
LINE
  5
365
100
AcDbEntity
  8
RACCORDO
100
AcDbLine
 62
7
  6
CONTINUOUS
 10
-14.0300423345
 20
-48.8879603935
 11
-14.0261408335
 21
-48.8896749665
  0
LINE
  5
366
100
AcDbEntity
  8
RACCORDO
100
AcDbLine
 62
7
  6
CONTINUOUS
 10
16.8987308546
 20
-61.3096529261
 11
16.9025939847
 21
-61.311352127
  0
LINE
  5
367
100
AcDbEntity
  8
RACCORDO
100
AcDbLine
 62
7
  6
CONTINUOUS
 10
-5.6721615725
 20
-36.7899718504
 11
-5.9321743946
 21
-36.67523764
  0
LINE
  5
368
100
AcDbEntity
  8
RACCORDO
100
AcDbLine
 62
7
  6
CONTINUOUS
 10
9.5719843055
 20
-44.7067261571
 11
9.5384885237
 21
-44.691875707
  0
LINE
  5
369
100
AcDbEntity
  8
RACCORDO
100
AcDbLine
 62
7
  6
CONTINUOUS
 10
-16.3251979309
 20
-16.8124652391
 11
-16.3491511812
 21
-16.8017697039
  0
LINE
  5
36A
100
AcDbEntity
  8
RACCORDO
100
AcDbLine
 62
7
  6
CONTINUOUS
 10
-8.4792612955
 20
-37.7113066938
 11
-8.5004443225
 21
-37.7018397154
  0
LINE
  5
36B
100
AcDbEntity
  8
RACCORDO
100
AcDbLine
 62
7
  6
CONTINUOUS
 10
-8.7419187173
 20
-38.3681531934
 11
-8.7759548672
 21
-38.3529299351
  0
LINE
  5
36C
100
AcDbEntity
  8
RACCORDO
100
AcDbLine
 62
7
  6
CONTINUOUS
 10
-5.9321743946
 20
-36.67523764
 11
-6.1905268252
 21
-36.5592987694
  0
LINE
  5
36D
100
AcDbEntity
  8
0
100
AcDbLine
 62
7
  6
CONTINUOUS
 10
3.5448177002
 20
-45.5716118881
 11
3.4946497461
 21
-45.5489893477
  0
LINE
  5
36E
100
AcDbEntity
  8
RACCORDO
100
AcDbLine
 62
7
  6
CONTINUOUS
 10
-16.0237152168
 20
-35.0525323131
 11
-16.0476727926
 21
-35.0417106135
  0
LINE
  5
36F
100
AcDbEntity
  8
RACCORDO
100
AcDbLine
 62
7
  6
CONTINUOUS
 10
-6.1905268252
 20
-36.5592987694
 11
-6.4472350453
 21
-36.4421481094
  0
LINE
  5
370
100
AcDbEntity
  8
RACCORDO
100
AcDbLine
 62
7
  6
CONTINUOUS
 10
-7.5110142671
 20
-36.985150007
 11
-7.5526278863
 21
-36.9660948706
  0
LINE
  5
371
100
AcDbEntity
  8
RACCORDO
100
AcDbLine
 62
7
  6
CONTINUOUS
 10
8.3488204667
 20
-7.9812911125
 11
8.3880844123
 21
-7.999379351
  0
LINE
  5
372
100
AcDbEntity
  8
0
100
AcDbLine
 62
7
  6
CONTINUOUS
 10
3.6492243544
 20
-45.8357844896
 11
3.6906106507
 21
-45.8548728242
  0
LINE
  5
373
100
AcDbEntity
  8
0
100
AcDbLine
 62
7
  6
CONTINUOUS
 10
3.53608272
 20
-45.9309961942
 11
3.5766501587
 21
-45.9497445317
  0
LINE
  5
374
100
AcDbEntity
  8
RACCORDO
100
AcDbLine
 62
7
  6
CONTINUOUS
 10
-6.4472350453
 20
-36.4421481094
 11
-6.7022990548
 21
-36.3237856598
  0
LINE
  5
375
100
AcDbEntity
  8
RACCORDO
100
AcDbLine
 62
7
  6
CONTINUOUS
 10
-14.742623775
 20
-48.0748742017
 11
-14.7666633966
 21
-48.0636572794
  0
LINE
  5
376
100
AcDbEntity
  8
0
100
AcDbLine
 62
7
  6
CONTINUOUS
 10
3.5950875627
 20
-45.5952151876
 11
3.5448177002
 21
-45.5716118881
  0
LINE
  5
377
100
AcDbEntity
  8
RACCORDO
100
AcDbLine
 62
7
  6
CONTINUOUS
 10
-14.1481038428
 20
-48.7756263166
 11
-14.1149108747
 21
-48.7912420158
  0
LINE
  5
378
100
AcDbEntity
  8
RACCORDO
100
AcDbLine
 62
7
  6
CONTINUOUS
 10
-8.5004443225
 20
-37.7018397154
 11
-8.5213082944
 21
-37.6919104266
  0
LINE
  5
379
100
AcDbEntity
  8
RACCORDO
100
AcDbLine
 62
7
  6
CONTINUOUS
 10
-14.1241269891
 20
-48.8452905906
 11
-14.0705956201
 21
-48.8707804372
  0
LINE
  5
37A
100
AcDbEntity
  8
RACCORDO
100
AcDbLine
 62
7
  6
CONTINUOUS
 10
-8.7759548672
 20
-38.3529299351
 11
-8.8095181573
 21
-38.3369403421
  0
LINE
  5
37B
100
AcDbEntity
  8
RACCORDO
100
AcDbLine
 62
7
  6
CONTINUOUS
 10
8.2886924344
 20
-7.7697670392
 11
8.3491854763
 21
-7.7992504454
  0
LINE
  5
37C
100
AcDbEntity
  8
RACCORDO
100
AcDbLine
 62
7
  6
CONTINUOUS
 10
-9.1346636477
 20
8.0631291326
 11
-9.1951566896
 21
8.0926125388
  0
LINE
  5
37D
100
AcDbEntity
  8
0
100
AcDbLine
 62
7
  6
CONTINUOUS
 10
3.7171914077
 20
-46.8043442321
 11
3.7355778169
 21
-46.8133282848
  0
LINE
  5
37E
100
AcDbEntity
  8
0
100
AcDbLine
 62
7
  6
CONTINUOUS
 10
3.6906106507
 20
-45.8548728242
 11
3.7319968985
 21
-45.8752451912
  0
LINE
  5
37F
100
AcDbEntity
  8
0
100
AcDbLine
 62
7
  6
CONTINUOUS
 10
3.5766501587
 20
-45.9497445317
 11
3.6168153909
 21
-45.9695963796
  0
LINE
  5
380
100
AcDbEntity
  8
0
100
AcDbLine
 62
7
  6
CONTINUOUS
 10
3.6453481656
 20
-45.6200656451
 11
3.5950875627
 21
-45.5952151876
  0
LINE
  5
381
100
AcDbEntity
  8
0
100
AcDbLine
 62
7
  6
CONTINUOUS
 10
3.6031086268
 20
-46.8993138427
 11
3.6228625848
 21
-46.9090976941
  0
LINE
  5
382
100
AcDbEntity
  8
RACCORDO
100
AcDbLine
 62
7
  6
CONTINUOUS
 10
-6.7427946539
 20
-36.3033928238
 11
-6.7022990548
 21
-36.3237856598
  0
LINE
  5
383
100
AcDbEntity
  8
RACCORDO
100
AcDbLine
 62
7
  6
CONTINUOUS
 10
-6.7427946539
 20
10.3882737007
 11
-6.7022990548
 21
10.3678808646
  0
LINE
  5
384
100
AcDbEntity
  8
RACCORDO
100
AcDbLine
 62
7
  6
CONTINUOUS
 10
-8.5213082944
 20
-37.6919104266
 11
-8.5418565926
 21
-37.6815407205
  0
LINE
  5
385
100
AcDbEntity
  8
RACCORDO
100
AcDbLine
 62
7
  6
CONTINUOUS
 10
-8.8095181573
 20
-38.3369403421
 11
-8.8426015131
 21
-38.3201559716
  0
LINE
  5
386
100
AcDbEntity
  8
RACCORDO
100
AcDbLine
 62
7
  6
CONTINUOUS
 10
-14.1813041157
 20
-48.7584947791
 11
-14.1481038428
 21
-48.7756263166
  0
LINE
  5
387
100
AcDbEntity
  8
0
100
AcDbLine
 62
7
  6
CONTINUOUS
 10
3.6957055522
 20
-45.6461381899
 11
3.6453481656
 21
-45.6200656451
  0
LINE
  5
388
100
AcDbEntity
  8
RACCORDO
100
AcDbLine
 62
7
  6
CONTINUOUS
 10
-8.8784533366
 20
8.701531955
 11
-8.9165077355
 21
8.721242299
  0
LINE
  5
389
100
AcDbEntity
  8
RACCORDO
100
AcDbLine
 62
7
  6
CONTINUOUS
 10
8.3880844123
 20
-7.999379351
 11
8.428359644
 21
-8.0202555938
  0
LINE
  5
38A
100
AcDbEntity
  8
RACCORDO
100
AcDbLine
 62
7
  6
CONTINUOUS
 10
9.2579068376
 20
-27.0859719058
 11
9.226694589
 21
-27.0697103196
  0
LINE
  5
38B
100
AcDbEntity
  8
RACCORDO
100
AcDbLine
 62
7
  6
CONTINUOUS
 10
9.2579068376
 20
-9.2195671537
 11
9.226694589
 21
-9.2033055675
  0
LINE
  5
38C
100
AcDbEntity
  8
RACCORDO
100
AcDbLine
 62
7
  6
CONTINUOUS
 10
9.2579064844
 20
1.7392900354
 11
9.226693979
 21
1.7555517985
  0
LINE
  5
38D
100
AcDbEntity
  8
RACCORDO
100
AcDbLine
 62
7
  6
CONTINUOUS
 10
-7.5940355985
 20
9.7472269133
 11
-7.5521278999
 21
9.7253527054
  0
LINE
  5
38E
100
AcDbEntity
  8
RACCORDO
100
AcDbLine
 62
7
  6
CONTINUOUS
 10
-7.5526278863
 20
-36.9660948706
 11
-7.5942271517
 21
-36.9443497104
  0
LINE
  5
38F
100
AcDbEntity
  8
RACCORDO
100
AcDbLine
 62
7
  6
CONTINUOUS
 10
9.5384885237
 20
-44.691875707
 11
9.5072683692
 21
-44.675320746
  0
LINE
  5
390
100
AcDbEntity
  8
RACCORDO
100
AcDbLine
 62
7
  6
CONTINUOUS
 10
-14.1774713227
 20
-48.8168803269
 11
-14.1241269891
 21
-48.8452905906
  0
LINE
  5
391
100
AcDbEntity
  8
RACCORDO
100
AcDbLine
 62
7
  6
CONTINUOUS
 10
-8.5418565926
 20
-37.6815407205
 11
-8.562134605
 21
-37.6707238958
  0
LINE
  5
392
100
AcDbEntity
  8
0
100
AcDbLine
 62
7
  6
CONTINUOUS
 10
3.7319968985
 20
-45.8752451912
 11
3.7508897513
 21
-45.8853720222
  0
LINE
  5
393
100
AcDbEntity
  8
RACCORDO
100
AcDbLine
 62
7
  6
CONTINUOUS
 10
-8.8426015131
 20
-38.3201559716
 11
-8.8752118438
 21
-38.3026051179
  0
LINE
  5
394
100
AcDbEntity
  8
0
100
AcDbLine
 62
7
  6
CONTINUOUS
 10
3.6168153909
 20
-45.9695963796
 11
3.6411749578
 21
-45.9827489838
  0
LINE
  5
395
100
AcDbEntity
  8
0
100
AcDbLine
 62
7
  6
CONTINUOUS
 10
3.7460540682
 20
-45.6734575267
 11
3.6957055522
 21
-45.6461381899
  0
LINE
  5
396
100
AcDbEntity
  8
RACCORDO
100
AcDbLine
 62
7
  6
CONTINUOUS
 10
8.3491854763
 20
-7.7992504454
 11
8.4094377729
 21
-7.832173673
  0
LINE
  5
397
100
AcDbEntity
  8
RACCORDO
100
AcDbLine
 62
7
  6
CONTINUOUS
 10
-9.1951566896
 20
8.0926125388
 11
-9.2554089862
 21
8.1255357664
  0
LINE
  5
398
100
AcDbEntity
  8
0
100
AcDbLine
 62
7
  6
CONTINUOUS
 10
3.7355778169
 20
-46.8133282848
 11
3.7536437588
 21
-46.8232211835
  0
LINE
  5
399
100
AcDbEntity
  8
RACCORDO
100
AcDbLine
 62
7
  6
CONTINUOUS
 10
-16.3491511812
 20
-16.8017697039
 11
-16.3710974013
 21
-16.7897405078
  0
LINE
  5
39A
100
AcDbEntity
  8
RACCORDO
100
AcDbLine
 62
7
  6
CONTINUOUS
 10
-16.0476727926
 20
-35.0417106135
 11
-16.0696253439
 21
-35.0294318497
  0
LINE
  5
39B
100
AcDbEntity
  8
RACCORDO
100
AcDbLine
 62
7
  6
CONTINUOUS
 10
-14.2146268249
 20
-48.7397818808
 11
-14.1813041157
 21
-48.7584947791
  0
LINE
  5
39C
100
AcDbEntity
  8
0
100
AcDbLine
 62
7
  6
CONTINUOUS
 10
3.6228625848
 20
-46.9090976941
 11
3.642424878
 21
-46.9200864432
  0
LINE
  5
39D
100
AcDbEntity
  8
RACCORDO
100
AcDbLine
 62
7
  6
CONTINUOUS
 10
-8.562134605
 20
-37.6707238958
 11
-8.582126422
 21
-37.6594864018
  0
LINE
  5
39E
100
AcDbEntity
  8
RACCORDO
100
AcDbLine
 62
7
  6
CONTINUOUS
 10
-8.9951704657
 20
-1.0123125774
 11
-8.9777972641
 21
-1.022111312
  0
LINE
  5
39F
100
AcDbEntity
  8
RACCORDO
100
AcDbLine
 62
7
  6
CONTINUOUS
 10
8.3067188082
 20
-7.9611415895
 11
8.3240920468
 21
-7.9709401615
  0
LINE
  5
3A0
100
AcDbEntity
  8
RACCORDO
100
AcDbLine
 62
7
  6
CONTINUOUS
 10
-8.8752118438
 20
-38.3026051179
 11
-8.9073700555
 21
-38.2843728237
  0
LINE
  5
3A1
100
AcDbEntity
  8
RACCORDO
100
AcDbLine
 62
7
  6
CONTINUOUS
 10
-6.7831551474
 20
-36.2802493784
 11
-6.7427946539
 21
-36.3033928238
  0
LINE
  5
3A2
100
AcDbEntity
  8
RACCORDO
100
AcDbLine
 62
7
  6
CONTINUOUS
 10
-6.7831551474
 20
10.4114171461
 11
-6.7427946539
 21
10.3882737007
  0
LINE
  5
3A3
100
AcDbEntity
  8
RACCORDO
100
AcDbLine
 62
7
  6
CONTINUOUS
 10
8.428359644
 20
-8.0202555938
 11
8.4693486052
 21
-8.043902503
  0
LINE
  5
3A4
100
AcDbEntity
  8
RACCORDO
100
AcDbLine
 62
7
  6
CONTINUOUS
 10
-8.9165077355
 20
8.721242299
 11
-8.9543723926
 21
8.7431219524
  0
LINE
  5
3A5
100
AcDbEntity
  8
0
100
AcDbLine
 62
7
  6
CONTINUOUS
 10
3.7959652135
 20
-45.7023645157
 11
3.7460540682
 21
-45.6734575267
  0
LINE
  5
3A6
100
AcDbEntity
  8
0
100
AcDbLine
 62
7
  6
CONTINUOUS
 10
3.7508897513
 20
-45.8853720222
 11
3.7694442277
 21
-45.8962319514
  0
LINE
  5
3A7
100
AcDbEntity
  8
RACCORDO
100
AcDbLine
 62
7
  6
CONTINUOUS
 10
-7.6356570326
 20
9.7716911879
 11
-7.5940355985
 21
9.7472269133
  0
LINE
  5
3A8
100
AcDbEntity
  8
RACCORDO
100
AcDbLine
 62
7
  6
CONTINUOUS
 10
-7.5942271517
 20
-36.9443497104
 11
-7.6356388131
 21
-36.9199866571
  0
LINE
  5
3A9
100
AcDbEntity
  8
RACCORDO
100
AcDbLine
 62
7
  6
CONTINUOUS
 10
-14.2304532723
 20
-48.7856439911
 11
-14.1774713227
 21
-48.8168803269
  0
LINE
  5
3AA
100
AcDbEntity
  8
RACCORDO
100
AcDbLine
 62
7
  6
CONTINUOUS
 10
-8.582126422
 20
-37.6594864018
 11
-8.6018183407
 21
-37.6478540406
  0
LINE
  5
3AB
100
AcDbEntity
  8
RACCORDO
100
AcDbLine
 62
7
  6
CONTINUOUS
 10
-14.7666633966
 20
-48.0636572794
 11
-14.7887366337
 21
-48.050580705
  0
LINE
  5
3AC
100
AcDbEntity
  8
RACCORDO
100
AcDbLine
 62
7
  6
CONTINUOUS
 10
-14.0405123427
 20
-48.8817354281
 11
-14.0300423345
 21
-48.8879603935
  0
LINE
  5
3AD
100
AcDbEntity
  8
RACCORDO
100
AcDbLine
 62
7
  6
CONTINUOUS
 10
16.8882609167
 20
-61.3034278451
 11
16.8987308546
 21
-61.3096529261
  0
LINE
  5
3AE
100
AcDbEntity
  8
RACCORDO
100
AcDbLine
 62
7
  6
CONTINUOUS
 10
-8.9073700555
 20
-38.2843728237
 11
-8.939071973
 21
-38.2654718309
  0
LINE
  5
3AF
100
AcDbEntity
  8
RACCORDO
100
AcDbLine
 62
7
  6
CONTINUOUS
 10
8.4094377729
 20
-7.832173673
 11
8.4697158934
 21
-7.868661932
  0
LINE
  5
3B0
100
AcDbEntity
  8
RACCORDO
100
AcDbLine
 62
7
  6
CONTINUOUS
 10
-9.2554089862
 20
8.1255357664
 11
-9.3156871067
 21
8.1620240253
  0
LINE
  5
3B1
100
AcDbEntity
  8
RACCORDO
100
AcDbLine
 62
7
  6
CONTINUOUS
 10
-14.2479562595
 20
-48.7195524726
 11
-14.2146268249
 21
-48.7397818808
  0
LINE
  5
3B2
100
AcDbEntity
  8
0
100
AcDbLine
 62
7
  6
CONTINUOUS
 10
3.6411749578
 20
-45.9827489838
 11
3.6651576408
 21
-45.9973432102
  0
LINE
  5
3B3
100
AcDbEntity
  8
0
100
AcDbLine
 62
7
  6
CONTINUOUS
 10
3.7536437588
 20
-46.8232211835
 11
3.7714954355
 21
-46.8340956906
  0
LINE
  5
3B4
100
AcDbEntity
  8
RACCORDO
100
AcDbLine
 62
7
  6
CONTINUOUS
 10
9.226694589
 20
-27.0697103196
 11
9.1979821349
 21
-27.051998129
  0
LINE
  5
3B5
100
AcDbEntity
  8
RACCORDO
100
AcDbLine
 62
7
  6
CONTINUOUS
 10
9.226694589
 20
-9.2033055675
 11
9.197982135
 21
-9.1855933769
  0
LINE
  5
3B6
100
AcDbEntity
  8
RACCORDO
100
AcDbLine
 62
7
  6
CONTINUOUS
 10
9.226693979
 20
1.7555517985
 11
9.1979813599
 21
1.7732641636
  0
LINE
  5
3B7
100
AcDbEntity
  8
RACCORDO
100
AcDbLine
 62
7
  6
CONTINUOUS
 10
-8.6018183407
 20
-37.6478540406
 11
-8.6212589627
 21
-37.6358084787
  0
LINE
  5
3B8
100
AcDbEntity
  8
0
100
AcDbLine
 62
7
  6
CONTINUOUS
 10
3.8452965557
 20
-45.7329723998
 11
3.7959652135
 21
-45.7023645157
  0
LINE
  5
3B9
100
AcDbEntity
  8
RACCORDO
100
AcDbLine
 62
7
  6
CONTINUOUS
 10
-8.939071973
 20
-38.2654718309
 11
-8.9703214907
 21
-38.2458891457
  0
LINE
  5
3BA
100
AcDbEntity
  8
0
100
AcDbLine
 62
7
  6
CONTINUOUS
 10
3.642424878
 20
-46.9200864432
 11
3.6619197328
 21
-46.9323176054
  0
LINE
  5
3BB
100
AcDbEntity
  8
RACCORDO
100
AcDbLine
 62
7
  6
CONTINUOUS
 10
9.5072683692
 20
-44.675320746
 11
9.4785459002
 21
-44.6571790239
  0
LINE
  5
3BC
100
AcDbEntity
  8
0
100
AcDbLine
 62
7
  6
CONTINUOUS
 10
3.7694442277
 20
-45.8962319514
 11
3.7876604181
 21
-45.9078248932
  0
LINE
  5
3BD
100
AcDbEntity
  8
RACCORDO
100
AcDbLine
 62
7
  6
CONTINUOUS
 10
8.4693486052
 20
-8.043902503
 11
8.5107070646
 21
-8.0702391689
  0
LINE
  5
3BE
100
AcDbEntity
  8
RACCORDO
100
AcDbLine
 62
7
  6
CONTINUOUS
 10
-8.9543723926
 20
8.7431219524
 11
-8.9918857938
 21
8.7671171855
  0
LINE
  5
3BF
100
AcDbEntity
  8
RACCORDO
100
AcDbLine
 62
7
  6
CONTINUOUS
 10
-6.8231975211
 20
-36.2544353429
 11
-6.7831551474
 21
-36.2802493784
  0
LINE
  5
3C0
100
AcDbEntity
  8
RACCORDO
100
AcDbLine
 62
7
  6
CONTINUOUS
 10
-6.8231975211
 20
10.4372311815
 11
-6.7831551474
 21
10.4114171461
  0
LINE
  5
3C1
100
AcDbEntity
  8
RACCORDO
100
AcDbLine
 62
7
  6
CONTINUOUS
 10
-14.2827944896
 20
-48.7517337263
 11
-14.2304532723
 21
-48.7856439911
  0
LINE
  5
3C2
100
AcDbEntity
  8
RACCORDO
100
AcDbLine
 62
7
  6
CONTINUOUS
 10
-8.6212589627
 20
-37.6358084787
 11
-8.6404343668
 21
-37.6233705805
  0
LINE
  5
3C3
100
AcDbEntity
  8
RACCORDO
100
AcDbLine
 62
7
  6
CONTINUOUS
 10
-14.2809458834
 20
-48.6980017992
 11
-14.2479562595
 21
-48.7195524726
  0
LINE
  5
3C4
100
AcDbEntity
  8
RACCORDO
100
AcDbLine
 62
7
  6
CONTINUOUS
 10
-7.6356388131
 20
-36.9199866571
 11
-7.6767496755
 21
-36.8930514572
  0
LINE
  5
3C5
100
AcDbEntity
  8
RACCORDO
100
AcDbLine
 62
7
  6
CONTINUOUS
 10
-7.6768344275
 20
9.7986665554
 11
-7.6356570326
 21
9.7716911879
  0
LINE
  5
3C6
100
AcDbEntity
  8
RACCORDO
100
AcDbLine
 62
7
  6
CONTINUOUS
 10
-8.9703214907
 20
-38.2458891457
 11
-9.0011516113
 21
-38.2256711993
  0
LINE
  5
3C7
100
AcDbEntity
  8
0
100
AcDbLine
 62
7
  6
CONTINUOUS
 10
3.8941916059
 20
-45.7651669202
 11
3.8452965557
 21
-45.7329723998
  0
LINE
  5
3C8
100
AcDbEntity
  8
RACCORDO
100
AcDbLine
 62
7
  6
CONTINUOUS
 10
8.4697158934
 20
-7.868661932
 11
8.5297532687
 21
-7.9085900124
  0
LINE
  5
3C9
100
AcDbEntity
  8
RACCORDO
100
AcDbLine
 62
7
  6
CONTINUOUS
 10
-9.3156871067
 20
8.1620240253
 11
-9.375724482
 21
8.2019521057
  0
LINE
  5
3CA
100
AcDbEntity
  8
RACCORDO
100
AcDbLine
 62
7
  6
CONTINUOUS
 10
-16.3710974013
 20
-16.7897405078
 11
-16.390811893
 21
-16.7765008126
  0
LINE
  5
3CB
100
AcDbEntity
  8
RACCORDO
100
AcDbLine
 62
7
  6
CONTINUOUS
 10
-16.3710974013
 20
29.9019260167
 11
-16.390811893
 21
29.9151657118
  0
LINE
  5
3CC
100
AcDbEntity
  8
0
100
AcDbLine
 62
7
  6
CONTINUOUS
 10
3.7714954355
 20
-46.8340956906
 11
3.7890268526
 21
-46.845878843
  0
LINE
  5
3CD
100
AcDbEntity
  8
RACCORDO
100
AcDbLine
 62
7
  6
CONTINUOUS
 10
-8.6404343668
 20
-37.6233705805
 11
-8.6593319607
 21
-37.6105606446
  0
LINE
  5
3CE
100
AcDbEntity
  8
0
100
AcDbLine
 62
7
  6
CONTINUOUS
 10
3.6651576408
 20
-45.9973432102
 11
3.6887636801
 21
-46.0133788308
  0
LINE
  5
3CF
100
AcDbEntity
  8
RACCORDO
100
AcDbLine
 62
7
  6
CONTINUOUS
 10
-9.0011516113
 20
-38.2256711993
 11
-9.0315609876
 21
-38.2048289532
  0
LINE
  5
3D0
100
AcDbEntity
  8
0
100
AcDbLine
 62
7
  6
CONTINUOUS
 10
3.7876604181
 20
-45.9078248932
 11
3.805580478
 21
-45.9201813485
  0
LINE
  5
3D1
100
AcDbEntity
  8
RACCORDO
100
AcDbLine
 62
7
  6
CONTINUOUS
 10
-16.0696253439
 20
-35.0294318497
 11
-16.0893480882
 21
-35.0158217498
  0
LINE
  5
3D2
100
AcDbEntity
  8
0
100
AcDbLine
 62
7
  6
CONTINUOUS
 10
3.6619197328
 20
-46.9323176054
 11
3.6812232229
 21
-46.9457533754
  0
LINE
  5
3D3
100
AcDbEntity
  8
0
100
AcDbLine
 62
7
  6
CONTINUOUS
 10
3.9426510317
 20
-45.7989474481
 11
3.8941916059
 21
-45.7651669202
  0
LINE
  5
3D4
100
AcDbEntity
  8
RACCORDO
100
AcDbLine
 62
7
  6
CONTINUOUS
 10
8.5107070646
 20
-8.0702391689
 11
8.5521731911
 21
-8.0992000921
  0
LINE
  5
3D5
100
AcDbEntity
  8
RACCORDO
100
AcDbLine
 62
7
  6
CONTINUOUS
 10
-14.3135876522
 20
-48.6751179099
 11
-14.2809458834
 21
-48.6980017992
  0
LINE
  5
3D6
100
AcDbEntity
  8
RACCORDO
100
AcDbLine
 62
7
  6
CONTINUOUS
 10
-8.9918857938
 20
8.7671171855
 11
-9.0288159278
 21
8.7931346457
  0
LINE
  5
3D7
100
AcDbEntity
  8
RACCORDO
100
AcDbLine
 62
7
  6
CONTINUOUS
 10
-8.6593319607
 20
-37.6105606446
 11
-8.6780007519
 21
-37.5973498611
  0
LINE
  5
3D8
100
AcDbEntity
  8
RACCORDO
100
AcDbLine
 62
7
  6
CONTINUOUS
 10
-14.3343309539
 20
-48.7152472912
 11
-14.2827944896
 21
-48.7517337263
  0
LINE
  5
3D9
100
AcDbEntity
  8
RACCORDO
100
AcDbLine
 62
7
  6
CONTINUOUS
 10
-9.0315609876
 20
-38.2048289532
 11
-9.0615505925
 21
-38.1833511102
  0
LINE
  5
3DA
100
AcDbEntity
  8
RACCORDO
100
AcDbLine
 62
7
  6
CONTINUOUS
 10
-6.8627708394
 20
-36.2260000248
 11
-6.8231975211
 21
-36.2544353429
  0
LINE
  5
3DB
100
AcDbEntity
  8
RACCORDO
100
AcDbLine
 62
7
  6
CONTINUOUS
 10
-6.8627708394
 20
10.4656664997
 11
-6.8231975211
 21
10.4372311815
  0
LINE
  5
3DC
100
AcDbEntity
  8
RACCORDO
100
AcDbLine
 62
7
  6
CONTINUOUS
 10
-7.6767496755
 20
-36.8930514572
 11
-7.7173193889
 21
-36.8636725835
  0
LINE
  5
3DD
100
AcDbEntity
  8
RACCORDO
100
AcDbLine
 62
7
  6
CONTINUOUS
 10
-7.7173640226
 20
9.8280263848
 11
-7.6768344275
 21
9.7986665554
  0
LINE
  5
3DE
100
AcDbEntity
  8
RACCORDO
100
AcDbLine
 62
7
  6
CONTINUOUS
 10
8.5297532687
 20
-7.9085900124
 11
8.5887501912
 21
-7.9515822844
  0
LINE
  5
3DF
100
AcDbEntity
  8
RACCORDO
100
AcDbLine
 62
7
  6
CONTINUOUS
 10
-9.375724482
 20
8.2019521057
 11
-9.4347214045
 21
8.2449443778
  0
LINE
  5
3E0
100
AcDbEntity
  8
RACCORDO
100
AcDbLine
 62
7
  6
CONTINUOUS
 10
9.1979821349
 20
-27.051998129
 11
9.1719736777
 21
-27.032961303
  0
LINE
  5
3E1
100
AcDbEntity
  8
RACCORDO
100
AcDbLine
 62
7
  6
CONTINUOUS
 10
9.197982135
 20
-9.1855933769
 11
9.1719736778
 21
-9.1665565509
  0
LINE
  5
3E2
100
AcDbEntity
  8
RACCORDO
100
AcDbLine
 62
7
  6
CONTINUOUS
 10
9.1979813599
 20
1.7732641636
 11
9.1719728233
 21
1.792301152
  0
LINE
  5
3E3
100
AcDbEntity
  8
RACCORDO
100
AcDbLine
 62
7
  6
CONTINUOUS
 10
-8.6780007519
 20
-37.5973498611
 11
-8.6964276175
 21
-37.5837542247
  0
LINE
  5
3E4
100
AcDbEntity
  8
0
100
AcDbLine
 62
7
  6
CONTINUOUS
 10
3.7890268526
 20
-46.845878843
 11
3.8059198035
 21
-46.8583519658
  0
LINE
  5
3E5
100
AcDbEntity
  8
RACCORDO
100
AcDbLine
 62
7
  6
CONTINUOUS
 10
-14.7887366337
 20
-48.050580705
 11
-14.8086170948
 21
-48.0357785968
  0
LINE
  5
3E6
100
AcDbEntity
  8
0
100
AcDbLine
 62
7
  6
CONTINUOUS
 10
3.805580478
 20
-45.9201813485
 11
3.8231625031
 21
-45.933270578
  0
LINE
  5
3E7
100
AcDbEntity
  8
RACCORDO
100
AcDbLine
 62
7
  6
CONTINUOUS
 10
-9.0615505925
 20
-38.1833511102
 11
-9.0911569001
 21
-38.1612507065
  0
LINE
  5
3E8
100
AcDbEntity
  8
0
100
AcDbLine
 62
7
  6
CONTINUOUS
 10
3.6887636801
 20
-46.0133788308
 11
3.7121660915
 21
-46.030909217
  0
LINE
  5
3E9
100
AcDbEntity
  8
RACCORDO
100
AcDbLine
 62
7
  6
CONTINUOUS
 10
-14.3458885073
 20
-48.6509114777
 11
-14.3135876522
 21
-48.6751179099
  0
LINE
  5
3EA
100
AcDbEntity
  8
RACCORDO
100
AcDbLine
 62
7
  6
CONTINUOUS
 10
9.4785459002
 20
-44.6571790239
 11
9.4525254095
 21
-44.6375795763
  0
LINE
  5
3EB
100
AcDbEntity
  8
RACCORDO
100
AcDbLine
 62
7
  6
CONTINUOUS
 10
8.5521731911
 20
-8.0992000921
 11
8.5934901479
 21
-8.130695083
  0
LINE
  5
3EC
100
AcDbEntity
  8
RACCORDO
100
AcDbLine
 62
7
  6
CONTINUOUS
 10
-8.6964276175
 20
-37.5837542247
 11
-8.7145993944
 21
-37.5697898044
  0
LINE
  5
3ED
100
AcDbEntity
  8
RACCORDO
100
AcDbLine
 62
7
  6
CONTINUOUS
 10
-14.3848726314
 20
-48.6763028802
 11
-14.3343309539
 21
-48.7152472912
  0
LINE
  5
3EE
100
AcDbEntity
  8
0
100
AcDbLine
 62
7
  6
CONTINUOUS
 10
3.9709202929
 20
-45.8207706019
 11
3.9426510317
 21
-45.7989474481
  0
LINE
  5
3EF
100
AcDbEntity
  8
RACCORDO
100
AcDbLine
 62
7
  6
CONTINUOUS
 10
-9.0288159278
 20
8.7931346457
 11
-9.0650723433
 21
8.8211351346
  0
LINE
  5
3F0
100
AcDbEntity
  8
0
100
AcDbLine
 62
7
  6
CONTINUOUS
 10
3.6812232229
 20
-46.9457533754
 11
3.6999632764
 21
-46.9602806196
  0
LINE
  5
3F1
100
AcDbEntity
  8
RACCORDO
100
AcDbLine
 62
7
  6
CONTINUOUS
 10
-9.0911569001
 20
-38.1612507065
 11
-9.1203817586
 21
-38.1385363506
  0
LINE
  5
3F2
100
AcDbEntity
  8
RACCORDO
100
AcDbLine
 62
7
  6
CONTINUOUS
 10
-6.9016592117
 20
-36.1950846402
 11
-6.8627708394
 21
-36.2260000248
  0
LINE
  5
3F3
100
AcDbEntity
  8
RACCORDO
100
AcDbLine
 62
7
  6
CONTINUOUS
 10
-6.9016592117
 20
10.4965818843
 11
-6.8627708394
 21
10.4656664997
  0
LINE
  5
3F4
100
AcDbEntity
  8
RACCORDO
100
AcDbLine
 62
7
  6
CONTINUOUS
 10
-7.7173193889
 20
-36.8636725835
 11
-7.7569910857
 21
-36.8320936786
  0
LINE
  5
3F5
100
AcDbEntity
  8
RACCORDO
100
AcDbLine
 62
7
  6
CONTINUOUS
 10
-7.757001985
 20
9.8595819264
 11
-7.7173640226
 21
9.8280263848
  0
LINE
  5
3F6
100
AcDbEntity
  8
RACCORDO
100
AcDbLine
 62
7
  6
CONTINUOUS
 10
8.5887501912
 20
-7.9515822844
 11
8.6467374149
 21
-7.9977625421
  0
LINE
  5
3F7
100
AcDbEntity
  8
RACCORDO
100
AcDbLine
 62
7
  6
CONTINUOUS
 10
-9.4347214045
 20
8.2449443778
 11
-9.4927086282
 21
8.2911246354
  0
LINE
  5
3F8
100
AcDbEntity
  8
RACCORDO
100
AcDbLine
 62
7
  6
CONTINUOUS
 10
-14.3775243213
 20
-48.6256116027
 11
-14.3458885073
 21
-48.6509114777
  0
LINE
  5
3F9
100
AcDbEntity
  8
RACCORDO
100
AcDbLine
 62
7
  6
CONTINUOUS
 10
-8.7145993944
 20
-37.5697898044
 11
-8.7325620848
 21
-37.5554194117
  0
LINE
  5
3FA
100
AcDbEntity
  8
0
100
AcDbLine
 62
7
  6
CONTINUOUS
 10
3.8231625031
 20
-45.933270578
 11
3.8402805209
 21
-45.9470006103
  0
LINE
  5
3FB
100
AcDbEntity
  8
RACCORDO
100
AcDbLine
 62
7
  6
CONTINUOUS
 10
-9.1203817586
 20
-38.1385363506
 11
-9.1492228548
 21
-38.1151990176
  0
LINE
  5
3FC
100
AcDbEntity
  8
0
100
AcDbLine
 62
7
  6
CONTINUOUS
 10
3.8059198035
 20
-46.8583519658
 11
3.8220894438
 21
-46.8715207364
  0
LINE
  5
3FD
100
AcDbEntity
  8
RACCORDO
100
AcDbLine
 62
7
  6
CONTINUOUS
 10
-9.01106417
 20
-0.9992968033
 11
-8.9951704657
 21
-1.0123125774
  0
LINE
  5
3FE
100
AcDbEntity
  8
RACCORDO
100
AcDbLine
 62
7
  6
CONTINUOUS
 10
8.2908250386
 20
-7.9481259666
 11
8.3067188082
 21
-7.9611415895
  0
LINE
  5
3FF
100
AcDbEntity
  8
0
100
AcDbLine
 62
7
  6
CONTINUOUS
 10
3.7121660915
 20
-46.030909217
 11
3.7351925684
 21
-46.0498803249
  0
LINE
  5
400
100
AcDbEntity
  8
0
100
AcDbLine
 62
7
  6
CONTINUOUS
 10
4.0918515628
 20
-46.9471572024
 11
4.0681265445
 21
-46.927530796
  0
LINE
  5
401
100
AcDbEntity
  8
RACCORDO
100
AcDbLine
 62
7
  6
CONTINUOUS
 10
-16.390811893
 20
-16.7765008126
 11
-16.4080928079
 21
-16.7621861742
  0
LINE
  5
402
100
AcDbEntity
  8
RACCORDO
100
AcDbLine
 62
7
  6
CONTINUOUS
 10
-16.390811893
 20
29.9151657118
 11
-16.4080928079
 21
29.9294803503
  0
LINE
  5
403
100
AcDbEntity
  8
RACCORDO
100
AcDbLine
 62
7
  6
CONTINUOUS
 10
8.5934901479
 20
-8.130695083
 11
8.6343543305
 21
-8.1645689872
  0
LINE
  5
404
100
AcDbEntity
  8
RACCORDO
100
AcDbLine
 62
7
  6
CONTINUOUS
 10
-8.7325620848
 20
-37.5554194117
 11
-8.7503018722
 21
-37.5406553854
  0
LINE
  5
405
100
AcDbEntity
  8
RACCORDO
100
AcDbLine
 62
7
  6
CONTINUOUS
 10
-14.4340744076
 20
-48.6351373633
 11
-14.3848726314
 21
-48.6763028802
  0
LINE
  5
406
100
AcDbEntity
  8
RACCORDO
100
AcDbLine
 62
7
  6
CONTINUOUS
 10
-9.1492228548
 20
-38.1151990176
 11
-9.1777104028
 21
-38.0912252773
  0
LINE
  5
407
100
AcDbEntity
  8
RACCORDO
100
AcDbLine
 62
7
  6
CONTINUOUS
 10
-9.0650723433
 20
8.8211351346
 11
-9.1004907811
 21
8.8510039531
  0
LINE
  5
408
100
AcDbEntity
  8
0
100
AcDbLine
 62
7
  6
CONTINUOUS
 10
3.9994648321
 20
-45.8449949986
 11
3.9709202929
 21
-45.8207706019
  0
LINE
  5
409
100
AcDbEntity
  8
RACCORDO
100
AcDbLine
 62
7
  6
CONTINUOUS
 10
-14.4084883051
 20
-48.5992066693
 11
-14.3775243213
 21
-48.6256116027
  0
LINE
  5
40A
100
AcDbEntity
  8
RACCORDO
100
AcDbLine
 62
7
  6
CONTINUOUS
 10
-16.0893480882
 20
-35.0158217498
 11
-16.106639075
 21
-35.001019674
  0
LINE
  5
40B
100
AcDbEntity
  8
RACCORDO
100
AcDbLine
 62
7
  6
CONTINUOUS
 10
-14.0500574605
 20
-48.8735280705
 11
-14.0405123427
 21
-48.8817354281
  0
LINE
  5
40C
100
AcDbEntity
  8
RACCORDO
100
AcDbLine
 62
7
  6
CONTINUOUS
 10
16.8787158887
 20
-61.2952204031
 11
16.8882609167
 21
-61.3034278451
  0
LINE
  5
40D
100
AcDbEntity
  8
0
100
AcDbLine
 62
7
  6
CONTINUOUS
 10
3.8402805209
 20
-45.9470006103
 11
3.8569568147
 21
-45.9613771138
  0
LINE
  5
40E
100
AcDbEntity
  8
RACCORDO
100
AcDbLine
 62
7
  6
CONTINUOUS
 10
8.6467374149
 20
-7.9977625421
 11
8.7036841858
 21
-8.0470069914
  0
LINE
  5
40F
100
AcDbEntity
  8
RACCORDO
100
AcDbLine
 62
7
  6
CONTINUOUS
 10
-9.4927086282
 20
8.2911246354
 11
-9.549655399
 21
8.3403690847
  0
LINE
  5
410
100
AcDbEntity
  8
RACCORDO
100
AcDbLine
 62
7
  6
CONTINUOUS
 10
-8.7503018722
 20
-37.5406553854
 11
-8.7678039627
 21
-37.5255105787
  0
LINE
  5
411
100
AcDbEntity
  8
0
100
AcDbLine
 62
7
  6
CONTINUOUS
 10
3.6999632764
 20
-46.9602806196
 11
3.7180987762
 21
-46.975992483
  0
LINE
  5
412
100
AcDbEntity
  8
RACCORDO
100
AcDbLine
 62
7
  6
CONTINUOUS
 10
-7.7569910857
 20
-36.8320936786
 11
-7.7954771255
 21
-36.7985715564
  0
LINE
  5
413
100
AcDbEntity
  8
RACCORDO
100
AcDbLine
 62
7
  6
CONTINUOUS
 10
-7.7954929905
 20
9.8931085498
 11
-7.757001985
 21
9.8595819264
  0
LINE
  5
414
100
AcDbEntity
  8
RACCORDO
100
AcDbLine
 62
7
  6
CONTINUOUS
 10
-6.9395917284
 20
-36.161948425
 11
-6.9016592117
 21
-36.1950846402
  0
LINE
  5
415
100
AcDbEntity
  8
RACCORDO
100
AcDbLine
 62
7
  6
CONTINUOUS
 10
-6.9395917284
 20
10.5297180995
 11
-6.9016592117
 21
10.4965818843
  0
LINE
  5
416
100
AcDbEntity
  8
RACCORDO
100
AcDbLine
 62
7
  6
CONTINUOUS
 10
-9.1777104028
 20
-38.0912252773
 11
-9.2058488607
 21
-38.0666213243
  0
LINE
  5
417
100
AcDbEntity
  8
RACCORDO
100
AcDbLine
 62
7
  6
CONTINUOUS
 10
9.1719736777
 20
-27.032961303
 11
9.1488541892
 21
-27.012735231
  0
LINE
  5
418
100
AcDbEntity
  8
RACCORDO
100
AcDbLine
 62
7
  6
CONTINUOUS
 10
9.1719736778
 20
-9.1665565509
 11
9.1488541892
 21
-9.1463304789
  0
LINE
  5
419
100
AcDbEntity
  8
RACCORDO
100
AcDbLine
 62
7
  6
CONTINUOUS
 10
9.1719728233
 20
1.792301152
 11
9.1488533305
 21
1.8125273663
  0
LINE
  5
41A
100
AcDbEntity
  8
RACCORDO
100
AcDbLine
 62
7
  6
CONTINUOUS
 10
9.1719736778
 20
19.6587052215
 11
9.1488541892
 21
19.6789312934
  0
LINE
  5
41B
100
AcDbEntity
  8
0
100
AcDbLine
 62
7
  6
CONTINUOUS
 10
3.8220894438
 20
-46.8715207364
 11
3.837620989
 21
-46.8853791186
  0
LINE
  5
41C
100
AcDbEntity
  8
RACCORDO
100
AcDbLine
 62
7
  6
CONTINUOUS
 10
8.6343543305
 20
-8.1645689872
 11
8.6745119175
 21
-8.2006734051
  0
LINE
  5
41D
100
AcDbEntity
  8
RACCORDO
100
AcDbLine
 62
7
  6
CONTINUOUS
 10
-8.7678039627
 20
-37.5255105787
 11
-8.7851087096
 21
-37.5099413312
  0
LINE
  5
41E
100
AcDbEntity
  8
0
100
AcDbLine
 62
7
  6
CONTINUOUS
 10
4.1140900652
 20
-46.9672339473
 11
4.0918515628
 21
-46.9471572024
  0
LINE
  5
41F
100
AcDbEntity
  8
RACCORDO
100
AcDbLine
 62
7
  6
CONTINUOUS
 10
9.4525254095
 20
-44.6375795763
 11
9.4293919718
 21
-44.6166618073
  0
LINE
  5
420
100
AcDbEntity
  8
RACCORDO
100
AcDbLine
 62
7
  6
CONTINUOUS
 10
-14.4817590678
 20
-48.5918896838
 11
-14.4340744076
 21
-48.6351373633
  0
LINE
  5
421
100
AcDbEntity
  8
RACCORDO
100
AcDbLine
 62
7
  6
CONTINUOUS
 10
-14.4387857389
 20
-48.5717065474
 11
-14.4084883051
 21
-48.5992066693
  0
LINE
  5
422
100
AcDbEntity
  8
RACCORDO
100
AcDbLine
 62
7
  6
CONTINUOUS
 10
-9.2058488607
 20
-38.0666213243
 11
-9.2336332026
 21
-38.0413804561
  0
LINE
  5
423
100
AcDbEntity
  8
0
100
AcDbLine
 62
7
  6
CONTINUOUS
 10
3.7351925684
 20
-46.0498803249
 11
3.7573254979
 21
-46.0701306804
  0
LINE
  5
424
100
AcDbEntity
  8
RACCORDO
100
AcDbLine
 62
7
  6
CONTINUOUS
 10
-9.1004907811
 20
8.8510039531
 11
-9.1347449612
 21
8.8824852164
  0
LINE
  5
425
100
AcDbEntity
  8
0
100
AcDbLine
 62
7
  6
CONTINUOUS
 10
4.0282855319
 20
-45.8716198061
 11
3.9994648321
 21
-45.8449949986
  0
LINE
  5
426
100
AcDbEntity
  8
0
100
AcDbLine
 62
7
  6
CONTINUOUS
 10
3.8569568147
 20
-45.9613771138
 11
3.8731694676
 21
-45.9763940725
  0
LINE
  5
427
100
AcDbEntity
  8
RACCORDO
100
AcDbLine
 62
7
  6
CONTINUOUS
 10
-8.7851087096
 20
-37.5099413312
 11
-8.8022000439
 21
-37.4939578017
  0
LINE
  5
428
100
AcDbEntity
  8
RACCORDO
100
AcDbLine
 62
7
  6
CONTINUOUS
 10
-14.8086170948
 20
-48.0357785968
 11
-14.8261008784
 21
-48.0194027709
  0
LINE
  5
429
100
AcDbEntity
  8
RACCORDO
100
AcDbLine
 62
7
  6
CONTINUOUS
 10
-9.549655399
 20
8.3403690847
 11
-9.6046697478
 21
8.3919307142
  0
LINE
  5
42A
100
AcDbEntity
  8
RACCORDO
100
AcDbLine
 62
7
  6
CONTINUOUS
 10
8.7036841858
 20
-8.0470069914
 11
8.7586985345
 21
-8.0985686208
  0
LINE
  5
42B
100
AcDbEntity
  8
RACCORDO
100
AcDbLine
 62
7
  6
CONTINUOUS
 10
-9.2336332026
 20
-38.0413804561
 11
-9.2610793807
 21
-38.0154698639
  0
LINE
  5
42C
100
AcDbEntity
  8
RACCORDO
100
AcDbLine
 62
7
  6
CONTINUOUS
 10
-7.7954771255
 20
-36.7985715564
 11
-7.8327504
 21
-36.7631612808
  0
LINE
  5
42D
100
AcDbEntity
  8
RACCORDO
100
AcDbLine
 62
7
  6
CONTINUOUS
 10
-7.8327703536
 20
9.9285281813
 11
-7.7954929905
 21
9.8931085498
  0
LINE
  5
42E
100
AcDbEntity
  8
0
100
AcDbLine
 62
7
  6
CONTINUOUS
 10
3.7180987762
 20
-46.975992483
 11
3.7356714912
 21
-46.9927951903
  0
LINE
  5
42F
100
AcDbEntity
  8
RACCORDO
100
AcDbLine
 62
7
  6
CONTINUOUS
 10
-6.9762932823
 20
-36.1268457267
 11
-6.9395917284
 21
-36.161948425
  0
LINE
  5
430
100
AcDbEntity
  8
RACCORDO
100
AcDbLine
 62
7
  6
CONTINUOUS
 10
-6.9762932823
 20
10.5648207978
 11
-6.9395917284
 21
10.5297180995
  0
LINE
  5
431
100
AcDbEntity
  8
0
100
AcDbLine
 62
7
  6
CONTINUOUS
 10
3.837620989
 20
-46.8853791186
 11
3.8524513018
 21
-46.8996908881
  0
LINE
  5
432
100
AcDbEntity
  8
RACCORDO
100
AcDbLine
 62
7
  6
CONTINUOUS
 10
-14.4681106197
 20
-48.5433725891
 11
-14.4387857389
 21
-48.5717065474
  0
LINE
  5
433
100
AcDbEntity
  8
RACCORDO
100
AcDbLine
 62
7
  6
CONTINUOUS
 10
-8.8022000439
 20
-37.4939578017
 11
-8.8190607609
 21
-37.4775705208
  0
LINE
  5
434
100
AcDbEntity
  8
RACCORDO
100
AcDbLine
 62
7
  6
CONTINUOUS
 10
8.6745119175
 20
-8.2006734051
 11
8.7137348636
 21
-8.2388526099
  0
LINE
  5
435
100
AcDbEntity
  8
RACCORDO
100
AcDbLine
 62
7
  6
CONTINUOUS
 10
-9.2610793807
 20
-38.0154698639
 11
-9.2881937687
 21
-37.9888937561
  0
LINE
  5
436
100
AcDbEntity
  8
RACCORDO
100
AcDbLine
 62
7
  6
CONTINUOUS
 10
-14.5277399405
 20
-48.5466985568
 11
-14.4817590678
 21
-48.5918896838
  0
LINE
  5
437
100
AcDbEntity
  8
0
100
AcDbLine
 62
7
  6
CONTINUOUS
 10
4.1348424149
 20
-46.9877606807
 11
4.1140900652
 21
-46.9672339473
  0
LINE
  5
438
100
AcDbEntity
  8
0
100
AcDbLine
 62
7
  6
CONTINUOUS
 10
4.0575338665
 20
-45.900596412
 11
4.0282855319
 21
-45.8716198061
  0
LINE
  5
439
100
AcDbEntity
  8
RACCORDO
100
AcDbLine
 62
7
  6
CONTINUOUS
 10
-16.1066391062
 20
48.721702846
 11
-16.1213212851
 21
48.7363287649
  0
LINE
  5
43A
100
AcDbEntity
  8
0
100
AcDbLine
 62
7
  6
CONTINUOUS
 10
3.8731694676
 20
-45.9763940725
 11
3.8887262227
 21
-45.9919419735
  0
LINE
  5
43B
100
AcDbEntity
  8
RACCORDO
100
AcDbLine
 62
7
  6
CONTINUOUS
 10
-9.1347449612
 20
8.8824852164
 11
-9.1676644633
 21
8.915402389
  0
LINE
  5
43C
100
AcDbEntity
  8
RACCORDO
100
AcDbLine
 62
7
  6
CONTINUOUS
 10
-8.8190607609
 20
-37.4775705208
 11
-8.8357241266
 21
-37.4607304016
  0
LINE
  5
43D
100
AcDbEntity
  8
RACCORDO
100
AcDbLine
 62
7
  6
CONTINUOUS
 10
-9.6046697478
 20
8.3919307142
 11
-9.65761646
 21
8.445767573
  0
LINE
  5
43E
100
AcDbEntity
  8
RACCORDO
100
AcDbLine
 62
7
  6
CONTINUOUS
 10
8.7586985345
 20
-8.0985686208
 11
8.8116452467
 21
-8.1524054797
  0
LINE
  5
43F
100
AcDbEntity
  8
RACCORDO
100
AcDbLine
 62
7
  6
CONTINUOUS
 10
-9.2881937687
 20
-37.9888937561
 11
-9.3149692985
 21
-37.9616473038
  0
LINE
  5
440
100
AcDbEntity
  8
0
100
AcDbLine
 62
7
  6
CONTINUOUS
 10
3.7573254979
 20
-46.0701306804
 11
3.7786430362
 21
-46.0918214104
  0
LINE
  5
441
100
AcDbEntity
  8
RACCORDO
100
AcDbLine
 62
7
  6
CONTINUOUS
 10
-14.4964549198
 20
-48.5141940487
 11
-14.4681106197
 21
-48.5433725891
  0
LINE
  5
442
100
AcDbEntity
  8
RACCORDO
100
AcDbLine
 62
7
  6
CONTINUOUS
 10
-9.534821391
 20
46.0454866589
 11
-9.5053349507
 21
46.0150405553
  0
LINE
  5
443
100
AcDbEntity
  8
RACCORDO
100
AcDbLine
 62
7
  6
CONTINUOUS
 10
-7.8327504
 20
-36.7631612808
 11
-7.8688432602
 21
-36.7258154542
  0
LINE
  5
444
100
AcDbEntity
  8
RACCORDO
100
AcDbLine
 62
7
  6
CONTINUOUS
 10
-7.8688666165
 20
9.9658762844
 11
-7.8327703536
 21
9.9285281813
  0
LINE
  5
445
100
AcDbEntity
  8
RACCORDO
100
AcDbLine
 62
7
  6
CONTINUOUS
 10
-16.4080928079
 20
-16.7621861742
 11
-16.4227632139
 21
-16.746943154
  0
LINE
  5
446
100
AcDbEntity
  8
RACCORDO
100
AcDbLine
 62
7
  6
CONTINUOUS
 10
-16.4080928079
 20
29.9294803503
 11
-16.4227632139
 21
29.9447233704
  0
LINE
  5
447
100
AcDbEntity
  8
0
100
AcDbLine
 62
7
  6
CONTINUOUS
 10
3.7356714912
 20
-46.9927951903
 11
3.7524336777
 21
-47.0102952288
  0
LINE
  5
448
100
AcDbEntity
  8
RACCORDO
100
AcDbLine
 62
7
  6
CONTINUOUS
 10
-7.0117198588
 20
-36.0898367329
 11
-6.9762932823
 21
-36.1268457267
  0
LINE
  5
449
100
AcDbEntity
  8
RACCORDO
100
AcDbLine
 62
7
  6
CONTINUOUS
 10
-7.0117198588
 20
10.6018297916
 11
-6.9762932823
 21
10.5648207978
  0
LINE
  5
44A
100
AcDbEntity
  8
0
100
AcDbLine
 62
7
  6
CONTINUOUS
 10
3.8524513018
 20
-46.8996908881
 11
3.8665351567
 21
-46.9144309503
  0
LINE
  5
44B
100
AcDbEntity
  8
RACCORDO
100
AcDbLine
 62
7
  6
CONTINUOUS
 10
-8.8357241266
 20
-37.4607304016
 11
-8.8521703739
 21
-37.4434469688
  0
LINE
  5
44C
100
AcDbEntity
  8
RACCORDO
100
AcDbLine
 62
7
  6
CONTINUOUS
 10
8.7137348636
 20
-8.2388526099
 11
8.7517885385
 21
-8.2789173369
  0
LINE
  5
44D
100
AcDbEntity
  8
RACCORDO
100
AcDbLine
 62
7
  6
CONTINUOUS
 10
-9.3149692985
 20
-37.9616473038
 11
-9.3414016995
 21
-37.9336840897
  0
LINE
  5
44E
100
AcDbEntity
  8
RACCORDO
100
AcDbLine
 62
7
  6
CONTINUOUS
 10
9.1488541892
 20
-27.012735231
 11
9.1287880946
 21
-26.9914637605
  0
LINE
  5
44F
100
AcDbEntity
  8
RACCORDO
100
AcDbLine
 62
7
  6
CONTINUOUS
 10
9.1488541892
 20
-9.1463304789
 11
9.1287880946
 21
-9.1250590084
  0
LINE
  5
450
100
AcDbEntity
  8
RACCORDO
100
AcDbLine
 62
7
  6
CONTINUOUS
 10
9.1488533305
 20
1.8125273663
 11
9.1287872936
 21
1.8337989536
  0
LINE
  5
451
100
AcDbEntity
  8
RACCORDO
100
AcDbLine
 62
7
  6
CONTINUOUS
 10
9.1488541892
 20
19.6789312934
 11
9.1287880946
 21
19.7002027639
  0
LINE
  5
452
100
AcDbEntity
  8
0
100
AcDbLine
 62
7
  6
CONTINUOUS
 10
4.08706056
 20
-45.9319713542
 11
4.0575338665
 21
-45.900596412
  0
LINE
  5
453
100
AcDbEntity
  8
RACCORDO
100
AcDbLine
 62
7
  6
CONTINUOUS
 10
-14.5717000177
 20
-48.4998415255
 11
-14.5277399405
 21
-48.5466985568
  0
LINE
  5
454
100
AcDbEntity
  8
RACCORDO
100
AcDbLine
 62
7
  6
CONTINUOUS
 10
-16.106639075
 20
-35.001019674
 11
-16.1213212538
 21
-34.9851771877
  0
LINE
  5
455
100
AcDbEntity
  8
0
100
AcDbLine
 62
7
  6
CONTINUOUS
 10
3.8887262227
 20
-45.9919419735
 11
3.9036244469
 21
-46.0080375091
  0
LINE
  5
456
100
AcDbEntity
  8
RACCORDO
100
AcDbLine
 62
7
  6
CONTINUOUS
 10
-9.1676644633
 20
8.915402389
 11
-9.199211929
 21
8.9496837579
  0
LINE
  5
457
100
AcDbEntity
  8
RACCORDO
100
AcDbLine
 62
7
  6
CONTINUOUS
 10
-8.8521703739
 20
-37.4434469688
 11
-8.868379011
 21
-37.4257293527
  0
LINE
  5
458
100
AcDbEntity
  8
RACCORDO
100
AcDbLine
 62
7
  6
CONTINUOUS
 10
-14.523824917
 20
-48.4841796512
 11
-14.4964549198
 21
-48.5141940487
  0
LINE
  5
459
100
AcDbEntity
  8
RACCORDO
100
AcDbLine
 62
7
  6
CONTINUOUS
 10
-9.3414016995
 20
-37.9336840897
 11
-9.3674988682
 21
-37.9050067268
  0
LINE
  5
45A
100
AcDbEntity
  8
RACCORDO
100
AcDbLine
 62
7
  6
CONTINUOUS
 10
9.4293919718
 20
-44.6166618073
 11
9.4093101269
 21
-44.5945744975
  0
LINE
  5
45B
100
AcDbEntity
  8
RACCORDO
100
AcDbLine
 62
7
  6
CONTINUOUS
 10
-9.65761646
 20
8.445767573
 11
-9.7086307501
 21
8.501921612
  0
LINE
  5
45C
100
AcDbEntity
  8
RACCORDO
100
AcDbLine
 62
7
  6
CONTINUOUS
 10
8.8116452467
 20
-8.1524054797
 11
8.8626595368
 21
-8.2085595186
  0
LINE
  5
45D
100
AcDbEntity
  8
0
100
AcDbLine
 62
7
  6
CONTINUOUS
 10
4.1540124969
 20
-47.0089000538
 11
4.1348424149
 21
-46.9877606807
  0
LINE
  5
45E
100
AcDbEntity
  8
0
100
AcDbLine
 62
7
  6
CONTINUOUS
 10
3.7786430362
 20
-46.0918214104
 11
3.7990682814
 21
-46.1147901971
  0
LINE
  5
45F
100
AcDbEntity
  8
RACCORDO
100
AcDbLine
 62
7
  6
CONTINUOUS
 10
-7.8688432602
 20
-36.7258154542
 11
-7.9036902377
 21
-36.6865539168
  0
LINE
  5
460
100
AcDbEntity
  8
RACCORDO
100
AcDbLine
 62
7
  6
CONTINUOUS
 10
-7.9037106041
 20
10.0051308453
 11
-7.8688666165
 21
9.9658762844
  0
LINE
  5
461
100
AcDbEntity
  8
RACCORDO
100
AcDbLine
 62
7
  6
CONTINUOUS
 10
-9.0253653412
 20
-0.9831565576
 11
-9.01106417
 21
-0.9992968033
  0
LINE
  5
462
100
AcDbEntity
  8
RACCORDO
100
AcDbLine
 62
7
  6
CONTINUOUS
 10
8.2765237799
 20
-7.9319858486
 11
8.2908250386
 21
-7.9481259666
  0
LINE
  5
463
100
AcDbEntity
  8
0
100
AcDbLine
 62
7
  6
CONTINUOUS
 10
3.8665351567
 20
-46.9144309503
 11
3.8799181793
 21
-46.9296240126
  0
LINE
  5
464
100
AcDbEntity
  8
RACCORDO
100
AcDbLine
 62
7
  6
CONTINUOUS
 10
-7.0459434099
 20
-36.0508924172
 11
-7.0117198588
 21
-36.0898367329
  0
LINE
  5
465
100
AcDbEntity
  8
RACCORDO
100
AcDbLine
 62
7
  6
CONTINUOUS
 10
-7.0459434099
 20
10.6407741073
 11
-7.0117198588
 21
10.6018297916
  0
LINE
  5
466
100
AcDbEntity
  8
RACCORDO
100
AcDbLine
 62
7
  6
CONTINUOUS
 10
-8.868379011
 20
-37.4257293527
 11
-8.8843755205
 21
-37.4075231147
  0
LINE
  5
467
100
AcDbEntity
  8
RACCORDO
100
AcDbLine
 62
7
  6
CONTINUOUS
 10
8.7517885385
 20
-8.2789173369
 11
8.7884577686
 21
-8.3206698621
  0
LINE
  5
468
100
AcDbEntity
  8
RACCORDO
100
AcDbLine
 62
7
  6
CONTINUOUS
 10
-9.3674988682
 20
-37.9050067268
 11
-9.3932520531
 21
-37.8756118392
  0
LINE
  5
469
100
AcDbEntity
  8
0
100
AcDbLine
 62
7
  6
CONTINUOUS
 10
3.7524336777
 20
-47.0102952288
 11
3.76831299
 21
-47.0284616101
  0
LINE
  5
46A
100
AcDbEntity
  8
0
100
AcDbLine
 62
7
  6
CONTINUOUS
 10
4.1164157992
 20
-45.96588612
 11
4.08706056
 21
-45.9319713542
  0
LINE
  5
46B
100
AcDbEntity
  8
RACCORDO
100
AcDbLine
 62
7
  6
CONTINUOUS
 10
-14.6134832896
 20
-48.4514649028
 11
-14.5717000177
 21
-48.4998415255
  0
LINE
  5
46C
100
AcDbEntity
  8
RACCORDO
100
AcDbLine
 62
7
  6
CONTINUOUS
 10
-9.5624431324
 20
46.0777070927
 11
-9.534821391
 21
46.0454866589
  0
LINE
  5
46D
100
AcDbEntity
  8
0
100
AcDbLine
 62
7
  6
CONTINUOUS
 10
3.9036244469
 20
-46.0080375091
 11
3.9178672479
 21
-46.0246635362
  0
LINE
  5
46E
100
AcDbEntity
  8
RACCORDO
100
AcDbLine
 62
7
  6
CONTINUOUS
 10
-14.5499362031
 20
-48.4536201138
 11
-14.523824917
 21
-48.4841796512
  0
LINE
  5
46F
100
AcDbEntity
  8
RACCORDO
100
AcDbLine
 62
7
  6
CONTINUOUS
 10
-9.199211929
 20
8.9496837579
 11
-9.2292822697
 21
8.9851991482
  0
LINE
  5
470
100
AcDbEntity
  8
RACCORDO
100
AcDbLine
 62
7
  6
CONTINUOUS
 10
-14.0586077216
 20
-48.8633984812
 11
-14.0500574605
 21
-48.8735280705
  0
LINE
  5
471
100
AcDbEntity
  8
RACCORDO
100
AcDbLine
 62
7
  6
CONTINUOUS
 10
16.8701657281
 20
-61.2850907744
 11
16.8787158887
 21
-61.2952204031
  0
LINE
  5
472
100
AcDbEntity
  8
RACCORDO
100
AcDbLine
 62
7
  6
CONTINUOUS
 10
-8.8843755205
 20
-37.4075231147
 11
-8.9001342373
 21
-37.3888397745
  0
LINE
  5
473
100
AcDbEntity
  8
RACCORDO
100
AcDbLine
 62
7
  6
CONTINUOUS
 10
-9.3932520531
 20
-37.8756118392
 11
-9.4186319215
 21
-37.8454439462
  0
LINE
  5
474
100
AcDbEntity
  8
RACCORDO
100
AcDbLine
 62
7
  6
CONTINUOUS
 10
-9.7086307501
 20
8.501921612
 11
-9.7572262918
 21
8.5597716719
  0
LINE
  5
475
100
AcDbEntity
  8
RACCORDO
100
AcDbLine
 62
7
  6
CONTINUOUS
 10
8.8626595368
 20
-8.2085595186
 11
8.9112550785
 21
-8.2664095785
  0
LINE
  5
476
100
AcDbEntity
  8
RACCORDO
100
AcDbLine
 62
7
  6
CONTINUOUS
 10
-14.8261008784
 20
-48.0194027709
 11
-14.841008664
 21
-48.0016211839
  0
LINE
  5
477
100
AcDbEntity
  8
RACCORDO
100
AcDbLine
 62
7
  6
CONTINUOUS
 10
9.3681892088
 20
-45.2504894493
 11
9.341123533
 21
-45.2178135132
  0
LINE
  5
478
100
AcDbEntity
  8
0
100
AcDbLine
 62
7
  6
CONTINUOUS
 10
3.8799181793
 20
-46.9296240126
 11
3.8926734265
 21
-46.945108633
  0
LINE
  5
479
100
AcDbEntity
  8
0
100
AcDbLine
 62
7
  6
CONTINUOUS
 10
4.1716973145
 20
-47.0304885585
 11
4.1540124969
 21
-47.0089000538
  0
LINE
  5
47A
100
AcDbEntity
  8
RACCORDO
100
AcDbLine
 62
7
  6
CONTINUOUS
 10
-7.9036902377
 20
-36.6865539168
 11
-7.937014012
 21
-36.6456412212
  0
LINE
  5
47B
100
AcDbEntity
  8
RACCORDO
100
AcDbLine
 62
7
  6
CONTINUOUS
 10
-7.9370239948
 20
10.046034588
 11
-7.9037106041
 21
10.0051308453
  0
LINE
  5
47C
100
AcDbEntity
  8
RACCORDO
100
AcDbLine
 62
7
  6
CONTINUOUS
 10
8.7884577686
 20
-8.3206698621
 11
8.8235436844
 21
-8.3638993838
  0
LINE
  5
47D
100
AcDbEntity
  8
RACCORDO
100
AcDbLine
 62
7
  6
CONTINUOUS
 10
-8.9001342373
 20
-37.3888397745
 11
-8.9156310776
 21
-37.3696871307
  0
LINE
  5
47E
100
AcDbEntity
  8
RACCORDO
100
AcDbLine
 62
7
  6
CONTINUOUS
 10
-9.4186319215
 20
-37.8454439462
 11
-9.4436481635
 21
-37.8145042785
  0
LINE
  5
47F
100
AcDbEntity
  8
RACCORDO
100
AcDbLine
 62
7
  6
CONTINUOUS
 10
-7.0788930212
 20
-36.0100225272
 11
-7.0459434099
 21
-36.0508924172
  0
LINE
  5
480
100
AcDbEntity
  8
RACCORDO
100
AcDbLine
 62
7
  6
CONTINUOUS
 10
-7.0788930212
 20
10.6816439973
 11
-7.0459434099
 21
10.6407741073
  0
LINE
  5
481
100
AcDbEntity
  8
0
100
AcDbLine
 62
7
  6
CONTINUOUS
 10
4.1458568397
 20
-46.0025616927
 11
4.1164157992
 21
-45.96588612
  0
LINE
  5
482
100
AcDbEntity
  8
0
100
AcDbLine
 62
7
  6
CONTINUOUS
 10
3.76831299
 20
-47.0284616101
 11
3.7833824942
 21
-47.0473246252
  0
LINE
  5
483
100
AcDbEntity
  8
RACCORDO
100
AcDbLine
 62
7
  6
CONTINUOUS
 10
-14.574777579
 20
-48.4225074163
 11
-14.5499362031
 21
-48.4536201138
  0
LINE
  5
484
100
AcDbEntity
  8
0
100
AcDbLine
 62
7
  6
CONTINUOUS
 10
3.7990682814
 20
-46.1147901971
 11
3.8178510151
 21
-46.1383904159
  0
LINE
  5
485
100
AcDbEntity
  8
RACCORDO
100
AcDbLine
 62
7
  6
CONTINUOUS
 10
-14.6529182714
 20
-48.4017117058
 11
-14.6134832896
 21
-48.4514649028
  0
LINE
  5
486
100
AcDbEntity
  8
RACCORDO
100
AcDbLine
 62
7
  6
CONTINUOUS
 10
-8.6645425141
 20
45.9590921043
 11
-8.6503805008
 21
45.9411564351
  0
LINE
  5
487
100
AcDbEntity
  8
0
100
AcDbLine
 62
7
  6
CONTINUOUS
 10
3.9178672479
 20
-46.0246635362
 11
3.9312709726
 21
-46.0416597958
  0
LINE
  5
488
100
AcDbEntity
  8
RACCORDO
100
AcDbLine
 62
7
  6
CONTINUOUS
 10
-16.1213212851
 20
48.7363287649
 11
-16.1332443175
 21
48.7516181874
  0
LINE
  5
489
100
AcDbEntity
  8
RACCORDO
100
AcDbLine
 62
7
  6
CONTINUOUS
 10
-9.2292822697
 20
8.9851991482
 11
-9.2577473191
 21
9.0217729501
  0
LINE
  5
48A
100
AcDbEntity
  8
RACCORDO
100
AcDbLine
 62
7
  6
CONTINUOUS
 10
-9.4436481635
 20
-37.8145042785
 11
-9.4682900294
 21
-37.7827906616
  0
LINE
  5
48B
100
AcDbEntity
  8
RACCORDO
100
AcDbLine
 62
7
  6
CONTINUOUS
 10
-9.7572262918
 20
8.5597716719
 11
-9.8033320422
 21
8.6192451003
  0
LINE
  5
48C
100
AcDbEntity
  8
RACCORDO
100
AcDbLine
 62
7
  6
CONTINUOUS
 10
8.9112550785
 20
-8.2664095785
 11
8.9573608289
 21
-8.3258830069
  0
LINE
  5
48D
100
AcDbEntity
  8
RACCORDO
100
AcDbLine
 62
7
  6
CONTINUOUS
 10
-8.9156310776
 20
-37.3696871307
 11
-8.9308853911
 21
-37.3500015146
  0
LINE
  5
48E
100
AcDbEntity
  8
0
100
AcDbLine
 62
7
  6
CONTINUOUS
 10
3.8926734265
 20
-46.945108633
 11
3.9048179421
 21
-46.9608741338
  0
LINE
  5
48F
100
AcDbEntity
  8
0
100
AcDbLine
 62
7
  6
CONTINUOUS
 10
4.1881866878
 20
-47.0520368181
 11
4.1716973145
 21
-47.0304885585
  0
LINE
  5
490
100
AcDbEntity
  8
RACCORDO
100
AcDbLine
 62
7
  6
CONTINUOUS
 10
9.1287880946
 20
-26.9914637605
 11
9.1119181037
 21
-26.9692981739
  0
LINE
  5
491
100
AcDbEntity
  8
RACCORDO
100
AcDbLine
 62
7
  6
CONTINUOUS
 10
9.1287880946
 20
-9.1250590084
 11
9.1119181037
 21
-9.1028934218
  0
LINE
  5
492
100
AcDbEntity
  8
RACCORDO
100
AcDbLine
 62
7
  6
CONTINUOUS
 10
9.1287872936
 20
1.8337989536
 11
9.1119174104
 21
1.8559646252
  0
LINE
  5
493
100
AcDbEntity
  8
RACCORDO
100
AcDbLine
 62
7
  6
CONTINUOUS
 10
9.1287880946
 20
19.7002027639
 11
9.1119181037
 21
19.7223683505
  0
LINE
  5
494
100
AcDbEntity
  8
RACCORDO
100
AcDbLine
 62
7
  6
CONTINUOUS
 10
8.8235436844
 20
-8.3638993838
 11
8.8568594001
 21
-8.4083785688
  0
LINE
  5
495
100
AcDbEntity
  8
0
100
AcDbLine
 62
7
  6
CONTINUOUS
 10
4.1751301953
 20
-46.0417735254
 11
4.1458568397
 21
-46.0025616927
  0
LINE
  5
496
100
AcDbEntity
  8
RACCORDO
100
AcDbLine
 62
7
  6
CONTINUOUS
 10
-7.937014012
 20
-36.6456412212
 11
-7.9685331051
 21
-36.6033991826
  0
LINE
  5
497
100
AcDbEntity
  8
RACCORDO
100
AcDbLine
 62
7
  6
CONTINUOUS
 10
-7.9685331051
 20
10.0882673419
 11
-7.9370239948
 21
10.046034588
  0
LINE
  5
498
100
AcDbEntity
  8
RACCORDO
100
AcDbLine
 62
7
  6
CONTINUOUS
 10
-14.5983584519
 20
-48.3908475144
 11
-14.574777579
 21
-48.4225074163
  0
LINE
  5
499
100
AcDbEntity
  8
RACCORDO
100
AcDbLine
 62
7
  6
CONTINUOUS
 10
-9.4682900294
 20
-37.7827906616
 11
-9.4924974033
 21
-37.7502423967
  0
LINE
  5
49A
100
AcDbEntity
  8
RACCORDO
100
AcDbLine
 62
7
  6
CONTINUOUS
 10
-16.4227632139
 20
-16.746943154
 11
-16.4346729068
 21
-16.7309278191
  0
LINE
  5
49B
100
AcDbEntity
  8
RACCORDO
100
AcDbLine
 62
7
  6
CONTINUOUS
 10
-16.4227632139
 20
29.9447233704
 11
-16.4346729068
 21
29.9607387053
  0
LINE
  5
49C
100
AcDbEntity
  8
RACCORDO
100
AcDbLine
 62
7
  6
CONTINUOUS
 10
-8.9308853911
 20
-37.3500015146
 11
-8.9458807227
 21
-37.3297681498
  0
LINE
  5
49D
100
AcDbEntity
  8
0
100
AcDbLine
 62
7
  6
CONTINUOUS
 10
3.7833824942
 20
-47.0473246252
 11
3.7976124098
 21
-47.0665828294
  0
LINE
  5
49E
100
AcDbEntity
  8
RACCORDO
100
AcDbLine
 62
7
  6
CONTINUOUS
 10
-7.1102900772
 20
-35.9674983828
 11
-7.0788930212
 21
-36.0100225272
  0
LINE
  5
49F
100
AcDbEntity
  8
RACCORDO
100
AcDbLine
 62
7
  6
CONTINUOUS
 10
-7.1102900772
 20
10.7241681416
 11
-7.0788930212
 21
10.6816439973
  0
LINE
  5
4A0
100
AcDbEntity
  8
RACCORDO
100
AcDbLine
 62
7
  6
CONTINUOUS
 10
-14.853191276
 20
64.115343732
 11
-14.8625168427
 21
64.1280858272
  0
LINE
  5
4A1
100
AcDbEntity
  8
RACCORDO
100
AcDbLine
 62
7
  6
CONTINUOUS
 10
9.4093101269
 20
-44.5945744975
 11
9.3924227101
 21
-44.5714747463
  0
LINE
  5
4A2
100
AcDbEntity
  8
RACCORDO
100
AcDbLine
 62
7
  6
CONTINUOUS
 10
-14.6897555457
 20
-48.3508450048
 11
-14.6529182714
 21
-48.4017117058
  0
LINE
  5
4A3
100
AcDbEntity
  8
RACCORDO
100
AcDbLine
 62
7
  6
CONTINUOUS
 10
9.341123533
 20
-45.2178135132
 11
9.3163164993
 21
-45.183534264
  0
LINE
  5
4A4
100
AcDbEntity
  8
0
100
AcDbLine
 62
7
  6
CONTINUOUS
 10
3.9312709726
 20
-46.0416597958
 11
3.9437931764
 21
-46.0590412944
  0
LINE
  5
4A5
100
AcDbEntity
  8
0
100
AcDbLine
 62
7
  6
CONTINUOUS
 10
3.9048179421
 20
-46.9608741338
 11
3.9163350409
 21
-46.9769308453
  0
LINE
  5
4A6
100
AcDbEntity
  8
0
100
AcDbLine
 62
7
  6
CONTINUOUS
 10
4.2034628886
 20
-47.0734187717
 11
4.1881866878
 21
-47.0520368181
  0
LINE
  5
4A7
100
AcDbEntity
  8
RACCORDO
100
AcDbLine
 62
7
  6
CONTINUOUS
 10
-9.8033320422
 20
8.6192451003
 11
-9.8470190443
 21
8.6804145496
  0
LINE
  5
4A8
100
AcDbEntity
  8
RACCORDO
100
AcDbLine
 62
7
  6
CONTINUOUS
 10
-9.2577473191
 20
9.0217729501
 11
-9.2845611208
 21
9.0593193779
  0
LINE
  5
4A9
100
AcDbEntity
  8
RACCORDO
100
AcDbLine
 62
7
  6
CONTINUOUS
 10
8.9573608289
 20
-8.3258830069
 11
9.001047831
 21
-8.3870524562
  0
LINE
  5
4AA
100
AcDbEntity
  8
RACCORDO
100
AcDbLine
 62
7
  6
CONTINUOUS
 10
-16.1213212538
 20
-34.9851771877
 11
-16.1332442868
 21
-34.9684565096
  0
LINE
  5
4AB
100
AcDbEntity
  8
RACCORDO
100
AcDbLine
 62
7
  6
CONTINUOUS
 10
-9.4924974033
 20
-37.7502423967
 11
-9.5162497821
 21
-37.716838838
  0
LINE
  5
4AC
100
AcDbEntity
  8
RACCORDO
100
AcDbLine
 62
7
  6
CONTINUOUS
 10
-8.9458807227
 20
-37.3297681498
 11
-8.9605695604
 21
-37.3090241675
  0
LINE
  5
4AD
100
AcDbEntity
  8
0
100
AcDbLine
 62
7
  6
CONTINUOUS
 10
3.8178510151
 20
-46.1383904159
 11
3.8348172471
 21
-46.1627036264
  0
LINE
  5
4AE
100
AcDbEntity
  8
RACCORDO
100
AcDbLine
 62
7
  6
CONTINUOUS
 10
-14.6204255908
 20
-48.3589523989
 11
-14.5983584519
 21
-48.3908475144
  0
LINE
  5
4AF
100
AcDbEntity
  8
RACCORDO
100
AcDbLine
 62
7
  6
CONTINUOUS
 10
8.8568594001
 20
-8.4083785688
 11
8.8882335301
 21
-8.4538696957
  0
LINE
  5
4B0
100
AcDbEntity
  8
0
100
AcDbLine
 62
7
  6
CONTINUOUS
 10
3.7976124098
 20
-47.0665828294
 11
3.8110104224
 21
-47.086214025
  0
LINE
  5
4B1
100
AcDbEntity
  8
RACCORDO
100
AcDbLine
 62
7
  6
CONTINUOUS
 10
-7.9685331051
 20
-36.6033991826
 11
-7.9981083904
 21
-36.5600099631
  0
LINE
  5
4B2
100
AcDbEntity
  8
RACCORDO
100
AcDbLine
 62
7
  6
CONTINUOUS
 10
-7.9981027617
 20
10.1316439646
 11
-7.9685331051
 21
10.0882673419
  0
LINE
  5
4B3
100
AcDbEntity
  8
RACCORDO
100
AcDbLine
 62
7
  6
CONTINUOUS
 10
-9.5162497821
 20
-37.716838838
 11
-9.5395663333
 21
-37.6825994439
  0
LINE
  5
4B4
100
AcDbEntity
  8
0
100
AcDbLine
 62
7
  6
CONTINUOUS
 10
4.2030204111
 20
-46.0829943631
 11
4.1751301953
 21
-46.0417735254
  0
LINE
  5
4B5
100
AcDbEntity
  8
RACCORDO
100
AcDbLine
 62
7
  6
CONTINUOUS
 10
-7.1398990265
 20
-35.9236842532
 11
-7.1102900772
 21
-35.9674983828
  0
LINE
  5
4B6
100
AcDbEntity
  8
RACCORDO
100
AcDbLine
 62
7
  6
CONTINUOUS
 10
-7.1398990265
 20
10.7679822713
 11
-7.1102900772
 21
10.7241681416
  0
LINE
  5
4B7
100
AcDbEntity
  8
RACCORDO
100
AcDbLine
 62
7
  6
CONTINUOUS
 10
-8.9605695604
 20
-37.3090241675
 11
-8.9749190569
 21
-37.2877837094
  0
LINE
  5
4B8
100
AcDbEntity
  8
0
100
AcDbLine
 62
7
  6
CONTINUOUS
 10
3.9163350409
 20
-46.9769308453
 11
3.927247093
 21
-46.9931489282
  0
LINE
  5
4B9
100
AcDbEntity
  8
0
100
AcDbLine
 62
7
  6
CONTINUOUS
 10
4.2175440234
 20
-47.0947601138
 11
4.2034628886
 21
-47.0734187717
  0
LINE
  5
4BA
100
AcDbEntity
  8
RACCORDO
100
AcDbLine
 62
7
  6
CONTINUOUS
 10
-9.0379722697
 20
-0.9640066295
 11
-9.0253653412
 21
-0.9831565576
  0
LINE
  5
4BB
100
AcDbEntity
  8
RACCORDO
100
AcDbLine
 62
7
  6
CONTINUOUS
 10
8.2639167463
 20
-7.9128360092
 11
8.2765237799
 21
-7.9319858486
  0
LINE
  5
4BC
100
AcDbEntity
  8
0
100
AcDbLine
 62
7
  6
CONTINUOUS
 10
3.9437931764
 20
-46.0590412944
 11
3.9554768305
 21
-46.0767925245
  0
LINE
  5
4BD
100
AcDbEntity
  8
RACCORDO
100
AcDbLine
 62
7
  6
CONTINUOUS
 10
-14.7238618208
 20
-48.2989892185
 11
-14.6897555457
 21
-48.3508450048
  0
LINE
  5
4BE
100
AcDbEntity
  8
RACCORDO
100
AcDbLine
 62
7
  6
CONTINUOUS
 10
-9.8470190443
 20
8.6804145496
 11
-9.8880141007
 21
8.7428768179
  0
LINE
  5
4BF
100
AcDbEntity
  8
RACCORDO
100
AcDbLine
 62
7
  6
CONTINUOUS
 10
9.001047831
 20
-8.3870524562
 11
9.0420428874
 21
-8.4495147246
  0
LINE
  5
4C0
100
AcDbEntity
  8
RACCORDO
100
AcDbLine
 62
7
  6
CONTINUOUS
 10
-9.2845611208
 20
9.0593193779
 11
-9.3097352185
 21
9.0978489314
  0
LINE
  5
4C1
100
AcDbEntity
  8
RACCORDO
100
AcDbLine
 62
7
  6
CONTINUOUS
 10
-9.5395663333
 20
-37.6825994439
 11
-9.562446352
 21
-37.6475235887
  0
LINE
  5
4C2
100
AcDbEntity
  8
RACCORDO
100
AcDbLine
 62
7
  6
CONTINUOUS
 10
-14.841008664
 20
-48.0016211839
 11
-14.8531875518
 21
-47.9826162106
  0
LINE
  5
4C3
100
AcDbEntity
  8
RACCORDO
100
AcDbLine
 62
7
  6
CONTINUOUS
 10
-14.6409696945
 20
-48.3268034825
 11
-14.6204255908
 21
-48.3589523989
  0
LINE
  5
4C4
100
AcDbEntity
  8
RACCORDO
100
AcDbLine
 62
7
  6
CONTINUOUS
 10
8.8882335301
 20
-8.4538696957
 11
8.9175117121
 21
-8.5001229744
  0
LINE
  5
4C5
100
AcDbEntity
  8
RACCORDO
100
AcDbLine
 62
7
  6
CONTINUOUS
 10
-8.9749190569
 20
-37.2877837094
 11
-8.9976840286
 21
-37.2518004059
  0
LINE
  5
4C6
100
AcDbEntity
  8
0
100
AcDbLine
 62
7
  6
CONTINUOUS
 10
3.927247093
 20
-46.9931489282
 11
3.9375567903
 21
-47.0094988837
  0
LINE
  5
4C7
100
AcDbEntity
  8
RACCORDO
100
AcDbLine
 62
7
  6
CONTINUOUS
 10
9.3163164993
 20
-45.183534264
 11
9.2939468421
 21
-45.1478986834
  0
LINE
  5
4C8
100
AcDbEntity
  8
0
100
AcDbLine
 62
7
  6
CONTINUOUS
 10
3.8110104224
 20
-47.086214025
 11
3.8235694771
 21
-47.1062397983
  0
LINE
  5
4C9
100
AcDbEntity
  8
RACCORDO
100
AcDbLine
 62
7
  6
CONTINUOUS
 10
-14.0661004523
 20
-48.8514209104
 11
-14.0586077216
 21
-48.8633984812
  0
LINE
  5
4CA
100
AcDbEntity
  8
RACCORDO
100
AcDbLine
 62
7
  6
CONTINUOUS
 10
16.8626731001
 20
-61.2731132225
 11
16.8701657281
 21
-61.2850907744
  0
LINE
  5
4CB
100
AcDbEntity
  8
0
100
AcDbLine
 62
7
  6
CONTINUOUS
 10
4.230773282
 20
-47.115949469
 11
4.2175440234
 21
-47.0947601138
  0
LINE
  5
4CC
100
AcDbEntity
  8
RACCORDO
100
AcDbLine
 62
7
  6
CONTINUOUS
 10
-7.9981083904
 20
-36.5600099631
 11
-8.0256132054
 21
-36.5156639367
  0
LINE
  5
4CD
100
AcDbEntity
  8
RACCORDO
100
AcDbLine
 62
7
  6
CONTINUOUS
 10
-8.0256025524
 20
10.1759773481
 11
-7.9981027617
 21
10.1316439646
  0
LINE
  5
4CE
100
AcDbEntity
  8
RACCORDO
100
AcDbLine
 62
7
  6
CONTINUOUS
 10
-7.1675855764
 20
-35.8787706682
 11
-7.1398990265
 21
-35.9236842532
  0
LINE
  5
4CF
100
AcDbEntity
  8
RACCORDO
100
AcDbLine
 62
7
  6
CONTINUOUS
 10
-7.1675855764
 20
10.8128958563
 11
-7.1398990265
 21
10.7679822713
  0
LINE
  5
4D0
100
AcDbEntity
  8
0
100
AcDbLine
 62
7
  6
CONTINUOUS
 10
3.8348172471
 20
-46.1627036264
 11
3.8501423425
 21
-46.1876469615
  0
LINE
  5
4D1
100
AcDbEntity
  8
RACCORDO
100
AcDbLine
 62
7
  6
CONTINUOUS
 10
-9.562446352
 20
-37.6475235887
 11
-9.5987948682
 21
-37.5881922783
  0
LINE
  5
4D2
100
AcDbEntity
  8
0
100
AcDbLine
 62
7
  6
CONTINUOUS
 10
4.2296165322
 20
-46.1267921541
 11
4.2030204111
 21
-46.0829943631
  0
LINE
  5
4D3
100
AcDbEntity
  8
0
100
AcDbLine
 62
7
  6
CONTINUOUS
 10
3.9554768305
 20
-46.0767925245
 11
3.9662663262
 21
-46.094707531
  0
LINE
  5
4D4
100
AcDbEntity
  8
RACCORDO
100
AcDbLine
 62
7
  6
CONTINUOUS
 10
-9.8880141007
 20
8.7428768179
 11
-9.926348194
 21
8.8066820519
  0
LINE
  5
4D5
100
AcDbEntity
  8
RACCORDO
100
AcDbLine
 62
7
  6
CONTINUOUS
 10
9.0420428874
 20
-8.4495147246
 11
9.0803769807
 21
-8.5133199585
  0
LINE
  5
4D6
100
AcDbEntity
  8
RACCORDO
100
AcDbLine
 62
7
  6
CONTINUOUS
 10
-9.3097352185
 20
9.0978489314
 11
-9.3331955348
 21
9.1372660867
  0
LINE
  5
4D7
100
AcDbEntity
  8
RACCORDO
100
AcDbLine
 62
7
  6
CONTINUOUS
 10
-14.7550882355
 20
-48.2462650683
 11
-14.7238618208
 21
-48.2989892185
  0
LINE
  5
4D8
100
AcDbEntity
  8
RACCORDO
100
AcDbLine
 62
7
  6
CONTINUOUS
 10
9.1119181037
 20
-26.9692981739
 11
9.0983641956
 21
-26.9463961124
  0
LINE
  5
4D9
100
AcDbEntity
  8
RACCORDO
100
AcDbLine
 62
7
  6
CONTINUOUS
 10
9.1119181037
 20
-9.1028934218
 11
9.0983641956
 21
-9.0799913603
  0
LINE
  5
4DA
100
AcDbEntity
  8
RACCORDO
100
AcDbLine
 62
7
  6
CONTINUOUS
 10
9.1119174104
 20
1.8559646252
 11
9.0983636458
 21
1.8788667358
  0
LINE
  5
4DB
100
AcDbEntity
  8
RACCORDO
100
AcDbLine
 62
7
  6
CONTINUOUS
 10
9.1119181037
 20
19.7223683505
 11
9.0983641956
 21
19.745270412
  0
LINE
  5
4DC
100
AcDbEntity
  8
0
100
AcDbLine
 62
7
  6
CONTINUOUS
 10
4.2431973212
 20
-47.1369746493
 11
4.230773282
 21
-47.115949469
  0
LINE
  5
4DD
100
AcDbEntity
  8
0
100
AcDbLine
 62
7
  6
CONTINUOUS
 10
3.9375567903
 20
-47.0094988837
 11
3.947261739
 21
-47.026009921
  0
LINE
  5
4DE
100
AcDbEntity
  8
RACCORDO
100
AcDbLine
 62
7
  6
CONTINUOUS
 10
-14.6599984308
 20
-48.2944174764
 11
-14.6409696945
 21
-48.3268034825
  0
LINE
  5
4DF
100
AcDbEntity
  8
RACCORDO
100
AcDbLine
 62
7
  6
CONTINUOUS
 10
-8.6768445449
 20
45.9802046184
 11
-8.6645425141
 21
45.9590921043
  0
LINE
  5
4E0
100
AcDbEntity
  8
RACCORDO
100
AcDbLine
 62
7
  6
CONTINUOUS
 10
8.5740603448
 20
39.0518522776
 11
8.5863623791
 21
39.0307397664
  0
LINE
  5
4E1
100
AcDbEntity
  8
RACCORDO
100
AcDbLine
 62
7
  6
CONTINUOUS
 10
-8.9976840286
 20
-37.2518004059
 11
-9.0189584622
 21
-37.2151072927
  0
LINE
  5
4E2
100
AcDbEntity
  8
RACCORDO
100
AcDbLine
 62
7
  6
CONTINUOUS
 10
8.9175117121
 20
-8.5001229744
 11
8.9445537788
 21
-8.5468706085
  0
LINE
  5
4E3
100
AcDbEntity
  8
0
100
AcDbLine
 62
7
  6
CONTINUOUS
 10
3.8235694771
 20
-47.1062397983
 11
3.8352374924
 21
-47.126424564
  0
LINE
  5
4E4
100
AcDbEntity
  8
RACCORDO
100
AcDbLine
 62
7
  6
CONTINUOUS
 10
-16.1332443175
 20
48.7516181874
 11
-16.1422861179
 21
48.7674145578
  0
LINE
  5
4E5
100
AcDbEntity
  8
RACCORDO
100
AcDbLine
 62
7
  6
CONTINUOUS
 10
9.3924227101
 20
-44.5714747463
 11
9.3788498356
 21
-44.5475268542
  0
LINE
  5
4E6
100
AcDbEntity
  8
RACCORDO
100
AcDbLine
 62
7
  6
CONTINUOUS
 10
-8.0256132054
 20
-36.5156639367
 11
-8.0508386886
 21
-36.4707265588
  0
LINE
  5
4E7
100
AcDbEntity
  8
RACCORDO
100
AcDbLine
 62
7
  6
CONTINUOUS
 10
-9.5987948682
 20
-37.5881922783
 11
-9.6325373293
 21
-37.5280809615
  0
LINE
  5
4E8
100
AcDbEntity
  8
RACCORDO
100
AcDbLine
 62
7
  6
CONTINUOUS
 10
-8.0508228866
 20
10.2209102947
 11
-8.0256025524
 21
10.1759773481
  0
LINE
  5
4E9
100
AcDbEntity
  8
RACCORDO
100
AcDbLine
 62
7
  6
CONTINUOUS
 10
-7.1932226019
 20
-35.8329422044
 11
-7.1675855764
 21
-35.8787706682
  0
LINE
  5
4EA
100
AcDbEntity
  8
RACCORDO
100
AcDbLine
 62
7
  6
CONTINUOUS
 10
-7.1932226019
 20
10.85872432
 11
-7.1675855764
 21
10.8128958563
  0
LINE
  5
4EB
100
AcDbEntity
  8
0
100
AcDbLine
 62
7
  6
CONTINUOUS
 10
4.2547696663
 20
-47.1578476652
 11
4.2431973212
 21
-47.1369746493
  0
LINE
  5
4EC
100
AcDbEntity
  8
0
100
AcDbLine
 62
7
  6
CONTINUOUS
 10
4.2548347803
 20
-46.1725939573
 11
4.2296165322
 21
-46.1267921541
  0
LINE
  5
4ED
100
AcDbEntity
  8
0
100
AcDbLine
 62
7
  6
CONTINUOUS
 10
3.947261739
 20
-47.026009921
 11
3.9563766199
 21
-47.0426403214
  0
LINE
  5
4EE
100
AcDbEntity
  8
RACCORDO
100
AcDbLine
 62
7
  6
CONTINUOUS
 10
-9.926348194
 20
8.8066820519
 11
-9.9619903417
 21
8.8717801048
  0
LINE
  5
4EF
100
AcDbEntity
  8
RACCORDO
100
AcDbLine
 62
7
  6
CONTINUOUS
 10
9.0803769807
 20
-8.5133199585
 11
9.1160191284
 21
-8.5784180114
  0
LINE
  5
4F0
100
AcDbEntity
  8
0
100
AcDbLine
 62
7
  6
CONTINUOUS
 10
3.9662663262
 20
-46.094707531
 11
3.9761596477
 21
-46.112783498
  0
LINE
  5
4F1
100
AcDbEntity
  8
RACCORDO
100
AcDbLine
 62
7
  6
CONTINUOUS
 10
9.2178824625
 20
38.4453371851
 11
9.2292737015
 21
38.4244579605
  0
LINE
  5
4F2
100
AcDbEntity
  8
0
100
AcDbLine
 62
7
  6
CONTINUOUS
 10
3.8501423425
 20
-46.1876469615
 11
3.8635995818
 21
-46.2123276626
  0
LINE
  5
4F3
100
AcDbEntity
  8
RACCORDO
100
AcDbLine
 62
7
  6
CONTINUOUS
 10
-16.4346729068
 20
-16.7309278191
 11
-16.4436999483
 21
-16.7143041438
  0
LINE
  5
4F4
100
AcDbEntity
  8
RACCORDO
100
AcDbLine
 62
7
  6
CONTINUOUS
 10
-16.4346729068
 20
29.9607387053
 11
-16.4436999483
 21
29.9773623807
  0
LINE
  5
4F5
100
AcDbEntity
  8
RACCORDO
100
AcDbLine
 62
7
  6
CONTINUOUS
 10
-9.3331955348
 20
9.1372660867
 11
-9.3548353938
 21
9.177412346
  0
LINE
  5
4F6
100
AcDbEntity
  8
RACCORDO
100
AcDbLine
 62
7
  6
CONTINUOUS
 10
9.2939468421
 20
-45.1478986834
 11
9.2741757347
 21
-45.1111635254
  0
LINE
  5
4F7
100
AcDbEntity
  8
RACCORDO
100
AcDbLine
 62
7
  6
CONTINUOUS
 10
-14.6772844538
 20
-48.2621598187
 11
-14.6599984308
 21
-48.2944174764
  0
LINE
  5
4F8
100
AcDbEntity
  8
RACCORDO
100
AcDbLine
 62
7
  6
CONTINUOUS
 10
9.3681859891
 20
38.4747359575
 11
9.4012465069
 21
38.4127112765
  0
LINE
  5
4F9
100
AcDbEntity
  8
0
100
AcDbLine
 62
7
  6
CONTINUOUS
 10
3.8352374924
 20
-47.126424564
 11
3.8459972335
 21
-47.1466896714
  0
LINE
  5
4FA
100
AcDbEntity
  8
0
100
AcDbLine
 62
7
  6
CONTINUOUS
 10
4.2656936119
 20
-47.1784936303
 11
4.2547696663
 21
-47.1578476652
  0
LINE
  5
4FB
100
AcDbEntity
  8
RACCORDO
100
AcDbLine
 62
7
  6
CONTINUOUS
 10
-9.0189584622
 20
-37.2151072927
 11
-9.0386536577
 21
-37.1778113638
  0
LINE
  5
4FC
100
AcDbEntity
  8
RACCORDO
100
AcDbLine
 62
7
  6
CONTINUOUS
 10
-14.7832522537
 20
-48.1928690646
 11
-14.7550882355
 21
-48.2462650683
  0
LINE
  5
4FD
100
AcDbEntity
  8
RACCORDO
100
AcDbLine
 62
7
  6
CONTINUOUS
 10
8.9445537788
 20
-8.5468706085
 11
8.96924488
 21
-8.593848457
  0
LINE
  5
4FE
100
AcDbEntity
  8
RACCORDO
100
AcDbLine
 62
7
  6
CONTINUOUS
 10
-16.1332442868
 20
-34.9684565096
 11
-16.1422860884
 21
-34.9510288506
  0
LINE
  5
4FF
100
AcDbEntity
  8
RACCORDO
100
AcDbLine
 62
7
  6
CONTINUOUS
 10
-9.6325373293
 20
-37.5280809615
 11
-9.6636732072
 21
-37.4671891686
  0
LINE
  5
500
100
AcDbEntity
  8
0
100
AcDbLine
 62
7
  6
CONTINUOUS
 10
3.9563766199
 20
-47.0426403214
 11
3.9649064166
 21
-47.0593760912
  0
LINE
  5
501
100
AcDbEntity
  8
RACCORDO
100
AcDbLine
 62
7
  6
CONTINUOUS
 10
9.2292737015
 20
38.4244579605
 11
9.2521751982
 21
38.3794526951
  0
LINE
  5
502
100
AcDbEntity
  8
RACCORDO
100
AcDbLine
 62
7
  6
CONTINUOUS
 10
-7.2166435046
 20
-35.7865884207
 11
-7.1932226019
 21
-35.8329422044
  0
LINE
  5
503
100
AcDbEntity
  8
RACCORDO
100
AcDbLine
 62
7
  6
CONTINUOUS
 10
-7.2166435046
 20
10.9050781038
 11
-7.1932226019
 21
10.85872432
  0
LINE
  5
504
100
AcDbEntity
  8
0
100
AcDbLine
 62
7
  6
CONTINUOUS
 10
4.2759924507
 20
-47.1989060991
 11
4.2656936119
 21
-47.1784936303
  0
LINE
  5
505
100
AcDbEntity
  8
RACCORDO
100
AcDbLine
 62
7
  6
CONTINUOUS
 10
-8.0508386886
 20
-36.4707265588
 11
-8.0736327687
 21
-36.4255351223
  0
LINE
  5
506
100
AcDbEntity
  8
RACCORDO
100
AcDbLine
 62
7
  6
CONTINUOUS
 10
-8.0736182544
 20
10.2661060289
 11
-8.0508228866
 21
10.2209102947
  0
LINE
  5
507
100
AcDbEntity
  8
RACCORDO
100
AcDbLine
 62
7
  6
CONTINUOUS
 10
-14.8625168427
 20
64.1280858272
 11
-14.8688928952
 21
64.1408296097
  0
LINE
  5
508
100
AcDbEntity
  8
RACCORDO
100
AcDbLine
 62
7
  6
CONTINUOUS
 10
-9.9619903417
 20
8.8717801048
 11
-9.9945743989
 21
8.937617335
  0
LINE
  5
509
100
AcDbEntity
  8
RACCORDO
100
AcDbLine
 62
7
  6
CONTINUOUS
 10
9.1160191284
 20
-8.5784180114
 11
9.1486031856
 21
-8.6442552416
  0
LINE
  5
50A
100
AcDbEntity
  8
0
100
AcDbLine
 62
7
  6
CONTINUOUS
 10
3.9761596477
 20
-46.112783498
 11
3.9851592549
 21
-46.1310228183
  0
LINE
  5
50B
100
AcDbEntity
  8
RACCORDO
100
AcDbLine
 62
7
  6
CONTINUOUS
 10
-9.0487952952
 20
-0.9419832129
 11
-9.0379722697
 21
-0.9640066295
  0
LINE
  5
50C
100
AcDbEntity
  8
RACCORDO
100
AcDbLine
 62
7
  6
CONTINUOUS
 10
8.2530936061
 20
-7.8908126294
 11
8.2639167463
 21
-7.9128360092
  0
LINE
  5
50D
100
AcDbEntity
  8
0
100
AcDbLine
 62
7
  6
CONTINUOUS
 10
4.2771989731
 20
-46.2181625921
 11
4.2548347803
 21
-46.1725939573
  0
LINE
  5
50E
100
AcDbEntity
  8
RACCORDO
100
AcDbLine
 62
7
  6
CONTINUOUS
 10
-9.3548353938
 20
9.177412346
 11
-9.3746014533
 21
9.2182099752
  0
LINE
  5
50F
100
AcDbEntity
  8
0
100
AcDbLine
 62
7
  6
CONTINUOUS
 10
3.8459972335
 20
-47.1466896714
 11
3.8558664231
 21
-47.1671132971
  0
LINE
  5
510
100
AcDbEntity
  8
RACCORDO
100
AcDbLine
 62
7
  6
CONTINUOUS
 10
-14.692799816
 20
-48.2300459356
 11
-14.6772844538
 21
-48.2621598187
  0
LINE
  5
511
100
AcDbEntity
  8
RACCORDO
100
AcDbLine
 62
7
  6
CONTINUOUS
 10
9.4012465069
 20
38.4127112765
 11
9.4315759486
 21
38.3498041778
  0
LINE
  5
512
100
AcDbEntity
  8
0
100
AcDbLine
 62
7
  6
CONTINUOUS
 10
4.2856429221
 20
-47.2190914842
 11
4.2759924507
 21
-47.1989060991
  0
LINE
  5
513
100
AcDbEntity
  8
RACCORDO
100
AcDbLine
 62
7
  6
CONTINUOUS
 10
-9.0386536577
 20
-37.1778113638
 11
-9.0567306293
 21
-37.1399309332
  0
LINE
  5
514
100
AcDbEntity
  8
RACCORDO
100
AcDbLine
 62
7
  6
CONTINUOUS
 10
8.96924488
 20
-8.593848457
 11
8.9914879414
 21
-8.6407794366
  0
LINE
  5
515
100
AcDbEntity
  8
0
100
AcDbLine
 62
7
  6
CONTINUOUS
 10
3.8635995818
 20
-46.2123276626
 11
3.8750746179
 21
-46.2365581597
  0
LINE
  5
516
100
AcDbEntity
  8
0
100
AcDbLine
 62
7
  6
CONTINUOUS
 10
3.9649064166
 20
-47.0593760912
 11
3.9728464365
 21
-47.0762309411
  0
LINE
  5
517
100
AcDbEntity
  8
RACCORDO
100
AcDbLine
 62
7
  6
CONTINUOUS
 10
-14.8531875518
 20
-47.9826162106
 11
-14.8625126305
 21
-47.9625827731
  0
LINE
  5
518
100
AcDbEntity
  8
RACCORDO
100
AcDbLine
 62
7
  6
CONTINUOUS
 10
-14.0724807305
 20
-48.8376831543
 11
-14.0661004523
 21
-48.8514209104
  0
LINE
  5
519
100
AcDbEntity
  8
RACCORDO
100
AcDbLine
 62
7
  6
CONTINUOUS
 10
16.8562929171
 20
-61.2593755548
 11
16.8626731001
 21
-61.2731132225
  0
LINE
  5
51A
100
AcDbEntity
  8
RACCORDO
100
AcDbLine
 62
7
  6
CONTINUOUS
 10
-9.6636732072
 20
-37.4671891686
 11
-9.6923743656
 21
-37.4051557555
  0
LINE
  5
51B
100
AcDbEntity
  8
RACCORDO
100
AcDbLine
 62
7
  6
CONTINUOUS
 10
-14.8082225407
 20
-48.1388882922
 11
-14.7832522537
 21
-48.1928690646
  0
LINE
  5
51C
100
AcDbEntity
  8
RACCORDO
100
AcDbLine
 62
7
  6
CONTINUOUS
 10
9.2521751982
 20
38.3794526951
 11
9.2729078789
 21
38.3343677256
  0
LINE
  5
51D
100
AcDbEntity
  8
0
100
AcDbLine
 62
7
  6
CONTINUOUS
 10
4.294778357
 20
-47.238994316
 11
4.2856429221
 21
-47.2190914842
  0
LINE
  5
51E
100
AcDbEntity
  8
RACCORDO
100
AcDbLine
 62
7
  6
CONTINUOUS
 10
9.3788506273
 20
37.8612993928
 11
9.3686891412
 21
37.8835928818
  0
LINE
  5
51F
100
AcDbEntity
  8
RACCORDO
100
AcDbLine
 62
7
  6
CONTINUOUS
 10
9.2741757347
 20
-45.1111635254
 11
9.2571456277
 21
-45.0735934662
  0
LINE
  5
520
100
AcDbEntity
  8
RACCORDO
100
AcDbLine
 62
7
  6
CONTINUOUS
 10
-7.2377057794
 20
-35.7400646846
 11
-7.2166435046
 21
-35.7865884207
  0
LINE
  5
521
100
AcDbEntity
  8
RACCORDO
100
AcDbLine
 62
7
  6
CONTINUOUS
 10
-7.2377057794
 20
10.9516018399
 11
-7.2166435046
 21
10.9050781038
  0
LINE
  5
522
100
AcDbEntity
  8
RACCORDO
100
AcDbLine
 62
7
  6
CONTINUOUS
 10
-8.0736327687
 20
-36.4255351223
 11
-8.0940025255
 21
-36.3801516256
  0
LINE
  5
523
100
AcDbEntity
  8
RACCORDO
100
AcDbLine
 62
7
  6
CONTINUOUS
 10
-8.0939952415
 20
10.3114960344
 11
-8.0736182544
 21
10.2661060289
  0
LINE
  5
524
100
AcDbEntity
  8
RACCORDO
100
AcDbLine
 62
7
  6
CONTINUOUS
 10
-9.9945743989
 20
8.937617335
 11
-10.0241091613
 21
9.0043225285
  0
LINE
  5
525
100
AcDbEntity
  8
RACCORDO
100
AcDbLine
 62
7
  6
CONTINUOUS
 10
9.1486031856
 20
-8.6442552416
 11
9.1781379481
 21
-8.7109604351
  0
LINE
  5
526
100
AcDbEntity
  8
0
100
AcDbLine
 62
7
  6
CONTINUOUS
 10
3.9851592549
 20
-46.1310228183
 11
3.9932161119
 21
-46.1492274823
  0
LINE
  5
527
100
AcDbEntity
  8
0
100
AcDbLine
 62
7
  6
CONTINUOUS
 10
4.3034028776
 20
-47.2585860681
 11
4.294778357
 21
-47.238994316
  0
LINE
  5
528
100
AcDbEntity
  8
0
100
AcDbLine
 62
7
  6
CONTINUOUS
 10
3.8558664231
 20
-47.1671132971
 11
3.8648453291
 21
-47.1876951805
  0
LINE
  5
529
100
AcDbEntity
  8
0
100
AcDbLine
 62
7
  6
CONTINUOUS
 10
3.9728464365
 20
-47.0762309411
 11
3.9801968334
 21
-47.0932047215
  0
LINE
  5
52A
100
AcDbEntity
  8
RACCORDO
100
AcDbLine
 62
7
  6
CONTINUOUS
 10
9.4315759486
 20
38.3498041778
 11
9.4591748423
 21
38.2860150571
  0
LINE
  5
52B
100
AcDbEntity
  8
RACCORDO
100
AcDbLine
 62
7
  6
CONTINUOUS
 10
9.0983641956
 20
-26.9463961124
 11
9.0882227654
 21
-26.9229204551
  0
LINE
  5
52C
100
AcDbEntity
  8
RACCORDO
100
AcDbLine
 62
7
  6
CONTINUOUS
 10
9.0983641956
 20
-9.0799913603
 11
9.0882227654
 21
-9.056515703
  0
LINE
  5
52D
100
AcDbEntity
  8
RACCORDO
100
AcDbLine
 62
7
  6
CONTINUOUS
 10
9.0983636458
 20
1.8788667358
 11
9.0882223787
 21
1.9023424074
  0
LINE
  5
52E
100
AcDbEntity
  8
RACCORDO
100
AcDbLine
 62
7
  6
CONTINUOUS
 10
9.0983641956
 20
19.745270412
 11
9.0882227654
 21
19.7687460693
  0
LINE
  5
52F
100
AcDbEntity
  8
RACCORDO
100
AcDbLine
 62
7
  6
CONTINUOUS
 10
-9.3746014533
 20
9.2182099752
 11
-9.3924361237
 21
9.259600303
  0
LINE
  5
530
100
AcDbEntity
  8
RACCORDO
100
AcDbLine
 62
7
  6
CONTINUOUS
 10
-14.7065712859
 20
-48.1980590537
 11
-14.692799816
 21
-48.2300459356
  0
LINE
  5
531
100
AcDbEntity
  8
RACCORDO
100
AcDbLine
 62
7
  6
CONTINUOUS
 10
-8.6871926171
 20
46.0043326972
 11
-8.6768445449
 21
45.9802046184
  0
LINE
  5
532
100
AcDbEntity
  8
RACCORDO
100
AcDbLine
 62
7
  6
CONTINUOUS
 10
8.5637122689
 20
39.0759803553
 11
8.5740603448
 21
39.0518522776
  0
LINE
  5
533
100
AcDbEntity
  8
RACCORDO
100
AcDbLine
 62
7
  6
CONTINUOUS
 10
-9.0567306293
 20
-37.1399309332
 11
-9.0730498412
 21
-37.1016764966
  0
LINE
  5
534
100
AcDbEntity
  8
RACCORDO
100
AcDbLine
 62
7
  6
CONTINUOUS
 10
8.9914879414
 20
-8.6407794366
 11
9.0111968306
 21
-8.687348511
  0
LINE
  5
535
100
AcDbEntity
  8
0
100
AcDbLine
 62
7
  6
CONTINUOUS
 10
4.2962013517
 20
-46.2633261726
 11
4.2771989731
 21
-46.2181625921
  0
LINE
  5
536
100
AcDbEntity
  8
0
100
AcDbLine
 62
7
  6
CONTINUOUS
 10
4.3115122787
 20
-47.2778953454
 11
4.3034028776
 21
-47.2585860681
  0
LINE
  5
537
100
AcDbEntity
  8
RACCORDO
100
AcDbLine
 62
7
  6
CONTINUOUS
 10
-9.6923743656
 20
-37.4051557555
 11
-9.7184677595
 21
-37.3423408166
  0
LINE
  5
538
100
AcDbEntity
  8
RACCORDO
100
AcDbLine
 62
7
  6
CONTINUOUS
 10
9.3788498356
 20
-44.5475268542
 11
9.3686880425
 21
-44.5229011539
  0
LINE
  5
539
100
AcDbEntity
  8
RACCORDO
100
AcDbLine
 62
7
  6
CONTINUOUS
 10
9.2729078789
 20
38.3343677256
 11
9.2914195065
 21
38.2894239721
  0
LINE
  5
53A
100
AcDbEntity
  8
0
100
AcDbLine
 62
7
  6
CONTINUOUS
 10
4.3192273356
 20
-47.2969524371
 11
4.3115122787
 21
-47.2778953454
  0
LINE
  5
53B
100
AcDbEntity
  8
0
100
AcDbLine
 62
7
  6
CONTINUOUS
 10
3.8648453291
 20
-47.1876951805
 11
3.8788133109
 21
-47.2223509701
  0
LINE
  5
53C
100
AcDbEntity
  8
RACCORDO
100
AcDbLine
 62
7
  6
CONTINUOUS
 10
-7.2564192038
 20
-35.6934213371
 11
-7.2377057794
 21
-35.7400646846
  0
LINE
  5
53D
100
AcDbEntity
  8
RACCORDO
100
AcDbLine
 62
7
  6
CONTINUOUS
 10
-7.2564192038
 20
10.9982451874
 11
-7.2377057794
 21
10.9516018399
  0
LINE
  5
53E
100
AcDbEntity
  8
0
100
AcDbLine
 62
7
  6
CONTINUOUS
 10
3.8750746179
 20
-46.2365581597
 11
3.8846823262
 21
-46.2605255177
  0
LINE
  5
53F
100
AcDbEntity
  8
RACCORDO
100
AcDbLine
 62
7
  6
CONTINUOUS
 10
-14.829848915
 20
-48.0844073873
 11
-14.8082225407
 21
-48.1388882922
  0
LINE
  5
540
100
AcDbEntity
  8
RACCORDO
100
AcDbLine
 62
7
  6
CONTINUOUS
 10
-8.0940025255
 20
-36.3801516256
 11
-8.1119816228
 21
-36.3345309388
  0
LINE
  5
541
100
AcDbEntity
  8
RACCORDO
100
AcDbLine
 62
7
  6
CONTINUOUS
 10
-8.1119769457
 20
10.3571228341
 11
-8.0939952415
 21
10.3114960344
  0
LINE
  5
542
100
AcDbEntity
  8
0
100
AcDbLine
 62
7
  6
CONTINUOUS
 10
3.8788133109
 20
-47.2223509701
 11
3.8924076685
 21
-47.2569175366
  0
LINE
  5
543
100
AcDbEntity
  8
RACCORDO
100
AcDbLine
 62
7
  6
CONTINUOUS
 10
-10.0241091613
 20
9.0043225285
 11
-10.0505858333
 21
9.0717668993
  0
LINE
  5
544
100
AcDbEntity
  8
RACCORDO
100
AcDbLine
 62
7
  6
CONTINUOUS
 10
9.1781379481
 20
-8.7109604351
 11
9.20461462
 21
-8.7784048059
  0
LINE
  5
545
100
AcDbEntity
  8
0
100
AcDbLine
 62
7
  6
CONTINUOUS
 10
3.9932161119
 20
-46.1492274823
 11
4.0003409351
 21
-46.1673897555
  0
LINE
  5
546
100
AcDbEntity
  8
0
100
AcDbLine
 62
7
  6
CONTINUOUS
 10
4.3265411304
 20
-47.3157293245
 11
4.3192273356
 21
-47.2969524371
  0
LINE
  5
547
100
AcDbEntity
  8
0
100
AcDbLine
 62
7
  6
CONTINUOUS
 10
3.9801968334
 20
-47.0932047215
 11
4.009433352
 21
-47.1687519779
  0
LINE
  5
548
100
AcDbEntity
  8
0
100
AcDbLine
 62
7
  6
CONTINUOUS
 10
3.8924076685
 20
-47.2569175366
 11
3.905628468
 21
-47.2913948109
  0
LINE
  5
549
100
AcDbEntity
  8
RACCORDO
100
AcDbLine
 62
7
  6
CONTINUOUS
 10
-9.3924361237
 20
9.259600303
 11
-9.4082263612
 21
9.3013715174
  0
LINE
  5
54A
100
AcDbEntity
  8
RACCORDO
100
AcDbLine
 62
7
  6
CONTINUOUS
 10
-14.7184541373
 20
-48.1665169418
 11
-14.7065712859
 21
-48.1980590537
  0
LINE
  5
54B
100
AcDbEntity
  8
RACCORDO
100
AcDbLine
 62
7
  6
CONTINUOUS
 10
-9.0730498412
 20
-37.1016764966
 11
-9.0874165126
 21
-37.0634501674
  0
LINE
  5
54C
100
AcDbEntity
  8
RACCORDO
100
AcDbLine
 62
7
  6
CONTINUOUS
 10
-16.1422861179
 20
48.7674145578
 11
-16.1483541031
 21
48.7835561296
  0
LINE
  5
54D
100
AcDbEntity
  8
0
100
AcDbLine
 62
7
  6
CONTINUOUS
 10
4.009433352
 20
-47.1687519779
 11
4.0384003931
 21
-47.2458340856
  0
LINE
  5
54E
100
AcDbEntity
  8
0
100
AcDbLine
 62
7
  6
CONTINUOUS
 10
4.333460483
 20
-47.3342541196
 11
4.3265411304
 21
-47.3157293245
  0
LINE
  5
54F
100
AcDbEntity
  8
RACCORDO
100
AcDbLine
 62
7
  6
CONTINUOUS
 10
9.0111968306
 20
-8.687348511
 11
9.028335894
 21
-8.7332998712
  0
LINE
  5
550
100
AcDbEntity
  8
0
100
AcDbLine
 62
7
  6
CONTINUOUS
 10
3.905628468
 20
-47.2913948109
 11
3.9184162361
 21
-47.3257548841
  0
LINE
  5
551
100
AcDbEntity
  8
RACCORDO
100
AcDbLine
 62
7
  6
CONTINUOUS
 10
9.2571456277
 20
-45.0735934662
 11
9.2429792229
 21
-45.0354591978
  0
LINE
  5
552
100
AcDbEntity
  8
RACCORDO
100
AcDbLine
 62
7
  6
CONTINUOUS
 10
-9.7184677595
 20
-37.3423408166
 11
-9.7414357508
 21
-37.2798259659
  0
LINE
  5
553
100
AcDbEntity
  8
0
100
AcDbLine
 62
7
  6
CONTINUOUS
 10
4.0384003931
 20
-47.2458340856
 11
4.0671014597
 21
-47.3244475821
  0
LINE
  5
554
100
AcDbEntity
  8
0
100
AcDbLine
 62
7
  6
CONTINUOUS
 10
4.3401267952
 20
-47.352641289
 11
4.333460483
 21
-47.3342541196
  0
LINE
  5
555
100
AcDbEntity
  8
0
100
AcDbLine
 62
7
  6
CONTINUOUS
 10
3.9184162361
 20
-47.3257548841
 11
3.9308305767
 21
-47.3600255281
  0
LINE
  5
556
100
AcDbEntity
  8
RACCORDO
100
AcDbLine
 62
7
  6
CONTINUOUS
 10
-9.0577574445
 20
-0.9172429379
 11
-9.0487952952
 21
-0.9419832129
  0
LINE
  5
557
100
AcDbEntity
  8
RACCORDO
100
AcDbLine
 62
7
  6
CONTINUOUS
 10
8.2441313416
 20
-7.8660723294
 11
8.2530936061
 21
-7.8908126294
  0
LINE
  5
558
100
AcDbEntity
  8
0
100
AcDbLine
 62
7
  6
CONTINUOUS
 10
4.3123517945
 20
-46.3082545564
 11
4.2962013517
 21
-46.2633261726
  0
LINE
  5
559
100
AcDbEntity
  8
0
100
AcDbLine
 62
7
  6
CONTINUOUS
 10
3.9308305767
 20
-47.3600255281
 11
3.9430501826
 21
-47.3942901832
  0
LINE
  5
55A
100
AcDbEntity
  8
RACCORDO
100
AcDbLine
 62
7
  6
CONTINUOUS
 10
-16.4436999483
 20
-16.7143041438
 11
-16.4497519143
 21
-16.6972423308
  0
LINE
  5
55B
100
AcDbEntity
  8
RACCORDO
100
AcDbLine
 62
7
  6
CONTINUOUS
 10
-16.4436999483
 20
29.9773623807
 11
-16.4497519143
 21
29.9944241936
  0
LINE
  5
55C
100
AcDbEntity
  8
0
100
AcDbLine
 62
7
  6
CONTINUOUS
 10
4.1516452014
 20
-47.569440319
 11
4.2431887562
 21
-47.8291715831
  0
LINE
  5
55D
100
AcDbEntity
  8
0
100
AcDbLine
 62
7
  6
CONTINUOUS
 10
4.0263552219
 20
-47.6356461114
 11
4.1277282255
 21
-47.9237513129
  0
LINE
  5
55E
100
AcDbEntity
  8
0
100
AcDbLine
 62
7
  6
CONTINUOUS
 10
3.9430501826
 20
-47.3942901832
 11
3.9550750383
 21
-47.4285449715
  0
LINE
  5
55F
100
AcDbEntity
  8
0
100
AcDbLine
 62
7
  6
CONTINUOUS
 10
4.0671014597
 20
-47.3244475821
 11
4.0951968483
 21
-47.4045489058
  0
LINE
  5
560
100
AcDbEntity
  8
0
100
AcDbLine
 62
7
  6
CONTINUOUS
 10
4.3465291606
 20
-47.3708860188
 11
4.3401267952
 21
-47.352641289
  0
LINE
  5
561
100
AcDbEntity
  8
RACCORDO
100
AcDbLine
 62
7
  6
CONTINUOUS
 10
-7.2728438101
 20
-35.6465916302
 11
-7.2564192038
 21
-35.6934213371
  0
LINE
  5
562
100
AcDbEntity
  8
RACCORDO
100
AcDbLine
 62
7
  6
CONTINUOUS
 10
-7.2728438101
 20
11.0450748943
 11
-7.2564192038
 21
10.9982451874
  0
LINE
  5
563
100
AcDbEntity
  8
0
100
AcDbLine
 62
7
  6
CONTINUOUS
 10
4.0023247108
 20
-47.5660747419
 11
4.0263552219
 21
-47.6356461114
  0
LINE
  5
564
100
AcDbEntity
  8
0
100
AcDbLine
 62
7
  6
CONTINUOUS
 10
3.9550750383
 20
-47.4285449715
 11
4.0023247108
 21
-47.5660747419
  0
LINE
  5
565
100
AcDbEntity
  8
0
100
AcDbLine
 62
7
  6
CONTINUOUS
 10
4.0951968483
 20
-47.4045489058
 11
4.1516452014
 21
-47.569440319
  0
LINE
  5
566
100
AcDbEntity
  8
RACCORDO
100
AcDbLine
 62
7
  6
CONTINUOUS
 10
-10.0505858333
 20
9.0717668993
 11
-10.0736118826
 21
9.1390104473
  0
LINE
  5
567
100
AcDbEntity
  8
RACCORDO
100
AcDbLine
 62
7
  6
CONTINUOUS
 10
9.20461462
 20
-8.7784048059
 11
9.2276406693
 21
-8.8456483539
  0
LINE
  5
568
100
AcDbEntity
  8
0
100
AcDbLine
 62
7
  6
CONTINUOUS
 10
4.0003409351
 20
-46.1673897555
 11
4.006523326
 21
-46.1855170688
  0
LINE
  5
569
100
AcDbEntity
  8
RACCORDO
100
AcDbLine
 62
7
  6
CONTINUOUS
 10
-8.1119816228
 20
-36.3345309388
 11
-8.1275262978
 21
-36.2887173321
  0
LINE
  5
56A
100
AcDbEntity
  8
RACCORDO
100
AcDbLine
 62
7
  6
CONTINUOUS
 10
-8.1275117007
 20
10.402898617
 11
-8.1119769457
 21
10.3571228341
  0
LINE
  5
56B
100
AcDbEntity
  8
RACCORDO
100
AcDbLine
 62
7
  6
CONTINUOUS
 10
-14.0777017885
 20
-48.8222859113
 11
-14.0724807305
 21
-48.8376831543
  0
LINE
  5
56C
100
AcDbEntity
  8
RACCORDO
100
AcDbLine
 62
7
  6
CONTINUOUS
 10
16.8510719367
 20
-61.243978479
 11
16.8562929171
 21
-61.2593755548
  0
LINE
  5
56D
100
AcDbEntity
  8
RACCORDO
100
AcDbLine
 62
7
  6
CONTINUOUS
 10
-16.1422860884
 20
-34.9510288506
 11
-16.1483540754
 21
-34.9330726609
  0
LINE
  5
56E
100
AcDbEntity
  8
0
100
AcDbLine
 62
7
  6
CONTINUOUS
 10
4.3587488045
 20
-47.407091587
 11
4.3465291606
 21
-47.3708860188
  0
LINE
  5
56F
100
AcDbEntity
  8
0
100
AcDbLine
 62
7
  6
CONTINUOUS
 10
3.8846823262
 20
-46.2605255177
 11
3.8925391461
 21
-46.2838995718
  0
LINE
  5
570
100
AcDbEntity
  8
0
100
AcDbLine
 62
7
  6
CONTINUOUS
 10
4.3707688431
 20
-47.4433482143
 11
4.3587488045
 21
-47.407091587
  0
LINE
  5
571
100
AcDbEntity
  8
RACCORDO
100
AcDbLine
 62
7
  6
CONTINUOUS
 10
-14.8479654846
 20
-48.0295278167
 11
-14.829848915
 21
-48.0844073873
  0
LINE
  5
572
100
AcDbEntity
  8
0
100
AcDbLine
 62
7
  6
CONTINUOUS
 10
4.5882002858
 20
-48.1086872734
 11
4.5196492675
 21
-47.9002717623
  0
LINE
  5
573
100
AcDbEntity
  8
0
100
AcDbLine
 62
7
  6
CONTINUOUS
 10
4.5196492675
 20
-47.9002717623
 11
4.3707688431
 21
-47.4433482143
  0
LINE
  5
574
100
AcDbEntity
  8
RACCORDO
100
AcDbLine
 62
7
  6
CONTINUOUS
 10
-9.4082263612
 20
9.3013715174
 11
-9.4218586585
 21
9.3432129161
  0
LINE
  5
575
100
AcDbEntity
  8
RACCORDO
100
AcDbLine
 62
7
  6
CONTINUOUS
 10
-9.0874165126
 20
-37.0634501674
 11
-9.0997890755
 21
-37.0253765579
  0
LINE
  5
576
100
AcDbEntity
  8
RACCORDO
100
AcDbLine
 62
7
  6
CONTINUOUS
 10
9.028335894
 20
-8.7332998712
 11
9.0428739526
 21
-8.7783247619
  0
LINE
  5
577
100
AcDbEntity
  8
RACCORDO
100
AcDbLine
 62
7
  6
CONTINUOUS
 10
-14.7284000333
 20
-48.1355254182
 11
-14.7184541373
 21
-48.1665169418
  0
LINE
  5
578
100
AcDbEntity
  8
RACCORDO
100
AcDbLine
 62
7
  6
CONTINUOUS
 10
-9.7414357508
 20
-37.2798259659
 11
-9.7611474248
 21
-37.2176488147
  0
LINE
  5
579
100
AcDbEntity
  8
0
100
AcDbLine
 62
7
  6
CONTINUOUS
 10
4.3256968313
 20
-46.3512267236
 11
4.3123517945
 21
-46.3082545564
  0
LINE
  5
57A
100
AcDbEntity
  8
RACCORDO
100
AcDbLine
 62
7
  6
CONTINUOUS
 10
-8.6955076809
 20
46.0312920246
 11
-8.6871926171
 21
46.0043326972
  0
LINE
  5
57B
100
AcDbEntity
  8
RACCORDO
100
AcDbLine
 62
7
  6
CONTINUOUS
 10
-14.8625126305
 20
-47.9625827731
 11
-14.8688882585
 21
-47.941726342
  0
LINE
  5
57C
100
AcDbEntity
  8
RACCORDO
100
AcDbLine
 62
7
  6
CONTINUOUS
 10
-7.2869344716
 20
-35.5996160601
 11
-7.2728438101
 21
-35.6465916302
  0
LINE
  5
57D
100
AcDbEntity
  8
RACCORDO
100
AcDbLine
 62
7
  6
CONTINUOUS
 10
-7.2869344716
 20
11.0920504644
 11
-7.2728438101
 21
11.0450748943
  0
LINE
  5
57E
100
AcDbEntity
  8
RACCORDO
100
AcDbLine
 62
7
  6
CONTINUOUS
 10
9.2429792229
 20
-45.0354591978
 11
9.2317785891
 21
-44.9970354771
  0
LINE
  5
57F
100
AcDbEntity
  8
RACCORDO
100
AcDbLine
 62
7
  6
CONTINUOUS
 10
-10.0736118826
 20
9.1390104473
 11
-10.0930991287
 21
9.2060639089
  0
LINE
  5
580
100
AcDbEntity
  8
RACCORDO
100
AcDbLine
 62
7
  6
CONTINUOUS
 10
9.2276406693
 20
-8.8456483539
 11
9.2471279154
 21
-8.9127018155
  0
LINE
  5
581
100
AcDbEntity
  8
0
100
AcDbLine
 62
7
  6
CONTINUOUS
 10
4.006523326
 20
-46.1855170688
 11
4.0116824347
 21
-46.2034342962
  0
LINE
  5
582
100
AcDbEntity
  8
RACCORDO
100
AcDbLine
 62
7
  6
CONTINUOUS
 10
-8.140477795
 20
10.4485195518
 11
-8.1275117007
 21
10.402898617
  0
LINE
  5
583
100
AcDbEntity
  8
RACCORDO
100
AcDbLine
 62
7
  6
CONTINUOUS
 10
-8.1275262978
 20
-36.2887173321
 11
-8.1404959858
 21
-36.2430541737
  0
LINE
  5
584
100
AcDbEntity
  8
RACCORDO
100
AcDbLine
 62
7
  6
CONTINUOUS
 10
9.0882227654
 20
-26.9229204551
 11
9.0815659389
 21
-26.8990381604
  0
LINE
  5
585
100
AcDbEntity
  8
RACCORDO
100
AcDbLine
 62
7
  6
CONTINUOUS
 10
9.0882227654
 20
-9.056515703
 11
9.0815659389
 21
-9.0326334083
  0
LINE
  5
586
100
AcDbEntity
  8
RACCORDO
100
AcDbLine
 62
7
  6
CONTINUOUS
 10
9.0882223787
 20
1.9023424074
 11
9.0815657213
 21
1.9262246792
  0
LINE
  5
587
100
AcDbEntity
  8
RACCORDO
100
AcDbLine
 62
7
  6
CONTINUOUS
 10
9.0882227654
 20
19.7687460693
 11
9.0815659389
 21
19.792628364
  0
LINE
  5
588
100
AcDbEntity
  8
RACCORDO
100
AcDbLine
 62
7
  6
CONTINUOUS
 10
-9.0997890755
 20
-37.0253765579
 11
-9.1101480753
 21
-36.9875701488
  0
LINE
  5
589
100
AcDbEntity
  8
RACCORDO
100
AcDbLine
 62
7
  6
CONTINUOUS
 10
-9.4218586585
 20
9.3432129161
 11
-9.4332861003
 21
9.3849991576
  0
LINE
  5
58A
100
AcDbEntity
  8
RACCORDO
100
AcDbLine
 62
7
  6
CONTINUOUS
 10
9.0428739526
 20
-8.7783247619
 11
9.0547867213
 21
-8.8220041706
  0
LINE
  5
58B
100
AcDbEntity
  8
0
100
AcDbLine
 62
7
  6
CONTINUOUS
 10
3.8925391461
 20
-46.2838995718
 11
3.8986838355
 21
-46.3065703186
  0
LINE
  5
58C
100
AcDbEntity
  8
RACCORDO
100
AcDbLine
 62
7
  6
CONTINUOUS
 10
-9.7611474248
 20
-37.2176488147
 11
-9.7777330587
 21
-37.1557711871
  0
LINE
  5
58D
100
AcDbEntity
  8
RACCORDO
100
AcDbLine
 62
7
  6
CONTINUOUS
 10
-14.8688928952
 20
64.1408296097
 11
-14.8722540368
 21
64.1534443717
  0
LINE
  5
58E
100
AcDbEntity
  8
RACCORDO
100
AcDbLine
 62
7
  6
CONTINUOUS
 10
9.3686880425
 20
-44.5229011539
 11
9.3620096082
 21
-44.4977727997
  0
LINE
  5
58F
100
AcDbEntity
  8
RACCORDO
100
AcDbLine
 62
7
  6
CONTINUOUS
 10
-14.7364567114
 20
-48.1049779878
 11
-14.7284000333
 21
-48.1355254182
  0
LINE
  5
590
100
AcDbEntity
  8
RACCORDO
100
AcDbLine
 62
7
  6
CONTINUOUS
 10
-14.8623973966
 20
-47.9743015091
 11
-14.8479654846
 21
-48.0295278167
  0
LINE
  5
591
100
AcDbEntity
  8
RACCORDO
100
AcDbLine
 62
7
  6
CONTINUOUS
 10
-9.0647949791
 20
-0.889961757
 11
-9.0577574445
 21
-0.9172429379
  0
LINE
  5
592
100
AcDbEntity
  8
RACCORDO
100
AcDbLine
 62
7
  6
CONTINUOUS
 10
8.2370937002
 20
-7.8387910497
 11
8.2441313416
 21
-7.8660723294
  0
LINE
  5
593
100
AcDbEntity
  8
0
100
AcDbLine
 62
7
  6
CONTINUOUS
 10
4.3359503884
 20
-46.3917037698
 11
4.3256968313
 21
-46.3512267236
  0
LINE
  5
594
100
AcDbEntity
  8
RACCORDO
100
AcDbLine
 62
7
  6
CONTINUOUS
 10
-7.2985493365
 20
-35.5528455294
 11
-7.2869344716
 21
-35.5996160601
  0
LINE
  5
595
100
AcDbEntity
  8
RACCORDO
100
AcDbLine
 62
7
  6
CONTINUOUS
 10
-7.2985493365
 20
11.138820995
 11
-7.2869344716
 21
11.0920504644
  0
LINE
  5
596
100
AcDbEntity
  8
RACCORDO
100
AcDbLine
 62
7
  6
CONTINUOUS
 10
-10.0930991287
 20
9.2060639089
 11
-10.1091357522
 21
9.2729165477
  0
LINE
  5
597
100
AcDbEntity
  8
RACCORDO
100
AcDbLine
 62
7
  6
CONTINUOUS
 10
9.2471279154
 20
-8.9127018155
 11
9.2631645389
 21
-8.9795544543
  0
LINE
  5
598
100
AcDbEntity
  8
RACCORDO
100
AcDbLine
 62
7
  6
CONTINUOUS
 10
-14.0817253557
 20
-48.8053420439
 11
-14.0777017885
 21
-48.8222859113
  0
LINE
  5
599
100
AcDbEntity
  8
RACCORDO
100
AcDbLine
 62
7
  6
CONTINUOUS
 10
16.8470484191
 20
-61.2270348648
 11
16.8510719367
 21
-61.243978479
  0
LINE
  5
59A
100
AcDbEntity
  8
0
100
AcDbLine
 62
7
  6
CONTINUOUS
 10
4.0116824347
 20
-46.2034342962
 11
4.0157913473
 21
-46.2210830273
  0
LINE
  5
59B
100
AcDbEntity
  8
RACCORDO
100
AcDbLine
 62
7
  6
CONTINUOUS
 10
-8.1404959858
 20
-36.2430541737
 11
-8.15079018
 21
-36.1979388875
  0
LINE
  5
59C
100
AcDbEntity
  8
RACCORDO
100
AcDbLine
 62
7
  6
CONTINUOUS
 10
-8.1507862367
 20
10.4937078937
 11
-8.140477795
 21
10.4485195518
  0
LINE
  5
59D
100
AcDbEntity
  8
RACCORDO
100
AcDbLine
 62
7
  6
CONTINUOUS
 10
-9.1101480753
 20
-36.9875701488
 11
-9.1184205092
 21
-36.9504072422
  0
LINE
  5
59E
100
AcDbEntity
  8
RACCORDO
100
AcDbLine
 62
7
  6
CONTINUOUS
 10
9.0547867213
 20
-8.8220041706
 11
9.0641333754
 21
-8.8640727782
  0
LINE
  5
59F
100
AcDbEntity
  8
RACCORDO
100
AcDbLine
 62
7
  6
CONTINUOUS
 10
-9.4332861003
 20
9.3849991576
 11
-9.4424723237
 21
9.4265775745
  0
LINE
  5
5A0
100
AcDbEntity
  8
RACCORDO
100
AcDbLine
 62
7
  6
CONTINUOUS
 10
-9.7777330587
 20
-37.1557711871
 11
-9.7910673924
 21
-37.0951615413
  0
LINE
  5
5A1
100
AcDbEntity
  8
RACCORDO
100
AcDbLine
 62
7
  6
CONTINUOUS
 10
9.2317785891
 20
-44.9970354771
 11
9.2236244268
 21
-44.9585991466
  0
LINE
  5
5A2
100
AcDbEntity
  8
RACCORDO
100
AcDbLine
 62
7
  6
CONTINUOUS
 10
-8.701726217
 20
46.0608766561
 11
-8.6955076809
 21
46.0312920246
  0
LINE
  5
5A3
100
AcDbEntity
  8
RACCORDO
100
AcDbLine
 62
7
  6
CONTINUOUS
 10
-14.7426238348
 20
-48.0748742703
 11
-14.7364567114
 21
-48.1049779878
  0
LINE
  5
5A4
100
AcDbEntity
  8
RACCORDO
100
AcDbLine
 62
7
  6
CONTINUOUS
 10
-14.8705773073
 20
-47.9333157327
 11
-14.8623973966
 21
-47.9743015091
  0
LINE
  5
5A5
100
AcDbEntity
  8
0
100
AcDbLine
 62
7
  6
CONTINUOUS
 10
3.8986838355
 20
-46.3065703186
 11
3.9030777274
 21
-46.3286476718
  0
LINE
  5
5A6
100
AcDbEntity
  8
RACCORDO
100
AcDbLine
 62
7
  6
CONTINUOUS
 10
-7.307605882
 20
-35.5066736975
 11
-7.2985493365
 21
-35.5528455294
  0
LINE
  5
5A7
100
AcDbEntity
  8
RACCORDO
100
AcDbLine
 62
7
  6
CONTINUOUS
 10
-7.307605882
 20
11.184992827
 11
-7.2985493365
 21
11.138820995
  0
LINE
  5
5A8
100
AcDbEntity
  8
0
100
AcDbLine
 62
7
  6
CONTINUOUS
 10
4.3433963941
 20
-46.4302266172
 11
4.3359503884
 21
-46.3917037698
  0
LINE
  5
5A9
100
AcDbEntity
  8
RACCORDO
100
AcDbLine
 62
7
  6
CONTINUOUS
 10
-10.1091357522
 20
9.2729165477
 11
-10.1215937614
 21
9.3385961548
  0
LINE
  5
5AA
100
AcDbEntity
  8
RACCORDO
100
AcDbLine
 62
7
  6
CONTINUOUS
 10
9.2631645389
 20
-8.9795544543
 11
9.2756225481
 21
-9.0452340614
  0
LINE
  5
5AB
100
AcDbEntity
  8
RACCORDO
100
AcDbLine
 62
7
  6
CONTINUOUS
 10
17.3171541315
 20
-60.9508038723
 11
17.0591424254
 21
-59.5827333357
  0
LINE
  5
5AC
100
AcDbEntity
  8
RACCORDO
100
AcDbLine
 62
7
  6
CONTINUOUS
 10
17.7212361871
 20
-60.8642071486
 11
17.4638354128
 21
-59.4994215469
  0
LINE
  5
5AD
100
AcDbEntity
  8
RACCORDO
100
AcDbLine
 62
7
  6
CONTINUOUS
 10
-16.1483541031
 20
48.7835561296
 11
-16.1513861401
 21
48.7998776215
  0
LINE
  5
5AE
100
AcDbEntity
  8
0
100
AcDbLine
 62
7
  6
CONTINUOUS
 10
4.0157913473
 20
-46.2210830273
 11
4.0188771616
 21
-46.2385214958
  0
LINE
  5
5AF
100
AcDbEntity
  8
RACCORDO
100
AcDbLine
 62
7
  6
CONTINUOUS
 10
-16.4497519143
 20
-16.6972423308
 11
-16.4527668412
 21
-16.679917069
  0
LINE
  5
5B0
100
AcDbEntity
  8
RACCORDO
100
AcDbLine
 62
7
  6
CONTINUOUS
 10
-16.4497519143
 20
29.9944241936
 11
-16.4527668412
 21
30.0117494554
  0
LINE
  5
5B1
100
AcDbEntity
  8
RACCORDO
100
AcDbLine
 62
7
  6
CONTINUOUS
 10
-14.8705505682
 20
-47.9334708099
 11
-14.8705773073
 21
-47.9333157327
  0
LINE
  5
5B2
100
AcDbEntity
  8
RACCORDO
100
AcDbLine
 62
7
  6
CONTINUOUS
 10
-8.15079018
 20
-36.1979388875
 11
-8.1583779577
 21
-36.1536232222
  0
LINE
  5
5B3
100
AcDbEntity
  8
RACCORDO
100
AcDbLine
 62
7
  6
CONTINUOUS
 10
-9.0698578479
 20
-0.8603336934
 11
-9.0647949791
 21
-0.889961757
  0
LINE
  5
5B4
100
AcDbEntity
  8
RACCORDO
100
AcDbLine
 62
7
  6
CONTINUOUS
 10
-8.1583928395
 20
10.5382427454
 11
-8.1507862367
 21
10.4937078937
  0
LINE
  5
5B5
100
AcDbEntity
  8
RACCORDO
100
AcDbLine
 62
7
  6
CONTINUOUS
 10
8.2320307425
 20
-7.8091628051
 11
8.2370937002
 21
-7.8387910497
  0
LINE
  5
5B6
100
AcDbEntity
  8
RACCORDO
100
AcDbLine
 62
7
  6
CONTINUOUS
 10
9.0641333754
 20
-8.8640727782
 11
9.0709997447
 21
-8.9042716959
  0
LINE
  5
5B7
100
AcDbEntity
  8
RACCORDO
100
AcDbLine
 62
7
  6
CONTINUOUS
 10
-9.1184205092
 20
-36.9504072422
 11
-9.12461791
 21
-36.914074657
  0
LINE
  5
5B8
100
AcDbEntity
  8
RACCORDO
100
AcDbLine
 62
7
  6
CONTINUOUS
 10
-9.7910673924
 20
-37.0951615413
 11
-9.8011088055
 21
-37.0361428158
  0
LINE
  5
5B9
100
AcDbEntity
  8
RACCORDO
100
AcDbLine
 62
7
  6
CONTINUOUS
 10
17.4638354128
 20
-59.4994215469
 11
17.229527962
 21
-58.1124722261
  0
LINE
  5
5BA
100
AcDbEntity
  8
RACCORDO
100
AcDbLine
 62
7
  6
CONTINUOUS
 10
17.0591424254
 20
-59.5827333357
 11
16.8241408558
 21
-58.191381001
  0
LINE
  5
5BB
100
AcDbEntity
  8
RACCORDO
100
AcDbLine
 62
7
  6
CONTINUOUS
 10
-9.4424723237
 20
9.4265775745
 11
-9.4493816424
 21
9.4676035335
  0
LINE
  5
5BC
100
AcDbEntity
  8
RACCORDO
100
AcDbLine
 62
7
  6
CONTINUOUS
 10
17.3221076639
 20
-60.9803995727
 11
17.3171541315
 21
-60.9508038723
  0
LINE
  5
5BD
100
AcDbEntity
  8
RACCORDO
100
AcDbLine
 62
7
  6
CONTINUOUS
 10
-16.1483540754
 20
-34.9330726609
 11
-16.1513861148
 21
-34.9147718021
  0
LINE
  5
5BE
100
AcDbEntity
  8
RACCORDO
100
AcDbLine
 62
7
  6
CONTINUOUS
 10
-15.0866402954
 20
-46.6186131972
 11
-14.8705551323
 21
-47.9334715971
  0
LINE
  5
5BF
100
AcDbEntity
  8
RACCORDO
100
AcDbLine
 62
7
  6
CONTINUOUS
 10
-14.9647863822
 20
-46.7212004893
 11
-14.7426238348
 21
-48.0748742703
  0
LINE
  5
5C0
100
AcDbEntity
  8
0
100
AcDbLine
 62
7
  6
CONTINUOUS
 10
4.3489338919
 20
-46.4666963506
 11
4.3433963941
 21
-46.4302266172
  0
LINE
  5
5C1
100
AcDbEntity
  8
RACCORDO
100
AcDbLine
 62
7
  6
CONTINUOUS
 10
16.8241408558
 20
-58.191381001
 11
16.6122325095
 21
-56.7772786044
  0
LINE
  5
5C2
100
AcDbEntity
  8
RACCORDO
100
AcDbLine
 62
7
  6
CONTINUOUS
 10
-15.2913756482
 20
-45.2278860775
 11
-15.0866402954
 21
-46.6186131972
  0
LINE
  5
5C3
100
AcDbEntity
  8
RACCORDO
100
AcDbLine
 62
7
  6
CONTINUOUS
 10
-15.1671554604
 20
-45.3429533773
 11
-14.9647863822
 21
-46.7212004893
  0
LINE
  5
5C4
100
AcDbEntity
  8
RACCORDO
100
AcDbLine
 62
7
  6
CONTINUOUS
 10
-7.3140775172
 20
-35.4613571038
 11
-7.307605882
 21
-35.5066736975
  0
LINE
  5
5C5
100
AcDbEntity
  8
RACCORDO
100
AcDbLine
 62
7
  6
CONTINUOUS
 10
-7.3140775172
 20
11.2303094207
 11
-7.307605882
 21
11.184992827
  0
LINE
  5
5C6
100
AcDbEntity
  8
RACCORDO
100
AcDbLine
 62
7
  6
CONTINUOUS
 10
-10.1215937614
 20
9.3385961548
 11
-10.1304304927
 21
9.4027786605
  0
LINE
  5
5C7
100
AcDbEntity
  8
RACCORDO
100
AcDbLine
 62
7
  6
CONTINUOUS
 10
9.2236244268
 20
-44.9585991466
 11
9.2185754867
 21
-44.9204271396
  0
LINE
  5
5C8
100
AcDbEntity
  8
RACCORDO
100
AcDbLine
 62
7
  6
CONTINUOUS
 10
-15.4758400871
 20
-43.8129041075
 11
-15.2913756482
 21
-45.2278860775
  0
LINE
  5
5C9
100
AcDbEntity
  8
RACCORDO
100
AcDbLine
 62
7
  6
CONTINUOUS
 10
-15.3496480022
 20
-43.9406646934
 11
-15.1671554604
 21
-45.3429533773
  0
LINE
  5
5CA
100
AcDbEntity
  8
RACCORDO
100
AcDbLine
 62
7
  6
CONTINUOUS
 10
9.0815659389
 20
-26.8990381604
 11
9.0784410592
 21
-26.8749190788
  0
LINE
  5
5CB
100
AcDbEntity
  8
RACCORDO
100
AcDbLine
 62
7
  6
CONTINUOUS
 10
-8.7058007214
 20
46.0928605924
 11
-8.701726217
 21
46.0608766561
  0
LINE
  5
5CC
100
AcDbEntity
  8
RACCORDO
100
AcDbLine
 62
7
  6
CONTINUOUS
 10
9.3620096082
 20
-44.4977727997
 11
9.3588620338
 21
-44.4723205205
  0
LINE
  5
5CD
100
AcDbEntity
  8
0
100
AcDbLine
 62
7
  6
CONTINUOUS
 10
3.9030777274
 20
-46.3286476718
 11
3.9057208932
 21
-46.3501315618
  0
LINE
  5
5CE
100
AcDbEntity
  8
0
100
AcDbLine
 62
7
  6
CONTINUOUS
 10
4.0188771616
 20
-46.2385214958
 11
4.0209399789
 21
-46.2557496043
  0
LINE
  5
5CF
100
AcDbEntity
  8
RACCORDO
100
AcDbLine
 62
7
  6
CONTINUOUS
 10
-9.8011088055
 20
-37.0361428158
 11
-9.8078989679
 21
-36.9783921188
  0
LINE
  5
5D0
100
AcDbEntity
  8
RACCORDO
100
AcDbLine
 62
7
  6
CONTINUOUS
 10
-9.12461791
 20
-36.914074657
 11
-9.1287923283
 21
-36.8785782501
  0
LINE
  5
5D1
100
AcDbEntity
  8
RACCORDO
100
AcDbLine
 62
7
  6
CONTINUOUS
 10
-9.4493816424
 20
9.4676035335
 11
-9.4540219891
 21
9.5078837512
  0
LINE
  5
5D2
100
AcDbEntity
  8
RACCORDO
100
AcDbLine
 62
7
  6
CONTINUOUS
 10
-15.6399560719
 20
-42.3742856315
 11
-15.4758400871
 21
-43.8129041075
  0
LINE
  5
5D3
100
AcDbEntity
  8
RACCORDO
100
AcDbLine
 62
7
  6
CONTINUOUS
 10
-15.512183302
 20
-42.5148906756
 11
-15.3496480022
 21
-43.9406646934
  0
LINE
  5
5D4
100
AcDbEntity
  8
RACCORDO
100
AcDbLine
 62
7
  6
CONTINUOUS
 10
-8.1583779577
 20
-36.1536232222
 11
-8.163260848
 21
-36.1102179451
  0
LINE
  5
5D5
100
AcDbEntity
  8
RACCORDO
100
AcDbLine
 62
7
  6
CONTINUOUS
 10
-8.1632813857
 20
10.5819592092
 11
-8.1583928395
 21
10.5382427454
  0
LINE
  5
5D6
100
AcDbEntity
  8
RACCORDO
100
AcDbLine
 62
7
  6
CONTINUOUS
 10
17.3250667269
 20
-61.0089005181
 11
17.3221076639
 21
-60.9803995727
  0
LINE
  5
5D7
100
AcDbEntity
  8
RACCORDO
100
AcDbLine
 62
7
  6
CONTINUOUS
 10
9.5633718538
 20
37.8949854175
 11
9.5694828256
 21
37.832747063
  0
LINE
  5
5D8
100
AcDbEntity
  8
RACCORDO
100
AcDbLine
 62
7
  6
CONTINUOUS
 10
8.2289784859
 20
-7.7773983054
 11
8.2320307425
 21
-7.8091628051
  0
LINE
  5
5D9
100
AcDbEntity
  8
RACCORDO
100
AcDbLine
 62
7
  6
CONTINUOUS
 10
16.2579806954
 20
-53.8830192409
 11
16.1157738937
 21
-52.4039212232
  0
LINE
  5
5DA
100
AcDbEntity
  8
RACCORDO
100
AcDbLine
 62
7
  6
CONTINUOUS
 10
16.6650377789
 20
-53.8175264728
 11
16.5232313954
 21
-52.3430377524
  0
LINE
  5
5DB
100
AcDbEntity
  8
RACCORDO
100
AcDbLine
 62
7
  6
CONTINUOUS
 10
17.7252420339
 20
-60.9083194323
 11
17.7212361871
 21
-60.8642071486
  0
LINE
  5
5DC
100
AcDbEntity
  8
RACCORDO
100
AcDbLine
 62
7
  6
CONTINUOUS
 10
9.2844592794
 20
-9.1094165672
 11
9.2897173966
 21
-9.1724260412
  0
LINE
  5
5DD
100
AcDbEntity
  8
RACCORDO
100
AcDbLine
 62
7
  6
CONTINUOUS
 10
16.1157738937
 20
-52.4039212232
 11
15.9969242546
 21
-50.9042365929
  0
LINE
  5
5DE
100
AcDbEntity
  8
RACCORDO
100
AcDbLine
 62
7
  6
CONTINUOUS
 10
16.5232313954
 20
-52.3430377524
 11
16.4047738809
 21
-50.8486162662
  0
LINE
  5
5DF
100
AcDbEntity
  8
RACCORDO
100
AcDbLine
 62
7
  6
CONTINUOUS
 10
9.3550476442
 20
38.0351750744
 11
9.3579854672
 21
37.9976641739
  0
LINE
  5
5E0
100
AcDbEntity
  8
RACCORDO
100
AcDbLine
 62
7
  6
CONTINUOUS
 10
9.0754903984
 20
-8.9421957957
 11
9.0777784263
 21
-8.9775798323
  0
LINE
  5
5E1
100
AcDbEntity
  8
0
100
AcDbLine
 62
7
  6
CONTINUOUS
 10
4.0209399789
 20
-46.2557496043
 11
4.0219968654
 21
-46.2727041302
  0
LINE
  5
5E2
100
AcDbEntity
  8
0
100
AcDbLine
 62
7
  6
CONTINUOUS
 10
4.3545408279
 20
-46.5332617518
 11
4.3526929703
 21
-46.5010043246
  0
LINE
  5
5E3
100
AcDbEntity
  8
0
100
AcDbLine
 62
7
  6
CONTINUOUS
 10
3.9057208932
 20
-46.3501315618
 11
3.9067751199
 21
-46.369035204
  0
LINE
  5
5E4
100
AcDbEntity
  8
RACCORDO
100
AcDbLine
 62
7
  6
CONTINUOUS
 10
9.2185754867
 20
-44.9204271396
 11
9.2166681464
 21
-44.8827944849
  0
LINE
  5
5E5
100
AcDbEntity
  8
RACCORDO
100
AcDbLine
 62
7
  6
CONTINUOUS
 10
9.3588620338
 20
-44.4723205205
 11
9.3586997626
 21
-44.4685950196
  0
LINE
  5
5E6
100
AcDbEntity
  8
0
100
AcDbLine
 62
7
  6
CONTINUOUS
 10
4.3549817741
 20
-46.5636998868
 11
4.3545408279
 21
-46.5332617518
  0
LINE
  5
5E7
100
AcDbEntity
  8
0
100
AcDbLine
 62
7
  6
CONTINUOUS
 10
4.0219968654
 20
-46.2727041302
 11
4.0222249668
 21
-46.2894529145
  0
LINE
  5
5E8
100
AcDbEntity
  8
0
100
AcDbLine
 62
7
  6
CONTINUOUS
 10
3.9067751199
 20
-46.369035204
 11
3.9068921311
 21
-46.3874024784
  0
LINE
  5
5E9
100
AcDbEntity
  8
RACCORDO
100
AcDbLine
 62
7
  6
CONTINUOUS
 10
-8.7077000685
 20
-38.3470526722
 11
-8.7058007194
 21
-38.3098020384
  0
LINE
  5
5EA
100
AcDbEntity
  8
RACCORDO
100
AcDbLine
 62
7
  6
CONTINUOUS
 10
-9.1309808764
 20
45.5351618113
 11
-9.1288188258
 21
45.5705289458
  0
LINE
  5
5EB
100
AcDbEntity
  8
RACCORDO
100
AcDbLine
 62
7
  6
CONTINUOUS
 10
-9.4564193601
 20
-1.3366556694
 11
-9.454059172
 21
-1.3011689103
  0
LINE
  5
5EC
100
AcDbEntity
  8
RACCORDO
100
AcDbLine
 62
7
  6
CONTINUOUS
 10
-9.072910022
 20
8.0724312045
 11
-9.0698577654
 21
8.1091962287
  0
LINE
  5
5ED
100
AcDbEntity
  8
RACCORDO
100
AcDbLine
 62
7
  6
CONTINUOUS
 10
-10.1357165862
 20
-1.3711619465
 11
-10.1305285494
 21
-1.3127525371
  0
LINE
  5
5EE
100
AcDbEntity
  8
RACCORDO
100
AcDbLine
 62
7
  6
CONTINUOUS
 10
-9.1288188258
 20
45.5705289458
 11
-9.1246942299
 21
45.6054222968
  0
LINE
  5
5EF
100
AcDbEntity
  8
RACCORDO
100
AcDbLine
 62
7
  6
CONTINUOUS
 10
-9.8079666357
 20
45.5548165957
 11
-9.8012636251
 21
45.6114804025
  0
LINE
  5
5F0
100
AcDbEntity
  8
RACCORDO
100
AcDbLine
 62
7
  6
CONTINUOUS
 10
-14.0817253557
 20
64.4785960474
 11
-14.0777018896
 21
64.5021313648
  0
LINE
  5
5F1
100
AcDbEntity
  8
RACCORDO
100
AcDbLine
 62
7
  6
CONTINUOUS
 10
-9.1246942299
 20
45.6054222968
 11
-9.118565379
 21
45.639712338
  0
LINE
  5
5F2
100
AcDbEntity
  8
RACCORDO
100
AcDbLine
 62
7
  6
CONTINUOUS
 10
-9.8012636251
 20
45.6114804025
 11
-9.7913288202
 21
45.6669099957
  0
LINE
  5
5F3
100
AcDbEntity
  8
RACCORDO
100
AcDbLine
 62
7
  6
CONTINUOUS
 10
-14.8528169011
 20
64.2729015127
 11
-14.8650255512
 21
64.2147680293
  0
LINE
  5
5F4
100
AcDbEntity
  8
RACCORDO
100
AcDbLine
 62
7
  6
CONTINUOUS
 10
-14.7284132177
 20
64.1222956906
 11
-14.7364701493
 21
64.0847709708
  0
LINE
  5
5F5
100
AcDbEntity
  8
RACCORDO
100
AcDbLine
 62
7
  6
CONTINUOUS
 10
-14.0777018896
 20
64.5021313648
 11
-14.0724809535
 21
64.5260819579
  0
LINE
  5
5F6
100
AcDbEntity
  8
RACCORDO
100
AcDbLine
 62
7
  6
CONTINUOUS
 10
-14.0724809535
 20
64.5260819579
 11
-14.0661008077
 21
64.550272275
  0
LINE
  5
5F7
100
AcDbEntity
  8
RACCORDO
100
AcDbLine
 62
7
  6
CONTINUOUS
 10
-14.8374071546
 20
64.329196118
 11
-14.8528169011
 21
64.2729015127
  0
LINE
  5
5F8
100
AcDbEntity
  8
RACCORDO
100
AcDbLine
 62
7
  6
CONTINUOUS
 10
-14.7184533526
 20
64.1586507701
 11
-14.7284132177
 21
64.1222956906
  0
LINE
  5
5F9
100
AcDbEntity
  8
RACCORDO
100
AcDbLine
 62
7
  6
CONTINUOUS
 10
17.1171835546
 20
-61.274706219
 11
17.1423317329
 21
-61.2708566754
  0
LINE
  5
5FA
100
AcDbEntity
  8
RACCORDO
100
AcDbLine
 62
7
  6
CONTINUOUS
 10
17.487283864
 20
-60.9712802615
 11
17.5173216629
 21
-60.9670558894
  0
LINE
  5
5FB
100
AcDbEntity
  8
RACCORDO
100
AcDbLine
 62
7
  6
CONTINUOUS
 10
17.3110218906
 20
-61.3797280138
 11
17.3581365925
 21
-61.3731906486
  0
LINE
  5
5FC
100
AcDbEntity
  8
0
100
AcDbLine
 62
7
  6
CONTINUOUS
 10
3.7634450021
 20
-46.5788840385
 11
3.7464756991
 21
-46.5795558581
  0
LINE
  5
5FD
100
AcDbEntity
  8
0
100
AcDbLine
 62
7
  6
CONTINUOUS
 10
4.0895913903
 20
-46.9173482089
 11
4.100079841
 21
-46.9169372213
  0
LINE
  5
5FE
100
AcDbEntity
  8
RACCORDO
100
AcDbLine
 62
7
  6
CONTINUOUS
 10
8.9767517274
 20
-45.3955192482
 11
8.9177946134
 21
-45.3955314646
  0
LINE
  5
5FF
100
AcDbEntity
  8
0
100
AcDbLine
 62
7
  6
CONTINUOUS
 10
4.1999515684
 20
-46.8231165186
 11
4.2085324608
 21
-46.8231918326
  0
LINE
  5
600
100
AcDbEntity
  8
RACCORDO
100
AcDbLine
 62
7
  6
CONTINUOUS
 10
-9.5769636803
 20
-36.9692599071
 11
-9.5348955171
 21
-36.9698378513
  0
LINE
  5
601
100
AcDbEntity
  8
RACCORDO
100
AcDbLine
 62
7
  6
CONTINUOUS
 10
9.0757110014
 20
-44.7151076225
 11
9.0401786325
 21
-44.7142215697
  0
LINE
  5
602
100
AcDbEntity
  8
RACCORDO
100
AcDbLine
 62
7
  6
CONTINUOUS
 10
-9.6186621535
 20
-36.9665350652
 11
-9.5769636803
 21
-36.9692599071
  0
LINE
  5
603
100
AcDbEntity
  8
RACCORDO
100
AcDbLine
 62
7
  6
CONTINUOUS
 10
-9.0551032962
 20
-0.9963345253
 11
-9.0225873153
 21
-1.0060704931
  0
LINE
  5
604
100
AcDbEntity
  8
RACCORDO
100
AcDbLine
 62
7
  6
CONTINUOUS
 10
-10.1018380205
 20
-1.4442571363
 11
-10.0645210019
 21
-1.4555183749
  0
LINE
  5
605
100
AcDbEntity
  8
RACCORDO
100
AcDbLine
 62
7
  6
CONTINUOUS
 10
-9.1959894723
 20
-0.7528106961
 11
-9.1350917766
 21
-0.7720104664
  0
LINE
  5
606
100
AcDbEntity
  8
RACCORDO
100
AcDbLine
 62
7
  6
CONTINUOUS
 10
-9.0225873153
 20
-1.0060704931
 11
-8.9893204428
 21
-1.0177799494
  0
LINE
  5
607
100
AcDbEntity
  8
RACCORDO
100
AcDbLine
 62
7
  6
CONTINUOUS
 10
-10.1373681129
 20
9.5276245769
 11
-10.1018384181
 21
9.5146000164
  0
LINE
  5
608
100
AcDbEntity
  8
RACCORDO
100
AcDbLine
 62
7
  6
CONTINUOUS
 10
8.2891205633
 20
1.0653725598
 11
8.2279586472
 21
1.0882570611
  0
LINE
  5
609
100
AcDbEntity
  8
RACCORDO
100
AcDbLine
 62
7
  6
CONTINUOUS
 10
8.7524182848
 20
4.0934621275
 11
9.0264199371
 21
3.9899779103
  0
LINE
  5
60A
100
AcDbEntity
  8
RACCORDO
100
AcDbLine
 62
7
  6
CONTINUOUS
 10
8.4799084168
 20
4.1982218754
 11
8.7524182848
 21
4.0934621275
  0
LINE
  5
60B
100
AcDbEntity
  8
RACCORDO
100
AcDbLine
 62
7
  6
CONTINUOUS
 10
8.2088731188
 20
4.3042634368
 11
8.4799084168
 21
4.1982218754
  0
LINE
  5
60C
100
AcDbEntity
  8
RACCORDO
100
AcDbLine
 62
7
  6
CONTINUOUS
 10
7.9393123907
 20
4.4115868119
 11
8.2088731188
 21
4.3042634368
  0
LINE
  5
60D
100
AcDbEntity
  8
RACCORDO
100
AcDbLine
 62
7
  6
CONTINUOUS
 10
8.2279586472
 20
1.0882570611
 11
-9.0739298605
 21
8.0370855478
  0
LINE
  5
60E
100
AcDbEntity
  8
RACCORDO
100
AcDbLine
 62
7
  6
CONTINUOUS
 10
8.5364090882
 20
1.7051472718
 11
-8.8402964564
 21
8.6840183148
  0
LINE
  5
60F
100
AcDbEntity
  8
RACCORDO
100
AcDbLine
 62
7
  6
CONTINUOUS
 10
-7.5101161716
 20
9.706155822
 11
9.0781851178
 21
3.0439200497
  0
LINE
  5
610
100
AcDbEntity
  8
DRAFT
100
AcDbLine
 62
7
  6
CONTINUOUS
 10
-4.3479682736
 20
9.3464357369
 11
7.9393123907
 21
4.4115868119
  0
LINE
  5
611
100
AcDbEntity
  8
RACCORDO
100
AcDbLine
 62
7
  6
CONTINUOUS
 10
-4.3479682736
 20
9.3464357369
 11
-4.6159917967
 21
9.4550183167
  0
LINE
  5
612
100
AcDbEntity
  8
RACCORDO
100
AcDbLine
 62
7
  6
CONTINUOUS
 10
-4.6159917967
 20
9.4550183167
 11
-4.8824196519
 21
9.5648340744
  0
LINE
  5
613
100
AcDbEntity
  8
RACCORDO
100
AcDbLine
 62
7
  6
CONTINUOUS
 10
-4.8824196519
 20
9.5648340744
 11
-5.1472518393
 21
9.67588301
  0
LINE
  5
614
100
AcDbEntity
  8
RACCORDO
100
AcDbLine
 62
7
  6
CONTINUOUS
 10
-5.1472518393
 20
9.67588301
 11
-5.4105045398
 21
9.7881722531
  0
LINE
  5
615
100
AcDbEntity
  8
RACCORDO
100
AcDbLine
 62
7
  6
CONTINUOUS
 10
-9.0739298605
 20
8.0370855478
 11
-9.1346636477
 21
8.0631291326
  0
LINE
  5
616
100
AcDbEntity
  8
RACCORDO
100
AcDbLine
 62
7
  6
CONTINUOUS
 10
-5.4105045398
 20
9.7881722531
 11
-5.6721615725
 21
9.901694674
  0
LINE
  5
617
100
AcDbEntity
  8
RACCORDO
100
AcDbLine
 62
7
  6
CONTINUOUS
 10
9.2913968996
 20
1.7245945367
 11
9.2579064844
 21
1.7392900354
  0
LINE
  5
618
100
AcDbEntity
  8
RACCORDO
100
AcDbLine
 62
7
  6
CONTINUOUS
 10
-5.6721615725
 20
9.901694674
 11
-5.9321743946
 21
10.0164288845
  0
LINE
  5
619
100
AcDbEntity
  8
RACCORDO
100
AcDbLine
 62
7
  6
CONTINUOUS
 10
-5.9321743946
 20
10.0164288845
 11
-6.1905268252
 21
10.132367755
  0
LINE
  5
61A
100
AcDbEntity
  8
RACCORDO
100
AcDbLine
 62
7
  6
CONTINUOUS
 10
-6.1905268252
 20
10.132367755
 11
-6.4472350453
 21
10.2495184151
  0
LINE
  5
61B
100
AcDbEntity
  8
RACCORDO
100
AcDbLine
 62
7
  6
CONTINUOUS
 10
-7.5521278999
 20
9.7253527054
 11
-7.5101161716
 21
9.706155822
  0
LINE
  5
61C
100
AcDbEntity
  8
RACCORDO
100
AcDbLine
 62
7
  6
CONTINUOUS
 10
-8.8402964564
 20
8.6840183148
 11
-8.8784533366
 21
8.701531955
  0
LINE
  5
61D
100
AcDbEntity
  8
RACCORDO
100
AcDbLine
 62
7
  6
CONTINUOUS
 10
-6.4472350453
 20
10.2495184151
 11
-6.7022990548
 21
10.3678808646
  0
LINE
  5
61E
100
AcDbEntity
  8
RACCORDO
100
AcDbLine
 62
7
  6
CONTINUOUS
 10
-16.3491511812
 20
29.8898968205
 11
-16.3710974013
 21
29.9019260167
  0
LINE
  5
61F
100
AcDbEntity
  8
RACCORDO
100
AcDbLine
 62
7
  6
CONTINUOUS
 10
9.226694589
 20
19.6219562049
 11
9.197982135
 21
19.6396683954
  0
LINE
  5
620
100
AcDbEntity
  8
RACCORDO
100
AcDbLine
 62
7
  6
CONTINUOUS
 10
9.197982135
 20
19.6396683954
 11
9.1719736778
 21
19.6587052215
  0
LINE
  5
621
100
AcDbEntity
  8
RACCORDO
100
AcDbLine
 62
7
  6
CONTINUOUS
 10
-16.0893481188
 20
48.7078901923
 11
-16.1066391062
 21
48.721702846
  0
LINE
  5
622
100
AcDbEntity
  8
RACCORDO
100
AcDbLine
 62
7
  6
CONTINUOUS
 10
-9.4741962612
 20
45.9865881455
 11
-9.4416296762
 21
45.960334429
  0
LINE
  5
623
100
AcDbEntity
  8
RACCORDO
100
AcDbLine
 62
7
  6
CONTINUOUS
 10
-9.5053349507
 20
46.0150405553
 11
-9.4741962612
 21
45.9865881455
  0
LINE
  5
624
100
AcDbEntity
  8
RACCORDO
100
AcDbLine
 62
7
  6
CONTINUOUS
 10
-8.6503805008
 20
45.9411564351
 11
-8.6344666898
 21
45.9265346228
  0
LINE
  5
625
100
AcDbEntity
  8
RACCORDO
100
AcDbLine
 62
7
  6
CONTINUOUS
 10
8.9518747465
 20
38.7824675218
 11
8.9913341524
 21
38.7448059507
  0
LINE
  5
626
100
AcDbEntity
  8
RACCORDO
100
AcDbLine
 62
7
  6
CONTINUOUS
 10
9.0326451773
 20
38.9110823152
 11
9.0593181649
 21
38.8849310787
  0
LINE
  5
627
100
AcDbEntity
  8
RACCORDO
100
AcDbLine
 62
7
  6
CONTINUOUS
 10
9.4293917385
 20
37.79783496
 11
9.4093102488
 21
37.8182673981
  0
LINE
  5
628
100
AcDbEntity
  8
RACCORDO
100
AcDbLine
 62
7
  6
CONTINUOUS
 10
9.0593181649
 20
38.8849310787
 11
9.0855937027
 21
38.8580615542
  0
LINE
  5
629
100
AcDbEntity
  8
RACCORDO
100
AcDbLine
 62
7
  6
CONTINUOUS
 10
-14.8410118438
 20
64.1027340149
 11
-14.853191276
 21
64.115343732
  0
LINE
  5
62A
100
AcDbEntity
  8
RACCORDO
100
AcDbLine
 62
7
  6
CONTINUOUS
 10
8.9913341524
 20
38.7448059507
 11
9.0296886303
 21
38.7049736796
  0
LINE
  5
62B
100
AcDbEntity
  8
RACCORDO
100
AcDbLine
 62
7
  6
CONTINUOUS
 10
9.0855937027
 20
38.8580615542
 11
9.1114794062
 21
38.8304789669
  0
LINE
  5
62C
100
AcDbEntity
  8
RACCORDO
100
AcDbLine
 62
7
  6
CONTINUOUS
 10
9.1114794062
 20
38.8304789669
 11
9.1369683542
 21
38.8021786085
  0
LINE
  5
62D
100
AcDbEntity
  8
RACCORDO
100
AcDbLine
 62
7
  6
CONTINUOUS
 10
9.0296886303
 20
38.7049736796
 11
9.0667477381
 21
38.6631244829
  0
LINE
  5
62E
100
AcDbEntity
  8
RACCORDO
100
AcDbLine
 62
7
  6
CONTINUOUS
 10
9.1369683542
 20
38.8021786085
 11
9.1620533346
 21
38.7731116521
  0
LINE
  5
62F
100
AcDbEntity
  8
RACCORDO
100
AcDbLine
 62
7
  6
CONTINUOUS
 10
9.1620533346
 20
38.7731116521
 11
9.1867435687
 21
38.7432817959
  0
LINE
  5
630
100
AcDbEntity
  8
RACCORDO
100
AcDbLine
 62
7
  6
CONTINUOUS
 10
9.0667477381
 20
38.6631244829
 11
9.1022905825
 21
38.619470943
  0
LINE
  5
631
100
AcDbEntity
  8
RACCORDO
100
AcDbLine
 62
7
  6
CONTINUOUS
 10
9.4093102488
 20
37.8182673981
 11
9.392423175
 21
37.8394724832
  0
LINE
  5
632
100
AcDbEntity
  8
RACCORDO
100
AcDbLine
 62
7
  6
CONTINUOUS
 10
9.1867435687
 20
38.7432817959
 11
9.2110306902
 21
38.7126859794
  0
LINE
  5
633
100
AcDbEntity
  8
RACCORDO
100
AcDbLine
 62
7
  6
CONTINUOUS
 10
8.5863623791
 20
39.0307397664
 11
8.6005243953
 21
39.0128041015
  0
LINE
  5
634
100
AcDbEntity
  8
RACCORDO
100
AcDbLine
 62
7
  6
CONTINUOUS
 10
9.2110306902
 20
38.7126859794
 11
9.2348811939
 21
38.6812653042
  0
LINE
  5
635
100
AcDbEntity
  8
RACCORDO
100
AcDbLine
 62
7
  6
CONTINUOUS
 10
9.1022905825
 20
38.619470943
 11
9.1361134132
 21
38.5742389379
  0
LINE
  5
636
100
AcDbEntity
  8
RACCORDO
100
AcDbLine
 62
7
  6
CONTINUOUS
 10
9.2348811939
 20
38.6812653042
 11
9.2583062482
 21
38.6490222118
  0
LINE
  5
637
100
AcDbEntity
  8
RACCORDO
100
AcDbLine
 62
7
  6
CONTINUOUS
 10
9.2583062482
 20
38.6490222118
 11
9.2812957444
 21
38.6159550529
  0
LINE
  5
638
100
AcDbEntity
  8
RACCORDO
100
AcDbLine
 62
7
  6
CONTINUOUS
 10
9.1361134132
 20
38.5742389379
 11
9.1680658954
 21
38.5276116822
  0
LINE
  5
639
100
AcDbEntity
  8
RACCORDO
100
AcDbLine
 62
7
  6
CONTINUOUS
 10
9.2812957444
 20
38.6159550529
 11
9.3037843857
 21
38.5819988848
  0
LINE
  5
63A
100
AcDbEntity
  8
RACCORDO
100
AcDbLine
 62
7
  6
CONTINUOUS
 10
9.218575701
 20
38.4442758021
 11
9.2178824625
 21
38.4453371851
  0
LINE
  5
63B
100
AcDbEntity
  8
RACCORDO
100
AcDbLine
 62
7
  6
CONTINUOUS
 10
9.3037843857
 20
38.5819988848
 11
9.3257508711
 21
38.5471324078
  0
LINE
  5
63C
100
AcDbEntity
  8
RACCORDO
100
AcDbLine
 62
7
  6
CONTINUOUS
 10
9.1680658954
 20
38.5276116822
 11
9.1979800206
 21
38.4798203575
  0
LINE
  5
63D
100
AcDbEntity
  8
RACCORDO
100
AcDbLine
 62
7
  6
CONTINUOUS
 10
9.392423175
 20
37.8394724832
 11
9.3788506273
 21
37.8612993928
  0
LINE
  5
63E
100
AcDbEntity
  8
RACCORDO
100
AcDbLine
 62
7
  6
CONTINUOUS
 10
9.3257508711
 20
38.5471324078
 11
9.3472178373
 21
38.5113779224
  0
LINE
  5
63F
100
AcDbEntity
  8
RACCORDO
100
AcDbLine
 62
7
  6
CONTINUOUS
 10
9.1979800206
 20
38.4798203575
 11
9.2178804919
 21
38.4453430469
  0
LINE
  5
640
100
AcDbEntity
  8
RACCORDO
100
AcDbLine
 62
7
  6
CONTINUOUS
 10
9.3472178373
 20
38.5113779224
 11
9.3681859891
 21
38.4747359575
  0
LINE
  5
641
100
AcDbEntity
  8
RACCORDO
100
AcDbLine
 62
7
  6
CONTINUOUS
 10
9.4591748423
 20
38.2860150571
 11
9.484194942
 21
38.2209662972
  0
LINE
  5
642
100
AcDbEntity
  8
RACCORDO
100
AcDbLine
 62
7
  6
CONTINUOUS
 10
9.2914195065
 20
38.2894239721
 11
9.3076817461
 21
38.2448230193
  0
LINE
  5
643
100
AcDbEntity
  8
RACCORDO
100
AcDbLine
 62
7
  6
CONTINUOUS
 10
9.484194942
 20
38.2209662972
 11
9.506485675
 21
38.1550364009
  0
LINE
  5
644
100
AcDbEntity
  8
RACCORDO
100
AcDbLine
 62
7
  6
CONTINUOUS
 10
9.3076817461
 20
38.2448230193
 11
9.3216734411
 21
38.2007805073
  0
LINE
  5
645
100
AcDbEntity
  8
RACCORDO
100
AcDbLine
 62
7
  6
CONTINUOUS
 10
8.5553972014
 20
39.1029396836
 11
8.5637122689
 21
39.0759803553
  0
LINE
  5
646
100
AcDbEntity
  8
RACCORDO
100
AcDbLine
 62
7
  6
CONTINUOUS
 10
9.3686891412
 20
37.8835928818
 11
9.362010991
 21
37.9061943864
  0
LINE
  5
647
100
AcDbEntity
  8
RACCORDO
100
AcDbLine
 62
7
  6
CONTINUOUS
 10
9.506485675
 20
38.1550364009
 11
9.5255938263
 21
38.0893597543
  0
LINE
  5
648
100
AcDbEntity
  8
RACCORDO
100
AcDbLine
 62
7
  6
CONTINUOUS
 10
9.3216734411
 20
38.2007805073
 11
9.3333827262
 21
38.1575441929
  0
LINE
  5
649
100
AcDbEntity
  8
RACCORDO
100
AcDbLine
 62
7
  6
CONTINUOUS
 10
9.5255938263
 20
38.0893597543
 11
9.5413880601
 21
38.023973624
  0
LINE
  5
64A
100
AcDbEntity
  8
RACCORDO
100
AcDbLine
 62
7
  6
CONTINUOUS
 10
9.3333827262
 20
38.1575441929
 11
9.3428174741
 21
38.1153841149
  0
LINE
  5
64B
100
AcDbEntity
  8
RACCORDO
100
AcDbLine
 62
7
  6
CONTINUOUS
 10
8.549178662
 20
39.1325243186
 11
8.5553972014
 21
39.1029396836
  0
LINE
  5
64C
100
AcDbEntity
  8
RACCORDO
100
AcDbLine
 62
7
  6
CONTINUOUS
 10
9.5413880601
 20
38.023973624
 11
9.5540003497
 21
37.9588412233
  0
LINE
  5
64D
100
AcDbEntity
  8
RACCORDO
100
AcDbLine
 62
7
  6
CONTINUOUS
 10
9.3428174741
 20
38.1153841149
 11
9.3500195716
 21
38.074515958
  0
LINE
  5
64E
100
AcDbEntity
  8
RACCORDO
100
AcDbLine
 62
7
  6
CONTINUOUS
 10
17.229527962
 20
-58.1124722261
 11
17.0183138349
 21
-56.7033591863
  0
LINE
  5
64F
100
AcDbEntity
  8
RACCORDO
100
AcDbLine
 62
7
  6
CONTINUOUS
 10
9.5540003497
 20
37.9588412233
 11
9.5633718538
 21
37.8949854175
  0
LINE
  5
650
100
AcDbEntity
  8
RACCORDO
100
AcDbLine
 62
7
  6
CONTINUOUS
 10
9.362010991
 20
37.9061943864
 11
9.3588636753
 21
37.9289431521
  0
LINE
  5
651
100
AcDbEntity
  8
RACCORDO
100
AcDbLine
 62
7
  6
CONTINUOUS
 10
9.2756225481
 20
-9.0452340614
 11
9.2844592794
 21
-9.1094165672
  0
LINE
  5
652
100
AcDbEntity
  8
RACCORDO
100
AcDbLine
 62
7
  6
CONTINUOUS
 10
17.0183138349
 20
-56.7033591863
 11
16.8301291451
 21
-55.2715246891
  0
LINE
  5
653
100
AcDbEntity
  8
RACCORDO
100
AcDbLine
 62
7
  6
CONTINUOUS
 10
16.6122325095
 20
-56.7772786044
 11
16.4234894844
 21
-55.3409787064
  0
LINE
  5
654
100
AcDbEntity
  8
RACCORDO
100
AcDbLine
 62
7
  6
CONTINUOUS
 10
9.0815659389
 20
-9.0326334083
 11
9.0784410592
 21
-9.0085143267
  0
LINE
  5
655
100
AcDbEntity
  8
RACCORDO
100
AcDbLine
 62
7
  6
CONTINUOUS
 10
9.0815657213
 20
1.9262246792
 11
9.0784410029
 21
1.950343701
  0
LINE
  5
656
100
AcDbEntity
  8
RACCORDO
100
AcDbLine
 62
7
  6
CONTINUOUS
 10
9.0815659389
 20
19.792628364
 11
9.0784410592
 21
19.8167474456
  0
LINE
  5
657
100
AcDbEntity
  8
RACCORDO
100
AcDbLine
 62
7
  6
CONTINUOUS
 10
9.3500195716
 20
38.074515958
 11
9.3550476442
 21
38.0351750744
  0
LINE
  5
658
100
AcDbEntity
  8
RACCORDO
100
AcDbLine
 62
7
  6
CONTINUOUS
 10
8.5451041549
 20
39.1645082612
 11
8.549178662
 21
39.1325243186
  0
LINE
  5
659
100
AcDbEntity
  8
RACCORDO
100
AcDbLine
 62
7
  6
CONTINUOUS
 10
9.0709997447
 20
-8.9042716959
 11
9.0754903984
 21
-8.9421957957
  0
LINE
  5
65A
100
AcDbEntity
  8
RACCORDO
100
AcDbLine
 62
7
  6
CONTINUOUS
 10
16.8301291451
 20
-55.2715246891
 11
16.6650377789
 21
-53.8175264728
  0
LINE
  5
65B
100
AcDbEntity
  8
RACCORDO
100
AcDbLine
 62
7
  6
CONTINUOUS
 10
16.4234894844
 20
-55.3409787064
 11
16.2579806954
 21
-53.8830192409
  0
LINE
  5
65C
100
AcDbEntity
  8
RACCORDO
100
AcDbLine
 62
7
  6
CONTINUOUS
 10
17.7246964888
 20
51.3084860791
 11
17.7202450084
 21
51.3637999191
  0
LINE
  5
65D
100
AcDbEntity
  8
RACCORDO
100
AcDbLine
 62
7
  6
CONTINUOUS
 10
17.3249971511
 20
51.3292890961
 11
17.3219731724
 21
51.3700798074
  0
LINE
  5
65E
100
AcDbEntity
  8
RACCORDO
100
AcDbLine
 62
7
  6
CONTINUOUS
 10
15.9969242546
 20
-50.9042365929
 11
15.9014723126
 21
-49.3845500793
  0
LINE
  5
65F
100
AcDbEntity
  8
RACCORDO
100
AcDbLine
 62
7
  6
CONTINUOUS
 10
16.4047738809
 20
-50.8486162662
 11
16.3096013491
 21
-49.3337042759
  0
LINE
  5
660
100
AcDbEntity
  8
RACCORDO
100
AcDbLine
 62
7
  6
CONTINUOUS
 10
8.5432048059
 20
39.1986471838
 11
8.5451041549
 21
39.1645082612
  0
LINE
  5
661
100
AcDbEntity
  8
RACCORDO
100
AcDbLine
 62
7
  6
CONTINUOUS
 10
9.5694828256
 20
37.832747063
 11
9.5723529625
 21
37.7717852691
  0
LINE
  5
662
100
AcDbEntity
  8
RACCORDO
100
AcDbLine
 62
7
  6
CONTINUOUS
 10
15.9014723126
 20
-49.3845500793
 11
15.8294532087
 21
-47.8454422831
  0
LINE
  5
663
100
AcDbEntity
  8
RACCORDO
100
AcDbLine
 62
7
  6
CONTINUOUS
 10
16.3096013491
 20
-49.3337042759
 11
16.2377138
 21
-47.7983017814
  0
LINE
  5
664
100
AcDbEntity
  8
RACCORDO
100
AcDbLine
 62
7
  6
CONTINUOUS
 10
15.8294532828
 20
-47.8454423129
 11
15.7916240206
 21
-46.8452135635
  0
LINE
  5
665
100
AcDbEntity
  8
RACCORDO
100
AcDbLine
 62
7
  6
CONTINUOUS
 10
16.2377138
 20
-47.7983017814
 11
16.1999071746
 21
-46.7987083179
  0
LINE
  5
666
100
AcDbEntity
  8
RACCORDO
100
AcDbLine
 62
7
  6
CONTINUOUS
 10
15.7916240206
 20
-46.8452135635
 11
15.7559559661
 21
-45.8432885583
  0
LINE
  5
667
100
AcDbEntity
  8
RACCORDO
100
AcDbLine
 62
7
  6
CONTINUOUS
 10
16.1999071746
 20
-46.7987083179
 11
16.1642607619
 21
-45.797440001
  0
LINE
  5
668
100
AcDbEntity
  8
RACCORDO
100
AcDbLine
 62
7
  6
CONTINUOUS
 10
17.3260310075
 20
-61.0363070613
 11
17.3250667269
 21
-61.0089005181
  0
LINE
  5
669
100
AcDbEntity
  8
RACCORDO
100
AcDbLine
 62
7
  6
CONTINUOUS
 10
15.7559559661
 20
-45.8432885583
 11
15.7224492207
 21
-44.8396752395
  0
LINE
  5
66A
100
AcDbEntity
  8
RACCORDO
100
AcDbLine
 62
7
  6
CONTINUOUS
 10
16.1642607619
 20
-45.797440001
 11
16.1307745617
 21
-44.7944968308
  0
LINE
  5
66B
100
AcDbEntity
  8
RACCORDO
100
AcDbLine
 62
7
  6
CONTINUOUS
 10
15.7224492207
 20
-44.8396752395
 11
15.6911039761
 21
-43.8343852986
  0
LINE
  5
66C
100
AcDbEntity
  8
RACCORDO
100
AcDbLine
 62
7
  6
CONTINUOUS
 10
16.1307745617
 20
-44.7944968308
 11
16.0994486445
 21
-43.7898760459
  0
LINE
  5
66D
100
AcDbEntity
  8
RACCORDO
100
AcDbLine
 62
7
  6
CONTINUOUS
 10
9.3011297262
 20
-42.5844603797
 11
9.3586951858
 21
-44.4684057253
  0
LINE
  5
66E
100
AcDbEntity
  8
RACCORDO
100
AcDbLine
 62
7
  6
CONTINUOUS
 10
9.5113149525
 20
-42.7155125994
 11
9.5719822745
 21
-44.7067279616
  0
LINE
  5
66F
100
AcDbEntity
  8
RACCORDO
100
AcDbLine
 62
7
  6
CONTINUOUS
 10
8.2279586472
 20
-7.7437234544
 11
8.2289784859
 21
-7.7773983054
  0
LINE
  5
670
100
AcDbEntity
  8
RACCORDO
100
AcDbLine
 62
7
  6
CONTINUOUS
 10
15.6911039761
 20
-43.8343852986
 11
15.6619201814
 21
-42.8274229789
  0
LINE
  5
671
100
AcDbEntity
  8
RACCORDO
100
AcDbLine
 62
7
  6
CONTINUOUS
 10
16.0994486445
 20
-43.7898760459
 11
16.0702829399
 21
-42.7835804076
  0
LINE
  5
672
100
AcDbEntity
  8
RACCORDO
100
AcDbLine
 62
7
  6
CONTINUOUS
 10
9.0784410029
 20
1.950343701
 11
9.0781852366
 21
1.9593199885
  0
LINE
  5
673
100
AcDbEntity
  8
RACCORDO
100
AcDbLine
 62
7
  6
CONTINUOUS
 10
9.0784410592
 20
-26.8749190788
 11
9.0781851178
 21
-26.8657440805
  0
LINE
  5
674
100
AcDbEntity
  8
RACCORDO
100
AcDbLine
 62
7
  6
CONTINUOUS
 10
9.0784410592
 20
-9.0085143267
 11
9.0781851178
 21
-8.9993393284
  0
LINE
  5
675
100
AcDbEntity
  8
RACCORDO
100
AcDbLine
 62
7
  6
CONTINUOUS
 10
9.0784410592
 20
19.8167474456
 11
9.0781851178
 21
19.8259224371
  0
LINE
  5
676
100
AcDbEntity
  8
RACCORDO
100
AcDbLine
 62
7
  6
CONTINUOUS
 10
9.3579854672
 20
37.9976641739
 11
9.3589579367
 21
37.9622066825
  0
LINE
  5
677
100
AcDbEntity
  8
RACCORDO
100
AcDbLine
 62
7
  6
CONTINUOUS
 10
9.2897173966
 20
-9.1724260412
 11
9.2913968996
 21
-9.2342624836
  0
LINE
  5
678
100
AcDbEntity
  8
RACCORDO
100
AcDbLine
 62
7
  6
CONTINUOUS
 10
9.2486796665
 20
-40.6348678893
 11
9.3011297262
 21
-42.5844603797
  0
LINE
  5
679
100
AcDbEntity
  8
RACCORDO
100
AcDbLine
 62
7
  6
CONTINUOUS
 10
9.4584311912
 20
-40.7325654954
 11
9.5113149525
 21
-42.7155125994
  0
LINE
  5
67A
100
AcDbEntity
  8
RACCORDO
100
AcDbLine
 62
7
  6
CONTINUOUS
 10
15.6619201814
 20
-42.8274229789
 11
15.6348976177
 21
-41.8187850101
  0
LINE
  5
67B
100
AcDbEntity
  8
RACCORDO
100
AcDbLine
 62
7
  6
CONTINUOUS
 10
16.0702829399
 20
-42.7835804076
 11
16.043277237
 21
-41.7756181999
  0
LINE
  5
67C
100
AcDbEntity
  8
RACCORDO
100
AcDbLine
 62
7
  6
CONTINUOUS
 10
17.7263842742
 20
-60.9510935056
 11
17.7252420339
 21
-60.9083194323
  0
LINE
  5
67D
100
AcDbEntity
  8
RACCORDO
100
AcDbLine
 62
7
  6
CONTINUOUS
 10
15.6348976177
 20
-41.8187850101
 11
15.6100364214
 21
-40.8084808185
  0
LINE
  5
67E
100
AcDbEntity
  8
RACCORDO
100
AcDbLine
 62
7
  6
CONTINUOUS
 10
16.043277237
 20
-41.7756181999
 11
16.0184314529
 21
-40.7659895196
  0
LINE
  5
67F
100
AcDbEntity
  8
RACCORDO
100
AcDbLine
 62
7
  6
CONTINUOUS
 10
9.2032512467
 20
-38.6784429589
 11
9.2486796665
 21
-40.6348678893
  0
LINE
  5
680
100
AcDbEntity
  8
RACCORDO
100
AcDbLine
 62
7
  6
CONTINUOUS
 10
9.4131489391
 20
-38.7581081312
 11
9.4584311912
 21
-40.7325654954
  0
LINE
  5
681
100
AcDbEntity
  8
RACCORDO
100
AcDbLine
 62
7
  6
CONTINUOUS
 10
15.6100364214
 20
-40.8084808185
 11
15.5873366462
 21
-39.7965168634
  0
LINE
  5
682
100
AcDbEntity
  8
RACCORDO
100
AcDbLine
 62
7
  6
CONTINUOUS
 10
16.0184314529
 20
-40.7659895196
 11
15.9957456705
 21
-39.7546942699
  0
LINE
  5
683
100
AcDbEntity
  8
RACCORDO
100
AcDbLine
 62
7
  6
CONTINUOUS
 10
15.5873366462
 20
-39.7965168634
 11
15.5667980872
 21
-38.7828853035
  0
LINE
  5
684
100
AcDbEntity
  8
RACCORDO
100
AcDbLine
 62
7
  6
CONTINUOUS
 10
15.9957456705
 20
-39.7546942699
 11
15.9752199278
 21
-38.7417404442
  0
LINE
  5
685
100
AcDbEntity
  8
RACCORDO
100
AcDbLine
 62
7
  6
CONTINUOUS
 10
9.1648459645
 20
-36.7152513575
 11
9.2032512467
 21
-38.6784429589
  0
LINE
  5
686
100
AcDbEntity
  8
RACCORDO
100
AcDbLine
 62
7
  6
CONTINUOUS
 10
9.3752746379
 20
-36.7923910315
 11
9.4131489391
 21
-38.7581081312
  0
LINE
  5
687
100
AcDbEntity
  8
RACCORDO
100
AcDbLine
 62
7
  6
CONTINUOUS
 10
9.0777784263
 20
-8.9775798323
 11
9.0781836412
 21
-8.9992809474
  0
LINE
  5
688
100
AcDbEntity
  8
RACCORDO
100
AcDbLine
 62
7
  6
CONTINUOUS
 10
9.3586997626
 20
-44.4685950196
 11
9.3589516442
 21
-44.4821183938
  0
LINE
  5
689
100
AcDbEntity
  8
RACCORDO
100
AcDbLine
 62
7
  6
CONTINUOUS
 10
15.5667980872
 20
-38.7828853035
 11
15.5484208912
 21
-37.7675940287
  0
LINE
  5
68A
100
AcDbEntity
  8
RACCORDO
100
AcDbLine
 62
7
  6
CONTINUOUS
 10
15.9752199278
 20
-38.7417404442
 11
15.9568541408
 21
-37.727128107
  0
LINE
  5
68B
100
AcDbEntity
  8
RACCORDO
100
AcDbLine
 62
7
  6
CONTINUOUS
 10
9.1334646147
 20
-34.7453482022
 11
9.1648459645
 21
-36.7152513575
  0
LINE
  5
68C
100
AcDbEntity
  8
RACCORDO
100
AcDbLine
 62
7
  6
CONTINUOUS
 10
15.5484208912
 20
-37.7675940287
 11
15.5322052013
 21
-36.7506509466
  0
LINE
  5
68D
100
AcDbEntity
  8
RACCORDO
100
AcDbLine
 62
7
  6
CONTINUOUS
 10
15.9568541408
 20
-37.727128107
 11
15.9406483935
 21
-36.7108571938
  0
LINE
  5
68E
100
AcDbEntity
  8
RACCORDO
100
AcDbLine
 62
7
  6
CONTINUOUS
 10
9.3446408438
 20
-34.8355953457
 11
9.3752746379
 21
-36.7923910315
  0
LINE
  5
68F
100
AcDbEntity
  8
RACCORDO
100
AcDbLine
 62
7
  6
CONTINUOUS
 10
9.3588636753
 20
37.9289431521
 11
9.3586666812
 21
37.9421659274
  0
LINE
  5
690
100
AcDbEntity
  8
RACCORDO
100
AcDbLine
 62
7
  6
CONTINUOUS
 10
15.5322052013
 20
-36.7506509466
 11
15.518150971
 21
-35.7320481021
  0
LINE
  5
691
100
AcDbEntity
  8
RACCORDO
100
AcDbLine
 62
7
  6
CONTINUOUS
 10
15.9406483935
 20
-36.7108571938
 11
15.9266029764
 21
-35.6929355049
  0
LINE
  5
692
100
AcDbEntity
  8
RACCORDO
100
AcDbLine
 62
7
  6
CONTINUOUS
 10
9.1091077924
 20
-32.7687839848
 11
9.1334646147
 21
-34.7453482022
  0
LINE
  5
693
100
AcDbEntity
  8
RACCORDO
100
AcDbLine
 62
7
  6
CONTINUOUS
 10
9.3211077119
 20
-32.8878316354
 11
9.3446408438
 21
-34.8355953457
  0
LINE
  5
694
100
AcDbEntity
  8
RACCORDO
100
AcDbLine
 62
7
  6
CONTINUOUS
 10
15.518150971
 20
-35.7320481021
 11
15.5062583953
 21
-34.7117934307
  0
LINE
  5
695
100
AcDbEntity
  8
RACCORDO
100
AcDbLine
 62
7
  6
CONTINUOUS
 10
15.9266029764
 20
-35.6929355049
 11
15.9147178052
 21
-34.6733630738
  0
LINE
  5
696
100
AcDbEntity
  8
RACCORDO
100
AcDbLine
 62
7
  6
CONTINUOUS
 10
15.5062583953
 20
-34.7117934307
 11
15.4965276628
 21
-33.6898947172
  0
LINE
  5
697
100
AcDbEntity
  8
RACCORDO
100
AcDbLine
 62
7
  6
CONTINUOUS
 10
15.9147178052
 20
-34.6733630738
 11
15.9049929641
 21
-33.6521398669
  0
LINE
  5
698
100
AcDbEntity
  8
RACCORDO
100
AcDbLine
 62
7
  6
CONTINUOUS
 10
9.0917760826
 20
-30.7856131625
 11
9.1091077924
 21
-32.7687839848
  0
LINE
  5
699
100
AcDbEntity
  8
RACCORDO
100
AcDbLine
 62
7
  6
CONTINUOUS
 10
9.3045121742
 20
-30.9492718073
 11
9.3211077119
 21
-32.8878316354
  0
LINE
  5
69A
100
AcDbEntity
  8
RACCORDO
100
AcDbLine
 62
7
  6
CONTINUOUS
 10
8.5434951247
 20
-45.3109624649
 11
8.5432048057
 21
-45.2754049948
  0
LINE
  5
69B
100
AcDbEntity
  8
RACCORDO
100
AcDbLine
 62
7
  6
CONTINUOUS
 10
9.5719822745
 20
-44.7067279616
 11
9.5723851652
 21
-44.7614524967
  0
LINE
  5
69C
100
AcDbEntity
  8
RACCORDO
100
AcDbLine
 62
7
  6
CONTINUOUS
 10
15.4965276628
 20
-33.6898947172
 11
15.4889588845
 21
-32.6663436418
  0
LINE
  5
69D
100
AcDbEntity
  8
RACCORDO
100
AcDbLine
 62
7
  6
CONTINUOUS
 10
15.9049929641
 20
-33.6521398669
 11
15.8974289962
 21
-32.6292735835
  0
LINE
  5
69E
100
AcDbEntity
  8
RACCORDO
100
AcDbLine
 62
7
  6
CONTINUOUS
 10
15.4889588845
 20
-32.6663436418
 11
15.4835523
 21
-31.6411426109
  0
LINE
  5
69F
100
AcDbEntity
  8
RACCORDO
100
AcDbLine
 62
7
  6
CONTINUOUS
 10
15.8974289962
 20
-32.6292735835
 11
15.8920260825
 21
-31.60476679
  0
LINE
  5
6A0
100
AcDbEntity
  8
RACCORDO
100
AcDbLine
 62
7
  6
CONTINUOUS
 10
9.0814697514
 20
-28.7959015078
 11
9.0917760826
 21
-30.7856131625
  0
LINE
  5
6A1
100
AcDbEntity
  8
RACCORDO
100
AcDbLine
 62
7
  6
CONTINUOUS
 10
9.2946664921
 20
-29.020150402
 11
9.3045121742
 21
-30.9492718073
  0
LINE
  5
6A2
100
AcDbEntity
  8
RACCORDO
100
AcDbLine
 62
7
  6
CONTINUOUS
 10
15.4835523
 20
-31.6411426109
 11
15.4803081719
 21
-30.6143048464
  0
LINE
  5
6A3
100
AcDbEntity
  8
RACCORDO
100
AcDbLine
 62
7
  6
CONTINUOUS
 10
9.078185118
 20
-26.8657440717
 11
9.0814697514
 21
-28.7959015078
  0
LINE
  5
6A4
100
AcDbEntity
  8
RACCORDO
100
AcDbLine
 62
7
  6
CONTINUOUS
 10
9.2913969004
 20
-27.1006652998
 11
9.2946664921
 21
-29.020150402
  0
LINE
  5
6A5
100
AcDbEntity
  8
RACCORDO
100
AcDbLine
 62
7
  6
CONTINUOUS
 10
9.0781851178
 20
19.825922444
 11
9.0781851178
 21
1.9595176917
  0
LINE
  5
6A6
100
AcDbEntity
  8
RACCORDO
100
AcDbLine
 62
7
  6
CONTINUOUS
 10
9.0781851178
 20
-8.9993393284
 11
9.0781851178
 21
-26.8657440805
  0
LINE
  5
6A7
100
AcDbEntity
  8
RACCORDO
100
AcDbLine
 62
7
  6
CONTINUOUS
 10
9.2913968996
 20
19.590997376
 11
9.2913968996
 21
1.7245945367
  0
LINE
  5
6A8
100
AcDbEntity
  8
RACCORDO
100
AcDbLine
 62
7
  6
CONTINUOUS
 10
9.2913968996
 20
-9.2342624836
 11
9.2913968996
 21
-27.1006652995
  0
LINE
  5
6A9
100
AcDbEntity
  8
RACCORDO
100
AcDbLine
 62
7
  6
CONTINUOUS
 10
9.0814884311
 20
21.7676111849
 11
9.078185118
 21
19.8259224371
  0
LINE
  5
6AA
100
AcDbEntity
  8
RACCORDO
100
AcDbLine
 62
7
  6
CONTINUOUS
 10
9.2946548763
 20
21.5125862149
 11
9.2913969004
 21
19.5909973757
  0
LINE
  5
6AB
100
AcDbEntity
  8
RACCORDO
100
AcDbLine
 62
7
  6
CONTINUOUS
 10
9.3044678088
 20
23.4568913368
 11
9.2946548763
 21
21.5125862149
  0
LINE
  5
6AC
100
AcDbEntity
  8
RACCORDO
100
AcDbLine
 62
7
  6
CONTINUOUS
 10
9.0918140236
 20
23.776240196
 11
9.0814884311
 21
21.7676111849
  0
LINE
  5
6AD
100
AcDbEntity
  8
RACCORDO
100
AcDbLine
 62
7
  6
CONTINUOUS
 10
9.5723529625
 20
37.7717852691
 11
9.5719822745
 21
37.7121000448
  0
LINE
  5
6AE
100
AcDbEntity
  8
RACCORDO
100
AcDbLine
 62
7
  6
CONTINUOUS
 10
8.5434951247
 20
39.2346802966
 11
8.5432048059
 21
39.1986471838
  0
LINE
  5
6AF
100
AcDbEntity
  8
RACCORDO
100
AcDbLine
 62
7
  6
CONTINUOUS
 10
9.3210197621
 20
25.4240081034
 11
9.3044678088
 21
23.4568913368
  0
LINE
  5
6B0
100
AcDbEntity
  8
RACCORDO
100
AcDbLine
 62
7
  6
CONTINUOUS
 10
9.1091646277
 20
25.7911813873
 11
9.0918140236
 21
23.776240196
  0
LINE
  5
6B1
100
AcDbEntity
  8
RACCORDO
100
AcDbLine
 62
7
  6
CONTINUOUS
 10
9.3445097626
 20
27.4139852754
 11
9.3210197621
 21
25.4240081034
  0
LINE
  5
6B2
100
AcDbEntity
  8
RACCORDO
100
AcDbLine
 62
7
  6
CONTINUOUS
 10
9.1335396331
 20
27.8123683235
 11
9.1091646277
 21
25.7911813873
  0
LINE
  5
6B3
100
AcDbEntity
  8
RACCORDO
100
AcDbLine
 62
7
  6
CONTINUOUS
 10
9.3589579367
 20
37.9622066825
 11
9.3586669574
 21
37.9422110763
  0
LINE
  5
6B4
100
AcDbEntity
  8
RACCORDO
100
AcDbLine
 62
7
  6
CONTINUOUS
 10
9.3751107195
 20
29.4269594573
 11
9.3445097626
 21
27.4139852754
  0
LINE
  5
6B5
100
AcDbEntity
  8
RACCORDO
100
AcDbLine
 62
7
  6
CONTINUOUS
 10
9.1649381121
 20
29.8397451898
 11
9.1335396331
 21
27.8123683235
  0
LINE
  5
6B6
100
AcDbEntity
  8
RACCORDO
100
AcDbLine
 62
7
  6
CONTINUOUS
 10
9.4129708689
 20
31.4631561711
 11
9.3751107195
 21
29.4269594573
  0
LINE
  5
6B7
100
AcDbEntity
  8
RACCORDO
100
AcDbLine
 62
7
  6
CONTINUOUS
 10
9.2033591286
 20
31.8732600028
 11
9.1649381121
 21
29.8397451898
  0
LINE
  5
6B8
100
AcDbEntity
  8
RACCORDO
100
AcDbLine
 62
7
  6
CONTINUOUS
 10
9.0781826072
 20
1.9593199894
 11
9.077711394
 21
1.9367600391
  0
LINE
  5
6B9
100
AcDbEntity
  8
RACCORDO
100
AcDbLine
 62
7
  6
CONTINUOUS
 10
9.4582678407
 20
33.5227098854
 11
9.4129708689
 21
31.4631561711
  0
LINE
  5
6BA
100
AcDbEntity
  8
RACCORDO
100
AcDbLine
 62
7
  6
CONTINUOUS
 10
9.2488015377
 20
33.9128556907
 11
9.2033591286
 21
31.8732600028
  0
LINE
  5
6BB
100
AcDbEntity
  8
RACCORDO
100
AcDbLine
 62
7
  6
CONTINUOUS
 10
9.3589516442
 20
-44.4821183938
 11
9.358285329
 21
-44.509099566
  0
LINE
  5
6BC
100
AcDbEntity
  8
RACCORDO
100
AcDbLine
 62
7
  6
CONTINUOUS
 10
9.5112071771
 20
35.605662791
 11
9.4582678407
 21
33.5227098854
  0
LINE
  5
6BD
100
AcDbEntity
  8
RACCORDO
100
AcDbLine
 62
7
  6
CONTINUOUS
 10
9.3012634955
 20
35.9584633579
 11
9.2488015377
 21
33.9128556907
  0
LINE
  5
6BE
100
AcDbEntity
  8
RACCORDO
100
AcDbLine
 62
7
  6
CONTINUOUS
 10
9.2913968996
 20
1.7245945367
 11
9.2897453729
 21
1.6645240399
  0
LINE
  5
6BF
100
AcDbEntity
  8
RACCORDO
100
AcDbLine
 62
7
  6
CONTINUOUS
 10
9.5719822745
 20
37.7121000448
 11
9.5112071771
 21
35.605662791
  0
LINE
  5
6C0
100
AcDbEntity
  8
RACCORDO
100
AcDbLine
 62
7
  6
CONTINUOUS
 10
8.2279586472
 20
1.0882570611
 11
8.2289784636
 21
1.1236023242
  0
LINE
  5
6C1
100
AcDbEntity
  8
RACCORDO
100
AcDbLine
 62
7
  6
CONTINUOUS
 10
9.3586666812
 20
37.9421659274
 11
9.3012634955
 21
35.9584633579
  0
LINE
  5
6C2
100
AcDbEntity
  8
0
100
AcDbLine
 62
7
  6
CONTINUOUS
 10
4.3540648794
 20
-46.5923341268
 11
4.3549817741
 21
-46.5636998868
  0
LINE
  5
6C3
100
AcDbEntity
  8
RACCORDO
100
AcDbLine
 62
7
  6
CONTINUOUS
 10
9.2166681464
 20
-44.8827944849
 11
9.2179161484
 21
-44.8459723255
  0
LINE
  5
6C4
100
AcDbEntity
  8
0
100
AcDbLine
 62
7
  6
CONTINUOUS
 10
4.0222249668
 20
-46.2894529145
 11
4.0216243502
 21
-46.3059958925
  0
LINE
  5
6C5
100
AcDbEntity
  8
0
100
AcDbLine
 62
7
  6
CONTINUOUS
 10
3.9068921311
 20
-46.3874024784
 11
3.9060718396
 21
-46.4052334671
  0
LINE
  5
6C6
100
AcDbEntity
  8
RACCORDO
100
AcDbLine
 62
7
  6
CONTINUOUS
 10
-8.7058007194
 20
-38.3098020384
 11
-8.7017262123
 21
-38.2711428141
  0
LINE
  5
6C7
100
AcDbEntity
  8
RACCORDO
100
AcDbLine
 62
7
  6
CONTINUOUS
 10
-9.454059172
 20
-1.3011689103
 11
-9.4494740906
 21
-1.2665477411
  0
LINE
  5
6C8
100
AcDbEntity
  8
RACCORDO
100
AcDbLine
 62
7
  6
CONTINUOUS
 10
-9.0698577654
 20
8.1091962287
 11
-9.0647948078
 21
8.1471191375
  0
LINE
  5
6C9
100
AcDbEntity
  8
RACCORDO
100
AcDbLine
 62
7
  6
CONTINUOUS
 10
-10.1305285494
 20
-1.3127525371
 11
-10.1218040025
 21
-1.2560042153
  0
LINE
  5
6CA
100
AcDbEntity
  8
RACCORDO
100
AcDbLine
 62
7
  6
CONTINUOUS
 10
-9.0647948078
 20
8.1471191375
 11
-9.0577571664
 21
8.1859302139
  0
LINE
  5
6CB
100
AcDbEntity
  8
RACCORDO
100
AcDbLine
 62
7
  6
CONTINUOUS
 10
-9.4494740906
 20
-1.2665477411
 11
-9.4426535374
 21
-1.2329131148
  0
LINE
  5
6CC
100
AcDbEntity
  8
RACCORDO
100
AcDbLine
 62
7
  6
CONTINUOUS
 10
-9.7913288202
 20
45.6669099957
 11
-9.7781437558
 21
45.7214140243
  0
LINE
  5
6CD
100
AcDbEntity
  8
RACCORDO
100
AcDbLine
 62
7
  6
CONTINUOUS
 10
-9.118565379
 20
45.639712338
 11
-9.1103796903
 21
45.6733286323
  0
LINE
  5
6CE
100
AcDbEntity
  8
RACCORDO
100
AcDbLine
 62
7
  6
CONTINUOUS
 10
-9.7781437558
 20
45.7214140243
 11
-9.7617267956
 21
45.7746839126
  0
LINE
  5
6CF
100
AcDbEntity
  8
RACCORDO
100
AcDbLine
 62
7
  6
CONTINUOUS
 10
-14.0661008077
 20
64.550272275
 11
-14.0586082099
 21
64.5745250053
  0
LINE
  5
6D0
100
AcDbEntity
  8
RACCORDO
100
AcDbLine
 62
7
  6
CONTINUOUS
 10
-14.7065356867
 20
64.1939649685
 11
-14.7184533526
 21
64.1586507701
  0
LINE
  5
6D1
100
AcDbEntity
  8
RACCORDO
100
AcDbLine
 62
7
  6
CONTINUOUS
 10
-14.8189019814
 20
64.3835241087
 11
-14.8374071546
 21
64.329196118
  0
LINE
  5
6D2
100
AcDbEntity
  8
RACCORDO
100
AcDbLine
 62
7
  6
CONTINUOUS
 10
-14.0586082099
 20
64.5745250053
 11
-14.0500580723
 21
64.5986623782
  0
LINE
  5
6D3
100
AcDbEntity
  8
RACCORDO
100
AcDbLine
 62
7
  6
CONTINUOUS
 10
-14.0500580723
 20
64.5986623782
 11
-14.0405130598
 21
64.6225074658
  0
LINE
  5
6D4
100
AcDbEntity
  8
RACCORDO
100
AcDbLine
 62
7
  6
CONTINUOUS
 10
-14.6927156296
 20
64.2281092492
 11
-14.7065356867
 21
64.1939649685
  0
LINE
  5
6D5
100
AcDbEntity
  8
RACCORDO
100
AcDbLine
 62
7
  6
CONTINUOUS
 10
-14.7973927951
 20
64.4357928909
 11
-14.8189019814
 21
64.3835241087
  0
LINE
  5
6D6
100
AcDbEntity
  8
RACCORDO
100
AcDbLine
 62
7
  6
CONTINUOUS
 10
17.3581365925
 20
-61.3731906486
 11
17.4037947455
 21
-61.3632138573
  0
LINE
  5
6D7
100
AcDbEntity
  8
RACCORDO
100
AcDbLine
 62
7
  6
CONTINUOUS
 10
17.5173216629
 20
-60.9670558894
 11
17.5470262391
 21
-60.9606900641
  0
LINE
  5
6D8
100
AcDbEntity
  8
0
100
AcDbLine
 62
7
  6
CONTINUOUS
 10
4.2085324608
 20
-46.8231918326
 11
4.2169932103
 21
-46.8222463413
  0
LINE
  5
6D9
100
AcDbEntity
  8
RACCORDO
100
AcDbLine
 62
7
  6
CONTINUOUS
 10
9.0342692635
 20
-45.3913781396
 11
8.9767517274
 21
-45.3955192482
  0
LINE
  5
6DA
100
AcDbEntity
  8
RACCORDO
100
AcDbLine
 62
7
  6
CONTINUOUS
 10
9.1102283697
 20
-44.7134347389
 11
9.0757110014
 21
-44.7151076225
  0
LINE
  5
6DB
100
AcDbEntity
  8
RACCORDO
100
AcDbLine
 62
7
  6
CONTINUOUS
 10
-9.5348955171
 20
-36.9698378513
 11
-9.4927568762
 21
-36.9682647873
  0
LINE
  5
6DC
100
AcDbEntity
  8
RACCORDO
100
AcDbLine
 62
7
  6
CONTINUOUS
 10
-10.0256824676
 20
-1.4649360758
 11
-9.9855986482
 21
-1.4724432676
  0
LINE
  5
6DD
100
AcDbEntity
  8
RACCORDO
100
AcDbLine
 62
7
  6
CONTINUOUS
 10
-9.1163991434
 20
-0.9829842382
 11
-9.0865468837
 21
-0.9886254064
  0
LINE
  5
6DE
100
AcDbEntity
  8
RACCORDO
100
AcDbLine
 62
7
  6
CONTINUOUS
 10
-9.3172991372
 20
-0.7253847403
 11
-9.2566229475
 21
-0.7372956568
  0
LINE
  5
6DF
100
AcDbEntity
  8
RACCORDO
100
AcDbLine
 62
7
  6
CONTINUOUS
 10
-10.0645210019
 20
-1.4555183749
 11
-10.0256824676
 21
-1.4649360758
  0
LINE
  5
6E0
100
AcDbEntity
  8
RACCORDO
100
AcDbLine
 62
7
  6
CONTINUOUS
 10
-9.0865468837
 20
-0.9886254064
 11
-9.0551032962
 21
-0.9963345253
  0
LINE
  5
6E1
100
AcDbEntity
  8
RACCORDO
100
AcDbLine
 62
7
  6
CONTINUOUS
 10
-9.2566229475
 20
-0.7372956568
 11
-9.1959894723
 21
-0.7528106961
  0
LINE
  5
6E2
100
AcDbEntity
  8
RACCORDO
100
AcDbLine
 62
7
  6
CONTINUOUS
 10
8.4106517342
 20
1.0306577501
 11
8.350018259
 21
1.0461727894
  0
LINE
  5
6E3
100
AcDbEntity
  8
RACCORDO
100
AcDbLine
 62
7
  6
CONTINUOUS
 10
8.6100236709
 20
1.6822820512
 11
8.5732055773
 21
1.6925875888
  0
LINE
  5
6E4
100
AcDbEntity
  8
RACCORDO
100
AcDbLine
 62
7
  6
CONTINUOUS
 10
-10.1018384181
 20
9.5146000164
 11
-10.0645217772
 21
9.5033388557
  0
LINE
  5
6E5
100
AcDbEntity
  8
RACCORDO
100
AcDbLine
 62
7
  6
CONTINUOUS
 10
8.350018259
 20
1.0461727894
 11
8.2891205633
 21
1.0653725598
  0
LINE
  5
6E6
100
AcDbEntity
  8
RACCORDO
100
AcDbLine
 62
7
  6
CONTINUOUS
 10
8.5732055773
 20
1.6925875888
 11
8.5364090882
 21
1.7051472718
  0
LINE
  5
6E7
100
AcDbEntity
  8
RACCORDO
100
AcDbLine
 62
7
  6
CONTINUOUS
 10
9.0264199371
 20
3.9899779103
 11
9.0781851178
 21
3.970772892
  0
LINE
  5
6E8
100
AcDbEntity
  8
RACCORDO
100
AcDbLine
 62
7
  6
CONTINUOUS
 10
9.2913968996
 20
19.5909992888
 11
9.2579068376
 21
19.6056946186
  0
LINE
  5
6E9
100
AcDbEntity
  8
RACCORDO
100
AcDbLine
 62
7
  6
CONTINUOUS
 10
-16.3251979309
 20
29.8792012853
 11
-16.3491511812
 21
29.8898968205
  0
LINE
  5
6EA
100
AcDbEntity
  8
RACCORDO
100
AcDbLine
 62
7
  6
CONTINUOUS
 10
9.2579068376
 20
19.6056946186
 11
9.226694589
 21
19.6219562049
  0
LINE
  5
6EB
100
AcDbEntity
  8
RACCORDO
100
AcDbLine
 62
7
  6
CONTINUOUS
 10
-8.6344666898
 20
45.9265346228
 11
-8.6169226478
 21
45.9153383644
  0
LINE
  5
6EC
100
AcDbEntity
  8
RACCORDO
100
AcDbLine
 62
7
  6
CONTINUOUS
 10
-16.0696253733
 20
48.6950322381
 11
-16.0893481188
 21
48.7078901923
  0
LINE
  5
6ED
100
AcDbEntity
  8
RACCORDO
100
AcDbLine
 62
7
  6
CONTINUOUS
 10
8.8038835673
 20
39.0958923227
 11
8.8340815783
 21
39.0751565824
  0
LINE
  5
6EE
100
AcDbEntity
  8
RACCORDO
100
AcDbLine
 62
7
  6
CONTINUOUS
 10
-9.4416296762
 20
45.960334429
 11
-9.407869838
 21
45.9364685634
  0
LINE
  5
6EF
100
AcDbEntity
  8
RACCORDO
100
AcDbLine
 62
7
  6
CONTINUOUS
 10
9.4785449377
 20
37.7598628032
 11
9.4525248133
 21
37.7783204958
  0
LINE
  5
6F0
100
AcDbEntity
  8
RACCORDO
100
AcDbLine
 62
7
  6
CONTINUOUS
 10
8.8340815783
 20
39.0751565824
 11
8.8637962694
 21
39.0537452834
  0
LINE
  5
6F1
100
AcDbEntity
  8
RACCORDO
100
AcDbLine
 62
7
  6
CONTINUOUS
 10
8.8292934244
 20
38.8807677927
 11
8.8705873733
 21
38.8506044847
  0
LINE
  5
6F2
100
AcDbEntity
  8
RACCORDO
100
AcDbLine
 62
7
  6
CONTINUOUS
 10
9.2236245703
 20
38.440557848
 11
9.218575701
 21
38.4442758021
  0
LINE
  5
6F3
100
AcDbEntity
  8
RACCORDO
100
AcDbLine
 62
7
  6
CONTINUOUS
 10
8.8637962694
 20
39.0537452834
 11
8.8930281471
 21
39.0316467467
  0
LINE
  5
6F4
100
AcDbEntity
  8
RACCORDO
100
AcDbLine
 62
7
  6
CONTINUOUS
 10
8.8930281471
 20
39.0316467467
 11
8.9218163545
 21
39.0088761946
  0
LINE
  5
6F5
100
AcDbEntity
  8
RACCORDO
100
AcDbLine
 62
7
  6
CONTINUOUS
 10
8.8705873733
 20
38.8506044847
 11
8.9115382386
 21
38.8177902002
  0
LINE
  5
6F6
100
AcDbEntity
  8
RACCORDO
100
AcDbLine
 62
7
  6
CONTINUOUS
 10
8.9218163545
 20
39.0088761946
 11
8.9501639592
 21
38.9854432344
  0
LINE
  5
6F7
100
AcDbEntity
  8
RACCORDO
100
AcDbLine
 62
7
  6
CONTINUOUS
 10
-14.8261034659
 20
64.090386009
 11
-14.8410118438
 21
64.1027340149
  0
LINE
  5
6F8
100
AcDbEntity
  8
RACCORDO
100
AcDbLine
 62
7
  6
CONTINUOUS
 10
9.4525248133
 20
37.7783204958
 11
9.4293917385
 21
37.79783496
  0
LINE
  5
6F9
100
AcDbEntity
  8
RACCORDO
100
AcDbLine
 62
7
  6
CONTINUOUS
 10
8.9501639592
 20
38.9854432344
 11
8.9780683582
 21
38.961338604
  0
LINE
  5
6FA
100
AcDbEntity
  8
RACCORDO
100
AcDbLine
 62
7
  6
CONTINUOUS
 10
8.9115382386
 20
38.8177902002
 11
8.9518747465
 21
38.7824675218
  0
LINE
  5
6FB
100
AcDbEntity
  8
RACCORDO
100
AcDbLine
 62
7
  6
CONTINUOUS
 10
8.9780683582
 20
38.961338604
 11
9.0055602075
 21
38.936549235
  0
LINE
  5
6FC
100
AcDbEntity
  8
RACCORDO
100
AcDbLine
 62
7
  6
CONTINUOUS
 10
8.6005243953
 20
39.0128041015
 11
8.6164382085
 21
38.9981822942
  0
LINE
  5
6FD
100
AcDbEntity
  8
RACCORDO
100
AcDbLine
 62
7
  6
CONTINUOUS
 10
9.0055602075
 20
38.936549235
 11
9.0326451773
 21
38.9110823152
  0
LINE
  5
6FE
100
AcDbEntity
  8
RACCORDO
100
AcDbLine
 62
7
  6
CONTINUOUS
 10
17.1173988988
 20
51.8563266061
 11
17.0910119763
 21
51.8859261213
  0
LINE
  5
6FF
100
AcDbEntity
  8
RACCORDO
100
AcDbLine
 62
7
  6
CONTINUOUS
 10
17.4312878073
 20
52.0471439344
 11
17.3941940408
 21
52.0906568454
  0
LINE
  5
700
100
AcDbEntity
  8
RACCORDO
100
AcDbLine
 62
7
  6
CONTINUOUS
 10
17.1425478145
 20
51.8251582477
 11
17.1173988988
 21
51.8563266061
  0
LINE
  5
701
100
AcDbEntity
  8
RACCORDO
100
AcDbLine
 62
7
  6
CONTINUOUS
 10
17.4666635282
 20
52.0016985113
 11
17.4312878073
 21
52.0471439344
  0
LINE
  5
702
100
AcDbEntity
  8
RACCORDO
100
AcDbLine
 62
7
  6
CONTINUOUS
 10
19.5340538799
 20
53.7607223595
 11
19.5513534442
 21
53.7383764504
  0
LINE
  5
703
100
AcDbEntity
  8
RACCORDO
100
AcDbLine
 62
7
  6
CONTINUOUS
 10
17.1664710993
 20
51.7924367287
 11
17.1425478145
 21
51.8251582477
  0
LINE
  5
704
100
AcDbEntity
  8
RACCORDO
100
AcDbLine
 62
7
  6
CONTINUOUS
 10
17.5002311252
 20
51.9544679726
 11
17.4666635282
 21
52.0016985113
  0
LINE
  5
705
100
AcDbEntity
  8
RACCORDO
100
AcDbLine
 62
7
  6
CONTINUOUS
 10
19.5513534442
 20
53.7383764504
 11
19.5670946816
 21
53.7154855333
  0
LINE
  5
706
100
AcDbEntity
  8
RACCORDO
100
AcDbLine
 62
7
  6
CONTINUOUS
 10
17.1889224847
 20
51.7584723326
 11
17.1664710993
 21
51.7924367287
  0
LINE
  5
707
100
AcDbEntity
  8
RACCORDO
100
AcDbLine
 62
7
  6
CONTINUOUS
 10
17.5318590919
 20
51.9055911271
 11
17.5002311252
 21
51.9544679726
  0
LINE
  5
708
100
AcDbEntity
  8
RACCORDO
100
AcDbLine
 62
7
  6
CONTINUOUS
 10
19.5670946816
 20
53.7154855333
 11
19.5813975216
 21
53.6921576738
  0
LINE
  5
709
100
AcDbEntity
  8
RACCORDO
100
AcDbLine
 62
7
  6
CONTINUOUS
 10
17.2098903799
 20
51.7232513951
 11
17.1889224847
 21
51.7584723326
  0
LINE
  5
70A
100
AcDbEntity
  8
RACCORDO
100
AcDbLine
 62
7
  6
CONTINUOUS
 10
17.5614245743
 20
51.8552226212
 11
17.5318590919
 21
51.9055911271
  0
LINE
  5
70B
100
AcDbEntity
  8
RACCORDO
100
AcDbLine
 62
7
  6
CONTINUOUS
 10
19.5813975216
 20
53.6921576738
 11
19.5942772842
 21
53.6684980827
  0
LINE
  5
70C
100
AcDbEntity
  8
RACCORDO
100
AcDbLine
 62
7
  6
CONTINUOUS
 10
17.2293881256
 20
51.6867884266
 11
17.2098903799
 21
51.7232513951
  0
LINE
  5
70D
100
AcDbEntity
  8
RACCORDO
100
AcDbLine
 62
7
  6
CONTINUOUS
 10
17.5888546599
 20
51.8035393977
 11
17.5614245743
 21
51.8552226212
  0
LINE
  5
70E
100
AcDbEntity
  8
RACCORDO
100
AcDbLine
 62
7
  6
CONTINUOUS
 10
17.2472067135
 20
51.6494359085
 11
17.2293881256
 21
51.6867884266
  0
LINE
  5
70F
100
AcDbEntity
  8
RACCORDO
100
AcDbLine
 62
7
  6
CONTINUOUS
 10
17.6140310078
 20
51.750695706
 11
17.5888546599
 21
51.8035393977
  0
LINE
  5
710
100
AcDbEntity
  8
RACCORDO
100
AcDbLine
 62
7
  6
CONTINUOUS
 10
19.5942772842
 20
53.6684980827
 11
19.6057186494
 21
53.6444015492
  0
LINE
  5
711
100
AcDbEntity
  8
RACCORDO
100
AcDbLine
 62
7
  6
CONTINUOUS
 10
17.6368463016
 20
51.6968580996
 11
17.6140310078
 21
51.750695706
  0
LINE
  5
712
100
AcDbEntity
  8
RACCORDO
100
AcDbLine
 62
7
  6
CONTINUOUS
 10
17.2633320838
 20
51.6111834772
 11
17.2472067135
 21
51.6494359085
  0
LINE
  5
713
100
AcDbEntity
  8
RACCORDO
100
AcDbLine
 62
7
  6
CONTINUOUS
 10
19.6057186494
 20
53.6444015492
 11
19.6157955866
 21
53.6196605063
  0
LINE
  5
714
100
AcDbEntity
  8
RACCORDO
100
AcDbLine
 62
7
  6
CONTINUOUS
 10
17.6572508757
 20
51.6422272601
 11
17.6368463016
 21
51.6968580996
  0
LINE
  5
715
100
AcDbEntity
  8
RACCORDO
100
AcDbLine
 62
7
  6
CONTINUOUS
 10
17.2777800882
 20
51.5720423675
 11
17.2633320838
 21
51.6111834772
  0
LINE
  5
716
100
AcDbEntity
  8
RACCORDO
100
AcDbLine
 62
7
  6
CONTINUOUS
 10
19.6157955866
 20
53.6196605063
 11
19.6246052718
 21
53.5941657307
  0
LINE
  5
717
100
AcDbEntity
  8
RACCORDO
100
AcDbLine
 62
7
  6
CONTINUOUS
 10
17.6751503656
 20
51.5869456923
 11
17.6572508757
 21
51.6422272601
  0
LINE
  5
718
100
AcDbEntity
  8
RACCORDO
100
AcDbLine
 62
7
  6
CONTINUOUS
 10
17.2903863193
 20
51.53239733
 11
17.2777800882
 21
51.5720423675
  0
LINE
  5
719
100
AcDbEntity
  8
RACCORDO
100
AcDbLine
 62
7
  6
CONTINUOUS
 10
19.6246052718
 20
53.5941657307
 11
19.632050529
 21
53.5680264457
  0
LINE
  5
71A
100
AcDbEntity
  8
RACCORDO
100
AcDbLine
 62
7
  6
CONTINUOUS
 10
17.6904480989
 20
51.5312115833
 11
17.6751503656
 21
51.5869456923
  0
LINE
  5
71B
100
AcDbEntity
  8
RACCORDO
100
AcDbLine
 62
7
  6
CONTINUOUS
 10
17.3011344304
 20
51.4922240061
 11
17.2903863193
 21
51.53239733
  0
LINE
  5
71C
100
AcDbEntity
  8
RACCORDO
100
AcDbLine
 62
7
  6
CONTINUOUS
 10
17.7031088611
 20
51.4753130755
 11
17.6904480989
 21
51.5312115833
  0
LINE
  5
71D
100
AcDbEntity
  8
RACCORDO
100
AcDbLine
 62
7
  6
CONTINUOUS
 10
19.632050529
 20
53.5680264457
 11
19.6379138003
 21
53.5413627542
  0
LINE
  5
71E
100
AcDbEntity
  8
RACCORDO
100
AcDbLine
 62
7
  6
CONTINUOUS
 10
17.3100424014
 20
51.4515475545
 11
17.3011344304
 21
51.4922240061
  0
LINE
  5
71F
100
AcDbEntity
  8
RACCORDO
100
AcDbLine
 62
7
  6
CONTINUOUS
 10
17.713056532
 20
51.4194647477
 11
17.7031088611
 21
51.4753130755
  0
LINE
  5
720
100
AcDbEntity
  8
RACCORDO
100
AcDbLine
 62
7
  6
CONTINUOUS
 10
19.6379138003
 20
53.5413627542
 11
19.6393493024
 21
53.5332329654
  0
LINE
  5
721
100
AcDbEntity
  8
RACCORDO
100
AcDbLine
 62
7
  6
CONTINUOUS
 10
17.3169968826
 20
51.4108267933
 11
17.3100424014
 21
51.4515475545
  0
LINE
  5
722
100
AcDbEntity
  8
RACCORDO
100
AcDbLine
 62
7
  6
CONTINUOUS
 10
19.6422868438
 20
53.514231046
 11
19.6393833028
 21
53.5332254057
  0
LINE
  5
723
100
AcDbEntity
  8
RACCORDO
100
AcDbLine
 62
7
  6
CONTINUOUS
 10
17.7202450084
 20
51.3637999191
 11
17.713056532
 21
51.4194647477
  0
LINE
  5
724
100
AcDbEntity
  8
RACCORDO
100
AcDbLine
 62
7
  6
CONTINUOUS
 10
17.3219731724
 20
51.3700798074
 11
17.3169968826
 21
51.4108267933
  0
LINE
  5
725
100
AcDbEntity
  8
RACCORDO
100
AcDbLine
 62
7
  6
CONTINUOUS
 10
19.6460167955
 20
53.4766867292
 11
19.6422868438
 21
53.514231046
  0
LINE
  5
726
100
AcDbEntity
  8
RACCORDO
100
AcDbLine
 62
7
  6
CONTINUOUS
 10
19.647145228
 20
53.4415316887
 11
19.6460167955
 21
53.4766867292
  0
LINE
  5
727
100
AcDbEntity
  8
RACCORDO
100
AcDbLine
 62
7
  6
CONTINUOUS
 10
17.726384038
 20
51.2536956769
 11
17.7246964888
 21
51.3084860791
  0
LINE
  5
728
100
AcDbEntity
  8
RACCORDO
100
AcDbLine
 62
7
  6
CONTINUOUS
 10
17.3260307967
 20
51.2888598352
 11
17.3249971511
 21
51.3292890961
  0
LINE
  5
729
100
AcDbEntity
  8
RACCORDO
100
AcDbLine
 62
7
  6
CONTINUOUS
 10
19.6471450295
 20
53.4419208306
 11
19.6471426542
 21
53.4426234526
  0
LINE
  5
72A
100
AcDbEntity
  8
RACCORDO
100
AcDbLine
 62
7
  6
CONTINUOUS
 10
15.8920260825
 20
-31.60476679
 11
15.8887840419
 21
-30.5786169199
  0
LINE
  5
72B
100
AcDbEntity
  8
RACCORDO
100
AcDbLine
 62
7
  6
CONTINUOUS
 10
19.6471422704
 20
-57.400258189
 11
19.6471450217
 21
-57.405973301
  0
LINE
  5
72C
100
AcDbEntity
  8
RACCORDO
100
AcDbLine
 62
7
  6
CONTINUOUS
 10
15.4803081719
 20
-30.6143048464
 11
15.4792267176
 21
17.1058263336
  0
LINE
  5
72D
100
AcDbEntity
  8
RACCORDO
100
AcDbLine
 62
7
  6
CONTINUOUS
 10
15.8887840419
 20
-30.5786169199
 11
15.8877028746
 21
17.1408425511
  0
LINE
  5
72E
100
AcDbEntity
  8
RACCORDO
100
AcDbLine
 62
7
  6
CONTINUOUS
 10
19.2685081734
 20
-59.8360292215
 11
19.2685081734
 21
52.3900460849
  0
LINE
  5
72F
100
AcDbEntity
  8
ASSI
100
AcDbLine
 62
7
  6
CONTINUOUS
 10
19.6471450345
 20
53.4401190515
 11
19.6471450345
 21
-57.4036909183
  0
LINE
  5
730
100
AcDbEntity
  8
RACCORDO
100
AcDbLine
 62
7
  6
CONTINUOUS
 10
15.4792267174
 20
17.1058263337
 11
15.4803081719
 21
18.1358809226
  0
LINE
  5
731
100
AcDbEntity
  8
RACCORDO
100
AcDbLine
 62
7
  6
CONTINUOUS
 10
15.8877028746
 20
17.1408425511
 11
15.8887840419
 21
18.1702229636
  0
LINE
  5
732
100
AcDbEntity
  8
RACCORDO
100
AcDbLine
 62
7
  6
CONTINUOUS
 10
15.4803081719
 20
18.1358809226
 11
15.4835523
 21
19.167482358
  0
LINE
  5
733
100
AcDbEntity
  8
RACCORDO
100
AcDbLine
 62
7
  6
CONTINUOUS
 10
15.8887840419
 20
18.1702229636
 11
15.8920260825
 21
19.2011330852
  0
LINE
  5
734
100
AcDbEntity
  8
RACCORDO
100
AcDbLine
 62
7
  6
CONTINUOUS
 10
15.4835523
 20
19.167482358
 11
15.4889588845
 21
20.2006224396
  0
LINE
  5
735
100
AcDbEntity
  8
RACCORDO
100
AcDbLine
 62
7
  6
CONTINUOUS
 10
15.8920260825
 20
19.2011330852
 11
15.8974289962
 21
20.233572916
  0
LINE
  5
736
100
AcDbEntity
  8
RACCORDO
100
AcDbLine
 62
7
  6
CONTINUOUS
 10
15.4889588845
 20
20.2006224396
 11
15.4965276628
 21
21.2352874845
  0
LINE
  5
737
100
AcDbEntity
  8
RACCORDO
100
AcDbLine
 62
7
  6
CONTINUOUS
 10
15.8974289962
 20
20.233572916
 11
15.9049929641
 21
21.2675452881
  0
LINE
  5
738
100
AcDbEntity
  8
RACCORDO
100
AcDbLine
 62
7
  6
CONTINUOUS
 10
15.4965276628
 20
21.2352874845
 11
15.5062583953
 21
22.2714747244
  0
LINE
  5
739
100
AcDbEntity
  8
RACCORDO
100
AcDbLine
 62
7
  6
CONTINUOUS
 10
15.9049929641
 20
21.2675452881
 11
15.9147178052
 21
22.3030473695
  0
LINE
  5
73A
100
AcDbEntity
  8
RACCORDO
100
AcDbLine
 62
7
  6
CONTINUOUS
 10
19.6471450217
 20
-57.405973301
 11
19.6461885823
 21
-57.5043649153
  0
LINE
  5
73B
100
AcDbEntity
  8
RACCORDO
100
AcDbLine
 62
7
  6
CONTINUOUS
 10
15.5062583953
 20
22.2714747244
 11
15.518150971
 21
23.3091923898
  0
LINE
  5
73C
100
AcDbEntity
  8
RACCORDO
100
AcDbLine
 62
7
  6
CONTINUOUS
 10
15.9147178052
 20
22.3030473695
 11
15.9266029764
 21
23.3400706634
  0
LINE
  5
73D
100
AcDbEntity
  8
RACCORDO
100
AcDbLine
 62
7
  6
CONTINUOUS
 10
15.518150971
 20
23.3091923898
 11
15.5322052013
 21
24.3484324008
  0
LINE
  5
73E
100
AcDbEntity
  8
RACCORDO
100
AcDbLine
 62
7
  6
CONTINUOUS
 10
15.9266029764
 20
23.3400706634
 11
15.9406483935
 21
24.3786150799
  0
LINE
  5
73F
100
AcDbEntity
  8
RACCORDO
100
AcDbLine
 62
7
  6
CONTINUOUS
 10
15.5322052013
 20
24.3484324008
 11
15.5484208912
 21
25.3891864884
  0
LINE
  5
740
100
AcDbEntity
  8
RACCORDO
100
AcDbLine
 62
7
  6
CONTINUOUS
 10
15.9406483935
 20
24.3786150799
 11
15.9568541408
 21
25.418680709
  0
LINE
  5
741
100
AcDbEntity
  8
RACCORDO
100
AcDbLine
 62
7
  6
CONTINUOUS
 10
15.5484208912
 20
25.3891864884
 11
15.5667980872
 21
26.4314627332
  0
LINE
  5
742
100
AcDbEntity
  8
RACCORDO
100
AcDbLine
 62
7
  6
CONTINUOUS
 10
15.9568541408
 20
25.418680709
 11
15.9752199278
 21
26.4602593241
  0
LINE
  5
743
100
AcDbEntity
  8
RACCORDO
100
AcDbLine
 62
7
  6
CONTINUOUS
 10
15.5667980872
 20
26.4314627332
 11
15.5873366462
 21
27.4752530075
  0
LINE
  5
744
100
AcDbEntity
  8
RACCORDO
100
AcDbLine
 62
7
  6
CONTINUOUS
 10
15.9752199278
 20
26.4602593241
 11
15.9957456705
 21
27.5033508662
  0
LINE
  5
745
100
AcDbEntity
  8
RACCORDO
100
AcDbLine
 62
7
  6
CONTINUOUS
 10
19.6426823027
 20
-57.6260696144
 11
19.6471450005
 21
-57.4057642726
  0
LINE
  5
746
100
AcDbEntity
  8
RACCORDO
100
AcDbLine
 62
7
  6
CONTINUOUS
 10
17.7252413388
 20
51.1996038251
 11
17.726384038
 21
51.2536956769
  0
LINE
  5
747
100
AcDbEntity
  8
RACCORDO
100
AcDbLine
 62
7
  6
CONTINUOUS
 10
15.5873366462
 20
27.4752530075
 11
15.6100364214
 21
28.5205491665
  0
LINE
  5
748
100
AcDbEntity
  8
RACCORDO
100
AcDbLine
 62
7
  6
CONTINUOUS
 10
15.9957456705
 20
27.5033508662
 11
16.0184314529
 21
28.5479553944
  0
LINE
  5
749
100
AcDbEntity
  8
RACCORDO
100
AcDbLine
 62
7
  6
CONTINUOUS
 10
15.6100364214
 20
28.5205491665
 11
15.6348976177
 21
29.5673593937
  0
LINE
  5
74A
100
AcDbEntity
  8
RACCORDO
100
AcDbLine
 62
7
  6
CONTINUOUS
 10
16.0184314529
 20
28.5479553944
 11
16.043277237
 21
29.5940648592
  0
LINE
  5
74B
100
AcDbEntity
  8
RACCORDO
100
AcDbLine
 62
7
  6
CONTINUOUS
 10
17.3250615299
 20
51.2489271336
 11
17.3260307967
 21
51.2888598352
  0
LINE
  5
74C
100
AcDbEntity
  8
RACCORDO
100
AcDbLine
 62
7
  6
CONTINUOUS
 10
15.6348976177
 20
29.5673593937
 11
15.6619201816
 21
30.6156771551
  0
LINE
  5
74D
100
AcDbEntity
  8
RACCORDO
100
AcDbLine
 62
7
  6
CONTINUOUS
 10
16.043277237
 20
29.5940648592
 11
16.0702829399
 21
30.6416792359
  0
LINE
  5
74E
100
AcDbEntity
  8
RACCORDO
100
AcDbLine
 62
7
  6
CONTINUOUS
 10
15.6619201816
 20
30.6156771551
 11
15.6911039766
 21
31.6654927876
  0
LINE
  5
74F
100
AcDbEntity
  8
RACCORDO
100
AcDbLine
 62
7
  6
CONTINUOUS
 10
16.0702829399
 20
30.6416792359
 11
16.0994486445
 21
31.6907985492
  0
LINE
  5
750
100
AcDbEntity
  8
RACCORDO
100
AcDbLine
 62
7
  6
CONTINUOUS
 10
15.6911039766
 20
31.6654927876
 11
15.7224492207
 21
32.7168098872
  0
LINE
  5
751
100
AcDbEntity
  8
RACCORDO
100
AcDbLine
 62
7
  6
CONTINUOUS
 10
16.0994486445
 20
31.6907985492
 11
16.1307745617
 21
32.741414825
  0
LINE
  5
752
100
AcDbEntity
  8
RACCORDO
100
AcDbLine
 62
7
  6
CONTINUOUS
 10
19.6461885823
 20
-57.5043649153
 11
19.6426308005
 21
-57.61841601
  0
LINE
  5
753
100
AcDbEntity
  8
RACCORDO
100
AcDbLine
 62
7
  6
CONTINUOUS
 10
15.7224492207
 20
32.7168098872
 11
15.7559559645
 21
33.7696242827
  0
LINE
  5
754
100
AcDbEntity
  8
RACCORDO
100
AcDbLine
 62
7
  6
CONTINUOUS
 10
16.1307745617
 20
32.741414825
 11
16.1642607619
 21
33.7935254052
  0
LINE
  5
755
100
AcDbEntity
  8
RACCORDO
100
AcDbLine
 62
7
  6
CONTINUOUS
 10
15.7559559645
 20
33.7696242827
 11
15.7916240165
 21
34.8239239795
  0
LINE
  5
756
100
AcDbEntity
  8
RACCORDO
100
AcDbLine
 62
7
  6
CONTINUOUS
 10
16.1642607619
 20
33.7935254052
 11
16.1999071746
 21
34.8471329479
  0
LINE
  5
757
100
AcDbEntity
  8
RACCORDO
100
AcDbLine
 62
7
  6
CONTINUOUS
 10
15.7916240165
 20
34.8239239795
 11
15.8294532751
 21
35.8797008692
  0
LINE
  5
758
100
AcDbEntity
  8
RACCORDO
100
AcDbLine
 62
7
  6
CONTINUOUS
 10
16.1999071746
 20
34.8471329479
 11
16.2377138
 21
35.902237453
  0
LINE
  5
759
100
AcDbEntity
  8
RACCORDO
100
AcDbLine
 62
7
  6
CONTINUOUS
 10
17.3249860144
 20
-61.0627148876
 11
17.3260310075
 21
-61.0363070613
  0
LINE
  5
75A
100
AcDbEntity
  8
RACCORDO
100
AcDbLine
 62
7
  6
CONTINUOUS
 10
17.7246907568
 20
-60.99236873
 11
17.7263842742
 21
-60.9510935056
  0
LINE
  5
75B
100
AcDbEntity
  8
RACCORDO
100
AcDbLine
 62
7
  6
CONTINUOUS
 10
15.8294532006
 20
35.8797008992
 11
15.9014723053
 21
37.5245755851
  0
LINE
  5
75C
100
AcDbEntity
  8
RACCORDO
100
AcDbLine
 62
7
  6
CONTINUOUS
 10
16.2377138
 20
35.902237453
 11
16.3096016503
 21
37.5431969127
  0
LINE
  5
75D
100
AcDbEntity
  8
RACCORDO
100
AcDbLine
 62
7
  6
CONTINUOUS
 10
8.5432048057
 20
-45.2754049948
 11
8.5451041531
 21
-45.2381543728
  0
LINE
  5
75E
100
AcDbEntity
  8
RACCORDO
100
AcDbLine
 62
7
  6
CONTINUOUS
 10
9.5723851652
 20
-44.7614524967
 11
9.5695723229
 21
-44.8149296643
  0
LINE
  5
75F
100
AcDbEntity
  8
RACCORDO
100
AcDbLine
 62
7
  6
CONTINUOUS
 10
19.6463524301
 20
53.4278158437
 11
19.6471450295
 21
53.4419208306
  0
LINE
  5
760
100
AcDbEntity
  8
RACCORDO
100
AcDbLine
 62
7
  6
CONTINUOUS
 10
15.9014723053
 20
37.5245755851
 11
15.9969242362
 21
39.1844604635
  0
LINE
  5
761
100
AcDbEntity
  8
RACCORDO
100
AcDbLine
 62
7
  6
CONTINUOUS
 10
16.3096016503
 20
37.5431969127
 11
16.4047745835
 21
39.1978547435
  0
LINE
  5
762
100
AcDbEntity
  8
RACCORDO
100
AcDbLine
 62
7
  6
CONTINUOUS
 10
15.9969242362
 20
39.1844604635
 11
16.1157738453
 21
40.8587173572
  0
LINE
  5
763
100
AcDbEntity
  8
RACCORDO
100
AcDbLine
 62
7
  6
CONTINUOUS
 10
16.4047745835
 20
39.1978547435
 11
16.5232325997
 21
40.8662109455
  0
LINE
  5
764
100
AcDbEntity
  8
RACCORDO
100
AcDbLine
 62
7
  6
CONTINUOUS
 10
17.3221025292
 20
51.2093561875
 11
17.3250615299
 21
51.2489271336
  0
LINE
  5
765
100
AcDbEntity
  8
RACCORDO
100
AcDbLine
 62
7
  6
CONTINUOUS
 10
17.7212361871
 20
51.1463820074
 11
17.7252413388
 21
51.1996038251
  0
LINE
  5
766
100
AcDbEntity
  8
RACCORDO
100
AcDbLine
 62
7
  6
CONTINUOUS
 10
9.077711394
 20
1.9367600391
 11
9.0752645657
 21
1.9043875112
  0
LINE
  5
767
100
AcDbEntity
  8
RACCORDO
100
AcDbLine
 62
7
  6
CONTINUOUS
 10
8.2289784636
 20
1.1236023242
 11
8.2320306598
 21
1.1603669817
  0
LINE
  5
768
100
AcDbEntity
  8
RACCORDO
100
AcDbLine
 62
7
  6
CONTINUOUS
 10
16.1157738453
 20
40.8587173572
 11
16.2579805688
 21
42.5466843826
  0
LINE
  5
769
100
AcDbEntity
  8
RACCORDO
100
AcDbLine
 62
7
  6
CONTINUOUS
 10
16.5232325997
 20
40.8662109455
 11
16.6650398193
 21
42.5489185536
  0
LINE
  5
76A
100
AcDbEntity
  8
0
100
AcDbLine
 62
7
  6
CONTINUOUS
 10
4.0216243502
 20
-46.3059958925
 11
4.0201996387
 21
-46.3224487154
  0
LINE
  5
76B
100
AcDbEntity
  8
0
100
AcDbLine
 62
7
  6
CONTINUOUS
 10
4.3517388165
 20
-46.6191512163
 11
4.3540648794
 21
-46.5923341268
  0
LINE
  5
76C
100
AcDbEntity
  8
RACCORDO
100
AcDbLine
 62
7
  6
CONTINUOUS
 10
9.358285329
 20
-44.509099566
 11
9.3561371174
 21
-44.5334579131
  0
LINE
  5
76D
100
AcDbEntity
  8
RACCORDO
100
AcDbLine
 62
7
  6
CONTINUOUS
 10
9.2897453729
 20
1.6645240399
 11
9.2845573361
 21
1.6061146305
  0
LINE
  5
76E
100
AcDbEntity
  8
RACCORDO
100
AcDbLine
 62
7
  6
CONTINUOUS
 10
16.2579805688
 20
42.5466843826
 11
16.4234892411
 21
44.2477299407
  0
LINE
  5
76F
100
AcDbEntity
  8
RACCORDO
100
AcDbLine
 62
7
  6
CONTINUOUS
 10
16.6650398193
 20
42.5489185536
 11
16.830132122
 21
44.2453245329
  0
LINE
  5
770
100
AcDbEntity
  8
0
100
AcDbLine
 62
7
  6
CONTINUOUS
 10
3.9060718396
 20
-46.4052334671
 11
3.9043050135
 21
-46.4225770145
  0
LINE
  5
771
100
AcDbEntity
  8
RACCORDO
100
AcDbLine
 62
7
  6
CONTINUOUS
 10
8.5451041531
 20
-45.2381543728
 11
8.5491786575
 21
-45.1994951591
  0
LINE
  5
772
100
AcDbEntity
  8
RACCORDO
100
AcDbLine
 62
7
  6
CONTINUOUS
 10
16.4234892411
 20
44.2477299407
 11
16.6122321892
 21
45.9612542534
  0
LINE
  5
773
100
AcDbEntity
  8
RACCORDO
100
AcDbLine
 62
7
  6
CONTINUOUS
 10
16.830132122
 20
44.2453245329
 11
17.0183171462
 21
45.9534697784
  0
LINE
  5
774
100
AcDbEntity
  8
RACCORDO
100
AcDbLine
 62
7
  6
CONTINUOUS
 10
16.6122321892
 20
45.9612542534
 11
16.8241405498
 21
47.6866172428
  0
LINE
  5
775
100
AcDbEntity
  8
RACCORDO
100
AcDbLine
 62
7
  6
CONTINUOUS
 10
17.0183171462
 20
45.9534697784
 11
17.2295307716
 21
47.6727012552
  0
LINE
  5
776
100
AcDbEntity
  8
RACCORDO
100
AcDbLine
 62
7
  6
CONTINUOUS
 10
17.3171541315
 20
51.1701471681
 11
17.3221025292
 21
51.2093561875
  0
LINE
  5
777
100
AcDbEntity
  8
RACCORDO
100
AcDbLine
 62
7
  6
CONTINUOUS
 10
8.2320306598
 20
1.1603669817
 11
8.2370935287
 21
1.198289564
  0
LINE
  5
778
100
AcDbEntity
  8
RACCORDO
100
AcDbLine
 62
7
  6
CONTINUOUS
 10
-8.7017262123
 20
-38.2711428141
 11
-8.6955076728
 21
-38.2313703206
  0
LINE
  5
779
100
AcDbEntity
  8
RACCORDO
100
AcDbLine
 62
7
  6
CONTINUOUS
 10
-8.6955076728
 20
-38.2313703206
 11
-8.6871926052
 21
-38.1907883831
  0
LINE
  5
77A
100
AcDbEntity
  8
RACCORDO
100
AcDbLine
 62
7
  6
CONTINUOUS
 10
-10.1218040025
 20
-1.2560042153
 11
-10.1095247957
 21
-1.200657701
  0
LINE
  5
77B
100
AcDbEntity
  8
RACCORDO
100
AcDbLine
 62
7
  6
CONTINUOUS
 10
-9.0577571664
 20
8.1859302139
 11
-9.048794902
 21
8.2253534284
  0
LINE
  5
77C
100
AcDbEntity
  8
RACCORDO
100
AcDbLine
 62
7
  6
CONTINUOUS
 10
-9.048794902
 20
8.2253534284
 11
-9.0379717618
 21
8.265108403
  0
LINE
  5
77D
100
AcDbEntity
  8
RACCORDO
100
AcDbLine
 62
7
  6
CONTINUOUS
 10
-9.4426535374
 20
-1.2329131148
 11
-9.4335869415
 21
-1.2004250867
  0
LINE
  5
77E
100
AcDbEntity
  8
RACCORDO
100
AcDbLine
 62
7
  6
CONTINUOUS
 10
-9.1103796903
 20
45.6733286323
 11
-9.1001167863
 21
45.7060682944
  0
LINE
  5
77F
100
AcDbEntity
  8
RACCORDO
100
AcDbLine
 62
7
  6
CONTINUOUS
 10
-9.7617267956
 20
45.7746839126
 11
-9.7421334626
 21
45.8257936126
  0
LINE
  5
780
100
AcDbEntity
  8
RACCORDO
100
AcDbLine
 62
7
  6
CONTINUOUS
 10
-9.1001167863
 20
45.7060682944
 11
-9.0878241102
 21
45.7376218341
  0
LINE
  5
781
100
AcDbEntity
  8
RACCORDO
100
AcDbLine
 62
7
  6
CONTINUOUS
 10
-14.0405130598
 20
64.6225074658
 11
-14.0300431297
 21
64.6458854826
  0
LINE
  5
782
100
AcDbEntity
  8
RACCORDO
100
AcDbLine
 62
7
  6
CONTINUOUS
 10
-14.6771592359
 20
64.2606966004
 11
-14.6927156296
 21
64.2281092492
  0
LINE
  5
783
100
AcDbEntity
  8
RACCORDO
100
AcDbLine
 62
7
  6
CONTINUOUS
 10
-14.772984398
 20
64.4858604157
 11
-14.7973927951
 21
64.4357928909
  0
LINE
  5
784
100
AcDbEntity
  8
RACCORDO
100
AcDbLine
 62
7
  6
CONTINUOUS
 10
-14.0300431297
 20
64.6458854826
 11
-14.0187250209
 21
64.668625062
  0
LINE
  5
785
100
AcDbEntity
  8
RACCORDO
100
AcDbLine
 62
7
  6
CONTINUOUS
 10
17.1423317329
 20
-61.2708566754
 11
17.1662519111
 21
-61.2651535833
  0
LINE
  5
786
100
AcDbEntity
  8
0
100
AcDbLine
 62
7
  6
CONTINUOUS
 10
4.100079841
 20
-46.9169372213
 11
4.1099144997
 21
-46.9151514988
  0
LINE
  5
787
100
AcDbEntity
  8
RACCORDO
100
AcDbLine
 62
7
  6
CONTINUOUS
 10
9.0895658834
 20
-45.3831594576
 11
9.0342692635
 21
-45.3913781396
  0
LINE
  5
788
100
AcDbEntity
  8
RACCORDO
100
AcDbLine
 62
7
  6
CONTINUOUS
 10
9.143531984
 20
-44.7091915068
 11
9.1102283697
 21
-44.7134347389
  0
LINE
  5
789
100
AcDbEntity
  8
0
100
AcDbLine
 62
7
  6
CONTINUOUS
 10
3.7796028263
 20
-46.5768943051
 11
3.7634450021
 21
-46.5788840385
  0
LINE
  5
78A
100
AcDbEntity
  8
RACCORDO
100
AcDbLine
 62
7
  6
CONTINUOUS
 10
-9.4927568762
 20
-36.9682647873
 11
-9.4508474711
 21
-36.9645519035
  0
LINE
  5
78B
100
AcDbEntity
  8
RACCORDO
100
AcDbLine
 62
7
  6
CONTINUOUS
 10
-9.1444002955
 20
-0.979328572
 11
-9.1163991434
 21
-0.9829842382
  0
LINE
  5
78C
100
AcDbEntity
  8
RACCORDO
100
AcDbLine
 62
7
  6
CONTINUOUS
 10
-9.9855986482
 20
-1.4724432676
 11
-9.9445546264
 21
-1.4779865673
  0
LINE
  5
78D
100
AcDbEntity
  8
RACCORDO
100
AcDbLine
 62
7
  6
CONTINUOUS
 10
-9.3777111065
 20
-0.7171585549
 11
-9.3172991372
 21
-0.7253847403
  0
LINE
  5
78E
100
AcDbEntity
  8
RACCORDO
100
AcDbLine
 62
7
  6
CONTINUOUS
 10
8.6832780474
 20
1.6686701106
 11
8.6467782723
 21
1.6742811294
  0
LINE
  5
78F
100
AcDbEntity
  8
RACCORDO
100
AcDbLine
 62
7
  6
CONTINUOUS
 10
-10.0256835853
 20
9.493921184
 11
-9.9856000591
 21
9.4864139795
  0
LINE
  5
790
100
AcDbEntity
  8
RACCORDO
100
AcDbLine
 62
7
  6
CONTINUOUS
 10
8.4713279239
 20
1.0187468337
 11
8.4106517342
 21
1.0306577501
  0
LINE
  5
791
100
AcDbEntity
  8
RACCORDO
100
AcDbLine
 62
7
  6
CONTINUOUS
 10
8.6467782723
 20
1.6742811294
 11
8.6100236709
 21
1.6822820512
  0
LINE
  5
792
100
AcDbEntity
  8
RACCORDO
100
AcDbLine
 62
7
  6
CONTINUOUS
 10
-10.0645217772
 20
9.5033388557
 11
-10.0256835853
 21
9.493921184
  0
LINE
  5
793
100
AcDbEntity
  8
RACCORDO
100
AcDbLine
 62
7
  6
CONTINUOUS
 10
9.538486839
 20
37.7266344086
 11
9.5072670421
 21
37.7425931637
  0
LINE
  5
794
100
AcDbEntity
  8
RACCORDO
100
AcDbLine
 62
7
  6
CONTINUOUS
 10
-9.3731599856
 20
45.915162502
 11
-9.3377502034
 21
45.8965697547
  0
LINE
  5
795
100
AcDbEntity
  8
RACCORDO
100
AcDbLine
 62
7
  6
CONTINUOUS
 10
8.7061132163
 20
38.9543689844
 11
8.7467457696
 21
38.9327370173
  0
LINE
  5
796
100
AcDbEntity
  8
RACCORDO
100
AcDbLine
 62
7
  6
CONTINUOUS
 10
-16.0476728204
 20
48.6832606422
 11
-16.0696253733
 21
48.6950322381
  0
LINE
  5
797
100
AcDbEntity
  8
RACCORDO
100
AcDbLine
 62
7
  6
CONTINUOUS
 10
8.6780237398
 20
39.1716828944
 11
8.7102725954
 21
39.1538359375
  0
LINE
  5
798
100
AcDbEntity
  8
RACCORDO
100
AcDbLine
 62
7
  6
CONTINUOUS
 10
8.7102725954
 20
39.1538359375
 11
8.7419998068
 21
39.1352505885
  0
LINE
  5
799
100
AcDbEntity
  8
RACCORDO
100
AcDbLine
 62
7
  6
CONTINUOUS
 10
8.7467457696
 20
38.9327370173
 11
8.7879188444
 21
38.9081749231
  0
LINE
  5
79A
100
AcDbEntity
  8
RACCORDO
100
AcDbLine
 62
7
  6
CONTINUOUS
 10
9.5072670421
 20
37.7425931637
 11
9.4785449377
 21
37.7598628032
  0
LINE
  5
79B
100
AcDbEntity
  8
RACCORDO
100
AcDbLine
 62
7
  6
CONTINUOUS
 10
-9.407869838
 20
45.9364685634
 11
-9.3731599856
 21
45.915162502
  0
LINE
  5
79C
100
AcDbEntity
  8
RACCORDO
100
AcDbLine
 62
7
  6
CONTINUOUS
 10
8.7419998068
 20
39.1352505885
 11
8.7732023688
 21
39.1159405477
  0
LINE
  5
79D
100
AcDbEntity
  8
RACCORDO
100
AcDbLine
 62
7
  6
CONTINUOUS
 10
8.6164382085
 20
38.9981822942
 11
8.6339822518
 21
38.9869860413
  0
LINE
  5
79E
100
AcDbEntity
  8
RACCORDO
100
AcDbLine
 62
7
  6
CONTINUOUS
 10
8.7732023688
 20
39.1159405477
 11
8.8038835673
 21
39.0958923227
  0
LINE
  5
79F
100
AcDbEntity
  8
RACCORDO
100
AcDbLine
 62
7
  6
CONTINUOUS
 10
8.7879188444
 20
38.9081749231
 11
8.8292934244
 21
38.8807677927
  0
LINE
  5
7A0
100
AcDbEntity
  8
RACCORDO
100
AcDbLine
 62
7
  6
CONTINUOUS
 10
-14.8086190516
 20
64.0784263629
 11
-14.8261034659
 21
64.090386009
  0
LINE
  5
7A1
100
AcDbEntity
  8
RACCORDO
100
AcDbLine
 62
7
  6
CONTINUOUS
 10
17.2739343986
 20
52.2082823394
 11
17.2313134967
 21
52.2427564296
  0
LINE
  5
7A2
100
AcDbEntity
  8
RACCORDO
100
AcDbLine
 62
7
  6
CONTINUOUS
 10
17.0348378239
 20
51.9401991542
 11
17.0053175605
 21
51.9645917614
  0
LINE
  5
7A3
100
AcDbEntity
  8
RACCORDO
100
AcDbLine
 62
7
  6
CONTINUOUS
 10
17.3153821918
 20
52.1713575518
 11
17.2739343986
 21
52.2082823394
  0
LINE
  5
7A4
100
AcDbEntity
  8
RACCORDO
100
AcDbLine
 62
7
  6
CONTINUOUS
 10
17.0633979139
 20
51.9139717493
 11
17.0348378239
 21
51.9401991542
  0
LINE
  5
7A5
100
AcDbEntity
  8
RACCORDO
100
AcDbLine
 62
7
  6
CONTINUOUS
 10
19.472685296
 20
53.8243819727
 11
19.4945932831
 21
53.8040070169
  0
LINE
  5
7A6
100
AcDbEntity
  8
RACCORDO
100
AcDbLine
 62
7
  6
CONTINUOUS
 10
17.3555097646
 20
52.1321044008
 11
17.3153821918
 21
52.1713575518
  0
LINE
  5
7A7
100
AcDbEntity
  8
RACCORDO
100
AcDbLine
 62
7
  6
CONTINUOUS
 10
17.0910119763
 20
51.8859261213
 11
17.0633979139
 21
51.9139717493
  0
LINE
  5
7A8
100
AcDbEntity
  8
RACCORDO
100
AcDbLine
 62
7
  6
CONTINUOUS
 10
19.4945932831
 20
53.8040070169
 11
19.5151027449
 21
53.7826371922
  0
LINE
  5
7A9
100
AcDbEntity
  8
RACCORDO
100
AcDbLine
 62
7
  6
CONTINUOUS
 10
17.3941940408
 20
52.0906568454
 11
17.3555097646
 21
52.1321044008
  0
LINE
  5
7AA
100
AcDbEntity
  8
RACCORDO
100
AcDbLine
 62
7
  6
CONTINUOUS
 10
19.5151027449
 20
53.7826371922
 11
19.5340538799
 21
53.7607223595
  0
LINE
  5
7AB
100
AcDbEntity
  8
RACCORDO
100
AcDbLine
 62
7
  6
CONTINUOUS
 10
19.6426308005
 20
-57.61841601
 11
19.6360851792
 21
-57.736314877
  0
LINE
  5
7AC
100
AcDbEntity
  8
RACCORDO
100
AcDbLine
 62
7
  6
CONTINUOUS
 10
19.6307203591
 20
-57.8238880568
 11
19.6426823027
 21
-57.6260696144
  0
LINE
  5
7AD
100
AcDbEntity
  8
RACCORDO
100
AcDbLine
 62
7
  6
CONTINUOUS
 10
19.6360851792
 20
-57.736314877
 11
19.6261942592
 21
-57.8574312253
  0
LINE
  5
7AE
100
AcDbEntity
  8
RACCORDO
100
AcDbLine
 62
7
  6
CONTINUOUS
 10
9.5695723229
 20
-44.8149296643
 11
9.5635437652
 21
-44.8671594471
  0
LINE
  5
7AF
100
AcDbEntity
  8
RACCORDO
100
AcDbLine
 62
7
  6
CONTINUOUS
 10
9.2179161484
 20
-44.8459723255
 11
9.2223105009
 21
-44.8102259645
  0
LINE
  5
7B0
100
AcDbEntity
  8
0
100
AcDbLine
 62
7
  6
CONTINUOUS
 10
4.3483574331
 20
-46.6443393044
 11
4.3517388165
 21
-46.6191512163
  0
LINE
  5
7B1
100
AcDbEntity
  8
RACCORDO
100
AcDbLine
 62
7
  6
CONTINUOUS
 10
16.8241405498
 20
47.6866172428
 11
17.0591422196
 21
49.4231374971
  0
LINE
  5
7B2
100
AcDbEntity
  8
RACCORDO
100
AcDbLine
 62
7
  6
CONTINUOUS
 10
17.2295307716
 20
47.6727012552
 11
17.4638371185
 21
49.4036719982
  0
LINE
  5
7B3
100
AcDbEntity
  8
0
100
AcDbLine
 62
7
  6
CONTINUOUS
 10
4.0201996387
 20
-46.3224487154
 11
4.0179463844
 21
-46.3386955628
  0
LINE
  5
7B4
100
AcDbEntity
  8
RACCORDO
100
AcDbLine
 62
7
  6
CONTINUOUS
 10
17.0591422196
 20
49.4231374971
 11
17.3171541315
 21
51.1701471681
  0
LINE
  5
7B5
100
AcDbEntity
  8
RACCORDO
100
AcDbLine
 62
7
  6
CONTINUOUS
 10
17.4638371185
 20
49.4036719982
 11
17.7212361871
 21
51.1463820074
  0
LINE
  5
7B6
100
AcDbEntity
  8
RACCORDO
100
AcDbLine
 62
7
  6
CONTINUOUS
 10
9.0752645657
 20
1.9043875112
 11
9.0709418179
 21
1.8751282064
  0
LINE
  5
7B7
100
AcDbEntity
  8
RACCORDO
100
AcDbLine
 62
7
  6
CONTINUOUS
 10
9.2845573361
 20
1.6061146305
 11
9.2758327892
 21
1.5493663086
  0
LINE
  5
7B8
100
AcDbEntity
  8
RACCORDO
100
AcDbLine
 62
7
  6
CONTINUOUS
 10
8.5491786575
 20
-45.1994951591
 11
8.5553971936
 21
-45.1597226745
  0
LINE
  5
7B9
100
AcDbEntity
  8
RACCORDO
100
AcDbLine
 62
7
  6
CONTINUOUS
 10
9.3561371174
 20
-44.5334579131
 11
9.3527594925
 21
-44.5548742925
  0
LINE
  5
7BA
100
AcDbEntity
  8
0
100
AcDbLine
 62
7
  6
CONTINUOUS
 10
3.9043050135
 20
-46.4225770145
 11
3.9016007317
 21
-46.4393844197
  0
LINE
  5
7BB
100
AcDbEntity
  8
RACCORDO
100
AcDbLine
 62
7
  6
CONTINUOUS
 10
19.6431996264
 20
53.4089887643
 11
19.6463524301
 21
53.4278158437
  0
LINE
  5
7BC
100
AcDbEntity
  8
RACCORDO
100
AcDbLine
 62
7
  6
CONTINUOUS
 10
16.8470484191
 20
52.0569032266
 11
16.8510719863
 21
52.0804389205
  0
LINE
  5
7BD
100
AcDbEntity
  8
RACCORDO
100
AcDbLine
 62
7
  6
CONTINUOUS
 10
8.2370935287
 20
1.198289564
 11
8.2441310632
 21
1.2371003665
  0
LINE
  5
7BE
100
AcDbEntity
  8
0
100
AcDbLine
 62
7
  6
CONTINUOUS
 10
4.3439329114
 20
-46.66789114
 11
4.3483574331
 21
-46.6443393044
  0
LINE
  5
7BF
100
AcDbEntity
  8
RACCORDO
100
AcDbLine
 62
7
  6
CONTINUOUS
 10
16.8510719863
 20
52.0804389205
 11
16.8562930443
 21
52.1043898442
  0
LINE
  5
7C0
100
AcDbEntity
  8
RACCORDO
100
AcDbLine
 62
7
  6
CONTINUOUS
 10
9.2758327892
 20
1.5493663086
 11
9.2635535824
 21
1.4940197944
  0
LINE
  5
7C1
100
AcDbEntity
  8
RACCORDO
100
AcDbLine
 62
7
  6
CONTINUOUS
 10
8.2441310632
 20
1.2371003665
 11
8.2530932125
 21
1.2765233673
  0
LINE
  5
7C2
100
AcDbEntity
  8
RACCORDO
100
AcDbLine
 62
7
  6
CONTINUOUS
 10
9.0709418179
 20
1.8751282064
 11
9.0650728228
 21
1.8493478251
  0
LINE
  5
7C3
100
AcDbEntity
  8
RACCORDO
100
AcDbLine
 62
7
  6
CONTINUOUS
 10
-8.6871926052
 20
-38.1907883831
 11
-8.6768445293
 21
-38.1497070103
  0
LINE
  5
7C4
100
AcDbEntity
  8
RACCORDO
100
AcDbLine
 62
7
  6
CONTINUOUS
 10
16.8562930443
 20
52.1043898442
 11
16.8626733225
 21
52.1285804362
  0
LINE
  5
7C5
100
AcDbEntity
  8
RACCORDO
100
AcDbLine
 62
7
  6
CONTINUOUS
 10
-10.1095247957
 20
-1.200657701
 11
-10.0937090787
 21
-1.1469722742
  0
LINE
  5
7C6
100
AcDbEntity
  8
RACCORDO
100
AcDbLine
 62
7
  6
CONTINUOUS
 10
-9.0379717618
 20
8.265108403
 11
-9.0253647282
 21
8.3049123971
  0
LINE
  5
7C7
100
AcDbEntity
  8
RACCORDO
100
AcDbLine
 62
7
  6
CONTINUOUS
 10
-9.0253647282
 20
8.3049123971
 11
-9.0110634696
 21
8.3444823256
  0
LINE
  5
7C8
100
AcDbEntity
  8
RACCORDO
100
AcDbLine
 62
7
  6
CONTINUOUS
 10
-9.7421334626
 20
45.8257936126
 11
-9.719217951
 21
45.8747125574
  0
LINE
  5
7C9
100
AcDbEntity
  8
RACCORDO
100
AcDbLine
 62
7
  6
CONTINUOUS
 10
-9.0878241102
 20
45.7376218341
 11
-9.0734961394
 21
45.7679087291
  0
LINE
  5
7CA
100
AcDbEntity
  8
RACCORDO
100
AcDbLine
 62
7
  6
CONTINUOUS
 10
-14.0187250209
 20
64.668625062
 11
-14.0066416922
 21
64.6905595128
  0
LINE
  5
7CB
100
AcDbEntity
  8
RACCORDO
100
AcDbLine
 62
7
  6
CONTINUOUS
 10
-14.6598502164
 20
64.2916953503
 11
-14.6771592359
 21
64.2606966004
  0
LINE
  5
7CC
100
AcDbEntity
  8
RACCORDO
100
AcDbLine
 62
7
  6
CONTINUOUS
 10
-14.7457947874
 20
64.5335907127
 11
-14.772984398
 21
64.4858604157
  0
LINE
  5
7CD
100
AcDbEntity
  8
RACCORDO
100
AcDbLine
 62
7
  6
CONTINUOUS
 10
-14.0066416922
 20
64.6905595128
 11
-13.9938817101
 21
64.7115280485
  0
LINE
  5
7CE
100
AcDbEntity
  8
RACCORDO
100
AcDbLine
 62
7
  6
CONTINUOUS
 10
-14.6408061009
 20
64.3211365564
 11
-14.6598502164
 21
64.2916953503
  0
LINE
  5
7CF
100
AcDbEntity
  8
RACCORDO
100
AcDbLine
 62
7
  6
CONTINUOUS
 10
-14.7159259369
 20
64.5788842964
 11
-14.7457947874
 21
64.5335907127
  0
LINE
  5
7D0
100
AcDbEntity
  8
RACCORDO
100
AcDbLine
 62
7
  6
CONTINUOUS
 10
9.1425723849
 20
-45.3707930814
 11
9.0895658834
 21
-45.3831594576
  0
LINE
  5
7D1
100
AcDbEntity
  8
0
100
AcDbLine
 62
7
  6
CONTINUOUS
 10
3.7949134434
 20
-46.5735200349
 11
3.7796028263
 21
-46.5768943051
  0
LINE
  5
7D2
100
AcDbEntity
  8
0
100
AcDbLine
 62
7
  6
CONTINUOUS
 10
4.2169932103
 20
-46.8222463413
 11
4.2253464145
 21
-46.8204177069
  0
LINE
  5
7D3
100
AcDbEntity
  8
RACCORDO
100
AcDbLine
 62
7
  6
CONTINUOUS
 10
9.1754706391
 20
-44.7024161178
 11
9.143531984
 21
-44.7091915068
  0
LINE
  5
7D4
100
AcDbEntity
  8
RACCORDO
100
AcDbLine
 62
7
  6
CONTINUOUS
 10
-9.4508474711
 20
-36.9645519035
 11
-9.4094653849
 21
-36.9587256081
  0
LINE
  5
7D5
100
AcDbEntity
  8
RACCORDO
100
AcDbLine
 62
7
  6
CONTINUOUS
 10
-9.1703528795
 20
-0.9775267781
 11
-9.1444002955
 21
-0.979328572
  0
LINE
  5
7D6
100
AcDbEntity
  8
RACCORDO
100
AcDbLine
 62
7
  6
CONTINUOUS
 10
-9.4369380507
 20
-0.712858925
 11
-9.3777111065
 21
-0.7171585549
  0
LINE
  5
7D7
100
AcDbEntity
  8
RACCORDO
100
AcDbLine
 62
7
  6
CONTINUOUS
 10
8.5909668374
 20
1.0062210184
 11
8.5317398932
 21
1.0105206483
  0
LINE
  5
7D8
100
AcDbEntity
  8
RACCORDO
100
AcDbLine
 62
7
  6
CONTINUOUS
 10
-9.9445546264
 20
-1.4779865673
 11
-9.902842309
 21
-1.4815265598
  0
LINE
  5
7D9
100
AcDbEntity
  8
RACCORDO
100
AcDbLine
 62
7
  6
CONTINUOUS
 10
8.7192363681
 20
1.6655327664
 11
8.6832780474
 21
1.6686701106
  0
LINE
  5
7DA
100
AcDbEntity
  8
RACCORDO
100
AcDbLine
 62
7
  6
CONTINUOUS
 10
-9.9856000591
 20
9.4864139795
 11
-9.9445562719
 21
9.4808706334
  0
LINE
  5
7DB
100
AcDbEntity
  8
RACCORDO
100
AcDbLine
 62
7
  6
CONTINUOUS
 10
8.5317398932
 20
1.0105206483
 11
8.4713279239
 21
1.0187468337
  0
LINE
  5
7DC
100
AcDbEntity
  8
RACCORDO
100
AcDbLine
 62
7
  6
CONTINUOUS
 10
-8.6074040343
 20
45.9109814522
 11
8.64350084
 21
38.9826291422
  0
LINE
  5
7DD
100
AcDbEntity
  8
RACCORDO
100
AcDbLine
 62
7
  6
CONTINUOUS
 10
-8.7074097498
 20
46.1630326068
 11
8.5434951247
 21
39.2346802966
  0
LINE
  5
7DE
100
AcDbEntity
  8
RACCORDO
100
AcDbLine
 62
7
  6
CONTINUOUS
 10
8.6435530671
 20
38.982608107
 11
8.666331438
 21
38.9730429107
  0
LINE
  5
7DF
100
AcDbEntity
  8
RACCORDO
100
AcDbLine
 62
7
  6
CONTINUOUS
 10
8.5434951247
 20
39.2346802966
 11
8.5779554877
 21
39.2201835208
  0
LINE
  5
7E0
100
AcDbEntity
  8
RACCORDO
100
AcDbLine
 62
7
  6
CONTINUOUS
 10
9.5719822755
 20
37.7121000455
 11
9.538486839
 21
37.7266344086
  0
LINE
  5
7E1
100
AcDbEntity
  8
RACCORDO
100
AcDbLine
 62
7
  6
CONTINUOUS
 10
-9.3377502034
 20
45.8965697547
 11
-9.3018956185
 21
45.880824282
  0
LINE
  5
7E2
100
AcDbEntity
  8
RACCORDO
100
AcDbLine
 62
7
  6
CONTINUOUS
 10
-16.0237152426
 20
48.6726959395
 11
-16.0476728204
 21
48.6832606422
  0
LINE
  5
7E3
100
AcDbEntity
  8
RACCORDO
100
AcDbLine
 62
7
  6
CONTINUOUS
 10
8.5779554877
 20
39.2201835208
 11
8.6118652686
 21
39.2048567472
  0
LINE
  5
7E4
100
AcDbEntity
  8
RACCORDO
100
AcDbLine
 62
7
  6
CONTINUOUS
 10
8.6339822518
 20
38.9869860413
 11
8.6435008407
 21
38.9826291419
  0
LINE
  5
7E5
100
AcDbEntity
  8
RACCORDO
100
AcDbLine
 62
7
  6
CONTINUOUS
 10
-8.6169226478
 20
45.9153383644
 11
-8.6075074303
 21
45.911023039
  0
LINE
  5
7E6
100
AcDbEntity
  8
RACCORDO
100
AcDbLine
 62
7
  6
CONTINUOUS
 10
8.666331438
 20
38.9730429107
 11
8.7061132163
 21
38.9543689844
  0
LINE
  5
7E7
100
AcDbEntity
  8
RACCORDO
100
AcDbLine
 62
7
  6
CONTINUOUS
 10
8.6118652686
 20
39.2048567472
 11
8.6452245097
 21
39.1887000069
  0
LINE
  5
7E8
100
AcDbEntity
  8
RACCORDO
100
AcDbLine
 62
7
  6
CONTINUOUS
 10
8.6452245097
 20
39.1887000069
 11
8.6780237398
 21
39.1716828944
  0
LINE
  5
7E9
100
AcDbEntity
  8
RACCORDO
100
AcDbLine
 62
7
  6
CONTINUOUS
 10
-14.7887379319
 20
64.0669777421
 11
-14.8086190516
 21
64.0784263629
  0
LINE
  5
7EA
100
AcDbEntity
  8
RACCORDO
100
AcDbLine
 62
7
  6
CONTINUOUS
 10
17.1876634244
 20
52.274682395
 11
17.1431044645
 21
52.3039712434
  0
LINE
  5
7EB
100
AcDbEntity
  8
RACCORDO
100
AcDbLine
 62
7
  6
CONTINUOUS
 10
19.3987299846
 20
53.8790877662
 11
19.4245173437
 21
53.8621347475
  0
LINE
  5
7EC
100
AcDbEntity
  8
RACCORDO
100
AcDbLine
 62
7
  6
CONTINUOUS
 10
16.9748501665
 20
51.9871656159
 11
16.9437576069
 21
52.0077053458
  0
LINE
  5
7ED
100
AcDbEntity
  8
RACCORDO
100
AcDbLine
 62
7
  6
CONTINUOUS
 10
17.2313134967
 20
52.2427564296
 11
17.1876634244
 21
52.274682395
  0
LINE
  5
7EE
100
AcDbEntity
  8
RACCORDO
100
AcDbLine
 62
7
  6
CONTINUOUS
 10
17.0053175605
 20
51.9645917614
 11
16.9748501665
 21
51.9871656159
  0
LINE
  5
7EF
100
AcDbEntity
  8
RACCORDO
100
AcDbLine
 62
7
  6
CONTINUOUS
 10
19.4245173437
 20
53.8621347475
 11
19.4493005825
 21
53.8437557945
  0
LINE
  5
7F0
100
AcDbEntity
  8
RACCORDO
100
AcDbLine
 62
7
  6
CONTINUOUS
 10
19.4493005825
 20
53.8437557945
 11
19.472685296
 21
53.8243819727
  0
LINE
  5
7F1
100
AcDbEntity
  8
RACCORDO
100
AcDbLine
 62
7
  6
CONTINUOUS
 10
19.6115128249
 20
-58.0143937803
 11
19.6307203591
 21
-57.8238880568
  0
LINE
  5
7F2
100
AcDbEntity
  8
RACCORDO
100
AcDbLine
 62
7
  6
CONTINUOUS
 10
19.6261942592
 20
-57.8574312253
 11
19.6127027573
 21
-57.9799680171
  0
LINE
  5
7F3
100
AcDbEntity
  8
RACCORDO
100
AcDbLine
 62
7
  6
CONTINUOUS
 10
17.7202208535
 20
-61.0319786989
 11
17.7246907568
 21
-60.99236873
  0
LINE
  5
7F4
100
AcDbEntity
  8
RACCORDO
100
AcDbLine
 62
7
  6
CONTINUOUS
 10
17.3219456967
 20
-61.0880289226
 11
17.3249860144
 21
-61.0627148876
  0
LINE
  5
7F5
100
AcDbEntity
  8
RACCORDO
100
AcDbLine
 62
7
  6
CONTINUOUS
 10
19.6127027573
 20
-57.9799680171
 11
19.5952261596
 21
-58.1042707874
  0
LINE
  5
7F6
100
AcDbEntity
  8
RACCORDO
100
AcDbLine
 62
7
  6
CONTINUOUS
 10
19.5853656969
 20
-58.1973840407
 11
19.6115128249
 21
-58.0143937803
  0
LINE
  5
7F7
100
AcDbEntity
  8
RACCORDO
100
AcDbLine
 62
7
  6
CONTINUOUS
 10
9.5635437652
 20
-44.8671594471
 11
9.5543019343
 21
-44.9184333678
  0
LINE
  5
7F8
100
AcDbEntity
  8
0
100
AcDbLine
 62
7
  6
CONTINUOUS
 10
4.0179463844
 20
-46.3386955628
 11
4.0148508686
 21
-46.3543893333
  0
LINE
  5
7F9
100
AcDbEntity
  8
RACCORDO
100
AcDbLine
 62
7
  6
CONTINUOUS
 10
8.5553971936
 20
-45.1597226745
 11
8.5637122574
 21
-45.1191407441
  0
LINE
  5
7FA
100
AcDbEntity
  8
RACCORDO
100
AcDbLine
 62
7
  6
CONTINUOUS
 10
9.2223105009
 20
-44.8102259645
 11
9.2298195426
 21
-44.7758129541
  0
LINE
  5
7FB
100
AcDbEntity
  8
0
100
AcDbLine
 62
7
  6
CONTINUOUS
 10
3.9016007317
 20
-46.4393844197
 11
3.8979862882
 21
-46.4555095277
  0
LINE
  5
7FC
100
AcDbEntity
  8
0
100
AcDbLine
 62
7
  6
CONTINUOUS
 10
4.3384511589
 20
-46.689815792
 11
4.3439329114
 21
-46.66789114
  0
LINE
  5
7FD
100
AcDbEntity
  8
RACCORDO
100
AcDbLine
 62
7
  6
CONTINUOUS
 10
8.2530932125
 20
1.2765233673
 11
8.263916238
 21
1.3162781909
  0
LINE
  5
7FE
100
AcDbEntity
  8
RACCORDO
100
AcDbLine
 62
7
  6
CONTINUOUS
 10
19.6373881401
 20
53.3882049957
 11
19.6431996264
 21
53.4089887643
  0
LINE
  5
7FF
100
AcDbEntity
  8
RACCORDO
100
AcDbLine
 62
7
  6
CONTINUOUS
 10
9.2635535824
 20
1.4940197944
 11
9.2477378654
 21
1.4403343676
  0
LINE
  5
800
100
AcDbEntity
  8
RACCORDO
100
AcDbLine
 62
7
  6
CONTINUOUS
 10
-8.6768445293
 20
-38.1497070103
 11
-8.664542495
 21
-38.108440026
  0
LINE
  5
801
100
AcDbEntity
  8
RACCORDO
100
AcDbLine
 62
7
  6
CONTINUOUS
 10
16.8626733225
 20
52.1285804362
 11
16.8701660532
 21
52.1528333783
  0
LINE
  5
802
100
AcDbEntity
  8
RACCORDO
100
AcDbLine
 62
7
  6
CONTINUOUS
 10
8.263916238
 20
1.3162781909
 11
8.2765231665
 21
1.3560821015
  0
LINE
  5
803
100
AcDbEntity
  8
RACCORDO
100
AcDbLine
 62
7
  6
CONTINUOUS
 10
16.8701660532
 20
52.1528333783
 11
16.8787163143
 21
52.1769708954
  0
LINE
  5
804
100
AcDbEntity
  8
RACCORDO
100
AcDbLine
 62
7
  6
CONTINUOUS
 10
-9.4335869415
 20
-1.2004250867
 11
-9.4222786995
 21
-1.1692714037
  0
LINE
  5
805
100
AcDbEntity
  8
RACCORDO
100
AcDbLine
 62
7
  6
CONTINUOUS
 10
-10.0937090787
 20
-1.1469722742
 11
-10.0744113008
 21
-1.0957257744
  0
LINE
  5
806
100
AcDbEntity
  8
RACCORDO
100
AcDbLine
 62
7
  6
CONTINUOUS
 10
19.3127017806
 20
53.9130048602
 11
19.3157375983
 21
53.9209601484
  0
LINE
  5
807
100
AcDbEntity
  8
RACCORDO
100
AcDbLine
 62
7
  6
CONTINUOUS
 10
16.8787163143
 20
52.1769708954
 11
16.8882614321
 21
52.2008160584
  0
LINE
  5
808
100
AcDbEntity
  8
RACCORDO
100
AcDbLine
 62
7
  6
CONTINUOUS
 10
-9.0110634696
 20
8.3444823256
 11
-8.9951697
 21
8.3835367762
  0
LINE
  5
809
100
AcDbEntity
  8
RACCORDO
100
AcDbLine
 62
7
  6
CONTINUOUS
 10
-8.9951697
 20
8.3835367762
 11
-8.9777964614
 21
8.421797996
  0
LINE
  5
80A
100
AcDbEntity
  8
RACCORDO
100
AcDbLine
 62
7
  6
CONTINUOUS
 10
-9.719217951
 20
45.8747125574
 11
-9.6931266093
 21
45.9214709051
  0
LINE
  5
80B
100
AcDbEntity
  8
RACCORDO
100
AcDbLine
 62
7
  6
CONTINUOUS
 10
-9.0734961394
 20
45.7679087291
 11
-9.0571710978
 21
45.7967813443
  0
LINE
  5
80C
100
AcDbEntity
  8
RACCORDO
100
AcDbLine
 62
7
  6
CONTINUOUS
 10
-13.9938817101
 20
64.7115280485
 11
-13.9805386031
 21
64.7313769593
  0
LINE
  5
80D
100
AcDbEntity
  8
RACCORDO
100
AcDbLine
 62
7
  6
CONTINUOUS
 10
-13.9805386031
 20
64.7313769593
 11
-13.9667101793
 21
64.7499607361
  0
LINE
  5
80E
100
AcDbEntity
  8
RACCORDO
100
AcDbLine
 62
7
  6
CONTINUOUS
 10
-14.6202442418
 20
64.3487270256
 11
-14.6408061009
 21
64.3211365564
  0
LINE
  5
80F
100
AcDbEntity
  8
RACCORDO
100
AcDbLine
 62
7
  6
CONTINUOUS
 10
-14.6835067965
 20
64.6215943519
 11
-14.7159259369
 21
64.5788842964
  0
LINE
  5
810
100
AcDbEntity
  8
0
100
AcDbLine
 62
7
  6
CONTINUOUS
 10
4.2253464145
 20
-46.8204177069
 11
4.2336295844
 21
-46.8181191879
  0
LINE
  5
811
100
AcDbEntity
  8
RACCORDO
100
AcDbLine
 62
7
  6
CONTINUOUS
 10
-9.4094653849
 20
-36.9587256081
 11
-9.3689049502
 21
-36.9508273408
  0
LINE
  5
812
100
AcDbEntity
  8
RACCORDO
100
AcDbLine
 62
7
  6
CONTINUOUS
 10
-9.8607583587
 20
-1.4830380768
 11
-9.8186020768
 21
-1.4825103768
  0
LINE
  5
813
100
AcDbEntity
  8
RACCORDO
100
AcDbLine
 62
7
  6
CONTINUOUS
 10
-9.4949338183
 20
-0.7125925665
 11
-9.4369380507
 21
-0.712858925
  0
LINE
  5
814
100
AcDbEntity
  8
RACCORDO
100
AcDbLine
 62
7
  6
CONTINUOUS
 10
8.648962605
 20
1.0059546599
 11
8.5909668374
 21
1.0062210184
  0
LINE
  5
815
100
AcDbEntity
  8
RACCORDO
100
AcDbLine
 62
7
  6
CONTINUOUS
 10
-9.1938359954
 20
-0.9774109261
 11
-9.1703528795
 21
-0.9775267781
  0
LINE
  5
816
100
AcDbEntity
  8
RACCORDO
100
AcDbLine
 62
7
  6
CONTINUOUS
 10
8.7545179127
 20
1.6648873548
 11
8.7192363681
 21
1.6655327664
  0
LINE
  5
817
100
AcDbEntity
  8
RACCORDO
100
AcDbLine
 62
7
  6
CONTINUOUS
 10
-9.902842309
 20
-1.4815265598
 11
-9.8607583587
 21
-1.4830380768
  0
LINE
  5
818
100
AcDbEntity
  8
RACCORDO
100
AcDbLine
 62
7
  6
CONTINUOUS
 10
-9.9445562719
 20
9.4808706334
 11
-9.9028441263
 21
9.4773305698
  0
LINE
  5
819
100
AcDbEntity
  8
RACCORDO
100
AcDbLine
 62
7
  6
CONTINUOUS
 10
-8.8348994045
 20
46.2063090039
 11
-8.7712731127
 21
46.186738327
  0
LINE
  5
81A
100
AcDbEntity
  8
RACCORDO
100
AcDbLine
 62
7
  6
CONTINUOUS
 10
-9.7759090945
 20
45.4837333032
 11
-9.7385975974
 21
45.472168078
  0
LINE
  5
81B
100
AcDbEntity
  8
RACCORDO
100
AcDbLine
 62
7
  6
CONTINUOUS
 10
-8.6669981657
 20
45.9320039664
 11
-8.6306766194
 21
45.9198894409
  0
LINE
  5
81C
100
AcDbEntity
  8
RACCORDO
100
AcDbLine
 62
7
  6
CONTINUOUS
 10
-9.3018956185
 20
45.880824282
 11
-9.2658545628
 21
45.8680395299
  0
LINE
  5
81D
100
AcDbEntity
  8
RACCORDO
100
AcDbLine
 62
7
  6
CONTINUOUS
 10
-9.8114358384
 20
45.4969200866
 11
-9.7759090945
 21
45.4837333032
  0
LINE
  5
81E
100
AcDbEntity
  8
RACCORDO
100
AcDbLine
 62
7
  6
CONTINUOUS
 10
-8.7712731127
 20
46.186738327
 11
-8.7074097498
 21
46.1630326068
  0
LINE
  5
81F
100
AcDbEntity
  8
RACCORDO
100
AcDbLine
 62
7
  6
CONTINUOUS
 10
-8.6306766194
 20
45.9198894409
 11
-8.6075080726
 21
45.9110214386
  0
LINE
  5
820
100
AcDbEntity
  8
RACCORDO
100
AcDbLine
 62
7
  6
CONTINUOUS
 10
-14.7666640198
 20
64.0561575707
 11
-14.7887379319
 21
64.0669777421
  0
LINE
  5
821
100
AcDbEntity
  8
RACCORDO
100
AcDbLine
 62
7
  6
CONTINUOUS
 10
19.3444058425
 20
53.9084286243
 11
19.3720699737
 21
53.8944711624
  0
LINE
  5
822
100
AcDbEntity
  8
RACCORDO
100
AcDbLine
 62
7
  6
CONTINUOUS
 10
16.9121470041
 20
52.0261390649
 11
16.8799106563
 21
52.0425383815
  0
LINE
  5
823
100
AcDbEntity
  8
RACCORDO
100
AcDbLine
 62
7
  6
CONTINUOUS
 10
17.0977757306
 20
52.3305315051
 11
17.0518356182
 21
52.3542732323
  0
LINE
  5
824
100
AcDbEntity
  8
RACCORDO
100
AcDbLine
 62
7
  6
CONTINUOUS
 10
19.3720699737
 20
53.8944711624
 11
19.3987299846
 21
53.8790877662
  0
LINE
  5
825
100
AcDbEntity
  8
RACCORDO
100
AcDbLine
 62
7
  6
CONTINUOUS
 10
16.9437576069
 20
52.0077053458
 11
16.9121470041
 21
52.0261390649
  0
LINE
  5
826
100
AcDbEntity
  8
RACCORDO
100
AcDbLine
 62
7
  6
CONTINUOUS
 10
17.1431044645
 20
52.3039712434
 11
17.0977757306
 21
52.3305315051
  0
LINE
  5
827
100
AcDbEntity
  8
RACCORDO
100
AcDbLine
 62
7
  6
CONTINUOUS
 10
19.5952261596
 20
-58.1042707874
 11
19.5735019926
 21
-58.22984717
  0
LINE
  5
828
100
AcDbEntity
  8
RACCORDO
100
AcDbLine
 62
7
  6
CONTINUOUS
 10
19.5526026018
 20
-58.3727218811
 11
19.5853656969
 21
-58.1973840407
  0
LINE
  5
829
100
AcDbEntity
  8
RACCORDO
100
AcDbLine
 62
7
  6
CONTINUOUS
 10
17.7129978375
 20
-61.0697874225
 11
17.7202208535
 21
-61.0319786989
  0
LINE
  5
82A
100
AcDbEntity
  8
RACCORDO
100
AcDbLine
 62
7
  6
CONTINUOUS
 10
19.5735019926
 20
-58.22984717
 11
19.5477458469
 21
-58.353651496
  0
LINE
  5
82B
100
AcDbEntity
  8
RACCORDO
100
AcDbLine
 62
7
  6
CONTINUOUS
 10
17.3169520771
 20
-61.1119637559
 11
17.3219456967
 21
-61.0880289226
  0
LINE
  5
82C
100
AcDbEntity
  8
RACCORDO
100
AcDbLine
 62
7
  6
CONTINUOUS
 10
9.3527594925
 20
-44.5548742925
 11
9.3485348112
 21
-44.5728864063
  0
LINE
  5
82D
100
AcDbEntity
  8
RACCORDO
100
AcDbLine
 62
7
  6
CONTINUOUS
 10
9.5543019343
 20
-44.9184333678
 11
9.5418444895
 21
-44.968459811
  0
LINE
  5
82E
100
AcDbEntity
  8
RACCORDO
100
AcDbLine
 62
7
  6
CONTINUOUS
 10
8.5637122574
 20
-45.1191407441
 11
8.5740603296
 21
-45.0780593763
  0
LINE
  5
82F
100
AcDbEntity
  8
0
100
AcDbLine
 62
7
  6
CONTINUOUS
 10
4.0148508686
 20
-46.3543893333
 11
4.0108808662
 21
-46.3695241312
  0
LINE
  5
830
100
AcDbEntity
  8
0
100
AcDbLine
 62
7
  6
CONTINUOUS
 10
3.8979862882
 20
-46.4555095277
 11
3.8934843103
 21
-46.4709581988
  0
LINE
  5
831
100
AcDbEntity
  8
0
100
AcDbLine
 62
7
  6
CONTINUOUS
 10
4.3322267773
 20
-46.7103257306
 11
4.3384511589
 21
-46.689815792
  0
LINE
  5
832
100
AcDbEntity
  8
RACCORDO
100
AcDbLine
 62
7
  6
CONTINUOUS
 10
9.0650728228
 20
1.8493478251
 11
9.0581333418
 21
1.8274909291
  0
LINE
  5
833
100
AcDbEntity
  8
RACCORDO
100
AcDbLine
 62
7
  6
CONTINUOUS
 10
-8.664542495
 20
-38.108440026
 11
-8.6503804788
 21
-38.067302672
  0
LINE
  5
834
100
AcDbEntity
  8
RACCORDO
100
AcDbLine
 62
7
  6
CONTINUOUS
 10
8.2765231665
 20
1.3560821015
 11
8.2908243377
 21
1.3956520145
  0
LINE
  5
835
100
AcDbEntity
  8
RACCORDO
100
AcDbLine
 62
7
  6
CONTINUOUS
 10
9.2477378654
 20
1.4403343676
 11
9.2284400875
 21
1.3890878678
  0
LINE
  5
836
100
AcDbEntity
  8
RACCORDO
100
AcDbLine
 62
7
  6
CONTINUOUS
 10
19.6285945639
 20
53.3651320214
 11
19.6373881401
 21
53.3882049957
  0
LINE
  5
837
100
AcDbEntity
  8
RACCORDO
100
AcDbLine
 62
7
  6
CONTINUOUS
 10
-8.6503804788
 20
-38.067302672
 11
-8.6344666655
 21
-38.0266091994
  0
LINE
  5
838
100
AcDbEntity
  8
RACCORDO
100
AcDbLine
 62
7
  6
CONTINUOUS
 10
16.8882614321
 20
52.2008160584
 11
16.8987314404
 21
52.2241940812
  0
LINE
  5
839
100
AcDbEntity
  8
RACCORDO
100
AcDbLine
 62
7
  6
CONTINUOUS
 10
-9.4222786995
 20
-1.1692714037
 11
-9.4087315225
 21
-1.1395430386
  0
LINE
  5
83A
100
AcDbEntity
  8
RACCORDO
100
AcDbLine
 62
7
  6
CONTINUOUS
 10
19.6163267165
 20
53.3387015631
 11
19.6285945639
 21
53.3651320214
  0
LINE
  5
83B
100
AcDbEntity
  8
RACCORDO
100
AcDbLine
 62
7
  6
CONTINUOUS
 10
-10.0744113008
 20
-1.0957257744
 11
-10.0515200194
 21
-1.0469322054
  0
LINE
  5
83C
100
AcDbEntity
  8
RACCORDO
100
AcDbLine
 62
7
  6
CONTINUOUS
 10
16.8987314404
 20
52.2241940812
 11
16.9100495934
 21
52.2469336017
  0
LINE
  5
83D
100
AcDbEntity
  8
RACCORDO
100
AcDbLine
 62
7
  6
CONTINUOUS
 10
-8.9777964614
 20
8.421797996
 11
-8.9590673163
 21
8.458993877
  0
LINE
  5
83E
100
AcDbEntity
  8
RACCORDO
100
AcDbLine
 62
7
  6
CONTINUOUS
 10
-9.6931266093
 20
45.9214709051
 11
-9.6643537927
 21
45.9652332454
  0
LINE
  5
83F
100
AcDbEntity
  8
RACCORDO
100
AcDbLine
 62
7
  6
CONTINUOUS
 10
-9.0571710978
 20
45.7967813443
 11
-9.0390495159
 21
45.8238988551
  0
LINE
  5
840
100
AcDbEntity
  8
RACCORDO
100
AcDbLine
 62
7
  6
CONTINUOUS
 10
-13.9667101793
 20
64.7499607361
 11
-13.9524978027
 21
64.7671431471
  0
LINE
  5
841
100
AcDbEntity
  8
RACCORDO
100
AcDbLine
 62
7
  6
CONTINUOUS
 10
-14.5981510438
 20
64.374442888
 11
-14.6202442418
 21
64.3487270256
  0
LINE
  5
842
100
AcDbEntity
  8
RACCORDO
100
AcDbLine
 62
7
  6
CONTINUOUS
 10
-14.6486775618
 20
64.661587949
 11
-14.6835067965
 21
64.6215943519
  0
LINE
  5
843
100
AcDbEntity
  8
RACCORDO
100
AcDbLine
 62
7
  6
CONTINUOUS
 10
-13.9524978027
 20
64.7671431471
 11
-13.9380056494
 21
64.7827982355
  0
LINE
  5
844
100
AcDbEntity
  8
RACCORDO
100
AcDbLine
 62
7
  6
CONTINUOUS
 10
-9.3689049502
 20
-36.9508273408
 11
-9.3294546554
 21
-36.9409132786
  0
LINE
  5
845
100
AcDbEntity
  8
RACCORDO
100
AcDbLine
 62
7
  6
CONTINUOUS
 10
-9.5517445607
 20
-0.7162527636
 11
-9.4949338183
 21
-0.7125925665
  0
LINE
  5
846
100
AcDbEntity
  8
RACCORDO
100
AcDbLine
 62
7
  6
CONTINUOUS
 10
8.7057733474
 20
1.009614857
 11
8.648962605
 21
1.0059546599
  0
LINE
  5
847
100
AcDbEntity
  8
RACCORDO
100
AcDbLine
 62
7
  6
CONTINUOUS
 10
-9.2146246527
 20
-0.9787300801
 11
-9.1938359954
 21
-0.9774109261
  0
LINE
  5
848
100
AcDbEntity
  8
RACCORDO
100
AcDbLine
 62
7
  6
CONTINUOUS
 10
-9.8186020768
 20
-1.4825103768
 11
-9.7766732704
 21
-1.4799472206
  0
LINE
  5
849
100
AcDbEntity
  8
RACCORDO
100
AcDbLine
 62
7
  6
CONTINUOUS
 10
8.7889991304
 20
1.6667348861
 11
8.7545179127
 21
1.6648873548
  0
LINE
  5
84A
100
AcDbEntity
  8
RACCORDO
100
AcDbLine
 62
7
  6
CONTINUOUS
 10
-9.8607602785
 20
9.4758189657
 11
-9.8186040279
 21
9.4763465715
  0
LINE
  5
84B
100
AcDbEntity
  8
RACCORDO
100
AcDbLine
 62
7
  6
CONTINUOUS
 10
-9.9028441263
 20
9.4773305698
 11
-9.8607602785
 21
9.4758189657
  0
LINE
  5
84C
100
AcDbEntity
  8
RACCORDO
100
AcDbLine
 62
7
  6
CONTINUOUS
 10
9.2317786572
 20
38.4386283734
 11
9.2236245703
 21
38.440557848
  0
LINE
  5
84D
100
AcDbEntity
  8
RACCORDO
100
AcDbLine
 62
7
  6
CONTINUOUS
 10
-8.8982880561
 20
46.2217450588
 11
-8.8348994045
 21
46.2063090039
  0
LINE
  5
84E
100
AcDbEntity
  8
RACCORDO
100
AcDbLine
 62
7
  6
CONTINUOUS
 10
-9.7385975974
 20
45.472168078
 11
-9.6997667308
 21
45.4623066705
  0
LINE
  5
84F
100
AcDbEntity
  8
RACCORDO
100
AcDbLine
 62
7
  6
CONTINUOUS
 10
-9.2658545628
 20
45.8680395299
 11
-9.2298867118
 21
45.8583076122
  0
LINE
  5
850
100
AcDbEntity
  8
RACCORDO
100
AcDbLine
 62
7
  6
CONTINUOUS
 10
-8.7023974724
 20
45.9416197817
 11
-8.6669981657
 21
45.9320039664
  0
LINE
  5
851
100
AcDbEntity
  8
RACCORDO
100
AcDbLine
 62
7
  6
CONTINUOUS
 10
17.3428222533
 20
51.1602642154
 11
17.3699467848
 21
51.1513254191
  0
LINE
  5
852
100
AcDbEntity
  8
RACCORDO
100
AcDbLine
 62
7
  6
CONTINUOUS
 10
-13.9233399484
 20
64.7968112366
 11
-13.9710682675
 21
64.8137686113
  0
LINE
  5
853
100
AcDbEntity
  8
RACCORDO
100
AcDbLine
 62
7
  6
CONTINUOUS
 10
-14.0817253557
 20
64.4785960474
 11
-14.1149461502
 21
64.4907580846
  0
LINE
  5
854
100
AcDbEntity
  8
RACCORDO
100
AcDbLine
 62
7
  6
CONTINUOUS
 10
17.3171541912
 20
51.1701471974
 11
17.3428222533
 21
51.1602642154
  0
LINE
  5
855
100
AcDbEntity
  8
RACCORDO
100
AcDbLine
 62
7
  6
CONTINUOUS
 10
16.8470484191
 20
52.0569032266
 11
-14.0817253557
 21
64.4785960474
  0
LINE
  5
856
100
AcDbEntity
  8
RACCORDO
100
AcDbLine
 62
7
  6
CONTINUOUS
 10
17.0054338265
 20
52.3751184157
 11
-13.9233399484
 21
64.7968112366
  0
LINE
  5
857
100
AcDbEntity
  8
RACCORDO
100
AcDbLine
 62
7
  6
CONTINUOUS
 10
-12.6795441733
 20
66.0391335842
 11
18.4504787485
 21
53.5366145688
  0
LINE
  5
858
100
AcDbEntity
  8
RACCORDO
100
AcDbLine
 62
7
  6
CONTINUOUS
 10
-10.3327748519
 20
65.828471171
 11
19.3157375911
 21
53.9209601521
  0
LINE
  5
859
100
AcDbEntity
  8
RACCORDO
100
AcDbLine
 62
7
  6
CONTINUOUS
 10
-14.7426237188
 20
64.046076827
 11
-14.7666640198
 21
64.0561575707
  0
LINE
  5
85A
100
AcDbEntity
  8
RACCORDO
100
AcDbLine
 62
7
  6
CONTINUOUS
 10
16.8799106563
 20
52.0425383815
 11
16.8470484191
 21
52.0569032266
  0
LINE
  5
85B
100
AcDbEntity
  8
RACCORDO
100
AcDbLine
 62
7
  6
CONTINUOUS
 10
19.3157375911
 20
53.9209601521
 11
19.3444058425
 21
53.9084286243
  0
LINE
  5
85C
100
AcDbEntity
  8
RACCORDO
100
AcDbLine
 62
7
  6
CONTINUOUS
 10
17.0518356182
 20
52.3542732323
 11
17.0054338265
 21
52.3751184157
  0
LINE
  5
85D
100
AcDbEntity
  8
RACCORDO
100
AcDbLine
 62
7
  6
CONTINUOUS
 10
19.5135866655
 20
-58.5402650468
 11
19.5526026018
 21
-58.3727218811
  0
LINE
  5
85E
100
AcDbEntity
  8
RACCORDO
100
AcDbLine
 62
7
  6
CONTINUOUS
 10
19.5477458469
 20
-58.353651496
 11
19.518064435
 21
-58.474628863
  0
LINE
  5
85F
100
AcDbEntity
  8
RACCORDO
100
AcDbLine
 62
7
  6
CONTINUOUS
 10
8.5740603296
 20
-45.0780593763
 11
8.5863623604
 21
-45.0367923949
  0
LINE
  5
860
100
AcDbEntity
  8
RACCORDO
100
AcDbLine
 62
7
  6
CONTINUOUS
 10
9.3485348112
 20
-44.5728864063
 11
9.3439331719
 21
-44.587291782
  0
LINE
  5
861
100
AcDbEntity
  8
RACCORDO
100
AcDbLine
 62
7
  6
CONTINUOUS
 10
9.2298195426
 20
-44.7758129541
 11
9.240389171
 21
-44.7429812396
  0
LINE
  5
862
100
AcDbEntity
  8
RACCORDO
100
AcDbLine
 62
7
  6
CONTINUOUS
 10
9.5418444895
 20
-44.968459811
 11
9.5261639762
 21
-45.0163643167
  0
LINE
  5
863
100
AcDbEntity
  8
0
100
AcDbLine
 62
7
  6
CONTINUOUS
 10
4.0108808662
 20
-46.3695241312
 11
4.0060683863
 21
-46.3841060566
  0
LINE
  5
864
100
AcDbEntity
  8
RACCORDO
100
AcDbLine
 62
7
  6
CONTINUOUS
 10
8.5863623604
 20
-45.0367923949
 11
8.6005243737
 21
-44.9956550414
  0
LINE
  5
865
100
AcDbEntity
  8
0
100
AcDbLine
 62
7
  6
CONTINUOUS
 10
4.3252780169
 20
-46.7294268495
 11
4.3322267773
 21
-46.7103257306
  0
LINE
  5
866
100
AcDbEntity
  8
0
100
AcDbLine
 62
7
  6
CONTINUOUS
 10
3.8934843103
 20
-46.4709581988
 11
3.8880718353
 21
-46.4857248909
  0
LINE
  5
867
100
AcDbEntity
  8
RACCORDO
100
AcDbLine
 62
7
  6
CONTINUOUS
 10
8.2908243377
 20
1.3956520145
 11
8.306718042
 21
1.4347065093
  0
LINE
  5
868
100
AcDbEntity
  8
RACCORDO
100
AcDbLine
 62
7
  6
CONTINUOUS
 10
9.0581333418
 20
1.8274909291
 11
9.0507288788
 21
1.8098065054
  0
LINE
  5
869
100
AcDbEntity
  8
RACCORDO
100
AcDbLine
 62
7
  6
CONTINUOUS
 10
-8.6344666655
 20
-38.0266091994
 11
-8.6169226222
 21
-37.9866704687
  0
LINE
  5
86A
100
AcDbEntity
  8
RACCORDO
100
AcDbLine
 62
7
  6
CONTINUOUS
 10
8.306718042
 20
1.4347065093
 11
8.3240912437
 21
1.4729678311
  0
LINE
  5
86B
100
AcDbEntity
  8
RACCORDO
100
AcDbLine
 62
7
  6
CONTINUOUS
 10
9.2284400875
 20
1.3890878678
 11
9.2055488062
 21
1.3402942987
  0
LINE
  5
86C
100
AcDbEntity
  8
RACCORDO
100
AcDbLine
 62
7
  6
CONTINUOUS
 10
19.5999989588
 20
53.3088208712
 11
19.6163267165
 21
53.3387015631
  0
LINE
  5
86D
100
AcDbEntity
  8
RACCORDO
100
AcDbLine
 62
7
  6
CONTINUOUS
 10
16.9100495934
 20
52.2469336017
 11
16.9221329288
 21
52.2688679383
  0
LINE
  5
86E
100
AcDbEntity
  8
RACCORDO
100
AcDbLine
 62
7
  6
CONTINUOUS
 10
-8.9590673163
 20
8.458993877
 11
-8.9391154645
 21
8.4948598976
  0
LINE
  5
86F
100
AcDbEntity
  8
RACCORDO
100
AcDbLine
 62
7
  6
CONTINUOUS
 10
-9.4087315225
 20
-1.1395430386
 11
-9.3929925077
 21
-1.1114017459
  0
LINE
  5
870
100
AcDbEntity
  8
RACCORDO
100
AcDbLine
 62
7
  6
CONTINUOUS
 10
-10.0515200194
 20
-1.0469322054
 11
-10.0251466772
 21
-1.0005775633
  0
LINE
  5
871
100
AcDbEntity
  8
RACCORDO
100
AcDbLine
 62
7
  6
CONTINUOUS
 10
19.3070768611
 20
53.9033521756
 11
19.3127017806
 21
53.9130048602
  0
LINE
  5
872
100
AcDbEntity
  8
RACCORDO
100
AcDbLine
 62
7
  6
CONTINUOUS
 10
16.9221329288
 20
52.2688679383
 11
16.934892875
 21
52.2898363113
  0
LINE
  5
873
100
AcDbEntity
  8
RACCORDO
100
AcDbLine
 62
7
  6
CONTINUOUS
 10
-8.9391154645
 20
8.4948598976
 11
-8.9180828058
 21
8.5291409847
  0
LINE
  5
874
100
AcDbEntity
  8
RACCORDO
100
AcDbLine
 62
7
  6
CONTINUOUS
 10
19.5792231241
 20
53.2757401922
 11
19.5999989588
 21
53.3088208712
  0
LINE
  5
875
100
AcDbEntity
  8
RACCORDO
100
AcDbLine
 62
7
  6
CONTINUOUS
 10
-9.6643537927
 20
45.9652332454
 11
-9.6330647878
 21
46.0057207324
  0
LINE
  5
876
100
AcDbEntity
  8
RACCORDO
100
AcDbLine
 62
7
  6
CONTINUOUS
 10
-9.0390495159
 20
45.8238988551
 11
-9.019271878
 21
45.8491310824
  0
LINE
  5
877
100
AcDbEntity
  8
RACCORDO
100
AcDbLine
 62
7
  6
CONTINUOUS
 10
-14.6295560553
 20
64.6813811376
 11
-14.6486775618
 21
64.661587949
  0
LINE
  5
878
100
AcDbEntity
  8
RACCORDO
100
AcDbLine
 62
7
  6
CONTINUOUS
 10
-14.5745417281
 20
64.3983072171
 11
-14.5981510438
 21
64.374442888
  0
LINE
  5
879
100
AcDbEntity
  8
RACCORDO
100
AcDbLine
 62
7
  6
CONTINUOUS
 10
-14.6295663717
 20
64.6813749011
 11
-13.3453945592
 21
65.9640254563
  0
LINE
  5
87A
100
AcDbEntity
  8
RACCORDO
100
AcDbLine
 62
7
  6
CONTINUOUS
 10
-13.9233399484
 20
64.7968112366
 11
-12.6795441733
 21
66.0391335842
  0
LINE
  5
87B
100
AcDbEntity
  8
RACCORDO
100
AcDbLine
 62
7
  6
CONTINUOUS
 10
-14.6153543622
 20
64.69510621
 11
-14.6295038732
 21
64.68143732
  0
LINE
  5
87C
100
AcDbEntity
  8
RACCORDO
100
AcDbLine
 62
7
  6
CONTINUOUS
 10
-13.9380056494
 20
64.7827982355
 11
-13.9233399487
 21
64.7968112366
  0
LINE
  5
87D
100
AcDbEntity
  8
RACCORDO
100
AcDbLine
 62
7
  6
CONTINUOUS
 10
8.7606167144
 20
1.0171232868
 11
8.7057733474
 21
1.009614857
  0
LINE
  5
87E
100
AcDbEntity
  8
RACCORDO
100
AcDbLine
 62
7
  6
CONTINUOUS
 10
-9.6065879277
 20
-0.7237611935
 11
-9.5517445607
 21
-0.7162527636
  0
LINE
  5
87F
100
AcDbEntity
  8
RACCORDO
100
AcDbLine
 62
7
  6
CONTINUOUS
 10
-9.2327330682
 20
-0.9811978375
 11
-9.2146246527
 21
-0.9787300801
  0
LINE
  5
880
100
AcDbEntity
  8
RACCORDO
100
AcDbLine
 62
7
  6
CONTINUOUS
 10
8.8224359721
 20
1.6710619629
 11
8.7889991304
 21
1.6667348861
  0
LINE
  5
881
100
AcDbEntity
  8
RACCORDO
100
AcDbLine
 62
7
  6
CONTINUOUS
 10
-9.7766732704
 20
-1.4799472206
 11
-9.735270136
 21
-1.4753668447
  0
LINE
  5
882
100
AcDbEntity
  8
RACCORDO
100
AcDbLine
 62
7
  6
CONTINUOUS
 10
-9.8186040279
 20
9.4763465715
 11
-9.7766751891
 21
9.4789096349
  0
LINE
  5
883
100
AcDbEntity
  8
RACCORDO
100
AcDbLine
 62
7
  6
CONTINUOUS
 10
-9.6596926849
 20
45.4542192214
 11
-9.6186604925
 21
45.4479632538
  0
LINE
  5
884
100
AcDbEntity
  8
RACCORDO
100
AcDbLine
 62
7
  6
CONTINUOUS
 10
-8.9617460832
 20
46.2331209866
 11
-8.8982880561
 21
46.2217450588
  0
LINE
  5
885
100
AcDbEntity
  8
RACCORDO
100
AcDbLine
 62
7
  6
CONTINUOUS
 10
-9.2298867118
 20
45.8583076122
 11
-9.1942512136
 21
45.8516986474
  0
LINE
  5
886
100
AcDbEntity
  8
RACCORDO
100
AcDbLine
 62
7
  6
CONTINUOUS
 10
-9.6997667308
 20
45.4623066705
 11
-9.6596926849
 21
45.4542192214
  0
LINE
  5
887
100
AcDbEntity
  8
RACCORDO
100
AcDbLine
 62
7
  6
CONTINUOUS
 10
-8.7364739009
 20
45.948695899
 11
-8.7023974724
 21
45.9416197817
  0
LINE
  5
888
100
AcDbEntity
  8
RACCORDO
100
AcDbLine
 62
7
  6
CONTINUOUS
 10
17.3982495862
 20
51.1434224882
 11
17.4274403733
 21
51.1366364782
  0
LINE
  5
889
100
AcDbEntity
  8
RACCORDO
100
AcDbLine
 62
7
  6
CONTINUOUS
 10
17.3699467848
 20
51.1513254191
 11
17.3982495862
 21
51.1434224882
  0
LINE
  5
88A
100
AcDbEntity
  8
RACCORDO
100
AcDbLine
 62
7
  6
CONTINUOUS
 10
-13.9710682675
 20
64.8137686113
 11
-14.0188827423
 21
64.8276844646
  0
LINE
  5
88B
100
AcDbEntity
  8
RACCORDO
100
AcDbLine
 62
7
  6
CONTINUOUS
 10
-14.1149461502
 20
64.4907580846
 11
-14.1481426293
 21
64.5006371452
  0
LINE
  5
88C
100
AcDbEntity
  8
RACCORDO
100
AcDbLine
 62
7
  6
CONTINUOUS
 10
-10.3692715348
 20
65.8415502897
 11
-10.4862123067
 21
65.8766103507
  0
LINE
  5
88D
100
AcDbEntity
  8
RACCORDO
100
AcDbLine
 62
7
  6
CONTINUOUS
 10
-10.424859484
 20
65.8562798788
 11
-10.3327750022
 21
65.8284712169
  0
LINE
  5
88E
100
AcDbEntity
  8
RACCORDO
100
AcDbLine
 62
7
  6
CONTINUOUS
 10
-10.3692640366
 20
65.8414615406
 11
-10.3600597295
 21
65.838469012
  0
LINE
  5
88F
100
AcDbEntity
  8
RACCORDO
100
AcDbLine
 62
7
  6
CONTINUOUS
 10
-10.3600597295
 20
65.838469012
 11
-10.3327748519
 21
65.828471171
  0
LINE
  5
890
100
AcDbEntity
  8
RACCORDO
100
AcDbLine
 62
7
  6
CONTINUOUS
 10
17.703010784
 20
-61.1056913762
 11
17.7129978375
 21
-61.0697874225
  0
LINE
  5
891
100
AcDbEntity
  8
RACCORDO
100
AcDbLine
 62
7
  6
CONTINUOUS
 10
19.468719724
 20
-58.6998669586
 11
19.5135866655
 21
-58.5402650468
  0
LINE
  5
892
100
AcDbEntity
  8
RACCORDO
100
AcDbLine
 62
7
  6
CONTINUOUS
 10
19.518064435
 20
-58.474628863
 11
19.4842128739
 21
-58.5936932994
  0
LINE
  5
893
100
AcDbEntity
  8
RACCORDO
100
AcDbLine
 62
7
  6
CONTINUOUS
 10
17.3099809241
 20
-61.1344942212
 11
17.3169520771
 21
-61.1119637559
  0
LINE
  5
894
100
AcDbEntity
  8
RACCORDO
100
AcDbLine
 62
7
  6
CONTINUOUS
 10
19.439294709
 20
-58.7913849484
 11
19.468719724
 21
-58.6998669586
  0
LINE
  5
895
100
AcDbEntity
  8
RACCORDO
100
AcDbLine
 62
7
  6
CONTINUOUS
 10
19.4842128739
 20
-58.5936932994
 11
19.4461024916
 21
-58.710767102
  0
LINE
  5
896
100
AcDbEntity
  8
RACCORDO
100
AcDbLine
 62
7
  6
CONTINUOUS
 10
8.6005243737
 20
-44.9956550414
 11
8.6164381847
 21
-44.9549615674
  0
LINE
  5
897
100
AcDbEntity
  8
0
100
AcDbLine
 62
7
  6
CONTINUOUS
 10
4.0060683863
 20
-46.3841060566
 11
4.0004957007
 21
-46.3978063463
  0
LINE
  5
898
100
AcDbEntity
  8
RACCORDO
100
AcDbLine
 62
7
  6
CONTINUOUS
 10
9.3439331719
 20
-44.587291782
 11
9.3393342673
 21
-44.5983991551
  0
LINE
  5
899
100
AcDbEntity
  8
0
100
AcDbLine
 62
7
  6
CONTINUOUS
 10
4.3175850949
 20
-46.7471147165
 11
4.3252780169
 21
-46.7294268495
  0
LINE
  5
89A
100
AcDbEntity
  8
RACCORDO
100
AcDbLine
 62
7
  6
CONTINUOUS
 10
-8.6169226222
 20
-37.9866704687
 11
-8.5978823694
 21
-37.9477915747
  0
LINE
  5
89B
100
AcDbEntity
  8
RACCORDO
100
AcDbLine
 62
7
  6
CONTINUOUS
 10
8.3240912437
 20
1.4729678311
 11
8.3428203847
 21
1.5101638661
  0
LINE
  5
89C
100
AcDbEntity
  8
RACCORDO
100
AcDbLine
 62
7
  6
CONTINUOUS
 10
9.0507288788
 20
1.8098065054
 11
9.0432581904
 21
1.7958284475
  0
LINE
  5
89D
100
AcDbEntity
  8
RACCORDO
100
AcDbLine
 62
7
  6
CONTINUOUS
 10
8.3428203847
 20
1.5101638661
 11
8.3627722638
 21
1.5460300766
  0
LINE
  5
89E
100
AcDbEntity
  8
RACCORDO
100
AcDbLine
 62
7
  6
CONTINUOUS
 10
16.934892875
 20
52.2898363113
 11
16.948235901
 21
52.3096850215
  0
LINE
  5
89F
100
AcDbEntity
  8
RACCORDO
100
AcDbLine
 62
7
  6
CONTINUOUS
 10
-8.9180828058
 20
8.5291409847
 11
-8.8961189251
 21
8.5615933393
  0
LINE
  5
8A0
100
AcDbEntity
  8
RACCORDO
100
AcDbLine
 62
7
  6
CONTINUOUS
 10
-9.3929925077
 20
-1.1114017459
 11
-9.3751891547
 21
-1.0850958822
  0
LINE
  5
8A1
100
AcDbEntity
  8
RACCORDO
100
AcDbLine
 62
7
  6
CONTINUOUS
 10
-10.0251466772
 20
-1.0005775633
 11
-9.9956800504
 21
-0.9573976762
  0
LINE
  5
8A2
100
AcDbEntity
  8
RACCORDO
100
AcDbLine
 62
7
  6
CONTINUOUS
 10
19.5537866581
 20
53.2389225767
 11
19.5792231241
 21
53.2757401922
  0
LINE
  5
8A3
100
AcDbEntity
  8
RACCORDO
100
AcDbLine
 62
7
  6
CONTINUOUS
 10
19.2987888936
 20
53.8917226619
 11
19.3070768611
 21
53.9033521756
  0
LINE
  5
8A4
100
AcDbEntity
  8
RACCORDO
100
AcDbLine
 62
7
  6
CONTINUOUS
 10
16.948235901
 20
52.3096850215
 11
16.962064202
 21
52.3282685769
  0
LINE
  5
8A5
100
AcDbEntity
  8
RACCORDO
100
AcDbLine
 62
7
  6
CONTINUOUS
 10
19.5234171411
 20
53.1982585314
 11
19.5537866581
 21
53.2389225767
  0
LINE
  5
8A6
100
AcDbEntity
  8
RACCORDO
100
AcDbLine
 62
7
  6
CONTINUOUS
 10
19.2880977401
 20
53.8777783317
 11
19.2987888936
 21
53.8917226619
  0
LINE
  5
8A7
100
AcDbEntity
  8
RACCORDO
100
AcDbLine
 62
7
  6
CONTINUOUS
 10
-9.6330647878
 20
46.0057207324
 11
-9.5990954686
 21
46.043211342
  0
LINE
  5
8A8
100
AcDbEntity
  8
RACCORDO
100
AcDbLine
 62
7
  6
CONTINUOUS
 10
-9.019271878
 20
45.8491310824
 11
-8.9978669524
 21
45.8725107318
  0
LINE
  5
8A9
100
AcDbEntity
  8
RACCORDO
100
AcDbLine
 62
7
  6
CONTINUOUS
 10
-14.5496772867
 20
64.4200970352
 11
-14.5745417281
 21
64.3983072171
  0
LINE
  5
8AA
100
AcDbEntity
  8
RACCORDO
100
AcDbLine
 62
7
  6
CONTINUOUS
 10
-14.5816411238
 20
64.724284196
 11
-14.6153543622
 21
64.69510621
  0
LINE
  5
8AB
100
AcDbEntity
  8
RACCORDO
100
AcDbLine
 62
7
  6
CONTINUOUS
 10
8.8133674527
 20
1.0285214583
 11
8.7606167144
 21
1.0171232868
  0
LINE
  5
8AC
100
AcDbEntity
  8
RACCORDO
100
AcDbLine
 62
7
  6
CONTINUOUS
 10
8.8546676054
 20
1.6778206899
 11
8.8224359721
 21
1.6710619629
  0
LINE
  5
8AD
100
AcDbEntity
  8
RACCORDO
100
AcDbLine
 62
7
  6
CONTINUOUS
 10
-9.735270136
 20
-1.4753668447
 11
-9.6946871274
 21
-1.4688018314
  0
LINE
  5
8AE
100
AcDbEntity
  8
RACCORDO
100
AcDbLine
 62
7
  6
CONTINUOUS
 10
-9.7766751891
 20
9.4789096349
 11
-9.7352719593
 21
9.4834899275
  0
LINE
  5
8AF
100
AcDbEntity
  8
RACCORDO
100
AcDbLine
 62
7
  6
CONTINUOUS
 10
-9.1942512136
 20
45.8516986474
 11
-9.1592048216
 21
45.8482602529
  0
LINE
  5
8B0
100
AcDbEntity
  8
RACCORDO
100
AcDbLine
 62
7
  6
CONTINUOUS
 10
-9.6186604925
 20
45.4479632538
 11
-9.576962001
 21
45.4435832643
  0
LINE
  5
8B1
100
AcDbEntity
  8
RACCORDO
100
AcDbLine
 62
7
  6
CONTINUOUS
 10
-9.0249641642
 20
46.2403640003
 11
-8.9617460832
 21
46.2331209866
  0
LINE
  5
8B2
100
AcDbEntity
  8
RACCORDO
100
AcDbLine
 62
7
  6
CONTINUOUS
 10
-8.7686139222
 20
45.9532309483
 11
-8.7364739009
 21
45.948695899
  0
LINE
  5
8B3
100
AcDbEntity
  8
RACCORDO
100
AcDbLine
 62
7
  6
CONTINUOUS
 10
17.4572197543
 20
51.1310369889
 11
17.4872823004
 21
51.1266814508
  0
LINE
  5
8B4
100
AcDbEntity
  8
RACCORDO
100
AcDbLine
 62
7
  6
CONTINUOUS
 10
17.4274403733
 20
51.1366364782
 11
17.4572197543
 21
51.1310369889
  0
LINE
  5
8B5
100
AcDbEntity
  8
RACCORDO
100
AcDbLine
 62
7
  6
CONTINUOUS
 10
-10.6774015732
 20
65.9268043419
 11
-10.863804233
 21
65.9669487301
  0
LINE
  5
8B6
100
AcDbEntity
  8
RACCORDO
100
AcDbLine
 62
7
  6
CONTINUOUS
 10
-10.720732003
 20
65.9300008888
 11
-10.6188499547
 21
65.9073208977
  0
LINE
  5
8B7
100
AcDbEntity
  8
RACCORDO
100
AcDbLine
 62
7
  6
CONTINUOUS
 10
-14.0188827423
 20
64.8276844646
 11
-14.0666240837
 21
64.8385177821
  0
LINE
  5
8B8
100
AcDbEntity
  8
RACCORDO
100
AcDbLine
 62
7
  6
CONTINUOUS
 10
-14.1481426293
 20
64.5006371452
 11
-14.1813146493
 21
64.508233298
  0
LINE
  5
8B9
100
AcDbEntity
  8
RACCORDO
100
AcDbLine
 62
7
  6
CONTINUOUS
 10
-10.6188499547
 20
65.9073208977
 11
-10.5201931529
 21
65.8826562498
  0
LINE
  5
8BA
100
AcDbEntity
  8
RACCORDO
100
AcDbLine
 62
7
  6
CONTINUOUS
 10
-10.4862123067
 20
65.8766103507
 11
-10.6774015732
 21
65.9268043419
  0
LINE
  5
8BB
100
AcDbEntity
  8
RACCORDO
100
AcDbLine
 62
7
  6
CONTINUOUS
 10
-10.5201931529
 20
65.8826562498
 11
-10.424859484
 21
65.8562798788
  0
LINE
  5
8BC
100
AcDbEntity
  8
RACCORDO
100
AcDbLine
 62
7
  6
CONTINUOUS
 10
19.4043310722
 20
-58.889992157
 11
19.4392760516
 21
-58.7914362549
  0
LINE
  5
8BD
100
AcDbEntity
  8
RACCORDO
100
AcDbLine
 62
7
  6
CONTINUOUS
 10
19.4461024916
 20
-58.710767102
 11
19.4118805471
 21
-58.8041251922
  0
LINE
  5
8BE
100
AcDbEntity
  8
RACCORDO
100
AcDbLine
 62
7
  6
CONTINUOUS
 10
17.6903222774
 20
-61.1395614143
 11
17.703010784
 21
-61.1056913762
  0
LINE
  5
8BF
100
AcDbEntity
  8
RACCORDO
100
AcDbLine
 62
7
  6
CONTINUOUS
 10
9.5261639762
 20
-45.0163643167
 11
9.5071159227
 21
-45.0621152253
  0
LINE
  5
8C0
100
AcDbEntity
  8
RACCORDO
100
AcDbLine
 62
7
  6
CONTINUOUS
 10
9.240389171
 20
-44.7429812396
 11
9.2539432321
 21
-44.7119673731
  0
LINE
  5
8C1
100
AcDbEntity
  8
RACCORDO
100
AcDbLine
 62
7
  6
CONTINUOUS
 10
8.6164381847
 20
-44.9549615674
 11
8.6339822267
 21
-44.9150228334
  0
LINE
  5
8C2
100
AcDbEntity
  8
0
100
AcDbLine
 62
7
  6
CONTINUOUS
 10
3.8880718353
 20
-46.4857248909
 11
3.8817076142
 21
-46.4996464954
  0
LINE
  5
8C3
100
AcDbEntity
  8
0
100
AcDbLine
 62
7
  6
CONTINUOUS
 10
4.0004957007
 20
-46.3978063463
 11
3.9941670259
 21
-46.4105544492
  0
LINE
  5
8C4
100
AcDbEntity
  8
0
100
AcDbLine
 62
7
  6
CONTINUOUS
 10
4.3094057424
 20
-46.7635861436
 11
4.3175850949
 21
-46.7471147165
  0
LINE
  5
8C5
100
AcDbEntity
  8
RACCORDO
100
AcDbLine
 62
7
  6
CONTINUOUS
 10
-8.5978823694
 20
-37.9477915747
 11
-8.5774913569
 21
-37.9102695158
  0
LINE
  5
8C6
100
AcDbEntity
  8
RACCORDO
100
AcDbLine
 62
7
  6
CONTINUOUS
 10
9.2055488062
 20
1.3402942987
 11
9.1791754639
 21
1.2939396567
  0
LINE
  5
8C7
100
AcDbEntity
  8
RACCORDO
100
AcDbLine
 62
7
  6
CONTINUOUS
 10
-8.5774913569
 20
-37.9102695158
 11
-8.5559053533
 21
-37.8743909258
  0
LINE
  5
8C8
100
AcDbEntity
  8
RACCORDO
100
AcDbLine
 62
7
  6
CONTINUOUS
 10
8.3627722638
 20
1.5460300766
 11
8.3838049837
 21
1.5803113828
  0
LINE
  5
8C9
100
AcDbEntity
  8
RACCORDO
100
AcDbLine
 62
7
  6
CONTINUOUS
 10
-8.8961189251
 20
8.5615933393
 11
-8.8733800222
 21
8.5919861784
  0
LINE
  5
8CA
100
AcDbEntity
  8
RACCORDO
100
AcDbLine
 62
7
  6
CONTINUOUS
 10
19.4876532814
 20
53.1540781086
 11
19.5234171411
 21
53.1982585314
  0
LINE
  5
8CB
100
AcDbEntity
  8
RACCORDO
100
AcDbLine
 62
7
  6
CONTINUOUS
 10
19.2746099789
 20
53.8612848067
 11
19.2880977401
 21
53.8777783317
  0
LINE
  5
8CC
100
AcDbEntity
  8
RACCORDO
100
AcDbLine
 62
7
  6
CONTINUOUS
 10
16.962064202
 20
52.3282685769
 11
16.9762764157
 21
52.3454507594
  0
LINE
  5
8CD
100
AcDbEntity
  8
RACCORDO
100
AcDbLine
 62
7
  6
CONTINUOUS
 10
19.4461085165
 20
53.10651489
 11
19.4876532814
 21
53.1540781086
  0
LINE
  5
8CE
100
AcDbEntity
  8
RACCORDO
100
AcDbLine
 62
7
  6
CONTINUOUS
 10
19.2572446794
 20
53.8419990299
 11
19.2746099789
 21
53.8612848067
  0
LINE
  5
8CF
100
AcDbEntity
  8
RACCORDO
100
AcDbLine
 62
7
  6
CONTINUOUS
 10
19.4101436261
 20
53.0667779056
 11
19.4461085165
 21
53.10651489
  0
LINE
  5
8D0
100
AcDbEntity
  8
RACCORDO
100
AcDbLine
 62
7
  6
CONTINUOUS
 10
-9.5990954686
 20
46.043211342
 11
-9.562446352
 21
46.0777046868
  0
LINE
  5
8D1
100
AcDbEntity
  8
RACCORDO
100
AcDbLine
 62
7
  6
CONTINUOUS
 10
-8.9978669524
 20
45.8725107318
 11
-8.9749190569
 21
45.8939956092
  0
LINE
  5
8D2
100
AcDbEntity
  8
RACCORDO
100
AcDbLine
 62
7
  6
CONTINUOUS
 10
-14.5235506256
 20
64.4397874101
 11
-14.5496772867
 21
64.4200970352
  0
LINE
  5
8D3
100
AcDbEntity
  8
RACCORDO
100
AcDbLine
 62
7
  6
CONTINUOUS
 10
-14.5460145662
 20
64.7506248717
 11
-14.5816411238
 21
64.724284196
  0
LINE
  5
8D4
100
AcDbEntity
  8
RACCORDO
100
AcDbLine
 62
7
  6
CONTINUOUS
 10
-9.6552128552
 20
-1.4602988755
 11
-9.6171280548
 21
-1.4499184546
  0
LINE
  5
8D5
100
AcDbEntity
  8
RACCORDO
100
AcDbLine
 62
7
  6
CONTINUOUS
 10
-9.659338666
 20
-0.7351593649
 11
-9.6065879277
 21
-0.7237611935
  0
LINE
  5
8D6
100
AcDbEntity
  8
RACCORDO
100
AcDbLine
 62
7
  6
CONTINUOUS
 10
-9.6946871274
 20
-1.4688018314
 11
-9.6552128552
 21
-1.4602988755
  0
LINE
  5
8D7
100
AcDbEntity
  8
RACCORDO
100
AcDbLine
 62
7
  6
CONTINUOUS
 10
-9.2481942784
 20
-0.9845220467
 11
-9.2327330682
 21
-0.9811978375
  0
LINE
  5
8D8
100
AcDbEntity
  8
RACCORDO
100
AcDbLine
 62
7
  6
CONTINUOUS
 10
-9.7352719593
 20
9.4834899275
 11
-9.6946887975
 21
9.4900548742
  0
LINE
  5
8D9
100
AcDbEntity
  8
RACCORDO
100
AcDbLine
 62
7
  6
CONTINUOUS
 10
9.242979212
 20
38.43850128
 11
9.2317786572
 21
38.4386283734
  0
LINE
  5
8DA
100
AcDbEntity
  8
RACCORDO
100
AcDbLine
 62
7
  6
CONTINUOUS
 10
-9.5348937972
 20
45.4411104062
 11
-9.4927550976
 21
45.4405622681
  0
LINE
  5
8DB
100
AcDbEntity
  8
RACCORDO
100
AcDbLine
 62
7
  6
CONTINUOUS
 10
-9.0870167112
 20
46.2432539794
 11
-9.0249641642
 21
46.2403640003
  0
LINE
  5
8DC
100
AcDbEntity
  8
RACCORDO
100
AcDbLine
 62
7
  6
CONTINUOUS
 10
-9.576962001
 20
45.4435832643
 11
-9.5348937972
 21
45.4411104062
  0
LINE
  5
8DD
100
AcDbEntity
  8
RACCORDO
100
AcDbLine
 62
7
  6
CONTINUOUS
 10
17.5173196787
 20
51.123614536
 11
17.5470238145
 21
51.1218676998
  0
LINE
  5
8DE
100
AcDbEntity
  8
RACCORDO
100
AcDbLine
 62
7
  6
CONTINUOUS
 10
-8.7984691243
 20
45.9553728657
 11
-8.7686139222
 21
45.9532309483
  0
LINE
  5
8DF
100
AcDbEntity
  8
RACCORDO
100
AcDbLine
 62
7
  6
CONTINUOUS
 10
17.4872823004
 20
51.1266814508
 11
17.5173196787
 21
51.123614536
  0
LINE
  5
8E0
100
AcDbEntity
  8
RACCORDO
100
AcDbLine
 62
7
  6
CONTINUOUS
 10
-14.1813146493
 20
64.508233298
 11
-14.2145564252
 21
64.513562208
  0
LINE
  5
8E1
100
AcDbEntity
  8
RACCORDO
100
AcDbLine
 62
7
  6
CONTINUOUS
 10
-10.9354611807
 20
65.9680703896
 11
-10.8260707437
 21
65.9503967921
  0
LINE
  5
8E2
100
AcDbEntity
  8
RACCORDO
100
AcDbLine
 62
7
  6
CONTINUOUS
 10
-14.0666240837
 20
64.8385177821
 11
-14.1141025538
 21
64.846230916
  0
LINE
  5
8E3
100
AcDbEntity
  8
RACCORDO
100
AcDbLine
 62
7
  6
CONTINUOUS
 10
-10.863804233
 20
65.9669487301
 11
-11.0451236641
 21
65.997322659
  0
LINE
  5
8E4
100
AcDbEntity
  8
RACCORDO
100
AcDbLine
 62
7
  6
CONTINUOUS
 10
-10.8260707437
 20
65.9503967921
 11
-10.720732003
 21
65.9300008888
  0
LINE
  5
8E5
100
AcDbEntity
  8
RACCORDO
100
AcDbLine
 62
7
  6
CONTINUOUS
 10
19.3413962395
 20
-59.0462691078
 11
19.4043310722
 21
-58.889992157
  0
LINE
  5
8E6
100
AcDbEntity
  8
RACCORDO
100
AcDbLine
 62
7
  6
CONTINUOUS
 10
19.4118805471
 20
-58.8041251922
 11
19.3751760575
 21
-58.8947681711
  0
LINE
  5
8E7
100
AcDbEntity
  8
RACCORDO
100
AcDbLine
 62
7
  6
CONTINUOUS
 10
17.3010552284
 20
-61.1556469031
 11
17.3099809241
 21
-61.1344942212
  0
LINE
  5
8E8
100
AcDbEntity
  8
RACCORDO
100
AcDbLine
 62
7
  6
CONTINUOUS
 10
19.3751760575
 20
-58.8947681711
 11
19.336036724
 21
-58.9826672336
  0
LINE
  5
8E9
100
AcDbEntity
  8
RACCORDO
100
AcDbLine
 62
7
  6
CONTINUOUS
 10
8.6339822267
 20
-44.9150228334
 11
8.6530224793
 21
-44.8761439344
  0
LINE
  5
8EA
100
AcDbEntity
  8
RACCORDO
100
AcDbLine
 62
7
  6
CONTINUOUS
 10
9.5071159227
 20
-45.0621152253
 11
9.4848442581
 21
-45.1057446767
  0
LINE
  5
8EB
100
AcDbEntity
  8
RACCORDO
100
AcDbLine
 62
7
  6
CONTINUOUS
 10
9.3393342673
 20
-44.5983991551
 11
9.3349890253
 21
-44.6066923827
  0
LINE
  5
8EC
100
AcDbEntity
  8
RACCORDO
100
AcDbLine
 62
7
  6
CONTINUOUS
 10
8.6530224793
 20
-44.8761439344
 11
8.6734134926
 21
-44.8386218693
  0
LINE
  5
8ED
100
AcDbEntity
  8
0
100
AcDbLine
 62
7
  6
CONTINUOUS
 10
3.8817076142
 20
-46.4996464954
 11
3.8743984292
 21
-46.5127563384
  0
LINE
  5
8EE
100
AcDbEntity
  8
0
100
AcDbLine
 62
7
  6
CONTINUOUS
 10
4.3007695896
 20
-46.7788487334
 11
4.3094057424
 21
-46.7635861436
  0
LINE
  5
8EF
100
AcDbEntity
  8
RACCORDO
100
AcDbLine
 62
7
  6
CONTINUOUS
 10
-8.5559053533
 20
-37.8743909258
 11
-8.5332892558
 21
-37.8404298836
  0
LINE
  5
8F0
100
AcDbEntity
  8
RACCORDO
100
AcDbLine
 62
7
  6
CONTINUOUS
 10
9.0432581904
 20
1.7958284475
 11
9.0357742079
 21
1.7847178167
  0
LINE
  5
8F1
100
AcDbEntity
  8
RACCORDO
100
AcDbLine
 62
7
  6
CONTINUOUS
 10
8.3838049837
 20
1.5803113828
 11
8.4057689598
 21
1.6127639767
  0
LINE
  5
8F2
100
AcDbEntity
  8
RACCORDO
100
AcDbLine
 62
7
  6
CONTINUOUS
 10
9.1791754639
 20
1.2939396567
 11
9.1497088371
 21
1.2507597696
  0
LINE
  5
8F3
100
AcDbEntity
  8
RACCORDO
100
AcDbLine
 62
7
  6
CONTINUOUS
 10
-9.3751891547
 20
-1.0850958822
 11
-9.3554303081
 21
-1.0607445717
  0
LINE
  5
8F4
100
AcDbEntity
  8
RACCORDO
100
AcDbLine
 62
7
  6
CONTINUOUS
 10
-9.9956800504
 20
-0.9573976762
 11
-9.9631077849
 21
-0.9175327201
  0
LINE
  5
8F5
100
AcDbEntity
  8
RACCORDO
100
AcDbLine
 62
7
  6
CONTINUOUS
 10
-8.8733800222
 20
8.5919861784
 11
-8.8500278127
 21
8.6201033579
  0
LINE
  5
8F6
100
AcDbEntity
  8
RACCORDO
100
AcDbLine
 62
7
  6
CONTINUOUS
 10
16.9762764157
 20
52.3454507594
 11
16.9907683661
 21
52.3611056226
  0
LINE
  5
8F7
100
AcDbEntity
  8
RACCORDO
100
AcDbLine
 62
7
  6
CONTINUOUS
 10
19.3716126062
 20
53.0258307156
 11
19.4101436261
 21
53.0667779056
  0
LINE
  5
8F8
100
AcDbEntity
  8
RACCORDO
100
AcDbLine
 62
7
  6
CONTINUOUS
 10
19.2358067334
 20
53.819280881
 11
19.2572446794
 21
53.8419990299
  0
LINE
  5
8F9
100
AcDbEntity
  8
RACCORDO
100
AcDbLine
 62
7
  6
CONTINUOUS
 10
19.2102998909
 20
53.7928312821
 11
19.2358067334
 21
53.819280881
  0
LINE
  5
8FA
100
AcDbEntity
  8
RACCORDO
100
AcDbLine
 62
7
  6
CONTINUOUS
 10
19.3306048923
 20
52.9836995494
 11
19.3716126062
 21
53.0258307156
  0
LINE
  5
8FB
100
AcDbEntity
  8
RACCORDO
100
AcDbLine
 62
7
  6
CONTINUOUS
 10
19.28722879
 20
52.9403925087
 11
19.3306048923
 21
52.9836995494
  0
LINE
  5
8FC
100
AcDbEntity
  8
RACCORDO
100
AcDbLine
 62
7
  6
CONTINUOUS
 10
19.179949843
 20
53.7629006516
 11
19.2102998909
 21
53.7928312821
  0
LINE
  5
8FD
100
AcDbEntity
  8
RACCORDO
100
AcDbLine
 62
7
  6
CONTINUOUS
 10
19.2415569089
 20
52.8959473677
 11
19.28722879
 21
52.9403925087
  0
LINE
  5
8FE
100
AcDbEntity
  8
RACCORDO
100
AcDbLine
 62
7
  6
CONTINUOUS
 10
16.9907683661
 20
52.3611056226
 11
17.0054338265
 21
52.3751184157
  0
LINE
  5
8FF
100
AcDbEntity
  8
RACCORDO
100
AcDbLine
 62
7
  6
CONTINUOUS
 10
19.1936148779
 20
52.8504342225
 11
19.2415569089
 21
52.8959473677
  0
LINE
  5
900
100
AcDbEntity
  8
RACCORDO
100
AcDbLine
 62
7
  6
CONTINUOUS
 10
19.144489096
 20
53.7293725929
 11
19.179949843
 21
53.7629006516
  0
LINE
  5
901
100
AcDbEntity
  8
RACCORDO
100
AcDbLine
 62
7
  6
CONTINUOUS
 10
19.0588380992
 20
53.6493218377
 11
19.144489096
 21
53.7293725929
  0
LINE
  5
902
100
AcDbEntity
  8
RACCORDO
100
AcDbLine
 62
7
  6
CONTINUOUS
 10
-9.562446352
 20
46.0777046868
 11
-9.5194255259
 21
46.1122841186
  0
LINE
  5
903
100
AcDbEntity
  8
RACCORDO
100
AcDbLine
 62
7
  6
CONTINUOUS
 10
-8.9749190569
 20
45.8939956092
 11
-8.9479272307
 21
45.915451257
  0
LINE
  5
904
100
AcDbEntity
  8
RACCORDO
100
AcDbLine
 62
7
  6
CONTINUOUS
 10
-14.4961706412
 20
64.4574023976
 11
-14.5235506256
 21
64.4397874101
  0
LINE
  5
905
100
AcDbEntity
  8
RACCORDO
100
AcDbLine
 62
7
  6
CONTINUOUS
 10
-14.5085860098
 20
64.7740677324
 11
-14.5460145662
 21
64.7506248717
  0
LINE
  5
906
100
AcDbEntity
  8
RACCORDO
100
AcDbLine
 62
7
  6
CONTINUOUS
 10
-9.6552143304
 20
9.4985577854
 11
-9.6171292998
 21
9.5089381884
  0
LINE
  5
907
100
AcDbEntity
  8
RACCORDO
100
AcDbLine
 62
7
  6
CONTINUOUS
 10
-9.6946887975
 20
9.4900548742
 11
-9.6552143304
 21
9.4985577854
  0
LINE
  5
908
100
AcDbEntity
  8
RACCORDO
100
AcDbLine
 62
7
  6
CONTINUOUS
 10
-9.4927550976
 20
45.4405622681
 11
-9.4508456199
 21
45.4419427487
  0
LINE
  5
909
100
AcDbEntity
  8
RACCORDO
100
AcDbLine
 62
7
  6
CONTINUOUS
 10
-9.147864827
 20
46.241692745
 11
-9.0870167112
 21
46.2432539794
  0
LINE
  5
90A
100
AcDbEntity
  8
RACCORDO
100
AcDbLine
 62
7
  6
CONTINUOUS
 10
-8.8258542656
 20
45.9553361235
 11
-8.7984691243
 21
45.9553728657
  0
LINE
  5
90B
100
AcDbEntity
  8
RACCORDO
100
AcDbLine
 62
7
  6
CONTINUOUS
 10
-9.1592048216
 20
45.8482602529
 11
-9.1250000448
 21
45.8480172022
  0
LINE
  5
90C
100
AcDbEntity
  8
RACCORDO
100
AcDbLine
 62
7
  6
CONTINUOUS
 10
17.5470238145
 20
51.1218676998
 11
17.5760900509
 21
51.1214588585
  0
LINE
  5
90D
100
AcDbEntity
  8
RACCORDO
100
AcDbLine
 62
7
  6
CONTINUOUS
 10
-14.2145564252
 20
64.513562208
 11
-14.2477731682
 21
64.5166084853
  0
LINE
  5
90E
100
AcDbEntity
  8
RACCORDO
100
AcDbLine
 62
7
  6
CONTINUOUS
 10
-11.1686051093
 20
65.9936844207
 11
-11.0499116176
 21
65.9827081575
  0
LINE
  5
90F
100
AcDbEntity
  8
RACCORDO
100
AcDbLine
 62
7
  6
CONTINUOUS
 10
-14.1141025538
 20
64.846230916
 11
-14.161196194
 21
64.850810629
  0
LINE
  5
910
100
AcDbEntity
  8
RACCORDO
100
AcDbLine
 62
7
  6
CONTINUOUS
 10
-11.0451236641
 20
65.997322659
 11
-11.2210732177
 21
66.0182490259
  0
LINE
  5
911
100
AcDbEntity
  8
RACCORDO
100
AcDbLine
 62
7
  6
CONTINUOUS
 10
-11.0499116176
 20
65.9827081575
 11
-10.9354611807
 21
65.9680703896
  0
LINE
  5
912
100
AcDbEntity
  8
RACCORDO
100
AcDbLine
 62
7
  6
CONTINUOUS
 10
19.2718881912
 20
-59.1951143186
 11
19.3413962395
 21
-59.0462691078
  0
LINE
  5
913
100
AcDbEntity
  8
RACCORDO
100
AcDbLine
 62
7
  6
CONTINUOUS
 10
17.6750082184
 20
-61.1712723581
 11
17.6903222774
 21
-61.1395614143
  0
LINE
  5
914
100
AcDbEntity
  8
RACCORDO
100
AcDbLine
 62
7
  6
CONTINUOUS
 10
19.336036724
 20
-58.9826672336
 11
19.2946586006
 21
-59.0675277612
  0
LINE
  5
915
100
AcDbEntity
  8
RACCORDO
100
AcDbLine
 62
7
  6
CONTINUOUS
 10
9.2539432321
 20
-44.7119673731
 11
9.2703840692
 21
-44.6829948091
  0
LINE
  5
916
100
AcDbEntity
  8
0
100
AcDbLine
 62
7
  6
CONTINUOUS
 10
3.9941670259
 20
-46.4105544492
 11
3.9870775712
 21
-46.422421464
  0
LINE
  5
917
100
AcDbEntity
  8
RACCORDO
100
AcDbLine
 62
7
  6
CONTINUOUS
 10
8.6734134926
 20
-44.8386218693
 11
8.6949994981
 21
-44.8027432721
  0
LINE
  5
918
100
AcDbEntity
  8
RACCORDO
100
AcDbLine
 62
7
  6
CONTINUOUS
 10
-8.5332892558
 20
-37.8404298836
 11
-8.5098158304
 21
-37.8086458198
  0
LINE
  5
919
100
AcDbEntity
  8
RACCORDO
100
AcDbLine
 62
7
  6
CONTINUOUS
 10
8.4057689598
 20
1.6127639767
 11
8.428507985
 21
1.6431570561
  0
LINE
  5
91A
100
AcDbEntity
  8
RACCORDO
100
AcDbLine
 62
7
  6
CONTINUOUS
 10
9.1497088371
 20
1.2507597696
 11
9.1171365716
 21
1.2108948135
  0
LINE
  5
91B
100
AcDbEntity
  8
RACCORDO
100
AcDbLine
 62
7
  6
CONTINUOUS
 10
8.428507985
 20
1.6431570561
 11
8.4518603395
 21
1.6712744657
  0
LINE
  5
91C
100
AcDbEntity
  8
RACCORDO
100
AcDbLine
 62
7
  6
CONTINUOUS
 10
-8.8500278127
 20
8.6201033579
 11
-8.8262283782
 21
8.6457449126
  0
LINE
  5
91D
100
AcDbEntity
  8
RACCORDO
100
AcDbLine
 62
7
  6
CONTINUOUS
 10
19.1667555018
 20
52.8255015489
 11
19.1936148779
 21
52.8504342225
  0
LINE
  5
91E
100
AcDbEntity
  8
RACCORDO
100
AcDbLine
 62
7
  6
CONTINUOUS
 10
19.0197077205
 20
53.6140215904
 11
19.0588380992
 21
53.6493218377
  0
LINE
  5
91F
100
AcDbEntity
  8
RACCORDO
100
AcDbLine
 62
7
  6
CONTINUOUS
 10
18.9783324005
 20
53.577060977
 11
19.0197077205
 21
53.6140215904
  0
LINE
  5
920
100
AcDbEntity
  8
RACCORDO
100
AcDbLine
 62
7
  6
CONTINUOUS
 10
18.9347630485
 20
53.5385202266
 11
18.9783324005
 21
53.577060977
  0
LINE
  5
921
100
AcDbEntity
  8
RACCORDO
100
AcDbLine
 62
7
  6
CONTINUOUS
 10
18.8890340424
 20
53.4985110651
 11
18.9347630485
 21
53.5385202266
  0
LINE
  5
922
100
AcDbEntity
  8
RACCORDO
100
AcDbLine
 62
7
  6
CONTINUOUS
 10
18.7913747525
 20
53.414222927
 11
18.8890340424
 21
53.4985110651
  0
LINE
  5
923
100
AcDbEntity
  8
RACCORDO
100
AcDbLine
 62
7
  6
CONTINUOUS
 10
18.7379611577
 20
53.3685959712
 11
18.7913747525
 21
53.414222927
  0
LINE
  5
924
100
AcDbEntity
  8
RACCORDO
100
AcDbLine
 62
7
  6
CONTINUOUS
 10
17.0054338265
 20
52.3751184157
 11
18.4504787485
 21
53.5366145688
  0
LINE
  5
925
100
AcDbEntity
  8
RACCORDO
100
AcDbLine
 62
7
  6
CONTINUOUS
 10
-8.9479272307
 20
45.915451257
 11
-8.9341835144
 21
45.92503436
  0
LINE
  5
926
100
AcDbEntity
  8
RACCORDO
100
AcDbLine
 62
7
  6
CONTINUOUS
 10
-14.4678225802
 20
64.4727923724
 11
-14.4961706412
 21
64.4574023976
  0
LINE
  5
927
100
AcDbEntity
  8
RACCORDO
100
AcDbLine
 62
7
  6
CONTINUOUS
 10
9.257145535
 20
38.4401774836
 11
9.242979212
 21
38.43850128
  0
LINE
  5
928
100
AcDbEntity
  8
RACCORDO
100
AcDbLine
 62
7
  6
CONTINUOUS
 10
-9.2075429734
 20
46.2357817681
 11
-9.147864827
 21
46.241692745
  0
LINE
  5
929
100
AcDbEntity
  8
RACCORDO
100
AcDbLine
 62
7
  6
CONTINUOUS
 10
-9.1250000448
 20
45.8480172022
 11
-9.0918833283
 21
45.8509712464
  0
LINE
  5
92A
100
AcDbEntity
  8
RACCORDO
100
AcDbLine
 62
7
  6
CONTINUOUS
 10
17.6042202734
 20
51.1223922054
 11
17.6311259679
 21
51.1246581676
  0
LINE
  5
92B
100
AcDbEntity
  8
RACCORDO
100
AcDbLine
 62
7
  6
CONTINUOUS
 10
-9.4508456199
 20
45.4419427487
 11
-9.4094634514
 21
45.4452420291
  0
LINE
  5
92C
100
AcDbEntity
  8
RACCORDO
100
AcDbLine
 62
7
  6
CONTINUOUS
 10
-8.8504543102
 20
45.9533816354
 11
-8.8258542656
 21
45.9553361235
  0
LINE
  5
92D
100
AcDbEntity
  8
RACCORDO
100
AcDbLine
 62
7
  6
CONTINUOUS
 10
17.5760900509
 20
51.1214588585
 11
17.6042202734
 21
51.1223922054
  0
LINE
  5
92E
100
AcDbEntity
  8
RACCORDO
100
AcDbLine
 62
7
  6
CONTINUOUS
 10
-11.4115599717
 20
66.0013707821
 11
-11.2893904528
 21
66.0000746449
  0
LINE
  5
92F
100
AcDbEntity
  8
RACCORDO
100
AcDbLine
 62
7
  6
CONTINUOUS
 10
-11.3913857662
 20
66.0300896515
 11
-11.555805774
 21
66.0332528146
  0
LINE
  5
930
100
AcDbEntity
  8
RACCORDO
100
AcDbLine
 62
7
  6
CONTINUOUS
 10
-14.2477731682
 20
64.5166084853
 11
-14.2806810993
 21
64.5173256782
  0
LINE
  5
931
100
AcDbEntity
  8
RACCORDO
100
AcDbLine
 62
7
  6
CONTINUOUS
 10
-14.161196194
 20
64.850810629
 11
-14.2078456039
 21
64.8522484713
  0
LINE
  5
932
100
AcDbEntity
  8
RACCORDO
100
AcDbLine
 62
7
  6
CONTINUOUS
 10
-11.2893904528
 20
66.0000746449
 11
-11.1686051093
 21
65.9936844207
  0
LINE
  5
933
100
AcDbEntity
  8
RACCORDO
100
AcDbLine
 62
7
  6
CONTINUOUS
 10
-11.2210732177
 20
66.0182490259
 11
-11.3913857662
 21
66.0300896515
  0
LINE
  5
934
100
AcDbEntity
  8
RACCORDO
100
AcDbLine
 62
7
  6
CONTINUOUS
 10
19.2946586006
 20
-59.0675277612
 11
19.2685081734
 21
-59.1166387847
  0
LINE
  5
935
100
AcDbEntity
  8
RACCORDO
100
AcDbLine
 62
7
  6
CONTINUOUS
 10
19.2685081734
 20
-59.2014136439
 11
19.2718881912
 21
-59.1951143186
  0
LINE
  5
936
100
AcDbEntity
  8
RACCORDO
100
AcDbLine
 62
7
  6
CONTINUOUS
 10
17.2902872765
 20
-61.1752146732
 11
17.3010552284
 21
-61.1556469031
  0
LINE
  5
937
100
AcDbEntity
  8
RACCORDO
100
AcDbLine
 62
7
  6
CONTINUOUS
 10
9.4848442581
 20
-45.1057446767
 11
9.4597735282
 21
-45.1464744451
  0
LINE
  5
938
100
AcDbEntity
  8
0
100
AcDbLine
 62
7
  6
CONTINUOUS
 10
4.2916458001
 20
-46.7928960356
 11
4.3007695896
 21
-46.7788487334
  0
LINE
  5
939
100
AcDbEntity
  8
RACCORDO
100
AcDbLine
 62
7
  6
CONTINUOUS
 10
9.3349890253
 20
-44.6066923827
 11
9.3311152486
 21
-44.612593651
  0
LINE
  5
93A
100
AcDbEntity
  8
RACCORDO
100
AcDbLine
 62
7
  6
CONTINUOUS
 10
8.6949994981
 20
-44.8027432721
 11
8.7176155986
 21
-44.7687822221
  0
LINE
  5
93B
100
AcDbEntity
  8
0
100
AcDbLine
 62
7
  6
CONTINUOUS
 10
3.8743984292
 20
-46.5127563384
 11
3.8661370494
 21
-46.5250215211
  0
LINE
  5
93C
100
AcDbEntity
  8
RACCORDO
100
AcDbLine
 62
7
  6
CONTINUOUS
 10
-8.5098158304
 20
-37.8086458198
 11
-8.485664392
 21
-37.7792815348
  0
LINE
  5
93D
100
AcDbEntity
  8
RACCORDO
100
AcDbLine
 62
7
  6
CONTINUOUS
 10
9.0357742079
 20
1.7847178167
 11
9.0283095107
 21
1.7759132959
  0
LINE
  5
93E
100
AcDbEntity
  8
RACCORDO
100
AcDbLine
 62
7
  6
CONTINUOUS
 10
8.4518603395
 20
1.6712744657
 11
8.4756599419
 21
1.6969162352
  0
LINE
  5
93F
100
AcDbEntity
  8
RACCORDO
100
AcDbLine
 62
7
  6
CONTINUOUS
 10
-9.3554303081
 20
-1.0607445717
 11
-9.3337715441
 21
-1.0383742472
  0
LINE
  5
940
100
AcDbEntity
  8
RACCORDO
100
AcDbLine
 62
7
  6
CONTINUOUS
 10
-9.9631077849
 20
-0.9175327201
 11
-9.9274422349
 21
-0.880842519
  0
LINE
  5
941
100
AcDbEntity
  8
RACCORDO
100
AcDbLine
 62
7
  6
CONTINUOUS
 10
-8.8262283782
 20
8.6457449126
 11
-8.802150978
 21
8.6687284875
  0
LINE
  5
942
100
AcDbEntity
  8
RACCORDO
100
AcDbLine
 62
7
  6
CONTINUOUS
 10
17.7212361871
 20
51.1463820074
 11
19.2685081734
 21
52.3900460849
  0
LINE
  5
943
100
AcDbEntity
  8
RACCORDO
100
AcDbLine
 62
7
  6
CONTINUOUS
 10
-9.5194255259
 20
46.1122841186
 11
-9.4737946189
 21
46.1428947619
  0
LINE
  5
944
100
AcDbEntity
  8
RACCORDO
100
AcDbLine
 62
7
  6
CONTINUOUS
 10
-8.9341835144
 20
45.92503436
 11
-8.9335651585
 21
45.925446189
  0
LINE
  5
945
100
AcDbEntity
  8
RACCORDO
100
AcDbLine
 62
7
  6
CONTINUOUS
 10
-9.1309809631
 20
45.5351617537
 11
-8.5812323347
 21
45.9004703076
  0
LINE
  5
946
100
AcDbEntity
  8
RACCORDO
100
AcDbLine
 62
7
  6
CONTINUOUS
 10
-9.1582875527
 20
45.5184345171
 11
-9.130978787
 21
45.5351517287
  0
LINE
  5
947
100
AcDbEntity
  8
RACCORDO
100
AcDbLine
 62
7
  6
CONTINUOUS
 10
-8.9341487485
 20
45.9250551307
 11
-8.921344109
 21
45.9327103437
  0
LINE
  5
948
100
AcDbEntity
  8
RACCORDO
100
AcDbLine
 62
7
  6
CONTINUOUS
 10
-14.4695043884
 20
64.7945257203
 11
-14.5085860098
 21
64.7740677324
  0
LINE
  5
949
100
AcDbEntity
  8
RACCORDO
100
AcDbLine
 62
7
  6
CONTINUOUS
 10
9.2741755582
 20
38.4436449072
 11
9.257145535
 21
38.4401774836
  0
LINE
  5
94A
100
AcDbEntity
  8
RACCORDO
100
AcDbLine
 62
7
  6
CONTINUOUS
 10
-9.3689029292
 20
45.4504366427
 11
-9.3294525458
 21
45.4574896421
  0
LINE
  5
94B
100
AcDbEntity
  8
RACCORDO
100
AcDbLine
 62
7
  6
CONTINUOUS
 10
-9.2652354145
 20
46.2256005442
 11
-9.2075429734
 21
46.2357817681
  0
LINE
  5
94C
100
AcDbEntity
  8
RACCORDO
100
AcDbLine
 62
7
  6
CONTINUOUS
 10
-8.8720184706
 20
45.9498681506
 11
-8.8504543102
 21
45.9533816354
  0
LINE
  5
94D
100
AcDbEntity
  8
RACCORDO
100
AcDbLine
 62
7
  6
CONTINUOUS
 10
17.6311259679
 20
51.1246581676
 11
17.6565311791
 21
51.1282335045
  0
LINE
  5
94E
100
AcDbEntity
  8
RACCORDO
100
AcDbLine
 62
7
  6
CONTINUOUS
 10
-9.4094634514
 20
45.4452420291
 11
-9.3689029292
 21
45.4504366427
  0
LINE
  5
94F
100
AcDbEntity
  8
RACCORDO
100
AcDbLine
 62
7
  6
CONTINUOUS
 10
-14.2806810993
 20
64.5173256782
 11
-14.3133045576
 21
64.5156928634
  0
LINE
  5
950
100
AcDbEntity
  8
RACCORDO
100
AcDbLine
 62
7
  6
CONTINUOUS
 10
-14.2078456039
 20
64.8522484713
 11
-14.2539453329
 21
64.8505160995
  0
LINE
  5
951
100
AcDbEntity
  8
RACCORDO
100
AcDbLine
 62
7
  6
CONTINUOUS
 10
-11.5358820547
 20
65.9973581486
 11
-11.4115599717
 21
66.0013707821
  0
LINE
  5
952
100
AcDbEntity
  8
RACCORDO
100
AcDbLine
 62
7
  6
CONTINUOUS
 10
-11.555805774
 20
66.0332528146
 11
-11.7140812056
 21
66.0281961337
  0
LINE
  5
953
100
AcDbEntity
  8
RACCORDO
100
AcDbLine
 62
7
  6
CONTINUOUS
 10
17.657093882
 20
-61.2007424095
 11
17.6750082184
 21
-61.1712723581
  0
LINE
  5
954
100
AcDbEntity
  8
0
100
AcDbLine
 62
7
  6
CONTINUOUS
 10
3.9870775712
 20
-46.422421464
 11
3.9792958635
 21
-46.4332913256
  0
LINE
  5
955
100
AcDbEntity
  8
RACCORDO
100
AcDbLine
 62
7
  6
CONTINUOUS
 10
9.2703840692
 20
-44.6829948091
 11
9.2895932261
 21
-44.6562722947
  0
LINE
  5
956
100
AcDbEntity
  8
0
100
AcDbLine
 62
7
  6
CONTINUOUS
 10
4.2822015708
 20
-46.805903625
 11
4.2916458001
 21
-46.7928960356
  0
LINE
  5
957
100
AcDbEntity
  8
RACCORDO
100
AcDbLine
 62
7
  6
CONTINUOUS
 10
9.4597735282
 20
-45.1464744451
 11
9.4320447467
 21
-45.1840455679
  0
LINE
  5
958
100
AcDbEntity
  8
RACCORDO
100
AcDbLine
 62
7
  6
CONTINUOUS
 10
8.7176155986
 20
-44.7687822221
 11
8.741089028
 21
-44.7369981504
  0
LINE
  5
959
100
AcDbEntity
  8
RACCORDO
100
AcDbLine
 62
7
  6
CONTINUOUS
 10
9.1171365716
 20
1.2108948135
 11
9.0814710216
 21
1.1742046124
  0
LINE
  5
95A
100
AcDbEntity
  8
RACCORDO
100
AcDbLine
 62
7
  6
CONTINUOUS
 10
9.0283095107
 20
1.7759132959
 11
9.0262303118
 21
1.7738079121
  0
LINE
  5
95B
100
AcDbEntity
  8
RACCORDO
100
AcDbLine
 62
7
  6
CONTINUOUS
 10
8.4997668896
 20
1.7198882092
 11
9.0781851178
 21
2.2976426315
  0
LINE
  5
95C
100
AcDbEntity
  8
RACCORDO
100
AcDbLine
 62
7
  6
CONTINUOUS
 10
9.0268255614
 20
1.7744008624
 11
9.0262337882
 21
1.7738113777
  0
LINE
  5
95D
100
AcDbEntity
  8
RACCORDO
100
AcDbLine
 62
7
  6
CONTINUOUS
 10
9.0262337882
 20
1.7738113777
 11
9.0194334189
 21
1.7672246715
  0
LINE
  5
95E
100
AcDbEntity
  8
RACCORDO
100
AcDbLine
 62
7
  6
CONTINUOUS
 10
8.4756599419
 20
1.6969162352
 11
8.4997375298
 21
1.7199000008
  0
LINE
  5
95F
100
AcDbEntity
  8
RACCORDO
100
AcDbLine
 62
7
  6
CONTINUOUS
 10
-9.9274422349
 20
-0.880842519
 11
-9.8891092401
 21
-0.8476423722
  0
LINE
  5
960
100
AcDbEntity
  8
RACCORDO
100
AcDbLine
 62
7
  6
CONTINUOUS
 10
-9.3337715441
 20
-1.0383742472
 11
-9.3103012027
 21
-1.0180507845
  0
LINE
  5
961
100
AcDbEntity
  8
RACCORDO
100
AcDbLine
 62
7
  6
CONTINUOUS
 10
-8.165437807
 20
10.6246694001
 11
-7.3192468669
 21
11.3178284386
  0
LINE
  5
962
100
AcDbEntity
  8
RACCORDO
100
AcDbLine
 62
7
  6
CONTINUOUS
 10
-7.5101161716
 20
9.706155822
 11
-6.7022990548
 21
10.3678808646
  0
LINE
  5
963
100
AcDbEntity
  8
RACCORDO
100
AcDbLine
 62
7
  6
CONTINUOUS
 10
-9.4565745179
 20
9.5859539148
 11
-8.165437807
 21
10.6237713046
  0
LINE
  5
964
100
AcDbEntity
  8
RACCORDO
100
AcDbLine
 62
7
  6
CONTINUOUS
 10
-8.8021559753
 20
8.6687304945
 11
-7.5110142671
 21
9.7065165174
  0
LINE
  5
965
100
AcDbEntity
  8
RACCORDO
100
AcDbLine
 62
7
  6
CONTINUOUS
 10
-9.0013981536
 20
45.8786890197
 11
-8.9749159779
 21
45.8939915415
  0
LINE
  5
966
100
AcDbEntity
  8
RACCORDO
100
AcDbLine
 62
7
  6
CONTINUOUS
 10
-9.4737946189
 20
46.1428947619
 11
-9.4255570469
 21
46.1695340527
  0
LINE
  5
967
100
AcDbEntity
  8
RACCORDO
100
AcDbLine
 62
7
  6
CONTINUOUS
 10
-14.438503651
 20
64.485935289
 11
-14.4678225802
 21
64.4727923724
  0
LINE
  5
968
100
AcDbEntity
  8
RACCORDO
100
AcDbLine
 62
7
  6
CONTINUOUS
 10
-14.4289030196
 20
64.8119461844
 11
-14.4695043884
 21
64.7945257203
  0
LINE
  5
969
100
AcDbEntity
  8
RACCORDO
100
AcDbLine
 62
7
  6
CONTINUOUS
 10
-12.2290182044
 20
65.8581921982
 11
-12.2104449635
 21
65.8652526623
  0
LINE
  5
96A
100
AcDbEntity
  8
RACCORDO
100
AcDbLine
 62
7
  6
CONTINUOUS
 10
9.293946581
 20
38.4488785682
 11
9.2741755582
 21
38.4436449072
  0
LINE
  5
96B
100
AcDbEntity
  8
RACCORDO
100
AcDbLine
 62
7
  6
CONTINUOUS
 10
-9.3294525458
 20
45.4574896421
 11
-9.2913928981
 21
45.4663508617
  0
LINE
  5
96C
100
AcDbEntity
  8
RACCORDO
100
AcDbLine
 62
7
  6
CONTINUOUS
 10
17.6565311791
 20
51.1282335045
 11
17.6801753417
 21
51.1330815462
  0
LINE
  5
96D
100
AcDbEntity
  8
RACCORDO
100
AcDbLine
 62
7
  6
CONTINUOUS
 10
-9.0918833283
 20
45.8509712464
 11
-9.0600932777
 21
45.8571011017
  0
LINE
  5
96E
100
AcDbEntity
  8
RACCORDO
100
AcDbLine
 62
7
  6
CONTINUOUS
 10
-14.3133045576
 20
64.5156928634
 11
-14.345618099
 21
64.511731495
  0
LINE
  5
96F
100
AcDbEntity
  8
RACCORDO
100
AcDbLine
 62
7
  6
CONTINUOUS
 10
-14.2539453329
 20
64.8505160995
 11
-14.2992879473
 21
64.8456005545
  0
LINE
  5
970
100
AcDbEntity
  8
RACCORDO
100
AcDbLine
 62
7
  6
CONTINUOUS
 10
-11.7992330339
 20
66.0220175237
 11
-11.9055450887
 21
66.0107469999
  0
LINE
  5
971
100
AcDbEntity
  8
RACCORDO
100
AcDbLine
 62
7
  6
CONTINUOUS
 10
-11.6623744532
 20
65.9876533922
 11
-11.5358820547
 21
65.9973581486
  0
LINE
  5
972
100
AcDbEntity
  8
RACCORDO
100
AcDbLine
 62
7
  6
CONTINUOUS
 10
-11.7140812056
 20
66.0281961337
 11
-11.7991007062
 21
66.0220289731
  0
LINE
  5
973
100
AcDbEntity
  8
RACCORDO
100
AcDbLine
 62
7
  6
CONTINUOUS
 10
17.2776569869
 20
-61.1931789749
 11
17.2902872765
 21
-61.1752146732
  0
LINE
  5
974
100
AcDbEntity
  8
0
100
AcDbLine
 62
7
  6
CONTINUOUS
 10
4.2724463643
 20
-46.8178844653
 11
4.2822015708
 21
-46.805903625
  0
LINE
  5
975
100
AcDbEntity
  8
RACCORDO
100
AcDbLine
 62
7
  6
CONTINUOUS
 10
9.3311152486
 20
-44.612593651
 11
9.3279505681
 21
-44.6164539392
  0
LINE
  5
976
100
AcDbEntity
  8
RACCORDO
100
AcDbLine
 62
7
  6
CONTINUOUS
 10
8.741089028
 20
-44.7369981504
 11
8.765240471
 21
-44.7076338579
  0
LINE
  5
977
100
AcDbEntity
  8
0
100
AcDbLine
 62
7
  6
CONTINUOUS
 10
3.8661370494
 20
-46.5250215211
 11
3.856861026
 21
-46.5361797702
  0
LINE
  5
978
100
AcDbEntity
  8
0
100
AcDbLine
 62
7
  6
CONTINUOUS
 10
3.9792958635
 20
-46.4332913256
 11
3.9708584466
 21
-46.4431404269
  0
LINE
  5
979
100
AcDbEntity
  8
RACCORDO
100
AcDbLine
 62
7
  6
CONTINUOUS
 10
-8.485664392
 20
-37.7792815348
 11
-8.4610194356
 21
-37.7525613446
  0
LINE
  5
97A
100
AcDbEntity
  8
RACCORDO
100
AcDbLine
 62
7
  6
CONTINUOUS
 10
9.0814710216
 20
1.1742046124
 11
9.0431380268
 21
1.1410044656
  0
LINE
  5
97B
100
AcDbEntity
  8
RACCORDO
100
AcDbLine
 62
7
  6
CONTINUOUS
 10
9.0194334189
 20
1.7672246715
 11
8.9956742955
 21
1.7466646525
  0
LINE
  5
97C
100
AcDbEntity
  8
RACCORDO
100
AcDbLine
 62
7
  6
CONTINUOUS
 10
-9.483912666
 20
9.5675695838
 11
-9.4565745179
 21
9.5859832746
  0
LINE
  5
97D
100
AcDbEntity
  8
RACCORDO
100
AcDbLine
 62
7
  6
CONTINUOUS
 10
-9.1882044907
 20
45.5030920462
 11
-9.1582875527
 21
45.5184345171
  0
LINE
  5
97E
100
AcDbEntity
  8
RACCORDO
100
AcDbLine
 62
7
  6
CONTINUOUS
 10
-8.921344109
 20
45.9327103437
 11
-8.9070618741
 21
45.9393671891
  0
LINE
  5
97F
100
AcDbEntity
  8
RACCORDO
100
AcDbLine
 62
7
  6
CONTINUOUS
 10
-9.4255570469
 20
46.1695340527
 11
-9.3745140451
 21
46.1922954743
  0
LINE
  5
980
100
AcDbEntity
  8
RACCORDO
100
AcDbLine
 62
7
  6
CONTINUOUS
 10
-14.4082183971
 20
64.4968523459
 11
-14.438503651
 21
64.485935289
  0
LINE
  5
981
100
AcDbEntity
  8
RACCORDO
100
AcDbLine
 62
7
  6
CONTINUOUS
 10
-14.386908174
 20
64.8262949909
 11
-14.4289030196
 21
64.8119461844
  0
LINE
  5
982
100
AcDbEntity
  8
RACCORDO
100
AcDbLine
 62
7
  6
CONTINUOUS
 10
-12.2104449635
 20
65.8652526623
 11
-12.1249877373
 21
65.8938075088
  0
LINE
  5
983
100
AcDbEntity
  8
RACCORDO
100
AcDbLine
 62
7
  6
CONTINUOUS
 10
17.6801753417
 20
51.1330815462
 11
17.7018159521
 21
51.1391525692
  0
LINE
  5
984
100
AcDbEntity
  8
RACCORDO
100
AcDbLine
 62
7
  6
CONTINUOUS
 10
-9.3208704807
 20
46.2110809739
 11
-9.2652354145
 21
46.2256005442
  0
LINE
  5
985
100
AcDbEntity
  8
RACCORDO
100
AcDbLine
 62
7
  6
CONTINUOUS
 10
-8.8907265771
 20
45.945134453
 11
-8.8720184706
 21
45.9498681506
  0
LINE
  5
986
100
AcDbEntity
  8
RACCORDO
100
AcDbLine
 62
7
  6
CONTINUOUS
 10
-14.2992879473
 20
64.8456005545
 11
-14.3436626701
 21
64.8375213449
  0
LINE
  5
987
100
AcDbEntity
  8
RACCORDO
100
AcDbLine
 62
7
  6
CONTINUOUS
 10
-11.8545255987
 20
65.9602318763
 11
-11.759591271
 21
65.9756819776
  0
LINE
  5
988
100
AcDbEntity
  8
RACCORDO
100
AcDbLine
 62
7
  6
CONTINUOUS
 10
-11.9055450887
 20
66.0107469999
 11
-12.0670579302
 21
65.9856783854
  0
LINE
  5
989
100
AcDbEntity
  8
RACCORDO
100
AcDbLine
 62
7
  6
CONTINUOUS
 10
-11.759591271
 20
65.9756819776
 11
-11.6623744532
 21
65.9876533922
  0
LINE
  5
98A
100
AcDbEntity
  8
RACCORDO
100
AcDbLine
 62
7
  6
CONTINUOUS
 10
17.636669128
 20
-61.2278675263
 11
17.657093882
 21
-61.2007424095
  0
LINE
  5
98B
100
AcDbEntity
  8
RACCORDO
100
AcDbLine
 62
7
  6
CONTINUOUS
 10
9.4320447467
 20
-45.1840455679
 11
9.4015157393
 21
-45.218718039
  0
LINE
  5
98C
100
AcDbEntity
  8
RACCORDO
100
AcDbLine
 62
7
  6
CONTINUOUS
 10
9.2895932261
 20
-44.6562722947
 11
9.3114323013
 21
-44.6319923651
  0
LINE
  5
98D
100
AcDbEntity
  8
0
100
AcDbLine
 62
7
  6
CONTINUOUS
 10
4.2623698058
 20
-46.8288264657
 11
4.2724463643
 21
-46.8178844653
  0
LINE
  5
98E
100
AcDbEntity
  8
RACCORDO
100
AcDbLine
 62
7
  6
CONTINUOUS
 10
8.765240471
 20
-44.7076338579
 11
8.7898854328
 21
-44.6809136609
  0
LINE
  5
98F
100
AcDbEntity
  8
RACCORDO
100
AcDbLine
 62
7
  6
CONTINUOUS
 10
-8.4610194356
 20
-37.7525613446
 11
-8.4360692257
 21
-37.7286893666
  0
LINE
  5
990
100
AcDbEntity
  8
RACCORDO
100
AcDbLine
 62
7
  6
CONTINUOUS
 10
-9.3103012027
 20
-1.0180507845
 11
-9.2865866556
 21
-1.000807066
  0
LINE
  5
991
100
AcDbEntity
  8
RACCORDO
100
AcDbLine
 62
7
  6
CONTINUOUS
 10
-9.8891092401
 20
-0.8476423722
 11
-9.8481529205
 21
-0.8179856031
  0
LINE
  5
992
100
AcDbEntity
  8
RACCORDO
100
AcDbLine
 62
7
  6
CONTINUOUS
 10
-9.4839124413
 20
-1.3912872974
 11
-9.4565745179
 21
-1.3728737456
  0
LINE
  5
993
100
AcDbEntity
  8
RACCORDO
100
AcDbLine
 62
7
  6
CONTINUOUS
 10
-9.2865866556
 20
-1.000807066
 11
-9.2861657152
 21
-1.0005269791
  0
LINE
  5
994
100
AcDbEntity
  8
RACCORDO
100
AcDbLine
 62
7
  6
CONTINUOUS
 10
-9.4565745179
 20
-1.3728687483
 11
-8.9473133889
 21
-1.0344615343
  0
LINE
  5
995
100
AcDbEntity
  8
RACCORDO
100
AcDbLine
 62
7
  6
CONTINUOUS
 10
-9.0298589401
 20
45.8663626025
 11
-9.0013981536
 21
45.8786890197
  0
LINE
  5
996
100
AcDbEntity
  8
RACCORDO
100
AcDbLine
 62
7
  6
CONTINUOUS
 10
-9.2205168122
 20
45.4892334416
 11
-9.1882044907
 21
45.5030920462
  0
LINE
  5
997
100
AcDbEntity
  8
RACCORDO
100
AcDbLine
 62
7
  6
CONTINUOUS
 10
-12.1249877373
 20
65.8938075088
 11
-12.0372723811
 21
65.9192129644
  0
LINE
  5
998
100
AcDbEntity
  8
RACCORDO
100
AcDbLine
 62
7
  6
CONTINUOUS
 10
-12.0372723811
 20
65.9192129644
 11
-11.9471265268
 21
65.9413833172
  0
LINE
  5
999
100
AcDbEntity
  8
RACCORDO
100
AcDbLine
 62
7
  6
CONTINUOUS
 10
-12.0670579302
 20
65.9856783854
 11
-12.2229310861
 21
65.951781101
  0
LINE
  5
99A
100
AcDbEntity
  8
RACCORDO
100
AcDbLine
 62
7
  6
CONTINUOUS
 10
-11.9471265268
 20
65.9413833172
 11
-11.8545255987
 21
65.9602318763
  0
LINE
  5
99B
100
AcDbEntity
  8
RACCORDO
100
AcDbLine
 62
7
  6
CONTINUOUS
 10
-14.345618099
 20
64.511731495
 11
-14.3772631986
 21
64.5054587219
  0
LINE
  5
99C
100
AcDbEntity
  8
RACCORDO
100
AcDbLine
 62
7
  6
CONTINUOUS
 10
17.263182815
 20
-61.2095602323
 11
17.2776569869
 21
-61.1931789749
  0
LINE
  5
99D
100
AcDbEntity
  8
RACCORDO
100
AcDbLine
 62
7
  6
CONTINUOUS
 10
9.3279505681
 20
-44.6164539392
 11
9.3265699915
 21
-44.6178723252
  0
LINE
  5
99E
100
AcDbEntity
  8
RACCORDO
100
AcDbLine
 62
7
  6
CONTINUOUS
 10
8.8148672018
 20
-44.6570543492
 11
9.3481820337
 21
-44.1243416951
  0
LINE
  5
99F
100
AcDbEntity
  8
RACCORDO
100
AcDbLine
 62
7
  6
CONTINUOUS
 10
9.3267594395
 20
-44.6176870746
 11
9.3265387032
 21
-44.6179071731
  0
LINE
  5
9A0
100
AcDbEntity
  8
0
100
AcDbLine
 62
7
  6
CONTINUOUS
 10
4.2521094711
 20
-46.8388674903
 11
4.2623698058
 21
-46.8288264657
  0
LINE
  5
9A1
100
AcDbEntity
  8
0
100
AcDbLine
 62
7
  6
CONTINUOUS
 10
3.856861026
 20
-46.5361797702
 11
3.846554895
 21
-46.54623584
  0
LINE
  5
9A2
100
AcDbEntity
  8
0
100
AcDbLine
 62
7
  6
CONTINUOUS
 10
3.9708584466
 20
-46.4431404269
 11
3.9617281644
 21
-46.4519929602
  0
LINE
  5
9A3
100
AcDbEntity
  8
RACCORDO
100
AcDbLine
 62
7
  6
CONTINUOUS
 10
8.7898854328
 20
-44.6809136609
 11
8.8148356487
 21
-44.6570416768
  0
LINE
  5
9A4
100
AcDbEntity
  8
RACCORDO
100
AcDbLine
 62
7
  6
CONTINUOUS
 10
-9.0013986473
 20
-37.310197974
 11
-8.9749164853
 21
-37.2877828167
  0
LINE
  5
9A5
100
AcDbEntity
  8
RACCORDO
100
AcDbLine
 62
7
  6
CONTINUOUS
 10
-8.165437807
 20
-36.0669971243
 11
-7.3192468669
 21
-35.3738380859
  0
LINE
  5
9A6
100
AcDbEntity
  8
RACCORDO
100
AcDbLine
 62
7
  6
CONTINUOUS
 10
-7.5101161716
 20
-36.9855107024
 11
-6.7022990548
 21
-36.3237856598
  0
LINE
  5
9A7
100
AcDbEntity
  8
RACCORDO
100
AcDbLine
 62
7
  6
CONTINUOUS
 10
-9.0298594169
 20
-37.3332048263
 11
-9.0013986473
 21
-37.310197974
  0
LINE
  5
9A8
100
AcDbEntity
  8
RACCORDO
100
AcDbLine
 62
7
  6
CONTINUOUS
 10
9.0431380268
 20
1.1410044656
 11
9.0021817072
 21
1.1113476965
  0
LINE
  5
9A9
100
AcDbEntity
  8
RACCORDO
100
AcDbLine
 62
7
  6
CONTINUOUS
 10
8.9956742955
 20
1.7466646525
 11
8.9703718662
 21
1.7283456403
  0
LINE
  5
9AA
100
AcDbEntity
  8
RACCORDO
100
AcDbLine
 62
7
  6
CONTINUOUS
 10
-9.2865652715
 20
-1.0007947593
 11
-9.2800148341
 21
-0.9967827685
  0
LINE
  5
9AB
100
AcDbEntity
  8
RACCORDO
100
AcDbLine
 62
7
  6
CONTINUOUS
 10
-9.8481529205
 20
-0.8179856031
 11
-9.8045291561
 21
-0.7918188883
  0
LINE
  5
9AC
100
AcDbEntity
  8
RACCORDO
100
AcDbLine
 62
7
  6
CONTINUOUS
 10
-9.5138585449
 20
9.550542574
 11
-9.483912666
 21
9.5675695838
  0
LINE
  5
9AD
100
AcDbEntity
  8
RACCORDO
100
AcDbLine
 62
7
  6
CONTINUOUS
 10
17.7018159521
 20
51.1391525692
 11
17.721231056
 21
51.1463843068
  0
LINE
  5
9AE
100
AcDbEntity
  8
RACCORDO
100
AcDbLine
 62
7
  6
CONTINUOUS
 10
-9.254994691
 20
45.4769572748
 11
-9.2205168122
 21
45.4892334416
  0
LINE
  5
9AF
100
AcDbEntity
  8
RACCORDO
100
AcDbLine
 62
7
  6
CONTINUOUS
 10
-8.9070618741
 20
45.9393671891
 11
-8.8907265771
 21
45.945134453
  0
LINE
  5
9B0
100
AcDbEntity
  8
RACCORDO
100
AcDbLine
 62
7
  6
CONTINUOUS
 10
-9.3745140451
 20
46.1922954743
 11
-9.3208704807
 21
46.2110809739
  0
LINE
  5
9B1
100
AcDbEntity
  8
RACCORDO
100
AcDbLine
 62
7
  6
CONTINUOUS
 10
-9.0600932777
 20
45.8571011017
 11
-9.0298589401
 21
45.8663626025
  0
LINE
  5
9B2
100
AcDbEntity
  8
RACCORDO
100
AcDbLine
 62
7
  6
CONTINUOUS
 10
-12.2229310861
 20
65.951781101
 11
-12.3633019571
 21
65.9121235806
  0
LINE
  5
9B3
100
AcDbEntity
  8
RACCORDO
100
AcDbLine
 62
7
  6
CONTINUOUS
 10
-14.3772631986
 20
64.5054587219
 11
-14.4082183971
 21
64.4968523459
  0
LINE
  5
9B4
100
AcDbEntity
  8
RACCORDO
100
AcDbLine
 62
7
  6
CONTINUOUS
 10
-14.3436626701
 20
64.8375213449
 11
-14.386908174
 21
64.8262949909
  0
LINE
  5
9B5
100
AcDbEntity
  8
RACCORDO
100
AcDbLine
 62
7
  6
CONTINUOUS
 10
17.6138329243
 20
-61.252555224
 11
17.636669128
 21
-61.2278675263
  0
LINE
  5
9B6
100
AcDbEntity
  8
RACCORDO
100
AcDbLine
 62
7
  6
CONTINUOUS
 10
9.4015157393
 20
-45.218718039
 11
9.3681859891
 21
-45.250492318
  0
LINE
  5
9B7
100
AcDbEntity
  8
RACCORDO
100
AcDbLine
 62
7
  6
CONTINUOUS
 10
9.3265387032
 20
-44.6179071731
 11
9.3114358105
 21
-44.6319960804
  0
LINE
  5
9B8
100
AcDbEntity
  8
0
100
AcDbLine
 62
7
  6
CONTINUOUS
 10
4.2412586721
 20
-46.8483051459
 11
4.2521094711
 21
-46.8388674903
  0
LINE
  5
9B9
100
AcDbEntity
  8
0
100
AcDbLine
 62
7
  6
CONTINUOUS
 10
3.846554895
 20
-46.54623584
 11
3.8430234834
 21
-46.5492496694
  0
LINE
  5
9BA
100
AcDbEntity
  8
0
100
AcDbLine
 62
7
  6
CONTINUOUS
 10
3.9617281644
 20
-46.4519929602
 11
3.9583156844
 21
-46.4548848134
  0
LINE
  5
9BB
100
AcDbEntity
  8
0
100
AcDbLine
 62
7
  6
CONTINUOUS
 10
-3.2923988304
 20
-44.1550251375
 11
-3.407747486
 21
-44.2495132245
  0
LINE
  5
9BC
100
AcDbEntity
  8
0
100
AcDbLine
 62
7
  6
CONTINUOUS
 10
-3.4675899059
 20
-44.732348775
 11
-3.5830504366
 21
-44.8269285048
  0
LINE
  5
9BD
100
AcDbEntity
  8
0
100
AcDbLine
 62
7
  6
CONTINUOUS
 10
-2.1308795786
 20
-45.2692017779
 11
-2.2463401093
 21
-45.3637815076
  0
LINE
  5
9BE
100
AcDbEntity
  8
0
100
AcDbLine
 62
7
  6
CONTINUOUS
 10
-0.9431769197
 20
-44.3829736304
 11
-1.0584137246
 21
-44.4773700947
  0
LINE
  5
9BF
100
AcDbEntity
  8
0
100
AcDbLine
 62
7
  6
CONTINUOUS
 10
-1.3944512418
 20
-45.5649680003
 11
-1.5099117726
 21
-45.6595477301
  0
LINE
  5
9C0
100
AcDbEntity
  8
0
100
AcDbLine
 62
7
  6
CONTINUOUS
 10
-0.3124549647
 20
-45.0735173163
 11
-0.4277586721
 21
-45.167968584
  0
LINE
  5
9C1
100
AcDbEntity
  8
0
100
AcDbLine
 62
7
  6
CONTINUOUS
 10
0.255173062
 20
-44.86999137
 11
0.1399354089
 21
-44.9643885292
  0
LINE
  5
9C2
100
AcDbEntity
  8
RACCORDO
100
AcDbLine
 62
7
  6
CONTINUOUS
 10
-9.1309804182
 20
-36.8440044844
 11
-8.165437807
 21
-36.0678952199
  0
LINE
  5
9C3
100
AcDbEntity
  8
RACCORDO
100
AcDbLine
 62
7
  6
CONTINUOUS
 10
-8.4360760891
 20
-37.7286866101
 11
-7.5110142671
 21
-36.985150007
  0
LINE
  5
9C4
100
AcDbEntity
  8
RACCORDO
100
AcDbLine
 62
7
  6
CONTINUOUS
 10
-9.0600937352
 20
-37.3566376103
 11
-9.0298594169
 21
-37.3332048263
  0
LINE
  5
9C5
100
AcDbEntity
  8
RACCORDO
100
AcDbLine
 62
7
  6
CONTINUOUS
 10
-9.0918837648
 20
-37.3803274933
 11
-9.0600937352
 21
-37.3566376103
  0
LINE
  5
9C6
100
AcDbEntity
  8
RACCORDO
100
AcDbLine
 62
7
  6
CONTINUOUS
 10
-9.1582899799
 20
-36.8640450508
 11
-9.1309812276
 21
-36.8439783379
  0
LINE
  5
9C7
100
AcDbEntity
  8
RACCORDO
100
AcDbLine
 62
7
  6
CONTINUOUS
 10
8.9703718662
 20
1.7283456403
 11
8.9435930047
 21
1.7122866878
  0
LINE
  5
9C8
100
AcDbEntity
  8
RACCORDO
100
AcDbLine
 62
7
  6
CONTINUOUS
 10
9.0021817072
 20
1.1113476965
 11
8.9585579428
 21
1.0851809816
  0
LINE
  5
9C9
100
AcDbEntity
  8
RACCORDO
100
AcDbLine
 62
7
  6
CONTINUOUS
 10
-9.5138580751
 20
-1.4083142006
 11
-9.4839124413
 21
-1.3912872974
  0
LINE
  5
9CA
100
AcDbEntity
  8
RACCORDO
100
AcDbLine
 62
7
  6
CONTINUOUS
 10
-9.5461991802
 20
9.5350233413
 11
-9.5138585449
 21
9.550542574
  0
LINE
  5
9CB
100
AcDbEntity
  8
RACCORDO
100
AcDbLine
 62
7
  6
CONTINUOUS
 10
9.3681886999
 20
38.4747379835
 11
9.3411231045
 21
38.464481315
  0
LINE
  5
9CC
100
AcDbEntity
  8
RACCORDO
100
AcDbLine
 62
7
  6
CONTINUOUS
 10
9.3411231045
 20
38.464481315
 11
9.3163161538
 21
38.4558407582
  0
LINE
  5
9CD
100
AcDbEntity
  8
RACCORDO
100
AcDbLine
 62
7
  6
CONTINUOUS
 10
-9.2913928981
 20
45.4663508617
 11
-9.254994691
 21
45.4769572748
  0
LINE
  5
9CE
100
AcDbEntity
  8
RACCORDO
100
AcDbLine
 62
7
  6
CONTINUOUS
 10
17.7018208083
 20
-60.8826160447
 11
17.7212361871
 21
-60.8642071486
  0
LINE
  5
9CF
100
AcDbEntity
  8
0
100
AcDbLine
 62
7
  6
CONTINUOUS
 10
-0.2715699068
 20
-46.0159424592
 11
-0.3870304375
 21
-46.110522189
  0
LINE
  5
9D0
100
AcDbEntity
  8
0
100
AcDbLine
 62
7
  6
CONTINUOUS
 10
0.4631218276
 20
-46.311011223
 11
0.3476612969
 21
-46.4055909528
  0
LINE
  5
9D1
100
AcDbEntity
  8
0
100
AcDbLine
 62
7
  6
CONTINUOUS
 10
1.8275374225
 20
-45.3434589821
 11
1.7123228717
 21
-45.4378372169
  0
LINE
  5
9D2
100
AcDbEntity
  8
0
100
AcDbLine
 62
7
  6
CONTINUOUS
 10
1.0066079111
 20
-46.5292874867
 11
0.8911473804
 21
-46.6238672165
  0
LINE
  5
9D3
100
AcDbEntity
  8
0
100
AcDbLine
 62
7
  6
CONTINUOUS
 10
1.5765102967
 20
-46.3439373219
 11
1.4611225007
 21
-46.4384574709
  0
LINE
  5
9D4
100
AcDbEntity
  8
0
100
AcDbLine
 62
7
  6
CONTINUOUS
 10
2.1063965729
 20
-46.2346778278
 11
1.9910624316
 21
-46.3291540255
  0
LINE
  5
9D5
100
AcDbEntity
  8
0
100
AcDbLine
 62
7
  6
CONTINUOUS
 10
2.2284463767
 20
-46.6057695492
 11
2.1130585807
 21
-46.7002896982
  0
LINE
  5
9D6
100
AcDbEntity
  8
0
100
AcDbLine
 62
7
  6
CONTINUOUS
 10
3.3578184882
 20
-45.7374234886
 11
3.2426352278
 21
-45.8317760918
  0
LINE
  5
9D7
100
AcDbEntity
  8
0
100
AcDbLine
 62
7
  6
CONTINUOUS
 10
3.7319968985
 20
-45.8752451912
 11
3.616815371
 21
-45.969596375
  0
LINE
  5
9D8
100
AcDbEntity
  8
0
100
AcDbLine
 62
7
  6
CONTINUOUS
 10
2.3881782808
 20
-47.084157294
 11
2.2727177501
 21
-47.1787370238
  0
LINE
  5
9D9
100
AcDbEntity
  8
0
100
AcDbLine
 62
7
  6
CONTINUOUS
 10
3.4418067763
 20
-46.6931815231
 11
3.3264852252
 21
-46.7876474074
  0
LINE
  5
9DA
100
AcDbEntity
  8
0
100
AcDbLine
 62
7
  6
CONTINUOUS
 10
4.0209399789
 20
-46.2557496043
 11
3.9057208879
 21
-46.3501315582
  0
LINE
  5
9DB
100
AcDbEntity
  8
0
100
AcDbLine
 62
7
  6
CONTINUOUS
 10
3.8430477696
 20
-46.5492765007
 11
3.9582999835
 21
-46.454867414
  0
LINE
  5
9DC
100
AcDbEntity
  8
0
100
AcDbLine
 62
7
  6
CONTINUOUS
 10
3.6984844794
 20
-46.7962690753
 11
3.5831629283
 21
-46.8907349597
  0
LINE
  5
9DD
100
AcDbEntity
  8
0
100
AcDbLine
 62
7
  6
CONTINUOUS
 10
3.0333037921
 20
-47.3432545052
 11
2.9178432613
 21
-47.4378342351
  0
LINE
  5
9DE
100
AcDbEntity
  8
0
100
AcDbLine
 62
7
  6
CONTINUOUS
 10
4.182466446
 20
-46.8203171372
 11
4.0671719451
 21
-46.9147608633
  0
LINE
  5
9DF
100
AcDbEntity
  8
0
100
AcDbLine
 62
7
  6
CONTINUOUS
 10
3.9801968334
 20
-47.0932047215
 11
3.8648453156
 21
-47.1876951531
  0
LINE
  5
9E0
100
AcDbEntity
  8
0
100
AcDbLine
 62
7
  6
CONTINUOUS
 10
4.2431887562
 20
-47.8291715831
 11
4.1277282255
 21
-47.9237513129
  0
LINE
  5
9E1
100
AcDbEntity
  8
RACCORDO
100
AcDbLine
 62
7
  6
CONTINUOUS
 10
9.3681859891
 20
-45.250492318
 11
9.328687674
 21
-45.2821862778
  0
LINE
  5
9E2
100
AcDbEntity
  8
RACCORDO
100
AcDbLine
 62
7
  6
CONTINUOUS
 10
9.3114358105
 20
-44.6319960804
 11
9.2877298095
 21
-44.6507601378
  0
LINE
  5
9E3
100
AcDbEntity
  8
0
100
AcDbLine
 62
7
  6
CONTINUOUS
 10
4.2310200578
 20
-46.8561938881
 11
4.2412586721
 21
-46.8483051459
  0
LINE
  5
9E4
100
AcDbEntity
  8
RACCORDO
100
AcDbLine
 62
7
  6
CONTINUOUS
 10
-9.1250004598
 20
-37.4041037906
 11
-9.0918837648
 21
-37.3803274933
  0
LINE
  5
9E5
100
AcDbEntity
  8
RACCORDO
100
AcDbLine
 62
7
  6
CONTINUOUS
 10
-9.1592052153
 20
-37.427795195
 11
-9.1250004598
 21
-37.4041037906
  0
LINE
  5
9E6
100
AcDbEntity
  8
RACCORDO
100
AcDbLine
 62
7
  6
CONTINUOUS
 10
-9.1942515873
 20
-37.4512310104
 11
-9.1592052153
 21
-37.427795195
  0
LINE
  5
9E7
100
AcDbEntity
  8
RACCORDO
100
AcDbLine
 62
7
  6
CONTINUOUS
 10
-9.2800148341
 20
-0.9967827685
 11
-9.271292981
 21
-0.9924355438
  0
LINE
  5
9E8
100
AcDbEntity
  8
RACCORDO
100
AcDbLine
 62
7
  6
CONTINUOUS
 10
-9.8045291561
 20
-0.7918188883
 11
-9.7585314267
 21
-0.769297557
  0
LINE
  5
9E9
100
AcDbEntity
  8
RACCORDO
100
AcDbLine
 62
7
  6
CONTINUOUS
 10
8.9585579428
 20
1.0851809816
 11
8.9125602134
 21
1.0626596504
  0
LINE
  5
9EA
100
AcDbEntity
  8
RACCORDO
100
AcDbLine
 62
7
  6
CONTINUOUS
 10
8.9435930047
 20
1.7122866878
 11
8.9153305504
 21
1.6984789984
  0
LINE
  5
9EB
100
AcDbEntity
  8
RACCORDO
100
AcDbLine
 62
7
  6
CONTINUOUS
 10
-9.546198454
 20
-1.4238333592
 11
-9.5138580751
 21
-1.4083142006
  0
LINE
  5
9EC
100
AcDbEntity
  8
RACCORDO
100
AcDbLine
 62
7
  6
CONTINUOUS
 10
-9.5807045657
 20
9.521122258
 11
-9.5461991802
 21
9.5350233413
  0
LINE
  5
9ED
100
AcDbEntity
  8
RACCORDO
100
AcDbLine
 62
7
  6
CONTINUOUS
 10
9.3163161538
 20
38.4558407582
 11
9.293946581
 21
38.4488785682
  0
LINE
  5
9EE
100
AcDbEntity
  8
RACCORDO
100
AcDbLine
 62
7
  6
CONTINUOUS
 10
17.2470344375
 20
-61.2242102687
 11
17.263182815
 21
-61.2095602323
  0
LINE
  5
9EF
100
AcDbEntity
  8
RACCORDO
100
AcDbLine
 62
7
  6
CONTINUOUS
 10
17.588636422
 20
-61.2747567081
 11
17.6138329243
 21
-61.252555224
  0
LINE
  5
9F0
100
AcDbEntity
  8
0
100
AcDbLine
 62
7
  6
CONTINUOUS
 10
3.8430234834
 20
-46.5492496694
 11
3.8352335006
 21
-46.5551855681
  0
LINE
  5
9F1
100
AcDbEntity
  8
0
100
AcDbLine
 62
7
  6
CONTINUOUS
 10
4.2203603365
 20
-46.8637254958
 11
4.2310200578
 21
-46.8561938881
  0
LINE
  5
9F2
100
AcDbEntity
  8
RACCORDO
100
AcDbLine
 62
7
  6
CONTINUOUS
 10
-9.2298870678
 20
-37.4742423829
 11
-9.1942515873
 21
-37.4512310104
  0
LINE
  5
9F3
100
AcDbEntity
  8
RACCORDO
100
AcDbLine
 62
7
  6
CONTINUOUS
 10
-9.1882068834
 20
-36.8827132129
 11
-9.1582899799
 21
-36.8640450508
  0
LINE
  5
9F4
100
AcDbEntity
  8
RACCORDO
100
AcDbLine
 62
7
  6
CONTINUOUS
 10
-9.2658549045
 20
-37.4966635161
 11
-9.2298870678
 21
-37.4742423829
  0
LINE
  5
9F5
100
AcDbEntity
  8
RACCORDO
100
AcDbLine
 62
7
  6
CONTINUOUS
 10
-9.3018959502
 20
-37.5183328667
 11
-9.2658549045
 21
-37.4966635161
  0
LINE
  5
9F6
100
AcDbEntity
  8
RACCORDO
100
AcDbLine
 62
7
  6
CONTINUOUS
 10
-9.5807035772
 20
-1.4377343985
 11
-9.546198454
 21
-1.4238333592
  0
LINE
  5
9F7
100
AcDbEntity
  8
RACCORDO
100
AcDbLine
 62
7
  6
CONTINUOUS
 10
-9.271292981
 20
-0.9924355438
 11
-9.2609332372
 21
-0.9883544743
  0
LINE
  5
9F8
100
AcDbEntity
  8
RACCORDO
100
AcDbLine
 62
7
  6
CONTINUOUS
 10
-9.7585314267
 20
-0.769297557
 11
-9.7101220288
 21
-0.7504057692
  0
LINE
  5
9F9
100
AcDbEntity
  8
RACCORDO
100
AcDbLine
 62
7
  6
CONTINUOUS
 10
-9.6171292998
 20
9.5089381884
 11
-9.5807045657
 21
9.521122258
  0
LINE
  5
9FA
100
AcDbEntity
  8
RACCORDO
100
AcDbLine
 62
7
  6
CONTINUOUS
 10
17.6801798704
 20
-60.8997495545
 11
17.7018208083
 21
-60.8826160447
  0
LINE
  5
9FB
100
AcDbEntity
  8
RACCORDO
100
AcDbLine
 62
7
  6
CONTINUOUS
 10
9.328687674
 20
-45.2821862778
 11
9.28641836
 21
-45.3100432653
  0
LINE
  5
9FC
100
AcDbEntity
  8
RACCORDO
100
AcDbLine
 62
7
  6
CONTINUOUS
 10
9.2877298095
 20
-44.6507601378
 11
9.2621844496
 21
-44.6672567367
  0
LINE
  5
9FD
100
AcDbEntity
  8
0
100
AcDbLine
 62
7
  6
CONTINUOUS
 10
4.2096812674
 20
-46.8705756261
 11
4.2203603365
 21
-46.8637254958
  0
LINE
  5
9FE
100
AcDbEntity
  8
RACCORDO
100
AcDbLine
 62
7
  6
CONTINUOUS
 10
-9.3377505303
 20
-37.5390943077
 11
-9.3018959502
 21
-37.5183328667
  0
LINE
  5
9FF
100
AcDbEntity
  8
RACCORDO
100
AcDbLine
 62
7
  6
CONTINUOUS
 10
-9.3731603139
 20
-37.5587982536
 11
-9.3377505303
 21
-37.5390943077
  0
LINE
  5
A00
100
AcDbEntity
  8
RACCORDO
100
AcDbLine
 62
7
  6
CONTINUOUS
 10
-9.4078701747
 20
-37.5773027382
 11
-9.3731603139
 21
-37.5587982536
  0
LINE
  5
A01
100
AcDbEntity
  8
RACCORDO
100
AcDbLine
 62
7
  6
CONTINUOUS
 10
-9.2205191525
 20
-36.8998500458
 11
-9.1882068834
 21
-36.8827132129
  0
LINE
  5
A02
100
AcDbEntity
  8
RACCORDO
100
AcDbLine
 62
7
  6
CONTINUOUS
 10
8.9125602134
 20
1.0626596504
 11
8.8641508156
 21
1.0437678626
  0
LINE
  5
A03
100
AcDbEntity
  8
RACCORDO
100
AcDbLine
 62
7
  6
CONTINUOUS
 10
8.9153305504
 20
1.6984789984
 11
8.8856501309
 21
1.6869702776
  0
LINE
  5
A04
100
AcDbEntity
  8
RACCORDO
100
AcDbLine
 62
7
  6
CONTINUOUS
 10
-9.6171280548
 20
-1.4499184546
 11
-9.5807035772
 21
-1.4377343985
  0
LINE
  5
A05
100
AcDbEntity
  8
RACCORDO
100
AcDbLine
 62
7
  6
CONTINUOUS
 10
17.5656420648
 20
-61.2914864909
 11
17.588636422
 21
-61.2747567081
  0
LINE
  5
A06
100
AcDbEntity
  8
RACCORDO
100
AcDbLine
 62
7
  6
CONTINUOUS
 10
17.2291970761
 20
-61.2371104468
 11
17.2470344375
 21
-61.2242102687
  0
LINE
  5
A07
100
AcDbEntity
  8
0
100
AcDbLine
 62
7
  6
CONTINUOUS
 10
3.8352335006
 20
-46.5551855681
 11
3.8228796532
 21
-46.5627535008
  0
LINE
  5
A08
100
AcDbEntity
  8
0
100
AcDbLine
 62
7
  6
CONTINUOUS
 10
4.1989789487
 20
-46.8767447713
 11
4.2096812674
 21
-46.8705756261
  0
LINE
  5
A09
100
AcDbEntity
  8
RACCORDO
100
AcDbLine
 62
7
  6
CONTINUOUS
 10
-9.4416300292
 20
-37.5944744373
 11
-9.4078701747
 21
-37.5773027382
  0
LINE
  5
A0A
100
AcDbEntity
  8
RACCORDO
100
AcDbLine
 62
7
  6
CONTINUOUS
 10
-9.4741966388
 20
-37.6101896294
 11
-9.4416300292
 21
-37.5944744373
  0
LINE
  5
A0B
100
AcDbEntity
  8
RACCORDO
100
AcDbLine
 62
7
  6
CONTINUOUS
 10
-9.2609332372
 20
-0.9883544743
 11
-9.2481942784
 21
-0.9845220467
  0
LINE
  5
A0C
100
AcDbEntity
  8
RACCORDO
100
AcDbLine
 62
7
  6
CONTINUOUS
 10
-9.7101220288
 20
-0.7504057692
 11
-9.659338666
 21
-0.7351593649
  0
LINE
  5
A0D
100
AcDbEntity
  8
RACCORDO
100
AcDbLine
 62
7
  6
CONTINUOUS
 10
8.8641508156
 20
1.0437678626
 11
8.8133674527
 21
1.0285214583
  0
LINE
  5
A0E
100
AcDbEntity
  8
RACCORDO
100
AcDbLine
 62
7
  6
CONTINUOUS
 10
8.8856501309
 20
1.6869702776
 11
8.8546676054
 21
1.6778206899
  0
LINE
  5
A0F
100
AcDbEntity
  8
RACCORDO
100
AcDbLine
 62
7
  6
CONTINUOUS
 10
17.7212361871
 20
-60.8642071486
 11
19.2685081734
 21
-59.8360292215
  0
LINE
  5
A10
100
AcDbEntity
  8
RACCORDO
100
AcDbLine
 62
7
  6
CONTINUOUS
 10
17.5655228292
 20
-61.2915657398
 11
19.0471139812
 21
-60.3070333961
  0
LINE
  5
A11
100
AcDbEntity
  8
RACCORDO
100
AcDbLine
 62
7
  6
CONTINUOUS
 10
17.6565353361
 20
-60.9154319462
 11
17.6801798704
 21
-60.8997495545
  0
LINE
  5
A12
100
AcDbEntity
  8
0
100
AcDbLine
 62
7
  6
CONTINUOUS
 10
4.18840423
 20
-46.8824524547
 11
4.1989789487
 21
-46.8767447713
  0
LINE
  5
A13
100
AcDbEntity
  8
RACCORDO
100
AcDbLine
 62
7
  6
CONTINUOUS
 10
9.28641836
 20
-45.3100432653
 11
9.2413746314
 21
-45.3340663127
  0
LINE
  5
A14
100
AcDbEntity
  8
RACCORDO
100
AcDbLine
 62
7
  6
CONTINUOUS
 10
9.2621844496
 20
-44.6672567367
 11
9.2348903474
 21
-44.6814111338
  0
LINE
  5
A15
100
AcDbEntity
  8
0
100
AcDbLine
 62
7
  6
CONTINUOUS
 10
4.1779802119
 20
-46.8877189582
 11
4.18840423
 21
-46.8824524547
  0
LINE
  5
A16
100
AcDbEntity
  8
RACCORDO
100
AcDbLine
 62
7
  6
CONTINUOUS
 10
-9.5053353622
 20
-37.6243350871
 11
-9.4741966388
 21
-37.6101896294
  0
LINE
  5
A17
100
AcDbEntity
  8
RACCORDO
100
AcDbLine
 62
7
  6
CONTINUOUS
 10
-9.2549969642
 20
-36.9153336629
 11
-9.2205191525
 21
-36.8998500458
  0
LINE
  5
A18
100
AcDbEntity
  8
RACCORDO
100
AcDbLine
 62
7
  6
CONTINUOUS
 10
-9.534821846
 20
-37.6368088929
 11
-9.5053353622
 21
-37.6243350871
  0
LINE
  5
A19
100
AcDbEntity
  8
RACCORDO
100
AcDbLine
 62
7
  6
CONTINUOUS
 10
17.5294358687
 20
-61.313441229
 11
17.5656834879
 21
-61.291456066
  0
LINE
  5
A1A
100
AcDbEntity
  8
RACCORDO
100
AcDbLine
 62
7
  6
CONTINUOUS
 10
17.2096837067
 20
-61.2482814805
 11
17.2291970761
 21
-61.2371104468
  0
LINE
  5
A1B
100
AcDbEntity
  8
RACCORDO
100
AcDbLine
 62
7
  6
CONTINUOUS
 10
17.6311297181
 20
-60.9295023716
 11
17.6565353361
 21
-60.9154319462
  0
LINE
  5
A1C
100
AcDbEntity
  8
0
100
AcDbLine
 62
7
  6
CONTINUOUS
 10
4.2839938788
 20
-46.7976227156
 11
4.2904178027
 21
-46.7945873632
  0
LINE
  5
A1D
100
AcDbEntity
  8
0
100
AcDbLine
 62
7
  6
CONTINUOUS
 10
4.1676834888
 20
-46.8925242926
 11
4.1779802119
 21
-46.8877189582
  0
LINE
  5
A1E
100
AcDbEntity
  8
0
100
AcDbLine
 62
7
  6
CONTINUOUS
 10
4.2752083239
 20
-46.8016044863
 11
4.2839938788
 21
-46.7976227156
  0
LINE
  5
A1F
100
AcDbEntity
  8
0
100
AcDbLine
 62
7
  6
CONTINUOUS
 10
3.8228796532
 20
-46.5627535008
 11
3.8094131415
 21
-46.5688273146
  0
LINE
  5
A20
100
AcDbEntity
  8
0
100
AcDbLine
 62
7
  6
CONTINUOUS
 10
4.1575952508
 20
-46.8970274801
 11
4.1676834888
 21
-46.8925242926
  0
LINE
  5
A21
100
AcDbEntity
  8
0
100
AcDbLine
 62
7
  6
CONTINUOUS
 10
4.1477988573
 20
-46.9013218477
 11
4.1575952508
 21
-46.8970274801
  0
LINE
  5
A22
100
AcDbEntity
  8
0
100
AcDbLine
 62
7
  6
CONTINUOUS
 10
4.2665732115
 20
-46.8053158952
 11
4.2752083239
 21
-46.8016044863
  0
LINE
  5
A23
100
AcDbEntity
  8
RACCORDO
100
AcDbLine
 62
7
  6
CONTINUOUS
 10
-9.562443641
 20
-37.6475211734
 11
-9.534821846
 21
-37.6368088929
  0
LINE
  5
A24
100
AcDbEntity
  8
RACCORDO
100
AcDbLine
 62
7
  6
CONTINUOUS
 10
-9.2913950932
 20
-36.9290539359
 11
-9.2549969642
 21
-36.9153336629
  0
LINE
  5
A25
100
AcDbEntity
  8
RACCORDO
100
AcDbLine
 62
7
  6
CONTINUOUS
 10
17.4896080891
 20
-61.3332463045
 11
17.5294358687
 21
-61.313441229
  0
LINE
  5
A26
100
AcDbEntity
  8
RACCORDO
100
AcDbLine
 62
7
  6
CONTINUOUS
 10
9.2413746314
 20
-45.3340663127
 11
9.1933637667
 21
-45.3543439529
  0
LINE
  5
A27
100
AcDbEntity
  8
0
100
AcDbLine
 62
7
  6
CONTINUOUS
 10
4.1382107591
 20
-46.9053142507
 11
4.1477988573
 21
-46.9013218477
  0
LINE
  5
A28
100
AcDbEntity
  8
0
100
AcDbLine
 62
7
  6
CONTINUOUS
 10
4.2498586256
 20
-46.812214541
 11
4.2665732115
 21
-46.8053158952
  0
LINE
  5
A29
100
AcDbEntity
  8
RACCORDO
100
AcDbLine
 62
7
  6
CONTINUOUS
 10
9.2348903474
 20
-44.6814111338
 11
9.2059532593
 21
-44.6931478211
  0
LINE
  5
A2A
100
AcDbEntity
  8
0
100
AcDbLine
 62
7
  6
CONTINUOUS
 10
4.2417790472
 20
-46.815401879
 11
4.2498586256
 21
-46.812214541
  0
LINE
  5
A2B
100
AcDbEntity
  8
0
100
AcDbLine
 62
7
  6
CONTINUOUS
 10
4.1286618119
 20
-46.9088839752
 11
4.1382107591
 21
-46.9053142507
  0
LINE
  5
A2C
100
AcDbEntity
  8
RACCORDO
100
AcDbLine
 62
7
  6
CONTINUOUS
 10
-9.3294546554
 20
-36.9409132786
 11
-9.2913950932
 21
-36.9290539359
  0
LINE
  5
A2D
100
AcDbEntity
  8
RACCORDO
100
AcDbLine
 62
7
  6
CONTINUOUS
 10
17.6042235922
 20
-60.9418165159
 11
17.6311297181
 21
-60.9295023716
  0
LINE
  5
A2E
100
AcDbEntity
  8
RACCORDO
100
AcDbLine
 62
7
  6
CONTINUOUS
 10
17.1887053675
 20
-61.2576345327
 11
17.2096837067
 21
-61.2482814805
  0
LINE
  5
A2F
100
AcDbEntity
  8
0
100
AcDbLine
 62
7
  6
CONTINUOUS
 10
4.1192686674
 20
-46.9122289924
 11
4.1286618119
 21
-46.9088839752
  0
LINE
  5
A30
100
AcDbEntity
  8
0
100
AcDbLine
 62
7
  6
CONTINUOUS
 10
4.2336295844
 20
-46.8181191879
 11
4.2417790472
 21
-46.815401879
  0
LINE
  5
A31
100
AcDbEntity
  8
RACCORDO
100
AcDbLine
 62
7
  6
CONTINUOUS
 10
9.1933637667
 20
-45.3543439529
 11
9.1425723849
 21
-45.3707930814
  0
LINE
  5
A32
100
AcDbEntity
  8
0
100
AcDbLine
 62
7
  6
CONTINUOUS
 10
3.8094131415
 20
-46.5688273146
 11
3.7949134434
 21
-46.5735200349
  0
LINE
  5
A33
100
AcDbEntity
  8
0
100
AcDbLine
 62
7
  6
CONTINUOUS
 10
4.1099144997
 20
-46.9151514988
 11
4.1192686674
 21
-46.9122289924
  0
LINE
  5
A34
100
AcDbEntity
  8
RACCORDO
100
AcDbLine
 62
7
  6
CONTINUOUS
 10
9.2059532593
 20
-44.6931478211
 11
9.1754706391
 21
-44.7024161178
  0
LINE
  5
A35
100
AcDbEntity
  8
RACCORDO
100
AcDbLine
 62
7
  6
CONTINUOUS
 10
17.4476734747
 20
-61.3498732311
 11
17.4896080891
 21
-61.3332463045
  0
LINE
  5
A36
100
AcDbEntity
  8
RACCORDO
100
AcDbLine
 62
7
  6
CONTINUOUS
 10
17.5760929241
 20
-60.9522480775
 11
17.6042235922
 21
-60.9418165159
  0
LINE
  5
A37
100
AcDbEntity
  8
RACCORDO
100
AcDbLine
 62
7
  6
CONTINUOUS
 10
17.1662519111
 20
-61.2651535833
 11
17.1887053675
 21
-61.2576345327
  0
LINE
  5
A38
100
AcDbEntity
  8
RACCORDO
100
AcDbLine
 62
7
  6
CONTINUOUS
 10
17.4037947455
 20
-61.3632138573
 11
17.4476734747
 21
-61.3498732311
  0
LINE
  5
A39
100
AcDbEntity
  8
RACCORDO
100
AcDbLine
 62
7
  6
CONTINUOUS
 10
17.5470262391
 20
-60.9606900641
 11
17.5760929241
 21
-60.9522480775
  0
ELLIPSE
  5
A3A
100
AcDbEntity
  8
0
100
AcDbEllipse
 62
7
  6
CONTINUOUS
 10
56.4708384089
 20
9.4594456986
 30
0.0
 11
58.515016777
 21
83.4360972511
 31
0.0
 40
0.2717691503
 41
-3.8563876457
 42
-3.8280903348
  0
ELLIPSE
  5
A3B
100
AcDbEntity
  8
0
100
AcDbEllipse
 62
7
  6
CONTINUOUS
 10
50.9540950564
 20
11.6750942011
 30
0.0
 11
9.4958777871
 21
101.6986704603
 31
0.0
 40
0.5957925234
 41
-4.0950502985
 42
-4.0755811102
  0
ELLIPSE
  5
A3C
100
AcDbEntity
  8
0
100
AcDbEllipse
 62
7
  6
CONTINUOUS
 10
56.2499115961
 20
9.5481748873
 30
0.0
 11
42.2834189539
 21
90.1389909083
 31
0.0
 40
0.4291503999
 41
-3.8856802943
 42
-3.8671937622
  0
ELLIPSE
  5
A3D
100
AcDbEntity
  8
0
100
AcDbEllipse
 62
7
  6
CONTINUOUS
 10
59.8681450298
 20
8.0950107692
 30
0.0
 11
62.0405007916
 21
82.0182398795
 31
0.0
 40
0.2345747957
 41
-3.8462145112
 42
-3.8278049817
  0
ELLIPSE
  5
A3E
100
AcDbEntity
  8
0
100
AcDbEllipse
 62
7
  6
CONTINUOUS
 10
56.6179727871
 20
9.4003532153
 30
0.0
 11
29.0693363283
 21
95.3699533657
 31
0.0
 40
0.5206641814
 41
-3.9647312316
 42
-3.9364339207
  0
ELLIPSE
  5
A3F
100
AcDbEntity
  8
0
100
AcDbEllipse
 62
7
  6
CONTINUOUS
 10
53.2601745704
 20
10.7489206789
 30
0.0
 11
-2.6564645853
 21
104.61637191
 31
0.0
 40
0.6167948333
 41
-4.1799183256
 42
-4.1642174835
  0
ELLIPSE
  5
A40
100
AcDbEntity
  8
0
100
AcDbEllipse
 62
7
  6
CONTINUOUS
 10
60.6173449419
 20
7.7941151942
 30
0.0
 11
56.0485515912
 21
84.4396591737
 31
0.0
 40
0.2976329329
 41
-3.8505587741
 42
-3.840058756
  0
ELLIPSE
  5
A41
100
AcDbEntity
  8
0
100
AcDbEllipse
 62
7
  6
CONTINUOUS
 10
60.6928415965
 20
7.7637940356
 30
0.0
 11
56.5565358717
 21
84.2322087213
 31
0.0
 40
0.2923306813
 41
-3.8351659577
 42
-3.8295102433
  0
ELLIPSE
  5
A42
100
AcDbEntity
  8
0
100
AcDbEllipse
 62
7
  6
CONTINUOUS
 10
56.6103741082
 20
9.403405016
 30
0.0
 11
5.7962275166
 21
102.6663012325
 31
0.0
 40
0.6038719062
 41
-4.1209109439
 42
-4.092613633
  0
ELLIPSE
  5
A43
100
AcDbEntity
  8
RACCORDO
100
AcDbEllipse
 62
7
  6
CONTINUOUS
 10
18.448231969
 20
-59.5043410257
 30
0.0
 11
-0.6349013301
 21
0.7761056187
 31
0.0
 40
0.6692102709
 41
-3.2081800181
 42
-2.4559451104
  0
ELLIPSE
  5
A44
100
AcDbEntity
  8
RACCORDO
100
AcDbEllipse
 62
7
  6
CONTINUOUS
 10
18.448231969
 20
52.7172407218
 30
0.0
 11
-0.6342170824
 21
0.7731899447
 31
0.0
 40
0.6728141967
 41
-2.454628732
 42
-0.886571461
  0
ELLIPSE
  5
A45
100
AcDbEntity
  8
RACCORDO
100
AcDbEllipse
 62
7
  6
CONTINUOUS
 10
-12.6772973939
 20
65.2179550226
 30
0.0
 11
-0.6349013301
 21
0.7761056187
 31
0.0
 40
0.6692102709
 41
-0.8824097279
 42
0.066583138
  0
ELLIPSE
  5
A46
100
AcDbEntity
  8
0
100
AcDbEllipse
 62
7
  6
CONTINUOUS
 10
50.1559554005
 20
11.9956450805
 30
0.0
 11
4.5065306361
 21
102.9868388874
 31
0.0
 40
0.6063216071
 41
-4.129937351
 42
-4.1016400401
  0
ELLIPSE
  5
A47
100
AcDbEntity
  8
0
100
AcDbEllipse
 62
7
  6
CONTINUOUS
 10
56.4377311839
 20
9.4727423066
 30
0.0
 11
10.2096607785
 21
101.2938250659
 31
0.0
 40
0.5939940715
 41
-4.0670704057
 42
-4.0614031511
  0
ELLIPSE
  5
A48
100
AcDbEntity
  8
0
100
AcDbEllipse
 62
7
  6
CONTINUOUS
 10
60.4513869468
 20
7.8607676665
 30
0.0
 11
57.9380298299
 21
83.4544355922
 31
0.0
 40
0.2766142929
 41
-3.854591147
 42
-3.8281117415
  0
ELLIPSE
  5
A49
100
AcDbEntity
  8
0
100
AcDbEllipse
 62
7
  6
CONTINUOUS
 10
56.5424341154
 20
9.4306912488
 30
0.0
 11
11.6915622992
 21
100.8800232085
 31
0.0
 40
0.5901502617
 41
-4.0716439009
 42
-4.0611225139
  0
ELLIPSE
  5
A4A
100
AcDbEntity
  8
0
100
AcDbEllipse
 62
7
  6
CONTINUOUS
 10
52.8166973801
 20
10.9270311165
 30
0.0
 11
-3.0516129183
 21
104.4898335403
 31
0.0
 40
0.6172347631
 41
-4.1726994465
 42
-4.1541752449
  0
ELLIPSE
  5
A4B
100
AcDbEntity
  8
0
100
AcDbEllipse
 62
7
  6
CONTINUOUS
 10
56.4040261323
 20
9.4862790152
 30
0.0
 11
31.4835293768
 21
94.2441249499
 31
0.0
 40
0.5063404436
 41
-3.9399222702
 42
-3.9214752277
  0
ELLIPSE
  5
A4C
100
AcDbEntity
  8
0
100
AcDbEllipse
 62
7
  6
CONTINUOUS
 10
59.4009543151
 20
8.2826450928
 30
0.0
 11
61.5846064109
 21
81.98560502
 31
0.0
 40
0.2380712357
 41
-3.85396866
 42
-3.840102973
  0
ELLIPSE
  5
A4D
100
AcDbEntity
  8
0
100
AcDbEllipse
 62
7
  6
CONTINUOUS
 10
55.9886187321
 20
9.6531159922
 30
0.0
 11
43.7171252422
 21
89.3296444022
 31
0.0
 40
0.4162059583
 41
-3.8872828312
 42
-3.8608034337
  0
ELLIPSE
  5
A4E
100
AcDbEntity
  8
0
100
AcDbEllipse
 62
7
  6
CONTINUOUS
 10
55.7423628495
 20
9.7520179064
 30
0.0
 11
56.2552548476
 21
84.1393197925
 31
0.0
 40
0.2942937745
 41
2.4272399581
 42
2.4448741647
  0
ELLIPSE
  5
A4F
100
AcDbEntity
  8
0
100
AcDbEllipse
 62
7
  6
CONTINUOUS
 10
50.1559554005
 20
11.9956450805
 30
0.0
 11
4.4974661889
 21
102.7796908982
 31
0.0
 40
0.6063216071
 41
-4.1278895696
 42
-4.101410164
  0
ELLIPSE
  5
A50
100
AcDbEntity
  8
0
100
AcDbEllipse
 62
7
  6
CONTINUOUS
 10
55.7423628495
 20
9.7520179064
 30
0.0
 11
56.3686348628
 21
84.3088989258
 31
0.0
 40
0.2942937745
 41
-3.8579921996
 42
-3.8385230114
  0
ELLIPSE
  5
A51
100
AcDbEntity
  8
0
100
AcDbEllipse
 62
7
  6
CONTINUOUS
 10
55.9886187321
 20
9.6531159922
 30
0.0
 11
43.8052352034
 21
89.5096844087
 31
0.0
 40
0.4162059583
 41
-3.8893306207
 42
-3.8610333098
  0
ELLIPSE
  5
A52
100
AcDbEntity
  8
0
100
AcDbEllipse
 62
7
  6
CONTINUOUS
 10
52.8166973801
 20
10.9270311165
 30
0.0
 11
-3.0577633112
 21
104.7004282474
 31
0.0
 40
0.6172347631
 41
-4.172891653
 42
-4.154405121
  0
ELLIPSE
  5
A53
100
AcDbEntity
  8
0
100
AcDbEllipse
 62
7
  6
CONTINUOUS
 10
56.4040261323
 20
9.4862790152
 30
0.0
 11
31.5469830586
 21
94.4340698777
 31
0.0
 40
0.5063404436
 41
-3.9401146333
 42
-3.9217051038
  0
ELLIPSE
  5
A54
100
AcDbEntity
  8
0
100
AcDbEllipse
 62
7
  6
CONTINUOUS
 10
59.4009543151
 20
8.2826450928
 30
0.0
 11
61.708727502
 21
82.150843435
 31
0.0
 40
0.2380712357
 41
-3.856008008
 42
-3.8403071659
  0
ELLIPSE
  5
A55
100
AcDbEntity
  8
0
100
AcDbEllipse
 62
7
  6
CONTINUOUS
 10
56.5424341154
 20
9.4306912488
 30
0.0
 11
11.7151261337
 21
101.0833425002
 31
0.0
 40
0.5901502617
 41
-4.0718319527
 42
-4.0613319346
  0
ELLIPSE
  5
A56
100
AcDbEntity
  8
0
100
AcDbEllipse
 62
7
  6
CONTINUOUS
 10
60.4513869468
 20
7.8607676665
 30
0.0
 11
58.0548014048
 21
83.6226343712
 31
0.0
 40
0.2766142929
 41
-3.8566389285
 42
-3.8283416176
  0
ELLIPSE
  5
A57
100
AcDbEntity
  8
0
100
AcDbEllipse
 62
7
  6
CONTINUOUS
 10
56.4377311839
 20
9.4727423066
 30
0.0
 11
10.230237905
 21
101.4979783572
 31
0.0
 40
0.5939940715
 41
-4.0672887416
 42
-4.0616330272
  0
ENDSEC
  0
SECTION
  2
OBJECTS
  0
DICTIONARY
  5
C
100
AcDbDictionary
280
0
281
1
  3
ACAD_GROUP
350
D
  3
ACAD_MLINESTYLE
350
17
  3
ACAD_LAYOUT
350
1A
  3
ACAD_PLOTSETTINGS
350
19
  3
ACAD_PLOTSTYLENAME
350
E
  0
DICTIONARY
  5
D
102
{ACAD_REACTORS
330
C
102
}
100
AcDbDictionary
280
0
281
1
  0
ACDBDICTIONARYWDFLT
  5
E
102
{ACAD_REACTORS
330
C
102
}
100
AcDbDictionary
281
1
  3
Normal
350
F
100
AcDbDictionaryWithDefault
340
F
  0
DICTIONARY
  5
17
102
{ACAD_REACTORS
330
C
102
}
100
AcDbDictionary
280
0
281
1
  3
Standard
350
18
  0
DICTIONARY
  5
19
102
{ACAD_REACTORS
330
C
102
}
100
AcDbDictionary
281
1
  0
DICTIONARY
  5
1A
102
{ACAD_REACTORS
330
C
102
}
100
AcDbDictionary
281
1
  3
Model
350
A58
  3
Layout1
350
A59
  0
ACDBPLACEHOLDER
  5
F
102
{ACAD_REACTORS
330
E
102
}
  0
MLINESTYLE
  5
18
102
{ACAD_REACTORS
330
17
102
}
100
AcDbMlineStyle
  2
STANDARD
 70
0
  3

 62
256
 51
90.0
 52
90.0
 71
2
 49
0.5
 62
256
  6
BYLAYER
 49
-0.5
 62
256
  6
BYLAYER
  0
LAYOUT
  5
A58
102
{ACAD_REACTORS
330
1A
102
}
100
AcDbPlotSettings
  1

  2
none_device
  4
ISO_A4_(297.00_x_210.00_MM)
  6

 40
0.0
 41
0.0
 42
0.0
 43
0.0
 44
297.0
 45
210.0
 46
0.0
 47
0.0
 48
0.0
 49
0.0
140
0.0
141
0.0
142
1.0
143
1.0
 70
1024
 72
1
 73
0
 74
0
  7

 75
0
147
1.0
148
0.0
149
0.0
100
AcDbLayout
  1
Model
 70
0
 71
0
 10
0.0
 20
0.0
 11
297.0
 21
210.0
 12
0.0
 22
0.0
 32
0.0
 14
0.0
 24
0.0
 34
0.0
 15
0.0
 25
0.0
 35
0.0
146
0.0
 13
0.0
 23
0.0
 33
0.0
 16
1.0
 26
0.0
 36
0.0
 17
0.0
 27
1.0
 37
0.0
 76
0
330
213
345
0
346
0
  0
LAYOUT
  5
A59
102
{ACAD_REACTORS
330
1A
102
}
100
AcDbPlotSettings
  1

  2
none_device
  4
ISO_A4_(297.00_x_210.00_MM)
  6

 40
0.0
 41
0.0
 42
0.0
 43
0.0
 44
297.0
 45
210.0
 46
0.0
 47
0.0
 48
0.0
 49
0.0
140
0.0
141
0.0
142
1.0
143
1.0
 70
0
 72
1
 73
0
 74
0
  7

 75
0
147
1.0
148
0.0
149
0.0
100
AcDbLayout
  1
Layout1
 70
0
 71
1
 10
0.0
 20
0.0
 11
297.0
 21
210.0
 12
0.0
 22
0.0
 32
0.0
 14
0.0
 24
0.0
 34
0.0
 15
0.0
 25
0.0
 35
0.0
146
0.0
 13
0.0
 23
0.0
 33
0.0
 16
1.0
 26
0.0
 36
0.0
 17
0.0
 27
1.0
 37
0.0
 76
0
330
214
345
0
346
0
  0
ENDSEC
  0
EOF
