  0
SECTION
  2
HEADER
  9
$ACADVER
  1
AC1024
  9
$DWGCODEPAGE
  3
ANSI_1252
  9
$EXTMAX
 10
297.0
 20
210.0
 30
0.0
  9
$EXTMIN
 10
0.0
 20
0.0
 30
0.0
  9
$LIMMIN
 10
0.0
 20
0.0
  9
$LIMMAX
 10
297.0
 20
210.0
  9
$VIEWCTR
 10
148.5
 20
105.0
  9
$VIEWSIZE
 40
210.0
  9
$CLAYER
  8
0
  9
$LTSCALE
 40
16.335
  9
$CELTYPE
  6
BYLAYER
  9
$DIMSCALE
 40
1.0
  9
$DIMASZ
 40
3.0
  9
$DIMEXO
 40
0.5
  9
$DIMDLI
 40
11.286
  9
$DIMEXE
 40
1.5
  9
$DIMCEN
 40
2.673
  9
$DIMLFAC
 40
1.0
  9
$DIMBLK
  1
_FILLED
  9
$DIMALT
 70
0
  9
$DIMALTF
 40
0.0393700787
  9
$DIMTXT
 40
3.0
  9
$DIMTOL
 70
1
  9
$DIMLIM
 70
0
  9
$DIMTFAC
 40
1.0
  9
$DIMTP
 40
0.01
  9
$DIMTM
 40
0.01
  9
$DIMGAP
 40
0.625
  9
$DIMDSEP
 70
44
  9
$AUNITS
 70
0
  9
$PDMODE
 70
3
  9
$PDSIZE
 40
3.0
  9
$HANDSEED
  5
4A6
  9
$TILEMODE
 70
1
  9
$MEASUREMENT
 70
1
  9
$INSUNITS
 70
4
  0
ENDSEC
  0
SECTION
  2
CLASSES
  0
CLASS
  1
ACDBDICTIONARYWDFLT
  2
AcDbDictionaryWithDefault
  3
AutoCAD 2000
 90
0
 91
1
280
0
281
0
  0
CLASS
  1
ACDBPLACEHOLDER
  2
AcDbPlaceHolder
  3
AutoCAD 2000
 90
0
 91
1
280
0
281
0
  0
CLASS
  1
LAYOUT
  2
AcDbLayout
  3
AutoCAD 2000
 90
0
 91
0
280
0
281
0
  0
ENDSEC
  0
SECTION
  2
TABLES
  0
TABLE
  2
VPORT
  5
8
100
AcDbSymbolTable
 70
2
  0
VPORT
  5
1F4
100
AcDbSymbolTableRecord
100
AcDbViewportTableRecord
  2
*ACTIVE
 70
0
 10
0.0
 20
0.0
 11
1.0
 21
1.0
 12
148.5
 22
105.0
 13
0.0
 23
0.0
 14
1.0
 24
1.0
 15
0.0
 25
0.0
 16
0.0
 26
0.0
 36
1.0
 17
0.0
 27
0.0
 37
0.0
 40
210.0
 41
1.4142857143
 42
50.0
 43
0.0
 44
0.0
 50
0.0
 51
0.0
 71
0
 72
100
 73
1
 74
1
 75
0
 76
0
 77
0
 78
0
  0
ENDTAB
  0
TABLE
  2
LTYPE
  5
5
100
AcDbSymbolTable
 70
6
  0
LTYPE
  5
14
100
AcDbSymbolTableRecord
100
AcDbLinetypeTableRecord
  2
BYBLOCK
 70
0
  3

 72
65
 73
0
 40
0.0
  0
LTYPE
  5
15
100
AcDbSymbolTableRecord
100
AcDbLinetypeTableRecord
  2
BYLAYER
 70
0
  3

 72
65
 73
0
 40
0.0
  0
LTYPE
  5
16
100
AcDbSymbolTableRecord
100
AcDbLinetypeTableRecord
  2
CONTINUOUS
 70
64
  3
Solid line
 72
65
 73
0
 40
0.0
  0
LTYPE
  5
1F5
100
AcDbSymbolTableRecord
100
AcDbLinetypeTableRecord
  2
CENTER
 70
64
  3
____ _ ____ _ ____ _ ____ _ ____ _ ____ _ ____
 72
65
 73
4
 40
0.6
 49
0.375
 74
0
 49
-0.075
 74
0
 49
0.075
 74
0
 49
-0.075
 74
0
  0
LTYPE
  5
1F6
100
AcDbSymbolTableRecord
100
AcDbLinetypeTableRecord
  2
HIDDEN
 70
64
  3
- - - - - - - - - - - - - - - - - - - -
 72
65
 73
2
 40
0.2
 49
0.1
 74
0
 49
-0.1
 74
0
  0
LTYPE
  5
1F7
100
AcDbSymbolTableRecord
100
AcDbLinetypeTableRecord
  2
PHANTOM
 70
64
  3
_____ _ _ _____ _ _ _____ _ _ _____
 72
65
 73
6
 40
0.8
 49
0.45
 74
0
 49
-0.05
 74
0
 49
0.1
 74
0
 49
-0.05
 74
0
 49
0.1
 74
0
 49
-0.05
 74
0
  0
LTYPE
  5
1F8
100
AcDbSymbolTableRecord
100
AcDbLinetypeTableRecord
  2
DOT
 70
64
  3
. . . . . . . . . . . . . . . . . . . .
 72
65
 73
2
 40
0.2
 49
0.1
 74
0
 49
-0.1
 74
0
  0
LTYPE
  5
1F9
100
AcDbSymbolTableRecord
100
AcDbLinetypeTableRecord
  2
DASHED
 70
64
  3
- - - - - - - - - - - - - - - - - - - -
 72
65
 73
2
 40
0.2
 49
0.1
 74
0
 49
-0.1
 74
0
  0
ENDTAB
  0
TABLE
  2
LAYER
  5
2
100
AcDbSymbolTable
 70
36
  0
LAYER
  5
10
100
AcDbSymbolTableRecord
100
AcDbLayerTableRecord
  2
0
 70
0
 62
7
  6
CONTINUOUS
370
-3
390
F
  0
LAYER
  5
1FA
100
AcDbSymbolTableRecord
100
AcDbLayerTableRecord
  2
DEFAULT_1
 70
0
 62
7
  6
CENTER
370
-3
390
F
  0
LAYER
  5
1FB
100
AcDbSymbolTableRecord
100
AcDbLayerTableRecord
  2
DEFAULT_2
 70
0
 62
7
  6
HIDDEN
370
-3
390
F
  0
LAYER
  5
1FC
100
AcDbSymbolTableRecord
100
AcDbLayerTableRecord
  2
DEFAULT_3
 70
0
 62
7
  6
PHANTOM
370
-3
390
F
  0
LAYER
  5
1FD
100
AcDbSymbolTableRecord
100
AcDbLayerTableRecord
  2
ASSI
 70
0
 62
7
  6
CONTINUOUS
370
-3
390
F
  0
LAYER
  5
1FE
100
AcDbSymbolTableRecord
100
AcDbLayerTableRecord
  2
COORDINATE
 70
0
 62
7
  6
CONTINUOUS
370
-3
390
F
  0
LAYER
  5
1FF
100
AcDbSymbolTableRecord
100
AcDbLayerTableRecord
  2
COPY_PUBLISH
 70
0
 62
7
  6
CONTINUOUS
370
-3
390
F
  0
LAYER
  5
200
100
AcDbSymbolTableRecord
100
AcDbLayerTableRecord
  2
COSMETICI
 70
0
 62
7
  6
CONTINUOUS
370
-3
390
F
  0
LAYER
  5
201
100
AcDbSymbolTableRecord
100
AcDbLayerTableRecord
  2
CURVE
 70
0
 62
7
  6
CONTINUOUS
370
-3
390
F
  0
LAYER
  5
202
100
AcDbSymbolTableRecord
100
AcDbLayerTableRecord
  2
DRAFT
 70
0
 62
7
  6
CONTINUOUS
370
-3
390
F
  0
LAYER
  5
203
100
AcDbSymbolTableRecord
100
AcDbLayerTableRecord
  2
IMPORT_IGES
 70
0
 62
7
  6
CONTINUOUS
370
-3
390
F
  0
LAYER
  5
204
100
AcDbSymbolTableRecord
100
AcDbLayerTableRecord
  2
INTF_1
 70
0
 62
7
  6
CONTINUOUS
370
-3
390
F
  0
LAYER
  5
205
100
AcDbSymbolTableRecord
100
AcDbLayerTableRecord
  2
INTF_11
 70
0
 62
7
  6
CONTINUOUS
370
-3
390
F
  0
LAYER
  5
206
100
AcDbSymbolTableRecord
100
AcDbLayerTableRecord
  2
INTF_2
 70
0
 62
7
  6
CONTINUOUS
370
-3
390
F
  0
LAYER
  5
207
100
AcDbSymbolTableRecord
100
AcDbLayerTableRecord
  2
NOTE
 70
0
 62
7
  6
CONTINUOUS
370
-3
390
F
  0
LAYER
  5
208
100
AcDbSymbolTableRecord
100
AcDbLayerTableRecord
  2
PIANI
 70
0
 62
7
  6
CONTINUOUS
370
-3
390
F
  0
LAYER
  5
209
100
AcDbSymbolTableRecord
100
AcDbLayerTableRecord
  2
PUNTI
 70
0
 62
7
  6
CONTINUOUS
370
-3
390
F
  0
LAYER
  5
20A
100
AcDbSymbolTableRecord
100
AcDbLayerTableRecord
  2
RACCORDO
 70
0
 62
7
  6
CONTINUOUS
370
-3
390
F
  0
LAYER
  5
20B
100
AcDbSymbolTableRecord
100
AcDbLayerTableRecord
  2
RGB____0____0____0__
 70
0
 62
7
  6
CONTINUOUS
370
-3
390
F
  0
LAYER
  5
20C
100
AcDbSymbolTableRecord
100
AcDbLayerTableRecord
  2
SIMBOLI
 70
0
 62
7
  6
CONTINUOUS
370
-3
390
F
  0
LAYER
  5
20D
100
AcDbSymbolTableRecord
100
AcDbLayerTableRecord
  2
SMUSSO
 70
0
 62
7
  6
CONTINUOUS
370
-3
390
F
  0
LAYER
  5
20E
100
AcDbSymbolTableRecord
100
AcDbLayerTableRecord
  2
SNAPLINE
 70
0
 62
7
  6
CONTINUOUS
370
-3
390
F
  0
LAYER
  5
20F
100
AcDbSymbolTableRecord
100
AcDbLayerTableRecord
  2
SUPERFICI
 70
0
 62
7
  6
CONTINUOUS
370
-3
390
F
  0
LAYER
  5
210
100
AcDbSymbolTableRecord
100
AcDbLayerTableRecord
  2
TRASH
 70
0
 62
7
  6
CONTINUOUS
370
-3
390
F
  0
ENDTAB
  0
TABLE
  2
STYLE
  5
3
100
AcDbSymbolTable
 70
1
  0
STYLE
  5
11
100
AcDbSymbolTableRecord
100
AcDbTextStyleTableRecord
  2
STANDARD
 70
0
 40
0.0
 41
0.8
 50
0.0
 71
0
 42
0.2
  3
txt
  4

  0
STYLE
  5
211
100
AcDbSymbolTableRecord
100
AcDbTextStyleTableRecord
  2
TEXTSTYLE_1
 70
0
 40
0.0
 41
0.8
 50
0.0
 71
0
 42
0.2
  3
gdt
  4

  0
ENDTAB
  0
TABLE
  2
VIEW
  5
6
100
AcDbSymbolTable
 70
0
  0
ENDTAB
  0
TABLE
  2
UCS
  5
7
100
AcDbSymbolTable
 70
0
  0
ENDTAB
  0
TABLE
  2
APPID
  5
9
100
AcDbSymbolTable
 70
1
  0
APPID
  5
212
100
AcDbSymbolTableRecord
100
AcDbRegAppTableRecord
  2
ACAD
 70
0
  0
ENDTAB
  0
TABLE
  2
BLOCK_RECORD
  5
1
100
AcDbSymbolTable
 70
0
  0
BLOCK_RECORD
  5
213
100
AcDbSymbolTableRecord
100
AcDbBlockTableRecord
  2
*Model_Space
  0
BLOCK_RECORD
  5
214
100
AcDbSymbolTableRecord
100
AcDbBlockTableRecord
  2
*Paper_Space
  0
BLOCK_RECORD
  5
215
100
AcDbSymbolTableRecord
100
AcDbBlockTableRecord
  2
_FILLED
  0
ENDTAB
  0
TABLE
  2
DIMSTYLE
  5
A
100
AcDbSymbolTable
 70
1
100
AcDbDimStyleTable
 71
0
  0
DIMSTYLE
105
216
100
AcDbSymbolTableRecord
100
AcDbDimStyleTableRecord
  2
STANDARD
 70
0
  3

  4

 40
1.0
 41
3.0
 42
0.5
 43
0.38
 44
1.5
 45
0.0
 46
0.0
 47
0.01
 48
0.01
140
3.0
141
0.09
142
0.0
143
25.4
144
1.0
145
0.0
146
1.0
147
0.625
 71
1
 72
0
 73
0
 74
0
 75
0
 76
0
 77
1
 78
8
 79
2
170
0
171
1
172
0
173
0
174
0
175
0
176
0
177
0
178
0
270
2
179
2
271
2
272
2
273
2
274
2
275
0
280
0
281
0
282
0
283
1
284
8
285
0
286
0
287
3
288
0
340
11
278
44
341
215
342
215
343
215
344
215
  0
ENDTAB
  0
ENDSEC
  0
SECTION
  2
BLOCKS
  0
BLOCK
  5
20
100
AcDbEntity
  8
0
100
AcDbBlockBegin
  2
*Model_Space
 70
0
 10
0.0
 20
0.0
 30
0.0
  3
*Model_Space
  1

  0
ENDBLK
  5
21
100
AcDbEntity
  8
0
100
AcDbBlockEnd
  0
BLOCK
  5
1C
100
AcDbEntity
  8
0
100
AcDbBlockBegin
  2
*Paper_Space
 70
0
 10
0.0
 20
0.0
 30
0.0
  3
*Paper_Space
  1

  0
ENDBLK
  5
1D
100
AcDbEntity
  8
0
100
AcDbBlockEnd
  0
BLOCK
  5
217
100
AcDbEntity
  8
0
100
AcDbBlockBegin
  2
_FILLED
 70
64
 10
0.0
 20
0.0
  3
_FILLED
  1

  0
SOLID
  5
218
100
AcDbEntity
  8
0
  6
BYBLOCK
 62
0
100
AcDbTrace
 10
0.0
 20
0.0
 11
-1.0
 21
0.3166666667
 12
-1.0
 22
-0.3166666667
 13
-1.0
 23
-0.3166666667
  0
ENDBLK
  5
219
100
AcDbEntity
  8
0
  6
BYBLOCK
 62
0
100
AcDbBlockEnd
  0
ENDSEC
  0
SECTION
  2
ENTITIES
  0
LWPOLYLINE
  5
21A
100
AcDbEntity
  8
RACCORDO
100
AcDbPolyline
 62
7
  6
CONTINUOUS
 90
13
 70
0
 10
-51.5492974627
 20
95.8084233596
 10
-51.559254955
 20
95.8003538411
 10
-51.5998028353
 20
95.7643977481
 10
-51.6381176867
 20
95.7252095527
 10
-51.6740474003
 20
95.6828499155
 10
-51.7073858525
 20
95.6374459604
 10
-51.7379426963
 20
95.5891618351
 10
-51.7656033078
 20
95.538063779
 10
-51.7902189867
 20
95.484256602
 10
-51.8116303422
 20
95.4279050956
 10
-51.8297176683
 20
95.3691045976
 10
-51.8443512917
 20
95.3079457511
 10
-51.85413188
 20
95.2531723614
  0
LINE
  5
21B
100
AcDbEntity
  8
RACCORDO
100
AcDbLine
 62
7
  6
CONTINUOUS
 10
-50.3294435779
 20
96.7801305594
 11
-51.5494046786
 21
95.8083381001
  0
LINE
  5
21C
100
AcDbEntity
  8
RACCORDO
100
AcDbLine
 62
250
  6
CONTINUOUS
 10
-50.9764130304
 20
95.8131524883
 11
-49.7435177467
 21
96.7952477911
  0
LWPOLYLINE
  5
21D
100
AcDbEntity
  8
RACCORDO
100
AcDbPolyline
 62
7
  6
CONTINUOUS
 90
17
 70
0
 10
-50.3294439699
 20
96.7801312848
 10
-50.3200359132
 20
96.7874431604
 10
-50.2868675002
 20
96.8104375211
 10
-50.2521811267
 20
96.8304165296
 10
-50.2165454939
 20
96.8471300344
 10
-50.1800684498
 20
96.8604821147
 10
-50.1426448908
 20
96.8705677346
 10
-50.1045243014
 20
96.8774229978
 10
-50.0656980507
 20
96.8810593235
 10
-50.026176907
 20
96.88146455
 10
-49.9862393861
 20
96.8786394342
 10
-49.9457916842
 20
96.872531917
 10
-49.9049291478
 20
96.8631935229
 10
-49.8642139158
 20
96.8507804197
 10
-49.8238336568
 20
96.8353445633
 10
-49.7836015321
 20
96.8168337108
 10
-49.7435177467
 20
96.7952477911
  0
LWPOLYLINE
  5
21E
100
AcDbEntity
  8
RACCORDO
100
AcDbPolyline
 62
250
  6
CONTINUOUS
 90
31
 70
0
 10
-34.4011514062
 20
64.2273849113
 10
-34.3809271254
 20
64.2423879641
 10
-34.3604023209
 20
64.2561608348
 10
-34.3395774657
 20
64.2687032772
 10
-34.3184380818
 20
64.2799757497
 10
-34.2969995425
 20
64.2900173284
 10
-34.2753070323
 20
64.2989457274
 10
-34.2533687961
 20
64.3067714674
 10
-34.2311772942
 20
64.3134836615
 10
-34.2087539486
 20
64.3191679573
 10
-34.1861054554
 20
64.32383441
 10
-34.1632256832
 20
64.3274726716
 10
-34.1401167501
 20
64.330137817
 10
-34.1167839357
 20
64.3318399405
 10
-34.093222415
 20
64.3325687124
 10
-34.0694191076
 20
64.332348594
 10
-34.0453777404
 20
64.3311897495
 10
-34.0210949542
 20
64.3290818245
 10
-33.996547012
 20
64.326018517
 10
-33.9717368247
 20
64.3220103669
 10
-33.9466617785
 20
64.3170466806
 10
-33.9212898353
 20
64.3110893132
 10
-33.8955847482
 20
64.3041318086
 10
-33.8695829989
 20
64.2961805016
 10
-33.8433616346
 20
64.2872164375
 10
-33.8170511091
 20
64.2773101466
 10
-33.7905211449
 20
64.2663910076
 10
-33.7634576833
 20
64.2542283424
 10
-33.7357560719
 20
64.2407452408
 10
-33.7075210605
 20
64.2260185627
 10
-33.6787526746
 20
64.210048295
  0
LWPOLYLINE
  5
21F
100
AcDbEntity
  8
RACCORDO
100
AcDbPolyline
 62
250
  6
CONTINUOUS
 90
6
 70
0
 10
-33.8035646296
 20
63.978376797
 10
-33.7907646801
 20
63.9877803942
 10
-33.7777227451
 20
63.9963909726
 10
-33.7644649454
 20
64.0042278079
 10
-33.7510296482
 20
64.0113045196
 10
-33.7437072315
 20
64.0148192379
  0
LINE
  5
220
100
AcDbEntity
  8
RACCORDO
100
AcDbLine
 62
7
  6
CONTINUOUS
 10
-33.7437072315
 20
64.0148192379
 11
-33.7432598838
 21
64.0150264506
  0
LINE
  5
221
100
AcDbEntity
  8
RACCORDO
100
AcDbLine
 62
250
  6
CONTINUOUS
 10
-33.9577078036
 20
63.6236124141
 11
-33.4227618441
 21
63.87088803
  0
LWPOLYLINE
  5
222
100
AcDbEntity
  8
RACCORDO
100
AcDbPolyline
 62
7
  6
CONTINUOUS
 90
15
 70
0
 10
-33.7446928864
 20
64.0144309512
 10
-33.7449835813
 20
64.0143314453
 10
-33.7434973221
 20
64.0145672827
 10
-33.7398078506
 20
64.0149365075
 10
-33.7335658623
 20
64.0150829614
 10
-33.7249156192
 20
64.0146537236
 10
-33.7138637475
 20
64.0133467053
 10
-33.7004251369
 20
64.0108771619
 10
-33.6848023201
 20
64.0070224454
 10
-33.6673069819
 20
64.0016449214
 10
-33.6481108983
 20
63.9946187862
 10
-33.6273891984
 20
63.9858482451
 10
-33.605408261
 20
63.9753108388
 10
-33.5823481216
 20
63.962980253
 10
-33.575786061
 20
63.9592423371
  0
LWPOLYLINE
  5
223
100
AcDbEntity
  8
RACCORDO
100
AcDbPolyline
 62
250
  6
CONTINUOUS
 90
15
 70
0
 10
29.7686257828
 20
-67.1994172824
 10
29.7483662774
 20
-67.2051493936
 10
29.7272563845
 20
-67.209206893
 10
29.7053351825
 20
-67.2115699246
 10
29.6826654583
 20
-67.2122198355
 10
29.6593121548
 20
-67.2111574845
 10
29.6353260442
 20
-67.2083781206
 10
29.6107764342
 20
-67.2038830332
 10
29.5857649355
 20
-67.1977047902
 10
29.5603579635
 20
-67.1898629573
 10
29.5346238535
 20
-67.1803814588
 10
29.508674093
 20
-67.1693274602
 10
29.4825930014
 20
-67.1567572755
 10
29.4564346994
 20
-67.1427036181
 10
29.4302664432
 20
-67.1272140139
  0
LWPOLYLINE
  5
224
100
AcDbEntity
  8
RACCORDO
100
AcDbPolyline
 62
7
  6
CONTINUOUS
 90
10
 70
0
 10
-51.854142084
 20
95.2531281468
 10
-52.1714089442
 20
93.0732312816
 10
-52.4717125773
 20
90.832677932
 10
-52.7442506794
 20
88.6029054386
 10
-52.9889446884
 20
86.384517141
 10
-53.2057407603
 20
84.1780098192
 10
-53.3945911066
 20
81.9838421038
 10
-53.5554470252
 20
79.8025102341
 10
-53.688265114
 20
77.6346016281
 10
-53.7903806702
 20
75.5425480933
  0
LWPOLYLINE
  5
225
100
AcDbEntity
  8
RACCORDO
100
AcDbPolyline
 62
250
  6
CONTINUOUS
 90
10
 70
0
 10
-51.7070332613
 20
95.0544781772
 10
-52.0322231334
 20
92.8179241504
 10
-52.3300598484
 20
90.5916075295
 10
-52.6004730449
 20
88.3760547919
 10
-52.843398578
 20
86.1717911616
 10
-53.0587793545
 20
83.9793365842
 10
-53.246565175
 20
81.7992056782
 10
-53.4067117327
 20
79.6319127854
 10
-53.5391807948
 20
77.4779717739
 10
-53.6439409116
 20
75.3378920679
  0
LINE
  5
226
100
AcDbEntity
  8
RACCORDO
100
AcDbLine
 62
7
  6
CONTINUOUS
 10
-51.854142084
 20
95.2531281468
 11
-51.8541353116
 21
95.2531728812
  0
LWPOLYLINE
  5
227
100
AcDbEntity
  8
RACCORDO
100
AcDbPolyline
 62
250
  6
CONTINUOUS
 90
19
 70
0
 10
-51.2926678792
 20
95.3016961823
 10
-51.2869419412
 20
95.3335355072
 10
-51.2794589378
 20
95.365841875
 10
-51.270257383
 20
95.3984489906
 10
-51.2593846371
 20
95.4311890096
 10
-51.2468966627
 20
95.4638934037
 10
-51.232857736
 20
95.4963938282
 10
-51.2173401176
 20
95.5285229862
 10
-51.2004236809
 20
95.5601154904
 10
-51.1821954994
 20
95.5910087154
 10
-51.1627493991
 20
95.6210436349
 10
-51.1421854768
 20
95.650065639
 10
-51.1206095841
 20
95.6779253306
 10
-51.0981327814
 20
95.7044792963
 10
-51.0748707679
 20
95.7295908426
 10
-51.050943287
 20
95.7531306989
 10
-51.0264735073
 20
95.7749776862
 10
-51.0015873874
 20
95.7950193401
 10
-50.9764130307
 20
95.8131524884
  0
LINE
  5
228
100
AcDbEntity
  8
0
100
AcDbLine
 62
7
  6
CONTINUOUS
 10
-32.2380174078
 20
54.3819738928
 11
-31.8884975587
 21
54.6701861289
  0
LWPOLYLINE
  5
229
100
AcDbEntity
  8
RACCORDO
100
AcDbPolyline
 62
250
  6
CONTINUOUS
 90
19
 70
0
 10
50.9600201842
 20
-96.3792864851
 10
50.990272333
 20
-96.3951407422
 10
51.0226720745
 20
-96.4090103832
 10
51.0569999241
 20
-96.4208014514
 10
51.0930233356
 20
-96.4304340708
 10
51.1304982767
 20
-96.4378429876
 10
51.1691708819
 20
-96.4429780116
 10
51.2087791724
 20
-96.4458043569
 10
51.2490548311
 20
-96.446302877
 10
51.2897250197
 20
-96.4444701948
 10
51.3305142272
 20
-96.4403187253
 10
51.3711461365
 20
-96.4338765919
 10
51.411345496
 20
-96.4251874351
 10
51.4508399843
 20
-96.4143101178
 10
51.4893620551
 20
-96.4013183259
 10
51.5266507494
 20
-96.3863000691
 10
51.5624534635
 20
-96.3693570854
 10
51.59652766
 20
-96.3506041511
 10
51.6286425112
 20
-96.3301683036
  0
LWPOLYLINE
  5
22A
100
AcDbEntity
  8
RACCORDO
100
AcDbPolyline
 62
7
  6
CONTINUOUS
 90
3
 70
0
 10
-51.3886034613
 20
-37.684813706
 10
-51.3405704747
 20
-37.7248300201
 10
-51.2913341522
 20
-37.7620426348
  0
LWPOLYLINE
  5
22B
100
AcDbEntity
  8
RACCORDO
100
AcDbPolyline
 62
7
  6
CONTINUOUS
 90
11
 70
0
 10
-51.7656861924
 20
-37.1806193035
 10
-51.7387895896
 20
-37.2361931987
 10
-51.7090472892
 20
-37.2912722034
 10
-51.6767162415
 20
-37.3454505495
 10
-51.6418665741
 20
-37.3986545314
 10
-51.6045579765
 20
-37.4507874809
 10
-51.5651306423
 20
-37.5013672338
 10
-51.5236462132
 20
-37.5503008156
 10
-51.4801891317
 20
-37.5974424627
 10
-51.4351530143
 20
-37.6423117829
 10
-51.3886034613
 20
-37.684813706
  0
LINE
  5
22C
100
AcDbEntity
  8
RACCORDO
100
AcDbLine
 62
7
  6
CONTINUOUS
 10
-51.7896898394
 20
-37.1245790309
 11
-51.7656861924
 21
-37.1806193035
  0
LINE
  5
22D
100
AcDbEntity
  8
RACCORDO
100
AcDbLine
 62
250
  6
CONTINUOUS
 10
-53.7931517732
 20
-19.3497675371
 11
-53.793460138
 21
-19.3445355149
  0
LWPOLYLINE
  5
22E
100
AcDbEntity
  8
RACCORDO
100
AcDbPolyline
 62
250
  6
CONTINUOUS
 90
9
 70
0
 10
-53.6439409754
 20
-19.6164851728
 10
-53.5391808401
 20
-21.635825261
 10
-53.4067117537
 20
-23.6370878344
 10
-53.2465651725
 20
-25.6197997901
 10
-53.0587793415
 20
-27.5834910852
 10
-52.8433985702
 20
-29.5276988772
 10
-52.6004730438
 20
-31.4519675061
 10
-52.3300598478
 20
-33.355843284
 10
-52.0322231332
 20
-35.2388747308
  0
LWPOLYLINE
  5
22F
100
AcDbEntity
  8
RACCORDO
100
AcDbPolyline
 62
7
  6
CONTINUOUS
 90
10
 70
0
 10
-53.7903326977
 20
-19.4144810283
 10
-53.6884560463
 20
-21.3848904796
 10
-53.5556023879
 20
-23.4013442936
 10
-53.3946669249
 20
-25.3991399743
 10
-53.2056867875
 20
-27.3777323534
 10
-52.988704271
 20
-29.3366778295
 10
-52.7437604442
 20
-31.2755721835
 10
-52.4709023473
 20
-33.1939795445
 10
-52.1702019491
 20
-35.0913870738
 10
-51.8515856399
 20
-36.9135440418
  0
LWPOLYLINE
  5
230
100
AcDbEntity
  8
RACCORDO
100
AcDbPolyline
 62
7
  6
CONTINUOUS
 90
10
 70
0
 10
-54.1938257027
 20
-1.1526351744
 10
-54.1891289519
 20
-3.1458883391
 10
-54.1744142545
 20
-5.1991461723
 10
-54.1496768088
 20
-7.2465091703
 10
-54.1149173706
 20
-9.2879109895
 10
-54.0701369101
 20
-11.3232896513
 10
-54.0153365949
 20
-13.3525845318
 10
-53.9505178329
 20
-15.375734044
 10
-53.8756824468
 20
-17.392672466
 10
-53.790332707
 20
-19.4144811769
  0
LWPOLYLINE
  5
231
100
AcDbEntity
  8
RACCORDO
100
AcDbPolyline
 62
250
  6
CONTINUOUS
 90
13
 70
0
 10
-54.0473790944
 20
-1.3567687902
 10
-54.0446232657
 20
-2.8840285648
 10
-54.0363470809
 20
-4.4093086661
 10
-54.0225373531
 20
-5.9325748483
 10
-54.0031811034
 20
-7.4537838764
 10
-53.9782652604
 20
-8.9729102996
 10
-53.9477763361
 20
-10.4899462571
 10
-53.9117012256
 20
-12.0048570115
 10
-53.8700268602
 20
-13.5176077599
 10
-53.8227393539
 20
-15.028190071
 10
-53.7698252072
 20
-16.5365775968
 10
-53.7112716337
 20
-18.0427262725
 10
-53.6439409744
 20
-19.6164851733
  0
LINE
  5
232
100
AcDbEntity
  8
RACCORDO
100
AcDbLine
 62
7
  6
CONTINUOUS
 10
-54.1938257038
 20
56.8167544724
 11
-54.1938257038
 21
-1.1526351799
  0
LINE
  5
233
100
AcDbEntity
  8
RACCORDO
100
AcDbLine
 62
250
  6
CONTINUOUS
 10
-54.0473790944
 20
56.6126135143
 11
-54.0473790944
 21
-1.3567687902
  0
LWPOLYLINE
  5
234
100
AcDbEntity
  8
RACCORDO
100
AcDbPolyline
 62
7
  6
CONTINUOUS
 90
9
 70
0
 10
-53.8755062703
 20
73.4281377657
 10
-53.9503573208
 20
71.3251236194
 10
-54.0151942459
 20
69.227419915
 10
-54.0700148925
 20
67.1350948556
 10
-54.1148175291
 20
65.0482119304
 10
-54.149600662
 20
62.96683333
 10
-54.1743629979
 20
60.891022283
 10
-54.1891034557
 20
58.8208460373
 10
-54.1938257028
 20
56.8167544688
  0
LWPOLYLINE
  5
235
100
AcDbEntity
  8
RACCORDO
100
AcDbPolyline
 62
250
  6
CONTINUOUS
 90
12
 70
0
 10
-53.7113444074
 20
73.6845662481
 10
-53.7699451681
 20
72.1093326568
 10
-53.8228849356
 20
70.5387107213
 10
-53.8701801077
 20
68.9727278413
 10
-53.9118477923
 20
67.4113929246
 10
-53.9479054805
 20
65.854696564
 10
-53.9783698367
 20
64.3026565513
 10
-54.003257555
 20
62.7552904689
 10
-54.0225857095
 20
61.2125885974
 10
-54.0363709507
 20
59.6745592483
 10
-54.0446298283
 20
58.1412285848
 10
-54.0473790944
 20
56.6126135143
  0
LINE
  5
236
100
AcDbEntity
  8
RACCORDO
100
AcDbLine
 62
7
  6
CONTINUOUS
 10
-53.7903806799
 20
75.5425481824
 11
-53.8755062703
 21
73.4281377657
  0
LINE
  5
237
100
AcDbEntity
  8
RACCORDO
100
AcDbLine
 62
250
  6
CONTINUOUS
 10
-53.6439409107
 20
75.3378920673
 11
-53.7113444074
 21
73.6845662481
  0
LINE
  5
238
100
AcDbEntity
  8
0
100
AcDbLine
 62
7
  6
CONTINUOUS
 10
-31.9454975249
 20
49.7384167499
 11
-32.2950200978
 21
49.4502022677
  0
LINE
  5
239
100
AcDbEntity
  8
SMUSSO
100
AcDbLine
 62
7
  6
CONTINUOUS
 10
-31.8942159987
 20
47.3330489588
 11
-32.3020766885
 21
46.9967291712
  0
LINE
  5
23A
100
AcDbEntity
  8
0
100
AcDbLine
 62
250
  6
CONTINUOUS
 10
-32.3020766885
 20
46.9967291712
 11
-33.0465293252
 21
46.3828574278
  0
LINE
  5
23B
100
AcDbEntity
  8
0
100
AcDbLine
 62
7
  6
CONTINUOUS
 10
-32.2239437868
 20
49.8991884262
 11
-32.2912415892
 21
49.8603315112
  0
LINE
  5
23C
100
AcDbEntity
  8
RACCORDO
100
AcDbLine
 62
250
  6
CONTINUOUS
 10
-33.0467606988
 20
46.2835315243
 11
-34.3313139352
 21
45.6157154052
  0
LWPOLYLINE
  5
23D
100
AcDbEntity
  8
0
100
AcDbPolyline
 62
7
  6
CONTINUOUS
 90
7
 70
0
 10
1.0780561717
 20
-54.7323742005
 10
1.0774055711
 20
-54.7324685716
 10
1.0639482332
 20
-54.7329534898
 10
1.0497732768
 20
-54.7321244741
 10
1.0350836048
 20
-54.7301980385
 10
1.0198927193
 20
-54.7271770778
 10
1.0041868946
 20
-54.7230588465
  0
LWPOLYLINE
  5
23E
100
AcDbEntity
  8
0
100
AcDbPolyline
 62
7
  6
CONTINUOUS
 90
3
 70
0
 10
1.279787721
 20
-55.1462462526
 10
1.2724452058
 20
-55.1453428364
 10
1.2647991755
 20
-55.1435592784
  0
LWPOLYLINE
  5
23F
100
AcDbEntity
  8
RACCORDO
100
AcDbPolyline
 62
250
  6
CONTINUOUS
 90
28
 70
0
 10
50.6817394016
 20
-96.54793096
 10
50.7019020666
 20
-96.5590137158
 10
50.721622515
 20
-96.568765898
 10
50.7409007994
 20
-96.5771874642
 10
50.759793641
 20
-96.5842979496
 10
50.77824453
 20
-96.5900776496
 10
50.7960837199
 20
-96.594467625
 10
50.8133132692
 20
-96.5974561006
 10
50.8299315221
 20
-96.599054529
 10
50.8457631839
 20
-96.5992387934
 10
50.8607958157
 20
-96.5979940014
 10
50.8750424022
 20
-96.5953346085
 10
50.8883657744
 20
-96.5912805279
 10
50.9007593213
 20
-96.5858185839
 10
50.9122302855
 20
-96.5789614469
 10
50.9226622277
 20
-96.5707678398
 10
50.9320461226
 20
-96.5612236582
 10
50.9403916408
 20
-96.550342491
 10
50.9476102887
 20
-96.5382246801
 10
50.9536909842
 20
-96.5248570839
 10
50.9586453906
 20
-96.5102523802
 10
50.9624189879
 20
-96.4945497574
 10
50.9649990579
 20
-96.4777311419
 10
50.9663987689
 20
-96.4598142489
 10
50.9666022355
 20
-96.4409921054
 10
50.9656041914
 20
-96.4213290308
 10
50.963410116
 20
-96.4007605371
 10
50.96002013
 20
-96.3792865283
  0
LWPOLYLINE
  5
240
100
AcDbEntity
  8
RACCORDO
100
AcDbPolyline
 62
7
  6
CONTINUOUS
 90
16
 70
0
 10
50.7787833226
 20
-96.7027042316
 10
50.8090447957
 20
-96.7195271778
 10
50.8549371335
 20
-96.7425647796
 10
50.9010806175
 20
-96.7627422484
 10
50.9474571316
 20
-96.7800277119
 10
50.993885848
 20
-96.7943291352
 10
51.0403001746
 20
-96.8056155826
 10
51.0867208293
 20
-96.8138832442
 10
51.1329946323
 20
-96.8190880621
 10
51.1790347485
 20
-96.8212029592
 10
51.2246950162
 20
-96.8202093503
 10
51.2696252436
 20
-96.8161341848
 10
51.3136349941
 20
-96.8090390082
 10
51.3565700944
 20
-96.7989967677
 10
51.3980796546
 20
-96.78616034
 10
51.4208182937
 20
-96.7777379713
  0
LINE
  5
241
100
AcDbEntity
  8
RACCORDO
100
AcDbLine
 62
7
  6
CONTINUOUS
 10
-51.1956109021
 20
-37.8239716784
 11
50.7787966066
 21
-96.7027165345
  0
LINE
  5
242
100
AcDbEntity
  8
RACCORDO
100
AcDbLine
 62
250
  6
CONTINUOUS
 10
-51.2926678792
 20
-37.6691862356
 11
50.6817394016
 21
-96.54793096
  0
LINE
  5
243
100
AcDbEntity
  8
RACCORDO
100
AcDbLine
 62
250
  6
CONTINUOUS
 10
-51.2004227443
 20
-37.8210843057
 11
-51.1956109021
 21
-37.8239716784
  0
LWPOLYLINE
  5
244
100
AcDbEntity
  8
RACCORDO
100
AcDbPolyline
 62
250
  6
CONTINUOUS
 90
9
 70
0
 10
-51.70703324
 20
-37.1006166036
 10
-51.7349304443
 20
-37.082895881
 10
-51.7602861411
 20
-37.0634180131
 10
-51.7829285656
 20
-37.042314947
 10
-51.8027043332
 20
-37.0197296393
 10
-51.8194794788
 20
-36.9958150875
 10
-51.8331403639
 20
-36.9707332938
 10
-51.8435944469
 20
-36.9446541676
 10
-51.8505313323
 20
-36.9186523908
  0
LWPOLYLINE
  5
245
100
AcDbEntity
  8
RACCORDO
100
AcDbPolyline
 62
7
  6
CONTINUOUS
 90
3
 70
0
 10
-51.2913341522
 20
-37.7620426348
 10
-51.2409254702
 20
-37.796326608
 10
-51.1954268296
 20
-37.8240734817
  0
LWPOLYLINE
  5
246
100
AcDbEntity
  8
RACCORDO
100
AcDbPolyline
 62
250
  6
CONTINUOUS
 90
9
 70
0
 10
-51.2926678792
 20
-37.6691862356
 10
-51.286941838
 20
-37.6944135164
 10
-51.2794587155
 20
-37.7180787847
 10
-51.2702570314
 20
-37.7400602223
 10
-51.2593841518
 20
-37.7602446785
 10
-51.2468960456
 20
-37.7785282527
 10
-51.2328569958
 20
-37.7948168294
 10
-51.2173392693
 20
-37.8090265622
 10
-51.2009816245
 20
-37.8206859477
  0
LWPOLYLINE
  5
247
100
AcDbEntity
  8
RACCORDO
100
AcDbPolyline
 62
250
  6
CONTINUOUS
 90
28
 70
0
 10
-51.7070332613
 20
-37.1006166206
 10
-51.7024279004
 20
-37.122807108
 10
-51.6967120506
 20
-37.1454112587
 10
-51.6898858402
 20
-37.1684291741
 10
-51.6819198723
 20
-37.1919375971
 10
-51.6728437737
 20
-37.215859967
 10
-51.6627463057
 20
-37.2399665082
 10
-51.6516137332
 20
-37.264266821
 10
-51.6394602247
 20
-37.2887516499
 10
-51.6264165847
 20
-37.3131630862
 10
-51.6124775849
 20
-37.3374929807
 10
-51.5976490372
 20
-37.3617499482
 10
-51.582078456
 20
-37.3857013459
 10
-51.5657591397
 20
-37.4093449044
 10
-51.5486984317
 20
-37.432683406
 10
-51.5310650116
 20
-37.4554918628
 10
-51.5128540038
 20
-37.4777651711
 10
-51.4940709145
 20
-37.4995089391
 10
-51.4749000484
 20
-37.5205142894
 10
-51.4553382823
 20
-37.5407739693
 10
-51.435389287
 20
-37.56029567
 10
-51.4152475686
 20
-37.578892938
 10
-51.3949070192
 20
-37.5965597332
 10
-51.374374149
 20
-37.6133024183
 10
-51.3538623679
 20
-37.6289531248
 10
-51.3334428856
 20
-37.6434559555
 10
-51.313044705
 20
-37.6568669783
 10
-51.2926678792
 20
-37.6691862356
  0
LWPOLYLINE
  5
248
100
AcDbEntity
  8
RACCORDO
100
AcDbPolyline
 62
7
  6
CONTINUOUS
 90
5
 70
0
 10
-51.8516248561
 20
-36.9133125833
 10
-51.8432419877
 20
-36.9542471323
 10
-51.8286078909
 20
-37.0112993838
 10
-51.8107200774
 20
-37.068072159
 10
-51.7896898394
 20
-37.1245790309
  0
LINE
  5
249
100
AcDbEntity
  8
RACCORDO
100
AcDbLine
 62
250
  6
CONTINUOUS
 10
-51.8507709097
 20
-36.9177543743
 11
-51.851582708
 21
-36.9135435058
  0
LINE
  5
24A
100
AcDbEntity
  8
RACCORDO
100
AcDbLine
 62
7
  6
CONTINUOUS
 10
-51.851582708
 20
-36.9135435058
 11
-51.8516248561
 21
-36.9133125833
  0
LINE
  5
24B
100
AcDbEntity
  8
RACCORDO
100
AcDbLine
 62
250
  6
CONTINUOUS
 10
-52.0322231332
 20
-35.2388747308
 11
-51.7070332613
 21
-37.1006166206
  0
LINE
  5
24C
100
AcDbEntity
  8
RACCORDO
100
AcDbLine
 62
250
  6
CONTINUOUS
 10
-53.789635199
 20
-19.374539963
 11
-53.7931517732
 21
-19.3497675371
  0
LINE
  5
24D
100
AcDbEntity
  8
RACCORDO
100
AcDbLine
 62
250
  6
CONTINUOUS
 10
-53.7900259544
 20
75.5240057946
 11
-53.7903806837
 21
75.5425480939
  0
LWPOLYLINE
  5
24E
100
AcDbEntity
  8
RACCORDO
100
AcDbPolyline
 62
7
  6
CONTINUOUS
 90
13
 70
0
 10
-31.6882326704
 20
47.7912863583
 10
-31.6751594084
 20
47.8216557291
 10
-31.6630251541
 20
47.8523611846
 10
-31.6518892376
 20
47.8832753805
 10
-31.6418130896
 20
47.9142735911
 10
-31.6328368398
 20
47.9452242463
 10
-31.6249795641
 20
47.9759895011
 10
-31.6182766413
 20
48.006431477
 10
-31.6127581527
 20
48.036435773
 10
-31.6084307484
 20
48.0659008763
 10
-31.6053112356
 20
48.0947111234
 10
-31.6034216077
 20
48.1227383282
 10
-31.6027713115
 20
48.1498645096
  0
LINE
  5
24F
100
AcDbEntity
  8
RACCORDO
100
AcDbLine
 62
7
  6
CONTINUOUS
 10
-31.8942159987
 20
47.3330489588
 11
-31.6882326704
 21
47.7912863583
  0
LWPOLYLINE
  5
250
100
AcDbEntity
  8
0
100
AcDbPolyline
 62
7
  6
CONTINUOUS
 90
8
 70
0
 10
1.0041868946
 20
-54.7230588465
 10
0.9881282424
 20
-54.7180513644
 10
0.9717058027
 20
-54.7121526049
 10
0.9549304138
 20
-54.7053646759
 10
0.9379969198
 20
-54.6979017747
 10
0.9209702536
 20
-54.6898353107
 10
0.9037854293
 20
-54.6810939099
 10
0.8864424314
 20
-54.6716775828
  0
LWPOLYLINE
  5
251
100
AcDbEntity
  8
RACCORDO
100
AcDbPolyline
 62
7
  6
CONTINUOUS
 90
7
 70
0
 10
26.6131128096
 20
-63.1894920571
 10
26.5860215268
 20
-63.1804459749
 10
26.5599191211
 20
-63.170779229
 10
26.5348055928
 20
-63.1604918195
 10
26.5106809417
 20
-63.1495837463
 10
26.4875451678
 20
-63.1380550095
 10
26.4653982713
 20
-63.125905609
  0
LWPOLYLINE
  5
252
100
AcDbEntity
  8
RACCORDO
100
AcDbPolyline
 62
7
  6
CONTINUOUS
 90
7
 70
0
 10
10.7032102244
 20
-54.0033137048
 10
10.6761189298
 20
-53.9942676172
 10
10.6500165179
 20
-53.9846008684
 10
10.6249029886
 20
-53.9743134583
 10
10.600778342
 20
-53.9634053869
 10
10.577642578
 20
-53.9518766543
 10
10.5554956967
 20
-53.9397272604
  0
LINE
  5
253
100
AcDbEntity
  8
0
100
AcDbLine
 62
7
  6
CONTINUOUS
 10
1.2647991755
 20
-55.1435592784
 11
1.2568495882
 21
-55.1408956068
  0
LWPOLYLINE
  5
254
100
AcDbEntity
  8
RACCORDO
100
AcDbPolyline
 62
7
  6
CONTINUOUS
 90
10
 70
0
 10
53.7243281795
 20
-72.6135099045
 10
53.7071095359
 20
-72.6066349681
 10
53.6892817029
 20
-72.601106122
 10
53.6709384974
 20
-72.5969765139
 10
53.6521908101
 20
-72.5942912857
 10
53.6331695862
 20
-72.5930847795
 10
53.6139871293
 20
-72.5933758232
 10
53.5947503774
 20
-72.5951715927
 10
53.575583962
 20
-72.5984584044
 10
53.5565935965
 20
-72.6032124612
  0
LWPOLYLINE
  5
255
100
AcDbEntity
  8
0
100
AcDbPolyline
 62
7
  6
CONTINUOUS
 90
19
 70
0
 10
0.117145946
 20
-53.3934591405
 10
0.1882566497
 20
-53.4234372337
 10
0.2576482783
 20
-53.453791439
 10
0.3253205355
 20
-53.4845219519
 10
0.3912493919
 20
-53.5155728814
 10
0.4554584132
 20
-53.5470004244
 10
0.5180187421
 20
-53.5789728775
 10
0.5789599366
 20
-53.611560256
 10
0.6382522112
 20
-53.6446926947
 10
0.6958777536
 20
-53.6783286298
 10
0.7518120184
 20
-53.7124354723
 10
0.8060796217
 20
-53.7470457647
 10
0.8587365676
 20
-53.7822155913
 10
0.909895514
 20
-53.8179486176
 10
0.9594441616
 20
-53.8542409417
 10
1.0071011913
 20
-53.8911372235
 10
1.0527731054
 20
-53.9286521677
 10
1.0965541879
 20
-53.9667705508
 10
1.138444924
 20
-54.0054920524
  0
LWPOLYLINE
  5
256
100
AcDbEntity
  8
0
100
AcDbPolyline
 62
7
  6
CONTINUOUS
 90
4
 70
0
 10
0.6474036123
 20
-54.0201709624
 10
0.6110448379
 20
-54.0031370936
 10
0.5745271214
 20
-53.9873198105
 10
0.5378506173
 20
-53.9727190106
  0
LWPOLYLINE
  5
257
100
AcDbEntity
  8
RACCORDO
100
AcDbPolyline
 62
250
  6
CONTINUOUS
 90
19
 70
0
 10
49.0267825954
 20
-78.8973102377
 10
49.0570851845
 20
-78.9133544293
 10
49.0895789281
 20
-78.927766333
 10
49.1240432618
 20
-78.940448122
 10
49.1602442449
 20
-78.9513137135
 10
49.1979361485
 20
-78.9602893529
 10
49.2368631233
 20
-78.9673141145
 10
49.2767609369
 20
-78.9723403147
 10
49.3173587665
 20
-78.9753338362
 10
49.3583810378
 20
-78.9762743593
 10
49.3995492955
 20
-78.9751554998
 10
49.4405840933
 20
-78.9719848524
 10
49.4812068908
 20
-78.9667839391
 10
49.5211419443
 20
-78.9595880632
 10
49.5601181784
 20
-78.9504460698
 10
49.5978710259
 20
-78.9394200138
 10
49.6341442241
 20
-78.926584739
 10
49.6686915539
 20
-78.9120273701
 10
49.7012785113
 20
-78.8958467211
  0
LWPOLYLINE
  5
258
100
AcDbEntity
  8
RACCORDO
100
AcDbPolyline
 62
250
  6
CONTINUOUS
 90
19
 70
0
 10
49.0236598415
 20
-78.8273821379
 10
49.0539624483
 20
-78.8434256364
 10
49.0864562401
 20
-78.8578373738
 10
49.1209206513
 20
-78.8705195243
 10
49.15712174
 20
-78.8813860024
 10
49.1948137758
 20
-78.8903630472
 10
49.2337409078
 20
-78.8973897231
 10
49.2736389015
 20
-78.9024183336
 10
49.3142369321
 20
-78.9054147449
 10
49.3552594231
 20
-78.9063586174
 10
49.3964279168
 20
-78.9052435444
 10
49.4374629644
 20
-78.9020770947
 10
49.478086023
 20
-78.896880762
 10
49.5180213461
 20
-78.8896898188
 10
49.5569978557
 20
-78.8805530765
 10
49.5947509819
 20
-78.8695325548
 10
49.6310244592
 20
-78.85670306
 10
49.665572066
 20
-78.8421516781
 10
49.6981592955
 20
-78.8259771826
  0
LWPOLYLINE
  5
259
100
AcDbEntity
  8
0
100
AcDbPolyline
 62
7
  6
CONTINUOUS
 90
17
 70
0
 10
0.8155129846
 20
-54.7126313518
 10
0.832787545
 20
-54.7220176205
 10
0.8499383925
 20
-54.7307433407
 10
0.8669655426
 20
-54.7388085019
 10
0.8839329558
 20
-54.7462896406
 10
0.9007767249
 20
-54.7531101848
 10
0.9173050843
 20
-54.7590404474
 10
0.9335086505
 20
-54.7640846104
 10
0.9493969335
 20
-54.7682384073
 10
0.9648065494
 20
-54.7712594511
 10
0.9797724313
 20
-54.7731538382
 10
0.994259892
 20
-54.7739153078
 10
1.0080011776
 20
-54.7732828973
 10
1.0209592932
 20
-54.7711843559
 10
1.033171636
 20
-54.7676916659
 10
1.0444820783
 20
-54.762760188
 10
1.0469871666
 20
-54.7613874184
  0
LINE
  5
25A
100
AcDbEntity
  8
0
100
AcDbLine
 62
7
  6
CONTINUOUS
 10
-5.338528756
 20
-52.3224283474
 11
-4.9743616926
 21
-52.5326938457
  0
LINE
  5
25B
100
AcDbEntity
  8
0
100
AcDbLine
 62
7
  6
CONTINUOUS
 10
-4.1846563541
 20
-52.9886598108
 11
-3.7714174944
 21
-53.2272587494
  0
LINE
  5
25C
100
AcDbEntity
  8
0
100
AcDbLine
 62
7
  6
CONTINUOUS
 10
-3.5489581655
 20
-53.3557039778
 11
-3.1536225423
 21
-53.5839658119
  0
LINE
  5
25D
100
AcDbEntity
  8
0
100
AcDbLine
 62
7
  6
CONTINUOUS
 10
-2.5796667964
 20
-53.9153606662
 11
-2.5217102033
 21
-53.9488240767
  0
LINE
  5
25E
100
AcDbEntity
  8
0
100
AcDbLine
 62
7
  6
CONTINUOUS
 10
-1.9454676741
 20
-54.281539291
 11
-1.5412104847
 21
-54.5149523257
  0
LINE
  5
25F
100
AcDbEntity
  8
0
100
AcDbLine
 62
7
  6
CONTINUOUS
 10
-1.4763207096
 20
-54.5524188686
 11
-1.0675656139
 21
-54.7884289379
  0
LINE
  5
260
100
AcDbEntity
  8
0
100
AcDbLine
 62
7
  6
CONTINUOUS
 10
-0.2837243119
 20
-55.2410090818
 11
0.1518124531
 21
-55.4924825514
  0
LINE
  5
261
100
AcDbEntity
  8
0
100
AcDbLine
 62
7
  6
CONTINUOUS
 10
0.2731596372
 20
-55.5625471585
 11
0.6847357655
 21
-55.8001860567
  0
LINE
  5
262
100
AcDbEntity
  8
0
100
AcDbLine
 62
7
  6
CONTINUOUS
 10
1.3175541041
 20
-56.1655674344
 11
1.7150418705
 21
-56.395071889
  0
LINE
  5
263
100
AcDbEntity
  8
0
100
AcDbLine
 62
7
  6
CONTINUOUS
 10
-0.9877059655
 20
-54.4176541326
 11
-0.4249430129
 21
-54.7425864083
  0
LINE
  5
264
100
AcDbEntity
  8
0
100
AcDbLine
 62
7
  6
CONTINUOUS
 10
-0.9286919485
 20
-54.1280785047
 11
-0.5330451983
 21
-54.3565199796
  0
LINE
  5
265
100
AcDbEntity
  8
0
100
AcDbLine
 62
7
  6
CONTINUOUS
 10
0.6190213944
 20
-54.943563518
 11
0.8405902053
 21
-55.0714945725
  0
LINE
  5
266
100
AcDbEntity
  8
0
100
AcDbLine
 62
7
  6
CONTINUOUS
 10
-0.8577430964
 20
-54.0871135267
 11
-0.5593180028
 21
-54.2594204356
  0
LINE
  5
267
100
AcDbEntity
  8
0
100
AcDbLine
 62
7
  6
CONTINUOUS
 10
0.5793510654
 20
-54.5762744194
 11
0.8155129846
 21
-54.7126313518
  0
LINE
  5
268
100
AcDbEntity
  8
0
100
AcDbLine
 62
7
  6
CONTINUOUS
 10
0.6502805081
 20
-54.5353206481
 11
0.8864424273
 21
-54.6716775805
  0
LINE
  5
269
100
AcDbEntity
  8
0
100
AcDbLine
 62
7
  6
CONTINUOUS
 10
-6.1237903545
 20
-49.7652170567
 11
-5.6748850287
 21
-50.0244093658
  0
LINE
  5
26A
100
AcDbEntity
  8
0
100
AcDbLine
 62
7
  6
CONTINUOUS
 10
-4.9086280582
 20
-50.4668365371
 11
-4.495671334
 21
-50.7052725741
  0
LINE
  5
26B
100
AcDbEntity
  8
0
100
AcDbLine
 62
7
  6
CONTINUOUS
 10
-3.5278648892
 20
-51.2640718858
 11
-3.114967562
 21
-51.5024736277
  0
LINE
  5
26C
100
AcDbEntity
  8
0
100
AcDbLine
 62
7
  6
CONTINUOUS
 10
-2.2928541055
 20
-51.977151634
 11
-1.8839950651
 21
-52.2132217197
  0
LINE
  5
26D
100
AcDbEntity
  8
0
100
AcDbLine
 62
7
  6
CONTINUOUS
 10
-1.0130254798
 20
-52.7161086425
 11
-0.6132661966
 21
-52.9469246425
  0
LINE
  5
26E
100
AcDbEntity
  8
0
100
AcDbLine
 62
7
  6
CONTINUOUS
 10
-4.3423260009
 20
-50.7936848385
 11
-3.9290871412
 21
-51.032283777
  0
LINE
  5
26F
100
AcDbEntity
  8
0
100
AcDbLine
 62
7
  6
CONTINUOUS
 10
-6.0529009001
 20
-49.7242863742
 11
-5.6039955743
 21
-49.9834786832
  0
LINE
  5
270
100
AcDbEntity
  8
0
100
AcDbLine
 62
7
  6
CONTINUOUS
 10
-4.8377386038
 20
-50.4259058546
 11
-4.4247818796
 21
-50.6643418915
  0
LINE
  5
271
100
AcDbEntity
  8
0
100
AcDbLine
 62
7
  6
CONTINUOUS
 10
-3.4569754348
 20
-51.2231412033
 11
-3.0440781076
 21
-51.4615429452
  0
LINE
  5
272
100
AcDbEntity
  8
0
100
AcDbLine
 62
7
  6
CONTINUOUS
 10
-2.2219646511
 20
-51.9362209515
 11
-1.8131056107
 21
-52.1722910372
  0
LINE
  5
273
100
AcDbEntity
  8
0
100
AcDbLine
 62
7
  6
CONTINUOUS
 10
-0.9421360254
 20
-52.67517796
 11
-0.5423767421
 21
-52.9059939599
  0
LINE
  5
274
100
AcDbEntity
  8
0
100
AcDbLine
 62
7
  6
CONTINUOUS
 10
-4.2714365516
 20
-50.7527541589
 11
-3.8581976919
 21
-50.9913530974
  0
LWPOLYLINE
  5
275
100
AcDbEntity
  8
RACCORDO
100
AcDbPolyline
 62
250
  6
CONTINUOUS
 90
11
 70
0
 10
-53.6439393008
 20
-19.6165221621
 10
-53.6718449054
 20
-19.5989576724
 10
-53.6971642439
 20
-19.5799890273
 10
-53.7197254508
 20
-19.5597449842
 10
-53.7393753829
 20
-19.5383629579
 10
-53.7559806583
 20
-19.5159880875
 10
-53.7694285618
 20
-19.4927722515
 10
-53.7796278105
 20
-19.4688730369
 10
-53.7865091727
 20
-19.4444526693
 10
-53.7900259384
 20
-19.4196769119
 10
-53.7903326911
 20
-19.4144811762
  0
LWPOLYLINE
  5
276
100
AcDbEntity
  8
RACCORDO
100
AcDbPolyline
 62
250
  6
CONTINUOUS
 90
3
 70
0
 10
-53.6470656597
 20
-19.546600793
 10
-53.6749713397
 20
-19.5290355563
 10
-53.700290721
 20
-19.5100666921
  0
LWPOLYLINE
  5
277
100
AcDbEntity
  8
RACCORDO
100
AcDbPolyline
 62
250
  6
CONTINUOUS
 90
7
 70
0
 10
-53.700290721
 20
-19.5100666921
 10
-53.7228519376
 20
-19.4898229597
 10
-53.7425018455
 20
-19.4684417722
 10
-53.7591070625
 20
-19.4460682635
 10
-53.7725548737
 20
-19.4228543034
 10
-53.7827539961
 20
-19.3989574666
 10
-53.789635199
 20
-19.374539963
  0
LWPOLYLINE
  5
278
100
AcDbEntity
  8
RACCORDO
100
AcDbPolyline
 62
250
  6
CONTINUOUS
 90
13
 70
0
 10
-34.6454099783
 20
63.6529976495
 10
-34.641549576
 20
63.7136156142
 10
-34.6345793126
 20
63.7724640648
 10
-34.6244991817
 20
63.8295430032
 10
-34.6112797479
 20
63.8852033444
 10
-34.5949503334
 20
63.939094229
 10
-34.5755995158
 20
63.9901627646
 10
-34.5530759286
 20
64.0383465216
 10
-34.5275317943
 20
64.0837074811
 10
-34.4995119651
 20
64.1253789034
 10
-34.4691988076
 20
64.163071485
 10
-34.4364116976
 20
64.1970736214
 10
-34.4011514062
 20
64.2273849113
  0
LWPOLYLINE
  5
279
100
AcDbEntity
  8
RACCORDO
100
AcDbPolyline
 62
250
  6
CONTINUOUS
 90
13
 70
0
 10
-33.9577077202
 20
63.6236124526
 10
-33.9553236188
 20
63.6606264524
 10
-33.9510255789
 20
63.6968801362
 10
-33.9447762949
 20
63.732218504
 10
-33.9365268592
 20
63.7665511959
 10
-33.9262633623
 20
63.7996436595
 10
-33.9140424926
 20
63.8311523334
 10
-33.8998613313
 20
63.8609847193
 10
-33.8837678415
 20
63.8889776404
 10
-33.865982763
 20
63.9147764482
 10
-33.8466572719
 20
63.9382584338
 10
-33.8258213398
 20
63.9594686631
 10
-33.8035646296
 20
63.978376797
  0
LINE
  5
27A
100
AcDbEntity
  8
SMUSSO
100
AcDbLine
 62
7
  6
CONTINUOUS
 10
-32.3020766885
 20
26.9932073897
 11
-31.8943793443
 21
27.3293924835
  0
LINE
  5
27B
100
AcDbEntity
  8
0
100
AcDbLine
 62
7
  6
CONTINUOUS
 10
-32.3020868457
 20
23.727317907
 11
-31.9526218221
 21
24.0154849344
  0
LWPOLYLINE
  5
27C
100
AcDbEntity
  8
RACCORDO
100
AcDbPolyline
 62
7
  6
CONTINUOUS
 90
7
 70
0
 10
-5.2066923523
 20
-44.8171353549
 10
-5.2337836788
 20
-44.8080892536
 10
-5.2598861099
 20
-44.7984224965
 10
-5.2849996455
 20
-44.7881350837
 10
-5.3091242858
 20
-44.7772270151
 10
-5.3322600306
 20
-44.7656982907
 10
-5.35440688
 20
-44.7535489105
  0
LWPOLYLINE
  5
27D
100
AcDbEntity
  8
RACCORDO
100
AcDbPolyline
 62
7
  6
CONTINUOUS
 90
7
 70
0
 10
-21.1165949293
 20
-35.6309570049
 10
-21.1436863241
 20
-35.6219108742
 10
-21.1697887962
 20
-35.6122440995
 10
-21.1949023455
 20
-35.6019566808
 10
-21.219026972
 20
-35.5910486181
 10
-21.2421626758
 20
-35.5795199114
 10
-21.2643094567
 20
-35.5673705606
  0
LWPOLYLINE
  5
27E
100
AcDbEntity
  8
RACCORDO
100
AcDbPolyline
 62
250
  6
CONTINUOUS
 90
19
 70
0
 10
53.9876163081
 20
-72.8267163275
 10
54.00922318
 20
-72.8363175762
 10
54.0301298913
 20
-72.8477792272
 10
54.050339186
 20
-72.8609899145
 10
54.069937968
 20
-72.8758096718
 10
54.0888112241
 20
-72.8921775767
 10
54.1066136787
 20
-72.9100448745
 10
54.1232528537
 20
-72.9291663868
 10
54.1387306509
 20
-72.9493852877
 10
54.1527949183
 20
-72.9707039578
 10
54.1653782057
 20
-72.9928686041
 10
54.1764771804
 20
-73.0156427538
 10
54.1858917613
 20
-73.0390383167
 10
54.1935954919
 20
-73.0627969588
 10
54.1996070442
 20
-73.0866561188
 10
54.203760528
 20
-73.1106219692
 10
54.20601321
 20
-73.1345215139
 10
54.2064813258
 20
-73.158005068
 10
54.205243855
 20
-73.180818467
  0
LWPOLYLINE
  5
27F
100
AcDbEntity
  8
RACCORDO
100
AcDbPolyline
 62
250
  6
CONTINUOUS
 90
19
 70
0
 10
53.8549937316
 20
-72.9129572628
 10
53.8762443676
 20
-72.9226864431
 10
53.8970741906
 20
-72.9342467488
 10
53.917332298
 20
-72.9475544306
 10
53.9368719294
 20
-72.9625130806
 10
53.9555515293
 20
-72.9790143305
 10
53.9732357725
 20
-72.9969386362
 10
53.989796545
 20
-73.0161561446
 10
54.0051138718
 20
-73.0365276338
 10
54.0190767859
 20
-73.0579055217
 10
54.0315841324
 20
-73.0801349356
 10
54.0425453015
 20
-73.1030548336
 10
54.0518808847
 20
-73.1264991718
 10
54.0595232499
 20
-73.1502981069
 10
54.0654170318
 20
-73.1742792267
 10
54.0695195327
 20
-73.1982687991
 10
54.0718010318
 20
-73.2220930307
 10
54.0722450008
 20
-73.2455793263
 10
54.0708482233
 20
-73.2685575383
  0
LINE
  5
280
100
AcDbEntity
  8
RACCORDO
100
AcDbLine
 62
250
  6
CONTINUOUS
 10
53.1327337709
 20
-73.3448104258
 11
53.1533303511
 21
-73.3550462926
  0
LWPOLYLINE
  5
281
100
AcDbEntity
  8
RACCORDO
100
AcDbPolyline
 62
250
  6
CONTINUOUS
 90
7
 70
0
 10
53.6325665667
 20
-72.6217150566
 10
53.6177894845
 20
-72.6140983722
 10
53.6029054518
 20
-72.6084785373
 10
53.5880772271
 20
-72.6049170052
 10
53.5734669583
 20
-72.6034527217
 10
53.5592344102
 20
-72.604101699
 10
53.5455352172
 20
-72.6068568403
  0
LWPOLYLINE
  5
282
100
AcDbEntity
  8
RACCORDO
100
AcDbPolyline
 62
250
  6
CONTINUOUS
 90
9
 70
0
 10
53.7460667513
 20
-72.6245904604
 10
53.7378511952
 20
-72.6203374203
 10
53.7255216725
 20
-72.6155913915
 10
53.7122140518
 20
-72.6123297233
 10
53.6980200673
 20
-72.6106581054
 10
53.6829015868
 20
-72.6106601725
 10
53.6668851052
 20
-72.6124434895
 10
53.6500766532
 20
-72.6161018773
 10
53.6325665667
 20
-72.6217150566
  0
LWPOLYLINE
  5
283
100
AcDbEntity
  8
RACCORDO
100
AcDbPolyline
 62
250
  6
CONTINUOUS
 90
22
 70
0
 10
-34.6454099774
 20
-29.938062015
 10
-34.6189464039
 20
-29.9522248488
 10
-34.5907757862
 20
-29.9651447915
 10
-34.5610453307
 20
-29.9767543298
 10
-34.5299103946
 20
-29.9869927977
 10
-34.4975336743
 20
-29.9958066937
 10
-34.4640843552
 20
-30.0031499608
 10
-34.4297372275
 20
-30.0089842263
 10
-34.3946717731
 20
-30.0132790033
 10
-34.3590712273
 20
-30.0160118493
 10
-34.3231216218
 20
-30.0171684837
 10
-34.2870108122
 20
-30.0167428625
 10
-34.2509274963
 20
-30.0147372097
 10
-34.2150602285
 20
-30.011162006
 10
-34.1795964341
 20
-30.0060359337
 10
-34.14472143
 20
-29.9993857793
 10
-34.1106174566
 20
-29.9912462932
 10
-34.0774627249
 20
-29.9816600085
 10
-34.0454304859
 20
-29.9706770187
 10
-34.0146881249
 20
-29.9583547156
 10
-33.9853962868
 20
-29.9447574898
 10
-33.9577080369
 20
-29.9299563938
  0
LWPOLYLINE
  5
284
100
AcDbEntity
  8
RACCORDO
100
AcDbPolyline
 62
7
  6
CONTINUOUS
 90
10
 70
0
 10
26.762723455
 20
-63.2537905349
 10
26.7481806699
 20
-63.2456664414
 10
26.733103374
 20
-63.2377793261
 10
26.7174915675
 20
-63.2301291888
 10
26.7013261092
 20
-63.2227053943
 10
26.6846261403
 20
-63.215518578
 10
26.6674490836
 20
-63.2086006456
 10
26.64981408
 20
-63.2019622322
 10
26.6317019887
 20
-63.1955927027
 10
26.6131128096
 20
-63.1894920571
  0
LWPOLYLINE
  5
285
100
AcDbEntity
  8
RACCORDO
100
AcDbPolyline
 62
7
  6
CONTINUOUS
 90
10
 70
0
 10
10.8528208649
 20
-54.0676121783
 10
10.8382780818
 20
-54.0594880872
 10
10.8232007879
 20
-54.0516009737
 10
10.807588983
 20
-54.0439508378
 10
10.7914235267
 20
-54.0365270442
 10
10.7747235594
 20
-54.0293402283
 10
10.7575465033
 20
-54.0224222958
 10
10.7399114992
 20
-54.015783882
 10
10.7217994062
 20
-54.0094143516
 10
10.7032102244
 20
-54.0033137048
  0
LWPOLYLINE
  5
286
100
AcDbEntity
  8
RACCORDO
100
AcDbPolyline
 62
7
  6
CONTINUOUS
 90
10
 70
0
 10
-5.0570817118
 20
-44.8814338284
 10
-5.0716244949
 20
-44.8733097373
 10
-5.0867017888
 20
-44.8654226238
 10
-5.1023135937
 20
-44.8577724879
 10
-5.11847905
 20
-44.8503486944
 10
-5.1351790173
 20
-44.8431618784
 10
-5.1523560734
 20
-44.8362439459
 10
-5.1699910775
 20
-44.8296055321
 10
-5.1881031705
 20
-44.8232360018
 10
-5.2066923523
 20
-44.8171353549
  0
LWPOLYLINE
  5
287
100
AcDbEntity
  8
RACCORDO
100
AcDbPolyline
 62
7
  6
CONTINUOUS
 90
10
 70
0
 10
-20.9669842885
 20
-35.6952554786
 10
-20.9815270716
 20
-35.6871313875
 10
-20.9966043655
 20
-35.679244274
 10
-21.0122161703
 20
-35.6715941381
 10
-21.0283816267
 20
-35.6641703445
 10
-21.0450815939
 20
-35.6569835286
 10
-21.06225865
 20
-35.650065596
 10
-21.0798936542
 20
-35.6434271822
 10
-21.0980057473
 20
-35.6370576519
 10
-21.1165949293
 20
-35.6309570049
  0
LWPOLYLINE
  5
288
100
AcDbEntity
  8
RACCORDO
100
AcDbPolyline
 62
250
  6
CONTINUOUS
 90
16
 70
0
 10
-33.3442090373
 20
-30.8820182309
 10
-33.3772709755
 20
-30.8632357602
 10
-33.4106398587
 20
-30.8422644108
 10
-33.4442153418
 20
-30.8191182574
 10
-33.4779604726
 20
-30.7937837103
 10
-33.5116932803
 20
-30.7663281544
 10
-33.5450933622
 20
-30.7369310711
 10
-33.5780802561
 20
-30.7056426146
 10
-33.6105053886
 20
-30.6725859676
 10
-33.6419673158
 20
-30.6381280194
 10
-33.6723517587
 20
-30.6024285078
 10
-33.7015922517
 20
-30.565613784
 10
-33.7294028194
 20
-30.5280621505
 10
-33.7556629952
 20
-30.4900147635
 10
-33.7803963505
 20
-30.451551069
 10
-33.8035646296
 20
-30.4128205862
  0
LINE
  5
289
100
AcDbEntity
  8
RACCORDO
100
AcDbLine
 62
250
  6
CONTINUOUS
 10
29.0957002667
 20
-67.7497376476
 11
-33.6787526746
 21
-31.504555268
  0
LINE
  5
28A
100
AcDbEntity
  8
RACCORDO
100
AcDbLine
 62
250
  6
CONTINUOUS
 10
29.783994685
 20
-67.786765667
 11
49.0267809442
 21
-78.8972733085
  0
LINE
  5
28B
100
AcDbEntity
  8
RACCORDO
100
AcDbLine
 62
250
  6
CONTINUOUS
 10
-53.6439409754
 20
-19.6164851728
 11
-34.4012317787
 21
-30.7269360695
  0
LINE
  5
28C
100
AcDbEntity
  8
RACCORDO
100
AcDbLine
 62
250
  6
CONTINUOUS
 10
29.4302669457
 20
-67.1272136598
 11
-33.3442088166
 21
-30.8820181036
  0
LINE
  5
28D
100
AcDbEntity
  8
RACCORDO
100
AcDbLine
 62
7
  6
CONTINUOUS
 10
-32.0804315196
 20
-30.152528565
 11
29.7755745553
 21
-65.8674112348
  0
LINE
  5
28E
100
AcDbEntity
  8
RACCORDO
100
AcDbLine
 62
7
  6
CONTINUOUS
 10
26.4653982713
 20
-63.125905609
 11
21.6676108866
 21
-60.3557233036
  0
LINE
  5
28F
100
AcDbEntity
  8
RACCORDO
100
AcDbLine
 62
7
  6
CONTINUOUS
 10
10.5554956967
 20
-53.9397272604
 11
5.7577083099
 21
-51.1695449537
  0
LINE
  5
290
100
AcDbEntity
  8
RACCORDO
100
AcDbLine
 62
7
  6
CONTINUOUS
 10
-5.35440688
 20
-44.7535489105
 11
-10.1521942668
 21
-41.9833666038
  0
LINE
  5
291
100
AcDbEntity
  8
RACCORDO
100
AcDbLine
 62
7
  6
CONTINUOUS
 10
-21.2643094567
 20
-35.5673705606
 11
-26.0620968435
 21
-32.7971882539
  0
LINE
  5
292
100
AcDbEntity
  8
RACCORDO
100
AcDbLine
 62
7
  6
CONTINUOUS
 10
-31.0764557316
 20
-29.8581733714
 11
-26.2673531065
 21
-32.6348889504
  0
LINE
  5
293
100
AcDbEntity
  8
RACCORDO
100
AcDbLine
 62
7
  6
CONTINUOUS
 10
-20.9669842885
 20
-35.6952554786
 11
-10.3574505298
 21
-41.8210673003
  0
LINE
  5
294
100
AcDbEntity
  8
RACCORDO
100
AcDbLine
 62
7
  6
CONTINUOUS
 10
-5.0570817118
 20
-44.8814338284
 11
5.5524520469
 21
-51.0072456502
  0
LINE
  5
295
100
AcDbEntity
  8
RACCORDO
100
AcDbLine
 62
7
  6
CONTINUOUS
 10
10.8528208649
 20
-54.0676121783
 11
21.4623546236
 21
-60.193424
  0
LINE
  5
296
100
AcDbEntity
  8
RACCORDO
100
AcDbLine
 62
7
  6
CONTINUOUS
 10
26.762723455
 20
-63.2537905349
 11
29.740065472
 21
-64.9728705029
  0
LWPOLYLINE
  5
297
100
AcDbEntity
  8
RACCORDO
100
AcDbPolyline
 62
250
  6
CONTINUOUS
 90
16
 70
0
 10
-33.6787526746
 20
-31.504555268
 10
-33.7309017716
 20
-31.4729794605
 10
-33.783236836
 20
-31.4378898223
 10
-33.8357575121
 20
-31.3992861261
 10
-33.888755254
 20
-31.3569941224
 10
-33.9419371496
 20
-31.3111871297
 10
-33.9944259267
 20
-31.2623860386
 10
-34.0462415028
 20
-31.2104339367
 10
-34.0973609761
 20
-31.1554858327
 10
-34.146842724
 20
-31.0985304213
 10
-34.1945986777
 20
-31.0395122159
 10
-34.2407130921
 20
-30.9784842748
 10
-34.2845033501
 20
-30.9165984435
 10
-34.3257409934
 20
-30.8542380873
 10
-34.3646511041
 20
-30.7910176982
 10
-34.4012317787
 20
-30.7269360695
  0
LWPOLYLINE
  5
298
100
AcDbEntity
  8
RACCORDO
100
AcDbPolyline
 62
7
  6
CONTINUOUS
 90
7
 70
0
 10
-26.0620968435
 20
-32.7971882539
 10
-26.0829023371
 20
-32.7845374871
 10
-26.1021911326
 20
-32.7715708115
 10
-26.1199632302
 20
-32.7582882272
 10
-26.1362186297
 20
-32.7446897342
 10
-26.1509573312
 20
-32.7307753326
 10
-26.1641793347
 20
-32.7165450222
  0
LWPOLYLINE
  5
299
100
AcDbEntity
  8
RACCORDO
100
AcDbPolyline
 62
7
  6
CONTINUOUS
 90
7
 70
0
 10
-10.1521942668
 20
-41.9833666038
 10
-10.172999785
 20
-41.9707158175
 10
-10.1922885953
 20
-41.9577491302
 10
-10.2100606978
 20
-41.9444665421
 10
-10.2263160924
 20
-41.930868053
 10
-10.241054779
 20
-41.9169536631
 10
-10.2542767578
 20
-41.9027233722
  0
LWPOLYLINE
  5
29A
100
AcDbEntity
  8
RACCORDO
100
AcDbPolyline
 62
7
  6
CONTINUOUS
 90
7
 70
0
 10
5.7577083099
 20
-51.1695449537
 10
5.7369027812
 20
-51.1568941591
 10
5.7176139646
 20
-51.1439274668
 10
5.69984186
 20
-51.1306448771
 10
5.6835864676
 20
-51.1170463897
 10
5.6688477872
 20
-51.1031320047
 10
5.655625819
 20
-51.0889017222
  0
LWPOLYLINE
  5
29B
100
AcDbEntity
  8
RACCORDO
100
AcDbPolyline
 62
7
  6
CONTINUOUS
 90
7
 70
0
 10
21.6676108866
 20
-60.3557233036
 10
21.6468053538
 20
-60.3430725057
 10
21.6275165348
 20
-60.3301058116
 10
21.6097444294
 20
-60.3168232212
 10
21.5934890378
 20
-60.3032247344
 10
21.5787503599
 20
-60.2893103514
 10
21.5655283957
 20
-60.2750800721
  0
LWPOLYLINE
  5
29C
100
AcDbEntity
  8
RACCORDO
100
AcDbPolyline
 62
250
  6
CONTINUOUS
 90
12
 70
0
 10
29.9698498584
 20
-67.2460996292
 10
29.9452312437
 20
-67.2307686228
 10
29.9225865968
 20
-67.2143488266
 10
29.9020342496
 20
-67.1969260442
 10
29.8836816006
 20
-67.1785913199
 10
29.8676245534
 20
-67.159440464
 10
29.8539470158
 20
-67.139573551
 10
29.8427204612
 20
-67.1190943978
 10
29.8340035551
 20
-67.0981100202
 10
29.8278418487
 20
-67.0767300743
 10
29.8242675406
 20
-67.0550662833
 10
29.8234474822
 20
-67.0439450457
  0
LWPOLYLINE
  5
29D
100
AcDbEntity
  8
0
100
AcDbPolyline
 62
7
  6
CONTINUOUS
 90
7
 70
0
 10
0.860713328
 20
-54.1466740444
 10
0.8259765656
 20
-54.1228959135
 10
0.7909139174
 20
-54.1001954585
 10
0.7555253138
 20
-54.0785727253
 10
0.7197551169
 20
-54.0579814042
 10
0.6836589327
 20
-54.0384678261
 10
0.6474036123
 20
-54.0201709624
  0
LWPOLYLINE
  5
29E
100
AcDbEntity
  8
0
100
AcDbPolyline
 62
7
  6
CONTINUOUS
 90
19
 70
0
 10
1.2093362819
 20
-53.9645602759
 10
1.1674760051
 20
-53.9258625306
 10
1.1237062021
 20
-53.8877538458
 10
1.0780263883
 20
-53.8502345415
 10
1.0303343979
 20
-53.8133133927
 10
0.9807316114
 20
-53.7769821425
 10
0.9295229937
 20
-53.7412154773
 10
0.8768283051
 20
-53.706024025
 10
0.8225274254
 20
-53.6713973949
 10
0.7665656106
 20
-53.6372786721
 10
0.7089169308
 20
-53.6036347472
 10
0.6496072454
 20
-53.5704987761
 10
0.5886595675
 20
-53.5379131922
 10
0.5261036144
 20
-53.5059480008
 10
0.4619098969
 20
-53.4745330464
 10
0.3960126774
 20
-53.4435004823
 10
0.3283901919
 20
-53.412794262
 10
0.259064667
 20
-53.3824701268
 10
0.1880363984
 20
-53.3525278818
  0
LWPOLYLINE
  5
29F
100
AcDbEntity
  8
0
100
AcDbPolyline
 62
7
  6
CONTINUOUS
 90
10
 70
0
 10
-31.3743747223
 20
-29.6255391074
 10
-31.3422702661
 20
-29.6566890105
 10
-31.3098591673
 20
-29.6865579235
 10
-31.2771417812
 20
-29.7151460729
 10
-31.2440430022
 20
-29.7425134543
 10
-31.2106385056
 20
-29.7686004356
 10
-31.1771547557
 20
-29.7932277616
 10
-31.1436673432
 20
-29.8163357463
 10
-31.1101009769
 20
-29.837984267
 10
-31.0764557316
 20
-29.8581733714
  0
LWPOLYLINE
  5
2A0
100
AcDbEntity
  8
0
100
AcDbPolyline
 62
7
  6
CONTINUOUS
 90
48
 70
0
 10
1.138444924
 20
-54.0054920524
 10
1.1595312304
 20
-54.0264824624
 10
1.1809047082
 20
-54.049408121
 10
1.2025657749
 20
-54.0742687523
 10
1.2245829729
 20
-54.101044258
 10
1.2468887911
 20
-54.1297540552
 10
1.2692797351
 20
-54.1604570308
 10
1.2919017792
 20
-54.1932483853
 10
1.3146105819
 20
-54.2280318386
 10
1.3367674331
 20
-54.264578885
 10
1.3584499965
 20
-54.3031587904
 10
1.3795830151
 20
-54.3435006954
 10
1.399298276
 20
-54.3845659865
 10
1.417500594
 20
-54.4265179456
 10
1.4342873737
 20
-54.4691918175
 10
1.4490781542
 20
-54.5110576822
 10
1.4616119379
 20
-54.5519593394
 10
1.4721502519
 20
-54.5920526332
 10
1.480894657
 20
-54.6302768798
 10
1.4877330511
 20
-54.6662873145
 10
1.4927761936
 20
-54.7004295887
 10
1.4965588335
 20
-54.7326793768
 10
1.4991541581
 20
-54.7629177613
 10
1.5004873795
 20
-54.7912647202
 10
1.5008711895
 20
-54.8180543347
 10
1.5003344162
 20
-54.8433492792
 10
1.4988470712
 20
-54.8670876492
 10
1.4966337602
 20
-54.8894165652
 10
1.4937013787
 20
-54.9103237158
 10
1.4900419987
 20
-54.9298220987
 10
1.4858580663
 20
-54.9480967495
 10
1.4811614481
 20
-54.9651469324
 10
1.4759394375
 20
-54.9809739422
 10
1.4703577202
 20
-54.9957657934
 10
1.4644294392
 20
-55.0095386177
 10
1.4581407975
 20
-55.0222767192
 10
1.4516171583
 20
-55.0341203121
 10
1.4448736383
 20
-55.0450724452
 10
1.4378945981
 20
-55.0551304184
 10
1.4307593387
 20
-55.0644257744
 10
1.4234679481
 20
-55.0729655667
 10
1.4160199421
 20
-55.0807430061
 10
1.4084938235
 20
-55.0878688309
 10
1.4008856897
 20
-55.094323613
 10
1.3931991343
 20
-55.1001269868
 10
1.3855239622
 20
-55.1054482465
 10
1.3778652384
 20
-55.1102943208
 10
1.3742744618
 20
-55.1123909773
  0
LWPOLYLINE
  5
2A1
100
AcDbEntity
  8
RACCORDO
100
AcDbPolyline
 62
7
  6
CONTINUOUS
 90
10
 70
0
 10
-26.1641793347
 20
-32.7165450222
 10
-26.1730279106
 20
-32.7068034543
 10
-26.1825439799
 20
-32.6972208317
 10
-26.1927275426
 20
-32.6877971544
 10
-26.2035968641
 20
-32.6785214593
 10
-26.2151336789
 20
-32.6694047095
 10
-26.2272831903
 20
-32.6604797948
 10
-26.2400271325
 20
-32.6517576783
 10
-26.2533837713
 20
-32.6432273968
 10
-26.2673531065
 20
-32.6348889504
  0
LWPOLYLINE
  5
2A2
100
AcDbEntity
  8
0
100
AcDbPolyline
 62
7
  6
CONTINUOUS
 90
10
 70
0
 10
-31.6949805077
 20
-29.2057843623
 10
-31.6648509929
 20
-29.2564041467
 10
-31.6332664476
 20
-29.306156818
 10
-31.6002280377
 20
-29.3550431154
 10
-31.5656313684
 20
-29.4032365528
 10
-31.5295829345
 20
-29.4505649496
 10
-31.4924003358
 20
-29.4965105681
 10
-31.4541902152
 20
-29.5409013232
 10
-31.414848044
 20
-29.5839106451
 10
-31.3743747223
 20
-29.6255391074
  0
LWPOLYLINE
  5
2A3
100
AcDbEntity
  8
RACCORDO
100
AcDbPolyline
 62
250
  6
CONTINUOUS
 90
16
 70
0
 10
-33.8035646296
 20
-30.4128205862
 10
-33.8212840118
 20
-30.3811124499
 10
-33.8381640527
 20
-30.3488948621
 10
-33.8541538766
 20
-30.316233488
 10
-33.869230498
 20
-30.2831455265
 10
-33.8833135123
 20
-30.2497546606
 10
-33.8962816239
 20
-30.2162907503
 10
-33.9080999755
 20
-30.1828269986
 10
-33.9187406894
 20
-30.1494424802
 10
-33.9281269326
 20
-30.1163729307
 10
-33.9362460346
 20
-30.0836897645
 10
-33.9430953958
 20
-30.0514618081
 10
-33.948649885
 20
-30.0199076929
 10
-33.9529196555
 20
-29.9891331272
 10
-33.955931929
 20
-29.9591381201
 10
-33.9577074074
 20
-29.9299698791
  0
LWPOLYLINE
  5
2A4
100
AcDbEntity
  8
RACCORDO
100
AcDbPolyline
 62
250
  6
CONTINUOUS
 90
16
 70
0
 10
-34.4012112584
 20
-30.7269479176
 10
-34.4292004479
 20
-30.6748566452
 10
-34.4557424207
 20
-30.6221486019
 10
-34.480836752
 20
-30.5688235182
 10
-34.5045962339
 20
-30.5146614835
 10
-34.5269071412
 20
-30.4598818168
 10
-34.5474293997
 20
-30.4051431731
 10
-34.5661102663
 20
-30.3504580325
 10
-34.583001809
 20
-30.2958134878
 10
-34.5979214919
 20
-30.2418303174
 10
-34.6108177124
 20
-30.1885301136
 10
-34.6217417347
 20
-30.1358910709
 10
-34.6306656971
 20
-30.0844691082
 10
-34.6375804159
 20
-30.0344495978
 10
-34.642495168
 20
-29.9856472281
 10
-34.6454099783
 20
-29.9380620156
  0
LWPOLYLINE
  5
2A5
100
AcDbEntity
  8
0
100
AcDbPolyline
 62
7
  6
CONTINUOUS
 90
3
 70
0
 10
-31.1033845789
 20
-29.7773833946
 10
-31.0868850099
 20
-29.8369402041
 10
-31.0811983752
 20
-29.8553275093
  0
LINE
  5
2A6
100
AcDbEntity
  8
RACCORDO
100
AcDbLine
 62
250
  6
CONTINUOUS
 10
-53.7865091895
 20
75.5014100622
 11
-53.7900259544
 21
75.5240057946
  0
LWPOLYLINE
  5
2A7
100
AcDbEntity
  8
0
100
AcDbPolyline
 62
7
  6
CONTINUOUS
 90
7
 70
0
 10
-31.1578849619
 20
-29.4367656924
 10
-31.1542332326
 20
-29.4903186263
 10
-31.148408922
 20
-29.5451583017
 10
-31.1404119658
 20
-29.6012846673
 10
-31.1301852725
 20
-29.6590411374
 10
-31.117785565
 20
-29.7180840404
 10
-31.1033845789
 20
-29.7773833946
  0
LWPOLYLINE
  5
2A8
100
AcDbEntity
  8
RACCORDO
100
AcDbPolyline
 62
7
  6
CONTINUOUS
 90
28
 70
0
 10
-32.6747195533
 20
-29.1893769238
 10
-32.672189286
 20
-29.2267892683
 10
-32.6677777423
 20
-29.2650204336
 10
-32.661484996
 20
-29.304070466
 10
-32.6532668944
 20
-29.3441315565
 10
-32.6431677058
 20
-29.3850115866
 10
-32.6313202724
 20
-29.4261342257
 10
-32.617729245
 20
-29.4674126357
 10
-32.6023903943
 20
-29.5089339213
 10
-32.5854234359
 20
-29.5503827886
 10
-32.5668266292
 20
-29.5917630505
 10
-32.5466022095
 20
-29.6330712073
 10
-32.5248759667
 20
-29.6739810666
 10
-32.5015518432
 20
-29.7146090402
 10
-32.4767264403
 20
-29.7548390609
 10
-32.4508146656
 20
-29.7939962999
 10
-32.423873228
 20
-29.8319475429
 10
-32.3958460546
 20
-29.8688264077
 10
-32.3669789564
 20
-29.9043583622
 10
-32.3372764018
 20
-29.938536319
 10
-32.3067344409
 20
-29.9713676946
 10
-32.2755862544
 20
-30.0025997104
 10
-32.2437619305
 20
-30.0322732578
 10
-32.2113317582
 20
-30.0603476851
 10
-32.1787391971
 20
-30.0864478844
 10
-32.1461321386
 20
-30.1104488652
 10
-32.1133628959
 20
-30.132475748
 10
-32.0804315196
 20
-30.152528565
  0
LWPOLYLINE
  5
2A9
100
AcDbEntity
  8
0
100
AcDbPolyline
 62
7
  6
CONTINUOUS
 90
22
 70
0
 10
-31.9290733488
 20
-28.4753858617
 10
-31.9271446373
 20
-28.5087095093
 10
-31.924213221
 20
-28.5423280309
 10
-31.9202791707
 20
-28.5762414711
 10
-31.9153232802
 20
-28.6104836891
 10
-31.9093648915
 20
-28.6450209113
 10
-31.9024619134
 20
-28.6797517425
 10
-31.8946153529
 20
-28.7146783337
 10
-31.8858243709
 20
-28.74979864
 10
-31.8761441407
 20
-28.7850049936
 10
-31.8655777066
 20
-28.8202919955
 10
-31.8541222221
 20
-28.8556651697
 10
-31.8418240546
 20
-28.8910332522
 10
-31.8286838777
 20
-28.9263935233
 10
-31.8147012347
 20
-28.9617488401
 10
-31.7999208216
 20
-28.9970163196
 10
-31.7843428179
 20
-29.032199145
 10
-31.7679672722
 20
-29.0672942778
 10
-31.7508387062
 20
-29.1022095163
 10
-31.7329720462
 20
-29.1369141811
 10
-31.7143526083
 20
-29.1714391054
 10
-31.6949805077
 20
-29.2057843623
  0
LWPOLYLINE
  5
2AA
100
AcDbEntity
  8
0
100
AcDbPolyline
 62
7
  6
CONTINUOUS
 90
3
 70
0
 10
-31.2045764128
 20
-28.4610070268
 10
-31.19720313
 20
-28.6239582943
 10
-31.1578849619
 20
-29.4367656924
  0
LWPOLYLINE
  5
2AB
100
AcDbEntity
  8
RACCORDO
100
AcDbPolyline
 62
250
  6
CONTINUOUS
 90
10
 70
0
 10
-34.6454099783
 20
-29.9380620156
 10
-34.7265526468
 20
-27.9359764257
 10
-34.7972124771
 20
-25.9451820494
 10
-34.8576437432
 20
-23.9658998199
 10
-34.9080984747
 20
-21.9983651607
 10
-34.9488277814
 20
-20.0427714647
 10
-34.9800809322
 20
-18.0992696057
 10
-35.0021039586
 20
-16.1680436939
 10
-35.0151405245
 20
-14.2493116698
 10
-35.019432629
 20
-12.343268405
  0
LWPOLYLINE
  5
2AC
100
AcDbEntity
  8
RACCORDO
100
AcDbPolyline
 62
250
  6
CONTINUOUS
 90
10
 70
0
 10
-33.9577075593
 20
-29.9299699666
 10
-34.038318879
 20
-27.929754657
 10
-34.1089890263
 20
-25.941094891
 10
-34.1697053296
 20
-23.9640734388
 10
-34.2201946018
 20
-21.9986542659
 10
-34.2607050026
 20
-20.0450287101
 10
-34.2920060846
 20
-18.1036154961
 10
-34.3143462893
 20
-16.1745993708
 10
-34.3274528997
 20
-14.257931229
 10
-34.3313139352
 20
-12.3536742471
  0
LINE
  5
2AD
100
AcDbEntity
  8
0
100
AcDbLine
 62
7
  6
CONTINUOUS
 10
-31.9781257625
 20
-27.2981639853
 11
-32.0460550258
 21
-25.505171387
  0
LINE
  5
2AE
100
AcDbEntity
  8
0
100
AcDbLine
 62
7
  6
CONTINUOUS
 10
-32.0616743497
 20
-25.0367554969
 11
-32.106008598
 21
-23.7071930546
  0
LWPOLYLINE
  5
2AF
100
AcDbEntity
  8
0
100
AcDbPolyline
 62
7
  6
CONTINUOUS
 90
4
 70
0
 10
-32.1362798992
 20
-22.6916171862
 10
-32.0764157847
 20
-24.625276798
 10
-32.0073462874
 20
-26.5532184709
 10
-31.9263467204
 20
-28.5178603035
  0
LINE
  5
2B0
100
AcDbEntity
  8
0
100
AcDbLine
 62
7
  6
CONTINUOUS
 10
-32.1218431249
 20
-23.1579367433
 11
-32.1579849908
 21
-21.9042745294
  0
LWPOLYLINE
  5
2B1
100
AcDbEntity
  8
RACCORDO
100
AcDbPolyline
 62
7
  6
CONTINUOUS
 90
13
 70
0
 10
-31.6027713115
 20
-10.9727033903
 10
-31.6034216077
 20
-10.9466450395
 10
-31.6053112356
 20
-10.9217160066
 10
-31.6084307484
 20
-10.8980233635
 10
-31.6127581527
 20
-10.8756795662
 10
-31.6182766413
 20
-10.8547712024
 10
-31.6249795641
 20
-10.8353631041
 10
-31.6328368398
 20
-10.8175422628
 10
-31.6418130896
 20
-10.8013983748
 10
-31.6518892376
 20
-10.7869962713
 10
-31.6630251541
 20
-10.7744041869
 10
-31.6751594084
 20
-10.7636929035
 10
-31.6882326704
 20
-10.7549212526
  0
LINE
  5
2B2
100
AcDbEntity
  8
0
100
AcDbLine
 62
7
  6
CONTINUOUS
 10
-32.1362798992
 20
-22.6916171862
 11
-32.1933835458
 21
-20.4497976019
  0
LINE
  5
2B3
100
AcDbEntity
  8
0
100
AcDbLine
 62
7
  6
CONTINUOUS
 10
-32.1869368741
 20
-20.7522997334
 11
-32.2380012951
 21
-18.2837996882
  0
LINE
  5
2B4
100
AcDbEntity
  8
0
100
AcDbLine
 62
7
  6
CONTINUOUS
 10
-32.2380173595
 20
-17.8755157294
 11
-32.2633549591
 21
-16.2573188644
  0
LINE
  5
2B5
100
AcDbEntity
  8
0
100
AcDbLine
 62
7
  6
CONTINUOUS
 10
-32.1673066873
 20
-17.8346882658
 11
-32.1926442856
 21
-16.2164914
  0
LINE
  5
2B6
100
AcDbEntity
  8
0
100
AcDbLine
 62
7
  6
CONTINUOUS
 10
-32.2283854242
 20
-18.8073775454
 11
-32.2633550066
 21
-16.6655938195
  0
LINE
  5
2B7
100
AcDbEntity
  8
0
100
AcDbLine
 62
7
  6
CONTINUOUS
 10
-31.9138310971
 20
-16.3774767444
 11
-31.8884980582
 21
-17.9956689175
  0
LWPOLYLINE
  5
2B8
100
AcDbEntity
  8
RACCORDO
100
AcDbPolyline
 62
250
  6
CONTINUOUS
 90
22
 70
0
 10
-33.6787526746
 20
-31.504555268
 10
-33.6791691155
 20
-31.4742548336
 10
-33.6776067541
 20
-31.4428614304
 10
-33.674074343
 20
-31.4105508082
 10
-33.6685916637
 20
-31.3775038515
 10
-33.6611894152
 20
-31.3439055648
 10
-33.6519090422
 20
-31.3099440368
 10
-33.6408025033
 20
-31.2758093911
 10
-33.6279319801
 20
-31.2416927181
 10
-33.613369527
 20
-31.2077850041
 10
-33.5971966713
 20
-31.1742760685
 10
-33.5795039546
 20
-31.1413534966
 10
-33.5603904237
 20
-31.1092015859
 10
-33.5399630815
 20
-31.0780003245
 10
-33.5183362847
 20
-31.0479243774
 10
-33.4956311002
 20
-31.0191421041
 10
-33.4719746354
 20
-30.9918146281
 10
-33.4474993221
 20
-30.9660949276
 10
-33.4223421706
 20
-30.9421269753
 10
-33.396644011
 20
-30.9200449419
 10
-33.3705487053
 20
-30.8999724435
 10
-33.3442023368
 20
-30.8820218449
  0
LINE
  5
2B9
100
AcDbEntity
  8
0
100
AcDbLine
 62
7
  6
CONTINUOUS
 10
-32.2633549591
 20
-16.2573188644
 11
-32.2823558665
 21
-14.6353601559
  0
LINE
  5
2BA
100
AcDbEntity
  8
0
100
AcDbLine
 62
7
  6
CONTINUOUS
 10
-32.1926442856
 20
-16.2164914
 11
-32.2116451918
 21
-14.5945326908
  0
LINE
  5
2BB
100
AcDbEntity
  8
0
100
AcDbLine
 62
7
  6
CONTINUOUS
 10
-31.9328310229
 20
-14.755508481
 11
-31.9138310971
 21
-16.3774767444
  0
LINE
  5
2BC
100
AcDbEntity
  8
0
100
AcDbLine
 62
7
  6
CONTINUOUS
 10
-32.2606245652
 20
-16.856896631
 11
-32.2872777159
 21
-14.5021377356
  0
LINE
  5
2BD
100
AcDbEntity
  8
0
100
AcDbLine
 62
7
  6
CONTINUOUS
 10
-32.2823558665
 20
-14.6353601559
 11
-32.2922385922
 21
-13.417990099
  0
LINE
  5
2BE
100
AcDbEntity
  8
0
100
AcDbLine
 62
7
  6
CONTINUOUS
 10
-32.2116451918
 20
-14.5945326908
 11
-32.2216617256
 21
-13.357518116
  0
LINE
  5
2BF
100
AcDbEntity
  8
0
100
AcDbLine
 62
7
  6
CONTINUOUS
 10
-31.9454975786
 20
-13.1297946074
 11
-31.9328310229
 21
-14.755508481
  0
LINE
  5
2C0
100
AcDbEntity
  8
0
100
AcDbLine
 62
7
  6
CONTINUOUS
 10
-32.2836533113
 20
-14.9009102773
 11
-32.2989216348
 21
-12.603772389
  0
LWPOLYLINE
  5
2C1
100
AcDbEntity
  8
RACCORDO
100
AcDbPolyline
 62
7
  6
CONTINUOUS
 90
10
 70
0
 10
-31.6027713115
 20
-10.9727033903
 10
-31.5954516022
 20
-12.9380697724
 10
-31.5788986232
 20
-14.8980120785
 10
-31.5531129628
 20
-16.8524728225
 10
-31.5180955347
 20
-18.8013916289
 10
-31.4738474451
 20
-20.7447144057
 10
-31.4203698475
 20
-22.6823932577
 10
-31.3576641873
 20
-24.6143743002
 10
-31.2857323473
 20
-26.5405977479
 10
-31.2045764128
 20
-28.4610070268
  0
LWPOLYLINE
  5
2C2
100
AcDbEntity
  8
RACCORDO
100
AcDbPolyline
 62
7
  6
CONTINUOUS
 90
10
 70
0
 10
-33.0467606988
 20
-11.685858128
 10
-33.0421667508
 20
-13.6526814526
 10
-33.0283848847
 20
-15.6141376277
 10
-33.0054155709
 20
-17.570169779
 10
-32.9732596079
 20
-19.5207180493
 10
-32.9319179673
 20
-21.4657290411
 10
-32.8813916456
 20
-23.4051557282
 10
-32.8216819402
 20
-25.3389449104
 10
-32.7527905974
 20
-27.2670373045
 10
-32.6747195533
 20
-29.1893769238
  0
LINE
  5
2C3
100
AcDbEntity
  8
0
100
AcDbLine
 62
7
  6
CONTINUOUS
 10
-32.3020766885
 20
-10.9726604811
 11
-32.297470846
 21
-12.9394791514
  0
LINE
  5
2C4
100
AcDbEntity
  8
RACCORDO
100
AcDbLine
 62
250
  6
CONTINUOUS
 10
-35.019432629
 20
-12.343268405
 11
-35.019432629
 21
45.6261175776
  0
LINE
  5
2C5
100
AcDbEntity
  8
RACCORDO
100
AcDbLine
 62
250
  6
CONTINUOUS
 10
-34.3313139352
 20
-12.3536742471
 11
-34.3313139352
 21
45.6157154052
  0
LINE
  5
2C6
100
AcDbEntity
  8
DRAFT
100
AcDbLine
 62
7
  6
CONTINUOUS
 10
-33.0467606988
 20
46.2835315243
 11
-33.0467606988
 21
-11.685858128
  0
LINE
  5
2C7
100
AcDbEntity
  8
0
100
AcDbLine
 62
7
  6
CONTINUOUS
 10
-32.2380174004
 20
-18.2246391364
 11
-32.2380173595
 21
-17.8755157294
  0
LINE
  5
2C8
100
AcDbEntity
  8
0
100
AcDbLine
 62
7
  6
CONTINUOUS
 10
-32.2312502476
 20
19.2775398345
 11
-32.2312240514
 21
23.7857509959
  0
LINE
  5
2C9
100
AcDbEntity
  8
0
100
AcDbLine
 62
7
  6
CONTINUOUS
 10
-31.9526218221
 20
19.1166632736
 11
-31.9526218221
 21
24.0154849344
  0
LINE
  5
2CA
100
AcDbEntity
  8
RACCORDO
100
AcDbLine
 62
7
  6
CONTINUOUS
 10
-31.6031669556
 20
10.1845102733
 11
-31.6031669556
 21
26.992193024
  0
LINE
  5
2CB
100
AcDbEntity
  8
RACCORDO
100
AcDbLine
 62
7
  6
CONTINUOUS
 10
-30.6163556244
 20
14.0688558295
 11
-30.6163556244
 21
12.0408266968
  0
LINE
  5
2CC
100
AcDbEntity
  8
0
100
AcDbLine
 62
7
  6
CONTINUOUS
 10
-32.3020766885
 20
-10.9726604811
 11
-32.301279472
 21
47.8136604845
  0
LWPOLYLINE
  5
2CD
100
AcDbEntity
  8
RACCORDO
100
AcDbPolyline
 62
250
  6
CONTINUOUS
 90
10
 70
0
 10
-34.3313139352
 20
45.6157154052
 10
-34.3274668405
 20
47.5231336571
 10
-34.314373848
 20
49.4539201062
 10
-34.292047159
 20
51.4080271271
 10
-34.2607646283
 20
53.3852461725
 10
-34.2202731309
 20
55.385681495
 10
-34.1697886074
 20
57.4097500797
 10
-34.1090582216
 20
59.457549833
 10
-34.0383603147
 20
61.5288595057
 10
-33.9577078036
 20
63.6236124141
  0
LWPOLYLINE
  5
2CE
100
AcDbEntity
  8
RACCORDO
100
AcDbPolyline
 62
250
  6
CONTINUOUS
 90
10
 70
0
 10
-35.019432629
 20
45.6261175776
 10
-35.0151465581
 20
47.535773412
 10
-35.0021251802
 20
49.4685505789
 10
-34.9801220527
 20
51.4245362709
 10
-34.9488889813
 20
53.4037964513
 10
-34.9081753228
 20
55.4064337954
 10
-34.8577271167
 20
57.4325880977
 10
-34.7972884749
 20
59.4823585902
 10
-34.7266025022
 20
61.5558033637
 10
-34.6454099783
 20
63.6529976495
  0
LINE
  5
2CF
100
AcDbEntity
  8
0
100
AcDbLine
 62
7
  6
CONTINUOUS
 10
-32.3020766885
 20
46.9967291712
 11
-32.2950031963
 21
49.4502872913
  0
LINE
  5
2D0
100
AcDbEntity
  8
0
100
AcDbLine
 62
7
  6
CONTINUOUS
 10
-32.2239437868
 20
49.8991884262
 11
-32.2112600297
 21
51.5395445853
  0
LINE
  5
2D1
100
AcDbEntity
  8
0
100
AcDbLine
 62
7
  6
CONTINUOUS
 10
-32.2974708473
 20
48.9688723318
 11
-32.2823559891
 21
51.0906539305
  0
LINE
  5
2D2
100
AcDbEntity
  8
0
100
AcDbLine
 62
7
  6
CONTINUOUS
 10
-31.932830871
 20
51.3787740094
 11
-31.9454975249
 21
49.7384167499
  0
LINE
  5
2D3
100
AcDbEntity
  8
0
100
AcDbLine
 62
7
  6
CONTINUOUS
 10
-32.2112600297
 20
51.5395445853
 11
-32.1922392941
 21
53.183456518
  0
LINE
  5
2D4
100
AcDbEntity
  8
0
100
AcDbLine
 62
7
  6
CONTINUOUS
 10
-31.9138307968
 20
53.0227074112
 11
-31.932830871
 21
51.3787740094
  0
LWPOLYLINE
  5
2D5
100
AcDbEntity
  8
RACCORDO
100
AcDbPolyline
 62
250
  6
CONTINUOUS
 90
13
 70
0
 10
-33.6787526746
 20
64.210048295
 10
-33.679169121
 20
64.1792672384
 10
-33.6776067983
 20
64.1496782306
 10
-33.6740744524
 20
64.1214469145
 10
-33.6685918578
 20
64.0947313323
 10
-33.6611897068
 20
64.069681041
 10
-33.6519094374
 20
64.0464362752
 10
-33.6408030018
 20
64.0251271618
 10
-33.6279325752
 20
64.0058729919
 10
-33.6133702076
 20
63.9887815525
 10
-33.5971974209
 20
63.9739485236
 10
-33.5795047524
 20
63.9614569422
 10
-33.5757860679
 20
63.9592423251
  0
LINE
  5
2D6
100
AcDbEntity
  8
0
100
AcDbLine
 62
7
  6
CONTINUOUS
 10
-32.283653316
 20
50.9462771529
 11
-32.255609606
 21
53.2833515225
  0
LINE
  5
2D7
100
AcDbEntity
  8
0
100
AcDbLine
 62
7
  6
CONTINUOUS
 10
-32.2283854369
 20
54.9166368274
 11
-32.2605324543
 21
52.9345656332
  0
LINE
  5
2D8
100
AcDbEntity
  8
0
100
AcDbLine
 62
7
  6
CONTINUOUS
 10
-32.1922392941
 20
53.183456518
 11
-32.1733479548
 21
54.4352999848
  0
LINE
  5
2D9
100
AcDbEntity
  8
0
100
AcDbLine
 62
7
  6
CONTINUOUS
 10
-31.8884975587
 20
54.6701861289
 11
-31.9138307968
 21
53.0227074112
  0
LINE
  5
2DA
100
AcDbEntity
  8
0
100
AcDbLine
 62
7
  6
CONTINUOUS
 10
-32.2019829186
 20
56.2363060544
 11
-32.1579849925
 21
58.0949456022
  0
LINE
  5
2DB
100
AcDbEntity
  8
0
100
AcDbLine
 62
7
  6
CONTINUOUS
 10
-32.1458552491
 20
58.5297099221
 11
-32.1060086003
 21
59.9579265485
  0
LWPOLYLINE
  5
2DC
100
AcDbEntity
  8
0
100
AcDbPolyline
 62
7
  6
CONTINUOUS
 90
4
 70
0
 10
-32.0764157985
 20
60.9102207259
 10
-32.1362799147
 20
58.9073551448
 10
-32.1869368891
 20
56.9094756465
 10
-32.232272204
 20
54.6769925416
  0
LINE
  5
2DD
100
AcDbEntity
  8
0
100
AcDbLine
 62
7
  6
CONTINUOUS
 10
-32.0896607771
 20
60.4670852805
 11
-32.0460550281
 21
61.8252017423
  0
LWPOLYLINE
  5
2DE
100
AcDbEntity
  8
RACCORDO
100
AcDbPolyline
 62
7
  6
CONTINUOUS
 90
9
 70
0
 10
-31.3365030724
 20
62.6663083621
 10
-31.3576641904
 20
62.0751598828
 10
-31.4203698506
 20
60.0706193663
 10
-31.4738474476
 20
58.0710592901
 10
-31.5180955362
 20
56.0765351821
 10
-31.5531129635
 20
54.0870961906
 10
-31.5788986235
 20
52.1027976587
 10
-31.5954516023
 20
50.1237010431
 10
-31.6027713115
 20
48.1498645096
  0
LINE
  5
2DF
100
AcDbEntity
  8
0
100
AcDbLine
 62
7
  6
CONTINUOUS
 10
-32.0764157985
 20
60.9102207259
 11
-32.0015878135
 21
63.0503199562
  0
LWPOLYLINE
  5
2E0
100
AcDbEntity
  8
RACCORDO
100
AcDbPolyline
 62
7
  6
CONTINUOUS
 90
10
 70
0
 10
-32.7042279197
 20
63.4560155474
 10
-32.752790655
 20
62.2041786789
 10
-32.8216820137
 20
60.1965317506
 10
-32.8813917048
 20
58.1937915527
 10
-32.9319179796
 20
56.1960199878
 10
-32.9732595725
 20
54.2032711356
 10
-33.0054155241
 20
52.2155913487
 10
-33.0283848548
 20
50.2330345497
 10
-33.0421667411
 20
48.2556621331
 10
-33.0467606988
 20
46.2835315243
  0
LINE
  5
2E1
100
AcDbEntity
  8
0
100
AcDbLine
 62
7
  6
CONTINUOUS
 10
-32.0021872597
 20
63.0506660689
 11
-32.0073462963
 21
62.9180102705
  0
LINE
  5
2E2
100
AcDbEntity
  8
RACCORDO
100
AcDbLine
 62
7
  6
CONTINUOUS
 10
-31.8943793443
 20
9.3670463941
 11
-31.6884610895
 21
9.8255113427
  0
LINE
  5
2E3
100
AcDbEntity
  8
0
100
AcDbLine
 62
7
  6
CONTINUOUS
 10
-32.302084841
 20
18.8284978993
 11
-31.9526218221
 21
19.1166632736
  0
LINE
  5
2E4
100
AcDbEntity
  8
0
100
AcDbLine
 62
7
  6
CONTINUOUS
 10
-32.2312502476
 20
19.2775398345
 11
-32.3019609322
 21
19.2367123637
  0
LWPOLYLINE
  5
2E5
100
AcDbEntity
  8
RACCORDO
100
AcDbPolyline
 62
250
  6
CONTINUOUS
 90
19
 70
0
 10
48.6236195226
 20
-60.6377203082
 10
48.6539259486
 20
-60.6538329837
 10
48.6864268775
 20
-60.6684503961
 10
48.7209016628
 20
-60.6814733089
 10
48.7571162572
 20
-60.6928133103
 10
48.7948248022
 20
-60.7023934137
 10
48.8337712968
 20
-60.7101485805
 10
48.8736913359
 20
-60.7160261613
 10
48.9143139048
 20
-60.7199862536
 10
48.9553632195
 20
-60.7220019726
 10
48.9965605988
 20
-60.7220596337
 10
49.0376263564
 20
-60.7201588454
 10
49.0782816994
 20
-60.716312512
 10
49.1182506212
 20
-60.7105467462
 10
49.1572617756
 20
-60.7029006912
 10
49.1950503181
 20
-60.6934262557
 10
49.2313597049
 20
-60.682187761
 10
49.2659434338
 20
-60.6692615046
 10
49.298566718
 20
-60.6547352419
  0
LWPOLYLINE
  5
2E6
100
AcDbEntity
  8
RACCORDO
100
AcDbPolyline
 62
7
  6
CONTINUOUS
 90
3
 70
0
 10
53.7461900732
 20
-72.6246641968
 10
53.7408355941
 20
-72.6216614186
 10
53.7243281795
 20
-72.6135099045
  0
LINE
  5
2E7
100
AcDbEntity
  8
RACCORDO
100
AcDbLine
 62
250
  6
CONTINUOUS
 10
53.0977773833
 20
-73.3246263479
 11
53.1327343965
 21
-73.344810068
  0
LINE
  5
2E8
100
AcDbEntity
  8
RACCORDO
100
AcDbLine
 62
250
  6
CONTINUOUS
 10
53.6325665667
 20
-72.6217150566
 11
53.9876163081
 21
-72.8267163275
  0
LINE
  5
2E9
100
AcDbEntity
  8
RACCORDO
100
AcDbLine
 62
7
  6
CONTINUOUS
 10
53.746066711
 20
-72.6245904372
 11
54.100787215
 21
-72.8294016105
  0
LINE
  5
2EA
100
AcDbEntity
  8
0
100
AcDbLine
 62
7
  6
CONTINUOUS
 10
-32.1673066873
 20
-17.8346882658
 11
-31.8884980582
 21
-17.9956689175
  0
LWPOLYLINE
  5
2EB
100
AcDbEntity
  8
RACCORDO
100
AcDbPolyline
 62
250
  6
CONTINUOUS
 90
18
 70
0
 10
53.1533303511
 20
-73.3550462926
 10
53.1735067306
 20
-73.3671277431
 10
53.193115291
 20
-73.3809663845
 10
53.2120125681
 20
-73.3964609676
 10
53.230060302
 20
-73.4134981281
 10
53.2471264482
 20
-73.431953215
 10
53.2630861439
 20
-73.4516912037
 10
53.2778226216
 20
-73.4725676832
 10
53.2912280634
 20
-73.4944299126
 10
53.3032043897
 20
-73.5171179392
 10
53.3136639769
 20
-73.5404657684
 10
53.3225302984
 20
-73.5643025779
 10
53.3297384847
 20
-73.5884539682
 10
53.3352357978
 20
-73.6127432381
 10
53.3389820173
 20
-73.6369926774
 10
53.3409497342
 20
-73.6610248676
 10
53.3411245519
 20
-73.6846639795
 10
53.3395051915
 20
-73.70773706
  0
LWPOLYLINE
  5
2EC
100
AcDbEntity
  8
RACCORDO
100
AcDbPolyline
 62
250
  6
CONTINUOUS
 90
11
 70
0
 10
-54.0473790944
 20
-1.3567724766
 10
-54.075285269
 20
-1.3392739261
 10
-54.1006017389
 20
-1.320508297
 10
-54.1231566324
 20
-1.300602988
 10
-54.1427968256
 20
-1.2796931351
 10
-54.1593889825
 20
-1.2579206938
 10
-54.17282046
 20
-1.2354334759
 10
-54.1830000727
 20
-1.2123841456
 10
-54.1898587118
 20
-1.1889291834
 10
-54.1933498146
 20
-1.1652278236
 10
-54.1938257038
 20
-1.1526351799
  0
LINE
  5
2ED
100
AcDbEntity
  8
0
100
AcDbLine
 62
7
  6
CONTINUOUS
 10
1.2577872206
 20
-55.1538617578
 11
1.2752901545
 21
-55.1722343806
  0
LWPOLYLINE
  5
2EE
100
AcDbEntity
  8
RACCORDO
100
AcDbPolyline
 62
7
  6
CONTINUOUS
 90
10
 70
0
 10
-10.2542767578
 20
-41.9027233722
 10
-10.2631253339
 20
-41.8929818042
 10
-10.2726414033
 20
-41.8833991815
 10
-10.2828249659
 20
-41.8739755042
 10
-10.2936942874
 20
-41.8646998091
 10
-10.3052311023
 20
-41.8555830593
 10
-10.3173806136
 20
-41.8466581446
 10
-10.3301245558
 20
-41.8379360281
 10
-10.3434811946
 20
-41.8294057467
 10
-10.3574505298
 20
-41.8210673003
  0
LWPOLYLINE
  5
2EF
100
AcDbEntity
  8
RACCORDO
100
AcDbPolyline
 62
7
  6
CONTINUOUS
 90
10
 70
0
 10
5.655625819
 20
-51.0889017222
 10
5.6467772428
 20
-51.0791601541
 10
5.6372611734
 20
-51.0695775314
 10
5.6270776107
 20
-51.0601538541
 10
5.6162082892
 20
-51.0508781589
 10
5.6046714744
 20
-51.0417614092
 10
5.5925219631
 20
-51.0328364945
 10
5.5797780208
 20
-51.024114378
 10
5.5664213821
 20
-51.0155840966
 10
5.5524520469
 20
-51.0072456502
  0
LINE
  5
2F0
100
AcDbEntity
  8
0
100
AcDbLine
 62
7
  6
CONTINUOUS
 10
1.2752901545
 20
-55.1722343806
 11
1.2920225391
 21
-55.1911907573
  0
LINE
  5
2F1
100
AcDbEntity
  8
0
100
AcDbLine
 62
7
  6
CONTINUOUS
 10
1.3671980887
 20
-55.1554385215
 11
1.3484977915
 21
-55.1339127534
  0
LWPOLYLINE
  5
2F2
100
AcDbEntity
  8
0
100
AcDbPolyline
 62
7
  6
CONTINUOUS
 90
24
 70
0
 10
1.2920225391
 20
-55.1911907573
 10
1.307984592
 20
-55.2107307422
 10
1.323197262
 20
-55.2310430383
 10
1.337640141
 20
-55.2519385799
 10
1.3512512969
 20
-55.2728506446
 10
1.3639518963
 20
-55.2936452441
 10
1.3758210554
 20
-55.3144561768
 10
1.3870335412
 20
-55.3351185513
 10
1.39759211
 20
-55.355580301
 10
1.407494145
 20
-55.3758933986
 10
1.4169062354
 20
-55.3960490913
 10
1.4258580056
 20
-55.4160726357
 10
1.4343199191
 20
-55.4359387157
 10
1.4423697455
 20
-55.4555627729
 10
1.4500116714
 20
-55.4749343085
 10
1.457241506
 20
-55.4940638236
 10
1.4641243782
 20
-55.5128983097
 10
1.4706578791
 20
-55.5314123095
 10
1.4768443496
 20
-55.5496313256
 10
1.4827560056
 20
-55.567578814
 10
1.488381277
 20
-55.5852225922
 10
1.4937316551
 20
-55.6025948955
 10
1.4989139616
 20
-55.6198157971
 10
1.5039232011
 20
-55.6368799051
  0
LINE
  5
2F3
100
AcDbEntity
  8
SMUSSO
100
AcDbLine
 62
7
  6
CONTINUOUS
 10
-32.3020766885
 20
9.0308613003
 11
-31.8943793443
 21
9.3670463941
  0
LINE
  5
2F4
100
AcDbEntity
  8
RACCORDO
100
AcDbLine
 62
7
  6
CONTINUOUS
 10
-30.9607062755
 20
11.4267190824
 11
-31.2588163046
 21
11.2454211335
  0
LINE
  5
2F5
100
AcDbEntity
  8
RACCORDO
100
AcDbLine
 62
7
  6
CONTINUOUS
 10
-31.2588163046
 20
14.0960040527
 11
-30.9607062755
 21
14.2711874032
  0
LINE
  5
2F6
100
AcDbEntity
  8
RACCORDO
100
AcDbLine
 62
250
  6
CONTINUOUS
 10
-31.438574797
 20
14.5471026984
 11
-31.6031669556
 21
14.4553577675
  0
LWPOLYLINE
  5
2F7
100
AcDbEntity
  8
RACCORDO
100
AcDbPolyline
 62
250
  6
CONTINUOUS
 90
12
 70
0
 10
-31.438574797
 20
14.5471026984
 10
-31.4123097632
 20
14.5608742287
 10
-31.3862070505
 20
14.5723020982
 10
-31.3604110192
 20
14.5813231054
 10
-31.3350643334
 20
14.5878873598
 10
-31.3103071721
 20
14.5919585581
 10
-31.286276454
 20
14.5935141845
 10
-31.2631050803
 20
14.5925456359
 10
-31.2409211996
 20
14.5890582687
 10
-31.2198474992
 20
14.5830713696
 10
-31.2000005264
 20
14.5746180491
 10
-31.1916480131
 20
14.5701074202
  0
LWPOLYLINE
  5
2F8
100
AcDbEntity
  8
RACCORDO
100
AcDbPolyline
 62
250
  6
CONTINUOUS
 90
22
 70
0
 10
-35.019432629
 20
-12.3432702895
 10
-34.9929668651
 20
-12.3574844781
 10
-34.964791757
 20
-12.3705575723
 10
-34.9350545464
 20
-12.3824212527
 10
-34.9039106385
 20
-12.3930135204
 10
-34.8715227899
 20
-12.4022790205
 10
-34.838060258
 20
-12.4101693321
 10
-34.8036979163
 20
-12.4166432208
 10
-34.7686153408
 20
-12.4216668543
 10
-34.7329958713
 20
-12.4252139793
 10
-34.6970256535
 20
-12.4272660589
 10
-34.660892666
 20
-12.4278123688
 10
-34.6247857382
 20
-12.4268500541
 10
-34.588893563
 20
-12.4243841438
 10
-34.5534037112
 20
-12.4204275247
 10
-34.5185016512
 20
-12.4150008738
 10
-34.4843697794
 20
-12.4081325506
 10
-34.4511864673
 20
-12.3998584486
 10
-34.4191251293
 20
-12.3902218078
 10
-34.3883533166
 20
-12.3792729889
 10
-34.359031841
 20
-12.3670692099
 10
-34.3313139352
 20
-12.3536742471
  0
LINE
  5
2F9
100
AcDbEntity
  8
RACCORDO
100
AcDbLine
 62
7
  6
CONTINUOUS
 10
-31.6882326704
 20
-10.7549212526
 11
-31.8942159987
 21
-10.6363406935
  0
LINE
  5
2FA
100
AcDbEntity
  8
RACCORDO
100
AcDbLine
 62
250
  6
CONTINUOUS
 10
-54.0473790944
 20
-1.3567687902
 11
-35.019432629
 21
-12.343268405
  0
LINE
  5
2FB
100
AcDbEntity
  8
RACCORDO
100
AcDbLine
 62
250
  6
CONTINUOUS
 10
29.5956730572
 20
-49.651220601
 11
48.6236195226
 21
-60.6377166011
  0
LINE
  5
2FC
100
AcDbEntity
  8
SMUSSO
100
AcDbLine
 62
7
  6
CONTINUOUS
 10
-31.8942159987
 20
-10.6363406935
 11
-32.3020766885
 21
-10.4008470429
  0
LWPOLYLINE
  5
2FD
100
AcDbEntity
  8
RACCORDO
100
AcDbPolyline
 62
250
  6
CONTINUOUS
 90
12
 70
0
 10
29.5956730572
 20
-49.6512224953
 10
29.5710549465
 20
-49.6359414949
 10
29.5484131419
 20
-49.6196735406
 10
29.5278659685
 20
-49.6025036479
 10
29.5095208047
 20
-49.5845215458
 10
29.4934735216
 20
-49.5658212079
 10
29.4798079815
 20
-49.5465003613
 10
29.4685955998
 20
-49.5266599759
 10
29.4598949719
 20
-49.5064037365
 10
29.4537515669
 20
-49.4858375012
 10
29.4501974899
 20
-49.4650687483
 10
29.4492264478
 20
-49.4470851986
  0
LWPOLYLINE
  5
2FE
100
AcDbEntity
  8
RACCORDO
100
AcDbPolyline
 62
7
  6
CONTINUOUS
 90
10
 70
0
 10
21.5655283957
 20
-60.2750800721
 10
21.5566798196
 20
-60.265338504
 10
21.5471637501
 20
-60.2557558813
 10
21.5369801874
 20
-60.2463322039
 10
21.5261108659
 20
-60.2370565088
 10
21.514574051
 20
-60.227939759
 10
21.5024245397
 20
-60.2190148443
 10
21.4896805975
 20
-60.2102927279
 10
21.4763239588
 20
-60.2017624464
 10
21.4623546236
 20
-60.193424
  0
LWPOLYLINE
  5
2FF
100
AcDbEntity
  8
RACCORDO
100
AcDbPolyline
 62
250
  6
CONTINUOUS
 90
10
 70
0
 10
29.7839965619
 20
27.1676869615
 10
29.764397439
 20
27.1599930267
 10
29.7467741213
 20
27.1533117689
 10
29.7312200355
 20
27.1476786076
 10
29.717817639
 20
27.143123406
 10
29.7066379822
 20
27.1396703127
 10
29.6977403321
 20
27.1373376337
 10
29.6911718581
 20
27.1361377352
 10
29.6869673817
 20
27.1360769783
 10
29.6851863609
 20
27.1370680778
  0
LWPOLYLINE
  5
300
100
AcDbEntity
  8
RACCORDO
100
AcDbPolyline
 62
250
  6
CONTINUOUS
 90
14
 70
0
 10
54.1912311695
 20
37.4090862453
 10
54.1276967336
 20
37.3906931992
 10
54.0592840891
 20
37.3685092122
 10
53.9860699685
 20
37.3425549814
 10
53.9081347747
 20
37.3128524573
 10
53.8255635607
 20
37.2794256338
 10
53.7383824617
 20
37.2422731967
 10
53.6467228945
 20
37.2014375538
 10
53.5508552432
 20
37.1570307354
 10
53.4509826821
 20
37.1091515408
 10
53.3471905432
 20
37.0578522735
 10
53.2396044481
 20
37.0032023225
 10
53.128291118
 20
36.9452386758
 10
53.0136077489
 20
36.8841501162
  0
LWPOLYLINE
  5
301
100
AcDbEntity
  8
0
100
AcDbPolyline
 62
7
  6
CONTINUOUS
 90
19
 70
0
 10
1.0854282704
 20
-55.3975766659
 10
1.0774351485
 20
-55.3757028614
 10
1.0686592612
 20
-55.3539102437
 10
1.0591004035
 20
-55.3321989512
 10
1.0487306546
 20
-55.3104690086
 10
1.0375775646
 20
-55.2888206411
 10
1.0257240578
 20
-55.2675543395
 10
1.0131772958
 20
-55.2466639053
 10
0.9999296138
 20
-55.2261558756
 10
0.9860415474
 20
-55.2063499451
 10
0.9714622124
 20
-55.1872300055
 10
0.9562419401
 20
-55.1688125369
 10
0.9405929911
 20
-55.1514661812
 10
0.9244941147
 20
-55.1352817655
 10
0.9079660923
 20
-55.120168778
 10
0.8912842465
 20
-55.1062238431
 10
0.8745402842
 20
-55.0934792139
 10
0.8576422879
 20
-55.0819027787
 10
0.8405902053
 20
-55.0714945725
  0
LWPOLYLINE
  5
302
100
AcDbEntity
  8
0
100
AcDbPolyline
 62
7
  6
CONTINUOUS
 90
5
 70
0
 10
1.132548872
 20
-55.5415448325
 10
1.1212852745
 20
-55.5057480605
 10
1.1096517508
 20
-55.4698039288
 10
1.0976994337
 20
-55.4337467848
 10
1.0854282704
 20
-55.3975766659
  0
LINE
  5
303
100
AcDbEntity
  8
0
100
AcDbLine
 62
7
  6
CONTINUOUS
 10
1.1542736141
 20
-55.6129020076
 11
1.132548872
 21
-55.5415448325
  0
LWPOLYLINE
  5
304
100
AcDbEntity
  8
0
100
AcDbPolyline
 62
7
  6
CONTINUOUS
 90
21
 70
0
 10
1.5719680345
 20
-55.5859354438
 10
1.5662787506
 20
-55.566850563
 10
1.5603497328
 20
-55.547564994
 10
1.5541909784
 20
-55.5280900538
 10
1.547670945
 20
-55.5082834277
 10
1.5407809102
 20
-55.4881060107
 10
1.5335296937
 20
-55.467596843
 10
1.5258120776
 20
-55.446730821
 10
1.5176252025
 20
-55.4254665319
 10
1.5089720018
 20
-55.4038453395
 10
1.4997558747
 20
-55.3819663524
 10
1.4899875525
 20
-55.3598174509
 10
1.4796562558
 20
-55.3374107877
 10
1.4686329812
 20
-55.314881972
 10
1.4569809459
 20
-55.2922740342
 10
1.4446367265
 20
-55.2695440828
 10
1.4312812149
 20
-55.2466989405
 10
1.4168277602
 20
-55.2235308772
 10
1.4013627277
 20
-55.2002478151
 10
1.3848262582
 20
-55.1774802398
 10
1.3671980887
 20
-55.1554385215
  0
LINE
  5
305
100
AcDbEntity
  8
0
100
AcDbLine
 62
7
  6
CONTINUOUS
 10
1.3175541041
 20
-56.1655674344
 11
1.2278789757
 21
-55.864318039
  0
LINE
  5
306
100
AcDbEntity
  8
0
100
AcDbLine
 62
7
  6
CONTINUOUS
 10
1.175338243
 20
-55.6842122944
 11
1.1542736141
 21
-55.6129020076
  0
LINE
  5
307
100
AcDbEntity
  8
0
100
AcDbLine
 62
7
  6
CONTINUOUS
 10
1.2278789757
 20
-55.864318039
 11
1.175338243
 21
-55.6842122944
  0
LINE
  5
308
100
AcDbEntity
  8
0
100
AcDbLine
 62
7
  6
CONTINUOUS
 10
-4.2409340157
 20
-52.2594988277
 11
-4.1846563541
 21
-52.9886598108
  0
LINE
  5
309
100
AcDbEntity
  8
0
100
AcDbLine
 62
7
  6
CONTINUOUS
 10
-3.827695156
 20
-52.4980977662
 11
-3.7714174944
 21
-53.2272587494
  0
LINE
  5
30A
100
AcDbEntity
  8
0
100
AcDbLine
 62
7
  6
CONTINUOUS
 10
-3.7567442064
 20
-52.4571320004
 11
-3.70043241
 21
-53.1862728513
  0
LINE
  5
30B
100
AcDbEntity
  8
0
100
AcDbLine
 62
7
  6
CONTINUOUS
 10
-4.2934914745
 20
-51.5278278374
 11
-4.2409340157
 21
-52.2594988277
  0
LINE
  5
30C
100
AcDbEntity
  8
0
100
AcDbLine
 62
7
  6
CONTINUOUS
 10
-3.8802526147
 20
-51.7664267759
 11
-3.827695156
 21
-52.4980977662
  0
LINE
  5
30D
100
AcDbEntity
  8
0
100
AcDbLine
 62
7
  6
CONTINUOUS
 10
-3.8093335452
 20
-51.7254794012
 11
-3.7567442064
 21
-52.4571320004
  0
LINE
  5
30E
100
AcDbEntity
  8
0
100
AcDbLine
 62
7
  6
CONTINUOUS
 10
-3.8581976919
 20
-50.9913530974
 11
-3.8093335452
 21
-51.7254794012
  0
LINE
  5
30F
100
AcDbEntity
  8
0
100
AcDbLine
 62
7
  6
CONTINUOUS
 10
-4.3423260009
 20
-50.7936848385
 11
-4.2934914745
 21
-51.5278278374
  0
LINE
  5
310
100
AcDbEntity
  8
0
100
AcDbLine
 62
7
  6
CONTINUOUS
 10
-3.9290871412
 20
-51.032283777
 11
-3.8802526147
 21
-51.7664267759
  0
LINE
  5
311
100
AcDbEntity
  8
SMUSSO
100
AcDbLine
 62
7
  6
CONTINUOUS
 10
-32.3020766885
 20
-10.9726604811
 11
-31.8942159987
 21
-10.6363406935
  0
LINE
  5
312
100
AcDbEntity
  8
0
100
AcDbLine
 62
250
  6
CONTINUOUS
 10
-32.3020766885
 20
-10.9726604811
 11
-33.0467606988
 21
-11.5867230139
  0
LINE
  5
313
100
AcDbEntity
  8
0
100
AcDbLine
 62
7
  6
CONTINUOUS
 10
-32.2950200978
 20
-13.4180090453
 11
-31.9454975786
 21
-13.1297946074
  0
LWPOLYLINE
  5
314
100
AcDbEntity
  8
RACCORDO
100
AcDbPolyline
 62
250
  6
CONTINUOUS
 90
21
 70
0
 10
29.7839969143
 20
-67.7867642501
 10
29.7643977496
 20
-67.7561993633
 10
29.7467743896
 20
-67.7246067429
 10
29.7312202616
 20
-67.6921538717
 10
29.7178178232
 20
-67.6590127933
 10
29.7066381252
 20
-67.6253591996
 10
29.6977404349
 20
-67.5913714994
 10
29.691171922
 20
-67.5572298728
 10
29.6869674082
 20
-67.5231153159
 10
29.6851491832
 20
-67.4892086815
 10
29.685726886
 20
-67.4556897197
 10
29.6886974539
 20
-67.4227361257
 10
29.6940451391
 20
-67.3905225976
 10
29.7017415916
 20
-67.3592199099
 10
29.7117460101
 20
-67.3289940086
 10
29.7240053577
 20
-67.3000051312
 10
29.7384546437
 20
-67.2724069574
 10
29.7550172675
 20
-67.2463457944
 10
29.7736054253
 20
-67.2219598009
 10
29.7941205749
 20
-67.1993782552
 10
29.8164539588
 20
-67.1787208697
  0
LINE
  5
315
100
AcDbEntity
  8
0
100
AcDbLine
 62
7
  6
CONTINUOUS
 10
1.582818797
 20
-55.6237134412
 11
1.5719680345
 21
-55.5859354438
  0
LINE
  5
316
100
AcDbEntity
  8
0
100
AcDbLine
 62
7
  6
CONTINUOUS
 10
1.5039232011
 20
-55.6368799051
 11
1.5183482818
 21
-55.6876181357
  0
LINE
  5
317
100
AcDbEntity
  8
0
100
AcDbLine
 62
7
  6
CONTINUOUS
 10
1.59350431
 20
-55.6615566031
 11
1.582818797
 21
-55.6237134412
  0
LWPOLYLINE
  5
318
100
AcDbEntity
  8
0
100
AcDbPolyline
 62
7
  6
CONTINUOUS
 90
3
 70
0
 10
1.7860269548
 20
-56.3540859909
 10
1.7048431171
 20
-56.0626920636
 10
1.59350431
 20
-55.6615566031
  0
LWPOLYLINE
  5
319
100
AcDbEntity
  8
0
100
AcDbPolyline
 62
7
  6
CONTINUOUS
 90
3
 70
0
 10
1.5183482818
 20
-55.6876181357
 10
1.6341255073
 20
-56.1045941653
 10
1.7150418705
 20
-56.395071889
  0
LWPOLYLINE
  5
31A
100
AcDbEntity
  8
0
100
AcDbPolyline
 62
7
  6
CONTINUOUS
 90
22
 70
0
 10
1.1127275064
 20
-54.556677605
 10
1.110764395
 20
-54.5384422583
 10
1.1076821427
 20
-54.5195065325
 10
1.1034807694
 20
-54.4998704147
 10
1.0981724689
 20
-54.4794377614
 10
1.0917451143
 20
-54.4583046725
 10
1.084162123
 20
-54.4367595801
 10
1.0754076774
 20
-54.414750504
 10
1.0654974083
 20
-54.3923295493
 10
1.0544416238
 20
-54.369941463
 10
1.0421534658
 20
-54.3475450804
 10
1.0287193004
 20
-54.3251818933
 10
1.0144089896
 20
-54.3034208216
 10
0.9991691525
 20
-54.2823366838
 10
0.9830525076
 20
-54.2618551013
 10
0.9664879482
 20
-54.2423212754
 10
0.9495377626
 20
-54.2238150482
 10
0.9321391505
 20
-54.2062569174
 10
0.9145334026
 20
-54.1897530484
 10
0.8968008507
 20
-54.174338895
 10
0.878860861
 20
-54.1599792037
 10
0.860713328
 20
-54.1466740444
  0
LINE
  5
31B
100
AcDbEntity
  8
0
100
AcDbLine
 62
7
  6
CONTINUOUS
 10
0.2175208067
 20
-54.8419572472
 11
0.2731596372
 21
-55.5625471585
  0
LWPOLYLINE
  5
31C
100
AcDbEntity
  8
0
100
AcDbPolyline
 62
7
  6
CONTINUOUS
 90
3
 70
0
 10
0.6190213944
 20
-54.943563518
 10
0.6296174603
 20
-55.0865745793
 10
0.6847357655
 20
-55.8001860567
  0
LWPOLYLINE
  5
31D
100
AcDbEntity
  8
0
100
AcDbPolyline
 62
7
  6
CONTINUOUS
 90
3
 70
0
 10
0.6963121581
 20
-54.9881902362
 10
0.7005690862
 20
-55.0456080422
 10
0.7557208499
 20
-55.7592001587
  0
LINE
  5
31E
100
AcDbEntity
  8
0
100
AcDbLine
 62
7
  6
CONTINUOUS
 10
1.2568495882
 20
-55.1408956068
 11
1.2577872206
 21
-55.1538617578
  0
LINE
  5
31F
100
AcDbEntity
  8
0
100
AcDbLine
 62
7
  6
CONTINUOUS
 10
0.1655153597
 20
-54.1189156286
 11
0.2175208067
 21
-54.8419572472
  0
LINE
  5
320
100
AcDbEntity
  8
0
100
AcDbLine
 62
7
  6
CONTINUOUS
 10
0.5378506173
 20
-53.9727190106
 11
0.5793510654
 21
-54.5762744194
  0
LINE
  5
321
100
AcDbEntity
  8
0
100
AcDbLine
 62
7
  6
CONTINUOUS
 10
0.6136152653
 20
-54.0043413235
 11
0.6502805081
 21
-54.5353206481
  0
LINE
  5
322
100
AcDbEntity
  8
0
100
AcDbLine
 62
7
  6
CONTINUOUS
 10
0.117145946
 20
-53.3934591405
 11
0.1655153597
 21
-54.1189156286
  0
LINE
  5
323
100
AcDbEntity
  8
0
100
AcDbLine
 62
7
  6
CONTINUOUS
 10
-31.8884980582
 20
-17.9956689175
 11
-32.2380174074
 21
-18.2838807414
  0
LINE
  5
324
100
AcDbEntity
  8
RACCORDO
100
AcDbLine
 62
250
  6
CONTINUOUS
 10
50.9979942504
 20
36.9344077638
 11
52.4629178639
 21
37.7825328171
  0
LINE
  5
325
100
AcDbEntity
  8
RACCORDO
100
AcDbLine
 62
250
  6
CONTINUOUS
 10
51.6286425124
 20
35.6854716355
 11
53.0161952332
 21
36.4888754304
  0
LINE
  5
326
100
AcDbEntity
  8
0
100
AcDbLine
 62
7
  6
CONTINUOUS
 10
-32.1673066873
 20
-17.8346882658
 11
-32.2380173595
 21
-17.8755157294
  0
LINE
  5
327
100
AcDbEntity
  8
RACCORDO
100
AcDbLine
 62
250
  6
CONTINUOUS
 10
-33.0467606988
 20
-11.685858128
 11
-34.3313139352
 21
-12.3536742471
  0
LWPOLYLINE
  5
328
100
AcDbEntity
  8
RACCORDO
100
AcDbPolyline
 62
7
  6
CONTINUOUS
 90
10
 70
0
 10
-31.1916480131
 20
14.5701074202
 10
-31.223585034
 20
14.5870385998
 10
-31.2569457603
 20
14.6017312053
 10
-31.2915391447
 20
14.6140332403
 10
-31.327143195
 20
14.623810927
 10
-31.3635417842
 20
14.6309615182
 10
-31.4005389127
 20
14.6354078725
 10
-31.4379013141
 20
14.6370875622
 10
-31.4753736886
 20
14.6359637891
 10
-31.5127460313
 20
14.6320226861
  0
LINE
  5
329
100
AcDbEntity
  8
RACCORDO
100
AcDbLine
 62
250
  6
CONTINUOUS
 10
-31.6046859366
 20
14.2957048435
 11
-31.2588163046
 21
14.0960040527
  0
LINE
  5
32A
100
AcDbEntity
  8
RACCORDO
100
AcDbLine
 62
250
  6
CONTINUOUS
 10
-31.438574797
 20
14.5471026984
 11
-30.9607062755
 21
14.2711874032
  0
LINE
  5
32B
100
AcDbEntity
  8
RACCORDO
100
AcDbLine
 62
7
  6
CONTINUOUS
 10
-31.1916480131
 20
14.5701074202
 11
-30.7180896147
 21
14.296680736
  0
LINE
  5
32C
100
AcDbEntity
  8
0
100
AcDbLine
 62
7
  6
CONTINUOUS
 10
-31.9526218221
 20
19.1166632736
 11
-32.2312502476
 21
19.2775398345
  0
LWPOLYLINE
  5
32D
100
AcDbEntity
  8
0
100
AcDbPolyline
 62
7
  6
CONTINUOUS
 90
5
 70
0
 10
1.112227605
 20
-54.6296880194
 10
1.1135828921
 20
-54.6123424601
 10
1.1141126213
 20
-54.5944196523
 10
1.1138274708
 20
-54.575864715
 10
1.1127275064
 20
-54.556677605
  0
LINE
  5
32E
100
AcDbEntity
  8
0
100
AcDbLine
 62
250
  6
CONTINUOUS
 10
-31.9290733488
 20
-28.4753858617
 11
-32.678615218
 21
-29.0934541563
  0
LINE
  5
32F
100
AcDbEntity
  8
RACCORDO
100
AcDbLine
 62
250
  6
CONTINUOUS
 10
49.6981596943
 20
15.9476680197
 11
51.0406571097
 21
16.5980888159
  0
LINE
  5
330
100
AcDbEntity
  8
RACCORDO
100
AcDbLine
 62
250
  6
CONTINUOUS
 10
51.5881273297
 20
17.1385519528
 11
51.0541249029
 21
16.8820636305
  0
LINE
  5
331
100
AcDbEntity
  8
RACCORDO
100
AcDbLine
 62
250
  6
CONTINUOUS
 10
51.6577517861
 20
17.9192805277
 11
51.0904387489
 21
17.6477542779
  0
LINE
  5
332
100
AcDbEntity
  8
RACCORDO
100
AcDbLine
 62
250
  6
CONTINUOUS
 10
51.6948828167
 20
18.9415580134
 11
51.143798954
 21
18.6786919268
  0
LINE
  5
333
100
AcDbEntity
  8
RACCORDO
100
AcDbLine
 62
250
  6
CONTINUOUS
 10
52.1950591759
 20
17.4260662454
 11
51.5881273297
 21
17.1385519528
  0
LINE
  5
334
100
AcDbEntity
  8
RACCORDO
100
AcDbLine
 62
250
  6
CONTINUOUS
 10
52.2856491305
 20
18.2149813698
 11
51.6577517861
 21
17.9192805277
  0
LINE
  5
335
100
AcDbEntity
  8
RACCORDO
100
AcDbLine
 62
250
  6
CONTINUOUS
 10
52.7719610136
 20
17.6946709163
 11
52.1950591759
 21
17.4260662454
  0
LWPOLYLINE
  5
336
100
AcDbEntity
  8
RACCORDO
100
AcDbPolyline
 62
250
  6
CONTINUOUS
 90
5
 70
0
 10
54.0708482221
 20
18.2763598388
 10
53.82829872
 20
18.1707494429
 10
53.5768426018
 20
18.0596231526
 10
53.3167551418
 20
17.9431252202
 10
52.7719610136
 20
17.6946709163
  0
LWPOLYLINE
  5
337
100
AcDbEntity
  8
RACCORDO
100
AcDbPolyline
 62
250
  6
CONTINUOUS
 90
7
 70
0
 10
54.2058333705
 20
19.0735749546
 10
53.9600445669
 20
18.9688840512
 10
53.7042460655
 20
18.8579419299
 10
53.4387542613
 20
18.7409130933
 10
53.1639663698
 20
18.6179982881
 10
52.8801147715
 20
18.4893248708
 10
52.2856491305
 20
18.2149813698
  0
LWPOLYLINE
  5
338
100
AcDbEntity
  8
RACCORDO
100
AcDbPolyline
 62
250
  6
CONTINUOUS
 90
8
 70
0
 10
54.206831031
 20
20.0684729474
 10
53.9654545652
 20
19.9674459023
 10
53.7139646322
 20
19.8600144611
 10
53.4526751917
 20
19.7463399378
 10
53.1819711381
 20
19.626615126
 10
52.9020926395
 20
19.5009691611
 10
52.613110307
 20
19.3694517326
 10
51.6948828167
 20
18.9415580134
  0
LINE
  5
339
100
AcDbEntity
  8
RACCORDO
100
AcDbLine
 62
7
  6
CONTINUOUS
 10
53.5393413207
 20
12.3040436018
 11
53.087405331
 21
12.1388337968
  0
LINE
  5
33A
100
AcDbEntity
  8
RACCORDO
100
AcDbLine
 62
250
  6
CONTINUOUS
 10
53.6325665667
 20
12.2911937299
 11
53.0873156607
 21
12.0918717066
  0
LINE
  5
33B
100
AcDbEntity
  8
RACCORDO
100
AcDbLine
 62
7
  6
CONTINUOUS
 10
53.5565935965
 20
12.3096963252
 11
53.5393799314
 21
12.3040577061
  0
LWPOLYLINE
  5
33C
100
AcDbEntity
  8
RACCORDO
100
AcDbPolyline
 62
250
  6
CONTINUOUS
 90
9
 70
0
 10
53.9850015321
 20
12.0877021979
 10
54.0010796424
 20
12.0929641072
 10
54.0168395219
 20
12.0966157343
 10
54.0321863887
 20
12.0986351172
 10
54.0470279477
 20
12.09901011
 10
54.0612749365
 20
12.0977384562
 10
54.0748416635
 20
12.0948278049
 10
54.0876465298
 20
12.0902956667
 10
54.0981724389
 20
12.0850169149
  0
LINE
  5
33D
100
AcDbEntity
  8
SMUSSO
100
AcDbLine
 62
7
  6
CONTINUOUS
 10
-31.8943793443
 20
27.3293924835
 11
-32.3020766885
 21
27.5647918204
  0
LINE
  5
33E
100
AcDbEntity
  8
RACCORDO
100
AcDbLine
 62
7
  6
CONTINUOUS
 10
-31.6884610895
 20
27.2105257628
 11
-31.8943793443
 21
27.3293924835
  0
LWPOLYLINE
  5
33F
100
AcDbEntity
  8
RACCORDO
100
AcDbPolyline
 62
250
  6
CONTINUOUS
 90
22
 70
0
 10
-34.4011509563
 20
64.2273851449
 10
-34.3813452756
 20
64.1969395733
 10
-34.359772679
 20
64.1676272883
 10
-34.336547529
 20
64.1396036826
 10
-34.3117929486
 20
64.1130173174
 10
-34.2856401691
 20
64.0880091345
 10
-34.2582278336
 20
64.0647117094
 10
-34.2297012627
 20
64.0432485482
 10
-34.2002116839
 20
64.0237334334
 10
-34.1699154298
 20
64.0062698201
 10
-34.1389731094
 20
63.9909502878
 10
-34.1075487567
 20
63.9778560498
 10
-34.0758089613
 20
63.9670565223
 10
-34.0439219846
 20
63.9586089566
 10
-34.0120568687
 20
63.9525581357
 10
-33.9803825395
 20
63.9489361368
 10
-33.9490669117
 20
63.947762161
 10
-33.9182759983
 20
63.949042432
 10
-33.8881730307
 20
63.9527701626
 10
-33.8589175932
 20
63.9589255911
 10
-33.8306647772
 20
63.9674760858
 10
-33.8035643589
 20
63.9783763182
  0
LINE
  5
340
100
AcDbEntity
  8
RACCORDO
100
AcDbLine
 62
250
  6
CONTINUOUS
 10
-33.9577075593
 20
-29.9299699666
 11
-32.6747195533
 21
-29.1893769238
  0
LINE
  5
341
100
AcDbEntity
  8
RACCORDO
100
AcDbLine
 62
250
  6
CONTINUOUS
 10
-33.3442088166
 20
-30.8820181036
 11
-32.0804315196
 21
-30.152528565
  0
LINE
  5
342
100
AcDbEntity
  8
0
100
AcDbLine
 62
250
  6
CONTINUOUS
 10
-31.1578849619
 20
-29.4367656923
 11
-31.4144731179
 21
-29.5842962719
  0
LWPOLYLINE
  5
343
100
AcDbEntity
  8
RACCORDO
100
AcDbPolyline
 62
250
  6
CONTINUOUS
 90
10
 70
0
 10
53.3263461207
 20
11.2104784049
 10
53.4287577731
 20
11.2678958654
 10
53.5298535517
 20
11.3254394065
 10
53.6296270022
 20
11.3831035312
 10
53.7280642921
 20
11.4408831629
 10
53.8251665922
 20
11.4987723417
 10
53.9209492054
 20
11.5567637785
 10
54.0154121137
 20
11.6148507942
 10
54.1085408448
 20
11.6730277665
 10
54.2003282453
 20
11.7312885133
  0
LWPOLYLINE
  5
344
100
AcDbEntity
  8
RACCORDO
100
AcDbPolyline
 62
250
  6
CONTINUOUS
 90
10
 70
0
 10
53.1204407116
 20
11.5751979165
 10
53.2217808691
 20
11.6317340753
 10
53.3218021597
 20
11.6883779459
 10
53.4205045834
 20
11.7451295286
 10
53.5178889324
 20
11.8019961852
 10
53.6139544145
 20
11.8589705538
 10
53.7086986532
 20
11.9160305481
 10
53.8021208562
 20
11.9731688057
 10
53.8942218159
 20
12.030392689
 10
53.9850015321
 20
12.0877021979
  0
LWPOLYLINE
  5
345
100
AcDbEntity
  8
0
100
AcDbPolyline
 62
250
  6
CONTINUOUS
 90
3
 70
0
 10
-32.2531467122
 20
-30.0235227258
 10
-31.5307647281
 20
-29.6958437181
 10
-31.3743790345
 20
-29.6255373572
  0
LWPOLYLINE
  5
346
100
AcDbEntity
  8
RACCORDO
100
AcDbPolyline
 62
250
  6
CONTINUOUS
 90
4
 70
0
 10
53.0864055151
 20
11.5551371709
 10
53.0945178076
 20
11.5584522431
 10
53.1029246781
 20
11.5628781102
 10
53.1115785512
 20
11.5684498399
  0
LWPOLYLINE
  5
347
100
AcDbEntity
  8
RACCORDO
100
AcDbPolyline
 62
250
  6
CONTINUOUS
 90
22
 70
0
 10
-34.4011495591
 20
-30.7270655688
 10
-34.3813439985
 20
-30.7192524393
 10
-34.3597715075
 20
-30.7102909781
 10
-34.3365464488
 20
-30.7002286929
 10
-34.311791946
 20
-30.6891189271
 10
-34.2856392307
 20
-30.6770205773
 10
-34.2582269469
 20
-30.6639977805
 10
-34.229700416
 20
-30.6501195749
 10
-34.2002108664
 20
-30.6354595334
 10
-34.1699146316
 20
-30.6200953735
 10
-34.1389723219
 20
-30.6041085456
 10
-34.1075479724
 20
-30.5875838011
 10
-34.0758081738
 20
-30.5706087429
 10
-34.043921189
 20
-30.5532733613
 10
-34.0120560612
 20
-30.5356695568
 10
-33.9803817177
 20
-30.5178906528
 10
-33.9490660746
 20
-30.5000309011
 10
-33.9182751461
 20
-30.4821849819
 10
-33.8881721649
 20
-30.4644475022
 10
-33.8589167167
 20
-30.4469124941
 10
-33.830663894
 20
-30.4296729165
 10
-33.8035634742
 20
-30.4128201617
  0
LWPOLYLINE
  5
348
100
AcDbEntity
  8
RACCORDO
100
AcDbPolyline
 62
250
  6
CONTINUOUS
 90
8
 70
0
 10
-31.6031669556
 20
14.5954529114
 10
-31.5906252962
 20
14.595820005
 10
-31.5664759475
 20
14.593932468
 10
-31.5416272691
 20
14.5894847882
 10
-31.5162636524
 20
14.5825164358
 10
-31.4905445663
 20
14.5730858945
 10
-31.4646000308
 20
14.561255246
 10
-31.438574797
 20
14.5471026984
  0
LWPOLYLINE
  5
349
100
AcDbEntity
  8
RACCORDO
100
AcDbPolyline
 62
7
  6
CONTINUOUS
 90
12
 70
0
 10
53.1029341407
 20
-73.4090931543
 10
53.1033628423
 20
-73.4099492948
 10
53.1040480569
 20
-73.4114519865
 10
53.1039736634
 20
-73.4112321875
 10
53.1033513914
 20
-73.4092408442
 10
53.1024013349
 20
-73.4055655045
 10
53.1012828137
 20
-73.4001914219
 10
53.1001397682
 20
-73.3930914581
 10
53.0991146369
 20
-73.3843103677
 10
53.0983322012
 20
-73.3738877994
 10
53.0979038099
 20
-73.361797702
 10
53.0978571879
 20
-73.3568755387
  0
LINE
  5
34A
100
AcDbEntity
  8
RACCORDO
100
AcDbLine
 62
250
  6
CONTINUOUS
 10
53.1115785512
 20
11.5684498399
 11
53.1204404634
 21
11.5751980598
  0
LINE
  5
34B
100
AcDbEntity
  8
RACCORDO
100
AcDbLine
 62
250
  6
CONTINUOUS
 10
49.298566718
 20
-2.6853455896
 11
50.6393268546
 21
-2.035766596
  0
LINE
  5
34C
100
AcDbEntity
  8
0
100
AcDbLine
 62
250
  6
CONTINUOUS
 10
-31.0764557316
 20
-29.8581733714
 11
-31.9953578574
 21
-30.2016490313
  0
LWPOLYLINE
  5
34D
100
AcDbEntity
  8
RACCORDO
100
AcDbPolyline
 62
250
  6
CONTINUOUS
 90
15
 70
0
 10
54.2605439442
 20
37.2297895628
 10
54.1987712807
 20
37.2133347014
 10
54.1322324769
 20
37.1932163295
 10
54.0609990788
 20
37.1694529807
 10
53.9851242542
 20
37.1420563056
 10
53.9046977904
 20
37.1110506899
 10
53.819856839
 20
37.0764819232
 10
53.7306859831
 20
37.0383776057
 10
53.6372682076
 20
36.9967646525
 10
53.5397588952
 20
36.9517045924
 10
53.4382780147
 20
36.9032549178
 10
53.3329631428
 20
36.8514882254
 10
53.2240288304
 20
36.7965165551
 10
53.1116226023
 20
36.7384205298
 10
53.0294879386
 20
36.695029359
  0
LINE
  5
34E
100
AcDbEntity
  8
RACCORDO
100
AcDbLine
 62
250
  6
CONTINUOUS
 10
54.249809696
 20
37.4236672849
 11
54.1912311695
 21
37.4090862453
  0
LWPOLYLINE
  5
34F
100
AcDbEntity
  8
RACCORDO
100
AcDbPolyline
 62
7
  6
CONTINUOUS
 90
4
 70
0
 10
-31.5127460313
 20
14.6320226861
 10
-31.549821918
 20
14.6252625441
 10
-31.5863313338
 20
14.6157145122
 10
-31.6031669556
 20
14.6099238101
  0
LWPOLYLINE
  5
350
100
AcDbEntity
  8
RACCORDO
100
AcDbPolyline
 62
250
  6
CONTINUOUS
 90
19
 70
0
 10
48.6236195226
 20
-2.6683306559
 10
48.6539259486
 20
-2.6844433314
 10
48.6864268776
 20
-2.6990607438
 10
48.7209016629
 20
-2.7120836566
 10
48.7571162573
 20
-2.723423658
 10
48.7948248023
 20
-2.7330037615
 10
48.833771297
 20
-2.7407589283
 10
48.8736913361
 20
-2.7466365091
 10
48.914313905
 20
-2.7505966013
 10
48.9553632197
 20
-2.7526123203
 10
48.9965605991
 20
-2.7526699814
 10
49.0376263566
 20
-2.7507691931
 10
49.0782816996
 20
-2.7469228597
 10
49.1182506215
 20
-2.7411570938
 10
49.1572617758
 20
-2.7335110389
 10
49.1950503183
 20
-2.7240366034
 10
49.231359705
 20
-2.7127981087
 10
49.2659434338
 20
-2.6998718522
 10
49.298566718
 20
-2.6853455896
  0
LWPOLYLINE
  5
351
100
AcDbEntity
  8
RACCORDO
100
AcDbPolyline
 62
250
  6
CONTINUOUS
 90
22
 70
0
 10
-35.019432629
 20
45.6261193628
 10
-34.9929668651
 20
45.6119051741
 10
-34.964791757
 20
45.59883208
 10
-34.9350545464
 20
45.5869683995
 10
-34.9039106385
 20
45.5763761319
 10
-34.8715227899
 20
45.5671106318
 10
-34.8380602579
 20
45.5592203202
 10
-34.8036979162
 20
45.5527464315
 10
-34.7686153407
 20
45.547722798
 10
-34.7329958712
 20
45.5441756729
 10
-34.6970256534
 20
45.5421235934
 10
-34.6608926659
 20
45.5415772835
 10
-34.6247857381
 20
45.5425395982
 10
-34.5888935629
 20
45.5450055085
 10
-34.5534037111
 20
45.5489621276
 10
-34.5185016511
 20
45.5543887785
 10
-34.4843697793
 20
45.5612571017
 10
-34.4511864672
 20
45.5695312037
 10
-34.4191251293
 20
45.5791678445
 10
-34.3883533165
 20
45.5901166634
 10
-34.359031841
 20
45.6023204424
 10
-34.3313139352
 20
45.6157154052
  0
LINE
  5
352
100
AcDbEntity
  8
RACCORDO
100
AcDbLine
 62
250
  6
CONTINUOUS
 10
29.5956730572
 20
8.3181653298
 11
48.6236195226
 21
-2.6683343199
  0
LINE
  5
353
100
AcDbEntity
  8
RACCORDO
100
AcDbLine
 62
250
  6
CONTINUOUS
 10
-54.0473790944
 20
56.6126135143
 11
-35.019432629
 21
45.6261175776
  0
LWPOLYLINE
  5
354
100
AcDbEntity
  8
RACCORDO
100
AcDbPolyline
 62
250
  6
CONTINUOUS
 90
12
 70
0
 10
29.5956730572
 20
8.318167157
 10
29.5710549465
 20
8.3334481574
 10
29.5484131419
 20
8.3497161117
 10
29.5278659685
 20
8.3668860044
 10
29.5095208047
 20
8.3848681065
 10
29.4934735216
 20
8.4035684443
 10
29.4798079815
 20
8.4228892909
 10
29.4685955998
 20
8.4427296763
 10
29.4598949719
 20
8.4629859158
 10
29.4537515669
 20
8.483552151
 10
29.4501974899
 20
8.504320904
 10
29.4492264478
 20
8.5223044482
  0
LWPOLYLINE
  5
355
100
AcDbEntity
  8
RACCORDO
100
AcDbPolyline
 62
250
  6
CONTINUOUS
 90
11
 70
0
 10
-54.0473790944
 20
56.6126171757
 10
-54.0752852689
 20
56.6301157262
 10
-54.1006017389
 20
56.6488813553
 10
-54.1231566323
 20
56.6687866642
 10
-54.1427968255
 20
56.6896965171
 10
-54.1593889824
 20
56.7114689584
 10
-54.1728204599
 20
56.7339561763
 10
-54.1830000726
 20
56.7570055066
 10
-54.1898587118
 20
56.7804604687
 10
-54.1933498145
 20
56.8041618286
 10
-54.1938257038
 20
56.8167544688
  0
LWPOLYLINE
  5
356
100
AcDbEntity
  8
RACCORDO
100
AcDbPolyline
 62
7
  6
CONTINUOUS
 90
9
 70
0
 10
29.8234474822
 20
-67.0439450457
 10
29.8240559267
 20
-67.068537914
 10
29.8236645934
 20
-67.0934978814
 10
29.8223323915
 20
-67.1155702149
 10
29.8202835606
 20
-67.1346920764
 10
29.8177399719
 20
-67.1509444353
 10
29.8149140731
 20
-67.1644435835
 10
29.8120385245
 20
-67.1752263561
 10
29.8106651794
 20
-67.1795953115
  0
LWPOLYLINE
  5
357
100
AcDbEntity
  8
RACCORDO
100
AcDbPolyline
 62
250
  6
CONTINUOUS
 90
13
 70
0
 10
29.9698468878
 20
-67.2461015108
 10
29.97103403
 20
-67.3038130752
 10
29.969127767
 20
-67.3597461358
 10
29.9641281068
 20
-67.413900686
 10
29.9560344977
 20
-67.466613191
 10
29.9448476079
 20
-67.5175471084
 10
29.9305688214
 20
-67.5656932076
 10
29.9130478235
 20
-67.6109843428
 10
29.892434065
 20
-67.6534882049
 10
29.8691776845
 20
-67.6923983854
 10
29.8434279776
 20
-67.7274465573
 10
29.8150339021
 20
-67.7589021544
 10
29.783994685
 20
-67.786765667
  0
LWPOLYLINE
  5
358
100
AcDbEntity
  8
RACCORDO
100
AcDbPolyline
 62
250
  6
CONTINUOUS
 90
22
 70
0
 10
29.0957002667
 20
-67.7497376476
 10
29.0952838203
 20
-67.7194374929
 10
29.096846143
 20
-67.688044354
 10
29.1003784889
 20
-67.6557339733
 10
29.1058610835
 20
-67.6226872283
 10
29.1132632345
 20
-67.5890891186
 10
29.1225435039
 20
-67.5551277304
 10
29.1336499395
 20
-67.5209931836
 10
29.1465203662
 20
-67.4868765675
 10
29.1610827338
 20
-67.4529688711
 10
29.1772555204
 20
-67.4194599135
 10
29.1949481889
 20
-67.3865372821
 10
29.2140616935
 20
-67.3543852815
 10
29.2344890347
 20
-67.3231839027
 10
29.2561158576
 20
-67.2931078145
 10
29.2788210928
 20
-67.2643253866
 10
29.3024776336
 20
-67.2369977464
 10
29.3269530479
 20
-67.2112778773
 10
29.3521103194
 20
-67.1873097622
 10
29.3778086146
 20
-67.1652275776
 10
29.4039040715
 20
-67.145154942
 10
29.4302506046
 20
-67.1272042246
  0
LWPOLYLINE
  5
359
100
AcDbEntity
  8
RACCORDO
100
AcDbPolyline
 62
7
  6
CONTINUOUS
 90
10
 70
0
 10
29.4492264482
 20
-49.4470851919
 10
29.453608652
 20
-51.3726541907
 10
29.4673585416
 20
-53.3586099991
 10
29.4904808737
 20
-55.339057498
 10
29.5229751468
 20
-57.3139313688
 10
29.5648404739
 20
-59.2831774858
 10
29.6160759684
 20
-61.2467455583
 10
29.6766804659
 20
-63.2045804168
 10
29.7466519042
 20
-65.1566162122
 10
29.8234480838
 20
-67.0439377455
  0
LWPOLYLINE
  5
35A
100
AcDbEntity
  8
RACCORDO
100
AcDbPolyline
 62
250
  6
CONTINUOUS
 90
10
 70
0
 10
29.5956730572
 20
-49.651220601
 10
29.5999635777
 20
-51.5565278755
 10
29.6129972116
 20
-53.4747137473
 10
29.6350184043
 20
-55.4055819566
 10
29.6662732164
 20
-57.3489130813
 10
29.7070103159
 20
-59.3045215442
 10
29.7574818477
 20
-61.2722550178
 10
29.8179416494
 20
-63.2519185228
 10
29.8886443308
 20
-65.2432749143
 10
29.9698468878
 20
-67.2461015108
  0
LINE
  5
35B
100
AcDbEntity
  8
RACCORDO
100
AcDbLine
 62
7
  6
CONTINUOUS
 10
29.4492264478
 20
8.5223044537
 11
29.4492264478
 21
-49.4470851986
  0
LINE
  5
35C
100
AcDbEntity
  8
RACCORDO
100
AcDbLine
 62
250
  6
CONTINUOUS
 10
29.5956730572
 20
8.3181653298
 11
29.5956730572
 21
-49.651220601
  0
LWPOLYLINE
  5
35D
100
AcDbEntity
  8
RACCORDO
100
AcDbPolyline
 62
250
  6
CONTINUOUS
 90
13
 70
0
 10
29.0957002667
 20
27.9648659153
 10
29.095283825
 20
27.9340845927
 10
29.0968461847
 20
27.9044953711
 10
29.1003785934
 20
27.876263893
 10
29.1058612699
 20
27.8495481998
 10
29.1132635152
 20
27.8244978456
 10
29.122543885
 20
27.8012530602
 10
29.1336504206
 20
27.7799439663
 10
29.146520941
 20
27.7606898493
 10
29.1610833915
 20
27.7435984888
 10
29.1772562452
 20
27.7287655587
 10
29.1949489606
 20
27.7162740893
 10
29.1987420773
 20
27.7140164975
  0
LWPOLYLINE
  5
35E
100
AcDbEntity
  8
RACCORDO
100
AcDbPolyline
 62
250
  6
CONTINUOUS
 90
10
 70
0
 10
29.9698468878
 20
26.3449581543
 10
29.8886384226
 20
24.24823608
 10
29.8179326434
 20
22.1751458874
 10
29.757471968
 20
20.1256131849
 10
29.7070012107
 20
18.0995806967
 10
29.6662659667
 20
16.0969500732
 10
29.6350135339
 20
14.1175824678
 10
29.612994698
 20
12.1613760961
 10
29.5999628629
 20
10.2282658263
 10
29.5956730572
 20
8.3181653298
  0
LWPOLYLINE
  5
35F
100
AcDbEntity
  8
RACCORDO
100
AcDbPolyline
 62
7
  6
CONTINUOUS
 90
10
 70
0
 10
29.8237302897
 20
26.5588662689
 10
29.7468247458
 20
24.5794621228
 10
29.6768374331
 20
22.5469219434
 10
29.6162148009
 20
20.5193598127
 10
29.5649592066
 20
18.4968441284
 10
29.5230721123
 20
16.4794316149
 10
29.4905547044
 20
14.4671738513
 10
29.4674081672
 20
12.4601261849
 10
29.4536332985
 20
10.4583545388
 10
29.4492264482
 20
8.5223044482
  0
LINE
  5
360
100
AcDbEntity
  8
RACCORDO
100
AcDbLine
 62
7
  6
CONTINUOUS
 10
29.8234052612
 20
26.5495709895
 11
29.8234066765
 21
26.5496053761
  0
LWPOLYLINE
  5
361
100
AcDbEntity
  8
RACCORDO
100
AcDbPolyline
 62
250
  6
CONTINUOUS
 90
8
 70
0
 10
54.0456102595
 20
18.1743615471
 10
54.0518810039
 20
18.1824482061
 10
54.0595233758
 20
18.1952975705
 10
54.0654171632
 20
18.2094124043
 10
54.0695196686
 20
18.224690452
 10
54.071801171
 20
18.2410210311
 10
54.0722451421
 20
18.2582858342
 10
54.0708483655
 20
18.2763597856
  0
LWPOLYLINE
  5
362
100
AcDbEntity
  8
RACCORDO
100
AcDbPolyline
 62
7
  6
CONTINUOUS
 90
11
 70
0
 10
54.1804365337
 20
18.3328956216
 10
54.1922418754
 20
18.3478844604
 10
54.205298584
 20
18.3671096555
 10
54.2168561353
 20
18.3873419823
 10
54.2268339007
 20
18.4084697558
 10
54.2351561124
 20
18.4303664563
 10
54.2417578382
 20
18.4528988644
 10
54.2465865265
 20
18.4759337861
 10
54.2495993076
 20
18.4993290838
 10
54.2507650828
 20
18.5229302248
 10
54.2507799029
 20
18.5257227071
  0
LWPOLYLINE
  5
363
100
AcDbEntity
  8
RACCORDO
100
AcDbPolyline
 62
250
  6
CONTINUOUS
 90
8
 70
0
 10
53.312737745
 20
17.3674042643
 10
53.3225302257
 20
17.3795519451
 10
53.3297384296
 20
17.3921444031
 10
53.3352357645
 20
17.4060726636
 10
53.3389820099
 20
17.4212348222
 10
53.340949757
 20
17.4375199469
 10
53.3411246088
 20
17.4548088895
 10
53.3395052862
 20
17.4729751578
  0
LINE
  5
364
100
AcDbEntity
  8
RACCORDO
100
AcDbLine
 62
7
  6
CONTINUOUS
 10
54.103784322
 20
18.2423274679
 11
54.1803938998
 21
18.3328449058
  0
LINE
  5
365
100
AcDbEntity
  8
RACCORDO
100
AcDbLine
 62
250
  6
CONTINUOUS
 10
54.205243855
 20
18.43404228
 11
54.1385328533
 21
18.3553269494
  0
LINE
  5
366
100
AcDbEntity
  8
RACCORDO
100
AcDbLine
 62
7
  6
CONTINUOUS
 10
54.0456096382
 20
18.1743610351
 11
54.103784322
 21
18.2423274679
  0
LINE
  5
367
100
AcDbEntity
  8
RACCORDO
100
AcDbLine
 62
250
  6
CONTINUOUS
 10
54.1385328533
 20
18.3553269494
 11
54.0708482221
 21
18.2763598388
  0
LINE
  5
368
100
AcDbEntity
  8
RACCORDO
100
AcDbLine
 62
250
  6
CONTINUOUS
 10
54.0708482221
 20
18.2763598388
 11
53.9950578298
 21
18.1889445861
  0
LWPOLYLINE
  5
369
100
AcDbEntity
  8
RACCORDO
100
AcDbPolyline
 62
250
  6
CONTINUOUS
 90
9
 70
0
 10
53.9950578298
 20
18.1889445861
 10
53.9178869658
 20
18.1010393542
 10
53.8393331832
 20
18.0126433587
 10
53.7593712756
 20
17.9237180837
 10
53.6780212439
 20
17.8343002742
 10
53.5953514435
 20
17.7445040362
 10
53.5113864659
 20
17.6543691766
 10
53.4261039925
 20
17.5638591045
 10
53.3395049634
 20
17.4729752926
  0
LWPOLYLINE
  5
36A
100
AcDbEntity
  8
RACCORDO
100
AcDbPolyline
 62
250
  6
CONTINUOUS
 90
6
 70
0
 10
53.3395049634
 20
17.4729752926
 10
53.3154475303
 20
17.4467049905
 10
53.292000011
 20
17.4189585955
 10
53.2691678194
 20
17.3897390471
 10
53.2468759674
 20
17.3589166998
 10
53.2252094358
 20
17.3266266454
  0
LWPOLYLINE
  5
36B
100
AcDbEntity
  8
RACCORDO
100
AcDbPolyline
 62
7
  6
CONTINUOUS
 90
9
 70
0
 10
53.3674978312
 20
17.4248812617
 10
53.4634245177
 20
17.5265765363
 10
53.5576808569
 20
17.6277923136
 10
53.6502757216
 20
17.7285198512
 10
53.7412176698
 20
17.8287510715
 10
53.8305157216
 20
17.9284779548
 10
53.9181783179
 20
18.0276924698
 10
54.0042118786
 20
18.1263863773
 10
54.0456102595
 20
18.1743615471
  0
LINE
  5
36C
100
AcDbEntity
  8
RACCORDO
100
AcDbLine
 62
7
  6
CONTINUOUS
 10
53.3127311359
 20
17.3673970555
 11
53.3674978312
 21
17.4248812617
  0
LWPOLYLINE
  5
36D
100
AcDbEntity
  8
RACCORDO
100
AcDbPolyline
 62
250
  6
CONTINUOUS
 90
8
 70
0
 10
54.1961526768
 20
0.5271919029
 10
53.8075461181
 20
0.3005621373
 10
53.4054452087
 20
0.0691318642
 10
52.9905640713
 20
-0.1667290259
 10
52.5642279195
 20
-0.4063096774
 10
52.1265419504
 20
-0.6495878767
 10
51.6763080491
 20
-0.8972266051
 10
51.2135308781
 20
-1.1491868548
  0
LWPOLYLINE
  5
36E
100
AcDbEntity
  8
RACCORDO
100
AcDbPolyline
 62
250
  6
CONTINUOUS
 90
8
 70
0
 10
54.1962371918
 20
0.9834811018
 10
53.8079686558
 20
0.7587044237
 10
53.4061104253
 20
0.5289586121
 10
52.9913817084
 20
0.294617814
 10
52.5651122876
 20
0.0563950365
 10
52.1274129571
 20
-0.1856807307
 10
51.677092856
 20
-0.4322618169
 10
51.2141635708
 20
-0.6833030636
  0
LWPOLYLINE
  5
36F
100
AcDbEntity
  8
RACCORDO
100
AcDbPolyline
 62
250
  6
CONTINUOUS
 90
10
 70
0
 10
54.1963698518
 20
1.6540867956
 10
53.8086671151
 20
1.4320486936
 10
53.4072329692
 20
1.2047943949
 10
52.9927937661
 20
0.9727040445
 10
52.5666850296
 20
0.7364932291
 10
52.1290261191
 20
0.4962009871
 10
51.6786386662
 20
0.251191495
 10
51.2155450543
 20
0.0015191932
 10
50.7410960774
 20
-0.2520424801
 10
50.6435170552
 20
-0.3037450079
  0
LINE
  5
370
100
AcDbEntity
  8
RACCORDO
100
AcDbLine
 62
250
  6
CONTINUOUS
 10
51.2135308781
 20
-1.1491868548
 11
50.6407259287
 21
-1.4574585893
  0
LINE
  5
371
100
AcDbEntity
  8
RACCORDO
100
AcDbLine
 62
250
  6
CONTINUOUS
 10
51.2141635708
 20
-0.6833030636
 11
50.6418562191
 21
-0.990252485
  0
LWPOLYLINE
  5
372
100
AcDbEntity
  8
RACCORDO
100
AcDbPolyline
 62
250
  6
CONTINUOUS
 90
13
 70
0
 10
53.7821550331
 20
37.8670931604
 10
53.7169693416
 20
37.8558490854
 10
53.6470669989
 20
37.8408180269
 10
53.5724893919
 20
37.8220238264
 10
53.493129723
 20
37.799438218
 10
53.4088098626
 20
37.7729876456
 10
53.3198060486
 20
37.7427346805
 10
53.2267391711
 20
37.708894015
 10
53.1300801918
 20
37.6716771658
 10
53.0297299542
 20
37.6310932043
 10
52.9254978731
 20
37.5870899213
 10
52.8171616068
 20
37.5395772575
 10
52.7567446746
 20
37.5121589835
  0
LWPOLYLINE
  5
373
100
AcDbEntity
  8
RACCORDO
100
AcDbPolyline
 62
250
  6
CONTINUOUS
 90
14
 70
0
 10
53.8786206934
 20
37.8529437257
 10
53.8186057556
 20
37.8449586913
 10
53.7537162959
 20
37.8331426972
 10
53.6841000256
 20
37.8175397699
 10
53.6097990626
 20
37.7981724169
 10
53.530713711
 20
37.7750122326
 10
53.4466686408
 20
37.747984733
 10
53.3579372479
 20
37.7171534772
 10
53.265140708
 20
37.682737205
 10
53.1687510514
 20
37.644950031
 10
53.0686685041
 20
37.6037987887
 10
52.9647000614
 20
37.5592278857
 10
52.8566207801
 20
37.5111437385
 10
52.7818656158
 20
37.4767588707
  0
LINE
  5
374
100
AcDbEntity
  8
RACCORDO
100
AcDbLine
 62
250
  6
CONTINUOUS
 10
53.8424722014
 20
37.8745049156
 11
53.7821550331
 21
37.8670931604
  0
LWPOLYLINE
  5
375
100
AcDbEntity
  8
RACCORDO
100
AcDbPolyline
 62
7
  6
CONTINUOUS
 90
10
 70
0
 10
53.7243281795
 20
12.2993988819
 10
53.7071095359
 20
12.3062738184
 10
53.6892817029
 20
12.3118026645
 10
53.6709384974
 20
12.3159322726
 10
53.6521908101
 20
12.3186175007
 10
53.6331695862
 20
12.3198240069
 10
53.6139871293
 20
12.3195329632
 10
53.5947503774
 20
12.3177371937
 10
53.575583962
 20
12.3144503821
 10
53.5565935965
 20
12.3096963252
  0
LINE
  5
376
100
AcDbEntity
  8
0
100
AcDbLine
 62
7
  6
CONTINUOUS
 10
-32.2239437868
 20
49.8991884262
 11
-31.9454975249
 21
49.7384167499
  0
LWPOLYLINE
  5
377
100
AcDbEntity
  8
RACCORDO
100
AcDbPolyline
 62
250
  6
CONTINUOUS
 90
10
 70
0
 10
50.6817394016
 20
-96.54793096
 10
50.6874654339
 20
-96.5731580608
 10
50.6949485208
 20
-96.5968231956
 10
50.7041501487
 20
-96.6188045441
 10
50.7150229573
 20
-96.6389889525
 10
50.7275109838
 20
-96.6572725167
 10
50.7415499511
 20
-96.673561117
 10
50.7570675986
 20
-96.6877709016
 10
50.7739840529
 20
-96.6998287185
 10
50.7787813169
 20
-96.7027077053
  0
LWPOLYLINE
  5
378
100
AcDbEntity
  8
RACCORDO
100
AcDbPolyline
 62
250
  6
CONTINUOUS
 90
12
 70
0
 10
53.2252094358
 20
17.3266266454
 10
53.2044156595
 20
17.2932703972
 10
53.1845040521
 20
17.258827012
 10
53.1654791157
 20
17.2233258189
 10
53.1475847345
 20
17.1872464429
 10
53.1308506817
 20
17.1505983459
 10
53.1152630341
 20
17.1133821715
 10
53.1010026588
 20
17.076066209
 10
53.0880953451
 20
17.0386591237
 10
53.0765304049
 20
17.0011623223
 10
53.0664349715
 20
16.9640340766
 10
53.0578332305
 20
16.9272538648
  0
LWPOLYLINE
  5
379
100
AcDbEntity
  8
RACCORDO
100
AcDbPolyline
 62
250
  6
CONTINUOUS
 90
8
 70
0
 10
54.1804365337
 20
18.3328956216
 10
54.1858917864
 20
18.3399991081
 10
54.1935955096
 20
18.3528820714
 10
54.1996070551
 20
18.3670807257
 10
54.2037605335
 20
18.382371973
 10
54.2060132118
 20
18.3986470418
 10
54.2064813257
 20
18.4158977302
 10
54.205243855
 20
18.43404228
  0
LWPOLYLINE
  5
37A
100
AcDbEntity
  8
RACCORDO
100
AcDbPolyline
 62
250
  6
CONTINUOUS
 90
14
 70
0
 10
53.741386337
 20
37.9335046602
 10
53.6805610032
 20
37.9267484285
 10
53.6148683231
 20
37.9161555063
 10
53.5444592985
 20
37.9017703217
 10
53.469376138
 20
37.8836173319
 10
53.3895154209
 20
37.8616710646
 10
53.3047039663
 20
37.8358619684
 10
53.2152152386
 20
37.8062500447
 10
53.1216608337
 20
37.7730420638
 10
53.0245029459
 20
37.7364431213
 10
52.9236484924
 20
37.6964663569
 10
52.8189198704
 20
37.6530674675
 10
52.7101075164
 20
37.6061649638
 10
52.6880844929
 20
37.5963313139
  0
LINE
  5
37B
100
AcDbEntity
  8
RACCORDO
100
AcDbLine
 62
250
  6
CONTINUOUS
 10
53.9336701409
 20
37.8570675875
 11
53.8786206934
 21
37.8529437257
  0
LINE
  5
37C
100
AcDbEntity
  8
RACCORDO
100
AcDbLine
 62
250
  6
CONTINUOUS
 10
53.8978282191
 20
37.8780529054
 11
53.8424722014
 21
37.8745049156
  0
LINE
  5
37D
100
AcDbEntity
  8
RACCORDO
100
AcDbLine
 62
250
  6
CONTINUOUS
 10
53.7972516349
 20
37.9363928365
 11
53.741386337
 21
37.9335046602
  0
LWPOLYLINE
  5
37E
100
AcDbEntity
  8
RACCORDO
100
AcDbPolyline
 62
250
  6
CONTINUOUS
 90
19
 70
0
 10
53.9850015321
 20
12.0877021979
 10
54.006474805
 20
12.0779474551
 10
54.0272357507
 20
12.0663352099
 10
54.0472944824
 20
12.0529751498
 10
54.0667479881
 20
12.0379984759
 10
54.0854806954
 20
12.0214642598
 10
54.1031393126
 20
12.0034327283
 10
54.1196359337
 20
11.9841514616
 10
54.1349767461
 20
11.9637716541
 10
54.1489034459
 20
11.9422975399
 10
54.1613517024
 20
11.9199859231
 10
54.1723221622
 20
11.8970717495
 10
54.1816100215
 20
11.8735462791
 10
54.1891913663
 20
11.8496700803
 10
54.1950884292
 20
11.8257064126
 10
54.199131537
 20
11.8016510596
 10
54.2012783635
 20
11.7776786114
 10
54.2016500665
 20
11.7541395021
 10
54.2003282453
 20
11.7312885133
  0
LINE
  5
37F
100
AcDbEntity
  8
RACCORDO
100
AcDbLine
 62
250
  6
CONTINUOUS
 10
53.1204392274
 20
11.575197076
 11
53.1410451075
 21
11.5648892563
  0
LWPOLYLINE
  5
380
100
AcDbEntity
  8
RACCORDO
100
AcDbPolyline
 62
250
  6
CONTINUOUS
 90
7
 70
0
 10
53.6325665667
 20
12.2911937299
 10
53.6177894845
 20
12.2988104143
 10
53.6029054518
 20
12.3044302492
 10
53.5880772271
 20
12.3079917813
 10
53.5734669583
 20
12.3094560647
 10
53.5592344102
 20
12.3088070875
 10
53.5455352172
 20
12.3060519462
  0
LWPOLYLINE
  5
381
100
AcDbEntity
  8
RACCORDO
100
AcDbPolyline
 62
250
  6
CONTINUOUS
 90
9
 70
0
 10
53.7460667513
 20
12.288318326
 10
53.7378511952
 20
12.2925713662
 10
53.7255216725
 20
12.297317395
 10
53.7122140518
 20
12.3005790632
 10
53.6980200673
 20
12.3022506811
 10
53.6829015867
 20
12.302248614
 10
53.6668851052
 20
12.300465297
 10
53.6500766532
 20
12.2968069091
 10
53.6325665667
 20
12.2911937299
  0
LWPOLYLINE
  5
382
100
AcDbEntity
  8
RACCORDO
100
AcDbPolyline
 62
250
  6
CONTINUOUS
 90
19
 70
0
 10
49.0236602402
 20
15.983612045
 10
49.0539628471
 20
15.9674307638
 10
49.0864566389
 20
15.9526043143
 10
49.1209210501
 20
15.9392333374
 10
49.1571221388
 20
15.9274085943
 10
49.1948141746
 20
15.9172103504
 10
49.2337413066
 20
15.9087078309
 10
49.2736393003
 20
15.9019587501
 10
49.3142373309
 20
15.8970089203
 10
49.355259822
 20
15.8938919406
 10
49.3964283157
 20
15.8926289689
 10
49.4374633633
 20
15.8932285782
 10
49.4780864219
 20
15.8956866982
 10
49.518021745
 20
15.8999866435
 10
49.5569982545
 20
15.9060992263
 10
49.5947513807
 20
15.9139829549
 10
49.6310248581
 20
15.9235843151
 10
49.6655724648
 20
15.9348381336
 10
49.6981596943
 20
15.9476680201
  0
LWPOLYLINE
  5
383
100
AcDbEntity
  8
RACCORDO
100
AcDbPolyline
 62
250
  6
CONTINUOUS
 90
19
 70
0
 10
49.0267826094
 20
16.0571414237
 10
49.0570851977
 20
16.0409609222
 10
49.0895789404
 20
16.0261346881
 10
49.1240432731
 20
16.0127633605
 10
49.160244255
 20
16.0009377029
 10
49.1979361574
 20
15.9907379866
 10
49.2368631311
 20
15.9822334463
 10
49.2767609434
 20
15.9754818101
 10
49.3173587718
 20
15.9705289075
 10
49.358381042
 20
15.9674083582
 10
49.3995492986
 20
15.9661413443
 10
49.4405840954
 20
15.9667364662
 10
49.481206892
 20
15.9691896843
 10
49.5211419447
 20
15.9734843462
 10
49.5601181781
 20
15.9795913003
 10
49.5978710252
 20
15.9874690931
 10
49.6341442231
 20
15.9970642509
 10
49.6686915528
 20
16.0083116426
 10
49.7012785103
 20
16.0211349221
  0
LWPOLYLINE
  5
384
100
AcDbEntity
  8
RACCORDO
100
AcDbPolyline
 62
7
  6
CONTINUOUS
 90
3
 70
0
 10
53.7461900732
 20
12.2882445897
 10
53.7408355941
 20
12.2912473678
 10
53.7243281795
 20
12.2993988819
  0
LINE
  5
385
100
AcDbEntity
  8
RACCORDO
100
AcDbLine
 62
250
  6
CONTINUOUS
 10
53.0863820062
 20
11.594862937
 11
53.1204407116
 21
11.5751979165
  0
LINE
  5
386
100
AcDbEntity
  8
RACCORDO
100
AcDbLine
 62
250
  6
CONTINUOUS
 10
53.6325665667
 20
12.2911937299
 11
53.9850015321
 21
12.0877021979
  0
LINE
  5
387
100
AcDbEntity
  8
RACCORDO
100
AcDbLine
 62
7
  6
CONTINUOUS
 10
53.746066711
 20
12.2883183493
 11
54.0981724389
 21
12.0850169149
  0
LINE
  5
388
100
AcDbEntity
  8
RACCORDO
100
AcDbLine
 62
250
  6
CONTINUOUS
 10
29.783994685
 20
27.1676859871
 11
49.0267810008
 21
16.0571039314
  0
LINE
  5
389
100
AcDbEntity
  8
RACCORDO
100
AcDbLine
 62
250
  6
CONTINUOUS
 10
-53.6439409107
 20
75.3378920673
 11
-34.4011514062
 21
64.2273849113
  0
LINE
  5
38A
100
AcDbEntity
  8
RACCORDO
100
AcDbLine
 62
250
  6
CONTINUOUS
 10
-33.6787526746
 20
64.210048295
 11
29.0957002667
 21
27.9648659153
  0
LWPOLYLINE
  5
38B
100
AcDbEntity
  8
RACCORDO
100
AcDbPolyline
 62
7
  6
CONTINUOUS
 90
20
 70
0
 10
-33.575710862
 20
63.959198876
 10
29.2037977658
 20
27.7110666067
 10
29.2295088984
 20
27.6951787706
 10
29.2564216628
 20
27.6769813607
 10
29.2843382317
 20
27.6564449138
 10
29.3129902347
 20
27.6336230263
 10
29.3422123066
 20
27.6085180783
 10
29.3718493836
 20
27.5811387793
 10
29.4016633573
 20
27.551593428
 10
29.4314882162
 20
27.5199475561
 10
29.4611725393
 20
27.4862674831
 10
29.4905205367
 20
27.4506907995
 10
29.5193765345
 20
27.4133329627
 10
29.5476027471
 20
27.3743041732
 10
29.5750484062
 20
27.3337510216
 10
29.6015805464
 20
27.2918157897
 10
29.627076812
 20
27.2486431132
 10
29.6514172119
 20
27.2043932326
 10
29.6744867382
 20
27.1592398818
 10
29.6851861581
 20
27.1370682159
  0
LWPOLYLINE
  5
38C
100
AcDbEntity
  8
RACCORDO
100
AcDbPolyline
 62
250
  6
CONTINUOUS
 90
18
 70
0
 10
53.1410451075
 20
11.5648892563
 10
53.1612278383
 20
11.552723735
 10
53.1808387429
 20
11.5387901298
 10
53.1997333568
 20
11.5231910832
 10
53.2177724919
 20
11.5060415063
 10
53.2348232622
 20
11.4874677321
 10
53.2507600626
 20
11.4676065852
 10
53.2654654939
 20
11.4466043735
 10
53.2788312279
 20
11.4246158106
 10
53.2907588055
 20
11.4018028763
 10
53.3011603615
 20
11.3783336229
 10
53.3099592726
 20
11.3543809378
 10
53.3170907212
 20
11.3301212693
 10
53.3225021732
 20
11.3057333274
 10
53.3261537648
 20
11.2813967667
 10
53.3280185966
 20
11.2572908637
 10
53.3280829311
 20
11.2335931954
 10
53.3263462944
 20
11.2104783318
  0
LWPOLYLINE
  5
38D
100
AcDbEntity
  8
RACCORDO
100
AcDbPolyline
 62
250
  6
CONTINUOUS
 90
15
 70
0
 10
29.0957002667
 20
27.9648659153
 10
29.1477159292
 20
27.933202733
 10
29.199588297
 20
27.8978304923
 10
29.2513177261
 20
27.858749377
 10
29.3031988726
 20
27.8157830356
 10
29.3549385407
 20
27.7691085732
 10
29.4056556752
 20
27.7192565485
 10
29.4553559026
 20
27.6660657645
 10
29.5040365818
 20
27.6096989611
 10
29.5508043764
 20
27.551172665
 10
29.5955684749
 20
27.4904212536
 10
29.6384235022
 20
27.4275123252
 10
29.6787537443
 20
27.3636619642
 10
29.7163548686
 20
27.2992760033
 10
29.7514345532
 20
27.23395035
  0
LWPOLYLINE
  5
38E
100
AcDbEntity
  8
RACCORDO
100
AcDbPolyline
 62
250
  6
CONTINUOUS
 90
13
 70
0
 10
29.9698468888
 20
26.3449581548
 10
29.9452286698
 20
26.3601864731
 10
29.9225844241
 20
26.3762972738
 10
29.9020324799
 20
26.3932063694
 10
29.8836802318
 20
26.4108254011
 10
29.86762358
 20
26.4290623002
 10
29.853946429
 20
26.4478217693
 10
29.842720249
 20
26.4670057803
 10
29.8340037027
 20
26.4865140866
 10
29.8278423387
 20
26.5062447472
 10
29.8242683533
 20
26.5260946589
 10
29.8233004225
 20
26.5459600955
 10
29.8234052612
 20
26.5495709895
  0
LWPOLYLINE
  5
38F
100
AcDbEntity
  8
RACCORDO
100
AcDbPolyline
 62
250
  6
CONTINUOUS
 90
11
 70
0
 10
-53.6470660618
 20
75.2643929998
 10
-53.6749717418
 20
75.2818204538
 10
-53.7002911231
 20
75.3003746059
 10
-53.7228523397
 20
75.3199295118
 10
-53.7425022476
 20
75.3403524342
 10
-53.7591074646
 20
75.3615047439
 10
-53.7725552757
 20
75.3832428604
 10
-53.7827543982
 20
75.4054192269
 10
-53.7896356011
 20
75.4278833119
 10
-53.7931521753
 20
75.4504826307
 10
-53.7935079286
 20
75.4689999147
  0
LWPOLYLINE
  5
390
100
AcDbEntity
  8
RACCORDO
100
AcDbPolyline
 62
250
  6
CONTINUOUS
 90
9
 70
0
 10
-53.6439393165
 20
75.337929482
 10
-53.6718449219
 20
75.355357662
 10
-53.697164261
 20
75.373911977
 10
-53.7197254683
 20
75.3934664819
 10
-53.7393754007
 20
75.4138884427
 10
-53.7559806761
 20
75.4350392369
 10
-53.7694285795
 20
75.456775295
 10
-53.7796278278
 20
75.4789490746
 10
-53.7865091895
 20
75.5014100622
  0
LINE
  5
391
100
AcDbEntity
  8
RACCORDO
100
AcDbLine
 62
250
  6
CONTINUOUS
 10
29.7514345532
 20
27.23395035
 11
29.783994685
 21
27.1676859871
  0
LINE
  5
392
100
AcDbEntity
  8
RACCORDO
100
AcDbLine
 62
7
  6
CONTINUOUS
 10
29.6851863609
 20
27.1370680778
 11
29.6914278367
 21
27.1237303719
  0
LWPOLYLINE
  5
393
100
AcDbEntity
  8
RACCORDO
100
AcDbPolyline
 62
250
  6
CONTINUOUS
 90
16
 70
0
 10
29.783994685
 20
27.1676859871
 10
29.8087240002
 20
27.1135944738
 10
29.8318699766
 20
27.058836277
 10
29.8534330355
 20
27.0034116159
 10
29.8735096698
 20
26.9470992907
 10
29.8920043099
 20
26.890120982
 10
29.9086291594
 20
26.8331411658
 10
29.9233332638
 20
26.7761659837
 10
29.9361682515
 20
26.7191896459
 10
29.9469998828
 20
26.6628585671
 10
29.9557763629
 20
26.6071941569
 10
29.9625498234
 20
26.5521751825
 10
29.9673415403
 20
26.4983839008
 10
29.970158502
 20
26.4460143439
 10
29.9709936262
 20
26.3948724325
 10
29.9698468878
 20
26.3449581543
  0
LWPOLYLINE
  5
394
100
AcDbEntity
  8
RACCORDO
100
AcDbPolyline
 62
7
  6
CONTINUOUS
 90
15
 70
0
 10
29.6914278367
 20
27.1237303719
 10
29.7112394723
 20
27.0791604183
 10
29.7294928867
 20
27.034542213
 10
29.7461489799
 20
26.9900530144
 10
29.7611797146
 20
26.9458677595
 10
29.77457012
 20
26.9021507277
 10
29.7863109522
 20
26.8590784944
 10
29.7963994397
 20
26.8168483119
 10
29.8048547228
 20
26.7756162208
 10
29.8117040752
 20
26.7355478638
 10
29.8169811616
 20
26.6968573496
 10
29.8207459343
 20
26.6596772734
 10
29.8230673362
 20
26.6241507116
 10
29.8240268863
 20
26.5904999511
 10
29.8237302897
 20
26.5588662689
  0
LWPOLYLINE
  5
395
100
AcDbEntity
  8
RACCORDO
100
AcDbPolyline
 62
250
  6
CONTINUOUS
 90
15
 70
0
 10
54.2605439442
 20
-91.9570525641
 10
54.2619282281
 20
-91.9637059423
 10
54.2630361844
 20
-91.9702639572
 10
54.2638757783
 20
-91.976722842
 10
54.2644528412
 20
-91.9830829428
 10
54.2647773687
 20
-91.9893377781
 10
54.2648628994
 20
-91.9954736709
 10
54.2647170474
 20
-92.0014859712
 10
54.2643463969
 20
-92.0073749594
 10
54.2637614612
 20
-92.0131340228
 10
54.2629688706
 20
-92.0187594482
 10
54.2619741352
 20
-92.0242514664
 10
54.260784259
 20
-92.0296085275
 10
54.2594045241
 20
-92.0348280826
 10
54.2581152922
 20
-92.0390141194
  0
LINE
  5
396
100
AcDbEntity
  8
RACCORDO
100
AcDbLine
 62
7
  6
CONTINUOUS
 10
52.7640519012
 20
-94.3824314971
 11
53.0161952332
 21
-95.7850494867
  0
LWPOLYLINE
  5
397
100
AcDbEntity
  8
RACCORDO
100
AcDbPolyline
 62
7
  6
CONTINUOUS
 90
5
 70
0
 10
52.9667593724
 20
-95.4094962242
 10
52.6713023054
 20
-93.7505991136
 10
52.3906501362
 20
-92.0273342337
 10
52.1333939245
 20
-90.2861235103
 10
51.8996054442
 20
-88.5273119649
  0
LWPOLYLINE
  5
398
100
AcDbEntity
  8
RACCORDO
100
AcDbPolyline
 62
250
  6
CONTINUOUS
 90
10
 70
0
 10
50.96002013
 20
-96.3792865283
 10
50.6354442112
 20
-94.5178991263
 10
50.3381696852
 20
-92.6351922784
 10
50.0682669134
 20
-90.7316112103
 10
49.8257998068
 20
-88.8076072602
 10
49.6108256911
 20
-86.8636342579
 10
49.4233954708
 20
-84.9001482899
 10
49.2635536945
 20
-82.9176123413
 10
49.131338367
 20
-80.9164963131
 10
49.0267809442
 20
-78.8972733085
  0
LWPOLYLINE
  5
399
100
AcDbEntity
  8
RACCORDO
100
AcDbPolyline
 62
250
  6
CONTINUOUS
 90
10
 70
0
 10
51.6286425124
 20
-96.3301682935
 10
51.3049396172
 20
-94.4738993117
 10
51.0085927298
 20
-92.596282409
 10
50.7395979119
 20
-90.6978137924
 10
50.4978964789
 20
-88.7790278489
 10
50.2835392675
 20
-86.8403822236
 10
50.096686508
 20
-84.8822575073
 10
49.9373888609
 20
-82.9051106627
 10
49.8055875443
 20
-80.9094753369
 10
49.7012785113
 20
-78.8958467211
  0
LWPOLYLINE
  5
39A
100
AcDbEntity
  8
RACCORDO
100
AcDbPolyline
 62
7
  6
CONTINUOUS
 90
16
 70
0
 10
53.0161952332
 20
-95.7850494867
 10
53.0231786186
 20
-95.8284500641
 10
53.0277081895
 20
-95.8699662246
 10
53.0297834151
 20
-95.9095983874
 10
53.0293747276
 20
-95.9475069155
 10
53.0265107869
 20
-95.9835321618
 10
53.0212778025
 20
-96.0171950136
 10
53.0136640734
 20
-96.0483812358
 10
53.0036790579
 20
-96.077206856
 10
52.9914399238
 20
-96.103538785
 10
52.9769375499
 20
-96.1273933447
 10
52.9601786971
 20
-96.1487561058
 10
52.9413039559
 20
-96.1674481762
 10
52.9202253519
 20
-96.1834620327
 10
52.8970283263
 20
-96.1968072357
 10
52.8800978456
 20
-96.2043393953
  0
LWPOLYLINE
  5
39B
100
AcDbEntity
  8
RACCORDO
100
AcDbPolyline
 62
7
  6
CONTINUOUS
 90
4
 70
0
 10
52.9752835905
 20
-95.4637531205
 10
52.9736162565
 20
-95.4519662503
 10
52.970286658
 20
-95.4302468844
 10
52.9667593724
 20
-95.4094962242
  0
LWPOLYLINE
  5
39C
100
AcDbEntity
  8
RACCORDO
100
AcDbPolyline
 62
250
  6
CONTINUOUS
 90
6
 70
0
 10
52.9654013046
 20
-95.4020454606
 10
52.9665612154
 20
-95.4146833188
 10
52.96553486
 20
-95.4268186929
 10
52.9624639074
 20
-95.43899031
 10
52.9573908938
 20
-95.4510295787
 10
52.9564371052
 20
-95.4526281426
  0
LWPOLYLINE
  5
39D
100
AcDbEntity
  8
RACCORDO
100
AcDbPolyline
 62
250
  6
CONTINUOUS
 90
7
 70
0
 10
52.9752816277
 20
-95.4637533871
 10
52.9758445101
 20
-95.4704670029
 10
52.9754996357
 20
-95.4794739312
 10
52.9739122776
 20
-95.4885201078
 10
52.9710956883
 20
-95.4975300052
 10
52.9670733825
 20
-95.5064283994
 10
52.9663320892
 20
-95.5076717654
  0
LWPOLYLINE
  5
39E
100
AcDbEntity
  8
RACCORDO
100
AcDbPolyline
 62
7
  6
CONTINUOUS
 90
12
 70
0
 10
51.0406565841
 20
-78.175556564
 10
51.1173510841
 20
-79.7041164581
 10
51.2100928105
 20
-81.2222579392
 10
51.3188688769
 20
-82.7297701725
 10
51.443663808
 20
-84.2264434463
 10
51.5844606247
 20
-85.7120702629
 10
51.7412408628
 20
-87.1864453557
 10
51.9139833859
 20
-88.6493646226
 10
52.1026635905
 20
-90.1006242184
 10
52.3072544834
 20
-91.5400216506
 10
52.5277273749
 20
-92.9673567125
 10
52.7640519012
 20
-94.3824314971
  0
LWPOLYLINE
  5
39F
100
AcDbEntity
  8
RACCORDO
100
AcDbPolyline
 62
250
  6
CONTINUOUS
 90
13
 70
0
 10
49.0267809431
 20
-78.8972733079
 10
48.9594431773
 20
-77.3222003591
 10
48.9008939725
 20
-75.8149789369
 10
48.8479965385
 20
-74.3057549426
 10
48.8007353394
 20
-72.7945741538
 10
48.7590942076
 20
-71.2814646472
 10
48.7230566703
 20
-69.7664365978
 10
48.6926070131
 20
-68.2495264779
 10
48.6677293843
 20
-66.7307706246
 10
48.6484075636
 20
-65.2101784951
 10
48.6346257798
 20
-63.6877771053
 10
48.6263683873
 20
-62.1636112232
 10
48.6236195226
 20
-60.6377166011
  0
LWPOLYLINE
  5
3A0
100
AcDbEntity
  8
RACCORDO
100
AcDbPolyline
 62
250
  6
CONTINUOUS
 90
13
 70
0
 10
49.7012785113
 20
-78.8958467211
 10
49.634042905
 20
-77.3223043776
 10
49.5755535795
 20
-75.8166103361
 10
49.522692602
 20
-74.3089241592
 10
49.4754785287
 20
-72.799275591
 10
49.4338953718
 20
-71.2876926014
 10
49.3978925738
 20
-69.7742013558
 10
49.3674712448
 20
-68.2588302075
 10
49.3426327837
 20
-66.7416074809
 10
49.3233270173
 20
-65.2225590081
 10
49.3095380295
 20
-63.7017119507
 10
49.3012841875
 20
-62.179094826
 10
49.298566718
 20
-60.6547352419
  0
LWPOLYLINE
  5
3A1
100
AcDbEntity
  8
RACCORDO
100
AcDbPolyline
 62
250
  6
CONTINUOUS
 90
28
 70
0
 10
50.96002013
 20
35.7758082694
 10
50.9634082411
 20
35.8026140874
 10
50.9656023088
 20
35.8297853252
 10
50.9666022048
 20
35.8573219364
 10
50.9664027708
 20
35.8853146588
 10
50.9650089353
 20
35.9136726712
 10
50.9624356021
 20
35.9421235535
 10
50.958669162
 20
35.9706769787
 10
50.953722791
 20
35.9993231186
 10
50.9476513835
 20
36.0277602345
 10
50.9404443331
 20
36.0559770722
 10
50.9321116627
 20
36.0839846779
 10
50.9227390604
 20
36.1115147109
 10
50.9123164346
 20
36.1385629446
 10
50.9008532352
 20
36.1651333775
 10
50.8884643653
 20
36.1909699719
 10
50.875140819
 20
36.2160652392
 10
50.8608909716
 20
36.2404264443
 10
50.8458557452
 20
36.2638196611
 10
50.8300275053
 20
36.2862350322
 10
50.8134133388
 20
36.3076822212
 10
50.7961762397
 20
36.32795658
 10
50.7783055512
 20
36.347049442
 10
50.7598115277
 20
36.3649693316
 10
50.7408885537
 20
36.3815373954
 10
50.7216013506
 20
36.39669399
 10
50.7018849843
 20
36.4104986837
 10
50.6817394016
 20
36.4229514579
  0
LWPOLYLINE
  5
3A2
100
AcDbEntity
  8
RACCORDO
100
AcDbPolyline
 62
7
  6
CONTINUOUS
 90
13
 70
0
 10
53.0161952332
 20
36.4888754304
 10
52.7640535814
 20
34.7951073523
 10
52.5277298509
 20
33.1071436931
 10
52.3072570089
 20
31.4252189298
 10
52.1026653513
 20
29.7495648824
 10
51.9139839476
 20
28.0804161626
 10
51.7412404503
 20
26.4180100633
 10
51.5844594713
 20
24.7625776921
 10
51.4436621127
 20
23.1143487038
 10
51.3188671514
 20
21.4735566349
 10
51.2100915152
 20
19.8404308329
 10
51.1173504123
 20
18.215196485
 10
51.0406565841
 20
16.5980792314
  0
LWPOLYLINE
  5
3A3
100
AcDbEntity
  8
RACCORDO
100
AcDbPolyline
 62
250
  6
CONTINUOUS
 90
19
 70
0
 10
50.6817394016
 20
36.4229514579
 10
50.6874654427
 20
36.4547910275
 10
50.6949485653
 20
36.4870976182
 10
50.7041502494
 20
36.5197049299
 10
50.715023129
 20
36.5524451149
 10
50.7275112352
 20
36.5851496412
 10
50.741550285
 20
36.6176501607
 10
50.7570680115
 20
36.6497793751
 10
50.7739845364
 20
36.6813718976
 10
50.7922127811
 20
36.712265104
 10
50.8116589146
 20
36.7422999698
 10
50.832222837
 20
36.7713218891
 10
50.8537986943
 20
36.7991814699
 10
50.8762754237
 20
36.8257353036
 10
50.899537325
 20
36.8508467029
 10
50.9234646564
 20
36.8743864054
 10
50.9479342506
 20
36.8962332394
 10
50.9728201491
 20
36.9162747472
 10
50.9979942504
 20
36.9344077638
  0
LWPOLYLINE
  5
3A4
100
AcDbEntity
  8
0
100
AcDbPolyline
 62
7
  6
CONTINUOUS
 90
12
 70
0
 10
1.0469871666
 20
-54.7613874184
 10
1.0548213916
 20
-54.7562909271
 10
1.0642593108
 20
-54.7483825406
 10
1.0728481051
 20
-54.739286901
 10
1.0805890639
 20
-54.7290122763
 10
1.0874813487
 20
-54.7175500981
 10
1.093573917
 20
-54.7051270647
 10
1.0988779545
 20
-54.6917637222
 10
1.1033826352
 20
-54.6774392853
 10
1.1071037784
 20
-54.6623185348
 10
1.1100573249
 20
-54.6464015238
 10
1.112227605
 20
-54.6296880194
  0
LINE
  5
3A5
100
AcDbEntity
  8
0
100
AcDbLine
 62
7
  6
CONTINUOUS
 10
-6.0529009001
 20
-49.7242863742
 11
-6.1237903545
 21
-49.7652170567
  0
LINE
  5
3A6
100
AcDbEntity
  8
0
100
AcDbLine
 62
7
  6
CONTINUOUS
 10
-5.6039955743
 20
-49.9834786832
 11
-5.6748850287
 21
-50.0244093658
  0
LINE
  5
3A7
100
AcDbEntity
  8
0
100
AcDbLine
 62
7
  6
CONTINUOUS
 10
-4.8377386038
 20
-50.4259058546
 11
-4.9086280582
 21
-50.4668365371
  0
LINE
  5
3A8
100
AcDbEntity
  8
0
100
AcDbLine
 62
7
  6
CONTINUOUS
 10
-4.4247818796
 20
-50.6643418915
 11
-4.495671334
 21
-50.7052725741
  0
LINE
  5
3A9
100
AcDbEntity
  8
0
100
AcDbLine
 62
7
  6
CONTINUOUS
 10
-4.2714365516
 20
-50.7527541589
 11
-4.3423260009
 21
-50.7936848385
  0
LINE
  5
3AA
100
AcDbEntity
  8
0
100
AcDbLine
 62
7
  6
CONTINUOUS
 10
-3.8581976919
 20
-50.9913530974
 11
-3.9290871412
 21
-51.032283777
  0
LINE
  5
3AB
100
AcDbEntity
  8
0
100
AcDbLine
 62
7
  6
CONTINUOUS
 10
-3.4569754348
 20
-51.2231412033
 11
-3.5278648892
 21
-51.2640718858
  0
LINE
  5
3AC
100
AcDbEntity
  8
0
100
AcDbLine
 62
7
  6
CONTINUOUS
 10
-4.9033766083
 20
-52.4917079477
 11
-4.9743616926
 21
-52.5326938457
  0
LINE
  5
3AD
100
AcDbEntity
  8
0
100
AcDbLine
 62
7
  6
CONTINUOUS
 10
-3.0440781076
 20
-51.4615429452
 11
-3.114967562
 21
-51.5024736277
  0
LINE
  5
3AE
100
AcDbEntity
  8
0
100
AcDbLine
 62
7
  6
CONTINUOUS
 10
-2.2219646511
 20
-51.9362209515
 11
-2.2928541055
 21
-51.977151634
  0
LINE
  5
3AF
100
AcDbEntity
  8
0
100
AcDbLine
 62
7
  6
CONTINUOUS
 10
-3.70043241
 20
-53.1862728513
 11
-3.7714174944
 21
-53.2272587494
  0
LINE
  5
3B0
100
AcDbEntity
  8
0
100
AcDbLine
 62
7
  6
CONTINUOUS
 10
-1.8131056107
 20
-52.1722910372
 11
-1.8839950651
 21
-52.2132217197
  0
LINE
  5
3B1
100
AcDbEntity
  8
0
100
AcDbLine
 62
7
  6
CONTINUOUS
 10
-3.0826374579
 20
-53.5429799139
 11
-3.1536225423
 21
-53.5839658119
  0
LINE
  5
3B2
100
AcDbEntity
  8
0
100
AcDbLine
 62
7
  6
CONTINUOUS
 10
-0.9421360254
 20
-52.67517796
 11
-1.0130254798
 21
-52.7161086425
  0
LINE
  5
3B3
100
AcDbEntity
  8
0
100
AcDbLine
 62
7
  6
CONTINUOUS
 10
-2.450725119
 20
-53.9078381787
 11
-2.5217102033
 21
-53.9488240767
  0
LINE
  5
3B4
100
AcDbEntity
  8
0
100
AcDbLine
 62
7
  6
CONTINUOUS
 10
-0.5423767421
 20
-52.9059939599
 11
-0.6132661966
 21
-52.9469246425
  0
LINE
  5
3B5
100
AcDbEntity
  8
0
100
AcDbLine
 62
7
  6
CONTINUOUS
 10
0.1880363984
 20
-53.3525278818
 11
0.117145946
 21
-53.3934591405
  0
LINE
  5
3B6
100
AcDbEntity
  8
0
100
AcDbLine
 62
7
  6
CONTINUOUS
 10
-0.8577430964
 20
-54.0871135267
 11
-0.9286919485
 21
-54.1280785047
  0
LINE
  5
3B7
100
AcDbEntity
  8
0
100
AcDbLine
 62
7
  6
CONTINUOUS
 10
-1.4702254003
 20
-54.4739664276
 11
-1.5412104847
 21
-54.5149523257
  0
LINE
  5
3B8
100
AcDbEntity
  8
0
100
AcDbLine
 62
7
  6
CONTINUOUS
 10
-0.9965805295
 20
-54.7474430399
 11
-1.0675656139
 21
-54.7884289379
  0
LWPOLYLINE
  5
3B9
100
AcDbEntity
  8
RACCORDO
100
AcDbPolyline
 62
250
  6
CONTINUOUS
 90
22
 70
0
 10
-34.6454068945
 20
63.6529992572
 10
-34.6189435532
 20
63.6387333697
 10
-34.5907731327
 20
63.6255040819
 10
-34.5610428405
 20
63.613380525
 10
-34.5299080356
 20
63.6024260518
 10
-34.4975314161
 20
63.5926979062
 10
-34.4640821697
 20
63.5842469236
 10
-34.4297350888
 20
63.5771172655
 10
-34.394669658
 20
63.5713461888
 10
-34.3590691153
 20
63.5669638509
 10
-34.3231194953
 20
63.563993152
 10
-34.2870086566
 20
63.5624496159
 10
-34.2509253001
 20
63.5623413086
 10
-34.2150579835
 20
63.563668796
 10
-34.1795941351
 20
63.5664251412
 10
-34.1447190752
 20
63.5705959405
 10
-34.1106150472
 20
63.5761593992
 10
-34.0774602653
 20
63.5830864446
 10
-34.0454279834
 20
63.5913408787
 10
-34.0146855896
 20
63.6008795672
 10
-33.9853937316
 20
63.6116526646
 10
-33.9577054772
 20
63.6236038749
  0
LINE
  5
3BA
100
AcDbEntity
  8
RACCORDO
100
AcDbLine
 62
7
  6
CONTINUOUS
 10
52.9752698669
 20
-95.4636681456
 11
52.9752816277
 21
-95.4637533871
  0
LINE
  5
3BB
100
AcDbEntity
  8
RACCORDO
100
AcDbLine
 62
7
  6
CONTINUOUS
 10
52.977224686
 20
-95.479039023
 11
52.9752698669
 21
-95.4636681456
  0
LWPOLYLINE
  5
3BC
100
AcDbEntity
  8
RACCORDO
100
AcDbPolyline
 62
7
  6
CONTINUOUS
 90
14
 70
0
 10
54.2507799159
 20
-73.089037023
 10
54.2501903686
 20
-73.0704058088
 10
54.2477037478
 20
-73.0463533672
 10
54.2433018156
 20
-73.0226395347
 10
54.2369781791
 20
-72.9992573769
 10
54.2287482494
 20
-72.9763616472
 10
54.2186596639
 20
-72.9541477745
 10
54.2067273094
 20
-72.9327091751
 10
54.1930245355
 20
-72.9122373438
 10
54.1776387855
 20
-72.8929015189
 10
54.1606030858
 20
-72.8747889589
 10
54.142006211
 20
-72.858050331
 10
54.1220135155
 20
-72.84287389
 10
54.100787215
 20
-72.8294016105
  0
LWPOLYLINE
  5
3BD
100
AcDbEntity
  8
RACCORDO
100
AcDbPolyline
 62
7
  6
CONTINUOUS
 90
14
 70
0
 10
54.248165182
 20
11.8251608496
 10
54.2476912219
 20
11.8420704283
 10
54.2453389553
 20
11.8662957347
 10
54.2410440747
 20
11.89019008
 10
54.2348006963
 20
11.9137577445
 10
54.2266243524
 20
11.9368400622
 10
54.2165624807
 20
11.9592391986
 10
54.2046298305
 20
11.9808601574
 10
54.1909005957
 20
12.0015073301
 10
54.1754632886
 20
12.0210082011
 10
54.1583508366
 20
12.0392742043
 10
54.1396531227
 20
12.0561514576
 10
54.1195385487
 20
12.0714473874
 10
54.0981724389
 20
12.0850169149
  0
LWPOLYLINE
  5
3BE
100
AcDbEntity
  8
RACCORDO
100
AcDbPolyline
 62
250
  6
CONTINUOUS
 90
22
 70
0
 10
53.0378886311
 20
-73.4608290681
 10
53.0387563694
 20
-73.4924098348
 10
53.0411915019
 20
-73.5224672171
 10
53.0451913248
 20
-73.5510005746
 10
53.0507774184
 20
-73.5781459783
 10
53.0579201627
 20
-73.6037638499
 10
53.0665390594
 20
-73.6274391134
 10
53.0766426089
 20
-73.649115634
 10
53.0882100349
 20
-73.6688420885
 10
53.1011167565
 20
-73.6863601066
 10
53.1153730678
 20
-73.701645109
 10
53.1309536136
 20
-73.7147112081
 10
53.1476812841
 20
-73.7253582995
 10
53.1655725188
 20
-73.7335520163
 10
53.1845950071
 20
-73.7393147028
 10
53.2045010447
 20
-73.7425326898
 10
53.225284158
 20
-73.7431704808
 10
53.2469369745
 20
-73.7412521697
 10
53.2692142707
 20
-73.7367558624
 10
53.2920318
 20
-73.7296717443
 10
53.3154638319
 20
-73.7200004302
 10
53.3395049634
 20
-73.7077369659
  0
LWPOLYLINE
  5
3BF
100
AcDbEntity
  8
RACCORDO
100
AcDbPolyline
 62
250
  6
CONTINUOUS
 90
25
 70
0
 10
53.0259473612
 20
11.4572104936
 10
53.026686093
 20
11.4276673268
 10
53.0286519492
 20
11.3997386415
 10
53.031844738
 20
11.3734248869
 10
53.0363134344
 20
11.3487243698
 10
53.0420071504
 20
11.3256387485
 10
53.0487753216
 20
11.3041730528
 10
53.0566046984
 20
11.2843217664
 10
53.0655043079
 20
11.2660887203
 10
53.0753568246
 20
11.2494926826
 10
53.0861391885
 20
11.2345294749
 10
53.0978686243
 20
11.2212003812
 10
53.1104881524
 20
11.2095321794
 10
53.1239941474
 20
11.199497184
 10
53.1383828587
 20
11.1911190858
 10
53.1535970188
 20
11.1845015385
 10
53.1696109894
 20
11.1796229421
 10
53.186441784
 20
11.1764998942
 10
53.2040957783
 20
11.1752930088
 10
53.222596732
 20
11.1759778178
 10
53.2419102183
 20
11.1785723423
 10
53.261955143
 20
11.183300606
 10
53.2827008042
 20
11.1902348526
 10
53.3041665035
 20
11.1992954494
 10
53.3263461207
 20
11.2104784049
  0
LINE
  5
3C0
100
AcDbEntity
  8
RACCORDO
100
AcDbLine
 62
250
  6
CONTINUOUS
 10
54.2495708822
 20
-90.2710316418
 11
54.2605439442
 21
-91.9570525641
  0
LWPOLYLINE
  5
3C1
100
AcDbEntity
  8
RACCORDO
100
AcDbPolyline
 62
7
  6
CONTINUOUS
 90
3
 70
0
 10
54.2818181118
 20
37.2937034138
 10
54.2817577287
 20
37.3032794986
 10
54.280486559
 20
37.3309672764
  0
LINE
  5
3C2
100
AcDbEntity
  8
RACCORDO
100
AcDbLine
 62
250
  6
CONTINUOUS
 10
54.2404429037
 20
-88.5315273528
 11
54.2495708822
 21
-90.2710316418
  0
LINE
  5
3C3
100
AcDbEntity
  8
RACCORDO
100
AcDbLine
 62
250
  6
CONTINUOUS
 10
54.2264481407
 20
-84.8962576814
 11
54.2404429037
 21
-88.5315273528
  0
LINE
  5
3C4
100
AcDbEntity
  8
RACCORDO
100
AcDbLine
 62
7
  6
CONTINUOUS
 10
54.2818181494
 20
-91.892844494
 11
54.2703544479
 21
-88.5261791039
  0
LWPOLYLINE
  5
3C5
100
AcDbEntity
  8
DRAFT
100
AcDbPolyline
 62
7
  6
CONTINUOUS
 90
10
 70
0
 10
50.6393268546
 20
-60.0051562483
 10
50.6442824634
 20
-62.0478389246
 10
50.6591494514
 20
-64.0847298052
 10
50.683927279
 20
-66.1157651752
 10
50.7186150305
 20
-68.1408781387
 10
50.7632115789
 20
-70.1600087361
 10
50.8177157508
 20
-72.1731038461
 10
50.8821260299
 20
-74.1801037452
 10
50.9564403917
 20
-76.18094221
 10
51.0406565841
 20
-78.175556564
  0
LWPOLYLINE
  5
3C6
100
AcDbEntity
  8
RACCORDO
100
AcDbPolyline
 62
250
  6
CONTINUOUS
 90
3
 70
0
 10
53.0349675134
 20
-72.3032383425
 10
53.0364065423
 20
-72.8836278043
 10
53.0378886311
 20
-73.4608290681
  0
LINE
  5
3C7
100
AcDbEntity
  8
RACCORDO
100
AcDbLine
 62
7
  6
CONTINUOUS
 10
53.0978574007
 20
-73.3568744427
 11
53.0965447091
 21
-72.8278419998
  0
LINE
  5
3C8
100
AcDbEntity
  8
RACCORDO
100
AcDbLine
 62
250
  6
CONTINUOUS
 10
53.0322047208
 20
-71.1329425101
 11
53.0349675134
 21
-72.3032383425
  0
LINE
  5
3C9
100
AcDbEntity
  8
RACCORDO
100
AcDbLine
 62
7
  6
CONTINUOUS
 10
53.0965447091
 20
-72.8278419998
 11
53.0937276061
 21
-71.6379105992
  0
LINE
  5
3CA
100
AcDbEntity
  8
RACCORDO
100
AcDbLine
 62
250
  6
CONTINUOUS
 10
54.2164053419
 20
-81.0461243113
 11
54.2264481407
 21
-84.8962576814
  0
LINE
  5
3CB
100
AcDbEntity
  8
RACCORDO
100
AcDbLine
 62
250
  6
CONTINUOUS
 10
53.0295862405
 20
-69.9498489574
 11
53.0322047208
 21
-71.1329425101
  0
LINE
  5
3CC
100
AcDbEntity
  8
RACCORDO
100
AcDbLine
 62
7
  6
CONTINUOUS
 10
53.0937276061
 20
-71.6379105992
 11
53.0910626521
 21
-70.4333443184
  0
LINE
  5
3CD
100
AcDbEntity
  8
RACCORDO
100
AcDbLine
 62
250
  6
CONTINUOUS
 10
53.0259473612
 20
-68.1504342701
 11
53.0295862405
 21
-69.9498489574
  0
LINE
  5
3CE
100
AcDbEntity
  8
RACCORDO
100
AcDbLine
 62
7
  6
CONTINUOUS
 10
53.0910626521
 20
-70.4333443184
 11
53.0885519872
 21
-69.2141448378
  0
LINE
  5
3CF
100
AcDbEntity
  8
RACCORDO
100
AcDbLine
 62
7
  6
CONTINUOUS
 10
53.0885519872
 20
-69.2141448378
 11
53.0863191246
 21
-68.0461830713
  0
LINE
  5
3D0
100
AcDbEntity
  8
RACCORDO
100
AcDbLine
 62
7
  6
CONTINUOUS
 10
54.2703544479
 20
-88.5261791039
 11
54.2623433307
 21
-84.8611098032
  0
LINE
  5
3D1
100
AcDbEntity
  8
RACCORDO
100
AcDbLine
 62
7
  6
CONTINUOUS
 10
54.2623433307
 20
-84.8611098032
 11
54.2546900087
 21
-78.9179607575
  0
LINE
  5
3D2
100
AcDbEntity
  8
RACCORDO
100
AcDbLine
 62
250
  6
CONTINUOUS
 10
54.205243855
 20
-73.180818467
 11
54.2164053419
 21
-81.0461243113
  0
LINE
  5
3D3
100
AcDbEntity
  8
RACCORDO
100
AcDbLine
 62
7
  6
CONTINUOUS
 10
54.2546900087
 20
-78.9179607575
 11
54.2516286554
 21
-74.7237793927
  0
LINE
  5
3D4
100
AcDbEntity
  8
RACCORDO
100
AcDbLine
 62
7
  6
CONTINUOUS
 10
54.2516286827
 20
-74.7237842445
 11
54.2507799328
 21
-73.0890619936
  0
LINE
  5
3D5
100
AcDbEntity
  8
RACCORDO
100
AcDbLine
 62
250
  6
CONTINUOUS
 10
48.6236195226
 20
-60.6377166011
 11
48.6236195226
 21
-2.6683343199
  0
LINE
  5
3D6
100
AcDbEntity
  8
RACCORDO
100
AcDbLine
 62
250
  6
CONTINUOUS
 10
49.298566718
 20
-60.6547352419
 11
49.298566718
 21
-2.6853455896
  0
LINE
  5
3D7
100
AcDbEntity
  8
DRAFT
100
AcDbLine
 62
7
  6
CONTINUOUS
 10
50.6393268546
 20
-2.035766596
 11
50.6393268546
 21
-60.0051562483
  0
LINE
  5
3D8
100
AcDbEntity
  8
RACCORDO
100
AcDbLine
 62
7
  6
CONTINUOUS
 10
54.2481651734
 20
-66.3853870292
 11
54.2447772472
 21
-41.8130008664
  0
LINE
  5
3D9
100
AcDbEntity
  8
RACCORDO
100
AcDbLine
 62
7
  6
CONTINUOUS
 10
54.2447772472
 20
-41.8130008664
 11
54.2445669603
 21
-15.8519918369
  0
LINE
  5
3DA
100
AcDbEntity
  8
RACCORDO
100
AcDbLine
 62
250
  6
CONTINUOUS
 10
54.1966759609
 20
2.9874965807
 11
54.2003282453
 21
-66.4792331955
  0
LWPOLYLINE
  5
3DB
100
AcDbEntity
  8
RACCORDO
100
AcDbPolyline
 62
7
  6
CONTINUOUS
 90
3
 70
0
 10
54.2445669603
 20
-15.8519918369
 10
54.247263397
 20
8.5681161237
 10
54.2481651734
 20
11.8251200026
  0
LINE
  5
3DC
100
AcDbEntity
  8
RACCORDO
100
AcDbLine
 62
250
  6
CONTINUOUS
 10
54.2003282453
 20
11.7312885133
 11
54.1966759609
 21
2.9874965807
  0
LINE
  5
3DD
100
AcDbEntity
  8
RACCORDO
100
AcDbLine
 62
7
  6
CONTINUOUS
 10
54.2507799327
 20
18.525775434
 11
54.2567962925
 21
26.3938808837
  0
LINE
  5
3DE
100
AcDbEntity
  8
RACCORDO
100
AcDbLine
 62
7
  6
CONTINUOUS
 10
54.2567962925
 20
26.3938808837
 11
54.2623534238
 21
30.290123814
  0
LWPOLYLINE
  5
3DF
100
AcDbEntity
  8
RACCORDO
100
AcDbPolyline
 62
250
  6
CONTINUOUS
 90
12
 70
0
 10
49.298566718
 20
-2.6853455896
 10
49.3012889958
 20
-1.1571628872
 10
49.3095487731
 20
0.3755471697
 10
49.323344928
 20
1.9127585697
 10
49.3426606312
 20
3.4544284698
 10
49.3675104716
 20
5.000547262
 10
49.397940431
 20
6.5511385841
 10
49.433949223
 20
8.1061756464
 10
49.4755358366
 20
9.6656319454
 10
49.5227466185
 20
11.2295313443
 10
49.5755962234
 20
12.797863743
 10
49.6340676408
 20
14.3705850718
  0
LWPOLYLINE
  5
3E0
100
AcDbEntity
  8
RACCORDO
100
AcDbPolyline
 62
250
  6
CONTINUOUS
 90
12
 70
0
 10
48.6236195226
 20
-2.6683343199
 10
48.6263708188
 20
-1.1385860221
 10
48.634634629
 20
0.3956785599
 10
48.6484254947
 20
1.9344412099
 10
48.6677577374
 20
3.4776744718
 10
48.6926458022
 20
5.0253687668
 10
48.7231045819
 20
6.5775325733
 10
48.7591485972
 20
8.1341470556
 10
48.8007922295
 20
9.6951932305
 10
48.8480506179
 20
11.260679387
 10
48.9009385934
 20
12.8305954691
 10
48.9594703519
 20
14.4049128983
  0
LINE
  5
3E1
100
AcDbEntity
  8
RACCORDO
100
AcDbLine
 62
250
  6
CONTINUOUS
 10
54.2162907351
 20
26.2478586106
 11
54.205243855
 21
18.43404228
  0
LINE
  5
3E2
100
AcDbEntity
  8
RACCORDO
100
AcDbLine
 62
7
  6
CONTINUOUS
 10
53.0863191224
 20
11.5613882207
 11
53.0978573953
 21
16.8587540593
  0
LINE
  5
3E3
100
AcDbEntity
  8
RACCORDO
100
AcDbLine
 62
7
  6
CONTINUOUS
 10
54.2623534238
 20
30.290123814
 11
54.2703673267
 21
33.9451093002
  0
LINE
  5
3E4
100
AcDbEntity
  8
RACCORDO
100
AcDbLine
 62
250
  6
CONTINUOUS
 10
53.0378886311
 20
16.7549003736
 11
53.0259473612
 21
11.4572104936
  0
LINE
  5
3E5
100
AcDbEntity
  8
RACCORDO
100
AcDbLine
 62
250
  6
CONTINUOUS
 10
54.2262702718
 20
30.097092493
 11
54.2162907351
 21
26.2478586106
  0
LINE
  5
3E6
100
AcDbEntity
  8
RACCORDO
100
AcDbLine
 62
7
  6
CONTINUOUS
 10
54.2703673267
 20
33.9451093002
 11
54.2818179923
 21
37.293648921
  0
LINE
  5
3E7
100
AcDbEntity
  8
RACCORDO
100
AcDbLine
 62
7
  6
CONTINUOUS
 10
54.2817817584
 20
-91.9007974239
 11
54.281818017
 21
-91.8928127281
  0
LWPOLYLINE
  5
3E8
100
AcDbEntity
  8
RACCORDO
100
AcDbPolyline
 62
250
  6
CONTINUOUS
 90
4
 70
0
 10
54.2605439442
 20
37.2297895628
 10
54.2494243794
 20
35.5159026512
 10
54.2402412929
 20
33.7554665974
 10
54.2262702718
 20
30.097092493
  0
LWPOLYLINE
  5
3E9
100
AcDbEntity
  8
RACCORDO
100
AcDbPolyline
 62
7
  6
CONTINUOUS
 90
25
 70
0
 10
53.0863189758
 20
-68.0461621824
 10
53.0864071685
 20
-68.0373839216
 10
53.0870896736
 20
-68.0208972078
 10
53.08854234
 20
-68.0026305084
 10
53.0908808489
 20
-67.9825870809
 10
53.0941992218
 20
-67.9609216169
 10
53.0985421494
 20
-67.9379381736
 10
53.1039556416
 20
-67.9137824333
 10
53.1104764798
 20
-67.8886039652
 10
53.1180733211
 20
-67.8627353324
 10
53.1267286803
 20
-67.8363661163
 10
53.1364210822
 20
-67.8096698146
 10
53.1470602698
 20
-67.7829555487
 10
53.1585833884
 20
-67.7564040757
 10
53.1709151733
 20
-67.7302044938
 10
53.1839009663
 20
-67.704665726
 10
53.197440294
 20
-67.6799420138
 10
53.2114176438
 20
-67.6561981132
 10
53.2256132819
 20
-67.6337304652
 10
53.2399010599
 20
-67.6126424556
 10
53.2541433298
 20
-67.5930403458
 10
53.2680679721
 20
-67.5751733256
 10
53.2815437224
 20
-67.5590639565
 10
53.2944317962
 20
-67.5447334952
 10
53.2996249325
 20
-67.5392582854
  0
LWPOLYLINE
  5
3EA
100
AcDbEntity
  8
RACCORDO
100
AcDbPolyline
 62
250
  6
CONTINUOUS
 90
28
 70
0
 10
51.6286425139
 20
35.6854716364
 10
51.6292900254
 20
35.7352387326
 10
51.6276469871
 20
35.786122967
 10
51.6237456911
 20
35.837962907
 10
51.6176456063
 20
35.8905855297
 10
51.6093733231
 20
35.9438331298
 10
51.5989151292
 20
35.9975664352
 10
51.5863125547
 20
36.0516508516
 10
51.5716318086
 20
36.1058853302
 10
51.5549033508
 20
36.1600305421
 10
51.5362042043
 20
36.2138977703
 10
51.5156119899
 20
36.2673370232
 10
51.4931694196
 20
36.3201679216
 10
51.4689617659
 20
36.3722240078
 10
51.4430849838
 20
36.4233431592
 10
51.4156032015
 20
36.4733546963
 10
51.3866147555
 20
36.5220977626
 10
51.356225752
 20
36.5694231104
 10
51.3245160163
 20
36.615181996
 10
51.2915885358
 20
36.6592308358
 10
51.257561602
 20
36.7014277015
 10
51.2225411897
 20
36.741632985
 10
51.1866457141
 20
36.7797104513
 10
51.1499907963
 20
36.8155460741
 10
51.1126800224
 20
36.8490402466
 10
51.0748276975
 20
36.8800863959
 10
51.0365589732
 20
36.9085745187
 10
50.9979942504
 20
36.9344077638
  0
LWPOLYLINE
  5
3EB
100
AcDbEntity
  8
RACCORDO
100
AcDbPolyline
 62
7
  6
CONTINUOUS
 90
25
 70
0
 10
53.0978572087
 20
16.858777078
 10
53.0979835891
 20
16.8675575791
 10
53.0987353638
 20
16.8840270258
 10
53.1002612646
 20
16.9022781619
 10
53.1026756512
 20
16.9223075573
 10
53.1060711964
 20
16.9439605187
 10
53.1104915889
 20
16.9669346575
 10
53.1159814238
 20
16.9910857215
 10
53.122575399
 20
17.016266371
 10
53.1302431028
 20
17.042145785
 10
53.1389666907
 20
17.0685343924
 10
53.1487213176
 20
17.0952622255
 10
53.1594203931
 20
17.1220237817
 10
53.1710031635
 20
17.1486386649
 10
53.1833894547
 20
17.174917606
 10
53.196427397
 20
17.2005530597
 10
53.2100203474
 20
17.2253906509
 10
53.2240486062
 20
17.2492629366
 10
53.2382921042
 20
17.271871021
 10
53.2526296993
 20
17.2931113211
 10
53.2669218208
 20
17.3128746231
 10
53.280893502
 20
17.3309064941
 10
53.2944177612
 20
17.347184378
 10
53.3073570745
 20
17.3616850263
 10
53.312737745
 20
17.3674042643
  0
LWPOLYLINE
  5
3EC
100
AcDbEntity
  8
RACCORDO
100
AcDbPolyline
 62
250
  6
CONTINUOUS
 90
8
 70
0
 10
54.2516286826
 20
20.1595175188
 10
54.2515803239
 20
20.1564611657
 10
54.249905922
 20
20.1410256066
 10
54.2458565221
 20
20.1257386269
 10
54.239464367
 20
20.1107219474
 10
54.2307803534
 20
20.0960951368
 10
54.2198736269
 20
20.0819746592
 10
54.206831031
 20
20.0684729474
  0
LWPOLYLINE
  5
3ED
100
AcDbEntity
  8
RACCORDO
100
AcDbPolyline
 62
250
  6
CONTINUOUS
 90
8
 70
0
 10
54.2510950223
 20
19.1650530231
 10
54.2510367083
 20
19.1616865465
 10
54.2493088669
 20
19.1462198712
 10
54.2451961171
 20
19.1309050334
 10
54.2387313496
 20
19.1158645107
 10
54.2299662653
 20
19.1012185867
 10
54.2189709613
 20
19.0870843895
 10
54.2058333704
 20
19.0735749546
  0
LWPOLYLINE
  5
3EE
100
AcDbEntity
  8
RACCORDO
100
AcDbPolyline
 62
250
  6
CONTINUOUS
 90
8
 70
0
 10
54.2507799029
 20
18.5257227071
 10
54.2507153174
 20
18.5222260294
 10
54.2489572954
 20
18.5068002029
 10
54.2448118995
 20
18.491386247
 10
54.2382980532
 20
18.4763554297
 10
54.2294633371
 20
18.4618506151
 10
54.2184043222
 20
18.4477482827
 10
54.205243855
 20
18.43404228
  0
LWPOLYLINE
  5
3EF
100
AcDbEntity
  8
RACCORDO
100
AcDbPolyline
 62
250
  6
CONTINUOUS
 90
8
 70
0
 10
54.248165182
 20
11.8251608496
 10
54.2480360027
 20
11.8200667242
 10
54.2460137059
 20
11.8043827775
 10
54.241556021
 20
11.7890233151
 10
54.2346836588
 20
11.7737929425
 10
54.2254479542
 20
11.7588221925
 10
54.2139526418
 20
11.7445614498
 10
54.2003282453
 20
11.7312885133
  0
LWPOLYLINE
  5
3F0
100
AcDbEntity
  8
RACCORDO
100
AcDbPolyline
 62
250
  6
CONTINUOUS
 90
8
 70
0
 10
54.2460685816
 20
1.7495701753
 10
54.245872466
 20
1.7433182912
 10
54.2436355504
 20
1.7275629015
 10
54.2389207831
 20
1.7119910405
 10
54.2317674243
 20
1.6967323757
 10
54.2222350403
 20
1.6819139666
 10
54.2104030075
 20
1.6676592066
 10
54.1963698518
 20
1.6540867956
  0
LWPOLYLINE
  5
3F1
100
AcDbEntity
  8
RACCORDO
100
AcDbPolyline
 62
250
  6
CONTINUOUS
 90
8
 70
0
 10
54.2459983285
 20
1.079019185
 10
54.2457997502
 20
1.0727273868
 10
54.243555698
 20
1.0569680978
 10
54.2388325095
 20
1.0413927842
 10
54.2316695366
 20
1.0261312137
 10
54.2221264585
 20
1.01131054
 10
54.2102827846
 20
0.9970542433
 10
54.1962371918
 20
0.9834811018
  0
LWPOLYLINE
  5
3F2
100
AcDbEntity
  8
RACCORDO
100
AcDbPolyline
 62
250
  6
CONTINUOUS
 90
8
 70
0
 10
54.2459535549
 20
0.6227648708
 10
54.2457534009
 20
0.6164475577
 10
54.2435048044
 20
0.6006857961
 10
54.2387762538
 20
0.5851082936
 10
54.2316071596
 20
0.5698448814
 10
54.2220572728
 20
0.5550227731
 10
54.2102061874
 20
0.5407655044
 10
54.1961526768
 20
0.5271919029
  0
LWPOLYLINE
  5
3F3
100
AcDbEntity
  8
DRAFT
100
AcDbPolyline
 62
7
  6
CONTINUOUS
 90
10
 70
0
 10
51.0406565841
 20
16.5980792315
 10
50.9564403479
 20
14.5062133512
 10
50.8821259769
 20
12.4195583677
 10
50.817715713
 20
10.3381795524
 10
50.763211584
 20
8.2621460211
 10
50.7186150774
 20
6.1915186801
 10
50.6839273324
 20
4.1263503293
 10
50.6591494844
 20
2.0667016823
 10
50.644282474
 20
0.0126412585
 10
50.6393268546
 20
-2.035766596
  0
LINE
  5
3F4
100
AcDbEntity
  8
RACCORDO
100
AcDbLine
 62
250
  6
CONTINUOUS
 10
48.9594703519
 20
14.4049128983
 11
49.0267810008
 21
16.0571039314
  0
LINE
  5
3F5
100
AcDbEntity
  8
RACCORDO
100
AcDbLine
 62
250
  6
CONTINUOUS
 10
49.6340676408
 20
14.3705850718
 11
49.7012785113
 21
16.0211349215
  0
LWPOLYLINE
  5
3F6
100
AcDbEntity
  8
RACCORDO
100
AcDbPolyline
 62
250
  6
CONTINUOUS
 90
10
 70
0
 10
49.0267810018
 20
16.0571039308
 10
49.1313384092
 20
18.1973007212
 10
49.2635537159
 20
20.3513882792
 10
49.4233954718
 20
22.5188571805
 10
49.6108256828
 20
24.699193414
 10
49.8257998023
 20
26.8918827804
 10
50.0682669139
 20
29.0964110885
 10
50.3381696856
 20
31.3122585356
 10
50.6354442114
 20
33.538899755
 10
50.96002013
 20
35.7758082694
  0
LWPOLYLINE
  5
3F7
100
AcDbEntity
  8
RACCORDO
100
AcDbPolyline
 62
250
  6
CONTINUOUS
 90
10
 70
0
 10
49.7012785113
 20
16.0211349215
 10
49.8055875333
 20
18.1554393735
 10
49.937388836
 20
20.303578969
 10
50.0966864658
 20
22.4650529477
 10
50.2835391964
 20
24.6393748841
 10
50.4978963755
 20
26.826029417
 10
50.7395977973
 20
29.0244721121
 10
51.0085926331
 20
31.2341871674
 10
51.3049395587
 20
33.4546875512
 10
51.6286425124
 20
35.6854716355
  0
LWPOLYLINE
  5
3F8
100
AcDbEntity
  8
RACCORDO
100
AcDbPolyline
 62
250
  6
CONTINUOUS
 90
8
 70
0
 10
53.0978573953
 20
16.8587540593
 10
53.0970839108
 20
16.8465400041
 10
53.0936796978
 20
16.8301233106
 10
53.0875937453
 20
16.8139730307
 10
53.0788812249
 20
16.7982355734
 10
53.0676211193
 20
16.7830536049
 10
53.0539155056
 20
16.7685647559
 10
53.0378886309
 20
16.7549003736
  0
LWPOLYLINE
  5
3F9
100
AcDbEntity
  8
RACCORDO
100
AcDbPolyline
 62
250
  6
CONTINUOUS
 90
8
 70
0
 10
53.086319009
 20
11.5613871703
 10
53.0855162157
 20
11.5488830087
 10
53.08206645
 20
11.5324547896
 10
53.0759272261
 20
11.5162947182
 10
53.0671543728
 20
11.500549751
 10
53.0558276688
 20
11.4853630695
 10
53.0420501166
 20
11.4708727781
 10
53.0259470065
 20
11.4572106486
  0
LWPOLYLINE
  5
3FA
100
AcDbEntity
  8
RACCORDO
100
AcDbPolyline
 62
250
  6
CONTINUOUS
 90
5
 70
0
 10
54.2818179923
 20
37.293648921
 10
54.2806633337
 20
37.2788517953
 10
54.2767094691
 20
37.2621374795
 10
54.2699819153
 20
37.2457319653
 10
54.260543951
 20
37.2297895612
  0
LINE
  5
3FB
100
AcDbEntity
  8
RACCORDO
100
AcDbLine
 62
250
  6
CONTINUOUS
 10
54.2630361837
 20
37.251762677
 11
54.2619282275
 21
37.2407699297
  0
LINE
  5
3FC
100
AcDbEntity
  8
RACCORDO
100
AcDbLine
 62
250
  6
CONTINUOUS
 10
54.2619282275
 20
37.2407699297
 11
54.2605439442
 21
37.2297895628
  0
LWPOLYLINE
  5
3FD
100
AcDbEntity
  8
RACCORDO
100
AcDbPolyline
 62
250
  6
CONTINUOUS
 90
6
 70
0
 10
53.0578332305
 20
16.9272538648
 10
53.0507133215
 20
16.8908508762
 10
53.0451481213
 20
16.8553580181
 10
53.0411646866
 20
16.8209550701
 10
53.0387439608
 20
16.787468431
 10
53.0378886311
 20
16.7549003736
  0
LWPOLYLINE
  5
3FE
100
AcDbEntity
  8
0
100
AcDbPolyline
 62
7
  6
CONTINUOUS
 90
44
 70
0
 10
1.445213468
 20
-55.0714445569
 10
1.447367938
 20
-55.0701582635
 10
1.4558736895
 20
-55.0648496092
 10
1.4644319023
 20
-55.0590252142
 10
1.4729216352
 20
-55.0524569972
 10
1.4813394602
 20
-55.0451251723
 10
1.4896891859
 20
-55.037049271
 10
1.4978608133
 20
-55.0280601309
 10
1.505854849
 20
-55.018154435
 10
1.5136713047
 20
-55.0073351541
 10
1.5211995251
 20
-54.9954424993
 10
1.528456924
 20
-54.9824883208
 10
1.5354267713
 20
-54.9684603124
 10
1.5419472977
 20
-54.9531623827
 10
1.5480409634
 20
-54.9366113002
 10
1.5536861992
 20
-54.9187897029
 10
1.5586553229
 20
-54.8994502166
 10
1.5629650412
 20
-54.8785857101
 10
1.5665998098
 20
-54.856202541
 10
1.5692837059
 20
-54.8320734786
 10
1.5710304857
 20
-54.8062079457
 10
1.5718278053
 20
-54.7785955812
 10
1.5713607235
 20
-54.7489793897
 10
1.5697021598
 20
-54.7173841544
 10
1.5667809144
 20
-54.6837839519
 10
1.5620659867
 20
-54.6478456482
 10
1.5555849462
 20
-54.6092465269
 10
1.5473123762
 20
-54.5683078795
 10
1.5366370723
 20
-54.5256630658
 10
1.523211187
 20
-54.4808397568
 10
1.507383224
 20
-54.4343098529
 10
1.4895842119
 20
-54.3881245801
 10
1.469591845
 20
-54.3424501569
 10
1.4476259285
 20
-54.2971220271
 10
1.42477856
 20
-54.2536966421
 10
1.401121848
 20
-54.2125512941
 10
1.3765804139
 20
-54.1733108577
 10
1.352024692
 20
-54.1364034428
 10
1.3276233757
 20
-54.1019827655
 10
1.303205496
 20
-54.069896615
 10
1.2791323174
 20
-54.0401139959
 10
1.2555238366
 20
-54.0126248569
 10
1.2322586757
 20
-53.987440162
 10
1.2093362819
 20
-53.9645602759
  0
LINE
  5
3FF
100
AcDbEntity
  8
0
100
AcDbLine
 62
250
  6
CONTINUOUS
 10
1.2093362781
 20
-53.964560273
 11
1.138444924
 21
-54.0054920524
  0
LINE
  5
400
100
AcDbEntity
  8
0
100
AcDbLine
 62
7
  6
CONTINUOUS
 10
0.6502805081
 20
-54.5353206481
 11
0.5793510654
 21
-54.5762744194
  0
LINE
  5
401
100
AcDbEntity
  8
0
100
AcDbLine
 62
250
  6
CONTINUOUS
 10
0.8864424273
 20
-54.6716775805
 11
0.8155129846
 21
-54.7126313518
  0
LINE
  5
402
100
AcDbEntity
  8
0
100
AcDbLine
 62
7
  6
CONTINUOUS
 10
0.2227975374
 20
-55.4514966534
 11
0.1518124531
 21
-55.4924825514
  0
LINE
  5
403
100
AcDbEntity
  8
0
100
AcDbLine
 62
7
  6
CONTINUOUS
 10
1.2725245638
 20
-55.1453526006
 11
1.2577872206
 21
-55.1538617578
  0
LINE
  5
404
100
AcDbEntity
  8
SUPERFICI
100
AcDbLine
 62
7
  6
CONTINUOUS
 10
1.3742677428
 20
-55.1123804886
 11
1.4452006609
 21
-55.0714247107
  0
LINE
  5
405
100
AcDbEntity
  8
0
100
AcDbLine
 62
7
  6
CONTINUOUS
 10
0.7557208499
 20
-55.7592001587
 11
0.6847357655
 21
-55.8001860567
  0
LINE
  5
406
100
AcDbEntity
  8
0
100
AcDbLine
 62
250
  6
CONTINUOUS
 10
1.5987447761
 20
-55.6804586563
 11
1.5277876176
 21
-55.7214284304
  0
LINE
  5
407
100
AcDbEntity
  8
0
100
AcDbLine
 62
7
  6
CONTINUOUS
 10
1.7860269548
 20
-56.3540859909
 11
1.7150418705
 21
-56.395071889
  0
LWPOLYLINE
  5
408
100
AcDbEntity
  8
0
100
AcDbPolyline
 62
7
  6
CONTINUOUS
 90
4
 70
0
 10
1.3742744618
 20
-55.1123909773
 10
1.3702176881
 20
-55.1146584212
 10
1.3626556636
 20
-55.1186892271
 10
1.3551864456
 20
-55.1224010949
  0
LWPOLYLINE
  5
409
100
AcDbEntity
  8
0
100
AcDbPolyline
 62
7
  6
CONTINUOUS
 90
5
 70
0
 10
1.3551864456
 20
-55.1224010949
 10
1.3478026123
 20
-55.1257797625
 10
1.3405565009
 20
-55.1289309553
 10
1.3334684731
 20
-55.1318750806
 10
1.3265180682
 20
-55.1345917973
  0
LWPOLYLINE
  5
40A
100
AcDbEntity
  8
0
100
AcDbPolyline
 62
7
  6
CONTINUOUS
 90
7
 70
0
 10
1.3265180682
 20
-55.1345917973
 10
1.3130621104
 20
-55.139578097
 10
1.3065564897
 20
-55.1418477253
 10
1.2999947673
 20
-55.1436752549
 10
1.293397681
 20
-55.1451203518
 10
1.2867443958
 20
-55.1461234151
 10
1.279787721
 20
-55.1462462526
  0
LINE
  5
40B
100
AcDbEntity
  8
RACCORDO
100
AcDbLine
 62
250
  6
CONTINUOUS
 10
53.9108270976
 20
37.8736948756
 11
53.8978282199
 21
37.8780529073
  0
LWPOLYLINE
  5
40C
100
AcDbEntity
  8
RACCORDO
100
AcDbPolyline
 62
250
  6
CONTINUOUS
 90
12
 70
0
 10
-51.7070332071
 20
95.0544781965
 10
-51.7349308584
 20
95.0716919109
 10
-51.7602869945
 20
95.0896284415
 10
-51.7829298459
 20
95.1081662811
 10
-51.802706024
 20
95.1271798495
 10
-51.8194815595
 20
95.1465403436
 10
-51.8331428103
 20
95.1661166102
 10
-51.8435972315
 20
95.1857760343
 10
-51.8507740019
 20
95.2053854377
 10
-51.8546245042
 20
95.2248119808
 10
-51.855122654
 20
95.2439240632
 10
-51.854142084
 20
95.2531281468
  0
LWPOLYLINE
  5
40D
100
AcDbEntity
  8
RACCORDO
100
AcDbPolyline
 62
7
  6
CONTINUOUS
 90
12
 70
0
 10
53.0908922441
 20
11.5103120898
 10
53.0913455632
 20
11.5094017724
 10
53.0920968672
 20
11.5077411477
 10
53.0920781677
 20
11.50781393
 10
53.0915059549
 20
11.509665991
 10
53.0906022513
 20
11.5132122523
 10
53.0895280959
 20
11.5184688978
 10
53.0884293445
 20
11.5254642208
 10
53.0874505553
 20
11.5341510549
 10
53.0867177485
 20
11.5444915625
 10
53.0863438608
 20
11.5565127153
 10
53.086319009
 20
11.5613871703
  0
LWPOLYLINE
  5
40E
100
AcDbEntity
  8
RACCORDO
100
AcDbPolyline
 62
7
  6
CONTINUOUS
 90
5
 70
0
 10
54.280486559
 20
37.3309672764
 10
54.2776175115
 20
37.3591208267
 10
54.2731682554
 20
37.3877367629
 10
54.2671071854
 20
37.4169133284
 10
54.2594351315
 20
37.4464675019
  0
LWPOLYLINE
  5
40F
100
AcDbEntity
  8
RACCORDO
100
AcDbPolyline
 62
250
  6
CONTINUOUS
 90
8
 70
0
 10
54.2516286582
 20
-74.7237842445
 10
54.2515802996
 20
-74.726948745
 10
54.2499058987
 20
-74.742365585
 10
54.2458564999
 20
-74.7576358119
 10
54.239464346
 20
-74.7726378382
 10
54.2307803338
 20
-74.787252212
 10
54.2198736088
 20
-74.801362568
 10
54.2068310144
 20
-74.8148565541
  0
LWPOLYLINE
  5
410
100
AcDbEntity
  8
RACCORDO
100
AcDbPolyline
 62
250
  6
CONTINUOUS
 90
8
 70
0
 10
54.2510950224
 20
-73.7287034302
 10
54.2510367083
 20
-73.7321678604
 10
54.249308867
 20
-73.7476175196
 10
54.2451961171
 20
-73.7629171393
 10
54.2387313496
 20
-73.7779443636
 10
54.2299662654
 20
-73.7925790152
 10
54.2189709614
 20
-73.8067040562
 10
54.2058333705
 20
-73.8202065244
  0
LWPOLYLINE
  5
411
100
AcDbEntity
  8
RACCORDO
100
AcDbPolyline
 62
250
  6
CONTINUOUS
 90
8
 70
0
 10
54.2507799159
 20
-73.089037023
 10
54.2507153173
 20
-73.0927028934
 10
54.2489572949
 20
-73.1082165758
 10
54.2448118988
 20
-73.1234297205
 10
54.2382980523
 20
-73.1385308889
 10
54.2294633363
 20
-73.1533928896
 10
54.2184043217
 20
-73.1675789194
 10
54.205243855
 20
-73.180818467
  0
LWPOLYLINE
  5
412
100
AcDbEntity
  8
RACCORDO
100
AcDbPolyline
 62
250
  6
CONTINUOUS
 90
8
 70
0
 10
54.2481651899
 20
-66.3854582542
 10
54.2480360033
 20
-66.3904990054
 10
54.246013708
 20
-66.4060648145
 10
54.2415560242
 20
-66.4216074213
 10
54.2346836624
 20
-66.4367450602
 10
54.2254479575
 20
-66.4513306219
 10
54.2139526439
 20
-66.4654911129
 10
54.2003282453
 20
-66.4792331955
  0
LWPOLYLINE
  5
413
100
AcDbEntity
  8
RACCORDO
100
AcDbPolyline
 62
250
  6
CONTINUOUS
 90
8
 70
0
 10
54.2460685817
 20
-56.30741656
 10
54.245872466
 20
-56.3136886233
 10
54.2436355503
 20
-56.3294403883
 10
54.2389207831
 20
-56.3450090291
 10
54.2317674243
 20
-56.3602649051
 10
54.2222350403
 20
-56.37508098
 10
54.2104030075
 20
-56.3893338798
 10
54.1963698518
 20
-56.40290492
  0
LWPOLYLINE
  5
414
100
AcDbEntity
  8
RACCORDO
100
AcDbPolyline
 62
250
  6
CONTINUOUS
 90
8
 70
0
 10
54.2459983286
 20
-55.6367844624
 10
54.2457997502
 20
-55.6430949568
 10
54.243555698
 20
-55.658850879
 10
54.2388325095
 20
-55.6744232018
 10
54.2316695366
 20
-55.6896821824
 10
54.2221264585
 20
-55.7045006888
 10
54.2102827846
 20
-55.7187552588
 10
54.1962371918
 20
-55.7323271285
  0
LWPOLYLINE
  5
415
100
AcDbEntity
  8
RACCORDO
100
AcDbPolyline
 62
250
  6
CONTINUOUS
 90
8
 70
0
 10
54.2459535549
 20
-55.1804783004
 10
54.2457534009
 20
-55.1868133038
 10
54.2435048044
 20
-55.2025718804
 10
54.2387762538
 20
-55.2181465538
 10
54.2316071596
 20
-55.2334075164
 10
54.2220572728
 20
-55.2482275749
 10
54.2102061874
 20
-55.2624832109
 10
54.1961526768
 20
-55.2760556102
  0
LWPOLYLINE
  5
416
100
AcDbEntity
  8
RACCORDO
100
AcDbPolyline
 62
250
  6
CONTINUOUS
 90
8
 70
0
 10
54.2441863171
 20
-27.2778362566
 10
54.2439188366
 20
-27.2851491028
 10
54.241489327
 20
-27.3010103415
 10
54.2365474686
 20
-27.3166757474
 10
54.2291350224
 20
-27.3320129404
 10
54.2193146272
 20
-27.3468923142
 10
54.2071692698
 20
-27.3611881311
 10
54.1928015841
 20
-27.3747795848
  0
LINE
  5
417
100
AcDbEntity
  8
RACCORDO
100
AcDbLine
 62
7
  6
CONTINUOUS
 10
54.2807766437
 20
-91.9255344634
 11
54.2817817584
 21
-91.9007974239
  0
LWPOLYLINE
  5
418
100
AcDbEntity
  8
RACCORDO
100
AcDbPolyline
 62
250
  6
CONTINUOUS
 90
8
 70
0
 10
53.0978571879
 20
-73.3568755387
 10
53.097083613
 20
-73.3695225754
 10
53.0936792892
 20
-73.3858553966
 10
53.0875932216
 20
-73.4019323333
 10
53.0788805831
 20
-73.4176076406
 10
53.0676203576
 20
-73.4327392149
 10
53.0539146244
 20
-73.4471898814
 10
53.0378876319
 20
-73.4608286384
  0
LWPOLYLINE
  5
419
100
AcDbEntity
  8
RACCORDO
100
AcDbPolyline
 62
250
  6
CONTINUOUS
 90
8
 70
0
 10
53.0863191246
 20
-68.0461830713
 10
53.0855163524
 20
-68.059005048
 10
53.0820666217
 20
-68.075371982
 10
53.0759274339
 20
-68.0914784996
 10
53.0671546175
 20
-68.1071781316
 10
53.0558279506
 20
-68.1223281091
 10
53.0420504352
 20
-68.1367906617
 10
53.025947361
 20
-68.15043427
  0
LWPOLYLINE
  5
41A
100
AcDbEntity
  8
RACCORDO
100
AcDbPolyline
 62
250
  6
CONTINUOUS
 90
5
 70
0
 10
54.2818181494
 20
-91.892844494
 10
54.2806632164
 20
-91.908359077
 10
54.2767093572
 20
-91.9249312843
 10
54.2699818152
 20
-91.9412134902
 10
54.2605438686
 20
-91.957052547
  0
LWPOLYLINE
  5
41B
100
AcDbEntity
  8
RACCORDO
100
AcDbPolyline
 62
7
  6
CONTINUOUS
 90
5
 70
0
 10
52.9803327796
 20
-95.5855545323
 10
52.9805770134
 20
-95.5830498474
 10
52.9815875656
 20
-95.5502145518
 10
52.9804948191
 20
-95.5155771017
 10
52.977224686
 20
-95.479039023
  0
LWPOLYLINE
  5
41C
100
AcDbEntity
  8
RACCORDO
100
AcDbPolyline
 62
250
  6
CONTINUOUS
 90
10
 70
0
 10
54.1928015842
 20
-27.3747795669
 10
53.7978704678
 20
-27.7054918852
 10
53.391903367
 20
-28.0317700582
 10
52.9750505489
 20
-28.3534915948
 10
52.5474305705
 20
-28.6705570466
 10
52.109225108
 20
-28.9828203767
 10
51.6606963102
 20
-29.2900970475
 10
51.2020538532
 20
-29.5922540808
 10
50.7334407097
 20
-29.8892034217
 10
50.6393268546
 20
-29.9465738804
  0
LINE
  5
41D
100
AcDbEntity
  8
RACCORDO
100
AcDbLine
 62
250
  6
CONTINUOUS
 10
3.8871918199
 20
66.7654328676
 11
3.8704494437
 21
66.7731484795
  0
LWPOLYLINE
  5
41E
100
AcDbEntity
  8
RACCORDO
100
AcDbPolyline
 62
250
  6
CONTINUOUS
 90
3
 70
0
 10
53.8222219402
 20
37.9261275616
 10
53.8102779073
 20
37.9320074204
 10
53.7972516315
 20
37.9363928291
  0
LINE
  5
41F
100
AcDbEntity
  8
RACCORDO
100
AcDbLine
 62
250
  6
CONTINUOUS
 10
53.9230535526
 20
37.8676609788
 11
53.9108270976
 21
37.8736948756
  0
LWPOLYLINE
  5
420
100
AcDbEntity
  8
RACCORDO
100
AcDbPolyline
 62
250
  6
CONTINUOUS
 90
3
 70
0
 10
53.9592034804
 20
37.846474092
 10
53.9465846244
 20
37.8527478707
 10
53.9336702131
 20
37.8570677404
  0
LWPOLYLINE
  5
421
100
AcDbEntity
  8
RACCORDO
100
AcDbPolyline
 62
250
  6
CONTINUOUS
 90
28
 70
0
 10
-51.2926678792
 20
95.3016961823
 10
-51.3130638667
 20
95.3126442207
 10
-51.3334664581
 20
95.322002542
 10
-51.3538756007
 20
95.3297711649
 10
-51.3743533036
 20
95.3359665712
 10
-51.3948373462
 20
95.3405723538
 10
-51.4151412851
 20
95.343539214
 10
-51.4352721079
 20
95.3448525307
 10
-51.4552224243
 20
95.3445270673
 10
-51.4747841999
 20
95.3425576108
 10
-51.4939475395
 20
95.3389277999
 10
-51.5127217926
 20
95.3336541891
 10
-51.5309278013
 20
95.3267809354
 10
-51.5485620598
 20
95.3182930701
 10
-51.5656274425
 20
95.308205786
 10
-51.5819544118
 20
95.2966084641
 10
-51.5975368204
 20
95.2834853385
 10
-51.6123801705
 20
95.2688524045
 10
-51.6263324979
 20
95.2528466515
 10
-51.6393847737
 20
95.2354537521
 10
-51.6515454456
 20
95.2166882411
 10
-51.6626889096
 20
95.1967303496
 10
-51.6728062968
 20
95.1755597817
 10
-51.681906026
 20
95.1531969947
 10
-51.6898886195
 20
95.1298832807
 10
-51.6967208891
 20
95.1056990812
 10
-51.70243581
 20
95.080564032
 10
-51.7070332613
 20
95.0544781772
  0
LWPOLYLINE
  5
422
100
AcDbEntity
  8
RACCORDO
100
AcDbPolyline
 62
250
  6
CONTINUOUS
 90
19
 70
0
 10
50.9600201513
 20
35.775808277
 10
50.9902722822
 20
35.7594472595
 10
51.0226719676
 20
35.7440365024
 10
51.0569997252
 20
35.7296804012
 10
51.0930230117
 20
35.7164762072
 10
51.1304977977
 20
35.7045133684
 10
51.1691702211
 20
35.6938729234
 10
51.2087783068
 20
35.6846269529
 10
51.2490537412
 20
35.6768380911
 10
51.2897236902
 20
35.6705591013
 10
51.3305126469
 20
35.6658325187
 10
51.3711442984
 20
35.6626903622
 10
51.4113433973
 20
35.6611539175
 10
51.4508376264
 20
35.6612335929
 10
51.4893594437
 20
35.6629288487
 10
51.5266478942
 20
35.6662282008
 10
51.562450378
 20
35.6711092989
 10
51.5965243617
 20
35.6775390775
 10
51.628639021
 20
35.6854739799
  0
LWPOLYLINE
  5
423
100
AcDbEntity
  8
RACCORDO
100
AcDbPolyline
 62
250
  6
CONTINUOUS
 90
4
 70
0
 10
53.9336701409
 20
37.8570675875
 10
53.9439902019
 20
37.851271015
 10
53.9542795629
 20
37.8451519882
 10
53.9645315845
 20
37.838714228
  0
LINE
  5
424
100
AcDbEntity
  8
RACCORDO
100
AcDbLine
 62
7
  6
CONTINUOUS
 10
-46.1486754555
 20
95.6478230971
 11
-46.1848620258
 21
95.668401913
  0
LINE
  5
425
100
AcDbEntity
  8
RACCORDO
100
AcDbLine
 62
250
  6
CONTINUOUS
 10
-46.2091930214
 20
95.6783016926
 11
-25.5955263947
 21
83.7864547898
  0
LINE
  5
426
100
AcDbEntity
  8
RACCORDO
100
AcDbLine
 62
250
  6
CONTINUOUS
 10
50.6817394016
 20
36.4229514579
 11
-51.2926678792
 21
95.3016961823
  0
LINE
  5
427
100
AcDbEntity
  8
RACCORDO
100
AcDbLine
 62
250
  6
CONTINUOUS
 10
50.9979942504
 20
36.9344077638
 11
-50.9764130304
 21
95.8131524883
  0
LINE
  5
428
100
AcDbEntity
  8
RACCORDO
100
AcDbLine
 62
7
  6
CONTINUOUS
 10
52.4629178639
 20
37.7825328171
 11
-49.7435177467
 21
96.7952477911
  0
LINE
  5
429
100
AcDbEntity
  8
RACCORDO
100
AcDbLine
 62
250
  6
CONTINUOUS
 10
-24.1244254863
 20
82.9348959322
 11
9.5155104294
 21
63.5137139097
  0
LINE
  5
42A
100
AcDbEntity
  8
RACCORDO
100
AcDbLine
 62
7
  6
CONTINUOUS
 10
-20.0350495274
 20
80.5766787515
 11
-46.1486753702
 21
95.647823034
  0
LINE
  5
42B
100
AcDbEntity
  8
RACCORDO
100
AcDbLine
 62
7
  6
CONTINUOUS
 10
16.1639835822
 20
59.6767250839
 11
-20.0350495274
 21
80.5766787515
  0
LINE
  5
42C
100
AcDbEntity
  8
RACCORDO
100
AcDbLine
 62
250
  6
CONTINUOUS
 10
9.5155104294
 20
63.5137139097
 11
48.3558252007
 21
41.080786814
  0
LINE
  5
42D
100
AcDbEntity
  8
RACCORDO
100
AcDbLine
 62
7
  6
CONTINUOUS
 10
53.9230535464
 20
37.8676609682
 11
16.1639835822
 21
59.6767250839
  0
LINE
  5
42E
100
AcDbEntity
  8
RACCORDO
100
AcDbLine
 62
250
  6
CONTINUOUS
 10
48.3558252007
 20
41.080786814
 11
53.8978282191
 21
37.8780529054
  0
LINE
  5
42F
100
AcDbEntity
  8
RACCORDO
100
AcDbLine
 62
7
  6
CONTINUOUS
 10
53.9592034202
 20
37.8464739894
 11
53.9244505074
 21
37.8668478754
  0
LINE
  5
430
100
AcDbEntity
  8
RACCORDO
100
AcDbLine
 62
250
  6
CONTINUOUS
 10
53.8978282191
 20
37.8780529054
 11
53.9336701409
 21
37.8570675875
  0
LINE
  5
431
100
AcDbEntity
  8
RACCORDO
100
AcDbLine
 62
7
  6
CONTINUOUS
 10
53.9592584471
 20
37.8464416194
 11
53.9592034804
 21
37.846474092
  0
LWPOLYLINE
  5
432
100
AcDbEntity
  8
RACCORDO
100
AcDbPolyline
 62
7
  6
CONTINUOUS
 90
28
 70
0
 10
52.4629178639
 20
37.7825328171
 10
52.5025666918
 20
37.7580759083
 10
52.5414382675
 20
37.7309120518
 10
52.5795327959
 20
37.7010413185
 10
52.6170156322
 20
37.6683141383
 10
52.6537222488
 20
37.6328803675
 10
52.6891581997
 20
37.5951892766
 10
52.7232366378
 20
37.5552948392
 10
52.7560459512
 20
37.5131436156
 10
52.7873546503
 20
37.4690237927
 10
52.8171614116
 20
37.4229506303
 10
52.8454697005
 20
37.3749096126
 10
52.8720552779
 20
37.3251442872
 10
52.8969778259
 20
37.2734661676
 10
52.9201804054
 20
37.2200646966
 10
52.9412636316
 20
37.165750242
 10
52.9601417091
 20
37.1106378099
 10
52.9769029627
 20
37.054613281
 10
52.9914087189
 20
36.9981431729
 10
53.0036533702
 20
36.9412624747
 10
53.0136448884
 20
36.8839370317
 10
53.0212645786
 20
36.8265295101
 10
53.0265027921
 20
36.7688731764
 10
53.0293714444
 20
36.7111355698
 10
53.0297833932
 20
36.654180488
 10
53.0277096524
 20
36.5982958898
 10
53.0231800921
 20
36.5431941404
 10
53.0161952332
 20
36.4888754304
  0
LWPOLYLINE
  5
433
100
AcDbEntity
  8
RACCORDO
100
AcDbPolyline
 62
250
  6
CONTINUOUS
 90
5
 70
0
 10
53.9645315845
 20
37.838714228
 10
53.9747370098
 20
37.8319617881
 10
53.984891376
 20
37.8248981805
 10
53.9949949499
 20
37.8175262893
 10
54.005053605
 20
37.8098399111
  0
LINE
  5
434
100
AcDbEntity
  8
RACCORDO
100
AcDbLine
 62
250
  6
CONTINUOUS
 10
54.246979851
 20
37.4357728843
 11
54.249809696
 21
37.4236672849
  0
LINE
  5
435
100
AcDbEntity
  8
RACCORDO
100
AcDbLine
 62
250
  6
CONTINUOUS
 10
54.249809696
 20
37.4236672849
 11
54.252074657
 21
37.4132636934
  0
LWPOLYLINE
  5
436
100
AcDbEntity
  8
RACCORDO
100
AcDbPolyline
 62
250
  6
CONTINUOUS
 90
3
 70
0
 10
54.252074657
 20
37.4132636934
 10
54.2541706698
 20
37.4028002325
 10
54.2560937068
 20
37.3922825137
  0
LWPOLYLINE
  5
437
100
AcDbEntity
  8
RACCORDO
100
AcDbPolyline
 62
250
  6
CONTINUOUS
 90
4
 70
0
 10
54.2560937068
 20
37.3922825137
 10
54.2578395843
 20
37.3817217815
 10
54.2594045242
 20
37.3711186131
 10
54.2607842592
 20
37.3604630689
  0
LWPOLYLINE
  5
438
100
AcDbEntity
  8
RACCORDO
100
AcDbPolyline
 62
250
  6
CONTINUOUS
 90
5
 70
0
 10
54.2565196264
 20
37.4563746646
 10
54.2576968201
 20
37.4489784491
 10
54.2569738612
 20
37.440998228
 10
54.2543390071
 20
37.4325424402
 10
54.2498097744
 20
37.4236673001
  0
LWPOLYLINE
  5
439
100
AcDbEntity
  8
RACCORDO
100
AcDbPolyline
 62
250
  6
CONTINUOUS
 90
11
 70
0
 10
54.2607842592
 20
37.3604630689
 10
54.2619741355
 20
37.3497623955
 10
54.2629688709
 20
37.3390228875
 10
54.2637614616
 20
37.3282339514
 10
54.2643463971
 20
37.3174024792
 10
54.2647170474
 20
37.3065374518
 10
54.2648628993
 20
37.2956324241
 10
54.2647773684
 20
37.2846948909
 10
54.2644528407
 20
37.2737360703
 10
54.2638757776
 20
37.2627561916
 10
54.2630361837
 20
37.251762677
  0
LWPOLYLINE
  5
43A
100
AcDbEntity
  8
RACCORDO
100
AcDbPolyline
 62
250
  6
CONTINUOUS
 90
7
 70
0
 10
53.0487753146
 20
-67.9615125267
 10
53.0420071449
 20
-67.9935084775
 10
53.0363134308
 20
-68.0254712278
 10
53.0318447359
 20
-68.0571675302
 10
53.0286519481
 20
-68.0885204652
 10
53.0266860926
 20
-68.1196092039
 10
53.0259473612
 20
-68.1504342701
  0
LWPOLYLINE
  5
43B
100
AcDbEntity
  8
RACCORDO
100
AcDbPolyline
 62
250
  6
CONTINUOUS
 90
15
 70
0
 10
3.870449469
 20
66.7731484646
 10
3.76820213
 20
66.8058971506
 10
3.6629810929
 20
66.832626432
 10
3.5549281076
 20
66.853299634
 10
3.4440823685
 20
66.8678905971
 10
3.3306868935
 20
66.8763403495
 10
3.2152102064
 20
66.8786140245
 10
3.0979987161
 20
66.8747366219
 10
2.9790367251
 20
66.8647307665
 10
2.8582565751
 20
66.8485757829
 10
2.7357950037
 20
66.8262797545
 10
2.6118427886
 20
66.7978989717
 10
2.4864013954
 20
66.7634399744
 10
2.3594416024
 20
66.7228687149
 10
2.3475233185
 20
66.7185335341
  0
LWPOLYLINE
  5
43C
100
AcDbEntity
  8
RACCORDO
100
AcDbPolyline
 62
250
  6
CONTINUOUS
 90
6
 70
0
 10
-46.248399507
 20
95.6983428885
 10
-46.2402794147
 20
95.6948550734
 10
-46.2322904389
 20
95.6911026424
 10
-46.2244443595
 20
95.6870912472
 10
-46.2167430048
 20
95.6828230182
 10
-46.2091930214
 20
95.6783016926
  0
LINE
  5
43D
100
AcDbEntity
  8
RACCORDO
100
AcDbLine
 62
7
  6
CONTINUOUS
 10
-46.2100696037
 20
95.6816805202
 11
-46.2367753928
 21
95.693788563
  0
LINE
  5
43E
100
AcDbEntity
  8
RACCORDO
100
AcDbLine
 62
250
  6
CONTINUOUS
 10
-46.1848620258
 20
95.668401913
 11
-46.1960474312
 21
95.6738483752
  0
LWPOLYLINE
  5
43F
100
AcDbEntity
  8
RACCORDO
100
AcDbPolyline
 62
250
  6
CONTINUOUS
 90
3
 70
0
 10
-46.1486754616
 20
95.6478230863
 10
-46.16040373
 20
95.6535693531
 10
-46.1734831306
 20
95.6579738769
  0
LWPOLYLINE
  5
440
100
AcDbEntity
  8
RACCORDO
100
AcDbPolyline
 62
250
  6
CONTINUOUS
 90
3
 70
0
 10
-46.0478390668
 20
95.5898491291
 10
-46.0597384764
 20
95.5957032238
 10
-46.0727718189
 20
95.6000927133
  0
LWPOLYLINE
  5
441
100
AcDbEntity
  8
RACCORDO
100
AcDbPolyline
 62
250
  6
CONTINUOUS
 90
17
 70
0
 10
-50.9764130304
 20
95.8131524883
 10
-51.0185259919
 20
95.8339013216
 10
-51.0605800848
 20
95.8517950173
 10
-51.1024355659
 20
95.8667830067
 10
-51.1439337196
 20
95.8788187441
 10
-51.1849612679
 20
95.8878768582
 10
-51.225446719
 20
95.8939396279
 10
-51.2652875925
 20
95.8969791139
 10
-51.3043202606
 20
95.8969735315
 10
-51.3423843689
 20
95.8939214899
 10
-51.379349695
 20
95.8878285508
 10
-51.4151091364
 20
95.8787117152
 10
-51.4495447845
 20
95.866603772
 10
-51.4825527027
 20
95.8515321255
 10
-51.5140250277
 20
95.8335390821
 10
-51.5438437675
 20
95.8126896026
 10
-51.5493097278
 20
95.8084137136
  0
LINE
  5
442
100
AcDbEntity
  8
RACCORDO
100
AcDbLine
 62
7
  6
CONTINUOUS
 10
-46.1848611456
 20
95.6684015546
 11
-46.2100696037
 21
95.6816805202
  0
LWPOLYLINE
  5
443
100
AcDbEntity
  8
RACCORDO
100
AcDbPolyline
 62
7
  6
CONTINUOUS
 90
4
 70
0
 10
54.0225946405
 20
37.8025752807
 10
53.9978231848
 20
37.8212979646
 10
53.9723051543
 20
37.8384686136
 10
53.9592584471
 20
37.8464416194
  0
LWPOLYLINE
  5
444
100
AcDbEntity
  8
RACCORDO
100
AcDbPolyline
 62
250
  6
CONTINUOUS
 90
6
 70
0
 10
54.005053605
 20
37.8098399111
 10
54.015046511
 20
37.8018522531
 10
54.0249342138
 20
37.7935983613
 10
54.0347042704
 20
37.7850901617
 10
54.0443550996
 20
37.7763298356
 10
54.0538646285
 20
37.7673422553
  0
LWPOLYLINE
  5
445
100
AcDbEntity
  8
RACCORDO
100
AcDbPolyline
 62
250
  6
CONTINUOUS
 90
21
 70
0
 10
54.0538646285
 20
37.7673422553
 10
54.0632211429
 20
37.7581412866
 10
54.0724234863
 20
37.7487295742
 10
54.0814660307
 20
37.7391165957
 10
54.0903339657
 20
37.7293206156
 10
54.0990298741
 20
37.7193395062
 10
54.1075732806
 20
37.7091502904
 10
54.1159663665
 20
37.6987481075
 10
54.1241920793
 20
37.6881491665
 10
54.1322399605
 20
37.6773603305
 10
54.1400999224
 20
37.6663910415
 10
54.147769997
 20
37.6552467241
 10
54.1552515329
 20
37.6439279596
 10
54.1625400085
 20
37.6324427037
 10
54.1696291043
 20
37.6207998759
 10
54.1765167041
 20
37.6090010348
 10
54.1832012786
 20
37.5970473035
 10
54.1896721804
 20
37.5849544164
 10
54.1959138808
 20
37.5727461718
 10
54.2019231837
 20
37.5604278134
 10
54.2076922014
 20
37.5480124093
  0
LWPOLYLINE
  5
446
100
AcDbEntity
  8
RACCORDO
100
AcDbPolyline
 62
250
  6
CONTINUOUS
 90
10
 70
0
 10
54.2076922014
 20
37.5480124093
 10
54.2132003575
 20
37.5355364713
 10
54.218444674
 20
37.5230072174
 10
54.2234196935
 20
37.5104368339
 10
54.2281043378
 20
37.4978700922
 10
54.2324987008
 20
37.4853095427
 10
54.236598072
 20
37.4727720826
 10
54.2403792823
 20
37.460324356
 10
54.243836923
 20
37.4479947031
 10
54.246979851
 20
37.4357728843
  0
LWPOLYLINE
  5
447
100
AcDbEntity
  8
RACCORDO
100
AcDbPolyline
 62
7
  6
CONTINUOUS
 90
12
 70
0
 10
54.2374317129
 20
37.5103592455
 10
54.2237463036
 20
37.542024871
 10
54.2086305855
 20
37.5728908594
 10
54.1921799755
 20
37.6029240012
 10
54.1744197554
 20
37.6321432824
 10
54.1555043227
 20
37.6603156556
 10
54.1355139944
 20
37.687324557
 10
54.1145631191
 20
37.7130684175
 10
54.0927879938
 20
37.7374497863
 10
54.0701472588
 20
37.7605570245
 10
54.0466931255
 20
37.7823241651
 10
54.0225946405
 20
37.8025752807
  0
LWPOLYLINE
  5
448
100
AcDbEntity
  8
RACCORDO
100
AcDbPolyline
 62
7
  6
CONTINUOUS
 90
3
 70
0
 10
54.256519522
 20
37.456374633
 10
54.2494928688
 20
37.4780914743
 10
54.2374317129
 20
37.5103592455
  0
LINE
  5
449
100
AcDbEntity
  8
RACCORDO
100
AcDbLine
 62
7
  6
CONTINUOUS
 10
54.25647728
 20
37.456515573
 11
54.2565196264
 21
37.4563746646
  0
LINE
  5
44A
100
AcDbEntity
  8
RACCORDO
100
AcDbLine
 62
7
  6
CONTINUOUS
 10
54.2594351315
 20
37.4464675019
 11
54.25647728
 21
37.456515573
  0
LWPOLYLINE
  5
44B
100
AcDbEntity
  8
RACCORDO
100
AcDbPolyline
 62
250
  6
CONTINUOUS
 90
10
 70
0
 10
54.1962371918
 20
-55.7323271285
 10
53.8079686558
 20
-56.1697303543
 10
53.4061104253
 20
-56.5941993645
 10
52.9913817084
 20
-57.0050316796
 10
52.5651122876
 20
-57.4009929401
 10
52.1274129571
 20
-57.7820655378
 10
51.677092856
 20
-58.149402673
 10
51.2141635708
 20
-58.5030118931
 10
50.7399672037
 20
-58.8418527023
 10
50.6393268546
 20
-58.9090294214
  0
LWPOLYLINE
  5
44C
100
AcDbEntity
  8
RACCORDO
100
AcDbPolyline
 62
250
  6
CONTINUOUS
 90
10
 70
0
 10
54.1961526768
 20
-55.2760556102
 10
53.8075461181
 20
-55.7118787151
 10
53.4054452087
 20
-56.1348389932
 10
52.9905640713
 20
-56.5442445794
 10
52.5642279195
 20
-56.9388730303
 10
52.1265419504
 20
-57.318714857
 10
51.6763080491
 20
-57.6849272256
 10
51.2135308781
 20
-58.0375244154
 10
50.7395460958
 20
-58.3754751177
 10
50.6393268546
 20
-58.4422499598
  0
LINE
  5
44D
100
AcDbEntity
  8
RACCORDO
100
AcDbLine
 62
250
  6
CONTINUOUS
 10
29.8164539588
 20
-67.1787208697
 11
29.8221819518
 21
-67.1739722218
  0
LINE
  5
44E
100
AcDbEntity
  8
RACCORDO
100
AcDbLine
 62
7
  6
CONTINUOUS
 10
29.8221819518
 20
-67.1739722218
 11
29.8223486169
 21
-67.1738371111
  0
LWPOLYLINE
  5
44F
100
AcDbEntity
  8
RACCORDO
100
AcDbPolyline
 62
250
  6
CONTINUOUS
 90
19
 70
0
 10
29.783994685
 20
-67.786765667
 10
29.7562550629
 20
-67.8074168835
 10
29.7269549245
 20
-67.8254484596
 10
29.696092998
 20
-67.8408612017
 10
29.6635930095
 20
-67.8536932693
 10
29.6295289097
 20
-67.8639079773
 10
29.594124702
 20
-67.8713939045
 10
29.5573543038
 20
-67.8761283382
 10
29.5192415519
 20
-67.87813542
 10
29.480085186
 20
-67.877374102
 10
29.4398549154
 20
-67.8738063324
 10
29.3985791057
 20
-67.86747139
 10
29.3566444642
 20
-67.8584442335
 10
29.3140402117
 20
-67.8466826727
 10
29.2707757346
 20
-67.8322297866
 10
29.2272680957
 20
-67.8152883697
 10
29.1836560778
 20
-67.7959261723
 10
29.139800193
 20
-67.7740758945
 10
29.0957002667
 20
-67.7497376476
  0
LINE
  5
450
100
AcDbEntity
  8
RACCORDO
100
AcDbLine
 62
250
  6
CONTINUOUS
 10
29.4302669457
 20
-67.1272136598
 11
29.8157723943
 21
-66.8553021378
  0
LWPOLYLINE
  5
451
100
AcDbEntity
  8
RACCORDO
100
AcDbPolyline
 62
250
  6
CONTINUOUS
 90
4
 70
0
 10
29.8280592989
 20
-67.1695236705
 10
29.8239881934
 20
-67.1723285731
 10
29.8064817796
 20
-67.1829798128
 10
29.7880104969
 20
-67.1920205566
  0
LINE
  5
452
100
AcDbEntity
  8
RACCORDO
100
AcDbLine
 62
250
  6
CONTINUOUS
 10
49.298566718
 20
-60.6547352419
 11
50.6393268546
 21
-60.0051562483
  0
LINE
  5
453
100
AcDbEntity
  8
RACCORDO
100
AcDbLine
 62
250
  6
CONTINUOUS
 10
29.7880104969
 20
-67.1920205566
 11
29.7686257828
 21
-67.1994172824
  0
LWPOLYLINE
  5
454
100
AcDbEntity
  8
RACCORDO
100
AcDbPolyline
 62
250
  6
CONTINUOUS
 90
14
 70
0
 10
-46.1960474312
 20
95.6738483752
 10
-46.3612797164
 20
95.7302058341
 10
-46.513882678
 20
95.7756798763
 10
-46.6668112332
 20
95.8146964771
 10
-46.8197541285
 20
95.8472052609
 10
-46.9726403085
 20
95.8732120295
 10
-47.1256372663
 20
95.8927274898
 10
-47.2789667665
 20
95.9057039528
 10
-47.4320071982
 20
95.912003936
 10
-47.5836690078
 20
95.9115757431
 10
-47.7333029331
 20
95.9045311564
 10
-47.8812137987
 20
95.8909954035
 10
-48.0277510065
 20
95.8710031938
 10
-48.1151933337
 20
95.8550736828
  0
LINE
  5
455
100
AcDbEntity
  8
RACCORDO
100
AcDbLine
 62
250
  6
CONTINUOUS
 10
-46.1734831256
 20
95.6579738877
 11
-46.3249116982
 21
95.709896987
  0
LINE
  5
456
100
AcDbEntity
  8
RACCORDO
100
AcDbLine
 62
250
  6
CONTINUOUS
 10
-46.0727718189
 20
95.6000927133
 11
-46.2230833961
 21
95.6517366351
  0
LWPOLYLINE
  5
457
100
AcDbEntity
  8
SUPERFICI
100
AcDbPolyline
 62
7
  6
CONTINUOUS
 90
13
 70
0
 10
-46.2591131004
 20
95.7024649704
 10
-46.3516582581
 20
95.7345708115
 10
-46.5223532449
 20
95.7876271021
 10
-46.6933470177
 20
95.8328744103
 10
-46.8643816102
 20
95.870310329
 10
-47.0352175756
 20
95.8999387771
 10
-47.2056383188
 20
95.9217664982
 10
-47.3754385036
 20
95.9357975341
 10
-47.5443462519
 20
95.94202989
 10
-47.7120530538
 20
95.9404711877
 10
-47.8783280769
 20
95.9311747169
 10
-48.0429577232
 20
95.9142416718
 10
-48.1815838683
 20
95.8934067454
  0
LINE
  5
458
100
AcDbEntity
  8
RACCORDO
100
AcDbLine
 62
7
  6
CONTINUOUS
 10
-46.259189458
 20
95.7024924408
 11
-46.2591111414
 21
95.7024642657
  0
LINE
  5
459
100
AcDbEntity
  8
RACCORDO
100
AcDbLine
 62
250
  6
CONTINUOUS
 10
-46.2591111414
 20
95.7024642657
 11
-46.2566288869
 21
95.7015566718
  0
LINE
  5
45A
100
AcDbEntity
  8
RACCORDO
100
AcDbLine
 62
7
  6
CONTINUOUS
 10
-46.2367753928
 20
95.693788563
 11
-46.2591948962
 21
95.7024944518
  0
LWPOLYLINE
  5
45B
100
AcDbEntity
  8
RACCORDO
100
AcDbPolyline
 62
7
  6
CONTINUOUS
 90
6
 70
0
 10
54.2571608739
 20
-92.0419086407
 10
54.2617797345
 20
-92.0279007465
 10
54.2689605517
 20
-92.0020025654
 10
54.2744562975
 20
-91.9762295967
 10
54.2783676313
 20
-91.9506738359
 10
54.2807766437
 20
-91.9255344634
  0
LINE
  5
45C
100
AcDbEntity
  8
RACCORDO
100
AcDbLine
 62
250
  6
CONTINUOUS
 10
54.2605439442
 20
-91.9570525641
 11
54.1987707675
 21
-92.1144460364
  0
LWPOLYLINE
  5
45D
100
AcDbEntity
  8
SUPERFICI
100
AcDbPolyline
 62
7
  6
CONTINUOUS
 90
5
 70
0
 10
54.1604129958
 20
-92.3011583398
 10
54.1715801646
 20
-92.2728722127
 10
54.2021198325
 20
-92.1934865406
 10
54.2314943936
 20
-92.1140622757
 10
54.2571611641
 20
-92.0419076363
  0
LINE
  5
45E
100
AcDbEntity
  8
RACCORDO
100
AcDbLine
 62
7
  6
CONTINUOUS
 10
54.160820654
 20
-92.3001323271
 11
54.1604129958
 21
-92.3011583398
  0
LINE
  5
45F
100
AcDbEntity
  8
RACCORDO
100
AcDbLine
 62
250
  6
CONTINUOUS
 10
54.1604129958
 20
-92.3011583398
 11
54.1276967273
 21
-92.3814865713
  0
LWPOLYLINE
  5
460
100
AcDbEntity
  8
RACCORDO
100
AcDbPolyline
 62
250
  6
CONTINUOUS
 90
13
 70
0
 10
53.2040957648
 20
-67.5904442372
 10
53.1864417711
 20
-67.6193417263
 10
53.1696109766
 20
-67.64881832
 10
53.1535970062
 20
-67.6787308368
 10
53.1383828466
 20
-67.7090968061
 10
53.1239941358
 20
-67.7399051902
 10
53.1104881414
 20
-67.770969841
 10
53.0978686139
 20
-67.802267995
 10
53.0861391789
 20
-67.8338282489
 10
53.0753568157
 20
-67.8655415486
 10
53.0655042996
 20
-67.8974389577
 10
53.0566046905
 20
-67.9294942538
 10
53.0487753146
 20
-67.9615125267
  0
LWPOLYLINE
  5
461
100
AcDbEntity
  8
RACCORDO
100
AcDbPolyline
 62
250
  6
CONTINUOUS
 90
8
 70
0
 10
54.1750749876
 20
-66.5817250733
 10
54.1816100491
 20
-66.5732964964
 10
54.1891913855
 20
-66.5604578519
 10
54.1950884409
 20
-66.5462838206
 10
54.1991315427
 20
-66.5309976259
 10
54.2012783652
 20
-66.5147087042
 10
54.2016500663
 20
-66.497426244
 10
54.2003282453
 20
-66.4792331955
  0
LWPOLYLINE
  5
462
100
AcDbEntity
  8
RACCORDO
100
AcDbPolyline
 62
7
  6
CONTINUOUS
 90
11
 70
0
 10
54.1750749876
 20
-66.5817250733
 10
54.1896270993
 20
-66.5635145871
 10
54.2026838079
 20
-66.544289392
 10
54.2142413593
 20
-66.5240570652
 10
54.2242191247
 20
-66.5029292918
 10
54.2325413363
 20
-66.4810325913
 10
54.2391430621
 20
-66.4585001831
 10
54.2439717504
 20
-66.4354652614
 10
54.2469845315
 20
-66.4120699637
 10
54.2481503068
 20
-66.3884688227
 10
54.2481651899
 20
-66.3854582542
  0
LINE
  5
463
100
AcDbEntity
  8
RACCORDO
100
AcDbLine
 62
250
  6
CONTINUOUS
 10
54.2003282453
 20
-66.4792331955
 11
54.1085408444
 21
-66.5843320173
  0
LWPOLYLINE
  5
464
100
AcDbEntity
  8
RACCORDO
100
AcDbPolyline
 62
250
  6
CONTINUOUS
 90
10
 70
0
 10
54.1963698518
 20
-56.40290492
 10
53.8086671151
 20
-56.8425599315
 10
53.4072329692
 20
-57.2691803127
 10
52.9927937661
 20
-57.6820478968
 10
52.5666850296
 20
-58.0799112849
 10
52.1290261191
 20
-58.4627401103
 10
51.6786386662
 20
-58.8316797875
 10
51.2155450543
 20
-59.1867273178
 10
50.7410960774
 20
-59.526829174
 10
50.6393268546
 20
-59.5949379833
  0
LWPOLYLINE
  5
465
100
AcDbEntity
  8
RACCORDO
100
AcDbPolyline
 62
250
  6
CONTINUOUS
 90
9
 70
0
 10
54.1085408444
 20
-66.5843320173
 10
54.0154121133
 20
-66.6896747633
 10
53.9209492051
 20
-66.7952400352
 10
53.8251665927
 20
-66.9009933135
 10
53.7280642938
 20
-67.0069259202
 10
53.6296270045
 20
-67.1130544151
 10
53.5298535538
 20
-67.2193688863
 10
53.4287577745
 20
-67.3258335452
 10
53.3263461207
 20
-67.432425269
  0
LWPOLYLINE
  5
466
100
AcDbEntity
  8
RACCORDO
100
AcDbPolyline
 62
250
  6
CONTINUOUS
 90
7
 70
0
 10
53.3263461207
 20
-67.432425269
 10
53.3041664949
 20
-67.4564906336
 10
53.2827007894
 20
-67.4814590754
 10
53.2619551247
 20
-67.5073347252
 10
53.2419102
 20
-67.5342374516
 10
53.2225967163
 20
-67.5620551704
 10
53.2040957648
 20
-67.5904442372
  0
LWPOLYLINE
  5
467
100
AcDbEntity
  8
RACCORDO
100
AcDbPolyline
 62
250
  6
CONTINUOUS
 90
9
 70
0
 10
53.2996249325
 20
-67.5392582854
 10
53.3011603031
 20
-67.5376252268
 10
53.3099592263
 20
-67.526399273
 10
53.3170906904
 20
-67.5137345595
 10
53.3225021613
 20
-67.4997243809
 10
53.3261537754
 20
-67.4844719438
 10
53.3280186329
 20
-67.4680896053
 10
53.3280829964
 20
-67.4506980464
 10
53.3263463917
 20
-67.4324253822
  0
LWPOLYLINE
  5
468
100
AcDbEntity
  8
RACCORDO
100
AcDbPolyline
 62
7
  6
CONTINUOUS
 90
9
 70
0
 10
53.3697866193
 20
-67.4661642182
 10
53.4813965289
 20
-67.3486755762
 10
53.5914097459
 20
-67.2313665841
 10
53.6998312073
 20
-67.1142456201
 10
53.8066655211
 20
-66.9973202378
 10
53.9119175365
 20
-66.8805978811
 10
54.0155910038
 20
-66.7640860966
 10
54.1176876738
 20
-66.6477927012
 10
54.1750310564
 20
-66.5817759311
  0
LINE
  5
469
100
AcDbEntity
  8
RACCORDO
100
AcDbLine
 62
7
  6
CONTINUOUS
 10
53.299619927
 20
-67.5392637101
 11
53.3697866193
 21
-67.4661642182
  0
LWPOLYLINE
  5
46A
100
AcDbEntity
  8
RACCORDO
100
AcDbPolyline
 62
250
  6
CONTINUOUS
 90
13
 70
0
 10
-46.3249116982
 20
95.709896987
 10
-46.4768409678
 20
95.755380911
 10
-46.6290800391
 20
95.7944003664
 10
-46.7813132206
 20
95.8269061024
 10
-46.9334738308
 20
95.8529073556
 10
-47.085742487
 20
95.8724184827
 10
-47.238342893
 20
95.8853922416
 10
-47.3906517248
 20
95.8916908004
 10
-47.5415869729
 20
95.8912626068
 10
-47.6905043653
 20
95.8842191103
 10
-47.8377037494
 20
95.8706852589
 10
-47.9835271864
 20
95.8506963035
 10
-48.0777439131
 20
95.8334508566
  0
LWPOLYLINE
  5
46B
100
AcDbEntity
  8
RACCORDO
100
AcDbPolyline
 62
250
  6
CONTINUOUS
 90
13
 70
0
 10
-46.2230833961
 20
95.6517366351
 10
-46.3738984665
 20
95.6969393494
 10
-46.5250261431
 20
95.7356755234
 10
-46.6761544417
 20
95.767896636
 10
-46.8272129788
 20
95.7936108764
 10
-46.9783713243
 20
95.8128309662
 10
-47.1298406673
 20
95.8255092994
 10
-47.2810106252
 20
95.8315113449
 10
-47.4308260981
 20
95.8307877995
 10
-47.5786598048
 20
95.8234484399
 10
-47.7247937726
 20
95.8096154995
 10
-47.869544839
 20
95.7893250678
 10
-47.9691442422
 20
95.7707467677
  0
LINE
  5
46C
100
AcDbEntity
  8
RACCORDO
100
AcDbLine
 62
250
  6
CONTINUOUS
 10
54.1987707675
 20
-92.1144460364
 11
54.1322315332
 21
-92.2688151682
  0
LWPOLYLINE
  5
46D
100
AcDbEntity
  8
RACCORDO
100
AcDbPolyline
 62
250
  6
CONTINUOUS
 90
16
 70
0
 10
54.1276967273
 20
-92.3814865713
 10
54.0592840807
 20
-92.5379624397
 10
53.9860699593
 20
-92.6909472121
 10
53.9081347659
 20
-92.8402404286
 10
53.8255635525
 20
-92.9856345638
 10
53.7383824538
 20
-93.127016409
 10
53.646722887
 20
-93.2640946369
 10
53.5508552362
 20
-93.396420392
 10
53.4509826755
 20
-93.5237542082
 10
53.3471905373
 20
-93.6460719884
 10
53.2396044429
 20
-93.7632837297
 10
53.1282911135
 20
-93.875347467
 10
53.0134781229
 20
-93.9820527238
 10
52.8955491003
 20
-94.0830850109
 10
52.7747517687
 20
-94.1782951647
 10
52.7505817153
 20
-94.1957746953
  0
LWPOLYLINE
  5
46E
100
AcDbEntity
  8
RACCORDO
100
AcDbPolyline
 62
250
  6
CONTINUOUS
 90
16
 70
0
 10
54.1322315332
 20
-92.2688151682
 10
54.0609978207
 20
-92.4199743606
 10
53.9851228889
 20
-92.5677721412
 10
53.9046965035
 20
-92.7119828478
 10
53.8198556488
 20
-92.8523160095
 10
53.7306848385
 20
-92.9885883355
 10
53.6372671195
 20
-93.1206187545
 10
53.5397578744
 20
-93.2481389575
 10
53.4382770718
 20
-93.3710050659
 10
53.3329622882
 20
-93.4890943172
 10
53.2240280736
 20
-93.602207821
 10
53.1116219523
 20
-93.7102315319
 10
52.9958863065
 20
-93.8130564645
 10
52.8770411122
 20
-93.9105119964
 10
52.755261377
 20
-94.0024794328
 10
52.7204569102
 20
-94.0266156708
  0
LWPOLYLINE
  5
46F
100
AcDbEntity
  8
RACCORDO
100
AcDbPolyline
 62
250
  6
CONTINUOUS
 90
13
 70
0
 10
54.206831031
 20
-74.81485656
 10
53.9654545657
 20
-75.1551127532
 10
53.713964633
 20
-75.4878637688
 10
53.4526751927
 20
-75.8126091545
 10
53.1819711391
 20
-76.1287703055
 10
52.9020926405
 20
-76.4359450389
 10
52.6131103077
 20
-76.7338848416
 10
52.3153375347
 20
-77.0221552688
 10
52.0091943691
 20
-77.3003932192
 10
51.6948828172
 20
-77.5684358167
 10
51.3727266904
 20
-77.8259822379
 10
51.0431902038
 20
-78.0726157353
 10
51.0365075764
 20
-78.0772895918
  0
LWPOLYLINE
  5
470
100
AcDbEntity
  8
RACCORDO
100
AcDbPolyline
 62
250
  6
CONTINUOUS
 90
13
 70
0
 10
54.2058333705
 20
-73.8202065244
 10
53.9600445669
 20
-74.1620899946
 10
53.7042460655
 20
-74.4964457379
 10
53.4387542613
 20
-74.8227833624
 10
53.1639663698
 20
-75.1405242664
 10
52.8801147715
 20
-75.4492886835
 10
52.587239207
 20
-75.7488703123
 10
52.2856491305
 20
-76.0388456074
 10
51.9757633245
 20
-76.3188579213
 10
51.6577517861
 20
-76.5887755586
 10
51.3319231047
 20
-76.8483113353
 10
50.9987452496
 20
-77.097047029
 10
50.9952238322
 20
-77.0995067396
  0
LWPOLYLINE
  5
471
100
AcDbEntity
  8
RACCORDO
100
AcDbPolyline
 62
250
  6
CONTINUOUS
 90
12
 70
0
 10
54.0708482221
 20
-73.2685575379
 10
53.8282987492
 20
-73.5921452335
 10
53.576842653
 20
-73.9086395265
 10
53.3167552068
 20
-74.2176227282
 10
53.0483996548
 20
-74.5185835341
 10
52.7719610708
 20
-74.8112184657
 10
52.4874219184
 20
-75.0954098472
 10
52.1950592165
 20
-75.3708370675
 10
51.8952515532
 20
-75.6371875767
 10
51.5881273552
 20
-75.8943608113
 10
51.2739456692
 20
-76.1421138816
 10
50.9644921535
 20
-76.3716437745
  0
LINE
  5
472
100
AcDbEntity
  8
RACCORDO
100
AcDbLine
 62
250
  6
CONTINUOUS
 10
53.1232448632
 20
-73.3521538649
 11
53.1327342903
 21
-73.3448100067
  0
LINE
  5
473
100
AcDbEntity
  8
RACCORDO
100
AcDbLine
 62
250
  6
CONTINUOUS
 10
53.9438404025
 20
-72.855456063
 11
53.9876163081
 21
-72.8267163275
  0
LINE
  5
474
100
AcDbEntity
  8
RACCORDO
100
AcDbLine
 62
250
  6
CONTINUOUS
 10
54.1385328533
 20
-73.2246817411
 11
54.205243855
 21
-73.180818467
  0
LINE
  5
475
100
AcDbEntity
  8
RACCORDO
100
AcDbLine
 62
250
  6
CONTINUOUS
 10
54.0708482221
 20
-73.2685575379
 11
54.1385328533
 21
-73.2246817411
  0
LWPOLYLINE
  5
476
100
AcDbEntity
  8
RACCORDO
100
AcDbPolyline
 62
250
  6
CONTINUOUS
 90
3
 70
0
 10
53.8549937316
 20
-72.9129572628
 10
53.8773672568
 20
-72.8985792467
 10
53.9438404025
 20
-72.855456063
  0
LWPOLYLINE
  5
477
100
AcDbEntity
  8
RACCORDO
100
AcDbPolyline
 62
250
  6
CONTINUOUS
 90
10
 70
0
 10
53.3395049634
 20
-73.7077369659
 10
53.426103991
 20
-73.6587382101
 10
53.5113864639
 20
-73.6097384026
 10
53.5953514417
 20
-73.5607592769
 10
53.6780212435
 20
-73.5118212451
 10
53.7593712774
 20
-73.4629462342
 10
53.8393331862
 20
-73.4141595686
 10
53.9178869687
 20
-73.3654852316
 10
53.9950578316
 20
-73.3169439881
 10
54.0708482221
 20
-73.2685575379
  0
LWPOLYLINE
  5
478
100
AcDbEntity
  8
RACCORDO
100
AcDbPolyline
 62
250
  6
CONTINUOUS
 90
10
 70
0
 10
53.1327343965
 20
-73.344810068
 10
53.2182937435
 20
-73.2965875605
 10
53.302543602
 20
-73.2484069881
 10
53.385483972
 20
-73.2002683507
 10
53.4671383054
 20
-73.1521479409
 10
53.5474831502
 20
-73.1040694662
 10
53.6264481508
 20
-73.0561040488
 10
53.7040098553
 20
-73.0082753961
 10
53.7801917156
 20
-72.9605598008
 10
53.8549937316
 20
-72.9129572628
  0
LINE
  5
479
100
AcDbEntity
  8
RACCORDO
100
AcDbLine
 62
250
  6
CONTINUOUS
 10
49.6981592956
 20
-78.8259771826
 11
51.0406565841
 21
-78.175556564
  0
LWPOLYLINE
  5
47A
100
AcDbEntity
  8
RACCORDO
100
AcDbPolyline
 62
250
  6
CONTINUOUS
 90
4
 70
0
 10
53.0980271385
 20
-73.3652782936
 10
53.1046388751
 20
-73.3628262274
 10
53.1138594202
 20
-73.3581609689
 10
53.1232448632
 20
-73.3521538649
  0
LINE
  5
47B
100
AcDbEntity
  8
RACCORDO
100
AcDbLine
 62
7
  6
CONTINUOUS
 10
53.5393413207
 20
-72.6088651847
 11
53.0964073922
 21
-72.7707841945
  0
LINE
  5
47C
100
AcDbEntity
  8
RACCORDO
100
AcDbLine
 62
250
  6
CONTINUOUS
 10
53.6325665667
 20
-72.6217150566
 11
53.0965202343
 21
-72.8176722542
  0
LINE
  5
47D
100
AcDbEntity
  8
RACCORDO
100
AcDbLine
 62
7
  6
CONTINUOUS
 10
53.5565935965
 20
-72.6032124612
 11
53.5393799314
 21
-72.6088510803
  0
LWPOLYLINE
  5
47E
100
AcDbEntity
  8
RACCORDO
100
AcDbPolyline
 62
250
  6
CONTINUOUS
 90
9
 70
0
 10
53.9876163081
 20
-72.8267163275
 10
54.0036944171
 20
-72.8214544186
 10
54.0194542956
 20
-72.8178027915
 10
54.0348011619
 20
-72.8157834084
 10
54.0496427208
 20
-72.8154084153
 10
54.0638897098
 20
-72.8166800688
 10
54.0774564371
 20
-72.8195907198
 10
54.0902613037
 20
-72.8241228578
 10
54.100787215
 20
-72.8294016105
  0
LWPOLYLINE
  5
47F
100
AcDbEntity
  8
SUPERFICI
100
AcDbPolyline
 62
7
  6
CONTINUOUS
 90
16
 70
0
 10
52.7720274431
 20
-94.316198326
 10
52.7935462542
 20
-94.2983193117
 10
52.9149948667
 20
-94.1890366233
 10
53.033237937
 20
-94.0740663376
 10
53.1484566134
 20
-93.9532023856
 10
53.2605056818
 20
-93.826520786
 10
53.3692016581
 20
-93.6941452673
 10
53.4746127701
 20
-93.5558703941
 10
53.5765547263
 20
-93.4117702323
 10
53.6748479164
 20
-93.2619503232
 10
53.7695384923
 20
-93.1062269977
 10
53.860453388
 20
-92.9447346563
 10
53.9474263468
 20
-92.7775987703
 10
54.0304550009
 20
-92.6045832472
 10
54.1093792492
 20
-92.4256816559
 10
54.160820654
 20
-92.3001323271
  0
LWPOLYLINE
  5
480
100
AcDbEntity
  8
RACCORDO
100
AcDbPolyline
 62
250
  6
CONTINUOUS
 90
16
 70
0
 10
51.4208577611
 20
-96.7777243495
 10
51.4429254364
 20
-96.7679047438
 10
51.4688117481
 20
-96.7531369945
 10
51.4930292816
 20
-96.7355215814
 10
51.5154823191
 20
-96.7151161189
 10
51.5360852381
 20
-96.6919858939
 10
51.5547947094
 20
-96.6661886005
 10
51.5715297823
 20
-96.637807507
 10
51.5862180688
 20
-96.6069368972
 10
51.598837071
 20
-96.5736645982
 10
51.6093224105
 20
-96.5381057676
 10
51.6176212057
 20
-96.500377665
 10
51.6237374102
 20
-96.4605838389
 10
51.6276453135
 20
-96.4188510662
 10
51.6292903239
 20
-96.3753295985
 10
51.628642514
 20
-96.3301682929
  0
LINE
  5
481
100
AcDbEntity
  8
RACCORDO
100
AcDbLine
 62
250
  6
CONTINUOUS
 10
51.6286425124
 20
-96.3301682935
 11
53.0161952332
 21
-95.7850494867
  0
LINE
  5
482
100
AcDbEntity
  8
RACCORDO
100
AcDbLine
 62
7
  6
CONTINUOUS
 10
51.4208132832
 20
-96.7777418298
 11
52.880112582
 21
-96.2043602485
  0
ELLIPSE
  5
483
100
AcDbEntity
  8
RACCORDO
100
AcDbEllipse
 62
7
  6
CONTINUOUS
 10
-31.8943793443
 20
26.7520608142
 30
0.0
 11
0.1929003928
 21
0.4648925286
 31
0.0
 40
0.4692712679
 41
-0.8467724669
 42
-0.0613743035
  0
ELLIPSE
  5
484
100
AcDbEntity
  8
RACCORDO
100
AcDbEllipse
 62
7
  6
CONTINUOUS
 10
-31.8943793443
 20
9.9443780634
 30
0.0
 11
0.1929003928
 21
0.4648925286
 31
0.0
 40
0.4692712679
 41
-1.6321706303
 42
-0.8467724669
  0
ELLIPSE
  5
485
100
AcDbEntity
  8
RACCORDO
100
AcDbEllipse
 62
7
  6
CONTINUOUS
 10
-30.9637377176
 20
11.8331261704
 30
0.0
 11
0.2435694555
 21
0.4367051162
 31
0.0
 40
0.5671693725
 41
-2.3558468182
 42
-0.7937771377
  0
ELLIPSE
  5
486
100
AcDbEntity
  8
RACCORDO
100
AcDbEllipse
 62
7
  6
CONTINUOUS
 10
-31.2557848624
 20
10.8390140455
 30
0.0
 11
0.2435694555
 21
0.4367051162
 31
0.0
 40
0.5671693725
 41
0.7857458354
 42
2.3478155159
  0
ELLIPSE
  5
487
100
AcDbEntity
  8
RACCORDO
100
AcDbEllipse
 62
7
  6
CONTINUOUS
 10
-31.2557848624
 20
14.5060361527
 30
0.0
 11
0.2435694555
 21
0.4367051162
 31
0.0
 40
0.5671693725
 41
2.3478155159
 42
3.9098851964
  0
ELLIPSE
  5
488
100
AcDbEntity
  8
RACCORDO
100
AcDbEllipse
 62
7
  6
CONTINUOUS
 10
-30.9637377176
 20
13.8611553031
 30
0.0
 11
0.2435694555
 21
0.4367051162
 31
0.0
 40
0.5671693725
 41
5.4894081695
 42
7.05147785
  0
ELLIPSE
  5
489
100
AcDbEntity
  8
0
100
AcDbEllipse
 62
7
  6
CONTINUOUS
 10
114.5697607666
 20
25.391397816
 30
0.0
 11
111.037138262
 21
127.0073776318
 31
0.0
 40
0.3995644544
 41
2.5059210371
 42
2.5175629033
  0
ELLIPSE
  5
48A
100
AcDbEntity
  8
0
100
AcDbEllipse
 62
7
  6
CONTINUOUS
 10
108.3366994778
 20
28.9902892855
 30
0.0
 11
24.9631263743
 21
170.1291697484
 31
0.0
 40
0.7088651675
 41
-4.1302677056
 42
-4.1133509223
  0
ELLIPSE
  5
48B
100
AcDbEntity
  8
0
100
AcDbEllipse
 62
7
  6
CONTINUOUS
 10
114.3254450828
 20
25.5324626299
 30
0.0
 11
93.2856504705
 21
137.714271349
 31
0.0
 40
0.5232362147
 41
-3.818334951
 42
-3.8014181677
  0
ELLIPSE
  5
48C
100
AcDbEntity
  8
0
100
AcDbEllipse
 62
7
  6
CONTINUOUS
 10
110.4976863644
 20
27.7425625407
 30
0.0
 11
10.239825712
 21
174.5090680126
 31
0.0
 40
0.7160762854
 41
-4.1949650526
 42
-4.1839161539
  0
ELLIPSE
  5
48D
100
AcDbEntity
  8
0
100
AcDbEllipse
 62
7
  6
CONTINUOUS
 10
114.3181186277
 20
25.5366928332
 30
0.0
 11
74.1643982889
 21
148.7548965716
 31
0.0
 40
0.6139811386
 41
-3.8875743548
 42
-3.8765715012
  0
ELLIPSE
  5
48E
100
AcDbEntity
  8
0
100
AcDbEllipse
 62
7
  6
CONTINUOUS
 10
117.940054789
 20
23.4454322872
 30
0.0
 11
118.1859743281
 21
122.7896875774
 31
0.0
 40
0.3418816387
 41
2.5116869006
 42
2.5210763271
  0
ELLIPSE
  5
48F
100
AcDbEntity
  8
0
100
AcDbEllipse
 62
7
  6
CONTINUOUS
 10
113.9867599532
 20
25.7280151789
 30
0.0
 11
38.8156152213
 21
165.2204255457
 31
0.0
 40
0.6952787603
 41
-4.0579514432
 42
-4.0516738059
  0
ELLIPSE
  5
490
100
AcDbEntity
  8
0
100
AcDbEllipse
 62
7
  6
CONTINUOUS
 10
118.7008941824
 20
23.006133157
 30
0.0
 11
113.3147056375
 21
125.653443965
 31
0.0
 40
0.3814884295
 41
2.5084618156
 42
2.5253785989
  0
ELLIPSE
  5
491
100
AcDbEntity
  8
0
100
AcDbEllipse
 62
7
  6
CONTINUOUS
 10
113.8673301537
 20
25.7969724484
 30
0.0
 11
35.9894385562
 21
166.2888278661
 31
0.0
 40
0.6986691259
 41
-4.0629233526
 42
-4.0595443025
  0
ELLIPSE
  5
492
100
AcDbEntity
  8
0
100
AcDbEllipse
 62
7
  6
CONTINUOUS
 10
115.2830248984
 20
24.9795680456
 30
0.0
 11
113.9329067243
 21
125.2875174969
 31
0.0
 40
0.3765254089
 41
-3.7741477571
 42
-3.7572309738
  0
ELLIPSE
  5
493
100
AcDbEntity
  8
0
100
AcDbEllipse
 62
7
  6
CONTINUOUS
 10
109.1195585118
 20
28.5382762909
 30
0.0
 11
34.5855915034
 21
166.8064779164
 31
0.0
 40
0.7002280922
 41
-4.083340259
 42
-4.0716983927
  0
ELLIPSE
  5
494
100
AcDbEntity
  8
0
100
AcDbEllipse
 62
7
  6
CONTINUOUS
 10
118.7654604645
 20
22.9688533949
 30
0.0
 11
110.5358505923
 21
127.1900987939
 31
0.0
 40
0.4029729773
 41
-3.7715971506
 42
-3.766850882
  0
ELLIPSE
  5
495
100
AcDbEntity
  8
0
100
AcDbEllipse
 62
7
  6
CONTINUOUS
 10
118.8504401719
 20
22.9197871769
 30
0.0
 11
111.2249188633
 21
126.779057726
 31
0.0
 40
0.3975597956
 41
2.5204905028
 42
2.5232079817
  0
ELLIPSE
  5
496
100
AcDbEntity
  8
0
100
AcDbEllipse
 62
7
  6
CONTINUOUS
 10
113.9321454457
 20
25.7595489111
 30
0.0
 11
27.4455853601
 21
169.2012349637
 31
0.0
 40
0.7069483398
 41
-4.1180841395
 42
-4.1011570958
  0
ELLIPSE
  5
497
100
AcDbEntity
  8
0
100
AcDbEllipse
 62
7
  6
CONTINUOUS
 10
114.5010936046
 20
25.4310453748
 30
0.0
 11
91.0208613807
 21
139.071119969
 31
0.0
 40
0.5363054271
 41
-3.8200598825
 42
-3.8090109839
  0
ELLIPSE
  5
498
100
AcDbEntity
  8
0
100
AcDbEllipse
 62
7
  6
CONTINUOUS
 10
118.3567167903
 20
23.2048568696
 30
0.0
 11
118.6243412126
 21
122.5342474873
 31
0.0
 40
0.3382731367
 41
-3.7654403229
 42
-3.7544374692
  0
ELLIPSE
  5
499
100
AcDbEntity
  8
0
100
AcDbEllipse
 62
7
  6
CONTINUOUS
 10
114.5010936046
 20
25.4310453748
 30
0.0
 11
90.9660376364
 21
138.9873545617
 31
0.0
 40
0.5363054271
 41
-3.8179753926
 42
-3.8089578528
  0
ELLIPSE
  5
49A
100
AcDbEntity
  8
0
100
AcDbEllipse
 62
7
  6
CONTINUOUS
 10
118.3567167903
 20
23.2048568696
 30
0.0
 11
118.5528913224
 21
122.4604425797
 31
0.0
 40
0.3382731367
 41
-3.7638276946
 42
-3.7543843381
  0
ELLIPSE
  5
49B
100
AcDbEntity
  8
0
100
AcDbEllipse
 62
7
  6
CONTINUOUS
 10
114.4382618194
 20
25.46732366
 30
0.0
 11
70.0404047303
 21
150.9690024274
 31
0.0
 40
0.6282888553
 41
-3.9120890422
 42
-3.8951722589
  0
ELLIPSE
  5
49C
100
AcDbEntity
  8
0
100
AcDbEllipse
 62
7
  6
CONTINUOUS
 10
114.4382618194
 20
25.46732366
 30
0.0
 11
69.9982179483
 21
150.8780706798
 31
0.0
 40
0.6282888553
 41
-3.9120461715
 42
-3.8951191278
  0
ELLIPSE
  5
49D
100
AcDbEntity
  8
0
100
AcDbEllipse
 62
7
  6
CONTINUOUS
 10
110.8875627636
 20
27.5174527942
 30
0.0
 11
11.0143607983
 21
174.191319275
 31
0.0
 40
0.7158559188
 41
-4.1970950729
 42
-4.1882498407
  0
ELLIPSE
  5
49E
100
AcDbEntity
  8
0
100
AcDbEllipse
 62
7
  6
CONTINUOUS
 10
115.2830248984
 20
24.9795680456
 30
0.0
 11
113.864282582
 21
125.212054238
 31
0.0
 40
0.3765254089
 41
-3.7741048864
 42
-3.7571778426
  0
ELLIPSE
  5
49F
100
AcDbEntity
  8
0
100
AcDbEllipse
 62
7
  6
CONTINUOUS
 10
110.8875627636
 20
27.5174527942
 30
0.0
 11
11.0209989736
 21
174.2963015365
 31
0.0
 40
0.7158559188
 41
-4.1971379436
 42
-4.1877485171
  0
ELLIPSE
  5
4A0
100
AcDbEntity
  8
0
100
AcDbEllipse
 62
7
  6
CONTINUOUS
 10
109.1195585118
 20
28.5382762909
 30
0.0
 11
34.5647598875
 21
166.7060069303
 31
0.0
 40
0.7002280922
 41
-4.0832973883
 42
-4.0724882547
  0
ELLIPSE
  5
4A1
100
AcDbEntity
  8
0
100
AcDbEllipse
 62
7
  6
CONTINUOUS
 10
118.7654604645
 20
22.9688533949
 30
0.0
 11
110.6024687431
 21
127.266754188
 31
0.0
 40
0.4029729773
 41
-3.7731780122
 42
-3.7669003749
  0
ELLIPSE
  5
4A2
100
AcDbEntity
  8
0
100
AcDbEllipse
 62
7
  6
CONTINUOUS
 10
113.9321454457
 20
25.7595489111
 30
0.0
 11
27.4621263659
 21
169.303209783
 31
0.0
 40
0.7069483398
 41
-4.1181270102
 42
-4.1012102269
  0
ELLIPSE
  5
4A3
100
AcDbEntity
  8
0
100
AcDbEllipse
 62
7
  6
CONTINUOUS
 10
118.8504401719
 20
22.9197871769
 30
0.0
 11
111.2919523043
 21
126.8554653923
 31
0.0
 40
0.3975597956
 41
-3.7634095067
 42
-3.7600304566
  0
ENDSEC
  0
SECTION
  2
OBJECTS
  0
DICTIONARY
  5
C
100
AcDbDictionary
280
0
281
1
  3
ACAD_GROUP
350
D
  3
ACAD_MLINESTYLE
350
17
  3
ACAD_LAYOUT
350
1A
  3
ACAD_PLOTSETTINGS
350
19
  3
ACAD_PLOTSTYLENAME
350
E
  0
DICTIONARY
  5
D
102
{ACAD_REACTORS
330
C
102
}
100
AcDbDictionary
280
0
281
1
  0
ACDBDICTIONARYWDFLT
  5
E
102
{ACAD_REACTORS
330
C
102
}
100
AcDbDictionary
281
1
  3
Normal
350
F
100
AcDbDictionaryWithDefault
340
F
  0
DICTIONARY
  5
17
102
{ACAD_REACTORS
330
C
102
}
100
AcDbDictionary
280
0
281
1
  3
Standard
350
18
  0
DICTIONARY
  5
19
102
{ACAD_REACTORS
330
C
102
}
100
AcDbDictionary
281
1
  0
DICTIONARY
  5
1A
102
{ACAD_REACTORS
330
C
102
}
100
AcDbDictionary
281
1
  3
Model
350
4A4
  3
Layout1
350
4A5
  0
ACDBPLACEHOLDER
  5
F
102
{ACAD_REACTORS
330
E
102
}
  0
MLINESTYLE
  5
18
102
{ACAD_REACTORS
330
17
102
}
100
AcDbMlineStyle
  2
STANDARD
 70
0
  3

 62
256
 51
90.0
 52
90.0
 71
2
 49
0.5
 62
256
  6
BYLAYER
 49
-0.5
 62
256
  6
BYLAYER
  0
LAYOUT
  5
4A4
102
{ACAD_REACTORS
330
1A
102
}
100
AcDbPlotSettings
  1

  2
none_device
  4
ISO_A4_(297.00_x_210.00_MM)
  6

 40
0.0
 41
0.0
 42
0.0
 43
0.0
 44
297.0
 45
210.0
 46
0.0
 47
0.0
 48
0.0
 49
0.0
140
0.0
141
0.0
142
1.0
143
1.0
 70
1024
 72
1
 73
0
 74
0
  7

 75
0
147
1.0
148
0.0
149
0.0
100
AcDbLayout
  1
Model
 70
0
 71
0
 10
0.0
 20
0.0
 11
297.0
 21
210.0
 12
0.0
 22
0.0
 32
0.0
 14
0.0
 24
0.0
 34
0.0
 15
0.0
 25
0.0
 35
0.0
146
0.0
 13
0.0
 23
0.0
 33
0.0
 16
1.0
 26
0.0
 36
0.0
 17
0.0
 27
1.0
 37
0.0
 76
0
330
213
345
0
346
0
  0
LAYOUT
  5
4A5
102
{ACAD_REACTORS
330
1A
102
}
100
AcDbPlotSettings
  1

  2
none_device
  4
ISO_A4_(297.00_x_210.00_MM)
  6

 40
0.0
 41
0.0
 42
0.0
 43
0.0
 44
297.0
 45
210.0
 46
0.0
 47
0.0
 48
0.0
 49
0.0
140
0.0
141
0.0
142
1.0
143
1.0
 70
0
 72
1
 73
0
 74
0
  7

 75
0
147
1.0
148
0.0
149
0.0
100
AcDbLayout
  1
Layout1
 70
0
 71
1
 10
0.0
 20
0.0
 11
297.0
 21
210.0
 12
0.0
 22
0.0
 32
0.0
 14
0.0
 24
0.0
 34
0.0
 15
0.0
 25
0.0
 35
0.0
146
0.0
 13
0.0
 23
0.0
 33
0.0
 16
1.0
 26
0.0
 36
0.0
 17
0.0
 27
1.0
 37
0.0
 76
0
330
214
345
0
346
0
  0
ENDSEC
  0
EOF
