  0
SECTION
  2
HEADER
  9
$ACADVER
  1
AC1024
  9
$DWGCODEPAGE
  3
ANSI_1252
  9
$EXTMAX
 10
420.0
 20
297.0
 30
0.0
  9
$EXTMIN
 10
0.0
 20
-0.0
 30
0.0
  9
$LIMMIN
 10
0.0
 20
-0.0
  9
$LIMMAX
 10
420.0
 20
297.0
  9
$VIEWCTR
 10
210.0
 20
148.5
  9
$VIEWSIZE
 40
297.0
  9
$CLAYER
  8
0
  9
$LTSCALE
 40
23.1
  9
$CELTYPE
  6
BYLAYER
  9
$DIMSCALE
 40
1.0
  9
$DIMASZ
 40
3.0
  9
$DIMEXO
 40
0.5
  9
$DIMDLI
 40
15.96
  9
$DIMEXE
 40
1.5
  9
$DIMCEN
 40
3.78
  9
$DIMLFAC
 40
1.0
  9
$DIMBLK
  1
_FILLED
  9
$DIMALT
 70
0
  9
$DIMALTF
 40
0.0393700787
  9
$DIMTXT
 40
3.0
  9
$DIMTOL
 70
1
  9
$DIMLIM
 70
0
  9
$DIMTFAC
 40
1.0
  9
$DIMTP
 40
0.01
  9
$DIMTM
 40
0.01
  9
$DIMGAP
 40
0.625
  9
$DIMDSEP
 70
44
  9
$AUNITS
 70
0
  9
$PDMODE
 70
3
  9
$PDSIZE
 40
3.0
  9
$HANDSEED
  5
422
  9
$TILEMODE
 70
1
  9
$MEASUREMENT
 70
1
  9
$INSUNITS
 70
4
  0
ENDSEC
  0
SECTION
  2
CLASSES
  0
CLASS
  1
ACDBDICTIONARYWDFLT
  2
AcDbDictionaryWithDefault
  3
AutoCAD 2000
 90
0
 91
1
280
0
281
0
  0
CLASS
  1
ACDBPLACEHOLDER
  2
AcDbPlaceHolder
  3
AutoCAD 2000
 90
0
 91
1
280
0
281
0
  0
CLASS
  1
LAYOUT
  2
AcDbLayout
  3
AutoCAD 2000
 90
0
 91
0
280
0
281
0
  0
ENDSEC
  0
SECTION
  2
TABLES
  0
TABLE
  2
VPORT
  5
8
100
AcDbSymbolTable
 70
2
  0
VPORT
  5
1F4
100
AcDbSymbolTableRecord
100
AcDbViewportTableRecord
  2
*ACTIVE
 70
0
 10
0.0
 20
0.0
 11
1.0
 21
1.0
 12
210.0
 22
148.5
 13
0.0
 23
0.0
 14
1.0
 24
1.0
 15
0.0
 25
0.0
 16
0.0
 26
0.0
 36
1.0
 17
0.0
 27
0.0
 37
0.0
 40
297.0
 41
1.4141414141
 42
50.0
 43
0.0
 44
0.0
 50
0.0
 51
0.0
 71
0
 72
100
 73
1
 74
1
 75
0
 76
0
 77
0
 78
0
  0
ENDTAB
  0
TABLE
  2
LTYPE
  5
5
100
AcDbSymbolTable
 70
6
  0
LTYPE
  5
14
100
AcDbSymbolTableRecord
100
AcDbLinetypeTableRecord
  2
BYBLOCK
 70
0
  3

 72
65
 73
0
 40
0.0
  0
LTYPE
  5
15
100
AcDbSymbolTableRecord
100
AcDbLinetypeTableRecord
  2
BYLAYER
 70
0
  3

 72
65
 73
0
 40
0.0
  0
LTYPE
  5
16
100
AcDbSymbolTableRecord
100
AcDbLinetypeTableRecord
  2
CONTINUOUS
 70
64
  3
Solid line
 72
65
 73
0
 40
0.0
  0
LTYPE
  5
1F5
100
AcDbSymbolTableRecord
100
AcDbLinetypeTableRecord
  2
CENTER
 70
64
  3
____ _ ____ _ ____ _ ____ _ ____ _ ____ _ ____
 72
65
 73
4
 40
0.6
 49
0.375
 74
0
 49
-0.075
 74
0
 49
0.075
 74
0
 49
-0.075
 74
0
  0
LTYPE
  5
1F6
100
AcDbSymbolTableRecord
100
AcDbLinetypeTableRecord
  2
HIDDEN
 70
64
  3
- - - - - - - - - - - - - - - - - - - -
 72
65
 73
2
 40
0.2
 49
0.1
 74
0
 49
-0.1
 74
0
  0
LTYPE
  5
1F7
100
AcDbSymbolTableRecord
100
AcDbLinetypeTableRecord
  2
PHANTOM
 70
64
  3
_____ _ _ _____ _ _ _____ _ _ _____
 72
65
 73
6
 40
0.8
 49
0.45
 74
0
 49
-0.05
 74
0
 49
0.1
 74
0
 49
-0.05
 74
0
 49
0.1
 74
0
 49
-0.05
 74
0
  0
LTYPE
  5
1F8
100
AcDbSymbolTableRecord
100
AcDbLinetypeTableRecord
  2
DOT
 70
64
  3
. . . . . . . . . . . . . . . . . . . .
 72
65
 73
2
 40
0.2
 49
0.1
 74
0
 49
-0.1
 74
0
  0
LTYPE
  5
1F9
100
AcDbSymbolTableRecord
100
AcDbLinetypeTableRecord
  2
DASHED
 70
64
  3
- - - - - - - - - - - - - - - - - - - -
 72
65
 73
2
 40
0.2
 49
0.1
 74
0
 49
-0.1
 74
0
  0
ENDTAB
  0
TABLE
  2
LAYER
  5
2
100
AcDbSymbolTable
 70
36
  0
LAYER
  5
10
100
AcDbSymbolTableRecord
100
AcDbLayerTableRecord
  2
0
 70
0
 62
7
  6
CONTINUOUS
370
-3
390
F
  0
LAYER
  5
1FA
100
AcDbSymbolTableRecord
100
AcDbLayerTableRecord
  2
DEFAULT_1
 70
0
 62
7
  6
CENTER
370
-3
390
F
  0
LAYER
  5
1FB
100
AcDbSymbolTableRecord
100
AcDbLayerTableRecord
  2
DEFAULT_2
 70
0
 62
7
  6
HIDDEN
370
-3
390
F
  0
LAYER
  5
1FC
100
AcDbSymbolTableRecord
100
AcDbLayerTableRecord
  2
DEFAULT_3
 70
0
 62
7
  6
PHANTOM
370
-3
390
F
  0
LAYER
  5
1FD
100
AcDbSymbolTableRecord
100
AcDbLayerTableRecord
  2
ASSI
 70
0
 62
7
  6
CONTINUOUS
370
-3
390
F
  0
LAYER
  5
1FE
100
AcDbSymbolTableRecord
100
AcDbLayerTableRecord
  2
COORDINATE
 70
0
 62
7
  6
CONTINUOUS
370
-3
390
F
  0
LAYER
  5
1FF
100
AcDbSymbolTableRecord
100
AcDbLayerTableRecord
  2
COPY_PUBLISH
 70
0
 62
7
  6
CONTINUOUS
370
-3
390
F
  0
LAYER
  5
200
100
AcDbSymbolTableRecord
100
AcDbLayerTableRecord
  2
COSMETIC
 70
0
 62
7
  6
CONTINUOUS
370
-3
390
F
  0
LAYER
  5
201
100
AcDbSymbolTableRecord
100
AcDbLayerTableRecord
  2
COSMETICI
 70
0
 62
7
  6
CONTINUOUS
370
-3
390
F
  0
LAYER
  5
202
100
AcDbSymbolTableRecord
100
AcDbLayerTableRecord
  2
CURVE
 70
0
 62
7
  6
CONTINUOUS
370
-3
390
F
  0
LAYER
  5
203
100
AcDbSymbolTableRecord
100
AcDbLayerTableRecord
  2
CURVE_VERN
 70
0
 62
7
  6
CONTINUOUS
370
-3
390
F
  0
LAYER
  5
204
100
AcDbSymbolTableRecord
100
AcDbLayerTableRecord
  2
DRAFT
 70
0
 62
7
  6
CONTINUOUS
370
-3
390
F
  0
LAYER
  5
205
100
AcDbSymbolTableRecord
100
AcDbLayerTableRecord
  2
IMPORT_IGES
 70
0
 62
7
  6
CONTINUOUS
370
-3
390
F
  0
LAYER
  5
206
100
AcDbSymbolTableRecord
100
AcDbLayerTableRecord
  2
INTFCLR_1
 70
0
 62
7
  6
CONTINUOUS
370
-3
390
F
  0
LAYER
  5
207
100
AcDbSymbolTableRecord
100
AcDbLayerTableRecord
  2
INTF_1
 70
0
 62
7
  6
CONTINUOUS
370
-3
390
F
  0
LAYER
  5
208
100
AcDbSymbolTableRecord
100
AcDbLayerTableRecord
  2
NOTE
 70
0
 62
7
  6
CONTINUOUS
370
-3
390
F
  0
LAYER
  5
209
100
AcDbSymbolTableRecord
100
AcDbLayerTableRecord
  2
PIANI
 70
0
 62
7
  6
CONTINUOUS
370
-3
390
F
  0
LAYER
  5
20A
100
AcDbSymbolTableRecord
100
AcDbLayerTableRecord
  2
PUNTI
 70
0
 62
7
  6
CONTINUOUS
370
-3
390
F
  0
LAYER
  5
20B
100
AcDbSymbolTableRecord
100
AcDbLayerTableRecord
  2
RACCORDO
 70
0
 62
7
  6
CONTINUOUS
370
-3
390
F
  0
LAYER
  5
20C
100
AcDbSymbolTableRecord
100
AcDbLayerTableRecord
  2
RGB____0____0____0__
 70
0
 62
7
  6
CONTINUOUS
370
-3
390
F
  0
LAYER
  5
20D
100
AcDbSymbolTableRecord
100
AcDbLayerTableRecord
  2
SIMBOLI
 70
0
 62
7
  6
CONTINUOUS
370
-3
390
F
  0
LAYER
  5
20E
100
AcDbSymbolTableRecord
100
AcDbLayerTableRecord
  2
SMUSSO
 70
0
 62
7
  6
CONTINUOUS
370
-3
390
F
  0
LAYER
  5
20F
100
AcDbSymbolTableRecord
100
AcDbLayerTableRecord
  2
SNAPLINE
 70
0
 62
7
  6
CONTINUOUS
370
-3
390
F
  0
LAYER
  5
210
100
AcDbSymbolTableRecord
100
AcDbLayerTableRecord
  2
SUPERFICI
 70
0
 62
7
  6
CONTINUOUS
370
-3
390
F
  0
LAYER
  5
211
100
AcDbSymbolTableRecord
100
AcDbLayerTableRecord
  2
TRASH
 70
0
 62
7
  6
CONTINUOUS
370
-3
390
F
  0
LAYER
  5
212
100
AcDbSymbolTableRecord
100
AcDbLayerTableRecord
  2
XSEC_DATUMS
 70
0
 62
7
  6
CONTINUOUS
370
-3
390
F
  0
ENDTAB
  0
TABLE
  2
STYLE
  5
3
100
AcDbSymbolTable
 70
1
  0
STYLE
  5
11
100
AcDbSymbolTableRecord
100
AcDbTextStyleTableRecord
  2
STANDARD
 70
0
 40
0.0
 41
0.8
 50
0.0
 71
0
 42
0.2
  3
txt
  4

  0
STYLE
  5
213
100
AcDbSymbolTableRecord
100
AcDbTextStyleTableRecord
  2
TEXTSTYLE_1
 70
0
 40
0.0
 41
0.8
 50
0.0
 71
0
 42
0.2
  3
gdt
  4

  0
ENDTAB
  0
TABLE
  2
VIEW
  5
6
100
AcDbSymbolTable
 70
0
  0
ENDTAB
  0
TABLE
  2
UCS
  5
7
100
AcDbSymbolTable
 70
0
  0
ENDTAB
  0
TABLE
  2
APPID
  5
9
100
AcDbSymbolTable
 70
1
  0
APPID
  5
214
100
AcDbSymbolTableRecord
100
AcDbRegAppTableRecord
  2
ACAD
 70
0
  0
ENDTAB
  0
TABLE
  2
BLOCK_RECORD
  5
1
100
AcDbSymbolTable
 70
0
  0
BLOCK_RECORD
  5
215
100
AcDbSymbolTableRecord
100
AcDbBlockTableRecord
  2
*Model_Space
  0
BLOCK_RECORD
  5
216
100
AcDbSymbolTableRecord
100
AcDbBlockTableRecord
  2
*Paper_Space
  0
BLOCK_RECORD
  5
217
100
AcDbSymbolTableRecord
100
AcDbBlockTableRecord
  2
_FILLED
  0
ENDTAB
  0
TABLE
  2
DIMSTYLE
  5
A
100
AcDbSymbolTable
 70
1
100
AcDbDimStyleTable
 71
0
  0
DIMSTYLE
105
218
100
AcDbSymbolTableRecord
100
AcDbDimStyleTableRecord
  2
STANDARD
 70
0
  3

  4

 40
1.0
 41
3.0
 42
0.5
 43
0.38
 44
1.5
 45
0.0
 46
0.0
 47
0.01
 48
0.01
140
3.0
141
0.09
142
0.0
143
25.4
144
1.0
145
0.0
146
1.0
147
0.625
 71
1.0
 72
0.0
 73
0
 74
0
 75
0
 76
0
 77
1
 78
8
 79
2
170
0
171
1
172
0
173
0
174
0
175
0
176
0
177
0
178
0
270
2
179
2
271
2
272
2
273
2
274
2
275
0
280
0
281
0
282
0
283
1
284
8
285
0
286
0
287
3
288
0
340
11
278
44
341
217
342
217
343
217
344
217
  0
ENDTAB
  0
ENDSEC
  0
SECTION
  2
BLOCKS
  0
BLOCK
  5
20
100
AcDbEntity
  8
0
100
AcDbBlockBegin
  2
*Model_Space
 70
0
 10
0.0
 20
0.0
 30
0.0
  3
*Model_Space
  1

  0
ENDBLK
  5
21
100
AcDbEntity
  8
0
100
AcDbBlockEnd
  0
BLOCK
  5
1C
100
AcDbEntity
  8
0
100
AcDbBlockBegin
  2
*Paper_Space
 70
0
 10
0.0
 20
0.0
 30
0.0
  3
*Paper_Space
  1

  0
ENDBLK
  5
1D
100
AcDbEntity
  8
0
100
AcDbBlockEnd
  0
BLOCK
  5
219
100
AcDbEntity
  8
0
100
AcDbBlockBegin
  2
_FILLED
 70
64
 10
0.0
 20
0.0
  3
_FILLED
  1

  0
SOLID
  5
21A
100
AcDbEntity
  8
0
  6
BYBLOCK
 62
0
100
AcDbTrace
 10
0.0
 20
0.0
 11
-1.0
 21
0.1333333333
 12
-1.0
 22
-0.1333333333
 13
-1.0
 23
-0.1333333333
  0
ENDBLK
  5
21B
100
AcDbEntity
  8
0
  6
BYBLOCK
 62
0
100
AcDbBlockEnd
  0
ENDSEC
  0
SECTION
  2
ENTITIES
  0
LWPOLYLINE
  5
21C
100
AcDbEntity
  8
RACCORDO
100
AcDbPolyline
 62
7
  6
CONTINUOUS
 90
16
 70
0
 10
110.0876693565
 20
249.0221237583
 10
110.063174004
 20
249.0039617053
 10
110.0313737149
 20
248.9775129696
 10
110.0009823943
 20
248.9487976179
 10
109.9721055895
 20
248.9178794438
 10
109.9448477804
 20
248.8848339818
 10
109.9192895459
 20
248.8497308164
 10
109.8954888976
 20
248.8126090335
 10
109.8735216647
 20
248.7735288053
 10
109.8534609543
 20
248.7325653394
 10
109.8353608089
 20
248.689759453
 10
109.8192911512
 20
248.6451754001
 10
109.8053153434
 20
248.5988726854
 10
109.7934879287
 20
248.5508705239
 10
109.7838802562
 20
248.5012137329
 10
109.7788193564
 20
248.4677814372
  0
LINE
  5
21D
100
AcDbEntity
  8
RACCORDO
100
AcDbLine
 62
7
  6
CONTINUOUS
 10
110.0876287263
 20
249.022095197
 11
111.6957848277
 21
250.1560283445
  0
LINE
  5
21E
100
AcDbEntity
  8
RACCORDO
100
AcDbLine
 62
250
  6
CONTINUOUS
 10
110.6455724745
 20
249.0119918443
 11
112.2206515504
 21
250.1226019229
  0
LWPOLYLINE
  5
21F
100
AcDbEntity
  8
RACCORDO
100
AcDbPolyline
 62
250
  6
CONTINUOUS
 90
10
 70
0
 10
109.8673476656
 20
248.3505220819
 10
109.5957981783
 20
246.2623733215
 10
109.3465936142
 20
244.1840619165
 10
109.1197865851
 20
242.1160056707
 10
108.9154273612
 20
240.0586237424
 10
108.7335564623
 20
238.0123266314
 10
108.5742051653
 20
235.9775163247
 10
108.4374051226
 20
233.9545993614
 10
108.32318784
 20
231.9439865202
 10
108.2315776322
 20
229.9460829695
  0
LWPOLYLINE
  5
220
100
AcDbEntity
  8
RACCORDO
100
AcDbPolyline
 62
7
  6
CONTINUOUS
 90
10
 70
0
 10
109.7788172588
 20
248.4677827649
 10
109.5143547269
 20
246.4360397381
 10
109.2629446248
 20
244.3432088235
 10
109.0342375153
 20
242.2606940566
 10
108.8282905162
 20
240.1889778508
 10
108.6451421906
 20
238.1284581539
 10
108.4848265935
 20
236.079503118
 10
108.3473781693
 20
234.042510943
 10
108.2328268416
 20
232.0179530153
 10
108.1436858449
 20
230.0682062841
  0
LWPOLYLINE
  5
221
100
AcDbEntity
  8
RACCORDO
100
AcDbPolyline
 62
250
  6
CONTINUOUS
 90
19
 70
0
 10
110.4480679681
 20
248.69781965
 10
110.451497805
 20
248.717537295
 10
110.4560572024
 20
248.7375646777
 10
110.4617210617
 20
248.7577915421
 10
110.4684582042
 20
248.7781065337
 10
110.4762315418
 20
248.7983978121
 10
110.4849982822
 20
248.8185536673
 10
110.4947101637
 20
248.8384631346
 10
110.5053137209
 20
248.8580166051
 10
110.5167505792
 20
248.8771064285
 10
110.5289577764
 20
248.895627508
 10
110.5418681089
 20
248.9134778771
 10
110.5554105009
 20
248.9305592606
 10
110.5695103978
 20
248.9467776179
 10
110.5840901753
 20
248.962043659
 10
110.5990695654
 20
248.9762733357
 10
110.6143661007
 20
248.9893883059
 10
110.6298955689
 20
249.0013163656
 10
110.6455724744
 20
249.0119918444
  0
LWPOLYLINE
  5
222
100
AcDbEntity
  8
RACCORDO
100
AcDbPolyline
 62
250
  6
CONTINUOUS
 90
22
 70
0
 10
123.2551278948
 20
221.2717226386
 10
123.2801874689
 20
221.3075476443
 10
123.3072691882
 20
221.3406132185
 10
123.3363717037
 20
221.3709186562
 10
123.3675888081
 20
221.398567451
 10
123.4008242243
 20
221.4234548133
 10
123.4357912033
 20
221.4452674627
 10
123.472505747
 20
221.4639591293
 10
123.5109488995
 20
221.4795745496
 10
123.5507809859
 20
221.4919367019
 10
123.5920187915
 20
221.501004288
 10
123.6346426383
 20
221.5068171098
 10
123.678257925
 20
221.5093196767
 10
123.7228854852
 20
221.5084657544
 10
123.768502002
 20
221.5043002959
 10
123.814646625
 20
221.4969045813
 10
123.8613274612
 20
221.4862276806
 10
123.9085346131
 20
221.4723196015
 10
123.9557803634
 20
221.4554131018
 10
124.0029018336
 20
221.43558561
 10
124.0500609961
 20
221.4127592313
 10
124.0972576264
 20
221.3869338504
  0
LWPOLYLINE
  5
223
100
AcDbEntity
  8
RACCORDO
100
AcDbPolyline
 62
250
  6
CONTINUOUS
 90
8
 70
0
 10
123.8963516056
 20
221.0723428695
 10
123.9122086583
 20
221.0944480269
 10
123.9294177045
 20
221.1149947529
 10
123.9479465991
 20
221.1339154187
 10
123.9677727676
 20
221.1511549843
 10
123.9888440145
 20
221.166643155
 10
124.0110744948
 20
221.1803019849
 10
124.0319033004
 20
221.1909345396
  0
LWPOLYLINE
  5
224
100
AcDbEntity
  8
RACCORDO
100
AcDbPolyline
 62
250
  6
CONTINUOUS
 90
9
 70
0
 10
108.2315776316
 20
192.9311622726
 10
108.3231878443
 20
191.0507335137
 10
108.4374051293
 20
189.1865765938
 10
108.5742051689
 20
187.3390686007
 10
108.7335564478
 20
185.5085885958
 10
108.915427315
 20
183.6955018965
 10
109.1197865158
 20
181.9001603746
 10
109.346593545
 20
180.1229230779
 10
109.5957981305
 20
178.3641557838
  0
LWPOLYLINE
  5
225
100
AcDbEntity
  8
RACCORDO
100
AcDbPolyline
 62
7
  6
CONTINUOUS
 90
10
 70
0
 10
108.1437130963
 20
193.0530373557
 10
108.2325965448
 20
191.2222636971
 10
108.3471311699
 20
189.3438036972
 10
108.4845837649
 20
187.4821262979
 10
108.6449282212
 20
185.6376675973
 10
108.8281339835
 20
183.8107839086
 10
109.03417103
 20
182.0018004939
 10
109.2630049549
 20
180.2110671451
 10
109.5145826847
 20
178.4389954638
 10
109.7800425103
 20
176.7398244459
  0
LINE
  5
226
100
AcDbEntity
  8
RACCORDO
100
AcDbLine
 62
250
  6
CONTINUOUS
 10
108.1146396683
 20
195.9384720225
 11
108.2315775596
 21
192.9311623141
  0
LWPOLYLINE
  5
227
100
AcDbEntity
  8
RACCORDO
100
AcDbPolyline
 62
250
  6
CONTINUOUS
 90
12
 70
0
 10
108.2315775602
 20
229.9460830111
 10
108.1146396605
 20
226.7888081006
 10
108.0189458318
 20
223.6439524455
 10
107.9445057228
 20
220.5117389991
 10
107.8913270508
 20
217.3923508482
 10
107.8594172139
 20
214.2860487066
 10
107.848780481
 20
211.1931693183
 10
107.8594172198
 20
208.1139311225
 10
107.8913270609
 20
205.0485511354
 10
107.944505735
 20
201.9973596751
 10
108.0189458436
 20
198.9606084132
 10
108.1146396683
 20
195.9384720225
  0
LWPOLYLINE
  5
228
100
AcDbEntity
  8
RACCORDO
100
AcDbPolyline
 62
7
  6
CONTINUOUS
 90
13
 70
0
 10
108.1436858441
 20
230.0682063335
 10
108.0286554474
 20
226.9672402518
 10
107.9322927254
 20
223.8113609417
 10
107.8573315102
 20
220.668296078
 10
107.8037792398
 20
217.5382959093
 10
107.77163891
 20
214.4215794908
 10
107.7609125235
 20
211.3183537666
 10
107.77160166
 20
208.2288341518
 10
107.8037054596
 20
205.1532344891
 10
107.8572226405
 20
202.0917595704
 10
107.9321509293
 20
199.0446250293
 10
108.0284836105
 20
196.0120720455
 10
108.1437130963
 20
193.0530372677
  0
LWPOLYLINE
  5
229
100
AcDbEntity
  8
RACCORDO
100
AcDbPolyline
 62
250
  6
CONTINUOUS
 90
13
 70
0
 10
123.129788277
 20
184.7927320718
 10
123.0066755468
 20
187.730140437
 10
122.9059361851
 20
190.680185396
 10
122.8275765946
 20
193.642669876
 10
122.771601644
 20
196.6173960168
 10
122.738015004
 20
199.6041649218
 10
122.7268191456
 20
202.6027766703
 10
122.7380150035
 20
205.6130306396
 10
122.771601643
 20
208.6347256442
 10
122.8275765934
 20
211.6676596847
 10
122.9059361839
 20
214.7116298841
 10
123.006675546
 20
217.7664325017
 10
123.129788277
 20
220.831863071
  0
LWPOLYLINE
  5
22A
100
AcDbEntity
  8
RACCORDO
100
AcDbPolyline
 62
250
  6
CONTINUOUS
 90
14
 70
0
 10
124.0972576264
 20
221.3869338504
 10
124.0967523924
 20
221.3598965979
 10
124.0977653177
 20
221.3337551293
 10
124.1002920526
 20
221.3086217029
 10
124.1043217466
 20
221.2846042482
 10
124.1098370951
 20
221.2618059024
 10
124.1168144138
 20
221.2403245677
 10
124.1252237403
 20
221.2202524903
 10
124.1350289627
 20
221.2016758651
 10
124.1461879749
 20
221.184674465
 10
124.1586528571
 20
221.1693212984
 10
124.1723700819
 20
221.1556822958
 10
124.1872807439
 20
221.1438160266
 10
124.2001943592
 20
221.1355362402
  0
LWPOLYLINE
  5
22B
100
AcDbEntity
  8
RACCORDO
100
AcDbPolyline
 62
250
  6
CONTINUOUS
 90
10
 70
0
 10
123.817482012
 20
220.8012023141
 10
123.8197995266
 20
220.836144848
 10
123.823770049
 20
220.8701072638
 10
123.8293847659
 20
220.9029922349
 10
123.8366359313
 20
220.9347197148
 10
123.8455021949
 20
220.9651831817
 10
123.8559423742
 20
220.9942559143
 10
123.8679182281
 20
221.021847797
 10
123.8814008294
 20
221.0478995077
 10
123.8963516056
 20
221.0723428695
  0
LWPOLYLINE
  5
22C
100
AcDbEntity
  8
RACCORDO
100
AcDbPolyline
 62
250
  6
CONTINUOUS
 90
10
 70
0
 10
123.129788277
 20
220.831863071
 10
123.1336373654
 20
220.888962597
 10
123.1400454691
 20
220.9441367412
 10
123.1490124156
 20
220.9973854125
 10
123.1605902213
 20
221.0488830808
 10
123.1747265789
 20
221.0984551223
 10
123.191264604
 20
221.1455776876
 10
123.2101516443
 20
221.190075974
 10
123.2314395325
 20
221.232124356
 10
123.2551278948
 20
221.2717226386
  0
LWPOLYLINE
  5
22D
100
AcDbEntity
  8
0
100
AcDbPolyline
 62
250
  6
CONTINUOUS
 90
28
 70
0
 10
127.1532211545
 20
214.6759727221
 10
127.1652185107
 20
214.6839155828
 10
127.177080688
 20
214.6925547647
 10
127.1888076861
 20
214.701890268
 10
127.2004382662
 20
214.7119581778
 10
127.2119336672
 20
214.7227224088
 10
127.2231776059
 20
214.7340747055
 10
127.2341656327
 20
214.7460193342
 10
127.244902197
 20
214.7585520285
 10
127.2552843644
 20
214.7715517335
 10
127.2653087844
 20
214.7850229607
 10
127.2749788074
 20
214.7989611987
 10
127.2842015505
 20
214.8132318578
 10
127.2929727112
 20
214.8278381186
 10
127.3012965921
 20
214.8427768005
 10
127.3090932176
 20
214.857903772
 10
127.3163574324
 20
214.8732204639
 10
127.3230943919
 20
214.8887254453
 10
127.329239587
 20
214.9042702923
 10
127.3347876493
 20
214.9198570618
 10
127.3397439473
 20
214.9354836969
 10
127.3440600772
 20
214.9509956028
 10
127.347729285
 20
214.9663910465
 10
127.3507583248
 20
214.9816717611
 10
127.353119055
 20
214.9966883514
 10
127.3548020952
 20
215.0113910192
 10
127.3558168259
 20
215.0258295628
 10
127.356163247
 20
215.0400039822
  0
LWPOLYLINE
  5
22E
100
AcDbEntity
  8
0
100
AcDbPolyline
 62
7
  6
CONTINUOUS
 90
22
 70
0
 10
127.1169404831
 20
214.587543655
 10
127.1337109079
 20
214.5985500578
 10
127.1578037351
 20
214.6160642815
 10
127.1811345408
 20
214.6350491874
 10
127.2037097929
 20
214.6554602869
 10
127.2254874368
 20
214.6772216509
 10
127.246366858
 20
214.7002035335
 10
127.2663185081
 20
214.7243395021
 10
127.2853030374
 20
214.7495662708
 10
127.3032026598
 20
214.7757131596
 10
127.3199786925
 20
214.8027033872
 10
127.3355865492
 20
214.8304708374
 10
127.3499227719
 20
214.8588287515
 10
127.3629492539
 20
214.8877067563
 10
127.3746204534
 20
214.9170331744
 10
127.3848516102
 20
214.9466205996
 10
127.3936038661
 20
214.976404559
 10
127.4008384294
 20
215.0063253381
 10
127.4064907661
 20
215.0362300038
 10
127.4105158621
 20
215.0660470262
 10
127.4128711091
 20
215.0957613431
 10
127.4135119709
 20
215.1209620059
  0
LWPOLYLINE
  5
22F
100
AcDbEntity
  8
0
100
AcDbPolyline
 62
250
  6
CONTINUOUS
 90
10
 70
0
 10
127.356163247
 20
216.8642526866
 10
127.3677763225
 20
216.8716959816
 10
127.3782283813
 20
216.8796924313
 10
127.3874407562
 20
216.8881818533
 10
127.3953441097
 20
216.8971003551
 10
127.4018789561
 20
216.9063808142
 10
127.4069961093
 20
216.9159533834
 10
127.4106570532
 20
216.9257460175
 10
127.4128342314
 20
216.9356850142
 10
127.4135131572
 20
216.945191929
  0
LWPOLYLINE
  5
230
100
AcDbEntity
  8
0
100
AcDbPolyline
 62
250
  6
CONTINUOUS
 90
10
 70
0
 10
127.356163247
 20
215.0400039822
 10
127.3677763798
 20
215.0474473178
 10
127.3782284768
 20
215.0554438079
 10
127.3874408721
 20
215.0639332681
 10
127.3953442301
 20
215.0728518041
 10
127.4018790675
 20
215.082132292
 10
127.4069962011
 20
215.0917048837
 10
127.4106571175
 20
215.1014975329
 10
127.4128342635
 20
215.1114365368
 10
127.4135131572
 20
215.1209432271
  0
LINE
  5
231
100
AcDbEntity
  8
0
100
AcDbLine
 62
250
  6
CONTINUOUS
 10
125.8687814925
 20
213.8690485926
 11
127.1532211545
 21
214.6759727221
  0
LINE
  5
232
100
AcDbEntity
  8
0
100
AcDbLine
 62
7
  6
CONTINUOUS
 10
125.8687814925
 20
213.8034123775
 11
127.1169639827
 21
214.587558647
  0
LINE
  5
233
100
AcDbEntity
  8
0
100
AcDbLine
 62
250
  6
CONTINUOUS
 10
127.0155054306
 20
217.2367880723
 11
125.8687814925
 21
216.6096710765
  0
LINE
  5
234
100
AcDbEntity
  8
0
100
AcDbLine
 62
250
  6
CONTINUOUS
 10
127.1532211545
 20
216.9898051696
 11
125.8687814925
 21
216.2873746061
  0
LINE
  5
235
100
AcDbEntity
  8
0
100
AcDbLine
 62
7
  6
CONTINUOUS
 10
125.8687814925
 20
217.2732073548
 11
126.411213666
 21
217.544131258
  0
LINE
  5
236
100
AcDbEntity
  8
0
100
AcDbLine
 62
250
  6
CONTINUOUS
 10
125.8687814925
 20
217.213227903
 11
126.5055136559
 21
217.5312510061
  0
LWPOLYLINE
  5
237
100
AcDbEntity
  8
0
100
AcDbPolyline
 62
250
  6
CONTINUOUS
 90
13
 70
0
 10
126.5055136716
 20
217.5312509971
 10
126.5259965195
 20
217.5411206904
 10
126.5463741737
 20
217.5496204222
 10
126.5665820015
 20
217.5567210288
 10
126.5865588482
 20
217.5623975127
 10
126.606238149
 20
217.5666298992
 10
126.625548416
 20
217.5694045509
 10
126.6444265093
 20
217.5707119288
 10
126.6628146451
 20
217.5705475365
 10
126.6806516231
 20
217.5689133855
 10
126.6978810341
 20
217.5658141001
 10
126.7144480939
 20
217.5612590114
 10
126.7302968813
 20
217.5552641855
  0
LINE
  5
238
100
AcDbEntity
  8
RACCORDO
100
AcDbLine
 62
7
  6
CONTINUOUS
 10
124.0319033004
 20
221.1909345396
 11
124.0323777012
 21
221.1911543715
  0
LINE
  5
239
100
AcDbEntity
  8
0
100
AcDbLine
 62
250
  6
CONTINUOUS
 10
123.8174818476
 20
220.8012022382
 11
124.351552176
 21
221.0481441056
  0
LWPOLYLINE
  5
23A
100
AcDbEntity
  8
0
100
AcDbPolyline
 62
250
  6
CONTINUOUS
 90
10
 70
0
 10
126.4112465118
 20
217.5441476519
 10
126.4167384928
 20
217.5465840236
 10
126.4264373917
 20
217.5495605912
 10
126.4366996798
 20
217.551136293
 10
126.4474473759
 20
217.5512991558
 10
126.4585988101
 20
217.5500479424
 10
126.4700692451
 20
217.5473921607
 10
126.4817715194
 20
217.5433519916
 10
126.4936167095
 20
217.5379581359
 10
126.5055148061
 20
217.5312515806
  0
LWPOLYLINE
  5
23B
100
AcDbEntity
  8
RACCORDO
100
AcDbPolyline
 62
7
  6
CONTINUOUS
 90
16
 70
0
 10
124.031017035
 20
221.1905893767
 10
124.030769972
 20
221.1905059435
 10
124.0308858507
 20
221.1905160093
 10
124.032443495
 20
221.1907854024
 10
124.0362376045
 20
221.1911643228
 10
124.0426062662
 20
221.1913066448
 10
124.0513981047
 20
221.1908589463
 10
124.0625941913
 20
221.1895170123
 10
124.0761807319
 20
221.1869936068
 10
124.0919426547
 20
221.1830711393
 10
124.1095325251
 20
221.1776264052
 10
124.1287743683
 20
221.170540932
 10
124.1494869063
 20
221.1617299366
 10
124.1713676138
 20
221.1511984767
 10
124.1942235058
 20
221.1389411954
 10
124.2001941802
 20
221.1355359305
  0
LWPOLYLINE
  5
23C
100
AcDbEntity
  8
RACCORDO
100
AcDbPolyline
 62
250
  6
CONTINUOUS
 90
14
 70
0
 10
306.5541032008
 20
78.8182796155
 10
306.5321953197
 20
78.812356643
 10
306.5093388398
 20
78.8083858755
 10
306.485599157
 20
78.806384731
 10
306.4610520649
 20
78.806350551
 10
306.4357664599
 20
78.8082855029
 10
306.4098235477
 20
78.8121854866
 10
306.3833271515
 20
78.8180140959
 10
306.3563568649
 20
78.8257476371
 10
306.3289981129
 20
78.8353562361
 10
306.3013705452
 20
78.8467651902
 10
306.2735713082
 20
78.8599098638
 10
306.245671746
 20
78.8747487572
 10
306.2177536749
 20
78.8912244916
  0
LWPOLYLINE
  5
23D
100
AcDbEntity
  8
RACCORDO
100
AcDbPolyline
 62
250
  6
CONTINUOUS
 90
10
 70
0
 10
110.4480679681
 20
175.8169353131
 10
110.451497833
 20
175.8011782802
 10
110.4560572669
 20
175.7864159185
 10
110.4617211684
 20
175.7727294998
 10
110.468458356
 20
175.7601943728
 10
110.476231739
 20
175.7488795476
 10
110.4849985223
 20
175.7388473161
 10
110.4947104417
 20
175.7301529094
 10
110.5053140298
 20
175.7228441931
 10
110.5066673593
 20
175.7220485681
  0
LWPOLYLINE
  5
23E
100
AcDbEntity
  8
RACCORDO
100
AcDbPolyline
 62
250
  6
CONTINUOUS
 90
31
 70
0
 10
109.8673476656
 20
176.6242155456
 10
109.8725841401
 20
176.5960918416
 10
109.8791420361
 20
176.5674268039
 10
109.8870212008
 20
176.5382203136
 10
109.8962533319
 20
176.5083842384
 10
109.9068064621
 20
176.4780065018
 10
109.9185847969
 20
176.4473509567
 10
109.9315990699
 20
176.4164160948
 10
109.9458379696
 20
176.3852029723
 10
109.9611723672
 20
176.3539790787
 10
109.9776096038
 20
176.3227478526
 10
109.9951415512
 20
176.2915052375
 10
110.013615662
 20
176.2605073104
 10
110.0330380324
 20
176.2297573622
 10
110.0534016602
 20
176.1992513893
 10
110.0745341954
 20
176.1692344043
 10
110.096439437
 20
176.139712051
 10
110.11911265
 20
176.1106779481
 10
110.1423685866
 20
176.0823589936
 10
110.1662097865
 20
176.0547614275
 10
110.1906328341
 20
176.0278783189
 10
110.2154435053
 20
176.0019167755
 10
110.2406447574
 20
175.976882805
 10
110.2662328971
 20
175.9527698184
 10
110.2920037268
 20
175.9297660298
 10
110.3179621928
 20
175.9078772787
 10
110.3441028177
 20
175.8870973059
 10
110.3702058062
 20
175.8675962075
 10
110.3961977979
 20
175.8494306066
 10
110.4221518751
 20
175.8325436601
 10
110.4480679681
 20
175.8169353131
  0
LWPOLYLINE
  5
23F
100
AcDbEntity
  8
RACCORDO
100
AcDbPolyline
 62
7
  6
CONTINUOUS
 90
26
 70
0
 10
109.7800127533
 20
176.7400168174
 10
109.785971834
 20
176.7071378194
 10
109.7972022389
 20
176.6573289288
 10
109.810887818
 20
176.6077814057
 10
109.8268817826
 20
176.5585001961
 10
109.845064729
 20
176.5094898219
 10
109.8653054094
 20
176.460835107
 10
109.8874914545
 20
176.4126088267
 10
109.9115121497
 20
176.3648889153
 10
109.9372567381
 20
176.3177732532
 10
109.9646229138
 20
176.2713502261
 10
109.9934985052
 20
176.2257278619
 10
110.0237604181
 20
176.1810373121
 10
110.0553237317
 20
176.1373454035
 10
110.0881441232
 20
176.0946824131
 10
110.1221101118
 20
176.0531734961
 10
110.1571454045
 20
176.0128974424
 10
110.1932845133
 20
175.9738283527
 10
110.2304505588
 20
175.9360745909
 10
110.2685648603
 20
175.899753847
 10
110.3076934852
 20
175.8648581917
 10
110.3477769508
 20
175.8315133281
 10
110.3887497325
 20
175.7998623666
 10
110.4307345921
 20
175.7699175944
 10
110.473774314
 20
175.7417969615
 10
110.5067848128
 20
175.721983264
  0
LINE
  5
240
100
AcDbEntity
  8
RACCORDO
100
AcDbLine
 62
7
  6
CONTINUOUS
 10
109.780043998
 20
176.7398246885
 11
109.7800127533
 21
176.7400168174
  0
LINE
  5
241
100
AcDbEntity
  8
RACCORDO
100
AcDbLine
 62
250
  6
CONTINUOUS
 10
109.5957981305
 20
178.3641557838
 11
109.8673476656
 21
176.6242155456
  0
LWPOLYLINE
  5
242
100
AcDbEntity
  8
RACCORDO
100
AcDbPolyline
 62
250
  6
CONTINUOUS
 90
13
 70
0
 10
123.8174817628
 20
184.8020965114
 10
123.6944907394
 20
187.7365717615
 10
123.5938598638
 20
190.6832755868
 10
123.515589136
 20
193.6422079873
 10
123.4596762807
 20
196.6135690945
 10
123.4261235732
 20
199.597158777
 10
123.4149378393
 20
202.59237664
 10
123.4261236393
 20
205.59922524
 10
123.4596764129
 20
208.6177020204
 10
123.515589306
 20
211.647198917
 10
123.5938600338
 20
214.6875132413
 10
123.694490881
 20
217.7388476818
 10
123.8174818476
 20
220.8012022382
  0
LWPOLYLINE
  5
243
100
AcDbEntity
  8
0
100
AcDbPolyline
 62
250
  6
CONTINUOUS
 90
28
 70
0
 10
127.356163247
 20
216.8642526866
 10
127.3558168257
 20
216.8780200238
 10
127.3548020949
 20
216.8912661497
 10
127.3531190547
 20
216.9039910643
 10
127.3507583246
 20
216.916233543
 10
127.3477292851
 20
216.9279548103
 10
127.3440600774
 20
216.9390385405
 10
127.3397439475
 20
216.9494785297
 10
127.3347876493
 20
216.9592809816
 10
127.3292395869
 20
216.9683481813
 10
127.3230943918
 20
216.9766717634
 10
127.3163574324
 20
216.9842600932
 10
127.3090932177
 20
216.9910405518
 10
127.3012965921
 20
216.99700565
 10
127.2929727112
 20
217.002162877
 10
127.2842015505
 20
217.006462081
 10
127.2749788074
 20
217.0098950254
 10
127.2653087844
 20
217.0124699467
 10
127.2552843644
 20
217.0141614028
 10
127.244902197
 20
217.0149609449
 10
127.2341656327
 20
217.0148770218
 10
127.2231776059
 20
217.0139095377
 10
127.2119336672
 20
217.0120489976
 10
127.2004382662
 20
217.0093048965
 10
127.1888076861
 20
217.0057056243
 10
127.1770806879
 20
217.001260644
 10
127.1652185107
 20
216.9959604924
 10
127.1532211545
 20
216.9898051696
  0
LWPOLYLINE
  5
244
100
AcDbEntity
  8
0
100
AcDbPolyline
 62
7
  6
CONTINUOUS
 90
15
 70
0
 10
127.413511974
 20
216.9451929283
 10
127.4129111127
 20
216.9691553221
 10
127.4102316799
 20
217.0004115149
 10
127.4054338643
 20
217.0306434584
 10
127.398593472
 20
217.0595926453
 10
127.3897987418
 20
217.0871513273
 10
127.379116329
 20
217.1133034815
 10
127.3666691983
 20
217.1378974154
 10
127.352632207
 20
217.1607755919
 10
127.3370996483
 20
217.1819577978
 10
127.3200952583
 20
217.2015081171
 10
127.3017624816
 20
217.2193255541
 10
127.2822388156
 20
217.2353500393
 10
127.261503941
 20
217.2496351023
 10
127.2518438449
 20
217.2554548903
  0
LWPOLYLINE
  5
245
100
AcDbEntity
  8
RACCORDO
100
AcDbPolyline
 62
250
  6
CONTINUOUS
 90
25
 70
0
 10
124.0972576264
 20
183.2290719874
 10
124.0967523941
 20
183.2555259681
 10
124.097765338
 20
183.28283729
 10
124.1002921057
 20
183.3108886685
 10
124.1043218435
 20
183.3395596412
 10
124.1098372439
 20
183.3687270856
 10
124.1168146198
 20
183.3982657479
 10
124.1252240056
 20
183.42804878
 10
124.1350292867
 20
183.457948285
 10
124.1461883546
 20
183.4878358673
 10
124.1586532869
 20
183.5175831816
 10
124.172370554
 20
183.5470624854
 10
124.1872812494
 20
183.5761471891
 10
124.2033213408
 20
183.6047123962
 10
124.2204219466
 20
183.6326354412
 10
124.2385096326
 20
183.6597964189
 10
124.2575067245
 20
183.6860786941
 10
124.2773316433
 20
183.7113694056
 10
124.2978992571
 20
183.7355599525
 10
124.3191212431
 20
183.7585464558
 10
124.3409064685
 20
183.7802302073
 10
124.3631613845
 20
183.8005180952
 10
124.3857904239
 20
183.8193230002
 10
124.4086964115
 20
183.8365641696
 10
124.4317809837
 20
183.852167567
  0
LWPOLYLINE
  5
246
100
AcDbEntity
  8
0
100
AcDbPolyline
 62
250
  6
CONTINUOUS
 90
19
 70
0
 10
127.1532211545
 20
216.9898051696
 10
127.1531048294
 20
217.0045841125
 10
127.1519041567
 20
217.0198663801
 10
127.1496282706
 20
217.0355357103
 10
127.1462944853
 20
217.0514728961
 10
127.141928163
 20
217.067556693
 10
127.1365625213
 20
217.0836647409
 10
127.13023838
 20
217.0996744955
 10
127.1230038512
 20
217.11546416
 10
127.1149139725
 20
217.1309136121
 10
127.1060302889
 20
217.1459053177
 10
127.0964203846
 20
217.1603252252
 10
127.0861573682
 20
217.1740636327
 10
127.0753193174
 20
217.1870160233
 10
127.0639886841
 20
217.1990838596
 10
127.0522516681
 20
217.2101753337
 10
127.0401975604
 20
217.2202060656
 10
127.0279180646
 20
217.2290997447
 10
127.0155065988
 20
217.2367887112
  0
LINE
  5
247
100
AcDbEntity
  8
0
100
AcDbLine
 62
7
  6
CONTINUOUS
 10
125.8687814925
 20
185.9864876995
 11
125.8687814925
 21
220.1721149136
  0
LINE
  5
248
100
AcDbEntity
  8
0
100
AcDbLine
 62
7
  6
CONTINUOUS
 10
125.9773265165
 20
199.5307043409
 11
125.9773265165
 21
196.8951909074
  0
LINE
  5
249
100
AcDbEntity
  8
0
100
AcDbLine
 62
250
  6
CONTINUOUS
 10
127.356163247
 20
215.0400039822
 11
127.356163247
 21
216.8642526866
  0
LINE
  5
24A
100
AcDbEntity
  8
0
100
AcDbLine
 62
7
  6
CONTINUOUS
 10
127.4135131572
 20
215.1209432271
 11
127.4135131572
 21
216.945191929
  0
LWPOLYLINE
  5
24B
100
AcDbEntity
  8
0
100
AcDbPolyline
 62
250
  6
CONTINUOUS
 90
10
 70
0
 10
127.1532211545
 20
214.6759727221
 10
127.1531048291
 20
214.6623104604
 10
127.1519041537
 20
214.6493678976
 10
127.1496282633
 20
214.6372434961
 10
127.1462944723
 20
214.6260294939
 10
127.1419281435
 20
214.6158112031
 10
127.1365624951
 20
214.6066663608
 10
127.1302383476
 20
214.5986645374
 10
127.1230038133
 20
214.5918666074
 10
127.1169639827
 20
214.587558647
  0
LINE
  5
24C
100
AcDbEntity
  8
0
100
AcDbLine
 62
7
  6
CONTINUOUS
 10
125.9774866372
 20
196.8952915001
 11
125.8687814925
 21
196.8269996162
  0
LINE
  5
24D
100
AcDbEntity
  8
0
100
AcDbLine
 62
7
  6
CONTINUOUS
 10
125.9773265165
 20
199.5307043409
 11
125.8687814925
 21
199.4713435592
  0
LWPOLYLINE
  5
24E
100
AcDbEntity
  8
0
100
AcDbPolyline
 62
7
  6
CONTINUOUS
 90
15
 70
0
 10
138.2956614397
 20
179.7564116873
 10
138.2955025154
 20
179.7662351607
 10
138.2936441861
 20
179.7911466066
 10
138.2897046565
 20
179.8158961144
 10
138.2836514201
 20
179.8405143286
 10
138.2754701016
 20
179.8648536147
 10
138.2651762395
 20
179.8887454424
 10
138.2527103729
 20
179.9121956064
 10
138.238019965
 20
179.9351267717
 10
138.2211496929
 20
179.9573243946
 10
138.2021534058
 20
179.9786289334
 10
138.1810177108
 20
179.9989698915
 10
138.1577847971
 20
180.0182226331
 10
138.1325951392
 20
180.0362205424
 10
138.1078056559
 20
180.0515652715
  0
LINE
  5
24F
100
AcDbEntity
  8
0
100
AcDbLine
 62
250
  6
CONTINUOUS
 10
138.1613373169
 20
179.5610597399
 11
138.1613384563
 21
178.9721916074
  0
LINE
  5
250
100
AcDbEntity
  8
0
100
AcDbLine
 62
7
  6
CONTINUOUS
 10
138.2956616055
 20
179.7565122346
 11
138.2956616055
 21
179.1748297726
  0
LWPOLYLINE
  5
251
100
AcDbEntity
  8
0
100
AcDbPolyline
 62
250
  6
CONTINUOUS
 90
10
 70
0
 10
138.1613384563
 20
178.9721916074
 10
138.1611970209
 20
178.9585349056
 10
138.1599451604
 20
178.9455804451
 10
138.1575923896
 20
178.9334266643
 10
138.1541565887
 20
178.9221659161
 10
138.1496638681
 20
178.9118837693
 10
138.1441483711
 20
178.9026583577
 10
138.1376520124
 20
178.894559781
 10
138.1302241593
 20
178.8876495761
 10
138.1253826495
 20
178.8841219753
  0
LINE
  5
252
100
AcDbEntity
  8
0
100
AcDbLine
 62
250
  6
CONTINUOUS
 10
123.8174817628
 20
184.8020965114
 11
125.8687814925
 21
185.9864876995
  0
LINE
  5
253
100
AcDbEntity
  8
0
100
AcDbLine
 62
250
  6
CONTINUOUS
 10
124.4317718618
 20
183.8521728339
 11
126.4336916653
 21
185.0080345796
  0
LWPOLYLINE
  5
254
100
AcDbEntity
  8
RACCORDO
100
AcDbPolyline
 62
250
  6
CONTINUOUS
 90
25
 70
0
 10
323.2620617031
 20
52.9635164446
 10
323.2846541362
 20
52.9585962932
 10
323.3065946857
 20
52.9552685103
 10
323.3277024954
 20
52.9535662203
 10
323.3479695604
 20
52.9535023507
 10
323.367404622
 20
52.9550645552
 10
323.3858519452
 20
52.9582480482
 10
323.4033059463
 20
52.9630651197
 10
323.4197730855
 20
52.9695041712
 10
323.4351156512
 20
52.9775245507
 10
323.4493264526
 20
52.987139572
 10
323.4624136172
 20
52.9983366594
 10
323.4742623123
 20
53.0110362486
 10
323.4848633991
 20
53.025251132
 10
323.4942269225
 20
53.0409692299
 10
323.5022666704
 20
53.0580735482
 10
323.5089722538
 20
53.0765831359
 10
323.5143548525
 20
53.0964795649
 10
323.5183603858
 20
53.1175894508
 10
323.5209755719
 20
53.1399161319
 10
323.5222142515
 20
53.1634567071
 10
323.5220627648
 20
53.1880282269
 10
323.5205166033
 20
53.2135697421
 10
323.517580558
 20
53.2401424209
 10
323.5132547869
 20
53.2677463859
  0
LWPOLYLINE
  5
255
100
AcDbEntity
  8
RACCORDO
100
AcDbPolyline
 62
250
  6
CONTINUOUS
 90
13
 70
0
 10
123.8963516056
 20
184.4735804066
 10
123.8850278009
 20
184.5017600023
 10
123.8745118214
 20
184.529961042
 10
123.8648222406
 20
184.5581379772
 10
123.8559705106
 20
184.5862611409
 10
123.8479800196
 20
184.6142682919
 10
123.8408813002
 20
184.64206602
 10
123.8346894519
 20
184.6695876815
 10
123.8294060294
 20
184.6968124115
 10
123.8250367352
 20
184.723716763
 10
123.8215887711
 20
184.7502639043
 10
123.819068888
 20
184.7764045208
 10
123.8174818744
 20
184.8020965757
  0
LWPOLYLINE
  5
256
100
AcDbEntity
  8
RACCORDO
100
AcDbPolyline
 62
250
  6
CONTINUOUS
 90
13
 70
0
 10
123.2551278948
 20
184.256708061
 10
123.2372193633
 20
184.3028836847
 10
123.2206228586
 20
184.3489399532
 10
123.2053385622
 20
184.3948769814
 10
123.1913342961
 20
184.4408013215
 10
123.1786426286
 20
184.4866066684
 10
123.1673607857
 20
184.5319738028
 10
123.1575096298
 20
184.5768558529
 10
123.1490685185
 20
184.6212998292
 10
123.1420722934
 20
184.6651272556
 10
123.1365325908
 20
184.708278654
 10
123.1324378964
 20
184.7508135787
 10
123.129788277
 20
184.7927320718
  0
LWPOLYLINE
  5
257
100
AcDbEntity
  8
RACCORDO
100
AcDbPolyline
 62
250
  6
CONTINUOUS
 90
25
 70
0
 10
155.2694673543
 20
165.23062877
 10
155.2689621203
 20
165.257082591
 10
155.2699750456
 20
165.2843937604
 10
155.2725017805
 20
165.3124449969
 10
155.2765314745
 20
165.3411158412
 10
155.282046823
 20
165.3702831732
 10
155.2890241418
 20
165.3998217407
 10
155.2974334683
 20
165.4296046975
 10
155.3072386907
 20
165.4595041478
 10
155.3183977029
 20
165.4893916954
 10
155.3308625851
 20
165.5191389956
 10
155.3445798098
 20
165.5486183055
 10
155.3594904718
 20
165.5777030334
 10
155.3755305408
 20
165.6062682819
 10
155.3926311364
 20
165.6341913842
 10
155.4107188244
 20
165.6613524313
 10
155.4297159313
 20
165.6876347867
 10
155.4495408788
 20
165.7129255869
 10
155.4701085333
 20
165.7371162267
 10
155.4913305719
 20
165.7601028252
 10
155.5131158616
 20
165.7817866719
 10
155.5353708508
 20
165.8020746507
 10
155.5579999706
 20
165.8208796398
 10
155.5809060458
 20
165.8381208855
 10
155.6039907117
 20
165.8537243496
  0
LINE
  5
258
100
AcDbEntity
  8
0
100
AcDbLine
 62
7
  6
CONTINUOUS
 10
154.1277407694
 20
169.1437027827
 11
154.1277407694
 21
169.0178377148
  0
LWPOLYLINE
  5
259
100
AcDbEntity
  8
RACCORDO
100
AcDbPolyline
 62
250
  6
CONTINUOUS
 90
14
 70
0
 10
155.2694673543
 20
203.388490633
 10
155.2689621216
 20
203.3614532225
 10
155.2699750653
 20
203.3353116227
 10
155.2725018325
 20
203.3101780919
 10
155.27653157
 20
203.2861605593
 10
155.2820469702
 20
203.2633621609
 10
155.2890243458
 20
203.2418807972
 10
155.2974337314
 20
203.221808713
 10
155.3072390123
 20
203.2032321007
 10
155.31839808
 20
203.1862307301
 10
155.3308630123
 20
203.1708776072
 10
155.3445802793
 20
203.1572386597
 10
155.3594909747
 20
203.1453724531
 10
155.3724821851
 20
203.1370479019
  0
LWPOLYLINE
  5
25A
100
AcDbEntity
  8
RACCORDO
100
AcDbPolyline
 62
7
  6
CONTINUOUS
 90
12
 70
0
 10
155.8873983123
 20
198.9581753997
 10
155.7960371808
 20
195.8868161041
 10
155.7249666702
 20
192.8276124269
 10
155.6741936845
 20
189.7807951861
 10
155.6437211313
 20
186.7465663738
 10
155.6335510298
 20
183.72511672
 10
155.6436850353
 20
180.7166448762
 10
155.6741226112
 20
177.7213481864
 10
155.7248628372
 20
174.7394155904
 10
155.795903935
 20
171.7710459033
 10
155.887240132
 20
168.8164616038
 10
155.9964302269
 20
165.9346372468
  0
LWPOLYLINE
  5
25B
100
AcDbEntity
  8
RACCORDO
100
AcDbPolyline
 62
250
  6
CONTINUOUS
 90
13
 70
0
 10
156.142875042
 20
201.7705205241
 10
156.0320117217
 20
198.6980173214
 10
155.9412947873
 20
195.6374278978
 10
155.8707306416
 20
192.5889567199
 10
155.8203243766
 20
189.552807399
 10
155.7900794396
 20
186.5291829416
 10
155.7799976311
 20
183.518285735
 10
155.7900794392
 20
180.5203172232
 10
155.8203243758
 20
177.5354777706
 10
155.8707306406
 20
174.5639669099
 10
155.9412947863
 20
171.6059834084
 10
156.032011721
 20
168.6617252558
 10
156.142875042
 20
165.7313895248
  0
LWPOLYLINE
  5
25C
100
AcDbEntity
  8
RACCORDO
100
AcDbPolyline
 62
7
  6
CONTINUOUS
 90
4
 70
0
 10
155.982574925
 20
165.7974919029
 10
155.9808144067
 20
165.7929491845
 10
155.9795667076
 20
165.7901680341
 10
155.9790629678
 20
165.7891749576
  0
LWPOLYLINE
  5
25D
100
AcDbEntity
  8
0
100
AcDbPolyline
 62
250
  6
CONTINUOUS
 90
12
 70
0
 10
138.1613384563
 20
178.9721916074
 10
138.1823660058
 20
178.9866240054
 10
138.2018193697
 20
179.0017988835
 10
138.2196180517
 20
179.0176569624
 10
138.2356867498
 20
179.0341365687
 10
138.249960464
 20
179.0511722979
 10
138.2623829983
 20
179.0686957887
 10
138.2729034157
 20
179.0866432221
 10
138.2814717344
 20
179.1049387896
 10
138.2880465312
 20
179.1234931342
 10
138.2926005088
 20
179.1422276757
 10
138.295117058
 20
179.1610715728
  0
LWPOLYLINE
  5
25E
100
AcDbEntity
  8
0
100
AcDbPolyline
 62
7
  6
CONTINUOUS
 90
15
 70
0
 10
138.125381302
 20
178.8841240135
 10
138.1350145302
 20
178.8906635997
 10
138.1590099063
 20
178.9085994747
 10
138.1810095066
 20
178.9274855937
 10
138.2010009276
 20
178.9471989214
 10
138.2190271055
 20
178.9676750446
 10
138.2351552358
 20
178.9888986266
 10
138.2493694914
 20
179.01076066
 10
138.2616657577
 20
179.0331622097
 10
138.2720771384
 20
179.0560863503
 10
138.2805820545
 20
179.079400041
 10
138.2871818521
 20
179.1029909337
 10
138.291901412
 20
179.1268593162
 10
138.2947258363
 20
179.1508723095
 10
138.2956593504
 20
179.1747711251
  0
LINE
  5
25F
100
AcDbEntity
  8
0
100
AcDbLine
 62
250
  6
CONTINUOUS
 10
137.5673553622
 20
178.5795966986
 11
138.1613384563
 21
178.9721916074
  0
LINE
  5
260
100
AcDbEntity
  8
0
100
AcDbLine
 62
7
  6
CONTINUOUS
 10
137.6192833674
 20
178.5496141192
 11
138.1253468894
 21
178.8840983229
  0
LWPOLYLINE
  5
261
100
AcDbEntity
  8
0
100
AcDbPolyline
 62
250
  6
CONTINUOUS
 90
15
 70
0
 10
138.1613373169
 20
179.5610597351
 10
138.1801233119
 20
179.5732534848
 10
138.1976706486
 20
179.5860479804
 10
138.2139217543
 20
179.59940185
 10
138.2288243832
 20
179.6132726766
 10
138.2423279689
 20
179.6276147908
 10
138.2543849897
 20
179.6423790404
 10
138.2649555889
 20
179.6575157545
 10
138.2740069427
 20
179.6729769359
 10
138.281510174
 20
179.6887138563
 10
138.2874410344
 20
179.7046755297
 10
138.2917801542
 20
179.7208096915
 10
138.2945134321
 20
179.7370646559
 10
138.2956320063
 20
179.7533876019
 10
138.2956615808
 20
179.7564219966
  0
LWPOLYLINE
  5
262
100
AcDbEntity
  8
0
100
AcDbPolyline
 62
250
  6
CONTINUOUS
 90
18
 70
0
 10
138.0163018345
 20
179.8038162968
 10
138.0276307603
 20
179.8111293751
 10
138.0381514794
 20
179.8187530003
 10
138.0478639916
 20
179.8266871725
 10
138.0567958714
 20
179.8349607309
 10
138.0649195444
 20
179.8435448362
 10
138.0721522878
 20
179.8523529704
 10
138.0784836536
 20
179.8613860278
 10
138.0839240897
 20
179.8706431141
 10
138.0884222168
 20
179.8800350288
 10
138.0919690426
 20
179.8895630947
 10
138.0945735595
 20
179.899225989
 10
138.0962113647
 20
179.9089305424
 10
138.096873174
 20
179.9186771472
 10
138.0965682716
 20
179.9284654112
 10
138.0953001079
 20
179.9382009884
 10
138.0930596196
 20
179.9478831586
 10
138.08985587
 20
179.957512642
  0
LINE
  5
263
100
AcDbEntity
  8
0
100
AcDbLine
 62
250
  6
CONTINUOUS
 10
136.7656378822
 20
179.0424983236
 11
138.0163018345
 21
179.8038162968
  0
LINE
  5
264
100
AcDbEntity
  8
0
100
AcDbLine
 62
250
  6
CONTINUOUS
 10
137.0447366017
 20
178.8813502209
 11
138.1613373169
 21
179.5610597399
  0
LINE
  5
265
100
AcDbEntity
  8
0
100
AcDbLine
 62
7
  6
CONTINUOUS
 10
135.917688189
 20
180.9736545542
 11
134.6143744143
 21
180.2846108883
  0
LINE
  5
266
100
AcDbEntity
  8
0
100
AcDbLine
 62
250
  6
CONTINUOUS
 10
136.0123995974
 20
180.9608443337
 11
134.6712267082
 21
180.2517850863
  0
LWPOLYLINE
  5
267
100
AcDbEntity
  8
0
100
AcDbPolyline
 62
250
  6
CONTINUOUS
 90
10
 70
0
 10
136.4291311397
 20
180.9545814049
 10
136.4413833457
 20
180.9609176946
 10
136.4535340583
 20
180.9659719905
 10
136.465491828
 20
180.9697062502
 10
136.4771666568
 20
180.9720923657
 10
136.4884706761
 20
180.9731123757
 10
136.4993188071
 20
180.9727586005
 10
136.5096294028
 20
180.9710337001
 10
136.5193248612
 20
180.9679506539
 10
136.5279018555
 20
180.9637832924
  0
LWPOLYLINE
  5
268
100
AcDbEntity
  8
0
100
AcDbPolyline
 62
250
  6
CONTINUOUS
 90
11
 70
0
 10
138.08985587
 20
179.957512642
 10
138.0857194996
 20
179.9669972538
 10
138.0806405796
 20
179.9763365273
 10
138.0746290388
 20
179.9855309291
 10
138.0677453043
 20
179.994489674
 10
138.0599806268
 20
180.0032100143
 10
138.0513437555
 20
180.0116946977
 10
138.0419213656
 20
180.019861182
 10
138.0317423485
 20
180.0276819531
 10
138.0207778128
 20
180.0351845252
 10
138.0090277584
 20
180.0423688981
  0
LWPOLYLINE
  5
269
100
AcDbEntity
  8
RACCORDO
100
AcDbPolyline
 62
7
  6
CONTINUOUS
 90
11
 70
0
 10
155.9964293742
 20
165.9346389567
 10
155.9969666432
 20
165.9138599877
 10
155.9968203144
 20
165.893517839
 10
155.9960456676
 20
165.8751873896
 10
155.994776273
 20
165.8589365415
 10
155.9931322001
 20
165.844618589
 10
155.9911938311
 20
165.8319487694
 10
155.9890543142
 20
165.8208835886
 10
155.9868304023
 20
165.8114718444
 10
155.9846306846
 20
165.803679121
 10
155.982574925
 20
165.7974919029
  0
LWPOLYLINE
  5
26A
100
AcDbEntity
  8
RACCORDO
100
AcDbPolyline
 62
250
  6
CONTINUOUS
 90
10
 70
0
 10
156.142875042
 20
165.7313895248
 10
156.1438419637
 20
165.6770649794
 10
156.1422278495
 20
165.6246550389
 10
156.138032526
 20
165.5741595947
 10
156.1312203681
 20
165.5254143164
 10
156.121826708
 20
165.478583351
 10
156.1099575835
 20
165.4341591633
 10
156.0956479833
 20
165.3923056818
 10
156.0788620988
 20
165.3528584595
 10
156.0595995566
 20
165.31581726
  0
LINE
  5
26B
100
AcDbEntity
  8
RACCORDO
100
AcDbLine
 62
7
  6
CONTINUOUS
 10
155.9790302684
 20
165.7891153414
 11
155.9790628797
 21
165.7891721515
  0
LWPOLYLINE
  5
26C
100
AcDbEntity
  8
RACCORDO
100
AcDbPolyline
 62
250
  6
CONTINUOUS
 90
22
 70
0
 10
156.0595995566
 20
165.31581726
 10
156.0387366495
 20
165.2824153574
 10
156.0157451954
 20
165.2517114511
 10
155.990623845
 20
165.2237046881
 10
155.9632897606
 20
165.1982979004
 10
155.9338232956
 20
165.1755866833
 10
155.9024675932
 20
165.1558591398
 10
155.8692005728
 20
165.1391580299
 10
155.8340413611
 20
165.1254387157
 10
155.7972944224
 20
165.114857889
 10
155.758937354
 20
165.1074536044
 10
155.7189896661
 20
165.1031859632
 10
155.677818461
 20
165.1020945782
 10
155.635397393
 20
165.1042225015
 10
155.5917503244
 20
165.1095250946
 10
155.5473196461
 20
165.1179104195
 10
155.5020912834
 20
165.1294259601
 10
155.4560775203
 20
165.144023087
 10
155.4097604252
 20
165.1614657807
 10
155.3633003813
 20
165.1816751719
 10
155.3165360991
 20
165.2047295495
 10
155.2694673543
 20
165.23062877
  0
LWPOLYLINE
  5
26D
100
AcDbEntity
  8
RACCORDO
100
AcDbPolyline
 62
250
  6
CONTINUOUS
 90
22
 70
0
 10
173.459709359
 20
192.2842265124
 10
173.4847689331
 20
192.320051518
 10
173.5118506525
 20
192.3531170922
 10
173.5409531679
 20
192.38342253
 10
173.5721702724
 20
192.4110713248
 10
173.6054056885
 20
192.435958687
 10
173.6403726676
 20
192.4577713364
 10
173.6770872112
 20
192.476463003
 10
173.7155303638
 20
192.4920784233
 10
173.7553624502
 20
192.5044405756
 10
173.7966002557
 20
192.5135081618
 10
173.8392241025
 20
192.5193209835
 10
173.8828393892
 20
192.5218235504
 10
173.9274669494
 20
192.5209696281
 10
173.9730834662
 20
192.5168041697
 10
174.0192280893
 20
192.509408455
 10
174.0659089255
 20
192.4987315543
 10
174.1131160773
 20
192.4848234752
 10
174.1603618277
 20
192.4679169755
 10
174.2074832979
 20
192.4480894837
 10
174.2546424603
 20
192.425263105
 10
174.3018390906
 20
192.3994377241
  0
LWPOLYLINE
  5
26E
100
AcDbEntity
  8
RACCORDO
100
AcDbPolyline
 62
250
  6
CONTINUOUS
 90
8
 70
0
 10
174.1009330698
 20
192.0848467433
 10
174.1167901226
 20
192.1069519006
 10
174.1339991688
 20
192.1274986266
 10
174.1525280633
 20
192.1464192924
 10
174.1723542319
 20
192.163658858
 10
174.1934254788
 20
192.1791470288
 10
174.215655959
 20
192.1928058587
 10
174.2364847646
 20
192.2034384133
  0
LWPOLYLINE
  5
26F
100
AcDbEntity
  8
0
100
AcDbPolyline
 62
250
  6
CONTINUOUS
 90
10
 70
0
 10
177.5607447112
 20
187.8767565604
 10
177.5723577867
 20
187.8841998553
 10
177.5828098456
 20
187.892196305
 10
177.5920222205
 20
187.9006857271
 10
177.5999255739
 20
187.9096042288
 10
177.6064604203
 20
187.9188846879
 10
177.6115775735
 20
187.9284572572
 10
177.6152385174
 20
187.9382498912
 10
177.6174156957
 20
187.9481888879
 10
177.6180946214
 20
187.9576958028
  0
LWPOLYLINE
  5
270
100
AcDbEntity
  8
0
100
AcDbPolyline
 62
250
  6
CONTINUOUS
 90
10
 70
0
 10
138.0090277584
 20
180.0423688981
 10
138.0212800272
 20
180.0487052176
 10
138.0334307931
 20
180.0537595269
 10
138.0453886053
 20
180.0574937855
 10
138.0570634655
 20
180.0598798881
 10
138.0683675047
 20
180.0608998763
 10
138.079215645
 20
180.0605460731
 10
138.0895262398
 20
180.0588211415
 10
138.0992216882
 20
180.0557380638
 10
138.1077984719
 20
180.0515707868
  0
LINE
  5
271
100
AcDbEntity
  8
RACCORDO
100
AcDbLine
 62
7
  6
CONTINUOUS
 10
174.2364847646
 20
192.2034384133
 11
174.2369591654
 21
192.2036582452
  0
LINE
  5
272
100
AcDbEntity
  8
0
100
AcDbLine
 62
250
  6
CONTINUOUS
 10
174.0220633119
 20
191.8137061119
 11
174.5561336403
 21
192.0606479793
  0
LWPOLYLINE
  5
273
100
AcDbEntity
  8
RACCORDO
100
AcDbPolyline
 62
7
  6
CONTINUOUS
 90
16
 70
0
 10
174.2355984993
 20
192.2030932504
 10
174.2353514362
 20
192.2030098172
 10
174.2354673149
 20
192.203019883
 10
174.2370249592
 20
192.2032892761
 10
174.2408190688
 20
192.2036681965
 10
174.2471877305
 20
192.2038105186
 10
174.2559795689
 20
192.20336282
 10
174.2671756555
 20
192.2020208861
 10
174.2807621961
 20
192.1994974805
 10
174.2965241189
 20
192.195575013
 10
174.3141139893
 20
192.1901302789
 10
174.3333558325
 20
192.1830448058
 10
174.3540683705
 20
192.1742338104
 10
174.3759490781
 20
192.1637023505
 10
174.39880497
 20
192.1514450691
 10
174.4047756445
 20
192.1480398042
  0
LWPOLYLINE
  5
274
100
AcDbEntity
  8
RACCORDO
100
AcDbPolyline
 62
250
  6
CONTINUOUS
 90
14
 70
0
 10
256.3495217366
 20
107.8057757418
 10
256.3276138555
 20
107.7998527693
 10
256.3047573755
 20
107.7958820018
 10
256.2810176927
 20
107.7938808573
 10
256.2564706007
 20
107.7938466773
 10
256.2311849957
 20
107.7957816291
 10
256.2052420835
 20
107.7996816129
 10
256.1787456873
 20
107.8055102222
 10
256.1517754006
 20
107.8132437634
 10
256.1244166487
 20
107.8228523623
 10
256.096789081
 20
107.8342613165
 10
256.0689898439
 20
107.84740599
 10
256.0410902818
 20
107.8622448834
 10
256.0131722107
 20
107.8787206179
  0
LWPOLYLINE
  5
275
100
AcDbEntity
  8
RACCORDO
100
AcDbPolyline
 62
250
  6
CONTINUOUS
 90
22
 70
0
 10
273.8688735455
 20
97.2942204818
 10
273.8919207535
 20
97.2950310147
 10
273.9167044274
 20
97.2970180908
 10
273.9430941777
 20
97.3001712558
 10
273.9709511654
 20
97.3044739205
 10
274.0001288322
 20
97.3099034484
 10
274.0304736714
 20
97.316431274
 10
274.061826036
 20
97.3240230539
 10
274.094020978
 20
97.332638847
 10
274.1268891168
 20
97.3422333247
 10
274.1602575297
 20
97.3527560096
 10
274.1939506623
 20
97.3641515408
 10
274.2277912518
 20
97.3763599653
 10
274.2616012594
 20
97.3893170533
 10
274.2952028075
 20
97.4029546364
 10
274.3284191148
 20
97.4172009659
 10
274.3610754273
 20
97.4319810905
 10
274.3929999369
 20
97.4472172504
 10
274.4240246855
 20
97.4628292869
 10
274.4539864489
 20
97.4787350633
 10
274.4827275953
 20
97.4948508979
 10
274.5100969148
 20
97.5110920037
  0
LWPOLYLINE
  5
276
100
AcDbEntity
  8
RACCORDO
100
AcDbPolyline
 62
250
  6
CONTINUOUS
 90
4
 70
0
 10
156.0070013871
 20
165.8799922494
 10
156.0008380606
 20
165.9014441999
 10
155.9972626709
 20
165.9231776506
 10
155.9964294463
 20
165.934637215
  0
LWPOLYLINE
  5
277
100
AcDbEntity
  8
RACCORDO
100
AcDbPolyline
 62
250
  6
CONTINUOUS
 90
13
 70
0
 10
173.3343697413
 20
155.8052359455
 10
173.2112570111
 20
158.7426443107
 10
173.1105176494
 20
161.6926892697
 10
173.0321580589
 20
164.6551737497
 10
172.9761831083
 20
167.6298998905
 10
172.9425964683
 20
170.6166687955
 10
172.9314006098
 20
173.615280544
 10
172.9425964677
 20
176.6255345133
 10
172.9761831073
 20
179.6472295179
 10
173.0321580576
 20
182.6801635584
 10
173.1105176481
 20
185.7241337578
 10
173.2112570103
 20
188.7789363755
 10
173.3343697413
 20
191.8443669447
  0
LWPOLYLINE
  5
278
100
AcDbEntity
  8
RACCORDO
100
AcDbPolyline
 62
250
  6
CONTINUOUS
 90
13
 70
0
 10
174.0220632271
 20
155.8146003851
 10
173.8990722037
 20
158.7490756352
 10
173.7984413281
 20
161.6957794605
 10
173.7201706003
 20
164.654711861
 10
173.6642577449
 20
167.6260729683
 10
173.6307050374
 20
170.6096626507
 10
173.6195193036
 20
173.6048805137
 10
173.6307051035
 20
176.6117291137
 10
173.6642578771
 20
179.6302058942
 10
173.7201707702
 20
182.6597027907
 10
173.798441498
 20
185.7000171151
 10
173.8990723452
 20
188.7513515555
 10
174.0220633119
 20
191.8137061119
  0
LWPOLYLINE
  5
279
100
AcDbEntity
  8
RACCORDO
100
AcDbPolyline
 62
250
  6
CONTINUOUS
 90
25
 70
0
 10
174.3018390906
 20
154.2415758612
 10
174.3013338583
 20
154.2680298418
 10
174.3023468023
 20
154.2953411637
 10
174.3048735699
 20
154.3233925423
 10
174.3089033077
 20
154.352063515
 10
174.3144187082
 20
154.3812309593
 10
174.321396084
 20
154.4107696216
 10
174.3298054699
 20
154.4405526537
 10
174.3396107509
 20
154.4704521587
 10
174.3507698188
 20
154.5003397411
 10
174.3632347512
 20
154.5300870553
 10
174.3769520183
 20
154.5595663591
 10
174.3918627136
 20
154.5886510629
 10
174.407902805
 20
154.6172162699
 10
174.4250034109
 20
154.645139315
 10
174.4430910968
 20
154.6723002926
 10
174.4620881887
 20
154.6985825678
 10
174.4819131075
 20
154.7238732793
 10
174.5024807214
 20
154.7480638262
 10
174.5237027073
 20
154.7710503296
 10
174.5454879327
 20
154.7927340811
 10
174.5677428487
 20
154.813021969
 10
174.5903718881
 20
154.8318268739
 10
174.6132778758
 20
154.8490680433
 10
174.6363624479
 20
154.8646714407
  0
LINE
  5
27A
100
AcDbEntity
  8
0
100
AcDbLine
 62
7
  6
CONTINUOUS
 10
176.0733629568
 20
156.9989915732
 11
176.0733629568
 21
191.1846187873
  0
LINE
  5
27B
100
AcDbEntity
  8
0
100
AcDbLine
 62
7
  6
CONTINUOUS
 10
176.1819079807
 20
170.5432082146
 11
176.1819079807
 21
167.9076947811
  0
LWPOLYLINE
  5
27C
100
AcDbEntity
  8
RACCORDO
100
AcDbPolyline
 62
250
  6
CONTINUOUS
 90
14
 70
0
 10
174.3018390906
 20
192.3994377241
 10
174.3013338566
 20
192.3724004716
 10
174.3023467819
 20
192.346259003
 10
174.3048735168
 20
192.3211255766
 10
174.3089032108
 20
192.2971081219
 10
174.3144185593
 20
192.2743097762
 10
174.3213958781
 20
192.2528284414
 10
174.3298052046
 20
192.232756364
 10
174.339610427
 20
192.2141797389
 10
174.3507694392
 20
192.1971783387
 10
174.3632343213
 20
192.1818251721
 10
174.3769515461
 20
192.1681861695
 10
174.3918622081
 20
192.1563199003
 10
174.4047758234
 20
192.148040114
  0
LWPOLYLINE
  5
27D
100
AcDbEntity
  8
RACCORDO
100
AcDbPolyline
 62
250
  6
CONTINUOUS
 90
10
 70
0
 10
174.0220634763
 20
191.8137061879
 10
174.0243809909
 20
191.8486487217
 10
174.0283515133
 20
191.8826111376
 10
174.0339662302
 20
191.9154961086
 10
174.0412173956
 20
191.9472235885
 10
174.0500836592
 20
191.9776870554
 10
174.0605238384
 20
192.006759788
 10
174.0724996924
 20
192.0343516708
 10
174.0859822936
 20
192.0604033814
 10
174.1009330698
 20
192.0848467433
  0
LWPOLYLINE
  5
27E
100
AcDbEntity
  8
RACCORDO
100
AcDbPolyline
 62
250
  6
CONTINUOUS
 90
10
 70
0
 10
173.3343697413
 20
191.8443669447
 10
173.3382188296
 20
191.9014664708
 10
173.3446269334
 20
191.956640615
 10
173.3535938798
 20
192.0098892862
 10
173.3651716855
 20
192.0613869545
 10
173.3793080431
 20
192.110958996
 10
173.3958460682
 20
192.1580815614
 10
173.4147331086
 20
192.2025798477
 10
173.4360209967
 20
192.2446282297
 10
173.459709359
 20
192.2842265124
  0
LINE
  5
27F
100
AcDbEntity
  8
0
100
AcDbLine
 62
250
  6
CONTINUOUS
 10
155.6040098725
 20
165.8537132863
 11
155.9892052114
 21
166.125325108
  0
LWPOLYLINE
  5
280
100
AcDbEntity
  8
0
100
AcDbPolyline
 62
250
  6
CONTINUOUS
 90
28
 70
0
 10
177.3578026187
 20
185.6884765958
 10
177.369799975
 20
185.6964194565
 10
177.3816621522
 20
185.7050586385
 10
177.3933891503
 20
185.7143941417
 10
177.4050197304
 20
185.7244620515
 10
177.4165151315
 20
185.7352262826
 10
177.4277590702
 20
185.7465785792
 10
177.4387470969
 20
185.7585232079
 10
177.4494836613
 20
185.7710559022
 10
177.4598658287
 20
185.7840556072
 10
177.4698902486
 20
185.7975268345
 10
177.4795602716
 20
185.8114650724
 10
177.4887830147
 20
185.8257357315
 10
177.4975541755
 20
185.8403419923
 10
177.5058780563
 20
185.8552806743
 10
177.5136746819
 20
185.8704076458
 10
177.5209388967
 20
185.8857243376
 10
177.5276758561
 20
185.901229319
 10
177.5338210513
 20
185.916774166
 10
177.5393691136
 20
185.9323609355
 10
177.5443254115
 20
185.9479875706
 10
177.5486415415
 20
185.9634994766
 10
177.5523107493
 20
185.9788949202
 10
177.555339789
 20
185.9941756348
 10
177.5577005193
 20
186.0091922251
 10
177.5593835595
 20
186.0238948929
 10
177.5603982901
 20
186.0383334365
 10
177.5607447112
 20
186.0525078559
  0
LWPOLYLINE
  5
281
100
AcDbEntity
  8
0
100
AcDbPolyline
 62
7
  6
CONTINUOUS
 90
22
 70
0
 10
177.3215219474
 20
185.6000475287
 10
177.3382923722
 20
185.6110539315
 10
177.3623851993
 20
185.6285681552
 10
177.3857160051
 20
185.6475530611
 10
177.4082912572
 20
185.6679641606
 10
177.430068901
 20
185.6897255247
 10
177.4509483222
 20
185.7127074072
 10
177.4708999723
 20
185.7368433758
 10
177.4898845017
 20
185.7620701445
 10
177.507784124
 20
185.7882170333
 10
177.5245601568
 20
185.8152072609
 10
177.5401680135
 20
185.8429747111
 10
177.5545042361
 20
185.8713326253
 10
177.5675307181
 20
185.90021063
 10
177.5792019177
 20
185.9295370481
 10
177.5894330745
 20
185.9591244733
 10
177.5981853303
 20
185.9889084327
 10
177.6054198936
 20
186.0188292118
 10
177.6110722303
 20
186.0487338775
 10
177.6150973263
 20
186.0785508999
 10
177.6174525733
 20
186.1082652169
 10
177.6180934352
 20
186.1334658797
  0
LWPOLYLINE
  5
282
100
AcDbEntity
  8
0
100
AcDbPolyline
 62
250
  6
CONTINUOUS
 90
10
 70
0
 10
177.5607447112
 20
186.0525078559
 10
177.5723578441
 20
186.0599511915
 10
177.5828099411
 20
186.0679476816
 10
177.5920223363
 20
186.0764371418
 10
177.5999256943
 20
186.0853556778
 10
177.6064605317
 20
186.0946361657
 10
177.6115776653
 20
186.1042087575
 10
177.6152385817
 20
186.1140014066
 10
177.6174157278
 20
186.1239404105
 10
177.6180946214
 20
186.1334471008
  0
LINE
  5
283
100
AcDbEntity
  8
0
100
AcDbLine
 62
250
  6
CONTINUOUS
 10
176.0733629568
 20
184.8815524663
 11
177.3578026187
 21
185.6884765958
  0
LINE
  5
284
100
AcDbEntity
  8
0
100
AcDbLine
 62
7
  6
CONTINUOUS
 10
176.0733629568
 20
184.8159162512
 11
177.3215454469
 21
185.6000625208
  0
LWPOLYLINE
  5
285
100
AcDbEntity
  8
RACCORDO
100
AcDbPolyline
 62
250
  6
CONTINUOUS
 90
4
 70
0
 10
156.0010745055
 20
165.8109002613
 10
155.9810739326
 20
165.7983722952
 10
155.9612540415
 20
165.7886193918
 10
155.9403588081
 20
165.7807679943
  0
LINE
  5
286
100
AcDbEntity
  8
0
100
AcDbLine
 62
7
  6
CONTINUOUS
 10
154.1277407694
 20
169.1437027827
 11
154.0216256833
 21
169.0791072356
  0
LINE
  5
287
100
AcDbEntity
  8
0
100
AcDbLine
 62
250
  6
CONTINUOUS
 10
177.2200868949
 20
188.2492919461
 11
176.0733629568
 21
187.6221749503
  0
LINE
  5
288
100
AcDbEntity
  8
0
100
AcDbLine
 62
250
  6
CONTINUOUS
 10
177.3578026187
 20
188.0023090434
 11
176.0733629568
 21
187.2998784798
  0
LINE
  5
289
100
AcDbEntity
  8
0
100
AcDbLine
 62
7
  6
CONTINUOUS
 10
151.8450897618
 20
170.4614919626
 11
151.731462435
 21
170.4014187927
  0
LINE
  5
28A
100
AcDbEntity
  8
0
100
AcDbLine
 62
7
  6
CONTINUOUS
 10
176.6157951279
 20
188.5566351306
 11
176.0733629568
 21
188.2857112285
  0
LINE
  5
28B
100
AcDbEntity
  8
0
100
AcDbLine
 62
250
  6
CONTINUOUS
 10
176.7100962703
 20
188.5437554543
 11
176.0733629568
 21
188.2257317767
  0
LWPOLYLINE
  5
28C
100
AcDbEntity
  8
RACCORDO
100
AcDbPolyline
 62
250
  6
CONTINUOUS
 90
13
 70
0
 10
156.059605815
 20
202.3308091638
 10
156.0742206316
 20
202.2827317476
 10
156.0874718186
 20
202.2347452042
 10
156.0993595571
 20
202.1868496283
 10
156.1099081894
 20
202.1389349616
 10
156.1190937628
 20
202.0911114656
 10
156.1268439427
 20
202.043709676
 10
156.1331415847
 20
201.9967767528
 10
156.1380040543
 20
201.9502656519
 10
156.1414106548
 20
201.904365536
 10
156.1433545093
 20
201.8591394711
 10
156.1438426161
 20
201.8145244553
 10
156.142875042
 20
201.7705205241
  0
LWPOLYLINE
  5
28D
100
AcDbEntity
  8
RACCORDO
100
AcDbPolyline
 62
7
  6
CONTINUOUS
 90
13
 70
0
 10
155.9362196782
 20
202.3626114351
 10
155.9492492212
 20
202.3193702386
 10
155.9597237316
 20
202.2804871619
 10
155.9688343856
 20
202.2423589569
 10
155.9766040324
 20
202.2050862965
 10
155.9830597033
 20
202.168771999
 10
155.9882320781
 20
202.1335329407
 10
155.9921590431
 20
202.0994947467
 10
155.9948902174
 20
202.0667501818
 10
155.9964811819
 20
202.0354003176
 10
155.9969964194
 20
202.0055811516
 10
155.9965133213
 20
201.9773878995
 10
155.8873983123
 20
198.9581753997
  0
LWPOLYLINE
  5
28E
100
AcDbEntity
  8
0
100
AcDbPolyline
 62
250
  6
CONTINUOUS
 90
28
 70
0
 10
177.5607447112
 20
187.8767565604
 10
177.5603982899
 20
187.8905238975
 10
177.5593835592
 20
187.9037700234
 10
177.557700519
 20
187.916494938
 10
177.5553397889
 20
187.9287374167
 10
177.5523107494
 20
187.9404586841
 10
177.5486415417
 20
187.9515424142
 10
177.5443254117
 20
187.9619824034
 10
177.5393691136
 20
187.9717848554
 10
177.5338210512
 20
187.9808520551
 10
177.5276758561
 20
187.9891756371
 10
177.5209388967
 20
187.996763967
 10
177.5136746819
 20
188.0035444255
 10
177.5058780564
 20
188.0095095238
 10
177.4975541755
 20
188.0146667508
 10
177.4887830147
 20
188.0189659547
 10
177.4795602716
 20
188.0223988991
 10
177.4698902486
 20
188.0249738204
 10
177.4598658287
 20
188.0266652766
 10
177.4494836613
 20
188.0274648186
 10
177.4387470969
 20
188.0273808955
 10
177.4277590702
 20
188.0264134114
 10
177.4165151315
 20
188.0245528713
 10
177.4050197304
 20
188.0218087703
 10
177.3933891503
 20
188.018209498
 10
177.3816621522
 20
188.0137645177
 10
177.369799975
 20
188.0084643662
 10
177.3578026187
 20
188.0023090434
  0
LWPOLYLINE
  5
28F
100
AcDbEntity
  8
0
100
AcDbPolyline
 62
7
  6
CONTINUOUS
 90
15
 70
0
 10
177.6180934383
 20
187.9576968021
 10
177.617492577
 20
187.9816591958
 10
177.6148131442
 20
188.0129153886
 10
177.6100153285
 20
188.0431473322
 10
177.6031749363
 20
188.072096519
 10
177.5943802061
 20
188.099655201
 10
177.5836977932
 20
188.1258073553
 10
177.5712506626
 20
188.1504012891
 10
177.5572136712
 20
188.1732794657
 10
177.5416811126
 20
188.1944616715
 10
177.5246767226
 20
188.2140119908
 10
177.5063439459
 20
188.2318294278
 10
177.4868202798
 20
188.2478539131
 10
177.4660854053
 20
188.2621389761
 10
177.4564253091
 20
188.2679587641
  0
LWPOLYLINE
  5
290
100
AcDbEntity
  8
0
100
AcDbPolyline
 62
250
  6
CONTINUOUS
 90
19
 70
0
 10
177.3578026187
 20
188.0023090434
 10
177.3576862937
 20
188.0170879862
 10
177.3564856209
 20
188.0323702539
 10
177.3542097348
 20
188.048039584
 10
177.3508759495
 20
188.0639767698
 10
177.3465096273
 20
188.0800605667
 10
177.3411439855
 20
188.0961686146
 10
177.3348198443
 20
188.1121783692
 10
177.3275853154
 20
188.1279680337
 10
177.3194954367
 20
188.1434174858
 10
177.3106117532
 20
188.1584091915
 10
177.3010018488
 20
188.1728290989
 10
177.2907388325
 20
188.1865675064
 10
177.2799007816
 20
188.199519897
 10
177.2685701484
 20
188.2115877333
 10
177.2568331323
 20
188.2226792075
 10
177.2447790247
 20
188.2327099393
 10
177.2324995288
 20
188.2416036184
 10
177.220088063
 20
188.2492925849
  0
LINE
  5
291
100
AcDbEntity
  8
0
100
AcDbLine
 62
250
  6
CONTINUOUS
 10
177.5607447112
 20
186.0525078559
 11
177.5607447112
 21
187.8767565604
  0
LINE
  5
292
100
AcDbEntity
  8
0
100
AcDbLine
 62
7
  6
CONTINUOUS
 10
177.6180946214
 20
186.1334471008
 11
177.6180946214
 21
187.9576958028
  0
LWPOLYLINE
  5
293
100
AcDbEntity
  8
0
100
AcDbPolyline
 62
250
  6
CONTINUOUS
 90
10
 70
0
 10
177.3578026187
 20
185.6884765958
 10
177.3576862933
 20
185.6748143341
 10
177.356485618
 20
185.6618717713
 10
177.3542097275
 20
185.6497473698
 10
177.3508759365
 20
185.6385333676
 10
177.3465096078
 20
185.6283150769
 10
177.3411439594
 20
185.6191702346
 10
177.3348198118
 20
185.6111684111
 10
177.3275852775
 20
185.6043704811
 10
177.3215454469
 20
185.6000625208
  0
LINE
  5
294
100
AcDbEntity
  8
0
100
AcDbLine
 62
7
  6
CONTINUOUS
 10
176.1820681014
 20
167.9077953738
 11
176.0733629568
 21
167.83950349
  0
LINE
  5
295
100
AcDbEntity
  8
0
100
AcDbLine
 62
7
  6
CONTINUOUS
 10
176.1819079807
 20
170.5432082146
 11
176.0733629568
 21
170.4838474329
  0
LWPOLYLINE
  5
296
100
AcDbEntity
  8
RACCORDO
100
AcDbPolyline
 62
250
  6
CONTINUOUS
 90
11
 70
0
 10
306.6733452657
 20
115.3683441423
 10
306.6509602708
 20
115.3679159639
 10
306.6305507477
 20
115.3684544689
 10
306.6122240729
 20
115.369956824
 10
306.596076665
 20
115.3724151253
 10
306.582193477
 20
115.3758164393
 10
306.5706475498
 20
115.3801428715
 10
306.5614996276
 20
115.38537166
 10
306.5547978386
 20
115.3914752956
 10
306.5505774416
 20
115.3984216665
 10
306.549964071
 20
115.4001230562
  0
LWPOLYLINE
  5
297
100
AcDbEntity
  8
RACCORDO
100
AcDbPolyline
 62
250
  6
CONTINUOUS
 90
19
 70
0
 10
323.5132548348
 20
53.2677464236
 10
323.5318512672
 20
53.2581767485
 10
323.5518016897
 20
53.2498426815
 10
323.5729640601
 20
53.242803559
 10
323.5951877075
 20
53.237109498
 10
323.6183144048
 20
53.2328010387
 10
323.6421794956
 20
53.2299088563
 10
323.6666130662
 20
53.2284535426
 10
323.6914411555
 20
53.2284454589
 10
323.7164869935
 20
53.2298846628
 10
323.7415722599
 20
53.2327609076
 10
323.7665183536
 20
53.237053715
 10
323.7911476645
 20
53.2427325214
 10
323.8152848379
 20
53.2497568949
 10
323.8387580229
 20
53.2580768239
 10
323.8614000961
 20
53.2676330722
 10
323.8830498514
 20
53.2783576019
 10
323.9035531478
 20
53.2901740568
 10
323.9227640069
 20
53.3029983066
  0
LWPOLYLINE
  5
298
100
AcDbEntity
  8
RACCORDO
100
AcDbPolyline
 62
250
  6
CONTINUOUS
 90
7
 70
0
 10
323.1149237782
 20
53.0257581101
 10
323.14059077
 20
53.0115840116
 10
323.1658000217
 20
52.9989299987
 10
323.1905516026
 20
52.9877961263
 10
323.2149107032
 20
52.9781586762
 10
323.2388124108
 20
52.9700415861
 10
323.2620617031
 20
52.9635164446
  0
LWPOLYLINE
  5
299
100
AcDbEntity
  8
RACCORDO
100
AcDbPolyline
 62
7
  6
CONTINUOUS
 90
18
 70
0
 10
323.1734854627
 20
52.9308950872
 10
323.1924731951
 20
52.9201816054
 10
323.2313282797
 20
52.8998369502
 10
323.2699267042
 20
52.8817457716
 10
323.3082560678
 20
52.8659008107
 10
323.3463003034
 20
52.8523063396
 10
323.3840621394
 20
52.8409608036
 10
323.4215494606
 20
52.831868878
 10
323.458756671
 20
52.825051336
 10
323.4956894027
 20
52.8205320059
 10
323.5323005155
 20
52.8183440353
 10
323.568469694
 20
52.8185215513
 10
323.6041650346
 20
52.8210930867
 10
323.6392643243
 20
52.8260757597
 10
323.6734634223
 20
52.833427563
 10
323.7066496793
 20
52.843103726
 10
323.738708545
 20
52.8550483326
 10
323.7553752362
 20
52.8623539998
  0
LINE
  5
29A
100
AcDbEntity
  8
RACCORDO
100
AcDbLine
 62
7
  6
CONTINUOUS
 10
110.5066673593
 20
175.7220485681
 11
323.1735231949
 21
52.9308713503
  0
LINE
  5
29B
100
AcDbEntity
  8
RACCORDO
100
AcDbLine
 62
250
  6
CONTINUOUS
 10
110.4480679681
 20
175.8169353131
 11
323.1149237782
 21
53.0257581101
  0
LINE
  5
29C
100
AcDbEntity
  8
RACCORDO
100
AcDbLine
 62
7
  6
CONTINUOUS
 10
323.1734846229
 20
52.9308936328
 11
323.1735231949
 21
52.9308713503
  0
LWPOLYLINE
  5
29D
100
AcDbEntity
  8
RACCORDO
100
AcDbPolyline
 62
250
  6
CONTINUOUS
 90
10
 70
0
 10
109.867347681
 20
176.6242155577
 10
109.8501789303
 20
176.6352964124
 10
109.8346188061
 20
176.6474658328
 10
109.8207780917
 20
176.6606371762
 10
109.8087553289
 20
176.6747166666
 10
109.7986361161
 20
176.6896040623
 10
109.790492499
 20
176.7051933697
 10
109.7843824577
 20
176.7213735975
 10
109.7803494938
 20
176.7380295474
 10
109.780043998
 20
176.7398246885
  0
LWPOLYLINE
  5
29E
100
AcDbEntity
  8
RACCORDO
100
AcDbPolyline
 62
250
  6
CONTINUOUS
 90
18
 70
0
 10
156.0596018032
 20
165.3158186881
 10
156.0372166823
 20
165.3428611645
 10
156.0168070321
 20
165.3709421952
 10
155.9984802302
 20
165.3999140422
 10
155.9823326964
 20
165.4296242811
 10
155.9684493848
 20
165.4599166027
 10
155.9569033372
 20
165.4906316351
 10
155.9477552988
 20
165.5216077829
 10
155.9410533987
 20
165.5526820766
 10
155.9368328963
 20
165.5836910305
 10
155.9351159964
 20
165.6144715025
 10
155.9359117316
 20
165.6448615529
 10
155.9392159155
 20
165.6747012957
 10
155.9450111645
 20
165.7038337403
 10
155.9532669889
 20
165.7321056172
 10
155.963939954
 20
165.7593681847
 10
155.9769739078
 20
165.785478011
 10
155.9790302684
 20
165.7891153414
  0
LWPOLYLINE
  5
29F
100
AcDbEntity
  8
RACCORDO
100
AcDbPolyline
 62
250
  6
CONTINUOUS
 90
13
 70
0
 10
174.1009330698
 20
155.4860842804
 10
174.0896092652
 20
155.5142638761
 10
174.0790932856
 20
155.5424649157
 10
174.0694037048
 20
155.570641851
 10
174.0605519749
 20
155.5987650146
 10
174.0525614839
 20
155.6267721656
 10
174.0454627644
 20
155.6545698937
 10
174.0392709161
 20
155.6820915553
 10
174.0339874936
 20
155.7093162852
 10
174.0296181995
 20
155.7362206367
 10
174.0261702353
 20
155.7627677781
 10
174.0236503523
 20
155.7889083945
 10
174.0220633386
 20
155.8146004495
  0
LWPOLYLINE
  5
2A0
100
AcDbEntity
  8
RACCORDO
100
AcDbPolyline
 62
250
  6
CONTINUOUS
 90
13
 70
0
 10
173.459709359
 20
155.2692119347
 10
173.4418008276
 20
155.3153875585
 10
173.4252043228
 20
155.3614438269
 10
173.4099200264
 20
155.4073808551
 10
173.3959157604
 20
155.4533051953
 10
173.3832240929
 20
155.4991105421
 10
173.3719422499
 20
155.5444776765
 10
173.362091094
 20
155.5893597266
 10
173.3536499828
 20
155.6338037029
 10
173.3466537577
 20
155.6776311294
 10
173.3411140551
 20
155.7207825277
 10
173.3370193606
 20
155.7633174524
 10
173.3343697413
 20
155.8052359455
  0
LWPOLYLINE
  5
2A1
100
AcDbEntity
  8
RACCORDO
100
AcDbPolyline
 62
250
  6
CONTINUOUS
 90
3
 70
0
 10
156.0155610835
 20
202.4556091325
 10
156.0386466124
 20
202.3934100201
 10
156.0596085729
 20
202.3308075715
  0
LWPOLYLINE
  5
2A2
100
AcDbEntity
  8
0
100
AcDbPolyline
 62
250
  6
CONTINUOUS
 90
19
 70
0
 10
188.3659199206
 20
150.5735643072
 10
188.36546719
 20
150.5881567828
 10
188.3639051263
 20
150.6032373882
 10
188.3612456131
 20
150.6186913954
 10
188.3575088831
 20
150.6344012356
 10
188.352723364
 20
150.6502473938
 10
188.3469254624
 20
150.6661093179
 10
188.3401592869
 20
150.6818663359
 10
188.332476312
 20
150.6973985738
 10
188.3239349873
 20
150.7125878677
 10
188.3146002921
 20
150.7273186627
 10
188.3045432417
 20
150.741478892
 10
188.2938403466
 20
150.7549608294
 10
188.2825730306
 20
150.7676619091
 10
188.2708270118
 20
150.7794855056
 10
188.2586916497
 20
150.7903416691
 10
188.2462592659
 20
150.8001478096
 10
188.2336244418
 20
150.8088293254
 10
188.2208832987
 20
150.8163201705
  0
LWPOLYLINE
  5
2A3
100
AcDbEntity
  8
0
100
AcDbPolyline
 62
7
  6
CONTINUOUS
 90
17
 70
0
 10
188.5002408155
 20
150.7690202279
 10
188.5002220253
 20
150.7723536256
 10
188.4990659472
 20
150.7954723063
 10
188.4960938522
 20
150.8186358314
 10
188.4912777935
 20
150.8417350068
 10
188.4846140401
 20
150.8646139165
 10
188.476123948
 20
150.8871220492
 10
188.4658305454
 20
150.9091500667
 10
188.4537697816
 20
150.9305830897
 10
188.439999913
 20
150.9512999176
 10
188.4245846116
 20
150.9712115377
 10
188.4075641504
 20
150.9902694126
 10
188.3889489379
 20
151.0084486126
 10
188.3687668517
 20
151.0257025622
 10
188.3470444505
 20
151.0419898112
 10
188.323747812
 20
151.0573002205
 10
188.3123757199
 20
151.0640750764
  0
LINE
  5
2A4
100
AcDbEntity
  8
0
100
AcDbLine
 62
250
  6
CONTINUOUS
 10
188.3659199206
 20
150.5735643072
 11
188.3659199206
 21
149.9846954811
  0
LINE
  5
2A5
100
AcDbEntity
  8
0
100
AcDbLine
 62
7
  6
CONTINUOUS
 10
188.5002430698
 20
150.7690161293
 11
188.5002430698
 21
150.1873336464
  0
LWPOLYLINE
  5
2A6
100
AcDbEntity
  8
0
100
AcDbPolyline
 62
250
  6
CONTINUOUS
 90
10
 70
0
 10
188.3659199206
 20
149.9846954811
 10
188.3657784852
 20
149.9710387794
 10
188.3645266246
 20
149.9580843188
 10
188.3621738539
 20
149.945930538
 10
188.3587380529
 20
149.9346697898
 10
188.3542453323
 20
149.9243876431
 10
188.3487298354
 20
149.9151622314
 10
188.3422334766
 20
149.9070636548
 10
188.3348056235
 20
149.9001534499
 10
188.3299641138
 20
149.896625849
  0
LWPOLYLINE
  5
2A7
100
AcDbEntity
  8
0
100
AcDbPolyline
 62
250
  6
CONTINUOUS
 90
13
 70
0
 10
188.5002430698
 20
150.7690159776
 10
188.4996972331
 20
150.755602337
 10
188.49717899
 20
150.7372808259
 10
188.4926234857
 20
150.7190940794
 10
188.4860474228
 20
150.7011133808
 10
188.4774781812
 20
150.6834168319
 10
188.4669572368
 20
150.6660860562
 10
188.4545346388
 20
150.6491968832
 10
188.4402613737
 20
150.6328130468
 10
188.4241936196
 20
150.6169950175
 10
188.4063963732
 20
150.6018055494
 10
188.3869449718
 20
150.5873088985
 10
188.3659199206
 20
150.5735643072
  0
LINE
  5
2A8
100
AcDbEntity
  8
0
100
AcDbLine
 62
250
  6
CONTINUOUS
 10
174.0220632271
 20
155.8146003851
 11
176.0733629568
 21
156.9989915732
  0
LINE
  5
2A9
100
AcDbEntity
  8
0
100
AcDbLine
 62
250
  6
CONTINUOUS
 10
174.636353326
 20
154.8646767076
 11
176.6382731295
 21
156.0205384533
  0
LWPOLYLINE
  5
2AA
100
AcDbEntity
  8
RACCORDO
100
AcDbPolyline
 62
250
  6
CONTINUOUS
 90
22
 70
0
 10
223.6642920813
 20
126.2817166081
 10
223.6873392893
 20
126.282527141
 10
223.7121229631
 20
126.2845142171
 10
223.7385127134
 20
126.287667382
 10
223.7663697011
 20
126.2919700468
 10
223.7955473679
 20
126.2973995747
 10
223.8258922072
 20
126.3039274003
 10
223.8572445718
 20
126.3115191802
 10
223.8894395138
 20
126.3201349733
 10
223.9223076525
 20
126.329729451
 10
223.9556760655
 20
126.3402521359
 10
223.9893691981
 20
126.3516476671
 10
224.0232097876
 20
126.3638560915
 10
224.0570197952
 20
126.3768131796
 10
224.0906213432
 20
126.3904507627
 10
224.1238376506
 20
126.4046970922
 10
224.1564939631
 20
126.4194772167
 10
224.1884184726
 20
126.4347133767
 10
224.2194432212
 20
126.4503254131
 10
224.2494049846
 20
126.4662311896
 10
224.2781461311
 20
126.4823470242
 10
224.3055154506
 20
126.49858813
  0
LWPOLYLINE
  5
2AB
100
AcDbEntity
  8
RACCORDO
100
AcDbPolyline
 62
250
  6
CONTINUOUS
 90
19
 70
0
 10
321.6968923219
 20
69.6789203494
 10
321.7155178402
 20
69.6691318214
 10
321.7355177785
 20
69.6603707359
 10
321.756749885
 20
69.652699407
 10
321.7790631443
 20
69.6461723978
 10
321.8022988509
 20
69.6408361324
 10
321.8262917383
 20
69.6367285656
 10
321.8508711548
 20
69.6338789127
 10
321.8758622765
 20
69.6323074423
 10
321.9010873516
 20
69.6320253317
 10
321.926366964
 20
69.6330345873
 10
321.9515213099
 20
69.6353280307
 10
321.9763714762
 20
69.6388893496
 10
322.0007407137
 20
69.6436932138
 10
322.0244556935
 20
69.6497054551
 10
322.0473477403
 20
69.656883311
 10
322.0692540322
 20
69.6651757282
 10
322.0900187581
 20
69.674523726
 10
322.109494227
 20
69.6848608157
  0
LWPOLYLINE
  5
2AC
100
AcDbEntity
  8
RACCORDO
100
AcDbPolyline
 62
250
  6
CONTINUOUS
 90
22
 70
0
 10
273.7435326797
 20
97.8302436992
 10
273.7699951626
 20
97.8161545283
 10
273.7981649251
 20
97.8033092506
 10
273.8278947412
 20
97.7917750004
 10
273.8590292314
 20
97.7816120601
 10
273.8914056748
 20
97.7728735452
 10
273.9248548597
 20
97.7656051267
 10
273.9592019677
 20
97.7598447919
 10
273.9942674875
 20
97.7556226467
 10
274.0298681533
 20
97.7529607576
 10
274.0658179021
 20
97.7518730367
 10
274.1019288468
 20
97.7523651688
 10
274.1380122576
 20
97.7544345818
 10
274.1738795487
 20
97.7580704603
 10
274.2093432638
 20
97.7632538016
 10
274.2442180558
 20
97.7699575157
 10
274.2783216556
 20
97.7781465664
 10
274.3114758246
 20
97.7877781544
 10
274.3435072864
 20
97.7988019415
 10
274.3742486321
 20
97.8111603131
 10
274.4035391956
 20
97.8247886795
 10
274.4312258933
 20
97.8396158136
  0
LWPOLYLINE
  5
2AD
100
AcDbEntity
  8
RACCORDO
100
AcDbPolyline
 62
250
  6
CONTINUOUS
 90
22
 70
0
 10
223.5389512154
 20
126.8177398255
 10
223.5654136983
 20
126.8036506546
 10
223.5935834608
 20
126.7908053769
 10
223.623313277
 20
126.7792711266
 10
223.6544477672
 20
126.7691081864
 10
223.6868242106
 20
126.7603696715
 10
223.7202733955
 20
126.7531012529
 10
223.7546205034
 20
126.7473409182
 10
223.7896860233
 20
126.7431187729
 10
223.825286689
 20
126.7404568838
 10
223.8612364379
 20
126.7393691629
 10
223.8973473826
 20
126.739861295
 10
223.9334307934
 20
126.7419307081
 10
223.9692980845
 20
126.7455665865
 10
224.0047617995
 20
126.7507499279
 10
224.0396365915
 20
126.757453642
 10
224.0737401913
 20
126.7656426926
 10
224.1068943603
 20
126.7752742807
 10
224.1389258221
 20
126.7862980678
 10
224.1696671678
 20
126.7986564394
 10
224.1989577314
 20
126.8122848058
 10
224.226644429
 20
126.8271119399
  0
LWPOLYLINE
  5
2AE
100
AcDbEntity
  8
RACCORDO
100
AcDbPolyline
 62
250
  6
CONTINUOUS
 90
22
 70
0
 10
275.0455159423
 20
96.8896842749
 10
275.0157079739
 20
96.9065369577
 10
274.9857776132
 20
96.9250759727
 10
274.9557964815
 20
96.9452700802
 10
274.9258206396
 20
96.9670852332
 10
274.8959424182
 20
96.9904775692
 10
274.8662894379
 20
97.0153888337
 10
274.8369209036
 20
97.0417777012
 10
274.8079313359
 20
97.0695679473
 10
274.7794975633
 20
97.0986272086
 10
274.7517059187
 20
97.128859807
 10
274.724612769
 20
97.1601951735
 10
274.6983417372
 20
97.192519809
 10
274.6729610792
 20
97.2257374581
 10
274.6485295266
 20
97.2597553305
 10
274.6251480379
 20
97.294456468
 10
274.6028721225
 20
97.3297421309
 10
274.5817522356
 20
97.3655099177
 10
274.5618717328
 20
97.4016331472
 10
274.5432835716
 20
97.4380011524
 10
274.5260135897
 20
97.4745209054
 10
274.5100959983
 20
97.5110920278
  0
LINE
  5
2AF
100
AcDbEntity
  8
RACCORDO
100
AcDbLine
 62
250
  6
CONTINUOUS
 10
305.8832117471
 20
78.2681403912
 11
274.7110020191
 21
96.2665836086
  0
LINE
  5
2B0
100
AcDbEntity
  8
RACCORDO
100
AcDbLine
 62
250
  6
CONTINUOUS
 10
255.6786302828
 20
107.2556365175
 11
224.5064205549
 21
125.2540797349
  0
LINE
  5
2B1
100
AcDbEntity
  8
RACCORDO
100
AcDbLine
 62
250
  6
CONTINUOUS
 10
205.4740488186
 20
136.2431326438
 11
174.3018390906
 21
154.2415758612
  0
LINE
  5
2B2
100
AcDbEntity
  8
RACCORDO
100
AcDbLine
 62
250
  6
CONTINUOUS
 10
155.2694673543
 20
165.23062877
 11
124.0972576264
 21
183.2290719874
  0
LWPOLYLINE
  5
2B3
100
AcDbEntity
  8
RACCORDO
100
AcDbPolyline
 62
250
  6
CONTINUOUS
 90
22
 70
0
 10
124.0972576264
 20
183.2290719874
 10
124.0502713301
 20
183.2574633768
 10
124.003305463
 20
183.2884953487
 10
123.9563602462
 20
183.3221680448
 10
123.909286587
 20
183.3585733586
 10
123.8622344707
 20
183.397619968
 10
123.8156529562
 20
183.4390333323
 10
123.7695239368
 20
183.4828751752
 10
123.7238673111
 20
183.5290849192
 10
123.6791892936
 20
183.5772046659
 10
123.635525918
 20
183.6272438105
 10
123.5928436379
 20
183.6791945468
 10
123.5515442753
 20
183.7325731589
 10
123.5116509898
 20
183.7873919209
 10
123.4731435224
 20
183.8436404078
 10
123.4363583431
 20
183.9008007106
 10
123.4013135462
 20
183.9588939067
 10
123.3679940184
 20
184.0179008138
 10
123.3366859508
 20
184.077242834
 10
123.3074854609
 20
184.1367275571
 10
123.280298981
 20
184.1965490078
 10
123.2551278948
 20
184.256708061
  0
LWPOLYLINE
  5
2B4
100
AcDbEntity
  8
RACCORDO
100
AcDbPolyline
 62
250
  6
CONTINUOUS
 90
22
 70
0
 10
174.3018390906
 20
154.2415758612
 10
174.2548527943
 20
154.2699672505
 10
174.2078869272
 20
154.3009992224
 10
174.1609417104
 20
154.3346719185
 10
174.1138680512
 20
154.3710772323
 10
174.0668159349
 20
154.4101238417
 10
174.0202344204
 20
154.451537206
 10
173.974105401
 20
154.4953790489
 10
173.9284487753
 20
154.5415887929
 10
173.8837707578
 20
154.5897085396
 10
173.8401073822
 20
154.6397476842
 10
173.7974251021
 20
154.6916984205
 10
173.7561257396
 20
154.7450770326
 10
173.7162324541
 20
154.7998957946
 10
173.6777249866
 20
154.8561442815
 10
173.6409398074
 20
154.9133045844
 10
173.6058950104
 20
154.9713977804
 10
173.5725754827
 20
155.0304046875
 10
173.541267415
 20
155.0897467077
 10
173.5120669252
 20
155.1492314309
 10
173.4848804453
 20
155.2090528816
 10
173.459709359
 20
155.2692119347
  0
LWPOLYLINE
  5
2B5
100
AcDbEntity
  8
RACCORDO
100
AcDbPolyline
 62
250
  6
CONTINUOUS
 90
9
 70
0
 10
156.1428774061
 20
165.7313910239
 10
156.1182537465
 20
165.746798049
 10
156.0956043563
 20
165.7632948248
 10
156.0750476117
 20
165.7807951316
 10
156.0566909512
 20
165.799207505
 10
156.0406303152
 20
165.8184357136
 10
156.0269496437
 20
165.8383792621
 10
156.015720438
 20
165.8589339167
 10
156.0070013871
 20
165.8799922494
  0
LWPOLYLINE
  5
2B6
100
AcDbEntity
  8
RACCORDO
100
AcDbPolyline
 62
250
  6
CONTINUOUS
 90
10
 70
0
 10
108.2315795412
 20
192.9311166049
 10
108.214456165
 20
192.9419690405
 10
108.1989614765
 20
192.9537021076
 10
108.1852056833
 20
192.9662323534
 10
108.1732866248
 20
192.9794706553
 10
108.1632890767
 20
192.9933228544
 10
108.1552841475
 20
193.0076904256
 10
108.1493287732
 20
193.022471178
 10
108.1454653119
 20
193.0375599819
 10
108.143721243
 20
193.0528495167
  0
LWPOLYLINE
  5
2B7
100
AcDbEntity
  8
RACCORDO
100
AcDbPolyline
 62
250
  6
CONTINUOUS
 90
22
 70
0
 10
123.2551301413
 20
221.2717238049
 10
123.2781772662
 20
221.2450635612
 10
123.302960868
 20
221.2195079955
 10
123.3293505572
 20
221.1951915585
 10
123.3572074943
 20
221.1722421823
 10
123.3863851204
 20
221.1507806062
 10
123.4167299284
 20
221.1309197424
 10
123.4480822705
 20
221.1127640813
 10
123.480277198
 20
221.0964091421
 10
123.5131453294
 20
221.0819409702
 10
123.5465137413
 20
221.0694356845
 10
123.5802068784
 20
221.0589590767
 10
123.6140474767
 20
221.0505662657
 10
123.6478574968
 20
221.0443014071
 10
123.6814590598
 20
221.040197461
 10
123.7146753837
 20
221.0382760189
 10
123.7473317132
 20
221.0385471896
 10
123.7792562393
 20
221.0410095465
 10
123.810281003
 20
221.0456501348
 10
123.8402427793
 20
221.0524445398
 10
123.8689839353
 20
221.0613570152
 10
123.8963532604
 20
221.0723406714
  0
LWPOLYLINE
  5
2B8
100
AcDbEntity
  8
0
100
AcDbPolyline
 62
250
  6
CONTINUOUS
 90
16
 70
0
 10
188.2949233997
 20
150.9687406308
 10
188.2983017693
 20
150.9579145151
 10
188.3004797568
 20
150.9469487054
 10
188.301431101
 20
150.9359770415
 10
188.3011410521
 20
150.9249996211
 10
188.2996243598
 20
150.9140163465
 10
188.2968990121
 20
150.9031607641
 10
188.2929481811
 20
150.8924324573
 10
188.2877886948
 20
150.8818318426
 10
188.2814890248
 20
150.8714937163
 10
188.2740349871
 20
150.8614232559
 10
188.2654407658
 20
150.8516152838
 10
188.2558173839
 20
150.8421890629
 10
188.2452018493
 20
150.8331843475
 10
188.2335571543
 20
150.8245613834
 10
188.2208832987
 20
150.8163201705
  0
LWPOLYLINE
  5
2B9
100
AcDbEntity
  8
RACCORDO
100
AcDbPolyline
 62
7
  6
CONTINUOUS
 90
11
 70
0
 10
206.2010108384
 20
136.9471428304
 10
206.2015481075
 20
136.9263638614
 10
206.2014017787
 20
136.9060217127
 10
206.2006271318
 20
136.8876912633
 10
206.1993577372
 20
136.8714404152
 10
206.1977136643
 20
136.8571224627
 10
206.1957752953
 20
136.8444526431
 10
206.1936357784
 20
136.8333874623
 10
206.1914118665
 20
136.8239757182
 10
206.1892121488
 20
136.8161829948
 10
206.1871563892
 20
136.8099957766
  0
LWPOLYLINE
  5
2BA
100
AcDbEntity
  8
RACCORDO
100
AcDbPolyline
 62
250
  6
CONTINUOUS
 90
25
 70
0
 10
205.4740488186
 20
136.2431326438
 10
205.4735435846
 20
136.2695864647
 10
205.4745565099
 20
136.2968976341
 10
205.4770832448
 20
136.3249488706
 10
205.4811129388
 20
136.3536197149
 10
205.4866282873
 20
136.3827870469
 10
205.493605606
 20
136.4123256145
 10
205.5020149325
 20
136.4421085713
 10
205.5118201549
 20
136.4720080215
 10
205.5229791671
 20
136.5018955692
 10
205.5354440493
 20
136.5316428693
 10
205.5491612741
 20
136.5611221793
 10
205.5640719361
 20
136.5902069072
 10
205.580112005
 20
136.6187721556
 10
205.5972126007
 20
136.6466952579
 10
205.6153002886
 20
136.6738563051
 10
205.6342973956
 20
136.7001386604
 10
205.6541223431
 20
136.7254294606
 10
205.6746899975
 20
136.7496201004
 10
205.6959120361
 20
136.7726066989
 10
205.7176973259
 20
136.7942905456
 10
205.739952315
 20
136.8145785244
 10
205.7625814349
 20
136.8333835135
 10
205.7854875101
 20
136.8506247593
 10
205.8085721759
 20
136.8662282233
  0
LWPOLYLINE
  5
2BB
100
AcDbEntity
  8
RACCORDO
100
AcDbPolyline
 62
250
  6
CONTINUOUS
 90
10
 70
0
 10
206.3474565062
 20
136.7438933986
 10
206.3484234279
 20
136.6895688531
 10
206.3468093138
 20
136.6371589127
 10
206.3426139902
 20
136.5866634684
 10
206.3358018323
 20
136.5379181901
 10
206.3264081723
 20
136.4910872248
 10
206.3145390478
 20
136.446663037
 10
206.3002294475
 20
136.4048095555
 10
206.2834435631
 20
136.3653623332
 10
206.2641810208
 20
136.3283211338
  0
LINE
  5
2BC
100
AcDbEntity
  8
0
100
AcDbLine
 62
7
  6
CONTINUOUS
 10
204.3323222336
 20
140.1562066564
 11
204.3323222336
 21
140.0303415885
  0
LWPOLYLINE
  5
2BD
100
AcDbEntity
  8
RACCORDO
100
AcDbPolyline
 62
250
  6
CONTINUOUS
 90
14
 70
0
 10
205.4740488186
 20
174.4009945067
 10
205.4735435859
 20
174.3739570963
 10
205.4745565295
 20
174.3478154965
 10
205.4770832968
 20
174.3226819656
 10
205.4811130343
 20
174.298664433
 10
205.4866284345
 20
174.2758660347
 10
205.49360581
 20
174.2543846709
 10
205.5020151956
 20
174.2343125867
 10
205.5118204765
 20
174.2157359744
 10
205.5229795443
 20
174.1987346038
 10
205.5354444765
 20
174.183381481
 10
205.5491617436
 20
174.1697425334
 10
205.5640724389
 20
174.1578763268
 10
205.5770636493
 20
174.1495517756
  0
LWPOLYLINE
  5
2BE
100
AcDbEntity
  8
RACCORDO
100
AcDbPolyline
 62
7
  6
CONTINUOUS
 90
12
 70
0
 10
206.0919797766
 20
169.9706792734
 10
206.000618645
 20
166.8993199779
 10
205.9295481345
 20
163.8401163007
 10
205.8787751487
 20
160.7932990598
 10
205.8483025955
 20
157.7590702476
 10
205.8381324941
 20
154.7376205937
 10
205.8482664995
 20
151.7291487499
 10
205.8787040754
 20
148.7338520601
 10
205.9294443014
 20
145.7519194641
 10
206.0004853993
 20
142.7835497771
 10
206.0918215963
 20
139.8289654776
 10
206.2010116912
 20
136.9471411206
  0
LWPOLYLINE
  5
2BF
100
AcDbEntity
  8
RACCORDO
100
AcDbPolyline
 62
250
  6
CONTINUOUS
 90
13
 70
0
 10
206.3474565062
 20
172.7830243978
 10
206.236593186
 20
169.7105211952
 10
206.1458762516
 20
166.6499317715
 10
206.0753121058
 20
163.6014605936
 10
206.0249058408
 20
160.5653112727
 10
205.9946609038
 20
157.5416868154
 10
205.9845790954
 20
154.5307896087
 10
205.9946609034
 20
151.532821097
 10
206.02490584
 20
148.5479816443
 10
206.0753121048
 20
145.5764707836
 10
206.1458762506
 20
142.6184872821
 10
206.2365931853
 20
139.6742291295
 10
206.3474565062
 20
136.7438933986
  0
LWPOLYLINE
  5
2C0
100
AcDbEntity
  8
0
100
AcDbPolyline
 62
250
  6
CONTINUOUS
 90
12
 70
0
 10
188.3659199206
 20
149.9846954811
 10
188.38694747
 20
149.9991278791
 10
188.406400834
 20
150.0143027572
 10
188.424199516
 20
150.0301608361
 10
188.440268214
 20
150.0466404424
 10
188.4545419283
 20
150.0636761716
 10
188.4669644625
 20
150.0811996624
 10
188.4774848799
 20
150.0991470958
 10
188.4860531987
 20
150.1174426633
 10
188.4926279954
 20
150.135997008
 10
188.497181973
 20
150.1547315494
 10
188.4996985222
 20
150.1735754465
  0
LWPOLYLINE
  5
2C1
100
AcDbEntity
  8
0
100
AcDbPolyline
 62
7
  6
CONTINUOUS
 90
15
 70
0
 10
188.3299627662
 20
149.8966278872
 10
188.3395959945
 20
149.9031674734
 10
188.3635913705
 20
149.9211033484
 10
188.3855909708
 20
149.9399894675
 10
188.4055823918
 20
149.9597027952
 10
188.4236085697
 20
149.9801789183
 10
188.4397367001
 20
150.0014025003
 10
188.4539509557
 20
150.0232645337
 10
188.4662472219
 20
150.0456660835
 10
188.4766586027
 20
150.068590224
 10
188.4851635187
 20
150.0919039148
 10
188.4917633163
 20
150.1154948074
 10
188.4964828763
 20
150.1393631899
 10
188.4993073006
 20
150.1633761833
 10
188.5002408146
 20
150.1872749988
  0
LINE
  5
2C2
100
AcDbEntity
  8
0
100
AcDbLine
 62
250
  6
CONTINUOUS
 10
187.7719368264
 20
149.5921005723
 11
188.3659199206
 21
149.9846954811
  0
LINE
  5
2C3
100
AcDbEntity
  8
0
100
AcDbLine
 62
7
  6
CONTINUOUS
 10
187.8238648316
 20
149.5621179929
 11
188.3299283537
 21
149.8966021967
  0
LINE
  5
2C4
100
AcDbEntity
  8
0
100
AcDbLine
 62
250
  6
CONTINUOUS
 10
188.2208832987
 20
150.8163201705
 11
186.9702193465
 21
150.0550021973
  0
LINE
  5
2C5
100
AcDbEntity
  8
0
100
AcDbLine
 62
250
  6
CONTINUOUS
 10
188.3659199206
 20
150.5735643072
 11
187.2493180659
 21
149.8938540947
  0
LINE
  5
2C6
100
AcDbEntity
  8
0
100
AcDbLine
 62
7
  6
CONTINUOUS
 10
184.8189558786
 20
151.297114762
 11
186.1222696493
 21
151.9861584258
  0
LINE
  5
2C7
100
AcDbEntity
  8
0
100
AcDbLine
 62
250
  6
CONTINUOUS
 10
184.8758081725
 20
151.2642889601
 11
186.2169810616
 21
151.9733482074
  0
LWPOLYLINE
  5
2C8
100
AcDbEntity
  8
0
100
AcDbPolyline
 62
250
  6
CONTINUOUS
 90
25
 70
0
 10
186.2169810616
 20
151.9733482074
 10
186.2314915531
 20
151.9805289696
 10
186.246659975
 20
151.987117378
 10
186.2624863272
 20
151.9931134325
 10
186.2790403937
 20
151.9985379631
 10
186.2962523906
 20
152.0033701398
 10
186.3139129664
 20
152.0075474731
 10
186.3320310428
 20
152.0110617997
 10
186.3505976982
 20
152.0139212828
 10
186.3693768158
 20
152.0160879226
 10
186.3883675195
 20
152.0175520923
 10
186.4075706855
 20
152.0183234187
 10
186.4267528251
 20
152.0183927828
 10
186.4459139795
 20
152.0177517422
 10
186.4650541074
 20
152.0164087392
 10
186.4839395973
 20
152.0143799814
 10
186.5025684002
 20
152.0116565965
 10
186.5209425649
 20
152.0082474569
 10
186.5388346263
 20
152.0041953873
 10
186.5562389586
 20
151.999491767
 10
186.5731611876
 20
151.9941452168
 10
186.5893907254
 20
151.9882244241
 10
186.6048573761
 20
151.9817522848
 10
186.6196313356
 20
151.974705903
 10
186.633712604
 20
151.9670852787
  0
LWPOLYLINE
  5
2C9
100
AcDbEntity
  8
0
100
AcDbPolyline
 62
250
  6
CONTINUOUS
 90
10
 70
0
 10
186.1222696493
 20
151.9861584258
 10
186.1290309181
 20
151.9892396043
 10
186.1385359545
 20
151.9921048473
 10
186.1486283639
 20
151.9935797419
 10
186.1592313631
 20
151.9936530757
 10
186.1702642874
 20
151.9923242989
 10
186.1816432049
 20
151.9896035268
 10
186.1932815499
 20
151.9855114638
 10
186.2050907818
 20
151.9800792469
 10
186.2169810616
 20
151.9733482074
  0
LWPOLYLINE
  5
2CA
100
AcDbEntity
  8
RACCORDO
100
AcDbPolyline
 62
250
  6
CONTINUOUS
 90
14
 70
0
 10
206.1449402723
 20
136.793271868
 10
206.1230323912
 20
136.7873488956
 10
206.1001759113
 20
136.7833781281
 10
206.0764362285
 20
136.7813769835
 10
206.0518891364
 20
136.7813428035
 10
206.0266035314
 20
136.7832777554
 10
206.0006606192
 20
136.7871777391
 10
205.974164223
 20
136.7930063485
 10
205.9471939364
 20
136.8007398896
 10
205.9198351844
 20
136.8103484886
 10
205.8922076168
 20
136.8217574427
 10
205.8644083797
 20
136.8349021163
 10
205.8365088176
 20
136.8497410097
 10
205.8085907464
 20
136.8662167442
  0
LWPOLYLINE
  5
2CB
100
AcDbEntity
  8
0
100
AcDbPolyline
 62
250
  6
CONTINUOUS
 90
10
 70
0
 10
188.3123765938
 20
151.0640765902
 10
188.3038028381
 20
151.0682420642
 10
188.2941073752
 20
151.0713250953
 10
188.2837967794
 20
151.0730499807
 10
188.2729486533
 20
151.0734037421
 10
188.2616446444
 20
151.0723837212
 10
188.2499698314
 20
151.069997599
 10
188.2380120831
 20
151.0662633383
 10
188.2258613971
 20
151.061209048
 10
188.2136092226
 20
151.0548727718
  0
LWPOLYLINE
  5
2CC
100
AcDbEntity
  8
0
100
AcDbPolyline
 62
250
  6
CONTINUOUS
 90
10
 70
0
 10
186.7324833175
 20
151.9762871674
 10
186.7239065338
 20
151.9804544444
 10
186.7142110854
 20
151.9835375221
 10
186.7039004906
 20
151.9852624537
 10
186.6930523503
 20
151.9856162568
 10
186.6817483111
 20
151.9845962687
 10
186.670073451
 20
151.982210166
 10
186.6581156388
 20
151.9784759074
 10
186.6459648729
 20
151.9734215982
 10
186.633712604
 20
151.9670852787
  0
LWPOLYLINE
  5
2CD
100
AcDbEntity
  8
RACCORDO
100
AcDbPolyline
 62
250
  6
CONTINUOUS
 90
22
 70
0
 10
173.3343697512
 20
155.8052359518
 10
173.3608322341
 20
155.7911467809
 10
173.3890019966
 20
155.7783015031
 10
173.4187318127
 20
155.7667672529
 10
173.4498663029
 20
155.7566043126
 10
173.4822427463
 20
155.7478657978
 10
173.5156919312
 20
155.7405973792
 10
173.5500390392
 20
155.7348370444
 10
173.585104559
 20
155.7306148992
 10
173.6207052248
 20
155.7279530101
 10
173.6566549736
 20
155.7268652892
 10
173.6927659183
 20
155.7273574213
 10
173.7288493291
 20
155.7294268343
 10
173.7647166202
 20
155.7330627128
 10
173.8001803353
 20
155.7382460541
 10
173.8350551273
 20
155.7449497682
 10
173.8691587271
 20
155.7531388189
 10
173.9023128961
 20
155.762770407
 10
173.9343443579
 20
155.7737941941
 10
173.9650857036
 20
155.7861525656
 10
173.9943762672
 20
155.799780932
 10
174.0220629648
 20
155.8146080662
  0
LWPOLYLINE
  5
2CE
100
AcDbEntity
  8
RACCORDO
100
AcDbPolyline
 62
250
  6
CONTINUOUS
 90
22
 70
0
 10
123.1297882869
 20
184.792732078
 10
123.1562507698
 20
184.7786429071
 10
123.1844205324
 20
184.7657976294
 10
123.2141503485
 20
184.7542633792
 10
123.2452848387
 20
184.7441004389
 10
123.2776612821
 20
184.7353619241
 10
123.311110467
 20
184.7280935055
 10
123.3454575749
 20
184.7223331707
 10
123.3805230948
 20
184.7181110255
 10
123.4161237605
 20
184.7154491364
 10
123.4520735094
 20
184.7143614155
 10
123.4881844541
 20
184.7148535476
 10
123.5242678649
 20
184.7169229606
 10
123.560135156
 20
184.7205588391
 10
123.5955988711
 20
184.7257421804
 10
123.630473663
 20
184.7324458945
 10
123.6645772628
 20
184.7406349452
 10
123.6977314319
 20
184.7502665332
 10
123.7297628936
 20
184.7612903203
 10
123.7605042394
 20
184.7736486919
 10
123.7897948029
 20
184.7872770583
 10
123.8174815005
 20
184.8021041924
  0
LWPOLYLINE
  5
2CF
100
AcDbEntity
  8
0
100
AcDbPolyline
 62
7
  6
CONTINUOUS
 90
22
 70
0
 10
186.7324990779
 20
151.9762760451
 10
186.7104217518
 20
151.9882883144
 10
186.683575529
 20
152.0010826854
 10
186.6558027324
 20
152.0124909247
 10
186.6271372153
 20
152.0225417413
 10
186.5976594316
 20
152.0312364189
 10
186.5675341311
 20
152.0385555908
 10
186.5368314332
 20
152.0445007603
 10
186.505625575
 20
152.049070648
 10
186.4741223877
 20
152.0522472406
 10
186.4424048471
 20
152.0540290338
 10
186.4105528776
 20
152.0544154302
 10
186.3787812327
 20
152.0534025936
 10
186.3471696951
 20
152.0509907078
 10
186.3158022773
 20
152.047179025
 10
186.2848875892
 20
152.0419789991
 10
186.2545000088
 20
152.0353928658
 10
186.2247126627
 20
152.0274163948
 10
186.1956940114
 20
152.018065012
 10
186.1675235206
 20
152.0073374194
 10
186.1402363916
 20
151.9952026443
 10
186.1222463973
 20
151.9861435432
  0
LWPOLYLINE
  5
2D0
100
AcDbEntity
  8
0
100
AcDbPolyline
 62
7
  6
CONTINUOUS
 90
22
 70
0
 10
287.1416628102
 20
94.001283981
 10
287.1198906013
 20
94.0131392495
 10
287.0930135957
 20
94.0259685165
 10
287.0652123278
 20
94.0374049556
 10
287.0365211633
 20
94.0474779209
 10
287.0070241428
 20
94.0561906101
 10
286.9768854589
 20
94.0635225645
 10
286.9461759617
 20
94.0694774148
 10
286.9149706986
 20
94.0740565617
 10
286.8834737675
 20
94.0772396878
 10
286.8517697246
 20
94.0790302067
 10
286.8199384151
 20
94.079426011
 10
286.788192933
 20
94.078423042
 10
286.7566127243
 20
94.0760268059
 10
286.7252834944
 20
94.0722324469
 10
286.6944118112
 20
94.0670563015
 10
286.664072047
 20
94.0605009218
 10
286.6343365824
 20
94.052558585
 10
286.6053681516
 20
94.0432514983
 10
286.577253535
 20
94.0325783049
 10
286.5500281603
 20
94.0205112154
 10
286.5314096688
 20
94.011154282
  0
LWPOLYLINE
  5
2D1
100
AcDbEntity
  8
0
100
AcDbPolyline
 62
7
  6
CONTINUOUS
 90
22
 70
0
 10
236.9370813459
 20
122.9887801072
 10
236.915309137
 20
123.0006353757
 10
236.8884321314
 20
123.0134646428
 10
236.8606308635
 20
123.0249010818
 10
236.831939699
 20
123.0349740471
 10
236.8024426786
 20
123.0436867363
 10
236.7723039947
 20
123.0510186908
 10
236.7415944974
 20
123.056973541
 10
236.7103892344
 20
123.061552688
 10
236.6788923033
 20
123.0647358141
 10
236.6471882603
 20
123.066526333
 10
236.6153569509
 20
123.0669221373
 10
236.5836114688
 20
123.0659191682
 10
236.5520312601
 20
123.0635229322
 10
236.5207020302
 20
123.0597285732
 10
236.489830347
 20
123.0545524277
 10
236.4594905828
 20
123.0479970481
 10
236.4297551182
 20
123.0400547113
 10
236.4007866874
 20
123.0307476246
 10
236.3726720707
 20
123.0200744312
 10
236.345446696
 20
123.0080073417
 10
236.3268282046
 20
122.9986504083
  0
LWPOLYLINE
  5
2D2
100
AcDbEntity
  8
0
100
AcDbPolyline
 62
7
  6
CONTINUOUS
 90
22
 70
0
 10
136.5279184175
 20
180.9637723598
 10
136.5061462085
 20
180.9756276283
 10
136.479269203
 20
180.9884568954
 10
136.4514679351
 20
180.9998933344
 10
136.4227767705
 20
181.0099662997
 10
136.3932797501
 20
181.0186789889
 10
136.3631410662
 20
181.0260109433
 10
136.3324315689
 20
181.0319657936
 10
136.3012263059
 20
181.0365449405
 10
136.2697293748
 20
181.0397280666
 10
136.2380253318
 20
181.0415185855
 10
136.2061940224
 20
181.0419143898
 10
136.1744485403
 20
181.0409114208
 10
136.1428683316
 20
181.0385151847
 10
136.1115391017
 20
181.0347208257
 10
136.0806674185
 20
181.0295446803
 10
136.0503276543
 20
181.0229893006
 10
136.0205921897
 20
181.0150469639
 10
135.9916237589
 20
181.0057398771
 10
135.9635091422
 20
180.9950666837
 10
135.9362837676
 20
180.9829995942
 10
135.9176652761
 20
180.9736426608
  0
LWPOLYLINE
  5
2D3
100
AcDbEntity
  8
0
100
AcDbPolyline
 62
250
  6
CONTINUOUS
 90
28
 70
0
 10
287.0428755325
 20
93.9920930261
 10
287.0304265361
 20
93.9988808817
 10
287.0174146722
 20
94.0052219822
 10
287.0038399408
 20
94.0111163276
 10
286.9896545242
 20
94.0165806951
 10
286.9749062401
 20
94.0215983076
 10
286.9597385419
 20
94.0261188338
 10
286.9441465517
 20
94.0301372906
 10
286.9281351474
 20
94.0336586611
 10
286.9118624158
 20
94.0366475635
 10
286.8953274543
 20
94.0390983197
 10
286.8785311655
 20
94.0410166079
 10
286.8616343438
 20
94.0423840808
 10
286.8446356507
 20
94.0431955576
 10
286.8275364248
 20
94.0434562192
 10
286.8105014752
 20
94.0431632604
 10
286.7935314058
 20
94.0423113642
 10
286.7766256127
 20
94.0409058475
 10
286.7599470948
 20
94.038959856
 10
286.7434980842
 20
94.0364682317
 10
286.7272763487
 20
94.0334361326
 10
286.7114381905
 20
94.0298921779
 10
286.69598508
 20
94.0258303807
 10
286.6809155469
 20
94.0212567279
 10
286.6663814823
 20
94.0162178009
 10
286.6524335164
 20
94.0107291265
 10
286.639021019
 20
94.0047751779
 10
286.6261439901
 20
93.9983559549
  0
LWPOLYLINE
  5
2D4
100
AcDbEntity
  8
0
100
AcDbPolyline
 62
250
  6
CONTINUOUS
 90
28
 70
0
 10
236.8382940682
 20
122.9795891524
 10
236.8258450718
 20
122.9863770079
 10
236.8128332079
 20
122.9927181084
 10
236.7992584766
 20
122.9986124539
 10
236.78507306
 20
123.0040768214
 10
236.7703247759
 20
123.0090944339
 10
236.7551570776
 20
123.0136149601
 10
236.7395650875
 20
123.0176334169
 10
236.7235536832
 20
123.0211547873
 10
236.7072809515
 20
123.0241436898
 10
236.6907459901
 20
123.026594446
 10
236.6739497013
 20
123.0285127341
 10
236.6570528795
 20
123.029880207
 10
236.6400541865
 20
123.0306916839
 10
236.6229549605
 20
123.0309523455
 10
236.605920011
 20
123.0306593867
 10
236.5889499415
 20
123.0298074905
 10
236.5720441485
 20
123.0284019738
 10
236.5553656306
 20
123.0264559823
 10
236.5389166199
 20
123.023964358
 10
236.5226948844
 20
123.0209322588
 10
236.5068567263
 20
123.0173883042
 10
236.4914036158
 20
123.0133265069
 10
236.4763340827
 20
123.0087528542
 10
236.461800018
 20
123.0037139272
 10
236.4478520522
 20
122.9982252528
 10
236.4344395548
 20
122.9922713042
 10
236.4215625259
 20
122.9858520812
  0
LWPOLYLINE
  5
2D5
100
AcDbEntity
  8
0
100
AcDbPolyline
 62
250
  6
CONTINUOUS
 90
28
 70
0
 10
136.4291311397
 20
180.9545814049
 10
136.4166821433
 20
180.9613692605
 10
136.4036702794
 20
180.967710361
 10
136.3900955481
 20
180.9736047064
 10
136.3759101315
 20
180.9790690739
 10
136.3611618474
 20
180.9840866864
 10
136.3459941491
 20
180.9886072126
 10
136.330402159
 20
180.9926256694
 10
136.3143907547
 20
180.9961470399
 10
136.2981180231
 20
180.9991359423
 10
136.2815830616
 20
181.0015866985
 10
136.2647867728
 20
181.0035049867
 10
136.247889951
 20
181.0048724596
 10
136.230891258
 20
181.0056839365
 10
136.213792032
 20
181.005944598
 10
136.1967570825
 20
181.0056516392
 10
136.179787013
 20
181.004799743
 10
136.16288122
 20
181.0033942264
 10
136.1462027021
 20
181.0014482349
 10
136.1297536915
 20
180.9989566105
 10
136.1135319559
 20
180.9959245114
 10
136.0976937978
 20
180.9923805567
 10
136.0822406873
 20
180.9883187595
 10
136.0671711542
 20
180.9837451067
 10
136.0526370895
 20
180.9787061797
 10
136.0386891237
 20
180.9732175054
 10
136.0252766263
 20
180.9672635567
 10
136.0123995974
 20
180.9608443337
  0
LWPOLYLINE
  5
2D6
100
AcDbEntity
  8
RACCORDO
100
AcDbPolyline
 62
250
  6
CONTINUOUS
 90
22
 70
0
 10
224.8409344781
 20
125.8771804012
 10
224.8111265097
 20
125.8940330839
 10
224.781196149
 20
125.912572099
 10
224.7512150173
 20
125.9327662065
 10
224.7212391754
 20
125.9545813595
 10
224.6913609539
 20
125.9779736955
 10
224.6617079737
 20
126.00288496
 10
224.6323394393
 20
126.0292738275
 10
224.6033498717
 20
126.0570640735
 10
224.5749160991
 20
126.0861233349
 10
224.5471244544
 20
126.1163559333
 10
224.5200313048
 20
126.1476912998
 10
224.493760273
 20
126.1800159353
 10
224.468379615
 20
126.2132335844
 10
224.4439480623
 20
126.2472514567
 10
224.4205665737
 20
126.2819525943
 10
224.3982906583
 20
126.3172382572
 10
224.3771707713
 20
126.353006044
 10
224.3572902686
 20
126.3891292735
 10
224.3387021073
 20
126.4254972787
 10
224.3214321254
 20
126.4620170316
 10
224.3055145341
 20
126.4985881541
  0
LWPOLYLINE
  5
2D7
100
AcDbEntity
  8
RACCORDO
100
AcDbPolyline
 62
250
  6
CONTINUOUS
 90
22
 70
0
 10
174.6363530138
 20
154.8646765274
 10
174.6065450454
 20
154.8815292102
 10
174.5766146847
 20
154.9000682253
 10
174.546633553
 20
154.9202623328
 10
174.5166577111
 20
154.9420774858
 10
174.4867794897
 20
154.9654698217
 10
174.4571265095
 20
154.9903810862
 10
174.4277579751
 20
155.0167699538
 10
174.3987684074
 20
155.0445601998
 10
174.3703346348
 20
155.0736194612
 10
174.3425429902
 20
155.1038520595
 10
174.3154498405
 20
155.135187426
 10
174.2891788087
 20
155.1675120615
 10
174.2637981507
 20
155.2007297106
 10
174.2393665981
 20
155.234747583
 10
174.2159851095
 20
155.2694487205
 10
174.193709194
 20
155.3047343834
 10
174.1725893071
 20
155.3405021703
 10
174.1527088043
 20
155.3766253998
 10
174.1341206431
 20
155.4129934049
 10
174.1168506612
 20
155.4495131579
 10
174.1009330698
 20
155.4860842804
  0
LWPOLYLINE
  5
2D8
100
AcDbEntity
  8
RACCORDO
100
AcDbPolyline
 62
250
  6
CONTINUOUS
 90
22
 70
0
 10
124.4317715496
 20
183.8521726537
 10
124.4019635812
 20
183.8690253365
 10
124.3720332205
 20
183.8875643515
 10
124.3420520888
 20
183.9077584591
 10
124.3120762469
 20
183.929573612
 10
124.2821980254
 20
183.952965948
 10
124.2525450452
 20
183.9778772125
 10
124.2231765108
 20
184.00426608
 10
124.1941869432
 20
184.0320563261
 10
124.1657531706
 20
184.0611155875
 10
124.1379615259
 20
184.0913481858
 10
124.1108683763
 20
184.1226835523
 10
124.0845973445
 20
184.1550081878
 10
124.0592166865
 20
184.1882258369
 10
124.0347851338
 20
184.2222437093
 10
124.0114036452
 20
184.2569448468
 10
123.9891277298
 20
184.2922305097
 10
123.9680078429
 20
184.3279982965
 10
123.9481273401
 20
184.364121526
 10
123.9295391788
 20
184.4004895312
 10
123.9122691969
 20
184.4370092842
 10
123.8963516056
 20
184.4735804066
  0
LWPOLYLINE
  5
2D9
100
AcDbEntity
  8
0
100
AcDbPolyline
 62
250
  6
CONTINUOUS
 90
10
 70
0
 10
286.6261439901
 20
93.9983559549
 10
286.6142535467
 20
94.0050870791
 10
286.602444173
 20
94.0105193368
 10
286.5908057106
 20
94.0146114012
 10
286.5794267008
 20
94.0173321413
 10
286.5683937113
 20
94.0186608587
 10
286.5577906773
 20
94.0185874449
 10
286.5476982629
 20
94.0171124585
 10
286.5381932478
 20
94.0142471207
 10
286.5314325817
 20
94.0111661753
  0
LWPOLYLINE
  5
2DA
100
AcDbEntity
  8
0
100
AcDbPolyline
 62
250
  6
CONTINUOUS
 90
10
 70
0
 10
236.4215625259
 20
122.9858520812
 10
236.4096720825
 20
122.9925832054
 10
236.3978627088
 20
122.998015463
 10
236.3862242463
 20
123.0021075274
 10
236.3748452366
 20
123.0048282676
 10
236.3638122471
 20
123.0061569849
 10
236.353209213
 20
123.0060835712
 10
236.3431167987
 20
123.0046085848
 10
236.3336117835
 20
123.0017432469
 10
236.3268511175
 20
122.9986623016
  0
LWPOLYLINE
  5
2DB
100
AcDbEntity
  8
0
100
AcDbPolyline
 62
250
  6
CONTINUOUS
 90
10
 70
0
 10
136.0123995974
 20
180.9608443337
 10
136.000509154
 20
180.9675754579
 10
135.9886997803
 20
180.9730077156
 10
135.9770613179
 20
180.97709978
 10
135.9656823081
 20
180.9798205201
 10
135.9546493186
 20
180.9811492375
 10
135.9440462846
 20
180.9810758237
 10
135.9339538702
 20
180.9796008373
 10
135.9244488551
 20
180.9767354995
 10
135.917688189
 20
180.9736545542
  0
LINE
  5
2DC
100
AcDbEntity
  8
RACCORDO
100
AcDbLine
 62
250
  6
CONTINUOUS
 10
306.6733439493
 20
78.3533288812
 11
321.6968901167
 21
69.6789660778
  0
LINE
  5
2DD
100
AcDbEntity
  8
RACCORDO
100
AcDbLine
 62
250
  6
CONTINUOUS
 10
108.2315776316
 20
192.9311622726
 11
123.2551278948
 21
184.256708061
  0
LINE
  5
2DE
100
AcDbEntity
  8
RACCORDO
100
AcDbLine
 62
250
  6
CONTINUOUS
 10
156.0595995566
 20
165.31581726
 11
173.459709359
 21
155.2692119347
  0
LINE
  5
2DF
100
AcDbEntity
  8
RACCORDO
100
AcDbLine
 62
250
  6
CONTINUOUS
 10
206.2641810208
 20
136.3283211338
 11
223.6642908233
 21
126.2817158084
  0
LINE
  5
2E0
100
AcDbEntity
  8
RACCORDO
100
AcDbLine
 62
250
  6
CONTINUOUS
 10
256.4687624851
 20
107.3408250075
 11
273.8688722875
 21
97.2942196822
  0
LINE
  5
2E1
100
AcDbEntity
  8
RACCORDO
100
AcDbLine
 62
250
  6
CONTINUOUS
 10
306.2177542653
 20
78.8912249075
 11
275.0455162545
 21
96.8896844551
  0
LINE
  5
2E2
100
AcDbEntity
  8
RACCORDO
100
AcDbLine
 62
250
  6
CONTINUOUS
 10
256.013172801
 20
107.8787210338
 11
224.8409347902
 21
125.8771805813
  0
LINE
  5
2E3
100
AcDbEntity
  8
RACCORDO
100
AcDbLine
 62
250
  6
CONTINUOUS
 10
205.8085913368
 20
136.8662171601
 11
174.636353326
 21
154.8646767076
  0
LINE
  5
2E4
100
AcDbEntity
  8
RACCORDO
100
AcDbLine
 62
250
  6
CONTINUOUS
 10
155.6040098725
 20
165.8537132863
 11
124.4317718618
 21
183.8521728339
  0
LINE
  5
2E5
100
AcDbEntity
  8
0
100
AcDbLine
 62
7
  6
CONTINUOUS
 10
306.5325369578
 20
81.0212184763
 11
277.047436058
 21
98.0455462008
  0
LINE
  5
2E6
100
AcDbEntity
  8
0
100
AcDbLine
 62
7
  6
CONTINUOUS
 10
256.3279554935
 20
110.0087146026
 11
226.8428545938
 21
127.033042327
  0
LINE
  5
2E7
100
AcDbEntity
  8
0
100
AcDbLine
 62
7
  6
CONTINUOUS
 10
206.1233740293
 20
138.9962107289
 11
176.6382731295
 21
156.0205384533
  0
LINE
  5
2E8
100
AcDbEntity
  8
0
100
AcDbLine
 62
7
  6
CONTINUOUS
 10
155.9187925651
 20
167.9837068551
 11
126.4336916653
 21
185.0080345796
  0
LINE
  5
2E9
100
AcDbEntity
  8
0
100
AcDbLine
 62
7
  6
CONTINUOUS
 10
151.8450897618
 20
170.4614919626
 11
154.1275848798
 21
169.1436078878
  0
LINE
  5
2EA
100
AcDbEntity
  8
0
100
AcDbLine
 62
7
  6
CONTINUOUS
 10
202.0496712261
 20
141.4739958363
 11
204.332166344
 21
140.1561117616
  0
LINE
  5
2EB
100
AcDbEntity
  8
0
100
AcDbLine
 62
7
  6
CONTINUOUS
 10
252.2542526903
 20
112.48649971
 11
254.5367478083
 21
111.1686156353
  0
LINE
  5
2EC
100
AcDbEntity
  8
0
100
AcDbLine
 62
7
  6
CONTINUOUS
 10
302.4588341546
 20
83.4990035838
 11
304.7413292725
 21
82.181119509
  0
LINE
  5
2ED
100
AcDbEntity
  8
0
100
AcDbLine
 62
250
  6
CONTINUOUS
 10
288.6227721511
 20
93.0798805193
 11
287.0428755325
 21
93.9920930261
  0
LINE
  5
2EE
100
AcDbEntity
  8
0
100
AcDbLine
 62
250
  6
CONTINUOUS
 10
238.4181906869
 20
122.0673766456
 11
236.8382940682
 21
122.9795891524
  0
LINE
  5
2EF
100
AcDbEntity
  8
0
100
AcDbLine
 62
250
  6
CONTINUOUS
 10
138.0090277584
 20
180.0423688981
 11
136.4291311397
 21
180.9545814049
  0
LINE
  5
2F0
100
AcDbEntity
  8
0
100
AcDbLine
 62
250
  6
CONTINUOUS
 10
186.633712604
 20
151.9670852787
 11
188.2136092226
 21
151.0548727718
  0
LINE
  5
2F1
100
AcDbEntity
  8
0
100
AcDbLine
 62
7
  6
CONTINUOUS
 10
288.7215428646
 20
93.089082408
 11
287.1416462482
 21
94.0012949136
  0
LINE
  5
2F2
100
AcDbEntity
  8
0
100
AcDbLine
 62
7
  6
CONTINUOUS
 10
238.5169614004
 20
122.0765785343
 11
236.937064784
 21
122.9887910399
  0
LINE
  5
2F3
100
AcDbEntity
  8
0
100
AcDbLine
 62
7
  6
CONTINUOUS
 10
138.1077984719
 20
180.0515707868
 11
136.5279018555
 21
180.9637832924
  0
LINE
  5
2F4
100
AcDbEntity
  8
0
100
AcDbLine
 62
7
  6
CONTINUOUS
 10
186.7324833175
 20
151.9762871674
 11
188.3123799329
 21
151.0640746625
  0
LWPOLYLINE
  5
2F5
100
AcDbEntity
  8
0
100
AcDbPolyline
 62
250
  6
CONTINUOUS
 90
19
 70
0
 10
138.0163018345
 20
179.8038162968
 10
138.0290429922
 20
179.7963254428
 10
138.0416778289
 20
179.7876439167
 10
138.054110223
 20
179.7778377652
 10
138.0662455931
 20
179.7669815906
 10
138.0779916174
 20
179.7551579834
 10
138.0892589362
 20
179.7424568943
 10
138.0999618316
 20
179.7289749494
 10
138.11001888
 20
179.7148147149
 10
138.1193535712
 20
179.7000839173
 10
138.1278948903
 20
179.6848946236
 10
138.1355778585
 20
179.6693623889
 10
138.1423440268
 20
179.6536053766
 10
138.1481419211
 20
179.6377434606
 10
138.1529274333
 20
179.6218973127
 10
138.1566641574
 20
179.606187484
 10
138.1593236661
 20
179.5907334889
 10
138.1608857269
 20
179.5756528962
 10
138.1613384563
 20
179.5610604335
  0
LWPOLYLINE
  5
2F6
100
AcDbEntity
  8
0
100
AcDbPolyline
 62
250
  6
CONTINUOUS
 90
19
 70
0
 10
238.425464763
 20
121.8288240443
 10
238.4382059207
 20
121.8213331903
 10
238.4508407574
 20
121.8126516642
 10
238.4632731515
 20
121.8028455127
 10
238.4754085216
 20
121.791989338
 10
238.4871545459
 20
121.7801657309
 10
238.4984218647
 20
121.7674646418
 10
238.5091247601
 20
121.7539826969
 10
238.5191818085
 20
121.7398224624
 10
238.5285164997
 20
121.7250916648
 10
238.5370578188
 20
121.7099023711
 10
238.5447407869
 20
121.6943701364
 10
238.5515069553
 20
121.678613124
 10
238.5573048496
 20
121.662751208
 10
238.5620903617
 20
121.6469050601
 10
238.5658270859
 20
121.6311952314
 10
238.5684865946
 20
121.6157412364
 10
238.5700486554
 20
121.6006606437
 10
238.5705013848
 20
121.586068181
  0
LWPOLYLINE
  5
2F7
100
AcDbEntity
  8
0
100
AcDbPolyline
 62
250
  6
CONTINUOUS
 90
19
 70
0
 10
288.6300462272
 20
92.841327918
 10
288.6427873849
 20
92.833837064
 10
288.6554222216
 20
92.8251555379
 10
288.6678546157
 20
92.8153493864
 10
288.6799899858
 20
92.8044932118
 10
288.6917360101
 20
92.7926696046
 10
288.7030033289
 20
92.7799685155
 10
288.7137062243
 20
92.7664865706
 10
288.7237632727
 20
92.7523263361
 10
288.7330979639
 20
92.7375955385
 10
288.7416392831
 20
92.7224062448
 10
288.7493222512
 20
92.7068740101
 10
288.7560884196
 20
92.6911169978
 10
288.7618863138
 20
92.6752550818
 10
288.766671826
 20
92.6594089339
 10
288.7704085501
 20
92.6436991052
 10
288.7730680588
 20
92.6282451101
 10
288.7746301196
 20
92.6131645174
 10
288.7750828491
 20
92.5985720547
  0
LWPOLYLINE
  5
2F8
100
AcDbEntity
  8
RACCORDO
100
AcDbPolyline
 62
250
  6
CONTINUOUS
 90
22
 70
0
 10
224.5064205549
 20
125.2540797349
 10
224.4594342586
 20
125.2824711243
 10
224.4124683915
 20
125.3135030962
 10
224.3655231747
 20
125.3471757922
 10
224.3184495155
 20
125.383581106
 10
224.2713973992
 20
125.4226277155
 10
224.2248158847
 20
125.4640410798
 10
224.1786868653
 20
125.5078829226
 10
224.1330302396
 20
125.5540926666
 10
224.0883522221
 20
125.6022124133
 10
224.0446888465
 20
125.652251558
 10
224.0020065663
 20
125.7042022942
 10
223.9607072038
 20
125.7575809063
 10
223.9208139183
 20
125.8123996683
 10
223.8823064509
 20
125.8686481552
 10
223.8455212716
 20
125.9258084581
 10
223.8104764746
 20
125.9839016541
 10
223.7771569469
 20
126.0429085612
 10
223.7458488793
 20
126.1022505815
 10
223.7166483894
 20
126.1617353046
 10
223.6894619095
 20
126.2215567553
 10
223.6642908233
 20
126.2817158084
  0
LWPOLYLINE
  5
2F9
100
AcDbEntity
  8
RACCORDO
100
AcDbPolyline
 62
250
  6
CONTINUOUS
 90
22
 70
0
 10
274.7110020191
 20
96.2665836086
 10
274.6640157228
 20
96.294974998
 10
274.6170498557
 20
96.3260069699
 10
274.5701046389
 20
96.359679666
 10
274.5230309797
 20
96.3960849798
 10
274.4759788634
 20
96.4351315892
 10
274.4293973489
 20
96.4765449535
 10
274.3832683295
 20
96.5203867964
 10
274.3376117038
 20
96.5665965404
 10
274.2929336863
 20
96.6147162871
 10
274.2492703107
 20
96.6647554317
 10
274.2065880306
 20
96.716706168
 10
274.165288668
 20
96.77008478
 10
274.1253953826
 20
96.8249035421
 10
274.0868879151
 20
96.8811520289
 10
274.0501027359
 20
96.9383123318
 10
274.0150579389
 20
96.9964055278
 10
273.9817384112
 20
97.055412435
 10
273.9504303435
 20
97.1147544552
 10
273.9212298537
 20
97.1742391783
 10
273.8940433738
 20
97.234060629
 10
273.8688722875
 20
97.2942196822
  0
LWPOLYLINE
  5
2FA
100
AcDbEntity
  8
0
100
AcDbPolyline
 62
250
  6
CONTINUOUS
 90
10
 70
0
 10
188.2136092226
 20
151.0548727718
 10
188.2267999092
 20
151.0467469109
 10
188.2389811904
 20
151.0382296744
 10
188.250153066
 20
151.0293210625
 10
188.2603549216
 20
151.0199807001
 10
188.2695473717
 20
151.0102489622
 10
188.2776122601
 20
151.0002469738
 10
188.2845344751
 20
150.9899715912
 10
188.2903291284
 20
150.979425958
 10
188.2949233997
 20
150.9687406308
  0
LWPOLYLINE
  5
2FB
100
AcDbEntity
  8
RACCORDO
100
AcDbPolyline
 62
250
  6
CONTINUOUS
 90
9
 70
0
 10
206.3474588704
 20
136.7438948976
 10
206.3228352107
 20
136.7593019228
 10
206.3001858206
 20
136.7757986985
 10
206.2796290759
 20
136.7932990053
 10
206.2612724155
 20
136.8117113787
 10
206.2452117794
 20
136.8309395873
 10
206.2315311079
 20
136.8508831359
 10
206.2203019023
 20
136.8714377904
 10
206.2115828514
 20
136.8924961231
  0
LWPOLYLINE
  5
2FC
100
AcDbEntity
  8
RACCORDO
100
AcDbPolyline
 62
250
  6
CONTINUOUS
 90
9
 70
0
 10
256.5520403346
 20
107.7563987714
 10
256.5274166749
 20
107.7718057965
 10
256.5047672848
 20
107.7883025722
 10
256.4842105401
 20
107.8058028791
 10
256.4658538797
 20
107.8242152524
 10
256.4497932437
 20
107.843443461
 10
256.4361125722
 20
107.8633870096
 10
256.4248833665
 20
107.8839416642
 10
256.4161643156
 20
107.9049999968
  0
LWPOLYLINE
  5
2FD
100
AcDbEntity
  8
RACCORDO
100
AcDbPolyline
 62
250
  6
CONTINUOUS
 90
9
 70
0
 10
306.7566217989
 20
78.7689026451
 10
306.7319981392
 20
78.7843096702
 10
306.7093487491
 20
78.800806446
 10
306.6887920044
 20
78.8183067528
 10
306.670435344
 20
78.8367191262
 10
306.6543747079
 20
78.8559473348
 10
306.6406940364
 20
78.8758908833
 10
306.6294648308
 20
78.8964455379
 10
306.6207457799
 20
78.9175038706
  0
LWPOLYLINE
  5
2FE
100
AcDbEntity
  8
RACCORDO
100
AcDbPolyline
 62
250
  6
CONTINUOUS
 90
18
 70
0
 10
206.2641832674
 20
136.3283225618
 10
206.2417981465
 20
136.3553650382
 10
206.2213884963
 20
136.3834460689
 10
206.2030616945
 20
136.4124179159
 10
206.1869141606
 20
136.4421281549
 10
206.173030849
 20
136.4724204764
 10
206.1614848014
 20
136.5031355089
 10
206.1523367631
 20
136.5341116567
 10
206.1456348629
 20
136.5651859503
 10
206.1414143606
 20
136.5961949042
 10
206.1396974606
 20
136.6269753763
 10
206.1404931958
 20
136.6573654266
 10
206.1437973798
 20
136.6872051694
 10
206.1495926287
 20
136.716337614
 10
206.1578484532
 20
136.744609491
 10
206.1685214182
 20
136.7718720585
 10
206.181555372
 20
136.7979818847
 10
206.1836117326
 20
136.8016192151
  0
LWPOLYLINE
  5
2FF
100
AcDbEntity
  8
RACCORDO
100
AcDbPolyline
 62
250
  6
CONTINUOUS
 90
4
 70
0
 10
206.2115828514
 20
136.8924961231
 10
206.2054195249
 20
136.9139480736
 10
206.2018441351
 20
136.9356815243
 10
206.2010109105
 20
136.9471410887
  0
LWPOLYLINE
  5
300
100
AcDbEntity
  8
RACCORDO
100
AcDbPolyline
 62
7
  6
CONTINUOUS
 90
4
 70
0
 10
206.1871563892
 20
136.8099957766
 10
206.185395871
 20
136.8054530582
 10
206.1841481719
 20
136.8026719079
 10
206.1836444321
 20
136.8016788314
  0
LINE
  5
301
100
AcDbEntity
  8
RACCORDO
100
AcDbLine
 62
7
  6
CONTINUOUS
 10
206.1836117326
 20
136.8016192151
 11
206.183644344
 21
136.8016760252
  0
LWPOLYLINE
  5
302
100
AcDbEntity
  8
RACCORDO
100
AcDbPolyline
 62
250
  6
CONTINUOUS
 90
22
 70
0
 10
206.2641810208
 20
136.3283211338
 10
206.2433181138
 20
136.2949192311
 10
206.2203266596
 20
136.2642153248
 10
206.1952053092
 20
136.2362085618
 10
206.1678712248
 20
136.2108017741
 10
206.1384047599
 20
136.1880905571
 10
206.1070490575
 20
136.1683630135
 10
206.0737820371
 20
136.1516619037
 10
206.0386228253
 20
136.1379425895
 10
206.0018758866
 20
136.1273617628
 10
205.9635188183
 20
136.1199574781
 10
205.9235711304
 20
136.1156898369
 10
205.8823999252
 20
136.114598452
 10
205.8399788572
 20
136.1167263752
 10
205.7963317887
 20
136.1220289683
 10
205.7519011103
 20
136.1304142932
 10
205.7066727476
 20
136.1419298339
 10
205.6606589845
 20
136.1565269608
 10
205.6143418894
 20
136.1739696544
 10
205.5678818455
 20
136.1941790456
 10
205.5211175634
 20
136.2172334233
 10
205.4740488186
 20
136.2431326438
  0
LWPOLYLINE
  5
303
100
AcDbEntity
  8
RACCORDO
100
AcDbPolyline
 62
250
  6
CONTINUOUS
 90
22
 70
0
 10
223.6642908232
 20
163.2967303861
 10
223.6893503974
 20
163.3325553917
 10
223.7164321167
 20
163.3656209659
 10
223.7455346322
 20
163.3959264037
 10
223.7767517366
 20
163.4235751985
 10
223.8099871528
 20
163.4484625607
 10
223.8449541318
 20
163.4702752102
 10
223.8816686755
 20
163.4889668767
 10
223.920111828
 20
163.5045822971
 10
223.9599439144
 20
163.5169444494
 10
224.00118172
 20
163.5260120355
 10
224.0438055668
 20
163.5318248572
 10
224.0874208534
 20
163.5343274242
 10
224.1320484137
 20
163.5334735018
 10
224.1776649305
 20
163.5293080434
 10
224.2238095535
 20
163.5219123287
 10
224.2704903897
 20
163.5112354281
 10
224.3176975416
 20
163.497327349
 10
224.3649432919
 20
163.4804208492
 10
224.4120647621
 20
163.4605933574
 10
224.4592239246
 20
163.4377669788
 10
224.5064205549
 20
163.4119415979
  0
LWPOLYLINE
  5
304
100
AcDbEntity
  8
RACCORDO
100
AcDbPolyline
 62
250
  6
CONTINUOUS
 90
8
 70
0
 10
224.3055145341
 20
163.097350617
 10
224.3213715868
 20
163.1194557743
 10
224.338580633
 20
163.1400025004
 10
224.3571095276
 20
163.1589231661
 10
224.3769356961
 20
163.1761627317
 10
224.398006943
 20
163.1916509025
 10
224.4202374233
 20
163.2053097324
 10
224.4410662289
 20
163.215942287
  0
LWPOLYLINE
  5
305
100
AcDbEntity
  8
0
100
AcDbPolyline
 62
250
  6
CONTINUOUS
 90
10
 70
0
 10
227.7653261755
 20
158.8892604341
 10
227.776939251
 20
158.8967037291
 10
227.7873913098
 20
158.9047001787
 10
227.7966036847
 20
158.9131896008
 10
227.8045070382
 20
158.9221081026
 10
227.8110418846
 20
158.9313885616
 10
227.8161590377
 20
158.9409611309
 10
227.8198199816
 20
158.950753765
 10
227.8219971599
 20
158.9606927616
 10
227.8226760857
 20
158.9701996765
  0
LINE
  5
306
100
AcDbEntity
  8
0
100
AcDbLine
 62
250
  6
CONTINUOUS
 10
227.4246683591
 20
159.2617958198
 11
226.277944421
 21
158.634678824
  0
LINE
  5
307
100
AcDbEntity
  8
0
100
AcDbLine
 62
250
  6
CONTINUOUS
 10
227.5623840829
 20
159.0148129171
 11
226.277944421
 21
158.3123823535
  0
LINE
  5
308
100
AcDbEntity
  8
0
100
AcDbLine
 62
7
  6
CONTINUOUS
 10
226.8203765922
 20
159.5691390043
 11
226.277944421
 21
159.2982151022
  0
LINE
  5
309
100
AcDbEntity
  8
0
100
AcDbLine
 62
250
  6
CONTINUOUS
 10
226.9146777346
 20
159.5562593281
 11
226.277944421
 21
159.2382356505
  0
LINE
  5
30A
100
AcDbEntity
  8
RACCORDO
100
AcDbLine
 62
7
  6
CONTINUOUS
 10
224.4410662289
 20
163.215942287
 11
224.4415406296
 21
163.216162119
  0
LINE
  5
30B
100
AcDbEntity
  8
0
100
AcDbLine
 62
250
  6
CONTINUOUS
 10
224.2266447761
 20
162.8262099857
 11
224.7607151045
 21
163.073151853
  0
LWPOLYLINE
  5
30C
100
AcDbEntity
  8
RACCORDO
100
AcDbPolyline
 62
7
  6
CONTINUOUS
 90
16
 70
0
 10
224.4401799635
 20
163.2155971241
 10
224.4399329005
 20
163.2155136909
 10
224.4400487791
 20
163.2155237567
 10
224.4416064235
 20
163.2157931498
 10
224.445400533
 20
163.2161720703
 10
224.4517691947
 20
163.2163143923
 10
224.4605610332
 20
163.2158666938
 10
224.4717571198
 20
163.2145247598
 10
224.4853436604
 20
163.2120013542
 10
224.5011055832
 20
163.2080788868
 10
224.5186954536
 20
163.2026341527
 10
224.5379372968
 20
163.1955486795
 10
224.5586498348
 20
163.1867376841
 10
224.5805305423
 20
163.1762062242
 10
224.6033864342
 20
163.1639489428
 10
224.6093571087
 20
163.160543678
  0
LWPOLYLINE
  5
30D
100
AcDbEntity
  8
RACCORDO
100
AcDbPolyline
 62
250
  6
CONTINUOUS
 90
11
 70
0
 10
256.4687638015
 20
144.3558402686
 10
256.4463788066
 20
144.3554120902
 10
256.4259692834
 20
144.3559505951
 10
256.4076426087
 20
144.3574529503
 10
256.3914952008
 20
144.3599112515
 10
256.3776120128
 20
144.3633125656
 10
256.3660660855
 20
144.3676389977
 10
256.3569181634
 20
144.3728677862
 10
256.3502163744
 20
144.3789714219
 10
256.3459959774
 20
144.3859177928
 10
256.3453826067
 20
144.3876191825
  0
LINE
  5
30E
100
AcDbEntity
  8
0
100
AcDbLine
 62
7
  6
CONTINUOUS
 10
125.8687814925
 20
199.5935568953
 11
125.9774866372
 21
199.5307919072
  0
LINE
  5
30F
100
AcDbEntity
  8
0
100
AcDbLine
 62
7
  6
CONTINUOUS
 10
176.0733629568
 20
170.6060607691
 11
176.1820681014
 21
170.5432957809
  0
LINE
  5
310
100
AcDbEntity
  8
0
100
AcDbLine
 62
7
  6
CONTINUOUS
 10
226.277944421
 20
141.6185646428
 11
226.3866495656
 21
141.5557996547
  0
LINE
  5
311
100
AcDbEntity
  8
0
100
AcDbLine
 62
7
  6
CONTINUOUS
 10
276.4825258853
 20
112.6310685165
 11
276.5912310299
 21
112.5683035284
  0
LINE
  5
312
100
AcDbEntity
  8
0
100
AcDbLine
 62
250
  6
CONTINUOUS
 10
325.9077022215
 20
87.9079660296
 11
325.9961146258
 21
87.8569178154
  0
LINE
  5
313
100
AcDbEntity
  8
DRAFT
100
AcDbLine
 62
7
  6
CONTINUOUS
 10
326.3335539589
 20
88.8960933578
 11
326.6871073495
 21
88.6919560611
  0
LWPOLYLINE
  5
314
100
AcDbEntity
  8
0
100
AcDbPolyline
 62
7
  6
CONTINUOUS
 90
12
 70
0
 10
325.9383453419
 20
87.8485009557
 10
325.9373275031
 20
87.8491087683
 10
325.9315372855
 20
87.8534057432
 10
325.9262531472
 20
87.8588320901
 10
325.9215249773
 20
87.8653401899
 10
325.9174033955
 20
87.8728379108
 10
325.9139116565
 20
87.8812282504
 10
325.9110472421
 20
87.8904619743
 10
325.9088094787
 20
87.9005056302
 10
325.9072065259
 20
87.9113058921
 10
325.9062450622
 20
87.9227797806
 10
325.9059241524
 20
87.9348545344
  0
LWPOLYLINE
  5
315
100
AcDbEntity
  8
RACCORDO
100
AcDbPolyline
 62
250
  6
CONTINUOUS
 90
22
 70
0
 10
173.4597116056
 20
192.2842276786
 10
173.4827587304
 20
192.257567435
 10
173.5075423323
 20
192.2320118692
 10
173.5339320215
 20
192.2076954323
 10
173.5617889585
 20
192.184746056
 10
173.5909665846
 20
192.16328448
 10
173.6213113926
 20
192.1434236161
 10
173.6526637347
 20
192.125267955
 10
173.6848586622
 20
192.1089130158
 10
173.7177267936
 20
192.094444844
 10
173.7510952055
 20
192.0819395582
 10
173.7847883426
 20
192.0714629505
 10
173.818628941
 20
192.0630701395
 10
173.8524389611
 20
192.0568052808
 10
173.886040524
 20
192.0527013348
 10
173.9192568479
 20
192.0507798926
 10
173.9519131774
 20
192.0510510633
 10
173.9838377035
 20
192.0535134202
 10
174.0148624673
 20
192.0581540085
 10
174.0448242435
 20
192.0649484135
 10
174.0735653996
 20
192.0738608889
 10
174.1009347246
 20
192.0848445451
  0
LWPOLYLINE
  5
316
100
AcDbEntity
  8
RACCORDO
100
AcDbPolyline
 62
250
  6
CONTINUOUS
 90
13
 70
0
 10
224.3055145341
 20
126.4985881541
 10
224.2941907294
 20
126.5267677498
 10
224.2836747499
 20
126.5549687894
 10
224.2739851691
 20
126.5831457247
 10
224.2651334391
 20
126.6112688884
 10
224.2571429481
 20
126.6392760393
 10
224.2500442286
 20
126.6670737674
 10
224.2438523803
 20
126.694595429
 10
224.2385689578
 20
126.7218201589
 10
224.2341996637
 20
126.7487245105
 10
224.2307516996
 20
126.7752716518
 10
224.2282318165
 20
126.8014122683
 10
224.2266448029
 20
126.8271043232
  0
LWPOLYLINE
  5
317
100
AcDbEntity
  8
RACCORDO
100
AcDbPolyline
 62
250
  6
CONTINUOUS
 90
13
 70
0
 10
223.6642908233
 20
126.2817158084
 10
223.6463822918
 20
126.3278914322
 10
223.6297857871
 20
126.3739477007
 10
223.6145014906
 20
126.4198847288
 10
223.6004972246
 20
126.465809069
 10
223.5878055571
 20
126.5116144159
 10
223.5765237141
 20
126.5569815503
 10
223.5666725583
 20
126.6018636004
 10
223.558231447
 20
126.6463075767
 10
223.5512352219
 20
126.6901350031
 10
223.5456955193
 20
126.7332864014
 10
223.5416008249
 20
126.7758213262
 10
223.5389512055
 20
126.8177398192
  0
LWPOLYLINE
  5
318
100
AcDbEntity
  8
RACCORDO
100
AcDbPolyline
 62
250
  6
CONTINUOUS
 90
3
 70
0
 10
206.2201425478
 20
173.4681130063
 10
206.2432280767
 20
173.4059138938
 10
206.2641900371
 20
173.3433114453
  0
LWPOLYLINE
  5
319
100
AcDbEntity
  8
RACCORDO
100
AcDbPolyline
 62
250
  6
CONTINUOUS
 90
13
 70
0
 10
206.2641872793
 20
173.3433130376
 10
206.2788020959
 20
173.2952356214
 10
206.2920532828
 20
173.247249078
 10
206.3039410214
 20
173.199353502
 10
206.3144896536
 20
173.1514388353
 10
206.323675227
 20
173.1036153394
 10
206.3314254069
 20
173.0562135497
 10
206.337723049
 20
173.0092806266
 10
206.3425855185
 20
172.9627695257
 10
206.345992119
 20
172.9168694097
 10
206.3479359735
 20
172.8716433448
 10
206.3484240804
 20
172.8270283291
 10
206.3474565062
 20
172.7830243978
  0
LWPOLYLINE
  5
31A
100
AcDbEntity
  8
RACCORDO
100
AcDbPolyline
 62
7
  6
CONTINUOUS
 90
13
 70
0
 10
206.1408011425
 20
173.3751153088
 10
206.1538306855
 20
173.3318741124
 10
206.1643051958
 20
173.2929910357
 10
206.1734158499
 20
173.2548628306
 10
206.1811854967
 20
173.2175901702
 10
206.1876411675
 20
173.1812758728
 10
206.1928135423
 20
173.1460368145
 10
206.1967405073
 20
173.1119986204
 10
206.1994716817
 20
173.0792540555
 10
206.2010626461
 20
173.0479041913
 10
206.2015778837
 20
173.0180850253
 10
206.2010947855
 20
172.9898917732
 10
206.0919797766
 20
169.9706792734
  0
LWPOLYLINE
  5
31B
100
AcDbEntity
  8
RACCORDO
100
AcDbPolyline
 62
250
  6
CONTINUOUS
 90
13
 70
0
 10
223.5389512055
 20
126.8177398192
 10
223.4158384753
 20
129.7551481844
 10
223.3150991136
 20
132.7051931435
 10
223.2367395231
 20
135.6676776235
 10
223.1807645725
 20
138.6424037643
 10
223.1471779325
 20
141.6291726692
 10
223.135982074
 20
144.6277844177
 10
223.147177932
 20
147.6380383871
 10
223.1807645715
 20
150.6597333916
 10
223.2367395218
 20
153.6926674322
 10
223.3150991124
 20
156.7366376316
 10
223.4158384745
 20
159.7914402492
 10
223.5389512055
 20
162.8568708185
  0
LWPOLYLINE
  5
31C
100
AcDbEntity
  8
RACCORDO
100
AcDbPolyline
 62
250
  6
CONTINUOUS
 90
13
 70
0
 10
224.2266446913
 20
126.8271042588
 10
224.1036536679
 20
129.7615795089
 10
224.0030227923
 20
132.7082833342
 10
223.9247520645
 20
135.6672157347
 10
223.8688392092
 20
138.638576842
 10
223.8352865017
 20
141.6221665245
 10
223.8241007678
 20
144.6173843874
 10
223.8352865678
 20
147.6242329874
 10
223.8688393414
 20
150.6427097679
 10
223.9247522345
 20
153.6722066644
 10
224.0030229622
 20
156.7125209888
 10
224.1036538095
 20
159.7638554292
 10
224.2266447761
 20
162.8262099857
  0
LWPOLYLINE
  5
31D
100
AcDbEntity
  8
0
100
AcDbPolyline
 62
250
  6
CONTINUOUS
 90
28
 70
0
 10
227.7653261755
 20
158.8892604341
 10
227.7649797542
 20
158.9030277713
 10
227.7639650234
 20
158.9162738971
 10
227.7622819832
 20
158.9289988118
 10
227.7599212531
 20
158.9412412904
 10
227.7568922136
 20
158.9529625578
 10
227.7532230059
 20
158.9640462879
 10
227.7489068759
 20
158.9744862771
 10
227.7439505778
 20
158.9842887291
 10
227.7384025154
 20
158.9933559288
 10
227.7322573203
 20
159.0016795109
 10
227.7255203609
 20
159.0092678407
 10
227.7182561462
 20
159.0160482993
 10
227.7104595206
 20
159.0220133975
 10
227.7021356397
 20
159.0271706245
 10
227.693364479
 20
159.0314698284
 10
227.6841417358
 20
159.0349027728
 10
227.6744717129
 20
159.0374776942
 10
227.6644472929
 20
159.0391691503
 10
227.6540651255
 20
159.0399686924
 10
227.6433285611
 20
159.0398847692
 10
227.6323405344
 20
159.0389172852
 10
227.6210965957
 20
159.037056745
 10
227.6096011947
 20
159.034312644
 10
227.5979706146
 20
159.0307133717
 10
227.5862436164
 20
159.0262683914
 10
227.5743814392
 20
159.0209682399
 10
227.5623840829
 20
159.0148129171
  0
LWPOLYLINE
  5
31E
100
AcDbEntity
  8
0
100
AcDbPolyline
 62
7
  6
CONTINUOUS
 90
15
 70
0
 10
227.8226749025
 20
158.9702006758
 10
227.8220740412
 20
158.9941630695
 10
227.8193946084
 20
159.0254192623
 10
227.8145967928
 20
159.0556512059
 10
227.8077564005
 20
159.0846003927
 10
227.7989616703
 20
159.1121590748
 10
227.7882792575
 20
159.138311229
 10
227.7758321268
 20
159.1629051629
 10
227.7617951354
 20
159.1857833394
 10
227.7462625768
 20
159.2069655453
 10
227.7292581868
 20
159.2265158645
 10
227.7109254101
 20
159.2443333016
 10
227.6914017441
 20
159.2603577868
 10
227.6706668695
 20
159.2746428498
 10
227.6610067734
 20
159.2804626378
  0
LWPOLYLINE
  5
31F
100
AcDbEntity
  8
RACCORDO
100
AcDbPolyline
 62
250
  6
CONTINUOUS
 90
25
 70
0
 10
224.5064205549
 20
125.2540797349
 10
224.5059153225
 20
125.2805337155
 10
224.5069282665
 20
125.3078450374
 10
224.5094550341
 20
125.335896416
 10
224.513484772
 20
125.3645673887
 10
224.5190001724
 20
125.393734833
 10
224.5259775483
 20
125.4232734954
 10
224.5343869341
 20
125.4530565274
 10
224.5441922152
 20
125.4829560324
 10
224.5553512831
 20
125.5128436148
 10
224.5678162154
 20
125.5425909291
 10
224.5815334825
 20
125.5720702328
 10
224.5964441779
 20
125.6011549366
 10
224.6124842693
 20
125.6297201436
 10
224.6295848751
 20
125.6576431887
 10
224.6476725611
 20
125.6848041664
 10
224.666669653
 20
125.7110864416
 10
224.6864945718
 20
125.7363771531
 10
224.7070621856
 20
125.7605677
 10
224.7282841716
 20
125.7835542033
 10
224.750069397
 20
125.8052379548
 10
224.7723243129
 20
125.8255258427
 10
224.7949533524
 20
125.8443307476
 10
224.81785934
 20
125.8615719171
 10
224.8409439122
 20
125.8771753145
  0
LWPOLYLINE
  5
320
100
AcDbEntity
  8
0
100
AcDbPolyline
 62
250
  6
CONTINUOUS
 90
19
 70
0
 10
227.5623840829
 20
159.0148129171
 10
227.5622677579
 20
159.02959186
 10
227.5610670852
 20
159.0448741276
 10
227.5587911991
 20
159.0605434577
 10
227.5554574138
 20
159.0764806435
 10
227.5510910915
 20
159.0925644404
 10
227.5457254498
 20
159.1086724884
 10
227.5394013085
 20
159.1246822429
 10
227.5321667797
 20
159.1404719075
 10
227.5240769009
 20
159.1559213596
 10
227.5151932174
 20
159.1709130652
 10
227.5055833131
 20
159.1853329726
 10
227.4953202967
 20
159.1990713802
 10
227.4844822458
 20
159.2120237707
 10
227.4731516126
 20
159.2240916071
 10
227.4614145966
 20
159.2351830812
 10
227.4493604889
 20
159.245213813
 10
227.4370809931
 20
159.2541074922
 10
227.4246695273
 20
159.2617964587
  0
LINE
  5
321
100
AcDbEntity
  8
0
100
AcDbLine
 62
7
  6
CONTINUOUS
 10
226.277944421
 20
128.0114954469
 11
226.277944421
 21
162.197122661
  0
LINE
  5
322
100
AcDbEntity
  8
0
100
AcDbLine
 62
7
  6
CONTINUOUS
 10
226.3864894449
 20
141.5557120883
 11
226.3864894449
 21
138.9201986549
  0
LINE
  5
323
100
AcDbEntity
  8
0
100
AcDbLine
 62
250
  6
CONTINUOUS
 10
227.7653261755
 20
157.0650117296
 11
227.7653261755
 21
158.8892604341
  0
LINE
  5
324
100
AcDbEntity
  8
0
100
AcDbLine
 62
7
  6
CONTINUOUS
 10
227.8226760857
 20
157.1459509746
 11
227.8226760857
 21
158.9701996765
  0
LWPOLYLINE
  5
325
100
AcDbEntity
  8
0
100
AcDbPolyline
 62
250
  6
CONTINUOUS
 90
10
 70
0
 10
227.5623840829
 20
156.7009804695
 10
227.5622677575
 20
156.6873182079
 10
227.5610670822
 20
156.674375645
 10
227.5587911917
 20
156.6622512435
 10
227.5554574008
 20
156.6510372414
 10
227.551091072
 20
156.6408189506
 10
227.5457254236
 20
156.6316741083
 10
227.5394012761
 20
156.6236722849
 10
227.5321667417
 20
156.6168743549
 10
227.5261269112
 20
156.6125663945
  0
LWPOLYLINE
  5
326
100
AcDbEntity
  8
RACCORDO
100
AcDbPolyline
 62
250
  6
CONTINUOUS
 90
14
 70
0
 10
224.5064205549
 20
163.4119415979
 10
224.5059153208
 20
163.3849043453
 10
224.5069282462
 20
163.3587628767
 10
224.5094549811
 20
163.3336294503
 10
224.513484675
 20
163.3096119957
 10
224.5190000236
 20
163.2868136499
 10
224.5259773423
 20
163.2653323151
 10
224.5343866688
 20
163.2452602378
 10
224.5441918912
 20
163.2266836126
 10
224.5553509034
 20
163.2096822125
 10
224.5678157856
 20
163.1943290458
 10
224.5815330104
 20
163.1806900432
 10
224.5964436724
 20
163.168823774
 10
224.6093572877
 20
163.1605439877
  0
LWPOLYLINE
  5
327
100
AcDbEntity
  8
RACCORDO
100
AcDbPolyline
 62
250
  6
CONTINUOUS
 90
10
 70
0
 10
224.2266449405
 20
162.8262100616
 10
224.2289624551
 20
162.8611525954
 10
224.2329329775
 20
162.8951150113
 10
224.2385476944
 20
162.9279999823
 10
224.2457988598
 20
162.9597274623
 10
224.2546651234
 20
162.9901909291
 10
224.2651053027
 20
163.0192636617
 10
224.2770811566
 20
163.0468555445
 10
224.2905637579
 20
163.0729072551
 10
224.3055145341
 20
163.097350617
  0
LWPOLYLINE
  5
328
100
AcDbEntity
  8
RACCORDO
100
AcDbPolyline
 62
250
  6
CONTINUOUS
 90
10
 70
0
 10
223.5389512055
 20
162.8568708185
 10
223.5428002939
 20
162.9139703445
 10
223.5492083976
 20
162.9691444887
 10
223.558175344
 20
163.0223931599
 10
223.5697531498
 20
163.0738908283
 10
223.5838895074
 20
163.1234628697
 10
223.6004275324
 20
163.1705854351
 10
223.6193145728
 20
163.2150837215
 10
223.6406024609
 20
163.2571321035
 10
223.6642908233
 20
163.2967303861
  0
LINE
  5
329
100
AcDbEntity
  8
0
100
AcDbLine
 62
250
  6
CONTINUOUS
 10
205.8085913368
 20
136.8662171601
 11
206.1937866757
 21
137.1378289817
  0
LWPOLYLINE
  5
32A
100
AcDbEntity
  8
0
100
AcDbPolyline
 62
250
  6
CONTINUOUS
 90
28
 70
0
 10
227.5623840829
 20
156.7009804695
 10
227.5743814392
 20
156.7089233302
 10
227.5862436164
 20
156.7175625122
 10
227.5979706146
 20
156.7268980155
 10
227.6096011947
 20
156.7369659252
 10
227.6210965957
 20
156.7477301563
 10
227.6323405344
 20
156.759082453
 10
227.6433285611
 20
156.7710270816
 10
227.6540651255
 20
156.7835597759
 10
227.6644472929
 20
156.7965594809
 10
227.6744717129
 20
156.8100307082
 10
227.6841417359
 20
156.8239689462
 10
227.693364479
 20
156.8382396052
 10
227.7021356397
 20
156.8528458661
 10
227.7104595206
 20
156.867784548
 10
227.7182561461
 20
156.8829115195
 10
227.7255203609
 20
156.8982282114
 10
227.7322573204
 20
156.9137331928
 10
227.7384025155
 20
156.9292780398
 10
227.7439505778
 20
156.9448648093
 10
227.7489068758
 20
156.9604914443
 10
227.7532230057
 20
156.9760033503
 10
227.7568922135
 20
156.991398794
 10
227.7599212533
 20
157.0066795085
 10
227.7622819835
 20
157.0216960989
 10
227.7639650237
 20
157.0363987667
 10
227.7649797544
 20
157.0508373102
 10
227.7653261755
 20
157.0650117296
  0
LWPOLYLINE
  5
32B
100
AcDbEntity
  8
0
100
AcDbPolyline
 62
7
  6
CONTINUOUS
 90
22
 70
0
 10
227.5261034116
 20
156.6125514024
 10
227.5428738364
 20
156.6235578053
 10
227.5669666636
 20
156.641072029
 10
227.5902974693
 20
156.6600569348
 10
227.6128727214
 20
156.6804680343
 10
227.6346503653
 20
156.7022293984
 10
227.6555297865
 20
156.725211281
 10
227.6754814365
 20
156.7493472495
 10
227.6944659659
 20
156.7745740182
 10
227.7123655882
 20
156.800720907
 10
227.729141621
 20
156.8277111346
 10
227.7447494777
 20
156.8554785849
 10
227.7590857004
 20
156.883836499
 10
227.7721121824
 20
156.9127145037
 10
227.7837833819
 20
156.9420409219
 10
227.7940145387
 20
156.971628347
 10
227.8027667946
 20
157.0014123064
 10
227.8100013579
 20
157.0313330856
 10
227.8156536946
 20
157.0612377513
 10
227.8196787906
 20
157.0910547737
 10
227.8220340376
 20
157.1207690906
 10
227.8226748994
 20
157.1459697534
  0
LWPOLYLINE
  5
32C
100
AcDbEntity
  8
0
100
AcDbPolyline
 62
250
  6
CONTINUOUS
 90
10
 70
0
 10
227.7653261755
 20
157.0650117296
 10
227.7769393083
 20
157.0724550653
 10
227.7873914053
 20
157.0804515553
 10
227.7966038006
 20
157.0889410156
 10
227.8045071586
 20
157.0978595516
 10
227.811041996
 20
157.1071400394
 10
227.8161591295
 20
157.1167126312
 10
227.819820046
 20
157.1265052804
 10
227.821997192
 20
157.1364442842
 10
227.8226760857
 20
157.1459509746
  0
LINE
  5
32D
100
AcDbEntity
  8
0
100
AcDbLine
 62
250
  6
CONTINUOUS
 10
226.277944421
 20
155.89405634
 11
227.5623840829
 21
156.7009804695
  0
LINE
  5
32E
100
AcDbEntity
  8
0
100
AcDbLine
 62
7
  6
CONTINUOUS
 10
226.277944421
 20
155.828420125
 11
227.5261269112
 21
156.6125663945
  0
LWPOLYLINE
  5
32F
100
AcDbEntity
  8
RACCORDO
100
AcDbPolyline
 62
250
  6
CONTINUOUS
 90
4
 70
0
 10
206.2056559698
 20
136.823404135
 10
206.1856553968
 20
136.810876169
 10
206.1658355058
 20
136.8011232655
 10
206.1449402723
 20
136.793271868
  0
LINE
  5
330
100
AcDbEntity
  8
0
100
AcDbLine
 62
7
  6
CONTINUOUS
 10
204.3323222336
 20
140.1562066564
 11
204.2262071476
 21
140.0916111093
  0
LINE
  5
331
100
AcDbEntity
  8
0
100
AcDbLine
 62
7
  6
CONTINUOUS
 10
202.0496712261
 20
141.4739958363
 11
201.9360438993
 21
141.4139226664
  0
LWPOLYLINE
  5
332
100
AcDbEntity
  8
RACCORDO
100
AcDbPolyline
 62
250
  6
CONTINUOUS
 90
22
 70
0
 10
173.459710617
 20
155.2692127343
 10
173.4827578251
 20
155.2700232673
 10
173.5075414989
 20
155.2720103433
 10
173.5339312492
 20
155.2751635083
 10
173.5617882369
 20
155.2794661731
 10
173.5909659037
 20
155.2848957009
 10
173.6213107429
 20
155.2914235266
 10
173.6526631075
 20
155.2990153065
 10
173.6848580495
 20
155.3076310996
 10
173.7177261883
 20
155.3172255773
 10
173.7510946012
 20
155.3277482622
 10
173.7847877339
 20
155.3391437934
 10
173.8186283233
 20
155.3513522178
 10
173.8524383309
 20
155.3643093058
 10
173.886039879
 20
155.3779468889
 10
173.9192561864
 20
155.3921932184
 10
173.9519124988
 20
155.406973343
 10
173.9838370084
 20
155.422209503
 10
174.014861757
 20
155.4378215394
 10
174.0448235204
 20
155.4537273159
 10
174.0735646668
 20
155.4698431505
 10
174.1009339863
 20
155.4860842563
  0
LWPOLYLINE
  5
333
100
AcDbEntity
  8
0
100
AcDbPolyline
 62
250
  6
CONTINUOUS
 90
12
 70
0
 10
277.3497132668
 20
130.5901963479
 10
277.332136715
 20
130.5974371404
 10
277.313636146
 20
130.6028588037
 10
277.2942812107
 20
130.6064403084
 10
277.2741536059
 20
130.6081660118
 10
277.253351424
 20
130.6080271167
 10
277.231965304
 20
130.6060290118
 10
277.2100759795
 20
130.6021839064
 10
277.187770748
 20
130.5965062928
 10
277.165138748
 20
130.5890197663
 10
277.1422710375
 20
130.57975871
 10
277.1192591988
 20
130.5687632018
  0
LWPOLYLINE
  5
334
100
AcDbEntity
  8
0
100
AcDbPolyline
 62
250
  6
CONTINUOUS
 90
12
 70
0
 10
227.1451318025
 20
159.5776924741
 10
227.1275552507
 20
159.5849332666
 10
227.1090546817
 20
159.59035493
 10
227.0896997464
 20
159.5939364347
 10
227.0695721416
 20
159.595662138
 10
227.0487699598
 20
159.5955232429
 10
227.0273838398
 20
159.5935251381
 10
227.0054945153
 20
159.5896800326
 10
226.9831892838
 20
159.5840024191
 10
226.9605572837
 20
159.5765158926
 10
226.9376895732
 20
159.5672548362
 10
226.9146777346
 20
159.5562593281
  0
LWPOLYLINE
  5
335
100
AcDbEntity
  8
0
100
AcDbPolyline
 62
7
  6
CONTINUOUS
 90
15
 70
0
 10
277.3618618944
 20
130.5838093794
 10
277.3411756158
 20
130.5947225513
 10
277.3190325509
 20
130.6043029257
 10
277.2960668717
 20
130.6121781891
 10
277.2724000383
 20
130.6182946454
 10
277.2480214757
 20
130.6226305051
 10
277.2230274736
 20
130.6251287773
 10
277.1975433603
 20
130.625741628
 10
277.1715694502
 20
130.6244325066
 10
277.1451931712
 20
130.6211564239
 10
277.1185165339
 20
130.6158734501
 10
277.0915217748
 20
130.6085194777
 10
277.0642437957
 20
130.5990273773
 10
277.0367936232
 20
130.5873478752
 10
277.0249946054
 20
130.5816583882
  0
LWPOLYLINE
  5
336
100
AcDbEntity
  8
0
100
AcDbPolyline
 62
7
  6
CONTINUOUS
 90
15
 70
0
 10
227.1572804301
 20
159.5713055057
 10
227.1365941516
 20
159.5822186775
 10
227.1144510867
 20
159.5917990519
 10
227.0914854074
 20
159.5996743154
 10
227.067818574
 20
159.6057907717
 10
227.0434400115
 20
159.6101266314
 10
227.0184460094
 20
159.6126249036
 10
226.9929618961
 20
159.6132377543
 10
226.966987986
 20
159.6119286329
 10
226.940611707
 20
159.6086525502
 10
226.9139350696
 20
159.6033695764
 10
226.8869403106
 20
159.5960156039
 10
226.8596623315
 20
159.5865235036
 10
226.832212159
 20
159.5748440015
 10
226.8204131411
 20
159.5691545144
  0
LWPOLYLINE
  5
337
100
AcDbEntity
  8
RACCORDO
100
AcDbPolyline
 62
250
  6
CONTINUOUS
 90
19
 70
0
 10
321.6968923257
 20
106.6939349281
 10
321.7155178438
 20
106.6839498104
 10
321.7355177818
 20
106.674818018
 10
321.7567498881
 20
106.6666045016
 10
321.779063147
 20
106.6593676808
 10
321.8022988533
 20
106.6531590283
 10
321.8262917404
 20
106.6480227036
 10
321.8508711566
 20
106.6439952396
 10
321.875862278
 20
106.6411052818
 10
321.9010873528
 20
106.6393733856
 10
321.9263669649
 20
106.638811869
 10
321.9515213105
 20
106.6394247261
 10
321.9763714767
 20
106.6412075978
 10
322.0007407139
 20
106.6441478032
 10
322.0244556936
 20
106.6482244298
 10
322.0473477403
 20
106.6534084821
 10
322.0692540321
 20
106.6596630881
 10
322.0900187581
 20
106.6669437613
 10
322.109494227
 20
106.675198717
  0
LWPOLYLINE
  5
338
100
AcDbEntity
  8
RACCORDO
100
AcDbPolyline
 62
250
  6
CONTINUOUS
 90
22
 70
0
 10
273.7435351428
 20
133.8693759799
 10
273.7699974374
 20
133.8550305565
 10
273.7981670405
 20
133.8417210785
 10
273.8278967248
 20
133.8295171074
 10
273.8590311097
 20
133.8184824265
 10
273.8914074726
 20
133.8086747082
 10
273.9248566002
 20
133.800145212
 10
273.9592036721
 20
133.792938517
 10
273.9942691749
 20
133.7870922885
 10
274.0298698404
 20
133.7826370816
 10
274.0658196036
 20
133.7795961813
 10
274.1019305745
 20
133.7779854807
 10
274.138014021
 20
133.777813398
 10
274.1738813545
 20
133.7790808326
 10
274.2093451163
 20
133.7817811603
 10
274.2442199565
 20
133.785900268
 10
274.2783236035
 20
133.7914166274
 10
274.3114778162
 20
133.7983014074
 10
274.3435093157
 20
133.8065186252
 10
274.3742506908
 20
133.8160253337
 10
274.4035412732
 20
133.8267718466
 10
274.4312279771
 20
133.8387019978
  0
LWPOLYLINE
  5
339
100
AcDbEntity
  8
0
100
AcDbPolyline
 62
250
  6
CONTINUOUS
 90
10
 70
0
 10
277.1192591988
 20
130.5687632018
 10
277.1073610941
 20
130.5754697608
 10
277.0955158966
 20
130.5808636182
 10
277.0838136159
 20
130.5849037872
 10
277.0723431754
 20
130.5875595673
 10
277.0611917367
 20
130.5888107776
 10
277.0504440377
 20
130.5886479105
 10
277.040181748
 20
130.5870722035
 10
277.030482849
 20
130.5840956302
 10
277.0249935136
 20
130.5816605744
  0
LWPOLYLINE
  5
33A
100
AcDbEntity
  8
0
100
AcDbPolyline
 62
250
  6
CONTINUOUS
 90
10
 70
0
 10
226.9146777346
 20
159.5562593281
 10
226.9027796298
 20
159.5629658871
 10
226.8909344324
 20
159.5683597445
 10
226.8792321517
 20
159.5723999135
 10
226.8677617111
 20
159.5750556936
 10
226.8566102725
 20
159.5763069039
 10
226.8458625734
 20
159.5761440368
 10
226.8356002838
 20
159.5745683298
 10
226.8259013847
 20
159.5715917565
 10
226.8204120494
 20
159.5691567006
  0
LWPOLYLINE
  5
33B
100
AcDbEntity
  8
0
100
AcDbPolyline
 62
250
  6
CONTINUOUS
 90
10
 70
0
 10
176.7100962703
 20
188.5437554543
 10
176.6981981656
 20
188.5504620133
 10
176.6863529681
 20
188.5558558708
 10
176.6746506874
 20
188.5598960398
 10
176.6631802469
 20
188.5625518198
 10
176.6520288082
 20
188.5638030301
 10
176.6412811092
 20
188.563640163
 10
176.6310188195
 20
188.5620644561
 10
176.6213199205
 20
188.5590878828
 10
176.6158305852
 20
188.5566528269
  0
LWPOLYLINE
  5
33C
100
AcDbEntity
  8
0
100
AcDbPolyline
 62
250
  6
CONTINUOUS
 90
15
 70
0
 10
277.8655972358
 20
130.2929614797
 10
277.8629471308
 20
130.2944571659
 10
277.8482526759
 20
130.3016483349
 10
277.8328097396
 20
130.3074071446
 10
277.8166684942
 20
130.3117148641
 10
277.7998807484
 20
130.3145578677
 10
277.7825014467
 20
130.3159268029
 10
277.7645868657
 20
130.3158171813
 10
277.7461936411
 20
130.314229652
 10
277.7273797487
 20
130.3111686472
 10
277.7082081305
 20
130.306643853
 10
277.6887451118
 20
130.3006718536
 10
277.6690555241
 20
130.2932736105
 10
277.6492022223
 20
130.2844731655
 10
277.6292498192
 20
130.2742996959
  0
LWPOLYLINE
  5
33D
100
AcDbEntity
  8
0
100
AcDbPolyline
 62
250
  6
CONTINUOUS
 90
15
 70
0
 10
227.6610157716
 20
159.280457606
 10
227.6583656666
 20
159.2819532922
 10
227.6436712117
 20
159.2891444612
 10
227.6282282754
 20
159.2949032708
 10
227.6120870299
 20
159.2992109904
 10
227.5952992842
 20
159.302053994
 10
227.5779199825
 20
159.3034229292
 10
227.5600054014
 20
159.3033133076
 10
227.5416121768
 20
159.3017257783
 10
227.5227982844
 20
159.2986647735
 10
227.5036266662
 20
159.2941399793
 10
227.4841636475
 20
159.2881679799
 10
227.4644740599
 20
159.2807697367
 10
227.444620758
 20
159.2719692917
 10
227.4246683549
 20
159.2617958222
  0
LWPOLYLINE
  5
33E
100
AcDbEntity
  8
0
100
AcDbPolyline
 62
250
  6
CONTINUOUS
 90
15
 70
0
 10
177.4564343073
 20
188.2679537322
 10
177.4537842023
 20
188.2694494185
 10
177.4390897474
 20
188.2766405874
 10
177.4236468111
 20
188.2823993971
 10
177.4075055657
 20
188.2867071167
 10
177.3907178199
 20
188.2895501202
 10
177.3733385182
 20
188.2909190554
 10
177.3554239372
 20
188.2908094339
 10
177.3370307126
 20
188.2892219045
 10
177.3182168202
 20
188.2861608997
 10
177.299045202
 20
188.2816361056
 10
177.2795821833
 20
188.2756641062
 10
177.2598925956
 20
188.268265863
 10
177.2400392938
 20
188.259465418
 10
177.2200868907
 20
188.2492919485
  0
LINE
  5
33F
100
AcDbEntity
  8
0
100
AcDbLine
 62
250
  6
CONTINUOUS
 10
176.7100962703
 20
188.5437554543
 11
177.2200868949
 21
188.2492919461
  0
LINE
  5
340
100
AcDbEntity
  8
0
100
AcDbLine
 62
250
  6
CONTINUOUS
 10
126.5055136559
 20
217.5312510061
 11
127.0155054306
 21
217.2367880723
  0
LINE
  5
341
100
AcDbEntity
  8
0
100
AcDbLine
 62
250
  6
CONTINUOUS
 10
226.9146777346
 20
159.5562593281
 11
227.4246683591
 21
159.2617958198
  0
LINE
  5
342
100
AcDbEntity
  8
0
100
AcDbLine
 62
250
  6
CONTINUOUS
 10
277.1192591988
 20
130.5687632018
 11
277.6292498234
 21
130.2742996935
  0
LINE
  5
343
100
AcDbEntity
  8
0
100
AcDbLine
 62
7
  6
CONTINUOUS
 10
277.3619125995
 20
130.5837827079
 11
277.3618741694
 21
130.5838048904
  0
LINE
  5
344
100
AcDbEntity
  8
0
100
AcDbLine
 62
7
  6
CONTINUOUS
 10
126.7480955378
 20
217.5463130218
 11
127.2519353901
 21
217.2554022287
  0
LINE
  5
345
100
AcDbEntity
  8
0
100
AcDbLine
 62
7
  6
CONTINUOUS
 10
176.9527491526
 20
188.5587752598
 11
177.4565168543
 21
188.2679061025
  0
LINE
  5
346
100
AcDbEntity
  8
0
100
AcDbLine
 62
7
  6
CONTINUOUS
 10
227.1572927052
 20
159.5713010166
 11
227.6610983186
 21
159.2804099762
  0
LINE
  5
347
100
AcDbEntity
  8
0
100
AcDbLine
 62
7
  6
CONTINUOUS
 10
277.361912081
 20
130.5837830072
 11
277.8656797828
 21
130.2929138499
  0
LINE
  5
348
100
AcDbEntity
  8
0
100
AcDbLine
 62
7
  6
CONTINUOUS
 10
176.952749671
 20
188.5587749604
 11
176.952711241
 21
188.5587971429
  0
LWPOLYLINE
  5
349
100
AcDbEntity
  8
RACCORDO
100
AcDbPolyline
 62
7
  6
CONTINUOUS
 90
25
 70
0
 10
155.3725078243
 20
203.1370320418
 10
155.3983418734
 20
203.1213552216
 10
155.4233418784
 20
203.1047668941
 10
155.4492766115
 20
203.0861168301
 10
155.4759227286
 20
203.0654418755
 10
155.5031435112
 20
203.042735752
 10
155.5308107721
 20
203.0179971131
 10
155.5587249839
 20
202.991305683
 10
155.5867483642
 20
202.9627040795
 10
155.6147523292
 20
202.9322381366
 10
155.6425666311
 20
202.9000159233
 10
155.6700674889
 20
202.8661111427
 10
155.6971280411
 20
202.8306140778
 10
155.7235895581
 20
202.79367616
 10
155.7493434109
 20
202.7554008201
 10
155.7742752582
 20
202.7159142203
 10
155.7982368653
 20
202.6754201129
 10
155.8211362726
 20
202.634055838
 10
155.8428862469
 20
202.5919675305
 10
155.8633693278
 20
202.5493870047
 10
155.8825207785
 20
202.5064707079
 10
155.9002879665
 20
202.4633679146
 10
155.9165977801
 20
202.4203064557
 10
155.9314079647
 20
202.3774754798
 10
155.9362176226
 20
202.3626175332
  0
LWPOLYLINE
  5
34A
100
AcDbEntity
  8
RACCORDO
100
AcDbPolyline
 62
250
  6
CONTINUOUS
 90
20
 70
0
 10
155.2694673543
 20
203.388490633
 10
155.3163273255
 20
203.3600263051
 10
155.3629015384
 20
203.3287681971
 10
155.4091902141
 20
203.2947164226
 10
155.4553426526
 20
203.2577792077
 10
155.5012104466
 20
203.2180487857
 10
155.5463474769
 20
203.1758013946
 10
155.5907684958
 20
203.1309733738
 10
155.6344605428
 20
203.0836293067
 10
155.6769360766
 20
203.0342378736
 10
155.7181585864
 20
202.9827894036
 10
155.7581670703
 20
202.929294851
 10
155.7965872281
 20
202.8742538221
 10
155.833396366
 20
202.8176543117
 10
155.8686200781
 20
202.7595098255
 10
155.9019562723
 20
202.7003581217
 10
155.9333865759
 20
202.6401790538
 10
155.9629323422
 20
202.5789943155
 10
155.9903506006
 20
202.517404185
 10
156.0155610835
 20
202.4556091325
  0
LWPOLYLINE
  5
34B
100
AcDbEntity
  8
RACCORDO
100
AcDbPolyline
 62
250
  6
CONTINUOUS
 90
13
 70
0
 10
156.1428750519
 20
201.7705205293
 10
156.1182517118
 20
201.7856715981
 10
156.0956026455
 20
201.8017044567
 10
156.0750462259
 20
201.8185353111
 10
156.0566898887
 20
201.8360761968
 10
156.0406295711
 20
201.8542354382
 10
156.0269492107
 20
201.8729181283
 10
156.0157203062
 20
201.892026624
 10
156.0070015443
 20
201.911461057
 10
156.0008384925
 20
201.9311198555
 10
155.9972633613
 20
201.9509002749
 10
155.9962948359
 20
201.9706989352
 10
155.9963883067
 20
201.9740165965
  0
LWPOLYLINE
  5
34C
100
AcDbEntity
  8
RACCORDO
100
AcDbPolyline
 62
250
  6
CONTINUOUS
 90
13
 70
0
 10
206.3474565161
 20
172.783024403
 10
206.322833176
 20
172.7981754719
 10
206.3001841098
 20
172.8142083305
 10
206.2796276901
 20
172.8310391849
 10
206.2612713529
 20
172.8485800705
 10
206.2452110354
 20
172.8667393119
 10
206.2315306749
 20
172.885422002
 10
206.2203017705
 20
172.9045304977
 10
206.2115830085
 20
172.9239649307
 10
206.2054199567
 20
172.9436237292
 10
206.2018448256
 20
172.9634041487
 10
206.2008763001
 20
172.983202809
 10
206.2009697709
 20
172.9865204702
  0
LWPOLYLINE
  5
34D
100
AcDbEntity
  8
RACCORDO
100
AcDbPolyline
 62
250
  6
CONTINUOUS
 90
11
 70
0
 10
108.2315795381
 20
229.9461311796
 10
108.2144561618
 20
229.9567870255
 10
108.1989614731
 20
229.9681493857
 10
108.1852056798
 20
229.9801374441
 10
108.1732866213
 20
229.9926659345
 10
108.1632890732
 20
230.0056457466
 10
108.1552841441
 20
230.0189845603
 10
108.1493287699
 20
230.0325875017
 10
108.1454653088
 20
230.0463578185
 10
108.14372124
 20
230.0601975679
 10
108.1436858421
 20
230.0682062842
  0
LWPOLYLINE
  5
34E
100
AcDbEntity
  8
RACCORDO
100
AcDbPolyline
 62
250
  6
CONTINUOUS
 90
18
 70
0
 10
256.4687647316
 20
107.3408264356
 10
256.4463796108
 20
107.367868912
 10
256.4259699606
 20
107.3959499426
 10
256.4076431587
 20
107.4249217897
 10
256.3914956249
 20
107.4546320286
 10
256.3776123133
 20
107.4849243501
 10
256.3660662657
 20
107.5156393826
 10
256.3569182273
 20
107.5466155304
 10
256.3502163272
 20
107.5776898241
 10
256.3459958248
 20
107.6086987779
 10
256.3442789248
 20
107.63947925
 10
256.3450746601
 20
107.6698693003
 10
256.348378844
 20
107.6997090431
 10
256.354174093
 20
107.7288414877
 10
256.3624299174
 20
107.7571133647
 10
256.3731028825
 20
107.7843759322
 10
256.3861368363
 20
107.8104857585
 10
256.3881931969
 20
107.8141230888
  0
LWPOLYLINE
  5
34F
100
AcDbEntity
  8
0
100
AcDbPolyline
 62
250
  6
CONTINUOUS
 90
11
 70
0
 10
238.4990187985
 20
121.9825203895
 10
238.4948824281
 20
121.9920050012
 10
238.4898035081
 20
122.0013442747
 10
238.4837919673
 20
122.0105386766
 10
238.4769082328
 20
122.0194974215
 10
238.4691435553
 20
122.0282177618
 10
238.460506684
 20
122.0367024452
 10
238.451084294
 20
122.0448689294
 10
238.440905277
 20
122.0526897006
 10
238.4299407413
 20
122.0601922726
 10
238.4181906869
 20
122.0673766456
  0
LWPOLYLINE
  5
350
100
AcDbEntity
  8
0
100
AcDbPolyline
 62
7
  6
CONTINUOUS
 90
15
 70
0
 10
238.7048243682
 20
121.7814194348
 10
238.7046654439
 20
121.7912429082
 10
238.7028071146
 20
121.816154354
 10
238.698867585
 20
121.8409038618
 10
238.6928143486
 20
121.865522076
 10
238.68463303
 20
121.8898613622
 10
238.674339168
 20
121.9137531898
 10
238.6618733014
 20
121.9372033539
 10
238.6471828935
 20
121.9601345192
 10
238.6303126214
 20
121.9823321421
 10
238.6113163343
 20
122.0036366808
 10
238.5901806393
 20
122.023977639
 10
238.5669477256
 20
122.0432303805
 10
238.5417580677
 20
122.0612282899
 10
238.5169685844
 20
122.076573019
  0
LINE
  5
351
100
AcDbEntity
  8
0
100
AcDbLine
 62
250
  6
CONTINUOUS
 10
238.5705002454
 20
121.5860674873
 11
238.5705013848
 21
120.9971993549
  0
LINE
  5
352
100
AcDbEntity
  8
0
100
AcDbLine
 62
7
  6
CONTINUOUS
 10
238.704824534
 20
121.781519982
 11
238.704824534
 21
121.1998375201
  0
LWPOLYLINE
  5
353
100
AcDbEntity
  8
0
100
AcDbPolyline
 62
250
  6
CONTINUOUS
 90
10
 70
0
 10
238.5705013848
 20
120.9971993549
 10
238.5703599494
 20
120.9835426531
 10
238.5691080889
 20
120.9705881926
 10
238.5667553181
 20
120.9584344117
 10
238.5633195172
 20
120.9471736635
 10
238.5588267965
 20
120.9368915168
 10
238.5533112996
 20
120.9276661051
 10
238.5468149409
 20
120.9195675285
 10
238.5393870878
 20
120.9126573236
 10
238.534545578
 20
120.9091297227
  0
LINE
  5
354
100
AcDbEntity
  8
0
100
AcDbLine
 62
7
  6
CONTINUOUS
 10
226.3866495656
 20
138.9202992476
 11
226.277944421
 21
138.8520073637
  0
LINE
  5
355
100
AcDbEntity
  8
0
100
AcDbLine
 62
7
  6
CONTINUOUS
 10
226.3864894449
 20
141.5557120883
 11
226.277944421
 21
141.4963513067
  0
LWPOLYLINE
  5
356
100
AcDbEntity
  8
RACCORDO
100
AcDbPolyline
 62
250
  6
CONTINUOUS
 90
11
 70
0
 10
206.2641823373
 20
173.3433363949
 10
206.2417973423
 20
173.3429082165
 10
206.2213878192
 20
173.3434467214
 10
206.2030611444
 20
173.3449490765
 10
206.1869137365
 20
173.3474073778
 10
206.1730305485
 20
173.3508086919
 10
206.1614846213
 20
173.355135124
 10
206.1523366991
 20
173.3603639125
 10
206.1456349101
 20
173.3664675481
 10
206.1414145131
 20
173.3734139191
 10
206.1408011425
 20
173.3751153088
  0
LWPOLYLINE
  5
357
100
AcDbEntity
  8
0
100
AcDbPolyline
 62
250
  6
CONTINUOUS
 90
12
 70
0
 10
176.9405503383
 20
188.5651886004
 10
176.9229737865
 20
188.5724293929
 10
176.9044732175
 20
188.5778510563
 10
176.8851182822
 20
188.581432561
 10
176.8649906774
 20
188.5831582643
 10
176.8441884955
 20
188.5830193692
 10
176.8228023755
 20
188.5810212643
 10
176.8009130511
 20
188.5771761589
 10
176.7786078195
 20
188.5714985453
 10
176.7559758195
 20
188.5640120188
 10
176.733108109
 20
188.5547509625
 10
176.7100962703
 20
188.5437554543
  0
LWPOLYLINE
  5
358
100
AcDbEntity
  8
0
100
AcDbPolyline
 62
250
  6
CONTINUOUS
 90
3
 70
0
 10
126.7402249639
 20
217.5507019257
 10
126.7453770464
 20
217.5478485307
 10
126.7480955378
 20
217.5463130218
  0
LWPOLYLINE
  5
359
100
AcDbEntity
  8
0
100
AcDbPolyline
 62
7
  6
CONTINUOUS
 90
15
 70
0
 10
176.9526989659
 20
188.5588016319
 10
176.9320126873
 20
188.5697148038
 10
176.9098696224
 20
188.5792951782
 10
176.8869039432
 20
188.5871704416
 10
176.8632371098
 20
188.593286898
 10
176.8388585473
 20
188.5976227576
 10
176.8138645452
 20
188.6001210299
 10
176.7883804318
 20
188.6007338805
 10
176.7624065217
 20
188.5994247591
 10
176.7360302427
 20
188.5961486764
 10
176.7093536054
 20
188.5908657026
 10
176.6823588463
 20
188.5835117302
 10
176.6550808673
 20
188.5740196298
 10
176.6276306947
 20
188.5623401277
 10
176.6158316769
 20
188.5566506407
  0
LWPOLYLINE
  5
35A
100
AcDbEntity
  8
RACCORDO
100
AcDbPolyline
 62
250
  6
CONTINUOUS
 90
22
 70
0
 10
223.5389536785
 20
162.8568721062
 10
223.5654159732
 20
162.8425266827
 10
223.5935855762
 20
162.8292172048
 10
223.6233152606
 20
162.8170132336
 10
223.6544496454
 20
162.8059785528
 10
223.6868260084
 20
162.7961708345
 10
223.7202751359
 20
162.7876413383
 10
223.7546222078
 20
162.7804346432
 10
223.7896877106
 20
162.7745884147
 10
223.8252883762
 20
162.7701332079
 10
223.8612381393
 20
162.7670923076
 10
223.8973491102
 20
162.765481607
 10
223.9334325567
 20
162.7653095243
 10
223.9692998903
 20
162.7665769589
 10
224.004763652
 20
162.7692772866
 10
224.0396384923
 20
162.7733963943
 10
224.0737421393
 20
162.7789127537
 10
224.106896352
 20
162.7857975337
 10
224.1389278515
 20
162.7940147514
 10
224.1696692266
 20
162.8035214599
 10
224.198959809
 20
162.8142679729
 10
224.2266465128
 20
162.8261981241
  0
LWPOLYLINE
  5
35B
100
AcDbEntity
  8
RACCORDO
100
AcDbPolyline
 62
250
  6
CONTINUOUS
 90
22
 70
0
 10
173.3343722143
 20
191.8443682324
 10
173.3608345089
 20
191.830022809
 10
173.389004112
 20
191.816713331
 10
173.4187337963
 20
191.8045093599
 10
173.4498681812
 20
191.7934746791
 10
173.4822445441
 20
191.7836669607
 10
173.5156936717
 20
191.7751374646
 10
173.5500407436
 20
191.7679307695
 10
173.5851062464
 20
191.762084541
 10
173.6207069119
 20
191.7576293342
 10
173.6566566751
 20
191.7545884339
 10
173.692767646
 20
191.7529777332
 10
173.7288510925
 20
191.7528056505
 10
173.764718426
 20
191.7540730851
 10
173.8001821878
 20
191.7567734128
 10
173.835057028
 20
191.7608925206
 10
173.869160675
 20
191.7664088799
 10
173.9023148878
 20
191.77329366
 10
173.9343463872
 20
191.7815108777
 10
173.9650877623
 20
191.7910175862
 10
173.9943783447
 20
191.8017640991
 10
174.0220650486
 20
191.8136942504
  0
LWPOLYLINE
  5
35C
100
AcDbEntity
  8
RACCORDO
100
AcDbPolyline
 62
250
  6
CONTINUOUS
 90
22
 70
0
 10
123.12979075
 20
220.8318643587
 10
123.1562530447
 20
220.8175189353
 10
123.1844226477
 20
220.8042094573
 10
123.2141523321
 20
220.7920054862
 10
123.2452867169
 20
220.7809708053
 10
123.2776630799
 20
220.771163087
 10
123.3111122075
 20
220.7626335908
 10
123.3454592793
 20
220.7554268958
 10
123.3805247821
 20
220.7495806673
 10
123.4161254477
 20
220.7451254604
 10
123.4520752108
 20
220.7420845601
 10
123.4881861818
 20
220.7404738595
 10
123.5242696282
 20
220.7403017768
 10
123.5601369618
 20
220.7415692114
 10
123.5956007235
 20
220.7442695391
 10
123.6304755638
 20
220.7483886468
 10
123.6645792108
 20
220.7539050062
 10
123.6977334235
 20
220.7607897862
 10
123.729764923
 20
220.769007004
 10
123.7605062981
 20
220.7785137125
 10
123.7897968805
 20
220.7892602254
 10
123.8174835843
 20
220.8011903766
  0
LWPOLYLINE
  5
35D
100
AcDbEntity
  8
0
100
AcDbPolyline
 62
7
  6
CONTINUOUS
 90
16
 70
0
 10
126.7480866284
 20
217.5463180016
 10
126.7402249639
 20
217.5507019257
 10
126.7192002309
 20
217.5610122765
 10
126.6973131531
 20
217.5697520224
 10
126.6746712029
 20
217.5768585989
 10
126.6513844448
 20
217.5822805343
 10
126.6274405059
 20
217.5859932997
 10
126.6029271855
 20
217.5879486597
 10
126.5779622159
 20
217.5881054947
 10
126.5525474079
 20
217.5864233405
 10
126.5267633149
 20
217.5828587722
 10
126.5007022855
 20
217.5773809439
 10
126.4743477163
 20
217.569929066
 10
126.4477335056
 20
217.5604358811
 10
126.4209644698
 20
217.548862062
 10
126.4112464156
 20
217.5441478446
  0
LWPOLYLINE
  5
35E
100
AcDbEntity
  8
0
100
AcDbPolyline
 62
250
  6
CONTINUOUS
 90
15
 70
0
 10
127.2518528431
 20
217.2554498585
 10
127.2492027381
 20
217.2569455448
 10
127.2345082832
 20
217.2641367137
 10
127.2190653469
 20
217.2698955234
 10
127.2029241014
 20
217.2742032429
 10
127.1861363557
 20
217.2770462465
 10
127.168757054
 20
217.2784151817
 10
127.150842473
 20
217.2783055602
 10
127.1324492483
 20
217.2767180308
 10
127.1136353559
 20
217.273657026
 10
127.0944637377
 20
217.2691322318
 10
127.0750007191
 20
217.2631602324
 10
127.0553111314
 20
217.2557619893
 10
127.0354578295
 20
217.2469615443
 10
127.0155054265
 20
217.2367880747
  0
LINE
  5
35F
100
AcDbEntity
  8
RACCORDO
100
AcDbLine
 62
250
  6
CONTINUOUS
 10
273.8688722875
 20
134.3092342598
 11
256.4687715014
 21
144.355815319
  0
LINE
  5
360
100
AcDbEntity
  8
RACCORDO
100
AcDbLine
 62
250
  6
CONTINUOUS
 10
223.6642908232
 20
163.2967303861
 11
206.2641900371
 21
173.3433114453
  0
LINE
  5
361
100
AcDbEntity
  8
RACCORDO
100
AcDbLine
 62
250
  6
CONTINUOUS
 10
173.459709359
 20
192.2842265124
 11
156.0596085729
 21
202.3308075715
  0
LINE
  5
362
100
AcDbEntity
  8
RACCORDO
100
AcDbLine
 62
250
  6
CONTINUOUS
 10
321.696890106
 20
106.6938867691
 11
306.6733529656
 21
115.3683191927
  0
LINE
  5
363
100
AcDbEntity
  8
RACCORDO
100
AcDbLine
 62
250
  6
CONTINUOUS
 10
123.2551278948
 20
221.2717226386
 11
108.2315776322
 21
229.9460829695
  0
LINE
  5
364
100
AcDbEntity
  8
RACCORDO
100
AcDbLine
 62
7
  6
CONTINUOUS
 10
124.2002724584
 20
221.1354911185
 11
155.3724821851
 21
203.1370479019
  0
LINE
  5
365
100
AcDbEntity
  8
RACCORDO
100
AcDbLine
 62
7
  6
CONTINUOUS
 10
174.4048539227
 20
192.1479949923
 11
205.5770636493
 21
174.1495517756
  0
LINE
  5
366
100
AcDbEntity
  8
RACCORDO
100
AcDbLine
 62
7
  6
CONTINUOUS
 10
224.6094353869
 20
163.160498866
 11
255.7816451135
 21
145.1620556494
  0
LINE
  5
367
100
AcDbEntity
  8
RACCORDO
100
AcDbLine
 62
7
  6
CONTINUOUS
 10
274.8140168512
 20
134.1730027397
 11
305.9862265778
 21
116.1745595231
  0
LINE
  5
368
100
AcDbEntity
  8
RACCORDO
100
AcDbLine
 62
250
  6
CONTINUOUS
 10
124.0972576264
 20
221.3869338504
 11
155.2694673543
 21
203.388490633
  0
LINE
  5
369
100
AcDbEntity
  8
RACCORDO
100
AcDbLine
 62
250
  6
CONTINUOUS
 10
174.3018390906
 20
192.3994377241
 11
205.4740488186
 21
174.4009945067
  0
LINE
  5
36A
100
AcDbEntity
  8
RACCORDO
100
AcDbLine
 62
250
  6
CONTINUOUS
 10
224.5064205549
 20
163.4119415979
 11
255.6786302828
 21
145.4134983805
  0
LINE
  5
36B
100
AcDbEntity
  8
RACCORDO
100
AcDbLine
 62
250
  6
CONTINUOUS
 10
274.7110020191
 20
134.4244454716
 11
305.8832117471
 21
116.4260022542
  0
LWPOLYLINE
  5
36C
100
AcDbEntity
  8
RACCORDO
100
AcDbPolyline
 62
7
  6
CONTINUOUS
 90
25
 70
0
 10
205.5770892886
 20
174.1495359155
 10
205.6029233377
 20
174.1338590953
 10
205.6279233427
 20
174.1172707679
 10
205.6538580757
 20
174.0986207039
 10
205.6805041928
 20
174.0779457492
 10
205.7077249754
 20
174.0552396257
 10
205.7353922363
 20
174.0305009869
 10
205.7633064482
 20
174.0038095567
 10
205.7913298285
 20
173.9752079533
 10
205.8193337935
 20
173.9447420103
 10
205.8471480953
 20
173.912519797
 10
205.8746489531
 20
173.8786150164
 10
205.9017095053
 20
173.8431179515
 10
205.9281710223
 20
173.8061800337
 10
205.9539248751
 20
173.7679046938
 10
205.9788567225
 20
173.728418094
 10
206.0028183296
 20
173.6879239866
 10
206.0257177368
 20
173.6465597117
 10
206.0474677112
 20
173.6044714043
 10
206.067950792
 20
173.5618908785
 10
206.0871022427
 20
173.5189745816
 10
206.1048694308
 20
173.4758717884
 10
206.1211792443
 20
173.4328103295
 10
206.1359894289
 20
173.3899793536
 10
206.1407990868
 20
173.3751214069
  0
LWPOLYLINE
  5
36D
100
AcDbEntity
  8
RACCORDO
100
AcDbPolyline
 62
7
  6
CONTINUOUS
 90
25
 70
0
 10
255.7816707528
 20
145.1620397892
 10
255.8075048019
 20
145.146362969
 10
255.8325048069
 20
145.1297746416
 10
255.85843954
 20
145.1111245776
 10
255.8850856571
 20
145.090449623
 10
255.9123064397
 20
145.0677434994
 10
255.9399737006
 20
145.0430048606
 10
255.9678879124
 20
145.0163134304
 10
255.9959112927
 20
144.987711827
 10
256.0239152577
 20
144.957245884
 10
256.0517295596
 20
144.9250236707
 10
256.0792304174
 20
144.8911188901
 10
256.1062909696
 20
144.8556218252
 10
256.1327524866
 20
144.8186839075
 10
256.1585063394
 20
144.7804085675
 10
256.1834381867
 20
144.7409219677
 10
256.2073997938
 20
144.7004278603
 10
256.2302992011
 20
144.6590635854
 10
256.2520491754
 20
144.616975278
 10
256.2725322563
 20
144.5743947522
 10
256.291683707
 20
144.5314784554
 10
256.309450895
 20
144.4883756621
 10
256.3257607086
 20
144.4453142032
 10
256.3405708931
 20
144.4024832273
 10
256.345380551
 20
144.3876252806
  0
LWPOLYLINE
  5
36E
100
AcDbEntity
  8
RACCORDO
100
AcDbPolyline
 62
7
  6
CONTINUOUS
 90
25
 70
0
 10
305.9862522171
 20
116.1745436629
 10
306.0120862661
 20
116.1588668428
 10
306.0370862712
 20
116.1422785153
 10
306.0630210042
 20
116.1236284513
 10
306.0896671213
 20
116.1029534967
 10
306.1168879039
 20
116.0802473732
 10
306.1445551648
 20
116.0555087343
 10
306.1724693767
 20
116.0288173042
 10
306.200492757
 20
116.0002157007
 10
306.228496722
 20
115.9697497578
 10
306.2563110238
 20
115.9375275445
 10
306.2838118816
 20
115.9036227639
 10
306.3108724338
 20
115.8681256989
 10
306.3373339508
 20
115.8311877812
 10
306.3630878036
 20
115.7929124413
 10
306.3880196509
 20
115.7534258414
 10
306.4119812581
 20
115.7129317341
 10
306.4348806653
 20
115.6715674592
 10
306.4566306396
 20
115.6294791517
 10
306.4771137205
 20
115.5868986259
 10
306.4962651712
 20
115.5439823291
 10
306.5140323593
 20
115.5008795358
 10
306.5303421728
 20
115.4578180769
 10
306.5451523574
 20
115.414987101
 10
306.5499620153
 20
115.4001291544
  0
LWPOLYLINE
  5
36F
100
AcDbEntity
  8
RACCORDO
100
AcDbPolyline
 62
250
  6
CONTINUOUS
 90
20
 70
0
 10
205.4740488186
 20
174.4009945067
 10
205.5209087897
 20
174.3725301788
 10
205.5674830026
 20
174.3412720708
 10
205.6137716783
 20
174.3072202963
 10
205.6599241169
 20
174.2702830815
 10
205.7057919109
 20
174.2305526594
 10
205.7509289411
 20
174.1883052683
 10
205.79534996
 20
174.1434772475
 10
205.839042007
 20
174.0961331805
 10
205.8815175408
 20
174.0467417473
 10
205.9227400507
 20
173.9952932774
 10
205.9627485346
 20
173.9417987247
 10
206.0011686924
 20
173.8867576958
 10
206.0379778302
 20
173.8301581855
 10
206.0732015424
 20
173.7720136993
 10
206.1065377366
 20
173.7128619955
 10
206.1379680401
 20
173.6526829276
 10
206.1675138064
 20
173.5914981892
 10
206.1949320648
 20
173.5299080587
 10
206.2201425478
 20
173.4681130063
  0
LWPOLYLINE
  5
370
100
AcDbEntity
  8
RACCORDO
100
AcDbPolyline
 62
250
  6
CONTINUOUS
 90
20
 70
0
 10
255.6786302828
 20
145.4134983805
 10
255.725490254
 20
145.3850340526
 10
255.7720644668
 20
145.3537759445
 10
255.8183531426
 20
145.31972417
 10
255.8645055811
 20
145.2827869552
 10
255.9103733751
 20
145.2430565332
 10
255.9555104053
 20
145.200809142
 10
255.9999314243
 20
145.1559811212
 10
256.0436234713
 20
145.1086370542
 10
256.0860990051
 20
145.059245621
 10
256.1273215149
 20
145.0077971511
 10
256.1673299988
 20
144.9543025984
 10
256.2057501566
 20
144.8992615695
 10
256.2425592945
 20
144.8426620592
 10
256.2777830066
 20
144.784517573
 10
256.3111192008
 20
144.7253658692
 10
256.3425495044
 20
144.6651868013
 10
256.3720952707
 20
144.604002063
 10
256.3995135291
 20
144.5424119325
 10
256.424724012
 20
144.48061688
  0
LWPOLYLINE
  5
371
100
AcDbEntity
  8
RACCORDO
100
AcDbPolyline
 62
250
  6
CONTINUOUS
 90
20
 70
0
 10
305.8832117471
 20
116.4260022542
 10
305.9300717182
 20
116.3975379263
 10
305.9766459311
 20
116.3662798183
 10
306.0229346068
 20
116.3322280438
 10
306.0690870454
 20
116.2952908289
 10
306.1149548394
 20
116.2555604069
 10
306.1600918696
 20
116.2133130157
 10
306.2045128885
 20
116.168484995
 10
306.2482049355
 20
116.1211409279
 10
306.2906804693
 20
116.0717494948
 10
306.3319029791
 20
116.0203010248
 10
306.3719114631
 20
115.9668064722
 10
306.4103316209
 20
115.9117654433
 10
306.4471407587
 20
115.8551659329
 10
306.4823644709
 20
115.7970214467
 10
306.5157006651
 20
115.7378697429
 10
306.5471309686
 20
115.677690675
 10
306.5766767349
 20
115.6165059367
 10
306.6040949933
 20
115.5549158062
 10
306.6293054762
 20
115.4931207537
  0
LWPOLYLINE
  5
372
100
AcDbEntity
  8
RACCORDO
100
AcDbPolyline
 62
250
  6
CONTINUOUS
 90
13
 70
0
 10
256.5520379804
 20
143.7955282767
 10
256.5274146403
 20
143.8106793456
 10
256.504765574
 20
143.8267122042
 10
256.4842091544
 20
143.8435430586
 10
256.4658528172
 20
143.8610839442
 10
256.4497924996
 20
143.8792431857
 10
256.4361121392
 20
143.8979258757
 10
256.4248832347
 20
143.9170343715
 10
256.4161644728
 20
143.9364688045
 10
256.410001421
 20
143.9561276029
 10
256.4064262898
 20
143.9759080224
 10
256.4054577643
 20
143.9957066827
 10
256.4055512352
 20
143.9990243439
  0
LWPOLYLINE
  5
373
100
AcDbEntity
  8
RACCORDO
100
AcDbPolyline
 62
250
  6
CONTINUOUS
 90
13
 70
0
 10
306.7566194446
 20
114.8080321504
 10
306.7319961045
 20
114.8231832193
 10
306.7093470383
 20
114.8392160779
 10
306.6887906186
 20
114.8560469323
 10
306.6704342814
 20
114.873587818
 10
306.6543739639
 20
114.8917470594
 10
306.6406936034
 20
114.9104297495
 10
306.6294646989
 20
114.9295382452
 10
306.620745937
 20
114.9489726782
 10
306.6145828852
 20
114.9686314767
 10
306.6110077541
 20
114.9884118961
 10
306.6100392286
 20
115.0082105564
 10
306.6101326994
 20
115.0115282177
  0
LWPOLYLINE
  5
374
100
AcDbEntity
  8
RACCORDO
100
AcDbPolyline
 62
250
  6
CONTINUOUS
 90
22
 70
0
 10
223.6642930698
 20
163.2967315523
 10
223.6873401947
 20
163.2700713087
 10
223.7121237965
 20
163.2445157429
 10
223.7385134857
 20
163.220199306
 10
223.7663704228
 20
163.1972499297
 10
223.7955480489
 20
163.1757883537
 10
223.8258928569
 20
163.1559274899
 10
223.8572451989
 20
163.1377718288
 10
223.8894401264
 20
163.1214168896
 10
223.9223082578
 20
163.1069487177
 10
223.9556766698
 20
163.0944434319
 10
223.9893698069
 20
163.0839668242
 10
224.0232104052
 20
163.0755740132
 10
224.0570204253
 20
163.0693091546
 10
224.0906219883
 20
163.0652052085
 10
224.1238383122
 20
163.0632837664
 10
224.1564946417
 20
163.0635549371
 10
224.1884191678
 20
163.066017294
 10
224.2194439315
 20
163.0706578823
 10
224.2494057078
 20
163.0774522872
 10
224.2781468638
 20
163.0863647627
 10
224.3055161889
 20
163.0973484189
  0
LWPOLYLINE
  5
375
100
AcDbEntity
  8
RACCORDO
100
AcDbPolyline
 62
250
  6
CONTINUOUS
 90
18
 70
0
 10
306.6733461959
 20
78.3533303093
 10
306.650961075
 20
78.3803727857
 10
306.6305514248
 20
78.4084538163
 10
306.612224623
 20
78.4374256634
 10
306.5960770891
 20
78.4671359023
 10
306.5821937775
 20
78.4974282239
 10
306.5706477299
 20
78.5281432563
 10
306.5614996916
 20
78.5591194041
 10
306.5547977914
 20
78.5901936978
 10
306.5505772891
 20
78.6212026517
 10
306.5488603891
 20
78.6519831237
 10
306.5496561243
 20
78.6823731741
 10
306.5529603082
 20
78.7122129168
 10
306.5587555572
 20
78.7413453614
 10
306.5670113817
 20
78.7696172384
 10
306.5776843467
 20
78.7968798059
 10
306.5907183005
 20
78.8229896322
 10
306.5927746611
 20
78.8266269626
  0
LINE
  5
376
100
AcDbEntity
  8
0
100
AcDbLine
 62
250
  6
CONTINUOUS
 10
224.2266446913
 20
126.8271042588
 11
226.277944421
 21
128.0114954469
  0
LINE
  5
377
100
AcDbEntity
  8
0
100
AcDbLine
 62
250
  6
CONTINUOUS
 10
224.8409347902
 20
125.8771805813
 11
226.8428545938
 21
127.033042327
  0
LWPOLYLINE
  5
378
100
AcDbEntity
  8
RACCORDO
100
AcDbPolyline
 62
250
  6
CONTINUOUS
 90
14
 70
0
 10
155.9403588081
 20
165.7807679943
 10
155.918450927
 20
165.7748450219
 10
155.895594447
 20
165.7708742543
 10
155.8718547642
 20
165.7688731098
 10
155.8473076722
 20
165.7688389298
 10
155.8220220672
 20
165.7707738817
 10
155.796079155
 20
165.7746738654
 10
155.7695827588
 20
165.7805024747
 10
155.7426124721
 20
165.7882360159
 10
155.7152537202
 20
165.7978446149
 10
155.6876261525
 20
165.809253569
 10
155.6598269154
 20
165.8223982426
 10
155.6319273533
 20
165.837237136
 10
155.6040092822
 20
165.8537128704
  0
LWPOLYLINE
  5
379
100
AcDbEntity
  8
RACCORDO
100
AcDbPolyline
 62
250
  6
CONTINUOUS
 90
19
 70
0
 10
323.5132548022
 20
124.9940529279
 10
323.5318512425
 20
124.9837964032
 10
323.5518016503
 20
124.9741618775
 10
323.5729639849
 20
124.9652179459
 10
323.5951875768
 20
124.9570282864
 10
323.6183142008
 20
124.9496512068
 10
323.6421792023
 20
124.9431392298
 10
323.6666126698
 20
124.9375387186
 10
323.6914406443
 20
124.9328895472
 10
323.7164863583
 20
124.9292248162
 10
323.7415714937
 20
124.9265706174
 10
323.7665174522
 20
124.924945848
 10
323.7911466259
 20
124.9243620757
 10
323.8152836627
 20
124.9248234569
 10
323.8387567142
 20
124.9263267067
 10
323.8613986593
 20
124.9288611223
 10
323.8830482943
 20
124.9324086596
 10
323.9035514803
 20
124.936944061
 10
323.9227622408
 20
124.942435036
  0
LINE
  5
37A
100
AcDbEntity
  8
RACCORDO
100
AcDbLine
 62
250
  6
CONTINUOUS
 10
323.1149237782
 20
125.906642447
 11
110.4480679681
 21
248.69781965
  0
LINE
  5
37B
100
AcDbEntity
  8
RACCORDO
100
AcDbLine
 62
250
  6
CONTINUOUS
 10
323.3124282846
 20
126.2208146413
 11
110.6455724745
 21
249.0119918443
  0
LINE
  5
37C
100
AcDbEntity
  8
RACCORDO
100
AcDbLine
 62
7
  6
CONTINUOUS
 10
112.2206515504
 20
250.1226019229
 11
325.061730818
 21
127.2308302789
  0
LWPOLYLINE
  5
37D
100
AcDbEntity
  8
RACCORDO
100
AcDbPolyline
 62
250
  6
CONTINUOUS
 90
12
 70
0
 10
109.8673477136
 20
248.3505220996
 10
109.850178731
 20
248.3609159663
 10
109.8346183796
 20
248.3717848054
 10
109.8207774453
 20
248.3830512333
 10
109.8087544723
 20
248.3946350359
 10
109.7986350611
 20
248.4064537392
 10
109.7904912596
 20
248.4184231969
 10
109.7843810496
 20
248.4304581895
 10
109.7803479344
 20
248.4424730306
 10
109.7784206288
 20
248.4543821775
 10
109.7786128546
 20
248.4661008399
 10
109.7788171203
 20
248.4677817393
  0
LWPOLYLINE
  5
37E
100
AcDbEntity
  8
RACCORDO
100
AcDbPolyline
 62
250
  6
CONTINUOUS
 90
22
 70
0
 10
273.8688745341
 20
134.3092354261
 10
273.8919216589
 20
134.2825751824
 10
273.9167052608
 20
134.2570196167
 10
273.94309495
 20
134.2327031797
 10
273.970951887
 20
134.2097538035
 10
274.0001295131
 20
134.1882922274
 10
274.0304743211
 20
134.1684313636
 10
274.0618266632
 20
134.1502757025
 10
274.0940215907
 20
134.1339207633
 10
274.1268897221
 20
134.1194525914
 10
274.160258134
 20
134.1069473057
 10
274.1939512711
 20
134.0964706979
 10
274.2277918695
 20
134.0880778869
 10
274.2616018895
 20
134.0818130283
 10
274.2952034525
 20
134.0777090822
 10
274.3284197764
 20
134.0757876401
 10
274.3610761059
 20
134.0760588108
 10
274.393000632
 20
134.0785211677
 10
274.4240253958
 20
134.083161756
 10
274.453987172
 20
134.089956161
 10
274.4827283281
 20
134.0988686364
 10
274.5100976531
 20
134.1098522926
  0
LWPOLYLINE
  5
37F
100
AcDbEntity
  8
RACCORDO
100
AcDbPolyline
 62
250
  6
CONTINUOUS
 90
4
 70
0
 10
256.4161643156
 20
107.9049999968
 10
256.4100009891
 20
107.9264519473
 10
256.4064255994
 20
107.9481853981
 10
256.4055923747
 20
107.9596449625
  0
LWPOLYLINE
  5
380
100
AcDbEntity
  8
RACCORDO
100
AcDbPolyline
 62
7
  6
CONTINUOUS
 90
11
 70
0
 10
256.4055923027
 20
107.9596467042
 10
256.4061295717
 20
107.9388677351
 10
256.4059832429
 20
107.9185255865
 10
256.4052085961
 20
107.9001951371
 10
256.4039392015
 20
107.8839442889
 10
256.4022951286
 20
107.8696263365
 10
256.4003567596
 20
107.8569565168
 10
256.3982172427
 20
107.8458913361
 10
256.3959933308
 20
107.8364795919
 10
256.3937936131
 20
107.8286868685
 10
256.3917378535
 20
107.8224996504
  0
LWPOLYLINE
  5
381
100
AcDbEntity
  8
RACCORDO
100
AcDbPolyline
 62
250
  6
CONTINUOUS
 90
25
 70
0
 10
255.6786302828
 20
107.2556365175
 10
255.6781250488
 20
107.2820903385
 10
255.6791379741
 20
107.3094015078
 10
255.681664709
 20
107.3374527443
 10
255.685694403
 20
107.3661235886
 10
255.6912097515
 20
107.3952909206
 10
255.6981870703
 20
107.4248294882
 10
255.7065963968
 20
107.454612445
 10
255.7164016192
 20
107.4845118952
 10
255.7275606314
 20
107.5143994429
 10
255.7400255135
 20
107.5441467431
 10
255.7537427383
 20
107.573626053
 10
255.7686534003
 20
107.6027107809
 10
255.7846934693
 20
107.6312760293
 10
255.8017940649
 20
107.6591991317
 10
255.8198817529
 20
107.6863601788
 10
255.8388788598
 20
107.7126425341
 10
255.8587038073
 20
107.7379333344
 10
255.8792714618
 20
107.7621239742
 10
255.9004935004
 20
107.7851105727
 10
255.9222787901
 20
107.8067944194
 10
255.9445337793
 20
107.8270823982
 10
255.9671628991
 20
107.8458873872
 10
255.9900689743
 20
107.863128633
 10
256.0131536402
 20
107.878732097
  0
LWPOLYLINE
  5
382
100
AcDbEntity
  8
RACCORDO
100
AcDbPolyline
 62
250
  6
CONTINUOUS
 90
10
 70
0
 10
256.5520379705
 20
107.7563972723
 10
256.5530048922
 20
107.7020727269
 10
256.551390778
 20
107.6496627864
 10
256.5471954545
 20
107.5991673422
 10
256.5403832966
 20
107.5504220638
 10
256.5309896365
 20
107.5035910985
 10
256.519120512
 20
107.4591669107
 10
256.5048109117
 20
107.4173134293
 10
256.4880250273
 20
107.377866207
 10
256.4687624851
 20
107.3408250075
  0
LINE
  5
383
100
AcDbEntity
  8
0
100
AcDbLine
 62
7
  6
CONTINUOUS
 10
254.5369036979
 20
111.1687105301
 11
254.5369036979
 21
111.0428454623
  0
LWPOLYLINE
  5
384
100
AcDbEntity
  8
RACCORDO
100
AcDbPolyline
 62
250
  6
CONTINUOUS
 90
14
 70
0
 10
255.6786302828
 20
145.4134983805
 10
255.6781250501
 20
145.38646097
 10
255.6791379937
 20
145.3603193702
 10
255.681664761
 20
145.3351858394
 10
255.6856944985
 20
145.3111683067
 10
255.6912098987
 20
145.2883699084
 10
255.6981872743
 20
145.2668885447
 10
255.7065966599
 20
145.2468164604
 10
255.7164019408
 20
145.2282398481
 10
255.7275610085
 20
145.2112384776
 10
255.7400259408
 20
145.1958853547
 10
255.7537432078
 20
145.1822464071
 10
255.7686539032
 20
145.1703802005
 10
255.7816451135
 20
145.1620556494
  0
LWPOLYLINE
  5
385
100
AcDbEntity
  8
RACCORDO
100
AcDbPolyline
 62
7
  6
CONTINUOUS
 90
12
 70
0
 10
256.2965612408
 20
140.9831831472
 10
256.2052001092
 20
137.9118238516
 10
256.1341295987
 20
134.8526201744
 10
256.083356613
 20
131.8058029336
 10
256.0528840598
 20
128.7715741213
 10
256.0427139583
 20
125.7501244674
 10
256.0528479638
 20
122.7416526236
 10
256.0832855397
 20
119.7463559338
 10
256.1340257657
 20
116.7644233378
 10
256.2050668635
 20
113.7960536508
 10
256.2964030605
 20
110.8414693513
 10
256.4055931554
 20
107.9596449943
  0
LWPOLYLINE
  5
386
100
AcDbEntity
  8
RACCORDO
100
AcDbPolyline
 62
250
  6
CONTINUOUS
 90
13
 70
0
 10
256.5520379705
 20
143.7955282716
 10
256.4411746502
 20
140.7230250689
 10
256.3504577158
 20
137.6624356453
 10
256.2798935701
 20
134.6139644673
 10
256.2294873051
 20
131.5778151464
 10
256.1992423681
 20
128.5541906891
 10
256.1891605596
 20
125.5432934824
 10
256.1992423677
 20
122.5453249707
 10
256.2294873043
 20
119.5604855181
 10
256.2798935691
 20
116.5889746573
 10
256.3504577148
 20
113.6309911559
 10
256.4411746495
 20
110.6867330032
 10
256.5520379705
 20
107.7563972723
  0
LWPOLYLINE
  5
387
100
AcDbEntity
  8
0
100
AcDbPolyline
 62
250
  6
CONTINUOUS
 90
12
 70
0
 10
238.5705013848
 20
120.9971993549
 10
238.5915289343
 20
121.0116317528
 10
238.6109822982
 20
121.0268066309
 10
238.6287809802
 20
121.0426647098
 10
238.6448496783
 20
121.0591443162
 10
238.6591233925
 20
121.0761800453
 10
238.6715459268
 20
121.0937035361
 10
238.6820663442
 20
121.1116509696
 10
238.6906346629
 20
121.129946537
 10
238.6972094596
 20
121.1485008817
 10
238.7017634373
 20
121.1672354231
 10
238.7042799865
 20
121.1860793202
  0
LWPOLYLINE
  5
388
100
AcDbEntity
  8
0
100
AcDbPolyline
 62
7
  6
CONTINUOUS
 90
15
 70
0
 10
238.5345442305
 20
120.909131761
 10
238.5441774587
 20
120.9156713472
 10
238.5681728348
 20
120.9336072221
 10
238.5901724351
 20
120.9524933412
 10
238.6101638561
 20
120.9722066689
 10
238.628190034
 20
120.9926827921
 10
238.6443181643
 20
121.013906374
 10
238.6585324199
 20
121.0357684074
 10
238.6708286862
 20
121.0581699572
 10
238.6812400669
 20
121.0810940977
 10
238.689744983
 20
121.1044077885
 10
238.6963447805
 20
121.1279986811
 10
238.7010643405
 20
121.1518670637
 10
238.7038887648
 20
121.175880057
 10
238.7048222789
 20
121.1997788726
  0
LINE
  5
389
100
AcDbEntity
  8
0
100
AcDbLine
 62
250
  6
CONTINUOUS
 10
237.9765182907
 20
120.604604446
 11
238.5705013848
 21
120.9971993549
  0
LINE
  5
38A
100
AcDbEntity
  8
0
100
AcDbLine
 62
7
  6
CONTINUOUS
 10
238.0284462959
 20
120.5746218666
 11
238.5345098179
 21
120.9091060704
  0
LWPOLYLINE
  5
38B
100
AcDbEntity
  8
0
100
AcDbPolyline
 62
250
  6
CONTINUOUS
 90
15
 70
0
 10
238.5705002454
 20
121.5860674825
 10
238.5892862404
 20
121.5982612323
 10
238.6068335771
 20
121.6110557279
 10
238.6230846828
 20
121.6244095975
 10
238.6379873117
 20
121.638280424
 10
238.6514908974
 20
121.6526225382
 10
238.6635479182
 20
121.6673867879
 10
238.6741185174
 20
121.6825235019
 10
238.6831698712
 20
121.6979846834
 10
238.6906731025
 20
121.7137216038
 10
238.6966039629
 20
121.7296832771
 10
238.7009430827
 20
121.7458174389
 10
238.7036763606
 20
121.7620724033
 10
238.7047949348
 20
121.7783953494
 10
238.7048245093
 20
121.781429744
  0
LWPOLYLINE
  5
38C
100
AcDbEntity
  8
0
100
AcDbPolyline
 62
250
  6
CONTINUOUS
 90
18
 70
0
 10
238.425464763
 20
121.8288240443
 10
238.4367936888
 20
121.8361371226
 10
238.4473144078
 20
121.8437607478
 10
238.4570269201
 20
121.85169492
 10
238.4659587999
 20
121.8599684783
 10
238.4740824729
 20
121.8685525836
 10
238.4813152163
 20
121.8773607179
 10
238.487646582
 20
121.8863937752
 10
238.4930870182
 20
121.8956508616
 10
238.4975851453
 20
121.9050427763
 10
238.5011319711
 20
121.9145708422
 10
238.503736488
 20
121.9242337364
 10
238.5053742932
 20
121.9339382899
 10
238.5060361025
 20
121.9436848947
 10
238.5057312001
 20
121.9534731587
 10
238.5044630364
 20
121.9632087359
 10
238.5022225481
 20
121.9728909061
 10
238.4990187985
 20
121.9825203895
  0
LINE
  5
38D
100
AcDbEntity
  8
0
100
AcDbLine
 62
250
  6
CONTINUOUS
 10
237.1748008107
 20
121.0675060711
 11
238.425464763
 21
121.8288240443
  0
LINE
  5
38E
100
AcDbEntity
  8
0
100
AcDbLine
 62
250
  6
CONTINUOUS
 10
237.4538995302
 20
120.9063579684
 11
238.5705002454
 21
121.5860674873
  0
LINE
  5
38F
100
AcDbEntity
  8
0
100
AcDbLine
 62
7
  6
CONTINUOUS
 10
236.3268511175
 20
122.9986623016
 11
235.0235373428
 21
122.3096186358
  0
LINE
  5
390
100
AcDbEntity
  8
0
100
AcDbLine
 62
250
  6
CONTINUOUS
 10
236.4215625259
 20
122.9858520812
 11
235.0803896367
 21
122.2767928338
  0
LWPOLYLINE
  5
391
100
AcDbEntity
  8
0
100
AcDbPolyline
 62
250
  6
CONTINUOUS
 90
10
 70
0
 10
236.8382940682
 20
122.9795891524
 10
236.8505462742
 20
122.9859254421
 10
236.8626969868
 20
122.990979738
 10
236.8746547565
 20
122.9947139976
 10
236.8863295853
 20
122.9971001131
 10
236.8976336045
 20
122.9981201232
 10
236.9084817356
 20
122.997766348
 10
236.9187923313
 20
122.9960414476
 10
236.9284877897
 20
122.9929584013
 10
236.937064784
 20
122.9887910399
  0
LWPOLYLINE
  5
392
100
AcDbEntity
  8
0
100
AcDbPolyline
 62
250
  6
CONTINUOUS
 90
10
 70
0
 10
238.4181906869
 20
122.0673766456
 10
238.4304429557
 20
122.0737129651
 10
238.4425937216
 20
122.0787672743
 10
238.4545515338
 20
122.0825015329
 10
238.466226394
 20
122.0848876356
 10
238.4775304332
 20
122.0859076237
 10
238.4883785735
 20
122.0855538206
 10
238.4986891683
 20
122.083828889
 10
238.5083846166
 20
122.0807458113
 10
238.5169614004
 20
122.0765785343
  0
LINE
  5
393
100
AcDbEntity
  8
RACCORDO
100
AcDbLine
 62
7
  6
CONTINUOUS
 10
274.6456476931
 20
134.2284461607
 11
274.6461220939
 21
134.2286659927
  0
LINE
  5
394
100
AcDbEntity
  8
0
100
AcDbLine
 62
250
  6
CONTINUOUS
 10
274.4312262404
 20
133.8387138594
 11
274.9652965688
 21
134.0856557267
  0
LWPOLYLINE
  5
395
100
AcDbEntity
  8
RACCORDO
100
AcDbPolyline
 62
7
  6
CONTINUOUS
 90
16
 70
0
 10
274.6447614278
 20
134.2281009979
 10
274.6445143647
 20
134.2280175647
 10
274.6446302434
 20
134.2280276305
 10
274.6461878877
 20
134.2282970235
 10
274.6499819973
 20
134.228675944
 10
274.656350659
 20
134.228818266
 10
274.6651424974
 20
134.2283705675
 10
274.676338584
 20
134.2270286335
 10
274.6899251246
 20
134.224505228
 10
274.7056870474
 20
134.2205827605
 10
274.7232769178
 20
134.2151380264
 10
274.742518761
 20
134.2080525532
 10
274.763231299
 20
134.1992415578
 10
274.7851120066
 20
134.1887100979
 10
274.8079678985
 20
134.1764528166
 10
274.813938573
 20
134.1730475517
  0
LWPOLYLINE
  5
396
100
AcDbEntity
  8
RACCORDO
100
AcDbPolyline
 62
250
  6
CONTINUOUS
 90
22
 70
0
 10
123.2551291528
 20
184.2567088606
 10
123.2781763608
 20
184.2575193935
 10
123.3029600346
 20
184.2595064696
 10
123.3293497849
 20
184.2626596346
 10
123.3572067727
 20
184.2669622993
 10
123.3863844394
 20
184.2723918272
 10
123.4167292787
 20
184.2789196528
 10
123.4480816433
 20
184.2865114327
 10
123.4802765853
 20
184.2951272258
 10
123.513144724
 20
184.3047217036
 10
123.546513137
 20
184.3152443884
 10
123.5802062696
 20
184.3266399196
 10
123.6140468591
 20
184.3388483441
 10
123.6478568667
 20
184.3518054321
 10
123.6814584147
 20
184.3654430152
 10
123.7146747221
 20
184.3796893447
 10
123.7473310346
 20
184.3944694693
 10
123.7792555441
 20
184.4097056293
 10
123.8102802927
 20
184.4253176657
 10
123.8402420561
 20
184.4412234421
 10
123.8689832026
 20
184.4573392767
 10
123.8963525221
 20
184.4735803825
  0
LWPOLYLINE
  5
397
100
AcDbEntity
  8
RACCORDO
100
AcDbPolyline
 62
250
  6
CONTINUOUS
 90
17
 70
0
 10
110.6455724745
 20
249.0119918443
 10
110.6082008984
 20
249.0316411042
 10
110.5707180782
 20
249.048887498
 10
110.5332272933
 20
249.0636849603
 10
110.4958341692
 20
249.0759922646
 10
110.458637108
 20
249.0857769587
 10
110.4217275078
 20
249.093013414
 10
110.3851983728
 20
249.0976768986
 10
110.3491538819
 20
249.0997511268
 10
110.3137000012
 20
249.0992311901
 10
110.2789315891
 20
249.096112006
 10
110.2449378159
 20
249.0903979815
 10
110.2118131967
 20
249.0821065249
 10
110.1796406336
 20
249.0712492225
 10
110.148506737
 20
249.0578479065
 10
110.1185086148
 20
249.0419418629
 10
110.0876788634
 20
249.0221305444
  0
LWPOLYLINE
  5
398
100
AcDbEntity
  8
RACCORDO
100
AcDbPolyline
 62
250
  6
CONTINUOUS
 90
31
 70
0
 10
110.4480679681
 20
248.69781965
 10
110.422147738
 20
248.711847532
 10
110.3961927967
 20
248.724070993
 10
110.3702032137
 20
248.7344900585
 10
110.3441086343
 20
248.7431254649
 10
110.317979691
 20
248.749956577
 10
110.2920279957
 20
248.7549213849
 10
110.2662545087
 20
248.7580048357
 10
110.2406588016
 20
248.7592221763
 10
110.2154504407
 20
248.7585568595
 10
110.1906350686
 20
248.7559945936
 10
110.166207779
 20
248.7515499393
 10
110.1423623183
 20
248.7452496293
 10
110.1191018039
 20
248.7370799498
 10
110.0964239949
 20
248.7270549354
 10
110.0745145568
 20
248.7152429261
 10
110.053378271
 20
248.7016292168
 10
110.0330112928
 20
248.6862288563
 10
110.0135862507
 20
248.6691547793
 10
109.9951104943
 20
248.6503931605
 10
109.9775775802
 20
248.6299581588
 10
109.9611392927
 20
248.6080046288
 10
109.9458019685
 20
248.5845111822
 10
109.9315600619
 20
248.5594994999
 10
109.9185473111
 20
248.5331889595
 10
109.9067793606
 20
248.505577587
 10
109.8962411249
 20
248.4766675646
 10
109.8870199855
 20
248.446684408
 10
109.8791451142
 20
248.4157033065
 10
109.8725876215
 20
248.3836491778
 10
109.8673476656
 20
248.3505220819
  0
LINE
  5
399
100
AcDbEntity
  8
RACCORDO
100
AcDbLine
 62
7
  6
CONTINUOUS
 10
114.8399836327
 20
249.6718647029
 11
326.4021968227
 21
127.5184942912
  0
LWPOLYLINE
  5
39A
100
AcDbEntity
  8
RACCORDO
100
AcDbPolyline
 62
7
  6
CONTINUOUS
 90
22
 70
0
 10
326.4021968227
 20
127.5184942912
 10
326.4266436689
 20
127.5032695454
 10
326.449997837
 20
127.4870762752
 10
326.472259327
 20
127.4699144805
 10
326.4933941525
 20
127.4517467983
 10
326.5134362999
 20
127.4326105918
 10
326.5324877284
 20
127.4126179499
 10
326.5505463792
 20
127.3918623776
 10
326.5676143111
 20
127.3702503701
 10
326.58379966
 20
127.3476135017
 10
326.5992325517
 20
127.3238052277
 10
326.6137828604
 20
127.2989720928
 10
326.627168345
 20
127.2733853056
 10
326.6393796154
 20
127.2469578611
 10
326.6504260616
 20
127.2197767642
 10
326.6600536121
 20
127.1923742388
 10
326.6681926365
 20
127.1649039462
 10
326.6749127652
 20
127.1372122251
 10
326.680168818
 20
127.1093703143
 10
326.6839457346
 20
127.0814019603
 10
326.6862585753
 20
127.0532834167
 10
326.68710734
 20
127.0250146835
  0
LWPOLYLINE
  5
39B
100
AcDbEntity
  8
0
100
AcDbPolyline
 62
250
  6
CONTINUOUS
 90
11
 70
0
 10
288.7036002627
 20
92.9950242632
 10
288.6994638923
 20
93.004508875
 10
288.6943849723
 20
93.0138481485
 10
288.6883734315
 20
93.0230425503
 10
288.681489697
 20
93.0320012952
 10
288.6737250195
 20
93.0407216355
 10
288.6650881483
 20
93.0492063189
 10
288.6556657583
 20
93.0573728032
 10
288.6454867413
 20
93.0651935743
 10
288.6345222055
 20
93.0726961463
 10
288.6227721511
 20
93.0798805193
  0
LWPOLYLINE
  5
39C
100
AcDbEntity
  8
RACCORDO
100
AcDbPolyline
 62
250
  6
CONTINUOUS
 90
13
 70
0
 10
274.5100959983
 20
97.5110920278
 10
274.4987721937
 20
97.5392716235
 10
274.4882562141
 20
97.5674726631
 10
274.4785666333
 20
97.5956495984
 10
274.4697149034
 20
97.6237727621
 10
274.4617244123
 20
97.651779913
 10
274.4546256929
 20
97.6795776412
 10
274.4484338446
 20
97.7070993027
 10
274.4431504221
 20
97.7343240326
 10
274.438781128
 20
97.7612283842
 10
274.4353331638
 20
97.7877755255
 10
274.4328132808
 20
97.813916142
 10
274.4312262671
 20
97.8396081969
  0
LWPOLYLINE
  5
39D
100
AcDbEntity
  8
RACCORDO
100
AcDbPolyline
 62
250
  6
CONTINUOUS
 90
13
 70
0
 10
273.8688722875
 20
97.2942196822
 10
273.8509637561
 20
97.3403953059
 10
273.8343672513
 20
97.3864515744
 10
273.8190829549
 20
97.4323886025
 10
273.8050786888
 20
97.4783129427
 10
273.7923870213
 20
97.5241182896
 10
273.7811051784
 20
97.569485424
 10
273.7712540225
 20
97.6143674741
 10
273.7628129113
 20
97.6588114504
 10
273.7558166862
 20
97.7026388768
 10
273.7502769835
 20
97.7457902752
 10
273.7461822891
 20
97.7883251999
 10
273.7435326698
 20
97.830243693
  0
LWPOLYLINE
  5
39E
100
AcDbEntity
  8
RACCORDO
100
AcDbPolyline
 62
250
  6
CONTINUOUS
 90
3
 70
0
 10
256.424724012
 20
144.48061688
 10
256.4478095409
 20
144.4184177676
 10
256.4687715014
 20
144.355815319
  0
LWPOLYLINE
  5
39F
100
AcDbEntity
  8
RACCORDO
100
AcDbPolyline
 62
250
  6
CONTINUOUS
 90
13
 70
0
 10
256.4687687435
 20
144.3558169114
 10
256.4833835601
 20
144.3077394951
 10
256.496634747
 20
144.2597529517
 10
256.5085224856
 20
144.2118573757
 10
256.5190711179
 20
144.1639427091
 10
256.5282566913
 20
144.1161192131
 10
256.5360068712
 20
144.0687174234
 10
256.5423045132
 20
144.0217845003
 10
256.5471669828
 20
143.9752733994
 10
256.5505735833
 20
143.9293732835
 10
256.5525174378
 20
143.8841472185
 10
256.5530055446
 20
143.8395322028
 10
256.5520379705
 20
143.7955282716
  0
LWPOLYLINE
  5
3A0
100
AcDbEntity
  8
RACCORDO
100
AcDbPolyline
 62
7
  6
CONTINUOUS
 90
13
 70
0
 10
256.3453826067
 20
144.3876191825
 10
256.3584121497
 20
144.3443779861
 10
256.3688866601
 20
144.3054949094
 10
256.3779973141
 20
144.2673667044
 10
256.3857669609
 20
144.2300940439
 10
256.3922226318
 20
144.1937797465
 10
256.3973950065
 20
144.1585406882
 10
256.4013219716
 20
144.1245024942
 10
256.4040531459
 20
144.0917579293
 10
256.4056441104
 20
144.0604080651
 10
256.4061593479
 20
144.0305888991
 10
256.4056762497
 20
144.002395647
 10
256.2965612408
 20
140.9831831472
  0
LWPOLYLINE
  5
3A1
100
AcDbEntity
  8
RACCORDO
100
AcDbPolyline
 62
7
  6
CONTINUOUS
 90
4
 70
0
 10
256.3917378535
 20
107.8224996504
 10
256.3899773352
 20
107.817956932
 10
256.3887296361
 20
107.8151757816
 10
256.3882258963
 20
107.8141827051
  0
LWPOLYLINE
  5
3A2
100
AcDbEntity
  8
0
100
AcDbPolyline
 62
250
  6
CONTINUOUS
 90
10
 70
0
 10
277.9699076397
 20
129.9017643078
 10
277.9815207152
 20
129.9092076028
 10
277.9919727741
 20
129.9172040525
 10
278.0011851489
 20
129.9256934745
 10
278.0090885024
 20
129.9346119763
 10
278.0156233488
 20
129.9438924353
 10
278.020740502
 20
129.9534650046
 10
278.0244014459
 20
129.9632576387
 10
278.0265786242
 20
129.9731966354
 10
278.0272575499
 20
129.9827035502
  0
LINE
  5
3A3
100
AcDbEntity
  8
0
100
AcDbLine
 62
250
  6
CONTINUOUS
 10
276.4825258853
 20
126.9065602138
 11
277.7669655472
 21
127.7134843433
  0
LINE
  5
3A4
100
AcDbEntity
  8
0
100
AcDbLine
 62
7
  6
CONTINUOUS
 10
276.4825258853
 20
126.8409239987
 11
277.7307083754
 21
127.6250702682
  0
LINE
  5
3A5
100
AcDbEntity
  8
0
100
AcDbLine
 62
250
  6
CONTINUOUS
 10
277.6292498234
 20
130.2742996935
 11
276.4825258853
 21
129.6471826977
  0
LINE
  5
3A6
100
AcDbEntity
  8
0
100
AcDbLine
 62
250
  6
CONTINUOUS
 10
277.7669655472
 20
130.0273167908
 11
276.4825258853
 21
129.3248862272
  0
LINE
  5
3A7
100
AcDbEntity
  8
0
100
AcDbLine
 62
7
  6
CONTINUOUS
 10
252.2542526903
 20
112.48649971
 11
252.1406253635
 21
112.4264265401
  0
LINE
  5
3A8
100
AcDbEntity
  8
0
100
AcDbLine
 62
7
  6
CONTINUOUS
 10
277.0249580564
 20
130.5816428781
 11
276.4825258853
 21
130.3107189759
  0
LINE
  5
3A9
100
AcDbEntity
  8
0
100
AcDbLine
 62
250
  6
CONTINUOUS
 10
277.1192591988
 20
130.5687632018
 11
276.4825258853
 21
130.2507395242
  0
LWPOLYLINE
  5
3AA
100
AcDbEntity
  8
RACCORDO
100
AcDbPolyline
 62
250
  6
CONTINUOUS
 90
11
 70
0
 10
156.059600873
 20
202.3308325211
 10
156.0372158781
 20
202.3304043427
 10
156.016806355
 20
202.3309428477
 10
155.9984796802
 20
202.3324452028
 10
155.9823322723
 20
202.3349035041
 10
155.9684490843
 20
202.3383048181
 10
155.9569031571
 20
202.3426312503
 10
155.9477552349
 20
202.3478600388
 10
155.9410534459
 20
202.3539636744
 10
155.9368330489
 20
202.3609100453
 10
155.9362196782
 20
202.3626114351
  0
LWPOLYLINE
  5
3AB
100
AcDbEntity
  8
RACCORDO
100
AcDbPolyline
 62
7
  6
CONTINUOUS
 90
4
 70
0
 10
114.7851566634
 20
249.6985986262
 10
114.792730202
 20
249.6954976521
 10
114.815925827
 20
249.6847753411
 10
114.8399836327
 20
249.6718647029
  0
LWPOLYLINE
  5
3AC
100
AcDbEntity
  8
RACCORDO
100
AcDbPolyline
 62
250
  6
CONTINUOUS
 90
13
 70
0
 10
273.7435326698
 20
97.830243693
 10
273.6204199396
 20
100.7676520582
 10
273.5196805778
 20
103.7176970172
 10
273.4413209873
 20
106.6801814972
 10
273.3853460367
 20
109.654907638
 10
273.3517593968
 20
112.641676543
 10
273.3405635383
 20
115.6402882914
 10
273.3517593962
 20
118.6505422608
 10
273.3853460358
 20
121.6722372654
 10
273.4413209861
 20
124.7051713059
 10
273.5196805766
 20
127.7491415053
 10
273.6204199387
 20
130.8039441229
 10
273.7435326698
 20
133.8693746922
  0
LWPOLYLINE
  5
3AD
100
AcDbEntity
  8
RACCORDO
100
AcDbPolyline
 62
250
  6
CONTINUOUS
 90
13
 70
0
 10
274.4312261556
 20
97.8396081326
 10
274.3082351322
 20
100.7740833827
 10
274.2076042566
 20
103.720787208
 10
274.1293335288
 20
106.6797196085
 10
274.0734206734
 20
109.6510807157
 10
274.0398679659
 20
112.6346703982
 10
274.0286822321
 20
115.6298882611
 10
274.039868032
 20
118.6367368612
 10
274.0734208056
 20
121.6552136416
 10
274.1293336987
 20
124.6847105381
 10
274.2076044265
 20
127.7250248625
 10
274.3082352737
 20
130.776359303
 10
274.4312262404
 20
133.8387138594
  0
LWPOLYLINE
  5
3AE
100
AcDbEntity
  8
0
100
AcDbPolyline
 62
250
  6
CONTINUOUS
 90
28
 70
0
 10
277.9699076397
 20
129.9017643078
 10
277.9695612184
 20
129.915531645
 10
277.9685464877
 20
129.9287777709
 10
277.9668634475
 20
129.9415026855
 10
277.9645027174
 20
129.9537451641
 10
277.9614736778
 20
129.9654664315
 10
277.9578044702
 20
129.9765501617
 10
277.9534883402
 20
129.9869901509
 10
277.9485320421
 20
129.9967926028
 10
277.9429839797
 20
130.0058598025
 10
277.9368387846
 20
130.0141833846
 10
277.9301018251
 20
130.0217717144
 10
277.9228376104
 20
130.028552173
 10
277.9150409849
 20
130.0345172712
 10
277.906717104
 20
130.0396744982
 10
277.8979459432
 20
130.0439737022
 10
277.8887232001
 20
130.0474066466
 10
277.8790531771
 20
130.0499815679
 10
277.8690287572
 20
130.051673024
 10
277.8586465898
 20
130.0524725661
 10
277.8479100254
 20
130.052388643
 10
277.8369219986
 20
130.0514211589
 10
277.82567806
 20
130.0495606188
 10
277.8141826589
 20
130.0468165177
 10
277.8025520788
 20
130.0432172454
 10
277.7908250807
 20
130.0387722652
 10
277.7789629035
 20
130.0334721136
 10
277.7669655472
 20
130.0273167908
  0
LWPOLYLINE
  5
3AF
100
AcDbEntity
  8
0
100
AcDbPolyline
 62
7
  6
CONTINUOUS
 90
15
 70
0
 10
278.0272563668
 20
129.9827045495
 10
278.0266555055
 20
130.0066669433
 10
278.0239760726
 20
130.037923136
 10
278.019178257
 20
130.0681550796
 10
278.0123378648
 20
130.0971042665
 10
278.0035431345
 20
130.1246629485
 10
277.9928607217
 20
130.1508151027
 10
277.9804135911
 20
130.1754090366
 10
277.9663765997
 20
130.1982872131
 10
277.9508440411
 20
130.219469419
 10
277.9338396511
 20
130.2390197382
 10
277.9155068744
 20
130.2568371753
 10
277.8959832083
 20
130.2728616605
 10
277.8752483338
 20
130.2871467235
 10
277.8655882376
 20
130.2929665115
  0
LWPOLYLINE
  5
3B0
100
AcDbEntity
  8
RACCORDO
100
AcDbPolyline
 62
250
  6
CONTINUOUS
 90
25
 70
0
 10
274.7110020191
 20
96.2665836086
 10
274.7104967868
 20
96.2930375893
 10
274.7115097308
 20
96.3203489112
 10
274.7140364984
 20
96.3484002897
 10
274.7180662362
 20
96.3770712624
 10
274.7235816367
 20
96.4062387068
 10
274.7305590125
 20
96.4357773691
 10
274.7389683983
 20
96.4655604012
 10
274.7487736794
 20
96.4954599062
 10
274.7599327473
 20
96.5253474885
 10
274.7723976797
 20
96.5550948028
 10
274.7861149468
 20
96.5845741066
 10
274.8010256421
 20
96.6136588103
 10
274.8170657335
 20
96.6422240174
 10
274.8341663393
 20
96.6701470624
 10
274.8522540253
 20
96.6973080401
 10
274.8712511172
 20
96.7235903153
 10
274.891076036
 20
96.7488810268
 10
274.9116436499
 20
96.7730715737
 10
274.9328656358
 20
96.796058077
 10
274.9546508612
 20
96.8177418285
 10
274.9769057772
 20
96.8380297164
 10
274.9995348166
 20
96.8568346213
 10
275.0224408043
 20
96.8740757908
 10
275.0455253764
 20
96.8896791882
  0
LWPOLYLINE
  5
3B1
100
AcDbEntity
  8
0
100
AcDbPolyline
 62
250
  6
CONTINUOUS
 90
19
 70
0
 10
277.7669655472
 20
130.0273167908
 10
277.7668492222
 20
130.0420957337
 10
277.7656485494
 20
130.0573780013
 10
277.7633726633
 20
130.0730473315
 10
277.760038878
 20
130.0889845173
 10
277.7556725557
 20
130.1050683141
 10
277.750306914
 20
130.1211763621
 10
277.7439827728
 20
130.1371861167
 10
277.7367482439
 20
130.1529757812
 10
277.7286583652
 20
130.1684252333
 10
277.7197746817
 20
130.1834169389
 10
277.7101647773
 20
130.1978368464
 10
277.6999017609
 20
130.2115752539
 10
277.6890637101
 20
130.2245276445
 10
277.6777330769
 20
130.2365954808
 10
277.6659960608
 20
130.2476869549
 10
277.6539419532
 20
130.2577176867
 10
277.6416624573
 20
130.2666113659
 10
277.6292509915
 20
130.2743003324
  0
LINE
  5
3B2
100
AcDbEntity
  8
0
100
AcDbLine
 62
7
  6
CONTINUOUS
 10
276.4825258853
 20
99.0239993206
 11
276.4825258853
 21
133.2096265348
  0
LINE
  5
3B3
100
AcDbEntity
  8
0
100
AcDbLine
 62
7
  6
CONTINUOUS
 10
276.5910709092
 20
112.5682159621
 11
276.5910709092
 21
109.9327025286
  0
LINE
  5
3B4
100
AcDbEntity
  8
0
100
AcDbLine
 62
250
  6
CONTINUOUS
 10
277.9699076397
 20
128.0775156033
 11
277.9699076397
 21
129.9017643078
  0
LINE
  5
3B5
100
AcDbEntity
  8
0
100
AcDbLine
 62
7
  6
CONTINUOUS
 10
278.0272575499
 20
128.1584548483
 11
278.0272575499
 21
129.9827035502
  0
LWPOLYLINE
  5
3B6
100
AcDbEntity
  8
0
100
AcDbPolyline
 62
250
  6
CONTINUOUS
 90
10
 70
0
 10
277.7669655472
 20
127.7134843433
 10
277.7668492218
 20
127.6998220816
 10
277.7656485465
 20
127.6868795188
 10
277.763372656
 20
127.6747551173
 10
277.760038865
 20
127.6635411151
 10
277.7556725363
 20
127.6533228243
 10
277.7503068879
 20
127.644177982
 10
277.7439827403
 20
127.6361761586
 10
277.736748206
 20
127.6293782286
 10
277.7307083754
 20
127.6250702682
  0
LWPOLYLINE
  5
3B7
100
AcDbEntity
  8
RACCORDO
100
AcDbPolyline
 62
250
  6
CONTINUOUS
 90
14
 70
0
 10
274.7110020191
 20
134.4244454716
 10
274.7104967851
 20
134.3974082191
 10
274.7115097104
 20
134.3712667505
 10
274.7140364453
 20
134.3461333241
 10
274.7180661393
 20
134.3221158694
 10
274.7235814878
 20
134.2993175236
 10
274.7305588066
 20
134.2778361889
 10
274.7389681331
 20
134.2577641115
 10
274.7487733555
 20
134.2391874863
 10
274.7599323676
 20
134.2221860862
 10
274.7723972498
 20
134.2068329196
 10
274.7861144746
 20
134.193193917
 10
274.8010251366
 20
134.1813276478
 10
274.8139387519
 20
134.1730478614
  0
LWPOLYLINE
  5
3B8
100
AcDbEntity
  8
RACCORDO
100
AcDbPolyline
 62
250
  6
CONTINUOUS
 90
10
 70
0
 10
274.4312264048
 20
133.8387139353
 10
274.4335439193
 20
133.8736564691
 10
274.4375144418
 20
133.907618885
 10
274.4431291587
 20
133.9405038561
 10
274.4503803241
 20
133.972231336
 10
274.4592465876
 20
134.0026948029
 10
274.4696867669
 20
134.0317675355
 10
274.4816626208
 20
134.0593594182
 10
274.4951452221
 20
134.0854111289
 10
274.5100959983
 20
134.1098544907
  0
LWPOLYLINE
  5
3B9
100
AcDbEntity
  8
RACCORDO
100
AcDbPolyline
 62
250
  6
CONTINUOUS
 90
10
 70
0
 10
273.7435326698
 20
133.8693746922
 10
273.7473817581
 20
133.9264742182
 10
273.7537898619
 20
133.9816483624
 10
273.7627568083
 20
134.0348970337
 10
273.774334614
 20
134.086394702
 10
273.7884709716
 20
134.1359667435
 10
273.8050089967
 20
134.1830893088
 10
273.8238960371
 20
134.2275875952
 10
273.8451839252
 20
134.2696359772
 10
273.8688722875
 20
134.3092342598
  0
LINE
  5
3BA
100
AcDbEntity
  8
RACCORDO
100
AcDbLine
 62
7
  6
CONTINUOUS
 10
256.3881931969
 20
107.8141230888
 11
256.3882258082
 21
107.814179899
  0
LWPOLYLINE
  5
3BB
100
AcDbEntity
  8
RACCORDO
100
AcDbPolyline
 62
250
  6
CONTINUOUS
 90
22
 70
0
 10
256.4687624851
 20
107.3408250075
 10
256.447899578
 20
107.3074231048
 10
256.4249081239
 20
107.2767191985
 10
256.3997867735
 20
107.2487124355
 10
256.3724526891
 20
107.2233056479
 10
256.3429862241
 20
107.2005944308
 10
256.3116305217
 20
107.1808668872
 10
256.2783635013
 20
107.1641657774
 10
256.2432042896
 20
107.1504464632
 10
256.2064573509
 20
107.1398656365
 10
256.1681002825
 20
107.1324613519
 10
256.1281525946
 20
107.1281937107
 10
256.0869813894
 20
107.1271023257
 10
256.0445603215
 20
107.1292302489
 10
256.0009132529
 20
107.1345328421
 10
255.9564825746
 20
107.142918167
 10
255.9112542119
 20
107.1544337076
 10
255.8652404488
 20
107.1690308345
 10
255.8189233537
 20
107.1864735281
 10
255.7724633098
 20
107.2066829193
 10
255.7256990276
 20
107.229737297
 10
255.6786302828
 20
107.2556365175
  0
LWPOLYLINE
  5
3BC
100
AcDbEntity
  8
RACCORDO
100
AcDbPolyline
 62
250
  6
CONTINUOUS
 90
22
 70
0
 10
273.8688722875
 20
134.3092342598
 10
273.8939318616
 20
134.3450592655
 10
273.921013581
 20
134.3781248397
 10
273.9501160964
 20
134.4084302774
 10
273.9813332009
 20
134.4360790722
 10
274.014568617
 20
134.4609664345
 10
274.0495355961
 20
134.4827790839
 10
274.0862501397
 20
134.5014707504
 10
274.1246932922
 20
134.5170861708
 10
274.1645253787
 20
134.5294483231
 10
274.2057631842
 20
134.5385159092
 10
274.248387031
 20
134.544328731
 10
274.2920023177
 20
134.5468312979
 10
274.3366298779
 20
134.5459773756
 10
274.3822463947
 20
134.5418119171
 10
274.4283910178
 20
134.5344162024
 10
274.475071854
 20
134.5237393018
 10
274.5222790058
 20
134.5098312227
 10
274.5695247561
 20
134.492924723
 10
274.6166462264
 20
134.4730972312
 10
274.6638053888
 20
134.4502708525
 10
274.7110020191
 20
134.4244454716
  0
LWPOLYLINE
  5
3BD
100
AcDbEntity
  8
RACCORDO
100
AcDbPolyline
 62
250
  6
CONTINUOUS
 90
8
 70
0
 10
274.5100959983
 20
134.1098544907
 10
274.5259530511
 20
134.1319596481
 10
274.5431620972
 20
134.1525063741
 10
274.5616909918
 20
134.1714270399
 10
274.5815171603
 20
134.1886666055
 10
274.6025884073
 20
134.2041547762
 10
274.6248188875
 20
134.2178136061
 10
274.6456476931
 20
134.2284461607
  0
LINE
  5
3BE
100
AcDbEntity
  8
0
100
AcDbLine
 62
250
  6
CONTINUOUS
 10
256.013172801
 20
107.8787210338
 11
256.3983681399
 21
108.1503328554
  0
LWPOLYLINE
  5
3BF
100
AcDbEntity
  8
0
100
AcDbPolyline
 62
250
  6
CONTINUOUS
 90
28
 70
0
 10
277.7669655472
 20
127.7134843433
 10
277.7789629035
 20
127.721427204
 10
277.7908250807
 20
127.7300663859
 10
277.8025520788
 20
127.7394018892
 10
277.8141826589
 20
127.749469799
 10
277.82567806
 20
127.76023403
 10
277.8369219987
 20
127.7715863267
 10
277.8479100254
 20
127.7835309554
 10
277.8586465897
 20
127.7960636497
 10
277.8690287572
 20
127.8090633547
 10
277.8790531771
 20
127.8225345819
 10
277.8887232001
 20
127.8364728199
 10
277.8979459432
 20
127.850743479
 10
277.906717104
 20
127.8653497398
 10
277.9150409848
 20
127.8802884217
 10
277.9228376104
 20
127.8954153932
 10
277.9301018252
 20
127.9107320851
 10
277.9368387846
 20
127.9262370665
 10
277.9429839797
 20
127.9417819135
 10
277.9485320421
 20
127.957368683
 10
277.95348834
 20
127.9729953181
 10
277.95780447
 20
127.988507224
 10
277.9614736778
 20
128.0039026677
 10
277.9645027175
 20
128.0191833823
 10
277.9668634478
 20
128.0341999726
 10
277.9685464879
 20
128.0489026404
 10
277.9695612186
 20
128.063341184
 10
277.9699076397
 20
128.0775156033
  0
LWPOLYLINE
  5
3C0
100
AcDbEntity
  8
0
100
AcDbPolyline
 62
7
  6
CONTINUOUS
 90
22
 70
0
 10
277.7306848759
 20
127.6250552762
 10
277.7474553006
 20
127.636061679
 10
277.7715481278
 20
127.6535759027
 10
277.7948789336
 20
127.6725608086
 10
277.8174541857
 20
127.692971908
 10
277.8392318295
 20
127.7147332721
 10
277.8601112507
 20
127.7377151547
 10
277.8800629008
 20
127.7618511233
 10
277.8990474302
 20
127.787077892
 10
277.9169470525
 20
127.8132247808
 10
277.9337230853
 20
127.8402150083
 10
277.9493309419
 20
127.8679824586
 10
277.9636671646
 20
127.8963403727
 10
277.9766936466
 20
127.9252183775
 10
277.9883648462
 20
127.9545447956
 10
277.998596003
 20
127.9841322208
 10
278.0073482588
 20
128.0139161802
 10
278.0145828221
 20
128.0438369593
 10
278.0202351588
 20
128.073741625
 10
278.0242602548
 20
128.1035586474
 10
278.0266155018
 20
128.1332729643
 10
278.0272563636
 20
128.1584736271
  0
LWPOLYLINE
  5
3C1
100
AcDbEntity
  8
0
100
AcDbPolyline
 62
250
  6
CONTINUOUS
 90
10
 70
0
 10
277.9699076397
 20
128.0775156033
 10
277.9815207726
 20
128.084958939
 10
277.9919728696
 20
128.092955429
 10
278.0011852648
 20
128.1014448893
 10
278.0090886228
 20
128.1103634253
 10
278.0156234602
 20
128.1196439132
 10
278.0207405938
 20
128.1292165049
 10
278.0244015102
 20
128.1390091541
 10
278.0265786563
 20
128.148948158
 10
278.0272575499
 20
128.1584548483
  0
LWPOLYLINE
  5
3C2
100
AcDbEntity
  8
RACCORDO
100
AcDbPolyline
 62
250
  6
CONTINUOUS
 90
4
 70
0
 10
256.410237434
 20
107.8359080087
 10
256.3902368611
 20
107.8233800427
 10
256.37041697
 20
107.8136271393
 10
256.3495217366
 20
107.8057757418
  0
LINE
  5
3C3
100
AcDbEntity
  8
0
100
AcDbLine
 62
7
  6
CONTINUOUS
 10
254.5369036979
 20
111.1687105301
 11
254.4307886118
 21
111.104114983
  0
LINE
  5
3C4
100
AcDbEntity
  8
0
100
AcDbLine
 62
7
  6
CONTINUOUS
 10
276.5910709092
 20
112.5682159621
 11
276.4825258853
 21
112.5088551804
  0
LINE
  5
3C5
100
AcDbEntity
  8
RACCORDO
100
AcDbLine
 62
250
  6
CONTINUOUS
 10
114.7056213992
 20
249.7224291558
 11
114.8399837494
 21
249.6718646505
  0
LWPOLYLINE
  5
3C6
100
AcDbEntity
  8
RACCORDO
100
AcDbPolyline
 62
7
  6
CONTINUOUS
 90
13
 70
0
 10
114.785152038
 20
249.698635253
 10
114.7287281071
 20
249.7204685432
 10
114.5800114502
 20
249.7744561704
 10
114.433143876
 20
249.8226608774
 10
114.2882777648
 20
249.8651650438
 10
114.145568398
 20
249.9020622119
 10
114.0051620559
 20
249.9334584793
 10
113.867206608
 20
249.9594708256
 10
113.7318471265
 20
249.9802328755
 10
113.5992155259
 20
249.9958938269
 10
113.4694424574
 20
250.0066111541
 10
113.3426627977
 20
250.0125565336
 10
113.2910077078
 20
250.0136672302
  0
LWPOLYLINE
  5
3C7
100
AcDbEntity
  8
0
100
AcDbPolyline
 62
7
  6
CONTINUOUS
 90
15
 70
0
 10
288.9094058324
 20
92.7939233085
 10
288.9092469081
 20
92.8037467819
 10
288.9073885788
 20
92.8286582278
 10
288.9034490492
 20
92.8534077356
 10
288.8973958129
 20
92.8780259498
 10
288.8892144943
 20
92.9023652359
 10
288.8789206322
 20
92.9262570635
 10
288.8664547656
 20
92.9497072276
 10
288.8517643578
 20
92.9726383929
 10
288.8348940857
 20
92.9948360158
 10
288.8158977986
 20
93.0161405546
 10
288.7947621036
 20
93.0364815127
 10
288.7715291898
 20
93.0557342543
 10
288.746339532
 20
93.0737321636
 10
288.7215500487
 20
93.0890768927
  0
LINE
  5
3C8
100
AcDbEntity
  8
0
100
AcDbLine
 62
250
  6
CONTINUOUS
 10
288.7750817096
 20
92.5985713611
 11
288.7750828491
 21
92.0097032286
  0
LINE
  5
3C9
100
AcDbEntity
  8
0
100
AcDbLine
 62
7
  6
CONTINUOUS
 10
288.9094059983
 20
92.7940238558
 11
288.9094059983
 21
92.2123413938
  0
LWPOLYLINE
  5
3CA
100
AcDbEntity
  8
0
100
AcDbPolyline
 62
250
  6
CONTINUOUS
 90
10
 70
0
 10
288.7750828491
 20
92.0097032286
 10
288.7749414136
 20
91.9960465268
 10
288.7736895531
 20
91.9830920663
 10
288.7713367824
 20
91.9709382855
 10
288.7679009814
 20
91.9596775373
 10
288.7634082608
 20
91.9493953905
 10
288.7578927639
 20
91.9401699789
 10
288.7513964051
 20
91.9320714022
 10
288.743968552
 20
91.9251611973
 10
288.7391270423
 20
91.9216335965
  0
LINE
  5
3CB
100
AcDbEntity
  8
0
100
AcDbLine
 62
7
  6
CONTINUOUS
 10
276.5912310299
 20
109.9328031213
 11
276.4825258853
 21
109.8645112374
  0
LWPOLYLINE
  5
3CC
100
AcDbEntity
  8
RACCORDO
100
AcDbPolyline
 62
250
  6
CONTINUOUS
 90
4
 70
0
 10
325.6404484733
 20
127.1465070779
 10
325.7675847875
 20
127.2150277333
 10
325.828382678
 20
127.2473042234
 10
325.8872473136
 20
127.2781478171
  0
LWPOLYLINE
  5
3CD
100
AcDbEntity
  8
RACCORDO
100
AcDbPolyline
 62
250
  6
CONTINUOUS
 90
13
 70
0
 10
325.8872473136
 20
127.2781478171
 10
325.942661594
 20
127.3068413031
 10
325.9959895682
 20
127.3341456215
 10
326.0471663087
 20
127.3599890007
 10
326.0960713097
 20
127.3842322071
 10
326.1426928859
 20
127.4068842621
 10
326.1871101723
 20
127.4280479205
 10
326.2292673254
 20
127.4475842814
 10
326.2690348589
 20
127.4653965501
 10
326.3063395166
 20
127.4815503029
 10
326.3410624397
 20
127.4959311167
 10
326.3730609722
 20
127.5083023676
 10
326.4021966254
 20
127.5184944379
  0
LWPOLYLINE
  5
3CE
100
AcDbEntity
  8
RACCORDO
100
AcDbPolyline
 62
250
  6
CONTINUOUS
 90
3
 70
0
 10
306.6293054762
 20
115.4931207537
 10
306.6523910052
 20
115.4309216413
 10
306.6733529656
 20
115.3683191927
  0
LWPOLYLINE
  5
3CF
100
AcDbEntity
  8
RACCORDO
100
AcDbPolyline
 62
250
  6
CONTINUOUS
 90
4
 70
0
 10
306.6207457799
 20
78.9175038706
 10
306.6145824534
 20
78.9389558211
 10
306.6110070636
 20
78.9606892718
 10
306.610173839
 20
78.9721488362
  0
LWPOLYLINE
  5
3D0
100
AcDbEntity
  8
RACCORDO
100
AcDbPolyline
 62
250
  6
CONTINUOUS
 90
13
 70
0
 10
326.2215493471
 20
126.6991197105
 10
326.2741013471
 20
126.7327708024
 10
326.3244070035
 20
126.7653099071
 10
326.3723716982
 20
126.7967166796
 10
326.4178146089
 20
126.8269563425
 10
326.4607376987
 20
126.8560142934
 10
326.501269497
 20
126.8839077792
 10
326.5392617946
 20
126.9106579075
 10
326.5745660178
 20
126.9362009144
 10
326.6072022899
 20
126.9604405996
 10
326.6370120766
 20
126.9833312484
 10
326.6637191427
 20
127.0048676153
 10
326.6871073529
 20
127.0250145713
  0
LWPOLYLINE
  5
3D1
100
AcDbEntity
  8
RACCORDO
100
AcDbPolyline
 62
250
  6
CONTINUOUS
 90
3
 70
0
 10
326.1070631633
 20
126.6270339798
 10
326.1654100992
 20
126.6635556344
 10
326.2215493471
 20
126.6991197105
  0
LINE
  5
3D2
100
AcDbEntity
  8
RACCORDO
100
AcDbLine
 62
250
  6
CONTINUOUS
 10
325.9841625019
 20
126.5511769333
 11
326.1070631633
 21
126.6270339798
  0
LINE
  5
3D3
100
AcDbEntity
  8
RACCORDO
100
AcDbLine
 62
250
  6
CONTINUOUS
 10
325.8534804281
 20
126.4716872471
 11
325.9841625019
 21
126.5511769333
  0
LWPOLYLINE
  5
3D4
100
AcDbEntity
  8
RACCORDO
100
AcDbPolyline
 62
250
  6
CONTINUOUS
 90
3
 70
0
 10
325.7042455809
 20
126.3822320686
 10
325.7154899292
 20
126.3889200954
 10
325.8534804281
 20
126.4716872471
  0
LINE
  5
3D5
100
AcDbEntity
  8
RACCORDO
100
AcDbLine
 62
250
  6
CONTINUOUS
 10
323.3124282846
 20
126.2208146413
 11
325.061730818
 21
127.2308302789
  0
LINE
  5
3D6
100
AcDbEntity
  8
0
100
AcDbLine
 62
250
  6
CONTINUOUS
 10
274.4312261556
 20
97.8396081326
 11
276.4825258853
 21
99.0239993206
  0
LINE
  5
3D7
100
AcDbEntity
  8
0
100
AcDbLine
 62
250
  6
CONTINUOUS
 10
275.0455162545
 20
96.8896844551
 11
277.047436058
 21
98.0455462008
  0
LINE
  5
3D8
100
AcDbEntity
  8
RACCORDO
100
AcDbLine
 62
250
  6
CONTINUOUS
 10
323.9227640069
 20
124.9424339034
 11
325.767868534
 21
126.0077638791
  0
LINE
  5
3D9
100
AcDbEntity
  8
RACCORDO
100
AcDbLine
 62
250
  6
CONTINUOUS
 10
325.3541832457
 20
126.9885316655
 11
325.4367571244
 21
127.0345621966
  0
LWPOLYLINE
  5
3DA
100
AcDbEntity
  8
RACCORDO
100
AcDbPolyline
 62
250
  6
CONTINUOUS
 90
3
 70
0
 10
325.4367571244
 20
127.0345621966
 10
325.5742290029
 20
127.1104138345
 10
325.6404484733
 20
127.1465070779
  0
LINE
  5
3DB
100
AcDbEntity
  8
0
100
AcDbLine
 62
7
  6
CONTINUOUS
 10
286.5314325817
 20
94.0111661753
 11
285.2281188071
 21
93.3221225095
  0
LINE
  5
3DC
100
AcDbEntity
  8
0
100
AcDbLine
 62
250
  6
CONTINUOUS
 10
286.6261439901
 20
93.9983559549
 11
285.2849711009
 21
93.2892967075
  0
LWPOLYLINE
  5
3DD
100
AcDbEntity
  8
0
100
AcDbPolyline
 62
250
  6
CONTINUOUS
 90
10
 70
0
 10
287.0428755325
 20
93.9920930261
 10
287.0551277384
 20
93.9984293158
 10
287.0672784511
 20
94.0034836117
 10
287.0792362207
 20
94.0072178714
 10
287.0909110496
 20
94.0096039869
 10
287.1022150688
 20
94.0106239969
 10
287.1130631998
 20
94.0102702217
 10
287.1233737956
 20
94.0085453213
 10
287.1330692539
 20
94.005462275
 10
287.1416462482
 20
94.0012949136
  0
LWPOLYLINE
  5
3DE
100
AcDbEntity
  8
RACCORDO
100
AcDbPolyline
 62
250
  6
CONTINUOUS
 90
13
 70
0
 10
306.6733502077
 20
115.3683207851
 10
306.6879650244
 20
115.3202433688
 10
306.7012162113
 20
115.2722568254
 10
306.7131039498
 20
115.2243612495
 10
306.7236525821
 20
115.1764465828
 10
306.7328381555
 20
115.1286230868
 10
306.7405883354
 20
115.0812212972
 10
306.7468859774
 20
115.034288374
 10
306.751748447
 20
114.9877772731
 10
306.7551550475
 20
114.9418771572
 10
306.757098902
 20
114.8966510922
 10
306.7575870088
 20
114.8520360765
 10
306.7566194347
 20
114.8080321453
  0
LWPOLYLINE
  5
3DF
100
AcDbEntity
  8
RACCORDO
100
AcDbPolyline
 62
7
  6
CONTINUOUS
 90
13
 70
0
 10
306.549964071
 20
115.4001230562
 10
306.5629936139
 20
115.3568818598
 10
306.5734681243
 20
115.3179987831
 10
306.5825787784
 20
115.2798705781
 10
306.5903484251
 20
115.2425979176
 10
306.596804096
 20
115.2062836202
 10
306.6019764708
 20
115.1710445619
 10
306.6059034358
 20
115.1370063679
 10
306.6086346102
 20
115.104261803
 10
306.6102255746
 20
115.0729119388
 10
306.6107408121
 20
115.0430927728
 10
306.610257714
 20
115.0148995207
 10
306.5011427051
 20
111.9956870209
  0
LWPOLYLINE
  5
3E0
100
AcDbEntity
  8
RACCORDO
100
AcDbPolyline
 62
250
  6
CONTINUOUS
 90
10
 70
0
 10
323.1149237782
 20
53.0257581101
 10
323.1183536256
 20
53.0100011609
 10
323.1229130324
 20
52.9952388614
 10
323.1285768999
 20
52.9815524846
 10
323.1353140494
 20
52.9690173803
 10
323.1430873929
 20
52.9577025607
 10
323.1518541379
 20
52.9476703202
 10
323.1615660226
 20
52.938975892
 10
323.1721695819
 20
52.931667145
 10
323.1734846229
 20
52.9308936328
  0
LWPOLYLINE
  5
3E1
100
AcDbEntity
  8
RACCORDO
100
AcDbPolyline
 62
7
  6
CONTINUOUS
 90
11
 70
0
 10
306.6101737669
 20
78.9721505779
 10
306.6107110359
 20
78.9513716089
 10
306.6105647071
 20
78.9310294602
 10
306.6097900603
 20
78.9126990108
 10
306.6085206657
 20
78.8964481627
 10
306.6068765928
 20
78.8821302102
 10
306.6049382238
 20
78.8694603906
 10
306.6027987069
 20
78.8583952098
 10
306.600574795
 20
78.8489834656
 10
306.5983750773
 20
78.8411907422
 10
306.5963193177
 20
78.8350035241
  0
LWPOLYLINE
  5
3E2
100
AcDbEntity
  8
RACCORDO
100
AcDbPolyline
 62
250
  6
CONTINUOUS
 90
25
 70
0
 10
305.8832117471
 20
78.2681403912
 10
305.8827065131
 20
78.2945942122
 10
305.8837194384
 20
78.3219053816
 10
305.8862461733
 20
78.3499566181
 10
305.8902758673
 20
78.3786274624
 10
305.8957912158
 20
78.4077947944
 10
305.9027685345
 20
78.4373333619
 10
305.911177861
 20
78.4671163187
 10
305.9209830834
 20
78.497015769
 10
305.9321420956
 20
78.5269033166
 10
305.9446069778
 20
78.5566506168
 10
305.9583242026
 20
78.5861299267
 10
305.9732348646
 20
78.6152146546
 10
305.9892749335
 20
78.6437799031
 10
306.0063755292
 20
78.6717030054
 10
306.0244632171
 20
78.6988640525
 10
306.0434603241
 20
78.7251464079
 10
306.0632852715
 20
78.7504372081
 10
306.083852926
 20
78.7746278479
 10
306.1050749646
 20
78.7976144464
 10
306.1268602543
 20
78.8192982931
 10
306.1491152435
 20
78.8395862719
 10
306.1717443634
 20
78.858391261
 10
306.1946504385
 20
78.8756325067
 10
306.2177351044
 20
78.8912359708
  0
LWPOLYLINE
  5
3E3
100
AcDbEntity
  8
RACCORDO
100
AcDbPolyline
 62
250
  6
CONTINUOUS
 90
10
 70
0
 10
306.7566194347
 20
78.768901146
 10
306.7575863564
 20
78.7145766006
 10
306.7559722423
 20
78.6621666601
 10
306.7517769187
 20
78.6116712159
 10
306.7449647608
 20
78.5629259376
 10
306.7355711008
 20
78.5160949722
 10
306.7237019762
 20
78.4716707844
 10
306.709392376
 20
78.429817303
 10
306.6926064916
 20
78.3903700807
 10
306.6733439493
 20
78.3533288812
  0
LINE
  5
3E4
100
AcDbEntity
  8
0
100
AcDbLine
 62
7
  6
CONTINUOUS
 10
304.7414851621
 20
82.1812144039
 11
304.7414851621
 21
82.055349336
  0
LWPOLYLINE
  5
3E5
100
AcDbEntity
  8
RACCORDO
100
AcDbPolyline
 62
250
  6
CONTINUOUS
 90
14
 70
0
 10
305.8832117471
 20
116.4260022542
 10
305.8827065144
 20
116.3989648437
 10
305.883719458
 20
116.3728232439
 10
305.8862462253
 20
116.3476897131
 10
305.8902759628
 20
116.3236721805
 10
305.8957913629
 20
116.3008737821
 10
305.9027687385
 20
116.2793924184
 10
305.9111781241
 20
116.2593203342
 10
305.920983405
 20
116.2407437219
 10
305.9321424728
 20
116.2237423513
 10
305.944607405
 20
116.2083892284
 10
305.9583246721
 20
116.1947502808
 10
305.9732353674
 20
116.1828840743
 10
305.9862265778
 20
116.1745595231
  0
LWPOLYLINE
  5
3E6
100
AcDbEntity
  8
RACCORDO
100
AcDbPolyline
 62
7
  6
CONTINUOUS
 90
12
 70
0
 10
306.5011427051
 20
111.9956870209
 10
306.4097815735
 20
108.9243277253
 10
306.338711063
 20
105.8651240481
 10
306.2879380772
 20
102.8183068073
 10
306.257465524
 20
99.784077995
 10
306.2472954226
 20
96.7626283411
 10
306.257429428
 20
93.7541564974
 10
306.2878670039
 20
90.7588598076
 10
306.3386072299
 20
87.7769272116
 10
306.4096483278
 20
84.8085575245
 10
306.5009845247
 20
81.853973225
 10
306.6101746197
 20
78.972148868
  0
LWPOLYLINE
  5
3E7
100
AcDbEntity
  8
RACCORDO
100
AcDbPolyline
 62
250
  6
CONTINUOUS
 90
13
 70
0
 10
306.7566194347
 20
114.8080321453
 10
306.6457561145
 20
111.7355289426
 10
306.5550391801
 20
108.674939519
 10
306.4844750343
 20
105.6264683411
 10
306.4340687693
 20
102.5903190202
 10
306.4038238323
 20
99.5666945628
 10
306.3937420239
 20
96.5557973561
 10
306.4038238319
 20
93.5578288444
 10
306.4340687685
 20
90.5729893918
 10
306.4844750333
 20
87.6014785311
 10
306.5550391791
 20
84.6434950296
 10
306.6457561138
 20
81.6992368769
 10
306.7566194347
 20
78.768901146
  0
LWPOLYLINE
  5
3E8
100
AcDbEntity
  8
0
100
AcDbPolyline
 62
250
  6
CONTINUOUS
 90
12
 70
0
 10
288.7750828491
 20
92.0097032286
 10
288.7961103985
 20
92.0241356266
 10
288.8155637625
 20
92.0393105047
 10
288.8333624445
 20
92.0551685835
 10
288.8494311425
 20
92.0716481899
 10
288.8637048568
 20
92.0886839191
 10
288.876127391
 20
92.1062074099
 10
288.8866478084
 20
92.1241548433
 10
288.8952161272
 20
92.1424504108
 10
288.9017909239
 20
92.1610047554
 10
288.9063449015
 20
92.1797392969
 10
288.9088614507
 20
92.198583194
  0
LWPOLYLINE
  5
3E9
100
AcDbEntity
  8
0
100
AcDbPolyline
 62
7
  6
CONTINUOUS
 90
15
 70
0
 10
288.7391256947
 20
91.9216356347
 10
288.7487589229
 20
91.9281752209
 10
288.772754299
 20
91.9461110959
 10
288.7947538993
 20
91.9649972149
 10
288.8147453203
 20
91.9847105426
 10
288.8327714982
 20
92.0051866658
 10
288.8488996285
 20
92.0264102478
 10
288.8631138842
 20
92.0482722812
 10
288.8754101504
 20
92.0706738309
 10
288.8858215312
 20
92.0935979715
 10
288.8943264472
 20
92.1169116622
 10
288.9009262448
 20
92.1405025549
 10
288.9056458048
 20
92.1643709374
 10
288.9084702291
 20
92.1883839307
 10
288.9094037431
 20
92.2122827463
  0
LINE
  5
3EA
100
AcDbEntity
  8
0
100
AcDbLine
 62
250
  6
CONTINUOUS
 10
288.1810997549
 20
91.6171083197
 11
288.7750828491
 21
92.0097032286
  0
LINE
  5
3EB
100
AcDbEntity
  8
0
100
AcDbLine
 62
7
  6
CONTINUOUS
 10
288.2330277601
 20
91.5871257403
 11
288.7390912821
 21
91.9216099441
  0
LWPOLYLINE
  5
3EC
100
AcDbEntity
  8
0
100
AcDbPolyline
 62
250
  6
CONTINUOUS
 90
15
 70
0
 10
288.7750817096
 20
92.5985713562
 10
288.7938677047
 20
92.610765106
 10
288.8114150413
 20
92.6235596016
 10
288.8276661471
 20
92.6369134712
 10
288.8425687759
 20
92.6507842978
 10
288.8560723617
 20
92.665126412
 10
288.8681293824
 20
92.6798906616
 10
288.8786999816
 20
92.6950273757
 10
288.8877513354
 20
92.7104885571
 10
288.8952545667
 20
92.7262254775
 10
288.9011854272
 20
92.7421871509
 10
288.9055245469
 20
92.7583213127
 10
288.9082578248
 20
92.7745762771
 10
288.9093763991
 20
92.7908992231
 10
288.9094059735
 20
92.7939336178
  0
LWPOLYLINE
  5
3ED
100
AcDbEntity
  8
0
100
AcDbPolyline
 62
250
  6
CONTINUOUS
 90
18
 70
0
 10
288.6300462272
 20
92.841327918
 10
288.641375153
 20
92.8486409963
 10
288.6518958721
 20
92.8562646215
 10
288.6616083844
 20
92.8641987937
 10
288.6705402641
 20
92.8724723521
 10
288.6786639372
 20
92.8810564574
 10
288.6858966805
 20
92.8898645916
 10
288.6922280463
 20
92.898897649
 10
288.6976684824
 20
92.9081547353
 10
288.7021666095
 20
92.91754665
 10
288.7057134354
 20
92.9270747159
 10
288.7083179522
 20
92.9367376102
 10
288.7099557575
 20
92.9464421636
 10
288.7106175667
 20
92.9561887684
 10
288.7103126643
 20
92.9659770324
 10
288.7090445006
 20
92.9757126096
 10
288.7068040123
 20
92.9853947798
 10
288.7036002627
 20
92.9950242632
  0
LINE
  5
3EE
100
AcDbEntity
  8
0
100
AcDbLine
 62
250
  6
CONTINUOUS
 10
287.379382275
 20
92.0800099448
 11
288.6300462272
 21
92.841327918
  0
LINE
  5
3EF
100
AcDbEntity
  8
0
100
AcDbLine
 62
250
  6
CONTINUOUS
 10
287.6584809944
 20
91.9188618421
 11
288.7750817096
 21
92.5985713611
  0
LWPOLYLINE
  5
3F0
100
AcDbEntity
  8
0
100
AcDbPolyline
 62
250
  6
CONTINUOUS
 90
10
 70
0
 10
288.6227721511
 20
93.0798805193
 10
288.63502442
 20
93.0862168388
 10
288.6471751859
 20
93.0912711481
 10
288.6591329981
 20
93.0950054067
 10
288.6708078582
 20
93.0973915093
 10
288.6821118974
 20
93.0984114975
 10
288.6929600377
 20
93.0980576943
 10
288.7032706326
 20
93.0963327627
 10
288.7129660809
 20
93.093249685
 10
288.7215428646
 20
93.089082408
  0
LWPOLYLINE
  5
3F1
100
AcDbEntity
  8
RACCORDO
100
AcDbPolyline
 62
250
  6
CONTINUOUS
 90
10
 70
0
 10
323.5132547869
 20
53.2677463859
 10
323.2117165102
 20
55.0250014538
 10
322.9350008521
 20
56.7996531139
 10
322.6831604244
 20
58.591344317
 10
322.456241518
 20
60.399711662
 10
322.2542886321
 20
62.2243937341
 10
322.077344981
 20
64.0650315445
 10
321.925446196
 20
65.9212573991
 10
321.7986198031
 20
67.7926946069
 10
321.6968901167
 20
69.6789660778
  0
LWPOLYLINE
  5
3F2
100
AcDbEntity
  8
RACCORDO
100
AcDbPolyline
 62
250
  6
CONTINUOUS
 90
10
 70
0
 10
323.9227640069
 20
53.3029983066
 10
323.6216651051
 20
55.0576786944
 10
323.3454415211
 20
56.8290201862
 10
323.0940932551
 20
58.6170227818
 10
322.867579237
 20
60.4220591006
 10
322.6659405367
 20
62.2437565233
 10
322.4893003645
 20
64.080997192
 10
322.3376997906
 20
65.9334084873
 10
322.2110977447
 20
67.8013630285
 10
322.109494227
 20
69.6848608157
  0
LWPOLYLINE
  5
3F3
100
AcDbEntity
  8
RACCORDO
100
AcDbPolyline
 62
250
  6
CONTINUOUS
 90
13
 70
0
 10
321.6968901885
 20
69.6789660363
 10
321.5670250881
 20
72.6937398036
 10
321.4607541102
 20
75.7219833482
 10
321.3780869041
 20
78.7634848591
 10
321.3190307646
 20
81.818069903
 10
321.2835935131
 20
84.8854865684
 10
321.2717806884
 20
87.9654038169
 10
321.2835935067
 20
91.0576041528
 10
321.3190307536
 20
94.1618696167
 10
321.3780868904
 20
97.277864184
 10
321.4607540955
 20
100.4053273804
 10
321.5670250744
 20
103.5440758794
 10
321.6968901782
 20
106.6938867274
  0
LWPOLYLINE
  5
3F4
100
AcDbEntity
  8
RACCORDO
100
AcDbPolyline
 62
250
  6
CONTINUOUS
 90
13
 70
0
 10
322.109494227
 20
69.6848608157
 10
321.979697127
 20
72.6979968932
 10
321.8734960455
 20
75.7241653053
 10
321.7908909826
 20
78.763366052
 10
321.7318777154
 20
81.8158519907
 10
321.6964604667
 20
84.8813702639
 10
321.6846519047
 20
87.9591622998
 10
321.6964604768
 20
91.0492325622
 10
321.7318777356
 20
94.1515765872
 10
321.7908910074
 20
97.2654224115
 10
321.8734960676
 20
100.390512714
 10
321.9796971408
 20
103.5271048159
 10
322.109494227
 20
106.675198717
  0
LINE
  5
3F5
100
AcDbEntity
  8
0
100
AcDbLine
 62
7
  6
CONTINUOUS
 10
302.4588341546
 20
83.4990035838
 11
302.3452068277
 21
83.4389304139
  0
LINE
  5
3F6
100
AcDbEntity
  8
0
100
AcDbLine
 62
7
  6
CONTINUOUS
 10
325.9059241524
 20
88.7432280395
 11
326.3335539589
 21
88.8960933578
  0
LINE
  5
3F7
100
AcDbEntity
  8
RACCORDO
100
AcDbLine
 62
250
  6
CONTINUOUS
 10
113.2901302632
 20
249.9642274408
 11
113.3990537362
 21
249.9661676863
  0
LWPOLYLINE
  5
3F8
100
AcDbEntity
  8
RACCORDO
100
AcDbPolyline
 62
7
  6
CONTINUOUS
 90
8
 70
0
 10
113.2909713091
 20
250.0136675873
 10
113.2228909403
 20
250.0139470843
 10
113.0918001969
 20
250.0106096215
 10
112.962784767
 20
250.0021836512
 10
112.8360168183
 20
249.9887448599
 10
112.7116594495
 20
249.9703850574
 10
112.5898616851
 20
249.9472010392
 10
112.5433116187
 20
249.9363020433
  0
LWPOLYLINE
  5
3F9
100
AcDbEntity
  8
RACCORDO
100
AcDbPolyline
 62
250
  6
CONTINUOUS
 90
12
 70
0
 10
113.3990537362
 20
249.9661676863
 10
113.5072383228
 20
249.964392258
 10
113.6174016492
 20
249.9588805536
 10
113.7294787879
 20
249.949560802
 10
113.8431410261
 20
249.936413984
 10
113.9585848857
 20
249.9193289074
 10
114.0765141239
 20
249.8980476834
 10
114.196800393
 20
249.8724732763
 10
114.31938671
 20
249.8424670244
 10
114.4450419518
 20
249.8076082624
 10
114.5739279705
 20
249.7676204873
 10
114.7056213992
 20
249.7224291558
  0
LINE
  5
3FA
100
AcDbEntity
  8
RACCORDO
100
AcDbLine
 62
7
  6
CONTINUOUS
 10
325.767868534
 20
54.1561416331
 11
325.767868534
 21
126.0077638791
  0
LINE
  5
3FB
100
AcDbEntity
  8
0
100
AcDbLine
 62
7
  6
CONTINUOUS
 10
325.9059241524
 20
93.3761065087
 11
325.9059241524
 21
87.9348545344
  0
LINE
  5
3FC
100
AcDbEntity
  8
DRAFT
100
AcDbLine
 62
7
  6
CONTINUOUS
 10
326.68710734
 20
127.0250146835
 11
326.6871073495
 21
94.9831109537
  0
LINE
  5
3FD
100
AcDbEntity
  8
DRAFT
100
AcDbLine
 62
7
  6
CONTINUOUS
 10
326.6871073495
 20
88.6919560611
 11
326.687107391
 21
56.6500529038
  0
LWPOLYLINE
  5
3FE
100
AcDbEntity
  8
0
100
AcDbPolyline
 62
7
  6
CONTINUOUS
 90
19
 70
0
 10
325.9059241524
 20
93.3761065087
 10
325.9062450777
 20
93.3887468109
 10
325.9072065199
 20
93.4019274111
 10
325.9088095288
 20
93.4155766773
 10
325.9110475874
 20
93.4296005995
 10
325.9139126176
 20
93.443939784
 10
325.9174051744
 20
93.4585715635
 10
325.9215277625
 20
93.473464559
 10
325.9262571281
 20
93.4884798797
 10
325.9315422926
 20
93.5034319793
 10
325.937333043
 20
93.5182267598
 10
325.9435943195
 20
93.5327845456
 10
325.9502702983
 20
93.5469502463
 10
325.9572819993
 20
93.5606186085
 10
325.9645873248
 20
93.5737509695
 10
325.9721788704
 20
93.5862985051
 10
325.9800147021
 20
93.5981992695
 10
325.9880146037
 20
93.6093844414
 10
325.9961146258
 20
93.6197962931
  0
LWPOLYLINE
  5
3FF
100
AcDbEntity
  8
RACCORDO
100
AcDbPolyline
 62
7
  6
CONTINUOUS
 90
4
 70
0
 10
326.687107391
 20
56.6500529038
 10
326.6862587613
 20
56.6227638898
 10
326.6839460009
 20
56.5973158411
 10
326.6828479351
 20
56.5892301921
  0
LWPOLYLINE
  5
400
100
AcDbEntity
  8
RACCORDO
100
AcDbPolyline
 62
250
  6
CONTINUOUS
 90
10
 70
0
 10
321.696890106
 20
106.6938867691
 10
321.7986198021
 20
108.6859476158
 10
321.9254462016
 20
110.689280174
 10
322.077344986
 20
112.7034792736
 10
322.2542886171
 20
114.7281317526
 10
322.4562414659
 20
116.7628334511
 10
322.6831603458
 20
118.8071895277
 10
322.9350007745
 20
120.8607918677
 10
323.211716457
 20
122.9232189332
 10
323.5132547869
 20
124.9940529222
  0
LWPOLYLINE
  5
401
100
AcDbEntity
  8
RACCORDO
100
AcDbPolyline
 62
250
  6
CONTINUOUS
 90
10
 70
0
 10
322.109494227
 20
106.675198717
 10
322.2110979233
 20
108.6643430493
 10
322.3377001964
 20
110.663936597
 10
322.4893010462
 20
112.67397936
 10
322.6659416672
 20
114.6948874701
 10
322.8675808649
 20
116.7262447955
 10
323.0940950561
 20
118.7668029411
 10
323.3454430462
 20
120.8161457751
 10
323.6216660298
 20
122.8746894292
 10
323.9227640069
 20
124.9424339034
  0
LWPOLYLINE
  5
402
100
AcDbEntity
  8
RACCORDO
100
AcDbPolyline
 62
250
  6
CONTINUOUS
 90
31
 70
0
 10
323.9227640069
 20
124.9424339034
 10
323.9262151275
 20
124.9886622882
 10
323.927691087
 20
125.0358719889
 10
323.9272079908
 20
125.0839404693
 10
323.9248033224
 20
125.1327534982
 10
323.9204868099
 20
125.1821737555
 10
323.9142407421
 20
125.2320410447
 10
323.9060989723
 20
125.2822286956
 10
323.8961043621
 20
125.3326033549
 10
323.8842615453
 20
125.3829932518
 10
323.8706210237
 20
125.4332614319
 10
323.8552389905
 20
125.4832835016
 10
323.8381363522
 20
125.5329071002
 10
323.8193742872
 20
125.5820017125
 10
323.799021255
 20
125.6304429668
 10
323.7771142834
 20
125.6780900277
 10
323.753724954
 20
125.7248169032
 10
323.7289305258
 20
125.7705070733
 10
323.7027801722
 20
125.8150371657
 10
323.6753527536
 20
125.858290107
 10
323.6467328716
 20
125.9001571948
 10
323.6169805661
 20
125.94053117
 10
323.5861783807
 20
125.979307155
 10
323.5544181354
 20
126.016384237
 10
323.5217755059
 20
126.0516654839
 10
323.4883393125
 20
126.0850559179
 10
323.4542032728
 20
126.1164696708
 10
323.4194516071
 20
126.1458286937
 10
323.3841746736
 20
126.1730552669
 10
323.3484689388
 20
126.1980734626
 10
323.3124282846
 20
126.2208146413
  0
LWPOLYLINE
  5
403
100
AcDbEntity
  8
RACCORDO
100
AcDbPolyline
 62
250
  6
CONTINUOUS
 90
31
 70
0
 10
323.5132547869
 20
124.9940529222
 10
323.5175817174
 20
125.0276984163
 10
323.5205177941
 20
125.061845155
 10
323.522062864
 20
125.0964930801
 10
323.5222115997
 20
125.1317455504
 10
323.5209690591
 20
125.1674991046
 10
323.5183505231
 20
125.2034434028
 10
323.5143427209
 20
125.239578488
 10
323.5089583454
 20
125.2759041018
 10
323.5022513575
 20
125.3121093537
 10
323.4942104448
 20
125.348188512
 10
323.4848461323
 20
125.3841470172
 10
323.474244922
 20
125.4196906583
 10
323.4623969107
 20
125.4548139465
 10
323.4493110954
 20
125.4895220371
 10
323.435102173
 20
125.5235366293
 10
323.4197620808
 20
125.5568496177
 10
323.4032979454
 20
125.5894687642
 10
323.3858471502
 20
125.6211395345
 10
323.3674029998
 20
125.6518532894
 10
323.3479713138
 20
125.6816183476
 10
323.3277082038
 20
125.7102055959
 10
323.3066067152
 20
125.7376067185
 10
323.2846730666
 20
125.7638297624
 10
323.262083132
 20
125.78867016
 10
323.2388278318
 20
125.8121196851
 10
323.2149157145
 20
125.8341863702
 10
323.1905491341
 20
125.854690049
 10
323.1657954466
 20
125.8735706312
 10
323.1405870178
 20
125.8908881056
 10
323.1149237782
 20
125.906642447
  0
LWPOLYLINE
  5
404
100
AcDbEntity
  8
RACCORDO
100
AcDbPolyline
 62
250
  6
CONTINUOUS
 90
19
 70
0
 10
323.1149237782
 20
125.906642447
 10
323.1183536431
 20
125.926360202
 10
323.1229130769
 20
125.9463876837
 10
323.1285769785
 20
125.9666146338
 10
323.1353141661
 20
125.9869296962
 10
323.1430875491
 20
126.0072210293
 10
323.1518543324
 20
126.0273769223
 10
323.1615662518
 20
126.0472864102
 10
323.1721698398
 20
126.0668398842
 10
323.1836067201
 20
126.0859296958
 10
323.1958139287
 20
126.1044507489
 10
323.2087242606
 20
126.1223010788
 10
323.22226664
 20
126.1393824133
 10
323.2363665115
 20
126.1556007137
 10
323.2509462504
 20
126.1708666926
 10
323.2659255902
 20
126.1850963056
 10
323.2812220645
 20
126.1982112137
 10
323.2967514608
 20
126.2101392149
 10
323.3124282846
 20
126.2208146413
  0
LWPOLYLINE
  5
405
100
AcDbEntity
  8
RACCORDO
100
AcDbPolyline
 62
7
  6
CONTINUOUS
 90
4
 70
0
 10
306.5963193177
 20
78.8350035241
 10
306.5945587995
 20
78.8304608057
 10
306.5933111004
 20
78.8276796553
 10
306.5928073606
 20
78.8266865788
  0
LINE
  5
406
100
AcDbEntity
  8
RACCORDO
100
AcDbLine
 62
7
  6
CONTINUOUS
 10
306.5927746611
 20
78.8266269626
 11
306.5928072724
 21
78.8266837727
  0
LWPOLYLINE
  5
407
100
AcDbEntity
  8
RACCORDO
100
AcDbPolyline
 62
250
  6
CONTINUOUS
 90
22
 70
0
 10
306.6733439493
 20
78.3533288812
 10
306.6524810423
 20
78.3199269786
 10
306.6294895881
 20
78.2892230723
 10
306.6043682377
 20
78.2612163093
 10
306.5770341533
 20
78.2358095216
 10
306.5475676883
 20
78.2130983045
 10
306.516211986
 20
78.193370761
 10
306.4829449656
 20
78.1766696511
 10
306.4477857538
 20
78.1629503369
 10
306.4110388151
 20
78.1523695102
 10
306.3726817468
 20
78.1449652256
 10
306.3327340589
 20
78.1406975844
 10
306.2915628537
 20
78.1396061994
 10
306.2491417857
 20
78.1417341227
 10
306.2054947172
 20
78.1470367158
 10
306.1610640388
 20
78.1554220407
 10
306.1158356761
 20
78.1669375813
 10
306.069821913
 20
78.1815347082
 10
306.0235048179
 20
78.1989774019
 10
305.977044774
 20
78.219186793
 10
305.9302804919
 20
78.2422411707
 10
305.8832117471
 20
78.2681403912
  0
LINE
  5
408
100
AcDbEntity
  8
0
100
AcDbLine
 62
250
  6
CONTINUOUS
 10
306.2177542653
 20
78.8912249075
 11
306.6029496042
 21
79.1628367292
  0
LWPOLYLINE
  5
409
100
AcDbEntity
  8
RACCORDO
100
AcDbPolyline
 62
250
  6
CONTINUOUS
 90
4
 70
0
 10
306.6148188982
 20
78.8484118825
 10
306.5948183253
 20
78.8358839164
 10
306.5749984343
 20
78.826131013
 10
306.5541032008
 20
78.8182796155
  0
LWPOLYLINE
  5
40A
100
AcDbEntity
  8
0
100
AcDbPolyline
 62
7
  6
CONTINUOUS
 90
9
 70
0
 10
325.9961146258
 20
87.8569178154
 10
325.9880150589
 20
87.8518803315
 10
325.9800149869
 20
87.847982116
 10
325.972178415
 20
87.8452395199
 10
325.9645853177
 20
87.8436571134
 10
325.9572780975
 20
87.8432411814
 10
325.9502651503
 20
87.8440098201
 10
325.9435887389
 20
87.8459693094
 10
325.9383453419
 20
87.8485009557
  0
LINE
  5
40B
100
AcDbEntity
  8
0
100
AcDbLine
 62
7
  6
CONTINUOUS
 10
304.7414851621
 20
82.1812144039
 11
304.6353700761
 21
82.1166188568
  0
LINE
  5
40C
100
AcDbEntity
  8
RACCORDO
100
AcDbLine
 62
250
  6
CONTINUOUS
 10
326.6871073345
 20
56.6500523496
 11
326.6645441068
 21
56.5129151978
  0
LWPOLYLINE
  5
40D
100
AcDbEntity
  8
RACCORDO
100
AcDbPolyline
 62
250
  6
CONTINUOUS
 90
12
 70
0
 10
326.6645441068
 20
56.5129151978
 10
326.638703655
 20
56.3797400384
 10
326.6097195332
 20
56.2505668124
 10
326.57777785
 20
56.1256510181
 10
326.5429690184
 20
56.0048047645
 10
326.5052367022
 20
55.8874049457
 10
326.4646076262
 20
55.7733058186
 10
326.4212209682
 20
55.6627216641
 10
326.3751393037
 20
55.5555745298
 10
326.32643735
 20
55.451857918
 10
326.2752072138
 20
55.3516357025
 10
326.2215332182
 20
55.254933642
  0
LWPOLYLINE
  5
40E
100
AcDbEntity
  8
RACCORDO
100
AcDbPolyline
 62
250
  6
CONTINUOUS
 90
8
 70
0
 10
112.6557369463
 20
249.8713890682
 10
112.6794894608
 20
249.877942067
 10
112.7761078882
 20
249.9007971083
 10
112.8748148685
 20
249.920389804
 10
112.9754483285
 20
249.9366128454
 10
113.0782216802
 20
249.9493800134
 10
113.1831655025
 20
249.9586071245
 10
113.2901302632
 20
249.9642274408
  0
LINE
  5
40F
100
AcDbEntity
  8
RACCORDO
100
AcDbLine
 62
250
  6
CONTINUOUS
 10
323.9227640069
 20
53.3029983066
 11
325.767868534
 21
54.1561416331
  0
LINE
  5
410
100
AcDbEntity
  8
RACCORDO
100
AcDbLine
 62
7
  6
CONTINUOUS
 10
323.7554890556
 20
52.8624052368
 11
325.5344093795
 21
53.6849461716
  0
LWPOLYLINE
  5
411
100
AcDbEntity
  8
RACCORDO
100
AcDbPolyline
 62
7
  6
CONTINUOUS
 90
13
 70
0
 10
326.2086474429
 20
55.1376391035
 10
326.236363977
 20
55.1882283539
 10
326.2944350964
 20
55.3011452176
 10
326.3498622867
 20
55.4190275742
 10
326.4024323104
 20
55.5418437983
 10
326.4519418625
 20
55.6695561038
 10
326.4981971418
 20
55.8021255447
 10
326.5410147878
 20
55.939496198
 10
326.5802184156
 20
56.0815923641
 10
326.615643112
 20
56.2283406008
 10
326.647134354
 20
56.3796632984
 10
326.6745453301
 20
56.5354605038
 10
326.6828774683
 20
56.589207779
  0
LINE
  5
412
100
AcDbEntity
  8
RACCORDO
100
AcDbLine
 62
250
  6
CONTINUOUS
 10
326.2215332182
 20
55.254933642
 11
326.1672654741
 21
55.1645329289
  0
LINE
  5
413
100
AcDbEntity
  8
RACCORDO
100
AcDbLine
 62
250
  6
CONTINUOUS
 10
326.1672654741
 20
55.1645329289
 11
326.1107521823
 21
55.0772164193
  0
LWPOLYLINE
  5
414
100
AcDbEntity
  8
RACCORDO
100
AcDbPolyline
 62
250
  6
CONTINUOUS
 90
7
 70
0
 10
326.1107521823
 20
55.0772164193
 10
326.0520567237
 20
54.9930070274
 10
325.9914018676
 20
54.9121216582
 10
325.9287044184
 20
54.8343812478
 10
325.8635157821
 20
54.759232166
 10
325.7958423552
 20
54.6866486631
 10
325.767868534
 20
54.658764028
  0
LWPOLYLINE
  5
415
100
AcDbEntity
  8
RACCORDO
100
AcDbPolyline
 62
7
  6
CONTINUOUS
 90
8
 70
0
 10
325.767868534
 20
54.5288640715
 10
325.8044860638
 20
54.5680530133
 10
325.885273859
 20
54.6621042729
 10
325.9631558767
 20
54.7607709161
 10
326.0379720061
 20
54.8639733059
 10
326.1095710095
 20
54.9716154079
 10
326.1777993325
 20
55.0835840598
 10
326.2086314836
 20
55.1376099947
  0
LWPOLYLINE
  5
416
100
AcDbEntity
  8
RACCORDO
100
AcDbPolyline
 62
250
  6
CONTINUOUS
 90
17
 70
0
 10
323.7554833426
 20
52.8624025952
 10
323.7770800413
 20
52.8736731845
 10
323.7989939061
 20
52.888085113
 10
323.8193532302
 20
52.9047771099
 10
323.8381207642
 20
52.923719888
 10
323.8552276902
 20
52.9448611387
 10
323.8706132716
 20
52.9681441158
 10
323.8842573655
 20
52.9935235463
 10
323.8961053283
 20
53.0209358698
 10
323.9061039746
 20
53.0502987615
 10
323.9142451799
 20
53.0815251838
 10
323.9204858123
 20
53.1145025342
 10
323.9247984785
 20
53.1491507897
 10
323.9272047457
 20
53.1854240954
 10
323.9276917916
 20
53.223238638
 10
323.9262179596
 20
53.2624676962
 10
323.9227640069
 20
53.3029983066
  0
ELLIPSE
  5
417
100
AcDbEntity
  8
0
100
AcDbEllipse
 62
7
  6
CONTINUOUS
 10
321.5594353376
 20
94.9935623017
 30
0.0
 11
5.1478346794
 21
0.9575482268
 31
0.0
 40
0.6665647798
 41
-0.668016567
 42
-0.2750682551
  0
ELLIPSE
  5
418
100
AcDbEntity
  8
RACCORDO
100
AcDbEllipse
 62
7
  6
CONTINUOUS
 10
325.0597913576
 20
54.5672159442
 30
0.0
 11
-0.5013954353
 21
0.868386877
 31
0.0
 40
0.5757524875
 41
-3.1938070556
 42
-2.3576120761
  0
ELLIPSE
  5
419
100
AcDbEntity
  8
RACCORDO
100
AcDbEllipse
 62
7
  6
CONTINUOUS
 10
325.0597913576
 20
126.4143593426
 30
0.0
 11
-0.5000243598
 21
0.8660113392
 31
0.0
 40
0.5789151826
 41
-2.3548735497
 42
-0.7868162787
  0
ELLIPSE
  5
41A
100
AcDbEntity
  8
0
100
AcDbEllipse
 62
7
  6
CONTINUOUS
 10
277.0489876263
 20
98.6987229499
 30
0.0
 11
-0.4000194878
 21
0.6928090714
 31
0.0
 40
0.5789151826
 41
0.7867191038
 42
2.3547763749
  0
ELLIPSE
  5
41B
100
AcDbEntity
  8
0
100
AcDbEllipse
 62
7
  6
CONTINUOUS
 10
226.8444061621
 20
127.6862190761
 30
0.0
 11
-0.4000194878
 21
0.6928090714
 31
0.0
 40
0.5789151826
 41
0.7867191038
 42
2.3547763749
  0
ELLIPSE
  5
41C
100
AcDbEntity
  8
0
100
AcDbEllipse
 62
7
  6
CONTINUOUS
 10
176.6398246978
 20
156.6737152024
 30
0.0
 11
-0.4000194878
 21
0.6928090714
 31
0.0
 40
0.5789151826
 41
0.7867191038
 42
2.3547763749
  0
ELLIPSE
  5
41D
100
AcDbEntity
  8
0
100
AcDbEllipse
 62
7
  6
CONTINUOUS
 10
126.4352432336
 20
185.6612113287
 30
0.0
 11
-0.4000194878
 21
0.6928090714
 31
0.0
 40
0.5789151826
 41
0.7867191038
 42
2.3547763749
  0
ELLIPSE
  5
41E
100
AcDbEntity
  8
RACCORDO
100
AcDbEllipse
 62
7
  6
CONTINUOUS
 10
112.2225910108
 20
249.3038913462
 30
0.0
 11
-0.5013954353
 21
0.868386877
 31
0.0
 40
0.5757524875
 41
-0.7840766935
 42
0.052214402
  0
ELLIPSE
  5
41F
100
AcDbEntity
  8
0
100
AcDbEllipse
 62
7
  6
CONTINUOUS
 10
321.5594353376
 20
89.5867831308
 30
0.0
 11
5.1774686765
 21
-0.6785096723
 31
0.0
 40
0.4693271057
 41
-0.4832303185
 42
-0.0902820066
  0
ENDSEC
  0
SECTION
  2
OBJECTS
  0
DICTIONARY
  5
C
100
AcDbDictionary
280
0
281
1
  3
ACAD_GROUP
350
D
  3
ACAD_MLINESTYLE
350
17
  3
ACAD_LAYOUT
350
1A
  3
ACAD_PLOTSETTINGS
350
19
  3
ACAD_PLOTSTYLENAME
350
E
  0
DICTIONARY
  5
D
102
{ACAD_REACTORS
330
C
102
}
100
AcDbDictionary
280
0
281
1
  0
ACDBDICTIONARYWDFLT
  5
E
102
{ACAD_REACTORS
330
C
102
}
100
AcDbDictionary
281
1
  3
Normal
350
F
100
AcDbDictionaryWithDefault
340
F
  0
DICTIONARY
  5
17
102
{ACAD_REACTORS
330
C
102
}
100
AcDbDictionary
280
0
281
1
  3
Standard
350
18
  0
DICTIONARY
  5
19
102
{ACAD_REACTORS
330
C
102
}
100
AcDbDictionary
281
1
  0
DICTIONARY
  5
1A
102
{ACAD_REACTORS
330
C
102
}
100
AcDbDictionary
281
1
  3
Model
350
420
  3
Layout1
350
421
  0
ACDBPLACEHOLDER
  5
F
102
{ACAD_REACTORS
330
E
102
}
  0
MLINESTYLE
  5
18
102
{ACAD_REACTORS
330
17
102
}
100
AcDbMlineStyle
  2
STANDARD
 70
0
  3

 62
256
 51
90.0
 52
90.0
 71
2
 49
0.5
 62
256
  6
BYLAYER
 49
-0.5
 62
256
  6
BYLAYER
  0
LAYOUT
  5
420
102
{ACAD_REACTORS
330
1A
102
}
100
AcDbPlotSettings
  1

  2
none_device
  4
ISO_A3_(420.00_x_297.00_MM)
  6

 40
0.0
 41
0.0
 42
0.0
 43
0.0
 44
420.0
 45
297.0
 46
0.0
 47
0.0
 48
0.0
 49
0.0
140
0.0
141
0.0
142
1.0
143
1.0
 70
1024
 72
1
 73
0
 74
0
  7

 75
0
147
1.0
148
0.0
149
0.0
100
AcDbLayout
  1
Model
 70
0
 71
0
 10
0.0
 20
0.0
 11
420.0
 21
297.0
 12
0.0
 22
0.0
 32
0.0
 14
0.0
 24
0.0
 34
0.0
 15
0.0
 25
0.0
 35
0.0
146
0.0
 13
0.0
 23
0.0
 33
0.0
 16
1.0
 26
0.0
 36
0.0
 17
0.0
 27
1.0
 37
0.0
 76
0
330
215
345
0
346
0
  0
LAYOUT
  5
421
102
{ACAD_REACTORS
330
1A
102
}
100
AcDbPlotSettings
  1

  2
none_device
  4
ISO_A3_(420.00_x_297.00_MM)
  6

 40
0.0
 41
0.0
 42
0.0
 43
0.0
 44
420.0
 45
297.0
 46
0.0
 47
0.0
 48
0.0
 49
0.0
140
0.0
141
0.0
142
1.0
143
1.0
 70
0
 72
1
 73
0
 74
0
  7

 75
0
147
1.0
148
0.0
149
0.0
100
AcDbLayout
  1
Layout1
 70
0
 71
1
 10
0.0
 20
0.0
 11
420.0
 21
297.0
 12
0.0
 22
0.0
 32
0.0
 14
0.0
 24
0.0
 34
0.0
 15
0.0
 25
0.0
 35
0.0
146
0.0
 13
0.0
 23
0.0
 33
0.0
 16
1.0
 26
0.0
 36
0.0
 17
0.0
 27
1.0
 37
0.0
 76
0
330
216
345
0
346
0
  0
ENDSEC
  0
EOF
