  0
SECTION
  2
HEADER
  9
$ACADVER
  1
AC1024
  9
$DWGCODEPAGE
  3
ANSI_1252
  9
$EXTMAX
 10
297.0
 20
210.0
 30
0.0
  9
$EXTMIN
 10
0.0
 20
0.0
 30
0.0
  9
$LIMMIN
 10
0.0
 20
0.0
  9
$LIMMAX
 10
297.0
 20
210.0
  9
$VIEWCTR
 10
148.5
 20
105.0
  9
$VIEWSIZE
 40
210.0
  9
$CLAYER
  8
0
  9
$LTSCALE
 40
16.335
  9
$CELTYPE
  6
BYLAYER
  9
$DIMSCALE
 40
1.0
  9
$DIMASZ
 40
3.0
  9
$DIMEXO
 40
0.5
  9
$DIMDLI
 40
11.286
  9
$DIMEXE
 40
1.5
  9
$DIMCEN
 40
2.673
  9
$DIMLFAC
 40
1.0
  9
$DIMBLK
  1
_FILLED
  9
$DIMALT
 70
0
  9
$DIMALTF
 40
0.0393700787
  9
$DIMTXT
 40
3.0
  9
$DIMTOL
 70
1
  9
$DIMLIM
 70
0
  9
$DIMTFAC
 40
1.0
  9
$DIMTP
 40
0.01
  9
$DIMTM
 40
0.01
  9
$DIMGAP
 40
0.625
  9
$DIMDSEP
 70
44
  9
$AUNITS
 70
0
  9
$PDMODE
 70
3
  9
$PDSIZE
 40
3.0
  9
$HANDSEED
  5
675
  9
$TILEMODE
 70
1
  9
$MEASUREMENT
 70
1
  9
$INSUNITS
 70
4
  0
ENDSEC
  0
SECTION
  2
CLASSES
  0
CLASS
  1
ACDBDICTIONARYWDFLT
  2
AcDbDictionaryWithDefault
  3
AutoCAD 2000
 90
0
 91
1
280
0
281
0
  0
CLASS
  1
ACDBPLACEHOLDER
  2
AcDbPlaceHolder
  3
AutoCAD 2000
 90
0
 91
1
280
0
281
0
  0
CLASS
  1
LAYOUT
  2
AcDbLayout
  3
AutoCAD 2000
 90
0
 91
0
280
0
281
0
  0
ENDSEC
  0
SECTION
  2
TABLES
  0
TABLE
  2
VPORT
  5
8
100
AcDbSymbolTable
 70
2
  0
VPORT
  5
1F4
100
AcDbSymbolTableRecord
100
AcDbViewportTableRecord
  2
*ACTIVE
 70
0
 10
0.0
 20
0.0
 11
1.0
 21
1.0
 12
148.5
 22
105.0
 13
0.0
 23
0.0
 14
1.0
 24
1.0
 15
0.0
 25
0.0
 16
0.0
 26
0.0
 36
1.0
 17
0.0
 27
0.0
 37
0.0
 40
210.0
 41
1.4142857143
 42
50.0
 43
0.0
 44
0.0
 50
0.0
 51
0.0
 71
0
 72
100
 73
1
 74
1
 75
0
 76
0
 77
0
 78
0
  0
ENDTAB
  0
TABLE
  2
LTYPE
  5
5
100
AcDbSymbolTable
 70
6
  0
LTYPE
  5
14
100
AcDbSymbolTableRecord
100
AcDbLinetypeTableRecord
  2
BYBLOCK
 70
0
  3

 72
65
 73
0
 40
0.0
  0
LTYPE
  5
15
100
AcDbSymbolTableRecord
100
AcDbLinetypeTableRecord
  2
BYLAYER
 70
0
  3

 72
65
 73
0
 40
0.0
  0
LTYPE
  5
16
100
AcDbSymbolTableRecord
100
AcDbLinetypeTableRecord
  2
CONTINUOUS
 70
64
  3
Solid line
 72
65
 73
0
 40
0.0
  0
LTYPE
  5
1F5
100
AcDbSymbolTableRecord
100
AcDbLinetypeTableRecord
  2
CENTER
 70
64
  3
____ _ ____ _ ____ _ ____ _ ____ _ ____ _ ____
 72
65
 73
4
 40
0.6
 49
0.375
 74
0
 49
-0.075
 74
0
 49
0.075
 74
0
 49
-0.075
 74
0
  0
LTYPE
  5
1F6
100
AcDbSymbolTableRecord
100
AcDbLinetypeTableRecord
  2
HIDDEN
 70
64
  3
- - - - - - - - - - - - - - - - - - - -
 72
65
 73
2
 40
0.2
 49
0.1
 74
0
 49
-0.1
 74
0
  0
LTYPE
  5
1F7
100
AcDbSymbolTableRecord
100
AcDbLinetypeTableRecord
  2
PHANTOM
 70
64
  3
_____ _ _ _____ _ _ _____ _ _ _____
 72
65
 73
6
 40
0.8
 49
0.45
 74
0
 49
-0.05
 74
0
 49
0.1
 74
0
 49
-0.05
 74
0
 49
0.1
 74
0
 49
-0.05
 74
0
  0
LTYPE
  5
1F8
100
AcDbSymbolTableRecord
100
AcDbLinetypeTableRecord
  2
DOT
 70
64
  3
. . . . . . . . . . . . . . . . . . . .
 72
65
 73
2
 40
0.2
 49
0.1
 74
0
 49
-0.1
 74
0
  0
LTYPE
  5
1F9
100
AcDbSymbolTableRecord
100
AcDbLinetypeTableRecord
  2
DASHED
 70
64
  3
- - - - - - - - - - - - - - - - - - - -
 72
65
 73
2
 40
0.2
 49
0.1
 74
0
 49
-0.1
 74
0
  0
ENDTAB
  0
TABLE
  2
LAYER
  5
2
100
AcDbSymbolTable
 70
36
  0
LAYER
  5
10
100
AcDbSymbolTableRecord
100
AcDbLayerTableRecord
  2
0
 70
0
 62
7
  6
CONTINUOUS
370
-3
390
F
  0
LAYER
  5
1FA
100
AcDbSymbolTableRecord
100
AcDbLayerTableRecord
  2
DEFAULT_1
 70
0
 62
7
  6
CENTER
370
-3
390
F
  0
LAYER
  5
1FB
100
AcDbSymbolTableRecord
100
AcDbLayerTableRecord
  2
DEFAULT_2
 70
0
 62
7
  6
HIDDEN
370
-3
390
F
  0
LAYER
  5
1FC
100
AcDbSymbolTableRecord
100
AcDbLayerTableRecord
  2
DEFAULT_3
 70
0
 62
7
  6
PHANTOM
370
-3
390
F
  0
LAYER
  5
1FD
100
AcDbSymbolTableRecord
100
AcDbLayerTableRecord
  2
ASSI
 70
0
 62
7
  6
CONTINUOUS
370
-3
390
F
  0
LAYER
  5
1FE
100
AcDbSymbolTableRecord
100
AcDbLayerTableRecord
  2
COORDINATE
 70
0
 62
7
  6
CONTINUOUS
370
-3
390
F
  0
LAYER
  5
1FF
100
AcDbSymbolTableRecord
100
AcDbLayerTableRecord
  2
COPY_PUBLISH
 70
0
 62
7
  6
CONTINUOUS
370
-3
390
F
  0
LAYER
  5
200
100
AcDbSymbolTableRecord
100
AcDbLayerTableRecord
  2
COSMETIC
 70
0
 62
7
  6
CONTINUOUS
370
-3
390
F
  0
LAYER
  5
201
100
AcDbSymbolTableRecord
100
AcDbLayerTableRecord
  2
COSMETICI
 70
0
 62
7
  6
CONTINUOUS
370
-3
390
F
  0
LAYER
  5
202
100
AcDbSymbolTableRecord
100
AcDbLayerTableRecord
  2
CURVA_VERNICE
 70
0
 62
7
  6
CONTINUOUS
370
-3
390
F
  0
LAYER
  5
203
100
AcDbSymbolTableRecord
100
AcDbLayerTableRecord
  2
CURVE
 70
0
 62
7
  6
CONTINUOUS
370
-3
390
F
  0
LAYER
  5
204
100
AcDbSymbolTableRecord
100
AcDbLayerTableRecord
  2
DRAFT
 70
0
 62
7
  6
CONTINUOUS
370
-3
390
F
  0
LAYER
  5
205
100
AcDbSymbolTableRecord
100
AcDbLayerTableRecord
  2
IMPORT_IGES
 70
0
 62
7
  6
CONTINUOUS
370
-3
390
F
  0
LAYER
  5
206
100
AcDbSymbolTableRecord
100
AcDbLayerTableRecord
  2
INTF_1
 70
0
 62
7
  6
CONTINUOUS
370
-3
390
F
  0
LAYER
  5
207
100
AcDbSymbolTableRecord
100
AcDbLayerTableRecord
  2
NOTE
 70
0
 62
7
  6
CONTINUOUS
370
-3
390
F
  0
LAYER
  5
208
100
AcDbSymbolTableRecord
100
AcDbLayerTableRecord
  2
PIANI
 70
0
 62
7
  6
CONTINUOUS
370
-3
390
F
  0
LAYER
  5
209
100
AcDbSymbolTableRecord
100
AcDbLayerTableRecord
  2
PUNTI
 70
0
 62
7
  6
CONTINUOUS
370
-3
390
F
  0
LAYER
  5
20A
100
AcDbSymbolTableRecord
100
AcDbLayerTableRecord
  2
RACCORDO
 70
0
 62
7
  6
CONTINUOUS
370
-3
390
F
  0
LAYER
  5
20B
100
AcDbSymbolTableRecord
100
AcDbLayerTableRecord
  2
SIMBOLI
 70
0
 62
7
  6
CONTINUOUS
370
-3
390
F
  0
LAYER
  5
20C
100
AcDbSymbolTableRecord
100
AcDbLayerTableRecord
  2
SMUSSO
 70
0
 62
7
  6
CONTINUOUS
370
-3
390
F
  0
LAYER
  5
20D
100
AcDbSymbolTableRecord
100
AcDbLayerTableRecord
  2
SNAPLINE
 70
0
 62
7
  6
CONTINUOUS
370
-3
390
F
  0
LAYER
  5
20E
100
AcDbSymbolTableRecord
100
AcDbLayerTableRecord
  2
SUPERFICI
 70
0
 62
7
  6
CONTINUOUS
370
-3
390
F
  0
LAYER
  5
20F
100
AcDbSymbolTableRecord
100
AcDbLayerTableRecord
  2
TRASH
 70
0
 62
7
  6
CONTINUOUS
370
-3
390
F
  0
LAYER
  5
210
100
AcDbSymbolTableRecord
100
AcDbLayerTableRecord
  2
XSEC_DATUMS
 70
0
 62
7
  6
CONTINUOUS
370
-3
390
F
  0
ENDTAB
  0
TABLE
  2
STYLE
  5
3
100
AcDbSymbolTable
 70
1
  0
STYLE
  5
11
100
AcDbSymbolTableRecord
100
AcDbTextStyleTableRecord
  2
STANDARD
 70
0
 40
0.0
 41
0.8
 50
0.0
 71
0
 42
0.2
  3
txt
  4

  0
STYLE
  5
211
100
AcDbSymbolTableRecord
100
AcDbTextStyleTableRecord
  2
TEXTSTYLE_1
 70
0
 40
0.0
 41
0.8
 50
0.0
 71
0
 42
0.2
  3
gdt
  4

  0
ENDTAB
  0
TABLE
  2
VIEW
  5
6
100
AcDbSymbolTable
 70
0
  0
ENDTAB
  0
TABLE
  2
UCS
  5
7
100
AcDbSymbolTable
 70
0
  0
ENDTAB
  0
TABLE
  2
APPID
  5
9
100
AcDbSymbolTable
 70
1
  0
APPID
  5
212
100
AcDbSymbolTableRecord
100
AcDbRegAppTableRecord
  2
ACAD
 70
0
  0
ENDTAB
  0
TABLE
  2
BLOCK_RECORD
  5
1
100
AcDbSymbolTable
 70
0
  0
BLOCK_RECORD
  5
213
100
AcDbSymbolTableRecord
100
AcDbBlockTableRecord
  2
*Model_Space
  0
BLOCK_RECORD
  5
214
100
AcDbSymbolTableRecord
100
AcDbBlockTableRecord
  2
*Paper_Space
  0
BLOCK_RECORD
  5
215
100
AcDbSymbolTableRecord
100
AcDbBlockTableRecord
  2
_FILLED
  0
ENDTAB
  0
TABLE
  2
DIMSTYLE
  5
A
100
AcDbSymbolTable
 70
1
100
AcDbDimStyleTable
 71
0
  0
DIMSTYLE
105
216
100
AcDbSymbolTableRecord
100
AcDbDimStyleTableRecord
  2
STANDARD
 70
0
  3

  4

 40
1.0
 41
3.0
 42
0.5
 43
0.38
 44
1.5
 45
0.0
 46
0.0
 47
0.01
 48
0.01
140
3.0
141
0.09
142
0.0
143
25.4
144
1.0
145
0.0
146
1.0
147
0.625
 71
1
 72
0
 73
0
 74
0
 75
0
 76
0
 77
1
 78
8
 79
2
170
0
171
1
172
0
173
0
174
0
175
0
176
0
177
0
178
0
270
2
179
2
271
2
272
2
273
2
274
2
275
0
280
0
281
0
282
0
283
1
284
8
285
0
286
0
287
3
288
0
340
11
278
44
341
215
342
215
343
215
344
215
  0
ENDTAB
  0
ENDSEC
  0
SECTION
  2
BLOCKS
  0
BLOCK
  5
20
100
AcDbEntity
  8
0
100
AcDbBlockBegin
  2
*Model_Space
 70
0
 10
0.0
 20
0.0
 30
0.0
  3
*Model_Space
  1

  0
ENDBLK
  5
21
100
AcDbEntity
  8
0
100
AcDbBlockEnd
  0
BLOCK
  5
1C
100
AcDbEntity
  8
0
100
AcDbBlockBegin
  2
*Paper_Space
 70
0
 10
0.0
 20
0.0
 30
0.0
  3
*Paper_Space
  1

  0
ENDBLK
  5
1D
100
AcDbEntity
  8
0
100
AcDbBlockEnd
  0
BLOCK
  5
217
100
AcDbEntity
  8
0
100
AcDbBlockBegin
  2
_FILLED
 70
64
 10
0.0
 20
0.0
  3
_FILLED
  1

  0
SOLID
  5
218
100
AcDbEntity
  8
0
  6
BYBLOCK
 62
0
100
AcDbTrace
 10
0.0
 20
0.0
 11
-1.0
 21
0.3166666667
 12
-1.0
 22
-0.3166666667
 13
-1.0
 23
-0.3166666667
  0
ENDBLK
  5
219
100
AcDbEntity
  8
0
  6
BYBLOCK
 62
0
100
AcDbBlockEnd
  0
ENDSEC
  0
SECTION
  2
ENTITIES
  0
LWPOLYLINE
  5
21A
100
AcDbEntity
  8
RACCORDO
100
AcDbPolyline
 62
7
  6
CONTINUOUS
 90
8
 70
0
 10
-38.5027366777
 20
54.5772759783
 10
-38.7899399849
 20
54.3749371828
 10
-39.5473653544
 20
53.7227907209
 10
-40.2284056729
 20
52.9493252498
 10
-40.8248320702
 20
52.0616017103
 10
-41.3296834733
 20
51.0677771307
 10
-41.7372176006
 20
49.9769963481
 10
-42.0309185231
 20
48.8562620855
  0
LWPOLYLINE
  5
21B
100
AcDbEntity
  8
ASSI
100
AcDbPolyline
 62
7
  6
CONTINUOUS
 90
8
 70
0
 10
-38.5027366777
 20
54.5772759783
 10
-38.7899399849
 20
54.3749371828
 10
-39.5473653544
 20
53.7227907209
 10
-40.2284056729
 20
52.9493252498
 10
-40.8248320702
 20
52.0616017103
 10
-41.3296834733
 20
51.0677771307
 10
-41.7372176006
 20
49.9769963481
 10
-42.0309185231
 20
48.8562620855
  0
LINE
  5
21C
100
AcDbEntity
  8
RACCORDO
100
AcDbLine
 62
7
  6
CONTINUOUS
 10
-38.5019484011
 20
54.5778040574
 11
-38.5027131726
 21
54.577294425
  0
LINE
  5
21D
100
AcDbEntity
  8
DRAFT
100
AcDbLine
 62
7
  6
CONTINUOUS
 10
-36.7815290761
 20
55.7241668863
 11
-38.5028156395
 21
54.5772261961
  0
LINE
  5
21E
100
AcDbEntity
  8
ASSI
100
AcDbLine
 62
7
  6
CONTINUOUS
 10
-36.7815290761
 20
55.7241668863
 11
-38.5028156395
 21
54.5772261961
  0
LINE
  5
21F
100
AcDbEntity
  8
RACCORDO
100
AcDbLine
 62
250
  6
CONTINUOUS
 10
-29.3457337956
 20
55.776179134
 11
-30.981704261
 21
54.7211919626
  0
LINE
  5
220
100
AcDbEntity
  8
ASSI
100
AcDbLine
 62
250
  6
CONTINUOUS
 10
-29.3457337956
 20
55.776179134
 11
-30.981704261
 21
54.7211919626
  0
LINE
  5
221
100
AcDbEntity
  8
RACCORDO
100
AcDbLine
 62
250
  6
CONTINUOUS
 10
-25.8101998896
 20
54.1050225313
 11
-27.557911078
 21
52.9829819543
  0
LINE
  5
222
100
AcDbEntity
  8
ASSI
100
AcDbLine
 62
250
  6
CONTINUOUS
 10
-25.8101998896
 20
54.1050225313
 11
-27.557911078
 21
52.9829819543
  0
LWPOLYLINE
  5
223
100
AcDbEntity
  8
RACCORDO
100
AcDbPolyline
 62
7
  6
CONTINUOUS
 90
3
 70
0
 10
-42.5709770322
 20
45.7063082479
 10
-42.6157030098
 20
45.360403593
 10
-42.7094170515
 20
44.6000322797
  0
LWPOLYLINE
  5
224
100
AcDbEntity
  8
ASSI
100
AcDbPolyline
 62
7
  6
CONTINUOUS
 90
3
 70
0
 10
-42.5709770322
 20
45.7063082479
 10
-42.6157030098
 20
45.360403593
 10
-42.7094170515
 20
44.6000322797
  0
LWPOLYLINE
  5
225
100
AcDbEntity
  8
RACCORDO
100
AcDbPolyline
 62
7
  6
CONTINUOUS
 90
4
 70
0
 10
-42.0309189711
 20
48.8562633967
 10
-42.2336126869
 20
47.8390208156
 10
-42.4206203002
 20
46.7486210842
 10
-42.5709770157
 20
45.706308285
  0
LWPOLYLINE
  5
226
100
AcDbEntity
  8
ASSI
100
AcDbPolyline
 62
7
  6
CONTINUOUS
 90
4
 70
0
 10
-42.0309189711
 20
48.8562633967
 10
-42.2336126869
 20
47.8390208156
 10
-42.4206203002
 20
46.7486210842
 10
-42.5709770157
 20
45.706308285
  0
LWPOLYLINE
  5
227
100
AcDbEntity
  8
RACCORDO
100
AcDbPolyline
 62
7
  6
CONTINUOUS
 90
4
 70
0
 10
-25.122804815
 20
32.4445769127
 10
-25.1174260104
 20
32.4461173922
 10
-25.0880192982
 20
32.4468809924
 10
-25.0292713658
 20
32.4351446406
  0
LWPOLYLINE
  5
228
100
AcDbEntity
  8
ASSI
100
AcDbPolyline
 62
7
  6
CONTINUOUS
 90
4
 70
0
 10
-25.122804815
 20
32.4445769127
 10
-25.1174260104
 20
32.4461173922
 10
-25.0880192982
 20
32.4468809924
 10
-25.0292713658
 20
32.4351446406
  0
LWPOLYLINE
  5
229
100
AcDbEntity
  8
RACCORDO
100
AcDbPolyline
 62
7
  6
CONTINUOUS
 90
8
 70
0
 10
31.6190723347
 20
-51.9218614002
 10
32.693008779
 20
-52.3199673726
 10
33.793700752
 20
-52.6215212978
 10
34.852431609
 20
-52.7979568567
 10
35.8592088362
 20
-52.8466766064
 10
36.804171799
 20
-52.767028517
 10
37.6798728966
 20
-52.560252211
 10
38.4039699305
 20
-52.2673794818
  0
LWPOLYLINE
  5
22A
100
AcDbEntity
  8
ASSI
100
AcDbPolyline
 62
7
  6
CONTINUOUS
 90
8
 70
0
 10
31.6190723347
 20
-51.9218614002
 10
32.693008779
 20
-52.3199673726
 10
33.793700752
 20
-52.6215212978
 10
34.852431609
 20
-52.7979568567
 10
35.8592088362
 20
-52.8466766064
 10
36.804171799
 20
-52.767028517
 10
37.6798728966
 20
-52.560252211
 10
38.4039699305
 20
-52.2673794818
  0
LINE
  5
22B
100
AcDbEntity
  8
RACCORDO
100
AcDbLine
 62
7
  6
CONTINUOUS
 10
30.4227187851
 20
-51.4136643159
 11
31.6190775776
 21
-51.9218639747
  0
LINE
  5
22C
100
AcDbEntity
  8
ASSI
100
AcDbLine
 62
7
  6
CONTINUOUS
 10
30.4227187851
 20
-51.4136643159
 11
31.6190775776
 21
-51.9218639747
  0
LWPOLYLINE
  5
22D
100
AcDbEntity
  8
RACCORDO
100
AcDbPolyline
 62
7
  6
CONTINUOUS
 90
6
 70
0
 10
-42.7094170327
 20
44.6000321858
 10
-43.4247371158
 20
37.0529133411
 10
-43.7867026156
 20
29.3405250555
 10
-43.7868816293
 20
21.539035856
 10
-43.4252636182
 20
13.6614650742
 10
-42.7096265809
 20
5.7823129326
  0
LWPOLYLINE
  5
22E
100
AcDbEntity
  8
ASSI
100
AcDbPolyline
 62
7
  6
CONTINUOUS
 90
6
 70
0
 10
-42.7094170327
 20
44.6000321858
 10
-43.4247371158
 20
37.0529133411
 10
-43.7867026156
 20
29.3405250555
 10
-43.7868816293
 20
21.539035856
 10
-43.4252636182
 20
13.6614650742
 10
-42.7096265809
 20
5.7823129326
  0
LINE
  5
22F
100
AcDbEntity
  8
0
100
AcDbLine
 62
7
  6
CONTINUOUS
 10
-23.3210987506
 20
30.8732924827
 11
-22.9706307737
 21
31.0756486444
  0
LINE
  5
230
100
AcDbEntity
  8
ASSI
100
AcDbLine
 62
7
  6
CONTINUOUS
 10
-23.3210987506
 20
30.8732924827
 11
-22.9706307737
 21
31.0756486444
  0
LINE
  5
231
100
AcDbEntity
  8
0
100
AcDbLine
 62
250
  6
CONTINUOUS
 10
-24.7783786526
 20
32.3067405886
 11
-25.3491347589
 21
32.0047633848
  0
LINE
  5
232
100
AcDbEntity
  8
ASSI
100
AcDbLine
 62
250
  6
CONTINUOUS
 10
-24.7783786526
 20
32.3067405886
 11
-25.3491347589
 21
32.0047633848
  0
LINE
  5
233
100
AcDbEntity
  8
RACCORDO
100
AcDbLine
 62
7
  6
CONTINUOUS
 10
-25.1228227315
 20
32.444567515
 11
-25.1223276339
 21
32.4448192738
  0
LINE
  5
234
100
AcDbEntity
  8
ASSI
100
AcDbLine
 62
7
  6
CONTINUOUS
 10
-25.1228227315
 20
32.444567515
 11
-25.1223276339
 21
32.4448192738
  0
LWPOLYLINE
  5
235
100
AcDbEntity
  8
RACCORDO
100
AcDbPolyline
 62
7
  6
CONTINUOUS
 90
3
 70
0
 10
27.9769582442
 20
-50.3074623276
 10
29.171171592
 20
-50.8588432805
 10
30.4227187851
 20
-51.4136643159
  0
LWPOLYLINE
  5
236
100
AcDbEntity
  8
ASSI
100
AcDbPolyline
 62
7
  6
CONTINUOUS
 90
3
 70
0
 10
27.9769582442
 20
-50.3074623276
 10
29.171171592
 20
-50.8588432805
 10
30.4227187851
 20
-51.4136643159
  0
LINE
  5
237
100
AcDbEntity
  8
RACCORDO
100
AcDbLine
 62
7
  6
CONTINUOUS
 10
26.6862857397
 20
-49.6961415367
 11
27.9769582646
 21
-50.307462338
  0
LINE
  5
238
100
AcDbEntity
  8
ASSI
100
AcDbLine
 62
7
  6
CONTINUOUS
 10
26.6862857397
 20
-49.6961415367
 11
27.9769582646
 21
-50.307462338
  0
LWPOLYLINE
  5
239
100
AcDbEntity
  8
RACCORDO
100
AcDbPolyline
 62
7
  6
CONTINUOUS
 90
3
 70
0
 10
24.0641741678
 20
-48.4303671175
 10
25.3447142977
 20
-49.0525302767
 10
26.6862857397
 20
-49.6961415367
  0
LWPOLYLINE
  5
23A
100
AcDbEntity
  8
ASSI
100
AcDbPolyline
 62
7
  6
CONTINUOUS
 90
3
 70
0
 10
24.0641741678
 20
-48.4303671175
 10
25.3447142977
 20
-49.0525302767
 10
26.6862857397
 20
-49.6961415367
  0
LINE
  5
23B
100
AcDbEntity
  8
RACCORDO
100
AcDbLine
 62
7
  6
CONTINUOUS
 10
14.319281341
 20
-43.4964398613
 11
24.0641741679
 21
-48.4303671125
  0
LINE
  5
23C
100
AcDbEntity
  8
ASSI
100
AcDbLine
 62
7
  6
CONTINUOUS
 10
14.319281341
 20
-43.4964398613
 11
24.0641741679
 21
-48.4303671125
  0
LWPOLYLINE
  5
23D
100
AcDbEntity
  8
RACCORDO
100
AcDbPolyline
 62
7
  6
CONTINUOUS
 90
14
 70
0
 10
-42.032012547
 20
1.2402077798
 10
-41.7418329973
 20
-0.0321349129
 10
-41.3380013986
 20
-1.3977794008
 10
-40.8379994125
 20
-2.7773191768
 10
-40.2474452184
 20
-4.1588390069
 10
-39.5729505493
 20
-5.5305492784
 10
-38.8219050427
 20
-6.8810650673
 10
-38.0022474896
 20
-8.1995770734
 10
-37.1224232958
 20
-9.4756970974
 10
-36.1911083024
 20
-10.6996948852
 10
-35.2172240171
 20
-11.8622950975
 10
-34.2097746791
 20
-12.9547644898
 10
-33.1777893788
 20
-13.9688659939
 10
-32.1303234721
 20
-14.8967937246
  0
LWPOLYLINE
  5
23E
100
AcDbEntity
  8
ASSI
100
AcDbPolyline
 62
7
  6
CONTINUOUS
 90
14
 70
0
 10
-42.032012547
 20
1.2402077798
 10
-41.7418329973
 20
-0.0321349129
 10
-41.3380013986
 20
-1.3977794008
 10
-40.8379994125
 20
-2.7773191768
 10
-40.2474452184
 20
-4.1588390069
 10
-39.5729505493
 20
-5.5305492784
 10
-38.8219050427
 20
-6.8810650673
 10
-38.0022474896
 20
-8.1995770734
 10
-37.1224232958
 20
-9.4756970974
 10
-36.1911083024
 20
-10.6996948852
 10
-35.2172240171
 20
-11.8622950975
 10
-34.2097746791
 20
-12.9547644898
 10
-33.1777893788
 20
-13.9688659939
 10
-32.1303234721
 20
-14.8967937246
  0
LWPOLYLINE
  5
23F
100
AcDbEntity
  8
RACCORDO
100
AcDbPolyline
 62
7
  6
CONTINUOUS
 90
4
 70
0
 10
-42.5712141955
 20
4.6181529199
 10
-42.4219220568
 20
3.5224502199
 10
-42.2353513559
 20
2.3531403973
 10
-42.0320125956
 20
1.2402061363
  0
LWPOLYLINE
  5
240
100
AcDbEntity
  8
ASSI
100
AcDbPolyline
 62
7
  6
CONTINUOUS
 90
4
 70
0
 10
-42.5712141955
 20
4.6181529199
 10
-42.4219220568
 20
3.5224502199
 10
-42.2353513559
 20
2.3531403973
 10
-42.0320125956
 20
1.2402061363
  0
LWPOLYLINE
  5
241
100
AcDbEntity
  8
RACCORDO
100
AcDbPolyline
 62
7
  6
CONTINUOUS
 90
3
 70
0
 10
-42.7096266058
 20
5.7823128908
 10
-42.6678332618
 20
5.4182535505
 10
-42.5712142025
 20
4.618152927
  0
LWPOLYLINE
  5
242
100
AcDbEntity
  8
ASSI
100
AcDbPolyline
 62
7
  6
CONTINUOUS
 90
3
 70
0
 10
-42.7096266058
 20
5.7823128908
 10
-42.6678332618
 20
5.4182535505
 10
-42.5712142025
 20
4.618152927
  0
LWPOLYLINE
  5
243
100
AcDbEntity
  8
RACCORDO
100
AcDbPolyline
 62
7
  6
CONTINUOUS
 90
5
 70
0
 10
-23.9912448125
 20
-20.6838242741
 10
-14.5904719475
 20
-26.8040705389
 10
-5.0397205289
 20
-32.6668340658
 10
4.5987464303
 20
-38.2320468703
 10
14.319281341
 20
-43.4964398613
  0
LWPOLYLINE
  5
244
100
AcDbEntity
  8
ASSI
100
AcDbPolyline
 62
7
  6
CONTINUOUS
 90
5
 70
0
 10
-23.9912448125
 20
-20.6838242741
 10
-14.5904719475
 20
-26.8040705389
 10
-5.0397205289
 20
-32.6668340658
 10
4.5987464303
 20
-38.2320468703
 10
14.319281341
 20
-43.4964398613
  0
LINE
  5
245
100
AcDbEntity
  8
RACCORDO
100
AcDbLine
 62
7
  6
CONTINUOUS
 10
-25.2173517535
 20
-19.8582331108
 11
-23.9912448006
 21
-20.6838242868
  0
LINE
  5
246
100
AcDbEntity
  8
ASSI
100
AcDbLine
 62
7
  6
CONTINUOUS
 10
-25.2173517535
 20
-19.8582331108
 11
-23.9912448006
 21
-20.6838242868
  0
LWPOLYLINE
  5
247
100
AcDbEntity
  8
RACCORDO
100
AcDbPolyline
 62
7
  6
CONTINUOUS
 90
3
 70
0
 10
-27.7032758177
 20
-18.1584734649
 10
-26.4900913633
 20
-18.9923517863
 10
-25.2173517535
 20
-19.8582331108
  0
LWPOLYLINE
  5
248
100
AcDbEntity
  8
ASSI
100
AcDbPolyline
 62
7
  6
CONTINUOUS
 90
3
 70
0
 10
-27.7032758177
 20
-18.1584734649
 10
-26.4900913633
 20
-18.9923517863
 10
-25.2173517535
 20
-19.8582331108
  0
LINE
  5
249
100
AcDbEntity
  8
RACCORDO
100
AcDbLine
 62
7
  6
CONTINUOUS
 10
-28.8308096561
 20
-17.3687826936
 11
-27.7032758006
 21
-18.1584734757
  0
LINE
  5
24A
100
AcDbEntity
  8
ASSI
100
AcDbLine
 62
7
  6
CONTINUOUS
 10
-28.8308096561
 20
-17.3687826936
 11
-27.7032758006
 21
-18.1584734757
  0
LWPOLYLINE
  5
24B
100
AcDbEntity
  8
RACCORDO
100
AcDbPolyline
 62
7
  6
CONTINUOUS
 90
3
 70
0
 10
-31.1263677198
 20
-15.6938677644
 10
-30.0071134237
 20
-16.5218230292
 10
-28.8308096561
 20
-17.3687826936
  0
LWPOLYLINE
  5
24C
100
AcDbEntity
  8
ASSI
100
AcDbPolyline
 62
7
  6
CONTINUOUS
 90
3
 70
0
 10
-31.1263677198
 20
-15.6938677644
 10
-30.0071134237
 20
-16.5218230292
 10
-28.8308096561
 20
-17.3687826936
  0
LINE
  5
24D
100
AcDbEntity
  8
RACCORDO
100
AcDbLine
 62
7
  6
CONTINUOUS
 10
-32.1303234721
 20
-14.8967937246
 11
-31.1263659874
 21
-15.6938684894
  0
LINE
  5
24E
100
AcDbEntity
  8
ASSI
100
AcDbLine
 62
7
  6
CONTINUOUS
 10
-32.1303234721
 20
-14.8967937246
 11
-31.1263659874
 21
-15.6938684894
  0
LINE
  5
24F
100
AcDbEntity
  8
0
100
AcDbLine
 62
7
  6
CONTINUOUS
 10
-23.3210987506
 20
31.4653254372
 11
-23.3210987506
 21
-2.3570477828
  0
LINE
  5
250
100
AcDbEntity
  8
ASSI
100
AcDbLine
 62
7
  6
CONTINUOUS
 10
-23.3210987506
 20
31.4653254372
 11
-23.3210987506
 21
-2.3570477828
  0
LINE
  5
251
100
AcDbEntity
  8
0
100
AcDbLine
 62
7
  6
CONTINUOUS
 10
-22.9706307737
 20
4.1214362392
 11
-22.9706307737
 21
31.0756486444
  0
LINE
  5
252
100
AcDbEntity
  8
ASSI
100
AcDbLine
 62
7
  6
CONTINUOUS
 10
-22.9706307737
 20
4.1214362392
 11
-22.9706307737
 21
31.0756486444
  0
LINE
  5
253
100
AcDbEntity
  8
RACCORDO
100
AcDbLine
 62
250
  6
CONTINUOUS
 10
21.4170552712
 20
-31.6387033034
 11
-24.5648002297
 21
-5.0893562251
  0
LINE
  5
254
100
AcDbEntity
  8
ASSI
100
AcDbLine
 62
250
  6
CONTINUOUS
 10
21.4170552712
 20
-31.6387033034
 11
-24.5648002297
 21
-5.0893562251
  0
LINE
  5
255
100
AcDbEntity
  8
RACCORDO
100
AcDbLine
 62
250
  6
CONTINUOUS
 10
22.0701925296
 20
-31.5254937574
 11
-24.6695585997
 21
-4.5385472419
  0
LINE
  5
256
100
AcDbEntity
  8
ASSI
100
AcDbLine
 62
250
  6
CONTINUOUS
 10
22.0701925296
 20
-31.5254937574
 11
-24.6695585997
 21
-4.5385472419
  0
LINE
  5
257
100
AcDbEntity
  8
0
100
AcDbLine
 62
7
  6
CONTINUOUS
 10
22.5021901752
 20
-29.4680167293
 11
-22.7554133256
 21
-3.3368436789
  0
LINE
  5
258
100
AcDbEntity
  8
ASSI
100
AcDbLine
 62
7
  6
CONTINUOUS
 10
22.5021901752
 20
-29.4680167293
 11
-22.7554133256
 21
-3.3368436789
  0
LINE
  5
259
100
AcDbEntity
  8
0
100
AcDbLine
 62
7
  6
CONTINUOUS
 10
2.5844988406
 20
-16.6174058005
 11
4.8669939586
 21
-17.9352898752
  0
LINE
  5
25A
100
AcDbEntity
  8
ASSI
100
AcDbLine
 62
7
  6
CONTINUOUS
 10
2.5844988406
 20
-16.6174058005
 11
4.8669939586
 21
-17.9352898752
  0
LINE
  5
25B
100
AcDbEntity
  8
0
100
AcDbLine
 62
7
  6
CONTINUOUS
 10
-20.7977293169
 20
4.9155180709
 11
-20.7977293169
 21
1.8269076146
  0
LINE
  5
25C
100
AcDbEntity
  8
ASSI
100
AcDbLine
 62
7
  6
CONTINUOUS
 10
-20.7977293169
 20
4.9155180709
 11
-20.7977293169
 21
1.8269076146
  0
LINE
  5
25D
100
AcDbEntity
  8
0
100
AcDbLine
 62
7
  6
CONTINUOUS
 10
-23.3210987506
 20
-0.1525780355
 11
-21.1359661378
 21
1.2201888478
  0
LINE
  5
25E
100
AcDbEntity
  8
ASSI
100
AcDbLine
 62
7
  6
CONTINUOUS
 10
-23.3210987506
 20
-0.1525780355
 11
-21.1359661378
 21
1.2201888478
  0
LINE
  5
25F
100
AcDbEntity
  8
0
100
AcDbLine
 62
7
  6
CONTINUOUS
 10
-22.9706307737
 20
4.1214362392
 11
-21.1359661378
 21
5.1247722092
  0
LINE
  5
260
100
AcDbEntity
  8
ASSI
100
AcDbLine
 62
7
  6
CONTINUOUS
 10
-22.9706307737
 20
4.1214362392
 11
-21.1359661378
 21
5.1247722092
  0
LINE
  5
261
100
AcDbEntity
  8
0
100
AcDbLine
 62
7
  6
CONTINUOUS
 10
-22.9706307737
 20
5.0650983981
 11
-22.0727476404
 21
5.5473206627
  0
LINE
  5
262
100
AcDbEntity
  8
ASSI
100
AcDbLine
 62
7
  6
CONTINUOUS
 10
-22.9706307737
 20
5.0650983981
 11
-22.0727476404
 21
5.5473206627
  0
LINE
  5
263
100
AcDbEntity
  8
0
100
AcDbLine
 62
250
  6
CONTINUOUS
 10
-22.9706307737
 20
4.9060351063
 11
-21.8238356747
 21
5.5219394588
  0
LINE
  5
264
100
AcDbEntity
  8
ASSI
100
AcDbLine
 62
250
  6
CONTINUOUS
 10
-22.9706307737
 20
4.9060351063
 11
-21.8238356747
 21
5.5219394588
  0
LINE
  5
265
100
AcDbEntity
  8
0
100
AcDbLine
 62
250
  6
CONTINUOUS
 10
-21.8238356747
 20
5.5219394588
 11
-21.1359661378
 21
5.1247722092
  0
LINE
  5
266
100
AcDbEntity
  8
ASSI
100
AcDbLine
 62
250
  6
CONTINUOUS
 10
-21.8238356747
 20
5.5219394588
 11
-21.1359661378
 21
5.1247722092
  0
LINE
  5
267
100
AcDbEntity
  8
0
100
AcDbLine
 62
7
  6
CONTINUOUS
 10
-21.58616243
 20
5.5398344445
 11
-20.9003541027
 21
5.1438573116
  0
LINE
  5
268
100
AcDbEntity
  8
ASSI
100
AcDbLine
 62
7
  6
CONTINUOUS
 10
-21.58616243
 20
5.5398344445
 11
-20.9003541027
 21
5.1438573116
  0
LINE
  5
269
100
AcDbEntity
  8
0
100
AcDbLine
 62
250
  6
CONTINUOUS
 10
-22.7554133256
 20
-3.3368436789
 11
-24.6695585997
 21
-4.5385472419
  0
LINE
  5
26A
100
AcDbEntity
  8
ASSI
100
AcDbLine
 62
250
  6
CONTINUOUS
 10
-22.7554133256
 20
-3.3368436789
 11
-24.6695585997
 21
-4.5385472419
  0
LINE
  5
26B
100
AcDbEntity
  8
0
100
AcDbLine
 62
250
  6
CONTINUOUS
 10
-23.3210987506
 20
-2.3570477828
 11
-25.3491347478
 21
-3.4300283703
  0
LINE
  5
26C
100
AcDbEntity
  8
ASSI
100
AcDbLine
 62
250
  6
CONTINUOUS
 10
-23.3210987506
 20
-2.3570477828
 11
-25.3491347478
 21
-3.4300283703
  0
LINE
  5
26D
100
AcDbEntity
  8
RACCORDO
100
AcDbLine
 62
250
  6
CONTINUOUS
 10
29.8675585996
 20
21.9573825859
 11
28.1076559083
 21
20.8423812496
  0
LINE
  5
26E
100
AcDbEntity
  8
ASSI
100
AcDbLine
 62
250
  6
CONTINUOUS
 10
29.8675585996
 20
21.9573825859
 11
28.1076559083
 21
20.8423812496
  0
LINE
  5
26F
100
AcDbEntity
  8
RACCORDO
100
AcDbLine
 62
250
  6
CONTINUOUS
 10
33.4030925055
 20
19.5457932553
 11
31.7472614475
 21
18.502273687
  0
LINE
  5
270
100
AcDbEntity
  8
ASSI
100
AcDbLine
 62
250
  6
CONTINUOUS
 10
33.4030925055
 20
19.5457932553
 11
31.7472614475
 21
18.502273687
  0
LINE
  5
271
100
AcDbEntity
  8
DRAFT
100
AcDbLine
 62
7
  6
CONTINUOUS
 10
45.4589259915
 20
-23.5785083966
 11
45.8125246396
 21
-23.7826718244
  0
LINE
  5
272
100
AcDbEntity
  8
ASSI
100
AcDbLine
 62
7
  6
CONTINUOUS
 10
45.4589259915
 20
-23.5785083966
 11
45.8125246396
 21
-23.7826718244
  0
LINE
  5
273
100
AcDbEntity
  8
RACCORDO
100
AcDbLine
 62
250
  6
CONTINUOUS
 10
-24.9385978615
 20
32.4056903409
 11
-24.9042682667
 21
32.379427739
  0
LINE
  5
274
100
AcDbEntity
  8
ASSI
100
AcDbLine
 62
250
  6
CONTINUOUS
 10
-24.9385978615
 20
32.4056903409
 11
-24.9042682667
 21
32.379427739
  0
LINE
  5
275
100
AcDbEntity
  8
0
100
AcDbLine
 62
250
  6
CONTINUOUS
 10
-16.5328187543
 20
31.0253581085
 11
-16.6070113168
 21
31.1220499304
  0
LINE
  5
276
100
AcDbEntity
  8
0
100
AcDbLine
 62
7
  6
CONTINUOUS
 10
4.2914210548
 20
-18.9533468737
 11
4.2914210548
 21
-18.8842569608
  0
LINE
  5
277
100
AcDbEntity
  8
ASSI
100
AcDbLine
 62
7
  6
CONTINUOUS
 10
4.2914210548
 20
-18.9533468737
 11
4.2914210548
 21
-18.8842569608
  0
LINE
  5
278
100
AcDbEntity
  8
RACCORDO
100
AcDbLine
 62
7
  6
CONTINUOUS
 10
4.8671498482
 20
-17.9351949804
 11
4.8671498482
 21
-18.4394227365
  0
LINE
  5
279
100
AcDbEntity
  8
ASSI
100
AcDbLine
 62
7
  6
CONTINUOUS
 10
4.8671498482
 20
-17.9351949804
 11
4.8671498482
 21
-18.4394227365
  0
LINE
  5
27A
100
AcDbEntity
  8
0
100
AcDbLine
 62
7
  6
CONTINUOUS
 10
-5.8985782842
 20
-19.0182640462
 11
-5.7923022428
 21
-18.9569015918
  0
LINE
  5
27B
100
AcDbEntity
  8
ASSI
100
AcDbLine
 62
7
  6
CONTINUOUS
 10
-5.8985782842
 20
-19.0182640462
 11
-5.7923022428
 21
-18.9569015918
  0
LINE
  5
27C
100
AcDbEntity
  8
0
100
AcDbLine
 62
7
  6
CONTINUOUS
 10
-5.4518816403
 20
-19.2787316204
 11
-5.3456059138
 21
-19.2173693479
  0
LINE
  5
27D
100
AcDbEntity
  8
ASSI
100
AcDbLine
 62
7
  6
CONTINUOUS
 10
-5.4518816403
 20
-19.2787316204
 11
-5.3456059138
 21
-19.2173693479
  0
LINE
  5
27E
100
AcDbEntity
  8
0
100
AcDbLine
 62
7
  6
CONTINUOUS
 10
-4.6887701335
 20
-19.7229749431
 11
-4.5824948556
 21
-19.6616129296
  0
LINE
  5
27F
100
AcDbEntity
  8
ASSI
100
AcDbLine
 62
7
  6
CONTINUOUS
 10
-4.6887701335
 20
-19.7229749431
 11
-4.5824948556
 21
-19.6616129296
  0
LINE
  5
280
100
AcDbEntity
  8
0
100
AcDbLine
 62
7
  6
CONTINUOUS
 10
-4.2771819137
 20
-19.9622011373
 11
-4.1709068309
 21
-19.9008392365
  0
LINE
  5
281
100
AcDbEntity
  8
ASSI
100
AcDbLine
 62
7
  6
CONTINUOUS
 10
-4.2771819137
 20
-19.9622011373
 11
-4.1709068309
 21
-19.9008392365
  0
LINE
  5
282
100
AcDbEntity
  8
0
100
AcDbLine
 62
7
  6
CONTINUOUS
 10
-4.1242855234
 20
-20.0508726157
 11
-4.0180105121
 21
-19.9895107561
  0
LINE
  5
283
100
AcDbEntity
  8
ASSI
100
AcDbLine
 62
7
  6
CONTINUOUS
 10
-4.1242855234
 20
-20.0508726157
 11
-4.0180105121
 21
-19.9895107561
  0
LINE
  5
284
100
AcDbEntity
  8
0
100
AcDbLine
 62
7
  6
CONTINUOUS
 10
2.5844988406
 20
-16.6174058005
 11
1.3636164173
 21
-17.26286917
  0
LINE
  5
285
100
AcDbEntity
  8
ASSI
100
AcDbLine
 62
7
  6
CONTINUOUS
 10
2.5844988406
 20
-16.6174058005
 11
1.3636164173
 21
-17.26286917
  0
LINE
  5
286
100
AcDbEntity
  8
RACCORDO
100
AcDbLine
 62
7
  6
CONTINUOUS
 10
-25.0292713658
 20
32.4351446406
 11
-24.9496246062
 21
32.403586996
  0
LINE
  5
287
100
AcDbEntity
  8
ASSI
100
AcDbLine
 62
7
  6
CONTINUOUS
 10
-25.0292713658
 20
32.4351446406
 11
-24.9496246062
 21
32.403586996
  0
LINE
  5
288
100
AcDbEntity
  8
RACCORDO
100
AcDbLine
 62
7
  6
CONTINUOUS
 10
-24.9496246062
 20
32.403586996
 11
-24.9042688774
 21
32.3794278702
  0
LINE
  5
289
100
AcDbEntity
  8
ASSI
100
AcDbLine
 62
7
  6
CONTINUOUS
 10
-24.9496246062
 20
32.403586996
 11
-24.9042688774
 21
32.3794278702
  0
LINE
  5
28A
100
AcDbEntity
  8
0
100
AcDbLine
 62
7
  6
CONTINUOUS
 10
-23.3210987506
 20
31.2780044619
 11
-22.9706307737
 21
31.0756486444
  0
LINE
  5
28B
100
AcDbEntity
  8
ASSI
100
AcDbLine
 62
7
  6
CONTINUOUS
 10
-23.3210987506
 20
31.2780044619
 11
-22.9706307737
 21
31.0756486444
  0
LINE
  5
28C
100
AcDbEntity
  8
RACCORDO
100
AcDbLine
 62
7
  6
CONTINUOUS
 10
-24.9041496816
 20
32.3793592044
 11
21.8356084582
 21
5.3924086413
  0
LINE
  5
28D
100
AcDbEntity
  8
ASSI
100
AcDbLine
 62
7
  6
CONTINUOUS
 10
-24.9041496816
 20
32.3793592044
 11
21.8356084582
 21
5.3924086413
  0
LINE
  5
28E
100
AcDbEntity
  8
RACCORDO
100
AcDbLine
 62
250
  6
CONTINUOUS
 10
-24.5648003174
 20
32.1921896799
 11
21.4170553589
 21
5.6428425004
  0
LINE
  5
28F
100
AcDbEntity
  8
ASSI
100
AcDbLine
 62
250
  6
CONTINUOUS
 10
-24.5648003174
 20
32.1921896799
 11
21.4170553589
 21
5.6428425004
  0
LINE
  5
290
100
AcDbEntity
  8
0
100
AcDbLine
 62
250
  6
CONTINUOUS
 10
-2.7371164688
 20
22.0083519497
 11
-3.9710798766
 21
22.7236107363
  0
LINE
  5
291
100
AcDbEntity
  8
0
100
AcDbLine
 62
250
  6
CONTINUOUS
 10
-4.2555077553
 20
22.5788526058
 11
-2.7750413703
 21
21.7203743772
  0
LINE
  5
292
100
AcDbEntity
  8
0
100
AcDbLine
 62
250
  6
CONTINUOUS
 10
-3.6963708885
 20
24.7004410091
 11
-3.9429678349
 21
24.843606274
  0
LINE
  5
293
100
AcDbEntity
  8
0
100
AcDbLine
 62
250
  6
CONTINUOUS
 10
-4.8304466906
 20
22.9131656274
 11
-4.5840984902
 21
22.7698567472
  0
LINE
  5
294
100
AcDbEntity
  8
0
100
AcDbLine
 62
250
  6
CONTINUOUS
 10
-5.7387583034
 20
24.0630658527
 11
-4.918325659
 21
23.5849513668
  0
LINE
  5
295
100
AcDbEntity
  8
0
100
AcDbLine
 62
250
  6
CONTINUOUS
 10
-5.6718129932
 20
24.231514621
 11
-4.9334087079
 21
23.8012198487
  0
LINE
  5
296
100
AcDbEntity
  8
0
100
AcDbLine
 62
250
  6
CONTINUOUS
 10
-4.9285335893
 20
25.4167403281
 11
-5.2567630218
 21
25.6079530689
  0
LINE
  5
297
100
AcDbEntity
  8
0
100
AcDbLine
 62
250
  6
CONTINUOUS
 10
-6.2248677256
 20
23.7261427627
 11
-5.9789851648
 21
23.5825658424
  0
LINE
  5
298
100
AcDbEntity
  8
0
100
AcDbLine
 62
250
  6
CONTINUOUS
 10
-6.2405781046
 20
26.1820979445
 11
-6.4863263685
 21
26.3257524188
  0
LINE
  5
299
100
AcDbEntity
  8
0
100
AcDbLine
 62
250
  6
CONTINUOUS
 10
-6.7982750984
 20
24.0613400892
 11
-6.5525839884
 21
23.9176526302
  0
LINE
  5
29A
100
AcDbEntity
  8
0
100
AcDbLine
 62
250
  6
CONTINUOUS
 10
-7.1257360879
 20
24.252997341
 11
-7.4121449654
 21
24.4207666247
  0
LINE
  5
29B
100
AcDbEntity
  8
0
100
AcDbLine
 62
250
  6
CONTINUOUS
 10
-8.1574238192
 20
27.0427939918
 11
-7.380689907
 21
26.5870385384
  0
LINE
  5
29C
100
AcDbEntity
  8
0
100
AcDbLine
 62
250
  6
CONTINUOUS
 10
-7.6045297553
 20
25.6216970503
 11
-8.2993916089
 21
26.0295425332
  0
LINE
  5
29D
100
AcDbEntity
  8
0
100
AcDbLine
 62
250
  6
CONTINUOUS
 10
-7.4828919538
 20
25.8628276186
 11
-8.2595681885
 21
26.3186163372
  0
LINE
  5
29E
100
AcDbEntity
  8
0
100
AcDbLine
 62
250
  6
CONTINUOUS
 10
-8.3676729383
 20
27.4286793461
 11
-7.3867027974
 21
26.852891811
  0
LINE
  5
29F
100
AcDbEntity
  8
0
100
AcDbLine
 62
250
  6
CONTINUOUS
 10
-8.4341220453
 20
25.0204689959
 11
-8.6791840961
 21
25.1645196757
  0
LINE
  5
2A0
100
AcDbEntity
  8
0
100
AcDbLine
 62
250
  6
CONTINUOUS
 10
-9.9599313031
 20
28.0517119495
 11
-8.7361483849
 21
27.3305742577
  0
LINE
  5
2A1
100
AcDbEntity
  8
0
100
AcDbLine
 62
250
  6
CONTINUOUS
 10
-8.9680665071
 20
25.6445320114
 11
-10.1916366274
 21
26.3657917441
  0
LINE
  5
2A2
100
AcDbEntity
  8
0
100
AcDbLine
 62
250
  6
CONTINUOUS
 10
-10.0882095844
 20
27.1350577926
 11
-9.0278166622
 21
26.5099461373
  0
LINE
  5
2A3
100
AcDbEntity
  8
0
100
AcDbLine
 62
250
  6
CONTINUOUS
 10
-8.9879166115
 20
26.7990642224
 11
-10.048341048
 21
27.4241576912
  0
LINE
  5
2A4
100
AcDbEntity
  8
0
100
AcDbLine
 62
250
  6
CONTINUOUS
 10
-8.6943711734
 20
27.6207770028
 11
-10.1627076901
 21
28.4862590163
  0
LINE
  5
2A5
100
AcDbEntity
  8
0
100
AcDbLine
 62
250
  6
CONTINUOUS
 10
-10.4738010567
 20
26.2223405088
 11
-9.0058062695
 21
25.3566611908
  0
LINE
  5
2A6
100
AcDbEntity
  8
0
100
AcDbLine
 62
250
  6
CONTINUOUS
 10
-11.1747524058
 20
28.822370262
 11
-10.5234148155
 21
28.436986197
  0
LINE
  5
2A7
100
AcDbEntity
  8
0
100
AcDbLine
 62
250
  6
CONTINUOUS
 10
-10.488603374
 20
28.678819994
 11
-12.034615145
 21
29.5946351822
  0
LINE
  5
2A8
100
AcDbEntity
  8
0
100
AcDbLine
 62
250
  6
CONTINUOUS
 10
-11.6948729725
 20
26.9450426915
 11
-11.4508223092
 21
26.8004072467
  0
LINE
  5
2A9
100
AcDbEntity
  8
0
100
AcDbLine
 62
250
  6
CONTINUOUS
 10
-12.0693882409
 20
29.3528234234
 11
-11.4188531778
 21
28.9669759629
  0
LINE
  5
2AA
100
AcDbEntity
  8
0
100
AcDbLine
 62
250
  6
CONTINUOUS
 10
-12.6860999861
 20
29.3525908771
 11
-12.4424173624
 21
29.2077429138
  0
LINE
  5
2AB
100
AcDbEntity
  8
0
100
AcDbLine
 62
250
  6
CONTINUOUS
 10
-12.5944019017
 20
28.1000139282
 11
-12.838056735
 21
28.2448779264
  0
LINE
  5
2AC
100
AcDbEntity
  8
0
100
AcDbLine
 62
250
  6
CONTINUOUS
 10
-13.3350376703
 20
30.0530318725
 11
-12.9698216551
 21
29.8355829583
  0
LINE
  5
2AD
100
AcDbEntity
  8
0
100
AcDbLine
 62
250
  6
CONTINUOUS
 10
-12.9281701718
 20
30.1257131229
 11
-13.2933970172
 21
30.343155761
  0
LINE
  5
2AE
100
AcDbEntity
  8
0
100
AcDbLine
 62
250
  6
CONTINUOUS
 10
-13.6037613212
 20
28.0796582851
 11
-13.2386188769
 21
27.8621660966
  0
LINE
  5
2AF
100
AcDbEntity
  8
0
100
AcDbLine
 62
250
  6
CONTINUOUS
 10
-13.2010057148
 20
28.1499645639
 11
-13.5661583516
 21
28.3674500639
  0
LINE
  5
2B0
100
AcDbEntity
  8
0
100
AcDbLine
 62
250
  6
CONTINUOUS
 10
-14.8195670031
 20
28.8054011252
 11
-14.5765696104
 21
28.6601575249
  0
LINE
  5
2B1
100
AcDbEntity
  8
0
100
AcDbLine
 62
250
  6
CONTINUOUS
 10
-15.7150686081
 20
29.9626976884
 11
-14.905805479
 21
29.4781333069
  0
LINE
  5
2B2
100
AcDbEntity
  8
0
100
AcDbLine
 62
250
  6
CONTINUOUS
 10
-15.6488803095
 20
30.1307101843
 11
-14.9205286672
 21
29.694610377
  0
LINE
  5
2B3
100
AcDbEntity
  8
0
100
AcDbLine
 62
250
  6
CONTINUOUS
 10
-14.9143928598
 20
31.3108578941
 11
-15.238154321
 21
31.5046512154
  0
LINE
  5
2B4
100
AcDbEntity
  8
0
100
AcDbLine
 62
250
  6
CONTINUOUS
 10
-16.1949994256
 20
29.6293420474
 11
-15.9524678711
 21
29.4838302822
  0
LINE
  5
2B5
100
AcDbEntity
  8
0
100
AcDbLine
 62
250
  6
CONTINUOUS
 10
-17.7319771136
 20
30.864045371
 11
-16.9653452848
 21
30.4024579667
  0
LINE
  5
2B6
100
AcDbEntity
  8
0
100
AcDbLine
 62
250
  6
CONTINUOUS
 10
-16.8690084882
 20
31.1232823318
 11
-17.6356981724
 21
31.5848371655
  0
LINE
  5
2B7
100
AcDbEntity
  8
0
100
AcDbLine
 62
250
  6
CONTINUOUS
 10
-16.8294406699
 20
31.4122094095
 11
-17.5961525458
 21
31.8737506676
  0
LINE
  5
2B8
100
AcDbEntity
  8
0
100
AcDbLine
 62
250
  6
CONTINUOUS
 10
-17.5015806497
 20
32.5492098389
 11
-16.7348148231
 21
32.0876988968
  0
LINE
  5
2B9
100
AcDbEntity
  8
0
100
AcDbLine
 62
250
  6
CONTINUOUS
 10
-16.7336522137
 20
32.402041457
 11
-17.7020354207
 21
32.9850964673
  0
LINE
  5
2BA
100
AcDbEntity
  8
0
100
AcDbLine
 62
250
  6
CONTINUOUS
 10
-18.0113716736
 20
30.722192589
 11
-17.043214376
 21
30.1390070863
  0
LINE
  5
2BB
100
AcDbEntity
  8
0
100
AcDbLine
 62
250
  6
CONTINUOUS
 10
-19.4590312247
 20
34.0469373493
 11
-20.5614151643
 21
34.7157906001
  0
LINE
  5
2BC
100
AcDbEntity
  8
0
100
AcDbLine
 62
250
  6
CONTINUOUS
 10
-22.9105194965
 20
34.3930124093
 11
-23.6421553749
 21
34.8408130971
  0
LINE
  5
2BD
100
AcDbEntity
  8
0
100
AcDbLine
 62
250
  6
CONTINUOUS
 10
-25.308612812
 20
35.646312602
 11
-24.5216491446
 21
35.1624698819
  0
LINE
  5
2BE
100
AcDbEntity
  8
0
100
AcDbLine
 62
250
  6
CONTINUOUS
 10
-25.3723698625
 20
35.7726615868
 11
-24.5854835113
 21
35.2887742472
  0
LINE
  5
2BF
100
AcDbEntity
  8
0
100
AcDbLine
 62
250
  6
CONTINUOUS
 10
-24.5104537429
 20
36.5557493227
 11
-25.297337523
 21
37.039638155
  0
LINE
  5
2C0
100
AcDbEntity
  8
0
100
AcDbLine
 62
250
  6
CONTINUOUS
 10
-24.4366153956
 20
36.5983747748
 11
-25.2235760856
 21
37.0822191369
  0
LINE
  5
2C1
100
AcDbEntity
  8
0
100
AcDbLine
 62
250
  6
CONTINUOUS
 10
-25.4360740022
 20
35.8990411215
 11
-24.6492656987
 21
35.415109608
  0
LINE
  5
2C2
100
AcDbEntity
  8
0
100
AcDbLine
 62
250
  6
CONTINUOUS
 10
-24.58423983
 20
36.5131548615
 11
-25.371045971
 21
36.9970877171
  0
LINE
  5
2C3
100
AcDbEntity
  8
0
100
AcDbLine
 62
250
  6
CONTINUOUS
 10
-26.3751016756
 20
35.4793268398
 11
-25.4870925888
 21
34.9314494856
  0
LINE
  5
2C4
100
AcDbEntity
  8
0
100
AcDbLine
 62
250
  6
CONTINUOUS
 10
-25.3070041361
 20
37.9721987693
 11
-26.1950003417
 21
38.520083545
  0
LINE
  5
2C5
100
AcDbEntity
  8
0
100
AcDbLine
 62
250
  6
CONTINUOUS
 10
-26.5197829176
 20
35.3958046558
 11
-25.358569884
 21
34.6793330632
  0
LINE
  5
2C6
100
AcDbEntity
  8
0
100
AcDbLine
 62
250
  6
CONTINUOUS
 10
-26.447471602
 20
35.437548419
 11
-25.4228576702
 21
34.8053755935
  0
LINE
  5
2C7
100
AcDbEntity
  8
0
100
AcDbLine
 62
250
  6
CONTINUOUS
 10
-25.2327633015
 20
38.015057429
 11
-26.257361953
 21
38.6472391217
  0
LINE
  5
2C8
100
AcDbEntity
  8
0
100
AcDbLine
 62
250
  6
CONTINUOUS
 10
-25.158469499
 20
38.0579458553
 11
-26.3196645739
 21
38.7744278118
  0
LINE
  5
2C9
100
AcDbEntity
  8
0
100
AcDbLine
 62
250
  6
CONTINUOUS
 10
-27.107868773
 20
36.9325952612
 11
-26.3240794091
 21
36.4469205531
  0
LINE
  5
2CA
100
AcDbEntity
  8
0
100
AcDbLine
 62
250
  6
CONTINUOUS
 10
-26.2590467347
 20
37.5449698328
 11
-27.0428313514
 21
38.0306471893
  0
LINE
  5
2CB
100
AcDbEntity
  8
0
100
AcDbLine
 62
250
  6
CONTINUOUS
 10
-27.2533243602
 20
36.8486276131
 11
-26.4698213938
 21
36.3627867944
  0
LINE
  5
2CC
100
AcDbEntity
  8
0
100
AcDbLine
 62
250
  6
CONTINUOUS
 10
-27.1806262228
 20
36.8905947223
 11
-26.3969796851
 21
36.4048367292
  0
LINE
  5
2CD
100
AcDbEntity
  8
0
100
AcDbLine
 62
250
  6
CONTINUOUS
 10
-26.3219413152
 20
37.671816797
 11
-27.1055823792
 21
38.1575778808
  0
LINE
  5
2CE
100
AcDbEntity
  8
0
100
AcDbLine
 62
250
  6
CONTINUOUS
 10
-26.3847770471
 20
37.7986977395
 11
-27.1682738948
 21
38.2845421505
  0
LINE
  5
2CF
100
AcDbEntity
  8
ASSI
100
AcDbLine
 62
7
  6
CONTINUOUS
 10
21.8356400785
 20
5.3923896709
 11
21.881607385
 21
5.3638578178
  0
LINE
  5
2D0
100
AcDbEntity
  8
RACCORDO
100
AcDbLine
 62
250
  6
CONTINUOUS
 10
21.8011603563
 20
5.4187397328
 11
21.8356085511
 21
5.3924085876
  0
LINE
  5
2D1
100
AcDbEntity
  8
ASSI
100
AcDbLine
 62
250
  6
CONTINUOUS
 10
21.8011603563
 20
5.4187397328
 11
21.8356085511
 21
5.3924085876
  0
LINE
  5
2D2
100
AcDbEntity
  8
0
100
AcDbLine
 62
250
  6
CONTINUOUS
 10
4.8671498482
 20
-18.4394227365
 11
4.1837001653
 21
-18.8911501822
  0
LINE
  5
2D3
100
AcDbEntity
  8
ASSI
100
AcDbLine
 62
250
  6
CONTINUOUS
 10
4.8671498482
 20
-18.4394227365
 11
4.1837001653
 21
-18.8911501822
  0
LINE
  5
2D4
100
AcDbEntity
  8
RACCORDO
100
AcDbLine
 62
7
  6
CONTINUOUS
 10
4.8660880593
 20
-18.5044290794
 11
4.2356287144
 21
-18.9211330756
  0
LINE
  5
2D5
100
AcDbEntity
  8
ASSI
100
AcDbLine
 62
7
  6
CONTINUOUS
 10
4.8660880593
 20
-18.5044290794
 11
4.2356287144
 21
-18.9211330756
  0
LINE
  5
2D6
100
AcDbEntity
  8
0
100
AcDbLine
 62
7
  6
CONTINUOUS
 10
4.8671498482
 20
-17.9351949804
 11
3.7285026804
 21
-18.6283248594
  0
LINE
  5
2D7
100
AcDbEntity
  8
ASSI
100
AcDbLine
 62
7
  6
CONTINUOUS
 10
4.8671498482
 20
-17.9351949804
 11
3.7285026804
 21
-18.6283248594
  0
LINE
  5
2D8
100
AcDbEntity
  8
0
100
AcDbLine
 62
7
  6
CONTINUOUS
 10
-3.7121020486
 20
-20.2900809203
 11
-3.6058271878
 21
-20.2287191476
  0
LINE
  5
2D9
100
AcDbEntity
  8
ASSI
100
AcDbLine
 62
7
  6
CONTINUOUS
 10
-3.7121020486
 20
-20.2900809203
 11
-3.6058271878
 21
-20.2287191476
  0
LINE
  5
2DA
100
AcDbEntity
  8
0
100
AcDbLine
 62
7
  6
CONTINUOUS
 10
-3.3116862657
 20
-20.5223346742
 11
-3.2054115124
 21
-20.4609729636
  0
LINE
  5
2DB
100
AcDbEntity
  8
ASSI
100
AcDbLine
 62
7
  6
CONTINUOUS
 10
-3.3116862657
 20
-20.5223346742
 11
-3.2054115124
 21
-20.4609729636
  0
LINE
  5
2DC
100
AcDbEntity
  8
0
100
AcDbLine
 62
7
  6
CONTINUOUS
 10
-4.7690634635
 20
-21.7972388374
 11
-4.6626487221
 21
-21.7357962995
  0
LINE
  5
2DD
100
AcDbEntity
  8
ASSI
100
AcDbLine
 62
7
  6
CONTINUOUS
 10
-4.7690634635
 20
-21.7972388374
 11
-4.6626487221
 21
-21.7357962995
  0
LINE
  5
2DE
100
AcDbEntity
  8
0
100
AcDbLine
 62
7
  6
CONTINUOUS
 10
-2.8993923699
 20
-20.7610848299
 11
-2.7931177027
 21
-20.699723169
  0
LINE
  5
2DF
100
AcDbEntity
  8
ASSI
100
AcDbLine
 62
7
  6
CONTINUOUS
 10
-2.8993923699
 20
-20.7610848299
 11
-2.7931177027
 21
-20.699723169
  0
LINE
  5
2E0
100
AcDbEntity
  8
0
100
AcDbLine
 62
7
  6
CONTINUOUS
 10
-2.0777993003
 20
-21.2360633011
 11
-1.9715247074
 21
-21.174701683
  0
LINE
  5
2E1
100
AcDbEntity
  8
ASSI
100
AcDbLine
 62
7
  6
CONTINUOUS
 10
-2.0777993003
 20
-21.2360633011
 11
-1.9715247074
 21
-21.174701683
  0
LINE
  5
2E2
100
AcDbEntity
  8
0
100
AcDbLine
 62
7
  6
CONTINUOUS
 10
-3.5698294814
 20
-22.4939459734
 11
-3.4634152699
 21
-22.4325037414
  0
LINE
  5
2E3
100
AcDbEntity
  8
ASSI
100
AcDbLine
 62
7
  6
CONTINUOUS
 10
-3.5698294814
 20
-22.4939459734
 11
-3.4634152699
 21
-22.4325037414
  0
LINE
  5
2E4
100
AcDbEntity
  8
0
100
AcDbLine
 62
7
  6
CONTINUOUS
 10
-1.668861443
 20
-21.4720878789
 11
-1.5625868388
 21
-21.4107262543
  0
LINE
  5
2E5
100
AcDbEntity
  8
ASSI
100
AcDbLine
 62
7
  6
CONTINUOUS
 10
-1.668861443
 20
-21.4720878789
 11
-1.5625868388
 21
-21.4107262543
  0
LINE
  5
2E6
100
AcDbEntity
  8
0
100
AcDbLine
 62
7
  6
CONTINUOUS
 10
-2.9531852639
 20
-22.8513174557
 11
-2.8467712168
 21
-22.7898753186
  0
LINE
  5
2E7
100
AcDbEntity
  8
ASSI
100
AcDbLine
 62
7
  6
CONTINUOUS
 10
-2.9531852639
 20
-22.8513174557
 11
-2.8467712168
 21
-22.7898753186
  0
LINE
  5
2E8
100
AcDbEntity
  8
0
100
AcDbLine
 62
7
  6
CONTINUOUS
 10
-0.7969762015
 20
-21.9744461132
 11
-0.6907014667
 21
-21.9130844133
  0
LINE
  5
2E9
100
AcDbEntity
  8
ASSI
100
AcDbLine
 62
7
  6
CONTINUOUS
 10
-0.7969762015
 20
-21.9744461132
 11
-0.6907014667
 21
-21.9130844133
  0
LINE
  5
2EA
100
AcDbEntity
  8
0
100
AcDbLine
 62
7
  6
CONTINUOUS
 10
-2.3219201032
 20
-23.2165493931
 11
-2.2155061485
 21
-23.1551073093
  0
LINE
  5
2EB
100
AcDbEntity
  8
ASSI
100
AcDbLine
 62
7
  6
CONTINUOUS
 10
-2.3219201032
 20
-23.2165493931
 11
-2.2155061485
 21
-23.1551073093
  0
LINE
  5
2EC
100
AcDbEntity
  8
0
100
AcDbLine
 62
7
  6
CONTINUOUS
 10
-0.3964558813
 20
-22.2048226999
 11
-0.2901810379
 21
-22.1434609373
  0
LINE
  5
2ED
100
AcDbEntity
  8
ASSI
100
AcDbLine
 62
7
  6
CONTINUOUS
 10
-0.3964558813
 20
-22.2048226999
 11
-0.2901810379
 21
-22.1434609373
  0
LINE
  5
2EE
100
AcDbEntity
  8
0
100
AcDbLine
 62
7
  6
CONTINUOUS
 10
0.3357007875
 20
-22.6503499305
 11
0.4419773286
 21
-22.5889871876
  0
LINE
  5
2EF
100
AcDbEntity
  8
ASSI
100
AcDbLine
 62
7
  6
CONTINUOUS
 10
0.3357007875
 20
-22.6503499305
 11
0.4419773286
 21
-22.5889871876
  0
LINE
  5
2F0
100
AcDbEntity
  8
0
100
AcDbLine
 62
7
  6
CONTINUOUS
 10
-0.7229001113
 20
-23.3923384933
 11
-0.6165394836
 21
-23.3309271999
  0
LINE
  5
2F1
100
AcDbEntity
  8
ASSI
100
AcDbLine
 62
7
  6
CONTINUOUS
 10
-0.7229001113
 20
-23.3923384933
 11
-0.6165394836
 21
-23.3309271999
  0
LINE
  5
2F2
100
AcDbEntity
  8
0
100
AcDbLine
 62
7
  6
CONTINUOUS
 10
-1.3413638243
 20
-23.7826449849
 11
-1.2541098591
 21
-23.732265639
  0
LINE
  5
2F3
100
AcDbEntity
  8
ASSI
100
AcDbLine
 62
7
  6
CONTINUOUS
 10
-1.3413638243
 20
-23.7826449849
 11
-1.2541098591
 21
-23.732265639
  0
LINE
  5
2F4
100
AcDbEntity
  8
0
100
AcDbLine
 62
7
  6
CONTINUOUS
 10
-0.8672295176
 20
-24.055839003
 11
-0.7608154849
 21
-23.9943968742
  0
LINE
  5
2F5
100
AcDbEntity
  8
ASSI
100
AcDbLine
 62
7
  6
CONTINUOUS
 10
-0.8672295176
 20
-24.055839003
 11
-0.7608154849
 21
-23.9943968742
  0
LINE
  5
2F6
100
AcDbEntity
  8
0
100
AcDbLine
 62
250
  6
CONTINUOUS
 10
1.3607344744
 20
-23.2602264682
 11
1.4670128581
 21
-23.1988626614
  0
LINE
  5
2F7
100
AcDbEntity
  8
ASSI
100
AcDbLine
 62
250
  6
CONTINUOUS
 10
1.3607344744
 20
-23.2602264682
 11
1.4670128581
 21
-23.1988626614
  0
LINE
  5
2F8
100
AcDbEntity
  8
0
100
AcDbLine
 62
7
  6
CONTINUOUS
 10
0.792296504
 20
-23.8364040082
 11
0.8986293812
 21
-23.7750087376
  0
LINE
  5
2F9
100
AcDbEntity
  8
ASSI
100
AcDbLine
 62
7
  6
CONTINUOUS
 10
0.792296504
 20
-23.8364040082
 11
0.8986293812
 21
-23.7750087376
  0
LINE
  5
2FA
100
AcDbEntity
  8
0
100
AcDbLine
 62
250
  6
CONTINUOUS
 10
1.0293658033
 20
-23.9722370307
 11
1.1356988099
 21
-23.9108416854
  0
LINE
  5
2FB
100
AcDbEntity
  8
ASSI
100
AcDbLine
 62
250
  6
CONTINUOUS
 10
1.0293658033
 20
-23.9722370307
 11
1.1356988099
 21
-23.9108416854
  0
LINE
  5
2FC
100
AcDbEntity
  8
0
100
AcDbLine
 62
7
  6
CONTINUOUS
 10
0.3547937133
 20
-24.758365332
 11
0.4612081238
 21
-24.6969229851
  0
LINE
  5
2FD
100
AcDbEntity
  8
ASSI
100
AcDbLine
 62
7
  6
CONTINUOUS
 10
0.3547937133
 20
-24.758365332
 11
0.4612081238
 21
-24.6969229851
  0
LINE
  5
2FE
100
AcDbEntity
  8
0
100
AcDbLine
 62
7
  6
CONTINUOUS
 10
1.4721146366
 20
-24.4131934102
 11
1.4882797754
 21
-24.4038598616
  0
LINE
  5
2FF
100
AcDbEntity
  8
ASSI
100
AcDbLine
 62
7
  6
CONTINUOUS
 10
1.4721146366
 20
-24.4131934102
 11
1.4882797754
 21
-24.4038598616
  0
LINE
  5
300
100
AcDbEntity
  8
0
100
AcDbLine
 62
7
  6
CONTINUOUS
 10
1.5899707204
 20
-24.370917909
 11
1.6963091283
 21
-24.309519445
  0
LINE
  5
301
100
AcDbEntity
  8
ASSI
100
AcDbLine
 62
7
  6
CONTINUOUS
 10
1.5899707204
 20
-24.370917909
 11
1.6963091283
 21
-24.309519445
  0
LINE
  5
302
100
AcDbEntity
  8
RACCORDO
100
AcDbLine
 62
250
  6
CONTINUOUS
 10
43.884554148
 20
2.0009410577
 11
41.5220168323
 21
0.7483338249
  0
LINE
  5
303
100
AcDbEntity
  8
ASSI
100
AcDbLine
 62
250
  6
CONTINUOUS
 10
43.884554148
 20
2.0009410577
 11
41.5220168323
 21
0.7483338249
  0
LINE
  5
304
100
AcDbEntity
  8
RACCORDO
100
AcDbLine
 62
250
  6
CONTINUOUS
 10
44.2644259554
 20
-1.4842732702
 11
41.7243385503
 21
-2.8202334675
  0
LINE
  5
305
100
AcDbEntity
  8
ASSI
100
AcDbLine
 62
250
  6
CONTINUOUS
 10
44.2644259554
 20
-1.4842732702
 11
41.7243385503
 21
-2.8202334675
  0
LINE
  5
306
100
AcDbEntity
  8
0
100
AcDbLine
 62
250
  6
CONTINUOUS
 10
-16.6070113168
 20
31.1220499304
 11
-16.5196262616
 21
31.1216692657
  0
LINE
  5
307
100
AcDbEntity
  8
RACCORDO
100
AcDbLine
 62
250
  6
CONTINUOUS
 10
22.2451832509
 20
-13.8802043986
 11
22.2417741942
 21
-13.8465499302
  0
LINE
  5
308
100
AcDbEntity
  8
ASSI
100
AcDbLine
 62
250
  6
CONTINUOUS
 10
22.2451832509
 20
-13.8802043986
 11
22.2417741942
 21
-13.8465499302
  0
LINE
  5
309
100
AcDbEntity
  8
RACCORDO
100
AcDbLine
 62
250
  6
CONTINUOUS
 10
22.5603936376
 20
4.0807329375
 11
22.5637427404
 21
4.0431469497
  0
LINE
  5
30A
100
AcDbEntity
  8
ASSI
100
AcDbLine
 62
250
  6
CONTINUOUS
 10
22.5603936376
 20
4.0807329375
 11
22.5637427404
 21
4.0431469497
  0
LWPOLYLINE
  5
30B
100
AcDbEntity
  8
RACCORDO
100
AcDbPolyline
 62
7
  6
CONTINUOUS
 90
4
 70
0
 10
22.2417741942
 20
-13.8465499143
 10
22.2769390067
 20
-19.714030543
 10
22.3839854462
 20
-25.6010622261
 10
22.5604662311
 20
-31.3744620857
  0
LWPOLYLINE
  5
30C
100
AcDbEntity
  8
ASSI
100
AcDbPolyline
 62
7
  6
CONTINUOUS
 90
4
 70
0
 10
22.2417741942
 20
-13.8465499143
 10
22.2769390067
 20
-19.714030543
 10
22.3839854462
 20
-25.6010622261
 10
22.5604662311
 20
-31.3744620857
  0
LINE
  5
30D
100
AcDbEntity
  8
RACCORDO
100
AcDbLine
 62
7
  6
CONTINUOUS
 10
22.5603986878
 20
-31.3727905091
 11
22.5605178879
 21
-31.4102718361
  0
LINE
  5
30E
100
AcDbEntity
  8
ASSI
100
AcDbLine
 62
7
  6
CONTINUOUS
 10
22.5603986878
 20
-31.3727905091
 11
22.5605178879
 21
-31.4102718361
  0
LWPOLYLINE
  5
30F
100
AcDbEntity
  8
RACCORDO
100
AcDbPolyline
 62
7
  6
CONTINUOUS
 90
4
 70
0
 10
22.5604506262
 20
4.0821315378
 10
22.384107182
 20
-1.9078691196
 10
22.277002541
 20
-7.9294263365
 10
22.2417741927
 20
-13.8465499277
  0
LWPOLYLINE
  5
310
100
AcDbEntity
  8
ASSI
100
AcDbPolyline
 62
7
  6
CONTINUOUS
 90
4
 70
0
 10
22.5604506262
 20
4.0821315378
 10
22.384107182
 20
-1.9078691196
 10
22.277002541
 20
-7.9294263365
 10
22.2417741927
 20
-13.8465499277
  0
LINE
  5
311
100
AcDbEntity
  8
0
100
AcDbLine
 62
7
  6
CONTINUOUS
 10
0.8894996454
 20
-25.065039575
 11
0.9959143105
 21
-25.0035970811
  0
LINE
  5
312
100
AcDbEntity
  8
ASSI
100
AcDbLine
 62
7
  6
CONTINUOUS
 10
0.8894996454
 20
-25.065039575
 11
0.9959143105
 21
-25.0035970811
  0
LINE
  5
313
100
AcDbEntity
  8
0
100
AcDbLine
 62
250
  6
CONTINUOUS
 10
1.7402887561
 20
-24.9818145525
 11
1.8466627121
 21
-24.9203955635
  0
LINE
  5
314
100
AcDbEntity
  8
ASSI
100
AcDbLine
 62
250
  6
CONTINUOUS
 10
1.7402887561
 20
-24.9818145525
 11
1.8466627121
 21
-24.9203955635
  0
LINE
  5
315
100
AcDbEntity
  8
0
100
AcDbLine
 62
7
  6
CONTINUOUS
 10
1.9243327665
 20
-25.6573115649
 11
2.0307480781
 21
-25.5958686977
  0
LINE
  5
316
100
AcDbEntity
  8
ASSI
100
AcDbLine
 62
7
  6
CONTINUOUS
 10
1.9243327665
 20
-25.6573115649
 11
2.0307480781
 21
-25.5958686977
  0
LINE
  5
317
100
AcDbEntity
  8
RACCORDO
100
AcDbLine
 62
250
  6
CONTINUOUS
 10
22.5604662311
 20
-31.3744620857
 11
22.5637454718
 21
-31.4021069464
  0
LINE
  5
318
100
AcDbEntity
  8
ASSI
100
AcDbLine
 62
250
  6
CONTINUOUS
 10
22.5604662311
 20
-31.3744620857
 11
22.5637454718
 21
-31.4021069464
  0
LINE
  5
319
100
AcDbEntity
  8
RACCORDO
100
AcDbLine
 62
7
  6
CONTINUOUS
 10
22.5605178879
 20
-31.4102718361
 11
22.5540692164
 21
-31.4871834027
  0
LINE
  5
31A
100
AcDbEntity
  8
ASSI
100
AcDbLine
 62
7
  6
CONTINUOUS
 10
22.5605178879
 20
-31.4102718361
 11
22.5540692164
 21
-31.4871834027
  0
LWPOLYLINE
  5
31B
100
AcDbEntity
  8
0
100
AcDbPolyline
 62
7
  6
CONTINUOUS
 90
5
 70
0
 10
-27.582721949
 20
55.5263660514
 10
-28.6583113774
 20
55.9409488164
 10
-29.7761795925
 20
56.2556601048
 10
-30.8740849495
 20
56.44756212
 10
-31.4522060772
 20
56.4857448797
  0
LWPOLYLINE
  5
31C
100
AcDbEntity
  8
ASSI
100
AcDbPolyline
 62
7
  6
CONTINUOUS
 90
5
 70
0
 10
-27.582721949
 20
55.5263660514
 10
-28.6583113774
 20
55.9409488164
 10
-29.7761795925
 20
56.2556601048
 10
-30.8740849495
 20
56.44756212
 10
-31.4522060772
 20
56.4857448797
  0
LWPOLYLINE
  5
31D
100
AcDbEntity
  8
0
100
AcDbPolyline
 62
7
  6
CONTINUOUS
 90
3
 70
0
 10
-27.242874917
 20
55.3763138824
 10
-27.3432292572
 20
55.420977056
 10
-27.5827391817
 20
55.5263735727
  0
LWPOLYLINE
  5
31E
100
AcDbEntity
  8
ASSI
100
AcDbPolyline
 62
7
  6
CONTINUOUS
 90
3
 70
0
 10
-27.242874917
 20
55.3763138824
 10
-27.3432292572
 20
55.420977056
 10
-27.5827391817
 20
55.5263735727
  0
LWPOLYLINE
  5
31F
100
AcDbEntity
  8
0
100
AcDbPolyline
 62
7
  6
CONTINUOUS
 90
4
 70
0
 10
-24.0177931604
 20
53.8513500328
 10
-25.0816409963
 20
54.3730648078
 10
-26.1931641547
 20
54.8985642878
 10
-27.2428744902
 20
55.3763136919
  0
LWPOLYLINE
  5
320
100
AcDbEntity
  8
ASSI
100
AcDbPolyline
 62
7
  6
CONTINUOUS
 90
4
 70
0
 10
-24.0177931604
 20
53.8513500328
 10
-25.0816409963
 20
54.3730648078
 10
-26.1931641547
 20
54.8985642878
 10
-27.2428744902
 20
55.3763136919
  0
LINE
  5
321
100
AcDbEntity
  8
0
100
AcDbLine
 62
7
  6
CONTINUOUS
 10
-23.7348671441
 20
53.7099843176
 11
-24.0177919149
 21
53.8513494113
  0
LINE
  5
322
100
AcDbEntity
  8
ASSI
100
AcDbLine
 62
7
  6
CONTINUOUS
 10
-23.7348671441
 20
53.7099843176
 11
-24.0177919149
 21
53.8513494113
  0
LWPOLYLINE
  5
323
100
AcDbEntity
  8
0
100
AcDbPolyline
 62
7
  6
CONTINUOUS
 90
4
 70
0
 10
3.952639549
 20
38.764655201
 10
-6.1383022257
 20
44.4543847962
 10
-15.4214814391
 20
49.4465953264
 10
-23.7347303193
 20
53.7099158549
  0
LWPOLYLINE
  5
324
100
AcDbEntity
  8
ASSI
100
AcDbPolyline
 62
7
  6
CONTINUOUS
 90
4
 70
0
 10
3.952639549
 20
38.764655201
 10
-6.1383022257
 20
44.4543847962
 10
-15.4214814391
 20
49.4465953264
 10
-23.7347303193
 20
53.7099158549
  0
LINE
  5
325
100
AcDbEntity
  8
0
100
AcDbLine
 62
7
  6
CONTINUOUS
 10
3.9525976617
 20
38.764679379
 11
3.952639549
 21
38.764655201
  0
LINE
  5
326
100
AcDbEntity
  8
ASSI
100
AcDbLine
 62
7
  6
CONTINUOUS
 10
3.9525976617
 20
38.764679379
 11
3.952639549
 21
38.764655201
  0
LWPOLYLINE
  5
327
100
AcDbEntity
  8
0
100
AcDbPolyline
 62
7
  6
CONTINUOUS
 90
4
 70
0
 10
31.4334813903
 20
21.8599906172
 10
23.1383037313
 20
27.1842144835
 10
13.9579303226
 20
32.8514602882
 10
3.9525976617
 20
38.764679379
  0
LWPOLYLINE
  5
328
100
AcDbEntity
  8
ASSI
100
AcDbPolyline
 62
7
  6
CONTINUOUS
 90
4
 70
0
 10
31.4334813903
 20
21.8599906172
 10
23.1383037313
 20
27.1842144835
 10
13.9579303226
 20
32.8514602882
 10
3.9525976617
 20
38.764679379
  0
LINE
  5
329
100
AcDbEntity
  8
0
100
AcDbLine
 62
7
  6
CONTINUOUS
 10
31.7167755651
 20
21.6746690577
 11
31.4333973744
 21
21.8600455459
  0
LINE
  5
32A
100
AcDbEntity
  8
ASSI
100
AcDbLine
 62
7
  6
CONTINUOUS
 10
31.7167755651
 20
21.6746690577
 11
31.4333973744
 21
21.8600455459
  0
LWPOLYLINE
  5
32B
100
AcDbEntity
  8
0
100
AcDbPolyline
 62
7
  6
CONTINUOUS
 90
4
 70
0
 10
34.9031762995
 20
19.5084476318
 10
33.871552765
 20
20.2273521805
 10
32.7734449745
 20
20.9741025508
 10
31.7167727999
 20
21.6746708679
  0
LWPOLYLINE
  5
32C
100
AcDbEntity
  8
ASSI
100
AcDbPolyline
 62
7
  6
CONTINUOUS
 90
4
 70
0
 10
34.9031762995
 20
19.5084476318
 10
33.871552765
 20
20.2273521805
 10
32.7734449745
 20
20.9741025508
 10
31.7167727999
 20
21.6746708679
  0
LINE
  5
32D
100
AcDbEntity
  8
0
100
AcDbLine
 62
7
  6
CONTINUOUS
 10
35.2334963696
 20
19.274704441
 11
34.9031741831
 21
19.5084491239
  0
LINE
  5
32E
100
AcDbEntity
  8
ASSI
100
AcDbLine
 62
7
  6
CONTINUOUS
 10
35.2334963696
 20
19.274704441
 11
34.9031741831
 21
19.5084491239
  0
LWPOLYLINE
  5
32F
100
AcDbEntity
  8
RACCORDO
100
AcDbPolyline
 62
7
  6
CONTINUOUS
 90
4
 70
0
 10
22.5540692164
 20
-31.4871834027
 10
22.5417031225
 20
-31.5406955791
 10
22.5297835083
 20
-31.5692992721
 10
22.5276730944
 20
-31.5728371787
  0
LWPOLYLINE
  5
330
100
AcDbEntity
  8
ASSI
100
AcDbPolyline
 62
7
  6
CONTINUOUS
 90
4
 70
0
 10
22.5540692164
 20
-31.4871834027
 10
22.5417031225
 20
-31.5406955791
 10
22.5297835083
 20
-31.5692992721
 10
22.5276730944
 20
-31.5728371787
  0
LINE
  5
331
100
AcDbEntity
  8
0
100
AcDbLine
 62
250
  6
CONTINUOUS
 10
22.5557646077
 20
-31.2206529779
 11
22.0701925296
 21
-31.5254937574
  0
LINE
  5
332
100
AcDbEntity
  8
ASSI
100
AcDbLine
 62
250
  6
CONTINUOUS
 10
22.5557646077
 20
-31.2206529779
 11
22.0701925296
 21
-31.5254937574
  0
LINE
  5
333
100
AcDbEntity
  8
DRAFT
100
AcDbLine
 62
7
  6
CONTINUOUS
 10
45.8125246396
 20
-23.7826718244
 11
45.8141096711
 21
-23.855302534
  0
LINE
  5
334
100
AcDbEntity
  8
ASSI
100
AcDbLine
 62
7
  6
CONTINUOUS
 10
45.8125246396
 20
-23.7826718244
 11
45.8141096711
 21
-23.855302534
  0
LWPOLYLINE
  5
335
100
AcDbEntity
  8
0
100
AcDbPolyline
 62
7
  6
CONTINUOUS
 90
4
 70
0
 10
45.8140540218
 20
-17.548165283
 10
45.7628505833
 20
-14.8515314644
 10
45.5500562797
 20
-8.9844413709
 10
45.4772813677
 20
-7.5477097347
  0
LWPOLYLINE
  5
336
100
AcDbEntity
  8
ASSI
100
AcDbPolyline
 62
7
  6
CONTINUOUS
 90
4
 70
0
 10
45.8140540218
 20
-17.548165283
 10
45.7628505833
 20
-14.8515314644
 10
45.5500562797
 20
-8.9844413709
 10
45.4772813677
 20
-7.5477097347
  0
LWPOLYLINE
  5
337
100
AcDbEntity
  8
0
100
AcDbPolyline
 62
7
  6
CONTINUOUS
 90
4
 70
0
 10
44.9393911574
 20
-40.7284295872
 10
45.4235954376
 20
-34.4080162639
 10
45.7298540951
 20
-27.6922150316
 10
45.8141225181
 20
-23.8553039767
  0
LWPOLYLINE
  5
338
100
AcDbEntity
  8
ASSI
100
AcDbPolyline
 62
7
  6
CONTINUOUS
 90
4
 70
0
 10
44.9393911574
 20
-40.7284295872
 10
45.4235954376
 20
-34.4080162639
 10
45.7298540951
 20
-27.6922150316
 10
45.8141225181
 20
-23.8553039767
  0
LINE
  5
339
100
AcDbEntity
  8
0
100
AcDbLine
 62
7
  6
CONTINUOUS
 10
44.9258958841
 20
-40.8720941732
 11
44.9393881957
 21
-40.7284615767
  0
LINE
  5
33A
100
AcDbEntity
  8
ASSI
100
AcDbLine
 62
7
  6
CONTINUOUS
 10
44.9258958841
 20
-40.8720941732
 11
44.9393881957
 21
-40.7284615767
  0
LWPOLYLINE
  5
33B
100
AcDbEntity
  8
0
100
AcDbPolyline
 62
7
  6
CONTINUOUS
 90
4
 70
0
 10
44.5525328288
 20
-43.8201018872
 10
44.6953137684
 20
-42.8576699482
 10
44.8244437384
 20
-41.8357453751
 10
44.9258962926
 20
-40.8720898857
  0
LWPOLYLINE
  5
33C
100
AcDbEntity
  8
ASSI
100
AcDbPolyline
 62
7
  6
CONTINUOUS
 90
4
 70
0
 10
44.5525328288
 20
-43.8201018872
 10
44.6953137684
 20
-42.8576699482
 10
44.8244437384
 20
-41.8357453751
 10
44.9258962926
 20
-40.8720898857
  0
LINE
  5
33D
100
AcDbEntity
  8
0
100
AcDbLine
 62
7
  6
CONTINUOUS
 10
44.5427815288
 20
-43.8805064332
 11
44.5525311299
 21
-43.8201125529
  0
LINE
  5
33E
100
AcDbEntity
  8
ASSI
100
AcDbLine
 62
7
  6
CONTINUOUS
 10
44.5427815288
 20
-43.8805064332
 11
44.5525311299
 21
-43.8201125529
  0
LINE
  5
33F
100
AcDbEntity
  8
RACCORDO
100
AcDbLine
 62
250
  6
CONTINUOUS
 10
44.2644259554
 20
-42.5748853753
 11
41.7243386165
 21
-43.8814265758
  0
LINE
  5
340
100
AcDbEntity
  8
ASSI
100
AcDbLine
 62
250
  6
CONTINUOUS
 10
44.2644259554
 20
-42.5748853753
 11
41.7243386165
 21
-43.8814265758
  0
LWPOLYLINE
  5
341
100
AcDbEntity
  8
0
100
AcDbPolyline
 62
7
  6
CONTINUOUS
 90
4
 70
0
 10
43.5699175108
 20
-46.9886514893
 10
43.8970665393
 20
-46.2700346452
 10
44.2824546629
 20
-45.0926798053
 10
44.5427820022
 20
-43.8805035391
  0
LWPOLYLINE
  5
342
100
AcDbEntity
  8
ASSI
100
AcDbPolyline
 62
7
  6
CONTINUOUS
 90
4
 70
0
 10
43.5699175108
 20
-46.9886514893
 10
43.8970665393
 20
-46.2700346452
 10
44.2824546629
 20
-45.0926798053
 10
44.5427820022
 20
-43.8805035391
  0
LINE
  5
343
100
AcDbEntity
  8
RACCORDO
100
AcDbLine
 62
250
  6
CONTINUOUS
 10
43.884554148
 20
-45.6214332618
 11
41.5220180634
 21
-46.8288837916
  0
LINE
  5
344
100
AcDbEntity
  8
ASSI
100
AcDbLine
 62
250
  6
CONTINUOUS
 10
43.884554148
 20
-45.6214332618
 11
41.5220180634
 21
-46.8288837916
  0
LINE
  5
345
100
AcDbEntity
  8
RACCORDO
100
AcDbLine
 62
7
  6
CONTINUOUS
 10
38.4034220934
 20
-52.2676510177
 11
38.4039128559
 21
-52.2674081595
  0
LINE
  5
346
100
AcDbEntity
  8
DRAFT
100
AcDbLine
 62
7
  6
CONTINUOUS
 10
40.2089644356
 20
-51.3742538818
 11
38.4031521207
 21
-52.267784603
  0
LINE
  5
347
100
AcDbEntity
  8
ASSI
100
AcDbLine
 62
7
  6
CONTINUOUS
 10
40.2089644356
 20
-51.3742538818
 11
38.4031521207
 21
-52.267784603
  0
ARC
  5
348
100
AcDbEntity
  8
RACCORDO
100
AcDbCircle
 62
250
  6
CONTINUOUS
 10
-1335.1839161182
 20
-2288.5120576242
 40
2665.241621613
100
AcDbArc
 50
59.4029319943
 51
59.674232714
  0
ARC
  5
349
100
AcDbEntity
  8
ASSI
100
AcDbCircle
 62
250
  6
CONTINUOUS
 10
-1335.1839161182
 20
-2288.5120576242
 40
2665.241621613
100
AcDbArc
 50
59.4029319943
 51
59.674232714
  0
ARC
  5
34A
100
AcDbEntity
  8
RACCORDO
100
AcDbCircle
 62
250
  6
CONTINUOUS
 10
-1333.6367865777
 20
-2285.3504241322
 40
2661.948687402
100
AcDbArc
 50
59.3917849846
 51
59.6733640975
  0
ARC
  5
34B
100
AcDbEntity
  8
ASSI
100
AcDbCircle
 62
250
  6
CONTINUOUS
 10
-1333.6367865777
 20
-2285.3504241322
 40
2661.948687402
100
AcDbArc
 50
59.3917849846
 51
59.6733640975
  0
ARC
  5
34C
100
AcDbEntity
  8
RACCORDO
100
AcDbCircle
 62
250
  6
CONTINUOUS
 10
-1229.6949902379
 20
-2107.4502356729
 40
2455.6917438814
100
AcDbArc
 50
59.6656871703
 51
60.33111596
  0
ARC
  5
34D
100
AcDbEntity
  8
ASSI
100
AcDbCircle
 62
250
  6
CONTINUOUS
 10
-1229.6949902379
 20
-2107.4502356729
 40
2455.6917438814
100
AcDbArc
 50
59.6656871703
 51
60.33111596
  0
ARC
  5
34E
100
AcDbEntity
  8
RACCORDO
100
AcDbCircle
 62
250
  6
CONTINUOUS
 10
-1214.0260273603
 20
-2079.8549616161
 40
2424.178157234
100
AcDbArc
 50
59.6611382105
 51
60.3356649198
  0
ARC
  5
34F
100
AcDbEntity
  8
ASSI
100
AcDbCircle
 62
250
  6
CONTINUOUS
 10
-1214.0260273603
 20
-2079.8549616161
 40
2424.178157234
100
AcDbArc
 50
59.6611382105
 51
60.3356649198
  0
ARC
  5
350
100
AcDbEntity
  8
RACCORDO
100
AcDbCircle
 62
250
  6
CONTINUOUS
 10
-1134.9494462608
 20
-1941.2412259627
 40
2264.3748602918
100
AcDbArc
 50
60.3324613358
 51
60.635005168
  0
ARC
  5
351
100
AcDbEntity
  8
ASSI
100
AcDbCircle
 62
250
  6
CONTINUOUS
 10
-1134.9494462608
 20
-1941.2412259627
 40
2264.3748602918
100
AcDbArc
 50
60.3324613358
 51
60.635005168
  0
ARC
  5
352
100
AcDbEntity
  8
RACCORDO
100
AcDbCircle
 62
250
  6
CONTINUOUS
 10
-1131.5701581389
 20
-1934.8867331867
 40
2257.4006189666
100
AcDbArc
 50
60.3331728605
 51
60.6475698509
  0
ARC
  5
353
100
AcDbEntity
  8
ASSI
100
AcDbCircle
 62
250
  6
CONTINUOUS
 10
-1131.5701581389
 20
-1934.8867331867
 40
2257.4006189666
100
AcDbArc
 50
60.3331728605
 51
60.6475698509
  0
ARC
  5
354
100
AcDbEntity
  8
RACCORDO
100
AcDbCircle
 62
250
  6
CONTINUOUS
 10
-469.453215711
 20
-776.2459964927
 40
939.6200399887
100
AcDbArc
 50
58.3067028289
 51
61.6901003015
  0
ARC
  5
355
100
AcDbEntity
  8
ASSI
100
AcDbCircle
 62
250
  6
CONTINUOUS
 10
-469.453215711
 20
-776.2459964927
 40
939.6200399887
100
AcDbArc
 50
58.3067028289
 51
61.6901003015
  0
ARC
  5
356
100
AcDbEntity
  8
RACCORDO
100
AcDbCircle
 62
250
  6
CONTINUOUS
 10
-468.1818110947
 20
-774.0167944258
 40
936.6833109484
100
AcDbArc
 50
58.3017775793
 51
61.695025551
  0
ARC
  5
357
100
AcDbEntity
  8
ASSI
100
AcDbCircle
 62
250
  6
CONTINUOUS
 10
-468.1818110947
 20
-774.0167944258
 40
936.6833109484
100
AcDbArc
 50
58.3017775793
 51
61.695025551
  0
ARC
  5
358
100
AcDbEntity
  8
RACCORDO
100
AcDbCircle
 62
250
  6
CONTINUOUS
 10
-429.5965375899
 20
-24.5557798463
 40
471.4227445618
100
AcDbArc
 50
0.5952805248
 51
2.4932708485
  0
ARC
  5
359
100
AcDbEntity
  8
ASSI
100
AcDbCircle
 62
250
  6
CONTINUOUS
 10
-429.5965375899
 20
-24.5557798463
 40
471.4227445618
100
AcDbArc
 50
0.5952805248
 51
2.4932708485
  0
ARC
  5
35A
100
AcDbEntity
  8
RACCORDO
100
AcDbCircle
 62
250
  6
CONTINUOUS
 10
-349.7117969978
 20
-24.1291291811
 40
391.5380905506
100
AcDbArc
 50
357.2638692801
 51
0.6543016426
  0
ARC
  5
35B
100
AcDbEntity
  8
ASSI
100
AcDbCircle
 62
250
  6
CONTINUOUS
 10
-349.7117969978
 20
-24.1291291811
 40
391.5380905506
100
AcDbArc
 50
357.2638692801
 51
0.6543016426
  0
ARC
  5
35C
100
AcDbEntity
  8
DRAFT
100
AcDbCircle
 62
7
  6
CONTINUOUS
 10
-216.1371454397
 20
-21.5384878541
 40
261.9882634512
100
AcDbArc
 50
3.0611830655
 51
4.7723934115
  0
ARC
  5
35D
100
AcDbEntity
  8
ASSI
100
AcDbCircle
 62
7
  6
CONTINUOUS
 10
-216.1371454397
 20
-21.5384878541
 40
261.9882634512
100
AcDbArc
 50
3.0611830655
 51
4.7723934115
  0
ARC
  5
35E
100
AcDbEntity
  8
DRAFT
100
AcDbCircle
 62
7
  6
CONTINUOUS
 10
-198.3415816959
 20
-21.9583500718
 40
243.6129463253
100
AcDbArc
 50
0.0001449554
 51
0.6745482189
  0
ARC
  5
35F
100
AcDbEntity
  8
ASSI
100
AcDbCircle
 62
7
  6
CONTINUOUS
 10
-198.3415816959
 20
-21.9583500718
 40
243.6129463253
100
AcDbArc
 50
0.0001449554
 51
0.6745482189
  0
ARC
  5
360
100
AcDbEntity
  8
DRAFT
100
AcDbCircle
 62
7
  6
CONTINUOUS
 10
-192.8049098067
 20
-21.9703729651
 40
238.0762747709
100
AcDbArc
 50
359.3176464013
 51
0.0030417733
  0
ARC
  5
361
100
AcDbEntity
  8
ASSI
100
AcDbCircle
 62
7
  6
CONTINUOUS
 10
-192.8049098067
 20
-21.9703729651
 40
238.0762747709
100
AcDbArc
 50
359.3176464013
 51
0.0030417733
  0
ARC
  5
362
100
AcDbEntity
  8
RACCORDO
100
AcDbCircle
 62
250
  6
CONTINUOUS
 10
-32.0123424894
 20
-76.6636048507
 40
114.5505632114
100
AcDbArc
 50
56.1785524951
 51
58.3429498554
  0
ARC
  5
363
100
AcDbEntity
  8
ASSI
100
AcDbCircle
 62
250
  6
CONTINUOUS
 10
-32.0123424894
 20
-76.6636048507
 40
114.5505632114
100
AcDbArc
 50
56.1785524951
 51
58.3429498554
  0
ARC
  5
364
100
AcDbEntity
  8
RACCORDO
100
AcDbCircle
 62
250
  6
CONTINUOUS
 10
-31.9887333643
 20
-76.6057583947
 40
114.1166048583
100
AcDbArc
 50
56.1744490729
 51
58.3422074269
  0
ARC
  5
365
100
AcDbEntity
  8
ASSI
100
AcDbCircle
 62
250
  6
CONTINUOUS
 10
-31.9887333643
 20
-76.6057583947
 40
114.1166048583
100
AcDbArc
 50
56.1744490729
 51
58.3422074269
  0
ARC
  5
366
100
AcDbEntity
  8
DRAFT
100
AcDbCircle
 62
7
  6
CONTINUOUS
 10
-31.694427854
 20
-72.0936107121
 40
112.4075954571
100
AcDbArc
 50
54.6113070398
 51
56.7928597834
  0
ARC
  5
367
100
AcDbEntity
  8
ASSI
100
AcDbCircle
 62
7
  6
CONTINUOUS
 10
-31.694427854
 20
-72.0936107121
 40
112.4075954571
100
AcDbArc
 50
54.6113070398
 51
56.7928597834
  0
ARC
  5
368
100
AcDbEntity
  8
RACCORDO
100
AcDbCircle
 62
250
  6
CONTINUOUS
 10
-22.7677007565
 20
-40.9805346584
 40
64.1627726613
100
AcDbArc
 50
354.7848806456
 51
357.4154370686
  0
ARC
  5
369
100
AcDbEntity
  8
ASSI
100
AcDbCircle
 62
250
  6
CONTINUOUS
 10
-22.7677007565
 20
-40.9805346584
 40
64.1627726613
100
AcDbArc
 50
354.7848806456
 51
357.4154370686
  0
ARC
  5
36A
100
AcDbEntity
  8
RACCORDO
100
AcDbCircle
 62
250
  6
CONTINUOUS
 10
-22.2678247916
 20
-40.9695235293
 40
64.0583808268
100
AcDbArc
 50
354.751872986
 51
357.3946068432
  0
ARC
  5
36B
100
AcDbEntity
  8
ASSI
100
AcDbCircle
 62
250
  6
CONTINUOUS
 10
-22.2678247916
 20
-40.9695235293
 40
64.0583808268
100
AcDbArc
 50
354.751872986
 51
357.3946068432
  0
ARC
  5
36C
100
AcDbEntity
  8
RACCORDO
100
AcDbCircle
 62
250
  6
CONTINUOUS
 10
-67.2948875913
 20
-7.1648659942
 40
108.7109823763
100
AcDbArc
 50
2.283048714
 51
4.1615558315
  0
ARC
  5
36D
100
AcDbEntity
  8
ASSI
100
AcDbCircle
 62
250
  6
CONTINUOUS
 10
-67.2948875913
 20
-7.1648659942
 40
108.7109823763
100
AcDbArc
 50
2.283048714
 51
4.1615558315
  0
ARC
  5
36E
100
AcDbEntity
  8
RACCORDO
100
AcDbCircle
 62
250
  6
CONTINUOUS
 10
-66.7236490126
 20
-7.1787198036
 40
108.5355352389
100
AcDbArc
 50
2.3014585743
 51
4.1884115894
  0
ARC
  5
36F
100
AcDbEntity
  8
ASSI
100
AcDbCircle
 62
250
  6
CONTINUOUS
 10
-66.7236490126
 20
-7.1787198036
 40
108.5355352389
100
AcDbArc
 50
2.3014585743
 51
4.1884115894
  0
ARC
  5
370
100
AcDbEntity
  8
DRAFT
100
AcDbCircle
 62
7
  6
CONTINUOUS
 10
-64.2579903675
 20
-22.6604250901
 40
85.8554980251
100
AcDbArc
 50
63.396110711
 51
66.0060780283
  0
ARC
  5
371
100
AcDbEntity
  8
ASSI
100
AcDbCircle
 62
7
  6
CONTINUOUS
 10
-64.2579903675
 20
-22.6604250901
 40
85.8554980251
100
AcDbArc
 50
63.396110711
 51
66.0060780283
  0
ARC
  5
372
100
AcDbEntity
  8
RACCORDO
100
AcDbCircle
 62
250
  6
CONTINUOUS
 10
-67.7515560011
 20
-21.9463426017
 40
85.0290113468
100
AcDbArc
 50
61.7899676357
 51
64.3775619278
  0
ARC
  5
373
100
AcDbEntity
  8
ASSI
100
AcDbCircle
 62
250
  6
CONTINUOUS
 10
-67.7515560011
 20
-21.9463426017
 40
85.0290113468
100
AcDbArc
 50
61.7899676357
 51
64.3775619278
  0
ARC
  5
374
100
AcDbEntity
  8
RACCORDO
100
AcDbCircle
 62
250
  6
CONTINUOUS
 10
-67.773626829
 20
-21.9506208615
 40
84.6717051912
100
AcDbArc
 50
61.7909771148
 51
64.3831718055
  0
ARC
  5
375
100
AcDbEntity
  8
ASSI
100
AcDbCircle
 62
250
  6
CONTINUOUS
 10
-67.773626829
 20
-21.9506208615
 40
84.6717051912
100
AcDbArc
 50
61.7909771148
 51
64.3831718055
  0
ARC
  5
376
100
AcDbEntity
  8
DRAFT
100
AcDbCircle
 62
7
  6
CONTINUOUS
 10
-25.1106823463
 20
-7.2825212765
 40
69.6169902525
100
AcDbArc
 50
4.7775755678
 51
7.6632496582
  0
ARC
  5
377
100
AcDbEntity
  8
ASSI
100
AcDbCircle
 62
7
  6
CONTINUOUS
 10
-25.1106823463
 20
-7.2825212765
 40
69.6169902525
100
AcDbArc
 50
4.7775755678
 51
7.6632496582
  0
ARC
  5
378
100
AcDbEntity
  8
0
100
AcDbCircle
 62
7
  6
CONTINUOUS
 10
-22.5837713048
 20
-5.3919752899
 40
67.7626112615
100
AcDbArc
 50
4.9138684147
 51
7.6589330078
  0
ARC
  5
379
100
AcDbEntity
  8
ASSI
100
AcDbCircle
 62
7
  6
CONTINUOUS
 10
-22.5837713048
 20
-5.3919752899
 40
67.7626112615
100
AcDbArc
 50
4.9138684147
 51
7.6589330078
  0
ARC
  5
37A
100
AcDbEntity
  8
0
100
AcDbCircle
 62
7
  6
CONTINUOUS
 10
-19.9429983773
 20
-5.1528337817
 40
65.1110609652
100
AcDbArc
 50
4.7671622519
 51
4.9032568457
  0
ARC
  5
37B
100
AcDbEntity
  8
ASSI
100
AcDbCircle
 62
7
  6
CONTINUOUS
 10
-19.9429983773
 20
-5.1528337817
 40
65.1110609652
100
AcDbArc
 50
4.7671622519
 51
4.9032568457
  0
ARC
  5
37C
100
AcDbEntity
  8
RACCORDO
100
AcDbCircle
 62
250
  6
CONTINUOUS
 10
-26.6437054225
 20
-3.463161608
 40
1.2949946113
100
AcDbArc
 50
1.4661079276
 51
1.6911224134
  0
ARC
  5
37D
100
AcDbEntity
  8
ASSI
100
AcDbCircle
 62
250
  6
CONTINUOUS
 10
-26.6437054225
 20
-3.463161608
 40
1.2949946113
100
AcDbArc
 50
1.4661079276
 51
1.6911224134
  0
ARC
  5
37E
100
AcDbEntity
  8
0
100
AcDbCircle
 62
250
  6
CONTINUOUS
 10
42.756950631
 20
-43.5340737487
 40
1.8182209782
100
AcDbArc
 50
349.0378667517
 51
350.948745189
  0
ARC
  5
37F
100
AcDbEntity
  8
ASSI
100
AcDbCircle
 62
250
  6
CONTINUOUS
 10
42.756950631
 20
-43.5340737487
 40
1.8182209782
100
AcDbArc
 50
349.0378667517
 51
350.948745189
  0
ARC
  5
380
100
AcDbEntity
  8
0
100
AcDbCircle
 62
250
  6
CONTINUOUS
 10
43.552729222
 20
-40.5979963256
 40
1.3928414744
100
AcDbArc
 50
348.7779978607
 51
350.7244960932
  0
ARC
  5
381
100
AcDbEntity
  8
ASSI
100
AcDbCircle
 62
250
  6
CONTINUOUS
 10
43.552729222
 20
-40.5979963256
 40
1.3928414744
100
AcDbArc
 50
348.7779978607
 51
350.7244960932
  0
ARC
  5
382
100
AcDbEntity
  8
0
100
AcDbCircle
 62
250
  6
CONTINUOUS
 10
43.5807126746
 20
-40.6024431761
 40
1.364507167
100
AcDbArc
 50
350.7193850966
 51
354.7009247104
  0
ARC
  5
383
100
AcDbEntity
  8
ASSI
100
AcDbCircle
 62
250
  6
CONTINUOUS
 10
43.5807126746
 20
-40.6024431761
 40
1.364507167
100
AcDbArc
 50
350.7193850966
 51
354.7009247104
  0
ARC
  5
384
100
AcDbEntity
  8
DRAFT
100
AcDbCircle
 62
7
  6
CONTINUOUS
 10
-2.2004374996
 20
-38.3281727564
 40
46.6585265944
100
AcDbArc
 50
351.0071378216
 51
354.7778909658
  0
ARC
  5
385
100
AcDbEntity
  8
ASSI
100
AcDbCircle
 62
7
  6
CONTINUOUS
 10
-2.2004374996
 20
-38.3281727564
 40
46.6585265944
100
AcDbArc
 50
351.0071378216
 51
354.7778909658
  0
ARC
  5
386
100
AcDbEntity
  8
RACCORDO
100
AcDbCircle
 62
250
  6
CONTINUOUS
 10
37.3215945696
 20
-37.8910632787
 40
15.0767047998
100
AcDbArc
 50
247.4346912384
 51
247.8840903937
  0
ARC
  5
387
100
AcDbEntity
  8
ASSI
100
AcDbCircle
 62
250
  6
CONTINUOUS
 10
37.3215945696
 20
-37.8910632787
 40
15.0767047998
100
AcDbArc
 50
247.4346912384
 51
247.8840903937
  0
ARC
  5
388
100
AcDbEntity
  8
0
100
AcDbCircle
 62
250
  6
CONTINUOUS
 10
43.3169400836
 20
-20.0520575733
 40
2.7297210421
100
AcDbArc
 50
312.445478725
 51
315.7235375126
  0
ARC
  5
389
100
AcDbEntity
  8
ASSI
100
AcDbCircle
 62
250
  6
CONTINUOUS
 10
43.3169400836
 20
-20.0520575733
 40
2.7297210421
100
AcDbArc
 50
312.445478725
 51
315.7235375126
  0
ARC
  5
38A
100
AcDbEntity
  8
RACCORDO
100
AcDbCircle
 62
7
  6
CONTINUOUS
 10
21.8567743319
 20
-31.445057388
 40
0.7061626646
100
AcDbArc
 50
349.0160485434
 51
351.7233216534
  0
ARC
  5
38B
100
AcDbEntity
  8
ASSI
100
AcDbCircle
 62
7
  6
CONTINUOUS
 10
21.8567743319
 20
-31.445057388
 40
0.7061626646
100
AcDbArc
 50
349.0160485434
 51
351.7233216534
  0
ARC
  5
38C
100
AcDbEntity
  8
0
100
AcDbCircle
 62
7
  6
CONTINUOUS
 10
1.1252773653
 20
-24.7999192766
 40
0.6375755404
100
AcDbArc
 50
36.8957041047
 51
40.6435440735
  0
ARC
  5
38D
100
AcDbEntity
  8
ASSI
100
AcDbCircle
 62
7
  6
CONTINUOUS
 10
1.1252773653
 20
-24.7999192766
 40
0.6375755404
100
AcDbArc
 50
36.8957041047
 51
40.6435440735
  0
ARC
  5
38E
100
AcDbEntity
  8
0
100
AcDbCircle
 62
7
  6
CONTINUOUS
 10
1.1753918815
 20
-24.7571642894
 40
0.5717013516
100
AcDbArc
 50
40.6636545416
 51
42.9325341551
  0
ARC
  5
38F
100
AcDbEntity
  8
ASSI
100
AcDbCircle
 62
7
  6
CONTINUOUS
 10
1.1753918815
 20
-24.7571642894
 40
0.5717013516
100
AcDbArc
 50
40.6636545416
 51
42.9325341551
  0
ARC
  5
390
100
AcDbEntity
  8
RACCORDO
100
AcDbCircle
 62
250
  6
CONTINUOUS
 10
22.9082724648
 20
-31.2572999311
 40
0.3748239543
100
AcDbArc
 50
216.7051343645
 51
218.2724209805
  0
ARC
  5
391
100
AcDbEntity
  8
ASSI
100
AcDbCircle
 62
250
  6
CONTINUOUS
 10
22.9082724648
 20
-31.2572999311
 40
0.3748239543
100
AcDbArc
 50
216.7051343645
 51
218.2724209805
  0
ARC
  5
392
100
AcDbEntity
  8
RACCORDO
100
AcDbCircle
 62
250
  6
CONTINUOUS
 10
22.3815207515
 20
-31.3335437654
 40
0.2800608444
100
AcDbArc
 50
296.7060101258
 51
301.6512472686
  0
ARC
  5
393
100
AcDbEntity
  8
ASSI
100
AcDbCircle
 62
250
  6
CONTINUOUS
 10
22.3815207515
 20
-31.3335437654
 40
0.2800608444
100
AcDbArc
 50
296.7060101258
 51
301.6512472686
  0
ARC
  5
394
100
AcDbEntity
  8
RACCORDO
100
AcDbCircle
 62
250
  6
CONTINUOUS
 10
7.4290554775
 20
10.7688828328
 40
50.3184404442
100
AcDbArc
 50
187.1235048692
 51
190.9047024639
  0
ARC
  5
395
100
AcDbEntity
  8
ASSI
100
AcDbCircle
 62
250
  6
CONTINUOUS
 10
7.4290554775
 20
10.7688828328
 40
50.3184404442
100
AcDbArc
 50
187.1235048692
 51
190.9047024639
  0
ARC
  5
396
100
AcDbEntity
  8
RACCORDO
100
AcDbCircle
 62
250
  6
CONTINUOUS
 10
-27.3164625704
 20
32.0548271817
 40
1.9679647106
100
AcDbArc
 50
358.389902628
 51
358.5422737856
  0
ARC
  5
397
100
AcDbEntity
  8
ASSI
100
AcDbCircle
 62
250
  6
CONTINUOUS
 10
-27.3164625704
 20
32.0548271817
 40
1.9679647106
100
AcDbArc
 50
358.389902628
 51
358.5422737856
  0
ARC
  5
398
100
AcDbEntity
  8
0
100
AcDbCircle
 62
7
  6
CONTINUOUS
 10
-21.8349579891
 20
5.1031741509
 40
0.5037905258
100
AcDbArc
 50
98.2231839935
 51
118.1674792974
  0
ARC
  5
399
100
AcDbEntity
  8
ASSI
100
AcDbCircle
 62
7
  6
CONTINUOUS
 10
-21.8349579891
 20
5.1031741509
 40
0.5037905258
100
AcDbArc
 50
98.2231839935
 51
118.1674792974
  0
ARC
  5
39A
100
AcDbEntity
  8
0
100
AcDbCircle
 62
7
  6
CONTINUOUS
 10
-21.8362851252
 20
5.10647509
 40
0.5003615621
100
AcDbArc
 50
60.0076800124
 51
98.1220759433
  0
ARC
  5
39B
100
AcDbEntity
  8
ASSI
100
AcDbCircle
 62
7
  6
CONTINUOUS
 10
-21.8362851252
 20
5.10647509
 40
0.5003615621
100
AcDbArc
 50
60.0076800124
 51
98.1220759433
  0
ARC
  5
39C
100
AcDbEntity
  8
0
100
AcDbCircle
 62
250
  6
CONTINUOUS
 10
-21.670397124
 20
5.3937740129
 40
0.1686074091
100
AcDbArc
 50
60.027467798
 51
70.2271410218
  0
ARC
  5
39D
100
AcDbEntity
  8
ASSI
100
AcDbCircle
 62
250
  6
CONTINUOUS
 10
-21.670397124
 20
5.3937740129
 40
0.1686074091
100
AcDbArc
 50
60.027467798
 51
70.2271410218
  0
ARC
  5
39E
100
AcDbEntity
  8
RACCORDO
100
AcDbCircle
 62
250
  6
CONTINUOUS
 10
-2.8976376334
 20
40.3976955742
 40
39.9394970427
100
AcDbArc
 50
168.000088091
 51
172.5611098026
  0
ARC
  5
39F
100
AcDbEntity
  8
ASSI
100
AcDbCircle
 62
250
  6
CONTINUOUS
 10
-2.8976376334
 20
40.3976955742
 40
39.9394970427
100
AcDbArc
 50
168.000088091
 51
172.5611098026
  0
ARC
  5
3A0
100
AcDbEntity
  8
0
100
AcDbCircle
 62
250
  6
CONTINUOUS
 10
-28.2892585123
 20
53.0399590453
 40
2.559975108
100
AcDbArc
 50
65.8738168711
 51
74.1688752145
  0
ARC
  5
3A1
100
AcDbEntity
  8
ASSI
100
AcDbCircle
 62
250
  6
CONTINUOUS
 10
-28.2892585123
 20
53.0399590453
 40
2.559975108
100
AcDbArc
 50
65.8738168711
 51
74.1688752145
  0
ARC
  5
3A2
100
AcDbEntity
  8
0
100
AcDbCircle
 62
250
  6
CONTINUOUS
 10
-24.7489476454
 20
51.6868707688
 40
2.2630394815
100
AcDbArc
 50
63.3777986016
 51
71.3237577544
  0
ARC
  5
3A3
100
AcDbEntity
  8
ASSI
100
AcDbCircle
 62
250
  6
CONTINUOUS
 10
-24.7489476454
 20
51.6868707688
 40
2.2630394815
100
AcDbArc
 50
63.3777986016
 51
71.3237577544
  0
ARC
  5
3A4
100
AcDbEntity
  8
RACCORDO
100
AcDbCircle
 62
250
  6
CONTINUOUS
 10
56.3558824297
 20
16.8628699174
 40
99.623317402
100
AcDbArc
 50
186.4382766331
 51
187.0559488864
  0
ARC
  5
3A5
100
AcDbEntity
  8
ASSI
100
AcDbCircle
 62
250
  6
CONTINUOUS
 10
56.3558824297
 20
16.8628699174
 40
99.623317402
100
AcDbArc
 50
186.4382766331
 51
187.0559488864
  0
ARC
  5
3A6
100
AcDbEntity
  8
RACCORDO
100
AcDbCircle
 62
250
  6
CONTINUOUS
 10
50.2096967537
 20
33.4163869091
 40
93.5037267138
100
AcDbArc
 50
172.5324236391
 51
173.2147905996
  0
ARC
  5
3A7
100
AcDbEntity
  8
ASSI
100
AcDbCircle
 62
250
  6
CONTINUOUS
 10
50.2096967537
 20
33.4163869091
 40
93.5037267138
100
AcDbArc
 50
172.5324236391
 51
173.2147905996
  0
ARC
  5
3A8
100
AcDbEntity
  8
RACCORDO
100
AcDbCircle
 62
250
  6
CONTINUOUS
 10
64.8869443958
 20
28.3476881274
 40
86.8222305389
100
AcDbArc
 50
244.8610456877
 51
247.4103992493
  0
ARC
  5
3A9
100
AcDbEntity
  8
ASSI
100
AcDbCircle
 62
250
  6
CONTINUOUS
 10
64.8869443958
 20
28.3476881274
 40
86.8222305389
100
AcDbArc
 50
244.8610456877
 51
247.4103992493
  0
ARC
  5
3AA
100
AcDbEntity
  8
0
100
AcDbCircle
 62
7
  6
CONTINUOUS
 10
26.7656929529
 20
1.2523075149
 40
17.9678737871
100
AcDbArc
 50
7.633688139
 51
7.8315879448
  0
ARC
  5
3AB
100
AcDbEntity
  8
ASSI
100
AcDbCircle
 62
7
  6
CONTINUOUS
 10
26.7656929529
 20
1.2523075149
 40
17.9678737871
100
AcDbArc
 50
7.633688139
 51
7.8315879448
  0
ARC
  5
3AC
100
AcDbEntity
  8
0
100
AcDbCircle
 62
250
  6
CONTINUOUS
 10
43.3169295601
 20
0.3279642806
 40
1.615065915
100
AcDbArc
 50
357.5491195236
 51
2.9982223762
  0
ARC
  5
3AD
100
AcDbEntity
  8
ASSI
100
AcDbCircle
 62
250
  6
CONTINUOUS
 10
43.3169295601
 20
0.3279642806
 40
1.615065915
100
AcDbArc
 50
357.5491195236
 51
2.9982223762
  0
ARC
  5
3AE
100
AcDbEntity
  8
RACCORDO
100
AcDbCircle
 62
7
  6
CONTINUOUS
 10
21.0002337388
 20
4.1506030666
 40
1.5029765717
100
AcDbArc
 50
44.2904225433
 51
48.0360343239
  0
ARC
  5
3AF
100
AcDbEntity
  8
ASSI
100
AcDbCircle
 62
7
  6
CONTINUOUS
 10
21.0002337388
 20
4.1506030666
 40
1.5029765717
100
AcDbArc
 50
44.2904225433
 51
48.0360343239
  0
ARC
  5
3B0
100
AcDbEntity
  8
RACCORDO
100
AcDbCircle
 62
7
  6
CONTINUOUS
 10
21.0600696056
 20
4.2169580635
 40
1.4136272542
100
AcDbArc
 50
48.0410094656
 51
50.0406953654
  0
ARC
  5
3B1
100
AcDbEntity
  8
ASSI
100
AcDbCircle
 62
7
  6
CONTINUOUS
 10
21.0600696056
 20
4.2169580635
 40
1.4136272542
100
AcDbArc
 50
48.0410094656
 51
50.0406953654
  0
ARC
  5
3B2
100
AcDbEntity
  8
RACCORDO
100
AcDbCircle
 62
7
  6
CONTINUOUS
 10
21.2342642143
 20
4.0598256061
 40
1.3299638486
100
AcDbArc
 50
3.5541948132
 51
7.2528290386
  0
ARC
  5
3B3
100
AcDbEntity
  8
ASSI
100
AcDbCircle
 62
7
  6
CONTINUOUS
 10
21.2342642143
 20
4.0598256061
 40
1.3299638486
100
AcDbArc
 50
3.5541948132
 51
7.2528290386
  0
ARC
  5
3B4
100
AcDbEntity
  8
RACCORDO
100
AcDbCircle
 62
7
  6
CONTINUOUS
 10
21.1139008923
 20
4.2815263685
 40
1.3295628268
100
AcDbArc
 50
50.0317818565
 51
52.9451918258
  0
ARC
  5
3B5
100
AcDbEntity
  8
ASSI
100
AcDbCircle
 62
7
  6
CONTINUOUS
 10
21.1139008923
 20
4.2815263685
 40
1.3295628268
100
AcDbArc
 50
50.0317818565
 51
52.9451918258
  0
ARC
  5
3B6
100
AcDbEntity
  8
RACCORDO
100
AcDbCircle
 62
7
  6
CONTINUOUS
 10
21.3142514509
 20
4.0655031436
 40
1.2497786939
100
AcDbArc
 50
2.1182853239
 51
3.5217368048
  0
ARC
  5
3B7
100
AcDbEntity
  8
ASSI
100
AcDbCircle
 62
7
  6
CONTINUOUS
 10
21.3142514509
 20
4.0655031436
 40
1.2497786939
100
AcDbArc
 50
2.1182853239
 51
3.5217368048
  0
ARC
  5
3B8
100
AcDbEntity
  8
ASSI
100
AcDbCircle
 62
7
  6
CONTINUOUS
 10
21.3559102402
 20
4.0670351086
 40
1.2080917467
100
AcDbArc
 50
0.6736591711
 51
2.1187074353
  0
ARC
  5
3B9
100
AcDbEntity
  8
RACCORDO
100
AcDbCircle
 62
7
  6
CONTINUOUS
 10
21.3568917016
 20
4.0670629291
 40
1.2071099279
100
AcDbArc
 50
0.6077282618
 51
2.1191100907
  0
ARC
  5
3BA
100
AcDbEntity
  8
ASSI
100
AcDbCircle
 62
7
  6
CONTINUOUS
 10
21.4061019359
 20
4.0675531199
 40
1.1578974321
100
AcDbArc
 50
358.7643572871
 51
0.6772290132
  0
ARC
  5
3BB
100
AcDbEntity
  8
RACCORDO
100
AcDbCircle
 62
7
  6
CONTINUOUS
 10
21.407104667
 20
4.0675423867
 40
1.1568947028
100
AcDbArc
 50
358.7638178284
 51
0.6103611003
  0
ARC
  5
3BC
100
AcDbEntity
  8
0
100
AcDbCircle
 62
250
  6
CONTINUOUS
 10
43.452234041
 20
3.6609281122
 40
1.1144517929
100
AcDbArc
 50
358.9562044587
 51
2.0421727184
  0
ARC
  5
3BD
100
AcDbEntity
  8
ASSI
100
AcDbCircle
 62
250
  6
CONTINUOUS
 10
43.452234041
 20
3.6609281122
 40
1.1144517929
100
AcDbArc
 50
358.9562044587
 51
2.0421727184
  0
ARC
  5
3BE
100
AcDbEntity
  8
RACCORDO
100
AcDbCircle
 62
7
  6
CONTINUOUS
 10
21.2693017128
 20
4.505882755
 40
1.0564928138
100
AcDbArc
 50
57.4801108006
 51
59.7391875502
  0
ARC
  5
3BF
100
AcDbEntity
  8
ASSI
100
AcDbCircle
 62
7
  6
CONTINUOUS
 10
21.2693017128
 20
4.505882755
 40
1.0564928138
100
AcDbArc
 50
57.4801108006
 51
59.7391875502
  0
ARC
  5
3C0
100
AcDbEntity
  8
0
100
AcDbCircle
 62
250
  6
CONTINUOUS
 10
34.9676124056
 20
18.8981697563
 40
0.4609475578
100
AcDbArc
 50
54.7727819256
 51
61.5202320497
  0
ARC
  5
3C1
100
AcDbEntity
  8
ASSI
100
AcDbCircle
 62
250
  6
CONTINUOUS
 10
34.9676124056
 20
18.8981697563
 40
0.4609475578
100
AcDbArc
 50
54.7727819256
 51
61.5202320497
  0
ARC
  5
3C2
100
AcDbEntity
  8
RACCORDO
100
AcDbCircle
 62
250
  6
CONTINUOUS
 10
34.4872879496
 20
71.9581089711
 40
109.4465171633
100
AcDbArc
 50
233.1825873613
 51
235.3434002161
  0
ARC
  5
3C3
100
AcDbEntity
  8
ASSI
100
AcDbCircle
 62
250
  6
CONTINUOUS
 10
34.4872879496
 20
71.9581089711
 40
109.4465171633
100
AcDbArc
 50
233.1825873613
 51
235.3434002161
  0
ARC
  5
3C4
100
AcDbEntity
  8
0
100
AcDbCircle
 62
7
  6
CONTINUOUS
 10
117.4441553214
 20
-62.7716467614
 40
126.5334040086
100
AcDbArc
 50
160.8369317082
 51
161.2678353204
  0
ARC
  5
3C5
100
AcDbEntity
  8
ASSI
100
AcDbCircle
 62
7
  6
CONTINUOUS
 10
117.4441553214
 20
-62.7716467614
 40
126.5334040086
100
AcDbArc
 50
160.8369317082
 51
161.2678353204
  0
ARC
  5
3C6
100
AcDbEntity
  8
0
100
AcDbCircle
 62
7
  6
CONTINUOUS
 10
114.9165425253
 20
-62.9119003843
 40
123.7763241855
100
AcDbArc
 50
160.7331807661
 51
161.2518669816
  0
ARC
  5
3C7
100
AcDbEntity
  8
ASSI
100
AcDbCircle
 62
7
  6
CONTINUOUS
 10
114.9165425253
 20
-62.9119003843
 40
123.7763241855
100
AcDbArc
 50
160.7331807661
 51
161.2518669816
  0
ARC
  5
3C8
100
AcDbEntity
  8
0
100
AcDbCircle
 62
7
  6
CONTINUOUS
 10
114.3222981995
 20
-62.6028783002
 40
123.0332738669
100
AcDbArc
 50
160.8545329199
 51
161.2991616828
  0
ARC
  5
3C9
100
AcDbEntity
  8
ASSI
100
AcDbCircle
 62
7
  6
CONTINUOUS
 10
114.3222981995
 20
-62.6028783002
 40
123.0332738669
100
AcDbArc
 50
160.8545329199
 51
161.2991616828
  0
ARC
  5
3CA
100
AcDbEntity
  8
0
100
AcDbCircle
 62
7
  6
CONTINUOUS
 10
115.9508968673
 20
-53.2883180502
 40
120.8744159935
100
AcDbArc
 50
164.9856352921
 51
165.8393831786
  0
ARC
  5
3CB
100
AcDbEntity
  8
ASSI
100
AcDbCircle
 62
7
  6
CONTINUOUS
 10
115.9508968673
 20
-53.2883180502
 40
120.8744159935
100
AcDbArc
 50
164.9856352921
 51
165.8393831786
  0
ARC
  5
3CC
100
AcDbEntity
  8
0
100
AcDbCircle
 62
7
  6
CONTINUOUS
 10
112.1874981015
 20
-46.9054308398
 40
119.9956165246
100
AcDbArc
 50
166.9072100916
 51
167.5010208366
  0
ARC
  5
3CD
100
AcDbEntity
  8
ASSI
100
AcDbCircle
 62
7
  6
CONTINUOUS
 10
112.1874981015
 20
-46.9054308398
 40
119.9956165246
100
AcDbArc
 50
166.9072100916
 51
167.5010208366
  0
ARC
  5
3CE
100
AcDbEntity
  8
0
100
AcDbCircle
 62
7
  6
CONTINUOUS
 10
111.2015239747
 20
-51.899910696
 40
119.8138089099
100
AcDbArc
 50
164.5402613331
 51
165.4075441156
  0
ARC
  5
3CF
100
AcDbEntity
  8
ASSI
100
AcDbCircle
 62
7
  6
CONTINUOUS
 10
111.2015239747
 20
-51.899910696
 40
119.8138089099
100
AcDbArc
 50
164.5402613331
 51
165.4075441156
  0
ARC
  5
3D0
100
AcDbEntity
  8
0
100
AcDbCircle
 62
7
  6
CONTINUOUS
 10
111.0167252075
 20
-51.7528231103
 40
119.5104156603
100
AcDbArc
 50
164.542675203
 51
165.4534426906
  0
ARC
  5
3D1
100
AcDbEntity
  8
ASSI
100
AcDbCircle
 62
7
  6
CONTINUOUS
 10
111.0167252075
 20
-51.7528231103
 40
119.5104156603
100
AcDbArc
 50
164.542675203
 51
165.4534426906
  0
ARC
  5
3D2
100
AcDbEntity
  8
0
100
AcDbCircle
 62
7
  6
CONTINUOUS
 10
115.5966335999
 20
-48.6089022144
 40
119.0214644872
100
AcDbArc
 50
167.423486094
 51
167.7682915914
  0
ARC
  5
3D3
100
AcDbEntity
  8
ASSI
100
AcDbCircle
 62
7
  6
CONTINUOUS
 10
115.5966335999
 20
-48.6089022144
 40
119.0214644872
100
AcDbArc
 50
167.423486094
 51
167.7682915914
  0
ARC
  5
3D4
100
AcDbEntity
  8
0
100
AcDbCircle
 62
7
  6
CONTINUOUS
 10
115.2571414919
 20
-48.4427291307
 40
118.5635379829
100
AcDbArc
 50
167.5517474066
 51
167.772120222
  0
ARC
  5
3D5
100
AcDbEntity
  8
ASSI
100
AcDbCircle
 62
7
  6
CONTINUOUS
 10
115.2571414919
 20
-48.4427291307
 40
118.5635379829
100
AcDbArc
 50
167.5517474066
 51
167.772120222
  0
ARC
  5
3D6
100
AcDbEntity
  8
0
100
AcDbCircle
 62
7
  6
CONTINUOUS
 10
113.4175688
 20
-49.2905576773
 40
117.0376273528
100
AcDbArc
 50
167.361734051
 51
167.507944492
  0
ARC
  5
3D7
100
AcDbEntity
  8
ASSI
100
AcDbCircle
 62
7
  6
CONTINUOUS
 10
113.4175688
 20
-49.2905576773
 40
117.0376273528
100
AcDbArc
 50
167.361734051
 51
167.507944492
  0
ARC
  5
3D8
100
AcDbEntity
  8
0
100
AcDbCircle
 62
7
  6
CONTINUOUS
 10
113.0828380008
 20
-49.1228598845
 40
116.5839486904
100
AcDbArc
 50
167.4278489955
 51
167.5528109439
  0
ARC
  5
3D9
100
AcDbEntity
  8
ASSI
100
AcDbCircle
 62
7
  6
CONTINUOUS
 10
113.0828380008
 20
-49.1228598845
 40
116.5839486904
100
AcDbArc
 50
167.4278489955
 51
167.5528109439
  0
ARC
  5
3DA
100
AcDbEntity
  8
0
100
AcDbCircle
 62
7
  6
CONTINUOUS
 10
131.1494910688
 20
-15.5440467805
 40
130.6206773952
100
AcDbArc
 50
183.3734795347
 51
183.6398279449
  0
ARC
  5
3DB
100
AcDbEntity
  8
ASSI
100
AcDbCircle
 62
7
  6
CONTINUOUS
 10
131.1494910688
 20
-15.5440467805
 40
130.6206773952
100
AcDbArc
 50
183.3734795347
 51
183.6398279449
  0
ARC
  5
3DC
100
AcDbEntity
  8
0
100
AcDbCircle
 62
7
  6
CONTINUOUS
 10
131.1068788867
 20
-15.4837862642
 40
130.4719610085
100
AcDbArc
 50
183.4252454394
 51
183.6434830163
  0
ARC
  5
3DD
100
AcDbEntity
  8
ASSI
100
AcDbCircle
 62
7
  6
CONTINUOUS
 10
131.1068788867
 20
-15.4837862642
 40
130.4719610085
100
AcDbArc
 50
183.4252454394
 51
183.6434830163
  0
ARC
  5
3DE
100
AcDbEntity
  8
0
100
AcDbCircle
 62
7
  6
CONTINUOUS
 10
130.4915466901
 20
-15.3289377798
 40
130.3616020863
100
AcDbArc
 50
183.2195588851
 51
184.1208134933
  0
ARC
  5
3DF
100
AcDbEntity
  8
ASSI
100
AcDbCircle
 62
7
  6
CONTINUOUS
 10
130.4915466901
 20
-15.3289377798
 40
130.3616020863
100
AcDbArc
 50
183.2195588851
 51
184.1208134933
  0
ARC
  5
3E0
100
AcDbEntity
  8
0
100
AcDbCircle
 62
7
  6
CONTINUOUS
 10
125.9642940645
 20
-12.7593952528
 40
130.2927633499
100
AcDbArc
 50
183.2080772343
 51
184.1792479721
  0
ARC
  5
3E1
100
AcDbEntity
  8
ASSI
100
AcDbCircle
 62
7
  6
CONTINUOUS
 10
125.9642940645
 20
-12.7593952528
 40
130.2927633499
100
AcDbArc
 50
183.2080772343
 51
184.1792479721
  0
ARC
  5
3E2
100
AcDbEntity
  8
0
100
AcDbCircle
 62
7
  6
CONTINUOUS
 10
125.7469785074
 20
-13.039253837
 40
129.6619760446
100
AcDbArc
 50
183.2057094389
 51
184.1816049455
  0
ARC
  5
3E3
100
AcDbEntity
  8
ASSI
100
AcDbCircle
 62
7
  6
CONTINUOUS
 10
125.7469785074
 20
-13.039253837
 40
129.6619760446
100
AcDbArc
 50
183.2057094389
 51
184.1816049455
  0
ARC
  5
3E4
100
AcDbEntity
  8
0
100
AcDbCircle
 62
7
  6
CONTINUOUS
 10
125.7120226507
 20
-12.9784964108
 40
129.5209327351
100
AcDbArc
 50
183.2089362235
 51
184.185862922
  0
ARC
  5
3E5
100
AcDbEntity
  8
ASSI
100
AcDbCircle
 62
7
  6
CONTINUOUS
 10
125.7120226507
 20
-12.9784964108
 40
129.5209327351
100
AcDbArc
 50
183.2089362235
 51
184.185862922
  0
ARC
  5
3E6
100
AcDbEntity
  8
0
100
AcDbCircle
 62
7
  6
CONTINUOUS
 10
129.2521575797
 20
-15.6778006687
 40
128.7054474614
100
AcDbArc
 50
183.7988849037
 51
184.1826293032
  0
ARC
  5
3E7
100
AcDbEntity
  8
ASSI
100
AcDbCircle
 62
7
  6
CONTINUOUS
 10
129.2521575797
 20
-15.6778006687
 40
128.7054474614
100
AcDbArc
 50
183.7988849037
 51
184.1826293032
  0
ARC
  5
3E8
100
AcDbEntity
  8
0
100
AcDbCircle
 62
7
  6
CONTINUOUS
 10
129.1267521547
 20
-15.6236204904
 40
128.4737154733
100
AcDbArc
 50
183.8594315489
 51
184.186939638
  0
ARC
  5
3E9
100
AcDbEntity
  8
ASSI
100
AcDbCircle
 62
7
  6
CONTINUOUS
 10
129.1267521547
 20
-15.6236204904
 40
128.4737154733
100
AcDbArc
 50
183.8594315489
 51
184.186939638
  0
ARC
  5
3EA
100
AcDbEntity
  8
0
100
AcDbCircle
 62
7
  6
CONTINUOUS
 10
120.3680766257
 20
-21.4509894302
 40
123.3292120814
100
AcDbArc
 50
180.0070910633
 51
180.65057263
  0
ARC
  5
3EB
100
AcDbEntity
  8
ASSI
100
AcDbCircle
 62
7
  6
CONTINUOUS
 10
120.3680766257
 20
-21.4509894302
 40
123.3292120814
100
AcDbArc
 50
180.0070910633
 51
180.65057263
  0
ARC
  5
3EC
100
AcDbEntity
  8
0
100
AcDbCircle
 62
7
  6
CONTINUOUS
 10
119.839029149
 20
-23.6928550459
 40
123.1915212446
100
AcDbArc
 50
178.5252435044
 51
179.5022533122
  0
ARC
  5
3ED
100
AcDbEntity
  8
ASSI
100
AcDbCircle
 62
7
  6
CONTINUOUS
 10
119.839029149
 20
-23.6928550459
 40
123.1915212446
100
AcDbArc
 50
178.5252435044
 51
179.5022533122
  0
ARC
  5
3EE
100
AcDbEntity
  8
0
100
AcDbCircle
 62
7
  6
CONTINUOUS
 10
120.0298472565
 20
-21.3847979697
 40
122.8846516445
100
AcDbArc
 50
180.1871240896
 51
180.6551408593
  0
ARC
  5
3EF
100
AcDbEntity
  8
ASSI
100
AcDbCircle
 62
7
  6
CONTINUOUS
 10
120.0298472565
 20
-21.3847979697
 40
122.8846516445
100
AcDbArc
 50
180.1871240896
 51
180.6551408593
  0
ARC
  5
3F0
100
AcDbEntity
  8
0
100
AcDbCircle
 62
250
  6
CONTINUOUS
 10
149.903626606
 20
-52.4413389569
 40
184.9864250925
100
AcDbArc
 50
153.5472324398
 51
153.7127778206
  0
ARC
  5
3F1
100
AcDbEntity
  8
0
100
AcDbCircle
 62
250
  6
CONTINUOUS
 10
131.8894416891
 20
-17.444423973
 40
164.1146555279
100
AcDbArc
 50
160.880986345
 51
161.6290503863
  0
ARC
  5
3F2
100
AcDbEntity
  8
0
100
AcDbCircle
 62
250
  6
CONTINUOUS
 10
149.3909107583
 20
4.4514705143
 40
159.1598116271
100
AcDbArc
 50
171.8398133328
 51
172.1030900118
  0
ARC
  5
3F3
100
AcDbEntity
  8
0
100
AcDbCircle
 62
250
  6
CONTINUOUS
 10
147.523684288
 20
5.5454223977
 40
159.0836957618
100
AcDbArc
 50
171.8668206286
 51
172.0950734053
  0
ARC
  5
3F4
100
AcDbEntity
  8
0
100
AcDbCircle
 62
250
  6
CONTINUOUS
 10
139.6729236626
 20
10.1986418972
 40
158.7557013254
100
AcDbArc
 50
171.9066732339
 51
172.1528280468
  0
ARC
  5
3F5
100
AcDbEntity
  8
0
100
AcDbCircle
 62
250
  6
CONTINUOUS
 10
150.4162314848
 20
3.4432161308
 40
158.2984937423
100
AcDbArc
 50
171.741143298
 51
172.5685047519
  0
ARC
  5
3F6
100
AcDbEntity
  8
0
100
AcDbCircle
 62
250
  6
CONTINUOUS
 10
148.2189087622
 20
4.7311745957
 40
158.2230535499
100
AcDbArc
 50
171.7523183388
 51
172.5799473722
  0
ARC
  5
3F7
100
AcDbEntity
  8
0
100
AcDbCircle
 62
250
  6
CONTINUOUS
 10
152.268622481
 20
2.1319403849
 40
157.8539805576
100
AcDbArc
 50
171.7277062195
 51
172.5575348668
  0
ARC
  5
3F8
100
AcDbEntity
  8
0
100
AcDbCircle
 62
250
  6
CONTINUOUS
 10
142.5302272124
 20
8.0136441702
 40
157.8512697438
100
AcDbArc
 50
172.0624155585
 51
172.3270703703
  0
ARC
  5
3F9
100
AcDbEntity
  8
0
100
AcDbCircle
 62
250
  6
CONTINUOUS
 10
145.0773568624
 20
6.4583656369
 40
157.8444507346
100
AcDbArc
 50
171.8547066166
 51
172.5954714137
  0
ARC
  5
3FA
100
AcDbEntity
  8
0
100
AcDbCircle
 62
250
  6
CONTINUOUS
 10
149.6431277172
 20
3.6631842448
 40
157.7656391272
100
AcDbArc
 50
171.7410597367
 51
172.5712009244
  0
ARC
  5
3FB
100
AcDbEntity
  8
0
100
AcDbCircle
 62
250
  6
CONTINUOUS
 10
142.1129960591
 20
8.1860541077
 40
157.6751613565
100
AcDbArc
 50
172.0635086817
 51
172.3284543196
  0
ARC
  5
3FC
100
AcDbEntity
  8
0
100
AcDbCircle
 62
250
  6
CONTINUOUS
 10
145.8447026089
 20
5.8951157697
 40
157.6346099894
100
AcDbArc
 50
171.7603793569
 51
172.5909903816
  0
ARC
  5
3FD
100
AcDbEntity
  8
0
100
AcDbCircle
 62
250
  6
CONTINUOUS
 10
144.3615285129
 20
6.6709489907
 40
157.3678462831
100
AcDbArc
 50
171.8548725404
 51
172.5978676309
  0
ARC
  5
3FE
100
AcDbEntity
  8
0
100
AcDbCircle
 62
250
  6
CONTINUOUS
 10
138.0425861104
 20
10.5421464335
 40
157.3533336666
100
AcDbArc
 50
171.8000694716
 51
172.6317123753
  0
ARC
  5
3FF
100
AcDbEntity
  8
0
100
AcDbCircle
 62
250
  6
CONTINUOUS
 10
145.5027971484
 20
5.8243853445
 40
157.0436440979
100
AcDbArc
 50
172.2009558211
 51
172.4841403252
  0
ARC
  5
400
100
AcDbEntity
  8
0
100
AcDbCircle
 62
250
  6
CONTINUOUS
 10
146.8067306181
 20
4.8063528334
 40
156.5513742942
100
AcDbArc
 50
172.2085958677
 51
172.581181735
  0
ARC
  5
401
100
AcDbEntity
  8
0
100
AcDbCircle
 62
250
  6
CONTINUOUS
 10
137.4794846672
 20
10.4986562178
 40
156.5418376376
100
AcDbArc
 50
172.2587289902
 51
172.524888883
  0
ARC
  5
402
100
AcDbEntity
  8
0
100
AcDbCircle
 62
7
  6
CONTINUOUS
 10
136.9177059006
 20
-3.0073607928
 40
139.8112398716
100
AcDbArc
 50
187.5891668453
 51
188.5455272072
  0
ARC
  5
403
100
AcDbEntity
  8
ASSI
100
AcDbCircle
 62
7
  6
CONTINUOUS
 10
136.9177059006
 20
-3.0073607928
 40
139.8112398716
100
AcDbArc
 50
187.5891668453
 51
188.5455272072
  0
ARC
  5
404
100
AcDbEntity
  8
0
100
AcDbCircle
 62
7
  6
CONTINUOUS
 10
136.9095473831
 20
-2.9532076222
 40
139.6968573377
100
AcDbArc
 50
187.5924347687
 51
188.5326977874
  0
ARC
  5
405
100
AcDbEntity
  8
ASSI
100
AcDbCircle
 62
7
  6
CONTINUOUS
 10
136.9095473831
 20
-2.9532076222
 40
139.6968573377
100
AcDbArc
 50
187.5924347687
 51
188.5326977874
  0
ARC
  5
406
100
AcDbEntity
  8
0
100
AcDbCircle
 62
7
  6
CONTINUOUS
 10
133.5737837174
 20
-6.1955558076
 40
136.4277962265
100
AcDbArc
 50
186.6818239179
 51
187.3078903275
  0
ARC
  5
407
100
AcDbEntity
  8
ASSI
100
AcDbCircle
 62
7
  6
CONTINUOUS
 10
133.5737837174
 20
-6.1955558076
 40
136.4277962265
100
AcDbArc
 50
186.6818239179
 51
187.3078903275
  0
ARC
  5
408
100
AcDbEntity
  8
0
100
AcDbCircle
 62
250
  6
CONTINUOUS
 10
137.2708617924
 20
26.7295683838
 40
162.8238920557
100
AcDbArc
 50
176.0104564481
 51
176.3545670271
  0
ARC
  5
409
100
AcDbEntity
  8
0
100
AcDbCircle
 62
250
  6
CONTINUOUS
 10
137.0569219017
 20
26.7813570069
 40
162.678019329
100
AcDbArc
 50
176.0402993024
 51
176.3845979754
  0
ARC
  5
40A
100
AcDbEntity
  8
0
100
AcDbCircle
 62
250
  6
CONTINUOUS
 10
135.9112794315
 20
27.4583509856
 40
162.625129347
100
AcDbArc
 50
176.0099167499
 51
176.3544492305
  0
ARC
  5
40B
100
AcDbEntity
  8
0
100
AcDbCircle
 62
250
  6
CONTINUOUS
 10
136.843001731
 20
26.8330724217
 40
162.5321647022
100
AcDbArc
 50
176.070158698
 51
176.414645576
  0
ARC
  5
40C
100
AcDbEntity
  8
0
100
AcDbCircle
 62
250
  6
CONTINUOUS
 10
135.8352621803
 20
27.425750004
 40
162.480585012
100
AcDbArc
 50
176.0397965066
 51
176.3845147259
  0
ARC
  5
40D
100
AcDbEntity
  8
0
100
AcDbCircle
 62
250
  6
CONTINUOUS
 10
135.759268699
 20
27.3930788495
 40
162.3360569995
100
AcDbArc
 50
176.0696922233
 51
176.4145962918
  0
ARC
  5
40E
100
AcDbEntity
  8
0
100
AcDbCircle
 62
250
  6
CONTINUOUS
 10
136.0403976331
 20
26.3744293629
 40
160.8023658062
100
AcDbArc
 50
176.3546287583
 51
176.8671566587
  0
ARC
  5
40F
100
AcDbEntity
  8
0
100
AcDbCircle
 62
250
  6
CONTINUOUS
 10
135.9555068154
 20
26.4172420643
 40
160.7859256316
100
AcDbArc
 50
176.3847624783
 51
176.8370389475
  0
ARC
  5
410
100
AcDbEntity
  8
0
100
AcDbCircle
 62
250
  6
CONTINUOUS
 10
135.8706092257
 20
26.4600829742
 40
160.7694712156
100
AcDbArc
 50
176.4149000477
 51
176.8069129316
  0
ARC
  5
411
100
AcDbEntity
  8
0
100
AcDbCircle
 62
250
  6
CONTINUOUS
 10
133.1771988504
 20
27.9898487242
 40
160.5343439375
100
AcDbArc
 50
176.4140313123
 51
176.8066209816
  0
ARC
  5
412
100
AcDbEntity
  8
0
100
AcDbCircle
 62
250
  6
CONTINUOUS
 10
133.0920214955
 20
28.0332435944
 40
160.5172084904
100
AcDbArc
 50
176.3837713417
 51
176.8368081396
  0
ARC
  5
413
100
AcDbEntity
  8
0
100
AcDbCircle
 62
250
  6
CONTINUOUS
 10
133.0068413694
 20
28.0766692175
 40
160.5000557476
100
AcDbArc
 50
176.353502503
 51
176.8669995694
  0
ARC
  5
414
100
AcDbEntity
  8
0
100
AcDbCircle
 62
250
  6
CONTINUOUS
 10
141.5757707587
 20
22.8232469654
 40
160.4697661117
100
AcDbArc
 50
176.1885092456
 51
177.034421514
  0
ARC
  5
415
100
AcDbEntity
  8
0
100
AcDbCircle
 62
250
  6
CONTINUOUS
 10
140.0975110028
 20
23.7141360235
 40
160.4628955647
100
AcDbArc
 50
176.1883333565
 51
177.034283373
  0
ARC
  5
416
100
AcDbEntity
  8
0
100
AcDbCircle
 62
250
  6
CONTINUOUS
 10
138.990433099
 20
24.3834576158
 40
160.4573588788
100
AcDbArc
 50
176.1881915972
 51
177.0341720359
  0
ARC
  5
417
100
AcDbEntity
  8
0
100
AcDbCircle
 62
250
  6
CONTINUOUS
 10
138.0228776251
 20
24.9699254702
 40
160.4522440247
100
AcDbArc
 50
176.188060634
 51
177.0340691789
  0
ARC
  5
418
100
AcDbEntity
  8
0
100
AcDbCircle
 62
250
  6
CONTINUOUS
 10
133.2935507115
 20
27.0444632757
 40
158.9764049629
100
AcDbArc
 50
176.8071198113
 51
177.1563289574
  0
ARC
  5
419
100
AcDbEntity
  8
0
100
AcDbCircle
 62
250
  6
CONTINUOUS
 10
133.2177507959
 20
27.0099997481
 40
158.8320201888
100
AcDbArc
 50
176.837422487
 51
177.1868289433
  0
ARC
  5
41A
100
AcDbEntity
  8
0
100
AcDbCircle
 62
250
  6
CONTINUOUS
 10
132.2104267923
 20
27.6020513832
 40
158.7810482509
100
AcDbArc
 50
176.8066961693
 51
177.156335793
  0
ARC
  5
41B
100
AcDbEntity
  8
0
100
AcDbCircle
 62
250
  6
CONTINUOUS
 10
133.1419795003
 20
26.9754619116
 40
158.6876613985
100
AcDbArc
 50
176.8677420141
 51
177.2173458924
  0
ARC
  5
41C
100
AcDbEntity
  8
0
100
AcDbCircle
 62
250
  6
CONTINUOUS
 10
131.9967413039
 20
27.6517795592
 40
158.6353894177
100
AcDbArc
 50
176.8369727365
 51
177.18681321
  0
ARC
  5
41D
100
AcDbEntity
  8
0
100
AcDbCircle
 62
250
  6
CONTINUOUS
 10
131.7830869344
 20
27.7014368758
 40
158.4897532162
100
AcDbArc
 50
176.8672666051
 51
177.2173080554
  0
ARC
  5
41E
100
AcDbEntity
  8
0
100
AcDbCircle
 62
250
  6
CONTINUOUS
 10
165.3021931017
 20
-63.3271139098
 40
192.3533248088
100
AcDbArc
 50
152.4609774674
 51
153.0913370219
  0
ARC
  5
41F
100
AcDbEntity
  8
0
100
AcDbCircle
 62
250
  6
CONTINUOUS
 10
165.7699340041
 20
-61.9921265748
 40
191.9030714062
100
AcDbArc
 50
152.9367363871
 51
153.3006867143
  0
ARC
  5
420
100
AcDbEntity
  8
0
100
AcDbCircle
 62
250
  6
CONTINUOUS
 10
152.9693883384
 20
-55.5026073016
 40
189.3780303055
100
AcDbArc
 50
152.6492220632
 51
153.2861813203
  0
ARC
  5
421
100
AcDbEntity
  8
0
100
AcDbCircle
 62
250
  6
CONTINUOUS
 10
153.4864379949
 20
-54.2260298273
 40
189.0048025435
100
AcDbArc
 50
153.1244693706
 51
153.4921376054
  0
ARC
  5
422
100
AcDbEntity
  8
0
100
AcDbCircle
 62
250
  6
CONTINUOUS
 10
162.1529487479
 20
-60.1750270855
 40
187.8395102397
100
AcDbArc
 50
153.3552192193
 51
153.5190803225
  0
ARC
  5
423
100
AcDbEntity
  8
0
100
AcDbCircle
 62
250
  6
CONTINUOUS
 10
153.3084983769
 20
1.8746593959
 40
158.6554302085
100
AcDbArc
 50
171.7281420112
 51
172.448906397
  0
ARC
  5
424
100
AcDbEntity
  8
RACCORDO
100
AcDbCircle
 62
250
  6
CONTINUOUS
 10
158.1680176469
 20
-27.4987377389
 40
135.8255366537
100
AcDbArc
 50
182.3332985935
 51
184.1555356358
  0
ARC
  5
425
100
AcDbEntity
  8
ASSI
100
AcDbCircle
 62
250
  6
CONTINUOUS
 10
158.1680176469
 20
-27.4987377389
 40
135.8255366537
100
AcDbArc
 50
182.3332985935
 51
184.1555356358
  0
ARC
  5
426
100
AcDbEntity
  8
RACCORDO
100
AcDbCircle
 62
250
  6
CONTINUOUS
 10
152.4661176974
 20
-27.883384513
 40
130.1107571537
100
AcDbArc
 50
184.1685474976
 51
184.8048489946
  0
ARC
  5
427
100
AcDbEntity
  8
ASSI
100
AcDbCircle
 62
250
  6
CONTINUOUS
 10
152.4661176974
 20
-27.883384513
 40
130.1107571537
100
AcDbArc
 50
184.1685474976
 51
184.8048489946
  0
ARC
  5
428
100
AcDbEntity
  8
0
100
AcDbCircle
 62
250
  6
CONTINUOUS
 10
193.7352273634
 20
94.1783242762
 40
223.6087406183
100
AcDbArc
 50
195.1770201382
 51
195.9621056925
  0
ARC
  5
429
100
AcDbEntity
  8
0
100
AcDbCircle
 62
250
  6
CONTINUOUS
 10
164.2800007585
 20
63.3069802277
 40
189.3870224811
100
AcDbArc
 50
188.1959103623
 51
189.0222923798
  0
ARC
  5
42A
100
AcDbEntity
  8
0
100
AcDbCircle
 62
250
  6
CONTINUOUS
 10
179.1807084276
 20
55.9798729678
 40
188.9885866328
100
AcDbArc
 50
189.2583535559
 51
189.6644181168
  0
ARC
  5
42B
100
AcDbEntity
  8
0
100
AcDbCircle
 62
250
  6
CONTINUOUS
 10
177.800164911
 20
54.706968517
 40
187.6721978396
100
AcDbArc
 50
188.9155851003
 51
189.2869010656
  0
ARC
  5
42C
100
AcDbEntity
  8
0
100
AcDbCircle
 62
7
  6
CONTINUOUS
 10
172.163238974
 20
36.2490352027
 40
184.111593006
100
AcDbArc
 50
198.0381277678
 51
198.5174103343
  0
ARC
  5
42D
100
AcDbEntity
  8
ASSI
100
AcDbCircle
 62
7
  6
CONTINUOUS
 10
172.163238974
 20
36.2490352027
 40
184.111593006
100
AcDbArc
 50
198.0381277678
 51
198.5174103343
  0
ARC
  5
42E
100
AcDbEntity
  8
0
100
AcDbCircle
 62
7
  6
CONTINUOUS
 10
172.1551460085
 20
36.2829454481
 40
183.994346376
100
AcDbArc
 50
198.041027434
 51
198.4789436714
  0
ARC
  5
42F
100
AcDbEntity
  8
ASSI
100
AcDbCircle
 62
7
  6
CONTINUOUS
 10
172.1551460085
 20
36.2829454481
 40
183.994346376
100
AcDbArc
 50
198.041027434
 51
198.4789436714
  0
ARC
  5
430
100
AcDbEntity
  8
0
100
AcDbCircle
 62
7
  6
CONTINUOUS
 10
171.5930378977
 20
36.6791872572
 40
183.9838344046
100
AcDbArc
 50
198.4233429143
 51
198.98780565
  0
ARC
  5
431
100
AcDbEntity
  8
ASSI
100
AcDbCircle
 62
7
  6
CONTINUOUS
 10
171.5930378977
 20
36.6791872572
 40
183.9838344046
100
AcDbArc
 50
198.4233429143
 51
198.98780565
  0
ARC
  5
432
100
AcDbEntity
  8
0
100
AcDbCircle
 62
250
  6
CONTINUOUS
 10
167.3884080323
 20
53.1977429575
 40
183.6119473388
100
AcDbArc
 50
186.8460417477
 51
187.6798858996
  0
ARC
  5
433
100
AcDbEntity
  8
0
100
AcDbCircle
 62
250
  6
CONTINUOUS
 10
176.7534811799
 20
47.7127607892
 40
183.0449870163
100
AcDbArc
 50
186.9963569645
 51
187.8318633035
  0
ARC
  5
434
100
AcDbEntity
  8
0
100
AcDbCircle
 62
250
  6
CONTINUOUS
 10
166.6901021788
 20
52.4010605202
 40
183.0246002701
100
AcDbArc
 50
186.6474063923
 51
187.1266071891
  0
ARC
  5
435
100
AcDbEntity
  8
0
100
AcDbCircle
 62
250
  6
CONTINUOUS
 10
176.0646607239
 20
46.9040388967
 40
182.4665492333
100
AcDbArc
 50
186.7938293389
 51
187.2739716269
  0
ARC
  5
436
100
AcDbEntity
  8
0
100
AcDbCircle
 62
250
  6
CONTINUOUS
 10
165.2208165235
 20
52.2269048738
 40
181.557446925
100
AcDbArc
 50
187.1979609614
 51
187.4119987189
  0
ARC
  5
437
100
AcDbEntity
  8
0
100
AcDbCircle
 62
250
  6
CONTINUOUS
 10
174.6073103904
 20
46.7277691316
 40
181.0111709315
100
AcDbArc
 50
187.345541842
 51
187.5599951499
  0
ARC
  5
438
100
AcDbEntity
  8
0
100
AcDbCircle
 62
7
  6
CONTINUOUS
 10
161.2603363333
 20
29.5032720965
 40
174.0587320583
100
AcDbArc
 50
196.1865282846
 51
197.0686931169
  0
ARC
  5
439
100
AcDbEntity
  8
ASSI
100
AcDbCircle
 62
7
  6
CONTINUOUS
 10
161.2603363333
 20
29.5032720965
 40
174.0587320583
100
AcDbArc
 50
196.1865282846
 51
197.0686931169
  0
ARC
  5
43A
100
AcDbEntity
  8
0
100
AcDbCircle
 62
7
  6
CONTINUOUS
 10
164.5962052271
 20
24.9485673733
 40
171.5984277754
100
AcDbArc
 50
195.949450654
 51
196.8382060664
  0
ARC
  5
43B
100
AcDbEntity
  8
ASSI
100
AcDbCircle
 62
7
  6
CONTINUOUS
 10
164.5962052271
 20
24.9485673733
 40
171.5984277754
100
AcDbArc
 50
195.949450654
 51
196.8382060664
  0
ARC
  5
43C
100
AcDbEntity
  8
0
100
AcDbCircle
 62
7
  6
CONTINUOUS
 10
164.5315951418
 20
24.9701898361
 40
171.4232014408
100
AcDbArc
 50
195.9523744866
 51
196.8420257182
  0
ARC
  5
43D
100
AcDbEntity
  8
ASSI
100
AcDbCircle
 62
7
  6
CONTINUOUS
 10
164.5315951418
 20
24.9701898361
 40
171.4232014408
100
AcDbArc
 50
195.9523744866
 51
196.8420257182
  0
ARC
  5
43E
100
AcDbEntity
  8
0
100
AcDbCircle
 62
7
  6
CONTINUOUS
 10
156.189991712
 20
23.4785751007
 40
167.2013232569
100
AcDbArc
 50
194.8164598368
 51
195.4333964789
  0
ARC
  5
43F
100
AcDbEntity
  8
ASSI
100
AcDbCircle
 62
7
  6
CONTINUOUS
 10
156.189991712
 20
23.4785751007
 40
167.2013232569
100
AcDbArc
 50
194.8164598368
 51
195.4333964789
  0
ARC
  5
440
100
AcDbEntity
  8
0
100
AcDbCircle
 62
7
  6
CONTINUOUS
 10
156.2415002772
 20
23.5348814748
 40
167.1470844424
100
AcDbArc
 50
194.8195851799
 51
195.3704655765
  0
ARC
  5
441
100
AcDbEntity
  8
ASSI
100
AcDbCircle
 62
7
  6
CONTINUOUS
 10
156.2415002772
 20
23.5348814748
 40
167.1470844424
100
AcDbArc
 50
194.8195851799
 51
195.3704655765
  0
ARC
  5
442
100
AcDbEntity
  8
0
100
AcDbCircle
 62
7
  6
CONTINUOUS
 10
158.5022598077
 20
19.726140616
 40
164.6376695251
100
AcDbArc
 50
195.4047771882
 51
195.5853228109
  0
ARC
  5
443
100
AcDbEntity
  8
ASSI
100
AcDbCircle
 62
7
  6
CONTINUOUS
 10
158.5022598077
 20
19.726140616
 40
164.6376695251
100
AcDbArc
 50
195.4047771882
 51
195.5853228109
  0
ARC
  5
444
100
AcDbEntity
  8
0
100
AcDbCircle
 62
7
  6
CONTINUOUS
 10
158.1013867607
 20
18.2999676001
 40
163.8801726222
100
AcDbArc
 50
194.4857139912
 51
194.8209106298
  0
ARC
  5
445
100
AcDbEntity
  8
ASSI
100
AcDbCircle
 62
7
  6
CONTINUOUS
 10
158.1013867607
 20
18.2999676001
 40
163.8801726222
100
AcDbArc
 50
194.4857139912
 51
194.8209106298
  0
ARC
  5
446
100
AcDbEntity
  8
RACCORDO
100
AcDbCircle
 62
250
  6
CONTINUOUS
 10
232.7899793052
 20
414.513251573
 40
492.946398794
100
AcDbArc
 50
236.0312610097
 51
238.3762022193
  0
ARC
  5
447
100
AcDbEntity
  8
ASSI
100
AcDbCircle
 62
250
  6
CONTINUOUS
 10
232.7899793052
 20
414.513251573
 40
492.946398794
100
AcDbArc
 50
236.0312610097
 51
238.3762022193
  0
ARC
  5
448
100
AcDbEntity
  8
RACCORDO
100
AcDbCircle
 62
250
  6
CONTINUOUS
 10
219.5550806506
 20
363.9578507904
 40
442.8704310398
100
AcDbArc
 50
236.4758794756
 51
238.1331702168
  0
ARC
  5
449
100
AcDbEntity
  8
ASSI
100
AcDbCircle
 62
250
  6
CONTINUOUS
 10
219.5550806506
 20
363.9578507904
 40
442.8704310398
100
AcDbArc
 50
236.4758794756
 51
238.1331702168
  0
ARC
  5
44A
100
AcDbEntity
  8
RACCORDO
100
AcDbCircle
 62
250
  6
CONTINUOUS
 10
219.5518395834
 20
364.2096283859
 40
442.6902685494
100
AcDbArc
 50
236.534215585
 51
238.1339643386
  0
ARC
  5
44B
100
AcDbEntity
  8
ASSI
100
AcDbCircle
 62
250
  6
CONTINUOUS
 10
219.5518395834
 20
364.2096283859
 40
442.6902685494
100
AcDbArc
 50
236.534215585
 51
238.1339643386
  0
ARC
  5
44C
100
AcDbEntity
  8
RACCORDO
100
AcDbCircle
 62
250
  6
CONTINUOUS
 10
216.3084926632
 20
358.8779810642
 40
436.4499094316
100
AcDbArc
 50
238.1260564938
 51
241.8707466366
  0
ARC
  5
44D
100
AcDbEntity
  8
ASSI
100
AcDbCircle
 62
250
  6
CONTINUOUS
 10
216.3084926632
 20
358.8779810642
 40
436.4499094316
100
AcDbArc
 50
238.1260564938
 51
241.8707466366
  0
ARC
  5
44E
100
AcDbEntity
  8
RACCORDO
100
AcDbCircle
 62
250
  6
CONTINUOUS
 10
215.8839092679
 20
357.8902991893
 40
435.7792215256
100
AcDbArc
 50
238.1219286381
 51
241.8748744923
  0
ARC
  5
44F
100
AcDbEntity
  8
ASSI
100
AcDbCircle
 62
250
  6
CONTINUOUS
 10
215.8839092679
 20
357.8902991893
 40
435.7792215256
100
AcDbArc
 50
238.1219286381
 51
241.8748744923
  0
ARC
  5
450
100
AcDbEntity
  8
RACCORDO
100
AcDbCircle
 62
250
  6
CONTINUOUS
 10
213.8520662451
 20
354.092048436
 40
431.4716592475
100
AcDbArc
 50
241.8750647986
 51
242.6873787593
  0
ARC
  5
451
100
AcDbEntity
  8
ASSI
100
AcDbCircle
 62
250
  6
CONTINUOUS
 10
213.8520662451
 20
354.092048436
 40
431.4716592475
100
AcDbArc
 50
241.8750647986
 51
242.6873787593
  0
ARC
  5
452
100
AcDbEntity
  8
RACCORDO
100
AcDbCircle
 62
250
  6
CONTINUOUS
 10
213.3004557123
 20
353.0258407441
 40
430.2712125694
100
AcDbArc
 50
242.6874973408
 51
242.977167344
  0
ARC
  5
453
100
AcDbEntity
  8
ASSI
100
AcDbCircle
 62
250
  6
CONTINUOUS
 10
213.3004557123
 20
353.0258407441
 40
430.2712125694
100
AcDbArc
 50
242.6874973408
 51
242.977167344
  0
ARC
  5
454
100
AcDbEntity
  8
RACCORDO
100
AcDbCircle
 62
250
  6
CONTINUOUS
 10
213.3430355651
 20
353.3641998146
 40
430.1892808067
100
AcDbArc
 50
241.8728318748
 51
243.5035026631
  0
ARC
  5
455
100
AcDbEntity
  8
ASSI
100
AcDbCircle
 62
250
  6
CONTINUOUS
 10
213.3430355651
 20
353.3641998146
 40
430.1892808067
100
AcDbArc
 50
241.8728318748
 51
243.5035026631
  0
ARC
  5
456
100
AcDbEntity
  8
RACCORDO
100
AcDbCircle
 62
250
  6
CONTINUOUS
 10
212.7471622693
 20
351.937506595
 40
429.0503103157
100
AcDbArc
 50
242.9769547692
 51
243.5638468827
  0
ARC
  5
457
100
AcDbEntity
  8
ASSI
100
AcDbCircle
 62
250
  6
CONTINUOUS
 10
212.7471622693
 20
351.937506595
 40
429.0503103157
100
AcDbArc
 50
242.9769547692
 51
243.5638468827
  0
ARC
  5
458
100
AcDbEntity
  8
RACCORDO
100
AcDbCircle
 62
250
  6
CONTINUOUS
 10
204.3947413728
 20
319.5759816425
 40
409.7537773186
100
AcDbArc
 50
236.1300176314
 51
243.8791309902
  0
ARC
  5
459
100
AcDbEntity
  8
ASSI
100
AcDbCircle
 62
250
  6
CONTINUOUS
 10
204.3947413728
 20
319.5759816425
 40
409.7537773186
100
AcDbArc
 50
236.1300176314
 51
243.8791309902
  0
ARC
  5
45A
100
AcDbEntity
  8
RACCORDO
100
AcDbCircle
 62
250
  6
CONTINUOUS
 10
151.0871102184
 20
240.7834884363
 40
314.6233296922
100
AcDbArc
 50
235.3762592839
 51
236.1773748488
  0
ARC
  5
45B
100
AcDbEntity
  8
ASSI
100
AcDbCircle
 62
250
  6
CONTINUOUS
 10
151.0871102184
 20
240.7834884363
 40
314.6233296922
100
AcDbArc
 50
235.3762592839
 51
236.1773748488
  0
ARC
  5
45C
100
AcDbEntity
  8
RACCORDO
100
AcDbCircle
 62
250
  6
CONTINUOUS
 10
152.7027146099
 20
214.9941962573
 40
293.0951924852
100
AcDbArc
 50
243.9722555592
 51
244.7991177761
  0
ARC
  5
45D
100
AcDbEntity
  8
ASSI
100
AcDbCircle
 62
250
  6
CONTINUOUS
 10
152.7027146099
 20
214.9941962573
 40
293.0951924852
100
AcDbArc
 50
243.9722555592
 51
244.7991177761
  0
ARC
  5
45E
100
AcDbEntity
  8
RACCORDO
100
AcDbCircle
 62
250
  6
CONTINUOUS
 10
535.480810578
 20
-14.2374935842
 40
513.0312908271
100
AcDbArc
 50
177.9800931977
 51
179.9830621976
  0
ARC
  5
45F
100
AcDbEntity
  8
ASSI
100
AcDbCircle
 62
250
  6
CONTINUOUS
 10
535.480810578
 20
-14.2374935842
 40
513.0312908271
100
AcDbArc
 50
177.9800931977
 51
179.9830621976
  0
ARC
  5
460
100
AcDbEntity
  8
RACCORDO
100
AcDbCircle
 62
7
  6
CONTINUOUS
 10
535.1409659231
 20
-14.0319700709
 40
512.8958149945
100
AcDbArc
 50
177.9804658988
 51
179.9793031081
  0
ARC
  5
461
100
AcDbEntity
  8
ASSI
100
AcDbCircle
 62
7
  6
CONTINUOUS
 10
535.1409659231
 20
-14.0319700709
 40
512.8958149945
100
AcDbArc
 50
177.9804658988
 51
179.9793031081
  0
ARC
  5
462
100
AcDbEntity
  8
RACCORDO
100
AcDbCircle
 62
250
  6
CONTINUOUS
 10
501.8983770177
 20
-14.1350555617
 40
479.4488373765
100
AcDbArc
 50
179.9941175034
 51
182.0893926392
  0
ARC
  5
463
100
AcDbEntity
  8
ASSI
100
AcDbCircle
 62
250
  6
CONTINUOUS
 10
501.8983770177
 20
-14.1350555617
 40
479.4488373765
100
AcDbArc
 50
179.9941175034
 51
182.0893926392
  0
ARC
  5
464
100
AcDbEntity
  8
RACCORDO
100
AcDbCircle
 62
7
  6
CONTINUOUS
 10
501.5929689835
 20
-13.9293851662
 40
479.3477882556
100
AcDbArc
 50
179.9941214907
 51
182.0854520954
  0
ARC
  5
465
100
AcDbEntity
  8
ASSI
100
AcDbCircle
 62
7
  6
CONTINUOUS
 10
501.5929689835
 20
-13.9293851662
 40
479.3477882556
100
AcDbArc
 50
179.9941214907
 51
182.0854520954
  0
ARC
  5
466
100
AcDbEntity
  8
RACCORDO
100
AcDbCircle
 62
250
  6
CONTINUOUS
 10
437.3242226112
 20
14.1024420818
 40
463.7732028757
100
AcDbArc
 50
177.7807028365
 51
179.9944258045
  0
ARC
  5
467
100
AcDbEntity
  8
ASSI
100
AcDbCircle
 62
250
  6
CONTINUOUS
 10
437.3242226112
 20
14.1024420818
 40
463.7732028757
100
AcDbArc
 50
177.7807028365
 51
179.9944258045
  0
ARC
  5
468
100
AcDbEntity
  8
RACCORDO
100
AcDbCircle
 62
7
  6
CONTINUOUS
 10
437.599485878
 20
13.9837700176
 40
463.6923333233
100
AcDbArc
 50
177.7812099358
 51
179.994341082
  0
ARC
  5
469
100
AcDbEntity
  8
ASSI
100
AcDbCircle
 62
7
  6
CONTINUOUS
 10
437.599485878
 20
13.9837700176
 40
463.6923333233
100
AcDbArc
 50
177.7812099358
 51
179.994341082
  0
ARC
  5
46A
100
AcDbEntity
  8
RACCORDO
100
AcDbCircle
 62
250
  6
CONTINUOUS
 10
437.7241103495
 20
14.0566345554
 40
463.4208752762
100
AcDbArc
 50
177.7810466302
 51
179.9942124612
  0
ARC
  5
46B
100
AcDbEntity
  8
ASSI
100
AcDbCircle
 62
250
  6
CONTINUOUS
 10
437.7241103495
 20
14.0566345554
 40
463.4208752762
100
AcDbArc
 50
177.7810466302
 51
179.9942124612
  0
ARC
  5
46C
100
AcDbEntity
  8
RACCORDO
100
AcDbCircle
 62
250
  6
CONTINUOUS
 10
409.2638489431
 20
14.0092678673
 40
435.7128489598
100
AcDbArc
 50
179.9818145094
 51
182.2897194254
  0
ARC
  5
46D
100
AcDbEntity
  8
ASSI
100
AcDbCircle
 62
250
  6
CONTINUOUS
 10
409.2638489431
 20
14.0092678673
 40
435.7128489598
100
AcDbArc
 50
179.9818145094
 51
182.2897194254
  0
ARC
  5
46E
100
AcDbEntity
  8
RACCORDO
100
AcDbCircle
 62
7
  6
CONTINUOUS
 10
409.5364967933
 20
13.8917849711
 40
435.62936377
100
AcDbArc
 50
179.9818782832
 51
182.2891784299
  0
ARC
  5
46F
100
AcDbEntity
  8
ASSI
100
AcDbCircle
 62
7
  6
CONTINUOUS
 10
409.5364967933
 20
13.8917849711
 40
435.62936377
100
AcDbArc
 50
179.9818782832
 51
182.2891784299
  0
ARC
  5
470
100
AcDbEntity
  8
RACCORDO
100
AcDbCircle
 62
250
  6
CONTINUOUS
 10
409.7302384427
 20
13.9678328511
 40
435.4270221232
100
AcDbArc
 50
179.982155381
 51
182.289242237
  0
ARC
  5
471
100
AcDbEntity
  8
ASSI
100
AcDbCircle
 62
250
  6
CONTINUOUS
 10
409.7302384427
 20
13.9678328511
 40
435.4270221232
100
AcDbArc
 50
179.982155381
 51
182.289242237
  0
ARC
  5
472
100
AcDbEntity
  8
RACCORDO
100
AcDbCircle
 62
250
  6
CONTINUOUS
 10
430.9820291103
 20
12.7106342911
 40
389.5673978902
100
AcDbArc
 50
182.2848140427
 51
182.4633388455
  0
ARC
  5
473
100
AcDbEntity
  8
ASSI
100
AcDbCircle
 62
250
  6
CONTINUOUS
 10
430.9820291103
 20
12.7106342911
 40
389.5673978902
100
AcDbArc
 50
182.2848140427
 51
182.4633388455
  0
ARC
  5
474
100
AcDbEntity
  8
RACCORDO
100
AcDbCircle
 62
250
  6
CONTINUOUS
 10
429.1656639945
 20
12.5758892587
 40
388.1418906719
100
AcDbArc
 50
182.275372251
 51
182.4546840408
  0
ARC
  5
475
100
AcDbEntity
  8
ASSI
100
AcDbCircle
 62
250
  6
CONTINUOUS
 10
429.1656639945
 20
12.5758892587
 40
388.1418906719
100
AcDbArc
 50
182.275372251
 51
182.4546840408
  0
ARC
  5
476
100
AcDbEntity
  8
RACCORDO
100
AcDbCircle
 62
250
  6
CONTINUOUS
 10
402.1311140213
 20
-60.5582339507
 40
360.7924052164
100
AcDbArc
 50
177.1832286266
 51
177.3506890947
  0
ARC
  5
477
100
AcDbEntity
  8
ASSI
100
AcDbCircle
 62
250
  6
CONTINUOUS
 10
402.1311140213
 20
-60.5582339507
 40
360.7924052164
100
AcDbArc
 50
177.1832286266
 51
177.3506890947
  0
ARC
  5
478
100
AcDbEntity
  8
RACCORDO
100
AcDbCircle
 62
250
  6
CONTINUOUS
 10
399.8337587007
 20
-60.3929404794
 40
358.8843348949
100
AcDbArc
 50
177.1933189542
 51
177.3618047077
  0
ARC
  5
479
100
AcDbEntity
  8
ASSI
100
AcDbCircle
 62
250
  6
CONTINUOUS
 10
399.8337587007
 20
-60.3929404794
 40
358.8843348949
100
AcDbArc
 50
177.1933189542
 51
177.3618047077
  0
ARC
  5
47A
100
AcDbEntity
  8
RACCORDO
100
AcDbCircle
 62
250
  6
CONTINUOUS
 10
513.8503939386
 20
913.6666862485
 40
1032.3730925018
100
AcDbArc
 50
240.8165898229
 51
241.5764219825
  0
ARC
  5
47B
100
AcDbEntity
  8
ASSI
100
AcDbCircle
 62
250
  6
CONTINUOUS
 10
513.8503939386
 20
913.6666862485
 40
1032.3730925018
100
AcDbArc
 50
240.8165898229
 51
241.5764219825
  0
ARC
  5
47C
100
AcDbEntity
  8
RACCORDO
100
AcDbCircle
 62
250
  6
CONTINUOUS
 10
511.9487029502
 20
871.4361816545
 40
1028.4261831083
100
AcDbArc
 50
240.8151317538
 51
241.5778800516
  0
ARC
  5
47D
100
AcDbEntity
  8
ASSI
100
AcDbCircle
 62
250
  6
CONTINUOUS
 10
511.9487029502
 20
871.4361816545
 40
1028.4261831083
100
AcDbArc
 50
240.8151317538
 51
241.5778800516
  0
ARC
  5
47E
100
AcDbEntity
  8
RACCORDO
100
AcDbCircle
 62
250
  6
CONTINUOUS
 10
477.4885609847
 20
850.5250972671
 40
959.5050920249
100
AcDbArc
 50
238.3717580648
 51
239.1695633435
  0
ARC
  5
47F
100
AcDbEntity
  8
ASSI
100
AcDbCircle
 62
250
  6
CONTINUOUS
 10
477.4885609847
 20
850.5250972671
 40
959.5050920249
100
AcDbArc
 50
238.3717580648
 51
239.1695633435
  0
ARC
  5
480
100
AcDbEntity
  8
RACCORDO
100
AcDbCircle
 62
250
  6
CONTINUOUS
 10
475.4915720389
 20
808.4596428465
 40
955.6534519681
100
AcDbArc
 50
238.3701503122
 51
239.1711710962
  0
ARC
  5
481
100
AcDbEntity
  8
ASSI
100
AcDbCircle
 62
250
  6
CONTINUOUS
 10
475.4915720389
 20
808.4596428465
 40
955.6534519681
100
AcDbArc
 50
238.3701503122
 51
239.1711710962
  0
ARC
  5
482
100
AcDbEntity
  8
RACCORDO
100
AcDbCircle
 62
250
  6
CONTINUOUS
 10
295.8368353519
 20
510.9602562631
 40
574.4403725564
100
AcDbArc
 50
241.5814033622
 51
243.706794781
  0
ARC
  5
483
100
AcDbEntity
  8
ASSI
100
AcDbCircle
 62
250
  6
CONTINUOUS
 10
295.8368353519
 20
510.9602562631
 40
574.4403725564
100
AcDbArc
 50
241.5814033622
 51
243.706794781
  0
ARC
  5
484
100
AcDbEntity
  8
RACCORDO
100
AcDbCircle
 62
250
  6
CONTINUOUS
 10
295.808640979
 20
472.135955146
 40
574.3808163592
100
AcDbArc
 50
241.5813864628
 51
243.7069965092
  0
ARC
  5
485
100
AcDbEntity
  8
ASSI
100
AcDbCircle
 62
250
  6
CONTINUOUS
 10
295.808640979
 20
472.135955146
 40
574.3808163592
100
AcDbArc
 50
241.5813864628
 51
243.7069965092
  0
ARC
  5
486
100
AcDbEntity
  8
RACCORDO
100
AcDbCircle
 62
250
  6
CONTINUOUS
 10
232.8139138297
 20
453.3236846767
 40
492.9918100061
100
AcDbArc
 50
236.0314626046
 51
238.3761853458
  0
ARC
  5
487
100
AcDbEntity
  8
ASSI
100
AcDbCircle
 62
250
  6
CONTINUOUS
 10
232.8139138297
 20
453.3236846767
 40
492.9918100061
100
AcDbArc
 50
236.0314626046
 51
238.3761853458
  0
SPLINE
  5
488
100
AcDbEntity
  8
DRAFT
100
AcDbSpline
 62
7
  6
CONTINUOUS
 70
0
 71
3
 72
11
 73
7
 74
0
 42
0.0000001
 43
0.0000001
 44
0.0000000001
 40
0.0
 40
0.0
 40
0.0
 40
0.0
 40
0.2404937292
 40
0.4874210726
 40
0.7406508918
 40
1.0
 40
1.0
 40
1.0
 40
1.0
 10
44.2644259554
 20
-42.5748853753
 30
0.0
 10
44.5674910174
 20
-39.2908931657
 30
0.0
 10
45.018252094
 20
-32.6190332753
 30
0.0
 10
45.2369765074
 20
-22.4614448995
 30
0.0
 10
45.0069513249
 20
-12.0456346476
 30
0.0
 10
44.5600057945
 20
-5.0284843076
 30
0.0
 10
44.2644259554
 20
-1.4842732702
 30
0.0
  0
SPLINE
  5
489
100
AcDbEntity
  8
DRAFT
100
AcDbSpline
 62
7
  6
CONTINUOUS
 70
0
 71
3
 72
15
 73
11
 74
0
 42
0.0000001
 43
0.0000001
 44
0.0000000001
 40
0.0
 40
0.0
 40
0.0
 40
0.0
 40
0.1187124699
 40
0.2433859711
 40
0.3720976438
 40
0.5026977325
 40
0.6329363472
 40
0.760582579
 40
0.8835446437
 40
1.0
 40
1.0
 40
1.0
 40
1.0
 10
43.884554148
 20
2.0009410577
 30
0.0
 10
43.7744454866
 20
2.8224922779
 30
0.0
 10
43.4449577658
 20
4.4940595205
 30
0.0
 10
42.6740909178
 20
6.9795337355
 30
0.0
 10
41.6317286205
 20
9.4542579406
 30
0.0
 10
40.3444818121
 20
11.8547747436
 30
0.0
 10
38.8451795171
 20
14.1200036335
 30
0.0
 10
37.1719041014
 20
16.19227228
 30
0.0
 10
35.3675883526
 20
18.0185732822
 30
0.0
 10
34.0660440413
 20
19.0749567205
 30
0.0
 10
33.4030925055
 20
19.5457932553
 30
0.0
  0
SPLINE
  5
48A
100
AcDbEntity
  8
DRAFT
100
AcDbSpline
 62
7
  6
CONTINUOUS
 70
0
 71
3
 72
9
 73
5
 74
0
 42
0.0000001
 43
0.0000001
 44
0.0000000001
 40
0.0
 40
0.0
 40
0.0
 40
0.0
 40
0.5082898291
 40
1.0
 40
1.0
 40
1.0
 40
1.0
 10
29.8675585996
 20
21.9573825859
 30
0.0
 10
20.7477733858
 20
27.9227337115
 30
0.0
 10
2.4909836789
 20
39.1861501945
 30
0.0
 10
-16.3836024658
 20
49.3854644559
 30
0.0
 10
-25.8101998896
 20
54.1050225313
 30
0.0
  0
SPLINE
  5
48B
100
AcDbEntity
  8
DRAFT
100
AcDbSpline
 62
7
  6
CONTINUOUS
 70
0
 71
3
 72
14
 73
10
 74
0
 42
0.0000001
 43
0.0000001
 44
0.0000000001
 40
0.0
 40
0.0
 40
0.0
 40
0.0
 40
0.2833022742
 40
0.4146718276
 40
0.5397843401
 40
0.6595413274
 40
0.7751485828
 40
0.8880797829
 40
1.0
 40
1.0
 40
1.0
 40
1.0
 10
-29.3457337956
 20
55.776179134
 30
0.0
 10
-30.0152338842
 20
56.0738136552
 30
0.0
 10
-31.0356765442
 20
56.4314896189
 30
0.0
 10
-32.4125668022
 20
56.6756453625
 30
0.0
 10
-33.3864488104
 20
56.7328377722
 30
0.0
 10
-34.319196642
 20
56.6675777311
 30
0.0
 10
-35.2033953947
 20
56.479721966
 30
0.0
 10
-36.0311939128
 20
56.1704035351
 30
0.0
 10
-36.5407403459
 20
55.8846112579
 30
0.0
 10
-36.7816124169
 20
55.7241084578
 30
0.0
  0
SPLINE
  5
48C
100
AcDbEntity
  8
DRAFT
100
AcDbSpline
 62
7
  6
CONTINUOUS
 70
0
 71
3
 72
10
 73
6
 74
0
 42
0.0000001
 43
0.0000001
 44
0.0000000001
 40
0.0
 40
0.0
 40
0.0
 40
0.0
 40
0.5212701805
 40
0.7646207737
 40
1.0
 40
1.0
 40
1.0
 40
1.0
 10
45.2544817668
 20
-19.0903398219
 30
0.0
 10
45.4298314891
 20
-18.859830602
 30
0.0
 10
45.6462576252
 20
-18.4840490555
 30
0.0
 10
45.7931889709
 20
-17.9458937905
 30
0.0
 10
45.8157469704
 20
-17.6789338756
 30
0.0
 10
45.8140535277
 20
-17.5481653307
 30
0.0
  0
SPLINE
  5
48D
100
AcDbEntity
  8
0
100
AcDbSpline
 62
7
  6
CONTINUOUS
 70
0
 71
3
 72
15
 73
11
 74
0
 42
0.0000001
 43
0.0000001
 44
0.0000000001
 40
0.0
 40
0.0
 40
0.0
 40
0.0
 40
0.1172187636
 40
0.2397236251
 40
0.366460183
 40
0.4962271711
 40
0.6271722466
 40
0.756537571
 40
0.881591634
 40
1.0
 40
1.0
 40
1.0
 40
1.0
 10
44.5659780105
 20
3.7006417028
 30
0.0
 10
44.4669205782
 20
4.420834131
 30
0.0
 10
44.1755642983
 20
5.8824374114
 30
0.0
 10
43.5011496287
 20
8.056439776
 30
0.0
 10
42.5911537355
 20
10.2274883194
 30
0.0
 10
41.4604991035
 20
12.3516254168
 30
0.0
 10
40.1289370488
 20
14.3755148202
 30
0.0
 10
38.6319027312
 20
16.2435432206
 30
0.0
 10
37.0064805681
 20
17.8936185436
 30
0.0
 10
35.8322132384
 20
18.8494881765
 30
0.0
 10
35.2334963696
 20
19.274704441
 30
0.0
  0
SPLINE
  5
48E
100
AcDbEntity
  8
0
100
AcDbSpline
 62
7
  6
CONTINUOUS
 70
0
 71
3
 72
11
 73
7
 74
0
 42
0.0000001
 43
0.0000001
 44
0.0000000001
 40
0.0
 40
0.0
 40
0.0
 40
0.0
 40
0.2372223813
 40
0.500006107
 40
0.7627865088
 40
1.0
 40
1.0
 40
1.0
 40
1.0
 10
-22.7554133256
 20
-3.3368436789
 30
0.0
 10
-22.8357172852
 20
-3.2904771791
 30
0.0
 10
-22.9876979325
 20
-3.1625673387
 30
0.0
 10
-23.1650849215
 20
-2.9201632188
 30
0.0
 10
-23.2863185748
 20
-2.6453429055
 30
0.0
 10
-23.3210987506
 20
-2.4497728267
 30
0.0
 10
-23.3210987506
 20
-2.3570477828
 30
0.0
  0
SPLINE
  5
48F
100
AcDbEntity
  8
RACCORDO
100
AcDbSpline
 62
7
  6
CONTINUOUS
 70
0
 71
3
 72
9
 73
5
 74
0
 42
0.0000001
 43
0.0000001
 44
0.0000000001
 40
0.0
 40
0.0
 40
0.0
 40
0.0
 40
0.2445890598
 40
1.0
 40
1.0
 40
1.0
 40
1.0
 10
22.0760786013
 20
5.2001250564
 30
0.0
 10
22.0977019966
 20
5.1779854235
 30
0.0
 10
22.1834126683
 20
5.0848554634
 30
0.0
 10
22.2582880264
 20
4.9818945146
 30
0.0
 10
22.3084283143
 20
4.9005215239
 30
0.0
  0
SPLINE
  5
490
100
AcDbEntity
  8
RACCORDO
100
AcDbSpline
 62
7
  6
CONTINUOUS
 70
0
 71
3
 72
9
 73
5
 74
0
 42
0.0000001
 43
0.0000001
 44
0.0000000001
 40
0.0
 40
0.0
 40
0.0
 40
0.0
 40
0.2543075688
 40
1.0
 40
1.0
 40
1.0
 40
1.0
 10
22.3084282399
 20
4.9005215368
 30
0.0
 10
22.3342451548
 20
4.8586240299
 30
0.0
 10
22.429039965
 20
4.6898791556
 30
0.0
 10
22.4976049376
 20
4.5059639609
 30
0.0
 10
22.5292999674
 20
4.3651832485
 30
0.0
  0
SPLINE
  5
491
100
AcDbEntity
  8
DRAFT
100
AcDbSpline
 62
7
  6
CONTINUOUS
 70
0
 71
3
 72
14
 73
10
 74
0
 42
0.0000001
 43
0.0000001
 44
0.0000000001
 40
0.0
 40
0.0
 40
0.0
 40
0.0
 40
0.1134727354
 40
0.2277775987
 40
0.34437883
 40
0.4645972433
 40
0.5895483627
 40
0.7201034755
 40
1.0
 40
1.0
 40
1.0
 40
1.0
 10
40.2090569489
 20
-51.3742074554
 30
0.0
 10
40.4495140252
 20
-51.2552246117
 30
0.0
 10
40.9158884065
 20
-50.98165273
 30
0.0
 10
41.5546457453
 20
-50.4726208176
 30
0.0
 10
42.12813955
 20
-49.8688469291
 30
0.0
 10
42.6323173869
 20
-49.1750990768
 30
0.0
 10
43.0641042583
 20
-48.396351313
 30
0.0
 10
43.550862565
 20
-47.2256661012
 30
0.0
 10
43.7809157778
 20
-46.2750288553
 30
0.0
 10
43.884554148
 20
-45.6214332618
 30
0.0
  0
LINE
  5
492
100
AcDbEntity
  8
0
100
AcDbLine
 62
7
  6
CONTINUOUS
 10
35.1871003688
 20
19.3076379121
 11
35.1390601621
 21
19.3417015633
  0
LINE
  5
493
100
AcDbEntity
  8
0
100
AcDbLine
 62
7
  6
CONTINUOUS
 10
35.1390601621
 20
19.3417015633
 11
35.0148570714
 21
19.4295959311
  0
SPLINE
  5
494
100
AcDbEntity
  8
0
100
AcDbSpline
 62
7
  6
CONTINUOUS
 70
0
 71
3
 72
9
 73
5
 74
0
 42
0.0000001
 43
0.0000001
 44
0.0000000001
 40
0.0
 40
0.0
 40
0.0
 40
0.0
 40
0.2581730059
 40
1.0
 40
1.0
 40
1.0
 40
1.0
 10
1.3303773087
 20
-23.8140909528
 30
0.0
 10
1.3307292631
 20
-23.8188562069
 30
0.0
 10
1.3317963464
 20
-23.8373338425
 30
0.0
 10
1.3316702605
 20
-23.8558853748
 30
0.0
 10
1.3308292811
 20
-23.8695892361
 30
0.0
  0
SPLINE
  5
495
100
AcDbEntity
  8
0
100
AcDbSpline
 62
7
  6
CONTINUOUS
 70
0
 71
3
 72
9
 73
5
 74
0
 42
0.0000001
 43
0.0000001
 44
0.0000000001
 40
0.0
 40
0.0
 40
0.0
 40
0.0
 40
0.5360283744
 40
1.0
 40
1.0
 40
1.0
 40
1.0
 10
1.3308292811
 20
-23.8695892361
 30
0.0
 10
1.3293399412
 20
-23.8938582113
 30
0.0
 10
1.3224296155
 20
-23.9390017323
 30
0.0
 10
1.3025029487
 20
-23.9812754648
 30
0.0
 10
1.2889869813
 20
-23.9974079271
 30
0.0
  0
SPLINE
  5
496
100
AcDbEntity
  8
0
100
AcDbSpline
 62
7
  6
CONTINUOUS
 70
0
 71
3
 72
8
 73
4
 74
0
 42
0.0000001
 43
0.0000001
 44
0.0000000001
 40
0.0
 40
0.0
 40
0.0
 40
0.0
 40
1.0
 40
1.0
 40
1.0
 40
1.0
 10
1.2889869813
 20
-23.9974079271
 30
0.0
 10
1.281519486
 20
-24.006321021
 30
0.0
 10
1.272539804
 20
-24.0142682925
 30
0.0
 10
1.2624533093
 20
-24.0200535629
 30
0.0
  0
SPLINE
  5
497
100
AcDbEntity
  8
0
100
AcDbSpline
 62
7
  6
CONTINUOUS
 70
0
 71
3
 72
11
 73
7
 74
0
 42
0.0000001
 43
0.0000001
 44
0.0000000001
 40
0.0
 40
0.0
 40
0.0
 40
0.0
 40
0.2451135912
 40
0.5087968041
 40
0.7682510574
 40
1.0
 40
1.0
 40
1.0
 40
1.0
 10
1.0793779247
 20
-23.403501463
 30
0.0
 10
1.1125302764
 20
-23.4265900404
 30
0.0
 10
1.1757366288
 20
-23.482694561
 30
0.0
 10
1.2538447341
 20
-23.5834385853
 30
0.0
 10
1.3078631405
 20
-23.6963625099
 30
0.0
 10
1.3275637831
 20
-23.7759974852
 30
0.0
 10
1.3303773087
 20
-23.8140909528
 30
0.0
  0
SPLINE
  5
498
100
AcDbEntity
  8
0
100
AcDbSpline
 62
7
  6
CONTINUOUS
 70
0
 71
3
 72
10
 73
6
 74
0
 42
0.0000001
 43
0.0000001
 44
0.0000000001
 40
0.0
 40
0.0
 40
0.0
 40
0.0
 40
0.2349852081
 40
0.4795590767
 40
1.0
 40
1.0
 40
1.0
 40
1.0
 10
0.7551568283
 20
-23.2303307442
 30
0.0
 10
0.7820608519
 20
-23.2407600119
 30
0.0
 10
0.8365856557
 20
-23.2630992961
 30
0.0
 10
0.9468956523
 20
-23.3172243623
 30
0.0
 10
1.0269357168
 20
-23.3669786852
 30
0.0
 10
1.0793779247
 20
-23.403501463
 30
0.0
  0
LINE
  5
499
100
AcDbEntity
  8
0
100
AcDbLine
 62
7
  6
CONTINUOUS
 10
0.46696263
 20
-24.6966930339
 11
0.4765132903
 21
-24.8282149241
  0
SPLINE
  5
49A
100
AcDbEntity
  8
0
100
AcDbSpline
 62
7
  6
CONTINUOUS
 70
0
 71
3
 72
9
 73
5
 74
0
 42
0.0000001
 43
0.0000001
 44
0.0000000001
 40
0.0
 40
0.0
 40
0.0
 40
0.0
 40
0.2719005673
 40
1.0
 40
1.0
 40
1.0
 40
1.0
 10
1.4712675216
 20
-24.4001749956
 30
0.0
 10
1.4733470895
 20
-24.401075886
 30
0.0
 10
1.4811507366
 20
-24.4040178425
 30
0.0
 10
1.4895415226
 20
-24.4054055842
 30
0.0
 10
1.4956101627
 20
-24.4054476286
 30
0.0
  0
SPLINE
  5
49B
100
AcDbEntity
  8
0
100
AcDbSpline
 62
7
  6
CONTINUOUS
 70
0
 71
3
 72
9
 73
5
 74
0
 42
0.0000001
 43
0.0000001
 44
0.0000000001
 40
0.0
 40
0.0
 40
0.0
 40
0.0
 40
0.5081357428
 40
1.0
 40
1.0
 40
1.0
 40
1.0
 10
1.4956101627
 20
-24.4054476286
 30
0.0
 10
1.5071639634
 20
-24.4055276749
 30
0.0
 10
1.5294563133
 20
-24.3985031126
 30
0.0
 10
1.5504015665
 20
-24.3901207468
 30
0.0
 10
1.5606479516
 20
-24.3856379401
 30
0.0
  0
SPLINE
  5
49C
100
AcDbEntity
  8
0
100
AcDbSpline
 62
7
  6
CONTINUOUS
 70
0
 71
3
 72
8
 73
4
 74
0
 42
0.0000001
 43
0.0000001
 44
0.0000000001
 40
0.0
 40
0.0
 40
0.0
 40
0.0
 40
1.0
 40
1.0
 40
1.0
 40
1.0
 10
1.5606479516
 20
-24.3856379401
 30
0.0
 10
1.5706676703
 20
-24.3812543002
 30
0.0
 10
1.580498593
 20
-24.3763851236
 30
0.0
 10
1.5899703284
 20
-24.3709172821
 30
0.0
  0
LINE
  5
49D
100
AcDbEntity
  8
0
100
AcDbLine
 62
7
  6
CONTINUOUS
 10
1.524929723
 20
-25.4289129673
 11
1.9243327665
 21
-25.6573115649
  0
SPLINE
  5
49E
100
AcDbEntity
  8
0
100
AcDbSpline
 62
7
  6
CONTINUOUS
 70
0
 71
3
 72
10
 73
6
 74
0
 42
0.0000001
 43
0.0000001
 44
0.0000000001
 40
0.0
 40
0.0
 40
0.0
 40
0.0
 40
0.5019786494
 40
0.7509031479
 40
1.0
 40
1.0
 40
1.0
 40
1.0
 10
1.2964034835
 20
-24.658843836
 30
0.0
 10
1.339810201
 20
-24.7860506146
 30
0.0
 10
1.3940670387
 20
-24.9798130303
 30
0.0
 10
1.4685469678
 20
-25.2369704055
 30
0.0
 10
1.5063235751
 20
-25.3648630902
 30
0.0
 10
1.524929723
 20
-25.4289129673
 30
0.0
  0
SPLINE
  5
49F
100
AcDbEntity
  8
0
100
AcDbSpline
 62
7
  6
CONTINUOUS
 70
0
 71
3
 72
11
 73
7
 74
0
 42
0.0000001
 43
0.0000001
 44
0.0000000001
 40
0.0
 40
0.0
 40
0.0
 40
0.0
 40
0.2311233271
 40
0.4873262027
 40
0.748650893
 40
1.0
 40
1.0
 40
1.0
 40
1.0
 10
1.0519291945
 20
-24.3325517051
 30
0.0
 10
1.0797147424
 20
-24.3484669133
 30
0.0
 10
1.1342391186
 20
-24.3894510967
 30
0.0
 10
1.2023509725
 20
-24.4685358105
 30
0.0
 10
1.2570813415
 20
-24.5603644744
 30
0.0
 10
1.2851575642
 20
-24.6258867902
 30
0.0
 10
1.2964034835
 20
-24.658843836
 30
0.0
  0
LINE
  5
4A0
100
AcDbEntity
  8
0
100
AcDbLine
 62
7
  6
CONTINUOUS
 10
0.8295071418
 20
-24.2051133017
 11
1.0519291945
 21
-24.3325517051
  0
LINE
  5
4A1
100
AcDbEntity
  8
0
100
AcDbLine
 62
7
  6
CONTINUOUS
 10
0.4765132903
 20
-24.8282149241
 11
0.8894996454
 21
-25.065039575
  0
LINE
  5
4A2
100
AcDbEntity
  8
0
100
AcDbLine
 62
7
  6
CONTINUOUS
 10
-0.0819169073
 20
-24.5075696319
 11
0.3547937133
 21
-24.758365332
  0
LINE
  5
4A3
100
AcDbEntity
  8
0
100
AcDbLine
 62
7
  6
CONTINUOUS
 10
-0.7843367534
 20
-23.6833129146
 11
-0.2205148771
 21
-24.0076337811
  0
LINE
  5
4A4
100
AcDbEntity
  8
0
100
AcDbLine
 62
7
  6
CONTINUOUS
 10
-1.2764247922
 20
-23.8200830875
 11
-0.8672295176
 21
-24.055839003
  0
LINE
  5
4A5
100
AcDbEntity
  8
0
100
AcDbLine
 62
7
  6
CONTINUOUS
 10
-1.2505973142
 20
-23.7174843894
 11
-1.2764247922
 21
-23.8200830875
  0
LINE
  5
4A6
100
AcDbEntity
  8
0
100
AcDbLine
 62
7
  6
CONTINUOUS
 10
-2.386792361
 20
-22.1361166488
 11
-2.4163800245
 21
-22.2234823549
  0
LINE
  5
4A7
100
AcDbEntity
  8
0
100
AcDbLine
 62
7
  6
CONTINUOUS
 10
-1.7458006305
 20
-23.5493356588
 11
-1.3413638243
 21
-23.7826449849
  0
LINE
  5
4A8
100
AcDbEntity
  8
0
100
AcDbLine
 62
7
  6
CONTINUOUS
 10
-2.3798396583
 20
-23.1830645974
 11
-2.3219201032
 21
-23.2165493931
  0
LINE
  5
4A9
100
AcDbEntity
  8
0
100
AcDbLine
 62
7
  6
CONTINUOUS
 10
-3.3478435234
 20
-22.6226645203
 11
-2.9531852639
 21
-22.8513174557
  0
LINE
  5
4AA
100
AcDbEntity
  8
0
100
AcDbLine
 62
7
  6
CONTINUOUS
 10
-3.9820127547
 20
-22.2547375525
 11
-3.5698294814
 21
-22.4939459734
  0
LINE
  5
4AB
100
AcDbEntity
  8
0
100
AcDbLine
 62
7
  6
CONTINUOUS
 10
-5.1317244238
 20
-21.5861037341
 11
-4.7690634635
 21
-21.7972388374
  0
LINE
  5
4AC
100
AcDbEntity
  8
0
100
AcDbLine
 62
7
  6
CONTINUOUS
 10
-4.9642059034
 20
-20.9357132079
 11
-4.9821276563
 21
-21.0167104609
  0
LINE
  5
4AD
100
AcDbEntity
  8
DRAFT
100
AcDbLine
 62
7
  6
CONTINUOUS
 10
45.2651208161
 20
-23.6482797472
 11
45.4589259915
 21
-23.5785083966
  0
LINE
  5
4AE
100
AcDbEntity
  8
RACCORDO
100
AcDbLine
 62
250
  6
CONTINUOUS
 10
-24.0396960902
 20
-20.5944779242
 11
-23.9652115048
 21
-20.6443733462
  0
LINE
  5
4AF
100
AcDbEntity
  8
0
100
AcDbLine
 62
7
  6
CONTINUOUS
 10
-4.1709068309
 20
-19.9008392365
 11
-4.5824948556
 21
-19.6616129296
  0
SPLINE
  5
4B0
100
AcDbEntity
  8
0
100
AcDbSpline
 62
7
  6
CONTINUOUS
 70
0
 71
3
 72
9
 73
5
 74
0
 42
0.0000001
 43
0.0000001
 44
0.0000000001
 40
0.0
 40
0.0
 40
0.0
 40
0.0
 40
0.4677382741
 40
1.0
 40
1.0
 40
1.0
 40
1.0
 10
1.3063206107
 20
-23.9712505213
 30
0.0
 10
1.2779929985
 20
-23.9696741703
 30
0.0
 10
1.2185355193
 20
-23.9528828842
 30
0.0
 10
1.1640010664
 20
-23.9263760829
 30
0.0
 10
1.1356988119
 20
-23.9108416865
 30
0.0
  0
LINE
  5
4B1
100
AcDbEntity
  8
0
100
AcDbLine
 62
7
  6
CONTINUOUS
 10
-5.3456059138
 20
-19.2173693479
 11
-5.7923022428
 21
-18.9569015918
  0
SPLINE
  5
4B2
100
AcDbEntity
  8
0
100
AcDbSpline
 62
250
  6
CONTINUOUS
 70
0
 71
3
 72
11
 73
7
 74
0
 42
0.0000001
 43
0.0000001
 44
0.0000000001
 40
0.0
 40
0.0
 40
0.0
 40
0.0
 40
0.2211989202
 40
0.4559650057
 40
0.7141262669
 40
1.0
 40
1.0
 40
1.0
 40
1.0
 10
-22.0727451395
 20
5.5473194723
 30
0.0
 10
-22.0558123005
 20
5.5564144209
 30
0.0
 10
-22.0175489337
 20
5.5694288874
 30
0.0
 10
-21.954718371
 20
5.5707057586
 30
0.0
 10
-21.888344335
 20
5.554758555
 30
0.0
 10
-21.8453479493
 20
5.5343603765
 30
0.0
 10
-21.8238356747
 20
5.5219394588
 30
0.0
  0
SPLINE
  5
4B3
100
AcDbEntity
  8
0
100
AcDbSpline
 62
7
  6
CONTINUOUS
 70
0
 71
3
 72
11
 73
7
 74
0
 42
0.0000001
 43
0.0000001
 44
0.0000000001
 40
0.0
 40
0.0
 40
0.0
 40
0.0
 40
0.2058229103
 40
0.4434150446
 40
0.7107810277
 40
1.0
 40
1.0
 40
1.0
 40
1.0
 10
1.2624533093
 20
-24.0200535629
 30
0.0
 10
1.2478014867
 20
-24.02845735
 30
0.0
 10
1.2105108402
 20
-24.0364858112
 30
0.0
 10
1.1525029678
 20
-24.0264988545
 30
0.0
 10
1.0910647441
 20
-24.0041880479
 30
0.0
 10
1.0501724052
 20
-23.9836572288
 30
0.0
 10
1.0293658033
 20
-23.9722370307
 30
0.0
  0
SPLINE
  5
4B4
100
AcDbEntity
  8
0
100
AcDbSpline
 62
250
  6
CONTINUOUS
 70
0
 71
3
 72
11
 73
7
 74
0
 42
0.0000001
 43
0.0000001
 44
0.0000000001
 40
0.0
 40
0.0
 40
0.0
 40
0.0
 40
0.2446843875
 40
0.4897770532
 40
0.7402071624
 40
1.0
 40
1.0
 40
1.0
 40
1.0
 10
-29.1114471075
 20
55.6773630145
 30
0.0
 10
-28.9873614567
 20
55.7059820283
 30
0.0
 10
-28.7339626478
 20
55.7437400226
 30
0.0
 10
-28.347135612
 20
55.7378323067
 30
0.0
 10
-27.9585507049
 20
55.6684595354
 30
0.0
 10
-27.7066569639
 20
55.5804578792
 30
0.0
 10
-27.5827391817
 20
55.5263735727
 30
0.0
  0
LINE
  5
4B5
100
AcDbEntity
  8
0
100
AcDbLine
 62
7
  6
CONTINUOUS
 10
-3.6058271878
 20
-20.2287191476
 11
-4.0180105121
 21
-19.9895107561
  0
SPLINE
  5
4B6
100
AcDbEntity
  8
0
100
AcDbSpline
 62
7
  6
CONTINUOUS
 70
0
 71
3
 72
18
 73
14
 74
0
 42
0.0000001
 43
0.0000001
 44
0.0000000001
 40
0.0
 40
0.0
 40
0.0
 40
0.0
 40
0.0411760064
 40
0.0837392859
 40
0.1290703631
 40
0.1779303177
 40
0.2872914569
 40
0.4114144922
 40
0.548891551
 40
0.6971507191
 40
0.8499745078
 40
0.9259538036
 40
1.0
 40
1.0
 40
1.0
 40
1.0
 10
1.6963099546
 20
-24.3095206558
 30
0.0
 10
1.7111547125
 20
-24.3009389253
 30
0.0
 10
1.7395962212
 20
-24.2799980367
 30
0.0
 10
1.7730676038
 20
-24.2372682524
 30
0.0
 10
1.798389544
 20
-24.1859136565
 30
0.0
 10
1.8225115368
 20
-24.10428777
 30
0.0
 10
1.8305639245
 20
-23.9857733475
 30
0.0
 10
1.813359084
 20
-23.8317322398
 30
0.0
 10
1.7681442908
 20
-23.6663802106
 30
0.0
 10
1.6930450493
 20
-23.4992017037
 30
0.0
 10
1.6092853444
 20
-23.3657532051
 30
0.0
 10
1.5316533406
 20
-23.2662893333
 30
0.0
 10
1.489343984
 20
-23.2201255102
 30
0.0
 10
1.4670128622
 20
-23.1988626652
 30
0.0
  0
SPLINE
  5
4B7
100
AcDbEntity
  8
0
100
AcDbSpline
 62
250
  6
CONTINUOUS
 70
0
 71
3
 72
9
 73
5
 74
0
 42
0.0000001
 43
0.0000001
 44
0.0000000001
 40
0.0
 40
0.0
 40
0.0
 40
0.0
 40
0.4952019336
 40
1.0
 40
1.0
 40
1.0
 40
1.0
 10
-28.7891676696
 20
55.5307828957
 30
0.0
 10
-28.5950432436
 20
55.5767079309
 30
0.0
 10
-28.18959599
 20
55.62049083
 30
0.0
 10
-27.786546222
 20
55.5582343106
 30
0.0
 10
-27.5908898469
 20
55.5028341458
 30
0.0
  0
SPLINE
  5
4B8
100
AcDbEntity
  8
0
100
AcDbSpline
 62
250
  6
CONTINUOUS
 70
0
 71
3
 72
11
 73
7
 74
0
 42
0.0000001
 43
0.0000001
 44
0.0000000001
 40
0.0
 40
0.0
 40
0.0
 40
0.0
 40
0.2464696535
 40
0.4902377904
 40
0.7392218023
 40
1.0
 40
1.0
 40
1.0
 40
1.0
 10
-25.6065398679
 20
54.0062410794
 30
0.0
 10
-25.4772873035
 20
54.0415548938
 30
0.0
 10
-25.2136872731
 20
54.0905514031
 30
0.0
 10
-24.8096187277
 20
54.0913105898
 30
0.0
 10
-24.4045827029
 20
54.0161574076
 30
0.0
 10
-24.1446462596
 20
53.9146478162
 30
0.0
 10
-24.0177931604
 20
53.8513500328
 30
0.0
  0
SPLINE
  5
4B9
100
AcDbEntity
  8
0
100
AcDbSpline
 62
250
  6
CONTINUOUS
 70
0
 71
3
 72
11
 73
7
 74
0
 42
0.0000001
 43
0.0000001
 44
0.0000000001
 40
0.0
 40
0.0
 40
0.0
 40
0.0
 40
0.2501664883
 40
0.496488726
 40
0.7448445664
 40
1.0
 40
1.0
 40
1.0
 40
1.0
 10
-25.3251890121
 20
53.861477055
 30
0.0
 10
-25.219125123
 20
53.8908841808
 30
0.0
 10
-25.0043106524
 20
53.935052272
 30
0.0
 10
-24.6759236818
 20
53.9532298454
 30
0.0
 10
-24.3462958491
 20
53.9217064051
 30
0.0
 10
-24.13063318
 20
53.8666709212
 30
0.0
 10
-24.0242766871
 20
53.8307456944
 30
0.0
  0
LINE
  5
4BA
100
AcDbEntity
  8
0
100
AcDbLine
 62
7
  6
CONTINUOUS
 10
0.792296504
 20
-23.8364040082
 11
1.0293658033
 21
-23.9722370307
  0
SPLINE
  5
4BB
100
AcDbEntity
  8
0
100
AcDbSpline
 62
7
  6
CONTINUOUS
 70
0
 71
3
 72
11
 73
7
 74
0
 42
0.0000001
 43
0.0000001
 44
0.0000000001
 40
0.0
 40
0.0
 40
0.0
 40
0.0
 40
0.2735608484
 40
0.527797538
 40
0.7685375989
 40
1.0
 40
1.0
 40
1.0
 40
1.0
 10
1.3607344744
 20
-23.2602264682
 30
0.0
 10
1.2815906442
 20
-23.18482334
 30
0.0
 10
1.1149288156
 20
-23.0539384032
 30
0.0
 10
0.8534025949
 20
-22.8923760621
 30
0.0
 10
0.5944251912
 20
-22.7606187961
 30
0.0
 10
0.4211707132
 20
-22.6856976921
 30
0.0
 10
0.3357007875
 20
-22.6503499305
 30
0.0
  0
LINE
  5
4BC
100
AcDbEntity
  8
0
100
AcDbLine
 62
7
  6
CONTINUOUS
 10
1.4721146366
 20
-24.4131934102
 11
1.4712675216
 21
-24.4001749956
  0
SPLINE
  5
4BD
100
AcDbEntity
  8
0
100
AcDbSpline
 62
7
  6
CONTINUOUS
 70
0
 71
3
 72
11
 73
7
 74
0
 42
0.0000001
 43
0.0000001
 44
0.0000000001
 40
0.0
 40
0.0
 40
0.0
 40
0.0
 40
0.2367092765
 40
0.4816505069
 40
0.737669181
 40
1.0
 40
1.0
 40
1.0
 40
1.0
 10
1.7402887563
 20
-24.9818145526
 30
0.0
 10
1.7279110534
 20
-24.9369764078
 30
0.0
 10
1.7033980996
 20
-24.8455370975
 30
0.0
 10
1.6558999264
 20
-24.70837478
 30
0.0
 10
1.5932797934
 20
-24.5718263805
 30
0.0
 10
1.5369120696
 20
-24.485949283
 30
0.0
 10
1.5033721556
 20
-24.4468023361
 30
0.0
  0
SPLINE
  5
4BE
100
AcDbEntity
  8
0
100
AcDbSpline
 62
7
  6
CONTINUOUS
 70
0
 71
3
 72
9
 73
5
 74
0
 42
0.0000001
 43
0.0000001
 44
0.0000000001
 40
0.0
 40
0.0
 40
0.0
 40
0.0
 40
0.7533493198
 40
1.0
 40
1.0
 40
1.0
 40
1.0
 10
1.5033721556
 20
-24.4468023361
 30
0.0
 10
1.4958719715
 20
-24.4380483093
 30
0.0
 10
1.4855773725
 20
-24.4267089746
 30
0.0
 10
1.4748028233
 20
-24.4158426086
 30
0.0
 10
1.4721146366
 20
-24.4131934102
 30
0.0
  0
SPLINE
  5
4BF
100
AcDbEntity
  8
0
100
AcDbSpline
 62
7
  6
CONTINUOUS
 70
0
 71
3
 72
9
 73
5
 74
0
 42
0.0000001
 43
0.0000001
 44
0.0000000001
 40
0.0
 40
0.0
 40
0.0
 40
0.0
 40
0.4995391229
 40
1.0
 40
1.0
 40
1.0
 40
1.0
 10
1.9243327665
 20
-25.6573115649
 30
0.0
 10
1.8928904555
 20
-25.5450525723
 30
0.0
 10
1.8324355128
 20
-25.3196393635
 30
0.0
 10
1.7713677116
 20
-25.0943978574
 30
0.0
 10
1.7402887563
 20
-24.9818145526
 30
0.0
  0
LINE
  5
4C0
100
AcDbEntity
  8
0
100
AcDbLine
 62
7
  6
CONTINUOUS
 10
-0.7229001113
 20
-23.3923384933
 11
-0.3265083989
 21
-23.6203498365
  0
LINE
  5
4C1
100
AcDbEntity
  8
0
100
AcDbLine
 62
7
  6
CONTINUOUS
 10
-0.7969762015
 20
-21.9744461132
 11
-0.3964558813
 21
-22.2048226999
  0
LINE
  5
4C2
100
AcDbEntity
  8
0
100
AcDbLine
 62
7
  6
CONTINUOUS
 10
-0.8672295176
 20
-24.055839003
 11
-0.8493107833
 21
-23.9748225181
  0
LINE
  5
4C3
100
AcDbEntity
  8
0
100
AcDbLine
 62
7
  6
CONTINUOUS
 10
-3.3116862657
 20
-20.5223346742
 11
-2.8993923699
 21
-20.7610848299
  0
LINE
  5
4C4
100
AcDbEntity
  8
0
100
AcDbLine
 62
7
  6
CONTINUOUS
 10
-2.0777993003
 20
-21.2360633011
 11
-1.668861443
 21
-21.4720878789
  0
LINE
  5
4C5
100
AcDbEntity
  8
0
100
AcDbLine
 62
7
  6
CONTINUOUS
 10
-2.3219201032
 20
-23.2165493931
 11
-2.2922845472
 21
-23.1291241467
  0
LINE
  5
4C6
100
AcDbEntity
  8
0
100
AcDbLine
 62
7
  6
CONTINUOUS
 10
-4.1242855234
 20
-20.0508726157
 11
-3.7121020486
 21
-20.2900809203
  0
LINE
  5
4C7
100
AcDbEntity
  8
0
100
AcDbLine
 62
7
  6
CONTINUOUS
 10
-5.8985782842
 20
-19.0182640462
 11
-5.4518816403
 21
-19.2787316204
  0
LINE
  5
4C8
100
AcDbEntity
  8
0
100
AcDbLine
 62
7
  6
CONTINUOUS
 10
-4.6887701335
 20
-19.7229749431
 11
-4.2771819137
 21
-19.9622011373
  0
LINE
  5
4C9
100
AcDbEntity
  8
0
100
AcDbLine
 62
7
  6
CONTINUOUS
 10
-4.7690634635
 20
-21.7972388374
 11
-4.7473732594
 21
-21.7137874651
  0
SPLINE
  5
4CA
100
AcDbEntity
  8
0
100
AcDbSpline
 62
250
  6
CONTINUOUS
 70
0
 71
3
 72
9
 73
5
 74
0
 42
0.0000001
 43
0.0000001
 44
0.0000000001
 40
0.0
 40
0.0
 40
0.0
 40
0.0
 40
0.543870863
 40
1.0
 40
1.0
 40
1.0
 40
1.0
 10
-21.8238356747
 20
5.5219394588
 30
0.0
 10
-21.7891187549
 20
5.5405847268
 30
0.0
 10
-21.720251455
 20
5.567451034
 30
0.0
 10
-21.6444572463
 20
5.5636272336
 30
0.0
 10
-21.6133585549
 20
5.5524405187
 30
0.0
  0
LINE
  5
4CB
100
AcDbEntity
  8
0
100
AcDbLine
 62
7
  6
CONTINUOUS
 10
-1.5625868388
 20
-21.4107262543
 11
-1.9715247074
 21
-21.174701683
  0
LINE
  5
4CC
100
AcDbEntity
  8
0
100
AcDbLine
 62
7
  6
CONTINUOUS
 10
-2.7931177027
 20
-20.699723169
 11
-3.2054115124
 21
-20.4609729636
  0
SPLINE
  5
4CD
100
AcDbEntity
  8
0
100
AcDbSpline
 62
7
  6
CONTINUOUS
 70
0
 71
3
 72
8
 73
4
 74
0
 42
0.0000001
 43
0.0000001
 44
0.0000000001
 40
0.0
 40
0.0
 40
0.0
 40
0.0
 40
1.0
 40
1.0
 40
1.0
 40
1.0
 10
1.5899703284
 20
-24.3709172821
 30
0.0
 10
1.5964797585
 20
-24.3671595197
 30
0.0
 10
1.6028310706
 20
-24.3631046417
 30
0.0
 10
1.608929922
 20
-24.3587117532
 30
0.0
  0
SPLINE
  5
4CE
100
AcDbEntity
  8
0
100
AcDbSpline
 62
7
  6
CONTINUOUS
 70
0
 71
3
 72
17
 73
13
 74
0
 42
0.0000001
 43
0.0000001
 44
0.0000000001
 40
0.0
 40
0.0
 40
0.0
 40
0.0
 40
0.0411518288
 40
0.0842965648
 40
0.1798588006
 40
0.2905642016
 40
0.4151984427
 40
0.5526055381
 40
0.7000171685
 40
0.8514651849
 40
0.9266832761
 40
1.0
 40
1.0
 40
1.0
 40
1.0
 10
1.608929922
 20
-24.3587117532
 30
0.0
 10
1.6225822233
 20
-24.3488782564
 30
0.0
 10
1.6479906468
 20
-24.3249495481
 30
0.0
 10
1.6883419448
 20
-24.262871323
 30
0.0
 10
1.7182613866
 20
-24.1633867636
 30
0.0
 10
1.7231036539
 20
-24.0273862001
 30
0.0
 10
1.7034479385
 20
-23.8756606394
 30
0.0
 10
1.6565709047
 20
-23.7142587295
 30
0.0
 10
1.5817227273
 20
-23.551706307
 30
0.0
 10
1.4994110856
 20
-23.4222134696
 30
0.0
 10
1.4236499362
 20
-23.3256904159
 30
0.0
 10
1.382443093
 20
-23.2808973301
 30
0.0
 10
1.3607344744
 20
-23.2602264682
 30
0.0
  0
SPLINE
  5
4CF
100
AcDbEntity
  8
RACCORDO
100
AcDbSpline
 62
250
  6
CONTINUOUS
 70
0
 71
3
 72
11
 73
7
 74
0
 42
0.0000001
 43
0.0000001
 44
0.0000000001
 40
0.0
 40
0.0
 40
0.0
 40
0.0
 40
0.2385057859
 40
0.5026634536
 40
0.7653757922
 40
1.0
 40
1.0
 40
1.0
 40
1.0
 10
-24.6695585981
 20
-4.538547241
 30
0.0
 10
-24.7620634716
 20
-4.4851366355
 30
0.0
 10
-24.9380579254
 20
-4.3395161806
 30
0.0
 10
-25.147861512
 20
-4.0655585486
 30
0.0
 10
-25.2963383555
 20
-3.7560056794
 30
0.0
 10
-25.344866956
 20
-3.5350201986
 30
0.0
 10
-25.3491348663
 20
-3.430028433
 30
0.0
  0
LINE
  5
4D0
100
AcDbEntity
  8
0
100
AcDbLine
 62
7
  6
CONTINUOUS
 10
-0.7057396521
 20
-23.7461641191
 11
-0.7022575202
 21
-23.7305552465
  0
SPLINE
  5
4D1
100
AcDbEntity
  8
RACCORDO
100
AcDbSpline
 62
250
  6
CONTINUOUS
 70
0
 71
3
 72
11
 73
7
 74
0
 42
0.0000001
 43
0.0000001
 44
0.0000000001
 40
0.0
 40
0.0
 40
0.0
 40
0.0
 40
0.2873329602
 40
0.5459584767
 40
0.7800353479
 40
1.0
 40
1.0
 40
1.0
 40
1.0
 10
-25.3491348829
 20
32.0047633192
 30
0.0
 10
-25.3472056099
 20
32.0542615921
 30
0.0
 10
-25.3357471874
 20
32.1483592509
 30
0.0
 10
-25.2910357909
 20
32.2765126738
 30
0.0
 10
-25.2205667591
 20
32.379247946
 30
0.0
 10
-25.1566113614
 20
32.4273516119
 30
0.0
 10
-25.1228227975
 20
32.4445674142
 30
0.0
  0
LINE
  5
4D2
100
AcDbEntity
  8
0
100
AcDbLine
 62
7
  6
CONTINUOUS
 10
-0.2901810379
 20
-22.1434609373
 11
-0.6907014667
 21
-21.9130844133
  0
SPLINE
  5
4D3
100
AcDbEntity
  8
RACCORDO
100
AcDbSpline
 62
7
  6
CONTINUOUS
 70
0
 71
3
 72
9
 73
5
 74
0
 42
0.0000001
 43
0.0000001
 44
0.0000000001
 40
0.0
 40
0.0
 40
0.0
 40
0.0
 40
0.2538009303
 40
1.0
 40
1.0
 40
1.0
 40
1.0
 10
22.5292999674
 20
4.3651832485
 30
0.0
 10
22.5318941604
 20
4.3536605483
 30
0.0
 10
22.5415987196
 20
4.3081458426
 30
0.0
 10
22.5492100853
 20
4.2621797319
 30
0.0
 10
22.5535866461
 20
4.2277308159
 30
0.0
  0
LINE
  5
4D4
100
AcDbEntity
  8
0
100
AcDbLine
 62
7
  6
CONTINUOUS
 10
-0.3645909628
 20
-23.4758802904
 11
-0.6165394836
 21
-23.3309271999
  0
LINE
  5
4D5
100
AcDbEntity
  8
RACCORDO
100
AcDbLine
 62
250
  6
CONTINUOUS
 10
22.8125991562
 20
-38.7817448016
 11
22.8184703614
 21
-38.8513421583
  0
SPLINE
  5
4D6
100
AcDbEntity
  8
RACCORDO
100
AcDbSpline
 62
250
  6
CONTINUOUS
 70
0
 71
3
 72
9
 73
5
 74
0
 42
0.0000001
 43
0.0000001
 44
0.0000000001
 40
0.0
 40
0.0
 40
0.0
 40
0.0
 40
0.25449547
 40
1.0
 40
1.0
 40
1.0
 40
1.0
 10
22.8184703614
 20
-38.8513421583
 30
0.0
 10
22.8868000032
 20
-39.6587031333
 30
0.0
 10
23.1852978056
 20
-42.8284552423
 30
0.0
 10
23.6058092361
 20
-45.9869921918
 30
0.0
 10
23.9939898329
 20
-48.3285261727
 30
0.0
  0
SPLINE
  5
4D7
100
AcDbEntity
  8
0
100
AcDbSpline
 62
7
  6
CONTINUOUS
 70
0
 71
3
 72
9
 73
5
 74
0
 42
0.0000001
 43
0.0000001
 44
0.0000000001
 40
0.0
 40
0.0
 40
0.0
 40
0.0
 40
0.4995387861
 40
1.0
 40
1.0
 40
1.0
 40
1.0
 10
2.0307480781
 20
-25.5958686977
 30
0.0
 10
1.9992987099
 20
-25.4836138558
 30
0.0
 10
1.9388298953
 20
-25.2582085407
 30
0.0
 10
1.8777482856
 20
-25.0329749598
 30
0.0
 10
1.8466626945
 20
-24.9203954994
 30
0.0
  0
SPLINE
  5
4D8
100
AcDbEntity
  8
0
100
AcDbSpline
 62
7
  6
CONTINUOUS
 70
0
 71
3
 72
11
 73
7
 74
0
 42
0.0000001
 43
0.0000001
 44
0.0000000001
 40
0.0
 40
0.0
 40
0.0
 40
0.0
 40
0.2372154473
 40
0.4818448204
 40
0.7368526458
 40
1.0
 40
1.0
 40
1.0
 40
1.0
 10
1.8466626945
 20
-24.9203954994
 30
0.0
 10
1.8351092766
 20
-24.8785536842
 30
0.0
 10
1.8122864377
 20
-24.7933720878
 30
0.0
 10
1.7691300438
 20
-24.6654765913
 30
0.0
 10
1.7131549212
 20
-24.5374213648
 30
0.0
 10
1.6640989841
 20
-24.4556350909
 30
0.0
 10
1.6351654446
 20
-24.417144256
 30
0.0
  0
SPLINE
  5
4D9
100
AcDbEntity
  8
RACCORDO
100
AcDbSpline
 62
250
  6
CONTINUOUS
 70
0
 71
3
 72
14
 73
10
 74
0
 42
0.0000001
 43
0.0000001
 44
0.0000000001
 40
0.0
 40
0.0
 40
0.0
 40
0.0
 40
0.1128578434
 40
0.2257750265
 40
0.3407754828
 40
0.4597039923
 40
0.7147495233
 40
0.8533618937
 40
1.0
 40
1.0
 40
1.0
 40
1.0
 10
38.4039303128
 20
-52.2673991784
 30
0.0
 10
38.6248149503
 20
-52.1580792091
 30
0.0
 10
39.0508234065
 20
-51.9052854793
 30
0.0
 10
39.6262697351
 20
-51.4289701576
 30
0.0
 10
40.1316416324
 20
-50.8609306057
 30
0.0
 10
40.7216481719
 20
-49.9672482934
 30
0.0
 10
41.1431623385
 20
-48.9165549322
 30
0.0
 10
41.4092160846
 20
-47.7662401539
 30
0.0
 10
41.4923384823
 20
-47.1477308866
 30
0.0
 10
41.5220177798
 20
-46.8288839363
 30
0.0
  0
SPLINE
  5
4DA
100
AcDbEntity
  8
0
100
AcDbSpline
 62
7
  6
CONTINUOUS
 70
0
 71
3
 72
11
 73
7
 74
0
 42
0.0000001
 43
0.0000001
 44
0.0000000001
 40
0.0
 40
0.0
 40
0.0
 40
0.0
 40
0.2735582666
 40
0.5278003327
 40
0.7685460658
 40
1.0
 40
1.0
 40
1.0
 40
1.0
 10
1.4670128622
 20
-23.1988626652
 30
0.0
 10
1.3878684865
 20
-23.1234617227
 30
0.0
 10
1.2212002423
 20
-22.9925831834
 30
0.0
 10
0.9596707028
 20
-22.8310215739
 30
0.0
 10
0.700698514
 20
-22.6992519908
 30
0.0
 10
0.5274438055
 20
-22.6243342563
 30
0.0
 10
0.4419773286
 20
-22.5889871876
 30
0.0
  0
SPLINE
  5
4DB
100
AcDbEntity
  8
RACCORDO
100
AcDbSpline
 62
250
  6
CONTINUOUS
 70
0
 71
3
 72
20
 73
16
 74
0
 42
0.0000001
 43
0.0000001
 44
0.0000000001
 40
0.0
 40
0.0
 40
0.0
 40
0.0
 40
0.1506473285
 40
0.22005213
 40
0.2856342363
 40
0.4064715914
 40
0.4630444211
 40
0.5179718144
 40
0.572148784
 40
0.6265209677
 40
0.6820108709
 40
0.7394500353
 40
0.8625906938
 40
0.9294069528
 40
1.0
 40
1.0
 40
1.0
 40
1.0
 10
31.6454937926
 20
-51.8584863621
 30
0.0
 10
32.2531094581
 20
-52.1054024332
 30
0.0
 10
33.1668996377
 20
-52.4096592546
 30
0.0
 10
34.3898513416
 20
-52.6444090923
 30
0.0
 10
35.4997642467
 20
-52.7482136854
 30
0.0
 10
36.5678472193
 20
-52.6780032542
 30
0.0
 10
37.5453642657
 20
-52.4066166002
 30
0.0
 10
38.2079460995
 20
-52.114810664
 30
0.0
 10
38.8111087448
 20
-51.7318641744
 30
0.0
 10
39.3511284603
 20
-51.2604092562
 30
0.0
 10
39.8249583124
 20
-50.7038578804
 30
0.0
 10
40.3780089475
 20
-49.8343063732
 30
0.0
 10
40.7731078139
 20
-48.8200263048
 30
0.0
 10
41.023109145
 20
-47.7128243645
 30
0.0
 10
41.1014273369
 20
-47.1186911331
 30
0.0
 10
41.1294667445
 20
-46.8126338455
 30
0.0
  0
SPLINE
  5
4DC
100
AcDbEntity
  8
RACCORDO
100
AcDbSpline
 62
250
  6
CONTINUOUS
 70
0
 71
3
 72
11
 73
7
 74
0
 42
0.0000001
 43
0.0000001
 44
0.0000000001
 40
0.0
 40
0.0
 40
0.0
 40
0.0
 40
0.2372415598
 40
0.4833223161
 40
0.737752625
 40
1.0
 40
1.0
 40
1.0
 40
1.0
 10
41.7746198277
 20
-42.8281252553
 30
0.0
 10
41.9254062167
 20
-39.7628863695
 30
0.0
 10
42.1486713286
 20
-33.5138362185
 30
0.0
 10
42.2558824872
 20
-23.9700654494
 30
0.0
 10
42.1412665102
 20
-14.1029378122
 30
0.0
 10
41.9204338521
 20
-7.4223072484
 30
0.0
 10
41.7746198277
 20
-4.0330229697
 30
0.0
  0
SPLINE
  5
4DD
100
AcDbEntity
  8
RACCORDO
100
AcDbSpline
 62
250
  6
CONTINUOUS
 70
0
 71
3
 72
14
 73
10
 74
0
 42
0.0000001
 43
0.0000001
 44
0.0000000001
 40
0.0
 40
0.0
 40
0.0
 40
0.0
 40
0.2738804918
 40
0.4026571343
 40
0.5268305659
 40
0.6474054595
 40
0.7655718906
 40
0.8826469344
 40
1.0
 40
1.0
 40
1.0
 40
1.0
 10
-30.981704261
 20
54.7211919626
 30
0.0
 10
-31.6300641889
 20
55.0314470722
 30
0.0
 10
-32.6323145873
 20
55.3997655385
 30
0.0
 10
-33.9969091094
 20
55.6387893378
 30
0.0
 10
-34.9789663508
 20
55.6854706081
 30
0.0
 10
-35.9307738249
 20
55.6026491494
 30
0.0
 10
-36.8436621534
 20
55.3913335978
 30
0.0
 10
-37.7086411689
 20
55.0539427319
 30
0.0
 10
-38.2456227511
 20
54.7485838263
 30
0.0
 10
-38.5019245035
 20
54.5778174506
 30
0.0
  0
SPLINE
  5
4DE
100
AcDbEntity
  8
RACCORDO
100
AcDbSpline
 62
250
  6
CONTINUOUS
 70
0
 71
3
 72
15
 73
11
 74
0
 42
0.0000001
 43
0.0000001
 44
0.0000000001
 40
0.0
 40
0.0
 40
0.0
 40
0.0
 40
0.1203800508
 40
0.2459607793
 40
0.374844142
 40
0.5049972422
 40
0.634382371
 40
0.7610765952
 40
0.8833917207
 40
1.0
 40
1.0
 40
1.0
 40
1.0
 10
41.5220168323
 20
0.7483338249
 30
0.0
 10
41.4604315869
 20
1.584602865
 30
0.0
 10
41.2311670075
 20
3.2868421293
 30
0.0
 10
40.6064514018
 20
5.8266074369
 30
0.0
 10
39.7031906282
 20
8.3538285556
 30
0.0
 10
38.5382977878
 20
10.80102392
 30
0.0
 10
37.1347842322
 20
13.1021748836
 30
0.0
 10
35.5218478491
 20
15.1941124721
 30
0.0
 10
33.735951758
 20
17.0182656185
 30
0.0
 10
32.4219334142
 20
18.0499625798
 30
0.0
 10
31.7472620022
 20
18.5022740364
 30
0.0
  0
SPLINE
  5
4DF
100
AcDbEntity
  8
RACCORDO
100
AcDbSpline
 62
250
  6
CONTINUOUS
 70
0
 71
3
 72
9
 73
5
 74
0
 42
0.0000001
 43
0.0000001
 44
0.0000000001
 40
0.0
 40
0.0
 40
0.0
 40
0.0
 40
0.2506876302
 40
1.0
 40
1.0
 40
1.0
 40
1.0
 10
28.1076559083
 20
20.8423812496
 30
0.0
 10
27.7808889703
 20
21.0436804431
 30
0.0
 10
26.4773866387
 20
21.846636382
 30
0.0
 10
25.1738000617
 20
22.6494555619
 30
0.0
 10
24.1969511674
 20
23.2509280099
 30
0.0
  0
SPLINE
  5
4E0
100
AcDbEntity
  8
RACCORDO
100
AcDbSpline
 62
250
  6
CONTINUOUS
 70
0
 71
3
 72
9
 73
5
 74
0
 42
0.0000001
 43
0.0000001
 44
0.0000000001
 40
0.0
 40
0.0
 40
0.0
 40
0.0
 40
0.2508915092
 40
1.0
 40
1.0
 40
1.0
 40
1.0
 10
-23.8474951453
 20
50.9911891726
 30
0.0
 10
-24.1577350901
 20
51.1578829941
 30
0.0
 10
-25.3943499254
 20
51.822168675
 30
0.0
 10
-26.6312207371
 20
52.4859778308
 30
0.0
 10
-27.5579110757
 20
52.9829819557
 30
0.0
  0
SPLINE
  5
4E1
100
AcDbEntity
  8
RACCORDO
100
AcDbSpline
 62
250
  6
CONTINUOUS
 70
0
 71
3
 72
10
 73
6
 74
0
 42
0.0000001
 43
0.0000001
 44
0.0000000001
 40
0.0
 40
0.0
 40
0.0
 40
0.0
 40
0.2477913017
 40
0.5084768255
 40
1.0
 40
1.0
 40
1.0
 40
1.0
 10
41.1294667469
 20
-46.8126338437
 30
0.0
 10
41.1577245633
 20
-46.8309972306
 30
0.0
 10
41.2220141021
 20
-46.8595843576
 30
0.0
 10
41.3565360487
 20
-46.8820954867
 30
0.0
 10
41.4640307674
 20
-46.8622441367
 30
0.0
 10
41.5220098417
 20
-46.8289698064
 30
0.0
  0
SPLINE
  5
4E2
100
AcDbEntity
  8
RACCORDO
100
AcDbSpline
 62
250
  6
CONTINUOUS
 70
0
 71
3
 72
11
 73
7
 74
0
 42
0.0000001
 43
0.0000001
 44
0.0000000001
 40
0.0
 40
0.0
 40
0.0
 40
0.0
 40
0.2439993924
 40
0.5039724029
 40
0.7617946156
 40
1.0
 40
1.0
 40
1.0
 40
1.0
 10
41.3298026821
 20
-43.8738802169
 30
0.0
 10
41.3585115786
 20
-43.8908235339
 30
0.0
 10
41.4234630742
 20
-43.9165559795
 30
0.0
 10
41.5274794141
 20
-43.9305572385
 30
0.0
 10
41.6311854374
 20
-43.9207323606
 30
0.0
 10
41.6959746651
 20
-43.8973885175
 30
0.0
 10
41.7243383815
 20
-43.8814315067
 30
0.0
  0
SPLINE
  5
4E3
100
AcDbEntity
  8
RACCORDO
100
AcDbSpline
 62
250
  6
CONTINUOUS
 70
0
 71
3
 72
11
 73
7
 74
0
 42
0.0000001
 43
0.0000001
 44
0.0000000001
 40
0.0
 40
0.0
 40
0.0
 40
0.0
 40
0.2440056649
 40
0.5042220108
 40
0.7621544011
 40
1.0
 40
1.0
 40
1.0
 40
1.0
 10
41.3799282354
 20
-42.8197432523
 30
0.0
 10
41.4086767414
 20
-42.8366003575
 30
0.0
 10
41.4736702259
 20
-42.862212803
 30
0.0
 10
41.5776707549
 20
-42.8763036576
 30
0.0
 10
41.6813557697
 20
-42.8668341518
 30
0.0
 10
41.7462119935
 20
-42.8438816701
 30
0.0
 10
41.774619808
 20
-42.8281252404
 30
0.0
  0
SPLINE
  5
4E4
100
AcDbEntity
  8
RACCORDO
100
AcDbSpline
 62
250
  6
CONTINUOUS
 70
0
 71
3
 72
11
 73
7
 74
0
 42
0.0000001
 43
0.0000001
 44
0.0000000001
 40
0.0
 40
0.0
 40
0.0
 40
0.0
 40
0.2367077979
 40
0.4985820107
 40
0.7612091424
 40
1.0
 40
1.0
 40
1.0
 40
1.0
 10
41.3799282259
 20
-4.0479020951
 30
0.0
 10
41.4095714394
 20
-4.0595817546
 30
0.0
 10
41.4754757241
 20
-4.0754676393
 30
0.0
 10
41.5782891319
 20
-4.0803881605
 30
0.0
 10
41.6807168706
 20
-4.0676787461
 30
0.0
 10
41.7456166412
 20
-4.0468755859
 30
0.0
 10
41.7746198276
 20
-4.0330229697
 30
0.0
  0
SPLINE
  5
4E5
100
AcDbEntity
  8
RACCORDO
100
AcDbSpline
 62
250
  6
CONTINUOUS
 70
0
 71
3
 72
11
 73
7
 74
0
 42
0.0000001
 43
0.0000001
 44
0.0000000001
 40
0.0
 40
0.0
 40
0.0
 40
0.0
 40
0.2367270069
 40
0.4987972166
 40
0.7615054504
 40
1.0
 40
1.0
 40
1.0
 40
1.0
 10
41.3298026845
 20
-2.8342364515
 30
0.0
 10
41.3594670798
 20
-2.84576212
 30
0.0
 10
41.4253411172
 20
-2.8614495955
 30
0.0
 10
41.5280477693
 20
-2.866437563
 30
0.0
 10
41.6303768458
 20
-2.8541271083
 30
0.0
 10
41.6952930167
 20
-2.8338070369
 30
0.0
 10
41.7243383776
 20
-2.8202289133
 30
0.0
  0
SPLINE
  5
4E6
100
AcDbEntity
  8
RACCORDO
100
AcDbSpline
 62
250
  6
CONTINUOUS
 70
0
 71
3
 72
11
 73
7
 74
0
 42
0.0000001
 43
0.0000001
 44
0.0000000001
 40
0.0
 40
0.0
 40
0.0
 40
0.0
 40
0.234158542
 40
0.4964094645
 40
0.7605536882
 40
1.0
 40
1.0
 40
1.0
 40
1.0
 10
41.1294667973
 20
0.7241818919
 30
0.0
 10
41.1592396982
 20
0.7147880259
 30
0.0
 10
41.2249143239
 20
0.7029680438
 30
0.0
 10
41.3266545181
 20
0.7016923647
 30
0.0
 10
41.4281605293
 20
0.7156338875
 30
0.0
 10
41.4928269246
 20
0.735484914
 30
0.0
 10
41.522009485
 20
0.7484296259
 30
0.0
  0
SPLINE
  5
4E7
100
AcDbEntity
  8
RACCORDO
100
AcDbSpline
 62
250
  6
CONTINUOUS
 70
0
 71
3
 72
11
 73
7
 74
0
 42
0.0000001
 43
0.0000001
 44
0.0000000001
 40
0.0
 40
0.0
 40
0.0
 40
0.0
 40
0.2415676413
 40
0.5031627073
 40
0.7630934037
 40
1.0
 40
1.0
 40
1.0
 40
1.0
 10
31.5361161007
 20
18.195048589
 30
0.0
 10
31.5432694663
 20
18.2247785305
 30
0.0
 10
31.5654530604
 20
18.2850026635
 30
0.0
 10
31.6138799634
 20
18.3690249361
 30
0.0
 10
31.6745903281
 20
18.4438895994
 30
0.0
 10
31.7224551799
 20
18.4854872321
 30
0.0
 10
31.747341087
 20
18.5022203316
 30
0.0
  0
SPLINE
  5
4E8
100
AcDbEntity
  8
RACCORDO
100
AcDbSpline
 62
250
  6
CONTINUOUS
 70
0
 71
3
 72
11
 73
7
 74
0
 42
0.0000001
 43
0.0000001
 44
0.0000000001
 40
0.0
 40
0.0
 40
0.0
 40
0.0
 40
0.2438289497
 40
0.5055512417
 40
0.7643438186
 40
1.0
 40
1.0
 40
1.0
 40
1.0
 10
27.9047677269
 20
20.5300642015
 30
0.0
 10
27.9106984802
 20
20.560396826
 30
0.0
 10
27.9305630901
 20
20.6218767748
 30
0.0
 10
27.9764791041
 20
20.7076871928
 30
0.0
 10
28.0355041652
 20
20.78375839
 30
0.0
 10
28.0828844977
 20
20.8256901113
 30
0.0
 10
28.107658045
 20
20.8423799298
 30
0.0
  0
SPLINE
  5
4E9
100
AcDbEntity
  8
RACCORDO
100
AcDbSpline
 62
250
  6
CONTINUOUS
 70
0
 71
3
 72
11
 73
7
 74
0
 42
0.0000001
 43
0.0000001
 44
0.0000000001
 40
0.0
 40
0.0
 40
0.0
 40
0.0
 40
0.2440325806
 40
0.5055752572
 40
0.7641729889
 40
1.0
 40
1.0
 40
1.0
 40
1.0
 10
23.9939898335
 20
22.939042488
 30
0.0
 10
23.9997610393
 20
22.9694284374
 30
0.0
 10
24.0193822587
 20
23.030998152
 30
0.0
 10
24.065221413
 20
23.1168314271
 30
0.0
 10
24.1244137639
 20
23.1927477521
 30
0.0
 10
24.172040963
 20
23.234410014
 30
0.0
 10
24.1969511674
 20
23.250928005
 30
0.0
  0
SPLINE
  5
4EA
100
AcDbEntity
  8
RACCORDO
100
AcDbSpline
 62
250
  6
CONTINUOUS
 70
0
 71
3
 72
11
 73
7
 74
0
 42
0.0000001
 43
0.0000001
 44
0.0000000001
 40
0.0
 40
0.0
 40
0.0
 40
0.0
 40
0.2474690542
 40
0.5080540216
 40
0.7643436395
 40
1.0
 40
1.0
 40
1.0
 40
1.0
 10
-24.0396960903
 20
50.6730907363
 30
0.0
 10
-24.0365476725
 20
50.70450508
 30
0.0
 10
-24.0215501872
 20
50.768271771
 30
0.0
 10
-23.9796059637
 20
50.857007353
 30
0.0
 10
-23.9216065039
 20
50.9343211611
 30
0.0
 10
-23.8730890565
 20
50.9754146233
 30
0.0
 10
-23.8474951453
 20
50.9911891725
 30
0.0
  0
SPLINE
  5
4EB
100
AcDbEntity
  8
RACCORDO
100
AcDbSpline
 62
250
  6
CONTINUOUS
 70
0
 71
3
 72
11
 73
7
 74
0
 42
0.0000001
 43
0.0000001
 44
0.0000000001
 40
0.0
 40
0.0
 40
0.0
 40
0.0
 40
0.2474757789
 40
0.5078508649
 40
0.7640340723
 40
1.0
 40
1.0
 40
1.0
 40
1.0
 10
-27.7501969568
 20
52.6645432889
 30
0.0
 10
-27.7472589283
 20
52.6960361236
 30
0.0
 10
-27.7325747015
 20
52.7599903328
 30
0.0
 10
-27.6907322332
 20
52.8489493906
 30
0.0
 10
-27.6325103923
 20
52.9263410656
 30
0.0
 10
-27.5836791346
 20
52.9673103257
 30
0.0
 10
-27.5579126916
 20
52.9829828183
 30
0.0
  0
SPLINE
  5
4EC
100
AcDbEntity
  8
RACCORDO
100
AcDbSpline
 62
250
  6
CONTINUOUS
 70
0
 71
3
 72
10
 73
6
 74
0
 42
0.0000001
 43
0.0000001
 44
0.0000000001
 40
0.0
 40
0.0
 40
0.0
 40
0.0
 40
0.5082613681
 40
0.7642121804
 40
1.0
 40
1.0
 40
1.0
 40
1.0
 10
-31.1657638646
 20
54.3983282372
 30
0.0
 10
-31.162223934
 20
54.4630843656
 30
0.0
 10
-31.130728333
 20
54.5601788053
 30
0.0
 10
-31.0558574948
 20
54.664073272
 30
0.0
 10
-31.0074289536
 20
54.7055131284
 30
0.0
 10
-30.9817700977
 20
54.7212225137
 30
0.0
  0
SPLINE
  5
4ED
100
AcDbEntity
  8
RACCORDO
100
AcDbSpline
 62
250
  6
CONTINUOUS
 70
0
 71
3
 72
11
 73
7
 74
0
 42
0.0000001
 43
0.0000001
 44
0.0000000001
 40
0.0
 40
0.0
 40
0.0
 40
0.0
 40
0.2855538857
 40
0.5440973631
 40
0.7789473006
 40
1.0
 40
1.0
 40
1.0
 40
1.0
 10
-41.9643736045
 20
48.7015238716
 30
0.0
 10
-41.9768843719
 20
48.7126663946
 30
0.0
 10
-41.9990044912
 20
48.7359990982
 30
0.0
 10
-42.0229209239
 20
48.7754389988
 30
0.0
 10
-42.0346715973
 20
48.8162729334
 30
0.0
 10
-42.0336119067
 20
48.8435757487
 30
0.0
 10
-42.0309170903
 20
48.856261781
 30
0.0
  0
SPLINE
  5
4EE
100
AcDbEntity
  8
RACCORDO
100
AcDbSpline
 62
250
  6
CONTINUOUS
 70
0
 71
3
 72
11
 73
7
 74
0
 42
0.0000001
 43
0.0000001
 44
0.0000000001
 40
0.0
 40
0.0
 40
0.0
 40
0.0
 40
0.2858610886
 40
0.5442962428
 40
0.7789879569
 40
1.0
 40
1.0
 40
1.0
 40
1.0
 10
-42.5009843942
 20
45.5686093585
 30
0.0
 10
-42.5129671191
 20
45.5781980854
 30
0.0
 10
-42.5343589711
 20
45.598395021
 30
0.0
 10
-42.5583922416
 20
45.6330709136
 30
0.0
 10
-42.5716174818
 20
45.6695922425
 30
0.0
 10
-42.5725082111
 20
45.6945420256
 30
0.0
 10
-42.5709702227
 20
45.7063073557
 30
0.0
  0
SPLINE
  5
4EF
100
AcDbEntity
  8
RACCORDO
100
AcDbSpline
 62
250
  6
CONTINUOUS
 70
0
 71
3
 72
11
 73
7
 74
0
 42
0.0000001
 43
0.0000001
 44
0.0000000001
 40
0.0
 40
0.0
 40
0.0
 40
0.0
 40
0.28514258
 40
0.5433615457
 40
0.7783494861
 40
1.0
 40
1.0
 40
1.0
 40
1.0
 10
-42.639131376
 20
44.4636499242
 30
0.0
 10
-42.6510361595
 20
44.4730950523
 30
0.0
 10
-42.672316966
 20
44.4930225387
 30
0.0
 10
-42.6963117361
 20
44.527304024
 30
0.0
 10
-42.7096764674
 20
44.5635043195
 30
0.0
 10
-42.7108014412
 20
44.5883008386
 30
0.0
 10
-42.7094096329
 20
44.6000313058
 30
0.0
  0
SPLINE
  5
4F0
100
AcDbEntity
  8
RACCORDO
100
AcDbSpline
 62
250
  6
CONTINUOUS
 70
0
 71
3
 72
9
 73
5
 74
0
 42
0.0000001
 43
0.0000001
 44
0.0000000001
 40
0.0
 40
0.0
 40
0.0
 40
0.0
 40
0.5441837646
 40
1.0
 40
1.0
 40
1.0
 40
1.0
 10
-42.639131387
 20
5.6918087551
 30
0.0
 10
-42.6577566629
 20
5.7023658088
 30
0.0
 10
-42.6901133761
 20
5.7266340061
 30
0.0
 10
-42.707618211
 20
5.7644930871
 30
0.0
 10
-42.7096207261
 20
5.7823135539
 30
0.0
  0
SPLINE
  5
4F1
100
AcDbEntity
  8
RACCORDO
100
AcDbSpline
 62
250
  6
CONTINUOUS
 70
0
 71
3
 72
9
 73
5
 74
0
 42
0.0000001
 43
0.0000001
 44
0.0000000001
 40
0.0
 40
0.0
 40
0.0
 40
0.0
 40
0.5432127459
 40
1.0
 40
1.0
 40
1.0
 40
1.0
 10
-42.5009843915
 20
4.5289655959
 30
0.0
 10
-42.5194088011
 20
4.5393256003
 30
0.0
 10
-42.5514705168
 20
4.5632371691
 30
0.0
 10
-42.569016828
 20
4.6005148654
 30
0.0
 10
-42.5712089486
 20
4.6181535741
 30
0.0
  0
SPLINE
  5
4F2
100
AcDbEntity
  8
RACCORDO
100
AcDbSpline
 62
250
  6
CONTINUOUS
 70
0
 71
3
 72
9
 73
5
 74
0
 42
0.0000001
 43
0.0000001
 44
0.0000000001
 40
0.0
 40
0.0
 40
0.0
 40
0.0
 40
0.5448047244
 40
1.0
 40
1.0
 40
1.0
 40
1.0
 10
-41.9643735457
 20
1.1647081992
 30
0.0
 10
-41.9813558806
 20
1.1730415709
 30
0.0
 10
-42.0111772124
 20
1.1925708454
 30
0.0
 10
-42.0290107286
 20
1.2246884696
 30
0.0
 10
-42.0320103905
 20
1.2402065636
 30
0.0
  0
SPLINE
  5
4F3
100
AcDbEntity
  8
RACCORDO
100
AcDbSpline
 62
250
  6
CONTINUOUS
 70
0
 71
3
 72
9
 73
5
 74
0
 42
0.0000001
 43
0.0000001
 44
0.0000000001
 40
0.0
 40
0.0
 40
0.0
 40
0.0
 40
0.5371252196
 40
1.0
 40
1.0
 40
1.0
 40
1.0
 10
-31.1657638594
 20
-15.6102570628
 30
0.0
 10
-31.1645295815
 20
-15.6271540908
 30
0.0
 10
-31.1580708084
 20
-15.6588276438
 30
0.0
 10
-31.1380539444
 20
-15.6851160123
 30
0.0
 10
-31.1263674967
 20
-15.6938674665
 30
0.0
  0
SPLINE
  5
4F4
100
AcDbEntity
  8
RACCORDO
100
AcDbSpline
 62
250
  6
CONTINUOUS
 70
0
 71
3
 72
9
 73
5
 74
0
 42
0.0000001
 43
0.0000001
 44
0.0000000001
 40
0.0
 40
0.0
 40
0.0
 40
0.0
 40
0.5343859505
 40
1.0
 40
1.0
 40
1.0
 40
1.0
 10
-27.7501969563
 20
-18.0698621921
 30
0.0
 10
-27.7480430078
 20
-18.0880139354
 30
0.0
 10
-27.7393417371
 20
-18.1219840193
 30
0.0
 10
-27.7163829826
 20
-18.1494257091
 30
0.0
 10
-27.7032748927
 20
-18.1584721255
 30
0.0
  0
SPLINE
  5
4F5
100
AcDbEntity
  8
RACCORDO
100
AcDbSpline
 62
250
  6
CONTINUOUS
 70
0
 71
3
 72
9
 73
5
 74
0
 42
0.0000001
 43
0.0000001
 44
0.0000000001
 40
0.0
 40
0.0
 40
0.0
 40
0.0
 40
0.5348848414
 40
1.0
 40
1.0
 40
1.0
 40
1.0
 10
-24.0396960895
 20
-20.5944779236
 30
0.0
 10
-24.0373638016
 20
-20.6128833295
 30
0.0
 10
-24.0282633748
 20
-20.6472665677
 30
0.0
 10
-24.0046506284
 20
-20.6748495718
 30
0.0
 10
-23.9912436195
 20
-20.6838224928
 30
0.0
  0
SPLINE
  5
4F6
100
AcDbEntity
  8
RACCORDO
100
AcDbSpline
 62
250
  6
CONTINUOUS
 70
0
 71
3
 72
9
 73
5
 74
0
 42
0.0000001
 43
0.0000001
 44
0.0000000001
 40
0.0
 40
0.0
 40
0.0
 40
0.0
 40
0.5358854685
 40
1.0
 40
1.0
 40
1.0
 40
1.0
 10
23.9939898329
 20
-48.3285261727
 30
0.0
 10
23.9987819883
 20
-48.3506942462
 30
0.0
 10
24.0137716711
 20
-48.3915521458
 30
0.0
 10
24.0465290892
 20
-48.42173679
 30
0.0
 10
24.0641772908
 20
-48.4303607236
 30
0.0
  0
SPLINE
  5
4F7
100
AcDbEntity
  8
RACCORDO
100
AcDbSpline
 62
250
  6
CONTINUOUS
 70
0
 71
3
 72
9
 73
5
 74
0
 42
0.0000001
 43
0.0000001
 44
0.0000000001
 40
0.0
 40
0.0
 40
0.0
 40
0.0
 40
0.5367684971
 40
1.0
 40
1.0
 40
1.0
 40
1.0
 10
27.9047677265
 20
-50.20434128
 30
0.0
 10
27.9097519178
 20
-50.2269327022
 30
0.0
 10
27.9251953334
 20
-50.2684946619
 30
0.0
 10
27.9588961957
 20
-50.2989550293
 30
0.0
 10
27.9769613818
 20
-50.3074556608
 30
0.0
  0
SPLINE
  5
4F8
100
AcDbEntity
  8
RACCORDO
100
AcDbSpline
 62
250
  6
CONTINUOUS
 70
0
 71
3
 72
9
 73
5
 74
0
 42
0.0000001
 43
0.0000001
 44
0.0000000001
 40
0.0
 40
0.0
 40
0.0
 40
0.0
 40
0.5352865247
 40
1.0
 40
1.0
 40
1.0
 40
1.0
 10
31.536116096
 20
-51.8135367167
 30
0.0
 10
31.5423814356
 20
-51.8377609687
 30
0.0
 10
31.5609739858
 20
-51.8821665747
 30
0.0
 10
31.5990181161
 20
-51.9135129962
 30
0.0
 10
31.6190751362
 20
-51.9218546623
 30
0.0
  0
SPLINE
  5
4F9
100
AcDbEntity
  8
RACCORDO
100
AcDbSpline
 62
7
  6
CONTINUOUS
 70
0
 71
3
 72
11
 73
7
 74
0
 42
0.0000001
 43
0.0000001
 44
0.0000000001
 40
0.0
 40
0.0
 40
0.0
 40
0.0
 40
0.2894101942
 40
0.5479734873
 40
0.780886145
 40
1.0
 40
1.0
 40
1.0
 40
1.0
 10
-25.7451823708
 20
31.9358525859
 30
0.0
 10
-25.7414998971
 20
31.9980843839
 30
0.0
 10
-25.724740823
 20
32.1157888092
 30
0.0
 10
-25.6645572145
 20
32.274720307
 30
0.0
 10
-25.5710668382
 20
32.3989684417
 30
0.0
 10
-25.4878053197
 20
32.4539048276
 30
0.0
 10
-25.4443874524
 20
32.4724137121
 30
0.0
  0
SPLINE
  5
4FA
100
AcDbEntity
  8
RACCORDO
100
AcDbSpline
 62
250
  6
CONTINUOUS
 70
0
 71
3
 72
9
 73
5
 74
0
 42
0.0000001
 43
0.0000001
 44
0.0000000001
 40
0.0
 40
0.0
 40
0.0
 40
0.0
 40
0.4748784384
 40
1.0
 40
1.0
 40
1.0
 40
1.0
 10
-26.1010746753
 20
32.0623087328
 30
0.0
 10
-26.0503088332
 20
32.0301762413
 30
0.0
 10
-25.9343027214
 20
31.976714463
 30
0.0
 10
-25.8107771908
 20
31.9463984319
 30
0.0
 10
-25.7451823708
 20
31.9358525859
 30
0.0
  0
SPLINE
  5
4FB
100
AcDbEntity
  8
RACCORDO
100
AcDbSpline
 62
7
  6
CONTINUOUS
 70
0
 71
3
 72
9
 73
5
 74
0
 42
0.0000001
 43
0.0000001
 44
0.0000000001
 40
0.0
 40
0.0
 40
0.0
 40
0.0
 40
0.4803620785
 40
1.0
 40
1.0
 40
1.0
 40
1.0
 10
-25.444386599
 20
32.4724132508
 30
0.0
 10
-25.400679353
 20
32.4910340299
 30
0.0
 10
-25.3019318031
 20
32.5129242321
 30
0.0
 10
-25.2020674583
 20
32.5026413975
 30
0.0
 10
-25.1519584336
 20
32.4912256756
 30
0.0
  0
SPLINE
  5
4FC
100
AcDbEntity
  8
RACCORDO
100
AcDbSpline
 62
7
  6
CONTINUOUS
 70
0
 71
3
 72
9
 73
5
 74
0
 42
0.0000001
 43
0.0000001
 44
0.0000000001
 40
0.0
 40
0.0
 40
0.0
 40
0.0
 40
0.2433659126
 40
1.0
 40
1.0
 40
1.0
 40
1.0
 10
-25.1519584336
 20
32.4912256756
 30
0.0
 10
-25.1431437271
 20
32.4892175296
 30
0.0
 10
-25.1071010195
 20
32.4801969228
 30
0.0
 10
-25.0718200275
 20
32.4682068778
 30
0.0
 10
-25.0457264818
 20
32.4577591251
 30
0.0
  0
SPLINE
  5
4FD
100
AcDbEntity
  8
RACCORDO
100
AcDbSpline
 62
7
  6
CONTINUOUS
 70
0
 71
3
 72
9
 73
5
 74
0
 42
0.0000001
 43
0.0000001
 44
0.0000000001
 40
0.0
 40
0.0
 40
0.0
 40
0.0
 40
0.2428614765
 40
1.0
 40
1.0
 40
1.0
 40
1.0
 10
-25.0457264818
 20
32.4577591251
 30
0.0
 10
-25.0368163094
 20
32.4541915273
 30
0.0
 10
-25.0003976591
 20
32.4388330263
 30
0.0
 10
-24.9651040067
 20
32.4208389596
 30
0.0
 10
-24.9391256067
 20
32.4059913674
 30
0.0
  0
SPLINE
  5
4FE
100
AcDbEntity
  8
RACCORDO
100
AcDbSpline
 62
250
  6
CONTINUOUS
 70
0
 71
3
 72
9
 73
5
 74
0
 42
0.0000001
 43
0.0000001
 44
0.0000000001
 40
0.0
 40
0.0
 40
0.0
 40
0.0
 40
0.5082976147
 40
1.0
 40
1.0
 40
1.0
 40
1.0
 10
-25.7117497605
 20
32.7908892111
 30
0.0
 10
-25.6811265358
 20
32.7267763078
 30
0.0
 10
-25.6050784497
 20
32.6075632754
 30
0.0
 10
-25.5010200671
 20
32.5113573238
 30
0.0
 10
-25.444386599
 20
32.4724132508
 30
0.0
  0
LINE
  5
4FF
100
AcDbEntity
  8
RACCORDO
100
AcDbLine
 62
7
  6
CONTINUOUS
 10
-24.9385978615
 20
32.4056903409
 11
-24.9014091353
 21
32.3844352656
  0
LINE
  5
500
100
AcDbEntity
  8
RACCORDO
100
AcDbLine
 62
7
  6
CONTINUOUS
 10
-24.9014091353
 20
32.3844352656
 11
-24.8143991268
 21
32.3347171433
  0
LINE
  5
501
100
AcDbEntity
  8
RACCORDO
100
AcDbLine
 62
7
  6
CONTINUOUS
 10
-24.8143991268
 20
32.3347171433
 11
-24.5648096541
 21
32.1921950708
  0
SPLINE
  5
502
100
AcDbEntity
  8
RACCORDO
100
AcDbSpline
 62
250
  6
CONTINUOUS
 70
0
 71
3
 72
9
 73
5
 74
0
 42
0.0000001
 43
0.0000001
 44
0.0000000001
 40
0.0
 40
0.0
 40
0.0
 40
0.0
 40
0.5387345008
 40
1.0
 40
1.0
 40
1.0
 40
1.0
 10
-25.0369385592
 20
32.7112411154
 30
0.0
 10
-25.0372885157
 20
32.6526923366
 30
0.0
 10
-25.0249014695
 20
32.5429389052
 30
0.0
 10
-24.9728473794
 20
32.443086452
 30
0.0
 10
-24.939126449
 20
32.4059924775
 30
0.0
  0
SPLINE
  5
503
100
AcDbEntity
  8
RACCORDO
100
AcDbSpline
 62
250
  6
CONTINUOUS
 70
0
 71
3
 72
9
 73
5
 74
0
 42
0.0000001
 43
0.0000001
 44
0.0000000001
 40
0.0
 40
0.0
 40
0.0
 40
0.0
 40
0.5427219396
 40
1.0
 40
1.0
 40
1.0
 40
1.0
 10
-14.2569254935
 20
26.609810638
 30
0.0
 10
-14.2582455469
 20
26.5502287988
 30
0.0
 10
-14.2475608334
 20
26.4390552512
 30
0.0
 10
-14.1944799934
 20
26.3377965115
 30
0.0
 10
-14.1598386541
 20
26.3014453414
 30
0.0
  0
SPLINE
  5
504
100
AcDbEntity
  8
RACCORDO
100
AcDbSpline
 62
250
  6
CONTINUOUS
 70
0
 71
3
 72
10
 73
6
 74
0
 42
0.0000001
 43
0.0000001
 44
0.0000000001
 40
0.0
 40
0.0
 40
0.0
 40
0.0
 40
0.2884628604
 40
0.5505573795
 40
1.0
 40
1.0
 40
1.0
 40
1.0
 10
10.4581643979
 20
12.3396283186
 30
0.0
 10
10.4563658028
 20
12.3092789292
 30
0.0
 10
10.4566634478
 20
12.2509292467
 30
0.0
 10
10.4733988781
 20
12.1468704734
 30
0.0
 10
10.5069304846
 20
12.0757229486
 30
0.0
 10
10.5388559359
 20
12.0407286325
 30
0.0
  0
LINE
  5
505
100
AcDbEntity
  8
RACCORDO
100
AcDbLine
 62
7
  6
CONTINUOUS
 10
21.4170647221
 20
5.6428370942
 11
21.8011603563
 21
5.4187397328
  0
SPLINE
  5
506
100
AcDbEntity
  8
RACCORDO
100
AcDbSpline
 62
7
  6
CONTINUOUS
 70
0
 71
3
 72
9
 73
5
 74
0
 42
0.0000001
 43
0.0000001
 44
0.0000000001
 40
0.0
 40
0.0
 40
0.0
 40
0.0
 40
0.2460578868
 40
1.0
 40
1.0
 40
1.0
 40
1.0
 10
21.8372641611
 20
5.3967226525
 30
0.0
 10
21.8438211938
 20
5.3925449775
 30
0.0
 10
21.8702898654
 20
5.3752855958
 30
0.0
 10
21.8960507671
 20
5.3569456683
 30
0.0
 10
21.9150671439
 20
5.3425965583
 30
0.0
  0
SPLINE
  5
507
100
AcDbEntity
  8
RACCORDO
100
AcDbSpline
 62
250
  6
CONTINUOUS
 70
0
 71
3
 72
9
 73
5
 74
0
 42
0.0000001
 43
0.0000001
 44
0.0000000001
 40
0.0
 40
0.0
 40
0.0
 40
0.0
 40
0.29179056
 40
1.0
 40
1.0
 40
1.0
 40
1.0
 10
21.733845539
 20
5.7063766782
 30
0.0
 10
21.7316289115
 20
5.6773393942
 30
0.0
 10
21.7297443658
 20
5.5783512248
 30
0.0
 10
21.756595735
 20
5.4728320668
 30
0.0
 10
21.8017075159
 20
5.418418303
 30
0.0
  0
SPLINE
  5
508
100
AcDbEntity
  8
RACCORDO
100
AcDbSpline
 62
250
  6
CONTINUOUS
 70
0
 71
3
 72
13
 73
9
 74
0
 42
0.0000001
 43
0.0000001
 44
0.0000000001
 40
0.0
 40
0.0
 40
0.0
 40
0.0
 40
0.3952239534
 40
0.6973565205
 40
0.8112202187
 40
0.8995676275
 40
0.9622607774
 40
1.0
 40
1.0
 40
1.0
 40
1.0
 10
22.4265969649
 20
4.9964107611
 30
0.0
 10
22.4101461399
 20
4.984813549
 30
0.0
 10
22.3813035938
 20
4.9640986041
 30
0.0
 10
22.3483884
 20
4.9390830297
 30
0.0
 10
22.328663797
 20
4.9226555814
 30
0.0
 10
22.3186339781
 20
4.913566842
 30
0.0
 10
22.3120976215
 20
4.9066091777
 30
0.0
 10
22.3089902131
 20
4.9023595014
 30
0.0
 10
22.3084282399
 20
4.9005215368
 30
0.0
  0
LINE
  5
509
100
AcDbEntity
  8
RACCORDO
100
AcDbLine
 62
7
  6
CONTINUOUS
 10
22.2451843916
 20
-13.8466972796
 11
22.2451832476
 21
-13.8802043914
  0
SPLINE
  5
50A
100
AcDbEntity
  8
RACCORDO
100
AcDbSpline
 62
250
  6
CONTINUOUS
 70
0
 71
3
 72
9
 73
5
 74
0
 42
0.0000001
 43
0.0000001
 44
0.0000000001
 40
0.0
 40
0.0
 40
0.0
 40
0.0
 40
0.2867255833
 40
1.0
 40
1.0
 40
1.0
 40
1.0
 10
22.7681642348
 20
3.8414316307
 30
0.0
 10
22.7438051799
 20
3.8545789734
 30
0.0
 10
22.6619641051
 20
3.9047555507
 30
0.0
 10
22.5897804465
 20
3.978851716
 30
0.0
 10
22.5637256507
 20
4.0425919854
 30
0.0
  0
LINE
  5
50B
100
AcDbEntity
  8
RACCORDO
100
AcDbLine
 62
7
  6
CONTINUOUS
 10
22.5626691969
 20
-31.3728364271
 11
22.5637357478
 21
-31.4018427088
  0
SPLINE
  5
50C
100
AcDbEntity
  8
RACCORDO
100
AcDbSpline
 62
250
  6
CONTINUOUS
 70
0
 71
3
 72
9
 73
5
 74
0
 42
0.0000001
 43
0.0000001
 44
0.0000000001
 40
0.0
 40
0.0
 40
0.0
 40
0.0
 40
0.5420049729
 40
1.0
 40
1.0
 40
1.0
 40
1.0
 10
22.4495421686
 20
-14.0858310617
 30
0.0
 10
22.4027655933
 20
-14.060560067
 30
0.0
 10
22.3209038917
 20
-14.0041728016
 30
0.0
 10
22.2616258741
 20
-13.9220130257
 30
0.0
 10
22.2451832509
 20
-13.8802043986
 30
0.0
  0
SPLINE
  5
50D
100
AcDbEntity
  8
RACCORDO
100
AcDbSpline
 62
7
  6
CONTINUOUS
 70
0
 71
3
 72
9
 73
5
 74
0
 42
0.0000001
 43
0.0000001
 44
0.0000000001
 40
0.0
 40
0.0
 40
0.0
 40
0.0
 40
0.2589996183
 40
1.0
 40
1.0
 40
1.0
 40
1.0
 10
22.5637311904
 20
-31.4018339786
 30
0.0
 10
22.564023894
 20
-31.4143661084
 30
0.0
 10
22.5642493951
 20
-31.4627640876
 30
0.0
 10
22.560754332
 20
-31.5112225371
 30
0.0
 10
22.5555819351
 20
-31.5467119135
 30
0.0
  0
SPLINE
  5
50E
100
AcDbEntity
  8
RACCORDO
100
AcDbSpline
 62
7
  6
CONTINUOUS
 70
0
 71
3
 72
11
 73
7
 74
0
 42
0.0000001
 43
0.0000001
 44
0.0000000001
 40
0.0
 40
0.0
 40
0.0
 40
0.0
 40
0.276186753
 40
0.5291247935
 40
0.7665118995
 40
1.0
 40
1.0
 40
1.0
 40
1.0
 10
22.5500005135
 20
-31.5796054092
 30
0.0
 10
22.5424875737
 20
-31.6182567224
 30
0.0
 10
22.5216603842
 20
-31.6913322026
 30
0.0
 10
22.4694522826
 20
-31.7885057668
 30
0.0
 10
22.3978184808
 20
-31.8645509571
 30
0.0
 10
22.339094182
 20
-31.8991092404
 30
0.0
 10
22.3084308197
 20
-31.9120632554
 30
0.0
  0
SPLINE
  5
50F
100
AcDbEntity
  8
RACCORDO
100
AcDbSpline
 62
250
  6
CONTINUOUS
 70
0
 71
3
 72
9
 73
5
 74
0
 42
0.0000001
 43
0.0000001
 44
0.0000000001
 40
0.0
 40
0.0
 40
0.0
 40
0.0
 40
0.2683396535
 40
1.0
 40
1.0
 40
1.0
 40
1.0
 10
22.7682926642
 20
-31.6156605127
 30
0.0
 10
22.7526422244
 20
-31.6069922419
 30
0.0
 10
22.6956989834
 20
-31.5724045485
 30
0.0
 10
22.644219894
 20
-31.5277652815
 30
0.0
 10
22.6140076962
 20
-31.4894663427
 30
0.0
  0
SPLINE
  5
510
100
AcDbEntity
  8
RACCORDO
100
AcDbSpline
 62
250
  6
CONTINUOUS
 70
0
 71
3
 72
9
 73
5
 74
0
 42
0.0000001
 43
0.0000001
 44
0.0000000001
 40
0.0
 40
0.0
 40
0.0
 40
0.0
 40
0.2585380066
 40
1.0
 40
1.0
 40
1.0
 40
1.0
 10
22.607767822
 20
-31.4813310814
 30
0.0
 10
22.6030786815
 20
-31.475040313
 30
0.0
 10
22.5857224941
 20
-31.4501441481
 30
0.0
 10
22.5716441327
 20
-31.4228987156
 30
0.0
 10
22.5637311904
 20
-31.4018339786
 30
0.0
  0
SPLINE
  5
511
100
AcDbEntity
  8
RACCORDO
100
AcDbSpline
 62
7
  6
CONTINUOUS
 70
0
 71
3
 72
11
 73
7
 74
0
 42
0.0000001
 43
0.0000001
 44
0.0000000001
 40
0.0
 40
0.0
 40
0.0
 40
0.0
 40
0.2160083257
 40
0.4510725071
 40
0.7115921506
 40
1.0
 40
1.0
 40
1.0
 40
1.0
 10
22.308430904
 20
-31.9120621828
 30
0.0
 10
22.2735156874
 20
-31.926801825
 30
0.0
 10
22.195288104
 20
-31.9455664938
 30
0.0
 10
22.0693596083
 20
-31.9425066269
 30
0.0
 10
21.9351695487
 20
-31.9088204498
 30
0.0
 10
21.8462345156
 20
-31.8705763565
 30
0.0
 10
21.8017061412
 20
-31.8465401698
 30
0.0
  0
SPLINE
  5
512
100
AcDbEntity
  8
RACCORDO
100
AcDbSpline
 62
250
  6
CONTINUOUS
 70
0
 71
3
 72
9
 73
5
 74
0
 42
0.0000001
 43
0.0000001
 44
0.0000000001
 40
0.0
 40
0.0
 40
0.0
 40
0.0
 40
0.5042477242
 40
1.0
 40
1.0
 40
1.0
 40
1.0
 10
22.426597278
 20
-32.3167402989
 30
0.0
 10
22.3900835988
 20
-32.2553379313
 30
0.0
 10
22.3327874117
 20
-32.1239552935
 30
0.0
 10
22.3100481451
 20
-31.9822787586
 30
0.0
 10
22.308430904
 20
-31.9120621828
 30
0.0
  0
LINE
  5
513
100
AcDbEntity
  8
RACCORDO
100
AcDbLine
 62
7
  6
CONTINUOUS
 10
21.801160375
 20
-31.8462526405
 11
21.4170647219
 21
-31.63870876
  0
SPLINE
  5
514
100
AcDbEntity
  8
RACCORDO
100
AcDbSpline
 62
250
  6
CONTINUOUS
 70
0
 71
3
 72
9
 73
5
 74
0
 42
0.0000001
 43
0.0000001
 44
0.0000000001
 40
0.0
 40
0.0
 40
0.0
 40
0.0
 40
0.4751717111
 40
1.0
 40
1.0
 40
1.0
 40
1.0
 10
21.7338454286
 20
-32.2474509079
 30
0.0
 10
21.7288788619
 20
-32.1828566655
 30
0.0
 10
21.7383299843
 20
-32.0452689509
 30
0.0
 10
21.7759805353
 20
-31.9133176612
 30
0.0
 10
21.8017039211
 20
-31.8465461403
 30
0.0
  0
SPLINE
  5
515
100
AcDbEntity
  8
RACCORDO
100
AcDbSpline
 62
250
  6
CONTINUOUS
 70
0
 71
3
 72
9
 73
5
 74
0
 42
0.0000001
 43
0.0000001
 44
0.0000000001
 40
0.0
 40
0.0
 40
0.0
 40
0.0
 40
0.4738205392
 40
1.0
 40
1.0
 40
1.0
 40
1.0
 10
10.4581636993
 20
-26.4322133013
 30
0.0
 10
10.4541200045
 20
-26.3657611661
 30
0.0
 10
10.4671894729
 20
-26.2240957513
 30
0.0
 10
10.5100662892
 20
-26.0892966596
 30
0.0
 10
10.5388559359
 20
-26.0212005976
 30
0.0
  0
SPLINE
  5
516
100
AcDbEntity
  8
RACCORDO
100
AcDbSpline
 62
250
  6
CONTINUOUS
 70
0
 71
3
 72
9
 73
5
 74
0
 42
0.0000001
 43
0.0000001
 44
0.0000000001
 40
0.0
 40
0.0
 40
0.0
 40
0.0
 40
0.4714078611
 40
1.0
 40
1.0
 40
1.0
 40
1.0
 10
-14.2569247252
 20
-12.1620301382
 30
0.0
 10
-14.2584760205
 20
-12.0967084186
 30
0.0
 10
-14.2396216675
 20
-11.9575437987
 30
0.0
 10
-14.1913376759
 20
-11.8266333711
 30
0.0
 10
-14.1598386542
 20
-11.7604838887
 30
0.0
  0
LINE
  5
517
100
AcDbEntity
  8
RACCORDO
100
AcDbLine
 62
7
  6
CONTINUOUS
 10
-24.5648096539
 20
-5.0893507837
 11
-24.9385978412
 21
-4.8593020339
  0
SPLINE
  5
518
100
AcDbEntity
  8
RACCORDO
100
AcDbSpline
 62
7
  6
CONTINUOUS
 70
0
 71
3
 72
11
 73
7
 74
0
 42
0.0000001
 43
0.0000001
 44
0.0000000001
 40
0.0
 40
0.0
 40
0.0
 40
0.0
 40
0.229332081
 40
0.4753987638
 40
0.7339644125
 40
1.0
 40
1.0
 40
1.0
 40
1.0
 10
-24.9391253058
 20
-4.8589739748
 30
0.0
 10
-24.9865768266
 20
-4.829736668
 30
0.0
 10
-25.0794319749
 20
-4.760263981
 30
0.0
 10
-25.2107412577
 20
-4.6391520647
 30
0.0
 10
-25.3340420045
 20
-4.4977345271
 30
0.0
 10
-25.4090707276
 20
-4.3943989769
 30
0.0
 10
-25.4443839604
 20
-4.3402384424
 30
0.0
  0
SPLINE
  5
519
100
AcDbEntity
  8
RACCORDO
100
AcDbSpline
 62
250
  6
CONTINUOUS
 70
0
 71
3
 72
9
 73
5
 74
0
 42
0.0000001
 43
0.0000001
 44
0.0000000001
 40
0.0
 40
0.0
 40
0.0
 40
0.0
 40
0.4707390502
 40
1.0
 40
1.0
 40
1.0
 40
1.0
 10
-25.0369384432
 20
-5.2425863399
 30
0.0
 10
-25.0373466966
 20
-5.1800776381
 30
0.0
 10
-25.0173693718
 20
-5.0470864056
 30
0.0
 10
-24.9698205968
 20
-4.9221977891
 30
0.0
 10
-24.9391253058
 20
-4.8589739748
 30
0.0
  0
LINE
  5
51A
100
AcDbEntity
  8
RACCORDO
100
AcDbLine
 62
7
  6
CONTINUOUS
 10
-25.7449541276
 20
-3.51267354
 11
-25.7452147362
 21
-3.5085895183
  0
SPLINE
  5
51B
100
AcDbEntity
  8
RACCORDO
100
AcDbSpline
 62
7
  6
CONTINUOUS
 70
0
 71
3
 72
11
 73
7
 74
0
 42
0.0000001
 43
0.0000001
 44
0.0000000001
 40
0.0
 40
0.0
 40
0.0
 40
0.0
 40
0.5259299752
 40
0.6515675332
 40
0.7729440468
 40
1.0
 40
1.0
 40
1.0
 40
1.0
 10
-25.4443846961
 20
-4.3402389182
 30
0.0
 10
-25.5294314963
 20
-4.2097508699
 30
0.0
 10
-25.6181065305
 20
-4.0357352326
 30
0.0
 10
-25.6901895992
 20
-3.8183721415
 30
0.0
 10
-25.724903437
 20
-3.6822746938
 30
0.0
 10
-25.7407862902
 20
-3.5797878842
 30
0.0
 10
-25.7449541276
 20
-3.51267354
 30
0.0
  0
SPLINE
  5
51C
100
AcDbEntity
  8
RACCORDO
100
AcDbSpline
 62
250
  6
CONTINUOUS
 70
0
 71
3
 72
9
 73
5
 74
0
 42
0.0000001
 43
0.0000001
 44
0.0000000001
 40
0.0
 40
0.0
 40
0.0
 40
0.0
 40
0.4346283621
 40
1.0
 40
1.0
 40
1.0
 40
1.0
 10
-25.7117501033
 20
-4.5222622268
 30
0.0
 10
-25.673867897
 20
-4.4946753557
 30
0.0
 10
-25.5852019786
 20
-4.433285479
 30
0.0
 10
-25.495394407
 20
-4.3736166879
 30
0.0
 10
-25.4443846961
 20
-4.3402389182
 30
0.0
  0
SPLINE
  5
51D
100
AcDbEntity
  8
RACCORDO
100
AcDbSpline
 62
250
  6
CONTINUOUS
 70
0
 71
3
 72
9
 73
5
 74
0
 42
0.0000001
 43
0.0000001
 44
0.0000000001
 40
0.0
 40
0.0
 40
0.0
 40
0.0
 40
0.4746751078
 40
1.0
 40
1.0
 40
1.0
 40
1.0
 10
-26.1012616847
 20
-3.394965541
 30
0.0
 10
-26.0506280429
 20
-3.4261838137
 30
0.0
 10
-25.9342976316
 20
-3.4765232019
 30
0.0
 10
-25.8106478525
 20
-3.5013496606
 30
0.0
 10
-25.7452160408
 20
-3.5085900475
 30
0.0
  0
SPLINE
  5
51E
100
AcDbEntity
  8
RACCORDO
100
AcDbSpline
 62
250
  6
CONTINUOUS
 70
0
 71
3
 72
9
 73
5
 74
0
 42
0.0000001
 43
0.0000001
 44
0.0000000001
 40
0.0
 40
0.0
 40
0.0
 40
0.0
 40
0.474432085
 40
1.0
 40
1.0
 40
1.0
 40
1.0
 10
-26.4489780692
 20
14.1475616811
 30
0.0
 10
-26.3982150021
 20
14.1162368568
 30
0.0
 10
-26.2819226128
 20
14.0650731287
 30
0.0
 10
-26.1583638192
 20
14.0381576319
 30
0.0
 10
-26.0928451837
 20
14.0295674029
 30
0.0
  0
LINE
  5
51F
100
AcDbEntity
  8
RACCORDO
100
AcDbLine
 62
250
  6
CONTINUOUS
 10
27.9047677269
 20
-50.2043412796
 11
28.0035582095
 21
-50.250756763
  0
SPLINE
  5
520
100
AcDbEntity
  8
RACCORDO
100
AcDbSpline
 62
250
  6
CONTINUOUS
 70
0
 71
3
 72
9
 73
5
 74
0
 42
0.0000001
 43
0.0000001
 44
0.0000000001
 40
0.0
 40
0.0
 40
0.0
 40
0.0
 40
0.5219236714
 40
1.0
 40
1.0
 40
1.0
 40
1.0
 10
21.801160375
 20
-31.8462526405
 30
0.0
 10
21.8322690905
 20
-31.7796247475
 30
0.0
 10
21.9082268903
 20
-31.6591849802
 30
0.0
 10
22.0131538949
 20
-31.5613102987
 30
0.0
 10
22.0701988526
 20
-31.5254974082
 30
0.0
  0
SPLINE
  5
521
100
AcDbEntity
  8
RACCORDO
100
AcDbSpline
 62
250
  6
CONTINUOUS
 70
0
 71
3
 72
9
 73
5
 74
0
 42
0.0000001
 43
0.0000001
 44
0.0000000001
 40
0.0
 40
0.0
 40
0.0
 40
0.0
 40
0.5219237477
 40
1.0
 40
1.0
 40
1.0
 40
1.0
 10
-24.9385978412
 20
-4.8593020339
 30
0.0
 10
-24.9074890188
 20
-4.7926741894
 30
0.0
 10
-24.831531138
 20
-4.6722345203
 30
0.0
 10
-24.7266042599
 20
-4.5743597734
 30
0.0
 10
-24.6695593838
 20
-4.5385467892
 30
0.0
  0
SPLINE
  5
522
100
AcDbEntity
  8
RACCORDO
100
AcDbSpline
 62
250
  6
CONTINUOUS
 70
0
 71
3
 72
9
 73
5
 74
0
 42
0.0000001
 43
0.0000001
 44
0.0000000001
 40
0.0
 40
0.0
 40
0.0
 40
0.0
 40
0.5205749195
 40
1.0
 40
1.0
 40
1.0
 40
1.0
 10
-25.7449579618
 20
-3.512673089
 30
0.0
 10
-25.6742339956
 20
-3.5163784768
 30
0.0
 10
-25.5370941485
 20
-3.5065176546
 30
0.0
 10
-25.40602565
 20
-3.4619340353
 30
0.0
 10
-25.3491345123
 20
-3.4300371621
 30
0.0
  0
SPLINE
  5
523
100
AcDbEntity
  8
RACCORDO
100
AcDbSpline
 62
250
  6
CONTINUOUS
 70
0
 71
3
 72
9
 73
5
 74
0
 42
0.0000001
 43
0.0000001
 44
0.0000000001
 40
0.0
 40
0.0
 40
0.0
 40
0.0
 40
0.5196845976
 40
1.0
 40
1.0
 40
1.0
 40
1.0
 10
-25.7452160674
 20
-3.5085893851
 30
0.0
 10
-25.6744095986
 20
-3.5117567631
 30
0.0
 10
-25.5369781888
 20
-3.5005324044
 30
0.0
 10
-25.4061325069
 20
-3.4541822571
 30
0.0
 10
-25.3493976137
 20
-3.4214341721
 30
0.0
  0
SPLINE
  5
524
100
AcDbEntity
  8
RACCORDO
100
AcDbSpline
 62
250
  6
CONTINUOUS
 70
0
 71
3
 72
9
 73
5
 74
0
 42
0.0000001
 43
0.0000001
 44
0.0000000001
 40
0.0
 40
0.0
 40
0.0
 40
0.0
 40
0.5222819755
 40
1.0
 40
1.0
 40
1.0
 40
1.0
 10
-26.0928451837
 20
14.0295674029
 30
0.0
 10
-26.0222309263
 20
14.0247818017
 30
0.0
 10
-25.8855542436
 20
14.0319891131
 30
0.0
 10
-25.753984427
 20
14.0731706058
 30
0.0
 10
-25.6967625625
 20
14.1034454433
 30
0.0
  0
SPLINE
  5
525
100
AcDbEntity
  8
RACCORDO
100
AcDbSpline
 62
250
  6
CONTINUOUS
 70
0
 71
3
 72
9
 73
5
 74
0
 42
0.0000001
 43
0.0000001
 44
0.0000000001
 40
0.0
 40
0.0
 40
0.0
 40
0.0
 40
0.5241801353
 40
1.0
 40
1.0
 40
1.0
 40
1.0
 10
-25.7451966459
 20
31.9359376078
 30
0.0
 10
-25.6747833577
 20
31.9297822395
 30
0.0
 10
-25.5387304874
 20
31.934049894
 30
0.0
 10
-25.4067887159
 20
31.9713866568
 30
0.0
 10
-25.3492672279
 20
31.9998099925
 30
0.0
  0
SPLINE
  5
526
100
AcDbEntity
  8
RACCORDO
100
AcDbSpline
 62
250
  6
CONTINUOUS
 70
0
 71
3
 72
9
 73
5
 74
0
 42
0.0000001
 43
0.0000001
 44
0.0000000001
 40
0.0
 40
0.0
 40
0.0
 40
0.0
 40
0.5234987642
 40
1.0
 40
1.0
 40
1.0
 40
1.0
 10
-25.7451677595
 20
31.9361198323
 30
0.0
 10
-25.6746132651
 20
31.9310394812
 30
0.0
 10
-25.5383944317
 20
31.9368890663
 30
0.0
 10
-25.4065641442
 20
31.9756619016
 30
0.0
 10
-25.3491340713
 20
32.0047725728
 30
0.0
  0
LINE
  5
527
100
AcDbEntity
  8
RACCORDO
100
AcDbLine
 62
250
  6
CONTINUOUS
 10
23.9939898329
 20
-48.3285261727
 11
24.0906917642
 21
-48.3757705907
  0
LINE
  5
528
100
AcDbEntity
  8
0
100
AcDbLine
 62
7
  6
CONTINUOUS
 10
1.1356988099
 20
-23.9108416854
 11
0.8986293812
 21
-23.7750087376
  0
SPLINE
  5
529
100
AcDbEntity
  8
RACCORDO
100
AcDbSpline
 62
250
  6
CONTINUOUS
 70
0
 71
3
 72
9
 73
5
 74
0
 42
0.0000001
 43
0.0000001
 44
0.0000000001
 40
0.0
 40
0.0
 40
0.0
 40
0.0
 40
0.2447693443
 40
1.0
 40
1.0
 40
1.0
 40
1.0
 10
-25.6813506953
 20
33.5366875564
 30
0.0
 10
-25.6230598798
 20
34.9404022718
 30
0.0
 10
-25.3045975401
 20
40.6717518548
 30
0.0
 10
-24.6728413402
 20
46.38471331
 30
0.0
 10
-24.0396960902
 20
50.6730907363
 30
0.0
  0
SPLINE
  5
52A
100
AcDbEntity
  8
RACCORDO
100
AcDbSpline
 62
250
  6
CONTINUOUS
 70
0
 71
3
 72
20
 73
16
 74
0
 42
0.0000001
 43
0.0000001
 44
0.0000000001
 40
0.0
 40
0.0
 40
0.0
 40
0.0
 40
0.1345896489
 40
0.1981822587
 40
0.2596294935
 40
0.3193154466
 40
0.3776994726
 40
0.4352966066
 40
0.4926553162
 40
0.5503301797
 40
0.6088545357
 40
0.6687165331
 40
0.7303409911
 40
0.8600309172
 40
1.0
 40
1.0
 40
1.0
 40
1.0
 10
-31.165763859
 20
54.398328239
 30
0.0
 10
-31.7488490792
 20
54.6775818692
 30
0.0
 10
-32.6474518439
 20
55.015890866
 30
0.0
 10
-33.8719225572
 20
55.2628643346
 30
0.0
 10
-34.7580698018
 20
55.3393333667
 30
0.0
 10
-35.6220469119
 20
55.3098876243
 30
0.0
 10
-36.4573789602
 20
55.1750427112
 30
0.0
 10
-37.2575040697
 20
54.9360995453
 30
0.0
 10
-38.0161061365
 20
54.5952673026
 30
0.0
 10
-38.7272067423
 20
54.155580157
 30
0.0
 10
-39.3852954668
 20
53.620834041
 30
0.0
 10
-39.9854324589
 20
52.9953596804
 30
0.0
 10
-40.7145847605
 20
52.0310566106
 30
0.0
 10
-41.4541896124
 20
50.6082184848
 30
0.0
 10
-41.8244726132
 20
49.3591546837
 30
0.0
 10
-41.9643736072
 20
48.7015238705
 30
0.0
  0
SPLINE
  5
52B
100
AcDbEntity
  8
RACCORDO
100
AcDbSpline
 62
250
  6
CONTINUOUS
 70
0
 71
3
 72
9
 73
5
 74
0
 42
0.0000001
 43
0.0000001
 44
0.0000000001
 40
0.0
 40
0.0
 40
0.0
 40
0.0
 40
0.2508923486
 40
1.0
 40
1.0
 40
1.0
 40
1.0
 10
-24.0396960902
 20
50.6730907363
 30
0.0
 10
-24.349943349
 20
50.839758225
 30
0.0
 10
-25.5865840216
 20
51.5039351735
 30
0.0
 10
-26.8234839642
 20
52.167629376
 30
0.0
 10
-27.7501969563
 20
52.664543289
 30
0.0
  0
SPLINE
  5
52C
100
AcDbEntity
  8
RACCORDO
100
AcDbSpline
 62
250
  6
CONTINUOUS
 70
0
 71
3
 72
11
 73
7
 74
0
 42
0.0000001
 43
0.0000001
 44
0.0000000001
 40
0.0
 40
0.0
 40
0.0
 40
0.0
 40
0.2906936577
 40
0.5500780202
 40
0.7826229425
 40
1.0
 40
1.0
 40
1.0
 40
1.0
 10
-26.10111825
 20
32.0617614789
 30
0.0
 10
-26.0970215136
 20
32.1456563013
 30
0.0
 10
-26.0762341004
 20
32.3043526584
 30
0.0
 10
-25.9990284043
 20
32.5192312618
 30
0.0
 10
-25.878113005
 20
32.6885622652
 30
0.0
 10
-25.7689342216
 20
32.7649070214
 30
0.0
 10
-25.711749831
 20
32.7908891765
 30
0.0
  0
SPLINE
  5
52D
100
AcDbEntity
  8
RACCORDO
100
AcDbSpline
 62
250
  6
CONTINUOUS
 70
0
 71
3
 72
11
 73
7
 74
0
 42
0.0000001
 43
0.0000001
 44
0.0000000001
 40
0.0
 40
0.0
 40
0.0
 40
0.0
 40
0.2665261731
 40
0.5268998694
 40
0.7734905176
 40
1.0
 40
1.0
 40
1.0
 40
1.0
 10
-25.711749831
 20
-4.5222620655
 30
0.0
 10
-25.7685522535
 20
-4.4319684215
 30
0.0
 10
-25.8710491004
 20
-4.2470977724
 30
0.0
 10
-25.9905502189
 20
-3.9607642161
 30
0.0
 10
-26.070284036
 20
-3.6775182203
 30
0.0
 10
-26.0968130771
 20
-3.4891085605
 30
0.0
 10
-26.1011181082
 20
-3.3985525899
 30
0.0
  0
SPLINE
  5
52E
100
AcDbEntity
  8
RACCORDO
100
AcDbSpline
 62
250
  6
CONTINUOUS
 70
0
 71
3
 72
8
 73
4
 74
0
 42
0.0000001
 43
0.0000001
 44
0.0000000001
 40
0.0
 40
0.0
 40
0.0
 40
0.0
 40
1.0
 40
1.0
 40
1.0
 40
1.0
 10
-25.711749831
 20
-4.5222620655
 30
0.0
 10
-25.7018155237
 20
-4.7599009709
 30
0.0
 10
-25.6916826501
 20
-4.997531659
 30
0.0
 10
-25.6813506953
 20
-5.2351536077
 30
0.0
  0
SPLINE
  5
52F
100
AcDbEntity
  8
RACCORDO
100
AcDbSpline
 62
250
  6
CONTINUOUS
 70
0
 71
3
 72
11
 73
7
 74
0
 42
0.0000001
 43
0.0000001
 44
0.0000000001
 40
0.0
 40
0.0
 40
0.0
 40
0.0
 40
0.2451853045
 40
0.4934450593
 40
0.7449938603
 40
1.0
 40
1.0
 40
1.0
 40
1.0
 10
-42.6391333456
 20
44.463630948
 30
0.0
 10
-43.0136537664
 20
41.3183967861
 30
0.0
 10
-43.5748855028
 20
34.9640067415
 30
0.0
 10
-43.8533985634
 20
25.3384964049
 30
0.0
 10
-43.5729950961
 20
15.5862609171
 30
0.0
 10
-43.0179433342
 20
9.0619278375
 30
0.0
 10
-42.6499927614
 20
5.7882155949
 30
0.0
  0
LINE
  5
530
100
AcDbEntity
  8
RACCORDO
100
AcDbLine
 62
250
  6
CONTINUOUS
 10
-42.6499927614
 20
5.7882155949
 11
-42.6391333559
 21
5.6918284763
  0
SPLINE
  5
531
100
AcDbEntity
  8
RACCORDO
100
AcDbSpline
 62
250
  6
CONTINUOUS
 70
0
 71
3
 72
8
 73
4
 74
0
 42
0.0000001
 43
0.0000001
 44
0.0000000001
 40
0.0
 40
0.0
 40
0.0
 40
0.0
 40
1.0
 40
1.0
 40
1.0
 40
1.0
 10
-25.711749831
 20
32.7908891765
 30
0.0
 10
-25.7018069481
 20
33.0394963148
 30
0.0
 10
-25.6916737398
 20
33.2880959136
 30
0.0
 10
-25.6813506953
 20
33.5366875564
 30
0.0
  0
SPLINE
  5
532
100
AcDbEntity
  8
RACCORDO
100
AcDbSpline
 62
250
  6
CONTINUOUS
 70
0
 71
3
 72
11
 73
7
 74
0
 42
0.0000001
 43
0.0000001
 44
0.0000000001
 40
0.0
 40
0.0
 40
0.0
 40
0.0
 40
0.2229259036
 40
0.4589170809
 40
0.7164473037
 40
1.0
 40
1.0
 40
1.0
 40
1.0
 10
-25.711749831
 20
32.7908891765
 30
0.0
 10
-25.6641478259
 20
32.8125383907
 30
0.0
 10
-25.5588819365
 20
32.8425492694
 30
0.0
 10
-25.3890053003
 20
32.8415645311
 30
0.0
 10
-25.2106479392
 20
32.7978077573
 30
0.0
 10
-25.0949156122
 20
32.7438445132
 30
0.0
 10
-25.0369385593
 20
32.7112411154
 30
0.0
  0
SPLINE
  5
533
100
AcDbEntity
  8
RACCORDO
100
AcDbSpline
 62
250
  6
CONTINUOUS
 70
0
 71
3
 72
9
 73
5
 74
0
 42
0.0000001
 43
0.0000001
 44
0.0000000001
 40
0.0
 40
0.0
 40
0.0
 40
0.0
 40
0.4787847795
 40
1.0
 40
1.0
 40
1.0
 40
1.0
 10
21.7338454285
 20
5.7063766164
 30
0.0
 10
21.8710664865
 20
5.625201594
 30
0.0
 10
22.1316678662
 20
5.410855243
 30
0.0
 10
22.3357317941
 20
5.1442873103
 30
0.0
 10
22.4265972202
 20
4.9964109044
 30
0.0
  0
SPLINE
  5
534
100
AcDbEntity
  8
RACCORDO
100
AcDbSpline
 62
250
  6
CONTINUOUS
 70
0
 71
3
 72
11
 73
7
 74
0
 42
0.0000001
 43
0.0000001
 44
0.0000000001
 40
0.0
 40
0.0
 40
0.0
 40
0.0
 40
0.2175241459
 40
0.4528848765
 40
0.7128162082
 40
1.0
 40
1.0
 40
1.0
 40
1.0
 10
22.4265972202
 20
-32.3167403377
 30
0.0
 10
22.3791864389
 20
-32.3382027544
 30
0.0
 10
22.2731542838
 20
-32.3678857444
 30
0.0
 10
22.1010224003
 20
-32.3682854149
 30
0.0
 10
21.9169387023
 20
-32.3283099046
 30
0.0
 10
21.7953696428
 20
-32.278038888
 30
0.0
 10
21.7338454285
 20
-32.2474509079
 30
0.0
  0
SPLINE
  5
535
100
AcDbEntity
  8
RACCORDO
100
AcDbSpline
 62
250
  6
CONTINUOUS
 70
0
 71
3
 72
11
 73
7
 74
0
 42
0.0000001
 43
0.0000001
 44
0.0000000001
 40
0.0
 40
0.0
 40
0.0
 40
0.0
 40
0.213186625
 40
0.4458547823
 40
0.7070098773
 40
1.0
 40
1.0
 40
1.0
 40
1.0
 10
22.5073836539
 20
-31.5837289096
 30
0.0
 10
22.4783056523
 20
-31.5983583945
 30
0.0
 10
22.411661098
 20
-31.6181795991
 30
0.0
 10
22.3024471452
 20
-31.6161750961
 30
0.0
 10
22.1855027956
 20
-31.584948594
 30
0.0
 10
22.1089343151
 20
-31.5478624187
 30
0.0
 10
22.0701925452
 20
-31.5254937475
 30
0.0
  0
SPLINE
  5
536
100
AcDbEntity
  8
RACCORDO
100
AcDbSpline
 62
250
  6
CONTINUOUS
 70
0
 71
3
 72
9
 73
5
 74
0
 42
0.0000001
 43
0.0000001
 44
0.0000000001
 40
0.0
 40
0.0
 40
0.0
 40
0.0
 40
0.475614075
 40
1.0
 40
1.0
 40
1.0
 40
1.0
 10
-25.0369385593
 20
-5.2425864089
 30
0.0
 10
-25.1680899574
 20
-5.1557030154
 30
0.0
 10
-25.4182563725
 20
-4.9340820565
 30
0.0
 10
-25.6194036934
 20
-4.6690875188
 30
0.0
 10
-25.711749831
 20
-4.5222620655
 30
0.0
  0
SPLINE
  5
537
100
AcDbEntity
  8
RACCORDO
100
AcDbSpline
 62
250
  6
CONTINUOUS
 70
0
 71
3
 72
9
 73
5
 74
0
 42
0.0000001
 43
0.0000001
 44
0.0000000001
 40
0.0
 40
0.0
 40
0.0
 40
0.0
 40
0.4927134126
 40
1.0
 40
1.0
 40
1.0
 40
1.0
 10
22.4550935415
 20
5.7433079454
 30
0.0
 10
22.5652539966
 20
8.5774928574
 30
0.0
 10
22.9404944749
 20
14.3245835594
 30
0.0
 10
23.5957315332
 20
20.0461110664
 30
0.0
 10
23.9939898329
 20
22.9390424877
 30
0.0
  0
SPLINE
  5
538
100
AcDbEntity
  8
RACCORDO
100
AcDbSpline
 62
250
  6
CONTINUOUS
 70
0
 71
3
 72
9
 73
5
 74
0
 42
0.0000001
 43
0.0000001
 44
0.0000000001
 40
0.0
 40
0.0
 40
0.0
 40
0.0
 40
0.2506881194
 40
1.0
 40
1.0
 40
1.0
 40
1.0
 10
27.9047677269
 20
20.5300642015
 30
0.0
 10
27.5779948005
 20
20.7314010788
 30
0.0
 10
26.2744703733
 20
21.5345045577
 30
0.0
 10
24.9708586668
 20
22.3374663761
 30
0.0
 10
23.9939898329
 20
22.9390424877
 30
0.0
  0
SPLINE
  5
539
100
AcDbEntity
  8
0
100
AcDbSpline
 62
250
  6
CONTINUOUS
 70
0
 71
3
 72
11
 73
7
 74
0
 42
0.0000001
 43
0.0000001
 44
0.0000000001
 40
0.0
 40
0.0
 40
0.0
 40
0.0
 40
0.2366166485
 40
0.4769551286
 40
0.729276319
 40
1.0
 40
1.0
 40
1.0
 40
1.0
 10
44.9428208737
 20
0.2583324641
 30
0.0
 10
44.9499045415
 20
0.123727427
 30
0.0
 10
44.9302902925
 20
-0.1506569266
 30
0.0
 10
44.797027274
 20
-0.5483559765
 30
0.0
 10
44.5652567009
 20
-0.9204054461
 30
0.0
 10
44.3577744562
 20
-1.1371721428
 30
0.0
 10
44.2420783087
 20
-1.2391448882
 30
0.0
  0
SPLINE
  5
53A
100
AcDbEntity
  8
0
100
AcDbSpline
 62
250
  6
CONTINUOUS
 70
0
 71
3
 72
11
 73
7
 74
0
 42
0.0000001
 43
0.0000001
 44
0.0000000001
 40
0.0
 40
0.0
 40
0.0
 40
0.0
 40
0.23487516
 40
0.4757893804
 40
0.7291954222
 40
1.0
 40
1.0
 40
1.0
 40
1.0
 10
44.9305180923
 20
0.2588993946
 30
0.0
 10
44.9253045167
 20
0.1374091528
 30
0.0
 10
44.8863221768
 20
-0.1083616376
 30
0.0
 10
44.7444082392
 20
-0.4612634219
 30
0.0
 10
44.5229952352
 20
-0.7927080341
 30
0.0
 10
44.3325928175
 20
-0.9882486291
 30
0.0
 10
44.2273875025
 20
-1.0809252261
 30
0.0
  0
SPLINE
  5
53B
100
AcDbEntity
  8
0
100
AcDbSpline
 62
250
  6
CONTINUOUS
 70
0
 71
3
 72
11
 73
7
 74
0
 42
0.0000001
 43
0.0000001
 44
0.0000000001
 40
0.0
 40
0.0
 40
0.0
 40
0.0
 40
0.2162011582
 40
0.4495752073
 40
0.709361353
 40
1.0
 40
1.0
 40
1.0
 40
1.0
 10
44.574328368
 20
3.6391449788
 30
0.0
 10
44.5784721885
 20
3.5251143154
 30
0.0
 10
44.549813706
 20
3.2855248433
 30
0.0
 10
44.4038814415
 20
2.9367345185
 30
0.0
 10
44.1621266706
 20
2.5977679312
 30
0.0
 10
43.953526904
 20
2.3936166648
 30
0.0
 10
43.8369845205
 20
2.2938816601
 30
0.0
  0
SPLINE
  5
53C
100
AcDbEntity
  8
RACCORDO
100
AcDbSpline
 62
250
  6
CONTINUOUS
 70
0
 71
3
 72
15
 73
11
 74
0
 42
0.0000001
 43
0.0000001
 44
0.0000000001
 40
0.0
 40
0.0
 40
0.0
 40
0.0
 40
0.1203949146
 40
0.2459731754
 40
0.3748455043
 40
0.504986808
 40
0.6343644973
 40
0.7610577097
 40
0.8833784976
 40
1.0
 40
1.0
 40
1.0
 40
1.0
 10
41.1294667445
 20
0.7241818618
 30
0.0
 10
41.0698971701
 20
1.5468767067
 30
0.0
 10
40.8467009999
 20
3.2215050499
 30
0.0
 10
40.236096115
 20
5.7204556695
 30
0.0
 10
39.3516888907
 20
8.2073680143
 30
0.0
 10
38.2097017923
 20
10.6158929719
 30
0.0
 10
36.8323631984
 20
12.8809604479
 30
0.0
 10
35.248058345
 20
14.9401539002
 30
0.0
 10
33.4924621444
 20
16.7354724153
 30
0.0
 10
32.1999153874
 20
17.7503401389
 30
0.0
 10
31.5361161011
 20
18.1950485892
 30
0.0
  0
SPLINE
  5
53D
100
AcDbEntity
  8
0
100
AcDbSpline
 62
250
  6
CONTINUOUS
 70
0
 71
3
 72
11
 73
7
 74
0
 42
0.0000001
 43
0.0000001
 44
0.0000000001
 40
0.0
 40
0.0
 40
0.0
 40
0.0
 40
0.2160118134
 40
0.450115586
 40
0.7102156316
 40
1.0
 40
1.0
 40
1.0
 40
1.0
 10
44.5665009049
 20
3.6406265214
 30
0.0
 10
44.5645114236
 20
3.5310428634
 30
0.0
 10
44.5261398094
 20
3.302417809
 30
0.0
 10
44.3761757979
 20
2.971356192
 30
0.0
 10
44.1391819934
 20
2.6490559626
 30
0.0
 10
43.9380690285
 20
2.4539660542
 30
0.0
 10
43.826230462
 20
2.3585153503
 30
0.0
  0
SPLINE
  5
53E
100
AcDbEntity
  8
0
100
AcDbSpline
 62
250
  6
CONTINUOUS
 70
0
 71
3
 72
10
 73
6
 74
0
 42
0.0000001
 43
0.0000001
 44
0.0000000001
 40
0.0
 40
0.0
 40
0.0
 40
0.0
 40
0.2398366979
 40
0.4849953003
 40
1.0
 40
1.0
 40
1.0
 40
1.0
 10
44.5419946667
 20
-43.8798270079
 30
0.0
 10
44.5241449036
 20
-43.971986086
 30
0.0
 10
44.473420622
 20
-44.1558534412
 30
0.0
 10
44.3139813586
 20
-44.5144522283
 30
0.0
 10
44.1348014952
 20
-44.7577741676
 30
0.0
 10
43.9972061676
 20
-44.9050795184
 30
0.0
  0
SPLINE
  5
53F
100
AcDbEntity
  8
0
100
AcDbSpline
 62
250
  6
CONTINUOUS
 70
0
 71
3
 72
10
 73
6
 74
0
 42
0.0000001
 43
0.0000001
 44
0.0000000001
 40
0.0
 40
0.0
 40
0.0
 40
0.0
 40
0.2400147001
 40
0.4850687344
 40
1.0
 40
1.0
 40
1.0
 40
1.0
 10
44.5427815288
 20
-43.8805064332
 30
0.0
 10
44.5269189452
 20
-43.977481978
 30
0.0
 10
44.4787967862
 20
-44.1712318042
 30
0.0
 10
44.3187838761
 20
-44.5494016616
 30
0.0
 10
44.1328589361
 20
-44.8055436007
 30
0.0
 10
43.9891563991
 20
-44.959795767
 30
0.0
  0
SPLINE
  5
540
100
AcDbEntity
  8
0
100
AcDbSpline
 62
250
  6
CONTINUOUS
 70
0
 71
3
 72
13
 73
9
 74
0
 42
0.0000001
 43
0.0000001
 44
0.0000000001
 40
0.0
 40
0.0
 40
0.0
 40
0.0
 40
0.3213730937
 40
0.5899127525
 40
0.706207719
 40
0.8118668066
 40
0.9088499214
 40
1.0
 40
1.0
 40
1.0
 40
1.0
 10
34.001936459
 20
19.0901896658
 30
0.0
 10
34.1204873578
 20
19.1513894151
 30
0.0
 10
34.3431977217
 20
19.2542798891
 30
0.0
 10
34.6247535308
 20
19.3416533355
 30
0.0
 10
34.826871139
 20
19.369956717
 30
0.0
 10
34.9597891423
 20
19.3705026537
 30
0.0
 10
35.0807562414
 20
19.3503116701
 30
0.0
 10
35.1541586641
 20
19.3213896463
 30
0.0
 10
35.1874145139
 20
19.3033359991
 30
0.0
  0
SPLINE
  5
541
100
AcDbEntity
  8
0
100
AcDbSpline
 62
250
  6
CONTINUOUS
 70
0
 71
3
 72
14
 73
10
 74
0
 42
0.0000001
 43
0.0000001
 44
0.0000000001
 40
0.0
 40
0.0
 40
0.0
 40
0.0
 40
0.3216285892
 40
0.4616424431
 40
0.5887886145
 40
0.7040804929
 40
0.8091462794
 40
0.9065554328
 40
1.0
 40
1.0
 40
1.0
 40
1.0
 10
33.675355524
 20
19.3389595135
 30
0.0
 10
33.7989124825
 20
19.4021126108
 30
0.0
 10
33.9809783848
 20
19.4847107585
 30
0.0
 10
34.223275606
 20
19.5618792589
 30
0.0
 10
34.3848305513
 20
19.5969289612
 30
0.0
 10
34.5345396425
 20
19.6110495359
 30
0.0
 10
34.6720779081
 20
19.602808347
 30
0.0
 10
34.796573609
 20
19.5706397023
 30
0.0
 10
34.8702246963
 20
19.5316791376
 30
0.0
 10
34.9031741831
 20
19.5084491239
 30
0.0
  0
SPLINE
  5
542
100
AcDbEntity
  8
0
100
AcDbSpline
 62
250
  6
CONTINUOUS
 70
0
 71
3
 72
11
 73
7
 74
0
 42
0.0000001
 43
0.0000001
 44
0.0000000001
 40
0.0
 40
0.0
 40
0.0
 40
0.0
 40
0.2285127878
 40
0.4689961407
 40
0.7252994898
 40
1.0
 40
1.0
 40
1.0
 40
1.0
 10
44.9189402571
 20
-40.8690586441
 30
0.0
 10
44.9015298632
 20
-40.9568302726
 30
0.0
 10
44.8483071368
 20
-41.1338529872
 30
0.0
 10
44.7203635501
 20
-41.3887481851
 30
0.0
 10
44.5446786405
 20
-41.635756764
 30
0.0
 10
44.4023240234
 20
-41.7881607966
 30
0.0
 10
44.3246257916
 20
-41.8625508012
 30
0.0
  0
SPLINE
  5
543
100
AcDbEntity
  8
0
100
AcDbSpline
 62
250
  6
CONTINUOUS
 70
0
 71
3
 72
11
 73
7
 74
0
 42
0.0000001
 43
0.0000001
 44
0.0000000001
 40
0.0
 40
0.0
 40
0.0
 40
0.0
 40
0.2280960814
 40
0.4674615902
 40
0.7235430663
 40
1.0
 40
1.0
 40
1.0
 40
1.0
 10
44.9258958841
 20
-40.8720941732
 30
0.0
 10
44.9164318415
 20
-40.9714295075
 30
0.0
 10
44.8743066129
 20
-41.1733988559
 30
0.0
 10
44.7475426482
 20
-41.4654429633
 30
0.0
 10
44.5592599522
 20
-41.7476053036
 30
0.0
 10
44.4011804953
 20
-41.9199641152
 30
0.0
 10
44.3139782658
 20
-42.0037652707
 30
0.0
  0
SPLINE
  5
544
100
AcDbEntity
  8
DRAFT
100
AcDbSpline
 62
7
  6
CONTINUOUS
 70
0
 71
3
 72
11
 73
7
 74
0
 42
0.0000001
 43
0.0000001
 44
0.0000000001
 40
0.0
 40
0.0
 40
0.0
 40
0.0
 40
0.2296026175
 40
0.4658894662
 40
0.7200217447
 40
1.0
 40
1.0
 40
1.0
 40
1.0
 10
45.8141214359
 20
-23.8553038554
 30
0.0
 10
45.812869853
 20
-23.9426415355
 30
0.0
 10
45.786335793
 20
-24.1204687393
 30
0.0
 10
45.6739988559
 20
-24.3734430925
 30
0.0
 10
45.4938403081
 20
-24.6074950045
 30
0.0
 10
45.3397959166
 20
-24.7418661762
 30
0.0
 10
45.2544817668
 20
-24.8056317594
 30
0.0
  0
SPLINE
  5
545
100
AcDbEntity
  8
0
100
AcDbSpline
 62
250
  6
CONTINUOUS
 70
0
 71
3
 72
13
 73
9
 74
0
 42
0.0000001
 43
0.0000001
 44
0.0000000001
 40
0.0
 40
0.0
 40
0.0
 40
0.0
 40
0.2988798255
 40
0.4321990343
 40
0.5565350556
 40
0.7838459583
 40
0.8919300425
 40
1.0
 40
1.0
 40
1.0
 40
1.0
 10
30.4619881711
 20
21.5637115612
 30
0.0
 10
30.5790480922
 20
21.6228518052
 30
0.0
 10
30.7537647685
 20
21.699018413
 30
0.0
 10
30.9891481713
 20
21.7656516788
 30
0.0
 10
31.1989487856
 20
21.8020768896
 30
0.0
 10
31.4044037201
 20
21.7993417011
 30
0.0
 10
31.5922454872
 20
21.7447108559
 30
0.0
 10
31.67709628
 20
21.7006443592
 30
0.0
 10
31.7167727999
 20
21.6746708679
 30
0.0
  0
SPLINE
  5
546
100
AcDbEntity
  8
RACCORDO
100
AcDbSpline
 62
250
  6
CONTINUOUS
 70
0
 71
3
 72
10
 73
6
 74
0
 42
0.0000001
 43
0.0000001
 44
0.0000000001
 40
0.0
 40
0.0
 40
0.0
 40
0.0
 40
0.5214045339
 40
0.7689729423
 40
1.0
 40
1.0
 40
1.0
 40
1.0
 10
22.4265972202
 20
4.9964109044
 30
0.0
 10
22.5371263154
 20
4.8165966208
 30
0.0
 10
22.6681497867
 20
4.5288965612
 30
0.0
 10
22.7570486598
 20
4.1330756588
 30
0.0
 10
22.770839366
 20
3.9386646541
 30
0.0
 10
22.7682962353
 20
3.8451777943
 30
0.0
  0
SPLINE
  5
547
100
AcDbEntity
  8
0
100
AcDbSpline
 62
250
  6
CONTINUOUS
 70
0
 71
3
 72
12
 73
8
 74
0
 42
0.0000001
 43
0.0000001
 44
0.0000000001
 40
0.0
 40
0.0
 40
0.0
 40
0.0
 40
0.2973041151
 40
0.5539663069
 40
0.7818907868
 40
0.8907944396
 40
1.0
 40
1.0
 40
1.0
 40
1.0
 10
30.1757098643
 20
21.7538082713
 30
0.0
 10
30.2923803687
 20
21.8127075734
 30
0.0
 10
30.5167437815
 20
21.9100072934
 30
0.0
 10
30.8529537162
 20
21.9911038851
 30
0.0
 10
31.1183748475
 20
21.9865178539
 30
0.0
 10
31.3074982722
 20
21.9309152269
 30
0.0
 10
31.3932143578
 20
21.886312863
 30
0.0
 10
31.4333973744
 20
21.8600455459
 30
0.0
  0
SPLINE
  5
548
100
AcDbEntity
  8
RACCORDO
100
AcDbSpline
 62
250
  6
CONTINUOUS
 70
0
 71
3
 72
8
 73
4
 74
0
 42
0.0000001
 43
0.0000001
 44
0.0000000001
 40
0.0
 40
0.0
 40
0.0
 40
0.0
 40
1.0
 40
1.0
 40
1.0
 40
1.0
 10
22.4265972202
 20
4.9964109044
 30
0.0
 10
22.4359179564
 20
5.2453833136
 30
0.0
 10
22.4454168906
 20
5.4943491152
 30
0.0
 10
22.4550935415
 20
5.7433079454
 30
0.0
  0
SPLINE
  5
549
100
AcDbEntity
  8
0
100
AcDbSpline
 62
250
  6
CONTINUOUS
 70
0
 71
3
 72
11
 73
7
 74
0
 42
0.0000001
 43
0.0000001
 44
0.0000000001
 40
0.0
 40
0.0
 40
0.0
 40
0.0
 40
0.2756412592
 40
0.5305758789
 40
0.7696360488
 40
1.0
 40
1.0
 40
1.0
 40
1.0
 10
2.4460140231
 20
38.8552141126
 30
0.0
 10
2.5819752166
 20
38.8980420981
 30
0.0
 10
2.8505056057
 20
38.9612480456
 30
0.0
 10
3.250560765
 20
38.9809483588
 30
0.0
 10
3.6232368937
 20
38.9198925472
 30
0.0
 10
3.8494192924
 20
38.8242333748
 30
0.0
 10
3.9525976617
 20
38.764679379
 30
0.0
  0
SPLINE
  5
54A
100
AcDbEntity
  8
RACCORDO
100
AcDbSpline
 62
250
  6
CONTINUOUS
 70
0
 71
3
 72
8
 73
4
 74
0
 42
0.0000001
 43
0.0000001
 44
0.0000000001
 40
0.0
 40
0.0
 40
0.0
 40
0.0
 40
1.0
 40
1.0
 40
1.0
 40
1.0
 10
22.4265972202
 20
-32.3167403377
 30
0.0
 10
22.435909375
 20
-32.554012029
 30
0.0
 10
22.4454079739
 20
-32.7912764769
 30
0.0
 10
22.4550935415
 20
-33.0285332187
 30
0.0
  0
SPLINE
  5
54B
100
AcDbEntity
  8
RACCORDO
100
AcDbSpline
 62
250
  6
CONTINUOUS
 70
0
 71
3
 72
11
 73
7
 74
0
 42
0.0000001
 43
0.0000001
 44
0.0000000001
 40
0.0
 40
0.0
 40
0.0
 40
0.0
 40
0.290494636
 40
0.5477482774
 40
0.7791583624
 40
1.0
 40
1.0
 40
1.0
 40
1.0
 10
22.768296106
 20
-31.615136431
 30
0.0
 10
22.7703515615
 20
-31.6950299063
 30
0.0
 10
22.7612071284
 20
-31.8466570456
 30
0.0
 10
22.6984926907
 20
-32.0542504369
 30
0.0
 10
22.5868337629
 20
-32.2187122515
 30
0.0
 10
22.4819564532
 20
-32.2917044808
 30
0.0
 10
22.4265972202
 20
-32.3167403377
 30
0.0
  0
SPLINE
  5
54C
100
AcDbEntity
  8
RACCORDO
100
AcDbSpline
 62
250
  6
CONTINUOUS
 70
0
 71
3
 72
9
 73
5
 74
0
 42
0.0000001
 43
0.0000001
 44
0.0000000001
 40
0.0
 40
0.0
 40
0.0
 40
0.0
 40
0.2564577395
 40
1.0
 40
1.0
 40
1.0
 40
1.0
 10
-25.6813506953
 20
-5.2351536077
 30
0.0
 10
-25.6239669068
 20
-6.5549084726
 30
0.0
 10
-25.3224897778
 20
-11.6971097726
 30
0.0
 10
-24.7025655354
 20
-16.8223257795
 30
0.0
 10
-24.0396960902
 20
-20.5944779242
 30
0.0
  0
LINE
  5
54D
100
AcDbEntity
  8
RACCORDO
100
AcDbLine
 62
250
  6
CONTINUOUS
 10
-27.7501969563
 20
-18.0698621921
 11
-27.6770726989
 21
-18.1203672563
  0
LINE
  5
54E
100
AcDbEntity
  8
RACCORDO
100
AcDbLine
 62
250
  6
CONTINUOUS
 10
-31.165763859
 20
-15.6102570625
 11
-31.1003892322
 21
-15.6592221973
  0
SPLINE
  5
54F
100
AcDbEntity
  8
RACCORDO
100
AcDbSpline
 62
250
  6
CONTINUOUS
 70
0
 71
3
 72
15
 73
11
 74
0
 42
0.0000001
 43
0.0000001
 44
0.0000000001
 40
0.0
 40
0.0
 40
0.0
 40
0.0
 40
0.1166815815
 40
0.2401696973
 40
0.3685666097
 40
0.4996385222
 40
0.6309115397
 40
0.7597765268
 40
0.8836209289
 40
1.0
 40
1.0
 40
1.0
 40
1.0
 10
-41.9643736072
 20
1.1647081632
 30
0.0
 10
-41.8138727059
 20
0.3879277824
 30
0.0
 10
-41.4042307563
 20
-1.192588599
 30
0.0
 10
-40.527209614
 20
-3.5368863963
 30
0.0
 10
-39.393261236
 20
-5.8770105314
 30
0.0
 10
-38.0359400135
 20
-8.1561635869
 30
0.0
 10
-36.4952582896
 20
-10.319283299
 30
0.0
 10
-34.8164072219
 20
-12.3134639252
 30
0.0
 10
-33.0485047629
 20
-14.0891139573
 30
0.0
 10
-31.7972332863
 20
-15.1369255721
 30
0.0
 10
-31.165763859
 20
-15.6102570625
 30
0.0
  0
LINE
  5
550
100
AcDbEntity
  8
RACCORDO
100
AcDbLine
 62
250
  6
CONTINUOUS
 10
-41.9807944314
 20
1.2498397761
 11
-41.9643736072
 21
1.1647081632
  0
LINE
  5
551
100
AcDbEntity
  8
RACCORDO
100
AcDbLine
 62
250
  6
CONTINUOUS
 10
-42.5129551097
 20
4.625291162
 11
-42.5009843942
 21
4.5289655944
  0
SPLINE
  5
552
100
AcDbEntity
  8
ASSI
100
AcDbSpline
 62
7
  6
CONTINUOUS
 70
0
 71
3
 72
11
 73
7
 74
0
 42
0.0000001
 43
0.0000001
 44
0.0000000001
 40
0.0
 40
0.0
 40
0.0
 40
0.0
 40
0.2404937292
 40
0.4874210726
 40
0.7406508918
 40
1.0
 40
1.0
 40
1.0
 40
1.0
 10
44.2644259554
 20
-42.5748853753
 30
0.0
 10
44.5674910174
 20
-39.2908931657
 30
0.0
 10
45.018252094
 20
-32.6190332753
 30
0.0
 10
45.2369765074
 20
-22.4614448995
 30
0.0
 10
45.0069513249
 20
-12.0456346476
 30
0.0
 10
44.5600057945
 20
-5.0284843076
 30
0.0
 10
44.2644259554
 20
-1.4842732702
 30
0.0
  0
SPLINE
  5
553
100
AcDbEntity
  8
ASSI
100
AcDbSpline
 62
7
  6
CONTINUOUS
 70
0
 71
3
 72
15
 73
11
 74
0
 42
0.0000001
 43
0.0000001
 44
0.0000000001
 40
0.0
 40
0.0
 40
0.0
 40
0.0
 40
0.1187124699
 40
0.2433859711
 40
0.3720976438
 40
0.5026977325
 40
0.6329363472
 40
0.760582579
 40
0.8835446437
 40
1.0
 40
1.0
 40
1.0
 40
1.0
 10
43.884554148
 20
2.0009410577
 30
0.0
 10
43.7744454866
 20
2.8224922779
 30
0.0
 10
43.4449577658
 20
4.4940595205
 30
0.0
 10
42.6740909178
 20
6.9795337355
 30
0.0
 10
41.6317286205
 20
9.4542579406
 30
0.0
 10
40.3444818121
 20
11.8547747436
 30
0.0
 10
38.8451795171
 20
14.1200036335
 30
0.0
 10
37.1719041014
 20
16.19227228
 30
0.0
 10
35.3675883526
 20
18.0185732822
 30
0.0
 10
34.0660440413
 20
19.0749567205
 30
0.0
 10
33.4030925055
 20
19.5457932553
 30
0.0
  0
SPLINE
  5
554
100
AcDbEntity
  8
ASSI
100
AcDbSpline
 62
7
  6
CONTINUOUS
 70
0
 71
3
 72
9
 73
5
 74
0
 42
0.0000001
 43
0.0000001
 44
0.0000000001
 40
0.0
 40
0.0
 40
0.0
 40
0.0
 40
0.5082898291
 40
1.0
 40
1.0
 40
1.0
 40
1.0
 10
29.8675585996
 20
21.9573825859
 30
0.0
 10
20.7477733858
 20
27.9227337115
 30
0.0
 10
2.4909836789
 20
39.1861501945
 30
0.0
 10
-16.3836024658
 20
49.3854644559
 30
0.0
 10
-25.8101998896
 20
54.1050225313
 30
0.0
  0
SPLINE
  5
555
100
AcDbEntity
  8
ASSI
100
AcDbSpline
 62
7
  6
CONTINUOUS
 70
0
 71
3
 72
14
 73
10
 74
0
 42
0.0000001
 43
0.0000001
 44
0.0000000001
 40
0.0
 40
0.0
 40
0.0
 40
0.0
 40
0.2833022742
 40
0.4146718276
 40
0.5397843401
 40
0.6595413274
 40
0.7751485828
 40
0.8880797829
 40
1.0
 40
1.0
 40
1.0
 40
1.0
 10
-29.3457337956
 20
55.776179134
 30
0.0
 10
-30.0152338842
 20
56.0738136552
 30
0.0
 10
-31.0356765442
 20
56.4314896189
 30
0.0
 10
-32.4125668022
 20
56.6756453625
 30
0.0
 10
-33.3864488104
 20
56.7328377722
 30
0.0
 10
-34.319196642
 20
56.6675777311
 30
0.0
 10
-35.2033953947
 20
56.479721966
 30
0.0
 10
-36.0311939128
 20
56.1704035351
 30
0.0
 10
-36.5407403459
 20
55.8846112579
 30
0.0
 10
-36.7816124169
 20
55.7241084578
 30
0.0
  0
SPLINE
  5
556
100
AcDbEntity
  8
ASSI
100
AcDbSpline
 62
7
  6
CONTINUOUS
 70
0
 71
3
 72
10
 73
6
 74
0
 42
0.0000001
 43
0.0000001
 44
0.0000000001
 40
0.0
 40
0.0
 40
0.0
 40
0.0
 40
0.5212701805
 40
0.7646207737
 40
1.0
 40
1.0
 40
1.0
 40
1.0
 10
45.2544817668
 20
-19.0903398219
 30
0.0
 10
45.4298314891
 20
-18.859830602
 30
0.0
 10
45.6462576252
 20
-18.4840490555
 30
0.0
 10
45.7931889709
 20
-17.9458937905
 30
0.0
 10
45.8157469704
 20
-17.6789338756
 30
0.0
 10
45.8140535277
 20
-17.5481653307
 30
0.0
  0
SPLINE
  5
557
100
AcDbEntity
  8
ASSI
100
AcDbSpline
 62
7
  6
CONTINUOUS
 70
0
 71
3
 72
15
 73
11
 74
0
 42
0.0000001
 43
0.0000001
 44
0.0000000001
 40
0.0
 40
0.0
 40
0.0
 40
0.0
 40
0.1172187636
 40
0.2397236251
 40
0.366460183
 40
0.4962271711
 40
0.6271722466
 40
0.756537571
 40
0.881591634
 40
1.0
 40
1.0
 40
1.0
 40
1.0
 10
44.5659780105
 20
3.7006417028
 30
0.0
 10
44.4669205782
 20
4.420834131
 30
0.0
 10
44.1755642983
 20
5.8824374114
 30
0.0
 10
43.5011496287
 20
8.056439776
 30
0.0
 10
42.5911537355
 20
10.2274883194
 30
0.0
 10
41.4604991035
 20
12.3516254168
 30
0.0
 10
40.1289370488
 20
14.3755148202
 30
0.0
 10
38.6319027312
 20
16.2435432206
 30
0.0
 10
37.0064805681
 20
17.8936185436
 30
0.0
 10
35.8322132384
 20
18.8494881765
 30
0.0
 10
35.2334963696
 20
19.274704441
 30
0.0
  0
SPLINE
  5
558
100
AcDbEntity
  8
ASSI
100
AcDbSpline
 62
7
  6
CONTINUOUS
 70
0
 71
3
 72
11
 73
7
 74
0
 42
0.0000001
 43
0.0000001
 44
0.0000000001
 40
0.0
 40
0.0
 40
0.0
 40
0.0
 40
0.2372223813
 40
0.500006107
 40
0.7627865088
 40
1.0
 40
1.0
 40
1.0
 40
1.0
 10
-22.7554133256
 20
-3.3368436789
 30
0.0
 10
-22.8357172852
 20
-3.2904771791
 30
0.0
 10
-22.9876979325
 20
-3.1625673387
 30
0.0
 10
-23.1650849215
 20
-2.9201632188
 30
0.0
 10
-23.2863185748
 20
-2.6453429055
 30
0.0
 10
-23.3210987506
 20
-2.4497728267
 30
0.0
 10
-23.3210987506
 20
-2.3570477828
 30
0.0
  0
SPLINE
  5
559
100
AcDbEntity
  8
ASSI
100
AcDbSpline
 62
7
  6
CONTINUOUS
 70
0
 71
3
 72
9
 73
5
 74
0
 42
0.0000001
 43
0.0000001
 44
0.0000000001
 40
0.0
 40
0.0
 40
0.0
 40
0.0
 40
0.2543075688
 40
1.0
 40
1.0
 40
1.0
 40
1.0
 10
22.3084282399
 20
4.9005215368
 30
0.0
 10
22.3342451548
 20
4.8586240299
 30
0.0
 10
22.429039965
 20
4.6898791556
 30
0.0
 10
22.4976049376
 20
4.5059639609
 30
0.0
 10
22.5292999674
 20
4.3651832485
 30
0.0
  0
SPLINE
  5
55A
100
AcDbEntity
  8
ASSI
100
AcDbSpline
 62
7
  6
CONTINUOUS
 70
0
 71
3
 72
9
 73
5
 74
0
 42
0.0000001
 43
0.0000001
 44
0.0000000001
 40
0.0
 40
0.0
 40
0.0
 40
0.0
 40
0.2445890598
 40
1.0
 40
1.0
 40
1.0
 40
1.0
 10
22.0760786013
 20
5.2001250564
 30
0.0
 10
22.0977019966
 20
5.1779854235
 30
0.0
 10
22.1834126683
 20
5.0848554634
 30
0.0
 10
22.2582880264
 20
4.9818945146
 30
0.0
 10
22.3084283143
 20
4.9005215239
 30
0.0
  0
SPLINE
  5
55B
100
AcDbEntity
  8
ASSI
100
AcDbSpline
 62
7
  6
CONTINUOUS
 70
0
 71
3
 72
14
 73
10
 74
0
 42
0.0000001
 43
0.0000001
 44
0.0000000001
 40
0.0
 40
0.0
 40
0.0
 40
0.0
 40
0.1134727354
 40
0.2277775987
 40
0.34437883
 40
0.4645972433
 40
0.5895483627
 40
0.7201034755
 40
1.0
 40
1.0
 40
1.0
 40
1.0
 10
40.2090569489
 20
-51.3742074554
 30
0.0
 10
40.4495140252
 20
-51.2552246117
 30
0.0
 10
40.9158884065
 20
-50.98165273
 30
0.0
 10
41.5546457453
 20
-50.4726208176
 30
0.0
 10
42.12813955
 20
-49.8688469291
 30
0.0
 10
42.6323173869
 20
-49.1750990768
 30
0.0
 10
43.0641042583
 20
-48.396351313
 30
0.0
 10
43.550862565
 20
-47.2256661012
 30
0.0
 10
43.7809157778
 20
-46.2750288553
 30
0.0
 10
43.884554148
 20
-45.6214332618
 30
0.0
  0
LINE
  5
55C
100
AcDbEntity
  8
ASSI
100
AcDbLine
 62
7
  6
CONTINUOUS
 10
35.1871003688
 20
19.3076379121
 11
35.1390601621
 21
19.3417015633
  0
LINE
  5
55D
100
AcDbEntity
  8
ASSI
100
AcDbLine
 62
7
  6
CONTINUOUS
 10
35.1390601621
 20
19.3417015633
 11
35.0148570714
 21
19.4295959311
  0
SPLINE
  5
55E
100
AcDbEntity
  8
ASSI
100
AcDbSpline
 62
7
  6
CONTINUOUS
 70
0
 71
3
 72
9
 73
5
 74
0
 42
0.0000001
 43
0.0000001
 44
0.0000000001
 40
0.0
 40
0.0
 40
0.0
 40
0.0
 40
0.2581730059
 40
1.0
 40
1.0
 40
1.0
 40
1.0
 10
1.3303773087
 20
-23.8140909528
 30
0.0
 10
1.3307292631
 20
-23.8188562069
 30
0.0
 10
1.3317963464
 20
-23.8373338425
 30
0.0
 10
1.3316702605
 20
-23.8558853748
 30
0.0
 10
1.3308292811
 20
-23.8695892361
 30
0.0
  0
SPLINE
  5
55F
100
AcDbEntity
  8
ASSI
100
AcDbSpline
 62
7
  6
CONTINUOUS
 70
0
 71
3
 72
9
 73
5
 74
0
 42
0.0000001
 43
0.0000001
 44
0.0000000001
 40
0.0
 40
0.0
 40
0.0
 40
0.0
 40
0.5360283744
 40
1.0
 40
1.0
 40
1.0
 40
1.0
 10
1.3308292811
 20
-23.8695892361
 30
0.0
 10
1.3293399412
 20
-23.8938582113
 30
0.0
 10
1.3224296155
 20
-23.9390017323
 30
0.0
 10
1.3025029487
 20
-23.9812754648
 30
0.0
 10
1.2889869813
 20
-23.9974079271
 30
0.0
  0
SPLINE
  5
560
100
AcDbEntity
  8
ASSI
100
AcDbSpline
 62
7
  6
CONTINUOUS
 70
0
 71
3
 72
8
 73
4
 74
0
 42
0.0000001
 43
0.0000001
 44
0.0000000001
 40
0.0
 40
0.0
 40
0.0
 40
0.0
 40
1.0
 40
1.0
 40
1.0
 40
1.0
 10
1.2889869813
 20
-23.9974079271
 30
0.0
 10
1.281519486
 20
-24.006321021
 30
0.0
 10
1.272539804
 20
-24.0142682925
 30
0.0
 10
1.2624533093
 20
-24.0200535629
 30
0.0
  0
SPLINE
  5
561
100
AcDbEntity
  8
ASSI
100
AcDbSpline
 62
7
  6
CONTINUOUS
 70
0
 71
3
 72
11
 73
7
 74
0
 42
0.0000001
 43
0.0000001
 44
0.0000000001
 40
0.0
 40
0.0
 40
0.0
 40
0.0
 40
0.2451135912
 40
0.5087968041
 40
0.7682510574
 40
1.0
 40
1.0
 40
1.0
 40
1.0
 10
1.0793779247
 20
-23.403501463
 30
0.0
 10
1.1125302764
 20
-23.4265900404
 30
0.0
 10
1.1757366288
 20
-23.482694561
 30
0.0
 10
1.2538447341
 20
-23.5834385853
 30
0.0
 10
1.3078631405
 20
-23.6963625099
 30
0.0
 10
1.3275637831
 20
-23.7759974852
 30
0.0
 10
1.3303773087
 20
-23.8140909528
 30
0.0
  0
SPLINE
  5
562
100
AcDbEntity
  8
ASSI
100
AcDbSpline
 62
7
  6
CONTINUOUS
 70
0
 71
3
 72
10
 73
6
 74
0
 42
0.0000001
 43
0.0000001
 44
0.0000000001
 40
0.0
 40
0.0
 40
0.0
 40
0.0
 40
0.2349852081
 40
0.4795590767
 40
1.0
 40
1.0
 40
1.0
 40
1.0
 10
0.7551568283
 20
-23.2303307442
 30
0.0
 10
0.7820608519
 20
-23.2407600119
 30
0.0
 10
0.8365856557
 20
-23.2630992961
 30
0.0
 10
0.9468956523
 20
-23.3172243623
 30
0.0
 10
1.0269357168
 20
-23.3669786852
 30
0.0
 10
1.0793779247
 20
-23.403501463
 30
0.0
  0
LINE
  5
563
100
AcDbEntity
  8
ASSI
100
AcDbLine
 62
7
  6
CONTINUOUS
 10
0.46696263
 20
-24.6966930339
 11
0.4765132903
 21
-24.8282149241
  0
SPLINE
  5
564
100
AcDbEntity
  8
ASSI
100
AcDbSpline
 62
7
  6
CONTINUOUS
 70
0
 71
3
 72
9
 73
5
 74
0
 42
0.0000001
 43
0.0000001
 44
0.0000000001
 40
0.0
 40
0.0
 40
0.0
 40
0.0
 40
0.2719005673
 40
1.0
 40
1.0
 40
1.0
 40
1.0
 10
1.4712675216
 20
-24.4001749956
 30
0.0
 10
1.4733470895
 20
-24.401075886
 30
0.0
 10
1.4811507366
 20
-24.4040178425
 30
0.0
 10
1.4895415226
 20
-24.4054055842
 30
0.0
 10
1.4956101627
 20
-24.4054476286
 30
0.0
  0
SPLINE
  5
565
100
AcDbEntity
  8
ASSI
100
AcDbSpline
 62
7
  6
CONTINUOUS
 70
0
 71
3
 72
9
 73
5
 74
0
 42
0.0000001
 43
0.0000001
 44
0.0000000001
 40
0.0
 40
0.0
 40
0.0
 40
0.0
 40
0.5081357428
 40
1.0
 40
1.0
 40
1.0
 40
1.0
 10
1.4956101627
 20
-24.4054476286
 30
0.0
 10
1.5071639634
 20
-24.4055276749
 30
0.0
 10
1.5294563133
 20
-24.3985031126
 30
0.0
 10
1.5504015665
 20
-24.3901207468
 30
0.0
 10
1.5606479516
 20
-24.3856379401
 30
0.0
  0
SPLINE
  5
566
100
AcDbEntity
  8
ASSI
100
AcDbSpline
 62
7
  6
CONTINUOUS
 70
0
 71
3
 72
8
 73
4
 74
0
 42
0.0000001
 43
0.0000001
 44
0.0000000001
 40
0.0
 40
0.0
 40
0.0
 40
0.0
 40
1.0
 40
1.0
 40
1.0
 40
1.0
 10
1.5606479516
 20
-24.3856379401
 30
0.0
 10
1.5706676703
 20
-24.3812543002
 30
0.0
 10
1.580498593
 20
-24.3763851236
 30
0.0
 10
1.5899703284
 20
-24.3709172821
 30
0.0
  0
LINE
  5
567
100
AcDbEntity
  8
ASSI
100
AcDbLine
 62
7
  6
CONTINUOUS
 10
1.524929723
 20
-25.4289129673
 11
1.9243327665
 21
-25.6573115649
  0
SPLINE
  5
568
100
AcDbEntity
  8
ASSI
100
AcDbSpline
 62
7
  6
CONTINUOUS
 70
0
 71
3
 72
10
 73
6
 74
0
 42
0.0000001
 43
0.0000001
 44
0.0000000001
 40
0.0
 40
0.0
 40
0.0
 40
0.0
 40
0.5019786494
 40
0.7509031479
 40
1.0
 40
1.0
 40
1.0
 40
1.0
 10
1.2964034835
 20
-24.658843836
 30
0.0
 10
1.339810201
 20
-24.7860506146
 30
0.0
 10
1.3940670387
 20
-24.9798130303
 30
0.0
 10
1.4685469678
 20
-25.2369704055
 30
0.0
 10
1.5063235751
 20
-25.3648630902
 30
0.0
 10
1.524929723
 20
-25.4289129673
 30
0.0
  0
SPLINE
  5
569
100
AcDbEntity
  8
ASSI
100
AcDbSpline
 62
7
  6
CONTINUOUS
 70
0
 71
3
 72
11
 73
7
 74
0
 42
0.0000001
 43
0.0000001
 44
0.0000000001
 40
0.0
 40
0.0
 40
0.0
 40
0.0
 40
0.2311233271
 40
0.4873262027
 40
0.748650893
 40
1.0
 40
1.0
 40
1.0
 40
1.0
 10
1.0519291945
 20
-24.3325517051
 30
0.0
 10
1.0797147424
 20
-24.3484669133
 30
0.0
 10
1.1342391186
 20
-24.3894510967
 30
0.0
 10
1.2023509725
 20
-24.4685358105
 30
0.0
 10
1.2570813415
 20
-24.5603644744
 30
0.0
 10
1.2851575642
 20
-24.6258867902
 30
0.0
 10
1.2964034835
 20
-24.658843836
 30
0.0
  0
LINE
  5
56A
100
AcDbEntity
  8
ASSI
100
AcDbLine
 62
7
  6
CONTINUOUS
 10
0.8295071418
 20
-24.2051133017
 11
1.0519291945
 21
-24.3325517051
  0
LINE
  5
56B
100
AcDbEntity
  8
ASSI
100
AcDbLine
 62
7
  6
CONTINUOUS
 10
0.4765132903
 20
-24.8282149241
 11
0.8894996454
 21
-25.065039575
  0
LINE
  5
56C
100
AcDbEntity
  8
ASSI
100
AcDbLine
 62
7
  6
CONTINUOUS
 10
-0.0819169073
 20
-24.5075696319
 11
0.3547937133
 21
-24.758365332
  0
LINE
  5
56D
100
AcDbEntity
  8
ASSI
100
AcDbLine
 62
7
  6
CONTINUOUS
 10
-0.7843367534
 20
-23.6833129146
 11
-0.2205148771
 21
-24.0076337811
  0
LINE
  5
56E
100
AcDbEntity
  8
ASSI
100
AcDbLine
 62
7
  6
CONTINUOUS
 10
-1.2764247922
 20
-23.8200830875
 11
-0.8672295176
 21
-24.055839003
  0
LINE
  5
56F
100
AcDbEntity
  8
ASSI
100
AcDbLine
 62
7
  6
CONTINUOUS
 10
-1.2505973142
 20
-23.7174843894
 11
-1.2764247922
 21
-23.8200830875
  0
LINE
  5
570
100
AcDbEntity
  8
ASSI
100
AcDbLine
 62
7
  6
CONTINUOUS
 10
-2.386792361
 20
-22.1361166488
 11
-2.4163800245
 21
-22.2234823549
  0
LINE
  5
571
100
AcDbEntity
  8
ASSI
100
AcDbLine
 62
7
  6
CONTINUOUS
 10
-1.7458006305
 20
-23.5493356588
 11
-1.3413638243
 21
-23.7826449849
  0
LINE
  5
572
100
AcDbEntity
  8
ASSI
100
AcDbLine
 62
7
  6
CONTINUOUS
 10
-2.3798396583
 20
-23.1830645974
 11
-2.3219201032
 21
-23.2165493931
  0
LINE
  5
573
100
AcDbEntity
  8
ASSI
100
AcDbLine
 62
7
  6
CONTINUOUS
 10
-3.3478435234
 20
-22.6226645203
 11
-2.9531852639
 21
-22.8513174557
  0
LINE
  5
574
100
AcDbEntity
  8
ASSI
100
AcDbLine
 62
7
  6
CONTINUOUS
 10
-3.9820127547
 20
-22.2547375525
 11
-3.5698294814
 21
-22.4939459734
  0
LINE
  5
575
100
AcDbEntity
  8
ASSI
100
AcDbLine
 62
7
  6
CONTINUOUS
 10
-5.1317244238
 20
-21.5861037341
 11
-4.7690634635
 21
-21.7972388374
  0
LINE
  5
576
100
AcDbEntity
  8
ASSI
100
AcDbLine
 62
7
  6
CONTINUOUS
 10
-4.9642059034
 20
-20.9357132079
 11
-4.9821276563
 21
-21.0167104609
  0
LINE
  5
577
100
AcDbEntity
  8
ASSI
100
AcDbLine
 62
7
  6
CONTINUOUS
 10
45.2651208161
 20
-23.6482797472
 11
45.4589259915
 21
-23.5785083966
  0
SPLINE
  5
578
100
AcDbEntity
  8
ASSI
100
AcDbSpline
 62
250
  6
CONTINUOUS
 70
0
 71
3
 72
9
 73
5
 74
0
 42
0.0000001
 43
0.0000001
 44
0.0000000001
 40
0.0
 40
0.0
 40
0.0
 40
0.0
 40
0.474432085
 40
1.0
 40
1.0
 40
1.0
 40
1.0
 10
-26.4489780692
 20
14.1475616811
 30
0.0
 10
-26.3982150021
 20
14.1162368568
 30
0.0
 10
-26.2819226128
 20
14.0650731287
 30
0.0
 10
-26.1583638192
 20
14.0381576319
 30
0.0
 10
-26.0928451837
 20
14.0295674029
 30
0.0
  0
SPLINE
  5
579
100
AcDbEntity
  8
ASSI
100
AcDbSpline
 62
250
  6
CONTINUOUS
 70
0
 71
3
 72
11
 73
7
 74
0
 42
0.0000001
 43
0.0000001
 44
0.0000000001
 40
0.0
 40
0.0
 40
0.0
 40
0.0
 40
0.2439993924
 40
0.5039724029
 40
0.7617946156
 40
1.0
 40
1.0
 40
1.0
 40
1.0
 10
41.3298026821
 20
-43.8738802169
 30
0.0
 10
41.3585115786
 20
-43.8908235339
 30
0.0
 10
41.4234630742
 20
-43.9165559795
 30
0.0
 10
41.5274794141
 20
-43.9305572385
 30
0.0
 10
41.6311854374
 20
-43.9207323606
 30
0.0
 10
41.6959746651
 20
-43.8973885175
 30
0.0
 10
41.7243383815
 20
-43.8814315067
 30
0.0
  0
SPLINE
  5
57A
100
AcDbEntity
  8
ASSI
100
AcDbSpline
 62
250
  6
CONTINUOUS
 70
0
 71
3
 72
9
 73
5
 74
0
 42
0.0000001
 43
0.0000001
 44
0.0000000001
 40
0.0
 40
0.0
 40
0.0
 40
0.0
 40
0.5219236714
 40
1.0
 40
1.0
 40
1.0
 40
1.0
 10
21.801160375
 20
-31.8462526405
 30
0.0
 10
21.8322690905
 20
-31.7796247475
 30
0.0
 10
21.9082268903
 20
-31.6591849802
 30
0.0
 10
22.0131538949
 20
-31.5613102987
 30
0.0
 10
22.0701988526
 20
-31.5254974082
 30
0.0
  0
SPLINE
  5
57B
100
AcDbEntity
  8
ASSI
100
AcDbSpline
 62
250
  6
CONTINUOUS
 70
0
 71
3
 72
9
 73
5
 74
0
 42
0.0000001
 43
0.0000001
 44
0.0000000001
 40
0.0
 40
0.0
 40
0.0
 40
0.0
 40
0.5219237477
 40
1.0
 40
1.0
 40
1.0
 40
1.0
 10
-24.9385978412
 20
-4.8593020339
 30
0.0
 10
-24.9074890188
 20
-4.7926741894
 30
0.0
 10
-24.831531138
 20
-4.6722345203
 30
0.0
 10
-24.7266042599
 20
-4.5743597734
 30
0.0
 10
-24.6695593838
 20
-4.5385467892
 30
0.0
  0
SPLINE
  5
57C
100
AcDbEntity
  8
ASSI
100
AcDbSpline
 62
250
  6
CONTINUOUS
 70
0
 71
3
 72
9
 73
5
 74
0
 42
0.0000001
 43
0.0000001
 44
0.0000000001
 40
0.0
 40
0.0
 40
0.0
 40
0.0
 40
0.5205749195
 40
1.0
 40
1.0
 40
1.0
 40
1.0
 10
-25.7449579618
 20
-3.512673089
 30
0.0
 10
-25.6742339956
 20
-3.5163784768
 30
0.0
 10
-25.5370941485
 20
-3.5065176546
 30
0.0
 10
-25.40602565
 20
-3.4619340353
 30
0.0
 10
-25.3491345123
 20
-3.4300371621
 30
0.0
  0
SPLINE
  5
57D
100
AcDbEntity
  8
ASSI
100
AcDbSpline
 62
250
  6
CONTINUOUS
 70
0
 71
3
 72
9
 73
5
 74
0
 42
0.0000001
 43
0.0000001
 44
0.0000000001
 40
0.0
 40
0.0
 40
0.0
 40
0.0
 40
0.5196845976
 40
1.0
 40
1.0
 40
1.0
 40
1.0
 10
-25.7452160674
 20
-3.5085893851
 30
0.0
 10
-25.6744095986
 20
-3.5117567631
 30
0.0
 10
-25.5369781888
 20
-3.5005324044
 30
0.0
 10
-25.4061325069
 20
-3.4541822571
 30
0.0
 10
-25.3493976137
 20
-3.4214341721
 30
0.0
  0
LINE
  5
57E
100
AcDbEntity
  8
ASSI
100
AcDbLine
 62
250
  6
CONTINUOUS
 10
22.8125991562
 20
-38.7817448016
 11
22.8184703614
 21
-38.8513421583
  0
SPLINE
  5
57F
100
AcDbEntity
  8
ASSI
100
AcDbSpline
 62
250
  6
CONTINUOUS
 70
0
 71
3
 72
9
 73
5
 74
0
 42
0.0000001
 43
0.0000001
 44
0.0000000001
 40
0.0
 40
0.0
 40
0.0
 40
0.0
 40
0.25449547
 40
1.0
 40
1.0
 40
1.0
 40
1.0
 10
22.8184703614
 20
-38.8513421583
 30
0.0
 10
22.8868000032
 20
-39.6587031333
 30
0.0
 10
23.1852978056
 20
-42.8284552423
 30
0.0
 10
23.6058092361
 20
-45.9869921918
 30
0.0
 10
23.9939898329
 20
-48.3285261727
 30
0.0
  0
SPLINE
  5
580
100
AcDbEntity
  8
ASSI
100
AcDbSpline
 62
250
  6
CONTINUOUS
 70
0
 71
3
 72
20
 73
16
 74
0
 42
0.0000001
 43
0.0000001
 44
0.0000000001
 40
0.0
 40
0.0
 40
0.0
 40
0.0
 40
0.1506473285
 40
0.22005213
 40
0.2856342363
 40
0.4064715914
 40
0.4630444211
 40
0.5179718144
 40
0.572148784
 40
0.6265209677
 40
0.6820108709
 40
0.7394500353
 40
0.8625906938
 40
0.9294069528
 40
1.0
 40
1.0
 40
1.0
 40
1.0
 10
31.6454937926
 20
-51.8584863621
 30
0.0
 10
32.2531094581
 20
-52.1054024332
 30
0.0
 10
33.1668996377
 20
-52.4096592546
 30
0.0
 10
34.3898513416
 20
-52.6444090923
 30
0.0
 10
35.4997642467
 20
-52.7482136854
 30
0.0
 10
36.5678472193
 20
-52.6780032542
 30
0.0
 10
37.5453642657
 20
-52.4066166002
 30
0.0
 10
38.2079460995
 20
-52.114810664
 30
0.0
 10
38.8111087448
 20
-51.7318641744
 30
0.0
 10
39.3511284603
 20
-51.2604092562
 30
0.0
 10
39.8249583124
 20
-50.7038578804
 30
0.0
 10
40.3780089475
 20
-49.8343063732
 30
0.0
 10
40.7731078139
 20
-48.8200263048
 30
0.0
 10
41.023109145
 20
-47.7128243645
 30
0.0
 10
41.1014273369
 20
-47.1186911331
 30
0.0
 10
41.1294667445
 20
-46.8126338455
 30
0.0
  0
LINE
  5
581
100
AcDbEntity
  8
ASSI
100
AcDbLine
 62
250
  6
CONTINUOUS
 10
27.9047677269
 20
-50.2043412796
 11
28.0035582095
 21
-50.250756763
  0
LINE
  5
582
100
AcDbEntity
  8
ASSI
100
AcDbLine
 62
250
  6
CONTINUOUS
 10
23.9939898329
 20
-48.3285261727
 11
24.0906917642
 21
-48.3757705907
  0
SPLINE
  5
583
100
AcDbEntity
  8
ASSI
100
AcDbSpline
 62
250
  6
CONTINUOUS
 70
0
 71
3
 72
9
 73
5
 74
0
 42
0.0000001
 43
0.0000001
 44
0.0000000001
 40
0.0
 40
0.0
 40
0.0
 40
0.0
 40
0.4927134126
 40
1.0
 40
1.0
 40
1.0
 40
1.0
 10
22.4550935415
 20
5.7433079454
 30
0.0
 10
22.5652539966
 20
8.5774928574
 30
0.0
 10
22.9404944749
 20
14.3245835594
 30
0.0
 10
23.5957315332
 20
20.0461110664
 30
0.0
 10
23.9939898329
 20
22.9390424877
 30
0.0
  0
SPLINE
  5
584
100
AcDbEntity
  8
ASSI
100
AcDbSpline
 62
250
  6
CONTINUOUS
 70
0
 71
3
 72
9
 73
5
 74
0
 42
0.0000001
 43
0.0000001
 44
0.0000000001
 40
0.0
 40
0.0
 40
0.0
 40
0.0
 40
0.2506881194
 40
1.0
 40
1.0
 40
1.0
 40
1.0
 10
27.9047677269
 20
20.5300642015
 30
0.0
 10
27.5779948005
 20
20.7314010788
 30
0.0
 10
26.2744703733
 20
21.5345045577
 30
0.0
 10
24.9708586668
 20
22.3374663761
 30
0.0
 10
23.9939898329
 20
22.9390424877
 30
0.0
  0
SPLINE
  5
585
100
AcDbEntity
  8
ASSI
100
AcDbSpline
 62
250
  6
CONTINUOUS
 70
0
 71
3
 72
15
 73
11
 74
0
 42
0.0000001
 43
0.0000001
 44
0.0000000001
 40
0.0
 40
0.0
 40
0.0
 40
0.0
 40
0.1203949146
 40
0.2459731754
 40
0.3748455043
 40
0.504986808
 40
0.6343644973
 40
0.7610577097
 40
0.8833784976
 40
1.0
 40
1.0
 40
1.0
 40
1.0
 10
41.1294667445
 20
0.7241818618
 30
0.0
 10
41.0698971701
 20
1.5468767067
 30
0.0
 10
40.8467009999
 20
3.2215050499
 30
0.0
 10
40.236096115
 20
5.7204556695
 30
0.0
 10
39.3516888907
 20
8.2073680143
 30
0.0
 10
38.2097017923
 20
10.6158929719
 30
0.0
 10
36.8323631984
 20
12.8809604479
 30
0.0
 10
35.248058345
 20
14.9401539002
 30
0.0
 10
33.4924621444
 20
16.7354724153
 30
0.0
 10
32.1999153874
 20
17.7503401389
 30
0.0
 10
31.5361161011
 20
18.1950485892
 30
0.0
  0
SPLINE
  5
586
100
AcDbEntity
  8
ASSI
100
AcDbSpline
 62
250
  6
CONTINUOUS
 70
0
 71
3
 72
10
 73
6
 74
0
 42
0.0000001
 43
0.0000001
 44
0.0000000001
 40
0.0
 40
0.0
 40
0.0
 40
0.0
 40
0.5214045339
 40
0.7689729423
 40
1.0
 40
1.0
 40
1.0
 40
1.0
 10
22.4265972202
 20
4.9964109044
 30
0.0
 10
22.5371263154
 20
4.8165966208
 30
0.0
 10
22.6681497867
 20
4.5288965612
 30
0.0
 10
22.7570486598
 20
4.1330756588
 30
0.0
 10
22.770839366
 20
3.9386646541
 30
0.0
 10
22.7682962353
 20
3.8451777943
 30
0.0
  0
SPLINE
  5
587
100
AcDbEntity
  8
ASSI
100
AcDbSpline
 62
250
  6
CONTINUOUS
 70
0
 71
3
 72
8
 73
4
 74
0
 42
0.0000001
 43
0.0000001
 44
0.0000000001
 40
0.0
 40
0.0
 40
0.0
 40
0.0
 40
1.0
 40
1.0
 40
1.0
 40
1.0
 10
22.4265972202
 20
4.9964109044
 30
0.0
 10
22.4359179564
 20
5.2453833136
 30
0.0
 10
22.4454168906
 20
5.4943491152
 30
0.0
 10
22.4550935415
 20
5.7433079454
 30
0.0
  0
SPLINE
  5
588
100
AcDbEntity
  8
ASSI
100
AcDbSpline
 62
250
  6
CONTINUOUS
 70
0
 71
3
 72
8
 73
4
 74
0
 42
0.0000001
 43
0.0000001
 44
0.0000000001
 40
0.0
 40
0.0
 40
0.0
 40
0.0
 40
1.0
 40
1.0
 40
1.0
 40
1.0
 10
22.4265972202
 20
-32.3167403377
 30
0.0
 10
22.435909375
 20
-32.554012029
 30
0.0
 10
22.4454079739
 20
-32.7912764769
 30
0.0
 10
22.4550935415
 20
-33.0285332187
 30
0.0
  0
SPLINE
  5
589
100
AcDbEntity
  8
ASSI
100
AcDbSpline
 62
250
  6
CONTINUOUS
 70
0
 71
3
 72
11
 73
7
 74
0
 42
0.0000001
 43
0.0000001
 44
0.0000000001
 40
0.0
 40
0.0
 40
0.0
 40
0.0
 40
0.290494636
 40
0.5477482774
 40
0.7791583624
 40
1.0
 40
1.0
 40
1.0
 40
1.0
 10
22.768296106
 20
-31.615136431
 30
0.0
 10
22.7703515615
 20
-31.6950299063
 30
0.0
 10
22.7612071284
 20
-31.8466570456
 30
0.0
 10
22.6984926907
 20
-32.0542504369
 30
0.0
 10
22.5868337629
 20
-32.2187122515
 30
0.0
 10
22.4819564532
 20
-32.2917044808
 30
0.0
 10
22.4265972202
 20
-32.3167403377
 30
0.0
  0
SPLINE
  5
58A
100
AcDbEntity
  8
ASSI
100
AcDbSpline
 62
250
  6
CONTINUOUS
 70
0
 71
3
 72
9
 73
5
 74
0
 42
0.0000001
 43
0.0000001
 44
0.0000000001
 40
0.0
 40
0.0
 40
0.0
 40
0.0
 40
0.2564577395
 40
1.0
 40
1.0
 40
1.0
 40
1.0
 10
-25.6813506953
 20
-5.2351536077
 30
0.0
 10
-25.6239669068
 20
-6.5549084726
 30
0.0
 10
-25.3224897778
 20
-11.6971097726
 30
0.0
 10
-24.7025655354
 20
-16.8223257795
 30
0.0
 10
-24.0396960902
 20
-20.5944779242
 30
0.0
  0
LINE
  5
58B
100
AcDbEntity
  8
ASSI
100
AcDbLine
 62
250
  6
CONTINUOUS
 10
-27.7501969563
 20
-18.0698621921
 11
-27.6770726989
 21
-18.1203672563
  0
LINE
  5
58C
100
AcDbEntity
  8
ASSI
100
AcDbLine
 62
250
  6
CONTINUOUS
 10
-31.165763859
 20
-15.6102570625
 11
-31.1003892322
 21
-15.6592221973
  0
SPLINE
  5
58D
100
AcDbEntity
  8
ASSI
100
AcDbSpline
 62
250
  6
CONTINUOUS
 70
0
 71
3
 72
15
 73
11
 74
0
 42
0.0000001
 43
0.0000001
 44
0.0000000001
 40
0.0
 40
0.0
 40
0.0
 40
0.0
 40
0.1166815815
 40
0.2401696973
 40
0.3685666097
 40
0.4996385222
 40
0.6309115397
 40
0.7597765268
 40
0.8836209289
 40
1.0
 40
1.0
 40
1.0
 40
1.0
 10
-41.9643736072
 20
1.1647081632
 30
0.0
 10
-41.8138727059
 20
0.3879277824
 30
0.0
 10
-41.4042307563
 20
-1.192588599
 30
0.0
 10
-40.527209614
 20
-3.5368863963
 30
0.0
 10
-39.393261236
 20
-5.8770105314
 30
0.0
 10
-38.0359400135
 20
-8.1561635869
 30
0.0
 10
-36.4952582896
 20
-10.319283299
 30
0.0
 10
-34.8164072219
 20
-12.3134639252
 30
0.0
 10
-33.0485047629
 20
-14.0891139573
 30
0.0
 10
-31.7972332863
 20
-15.1369255721
 30
0.0
 10
-31.165763859
 20
-15.6102570625
 30
0.0
  0
LINE
  5
58E
100
AcDbEntity
  8
ASSI
100
AcDbLine
 62
250
  6
CONTINUOUS
 10
-41.9807944314
 20
1.2498397761
 11
-41.9643736072
 21
1.1647081632
  0
LINE
  5
58F
100
AcDbEntity
  8
ASSI
100
AcDbLine
 62
250
  6
CONTINUOUS
 10
-42.5129551097
 20
4.625291162
 11
-42.5009843942
 21
4.5289655944
  0
LINE
  5
590
100
AcDbEntity
  8
ASSI
100
AcDbLine
 62
250
  6
CONTINUOUS
 10
-24.0396960902
 20
-20.5944779242
 11
-23.9652115048
 21
-20.6443733462
  0
LINE
  5
591
100
AcDbEntity
  8
ASSI
100
AcDbLine
 62
7
  6
CONTINUOUS
 10
-4.1709068309
 20
-19.9008392365
 11
-4.5824948556
 21
-19.6616129296
  0
LINE
  5
592
100
AcDbEntity
  8
ASSI
100
AcDbLine
 62
7
  6
CONTINUOUS
 10
-5.3456059138
 20
-19.2173693479
 11
-5.7923022428
 21
-18.9569015918
  0
SPLINE
  5
593
100
AcDbEntity
  8
ASSI
100
AcDbSpline
 62
250
  6
CONTINUOUS
 70
0
 71
3
 72
9
 73
5
 74
0
 42
0.0000001
 43
0.0000001
 44
0.0000000001
 40
0.0
 40
0.0
 40
0.0
 40
0.0
 40
0.5222819755
 40
1.0
 40
1.0
 40
1.0
 40
1.0
 10
-26.0928451837
 20
14.0295674029
 30
0.0
 10
-26.0222309263
 20
14.0247818017
 30
0.0
 10
-25.8855542436
 20
14.0319891131
 30
0.0
 10
-25.753984427
 20
14.0731706058
 30
0.0
 10
-25.6967625625
 20
14.1034454433
 30
0.0
  0
SPLINE
  5
594
100
AcDbEntity
  8
ASSI
100
AcDbSpline
 62
250
  6
CONTINUOUS
 70
0
 71
3
 72
9
 73
5
 74
0
 42
0.0000001
 43
0.0000001
 44
0.0000000001
 40
0.0
 40
0.0
 40
0.0
 40
0.0
 40
0.5241801353
 40
1.0
 40
1.0
 40
1.0
 40
1.0
 10
-25.7451966459
 20
31.9359376078
 30
0.0
 10
-25.6747833577
 20
31.9297822395
 30
0.0
 10
-25.5387304874
 20
31.934049894
 30
0.0
 10
-25.4067887159
 20
31.9713866568
 30
0.0
 10
-25.3492672279
 20
31.9998099925
 30
0.0
  0
LINE
  5
595
100
AcDbEntity
  8
ASSI
100
AcDbLine
 62
7
  6
CONTINUOUS
 10
-3.6058271878
 20
-20.2287191476
 11
-4.0180105121
 21
-19.9895107561
  0
SPLINE
  5
596
100
AcDbEntity
  8
ASSI
100
AcDbSpline
 62
250
  6
CONTINUOUS
 70
0
 71
3
 72
9
 73
5
 74
0
 42
0.0000001
 43
0.0000001
 44
0.0000000001
 40
0.0
 40
0.0
 40
0.0
 40
0.0
 40
0.5234987642
 40
1.0
 40
1.0
 40
1.0
 40
1.0
 10
-25.7451677595
 20
31.9361198323
 30
0.0
 10
-25.6746132651
 20
31.9310394812
 30
0.0
 10
-25.5383944317
 20
31.9368890663
 30
0.0
 10
-25.4065641442
 20
31.9756619016
 30
0.0
 10
-25.3491340713
 20
32.0047725728
 30
0.0
  0
SPLINE
  5
597
100
AcDbEntity
  8
ASSI
100
AcDbSpline
 62
250
  6
CONTINUOUS
 70
0
 71
3
 72
11
 73
7
 74
0
 42
0.0000001
 43
0.0000001
 44
0.0000000001
 40
0.0
 40
0.0
 40
0.0
 40
0.0
 40
0.2440056649
 40
0.5042220108
 40
0.7621544011
 40
1.0
 40
1.0
 40
1.0
 40
1.0
 10
41.3799282354
 20
-42.8197432523
 30
0.0
 10
41.4086767414
 20
-42.8366003575
 30
0.0
 10
41.4736702259
 20
-42.862212803
 30
0.0
 10
41.5776707549
 20
-42.8763036576
 30
0.0
 10
41.6813557697
 20
-42.8668341518
 30
0.0
 10
41.7462119935
 20
-42.8438816701
 30
0.0
 10
41.774619808
 20
-42.8281252404
 30
0.0
  0
LINE
  5
598
100
AcDbEntity
  8
ASSI
100
AcDbLine
 62
7
  6
CONTINUOUS
 10
-1.5625868388
 20
-21.4107262543
 11
-1.9715247074
 21
-21.174701683
  0
LINE
  5
599
100
AcDbEntity
  8
ASSI
100
AcDbLine
 62
7
  6
CONTINUOUS
 10
-2.7931177027
 20
-20.699723169
 11
-3.2054115124
 21
-20.4609729636
  0
SPLINE
  5
59A
100
AcDbEntity
  8
ASSI
100
AcDbSpline
 62
250
  6
CONTINUOUS
 70
0
 71
3
 72
11
 73
7
 74
0
 42
0.0000001
 43
0.0000001
 44
0.0000000001
 40
0.0
 40
0.0
 40
0.0
 40
0.0
 40
0.2367077979
 40
0.4985820107
 40
0.7612091424
 40
1.0
 40
1.0
 40
1.0
 40
1.0
 10
41.3799282259
 20
-4.0479020951
 30
0.0
 10
41.4095714394
 20
-4.0595817546
 30
0.0
 10
41.4754757241
 20
-4.0754676393
 30
0.0
 10
41.5782891319
 20
-4.0803881605
 30
0.0
 10
41.6807168706
 20
-4.0676787461
 30
0.0
 10
41.7456166412
 20
-4.0468755859
 30
0.0
 10
41.7746198276
 20
-4.0330229697
 30
0.0
  0
LINE
  5
59B
100
AcDbEntity
  8
ASSI
100
AcDbLine
 62
7
  6
CONTINUOUS
 10
-0.7057396521
 20
-23.7461641191
 11
-0.7022575202
 21
-23.7305552465
  0
SPLINE
  5
59C
100
AcDbEntity
  8
ASSI
100
AcDbSpline
 62
250
  6
CONTINUOUS
 70
0
 71
3
 72
11
 73
7
 74
0
 42
0.0000001
 43
0.0000001
 44
0.0000000001
 40
0.0
 40
0.0
 40
0.0
 40
0.0
 40
0.2367270069
 40
0.4987972166
 40
0.7615054504
 40
1.0
 40
1.0
 40
1.0
 40
1.0
 10
41.3298026845
 20
-2.8342364515
 30
0.0
 10
41.3594670798
 20
-2.84576212
 30
0.0
 10
41.4253411172
 20
-2.8614495955
 30
0.0
 10
41.5280477693
 20
-2.866437563
 30
0.0
 10
41.6303768458
 20
-2.8541271083
 30
0.0
 10
41.6952930167
 20
-2.8338070369
 30
0.0
 10
41.7243383776
 20
-2.8202289133
 30
0.0
  0
LINE
  5
59D
100
AcDbEntity
  8
ASSI
100
AcDbLine
 62
7
  6
CONTINUOUS
 10
-0.2901810379
 20
-22.1434609373
 11
-0.6907014667
 21
-21.9130844133
  0
SPLINE
  5
59E
100
AcDbEntity
  8
ASSI
100
AcDbSpline
 62
7
  6
CONTINUOUS
 70
0
 71
3
 72
9
 73
5
 74
0
 42
0.0000001
 43
0.0000001
 44
0.0000000001
 40
0.0
 40
0.0
 40
0.0
 40
0.0
 40
0.2538009303
 40
1.0
 40
1.0
 40
1.0
 40
1.0
 10
22.5292999674
 20
4.3651832485
 30
0.0
 10
22.5318941604
 20
4.3536605483
 30
0.0
 10
22.5415987196
 20
4.3081458426
 30
0.0
 10
22.5492100853
 20
4.2621797319
 30
0.0
 10
22.5535866461
 20
4.2277308159
 30
0.0
  0
SPLINE
  5
59F
100
AcDbEntity
  8
ASSI
100
AcDbSpline
 62
250
  6
CONTINUOUS
 70
0
 71
3
 72
11
 73
7
 74
0
 42
0.0000001
 43
0.0000001
 44
0.0000000001
 40
0.0
 40
0.0
 40
0.0
 40
0.0
 40
0.234158542
 40
0.4964094645
 40
0.7605536882
 40
1.0
 40
1.0
 40
1.0
 40
1.0
 10
41.1294667973
 20
0.7241818919
 30
0.0
 10
41.1592396982
 20
0.7147880259
 30
0.0
 10
41.2249143239
 20
0.7029680438
 30
0.0
 10
41.3266545181
 20
0.7016923647
 30
0.0
 10
41.4281605293
 20
0.7156338875
 30
0.0
 10
41.4928269246
 20
0.735484914
 30
0.0
 10
41.522009485
 20
0.7484296259
 30
0.0
  0
LINE
  5
5A0
100
AcDbEntity
  8
ASSI
100
AcDbLine
 62
7
  6
CONTINUOUS
 10
-0.3645909628
 20
-23.4758802904
 11
-0.6165394836
 21
-23.3309271999
  0
SPLINE
  5
5A1
100
AcDbEntity
  8
ASSI
100
AcDbSpline
 62
250
  6
CONTINUOUS
 70
0
 71
3
 72
11
 73
7
 74
0
 42
0.0000001
 43
0.0000001
 44
0.0000000001
 40
0.0
 40
0.0
 40
0.0
 40
0.0
 40
0.2415676413
 40
0.5031627073
 40
0.7630934037
 40
1.0
 40
1.0
 40
1.0
 40
1.0
 10
31.5361161007
 20
18.195048589
 30
0.0
 10
31.5432694663
 20
18.2247785305
 30
0.0
 10
31.5654530604
 20
18.2850026635
 30
0.0
 10
31.6138799634
 20
18.3690249361
 30
0.0
 10
31.6745903281
 20
18.4438895994
 30
0.0
 10
31.7224551799
 20
18.4854872321
 30
0.0
 10
31.747341087
 20
18.5022203316
 30
0.0
  0
LINE
  5
5A2
100
AcDbEntity
  8
ASSI
100
AcDbLine
 62
7
  6
CONTINUOUS
 10
0.792296504
 20
-23.8364040082
 11
1.0293658033
 21
-23.9722370307
  0
SPLINE
  5
5A3
100
AcDbEntity
  8
ASSI
100
AcDbSpline
 62
250
  6
CONTINUOUS
 70
0
 71
3
 72
11
 73
7
 74
0
 42
0.0000001
 43
0.0000001
 44
0.0000000001
 40
0.0
 40
0.0
 40
0.0
 40
0.0
 40
0.2438289497
 40
0.5055512417
 40
0.7643438186
 40
1.0
 40
1.0
 40
1.0
 40
1.0
 10
27.9047677269
 20
20.5300642015
 30
0.0
 10
27.9106984802
 20
20.560396826
 30
0.0
 10
27.9305630901
 20
20.6218767748
 30
0.0
 10
27.9764791041
 20
20.7076871928
 30
0.0
 10
28.0355041652
 20
20.78375839
 30
0.0
 10
28.0828844977
 20
20.8256901113
 30
0.0
 10
28.107658045
 20
20.8423799298
 30
0.0
  0
SPLINE
  5
5A4
100
AcDbEntity
  8
ASSI
100
AcDbSpline
 62
250
  6
CONTINUOUS
 70
0
 71
3
 72
11
 73
7
 74
0
 42
0.0000001
 43
0.0000001
 44
0.0000000001
 40
0.0
 40
0.0
 40
0.0
 40
0.0
 40
0.2440325806
 40
0.5055752572
 40
0.7641729889
 40
1.0
 40
1.0
 40
1.0
 40
1.0
 10
23.9939898335
 20
22.939042488
 30
0.0
 10
23.9997610393
 20
22.9694284374
 30
0.0
 10
24.0193822587
 20
23.030998152
 30
0.0
 10
24.065221413
 20
23.1168314271
 30
0.0
 10
24.1244137639
 20
23.1927477521
 30
0.0
 10
24.172040963
 20
23.234410014
 30
0.0
 10
24.1969511674
 20
23.250928005
 30
0.0
  0
SPLINE
  5
5A5
100
AcDbEntity
  8
ASSI
100
AcDbSpline
 62
250
  6
CONTINUOUS
 70
0
 71
3
 72
11
 73
7
 74
0
 42
0.0000001
 43
0.0000001
 44
0.0000000001
 40
0.0
 40
0.0
 40
0.0
 40
0.0
 40
0.2474690542
 40
0.5080540216
 40
0.7643436395
 40
1.0
 40
1.0
 40
1.0
 40
1.0
 10
-24.0396960903
 20
50.6730907363
 30
0.0
 10
-24.0365476725
 20
50.70450508
 30
0.0
 10
-24.0215501872
 20
50.768271771
 30
0.0
 10
-23.9796059637
 20
50.857007353
 30
0.0
 10
-23.9216065039
 20
50.9343211611
 30
0.0
 10
-23.8730890565
 20
50.9754146233
 30
0.0
 10
-23.8474951453
 20
50.9911891725
 30
0.0
  0
SPLINE
  5
5A6
100
AcDbEntity
  8
ASSI
100
AcDbSpline
 62
7
  6
CONTINUOUS
 70
0
 71
3
 72
9
 73
5
 74
0
 42
0.0000001
 43
0.0000001
 44
0.0000000001
 40
0.0
 40
0.0
 40
0.0
 40
0.0
 40
0.4995387861
 40
1.0
 40
1.0
 40
1.0
 40
1.0
 10
2.0307480781
 20
-25.5958686977
 30
0.0
 10
1.9992987099
 20
-25.4836138558
 30
0.0
 10
1.9388298953
 20
-25.2582085407
 30
0.0
 10
1.8777482856
 20
-25.0329749598
 30
0.0
 10
1.8466626945
 20
-24.9203954994
 30
0.0
  0
SPLINE
  5
5A7
100
AcDbEntity
  8
ASSI
100
AcDbSpline
 62
7
  6
CONTINUOUS
 70
0
 71
3
 72
11
 73
7
 74
0
 42
0.0000001
 43
0.0000001
 44
0.0000000001
 40
0.0
 40
0.0
 40
0.0
 40
0.0
 40
0.2372154473
 40
0.4818448204
 40
0.7368526458
 40
1.0
 40
1.0
 40
1.0
 40
1.0
 10
1.8466626945
 20
-24.9203954994
 30
0.0
 10
1.8351092766
 20
-24.8785536842
 30
0.0
 10
1.8122864377
 20
-24.7933720878
 30
0.0
 10
1.7691300438
 20
-24.6654765913
 30
0.0
 10
1.7131549212
 20
-24.5374213648
 30
0.0
 10
1.6640989841
 20
-24.4556350909
 30
0.0
 10
1.6351654446
 20
-24.417144256
 30
0.0
  0
SPLINE
  5
5A8
100
AcDbEntity
  8
ASSI
100
AcDbSpline
 62
7
  6
CONTINUOUS
 70
0
 71
3
 72
11
 73
7
 74
0
 42
0.0000001
 43
0.0000001
 44
0.0000000001
 40
0.0
 40
0.0
 40
0.0
 40
0.0
 40
0.2735608484
 40
0.527797538
 40
0.7685375989
 40
1.0
 40
1.0
 40
1.0
 40
1.0
 10
1.3607344744
 20
-23.2602264682
 30
0.0
 10
1.2815906442
 20
-23.18482334
 30
0.0
 10
1.1149288156
 20
-23.0539384032
 30
0.0
 10
0.8534025949
 20
-22.8923760621
 30
0.0
 10
0.5944251912
 20
-22.7606187961
 30
0.0
 10
0.4211707132
 20
-22.6856976921
 30
0.0
 10
0.3357007875
 20
-22.6503499305
 30
0.0
  0
SPLINE
  5
5A9
100
AcDbEntity
  8
ASSI
100
AcDbSpline
 62
250
  6
CONTINUOUS
 70
0
 71
3
 72
11
 73
7
 74
0
 42
0.0000001
 43
0.0000001
 44
0.0000000001
 40
0.0
 40
0.0
 40
0.0
 40
0.0
 40
0.2474757789
 40
0.5078508649
 40
0.7640340723
 40
1.0
 40
1.0
 40
1.0
 40
1.0
 10
-27.7501969568
 20
52.6645432889
 30
0.0
 10
-27.7472589283
 20
52.6960361236
 30
0.0
 10
-27.7325747015
 20
52.7599903328
 30
0.0
 10
-27.6907322332
 20
52.8489493906
 30
0.0
 10
-27.6325103923
 20
52.9263410656
 30
0.0
 10
-27.5836791346
 20
52.9673103257
 30
0.0
 10
-27.5579126916
 20
52.9829828183
 30
0.0
  0
LINE
  5
5AA
100
AcDbEntity
  8
ASSI
100
AcDbLine
 62
7
  6
CONTINUOUS
 10
1.4721146366
 20
-24.4131934102
 11
1.4712675216
 21
-24.4001749956
  0
SPLINE
  5
5AB
100
AcDbEntity
  8
ASSI
100
AcDbSpline
 62
7
  6
CONTINUOUS
 70
0
 71
3
 72
11
 73
7
 74
0
 42
0.0000001
 43
0.0000001
 44
0.0000000001
 40
0.0
 40
0.0
 40
0.0
 40
0.0
 40
0.2367092765
 40
0.4816505069
 40
0.737669181
 40
1.0
 40
1.0
 40
1.0
 40
1.0
 10
1.7402887563
 20
-24.9818145526
 30
0.0
 10
1.7279110534
 20
-24.9369764078
 30
0.0
 10
1.7033980996
 20
-24.8455370975
 30
0.0
 10
1.6558999264
 20
-24.70837478
 30
0.0
 10
1.5932797934
 20
-24.5718263805
 30
0.0
 10
1.5369120696
 20
-24.485949283
 30
0.0
 10
1.5033721556
 20
-24.4468023361
 30
0.0
  0
SPLINE
  5
5AC
100
AcDbEntity
  8
ASSI
100
AcDbSpline
 62
7
  6
CONTINUOUS
 70
0
 71
3
 72
9
 73
5
 74
0
 42
0.0000001
 43
0.0000001
 44
0.0000000001
 40
0.0
 40
0.0
 40
0.0
 40
0.0
 40
0.7533493198
 40
1.0
 40
1.0
 40
1.0
 40
1.0
 10
1.5033721556
 20
-24.4468023361
 30
0.0
 10
1.4958719715
 20
-24.4380483093
 30
0.0
 10
1.4855773725
 20
-24.4267089746
 30
0.0
 10
1.4748028233
 20
-24.4158426086
 30
0.0
 10
1.4721146366
 20
-24.4131934102
 30
0.0
  0
SPLINE
  5
5AD
100
AcDbEntity
  8
ASSI
100
AcDbSpline
 62
7
  6
CONTINUOUS
 70
0
 71
3
 72
11
 73
7
 74
0
 42
0.0000001
 43
0.0000001
 44
0.0000000001
 40
0.0
 40
0.0
 40
0.0
 40
0.0
 40
0.2735582666
 40
0.5278003327
 40
0.7685460658
 40
1.0
 40
1.0
 40
1.0
 40
1.0
 10
1.4670128622
 20
-23.1988626652
 30
0.0
 10
1.3878684865
 20
-23.1234617227
 30
0.0
 10
1.2212002423
 20
-22.9925831834
 30
0.0
 10
0.9596707028
 20
-22.8310215739
 30
0.0
 10
0.700698514
 20
-22.6992519908
 30
0.0
 10
0.5274438055
 20
-22.6243342563
 30
0.0
 10
0.4419773286
 20
-22.5889871876
 30
0.0
  0
SPLINE
  5
5AE
100
AcDbEntity
  8
ASSI
100
AcDbSpline
 62
7
  6
CONTINUOUS
 70
0
 71
3
 72
9
 73
5
 74
0
 42
0.0000001
 43
0.0000001
 44
0.0000000001
 40
0.0
 40
0.0
 40
0.0
 40
0.0
 40
0.4995391229
 40
1.0
 40
1.0
 40
1.0
 40
1.0
 10
1.9243327665
 20
-25.6573115649
 30
0.0
 10
1.8928904555
 20
-25.5450525723
 30
0.0
 10
1.8324355128
 20
-25.3196393635
 30
0.0
 10
1.7713677116
 20
-25.0943978574
 30
0.0
 10
1.7402887563
 20
-24.9818145526
 30
0.0
  0
SPLINE
  5
5AF
100
AcDbEntity
  8
ASSI
100
AcDbSpline
 62
250
  6
CONTINUOUS
 70
0
 71
3
 72
14
 73
10
 74
0
 42
0.0000001
 43
0.0000001
 44
0.0000000001
 40
0.0
 40
0.0
 40
0.0
 40
0.0
 40
0.1128578434
 40
0.2257750265
 40
0.3407754828
 40
0.4597039923
 40
0.7147495233
 40
0.8533618937
 40
1.0
 40
1.0
 40
1.0
 40
1.0
 10
38.4039303128
 20
-52.2673991784
 30
0.0
 10
38.6248149503
 20
-52.1580792091
 30
0.0
 10
39.0508234065
 20
-51.9052854793
 30
0.0
 10
39.6262697351
 20
-51.4289701576
 30
0.0
 10
40.1316416324
 20
-50.8609306057
 30
0.0
 10
40.7216481719
 20
-49.9672482934
 30
0.0
 10
41.1431623385
 20
-48.9165549322
 30
0.0
 10
41.4092160846
 20
-47.7662401539
 30
0.0
 10
41.4923384823
 20
-47.1477308866
 30
0.0
 10
41.5220177798
 20
-46.8288839363
 30
0.0
  0
SPLINE
  5
5B0
100
AcDbEntity
  8
ASSI
100
AcDbSpline
 62
250
  6
CONTINUOUS
 70
0
 71
3
 72
10
 73
6
 74
0
 42
0.0000001
 43
0.0000001
 44
0.0000000001
 40
0.0
 40
0.0
 40
0.0
 40
0.0
 40
0.5082613681
 40
0.7642121804
 40
1.0
 40
1.0
 40
1.0
 40
1.0
 10
-31.1657638646
 20
54.3983282372
 30
0.0
 10
-31.162223934
 20
54.4630843656
 30
0.0
 10
-31.130728333
 20
54.5601788053
 30
0.0
 10
-31.0558574948
 20
54.664073272
 30
0.0
 10
-31.0074289536
 20
54.7055131284
 30
0.0
 10
-30.9817700977
 20
54.7212225137
 30
0.0
  0
SPLINE
  5
5B1
100
AcDbEntity
  8
ASSI
100
AcDbSpline
 62
250
  6
CONTINUOUS
 70
0
 71
3
 72
11
 73
7
 74
0
 42
0.0000001
 43
0.0000001
 44
0.0000000001
 40
0.0
 40
0.0
 40
0.0
 40
0.0
 40
0.2855538857
 40
0.5440973631
 40
0.7789473006
 40
1.0
 40
1.0
 40
1.0
 40
1.0
 10
-41.9643736045
 20
48.7015238716
 30
0.0
 10
-41.9768843719
 20
48.7126663946
 30
0.0
 10
-41.9990044912
 20
48.7359990982
 30
0.0
 10
-42.0229209239
 20
48.7754389988
 30
0.0
 10
-42.0346715973
 20
48.8162729334
 30
0.0
 10
-42.0336119067
 20
48.8435757487
 30
0.0
 10
-42.0309170903
 20
48.856261781
 30
0.0
  0
SPLINE
  5
5B2
100
AcDbEntity
  8
ASSI
100
AcDbSpline
 62
250
  6
CONTINUOUS
 70
0
 71
3
 72
11
 73
7
 74
0
 42
0.0000001
 43
0.0000001
 44
0.0000000001
 40
0.0
 40
0.0
 40
0.0
 40
0.0
 40
0.2858610886
 40
0.5442962428
 40
0.7789879569
 40
1.0
 40
1.0
 40
1.0
 40
1.0
 10
-42.5009843942
 20
45.5686093585
 30
0.0
 10
-42.5129671191
 20
45.5781980854
 30
0.0
 10
-42.5343589711
 20
45.598395021
 30
0.0
 10
-42.5583922416
 20
45.6330709136
 30
0.0
 10
-42.5716174818
 20
45.6695922425
 30
0.0
 10
-42.5725082111
 20
45.6945420256
 30
0.0
 10
-42.5709702227
 20
45.7063073557
 30
0.0
  0
LINE
  5
5B3
100
AcDbEntity
  8
ASSI
100
AcDbLine
 62
7
  6
CONTINUOUS
 10
1.1356988099
 20
-23.9108416854
 11
0.8986293812
 21
-23.7750087376
  0
SPLINE
  5
5B4
100
AcDbEntity
  8
ASSI
100
AcDbSpline
 62
250
  6
CONTINUOUS
 70
0
 71
3
 72
9
 73
5
 74
0
 42
0.0000001
 43
0.0000001
 44
0.0000000001
 40
0.0
 40
0.0
 40
0.0
 40
0.0
 40
0.2447693443
 40
1.0
 40
1.0
 40
1.0
 40
1.0
 10
-25.6813506953
 20
33.5366875564
 30
0.0
 10
-25.6230598798
 20
34.9404022718
 30
0.0
 10
-25.3045975401
 20
40.6717518548
 30
0.0
 10
-24.6728413402
 20
46.38471331
 30
0.0
 10
-24.0396960902
 20
50.6730907363
 30
0.0
  0
SPLINE
  5
5B5
100
AcDbEntity
  8
ASSI
100
AcDbSpline
 62
250
  6
CONTINUOUS
 70
0
 71
3
 72
20
 73
16
 74
0
 42
0.0000001
 43
0.0000001
 44
0.0000000001
 40
0.0
 40
0.0
 40
0.0
 40
0.0
 40
0.1345896489
 40
0.1981822587
 40
0.2596294935
 40
0.3193154466
 40
0.3776994726
 40
0.4352966066
 40
0.4926553162
 40
0.5503301797
 40
0.6088545357
 40
0.6687165331
 40
0.7303409911
 40
0.8600309172
 40
1.0
 40
1.0
 40
1.0
 40
1.0
 10
-31.165763859
 20
54.398328239
 30
0.0
 10
-31.7488490792
 20
54.6775818692
 30
0.0
 10
-32.6474518439
 20
55.015890866
 30
0.0
 10
-33.8719225572
 20
55.2628643346
 30
0.0
 10
-34.7580698018
 20
55.3393333667
 30
0.0
 10
-35.6220469119
 20
55.3098876243
 30
0.0
 10
-36.4573789602
 20
55.1750427112
 30
0.0
 10
-37.2575040697
 20
54.9360995453
 30
0.0
 10
-38.0161061365
 20
54.5952673026
 30
0.0
 10
-38.7272067423
 20
54.155580157
 30
0.0
 10
-39.3852954668
 20
53.620834041
 30
0.0
 10
-39.9854324589
 20
52.9953596804
 30
0.0
 10
-40.7145847605
 20
52.0310566106
 30
0.0
 10
-41.4541896124
 20
50.6082184848
 30
0.0
 10
-41.8244726132
 20
49.3591546837
 30
0.0
 10
-41.9643736072
 20
48.7015238705
 30
0.0
  0
LINE
  5
5B6
100
AcDbEntity
  8
ASSI
100
AcDbLine
 62
7
  6
CONTINUOUS
 10
-0.7229001113
 20
-23.3923384933
 11
-0.3265083989
 21
-23.6203498365
  0
SPLINE
  5
5B7
100
AcDbEntity
  8
ASSI
100
AcDbSpline
 62
250
  6
CONTINUOUS
 70
0
 71
3
 72
9
 73
5
 74
0
 42
0.0000001
 43
0.0000001
 44
0.0000000001
 40
0.0
 40
0.0
 40
0.0
 40
0.0
 40
0.2508923486
 40
1.0
 40
1.0
 40
1.0
 40
1.0
 10
-24.0396960902
 20
50.6730907363
 30
0.0
 10
-24.349943349
 20
50.839758225
 30
0.0
 10
-25.5865840216
 20
51.5039351735
 30
0.0
 10
-26.8234839642
 20
52.167629376
 30
0.0
 10
-27.7501969563
 20
52.664543289
 30
0.0
  0
LINE
  5
5B8
100
AcDbEntity
  8
ASSI
100
AcDbLine
 62
7
  6
CONTINUOUS
 10
-0.7969762015
 20
-21.9744461132
 11
-0.3964558813
 21
-22.2048226999
  0
SPLINE
  5
5B9
100
AcDbEntity
  8
ASSI
100
AcDbSpline
 62
250
  6
CONTINUOUS
 70
0
 71
3
 72
11
 73
7
 74
0
 42
0.0000001
 43
0.0000001
 44
0.0000000001
 40
0.0
 40
0.0
 40
0.0
 40
0.0
 40
0.2906936577
 40
0.5500780202
 40
0.7826229425
 40
1.0
 40
1.0
 40
1.0
 40
1.0
 10
-26.10111825
 20
32.0617614789
 30
0.0
 10
-26.0970215136
 20
32.1456563013
 30
0.0
 10
-26.0762341004
 20
32.3043526584
 30
0.0
 10
-25.9990284043
 20
32.5192312618
 30
0.0
 10
-25.878113005
 20
32.6885622652
 30
0.0
 10
-25.7689342216
 20
32.7649070214
 30
0.0
 10
-25.711749831
 20
32.7908891765
 30
0.0
  0
SPLINE
  5
5BA
100
AcDbEntity
  8
ASSI
100
AcDbSpline
 62
250
  6
CONTINUOUS
 70
0
 71
3
 72
11
 73
7
 74
0
 42
0.0000001
 43
0.0000001
 44
0.0000000001
 40
0.0
 40
0.0
 40
0.0
 40
0.0
 40
0.2665261731
 40
0.5268998694
 40
0.7734905176
 40
1.0
 40
1.0
 40
1.0
 40
1.0
 10
-25.711749831
 20
-4.5222620655
 30
0.0
 10
-25.7685522535
 20
-4.4319684215
 30
0.0
 10
-25.8710491004
 20
-4.2470977724
 30
0.0
 10
-25.9905502189
 20
-3.9607642161
 30
0.0
 10
-26.070284036
 20
-3.6775182203
 30
0.0
 10
-26.0968130771
 20
-3.4891085605
 30
0.0
 10
-26.1011181082
 20
-3.3985525899
 30
0.0
  0
SPLINE
  5
5BB
100
AcDbEntity
  8
ASSI
100
AcDbSpline
 62
250
  6
CONTINUOUS
 70
0
 71
3
 72
8
 73
4
 74
0
 42
0.0000001
 43
0.0000001
 44
0.0000000001
 40
0.0
 40
0.0
 40
0.0
 40
0.0
 40
1.0
 40
1.0
 40
1.0
 40
1.0
 10
-25.711749831
 20
-4.5222620655
 30
0.0
 10
-25.7018155237
 20
-4.7599009709
 30
0.0
 10
-25.6916826501
 20
-4.997531659
 30
0.0
 10
-25.6813506953
 20
-5.2351536077
 30
0.0
  0
SPLINE
  5
5BC
100
AcDbEntity
  8
ASSI
100
AcDbSpline
 62
250
  6
CONTINUOUS
 70
0
 71
3
 72
11
 73
7
 74
0
 42
0.0000001
 43
0.0000001
 44
0.0000000001
 40
0.0
 40
0.0
 40
0.0
 40
0.0
 40
0.2451853045
 40
0.4934450593
 40
0.7449938603
 40
1.0
 40
1.0
 40
1.0
 40
1.0
 10
-42.6391333456
 20
44.463630948
 30
0.0
 10
-43.0136537664
 20
41.3183967861
 30
0.0
 10
-43.5748855028
 20
34.9640067415
 30
0.0
 10
-43.8533985634
 20
25.3384964049
 30
0.0
 10
-43.5729950961
 20
15.5862609171
 30
0.0
 10
-43.0179433342
 20
9.0619278375
 30
0.0
 10
-42.6499927614
 20
5.7882155949
 30
0.0
  0
LINE
  5
5BD
100
AcDbEntity
  8
ASSI
100
AcDbLine
 62
250
  6
CONTINUOUS
 10
-42.6499927614
 20
5.7882155949
 11
-42.6391333559
 21
5.6918284763
  0
SPLINE
  5
5BE
100
AcDbEntity
  8
ASSI
100
AcDbSpline
 62
250
  6
CONTINUOUS
 70
0
 71
3
 72
8
 73
4
 74
0
 42
0.0000001
 43
0.0000001
 44
0.0000000001
 40
0.0
 40
0.0
 40
0.0
 40
0.0
 40
1.0
 40
1.0
 40
1.0
 40
1.0
 10
-25.711749831
 20
32.7908891765
 30
0.0
 10
-25.7018069481
 20
33.0394963148
 30
0.0
 10
-25.6916737398
 20
33.2880959136
 30
0.0
 10
-25.6813506953
 20
33.5366875564
 30
0.0
  0
SPLINE
  5
5BF
100
AcDbEntity
  8
ASSI
100
AcDbSpline
 62
250
  6
CONTINUOUS
 70
0
 71
3
 72
11
 73
7
 74
0
 42
0.0000001
 43
0.0000001
 44
0.0000000001
 40
0.0
 40
0.0
 40
0.0
 40
0.0
 40
0.2229259036
 40
0.4589170809
 40
0.7164473037
 40
1.0
 40
1.0
 40
1.0
 40
1.0
 10
-25.711749831
 20
32.7908891765
 30
0.0
 10
-25.6641478259
 20
32.8125383907
 30
0.0
 10
-25.5588819365
 20
32.8425492694
 30
0.0
 10
-25.3890053003
 20
32.8415645311
 30
0.0
 10
-25.2106479392
 20
32.7978077573
 30
0.0
 10
-25.0949156122
 20
32.7438445132
 30
0.0
 10
-25.0369385593
 20
32.7112411154
 30
0.0
  0
LINE
  5
5C0
100
AcDbEntity
  8
ASSI
100
AcDbLine
 62
7
  6
CONTINUOUS
 10
-0.8672295176
 20
-24.055839003
 11
-0.8493107833
 21
-23.9748225181
  0
SPLINE
  5
5C1
100
AcDbEntity
  8
ASSI
100
AcDbSpline
 62
250
  6
CONTINUOUS
 70
0
 71
3
 72
9
 73
5
 74
0
 42
0.0000001
 43
0.0000001
 44
0.0000000001
 40
0.0
 40
0.0
 40
0.0
 40
0.0
 40
0.4787847795
 40
1.0
 40
1.0
 40
1.0
 40
1.0
 10
21.7338454285
 20
5.7063766164
 30
0.0
 10
21.8710664865
 20
5.625201594
 30
0.0
 10
22.1316678662
 20
5.410855243
 30
0.0
 10
22.3357317941
 20
5.1442873103
 30
0.0
 10
22.4265972202
 20
4.9964109044
 30
0.0
  0
SPLINE
  5
5C2
100
AcDbEntity
  8
ASSI
100
AcDbSpline
 62
250
  6
CONTINUOUS
 70
0
 71
3
 72
11
 73
7
 74
0
 42
0.0000001
 43
0.0000001
 44
0.0000000001
 40
0.0
 40
0.0
 40
0.0
 40
0.0
 40
0.2175241459
 40
0.4528848765
 40
0.7128162082
 40
1.0
 40
1.0
 40
1.0
 40
1.0
 10
22.4265972202
 20
-32.3167403377
 30
0.0
 10
22.3791864389
 20
-32.3382027544
 30
0.0
 10
22.2731542838
 20
-32.3678857444
 30
0.0
 10
22.1010224003
 20
-32.3682854149
 30
0.0
 10
21.9169387023
 20
-32.3283099046
 30
0.0
 10
21.7953696428
 20
-32.278038888
 30
0.0
 10
21.7338454285
 20
-32.2474509079
 30
0.0
  0
SPLINE
  5
5C3
100
AcDbEntity
  8
ASSI
100
AcDbSpline
 62
250
  6
CONTINUOUS
 70
0
 71
3
 72
11
 73
7
 74
0
 42
0.0000001
 43
0.0000001
 44
0.0000000001
 40
0.0
 40
0.0
 40
0.0
 40
0.0
 40
0.213186625
 40
0.4458547823
 40
0.7070098773
 40
1.0
 40
1.0
 40
1.0
 40
1.0
 10
22.5073836539
 20
-31.5837289096
 30
0.0
 10
22.4783056523
 20
-31.5983583945
 30
0.0
 10
22.411661098
 20
-31.6181795991
 30
0.0
 10
22.3024471452
 20
-31.6161750961
 30
0.0
 10
22.1855027956
 20
-31.584948594
 30
0.0
 10
22.1089343151
 20
-31.5478624187
 30
0.0
 10
22.0701925452
 20
-31.5254937475
 30
0.0
  0
LINE
  5
5C4
100
AcDbEntity
  8
ASSI
100
AcDbLine
 62
7
  6
CONTINUOUS
 10
-3.3116862657
 20
-20.5223346742
 11
-2.8993923699
 21
-20.7610848299
  0
SPLINE
  5
5C5
100
AcDbEntity
  8
ASSI
100
AcDbSpline
 62
250
  6
CONTINUOUS
 70
0
 71
3
 72
9
 73
5
 74
0
 42
0.0000001
 43
0.0000001
 44
0.0000000001
 40
0.0
 40
0.0
 40
0.0
 40
0.0
 40
0.475614075
 40
1.0
 40
1.0
 40
1.0
 40
1.0
 10
-25.0369385593
 20
-5.2425864089
 30
0.0
 10
-25.1680899574
 20
-5.1557030154
 30
0.0
 10
-25.4182563725
 20
-4.9340820565
 30
0.0
 10
-25.6194036934
 20
-4.6690875188
 30
0.0
 10
-25.711749831
 20
-4.5222620655
 30
0.0
  0
SPLINE
  5
5C6
100
AcDbEntity
  8
ASSI
100
AcDbSpline
 62
250
  6
CONTINUOUS
 70
0
 71
3
 72
11
 73
7
 74
0
 42
0.0000001
 43
0.0000001
 44
0.0000000001
 40
0.0
 40
0.0
 40
0.0
 40
0.0
 40
0.28514258
 40
0.5433615457
 40
0.7783494861
 40
1.0
 40
1.0
 40
1.0
 40
1.0
 10
-42.639131376
 20
44.4636499242
 30
0.0
 10
-42.6510361595
 20
44.4730950523
 30
0.0
 10
-42.672316966
 20
44.4930225387
 30
0.0
 10
-42.6963117361
 20
44.527304024
 30
0.0
 10
-42.7096764674
 20
44.5635043195
 30
0.0
 10
-42.7108014412
 20
44.5883008386
 30
0.0
 10
-42.7094096329
 20
44.6000313058
 30
0.0
  0
SPLINE
  5
5C7
100
AcDbEntity
  8
ASSI
100
AcDbSpline
 62
250
  6
CONTINUOUS
 70
0
 71
3
 72
9
 73
5
 74
0
 42
0.0000001
 43
0.0000001
 44
0.0000000001
 40
0.0
 40
0.0
 40
0.0
 40
0.0
 40
0.5441837646
 40
1.0
 40
1.0
 40
1.0
 40
1.0
 10
-42.639131387
 20
5.6918087551
 30
0.0
 10
-42.6577566629
 20
5.7023658088
 30
0.0
 10
-42.6901133761
 20
5.7266340061
 30
0.0
 10
-42.707618211
 20
5.7644930871
 30
0.0
 10
-42.7096207261
 20
5.7823135539
 30
0.0
  0
LINE
  5
5C8
100
AcDbEntity
  8
ASSI
100
AcDbLine
 62
7
  6
CONTINUOUS
 10
-2.0777993003
 20
-21.2360633011
 11
-1.668861443
 21
-21.4720878789
  0
SPLINE
  5
5C9
100
AcDbEntity
  8
ASSI
100
AcDbSpline
 62
250
  6
CONTINUOUS
 70
0
 71
3
 72
11
 73
7
 74
0
 42
0.0000001
 43
0.0000001
 44
0.0000000001
 40
0.0
 40
0.0
 40
0.0
 40
0.0
 40
0.2366166485
 40
0.4769551286
 40
0.729276319
 40
1.0
 40
1.0
 40
1.0
 40
1.0
 10
44.9428208737
 20
0.2583324641
 30
0.0
 10
44.9499045415
 20
0.123727427
 30
0.0
 10
44.9302902925
 20
-0.1506569266
 30
0.0
 10
44.797027274
 20
-0.5483559765
 30
0.0
 10
44.5652567009
 20
-0.9204054461
 30
0.0
 10
44.3577744562
 20
-1.1371721428
 30
0.0
 10
44.2420783087
 20
-1.2391448882
 30
0.0
  0
SPLINE
  5
5CA
100
AcDbEntity
  8
ASSI
100
AcDbSpline
 62
250
  6
CONTINUOUS
 70
0
 71
3
 72
9
 73
5
 74
0
 42
0.0000001
 43
0.0000001
 44
0.0000000001
 40
0.0
 40
0.0
 40
0.0
 40
0.0
 40
0.5432127459
 40
1.0
 40
1.0
 40
1.0
 40
1.0
 10
-42.5009843915
 20
4.5289655959
 30
0.0
 10
-42.5194088011
 20
4.5393256003
 30
0.0
 10
-42.5514705168
 20
4.5632371691
 30
0.0
 10
-42.569016828
 20
4.6005148654
 30
0.0
 10
-42.5712089486
 20
4.6181535741
 30
0.0
  0
SPLINE
  5
5CB
100
AcDbEntity
  8
ASSI
100
AcDbSpline
 62
250
  6
CONTINUOUS
 70
0
 71
3
 72
11
 73
7
 74
0
 42
0.0000001
 43
0.0000001
 44
0.0000000001
 40
0.0
 40
0.0
 40
0.0
 40
0.0
 40
0.23487516
 40
0.4757893804
 40
0.7291954222
 40
1.0
 40
1.0
 40
1.0
 40
1.0
 10
44.9305180923
 20
0.2588993946
 30
0.0
 10
44.9253045167
 20
0.1374091528
 30
0.0
 10
44.8863221768
 20
-0.1083616376
 30
0.0
 10
44.7444082392
 20
-0.4612634219
 30
0.0
 10
44.5229952352
 20
-0.7927080341
 30
0.0
 10
44.3325928175
 20
-0.9882486291
 30
0.0
 10
44.2273875025
 20
-1.0809252261
 30
0.0
  0
SPLINE
  5
5CC
100
AcDbEntity
  8
ASSI
100
AcDbSpline
 62
250
  6
CONTINUOUS
 70
0
 71
3
 72
9
 73
5
 74
0
 42
0.0000001
 43
0.0000001
 44
0.0000000001
 40
0.0
 40
0.0
 40
0.0
 40
0.0
 40
0.5448047244
 40
1.0
 40
1.0
 40
1.0
 40
1.0
 10
-41.9643735457
 20
1.1647081992
 30
0.0
 10
-41.9813558806
 20
1.1730415709
 30
0.0
 10
-42.0111772124
 20
1.1925708454
 30
0.0
 10
-42.0290107286
 20
1.2246884696
 30
0.0
 10
-42.0320103905
 20
1.2402065636
 30
0.0
  0
SPLINE
  5
5CD
100
AcDbEntity
  8
ASSI
100
AcDbSpline
 62
250
  6
CONTINUOUS
 70
0
 71
3
 72
11
 73
7
 74
0
 42
0.0000001
 43
0.0000001
 44
0.0000000001
 40
0.0
 40
0.0
 40
0.0
 40
0.0
 40
0.2162011582
 40
0.4495752073
 40
0.709361353
 40
1.0
 40
1.0
 40
1.0
 40
1.0
 10
44.574328368
 20
3.6391449788
 30
0.0
 10
44.5784721885
 20
3.5251143154
 30
0.0
 10
44.549813706
 20
3.2855248433
 30
0.0
 10
44.4038814415
 20
2.9367345185
 30
0.0
 10
44.1621266706
 20
2.5977679312
 30
0.0
 10
43.953526904
 20
2.3936166648
 30
0.0
 10
43.8369845205
 20
2.2938816601
 30
0.0
  0
SPLINE
  5
5CE
100
AcDbEntity
  8
ASSI
100
AcDbSpline
 62
250
  6
CONTINUOUS
 70
0
 71
3
 72
9
 73
5
 74
0
 42
0.0000001
 43
0.0000001
 44
0.0000000001
 40
0.0
 40
0.0
 40
0.0
 40
0.0
 40
0.5371252196
 40
1.0
 40
1.0
 40
1.0
 40
1.0
 10
-31.1657638594
 20
-15.6102570628
 30
0.0
 10
-31.1645295815
 20
-15.6271540908
 30
0.0
 10
-31.1580708084
 20
-15.6588276438
 30
0.0
 10
-31.1380539444
 20
-15.6851160123
 30
0.0
 10
-31.1263674967
 20
-15.6938674665
 30
0.0
  0
SPLINE
  5
5CF
100
AcDbEntity
  8
ASSI
100
AcDbSpline
 62
250
  6
CONTINUOUS
 70
0
 71
3
 72
11
 73
7
 74
0
 42
0.0000001
 43
0.0000001
 44
0.0000000001
 40
0.0
 40
0.0
 40
0.0
 40
0.0
 40
0.2160118134
 40
0.450115586
 40
0.7102156316
 40
1.0
 40
1.0
 40
1.0
 40
1.0
 10
44.5665009049
 20
3.6406265214
 30
0.0
 10
44.5645114236
 20
3.5310428634
 30
0.0
 10
44.5261398094
 20
3.302417809
 30
0.0
 10
44.3761757979
 20
2.971356192
 30
0.0
 10
44.1391819934
 20
2.6490559626
 30
0.0
 10
43.9380690285
 20
2.4539660542
 30
0.0
 10
43.826230462
 20
2.3585153503
 30
0.0
  0
SPLINE
  5
5D0
100
AcDbEntity
  8
ASSI
100
AcDbSpline
 62
250
  6
CONTINUOUS
 70
0
 71
3
 72
10
 73
6
 74
0
 42
0.0000001
 43
0.0000001
 44
0.0000000001
 40
0.0
 40
0.0
 40
0.0
 40
0.0
 40
0.2398366979
 40
0.4849953003
 40
1.0
 40
1.0
 40
1.0
 40
1.0
 10
44.5419946667
 20
-43.8798270079
 30
0.0
 10
44.5241449036
 20
-43.971986086
 30
0.0
 10
44.473420622
 20
-44.1558534412
 30
0.0
 10
44.3139813586
 20
-44.5144522283
 30
0.0
 10
44.1348014952
 20
-44.7577741676
 30
0.0
 10
43.9972061676
 20
-44.9050795184
 30
0.0
  0
SPLINE
  5
5D1
100
AcDbEntity
  8
ASSI
100
AcDbSpline
 62
250
  6
CONTINUOUS
 70
0
 71
3
 72
10
 73
6
 74
0
 42
0.0000001
 43
0.0000001
 44
0.0000000001
 40
0.0
 40
0.0
 40
0.0
 40
0.0
 40
0.2400147001
 40
0.4850687344
 40
1.0
 40
1.0
 40
1.0
 40
1.0
 10
44.5427815288
 20
-43.8805064332
 30
0.0
 10
44.5269189452
 20
-43.977481978
 30
0.0
 10
44.4787967862
 20
-44.1712318042
 30
0.0
 10
44.3187838761
 20
-44.5494016616
 30
0.0
 10
44.1328589361
 20
-44.8055436007
 30
0.0
 10
43.9891563991
 20
-44.959795767
 30
0.0
  0
SPLINE
  5
5D2
100
AcDbEntity
  8
ASSI
100
AcDbSpline
 62
250
  6
CONTINUOUS
 70
0
 71
3
 72
9
 73
5
 74
0
 42
0.0000001
 43
0.0000001
 44
0.0000000001
 40
0.0
 40
0.0
 40
0.0
 40
0.0
 40
0.5343859505
 40
1.0
 40
1.0
 40
1.0
 40
1.0
 10
-27.7501969563
 20
-18.0698621921
 30
0.0
 10
-27.7480430078
 20
-18.0880139354
 30
0.0
 10
-27.7393417371
 20
-18.1219840193
 30
0.0
 10
-27.7163829826
 20
-18.1494257091
 30
0.0
 10
-27.7032748927
 20
-18.1584721255
 30
0.0
  0
SPLINE
  5
5D3
100
AcDbEntity
  8
ASSI
100
AcDbSpline
 62
250
  6
CONTINUOUS
 70
0
 71
3
 72
13
 73
9
 74
0
 42
0.0000001
 43
0.0000001
 44
0.0000000001
 40
0.0
 40
0.0
 40
0.0
 40
0.0
 40
0.3213730937
 40
0.5899127525
 40
0.706207719
 40
0.8118668066
 40
0.9088499214
 40
1.0
 40
1.0
 40
1.0
 40
1.0
 10
34.001936459
 20
19.0901896658
 30
0.0
 10
34.1204873578
 20
19.1513894151
 30
0.0
 10
34.3431977217
 20
19.2542798891
 30
0.0
 10
34.6247535308
 20
19.3416533355
 30
0.0
 10
34.826871139
 20
19.369956717
 30
0.0
 10
34.9597891423
 20
19.3705026537
 30
0.0
 10
35.0807562414
 20
19.3503116701
 30
0.0
 10
35.1541586641
 20
19.3213896463
 30
0.0
 10
35.1874145139
 20
19.3033359991
 30
0.0
  0
SPLINE
  5
5D4
100
AcDbEntity
  8
ASSI
100
AcDbSpline
 62
250
  6
CONTINUOUS
 70
0
 71
3
 72
9
 73
5
 74
0
 42
0.0000001
 43
0.0000001
 44
0.0000000001
 40
0.0
 40
0.0
 40
0.0
 40
0.0
 40
0.5348848414
 40
1.0
 40
1.0
 40
1.0
 40
1.0
 10
-24.0396960895
 20
-20.5944779236
 30
0.0
 10
-24.0373638016
 20
-20.6128833295
 30
0.0
 10
-24.0282633748
 20
-20.6472665677
 30
0.0
 10
-24.0046506284
 20
-20.6748495718
 30
0.0
 10
-23.9912436195
 20
-20.6838224928
 30
0.0
  0
SPLINE
  5
5D5
100
AcDbEntity
  8
ASSI
100
AcDbSpline
 62
250
  6
CONTINUOUS
 70
0
 71
3
 72
14
 73
10
 74
0
 42
0.0000001
 43
0.0000001
 44
0.0000000001
 40
0.0
 40
0.0
 40
0.0
 40
0.0
 40
0.3216285892
 40
0.4616424431
 40
0.5887886145
 40
0.7040804929
 40
0.8091462794
 40
0.9065554328
 40
1.0
 40
1.0
 40
1.0
 40
1.0
 10
33.675355524
 20
19.3389595135
 30
0.0
 10
33.7989124825
 20
19.4021126108
 30
0.0
 10
33.9809783848
 20
19.4847107585
 30
0.0
 10
34.223275606
 20
19.5618792589
 30
0.0
 10
34.3848305513
 20
19.5969289612
 30
0.0
 10
34.5345396425
 20
19.6110495359
 30
0.0
 10
34.6720779081
 20
19.602808347
 30
0.0
 10
34.796573609
 20
19.5706397023
 30
0.0
 10
34.8702246963
 20
19.5316791376
 30
0.0
 10
34.9031741831
 20
19.5084491239
 30
0.0
  0
LINE
  5
5D6
100
AcDbEntity
  8
ASSI
100
AcDbLine
 62
7
  6
CONTINUOUS
 10
-2.3219201032
 20
-23.2165493931
 11
-2.2922845472
 21
-23.1291241467
  0
SPLINE
  5
5D7
100
AcDbEntity
  8
ASSI
100
AcDbSpline
 62
250
  6
CONTINUOUS
 70
0
 71
3
 72
11
 73
7
 74
0
 42
0.0000001
 43
0.0000001
 44
0.0000000001
 40
0.0
 40
0.0
 40
0.0
 40
0.0
 40
0.2285127878
 40
0.4689961407
 40
0.7252994898
 40
1.0
 40
1.0
 40
1.0
 40
1.0
 10
44.9189402571
 20
-40.8690586441
 30
0.0
 10
44.9015298632
 20
-40.9568302726
 30
0.0
 10
44.8483071368
 20
-41.1338529872
 30
0.0
 10
44.7203635501
 20
-41.3887481851
 30
0.0
 10
44.5446786405
 20
-41.635756764
 30
0.0
 10
44.4023240234
 20
-41.7881607966
 30
0.0
 10
44.3246257916
 20
-41.8625508012
 30
0.0
  0
SPLINE
  5
5D8
100
AcDbEntity
  8
ASSI
100
AcDbSpline
 62
250
  6
CONTINUOUS
 70
0
 71
3
 72
11
 73
7
 74
0
 42
0.0000001
 43
0.0000001
 44
0.0000000001
 40
0.0
 40
0.0
 40
0.0
 40
0.0
 40
0.2280960814
 40
0.4674615902
 40
0.7235430663
 40
1.0
 40
1.0
 40
1.0
 40
1.0
 10
44.9258958841
 20
-40.8720941732
 30
0.0
 10
44.9164318415
 20
-40.9714295075
 30
0.0
 10
44.8743066129
 20
-41.1733988559
 30
0.0
 10
44.7475426482
 20
-41.4654429633
 30
0.0
 10
44.5592599522
 20
-41.7476053036
 30
0.0
 10
44.4011804953
 20
-41.9199641152
 30
0.0
 10
44.3139782658
 20
-42.0037652707
 30
0.0
  0
SPLINE
  5
5D9
100
AcDbEntity
  8
ASSI
100
AcDbSpline
 62
250
  6
CONTINUOUS
 70
0
 71
3
 72
9
 73
5
 74
0
 42
0.0000001
 43
0.0000001
 44
0.0000000001
 40
0.0
 40
0.0
 40
0.0
 40
0.0
 40
0.5358854685
 40
1.0
 40
1.0
 40
1.0
 40
1.0
 10
23.9939898329
 20
-48.3285261727
 30
0.0
 10
23.9987819883
 20
-48.3506942462
 30
0.0
 10
24.0137716711
 20
-48.3915521458
 30
0.0
 10
24.0465290892
 20
-48.42173679
 30
0.0
 10
24.0641772908
 20
-48.4303607236
 30
0.0
  0
SPLINE
  5
5DA
100
AcDbEntity
  8
ASSI
100
AcDbSpline
 62
7
  6
CONTINUOUS
 70
0
 71
3
 72
11
 73
7
 74
0
 42
0.0000001
 43
0.0000001
 44
0.0000000001
 40
0.0
 40
0.0
 40
0.0
 40
0.0
 40
0.2296026175
 40
0.4658894662
 40
0.7200217447
 40
1.0
 40
1.0
 40
1.0
 40
1.0
 10
45.8141214359
 20
-23.8553038554
 30
0.0
 10
45.812869853
 20
-23.9426415355
 30
0.0
 10
45.786335793
 20
-24.1204687393
 30
0.0
 10
45.6739988559
 20
-24.3734430925
 30
0.0
 10
45.4938403081
 20
-24.6074950045
 30
0.0
 10
45.3397959166
 20
-24.7418661762
 30
0.0
 10
45.2544817668
 20
-24.8056317594
 30
0.0
  0
SPLINE
  5
5DB
100
AcDbEntity
  8
ASSI
100
AcDbSpline
 62
250
  6
CONTINUOUS
 70
0
 71
3
 72
13
 73
9
 74
0
 42
0.0000001
 43
0.0000001
 44
0.0000000001
 40
0.0
 40
0.0
 40
0.0
 40
0.0
 40
0.2988798255
 40
0.4321990343
 40
0.5565350556
 40
0.7838459583
 40
0.8919300425
 40
1.0
 40
1.0
 40
1.0
 40
1.0
 10
30.4619881711
 20
21.5637115612
 30
0.0
 10
30.5790480922
 20
21.6228518052
 30
0.0
 10
30.7537647685
 20
21.699018413
 30
0.0
 10
30.9891481713
 20
21.7656516788
 30
0.0
 10
31.1989487856
 20
21.8020768896
 30
0.0
 10
31.4044037201
 20
21.7993417011
 30
0.0
 10
31.5922454872
 20
21.7447108559
 30
0.0
 10
31.67709628
 20
21.7006443592
 30
0.0
 10
31.7167727999
 20
21.6746708679
 30
0.0
  0
SPLINE
  5
5DC
100
AcDbEntity
  8
ASSI
100
AcDbSpline
 62
250
  6
CONTINUOUS
 70
0
 71
3
 72
9
 73
5
 74
0
 42
0.0000001
 43
0.0000001
 44
0.0000000001
 40
0.0
 40
0.0
 40
0.0
 40
0.0
 40
0.5367684971
 40
1.0
 40
1.0
 40
1.0
 40
1.0
 10
27.9047677265
 20
-50.20434128
 30
0.0
 10
27.9097519178
 20
-50.2269327022
 30
0.0
 10
27.9251953334
 20
-50.2684946619
 30
0.0
 10
27.9588961957
 20
-50.2989550293
 30
0.0
 10
27.9769613818
 20
-50.3074556608
 30
0.0
  0
SPLINE
  5
5DD
100
AcDbEntity
  8
ASSI
100
AcDbSpline
 62
250
  6
CONTINUOUS
 70
0
 71
3
 72
12
 73
8
 74
0
 42
0.0000001
 43
0.0000001
 44
0.0000000001
 40
0.0
 40
0.0
 40
0.0
 40
0.0
 40
0.2973041151
 40
0.5539663069
 40
0.7818907868
 40
0.8907944396
 40
1.0
 40
1.0
 40
1.0
 40
1.0
 10
30.1757098643
 20
21.7538082713
 30
0.0
 10
30.2923803687
 20
21.8127075734
 30
0.0
 10
30.5167437815
 20
21.9100072934
 30
0.0
 10
30.8529537162
 20
21.9911038851
 30
0.0
 10
31.1183748475
 20
21.9865178539
 30
0.0
 10
31.3074982722
 20
21.9309152269
 30
0.0
 10
31.3932143578
 20
21.886312863
 30
0.0
 10
31.4333973744
 20
21.8600455459
 30
0.0
  0
SPLINE
  5
5DE
100
AcDbEntity
  8
ASSI
100
AcDbSpline
 62
250
  6
CONTINUOUS
 70
0
 71
3
 72
9
 73
5
 74
0
 42
0.0000001
 43
0.0000001
 44
0.0000000001
 40
0.0
 40
0.0
 40
0.0
 40
0.0
 40
0.5352865247
 40
1.0
 40
1.0
 40
1.0
 40
1.0
 10
31.536116096
 20
-51.8135367167
 30
0.0
 10
31.5423814356
 20
-51.8377609687
 30
0.0
 10
31.5609739858
 20
-51.8821665747
 30
0.0
 10
31.5990181161
 20
-51.9135129962
 30
0.0
 10
31.6190751362
 20
-51.9218546623
 30
0.0
  0
SPLINE
  5
5DF
100
AcDbEntity
  8
ASSI
100
AcDbSpline
 62
250
  6
CONTINUOUS
 70
0
 71
3
 72
11
 73
7
 74
0
 42
0.0000001
 43
0.0000001
 44
0.0000000001
 40
0.0
 40
0.0
 40
0.0
 40
0.0
 40
0.2756412592
 40
0.5305758789
 40
0.7696360488
 40
1.0
 40
1.0
 40
1.0
 40
1.0
 10
2.4460140231
 20
38.8552141126
 30
0.0
 10
2.5819752166
 20
38.8980420981
 30
0.0
 10
2.8505056057
 20
38.9612480456
 30
0.0
 10
3.250560765
 20
38.9809483588
 30
0.0
 10
3.6232368937
 20
38.9198925472
 30
0.0
 10
3.8494192924
 20
38.8242333748
 30
0.0
 10
3.9525976617
 20
38.764679379
 30
0.0
  0
SPLINE
  5
5E0
100
AcDbEntity
  8
ASSI
100
AcDbSpline
 62
7
  6
CONTINUOUS
 70
0
 71
3
 72
11
 73
7
 74
0
 42
0.0000001
 43
0.0000001
 44
0.0000000001
 40
0.0
 40
0.0
 40
0.0
 40
0.0
 40
0.2894101942
 40
0.5479734873
 40
0.780886145
 40
1.0
 40
1.0
 40
1.0
 40
1.0
 10
-25.7451823708
 20
31.9358525859
 30
0.0
 10
-25.7414998971
 20
31.9980843839
 30
0.0
 10
-25.724740823
 20
32.1157888092
 30
0.0
 10
-25.6645572145
 20
32.274720307
 30
0.0
 10
-25.5710668382
 20
32.3989684417
 30
0.0
 10
-25.4878053197
 20
32.4539048276
 30
0.0
 10
-25.4443874524
 20
32.4724137121
 30
0.0
  0
SPLINE
  5
5E1
100
AcDbEntity
  8
ASSI
100
AcDbSpline
 62
250
  6
CONTINUOUS
 70
0
 71
3
 72
9
 73
5
 74
0
 42
0.0000001
 43
0.0000001
 44
0.0000000001
 40
0.0
 40
0.0
 40
0.0
 40
0.0
 40
0.4748784384
 40
1.0
 40
1.0
 40
1.0
 40
1.0
 10
-26.1010746753
 20
32.0623087328
 30
0.0
 10
-26.0503088332
 20
32.0301762413
 30
0.0
 10
-25.9343027214
 20
31.976714463
 30
0.0
 10
-25.8107771908
 20
31.9463984319
 30
0.0
 10
-25.7451823708
 20
31.9358525859
 30
0.0
  0
SPLINE
  5
5E2
100
AcDbEntity
  8
ASSI
100
AcDbSpline
 62
7
  6
CONTINUOUS
 70
0
 71
3
 72
9
 73
5
 74
0
 42
0.0000001
 43
0.0000001
 44
0.0000000001
 40
0.0
 40
0.0
 40
0.0
 40
0.0
 40
0.4803620785
 40
1.0
 40
1.0
 40
1.0
 40
1.0
 10
-25.444386599
 20
32.4724132508
 30
0.0
 10
-25.400679353
 20
32.4910340299
 30
0.0
 10
-25.3019318031
 20
32.5129242321
 30
0.0
 10
-25.2020674583
 20
32.5026413975
 30
0.0
 10
-25.1519584336
 20
32.4912256756
 30
0.0
  0
SPLINE
  5
5E3
100
AcDbEntity
  8
ASSI
100
AcDbSpline
 62
7
  6
CONTINUOUS
 70
0
 71
3
 72
9
 73
5
 74
0
 42
0.0000001
 43
0.0000001
 44
0.0000000001
 40
0.0
 40
0.0
 40
0.0
 40
0.0
 40
0.2433659126
 40
1.0
 40
1.0
 40
1.0
 40
1.0
 10
-25.1519584336
 20
32.4912256756
 30
0.0
 10
-25.1431437271
 20
32.4892175296
 30
0.0
 10
-25.1071010195
 20
32.4801969228
 30
0.0
 10
-25.0718200275
 20
32.4682068778
 30
0.0
 10
-25.0457264818
 20
32.4577591251
 30
0.0
  0
SPLINE
  5
5E4
100
AcDbEntity
  8
ASSI
100
AcDbSpline
 62
7
  6
CONTINUOUS
 70
0
 71
3
 72
9
 73
5
 74
0
 42
0.0000001
 43
0.0000001
 44
0.0000000001
 40
0.0
 40
0.0
 40
0.0
 40
0.0
 40
0.2428614765
 40
1.0
 40
1.0
 40
1.0
 40
1.0
 10
-25.0457264818
 20
32.4577591251
 30
0.0
 10
-25.0368163094
 20
32.4541915273
 30
0.0
 10
-25.0003976591
 20
32.4388330263
 30
0.0
 10
-24.9651040067
 20
32.4208389596
 30
0.0
 10
-24.9391256067
 20
32.4059913674
 30
0.0
  0
SPLINE
  5
5E5
100
AcDbEntity
  8
ASSI
100
AcDbSpline
 62
250
  6
CONTINUOUS
 70
0
 71
3
 72
9
 73
5
 74
0
 42
0.0000001
 43
0.0000001
 44
0.0000000001
 40
0.0
 40
0.0
 40
0.0
 40
0.0
 40
0.5082976147
 40
1.0
 40
1.0
 40
1.0
 40
1.0
 10
-25.7117497605
 20
32.7908892111
 30
0.0
 10
-25.6811265358
 20
32.7267763078
 30
0.0
 10
-25.6050784497
 20
32.6075632754
 30
0.0
 10
-25.5010200671
 20
32.5113573238
 30
0.0
 10
-25.444386599
 20
32.4724132508
 30
0.0
  0
LINE
  5
5E6
100
AcDbEntity
  8
ASSI
100
AcDbLine
 62
7
  6
CONTINUOUS
 10
-24.9385978615
 20
32.4056903409
 11
-24.9014091353
 21
32.3844352656
  0
LINE
  5
5E7
100
AcDbEntity
  8
ASSI
100
AcDbLine
 62
7
  6
CONTINUOUS
 10
-24.9014091353
 20
32.3844352656
 11
-24.8143991268
 21
32.3347171433
  0
LINE
  5
5E8
100
AcDbEntity
  8
ASSI
100
AcDbLine
 62
7
  6
CONTINUOUS
 10
-24.8143991268
 20
32.3347171433
 11
-24.5648096541
 21
32.1921950708
  0
SPLINE
  5
5E9
100
AcDbEntity
  8
ASSI
100
AcDbSpline
 62
250
  6
CONTINUOUS
 70
0
 71
3
 72
9
 73
5
 74
0
 42
0.0000001
 43
0.0000001
 44
0.0000000001
 40
0.0
 40
0.0
 40
0.0
 40
0.0
 40
0.5387345008
 40
1.0
 40
1.0
 40
1.0
 40
1.0
 10
-25.0369385592
 20
32.7112411154
 30
0.0
 10
-25.0372885157
 20
32.6526923366
 30
0.0
 10
-25.0249014695
 20
32.5429389052
 30
0.0
 10
-24.9728473794
 20
32.443086452
 30
0.0
 10
-24.939126449
 20
32.4059924775
 30
0.0
  0
SPLINE
  5
5EA
100
AcDbEntity
  8
ASSI
100
AcDbSpline
 62
250
  6
CONTINUOUS
 70
0
 71
3
 72
9
 73
5
 74
0
 42
0.0000001
 43
0.0000001
 44
0.0000000001
 40
0.0
 40
0.0
 40
0.0
 40
0.0
 40
0.5427219396
 40
1.0
 40
1.0
 40
1.0
 40
1.0
 10
-14.2569254935
 20
26.609810638
 30
0.0
 10
-14.2582455469
 20
26.5502287988
 30
0.0
 10
-14.2475608334
 20
26.4390552512
 30
0.0
 10
-14.1944799934
 20
26.3377965115
 30
0.0
 10
-14.1598386541
 20
26.3014453414
 30
0.0
  0
SPLINE
  5
5EB
100
AcDbEntity
  8
ASSI
100
AcDbSpline
 62
250
  6
CONTINUOUS
 70
0
 71
3
 72
10
 73
6
 74
0
 42
0.0000001
 43
0.0000001
 44
0.0000000001
 40
0.0
 40
0.0
 40
0.0
 40
0.0
 40
0.2884628604
 40
0.5505573795
 40
1.0
 40
1.0
 40
1.0
 40
1.0
 10
10.4581643979
 20
12.3396283186
 30
0.0
 10
10.4563658028
 20
12.3092789292
 30
0.0
 10
10.4566634478
 20
12.2509292467
 30
0.0
 10
10.4733988781
 20
12.1468704734
 30
0.0
 10
10.5069304846
 20
12.0757229486
 30
0.0
 10
10.5388559359
 20
12.0407286325
 30
0.0
  0
LINE
  5
5EC
100
AcDbEntity
  8
ASSI
100
AcDbLine
 62
7
  6
CONTINUOUS
 10
21.4170647221
 20
5.6428370942
 11
21.8011603563
 21
5.4187397328
  0
SPLINE
  5
5ED
100
AcDbEntity
  8
ASSI
100
AcDbSpline
 62
7
  6
CONTINUOUS
 70
0
 71
3
 72
9
 73
5
 74
0
 42
0.0000001
 43
0.0000001
 44
0.0000000001
 40
0.0
 40
0.0
 40
0.0
 40
0.0
 40
0.2460578868
 40
1.0
 40
1.0
 40
1.0
 40
1.0
 10
21.8372641611
 20
5.3967226525
 30
0.0
 10
21.8438211938
 20
5.3925449775
 30
0.0
 10
21.8702898654
 20
5.3752855958
 30
0.0
 10
21.8960507671
 20
5.3569456683
 30
0.0
 10
21.9150671439
 20
5.3425965583
 30
0.0
  0
SPLINE
  5
5EE
100
AcDbEntity
  8
ASSI
100
AcDbSpline
 62
250
  6
CONTINUOUS
 70
0
 71
3
 72
9
 73
5
 74
0
 42
0.0000001
 43
0.0000001
 44
0.0000000001
 40
0.0
 40
0.0
 40
0.0
 40
0.0
 40
0.29179056
 40
1.0
 40
1.0
 40
1.0
 40
1.0
 10
21.733845539
 20
5.7063766782
 30
0.0
 10
21.7316289115
 20
5.6773393942
 30
0.0
 10
21.7297443658
 20
5.5783512248
 30
0.0
 10
21.756595735
 20
5.4728320668
 30
0.0
 10
21.8017075159
 20
5.418418303
 30
0.0
  0
SPLINE
  5
5EF
100
AcDbEntity
  8
ASSI
100
AcDbSpline
 62
250
  6
CONTINUOUS
 70
0
 71
3
 72
10
 73
6
 74
0
 42
0.0000001
 43
0.0000001
 44
0.0000000001
 40
0.0
 40
0.0
 40
0.0
 40
0.0
 40
0.2477913017
 40
0.5084768255
 40
1.0
 40
1.0
 40
1.0
 40
1.0
 10
41.1294667469
 20
-46.8126338437
 30
0.0
 10
41.1577245633
 20
-46.8309972306
 30
0.0
 10
41.2220141021
 20
-46.8595843576
 30
0.0
 10
41.3565360487
 20
-46.8820954867
 30
0.0
 10
41.4640307674
 20
-46.8622441367
 30
0.0
 10
41.5220098417
 20
-46.8289698064
 30
0.0
  0
SPLINE
  5
5F0
100
AcDbEntity
  8
ASSI
100
AcDbSpline
 62
250
  6
CONTINUOUS
 70
0
 71
3
 72
13
 73
9
 74
0
 42
0.0000001
 43
0.0000001
 44
0.0000000001
 40
0.0
 40
0.0
 40
0.0
 40
0.0
 40
0.3952239534
 40
0.6973565205
 40
0.8112202187
 40
0.8995676275
 40
0.9622607774
 40
1.0
 40
1.0
 40
1.0
 40
1.0
 10
22.4265969649
 20
4.9964107611
 30
0.0
 10
22.4101461399
 20
4.984813549
 30
0.0
 10
22.3813035938
 20
4.9640986041
 30
0.0
 10
22.3483884
 20
4.9390830297
 30
0.0
 10
22.328663797
 20
4.9226555814
 30
0.0
 10
22.3186339781
 20
4.913566842
 30
0.0
 10
22.3120976215
 20
4.9066091777
 30
0.0
 10
22.3089902131
 20
4.9023595014
 30
0.0
 10
22.3084282399
 20
4.9005215368
 30
0.0
  0
LINE
  5
5F1
100
AcDbEntity
  8
ASSI
100
AcDbLine
 62
7
  6
CONTINUOUS
 10
22.2451843916
 20
-13.8466972796
 11
22.2451832476
 21
-13.8802043914
  0
SPLINE
  5
5F2
100
AcDbEntity
  8
ASSI
100
AcDbSpline
 62
250
  6
CONTINUOUS
 70
0
 71
3
 72
9
 73
5
 74
0
 42
0.0000001
 43
0.0000001
 44
0.0000000001
 40
0.0
 40
0.0
 40
0.0
 40
0.0
 40
0.2867255833
 40
1.0
 40
1.0
 40
1.0
 40
1.0
 10
22.7681642348
 20
3.8414316307
 30
0.0
 10
22.7438051799
 20
3.8545789734
 30
0.0
 10
22.6619641051
 20
3.9047555507
 30
0.0
 10
22.5897804465
 20
3.978851716
 30
0.0
 10
22.5637256507
 20
4.0425919854
 30
0.0
  0
LINE
  5
5F3
100
AcDbEntity
  8
ASSI
100
AcDbLine
 62
7
  6
CONTINUOUS
 10
22.5626691969
 20
-31.3728364271
 11
22.5637357478
 21
-31.4018427088
  0
LINE
  5
5F4
100
AcDbEntity
  8
ASSI
100
AcDbLine
 62
7
  6
CONTINUOUS
 10
-4.1242855234
 20
-20.0508726157
 11
-3.7121020486
 21
-20.2900809203
  0
SPLINE
  5
5F5
100
AcDbEntity
  8
ASSI
100
AcDbSpline
 62
250
  6
CONTINUOUS
 70
0
 71
3
 72
9
 73
5
 74
0
 42
0.0000001
 43
0.0000001
 44
0.0000000001
 40
0.0
 40
0.0
 40
0.0
 40
0.0
 40
0.5420049729
 40
1.0
 40
1.0
 40
1.0
 40
1.0
 10
22.4495421686
 20
-14.0858310617
 30
0.0
 10
22.4027655933
 20
-14.060560067
 30
0.0
 10
22.3209038917
 20
-14.0041728016
 30
0.0
 10
22.2616258741
 20
-13.9220130257
 30
0.0
 10
22.2451832509
 20
-13.8802043986
 30
0.0
  0
SPLINE
  5
5F6
100
AcDbEntity
  8
ASSI
100
AcDbSpline
 62
7
  6
CONTINUOUS
 70
0
 71
3
 72
9
 73
5
 74
0
 42
0.0000001
 43
0.0000001
 44
0.0000000001
 40
0.0
 40
0.0
 40
0.0
 40
0.0
 40
0.2589996183
 40
1.0
 40
1.0
 40
1.0
 40
1.0
 10
22.5637311904
 20
-31.4018339786
 30
0.0
 10
22.564023894
 20
-31.4143661084
 30
0.0
 10
22.5642493951
 20
-31.4627640876
 30
0.0
 10
22.560754332
 20
-31.5112225371
 30
0.0
 10
22.5555819351
 20
-31.5467119135
 30
0.0
  0
SPLINE
  5
5F7
100
AcDbEntity
  8
ASSI
100
AcDbSpline
 62
7
  6
CONTINUOUS
 70
0
 71
3
 72
11
 73
7
 74
0
 42
0.0000001
 43
0.0000001
 44
0.0000000001
 40
0.0
 40
0.0
 40
0.0
 40
0.0
 40
0.276186753
 40
0.5291247935
 40
0.7665118995
 40
1.0
 40
1.0
 40
1.0
 40
1.0
 10
22.5500005135
 20
-31.5796054092
 30
0.0
 10
22.5424875737
 20
-31.6182567224
 30
0.0
 10
22.5216603842
 20
-31.6913322026
 30
0.0
 10
22.4694522826
 20
-31.7885057668
 30
0.0
 10
22.3978184808
 20
-31.8645509571
 30
0.0
 10
22.339094182
 20
-31.8991092404
 30
0.0
 10
22.3084308197
 20
-31.9120632554
 30
0.0
  0
SPLINE
  5
5F8
100
AcDbEntity
  8
ASSI
100
AcDbSpline
 62
250
  6
CONTINUOUS
 70
0
 71
3
 72
9
 73
5
 74
0
 42
0.0000001
 43
0.0000001
 44
0.0000000001
 40
0.0
 40
0.0
 40
0.0
 40
0.0
 40
0.2683396535
 40
1.0
 40
1.0
 40
1.0
 40
1.0
 10
22.7682926642
 20
-31.6156605127
 30
0.0
 10
22.7526422244
 20
-31.6069922419
 30
0.0
 10
22.6956989834
 20
-31.5724045485
 30
0.0
 10
22.644219894
 20
-31.5277652815
 30
0.0
 10
22.6140076962
 20
-31.4894663427
 30
0.0
  0
SPLINE
  5
5F9
100
AcDbEntity
  8
ASSI
100
AcDbSpline
 62
250
  6
CONTINUOUS
 70
0
 71
3
 72
9
 73
5
 74
0
 42
0.0000001
 43
0.0000001
 44
0.0000000001
 40
0.0
 40
0.0
 40
0.0
 40
0.0
 40
0.2585380066
 40
1.0
 40
1.0
 40
1.0
 40
1.0
 10
22.607767822
 20
-31.4813310814
 30
0.0
 10
22.6030786815
 20
-31.475040313
 30
0.0
 10
22.5857224941
 20
-31.4501441481
 30
0.0
 10
22.5716441327
 20
-31.4228987156
 30
0.0
 10
22.5637311904
 20
-31.4018339786
 30
0.0
  0
SPLINE
  5
5FA
100
AcDbEntity
  8
ASSI
100
AcDbSpline
 62
7
  6
CONTINUOUS
 70
0
 71
3
 72
11
 73
7
 74
0
 42
0.0000001
 43
0.0000001
 44
0.0000000001
 40
0.0
 40
0.0
 40
0.0
 40
0.0
 40
0.2160083257
 40
0.4510725071
 40
0.7115921506
 40
1.0
 40
1.0
 40
1.0
 40
1.0
 10
22.308430904
 20
-31.9120621828
 30
0.0
 10
22.2735156874
 20
-31.926801825
 30
0.0
 10
22.195288104
 20
-31.9455664938
 30
0.0
 10
22.0693596083
 20
-31.9425066269
 30
0.0
 10
21.9351695487
 20
-31.9088204498
 30
0.0
 10
21.8462345156
 20
-31.8705763565
 30
0.0
 10
21.8017061412
 20
-31.8465401698
 30
0.0
  0
SPLINE
  5
5FB
100
AcDbEntity
  8
ASSI
100
AcDbSpline
 62
250
  6
CONTINUOUS
 70
0
 71
3
 72
9
 73
5
 74
0
 42
0.0000001
 43
0.0000001
 44
0.0000000001
 40
0.0
 40
0.0
 40
0.0
 40
0.0
 40
0.5042477242
 40
1.0
 40
1.0
 40
1.0
 40
1.0
 10
22.426597278
 20
-32.3167402989
 30
0.0
 10
22.3900835988
 20
-32.2553379313
 30
0.0
 10
22.3327874117
 20
-32.1239552935
 30
0.0
 10
22.3100481451
 20
-31.9822787586
 30
0.0
 10
22.308430904
 20
-31.9120621828
 30
0.0
  0
LINE
  5
5FC
100
AcDbEntity
  8
ASSI
100
AcDbLine
 62
7
  6
CONTINUOUS
 10
21.801160375
 20
-31.8462526405
 11
21.4170647219
 21
-31.63870876
  0
LINE
  5
5FD
100
AcDbEntity
  8
ASSI
100
AcDbLine
 62
7
  6
CONTINUOUS
 10
-5.8985782842
 20
-19.0182640462
 11
-5.4518816403
 21
-19.2787316204
  0
SPLINE
  5
5FE
100
AcDbEntity
  8
ASSI
100
AcDbSpline
 62
250
  6
CONTINUOUS
 70
0
 71
3
 72
9
 73
5
 74
0
 42
0.0000001
 43
0.0000001
 44
0.0000000001
 40
0.0
 40
0.0
 40
0.0
 40
0.0
 40
0.4751717111
 40
1.0
 40
1.0
 40
1.0
 40
1.0
 10
21.7338454286
 20
-32.2474509079
 30
0.0
 10
21.7288788619
 20
-32.1828566655
 30
0.0
 10
21.7383299843
 20
-32.0452689509
 30
0.0
 10
21.7759805353
 20
-31.9133176612
 30
0.0
 10
21.8017039211
 20
-31.8465461403
 30
0.0
  0
SPLINE
  5
5FF
100
AcDbEntity
  8
ASSI
100
AcDbSpline
 62
250
  6
CONTINUOUS
 70
0
 71
3
 72
9
 73
5
 74
0
 42
0.0000001
 43
0.0000001
 44
0.0000000001
 40
0.0
 40
0.0
 40
0.0
 40
0.0
 40
0.4738205392
 40
1.0
 40
1.0
 40
1.0
 40
1.0
 10
10.4581636993
 20
-26.4322133013
 30
0.0
 10
10.4541200045
 20
-26.3657611661
 30
0.0
 10
10.4671894729
 20
-26.2240957513
 30
0.0
 10
10.5100662892
 20
-26.0892966596
 30
0.0
 10
10.5388559359
 20
-26.0212005976
 30
0.0
  0
LINE
  5
600
100
AcDbEntity
  8
ASSI
100
AcDbLine
 62
7
  6
CONTINUOUS
 10
-4.6887701335
 20
-19.7229749431
 11
-4.2771819137
 21
-19.9622011373
  0
LINE
  5
601
100
AcDbEntity
  8
ASSI
100
AcDbLine
 62
7
  6
CONTINUOUS
 10
-4.7690634635
 20
-21.7972388374
 11
-4.7473732594
 21
-21.7137874651
  0
SPLINE
  5
602
100
AcDbEntity
  8
ASSI
100
AcDbSpline
 62
250
  6
CONTINUOUS
 70
0
 71
3
 72
9
 73
5
 74
0
 42
0.0000001
 43
0.0000001
 44
0.0000000001
 40
0.0
 40
0.0
 40
0.0
 40
0.0
 40
0.543870863
 40
1.0
 40
1.0
 40
1.0
 40
1.0
 10
-21.8238356747
 20
5.5219394588
 30
0.0
 10
-21.7891187549
 20
5.5405847268
 30
0.0
 10
-21.720251455
 20
5.567451034
 30
0.0
 10
-21.6444572463
 20
5.5636272336
 30
0.0
 10
-21.6133585549
 20
5.5524405187
 30
0.0
  0
SPLINE
  5
603
100
AcDbEntity
  8
ASSI
100
AcDbSpline
 62
250
  6
CONTINUOUS
 70
0
 71
3
 72
9
 73
5
 74
0
 42
0.0000001
 43
0.0000001
 44
0.0000000001
 40
0.0
 40
0.0
 40
0.0
 40
0.0
 40
0.4714078611
 40
1.0
 40
1.0
 40
1.0
 40
1.0
 10
-14.2569247252
 20
-12.1620301382
 30
0.0
 10
-14.2584760205
 20
-12.0967084186
 30
0.0
 10
-14.2396216675
 20
-11.9575437987
 30
0.0
 10
-14.1913376759
 20
-11.8266333711
 30
0.0
 10
-14.1598386542
 20
-11.7604838887
 30
0.0
  0
LINE
  5
604
100
AcDbEntity
  8
ASSI
100
AcDbLine
 62
7
  6
CONTINUOUS
 10
-24.5648096539
 20
-5.0893507837
 11
-24.9385978412
 21
-4.8593020339
  0
SPLINE
  5
605
100
AcDbEntity
  8
ASSI
100
AcDbSpline
 62
7
  6
CONTINUOUS
 70
0
 71
3
 72
11
 73
7
 74
0
 42
0.0000001
 43
0.0000001
 44
0.0000000001
 40
0.0
 40
0.0
 40
0.0
 40
0.0
 40
0.229332081
 40
0.4753987638
 40
0.7339644125
 40
1.0
 40
1.0
 40
1.0
 40
1.0
 10
-24.9391253058
 20
-4.8589739748
 30
0.0
 10
-24.9865768266
 20
-4.829736668
 30
0.0
 10
-25.0794319749
 20
-4.760263981
 30
0.0
 10
-25.2107412577
 20
-4.6391520647
 30
0.0
 10
-25.3340420045
 20
-4.4977345271
 30
0.0
 10
-25.4090707276
 20
-4.3943989769
 30
0.0
 10
-25.4443839604
 20
-4.3402384424
 30
0.0
  0
SPLINE
  5
606
100
AcDbEntity
  8
ASSI
100
AcDbSpline
 62
250
  6
CONTINUOUS
 70
0
 71
3
 72
9
 73
5
 74
0
 42
0.0000001
 43
0.0000001
 44
0.0000000001
 40
0.0
 40
0.0
 40
0.0
 40
0.0
 40
0.4707390502
 40
1.0
 40
1.0
 40
1.0
 40
1.0
 10
-25.0369384432
 20
-5.2425863399
 30
0.0
 10
-25.0373466966
 20
-5.1800776381
 30
0.0
 10
-25.0173693718
 20
-5.0470864056
 30
0.0
 10
-24.9698205968
 20
-4.9221977891
 30
0.0
 10
-24.9391253058
 20
-4.8589739748
 30
0.0
  0
LINE
  5
607
100
AcDbEntity
  8
ASSI
100
AcDbLine
 62
7
  6
CONTINUOUS
 10
-25.7449541276
 20
-3.51267354
 11
-25.7452147362
 21
-3.5085895183
  0
SPLINE
  5
608
100
AcDbEntity
  8
ASSI
100
AcDbSpline
 62
250
  6
CONTINUOUS
 70
0
 71
3
 72
11
 73
7
 74
0
 42
0.0000001
 43
0.0000001
 44
0.0000000001
 40
0.0
 40
0.0
 40
0.0
 40
0.0
 40
0.2446843875
 40
0.4897770532
 40
0.7402071624
 40
1.0
 40
1.0
 40
1.0
 40
1.0
 10
-29.1114471075
 20
55.6773630145
 30
0.0
 10
-28.9873614567
 20
55.7059820283
 30
0.0
 10
-28.7339626478
 20
55.7437400226
 30
0.0
 10
-28.347135612
 20
55.7378323067
 30
0.0
 10
-27.9585507049
 20
55.6684595354
 30
0.0
 10
-27.7066569639
 20
55.5804578792
 30
0.0
 10
-27.5827391817
 20
55.5263735727
 30
0.0
  0
SPLINE
  5
609
100
AcDbEntity
  8
ASSI
100
AcDbSpline
 62
7
  6
CONTINUOUS
 70
0
 71
3
 72
11
 73
7
 74
0
 42
0.0000001
 43
0.0000001
 44
0.0000000001
 40
0.0
 40
0.0
 40
0.0
 40
0.0
 40
0.5259299752
 40
0.6515675332
 40
0.7729440468
 40
1.0
 40
1.0
 40
1.0
 40
1.0
 10
-25.4443846961
 20
-4.3402389182
 30
0.0
 10
-25.5294314963
 20
-4.2097508699
 30
0.0
 10
-25.6181065305
 20
-4.0357352326
 30
0.0
 10
-25.6901895992
 20
-3.8183721415
 30
0.0
 10
-25.724903437
 20
-3.6822746938
 30
0.0
 10
-25.7407862902
 20
-3.5797878842
 30
0.0
 10
-25.7449541276
 20
-3.51267354
 30
0.0
  0
SPLINE
  5
60A
100
AcDbEntity
  8
ASSI
100
AcDbSpline
 62
250
  6
CONTINUOUS
 70
0
 71
3
 72
9
 73
5
 74
0
 42
0.0000001
 43
0.0000001
 44
0.0000000001
 40
0.0
 40
0.0
 40
0.0
 40
0.0
 40
0.4346283621
 40
1.0
 40
1.0
 40
1.0
 40
1.0
 10
-25.7117501033
 20
-4.5222622268
 30
0.0
 10
-25.673867897
 20
-4.4946753557
 30
0.0
 10
-25.5852019786
 20
-4.433285479
 30
0.0
 10
-25.495394407
 20
-4.3736166879
 30
0.0
 10
-25.4443846961
 20
-4.3402389182
 30
0.0
  0
SPLINE
  5
60B
100
AcDbEntity
  8
ASSI
100
AcDbSpline
 62
7
  6
CONTINUOUS
 70
0
 71
3
 72
9
 73
5
 74
0
 42
0.0000001
 43
0.0000001
 44
0.0000000001
 40
0.0
 40
0.0
 40
0.0
 40
0.0
 40
0.4677382741
 40
1.0
 40
1.0
 40
1.0
 40
1.0
 10
1.3063206107
 20
-23.9712505213
 30
0.0
 10
1.2779929985
 20
-23.9696741703
 30
0.0
 10
1.2185355193
 20
-23.9528828842
 30
0.0
 10
1.1640010664
 20
-23.9263760829
 30
0.0
 10
1.1356988119
 20
-23.9108416865
 30
0.0
  0
SPLINE
  5
60C
100
AcDbEntity
  8
ASSI
100
AcDbSpline
 62
7
  6
CONTINUOUS
 70
0
 71
3
 72
11
 73
7
 74
0
 42
0.0000001
 43
0.0000001
 44
0.0000000001
 40
0.0
 40
0.0
 40
0.0
 40
0.0
 40
0.2058229103
 40
0.4434150446
 40
0.7107810277
 40
1.0
 40
1.0
 40
1.0
 40
1.0
 10
1.2624533093
 20
-24.0200535629
 30
0.0
 10
1.2478014867
 20
-24.02845735
 30
0.0
 10
1.2105108402
 20
-24.0364858112
 30
0.0
 10
1.1525029678
 20
-24.0264988545
 30
0.0
 10
1.0910647441
 20
-24.0041880479
 30
0.0
 10
1.0501724052
 20
-23.9836572288
 30
0.0
 10
1.0293658033
 20
-23.9722370307
 30
0.0
  0
SPLINE
  5
60D
100
AcDbEntity
  8
ASSI
100
AcDbSpline
 62
7
  6
CONTINUOUS
 70
0
 71
3
 72
18
 73
14
 74
0
 42
0.0000001
 43
0.0000001
 44
0.0000000001
 40
0.0
 40
0.0
 40
0.0
 40
0.0
 40
0.0411760064
 40
0.0837392859
 40
0.1290703631
 40
0.1779303177
 40
0.2872914569
 40
0.4114144922
 40
0.548891551
 40
0.6971507191
 40
0.8499745078
 40
0.9259538036
 40
1.0
 40
1.0
 40
1.0
 40
1.0
 10
1.6963099546
 20
-24.3095206558
 30
0.0
 10
1.7111547125
 20
-24.3009389253
 30
0.0
 10
1.7395962212
 20
-24.2799980367
 30
0.0
 10
1.7730676038
 20
-24.2372682524
 30
0.0
 10
1.798389544
 20
-24.1859136565
 30
0.0
 10
1.8225115368
 20
-24.10428777
 30
0.0
 10
1.8305639245
 20
-23.9857733475
 30
0.0
 10
1.813359084
 20
-23.8317322398
 30
0.0
 10
1.7681442908
 20
-23.6663802106
 30
0.0
 10
1.6930450493
 20
-23.4992017037
 30
0.0
 10
1.6092853444
 20
-23.3657532051
 30
0.0
 10
1.5316533406
 20
-23.2662893333
 30
0.0
 10
1.489343984
 20
-23.2201255102
 30
0.0
 10
1.4670128622
 20
-23.1988626652
 30
0.0
  0
SPLINE
  5
60E
100
AcDbEntity
  8
ASSI
100
AcDbSpline
 62
7
  6
CONTINUOUS
 70
0
 71
3
 72
8
 73
4
 74
0
 42
0.0000001
 43
0.0000001
 44
0.0000000001
 40
0.0
 40
0.0
 40
0.0
 40
0.0
 40
1.0
 40
1.0
 40
1.0
 40
1.0
 10
1.5899703284
 20
-24.3709172821
 30
0.0
 10
1.5964797585
 20
-24.3671595197
 30
0.0
 10
1.6028310706
 20
-24.3631046417
 30
0.0
 10
1.608929922
 20
-24.3587117532
 30
0.0
  0
SPLINE
  5
60F
100
AcDbEntity
  8
ASSI
100
AcDbSpline
 62
7
  6
CONTINUOUS
 70
0
 71
3
 72
17
 73
13
 74
0
 42
0.0000001
 43
0.0000001
 44
0.0000000001
 40
0.0
 40
0.0
 40
0.0
 40
0.0
 40
0.0411518288
 40
0.0842965648
 40
0.1798588006
 40
0.2905642016
 40
0.4151984427
 40
0.5526055381
 40
0.7000171685
 40
0.8514651849
 40
0.9266832761
 40
1.0
 40
1.0
 40
1.0
 40
1.0
 10
1.608929922
 20
-24.3587117532
 30
0.0
 10
1.6225822233
 20
-24.3488782564
 30
0.0
 10
1.6479906468
 20
-24.3249495481
 30
0.0
 10
1.6883419448
 20
-24.262871323
 30
0.0
 10
1.7182613866
 20
-24.1633867636
 30
0.0
 10
1.7231036539
 20
-24.0273862001
 30
0.0
 10
1.7034479385
 20
-23.8756606394
 30
0.0
 10
1.6565709047
 20
-23.7142587295
 30
0.0
 10
1.5817227273
 20
-23.551706307
 30
0.0
 10
1.4994110856
 20
-23.4222134696
 30
0.0
 10
1.4236499362
 20
-23.3256904159
 30
0.0
 10
1.382443093
 20
-23.2808973301
 30
0.0
 10
1.3607344744
 20
-23.2602264682
 30
0.0
  0
SPLINE
  5
610
100
AcDbEntity
  8
ASSI
100
AcDbSpline
 62
250
  6
CONTINUOUS
 70
0
 71
3
 72
9
 73
5
 74
0
 42
0.0000001
 43
0.0000001
 44
0.0000000001
 40
0.0
 40
0.0
 40
0.0
 40
0.0
 40
0.4952019336
 40
1.0
 40
1.0
 40
1.0
 40
1.0
 10
-28.7891676696
 20
55.5307828957
 30
0.0
 10
-28.5950432436
 20
55.5767079309
 30
0.0
 10
-28.18959599
 20
55.62049083
 30
0.0
 10
-27.786546222
 20
55.5582343106
 30
0.0
 10
-27.5908898469
 20
55.5028341458
 30
0.0
  0
SPLINE
  5
611
100
AcDbEntity
  8
ASSI
100
AcDbSpline
 62
250
  6
CONTINUOUS
 70
0
 71
3
 72
11
 73
7
 74
0
 42
0.0000001
 43
0.0000001
 44
0.0000000001
 40
0.0
 40
0.0
 40
0.0
 40
0.0
 40
0.2464696535
 40
0.4902377904
 40
0.7392218023
 40
1.0
 40
1.0
 40
1.0
 40
1.0
 10
-25.6065398679
 20
54.0062410794
 30
0.0
 10
-25.4772873035
 20
54.0415548938
 30
0.0
 10
-25.2136872731
 20
54.0905514031
 30
0.0
 10
-24.8096187277
 20
54.0913105898
 30
0.0
 10
-24.4045827029
 20
54.0161574076
 30
0.0
 10
-24.1446462596
 20
53.9146478162
 30
0.0
 10
-24.0177931604
 20
53.8513500328
 30
0.0
  0
SPLINE
  5
612
100
AcDbEntity
  8
ASSI
100
AcDbSpline
 62
250
  6
CONTINUOUS
 70
0
 71
3
 72
9
 73
5
 74
0
 42
0.0000001
 43
0.0000001
 44
0.0000000001
 40
0.0
 40
0.0
 40
0.0
 40
0.0
 40
0.4746751078
 40
1.0
 40
1.0
 40
1.0
 40
1.0
 10
-26.1012616847
 20
-3.394965541
 30
0.0
 10
-26.0506280429
 20
-3.4261838137
 30
0.0
 10
-25.9342976316
 20
-3.4765232019
 30
0.0
 10
-25.8106478525
 20
-3.5013496606
 30
0.0
 10
-25.7452160408
 20
-3.5085900475
 30
0.0
  0
SPLINE
  5
613
100
AcDbEntity
  8
ASSI
100
AcDbSpline
 62
250
  6
CONTINUOUS
 70
0
 71
3
 72
11
 73
7
 74
0
 42
0.0000001
 43
0.0000001
 44
0.0000000001
 40
0.0
 40
0.0
 40
0.0
 40
0.0
 40
0.2501664883
 40
0.496488726
 40
0.7448445664
 40
1.0
 40
1.0
 40
1.0
 40
1.0
 10
-25.3251890121
 20
53.861477055
 30
0.0
 10
-25.219125123
 20
53.8908841808
 30
0.0
 10
-25.0043106524
 20
53.935052272
 30
0.0
 10
-24.6759236818
 20
53.9532298454
 30
0.0
 10
-24.3462958491
 20
53.9217064051
 30
0.0
 10
-24.13063318
 20
53.8666709212
 30
0.0
 10
-24.0242766871
 20
53.8307456944
 30
0.0
  0
SPLINE
  5
614
100
AcDbEntity
  8
ASSI
100
AcDbSpline
 62
250
  6
CONTINUOUS
 70
0
 71
3
 72
11
 73
7
 74
0
 42
0.0000001
 43
0.0000001
 44
0.0000000001
 40
0.0
 40
0.0
 40
0.0
 40
0.0
 40
0.2211989202
 40
0.4559650057
 40
0.7141262669
 40
1.0
 40
1.0
 40
1.0
 40
1.0
 10
-22.0727451395
 20
5.5473194723
 30
0.0
 10
-22.0558123005
 20
5.5564144209
 30
0.0
 10
-22.0175489337
 20
5.5694288874
 30
0.0
 10
-21.954718371
 20
5.5707057586
 30
0.0
 10
-21.888344335
 20
5.554758555
 30
0.0
 10
-21.8453479493
 20
5.5343603765
 30
0.0
 10
-21.8238356747
 20
5.5219394588
 30
0.0
  0
SPLINE
  5
615
100
AcDbEntity
  8
ASSI
100
AcDbSpline
 62
250
  6
CONTINUOUS
 70
0
 71
3
 72
11
 73
7
 74
0
 42
0.0000001
 43
0.0000001
 44
0.0000000001
 40
0.0
 40
0.0
 40
0.0
 40
0.0
 40
0.2385057859
 40
0.5026634536
 40
0.7653757922
 40
1.0
 40
1.0
 40
1.0
 40
1.0
 10
-24.6695585981
 20
-4.538547241
 30
0.0
 10
-24.7620634716
 20
-4.4851366355
 30
0.0
 10
-24.9380579254
 20
-4.3395161806
 30
0.0
 10
-25.147861512
 20
-4.0655585486
 30
0.0
 10
-25.2963383555
 20
-3.7560056794
 30
0.0
 10
-25.344866956
 20
-3.5350201986
 30
0.0
 10
-25.3491348663
 20
-3.430028433
 30
0.0
  0
SPLINE
  5
616
100
AcDbEntity
  8
ASSI
100
AcDbSpline
 62
250
  6
CONTINUOUS
 70
0
 71
3
 72
11
 73
7
 74
0
 42
0.0000001
 43
0.0000001
 44
0.0000000001
 40
0.0
 40
0.0
 40
0.0
 40
0.0
 40
0.2873329602
 40
0.5459584767
 40
0.7800353479
 40
1.0
 40
1.0
 40
1.0
 40
1.0
 10
-25.3491348829
 20
32.0047633192
 30
0.0
 10
-25.3472056099
 20
32.0542615921
 30
0.0
 10
-25.3357471874
 20
32.1483592509
 30
0.0
 10
-25.2910357909
 20
32.2765126738
 30
0.0
 10
-25.2205667591
 20
32.379247946
 30
0.0
 10
-25.1566113614
 20
32.4273516119
 30
0.0
 10
-25.1228227975
 20
32.4445674142
 30
0.0
  0
SPLINE
  5
617
100
AcDbEntity
  8
ASSI
100
AcDbSpline
 62
250
  6
CONTINUOUS
 70
0
 71
3
 72
11
 73
7
 74
0
 42
0.0000001
 43
0.0000001
 44
0.0000000001
 40
0.0
 40
0.0
 40
0.0
 40
0.0
 40
0.2372415598
 40
0.4833223161
 40
0.737752625
 40
1.0
 40
1.0
 40
1.0
 40
1.0
 10
41.7746198277
 20
-42.8281252553
 30
0.0
 10
41.9254062167
 20
-39.7628863695
 30
0.0
 10
42.1486713286
 20
-33.5138362185
 30
0.0
 10
42.2558824872
 20
-23.9700654494
 30
0.0
 10
42.1412665102
 20
-14.1029378122
 30
0.0
 10
41.9204338521
 20
-7.4223072484
 30
0.0
 10
41.7746198277
 20
-4.0330229697
 30
0.0
  0
SPLINE
  5
618
100
AcDbEntity
  8
ASSI
100
AcDbSpline
 62
250
  6
CONTINUOUS
 70
0
 71
3
 72
14
 73
10
 74
0
 42
0.0000001
 43
0.0000001
 44
0.0000000001
 40
0.0
 40
0.0
 40
0.0
 40
0.0
 40
0.2738804918
 40
0.4026571343
 40
0.5268305659
 40
0.6474054595
 40
0.7655718906
 40
0.8826469344
 40
1.0
 40
1.0
 40
1.0
 40
1.0
 10
-30.981704261
 20
54.7211919626
 30
0.0
 10
-31.6300641889
 20
55.0314470722
 30
0.0
 10
-32.6323145873
 20
55.3997655385
 30
0.0
 10
-33.9969091094
 20
55.6387893378
 30
0.0
 10
-34.9789663508
 20
55.6854706081
 30
0.0
 10
-35.9307738249
 20
55.6026491494
 30
0.0
 10
-36.8436621534
 20
55.3913335978
 30
0.0
 10
-37.7086411689
 20
55.0539427319
 30
0.0
 10
-38.2456227511
 20
54.7485838263
 30
0.0
 10
-38.5019245035
 20
54.5778174506
 30
0.0
  0
SPLINE
  5
619
100
AcDbEntity
  8
ASSI
100
AcDbSpline
 62
250
  6
CONTINUOUS
 70
0
 71
3
 72
15
 73
11
 74
0
 42
0.0000001
 43
0.0000001
 44
0.0000000001
 40
0.0
 40
0.0
 40
0.0
 40
0.0
 40
0.1203800508
 40
0.2459607793
 40
0.374844142
 40
0.5049972422
 40
0.634382371
 40
0.7610765952
 40
0.8833917207
 40
1.0
 40
1.0
 40
1.0
 40
1.0
 10
41.5220168323
 20
0.7483338249
 30
0.0
 10
41.4604315869
 20
1.584602865
 30
0.0
 10
41.2311670075
 20
3.2868421293
 30
0.0
 10
40.6064514018
 20
5.8266074369
 30
0.0
 10
39.7031906282
 20
8.3538285556
 30
0.0
 10
38.5382977878
 20
10.80102392
 30
0.0
 10
37.1347842322
 20
13.1021748836
 30
0.0
 10
35.5218478491
 20
15.1941124721
 30
0.0
 10
33.735951758
 20
17.0182656185
 30
0.0
 10
32.4219334142
 20
18.0499625798
 30
0.0
 10
31.7472620022
 20
18.5022740364
 30
0.0
  0
SPLINE
  5
61A
100
AcDbEntity
  8
ASSI
100
AcDbSpline
 62
250
  6
CONTINUOUS
 70
0
 71
3
 72
9
 73
5
 74
0
 42
0.0000001
 43
0.0000001
 44
0.0000000001
 40
0.0
 40
0.0
 40
0.0
 40
0.0
 40
0.2506876302
 40
1.0
 40
1.0
 40
1.0
 40
1.0
 10
28.1076559083
 20
20.8423812496
 30
0.0
 10
27.7808889703
 20
21.0436804431
 30
0.0
 10
26.4773866387
 20
21.846636382
 30
0.0
 10
25.1738000617
 20
22.6494555619
 30
0.0
 10
24.1969511674
 20
23.2509280099
 30
0.0
  0
SPLINE
  5
61B
100
AcDbEntity
  8
ASSI
100
AcDbSpline
 62
250
  6
CONTINUOUS
 70
0
 71
3
 72
9
 73
5
 74
0
 42
0.0000001
 43
0.0000001
 44
0.0000000001
 40
0.0
 40
0.0
 40
0.0
 40
0.0
 40
0.2508915092
 40
1.0
 40
1.0
 40
1.0
 40
1.0
 10
-23.8474951453
 20
50.9911891726
 30
0.0
 10
-24.1577350901
 20
51.1578829941
 30
0.0
 10
-25.3943499254
 20
51.822168675
 30
0.0
 10
-26.6312207371
 20
52.4859778308
 30
0.0
 10
-27.5579110757
 20
52.9829819557
 30
0.0
  0
LINE
  5
61C
100
AcDbEntity
  8
0
100
AcDbLine
 62
250
  6
CONTINUOUS
 10
-7.2582190163
 20
25.8876356085
 11
-7.3534848333
 21
25.8391190315
  0
LINE
  5
61D
100
AcDbEntity
  8
0
100
AcDbLine
 62
250
  6
CONTINUOUS
 10
-7.1970104394
 20
26.0084250704
 11
-7.2582190163
 21
25.8876356085
  0
LINE
  5
61E
100
AcDbEntity
  8
0
100
AcDbLine
 62
250
  6
CONTINUOUS
 10
-7.1765662231
 20
26.1532702705
 11
-7.1970104394
 21
26.0084250704
  0
LINE
  5
61F
100
AcDbEntity
  8
0
100
AcDbLine
 62
250
  6
CONTINUOUS
 10
-7.1968890647
 20
26.3221672021
 11
-7.1765662231
 21
26.1532702705
  0
LINE
  5
620
100
AcDbEntity
  8
0
100
AcDbLine
 62
250
  6
CONTINUOUS
 10
-7.2649017145
 20
26.4667734003
 11
-7.1968890647
 21
26.3221672021
  0
LINE
  5
621
100
AcDbEntity
  8
0
100
AcDbLine
 62
250
  6
CONTINUOUS
 10
-7.380689914
 20
26.5870385425
 11
-7.2649017145
 21
26.4667734003
  0
LINE
  5
622
100
AcDbEntity
  8
0
100
AcDbLine
 62
250
  6
CONTINUOUS
 10
-7.168975798
 20
25.5746565889
 11
-7.3459091073
 21
25.5741672814
  0
LINE
  5
623
100
AcDbEntity
  8
0
100
AcDbLine
 62
250
  6
CONTINUOUS
 10
-7.0194434168
 20
25.6956074079
 11
-7.168975798
 21
25.5746565889
  0
LINE
  5
624
100
AcDbEntity
  8
0
100
AcDbLine
 62
250
  6
CONTINUOUS
 10
-6.958266943
 20
25.8163791504
 11
-7.0194434168
 21
25.6956074079
  0
LINE
  5
625
100
AcDbEntity
  8
0
100
AcDbLine
 62
250
  6
CONTINUOUS
 10
-2.7750412932
 20
21.7203743326
 11
-2.7371164688
 21
22.0083519497
  0
LINE
  5
626
100
AcDbEntity
  8
0
100
AcDbLine
 62
250
  6
CONTINUOUS
 10
-6.9310357871
 20
26.0094892164
 11
-6.958266943
 21
25.8163791504
  0
LINE
  5
627
100
AcDbEntity
  8
0
100
AcDbLine
 62
250
  6
CONTINUOUS
 10
-6.9513686625
 20
26.1783803547
 11
-6.9310357871
 21
26.0094892164
  0
LINE
  5
628
100
AcDbEntity
  8
0
100
AcDbLine
 62
250
  6
CONTINUOUS
 10
-7.046451758
 20
26.4436421469
 11
-6.9513686625
 21
26.1783803547
  0
LINE
  5
629
100
AcDbEntity
  8
0
100
AcDbLine
 62
250
  6
CONTINUOUS
 10
-7.1891800381
 20
26.6846365211
 11
-7.046451758
 21
26.4436421469
  0
LINE
  5
62A
100
AcDbEntity
  8
0
100
AcDbLine
 62
250
  6
CONTINUOUS
 10
-7.386702824
 20
26.8528918265
 11
-7.1891800381
 21
26.6846365211
  0
LINE
  5
62B
100
AcDbEntity
  8
0
100
AcDbLine
 62
250
  6
CONTINUOUS
 10
-8.7361483775
 20
27.3305742534
 11
-8.6943711734
 21
27.6207770028
  0
LINE
  5
62C
100
AcDbEntity
  8
0
100
AcDbLine
 62
250
  6
CONTINUOUS
 10
-9.0278166597
 20
26.5099461358
 11
-8.9879166115
 21
26.7990642224
  0
LINE
  5
62D
100
AcDbEntity
  8
0
100
AcDbLine
 62
250
  6
CONTINUOUS
 10
-9.0058063176
 20
25.3566612191
 11
-8.9680665071
 21
25.6445320114
  0
LINE
  5
62E
100
AcDbEntity
  8
0
100
AcDbLine
 62
250
  6
CONTINUOUS
 10
-12.0346150747
 20
29.5946351404
 11
-12.0693882409
 21
29.3528234234
  0
LINE
  5
62F
100
AcDbEntity
  8
0
100
AcDbLine
 62
250
  6
CONTINUOUS
 10
-10.5234147987
 20
28.4369861871
 11
-10.488603374
 21
28.678819994
  0
LINE
  5
630
100
AcDbEntity
  8
0
100
AcDbLine
 62
250
  6
CONTINUOUS
 10
-13.8929447627
 20
28.8731688636
 11
-13.9077041674
 21
29.0896242261
  0
LINE
  5
631
100
AcDbEntity
  8
0
100
AcDbLine
 62
250
  6
CONTINUOUS
 10
-13.8310200489
 20
28.6807005789
 11
-13.8929447627
 21
28.8731688636
  0
LINE
  5
632
100
AcDbEntity
  8
0
100
AcDbLine
 62
250
  6
CONTINUOUS
 10
-13.7220652743
 20
28.5121420977
 11
-13.8310200489
 21
28.6807005789
  0
LINE
  5
633
100
AcDbEntity
  8
0
100
AcDbLine
 62
250
  6
CONTINUOUS
 10
-13.5661583545
 20
28.3674500655
 11
-13.7220652743
 21
28.5121420977
  0
LINE
  5
634
100
AcDbEntity
  8
0
100
AcDbLine
 62
250
  6
CONTINUOUS
 10
-13.0323289328
 20
28.1013380344
 11
-13.2010057148
 21
28.1499645639
  0
LINE
  5
635
100
AcDbEntity
  8
0
100
AcDbLine
 62
250
  6
CONTINUOUS
 10
-12.8978376805
 20
28.1249119499
 11
-13.0323289328
 21
28.1013380344
  0
LINE
  5
636
100
AcDbEntity
  8
0
100
AcDbLine
 62
250
  6
CONTINUOUS
 10
-12.8380567396
 20
28.2448779291
 11
-12.8978376805
 21
28.1249119499
  0
LINE
  5
637
100
AcDbEntity
  8
0
100
AcDbLine
 62
250
  6
CONTINUOUS
 10
-12.6669077355
 20
27.8840075946
 11
-12.5944019017
 21
28.1000139282
  0
LINE
  5
638
100
AcDbEntity
  8
0
100
AcDbLine
 62
250
  6
CONTINUOUS
 10
-12.8545538237
 20
27.7886405186
 11
-12.6669077355
 21
27.8840075946
  0
LINE
  5
639
100
AcDbEntity
  8
0
100
AcDbLine
 62
250
  6
CONTINUOUS
 10
-13.0294533839
 20
27.7893262888
 11
-12.8545538237
 21
27.7886405186
  0
LINE
  5
63A
100
AcDbEntity
  8
0
100
AcDbLine
 62
250
  6
CONTINUOUS
 10
-13.2386188629
 20
27.8621660883
 11
-13.0294533839
 21
27.7893262888
  0
LINE
  5
63B
100
AcDbEntity
  8
0
100
AcDbLine
 62
250
  6
CONTINUOUS
 10
-13.8003125834
 20
28.2484737195
 11
-13.6037613212
 21
28.0796582851
  0
LINE
  5
63C
100
AcDbEntity
  8
0
100
AcDbLine
 62
250
  6
CONTINUOUS
 10
-13.94999612
 20
28.4411068602
 11
-13.8003125834
 21
28.2484737195
  0
LINE
  5
63D
100
AcDbEntity
  8
0
100
AcDbLine
 62
250
  6
CONTINUOUS
 10
-14.0869529727
 20
28.729780573
 11
-13.94999612
 21
28.4411068602
  0
LINE
  5
63E
100
AcDbEntity
  8
0
100
AcDbLine
 62
250
  6
CONTINUOUS
 10
-14.1425641701
 20
28.9702411916
 11
-14.0869529727
 21
28.729780573
  0
LINE
  5
63F
100
AcDbEntity
  8
0
100
AcDbLine
 62
250
  6
CONTINUOUS
 10
-14.1509124007
 20
29.2347460909
 11
-14.1425641701
 21
28.9702411916
  0
LINE
  5
640
100
AcDbEntity
  8
0
100
AcDbLine
 62
250
  6
CONTINUOUS
 10
-13.9775546979
 20
30.1741845931
 11
-14.0519093656
 21
29.9571099495
  0
LINE
  5
641
100
AcDbEntity
  8
0
100
AcDbLine
 62
250
  6
CONTINUOUS
 10
-13.8691261869
 20
30.3189943054
 11
-13.9775546979
 21
30.1741845931
  0
LINE
  5
642
100
AcDbEntity
  8
0
100
AcDbLine
 62
250
  6
CONTINUOUS
 10
-13.6793284364
 20
30.4156037244
 11
-13.8691261869
 21
30.3189943054
  0
LINE
  5
643
100
AcDbEntity
  8
0
100
AcDbLine
 62
250
  6
CONTINUOUS
 10
-13.503200807
 20
30.4156262094
 11
-13.6793284364
 21
30.4156037244
  0
LINE
  5
644
100
AcDbEntity
  8
0
100
AcDbLine
 62
250
  6
CONTINUOUS
 10
-13.2933970326
 20
30.3431557702
 11
-13.503200807
 21
30.4156262094
  0
LINE
  5
645
100
AcDbEntity
  8
0
100
AcDbLine
 62
250
  6
CONTINUOUS
 10
-12.7321702957
 20
29.9565785085
 11
-12.9281701718
 21
30.1257131229
  0
LINE
  5
646
100
AcDbEntity
  8
0
100
AcDbLine
 62
250
  6
CONTINUOUS
 10
-12.5836634351
 20
29.7632659697
 11
-12.7321702957
 21
29.9565785085
  0
LINE
  5
647
100
AcDbEntity
  8
0
100
AcDbLine
 62
250
  6
CONTINUOUS
 10
-12.448847892
 20
29.4733550751
 11
-12.5836634351
 21
29.7632659697
  0
LINE
  5
648
100
AcDbEntity
  8
0
100
AcDbLine
 62
250
  6
CONTINUOUS
 10
-12.4424173672
 20
29.2077429166
 11
-12.448847892
 21
29.4733550751
  0
LINE
  5
649
100
AcDbEntity
  8
0
100
AcDbLine
 62
250
  6
CONTINUOUS
 10
-12.7062451135
 20
29.5215904187
 11
-12.6860999861
 21
29.3525908771
  0
LINE
  5
64A
100
AcDbEntity
  8
0
100
AcDbLine
 62
250
  6
CONTINUOUS
 10
-12.8143288727
 20
29.6906509967
 11
-12.7062451135
 21
29.5215904187
  0
LINE
  5
64B
100
AcDbEntity
  8
0
100
AcDbLine
 62
250
  6
CONTINUOUS
 10
-12.9698216593
 20
29.8355829607
 11
-12.8143288727
 21
29.6906509967
  0
LINE
  5
64C
100
AcDbEntity
  8
0
100
AcDbLine
 62
250
  6
CONTINUOUS
 10
-13.5041787718
 20
30.1013903098
 11
-13.3350376703
 21
30.0530318725
  0
LINE
  5
64D
100
AcDbEntity
  8
0
100
AcDbLine
 62
250
  6
CONTINUOUS
 10
-13.6395616681
 20
30.0773015702
 11
-13.5041787718
 21
30.1013903098
  0
LINE
  5
64E
100
AcDbEntity
  8
0
100
AcDbLine
 62
250
  6
CONTINUOUS
 10
-13.7411076155
 20
29.980811936
 11
-13.6395616681
 21
30.0773015702
  0
LINE
  5
64F
100
AcDbEntity
  8
0
100
AcDbLine
 62
250
  6
CONTINUOUS
 10
-13.8086837351
 20
29.8119989461
 11
-13.7411076155
 21
29.980811936
  0
LINE
  5
650
100
AcDbEntity
  8
0
100
AcDbLine
 62
250
  6
CONTINUOUS
 10
-16.701652351
 20
31.3875653302
 11
-16.8294406699
 21
31.4122094095
  0
LINE
  5
651
100
AcDbEntity
  8
0
100
AcDbLine
 62
250
  6
CONTINUOUS
 10
-16.6075279607
 20
31.4354228617
 11
-16.701652351
 21
31.3875653302
  0
LINE
  5
652
100
AcDbEntity
  8
0
100
AcDbLine
 62
250
  6
CONTINUOUS
 10
-16.5469827264
 20
31.5558293178
 11
-16.6075279607
 21
31.4354228617
  0
LINE
  5
653
100
AcDbEntity
  8
0
100
AcDbLine
 62
250
  6
CONTINUOUS
 10
-16.5334625493
 20
31.6523296759
 11
-16.5469827264
 21
31.5558293178
  0
LINE
  5
654
100
AcDbEntity
  8
0
100
AcDbLine
 62
250
  6
CONTINUOUS
 10
-16.553448931
 20
31.8214216918
 11
-16.5334625493
 21
31.6523296759
  0
LINE
  5
655
100
AcDbEntity
  8
0
100
AcDbLine
 62
250
  6
CONTINUOUS
 10
-16.6205378103
 20
31.9665612635
 11
-16.553448931
 21
31.8214216918
  0
LINE
  5
656
100
AcDbEntity
  8
0
100
AcDbLine
 62
250
  6
CONTINUOUS
 10
-16.7348148648
 20
32.0876989218
 11
-16.6205378103
 21
31.9665612635
  0
LINE
  5
657
100
AcDbEntity
  8
0
100
AcDbLine
 62
250
  6
CONTINUOUS
 10
-16.7544149733
 20
31.0023265773
 11
-16.8690084882
 21
31.1232823318
  0
LINE
  5
658
100
AcDbEntity
  8
0
100
AcDbLine
 62
250
  6
CONTINUOUS
 10
-16.686677082
 20
30.8575625535
 11
-16.7544149733
 21
31.0023265773
  0
LINE
  5
659
100
AcDbEntity
  8
0
100
AcDbLine
 62
250
  6
CONTINUOUS
 10
-16.6657101461
 20
30.6890375139
 11
-16.686677082
 21
30.8575625535
  0
LINE
  5
65A
100
AcDbEntity
  8
0
100
AcDbLine
 62
250
  6
CONTINUOUS
 10
-16.6849803824
 20
30.544870155
 11
-16.6657101461
 21
30.6890375139
  0
LINE
  5
65B
100
AcDbEntity
  8
0
100
AcDbLine
 62
250
  6
CONTINUOUS
 10
-16.7444874055
 20
30.4250623325
 11
-16.6849803824
 21
30.544870155
  0
LINE
  5
65C
100
AcDbEntity
  8
0
100
AcDbLine
 62
250
  6
CONTINUOUS
 10
-16.8379141395
 20
30.377607619
 11
-16.7444874055
 21
30.4250623325
  0
LINE
  5
65D
100
AcDbEntity
  8
0
100
AcDbLine
 62
250
  6
CONTINUOUS
 10
-16.9653452502
 20
30.4024579459
 11
-16.8379141395
 21
30.377607619
  0
LINE
  5
65E
100
AcDbEntity
  8
0
100
AcDbLine
 62
250
  6
CONTINUOUS
 10
-7.3534848333
 20
25.8391190315
 11
-7.4828919538
 21
25.8628276186
  0
LINE
  5
65F
100
AcDbEntity
  8
0
100
AcDbLine
 62
250
  6
CONTINUOUS
 10
-16.5387060253
 20
32.232299273
 11
-16.7336522137
 21
32.402041457
  0
LINE
  5
660
100
AcDbEntity
  8
0
100
AcDbLine
 62
250
  6
CONTINUOUS
 10
-16.397935885
 20
31.9901734768
 11
-16.5387060253
 21
32.232299273
  0
LINE
  5
661
100
AcDbEntity
  8
0
100
AcDbLine
 62
250
  6
CONTINUOUS
 10
-16.3042408297
 20
31.7241102477
 11
-16.397935885
 21
31.9901734768
  0
LINE
  5
662
100
AcDbEntity
  8
0
100
AcDbLine
 62
250
  6
CONTINUOUS
 10
-16.2842941144
 20
31.554996962
 11
-16.3042408297
 21
31.7241102477
  0
LINE
  5
663
100
AcDbEntity
  8
0
100
AcDbLine
 62
250
  6
CONTINUOUS
 10
-16.311339973
 20
31.3619938842
 11
-16.2842941144
 21
31.554996962
  0
LINE
  5
664
100
AcDbEntity
  8
0
100
AcDbLine
 62
250
  6
CONTINUOUS
 10
-16.3718530686
 20
31.2416051681
 11
-16.311339973
 21
31.3619938842
  0
LINE
  5
665
100
AcDbEntity
  8
0
100
AcDbLine
 62
250
  6
CONTINUOUS
 10
-16.5196262616
 20
31.1216692657
 11
-16.3718530686
 21
31.2416051681
  0
LINE
  5
666
100
AcDbEntity
  8
0
100
AcDbLine
 62
250
  6
CONTINUOUS
 10
-16.4378221938
 20
30.7600479851
 11
-16.5328187543
 21
31.0253581085
  0
LINE
  5
667
100
AcDbEntity
  8
0
100
AcDbLine
 62
250
  6
CONTINUOUS
 10
-16.416893516
 20
30.5915000392
 11
-16.4378221938
 21
30.7600479851
  0
LINE
  5
668
100
AcDbEntity
  8
0
100
AcDbLine
 62
250
  6
CONTINUOUS
 10
-16.4490174931
 20
30.3512187473
 11
-16.416893516
 21
30.5915000392
  0
LINE
  5
669
100
AcDbEntity
  8
0
100
AcDbLine
 62
250
  6
CONTINUOUS
 10
-16.5084931069
 20
30.2314298767
 11
-16.4490174931
 21
30.3512187473
  0
LINE
  5
66A
100
AcDbEntity
  8
0
100
AcDbLine
 62
250
  6
CONTINUOUS
 10
-16.6548754712
 20
30.1122962049
 11
-16.5084931069
 21
30.2314298767
  0
LINE
  5
66B
100
AcDbEntity
  8
0
100
AcDbLine
 62
250
  6
CONTINUOUS
 10
-16.8351401771
 20
30.0655380351
 11
-16.6548754712
 21
30.1122962049
  0
LINE
  5
66C
100
AcDbEntity
  8
0
100
AcDbLine
 62
250
  6
CONTINUOUS
 10
-17.0432143958
 20
30.1390070981
 11
-16.8351401771
 21
30.0655380351
  0
ELLIPSE
  5
66D
100
AcDbEntity
  8
RACCORDO
100
AcDbEllipse
 62
7
  6
CONTINUOUS
 10
4.862125103
 20
-18.267310311
 30
0.0
 11
-0.0036449097
 21
0.2373185833
 31
0.0
 40
0.0145741356
 41
-3.1316999804
 42
-2.3823999735
  0
ELLIPSE
  5
66E
100
AcDbEntity
  8
0
100
AcDbEllipse
 62
7
  6
CONTINUOUS
 10
-21.1481972938
 20
1.6209888387
 30
0.0
 11
0.2467654307
 21
0.4348749944
 31
0.0
 40
0.5722717666
 41
-2.3255274167
 42
-0.7896376749
  0
ELLIPSE
  5
66F
100
AcDbEntity
  8
0
100
AcDbEllipse
 62
7
  6
CONTINUOUS
 10
-21.1481972938
 20
4.709599295
 30
0.0
 11
0.2467654307
 21
0.4348749944
 31
0.0
 40
0.5722717666
 41
5.4935476323
 42
7.029437374
  0
ELLIPSE
  5
670
100
AcDbEntity
  8
ASSI
100
AcDbEllipse
 62
7
  6
CONTINUOUS
 10
4.862125103
 20
-18.267310311
 30
0.0
 11
-0.0036449097
 21
0.2373185833
 31
0.0
 40
0.0145741356
 41
-3.1316999804
 42
-2.3823999735
  0
ELLIPSE
  5
671
100
AcDbEntity
  8
ASSI
100
AcDbEllipse
 62
7
  6
CONTINUOUS
 10
-21.1481972938
 20
1.6209888387
 30
0.0
 11
0.2467654307
 21
0.4348749944
 31
0.0
 40
0.5722717666
 41
-2.3255274167
 42
-0.7896376749
  0
ELLIPSE
  5
672
100
AcDbEntity
  8
ASSI
100
AcDbEllipse
 62
7
  6
CONTINUOUS
 10
-21.1481972938
 20
4.709599295
 30
0.0
 11
0.2467654307
 21
0.4348749944
 31
0.0
 40
0.5722717666
 41
5.4935476323
 42
7.029437374
  0
ENDSEC
  0
SECTION
  2
OBJECTS
  0
DICTIONARY
  5
C
100
AcDbDictionary
280
0
281
1
  3
ACAD_GROUP
350
D
  3
ACAD_MLINESTYLE
350
17
  3
ACAD_LAYOUT
350
1A
  3
ACAD_PLOTSETTINGS
350
19
  3
ACAD_PLOTSTYLENAME
350
E
  0
DICTIONARY
  5
D
102
{ACAD_REACTORS
330
C
102
}
100
AcDbDictionary
280
0
281
1
  0
ACDBDICTIONARYWDFLT
  5
E
102
{ACAD_REACTORS
330
C
102
}
100
AcDbDictionary
281
1
  3
Normal
350
F
100
AcDbDictionaryWithDefault
340
F
  0
DICTIONARY
  5
17
102
{ACAD_REACTORS
330
C
102
}
100
AcDbDictionary
280
0
281
1
  3
Standard
350
18
  0
DICTIONARY
  5
19
102
{ACAD_REACTORS
330
C
102
}
100
AcDbDictionary
281
1
  0
DICTIONARY
  5
1A
102
{ACAD_REACTORS
330
C
102
}
100
AcDbDictionary
281
1
  3
Model
350
673
  3
Layout1
350
674
  0
ACDBPLACEHOLDER
  5
F
102
{ACAD_REACTORS
330
E
102
}
  0
MLINESTYLE
  5
18
102
{ACAD_REACTORS
330
17
102
}
100
AcDbMlineStyle
  2
STANDARD
 70
0
  3

 62
256
 51
90.0
 52
90.0
 71
2
 49
0.5
 62
256
  6
BYLAYER
 49
-0.5
 62
256
  6
BYLAYER
  0
LAYOUT
  5
673
102
{ACAD_REACTORS
330
1A
102
}
100
AcDbPlotSettings
  1

  2
none_device
  4
ISO_A4_(297.00_x_210.00_MM)
  6

 40
0.0
 41
0.0
 42
0.0
 43
0.0
 44
297.0
 45
210.0
 46
0.0
 47
0.0
 48
0.0
 49
0.0
140
0.0
141
0.0
142
1.0
143
1.0
 70
1024
 72
1
 73
0
 74
0
  7

 75
0
147
1.0
148
0.0
149
0.0
100
AcDbLayout
  1
Model
 70
0
 71
0
 10
0.0
 20
0.0
 11
297.0
 21
210.0
 12
0.0
 22
0.0
 32
0.0
 14
0.0
 24
0.0
 34
0.0
 15
0.0
 25
0.0
 35
0.0
146
0.0
 13
0.0
 23
0.0
 33
0.0
 16
1.0
 26
0.0
 36
0.0
 17
0.0
 27
1.0
 37
0.0
 76
0
330
213
345
0
346
0
  0
LAYOUT
  5
674
102
{ACAD_REACTORS
330
1A
102
}
100
AcDbPlotSettings
  1

  2
none_device
  4
ISO_A4_(297.00_x_210.00_MM)
  6

 40
0.0
 41
0.0
 42
0.0
 43
0.0
 44
297.0
 45
210.0
 46
0.0
 47
0.0
 48
0.0
 49
0.0
140
0.0
141
0.0
142
1.0
143
1.0
 70
0
 72
1
 73
0
 74
0
  7

 75
0
147
1.0
148
0.0
149
0.0
100
AcDbLayout
  1
Layout1
 70
0
 71
1
 10
0.0
 20
0.0
 11
297.0
 21
210.0
 12
0.0
 22
0.0
 32
0.0
 14
0.0
 24
0.0
 34
0.0
 15
0.0
 25
0.0
 35
0.0
146
0.0
 13
0.0
 23
0.0
 33
0.0
 16
1.0
 26
0.0
 36
0.0
 17
0.0
 27
1.0
 37
0.0
 76
0
330
214
345
0
346
0
  0
ENDSEC
  0
EOF
