  0
SECTION
  2
HEADER
  9
$ACADVER
  1
AC1021
  9
$DWGCODEPAGE
  3
ANSI_1252
  9
$EXTMAX
 10
297.0
 20
210.0
 30
0.0
  9
$EXTMIN
 10
0.0
 20
0.0
 30
0.0
  9
$LIMMIN
 10
0.0
 20
0.0
  9
$LIMMAX
 10
297.0
 20
210.0
  9
$VIEWCTR
 10
148.5
 20
105.0
  9
$VIEWSIZE
 40
210.0
  9
$CLAYER
  8
0
  9
$LTSCALE
 40
16.335
  9
$CELTYPE
  6
BYLAYER
  9
$DIMSCALE
 40
1.0
  9
$DIMASZ
 40
3.0
  9
$DIMEXO
 40
0.5
  9
$DIMDLI
 40
11.286
  9
$DIMEXE
 40
1.5
  9
$DIMCEN
 40
2.673
  9
$DIMLFAC
 40
1.0
  9
$DIMBLK
  1
_FILLED
  9
$DIMALT
 70
0
  9
$DIMALTF
 40
25.4
  9
$DIMTXT
 40
3.0
  9
$DIMTOL
 70
1
  9
$DIMLIM
 70
0
  9
$DIMTFAC
 40
1.0
  9
$DIMTP
 40
0.01
  9
$DIMTM
 40
0.01
  9
$DIMGAP
 40
0.625
  9
$DIMDSEP
 70
44
  9
$AUNITS
 70
0
  9
$PDMODE
 70
3
  9
$PDSIZE
 40
3.0
  9
$HANDSEED
  5
96B
  9
$TILEMODE
 70
1
  9
$MEASUREMENT
 70
1
  9
$INSUNITS
 70
4
  0
ENDSEC
  0
SECTION
  2
CLASSES
  0
CLASS
  1
ACDBDICTIONARYWDFLT
  2
AcDbDictionaryWithDefault
  3
AutoCAD 2000
 90
0
 91
1
280
0
281
0
  0
CLASS
  1
ACDBPLACEHOLDER
  2
AcDbPlaceHolder
  3
AutoCAD 2000
 90
0
 91
1
280
0
281
0
  0
CLASS
  1
LAYOUT
  2
AcDbLayout
  3
AutoCAD 2000
 90
0
 91
0
280
0
281
0
  0
ENDSEC
  0
SECTION
  2
TABLES
  0
TABLE
  2
VPORT
  5
8
100
AcDbSymbolTable
 70
2
  0
VPORT
  5
1F4
100
AcDbSymbolTableRecord
100
AcDbViewportTableRecord
  2
*ACTIVE
 70
0
 10
0.0
 20
0.0
 11
1.0
 21
1.0
 12
148.5
 22
105.0
 13
0.0
 23
0.0
 14
1.0
 24
1.0
 15
0.0
 25
0.0
 16
0.0
 26
0.0
 36
1.0
 17
0.0
 27
0.0
 37
0.0
 40
210.0
 41
1.4142857143
 42
50.0
 43
0.0
 44
0.0
 50
0.0
 51
0.0
 71
0
 72
100
 73
1
 74
1
 75
0
 76
0
 77
0
 78
0
  0
ENDTAB
  0
TABLE
  2
LTYPE
  5
5
100
AcDbSymbolTable
 70
6
  0
LTYPE
  5
14
100
AcDbSymbolTableRecord
100
AcDbLinetypeTableRecord
  2
BYBLOCK
 70
0
  3

 72
65
 73
0
 40
0.0
  0
LTYPE
  5
15
100
AcDbSymbolTableRecord
100
AcDbLinetypeTableRecord
  2
BYLAYER
 70
0
  3

 72
65
 73
0
 40
0.0
  0
LTYPE
  5
16
100
AcDbSymbolTableRecord
100
AcDbLinetypeTableRecord
  2
CONTINUOUS
 70
64
  3
Solid line
 72
65
 73
0
 40
0.0
  0
LTYPE
  5
1F5
100
AcDbSymbolTableRecord
100
AcDbLinetypeTableRecord
  2
CENTER
 70
64
  3
____ _ ____ _ ____ _ ____ _ ____ _ ____ _ ____
 72
65
 73
4
 40
0.6
 49
0.375
 74
0
 49
-0.075
 74
0
 49
0.075
 74
0
 49
-0.075
 74
0
  0
LTYPE
  5
1F6
100
AcDbSymbolTableRecord
100
AcDbLinetypeTableRecord
  2
HIDDEN
 70
64
  3
- - - - - - - - - - - - - - - - - - - -
 72
65
 73
2
 40
0.2
 49
0.1
 74
0
 49
-0.1
 74
0
  0
LTYPE
  5
1F7
100
AcDbSymbolTableRecord
100
AcDbLinetypeTableRecord
  2
PHANTOM
 70
64
  3
_____ _ _ _____ _ _ _____ _ _ _____
 72
65
 73
6
 40
0.8
 49
0.45
 74
0
 49
-0.05
 74
0
 49
0.1
 74
0
 49
-0.05
 74
0
 49
0.1
 74
0
 49
-0.05
 74
0
  0
LTYPE
  5
1F8
100
AcDbSymbolTableRecord
100
AcDbLinetypeTableRecord
  2
DOT
 70
64
  3
. . . . . . . . . . . . . . . . . . . .
 72
65
 73
2
 40
0.2
 49
0.1
 74
0
 49
-0.1
 74
0
  0
LTYPE
  5
1F9
100
AcDbSymbolTableRecord
100
AcDbLinetypeTableRecord
  2
DASHED
 70
64
  3
- - - - - - - - - - - - - - - - - - - -
 72
65
 73
2
 40
0.2
 49
0.1
 74
0
 49
-0.1
 74
0
  0
ENDTAB
  0
TABLE
  2
LAYER
  5
2
100
AcDbSymbolTable
 70
36
  0
LAYER
  5
10
100
AcDbSymbolTableRecord
100
AcDbLayerTableRecord
  2
0
 70
0
 62
7
  6
CONTINUOUS
370
-3
390
F
  0
LAYER
  5
1FA
100
AcDbSymbolTableRecord
100
AcDbLayerTableRecord
  2
DEFAULT_1
 70
0
 62
7
  6
CENTER
370
-3
390
F
  0
LAYER
  5
1FB
100
AcDbSymbolTableRecord
100
AcDbLayerTableRecord
  2
DEFAULT_2
 70
0
 62
7
  6
HIDDEN
370
-3
390
F
  0
LAYER
  5
1FC
100
AcDbSymbolTableRecord
100
AcDbLayerTableRecord
  2
DEFAULT_3
 70
0
 62
7
  6
PHANTOM
370
-3
390
F
  0
LAYER
  5
1FD
100
AcDbSymbolTableRecord
100
AcDbLayerTableRecord
  2
ASSI
 70
0
 62
7
  6
CONTINUOUS
370
-3
390
F
  0
LAYER
  5
1FE
100
AcDbSymbolTableRecord
100
AcDbLayerTableRecord
  2
COORDINATE
 70
0
 62
7
  6
CONTINUOUS
370
-3
390
F
  0
LAYER
  5
1FF
100
AcDbSymbolTableRecord
100
AcDbLayerTableRecord
  2
COPY_PUBLISH
 70
0
 62
7
  6
CONTINUOUS
370
-3
390
F
  0
LAYER
  5
200
100
AcDbSymbolTableRecord
100
AcDbLayerTableRecord
  2
COSMETIC
 70
0
 62
7
  6
CONTINUOUS
370
-3
390
F
  0
LAYER
  5
201
100
AcDbSymbolTableRecord
100
AcDbLayerTableRecord
  2
COSMETICI
 70
0
 62
7
  6
CONTINUOUS
370
-3
390
F
  0
LAYER
  5
202
100
AcDbSymbolTableRecord
100
AcDbLayerTableRecord
  2
CURVE
 70
0
 62
7
  6
CONTINUOUS
370
-3
390
F
  0
LAYER
  5
203
100
AcDbSymbolTableRecord
100
AcDbLayerTableRecord
  2
DRAFT
 70
0
 62
7
  6
CONTINUOUS
370
-3
390
F
  0
LAYER
  5
204
100
AcDbSymbolTableRecord
100
AcDbLayerTableRecord
  2
IMPORT_IGES
 70
0
 62
7
  6
CONTINUOUS
370
-3
390
F
  0
LAYER
  5
205
100
AcDbSymbolTableRecord
100
AcDbLayerTableRecord
  2
INTFCLR_377
 70
0
 62
7
  6
CONTINUOUS
370
-3
390
F
  0
LAYER
  5
206
100
AcDbSymbolTableRecord
100
AcDbLayerTableRecord
  2
INTFCLR_4497
 70
0
 62
7
  6
CONTINUOUS
370
-3
390
F
  0
LAYER
  5
207
100
AcDbSymbolTableRecord
100
AcDbLayerTableRecord
  2
INTFCLR_9765
 70
0
 62
7
  6
CONTINUOUS
370
-3
390
F
  0
LAYER
  5
208
100
AcDbSymbolTableRecord
100
AcDbLayerTableRecord
  2
INTF_1
 70
0
 62
7
  6
CONTINUOUS
370
-3
390
F
  0
LAYER
  5
209
100
AcDbSymbolTableRecord
100
AcDbLayerTableRecord
  2
INTF_2
 70
0
 62
7
  6
CONTINUOUS
370
-3
390
F
  0
LAYER
  5
20A
100
AcDbSymbolTableRecord
100
AcDbLayerTableRecord
  2
INTF_3
 70
0
 62
7
  6
CONTINUOUS
370
-3
390
F
  0
LAYER
  5
20B
100
AcDbSymbolTableRecord
100
AcDbLayerTableRecord
  2
INTF_7
 70
0
 62
7
  6
CONTINUOUS
370
-3
390
F
  0
LAYER
  5
20C
100
AcDbSymbolTableRecord
100
AcDbLayerTableRecord
  2
INTF_9
 70
0
 62
7
  6
CONTINUOUS
370
-3
390
F
  0
LAYER
  5
20D
100
AcDbSymbolTableRecord
100
AcDbLayerTableRecord
  2
NOTE
 70
0
 62
7
  6
CONTINUOUS
370
-3
390
F
  0
LAYER
  5
20E
100
AcDbSymbolTableRecord
100
AcDbLayerTableRecord
  2
PIANI
 70
0
 62
7
  6
CONTINUOUS
370
-3
390
F
  0
LAYER
  5
20F
100
AcDbSymbolTableRecord
100
AcDbLayerTableRecord
  2
PUNTI
 70
0
 62
7
  6
CONTINUOUS
370
-3
390
F
  0
LAYER
  5
210
100
AcDbSymbolTableRecord
100
AcDbLayerTableRecord
  2
RACCORDO
 70
0
 62
7
  6
CONTINUOUS
370
-3
390
F
  0
LAYER
  5
211
100
AcDbSymbolTableRecord
100
AcDbLayerTableRecord
  2
SIMBOLI
 70
0
 62
7
  6
CONTINUOUS
370
-3
390
F
  0
LAYER
  5
212
100
AcDbSymbolTableRecord
100
AcDbLayerTableRecord
  2
SMUSSO
 70
0
 62
7
  6
CONTINUOUS
370
-3
390
F
  0
LAYER
  5
213
100
AcDbSymbolTableRecord
100
AcDbLayerTableRecord
  2
SNAPLINE
 70
0
 62
7
  6
CONTINUOUS
370
-3
390
F
  0
LAYER
  5
214
100
AcDbSymbolTableRecord
100
AcDbLayerTableRecord
  2
SUPERFICI
 70
0
 62
7
  6
CONTINUOUS
370
-3
390
F
  0
LAYER
  5
215
100
AcDbSymbolTableRecord
100
AcDbLayerTableRecord
  2
TRASH
 70
0
 62
7
  6
CONTINUOUS
370
-3
390
F
  0
LAYER
  5
216
100
AcDbSymbolTableRecord
100
AcDbLayerTableRecord
  2
XSEC_DATUMS
 70
0
 62
7
  6
CONTINUOUS
370
-3
390
F
  0
ENDTAB
  0
TABLE
  2
STYLE
  5
3
100
AcDbSymbolTable
 70
1
  0
STYLE
  5
11
100
AcDbSymbolTableRecord
100
AcDbTextStyleTableRecord
  2
STANDARD
 70
0
 40
0.0
 41
0.8
 50
0.0
 71
0
 42
0.2
  3
txt
  4

  0
STYLE
  5
217
100
AcDbSymbolTableRecord
100
AcDbTextStyleTableRecord
  2
TEXTSTYLE_1
 70
0
 40
0.0
 41
0.8
 50
0.0
 71
0
 42
0.2
  3
gdt
  4

  0
ENDTAB
  0
TABLE
  2
VIEW
  5
6
100
AcDbSymbolTable
 70
0
  0
ENDTAB
  0
TABLE
  2
UCS
  5
7
100
AcDbSymbolTable
 70
0
  0
ENDTAB
  0
TABLE
  2
APPID
  5
9
100
AcDbSymbolTable
 70
1
  0
APPID
  5
218
100
AcDbSymbolTableRecord
100
AcDbRegAppTableRecord
  2
ACAD
 70
0
  0
ENDTAB
  0
TABLE
  2
BLOCK_RECORD
  5
1
100
AcDbSymbolTable
 70
0
  0
BLOCK_RECORD
  5
219
100
AcDbSymbolTableRecord
100
AcDbBlockTableRecord
  2
*Model_Space
  0
BLOCK_RECORD
  5
21A
100
AcDbSymbolTableRecord
100
AcDbBlockTableRecord
  2
*Paper_Space
  0
BLOCK_RECORD
  5
21B
100
AcDbSymbolTableRecord
100
AcDbBlockTableRecord
  2
_FILLED
  0
ENDTAB
  0
TABLE
  2
DIMSTYLE
  5
A
100
AcDbSymbolTable
 70
1
100
AcDbDimStyleTable
 71
0
  0
DIMSTYLE
105
21C
100
AcDbSymbolTableRecord
100
AcDbDimStyleTableRecord
  2
STANDARD
 70
0
  3

  4

 40
1.0
 41
3.0
 42
0.5
 43
0.38
 44
1.5
 45
0.0
 46
0.0
 47
0.01
 48
0.01
140
3.0
141
0.09
142
0.0
143
25.4
144
1.0
145
0.0
146
1.0
147
0.625
 71
1.0
 72
0.0
 73
0
 74
0
 75
0
 76
0
 77
1
 78
8
 79
2
170
0
171
1
172
0
173
0
174
0
175
0
176
0
177
0
178
0
270
2
179
2
271
2
272
2
273
2
274
2
275
0
280
0
281
0
282
0
283
1
284
8
285
0
286
0
287
3
288
0
340
11
278
44
341
21B
342
21B
343
21B
344
21B
  0
ENDTAB
  0
ENDSEC
  0
SECTION
  2
BLOCKS
  0
BLOCK
  5
20
100
AcDbEntity
  8
0
100
AcDbBlockBegin
  2
*Model_Space
 70
0
 10
0.0
 20
0.0
 30
0.0
  3
*Model_Space
  1

  0
ENDBLK
  5
21
100
AcDbEntity
  8
0
100
AcDbBlockEnd
  0
BLOCK
  5
1C
100
AcDbEntity
  8
0
100
AcDbBlockBegin
  2
*Paper_Space
 70
0
 10
0.0
 20
0.0
 30
0.0
  3
*Paper_Space
  1

  0
ENDBLK
  5
1D
100
AcDbEntity
  8
0
100
AcDbBlockEnd
  0
BLOCK
  5
21D
100
AcDbEntity
  8
0
100
AcDbBlockBegin
  2
_FILLED
 70
64
 10
0.0
 20
0.0
  3
_FILLED
  1

  0
SOLID
  5
21E
100
AcDbEntity
  8
0
  6
BYBLOCK
 62
0
100
AcDbTrace
 10
0.0
 20
0.0
 11
-1.0
 21
0.1333333333
 12
-1.0
 22
-0.1333333333
 13
-1.0
 23
-0.1333333333
  0
ENDBLK
  5
21F
100
AcDbEntity
  8
0
  6
BYBLOCK
 62
0
100
AcDbBlockEnd
  0
ENDSEC
  0
SECTION
  2
ENTITIES
  0
LINE
  5
220
100
AcDbEntity
  8
0
100
AcDbLine
 62
7
  6
CONTINUOUS
 10
4.2685232878
 20
-24.6222314361
 11
4.2648268264
 21
-24.5880091696
  0
LINE
  5
221
100
AcDbEntity
  8
0
100
AcDbLine
 62
7
  6
CONTINUOUS
 10
-8.1972367639
 20
-14.2122284739
 11
-8.2027237529
 21
-14.1613264009
  0
LINE
  5
222
100
AcDbEntity
  8
0
100
AcDbLine
 62
7
  6
CONTINUOUS
 10
3.7229026134
 20
-24.5431342182
 11
3.7247606995
 21
-24.5605582415
  0
LINE
  5
223
100
AcDbEntity
  8
RACCORDO
100
AcDbLine
 62
7
  6
CONTINUOUS
 10
-14.6987878237
 20
-16.0696137229
 11
-14.6606020506
 21
-16.4293116906
  0
LINE
  5
224
100
AcDbEntity
  8
RACCORDO
100
AcDbLine
 62
7
  6
CONTINUOUS
 10
-14.7862133856
 20
-15.9122551514
 11
-14.7467926222
 21
-16.2872078769
  0
LINE
  5
225
100
AcDbEntity
  8
0
100
AcDbLine
 62
7
  6
CONTINUOUS
 10
-7.3612955191
 20
-13.5161593508
 11
-7.366458126
 21
-13.4644440022
  0
LINE
  5
226
100
AcDbEntity
  8
RACCORDO
100
AcDbLine
 62
7
  6
CONTINUOUS
 10
-14.7342122393
 20
-15.7103075256
 11
-14.6987878237
 21
-16.0696137229
  0
LINE
  5
227
100
AcDbEntity
  8
RACCORDO
100
AcDbLine
 62
7
  6
CONTINUOUS
 10
-14.8165481765
 20
-15.6026642521
 11
-14.7862133856
 21
-15.9122551514
  0
LINE
  5
228
100
AcDbEntity
  8
0
100
AcDbLine
 62
7
  6
CONTINUOUS
 10
4.1827542306
 20
-24.7008133742
 11
4.1796702298
 21
-24.6684248804
  0
LINE
  5
229
100
AcDbEntity
  8
RACCORDO
100
AcDbLine
 62
7
  6
CONTINUOUS
 10
-14.8767434982
 20
-14.9487984047
 11
-14.8165481778
 21
-15.6026642586
  0
LINE
  5
22A
100
AcDbEntity
  8
RACCORDO
100
AcDbLine
 62
7
  6
CONTINUOUS
 10
-14.797292821
 20
-15.0247114428
 11
-14.7342122393
 21
-15.7103075256
  0
LINE
  5
22B
100
AcDbEntity
  8
RACCORDO
100
AcDbLine
 62
7
  6
CONTINUOUS
 10
-3.4898867398
 20
-31.441031135
 11
-3.4878509041
 21
-31.463513122
  0
LINE
  5
22C
100
AcDbEntity
  8
RACCORDO
100
AcDbLine
 62
7
  6
CONTINUOUS
 10
-14.9386245359
 20
-14.2332218751
 11
-14.8767434982
 21
-14.9487984047
  0
LINE
  5
22D
100
AcDbEntity
  8
RACCORDO
100
AcDbLine
 62
7
  6
CONTINUOUS
 10
-14.8567125414
 20
-14.3370573402
 11
-14.797292821
 21
-15.0247114428
  0
LINE
  5
22E
100
AcDbEntity
  8
RACCORDO
100
AcDbLine
 62
7
  6
CONTINUOUS
 10
-15.0701176741
 20
24.5449836157
 11
-15.0716413924
 21
24.5637644638
  0
LINE
  5
22F
100
AcDbEntity
  8
RACCORDO
100
AcDbLine
 62
7
  6
CONTINUOUS
 10
-14.9124671681
 20
-13.6473640013
 11
-14.8567125414
 21
-14.3370573402
  0
LINE
  5
230
100
AcDbEntity
  8
RACCORDO
100
AcDbLine
 62
7
  6
CONTINUOUS
 10
-14.9965405255
 20
-13.5154165245
 11
-14.9386245359
 21
-14.2332218751
  0
LINE
  5
231
100
AcDbEntity
  8
0
100
AcDbLine
 62
7
  6
CONTINUOUS
 10
-8.9882462191
 20
-14.7292620586
 11
-8.9914337955
 21
-14.6893288058
  0
LINE
  5
232
100
AcDbEntity
  8
RACCORDO
100
AcDbLine
 62
7
  6
CONTINUOUS
 10
-14.9645579226
 20
-12.9556309235
 11
-14.9124671681
 21
-13.6473640013
  0
LINE
  5
233
100
AcDbEntity
  8
RACCORDO
100
AcDbLine
 62
7
  6
CONTINUOUS
 10
-15.0504886359
 20
-12.7954065417
 11
-14.9965405255
 21
-13.5154165245
  0
LINE
  5
234
100
AcDbEntity
  8
RACCORDO
100
AcDbLine
 62
7
  6
CONTINUOUS
 10
-15.0714099511
 20
-12.5002863433
 11
-15.0504886359
 21
-12.7954065417
  0
LINE
  5
235
100
AcDbEntity
  8
0
100
AcDbLine
 62
7
  6
CONTINUOUS
 10
-8.6063980815
 20
21.4511317851
 11
-8.6040170871
 21
21.4171447321
  0
LINE
  5
236
100
AcDbEntity
  8
RACCORDO
100
AcDbLine
 62
7
  6
CONTINUOUS
 10
-15.1299347729
 20
-10.5025739044
 11
-14.9645579226
 21
-12.9556309235
  0
LINE
  5
237
100
AcDbEntity
  8
RACCORDO
100
AcDbLine
 62
7
  6
CONTINUOUS
 10
-15.2649215987
 20
-9.4747449417
 11
-15.0714099478
 21
-12.5002863518
  0
LINE
  5
238
100
AcDbEntity
  8
0
100
AcDbLine
 62
7
  6
CONTINUOUS
 10
-2.5257702699
 20
-22.891122861
 11
-2.4808602509
 21
-23.6184663693
  0
LINE
  5
239
100
AcDbEntity
  8
0
100
AcDbLine
 62
7
  6
CONTINUOUS
 10
-2.0081952902
 20
-23.8156899005
 11
-2.0531020738
 21
-23.0883436861
  0
LINE
  5
23A
100
AcDbEntity
  8
0
100
AcDbLine
 62
7
  6
CONTINUOUS
 10
-1.9218219226
 20
-23.7449369799
 11
-1.9667738877
 21
-23.0176284069
  0
LINE
  5
23B
100
AcDbEntity
  8
0
100
AcDbLine
 62
7
  6
CONTINUOUS
 10
-9.7021465991
 20
-14.8144694127
 11
-9.7058997446
 21
-14.7502616999
  0
LINE
  5
23C
100
AcDbEntity
  8
RACCORDO
100
AcDbLine
 62
7
  6
CONTINUOUS
 10
-15.2576312373
 20
-8.2775001976
 11
-15.1299347729
 21
-10.5025739044
  0
LINE
  5
23D
100
AcDbEntity
  8
0
100
AcDbLine
 62
7
  6
CONTINUOUS
 10
-2.5673443676
 20
-22.1606617824
 11
-2.5257702699
 21
-22.891122861
  0
LINE
  5
23E
100
AcDbEntity
  8
0
100
AcDbLine
 62
7
  6
CONTINUOUS
 10
-1.9667738877
 20
-23.0176284069
 11
-2.0083868248
 21
-22.2871988463
  0
LINE
  5
23F
100
AcDbEntity
  8
0
100
AcDbLine
 62
7
  6
CONTINUOUS
 10
-2.0531020738
 20
-23.0883436861
 11
-2.0946731764
 21
-22.3578801554
  0
LINE
  5
240
100
AcDbEntity
  8
RACCORDO
100
AcDbLine
 62
7
  6
CONTINUOUS
 10
-15.4266464172
 20
-6.3853980853
 11
-15.2649215987
 21
-9.4747449417
  0
LINE
  5
241
100
AcDbEntity
  8
0
100
AcDbLine
 62
7
  6
CONTINUOUS
 10
-2.6055809289
 20
-21.4271115143
 11
-2.5673443676
 21
-22.1606617824
  0
LINE
  5
242
100
AcDbEntity
  8
0
100
AcDbLine
 62
7
  6
CONTINUOUS
 10
-2.0946731764
 20
-22.3578801554
 11
-2.132906983
 21
-21.6243276852
  0
LINE
  5
243
100
AcDbEntity
  8
0
100
AcDbLine
 62
7
  6
CONTINUOUS
 10
-2.0083868248
 20
-22.2871988463
 11
-2.0466590722
 21
-21.5536775328
  0
LINE
  5
244
100
AcDbEntity
  8
RACCORDO
100
AcDbLine
 62
7
  6
CONTINUOUS
 10
-15.3705630786
 20
-5.9328943888
 11
-15.2576312373
 21
-8.2775001976
  0
LINE
  5
245
100
AcDbEntity
  8
RACCORDO
100
AcDbLine
 62
7
  6
CONTINUOUS
 10
-15.5524012932
 20
-3.2928450215
 11
-15.4266464172
 21
-6.3853980853
  0
LINE
  5
246
100
AcDbEntity
  8
RACCORDO
100
AcDbLine
 62
7
  6
CONTINUOUS
 10
-15.4686600008
 20
-3.4407073521
 11
-15.3705630786
 21
-5.9328943888
  0
LINE
  5
247
100
AcDbEntity
  8
0
100
AcDbLine
 62
7
  6
CONTINUOUS
 10
-8.2027237529
 20
-14.1613264009
 11
-8.2045561651
 21
-14.1116182157
  0
LINE
  5
248
100
AcDbEntity
  8
0
100
AcDbLine
 62
7
  6
CONTINUOUS
 10
-7.366458126
 20
-13.4644440022
 11
-7.3682265211
 21
-13.4136518733
  0
LINE
  5
249
100
AcDbEntity
  8
0
100
AcDbLine
 62
7
  6
CONTINUOUS
 10
-9.7058997446
 20
-14.7502616999
 11
-9.794431911
 21
-11.8511444839
  0
LINE
  5
24A
100
AcDbEntity
  8
0
100
AcDbLine
 62
7
  6
CONTINUOUS
 10
-8.991434318
 20
-14.6893291888
 11
-9.0798989886
 21
-11.7928312451
  0
LINE
  5
24B
100
AcDbEntity
  8
RACCORDO
100
AcDbLine
 62
7
  6
CONTINUOUS
 10
-15.5479003413
 20
-0.8269324733
 11
-15.4686600008
 21
-3.4407073521
  0
LINE
  5
24C
100
AcDbEntity
  8
RACCORDO
100
AcDbLine
 62
7
  6
CONTINUOUS
 10
-15.642203157
 20
-0.1974133398
 11
-15.5524012932
 21
-3.2928450215
  0
LINE
  5
24D
100
AcDbEntity
  8
0
100
AcDbLine
 62
7
  6
CONTINUOUS
 10
-9.794431911
 20
-11.8511444839
 11
-9.8668635207
 21
-8.9394402048
  0
LINE
  5
24E
100
AcDbEntity
  8
0
100
AcDbLine
 62
7
  6
CONTINUOUS
 10
-9.0798989886
 20
-11.7928312451
 11
-9.1522801915
 21
-8.8840611515
  0
LINE
  5
24F
100
AcDbEntity
  8
RACCORDO
100
AcDbLine
 62
7
  6
CONTINUOUS
 10
-15.6018098603
 20
1.8275334135
 11
-15.5479003413
 21
-0.8269324733
  0
LINE
  5
250
100
AcDbEntity
  8
0
100
AcDbLine
 62
7
  6
CONTINUOUS
 10
-9.8668635207
 20
-8.9394402048
 11
-9.9231980593
 21
-6.0152971771
  0
LINE
  5
251
100
AcDbEntity
  8
0
100
AcDbLine
 62
7
  6
CONTINUOUS
 10
-9.1522801915
 20
-8.8840611515
 11
-9.2085779266
 21
-5.963018908
  0
LINE
  5
252
100
AcDbEntity
  8
RACCORDO
100
AcDbLine
 62
7
  6
CONTINUOUS
 10
-15.6960663298
 20
2.9005912351
 11
-15.642203157
 21
-0.1974133398
  0
LINE
  5
253
100
AcDbEntity
  8
0
100
AcDbLine
 62
7
  6
CONTINUOUS
 10
-9.9231980593
 20
-6.0152971771
 11
-9.9634406496
 21
-3.0788630162
  0
LINE
  5
254
100
AcDbEntity
  8
0
100
AcDbLine
 62
7
  6
CONTINUOUS
 10
-9.2085779266
 20
-5.963018908
 11
-9.2487934417
 21
-3.0295505785
  0
LINE
  5
255
100
AcDbEntity
  8
RACCORDO
100
AcDbLine
 62
7
  6
CONTINUOUS
 10
-15.6284384565
 20
4.521924861
 11
-15.6018098603
 21
1.8275334135
  0
LINE
  5
256
100
AcDbEntity
  8
0
100
AcDbLine
 62
7
  6
CONTINUOUS
 10
-9.9634406496
 20
-3.0788630162
 11
-9.9875907702
 21
-0.1302909277
  0
LINE
  5
257
100
AcDbEntity
  8
0
100
AcDbLine
 62
7
  6
CONTINUOUS
 10
-9.2487934417
 20
-3.0295505785
 11
-9.272925489
 21
-0.0838100991
  0
LINE
  5
258
100
AcDbEntity
  8
RACCORDO
100
AcDbLine
 62
7
  6
CONTINUOUS
 10
-15.714
 20
6.0008778765
 11
-15.6960663298
 21
2.9005912351
  0
LINE
  5
259
100
AcDbEntity
  8
0
100
AcDbLine
 62
7
  6
CONTINUOUS
 10
-9.9875907702
 20
-0.1302909277
 11
-9.9956422933
 21
2.8302602557
  0
LINE
  5
25A
100
AcDbEntity
  8
0
100
AcDbLine
 62
7
  6
CONTINUOUS
 10
-9.272925489
 20
-0.0838100991
 11
-9.2809703259
 21
2.8737407215
  0
LINE
  5
25B
100
AcDbEntity
  8
0
100
AcDbLine
 62
7
  6
CONTINUOUS
 10
-8.60639176
 20
-16.3458261397
 11
-8.6063963218
 21
-16.3103366605
  0
LINE
  5
25C
100
AcDbEntity
  8
RACCORDO
100
AcDbLine
 62
7
  6
CONTINUOUS
 10
-15.6283367907
 20
7.2574744966
 11
-15.6284384565
 21
4.521924861
  0
LINE
  5
25D
100
AcDbEntity
  8
0
100
AcDbLine
 62
7
  6
CONTINUOUS
 10
-8.2045561651
 20
21.1005578044
 11
-8.2045561651
 21
-14.1116182157
  0
LINE
  5
25E
100
AcDbEntity
  8
0
100
AcDbLine
 62
7
  6
CONTINUOUS
 10
-7.3682265211
 20
20.7198578121
 11
-7.3682265211
 21
-13.4136518733
  0
LINE
  5
25F
100
AcDbEntity
  8
0
100
AcDbLine
 62
7
  6
CONTINUOUS
 10
-8.6063937865
 20
21.4869234785
 11
-8.6063980815
 21
21.4511317851
  0
LINE
  5
260
100
AcDbEntity
  8
0
100
AcDbLine
 62
7
  6
CONTINUOUS
 10
-9.9956422933
 20
2.8302602557
 11
-9.9875907713
 21
5.8026343141
  0
LINE
  5
261
100
AcDbEntity
  8
0
100
AcDbLine
 62
7
  6
CONTINUOUS
 10
-9.2809703259
 20
2.8737407215
 11
-9.2729254499
 21
5.8431039524
  0
LINE
  5
262
100
AcDbEntity
  8
RACCORDO
100
AcDbLine
 62
7
  6
CONTINUOUS
 10
-15.6960049245
 20
9.1031587309
 11
-15.714
 21
6.0008778765
  0
LINE
  5
263
100
AcDbEntity
  8
0
100
AcDbLine
 62
7
  6
CONTINUOUS
 10
-9.9875907713
 20
5.8026343141
 11
-9.9634406514
 21
8.7866782864
  0
LINE
  5
264
100
AcDbEntity
  8
0
100
AcDbLine
 62
7
  6
CONTINUOUS
 10
-9.2729254499
 20
5.8431039524
 11
-9.2487933635
 21
8.8242775246
  0
LINE
  5
265
100
AcDbEntity
  8
RACCORDO
100
AcDbLine
 62
7
  6
CONTINUOUS
 10
-15.6015329768
 20
9.9547715433
 11
-15.6283367907
 21
7.2574744966
  0
LINE
  5
266
100
AcDbEntity
  8
0
100
AcDbLine
 62
7
  6
CONTINUOUS
 10
-9.9634406514
 20
8.7866782864
 11
-9.9231980613
 21
11.7822361067
  0
LINE
  5
267
100
AcDbEntity
  8
0
100
AcDbLine
 62
7
  6
CONTINUOUS
 10
-9.2487933635
 20
8.8242775246
 11
-9.2085778309
 21
11.8167934212
  0
LINE
  5
268
100
AcDbEntity
  8
RACCORDO
100
AcDbLine
 62
7
  6
CONTINUOUS
 10
-15.6420803717
 20
12.2071497325
 11
-15.6960049245
 21
9.1031587309
  0
LINE
  5
269
100
AcDbEntity
  8
0
100
AcDbLine
 62
7
  6
CONTINUOUS
 10
-9.9231980613
 20
11.7822361067
 11
-9.8668635225
 21
14.7891499399
  0
LINE
  5
26A
100
AcDbEntity
  8
0
100
AcDbLine
 62
7
  6
CONTINUOUS
 10
-9.2085778309
 20
11.8167934212
 11
-9.152280107
 21
14.8204956368
  0
LINE
  5
26B
100
AcDbEntity
  8
RACCORDO
100
AcDbLine
 62
7
  6
CONTINUOUS
 10
-15.5475048305
 20
12.6125736212
 11
-15.6015329768
 21
9.9547715433
  0
LINE
  5
26C
100
AcDbEntity
  8
0
100
AcDbLine
 62
7
  6
CONTINUOUS
 10
-9.8668635225
 20
14.7891499399
 11
-9.7944319122
 21
17.8072602338
  0
LINE
  5
26D
100
AcDbEntity
  8
0
100
AcDbLine
 62
7
  6
CONTINUOUS
 10
-9.152280107
 20
14.8204956368
 11
-9.0798989371
 21
17.835540177
  0
LINE
  5
26E
100
AcDbEntity
  8
RACCORDO
100
AcDbLine
 62
7
  6
CONTINUOUS
 10
-15.5522171372
 20
15.3125987187
 11
-15.6420803717
 21
12.2071497325
  0
LINE
  5
26F
100
AcDbEntity
  8
0
100
AcDbLine
 62
7
  6
CONTINUOUS
 10
-9.7944319122
 20
17.8072602338
 11
-9.7058997446
 21
20.8364062898
  0
LINE
  5
270
100
AcDbEntity
  8
0
100
AcDbLine
 62
7
  6
CONTINUOUS
 10
-9.0798989371
 20
17.835540177
 11
-8.991434321
 21
20.8619270416
  0
LINE
  5
271
100
AcDbEntity
  8
RACCORDO
100
AcDbLine
 62
7
  6
CONTINUOUS
 10
-15.4682082264
 20
15.2312138455
 11
-15.5475048305
 21
12.6125736212
  0
LINE
  5
272
100
AcDbEntity
  8
RACCORDO
100
AcDbLine
 62
7
  6
CONTINUOUS
 10
-15.3701246504
 20
17.7322300071
 11
-15.4682082264
 21
15.2312138455
  0
LINE
  5
273
100
AcDbEntity
  8
RACCORDO
100
AcDbLine
 62
7
  6
CONTINUOUS
 10
-15.426400831
 20
18.4192592811
 11
-15.5522171372
 21
15.3125987187
  0
LINE
  5
274
100
AcDbEntity
  8
RACCORDO
100
AcDbLine
 62
7
  6
CONTINUOUS
 10
-15.0716413924
 20
24.5637644638
 11
-15.0714213864
 21
24.5689995826
  0
LINE
  5
275
100
AcDbEntity
  8
RACCORDO
100
AcDbLine
 62
7
  6
CONTINUOUS
 10
-15.2572720649
 20
20.0884962837
 11
-15.3701246504
 21
17.7322300071
  0
LINE
  5
276
100
AcDbEntity
  8
RACCORDO
100
AcDbLine
 62
7
  6
CONTINUOUS
 10
-15.2646145369
 20
21.5268761252
 11
-15.426400831
 21
18.4192592811
  0
LINE
  5
277
100
AcDbEntity
  8
RACCORDO
100
AcDbLine
 62
7
  6
CONTINUOUS
 10
-15.1297218111
 20
22.325003623
 11
-15.2572720649
 21
20.0884962837
  0
LINE
  5
278
100
AcDbEntity
  8
RACCORDO
100
AcDbLine
 62
7
  6
CONTINUOUS
 10
-15.0714213864
 20
24.5689995826
 11
-15.2646145369
 21
21.5268761252
  0
LINE
  5
279
100
AcDbEntity
  8
RACCORDO
100
AcDbLine
 62
7
  6
CONTINUOUS
 10
-14.9645579302
 20
24.7906860865
 11
-15.1297218111
 21
22.325003623
  0
LINE
  5
27A
100
AcDbEntity
  8
RACCORDO
100
AcDbLine
 62
7
  6
CONTINUOUS
 10
-15.0236270723
 20
25.2366029956
 11
-15.0714213881
 21
24.5689995873
  0
LINE
  5
27B
100
AcDbEntity
  8
RACCORDO
100
AcDbLine
 62
7
  6
CONTINUOUS
 10
-14.9124672036
 20
25.4915219846
 11
-14.9645579302
 21
24.7906860865
  0
LINE
  5
27C
100
AcDbEntity
  8
RACCORDO
100
AcDbLine
 62
7
  6
CONTINUOUS
 10
-14.9676789399
 20
25.9666474878
 11
-15.0236270723
 21
25.2366029956
  0
LINE
  5
27D
100
AcDbEntity
  8
RACCORDO
100
AcDbLine
 62
7
  6
CONTINUOUS
 10
-14.8567125725
 20
26.1939455469
 11
-14.9124672036
 21
25.4915219846
  0
LINE
  5
27E
100
AcDbEntity
  8
RACCORDO
100
AcDbLine
 62
7
  6
CONTINUOUS
 10
-14.9077668504
 20
26.6983832897
 11
-14.9676789399
 21
25.9666474878
  0
LINE
  5
27F
100
AcDbEntity
  8
RACCORDO
100
AcDbLine
 62
7
  6
CONTINUOUS
 10
-14.7972928382
 20
26.8979559888
 11
-14.8567125725
 21
26.1939455469
  0
LINE
  5
280
100
AcDbEntity
  8
RACCORDO
100
AcDbLine
 62
7
  6
CONTINUOUS
 10
-14.8438938921
 20
27.4317870288
 11
-14.9077668504
 21
26.6983832897
  0
LINE
  5
281
100
AcDbEntity
  8
RACCORDO
100
AcDbLine
 62
7
  6
CONTINUOUS
 10
-14.7342122393
 20
27.6035384238
 11
-14.7972928382
 21
26.8979559888
  0
LINE
  5
282
100
AcDbEntity
  8
RACCORDO
100
AcDbLine
 62
7
  6
CONTINUOUS
 10
-14.7857477055
 20
28.05684834
 11
-14.8438938921
 21
27.4317870288
  0
LINE
  5
283
100
AcDbEntity
  8
RACCORDO
100
AcDbLine
 62
7
  6
CONTINUOUS
 10
-14.6987880974
 20
27.9737284111
 11
-14.7342122393
 21
27.6035384238
  0
LINE
  5
284
100
AcDbEntity
  8
RACCORDO
100
AcDbLine
 62
7
  6
CONTINUOUS
 10
-14.7462816584
 20
28.4421824164
 11
-14.7857477055
 21
28.05684834
  0
LINE
  5
285
100
AcDbEntity
  8
RACCORDO
100
AcDbLine
 62
7
  6
CONTINUOUS
 10
-14.6606025472
 20
28.3431928097
 11
-14.6987880974
 21
27.9737284111
  0
LINE
  5
286
100
AcDbEntity
  8
RACCORDO
100
AcDbLine
 62
7
  6
CONTINUOUS
 10
9.9366366026
 20
-36.0720235876
 11
10.0379900671
 21
-36.0829330651
  0
LINE
  5
287
100
AcDbEntity
  8
RACCORDO
100
AcDbLine
 62
7
  6
CONTINUOUS
 10
9.8145553464
 20
-35.9581855793
 11
9.8991662755
 21
-35.967405265
  0
LINE
  5
288
100
AcDbEntity
  8
RACCORDO
100
AcDbLine
 62
7
  6
CONTINUOUS
 10
9.7296681754
 20
-35.948101169
 11
9.8145553464
 21
-35.9581855793
  0
LINE
  5
289
100
AcDbEntity
  8
RACCORDO
100
AcDbLine
 62
7
  6
CONTINUOUS
 10
9.8349176632
 20
-36.0599135931
 11
9.9366366026
 21
-36.0720235876
  0
LINE
  5
28A
100
AcDbEntity
  8
RACCORDO
100
AcDbLine
 62
7
  6
CONTINUOUS
 10
9.6445165685
 20
-35.9371539455
 11
9.7296681754
 21
-35.948101169
  0
LINE
  5
28B
100
AcDbEntity
  8
RACCORDO
100
AcDbLine
 62
7
  6
CONTINUOUS
 10
9.7328442269
 20
-36.0466046209
 11
9.8349176632
 21
-36.0599135931
  0
LINE
  5
28C
100
AcDbEntity
  8
RACCORDO
100
AcDbLine
 62
7
  6
CONTINUOUS
 10
9.5591043158
 20
-35.9253445344
 11
9.6445165685
 21
-35.9371539455
  0
LINE
  5
28D
100
AcDbEntity
  8
RACCORDO
100
AcDbLine
 62
7
  6
CONTINUOUS
 10
10.2662162091
 20
-36.1023319553
 11
10.2798732332
 21
-36.1042219114
  0
LINE
  5
28E
100
AcDbEntity
  8
RACCORDO
100
AcDbLine
 62
7
  6
CONTINUOUS
 10
9.6304285787
 20
-36.0320984279
 11
9.7328442269
 21
-36.0466046209
  0
LINE
  5
28F
100
AcDbEntity
  8
RACCORDO
100
AcDbLine
 62
7
  6
CONTINUOUS
 10
9.4734272119
 20
-35.9126722594
 11
9.5591043158
 21
-35.9253445344
  0
LINE
  5
290
100
AcDbEntity
  8
RACCORDO
100
AcDbLine
 62
7
  6
CONTINUOUS
 10
9.5276858357
 20
-36.0163974741
 11
9.6304285787
 21
-36.0320984279
  0
LINE
  5
291
100
AcDbEntity
  8
RACCORDO
100
AcDbLine
 62
7
  6
CONTINUOUS
 10
9.3874850656
 20
-35.8991370718
 11
9.4734272119
 21
-35.9126722594
  0
LINE
  5
292
100
AcDbEntity
  8
RACCORDO
100
AcDbLine
 62
7
  6
CONTINUOUS
 10
9.4916780272
 20
-36.0106246641
 11
9.5276858357
 21
-36.0163974741
  0
LINE
  5
293
100
AcDbEntity
  8
RACCORDO
100
AcDbLine
 62
7
  6
CONTINUOUS
 10
9.1912740553
 20
-35.8666674578
 11
9.3874850656
 21
-35.8991370718
  0
LINE
  5
294
100
AcDbEntity
  8
RACCORDO
100
AcDbLine
 62
7
  6
CONTINUOUS
 10
9.0771943856
 20
-35.9405811364
 11
9.4916783941
 21
-36.0106247471
  0
LINE
  5
295
100
AcDbEntity
  8
RACCORDO
100
AcDbLine
 62
7
  6
CONTINUOUS
 10
8.994954528
 20
-35.832921072
 11
9.1912740553
 21
-35.8666674578
  0
LINE
  5
296
100
AcDbEntity
  8
RACCORDO
100
AcDbLine
 62
7
  6
CONTINUOUS
 10
8.798526115
 20
-35.7978980576
 11
8.994954528
 21
-35.832921072
  0
LINE
  5
297
100
AcDbEntity
  8
RACCORDO
100
AcDbLine
 62
7
  6
CONTINUOUS
 10
8.6010553689
 20
-35.8532552569
 11
9.0771943856
 21
-35.9405811364
  0
LINE
  5
298
100
AcDbEntity
  8
RACCORDO
100
AcDbLine
 62
7
  6
CONTINUOUS
 10
8.6019858176
 20
-35.7615978978
 11
8.798526115
 21
-35.7978980576
  0
LINE
  5
299
100
AcDbEntity
  8
RACCORDO
100
AcDbLine
 62
7
  6
CONTINUOUS
 10
9.4876590582
 20
-36.0098809879
 11
9.4916780272
 21
-36.0106246641
  0
LINE
  5
29A
100
AcDbEntity
  8
RACCORDO
100
AcDbLine
 62
7
  6
CONTINUOUS
 10
8.4053359499
 20
-35.7240213112
 11
8.6019858176
 21
-35.7615978978
  0
LINE
  5
29B
100
AcDbEntity
  8
0
100
AcDbLine
 62
7
  6
CONTINUOUS
 10
3.565874509
 20
-24.7201025929
 11
3.5468200663
 21
-24.7163458456
  0
LINE
  5
29C
100
AcDbEntity
  8
RACCORDO
100
AcDbLine
 62
7
  6
CONTINUOUS
 10
8.2085841106
 20
-35.6851702769
 11
8.4053359499
 21
-35.7240213112
  0
LINE
  5
29D
100
AcDbEntity
  8
RACCORDO
100
AcDbLine
 62
7
  6
CONTINUOUS
 10
8.1242584378
 20
-35.7584871378
 11
8.6010553689
 21
-35.8532552569
  0
LINE
  5
29E
100
AcDbEntity
  8
RACCORDO
100
AcDbLine
 62
7
  6
CONTINUOUS
 10
8.0117301727
 20
-35.6450450569
 11
8.2085841106
 21
-35.6851702769
  0
LINE
  5
29F
100
AcDbEntity
  8
RACCORDO
100
AcDbLine
 62
7
  6
CONTINUOUS
 10
7.8147736174
 20
-35.6036454814
 11
8.0117301727
 21
-35.6450450569
  0
LINE
  5
2A0
100
AcDbEntity
  8
0
100
AcDbLine
 62
7
  6
CONTINUOUS
 10
3.4713091931
 20
-24.7892645932
 11
3.453273417
 21
-24.7854295044
  0
LINE
  5
2A1
100
AcDbEntity
  8
0
100
AcDbLine
 62
7
  6
CONTINUOUS
 10
8.7617917085
 20
-23.2954497965
 11
8.6987141028
 21
-23.282011473
  0
LINE
  5
2A2
100
AcDbEntity
  8
RACCORDO
100
AcDbLine
 62
7
  6
CONTINUOUS
 10
7.6468971235
 20
-35.6562963866
 11
8.1242584378
 21
-35.7584871378
  0
LINE
  5
2A3
100
AcDbEntity
  8
RACCORDO
100
AcDbLine
 62
7
  6
CONTINUOUS
 10
7.6177214282
 20
-35.5609728843
 11
7.8147736174
 21
-35.6036454814
  0
LINE
  5
2A4
100
AcDbEntity
  8
RACCORDO
100
AcDbLine
 62
7
  6
CONTINUOUS
 10
7.4205733367
 20
-35.5170274398
 11
7.6177214282
 21
-35.5609728843
  0
LINE
  5
2A5
100
AcDbEntity
  8
0
100
AcDbLine
 62
7
  6
CONTINUOUS
 10
3.052066296
 20
-24.0504582302
 11
3.0950167621
 21
-24.060104916
  0
LINE
  5
2A6
100
AcDbEntity
  8
RACCORDO
100
AcDbLine
 62
7
  6
CONTINUOUS
 10
7.2233290174
 20
-35.4718089484
 11
7.4205733367
 21
-35.5170274398
  0
LINE
  5
2A7
100
AcDbEntity
  8
RACCORDO
100
AcDbLine
 62
7
  6
CONTINUOUS
 10
7.1690660902
 20
-35.5467042233
 11
7.6468971235
 21
-35.6562963866
  0
LINE
  5
2A8
100
AcDbEntity
  8
RACCORDO
100
AcDbLine
 62
7
  6
CONTINUOUS
 10
7.0259953438
 20
-35.4253181861
 11
7.2233290174
 21
-35.4718089484
  0
LINE
  5
2A9
100
AcDbEntity
  8
0
100
AcDbLine
 62
7
  6
CONTINUOUS
 10
3.5468200663
 20
-24.7163458456
 11
3.5276126341
 21
-24.7118219636
  0
LINE
  5
2AA
100
AcDbEntity
  8
0
100
AcDbLine
 62
7
  6
CONTINUOUS
 10
8.8958128274
 20
-22.6041951945
 11
8.8547650784
 21
-22.5945063985
  0
LINE
  5
2AB
100
AcDbEntity
  8
RACCORDO
100
AcDbLine
 62
7
  6
CONTINUOUS
 10
6.8285720565
 20
-35.3775552645
 11
7.0259953438
 21
-35.4253181861
  0
LINE
  5
2AC
100
AcDbEntity
  8
RACCORDO
100
AcDbLine
 62
7
  6
CONTINUOUS
 10
6.6908587355
 20
-35.4297330703
 11
7.1690660902
 21
-35.5467042233
  0
LINE
  5
2AD
100
AcDbEntity
  8
0
100
AcDbLine
 62
7
  6
CONTINUOUS
 10
2.7009553695
 20
-23.4641346585
 11
2.6515304923
 21
-23.4519732899
  0
LINE
  5
2AE
100
AcDbEntity
  8
0
100
AcDbLine
 62
7
  6
CONTINUOUS
 10
3.453273417
 20
-24.7854295044
 11
3.4350741107
 21
-24.7809400023
  0
LINE
  5
2AF
100
AcDbEntity
  8
0
100
AcDbLine
 62
7
  6
CONTINUOUS
 10
2.6179863914
 20
-23.5356666573
 11
2.5652695487
 21
-23.5226341183
  0
LINE
  5
2B0
100
AcDbEntity
  8
RACCORDO
100
AcDbLine
 62
7
  6
CONTINUOUS
 10
6.6310588761
 20
-35.3285199295
 11
6.8285720565
 21
-35.3775552645
  0
LINE
  5
2B1
100
AcDbEntity
  8
0
100
AcDbLine
 62
7
  6
CONTINUOUS
 10
2.7503842501
 20
-23.47667142
 11
2.7009553695
 21
-23.4641346585
  0
LINE
  5
2B2
100
AcDbEntity
  8
0
100
AcDbLine
 62
7
  6
CONTINUOUS
 10
3.0950167621
 20
-24.060104916
 11
3.1377945012
 21
-24.0709763164
  0
LINE
  5
2B3
100
AcDbEntity
  8
0
100
AcDbLine
 62
7
  6
CONTINUOUS
 10
2.6694162911
 20
-23.5487321846
 11
2.6179863914
 21
-23.5356666573
  0
LINE
  5
2B4
100
AcDbEntity
  8
RACCORDO
100
AcDbLine
 62
7
  6
CONTINUOUS
 10
6.4334626208
 20
-35.2782124108
 11
6.6310588761
 21
-35.3285199295
  0
LINE
  5
2B5
100
AcDbEntity
  8
RACCORDO
100
AcDbLine
 62
7
  6
CONTINUOUS
 10
6.2123698869
 20
-35.3054071752
 11
6.6908587355
 21
-35.4297330703
  0
LINE
  5
2B6
100
AcDbEntity
  8
RACCORDO
100
AcDbLine
 62
7
  6
CONTINUOUS
 10
6.2357829275
 20
-35.2266327236
 11
6.4334626208
 21
-35.2782124108
  0
LINE
  5
2B7
100
AcDbEntity
  8
0
100
AcDbLine
 62
7
  6
CONTINUOUS
 10
2.7195579787
 20
-23.5618317051
 11
2.6694162911
 21
-23.5487321846
  0
LINE
  5
2B8
100
AcDbEntity
  8
0
100
AcDbLine
 62
7
  6
CONTINUOUS
 10
2.7998170198
 20
-23.4895836226
 11
2.7503842501
 21
-23.47667142
  0
LINE
  5
2B9
100
AcDbEntity
  8
0
100
AcDbLine
 62
7
  6
CONTINUOUS
 10
3.5276126341
 20
-24.7118219636
 11
3.5083188411
 21
-24.7067135307
  0
LINE
  5
2BA
100
AcDbEntity
  8
0
100
AcDbLine
 62
7
  6
CONTINUOUS
 10
8.6987141028
 20
-23.282011473
 11
8.6355921169
 21
-23.2652710361
  0
LINE
  5
2BB
100
AcDbEntity
  8
RACCORDO
100
AcDbLine
 62
7
  6
CONTINUOUS
 10
6.0380196792
 20
-35.1737805934
 11
6.2357829275
 21
-35.2266327236
  0
LINE
  5
2BC
100
AcDbEntity
  8
0
100
AcDbLine
 62
7
  6
CONTINUOUS
 10
2.8492201145
 20
-23.5028185194
 11
2.7998170198
 21
-23.4895836226
  0
LINE
  5
2BD
100
AcDbEntity
  8
0
100
AcDbLine
 62
7
  6
CONTINUOUS
 10
2.7682800065
 20
-23.5749210174
 11
2.7195579787
 21
-23.5618317051
  0
LINE
  5
2BE
100
AcDbEntity
  8
0
100
AcDbLine
 62
7
  6
CONTINUOUS
 10
3.4350741107
 20
-24.7809400023
 11
3.4169857682
 21
-24.7760087072
  0
LINE
  5
2BF
100
AcDbEntity
  8
RACCORDO
100
AcDbLine
 62
7
  6
CONTINUOUS
 10
5.840180036
 20
-35.1196558182
 11
6.0380196792
 21
-35.1737805934
  0
LINE
  5
2C0
100
AcDbEntity
  8
RACCORDO
100
AcDbLine
 62
7
  6
CONTINUOUS
 10
5.733693125
 20
-35.1737518418
 11
6.2123698869
 21
-35.3054071752
  0
LINE
  5
2C1
100
AcDbEntity
  8
0
100
AcDbLine
 62
7
  6
CONTINUOUS
 10
2.8986268664
 20
-23.5164289582
 11
2.8492201145
 21
-23.5028185194
  0
LINE
  5
2C2
100
AcDbEntity
  8
0
100
AcDbLine
 62
7
  6
CONTINUOUS
 10
2.8157113304
 20
-23.5880463058
 11
2.7682800065
 21
-23.5749210174
  0
LINE
  5
2C3
100
AcDbEntity
  8
RACCORDO
100
AcDbLine
 62
7
  6
CONTINUOUS
 10
5.6422662314
 20
-35.0642582159
 11
5.840180036
 21
-35.1196558182
  0
LINE
  5
2C4
100
AcDbEntity
  8
0
100
AcDbLine
 62
7
  6
CONTINUOUS
 10
8.8547650784
 20
-22.5945063985
 11
8.8138714832
 21
-22.582939116
  0
LINE
  5
2C5
100
AcDbEntity
  8
0
100
AcDbLine
 62
7
  6
CONTINUOUS
 10
3.1377945012
 20
-24.0709763164
 11
3.1803990957
 21
-24.0830726652
  0
LINE
  5
2C6
100
AcDbEntity
  8
0
100
AcDbLine
 62
7
  6
CONTINUOUS
 10
2.8622416552
 20
-23.6013438493
 11
2.8157113304
 21
-23.5880463058
  0
LINE
  5
2C7
100
AcDbEntity
  8
0
100
AcDbLine
 62
7
  6
CONTINUOUS
 10
2.9481375647
 20
-23.5305733166
 11
2.8986268664
 21
-23.5164289582
  0
LINE
  5
2C8
100
AcDbEntity
  8
RACCORDO
100
AcDbLine
 62
7
  6
CONTINUOUS
 10
5.4442756045
 20
-35.0075875999
 11
5.6422662314
 21
-35.0642582159
  0
LINE
  5
2C9
100
AcDbEntity
  8
0
100
AcDbLine
 62
7
  6
CONTINUOUS
 10
-9.6328230572
 20
-14.7792178083
 11
-9.5931905094
 21
-14.7905772452
  0
LINE
  5
2CA
100
AcDbEntity
  8
RACCORDO
100
AcDbLine
 62
7
  6
CONTINUOUS
 10
5.3218518312
 20
-35.0546569065
 11
5.733693125
 21
-35.1737518418
  0
LINE
  5
2CB
100
AcDbEntity
  8
0
100
AcDbLine
 62
7
  6
CONTINUOUS
 10
3.5083188411
 20
-24.7067135307
 11
3.4889608798
 21
-24.7010814097
  0
LINE
  5
2CC
100
AcDbEntity
  8
RACCORDO
100
AcDbLine
 62
7
  6
CONTINUOUS
 10
5.2462079748
 20
-34.9496437442
 11
5.4442756045
 21
-35.0075875999
  0
LINE
  5
2CD
100
AcDbEntity
  8
0
100
AcDbLine
 62
7
  6
CONTINUOUS
 10
2.9078712279
 20
-23.6148108603
 11
2.8622416552
 21
-23.6013438493
  0
LINE
  5
2CE
100
AcDbEntity
  8
0
100
AcDbLine
 62
7
  6
CONTINUOUS
 10
2.9977620541
 20
-23.5452502764
 11
2.9481375647
 21
-23.5305733166
  0
LINE
  5
2CF
100
AcDbEntity
  8
0
100
AcDbLine
 62
7
  6
CONTINUOUS
 10
3.4169857682
 20
-24.7760087072
 11
3.3990998076
 21
-24.7707065502
  0
LINE
  5
2D0
100
AcDbEntity
  8
RACCORDO
100
AcDbLine
 62
7
  6
CONTINUOUS
 10
10.2465961437
 20
-36.0964258621
 11
10.2662162091
 21
-36.1023319553
  0
LINE
  5
2D1
100
AcDbEntity
  8
0
100
AcDbLine
 62
7
  6
CONTINUOUS
 10
2.9525981884
 20
-23.6284513853
 11
2.9078712279
 21
-23.6148108603
  0
LINE
  5
2D2
100
AcDbEntity
  8
0
100
AcDbLine
 62
7
  6
CONTINUOUS
 10
3.0474904095
 20
-23.5604610996
 11
2.9977620541
 21
-23.5452502764
  0
LINE
  5
2D3
100
AcDbEntity
  8
RACCORDO
100
AcDbLine
 62
7
  6
CONTINUOUS
 10
4.3828575064
 20
-34.7665604846
 11
5.3218517801
 21
-35.0546567908
  0
LINE
  5
2D4
100
AcDbEntity
  8
RACCORDO
100
AcDbLine
 62
7
  6
CONTINUOUS
 10
4.2634042912
 20
-34.6475434174
 11
5.2462079748
 21
-34.9496437442
  0
LINE
  5
2D5
100
AcDbEntity
  8
0
100
AcDbLine
 62
7
  6
CONTINUOUS
 10
3.1803990957
 20
-24.0830726652
 11
3.2227740865
 21
-24.0963705662
  0
LINE
  5
2D6
100
AcDbEntity
  8
RACCORDO
100
AcDbLine
 62
7
  6
CONTINUOUS
 10
9.4696998197
 20
-36.0042152433
 11
9.4876590582
 21
-36.0098809879
  0
LINE
  5
2D7
100
AcDbEntity
  8
0
100
AcDbLine
 62
7
  6
CONTINUOUS
 10
2.9968097109
 20
-23.6424114215
 11
2.9525981884
 21
-23.6284513853
  0
LINE
  5
2D8
100
AcDbEntity
  8
0
100
AcDbLine
 62
7
  6
CONTINUOUS
 10
8.6355921169
 20
-23.2652710361
 11
8.5724252084
 21
-23.2452287102
  0
LINE
  5
2D9
100
AcDbEntity
  8
0
100
AcDbLine
 62
7
  6
CONTINUOUS
 10
3.097393359
 20
-23.5763679272
 11
3.0474904095
 21
-23.5604610996
  0
LINE
  5
2DA
100
AcDbEntity
  8
0
100
AcDbLine
 62
7
  6
CONTINUOUS
 10
3.4889608798
 20
-24.7010814097
 11
3.469516511
 21
-24.6948647317
  0
LINE
  5
2DB
100
AcDbEntity
  8
0
100
AcDbLine
 62
7
  6
CONTINUOUS
 10
3.3990998076
 20
-24.7707065502
 11
3.3813246504
 21
-24.7649626999
  0
LINE
  5
2DC
100
AcDbEntity
  8
0
100
AcDbLine
 62
7
  6
CONTINUOUS
 10
3.0405111981
 20
-23.6566820792
 11
2.9968097109
 21
-23.6424114215
  0
LINE
  5
2DD
100
AcDbEntity
  8
RACCORDO
100
AcDbLine
 62
7
  6
CONTINUOUS
 10
3.3844629555
 20
-34.437293999
 11
4.3828575064
 21
-34.7665604846
  0
LINE
  5
2DE
100
AcDbEntity
  8
RACCORDO
100
AcDbLine
 62
7
  6
CONTINUOUS
 10
3.2833384185
 20
-34.3233764267
 11
4.2634042912
 21
-34.6475434174
  0
LINE
  5
2DF
100
AcDbEntity
  8
0
100
AcDbLine
 62
7
  6
CONTINUOUS
 10
3.1474802818
 20
-23.5929686892
 11
3.097393359
 21
-23.5763679272
  0
LINE
  5
2E0
100
AcDbEntity
  8
0
100
AcDbLine
 62
7
  6
CONTINUOUS
 10
3.0836963102
 20
-23.671272941
 11
3.0405111981
 21
-23.6566820792
  0
LINE
  5
2E1
100
AcDbEntity
  8
0
100
AcDbLine
 62
7
  6
CONTINUOUS
 10
3.2227740865
 20
-24.0963705662
 11
3.2649751739
 21
-24.1108938125
  0
LINE
  5
2E2
100
AcDbEntity
  8
0
100
AcDbLine
 62
7
  6
CONTINUOUS
 10
3.1977418174
 20
-23.6102652806
 11
3.1474802818
 21
-23.5929686892
  0
LINE
  5
2E3
100
AcDbEntity
  8
0
100
AcDbLine
 62
7
  6
CONTINUOUS
 10
8.5724252084
 20
-23.2452287102
 11
6.5810406714
 21
-22.5554091907
  0
LINE
  5
2E4
100
AcDbEntity
  8
0
100
AcDbLine
 62
7
  6
CONTINUOUS
 10
8.8138712342
 20
-22.5829393386
 11
6.828468122
 21
-21.8951694703
  0
LINE
  5
2E5
100
AcDbEntity
  8
0
100
AcDbLine
 62
7
  6
CONTINUOUS
 10
3.469516511
 20
-24.6948647317
 11
3.4499857205
 21
-24.6880634838
  0
LINE
  5
2E6
100
AcDbEntity
  8
0
100
AcDbLine
 62
7
  6
CONTINUOUS
 10
3.3813246504
 20
-24.7649626999
 11
3.3636602315
 21
-24.7587771923
  0
LINE
  5
2E7
100
AcDbEntity
  8
0
100
AcDbLine
 62
7
  6
CONTINUOUS
 10
3.126735167
 20
-23.6863572296
 11
3.0836963102
 21
-23.671272941
  0
LINE
  5
2E8
100
AcDbEntity
  8
RACCORDO
100
AcDbLine
 62
7
  6
CONTINUOUS
 10
2.3884985784
 20
-34.0851075654
 11
3.3844629555
 21
-34.437293999
  0
LINE
  5
2E9
100
AcDbEntity
  8
RACCORDO
100
AcDbLine
 62
7
  6
CONTINUOUS
 10
2.3059895525
 20
-33.9771499903
 11
3.2833384185
 21
-34.3233764267
  0
LINE
  5
2EA
100
AcDbEntity
  8
0
100
AcDbLine
 62
7
  6
CONTINUOUS
 10
-9.6704924453
 20
-14.7657436497
 11
-9.6328230572
 21
-14.7792178083
  0
LINE
  5
2EB
100
AcDbEntity
  8
0
100
AcDbLine
 62
7
  6
CONTINUOUS
 10
3.2482206372
 20
-23.6284257119
 11
3.1977418174
 21
-23.6102652806
  0
LINE
  5
2EC
100
AcDbEntity
  8
0
100
AcDbLine
 62
7
  6
CONTINUOUS
 10
6.5810406714
 20
-22.5554091907
 11
4.6091727296
 21
-21.8459593504
  0
LINE
  5
2ED
100
AcDbEntity
  8
0
100
AcDbLine
 62
7
  6
CONTINUOUS
 10
6.828468122
 20
-21.8951694703
 11
4.8634871203
 21
-21.188198336
  0
LINE
  5
2EE
100
AcDbEntity
  8
0
100
AcDbLine
 62
7
  6
CONTINUOUS
 10
3.1696584652
 20
-23.7019312793
 11
3.126735167
 21
-23.6863572296
  0
LINE
  5
2EF
100
AcDbEntity
  8
0
100
AcDbLine
 62
7
  6
CONTINUOUS
 10
9.7226188465
 20
-22.5531901735
 11
9.6851149717
 21
-22.5393897036
  0
LINE
  5
2F0
100
AcDbEntity
  8
RACCORDO
100
AcDbLine
 62
7
  6
CONTINUOUS
 10
5.312205141
 20
-35.0510815341
 11
5.3218517527
 21
-35.0546568833
  0
LINE
  5
2F1
100
AcDbEntity
  8
0
100
AcDbLine
 62
7
  6
CONTINUOUS
 10
3.922392476
 20
-26.1545297201
 11
4.3941722101
 21
-26.3302029766
  0
LINE
  5
2F2
100
AcDbEntity
  8
0
100
AcDbLine
 62
7
  6
CONTINUOUS
 10
4.6091727296
 20
-21.8459593504
 11
2.6573168626
 21
-21.1170587622
  0
LINE
  5
2F3
100
AcDbEntity
  8
0
100
AcDbLine
 62
7
  6
CONTINUOUS
 10
4.8634871203
 20
-21.188198336
 11
2.9189282292
 21
-20.4620259359
  0
LINE
  5
2F4
100
AcDbEntity
  8
0
100
AcDbLine
 62
7
  6
CONTINUOUS
 10
3.2649751739
 20
-24.1108938125
 11
3.3071703438
 21
-24.1267132752
  0
LINE
  5
2F5
100
AcDbEntity
  8
0
100
AcDbLine
 62
7
  6
CONTINUOUS
 10
3.2989682295
 20
-23.6474674195
 11
3.2482206372
 21
-23.6284257119
  0
LINE
  5
2F6
100
AcDbEntity
  8
0
100
AcDbLine
 62
7
  6
CONTINUOUS
 10
3.2124351502
 20
-23.7179989471
 11
3.1696584652
 21
-23.7019312793
  0
LINE
  5
2F7
100
AcDbEntity
  8
0
100
AcDbLine
 62
7
  6
CONTINUOUS
 10
3.3636602315
 20
-24.7587771923
 11
3.3016354655
 21
-24.7353682303
  0
LINE
  5
2F8
100
AcDbEntity
  8
RACCORDO
100
AcDbLine
 62
7
  6
CONTINUOUS
 10
1.3954375789
 20
-33.7101576048
 11
2.3884985784
 21
-34.0851075654
  0
LINE
  5
2F9
100
AcDbEntity
  8
RACCORDO
100
AcDbLine
 62
7
  6
CONTINUOUS
 10
1.3309035596
 20
-33.6086891514
 11
2.3059895525
 21
-33.9771499903
  0
LINE
  5
2FA
100
AcDbEntity
  8
0
100
AcDbLine
 62
7
  6
CONTINUOUS
 10
3.1214449424
 20
-25.0181837826
 11
3.3831686225
 21
-25.1171379124
  0
LINE
  5
2FB
100
AcDbEntity
  8
0
100
AcDbLine
 62
7
  6
CONTINUOUS
 10
3.4499857269
 20
-24.6880634862
 11
3.1710318923
 21
-24.582585701
  0
LINE
  5
2FC
100
AcDbEntity
  8
0
100
AcDbLine
 62
7
  6
CONTINUOUS
 10
3.3016354655
 20
-24.7353682303
 11
3.0847119186
 21
-24.6532948839
  0
LINE
  5
2FD
100
AcDbEntity
  8
0
100
AcDbLine
 62
7
  6
CONTINUOUS
 10
2.6887088063
 20
-25.6881074006
 11
3.1738580123
 21
-25.8727529793
  0
LINE
  5
2FE
100
AcDbEntity
  8
0
100
AcDbLine
 62
7
  6
CONTINUOUS
 10
2.0343925441
 20
-25.4365388118
 11
2.5459234233
 21
-25.6334592464
  0
LINE
  5
2FF
100
AcDbEntity
  8
0
100
AcDbLine
 62
7
  6
CONTINUOUS
 10
2.6573168626
 20
-21.1170587622
 11
0.7259610276
 21
-20.3688904153
  0
LINE
  5
300
100
AcDbEntity
  8
0
100
AcDbLine
 62
7
  6
CONTINUOUS
 10
2.9189282292
 20
-20.4620259359
 11
0.9943047056
 21
-19.7164567162
  0
LINE
  5
301
100
AcDbEntity
  8
0
100
AcDbLine
 62
7
  6
CONTINUOUS
 10
1.7944738015
 20
-23.0966103044
 11
1.3268136485
 21
-22.9143500748
  0
LINE
  5
302
100
AcDbEntity
  8
0
100
AcDbLine
 62
7
  6
CONTINUOUS
 10
1.223303446
 20
-24.695844644
 11
1.8815814634
 21
-24.9524818604
  0
LINE
  5
303
100
AcDbEntity
  8
0
100
AcDbLine
 62
7
  6
CONTINUOUS
 10
1.7645184728
 20
-24.5773051808
 11
1.3017185631
 21
-24.3968796729
  0
LINE
  5
304
100
AcDbEntity
  8
0
100
AcDbLine
 62
7
  6
CONTINUOUS
 10
1.708225983
 20
-23.1672603813
 11
1.2405705064
 21
-22.984996321
  0
LINE
  5
305
100
AcDbEntity
  8
0
100
AcDbLine
 62
7
  6
CONTINUOUS
 10
1.7290402934
 20
-24.4592463442
 11
1.3880390628
 21
-24.3261700591
  0
LINE
  5
306
100
AcDbEntity
  8
0
100
AcDbLine
 62
7
  6
CONTINUOUS
 10
3.255343166
 20
-23.7347443389
 11
3.2124351502
 21
-23.7179989471
  0
LINE
  5
307
100
AcDbEntity
  8
0
100
AcDbLine
 62
7
  6
CONTINUOUS
 10
3.3499332251
 20
-23.6673726615
 11
3.2989682295
 21
-23.6474674195
  0
LINE
  5
308
100
AcDbEntity
  8
0
100
AcDbLine
 62
7
  6
CONTINUOUS
 10
0.6413220905
 20
-24.8910893217
 11
1.1175321487
 21
-25.0790678791
  0
LINE
  5
309
100
AcDbEntity
  8
0
100
AcDbLine
 62
7
  6
CONTINUOUS
 10
0.096368672
 20
-24.6740150285
 11
0.5658443528
 21
-24.8611490648
  0
LINE
  5
30A
100
AcDbEntity
  8
0
100
AcDbLine
 62
7
  6
CONTINUOUS
 10
0.2260062163
 20
-22.5843417333
 11
-0.2482120535
 21
-22.3945845984
  0
LINE
  5
30B
100
AcDbEntity
  8
0
100
AcDbLine
 62
7
  6
CONTINUOUS
 10
0.3122436221
 20
-22.513700186
 11
-0.1619752363
 21
-22.3239435333
  0
LINE
  5
30C
100
AcDbEntity
  8
RACCORDO
100
AcDbLine
 62
7
  6
CONTINUOUS
 10
0.3585164367
 20
-33.2181571843
 11
1.3309035596
 21
-33.6086891514
  0
LINE
  5
30D
100
AcDbEntity
  8
0
100
AcDbLine
 62
7
  6
CONTINUOUS
 10
0.7259610276
 20
-20.3688904153
 11
-1.1844067429
 21
-19.6016436486
  0
LINE
  5
30E
100
AcDbEntity
  8
0
100
AcDbLine
 62
7
  6
CONTINUOUS
 10
0.9943047056
 20
-19.7164567162
 11
-0.9098967075
 21
-18.9516862306
  0
LINE
  5
30F
100
AcDbEntity
  8
0
100
AcDbLine
 62
7
  6
CONTINUOUS
 10
9.4617034273
 20
-21.86210798
 11
-7.5492345297
 21
-15.0301317938
  0
LINE
  5
310
100
AcDbEntity
  8
0
100
AcDbLine
 62
7
  6
CONTINUOUS
 10
7.9001940326
 20
-20.333994025
 11
-4.3870866318
 21
-15.3991451
  0
LINE
  5
311
100
AcDbEntity
  8
RACCORDO
100
AcDbLine
 62
7
  6
CONTINUOUS
 10
0.4056730283
 20
-33.3125959535
 11
1.3954375789
 21
-33.7101576048
  0
LINE
  5
312
100
AcDbEntity
  8
0
100
AcDbLine
 62
7
  6
CONTINUOUS
 10
3.2984969963
 20
-23.75219928
 11
3.255343166
 21
-23.7347443389
  0
LINE
  5
313
100
AcDbEntity
  8
0
100
AcDbLine
 62
7
  6
CONTINUOUS
 10
-0.6375634533
 20
-24.3783240294
 11
-0.5706236372
 21
-24.4054531422
  0
LINE
  5
314
100
AcDbEntity
  8
0
100
AcDbLine
 62
7
  6
CONTINUOUS
 10
3.3071703438
 20
-24.1267132752
 11
3.3494155406
 21
-24.1438525301
  0
LINE
  5
315
100
AcDbEntity
  8
0
100
AcDbLine
 62
7
  6
CONTINUOUS
 10
3.3831686225
 20
-25.1171379124
 11
3.4022857921
 21
-25.1249266971
  0
LINE
  5
316
100
AcDbEntity
  8
0
100
AcDbLine
 62
7
  6
CONTINUOUS
 10
3.4010039263
 20
-23.6882567158
 11
3.3499332251
 21
-23.6673726615
  0
LINE
  5
317
100
AcDbEntity
  8
0
100
AcDbLine
 62
7
  6
CONTINUOUS
 10
-1.1977851662
 20
-22.0097853549
 11
-1.6727014379
 21
-21.8148889897
  0
LINE
  5
318
100
AcDbEntity
  8
0
100
AcDbLine
 62
7
  6
CONTINUOUS
 10
-1.1115454636
 20
-21.9391419262
 11
-1.5864582355
 21
-21.7442426941
  0
LINE
  5
319
100
AcDbEntity
  8
0
100
AcDbLine
 62
7
  6
CONTINUOUS
 10
-1.753190423
 20
-23.9214071422
 11
-1.2990599412
 21
-24.1084942297
  0
LINE
  5
31A
100
AcDbEntity
  8
0
100
AcDbLine
 62
7
  6
CONTINUOUS
 10
-1.1844067429
 20
-19.6016436486
 11
-3.0732987407
 21
-18.8155143375
  0
LINE
  5
31B
100
AcDbEntity
  8
0
100
AcDbLine
 62
7
  6
CONTINUOUS
 10
-0.9098967075
 20
-18.9516862306
 11
-2.7922157813
 21
-18.1683011404
  0
LINE
  5
31C
100
AcDbEntity
  8
0
100
AcDbLine
 62
7
  6
CONTINUOUS
 10
-2.4808602509
 20
-23.6184663693
 11
-2.0081952902
 21
-23.8156899005
  0
LINE
  5
31D
100
AcDbEntity
  8
0
100
AcDbLine
 62
7
  6
CONTINUOUS
 10
-2.132906983
 20
-21.6243276852
 11
-2.6055809289
 21
-21.4271115143
  0
LINE
  5
31E
100
AcDbEntity
  8
0
100
AcDbLine
 62
7
  6
CONTINUOUS
 10
-2.0466590722
 20
-21.5536775328
 11
-2.519326807
 21
-21.356456274
  0
LINE
  5
31F
100
AcDbEntity
  8
0
100
AcDbLine
 62
7
  6
CONTINUOUS
 10
3.3417822463
 20
-23.7703317284
 11
3.2984969963
 21
-23.75219928
  0
LINE
  5
320
100
AcDbEntity
  8
0
100
AcDbLine
 62
7
  6
CONTINUOUS
 10
-2.7806443067
 20
-21.3537776557
 11
-3.2511630216
 21
-21.1551950228
  0
LINE
  5
321
100
AcDbEntity
  8
0
100
AcDbLine
 62
7
  6
CONTINUOUS
 10
-2.6943875234
 20
-21.2831202352
 11
-3.1648981467
 21
-21.0845309742
  0
LINE
  5
322
100
AcDbEntity
  8
RACCORDO
100
AcDbLine
 62
7
  6
CONTINUOUS
 10
-0.6098704671
 20
-32.8060763479
 11
0.3585164367
 21
-33.2181571843
  0
LINE
  5
323
100
AcDbEntity
  8
RACCORDO
100
AcDbLine
 62
7
  6
CONTINUOUS
 10
-0.5804314017
 20
-32.89256779
 11
0.4056730283
 21
-33.3125959535
  0
LINE
  5
324
100
AcDbEntity
  8
0
100
AcDbLine
 62
7
  6
CONTINUOUS
 10
3.4521834352
 20
-23.7100678095
 11
3.4010039263
 21
-23.6882567158
  0
LINE
  5
325
100
AcDbEntity
  8
0
100
AcDbLine
 62
7
  6
CONTINUOUS
 10
-3.7935718596
 20
-23.0619547672
 11
-3.3804030437
 21
-23.238516687
  0
LINE
  5
326
100
AcDbEntity
  8
0
100
AcDbLine
 62
7
  6
CONTINUOUS
 10
-3.0732987407
 20
-18.8155143375
 11
-4.9402378599
 21
-18.0107007651
  0
LINE
  5
327
100
AcDbEntity
  8
0
100
AcDbLine
 62
7
  6
CONTINUOUS
 10
-2.7922157813
 20
-18.1683011404
 11
-4.652165773
 21
-17.3664969995
  0
LINE
  5
328
100
AcDbEntity
  8
0
100
AcDbLine
 62
7
  6
CONTINUOUS
 10
-4.1206876778
 20
-20.7838169225
 11
-4.627952964
 21
-20.5644963187
  0
LINE
  5
329
100
AcDbEntity
  8
0
100
AcDbLine
 62
7
  6
CONTINUOUS
 10
-4.0344041442
 20
-20.7131375896
 11
-4.541656296
 21
-20.4938062267
  0
LINE
  5
32A
100
AcDbEntity
  8
0
100
AcDbLine
 62
7
  6
CONTINUOUS
 10
3.3851336836
 20
-23.7892298464
 11
3.3417822463
 21
-23.7703317284
  0
LINE
  5
32B
100
AcDbEntity
  8
0
100
AcDbLine
 62
7
  6
CONTINUOUS
 10
3.3494155406
 20
-24.1438525301
 11
3.3916545402
 21
-24.1622879681
  0
LINE
  5
32C
100
AcDbEntity
  8
0
100
AcDbLine
 62
7
  6
CONTINUOUS
 10
-9.70589974
 20
-14.7502616965
 11
-9.6704924453
 21
-14.7657436497
  0
LINE
  5
32D
100
AcDbEntity
  8
0
100
AcDbLine
 62
7
  6
CONTINUOUS
 10
-7.5492345297
 20
-15.0301317938
 11
-7.5982067768
 21
-15.0086310231
  0
LINE
  5
32E
100
AcDbEntity
  8
0
100
AcDbLine
 62
7
  6
CONTINUOUS
 10
3.5034686076
 20
-23.7328575057
 11
3.4521834352
 21
-23.7100678095
  0
LINE
  5
32F
100
AcDbEntity
  8
0
100
AcDbLine
 62
7
  6
CONTINUOUS
 10
-4.9402378599
 20
-18.0107007651
 11
-6.7847574279
 21
-17.1874033443
  0
LINE
  5
330
100
AcDbEntity
  8
0
100
AcDbLine
 62
7
  6
CONTINUOUS
 10
-4.652165773
 20
-17.3664969995
 11
-6.4902334255
 21
-16.5460782541
  0
LINE
  5
331
100
AcDbEntity
  8
0
100
AcDbLine
 62
7
  6
CONTINUOUS
 10
9.6851149717
 20
-22.5393897036
 11
9.6498964396
 21
-22.5235907565
  0
LINE
  5
332
100
AcDbEntity
  8
RACCORDO
100
AcDbLine
 62
7
  6
CONTINUOUS
 10
-1.5738427297
 20
-32.3726245871
 11
-0.6098704671
 21
-32.8060763479
  0
LINE
  5
333
100
AcDbEntity
  8
RACCORDO
100
AcDbLine
 62
7
  6
CONTINUOUS
 10
-1.5624826485
 20
-32.4502358585
 11
-0.5804314017
 21
-32.89256779
  0
LINE
  5
334
100
AcDbEntity
  8
0
100
AcDbLine
 62
7
  6
CONTINUOUS
 10
3.428577797
 20
-23.8088508201
 11
3.3851336836
 21
-23.7892298464
  0
LINE
  5
335
100
AcDbEntity
  8
0
100
AcDbLine
 62
7
  6
CONTINUOUS
 10
-6.7847574279
 20
-17.1874033443
 11
-8.6063938014
 21
-16.3458277085
  0
LINE
  5
336
100
AcDbEntity
  8
0
100
AcDbLine
 62
7
  6
CONTINUOUS
 10
-6.4902334255
 20
-16.5460782541
 11
-8.3064187386
 21
-15.7070449042
  0
LINE
  5
337
100
AcDbEntity
  8
0
100
AcDbLine
 62
7
  6
CONTINUOUS
 10
3.4022857921
 20
-25.1249266971
 11
3.4210515345
 21
-25.133644455
  0
LINE
  5
338
100
AcDbEntity
  8
0
100
AcDbLine
 62
7
  6
CONTINUOUS
 10
3.3916545402
 20
-24.1622879681
 11
3.4338872386
 21
-24.1820195369
  0
LINE
  5
339
100
AcDbEntity
  8
0
100
AcDbLine
 62
7
  6
CONTINUOUS
 10
3.4720880914
 20
-23.8292373031
 11
3.428577797
 21
-23.8088508201
  0
LINE
  5
33A
100
AcDbEntity
  8
0
100
AcDbLine
 62
7
  6
CONTINUOUS
 10
3.5547381703
 20
-23.7568962075
 11
3.5034686076
 21
-23.7328575057
  0
LINE
  5
33B
100
AcDbEntity
  8
RACCORDO
100
AcDbLine
 62
7
  6
CONTINUOUS
 10
-2.5338473145
 20
-31.9176150851
 11
-1.5738427297
 21
-32.3726245871
  0
LINE
  5
33C
100
AcDbEntity
  8
RACCORDO
100
AcDbLine
 62
7
  6
CONTINUOUS
 10
-2.5400145045
 20
-31.9858198448
 11
-1.5624826485
 21
-32.4502358585
  0
LINE
  5
33D
100
AcDbEntity
  8
0
100
AcDbLine
 62
7
  6
CONTINUOUS
 10
3.6061006492
 20
-23.7821564395
 11
3.5547381703
 21
-23.7568962075
  0
LINE
  5
33E
100
AcDbEntity
  8
0
100
AcDbLine
 62
7
  6
CONTINUOUS
 10
3.51551971
 20
-23.8506057483
 11
3.4720880914
 21
-23.8292373031
  0
LINE
  5
33F
100
AcDbEntity
  8
0
100
AcDbLine
 62
7
  6
CONTINUOUS
 10
-8.6063938014
 20
-16.3458277085
 11
-8.6636128037
 21
-16.3175205767
  0
LINE
  5
340
100
AcDbEntity
  8
RACCORDO
100
AcDbLine
 62
7
  6
CONTINUOUS
 10
-3.4898867551
 20
-31.4410311501
 11
-2.5338473145
 21
-31.9176150851
  0
LINE
  5
341
100
AcDbEntity
  8
RACCORDO
100
AcDbLine
 62
7
  6
CONTINUOUS
 10
-3.4477876011
 20
-31.5326905911
 11
-2.5400145045
 21
-31.9858198448
  0
LINE
  5
342
100
AcDbEntity
  8
RACCORDO
100
AcDbLine
 62
7
  6
CONTINUOUS
 10
10.2276718555
 20
-36.086861396
 11
10.2465961437
 21
-36.0964258621
  0
LINE
  5
343
100
AcDbEntity
  8
0
100
AcDbLine
 62
7
  6
CONTINUOUS
 10
-6.7414174129
 20
-14.378474785
 11
-6.7890068853
 21
-14.3542767277
  0
LINE
  5
344
100
AcDbEntity
  8
0
100
AcDbLine
 62
7
  6
CONTINUOUS
 10
3.4338872386
 20
-24.1820195369
 11
3.4531558567
 21
-24.191863851
  0
LINE
  5
345
100
AcDbEntity
  8
RACCORDO
100
AcDbLine
 62
7
  6
CONTINUOUS
 10
-3.681790239
 20
-31.3423546183
 11
-3.4898867551
 21
-31.4410311501
  0
LINE
  5
346
100
AcDbEntity
  8
0
100
AcDbLine
 62
7
  6
CONTINUOUS
 10
-7.5982067768
 20
-15.0086310231
 11
-7.6469051513
 21
-14.983585669
  0
LINE
  5
347
100
AcDbEntity
  8
0
100
AcDbLine
 62
7
  6
CONTINUOUS
 10
3.5589240715
 20
-23.872958634
 11
3.51551971
 21
-23.8506057483
  0
LINE
  5
348
100
AcDbEntity
  8
0
100
AcDbLine
 62
7
  6
CONTINUOUS
 10
3.6574474276
 20
-23.8086654206
 11
3.6061006492
 21
-23.7821564395
  0
LINE
  5
349
100
AcDbEntity
  8
RACCORDO
100
AcDbLine
 62
7
  6
CONTINUOUS
 10
-3.8512763015
 20
-31.3237545099
 11
-3.447787572
 21
-31.5326906628
  0
LINE
  5
34A
100
AcDbEntity
  8
RACCORDO
100
AcDbLine
 62
7
  6
CONTINUOUS
 10
-3.8734353388
 20
-31.242539522
 11
-3.681790239
 21
-31.3423546183
  0
LINE
  5
34B
100
AcDbEntity
  8
0
100
AcDbLine
 62
7
  6
CONTINUOUS
 10
3.4210515345
 20
-25.133644455
 11
3.4394657165
 21
-25.1432912465
  0
LINE
  5
34C
100
AcDbEntity
  8
RACCORDO
100
AcDbLine
 62
7
  6
CONTINUOUS
 10
-4.064822627
 20
-31.1415857816
 11
-3.8734353388
 21
-31.242539522
  0
LINE
  5
34D
100
AcDbEntity
  8
RACCORDO
100
AcDbLine
 62
7
  6
CONTINUOUS
 10
-4.3130248766
 20
-31.0777397604
 11
-3.8512763015
 21
-31.3237545099
  0
LINE
  5
34E
100
AcDbEntity
  8
RACCORDO
100
AcDbLine
 62
7
  6
CONTINUOUS
 10
-4.2559552319
 20
-31.0394912612
 11
-4.064822627
 21
-31.1415857816
  0
LINE
  5
34F
100
AcDbEntity
  8
0
100
AcDbLine
 62
7
  6
CONTINUOUS
 10
3.6022496298
 20
-23.8962933623
 11
3.5589240715
 21
-23.872958634
  0
LINE
  5
350
100
AcDbEntity
  8
0
100
AcDbLine
 62
7
  6
CONTINUOUS
 10
-8.3064184768
 20
-15.7070446701
 11
-8.3413770301
 21
-15.688147866
  0
LINE
  5
351
100
AcDbEntity
  8
RACCORDO
100
AcDbLine
 62
7
  6
CONTINUOUS
 10
-4.4468310808
 20
-30.9362578635
 11
-4.2559552319
 21
-31.0394912612
  0
LINE
  5
352
100
AcDbEntity
  8
0
100
AcDbLine
 62
7
  6
CONTINUOUS
 10
9.6498964396
 20
-22.5235907565
 11
9.6172427386
 21
-22.5059187098
  0
LINE
  5
353
100
AcDbEntity
  8
RACCORDO
100
AcDbLine
 62
7
  6
CONTINUOUS
 10
9.4526235151
 20
-35.9948966725
 11
9.4696998197
 21
-36.0042152433
  0
LINE
  5
354
100
AcDbEntity
  8
RACCORDO
100
AcDbLine
 62
7
  6
CONTINUOUS
 10
-4.6374429283
 20
-30.8318915553
 11
-4.4468310808
 21
-30.9362578635
  0
LINE
  5
355
100
AcDbEntity
  8
RACCORDO
100
AcDbLine
 62
7
  6
CONTINUOUS
 10
-4.7734871565
 20
-30.8250078024
 11
-4.3130248766
 21
-31.0777397604
  0
LINE
  5
356
100
AcDbEntity
  8
0
100
AcDbLine
 62
7
  6
CONTINUOUS
 10
-8.6636128037
 20
-16.3175205767
 11
-8.7209725125
 21
-16.2858710408
  0
LINE
  5
357
100
AcDbEntity
  8
0
100
AcDbLine
 62
7
  6
CONTINUOUS
 10
3.7083310862
 20
-23.8367758725
 11
3.6574474276
 21
-23.8086654206
  0
LINE
  5
358
100
AcDbEntity
  8
RACCORDO
100
AcDbLine
 62
7
  6
CONTINUOUS
 10
-4.8277910736
 20
-30.7263924463
 11
-4.6374429283
 21
-30.8318915553
  0
LINE
  5
359
100
AcDbEntity
  8
0
100
AcDbLine
 62
7
  6
CONTINUOUS
 10
3.4531558567
 20
-24.191863851
 11
3.472064954
 21
-24.2024567801
  0
LINE
  5
35A
100
AcDbEntity
  8
RACCORDO
100
AcDbLine
 62
7
  6
CONTINUOUS
 10
-5.0178761607
 20
-30.6197601093
 11
-4.8277910736
 21
-30.7263924463
  0
LINE
  5
35B
100
AcDbEntity
  8
RACCORDO
100
AcDbLine
 62
7
  6
CONTINUOUS
 10
-5.2325730873
 20
-30.5656073813
 11
-4.7734871565
 21
-30.8250078024
  0
LINE
  5
35C
100
AcDbEntity
  8
RACCORDO
100
AcDbLine
 62
7
  6
CONTINUOUS
 10
-5.207691469
 20
-30.5119997175
 11
-5.0178761607
 21
-30.6197601093
  0
LINE
  5
35D
100
AcDbEntity
  8
RACCORDO
100
AcDbLine
 62
7
  6
CONTINUOUS
 10
-14.3161585162
 20
-18.9574521041
 11
-14.3373627078
 21
-18.9453479565
  0
LINE
  5
35E
100
AcDbEntity
  8
0
100
AcDbLine
 62
7
  6
CONTINUOUS
 10
3.6451968058
 20
-23.9208189533
 11
3.6022496298
 21
-23.8962933623
  0
LINE
  5
35F
100
AcDbEntity
  8
RACCORDO
100
AcDbLine
 62
7
  6
CONTINUOUS
 10
-5.3972374032
 20
-30.4031112465
 11
-5.207691469
 21
-30.5119997175
  0
LINE
  5
360
100
AcDbEntity
  8
RACCORDO
100
AcDbLine
 62
7
  6
CONTINUOUS
 10
-5.6901916896
 20
-30.2995891558
 11
-5.2325730873
 21
-30.5656073813
  0
LINE
  5
361
100
AcDbEntity
  8
RACCORDO
100
AcDbLine
 62
7
  6
CONTINUOUS
 10
-5.5865143769
 20
-30.2930943126
 11
-5.3972374032
 21
-30.4031112465
  0
LINE
  5
362
100
AcDbEntity
  8
0
100
AcDbLine
 62
7
  6
CONTINUOUS
 10
3.4394657165
 20
-25.1432912465
 11
3.4576353783
 21
-25.1539391134
  0
LINE
  5
363
100
AcDbEntity
  8
RACCORDO
100
AcDbLine
 62
7
  6
CONTINUOUS
 10
5.2972045371
 20
-35.0422781006
 11
5.312205141
 21
-35.0510815341
  0
LINE
  5
364
100
AcDbEntity
  8
RACCORDO
100
AcDbLine
 62
7
  6
CONTINUOUS
 10
-5.7755156886
 20
-30.1819535599
 11
-5.5865143769
 21
-30.2930943126
  0
LINE
  5
365
100
AcDbEntity
  8
0
100
AcDbLine
 62
7
  6
CONTINUOUS
 10
-6.7890068853
 20
-14.3542767277
 11
-6.8358103309
 21
-14.3267289696
  0
LINE
  5
366
100
AcDbEntity
  8
0
100
AcDbLine
 62
7
  6
CONTINUOUS
 10
-7.6469051513
 20
-14.983585669
 11
-7.695057312
 21
-14.9551357953
  0
LINE
  5
367
100
AcDbEntity
  8
0
100
AcDbLine
 62
7
  6
CONTINUOUS
 10
3.7586021385
 20
-23.8666054883
 11
3.7083310862
 21
-23.8367758725
  0
LINE
  5
368
100
AcDbEntity
  8
0
100
AcDbLine
 62
7
  6
CONTINUOUS
 10
-8.3413770301
 20
-15.688147866
 11
-8.376674609
 21
-15.6671739724
  0
LINE
  5
369
100
AcDbEntity
  8
RACCORDO
100
AcDbLine
 62
7
  6
CONTINUOUS
 10
-5.9642416969
 20
-30.0696889098
 11
-5.7755156886
 21
-30.1819535599
  0
LINE
  5
36A
100
AcDbEntity
  8
RACCORDO
100
AcDbLine
 62
7
  6
CONTINUOUS
 10
-6.1462534032
 20
-30.0270044929
 11
-5.6901916896
 21
-30.2995891558
  0
LINE
  5
36B
100
AcDbEntity
  8
RACCORDO
100
AcDbLine
 62
7
  6
CONTINUOUS
 10
-6.1526927342
 20
-29.9562999447
 11
-5.9642416969
 21
-30.0696889098
  0
LINE
  5
36C
100
AcDbEntity
  8
0
100
AcDbLine
 62
7
  6
CONTINUOUS
 10
3.6876655328
 20
-23.9466051482
 11
3.6451968058
 21
-23.9208189533
  0
LINE
  5
36D
100
AcDbEntity
  8
RACCORDO
100
AcDbLine
 62
7
  6
CONTINUOUS
 10
-6.3408620655
 20
-29.8417908107
 11
-6.1526927342
 21
-29.9562999447
  0
LINE
  5
36E
100
AcDbEntity
  8
0
100
AcDbLine
 62
7
  6
CONTINUOUS
 10
-8.7209725125
 20
-16.2858710408
 11
-8.7784727756
 21
-16.2508787158
  0
LINE
  5
36F
100
AcDbEntity
  8
0
100
AcDbLine
 62
7
  6
CONTINUOUS
 10
3.472064954
 20
-24.2024567801
 11
3.4906144359
 21
-24.2137983642
  0
LINE
  5
370
100
AcDbEntity
  8
RACCORDO
100
AcDbLine
 62
7
  6
CONTINUOUS
 10
-6.6006678253
 20
-29.7479067852
 11
-6.1462534032
 21
-30.0270044929
  0
LINE
  5
371
100
AcDbEntity
  8
RACCORDO
100
AcDbLine
 62
7
  6
CONTINUOUS
 10
-6.5287501067
 20
-29.7261613075
 11
-6.3408620655
 21
-29.8417908107
  0
LINE
  5
372
100
AcDbEntity
  8
RACCORDO
100
AcDbLine
 62
7
  6
CONTINUOUS
 10
-6.7163570026
 20
-29.6094110533
 11
-6.5287501067
 21
-29.7261613075
  0
LINE
  5
373
100
AcDbEntity
  8
RACCORDO
100
AcDbLine
 62
7
  6
CONTINUOUS
 10
-6.9036756192
 20
-29.4915439329
 11
-6.7163570026
 21
-29.6094110533
  0
LINE
  5
374
100
AcDbEntity
  8
RACCORDO
100
AcDbLine
 62
7
  6
CONTINUOUS
 10
-7.0533462341
 20
-29.4623498134
 11
-6.6006678253
 21
-29.7479067852
  0
LINE
  5
375
100
AcDbEntity
  8
0
100
AcDbLine
 62
7
  6
CONTINUOUS
 10
3.8084094287
 20
-23.8980366509
 11
3.7586021385
 21
-23.8666054883
  0
LINE
  5
376
100
AcDbEntity
  8
RACCORDO
100
AcDbLine
 62
7
  6
CONTINUOUS
 10
-7.090703734
 20
-29.3725610299
 11
-6.9036756192
 21
-29.4915439329
  0
LINE
  5
377
100
AcDbEntity
  8
0
100
AcDbLine
 62
7
  6
CONTINUOUS
 10
3.7297554736
 20
-23.9735822532
 11
3.6876655328
 21
-23.9466051482
  0
LINE
  5
378
100
AcDbEntity
  8
RACCORDO
100
AcDbLine
 62
7
  6
CONTINUOUS
 10
-7.2774440063
 20
-29.2524606022
 11
-7.090703734
 21
-29.3725610299
  0
LINE
  5
379
100
AcDbEntity
  8
RACCORDO
100
AcDbLine
 62
7
  6
CONTINUOUS
 10
-7.441328629
 20
-29.2115585648
 11
-7.0533462341
 21
-29.4623498134
  0
LINE
  5
37A
100
AcDbEntity
  8
0
100
AcDbLine
 62
7
  6
CONTINUOUS
 10
-8.376674609
 20
-15.6671739724
 11
-8.4121964711
 21
-15.6441185128
  0
LINE
  5
37B
100
AcDbEntity
  8
0
100
AcDbLine
 62
7
  6
CONTINUOUS
 10
3.4576353783
 20
-25.1539391134
 11
3.4754533114
 21
-25.1655160469
  0
LINE
  5
37C
100
AcDbEntity
  8
RACCORDO
100
AcDbLine
 62
7
  6
CONTINUOUS
 10
-7.4638966045
 20
-29.1312422876
 11
-7.2774440063
 21
-29.2524606022
  0
LINE
  5
37D
100
AcDbEntity
  8
0
100
AcDbLine
 62
7
  6
CONTINUOUS
 10
9.6172427386
 20
-22.5059187098
 11
9.5874130029
 21
-22.4865138061
  0
LINE
  5
37E
100
AcDbEntity
  8
RACCORDO
100
AcDbLine
 62
7
  6
CONTINUOUS
 10
-7.4803071108
 20
-29.1859917513
 11
-7.4413284571
 21
-29.2115586312
  0
LINE
  5
37F
100
AcDbEntity
  8
RACCORDO
100
AcDbLine
 62
7
  6
CONTINUOUS
 10
-3.4580051066
 20
-31.5259884718
 11
-3.4477876011
 21
-31.5326905911
  0
LINE
  5
380
100
AcDbEntity
  8
RACCORDO
100
AcDbLine
 62
7
  6
CONTINUOUS
 10
-7.5455695552
 20
-29.0774608543
 11
-7.4638966045
 21
-29.1312422876
  0
LINE
  5
381
100
AcDbEntity
  8
RACCORDO
100
AcDbLine
 62
7
  6
CONTINUOUS
 10
-7.5768541303
 20
-29.1218993144
 11
-7.4803071108
 21
-29.1859917513
  0
LINE
  5
382
100
AcDbEntity
  8
0
100
AcDbLine
 62
7
  6
CONTINUOUS
 10
-8.7784727756
 20
-16.2508787158
 11
-8.8364173186
 21
-16.2123913699
  0
LINE
  5
383
100
AcDbEntity
  8
0
100
AcDbLine
 62
7
  6
CONTINUOUS
 10
3.4906144359
 20
-24.2137983642
 11
3.508847529
 21
-24.2259195417
  0
LINE
  5
384
100
AcDbEntity
  8
RACCORDO
100
AcDbLine
 62
7
  6
CONTINUOUS
 10
-7.627098883
 20
-29.0229803005
 11
-7.5455695552
 21
-29.0774608543
  0
LINE
  5
385
100
AcDbEntity
  8
0
100
AcDbLine
 62
7
  6
CONTINUOUS
 10
3.8577527765
 20
-23.9310692781
 11
3.8084094287
 21
-23.8980366509
  0
LINE
  5
386
100
AcDbEntity
  8
0
100
AcDbLine
 62
7
  6
CONTINUOUS
 10
-7.695057312
 20
-14.9551357953
 11
-7.7423939726
 21
-14.9234405053
  0
LINE
  5
387
100
AcDbEntity
  8
0
100
AcDbLine
 62
7
  6
CONTINUOUS
 10
-6.8358103309
 20
-14.3267289696
 11
-6.8818303346
 21
-14.2958334438
  0
LINE
  5
388
100
AcDbEntity
  8
RACCORDO
100
AcDbLine
 62
7
  6
CONTINUOUS
 10
-7.6731893284
 20
-29.0568556478
 11
-7.5768541303
 21
-29.1218993144
  0
LINE
  5
389
100
AcDbEntity
  8
0
100
AcDbLine
 62
7
  6
CONTINUOUS
 10
3.7714665056
 20
-24.0017502242
 11
3.7297554736
 21
-23.9735822532
  0
LINE
  5
38A
100
AcDbEntity
  8
RACCORDO
100
AcDbLine
 62
7
  6
CONTINUOUS
 10
-7.7084848332
 20
-28.9678004967
 11
-7.627098883
 21
-29.0229803005
  0
LINE
  5
38B
100
AcDbEntity
  8
RACCORDO
100
AcDbLine
 62
7
  6
CONTINUOUS
 10
-7.7692991395
 20
-28.9908706181
 11
-7.6731893284
 21
-29.0568556478
  0
LINE
  5
38C
100
AcDbEntity
  8
RACCORDO
100
AcDbLine
 62
7
  6
CONTINUOUS
 10
-7.7897315246
 20
-28.9119187744
 11
-7.7084848332
 21
-28.9678004967
  0
LINE
  5
38D
100
AcDbEntity
  8
RACCORDO
100
AcDbLine
 62
7
  6
CONTINUOUS
 10
-7.8708352767
 20
-28.8553375045
 11
-7.7897315246
 21
-28.9119187744
  0
LINE
  5
38E
100
AcDbEntity
  8
RACCORDO
100
AcDbLine
 62
7
  6
CONTINUOUS
 10
-7.8651721761
 20
-28.9239529144
 11
-7.7692991395
 21
-28.9908706181
  0
LINE
  5
38F
100
AcDbEntity
  8
0
100
AcDbLine
 62
7
  6
CONTINUOUS
 10
-8.4121964711
 20
-15.6441185128
 11
-8.4478793493
 21
-15.6189264972
  0
LINE
  5
390
100
AcDbEntity
  8
RACCORDO
100
AcDbLine
 62
7
  6
CONTINUOUS
 10
-7.9517846302
 20
-28.7980641154
 11
-7.8708352767
 21
-28.8553375045
  0
LINE
  5
391
100
AcDbEntity
  8
RACCORDO
100
AcDbLine
 62
7
  6
CONTINUOUS
 10
-7.9607975285
 20
-28.8561109158
 11
-7.8651721761
 21
-28.9239529144
  0
LINE
  5
392
100
AcDbEntity
  8
RACCORDO
100
AcDbLine
 62
7
  6
CONTINUOUS
 10
-14.9892271599
 20
24.4408684521
 11
-15.0105310237
 21
24.456128069
  0
LINE
  5
393
100
AcDbEntity
  8
0
100
AcDbLine
 62
7
  6
CONTINUOUS
 10
8.950766295
 20
14.3946194969
 11
9.0120393759
 21
14.350703404
  0
LINE
  5
394
100
AcDbEntity
  8
0
100
AcDbLine
 62
7
  6
CONTINUOUS
 10
3.4754533114
 20
-25.1655160469
 11
3.4925979573
 21
-25.177806086
  0
LINE
  5
395
100
AcDbEntity
  8
RACCORDO
100
AcDbLine
 62
7
  6
CONTINUOUS
 10
-8.0325759013
 20
-28.7401009786
 11
-7.9517846302
 21
-28.7980641154
  0
LINE
  5
396
100
AcDbEntity
  8
0
100
AcDbLine
 62
7
  6
CONTINUOUS
 10
-8.8364173186
 20
-16.2123913699
 11
-8.8945012072
 21
-16.1705597863
  0
LINE
  5
397
100
AcDbEntity
  8
0
100
AcDbLine
 62
7
  6
CONTINUOUS
 10
3.508847529
 20
-24.2259195417
 11
3.5267208816
 21
-24.2387893975
  0
LINE
  5
398
100
AcDbEntity
  8
RACCORDO
100
AcDbLine
 62
7
  6
CONTINUOUS
 10
-8.0561634239
 20
-28.7873537021
 11
-7.9607975285
 21
-28.8561109158
  0
LINE
  5
399
100
AcDbEntity
  8
RACCORDO
100
AcDbLine
 62
7
  6
CONTINUOUS
 10
-8.1132131607
 20
-28.6814453926
 11
-8.0325759013
 21
-28.7401009786
  0
LINE
  5
39A
100
AcDbEntity
  8
RACCORDO
100
AcDbLine
 62
7
  6
CONTINUOUS
 10
10.2096809406
 20
-36.0737586398
 11
10.2276718555
 21
-36.086861396
  0
LINE
  5
39B
100
AcDbEntity
  8
RACCORDO
100
AcDbLine
 62
7
  6
CONTINUOUS
 10
-8.1512560094
 20
-28.7176921547
 11
-8.0561634239
 21
-28.7873537021
  0
LINE
  5
39C
100
AcDbEntity
  8
RACCORDO
100
AcDbLine
 62
7
  6
CONTINUOUS
 10
-8.1936965752
 20
-28.6220971733
 11
-8.1132131607
 21
-28.6814453926
  0
LINE
  5
39D
100
AcDbEntity
  8
RACCORDO
100
AcDbLine
 62
7
  6
CONTINUOUS
 10
-8.1843331511
 20
-28.6932015401
 11
-8.1512560094
 21
-28.7176921547
  0
LINE
  5
39E
100
AcDbEntity
  8
0
100
AcDbLine
 62
7
  6
CONTINUOUS
 10
9.5874127772
 20
13.0983347499
 11
9.560644125
 21
13.1181819249
  0
LINE
  5
39F
100
AcDbEntity
  8
RACCORDO
100
AcDbLine
 62
7
  6
CONTINUOUS
 10
-14.3373627078
 20
-18.9453479565
 11
-14.3557260007
 21
-18.9316730759
  0
LINE
  5
3A0
100
AcDbEntity
  8
0
100
AcDbLine
 62
7
  6
CONTINUOUS
 10
3.8866154783
 20
-23.9525748317
 11
3.8577527765
 21
-23.9310692781
  0
LINE
  5
3A1
100
AcDbEntity
  8
0
100
AcDbLine
 62
7
  6
CONTINUOUS
 10
8.9450791528
 20
14.1936375718
 11
8.9872004313
 21
14.1622408993
  0
LINE
  5
3A2
100
AcDbEntity
  8
0
100
AcDbLine
 62
7
  6
CONTINUOUS
 10
3.8031073972
 20
-24.0253970695
 11
3.7714665056
 21
-24.0017502242
  0
LINE
  5
3A3
100
AcDbEntity
  8
0
100
AcDbLine
 62
7
  6
CONTINUOUS
 10
-7.7423939726
 20
-14.9234405053
 11
-7.7886504073
 21
-14.8886770518
  0
LINE
  5
3A4
100
AcDbEntity
  8
0
100
AcDbLine
 62
7
  6
CONTINUOUS
 10
-6.8818303346
 20
-14.2958334438
 11
-6.9273731814
 21
-14.2613260971
  0
LINE
  5
3A5
100
AcDbEntity
  8
RACCORDO
100
AcDbLine
 62
7
  6
CONTINUOUS
 10
-8.4491887453
 20
-28.4917818187
 11
-8.184332265
 21
-28.6932010379
  0
LINE
  5
3A6
100
AcDbEntity
  8
RACCORDO
100
AcDbLine
 62
7
  6
CONTINUOUS
 10
-8.5056006458
 20
-28.3840872913
 11
-8.1936965476
 21
-28.6220973786
  0
LINE
  5
3A7
100
AcDbEntity
  8
0
100
AcDbLine
 62
7
  6
CONTINUOUS
 10
-8.4478793493
 20
-15.6189264972
 11
-8.4835373824
 21
-15.591662748
  0
LINE
  5
3A8
100
AcDbEntity
  8
0
100
AcDbLine
 62
7
  6
CONTINUOUS
 10
3.9000335247
 20
-25.1569298055
 11
3.8817595925
 21
-25.1427708742
  0
LINE
  5
3A9
100
AcDbEntity
  8
0
100
AcDbLine
 62
7
  6
CONTINUOUS
 10
3.5267208816
 20
-24.2387893975
 11
3.5441045208
 21
-24.2523152047
  0
LINE
  5
3AA
100
AcDbEntity
  8
0
100
AcDbLine
 62
7
  6
CONTINUOUS
 10
-8.8945012072
 20
-16.1705597863
 11
-8.9518120884
 21
-16.1258386607
  0
LINE
  5
3AB
100
AcDbEntity
  8
0
100
AcDbLine
 62
7
  6
CONTINUOUS
 10
9.0120393759
 20
14.350703404
 11
9.0722721823
 21
14.3036678319
  0
LINE
  5
3AC
100
AcDbEntity
  8
0
100
AcDbLine
 62
7
  6
CONTINUOUS
 10
9.5874130029
 20
-22.4865138061
 11
9.5606439565
 21
-22.4655300393
  0
LINE
  5
3AD
100
AcDbEntity
  8
0
100
AcDbLine
 62
7
  6
CONTINUOUS
 10
3.4925979573
 20
-25.177806086
 11
3.508983033
 21
-25.1908189852
  0
LINE
  5
3AE
100
AcDbEntity
  8
RACCORDO
100
AcDbLine
 62
7
  6
CONTINUOUS
 10
-8.7662439843
 20
-28.2378513497
 11
-8.4491887453
 21
-28.4917818187
  0
LINE
  5
3AF
100
AcDbEntity
  8
RACCORDO
100
AcDbLine
 62
7
  6
CONTINUOUS
 10
9.4366454463
 20
-35.9820427662
 11
9.4526235151
 21
-35.9948966725
  0
LINE
  5
3B0
100
AcDbEntity
  8
RACCORDO
100
AcDbLine
 62
7
  6
CONTINUOUS
 10
-8.8129058021
 20
-28.136071605
 11
-8.5056006458
 21
-28.3840872913
  0
LINE
  5
3B1
100
AcDbEntity
  8
0
100
AcDbLine
 62
7
  6
CONTINUOUS
 10
8.9872004313
 20
14.1622408993
 11
9.0285494265
 21
14.1287481691
  0
LINE
  5
3B2
100
AcDbEntity
  8
0
100
AcDbLine
 62
7
  6
CONTINUOUS
 10
3.9156803885
 20
-23.9764487193
 11
3.8866154783
 21
-23.9525748317
  0
LINE
  5
3B3
100
AcDbEntity
  8
0
100
AcDbLine
 62
7
  6
CONTINUOUS
 10
-8.4835373824
 20
-15.591662748
 11
-8.5188732637
 21
-15.5625480344
  0
LINE
  5
3B4
100
AcDbEntity
  8
0
100
AcDbLine
 62
7
  6
CONTINUOUS
 10
3.8350028217
 20
-24.0519466799
 11
3.8031073972
 21
-24.0253970695
  0
LINE
  5
3B5
100
AcDbEntity
  8
RACCORDO
100
AcDbLine
 62
7
  6
CONTINUOUS
 10
-8.1866724725
 20
-28.6912465315
 11
-8.1843331511
 21
-28.6932015401
  0
LINE
  5
3B6
100
AcDbEntity
  8
0
100
AcDbLine
 62
7
  6
CONTINUOUS
 10
-7.7886504073
 20
-14.8886770518
 11
-7.8335679312
 21
-14.8510398462
  0
LINE
  5
3B7
100
AcDbEntity
  8
0
100
AcDbLine
 62
7
  6
CONTINUOUS
 10
3.5441045208
 20
-24.2523152047
 11
3.5610207254
 21
-24.2665027427
  0
LINE
  5
3B8
100
AcDbEntity
  8
0
100
AcDbLine
 62
7
  6
CONTINUOUS
 10
-8.9518120884
 20
-16.1258386607
 11
-9.0083835858
 21
-16.0780642443
  0
LINE
  5
3B9
100
AcDbEntity
  8
0
100
AcDbLine
 62
7
  6
CONTINUOUS
 10
3.9176771579
 20
-25.1718340479
 11
3.9000335247
 21
-25.1569298055
  0
LINE
  5
3BA
100
AcDbEntity
  8
0
100
AcDbLine
 62
7
  6
CONTINUOUS
 10
-6.9273731814
 20
-14.2613260971
 11
-6.9721369365
 21
-14.2234742461
  0
LINE
  5
3BB
100
AcDbEntity
  8
RACCORDO
100
AcDbLine
 62
7
  6
CONTINUOUS
 10
-9.0782582305
 20
-27.9738140328
 11
-8.7662439843
 21
-28.2378513497
  0
LINE
  5
3BC
100
AcDbEntity
  8
0
100
AcDbLine
 62
7
  6
CONTINUOUS
 10
9.0722721823
 20
14.3036678319
 11
9.1303726029
 21
14.2543927949
  0
LINE
  5
3BD
100
AcDbEntity
  8
RACCORDO
100
AcDbLine
 62
7
  6
CONTINUOUS
 10
-9.1156695931
 20
-27.8780673556
 11
-8.8129058021
 21
-28.136071605
  0
LINE
  5
3BE
100
AcDbEntity
  8
0
100
AcDbLine
 62
7
  6
CONTINUOUS
 10
-8.5418855811
 20
21.2643406288
 11
-8.5242898066
 21
21.2491974989
  0
LINE
  5
3BF
100
AcDbEntity
  8
0
100
AcDbLine
 62
7
  6
CONTINUOUS
 10
3.508983033
 20
-25.1908189852
 11
3.5246946056
 21
-25.2045450892
  0
LINE
  5
3C0
100
AcDbEntity
  8
0
100
AcDbLine
 62
7
  6
CONTINUOUS
 10
9.0285494265
 20
14.1287481691
 11
9.0689372793
 21
14.0932801534
  0
LINE
  5
3C1
100
AcDbEntity
  8
0
100
AcDbLine
 62
7
  6
CONTINUOUS
 10
4.0159394911
 20
-25.1123710253
 11
3.9993061951
 21
-25.0976892221
  0
LINE
  5
3C2
100
AcDbEntity
  8
0
100
AcDbLine
 62
7
  6
CONTINUOUS
 10
-8.5188732637
 20
-15.5625480344
 11
-8.5538048328
 21
-15.5316157549
  0
LINE
  5
3C3
100
AcDbEntity
  8
RACCORDO
100
AcDbLine
 62
7
  6
CONTINUOUS
 10
-15.0105310237
 20
24.456128069
 11
-15.0289639179
 21
24.4724976851
  0
LINE
  5
3C4
100
AcDbEntity
  8
RACCORDO
100
AcDbLine
 62
7
  6
CONTINUOUS
 10
-9.3847520799
 20
-27.7001635161
 11
-9.0782582305
 21
-27.9738140328
  0
LINE
  5
3C5
100
AcDbEntity
  8
0
100
AcDbLine
 62
7
  6
CONTINUOUS
 10
9.560644125
 20
13.1181819249
 11
9.5371485869
 21
13.1391833913
  0
LINE
  5
3C6
100
AcDbEntity
  8
0
100
AcDbLine
 62
7
  6
CONTINUOUS
 10
3.9449479706
 20
-24.0026903203
 11
3.9156803885
 21
-23.9764487193
  0
LINE
  5
3C7
100
AcDbEntity
  8
RACCORDO
100
AcDbLine
 62
7
  6
CONTINUOUS
 10
-9.4146056727
 20
-27.6094952792
 11
-9.1156695931
 21
-27.8780673556
  0
LINE
  5
3C8
100
AcDbEntity
  8
RACCORDO
100
AcDbLine
 62
7
  6
CONTINUOUS
 10
5.2835948936
 20
-35.0299844866
 11
5.2972045371
 21
-35.0422781006
  0
LINE
  5
3C9
100
AcDbEntity
  8
0
100
AcDbLine
 62
7
  6
CONTINUOUS
 10
3.5610207254
 20
-24.2665027427
 11
3.5774471241
 21
-24.2813462385
  0
LINE
  5
3CA
100
AcDbEntity
  8
0
100
AcDbLine
 62
7
  6
CONTINUOUS
 10
-9.0083835858
 20
-16.0780642443
 11
-9.0641819158
 21
-16.0273995672
  0
LINE
  5
3CB
100
AcDbEntity
  8
0
100
AcDbLine
 62
7
  6
CONTINUOUS
 10
3.8671534229
 20
-24.0813982013
 11
3.8350028217
 21
-24.0519466799
  0
LINE
  5
3CC
100
AcDbEntity
  8
0
100
AcDbLine
 62
7
  6
CONTINUOUS
 10
3.9346904325
 20
-25.1874836056
 11
3.9176771579
 21
-25.1718340479
  0
LINE
  5
3CD
100
AcDbEntity
  8
0
100
AcDbLine
 62
7
  6
CONTINUOUS
 10
9.1303726029
 20
14.2543927949
 11
9.185975879
 21
14.2031708272
  0
LINE
  5
3CE
100
AcDbEntity
  8
0
100
AcDbLine
 62
7
  6
CONTINUOUS
 10
-7.8335679312
 20
-14.8510398462
 11
-7.8768953474
 21
-14.810739371
  0
LINE
  5
3CF
100
AcDbEntity
  8
0
100
AcDbLine
 62
7
  6
CONTINUOUS
 10
-6.9721369365
 20
-14.2234742461
 11
-7.0152150608
 21
-14.1830790848
  0
LINE
  5
3D0
100
AcDbEntity
  8
RACCORDO
100
AcDbLine
 62
7
  6
CONTINUOUS
 10
-9.6853607665
 20
-27.4173532241
 11
-9.3847520799
 21
-27.7001635161
  0
LINE
  5
3D1
100
AcDbEntity
  8
RACCORDO
100
AcDbLine
 62
7
  6
CONTINUOUS
 10
-9.7090948746
 20
-27.3309548003
 11
-9.4146056727
 21
-27.6094952792
  0
LINE
  5
3D2
100
AcDbEntity
  8
0
100
AcDbLine
 62
7
  6
CONTINUOUS
 10
3.5246946056
 20
-25.2045450892
 11
3.5396695579
 21
-25.2187394214
  0
LINE
  5
3D3
100
AcDbEntity
  8
0
100
AcDbLine
 62
7
  6
CONTINUOUS
 10
-8.5538048328
 20
-15.5316157549
 11
-8.588164925
 21
-15.4989608767
  0
LINE
  5
3D4
100
AcDbEntity
  8
0
100
AcDbLine
 62
7
  6
CONTINUOUS
 10
9.0689372793
 20
14.0932801534
 11
9.1082160376
 21
14.0559351232
  0
LINE
  5
3D5
100
AcDbEntity
  8
0
100
AcDbLine
 62
7
  6
CONTINUOUS
 10
9.5606439565
 20
-22.4655300393
 11
9.537148034
 21
-22.4431339333
  0
LINE
  5
3D6
100
AcDbEntity
  8
0
100
AcDbLine
 62
7
  6
CONTINUOUS
 10
3.9745741474
 20
-24.0312634871
 11
3.9449479706
 21
-24.0026903203
  0
LINE
  5
3D7
100
AcDbEntity
  8
0
100
AcDbLine
 62
7
  6
CONTINUOUS
 10
4.0373220845
 20
-25.1331338158
 11
4.0159394911
 21
-25.1123710253
  0
LINE
  5
3D8
100
AcDbEntity
  8
0
100
AcDbLine
 62
7
  6
CONTINUOUS
 10
8.6231555111
 20
14.3704721619
 11
8.6373017196
 21
14.3567141268
  0
LINE
  5
3D9
100
AcDbEntity
  8
0
100
AcDbLine
 62
7
  6
CONTINUOUS
 10
-9.0641819158
 20
-16.0273995672
 11
-9.1181957249
 21
-15.9747910797
  0
LINE
  5
3DA
100
AcDbEntity
  8
0
100
AcDbLine
 62
7
  6
CONTINUOUS
 10
3.5774471241
 20
-24.2813462385
 11
3.5931867091
 21
-24.2967357007
  0
LINE
  5
3DB
100
AcDbEntity
  8
RACCORDO
100
AcDbLine
 62
7
  6
CONTINUOUS
 10
10.1928492763
 20
-36.0572820996
 11
10.2096809406
 21
-36.0737586398
  0
LINE
  5
3DC
100
AcDbEntity
  8
RACCORDO
100
AcDbLine
 62
7
  6
CONTINUOUS
 10
-14.3557260007
 20
-18.9316730759
 11
-14.3710275526
 21
-18.9165919205
  0
LINE
  5
3DD
100
AcDbEntity
  8
RACCORDO
100
AcDbLine
 62
7
  6
CONTINUOUS
 10
-9.9797721405
 20
-27.1257939401
 11
-9.6853607665
 21
-27.4173532241
  0
LINE
  5
3DE
100
AcDbEntity
  8
0
100
AcDbLine
 62
7
  6
CONTINUOUS
 10
3.900055737
 20
-24.1141031444
 11
3.8671534229
 21
-24.0813982013
  0
LINE
  5
3DF
100
AcDbEntity
  8
RACCORDO
100
AcDbLine
 62
7
  6
CONTINUOUS
 10
-9.9972143532
 20
-27.0442503001
 11
-9.7090948746
 21
-27.3309548003
  0
LINE
  5
3E0
100
AcDbEntity
  8
0
100
AcDbLine
 62
7
  6
CONTINUOUS
 10
9.185975879
 20
14.2031708272
 11
9.2394459473
 21
14.1497081655
  0
LINE
  5
3E1
100
AcDbEntity
  8
0
100
AcDbLine
 62
7
  6
CONTINUOUS
 10
3.9510981507
 20
-25.2039936153
 11
3.9346904325
 21
-25.1874836056
  0
LINE
  5
3E2
100
AcDbEntity
  8
0
100
AcDbLine
 62
7
  6
CONTINUOUS
 10
-8.588164925
 20
-15.4989608767
 11
-8.6215619888
 21
-15.4649835331
  0
LINE
  5
3E3
100
AcDbEntity
  8
0
100
AcDbLine
 62
7
  6
CONTINUOUS
 10
9.1082160376
 20
14.0559351232
 11
9.1462124879
 21
14.016846383
  0
LINE
  5
3E4
100
AcDbEntity
  8
0
100
AcDbLine
 62
7
  6
CONTINUOUS
 10
-7.8768953474
 20
-14.810739371
 11
-7.9183903514
 21
-14.7680010028
  0
LINE
  5
3E5
100
AcDbEntity
  8
0
100
AcDbLine
 62
7
  6
CONTINUOUS
 10
3.5396695579
 20
-25.2187394214
 11
3.553857793
 21
-25.2333729922
  0
LINE
  5
3E6
100
AcDbEntity
  8
0
100
AcDbLine
 62
7
  6
CONTINUOUS
 10
4.004404235
 20
-24.0622028161
 11
3.9745741474
 21
-24.0312634871
  0
LINE
  5
3E7
100
AcDbEntity
  8
0
100
AcDbLine
 62
7
  6
CONTINUOUS
 10
-7.0152150608
 20
-14.1830790848
 11
-7.0564567907
 21
-14.1402451106
  0
LINE
  5
3E8
100
AcDbEntity
  8
RACCORDO
100
AcDbLine
 62
7
  6
CONTINUOUS
 10
-10.2676220728
 20
-26.825950756
 11
-9.9797721405
 21
-27.1257939401
  0
LINE
  5
3E9
100
AcDbEntity
  8
0
100
AcDbLine
 62
7
  6
CONTINUOUS
 10
-9.1181957249
 20
-15.9747910797
 11
-9.1700888748
 21
-15.9205548545
  0
LINE
  5
3EA
100
AcDbEntity
  8
RACCORDO
100
AcDbLine
 62
7
  6
CONTINUOUS
 10
-10.2788506148
 20
-26.7494716959
 11
-9.9972143532
 21
-27.0442503001
  0
LINE
  5
3EB
100
AcDbEntity
  8
RACCORDO
100
AcDbLine
 62
7
  6
CONTINUOUS
 10
-3.4685588054
 20
-31.5149221987
 11
-3.4580051066
 21
-31.5259884718
  0
LINE
  5
3EC
100
AcDbEntity
  8
0
100
AcDbLine
 62
7
  6
CONTINUOUS
 10
3.5931867091
 20
-24.2967357007
 11
3.608234992
 21
-24.3126875757
  0
LINE
  5
3ED
100
AcDbEntity
  8
0
100
AcDbLine
 62
7
  6
CONTINUOUS
 10
3.9332151351
 20
-24.1497076584
 11
3.900055737
 21
-24.1141031444
  0
LINE
  5
3EE
100
AcDbEntity
  8
0
100
AcDbLine
 62
7
  6
CONTINUOUS
 10
9.2394459473
 20
14.1497081655
 11
9.2907827884
 21
14.0940045794
  0
LINE
  5
3EF
100
AcDbEntity
  8
0
100
AcDbLine
 62
7
  6
CONTINUOUS
 10
-8.6215619888
 20
-15.4649835331
 11
-8.653816292
 21
-15.4299186783
  0
LINE
  5
3F0
100
AcDbEntity
  8
0
100
AcDbLine
 62
7
  6
CONTINUOUS
 10
4.0568818993
 20
-25.1544588046
 11
4.0373220845
 21
-25.1331338158
  0
LINE
  5
3F1
100
AcDbEntity
  8
0
100
AcDbLine
 62
7
  6
CONTINUOUS
 10
3.9668754915
 20
-25.2212488596
 11
3.9510981507
 21
-25.2039936153
  0
LINE
  5
3F2
100
AcDbEntity
  8
RACCORDO
100
AcDbLine
 62
7
  6
CONTINUOUS
 10
-10.5485494317
 20
-26.5183317068
 11
-10.2676220728
 21
-26.825950756
  0
LINE
  5
3F3
100
AcDbEntity
  8
0
100
AcDbLine
 62
7
  6
CONTINUOUS
 10
9.5371485869
 20
13.1391833913
 11
9.5171126167
 21
13.1611724874
  0
LINE
  5
3F4
100
AcDbEntity
  8
0
100
AcDbLine
 62
7
  6
CONTINUOUS
 10
9.1462124879
 20
14.016846383
 11
9.1706726738
 21
13.9899769728
  0
LINE
  5
3F5
100
AcDbEntity
  8
RACCORDO
100
AcDbLine
 62
7
  6
CONTINUOUS
 10
-10.5542397545
 20
-26.4465852951
 11
-10.2788506148
 21
-26.7494716959
  0
LINE
  5
3F6
100
AcDbEntity
  8
RACCORDO
100
AcDbLine
 62
7
  6
CONTINUOUS
 10
9.4219670685
 20
-35.9658155894
 11
9.4366454463
 21
-35.9820427662
  0
LINE
  5
3F7
100
AcDbEntity
  8
0
100
AcDbLine
 62
7
  6
CONTINUOUS
 10
-9.1700888748
 20
-15.9205548545
 11
-9.2201989384
 21
-15.8643754381
  0
LINE
  5
3F8
100
AcDbEntity
  8
0
100
AcDbLine
 62
7
  6
CONTINUOUS
 10
3.553857793
 20
-25.2333729922
 11
3.5673092818
 21
-25.2484748523
  0
LINE
  5
3F9
100
AcDbEntity
  8
RACCORDO
100
AcDbLine
 62
7
  6
CONTINUOUS
 10
-15.0289639179
 20
24.4724976851
 11
-15.0443038565
 21
24.4897801622
  0
LINE
  5
3FA
100
AcDbEntity
  8
0
100
AcDbLine
 62
7
  6
CONTINUOUS
 10
4.0339728147
 20
-24.0956137511
 11
4.004404235
 21
-24.0622028161
  0
LINE
  5
3FB
100
AcDbEntity
  8
0
100
AcDbLine
 62
7
  6
CONTINUOUS
 10
-7.9183903514
 20
-14.7680010028
 11
-7.9578208863
 21
-14.7230637519
  0
LINE
  5
3FC
100
AcDbEntity
  8
0
100
AcDbLine
 62
7
  6
CONTINUOUS
 10
-7.0564567907
 20
-14.1402451106
 11
-7.0960241758
 21
-14.0948758036
  0
LINE
  5
3FD
100
AcDbEntity
  8
0
100
AcDbLine
 62
7
  6
CONTINUOUS
 10
3.608234992
 20
-24.3126875757
 11
3.6225963897
 21
-24.3291854231
  0
LINE
  5
3FE
100
AcDbEntity
  8
0
100
AcDbLine
 62
7
  6
CONTINUOUS
 10
9.2907827884
 20
14.0940045794
 11
9.3129323631
 21
14.0685383738
  0
LINE
  5
3FF
100
AcDbEntity
  8
RACCORDO
100
AcDbLine
 62
7
  6
CONTINUOUS
 10
-10.8222405369
 20
-26.2033992909
 11
-10.5485494317
 21
-26.5183317068
  0
LINE
  5
400
100
AcDbEntity
  8
RACCORDO
100
AcDbLine
 62
7
  6
CONTINUOUS
 10
-10.8220195736
 20
-26.1372466625
 11
-10.5542397545
 21
-26.4465852951
  0
LINE
  5
401
100
AcDbEntity
  8
0
100
AcDbLine
 62
7
  6
CONTINUOUS
 10
9.1706736498
 20
13.9899777638
 11
9.1950498649
 21
13.9617387456
  0
LINE
  5
402
100
AcDbEntity
  8
0
100
AcDbLine
 62
7
  6
CONTINUOUS
 10
-8.653816292
 20
-15.4299186783
 11
-8.6849331186
 21
-15.3937868313
  0
LINE
  5
403
100
AcDbEntity
  8
RACCORDO
100
AcDbLine
 62
7
  6
CONTINUOUS
 10
13.1395075761
 20
25.7764268236
 11
12.8733279304
 21
26.0871002975
  0
LINE
  5
404
100
AcDbEntity
  8
0
100
AcDbLine
 62
7
  6
CONTINUOUS
 10
-8.5575845855
 20
21.28270287
 11
-8.5418855811
 21
21.2643406288
  0
LINE
  5
405
100
AcDbEntity
  8
0
100
AcDbLine
 62
7
  6
CONTINUOUS
 10
3.9819479335
 20
-25.2389038596
 11
3.9668754915
 21
-25.2212488596
  0
LINE
  5
406
100
AcDbEntity
  8
0
100
AcDbLine
 62
7
  6
CONTINUOUS
 10
3.9651448668
 20
-24.1871535257
 11
3.9332151351
 21
-24.1497076584
  0
LINE
  5
407
100
AcDbEntity
  8
0
100
AcDbLine
 62
7
  6
CONTINUOUS
 10
9.537148034
 20
-22.4431339333
 11
9.517111695
 21
-22.4195032198
  0
LINE
  5
408
100
AcDbEntity
  8
0
100
AcDbLine
 62
7
  6
CONTINUOUS
 10
9.3129323631
 20
14.0685383738
 11
9.3340817453
 21
14.043496313
  0
LINE
  5
409
100
AcDbEntity
  8
0
100
AcDbLine
 62
7
  6
CONTINUOUS
 10
-9.2201989384
 20
-15.8643754381
 11
-9.2685261148
 21
-15.8062527787
  0
LINE
  5
40A
100
AcDbEntity
  8
0
100
AcDbLine
 62
7
  6
CONTINUOUS
 10
3.5673092818
 20
-25.2484748523
 11
3.5801109938
 21
-25.2638871241
  0
LINE
  5
40B
100
AcDbEntity
  8
RACCORDO
100
AcDbLine
 62
7
  6
CONTINUOUS
 10
-11.0883502744
 20
-25.8816556041
 11
-10.8222405369
 21
-26.2033992909
  0
LINE
  5
40C
100
AcDbEntity
  8
RACCORDO
100
AcDbLine
 62
7
  6
CONTINUOUS
 10
-11.0821167348
 20
-25.821590709
 11
-10.8220195736
 21
-26.1372466625
  0
LINE
  5
40D
100
AcDbEntity
  8
0
100
AcDbLine
 62
7
  6
CONTINUOUS
 10
4.0747520137
 20
-25.1761821838
 11
4.0568818993
 21
-25.1544588046
  0
LINE
  5
40E
100
AcDbEntity
  8
0
100
AcDbLine
 62
7
  6
CONTINUOUS
 10
4.0635343351
 20
-24.1317278366
 11
4.0339728147
 21
-24.0956137511
  0
LINE
  5
40F
100
AcDbEntity
  8
0
100
AcDbLine
 62
7
  6
CONTINUOUS
 10
9.3340817453
 20
14.043496313
 11
9.3542301587
 21
14.0188777179
  0
LINE
  5
410
100
AcDbEntity
  8
0
100
AcDbLine
 62
7
  6
CONTINUOUS
 10
9.1950498649
 20
13.9617387456
 11
9.2197040968
 21
13.9315502582
  0
LINE
  5
411
100
AcDbEntity
  8
RACCORDO
100
AcDbLine
 62
7
  6
CONTINUOUS
 10
13.3969338146
 20
25.4583352322
 11
13.1395075761
 21
25.7764268236
  0
LINE
  5
412
100
AcDbEntity
  8
0
100
AcDbLine
 62
7
  6
CONTINUOUS
 10
9.2914232492
 20
13.832763199
 11
9.2902226098
 21
13.8342471978
  0
LINE
  5
413
100
AcDbEntity
  8
RACCORDO
100
AcDbLine
 62
7
  6
CONTINUOUS
 10
13.686016301
 20
25.6855684022
 11
13.4228939581
 21
26.0114710764
  0
LINE
  5
414
100
AcDbEntity
  8
0
100
AcDbLine
 62
7
  6
CONTINUOUS
 10
-8.6849331186
 20
-15.3937868313
 11
-8.7148320597
 21
-15.3567124319
  0
LINE
  5
415
100
AcDbEntity
  8
0
100
AcDbLine
 62
7
  6
CONTINUOUS
 10
3.6225963897
 20
-24.3291854231
 11
3.6360871831
 21
-24.3460699993
  0
LINE
  5
416
100
AcDbEntity
  8
0
100
AcDbLine
 62
7
  6
CONTINUOUS
 10
3.9962610809
 20
-25.2569031891
 11
3.9819479335
 21
-25.2389038596
  0
LINE
  5
417
100
AcDbEntity
  8
0
100
AcDbLine
 62
7
  6
CONTINUOUS
 10
-7.9578208863
 20
-14.7230637519
 11
-7.9949664406
 21
-14.6761789257
  0
LINE
  5
418
100
AcDbEntity
  8
0
100
AcDbLine
 62
7
  6
CONTINUOUS
 10
-9.2685261148
 20
-15.8062527787
 11
-9.2894569118
 21
-15.7797882095
  0
LINE
  5
419
100
AcDbEntity
  8
0
100
AcDbLine
 62
7
  6
CONTINUOUS
 10
-7.0960241758
 20
-14.0948758036
 11
-7.1334842607
 21
-14.0474738181
  0
LINE
  5
41A
100
AcDbEntity
  8
0
100
AcDbLine
 62
7
  6
CONTINUOUS
 10
9.3542301587
 20
14.0188777179
 11
9.3733439541
 21
13.9946524886
  0
LINE
  5
41B
100
AcDbEntity
  8
RACCORDO
100
AcDbLine
 62
7
  6
CONTINUOUS
 10
-11.3465440345
 20
-25.553642437
 11
-11.0883502744
 21
-25.8816556041
  0
LINE
  5
41C
100
AcDbEntity
  8
RACCORDO
100
AcDbLine
 62
7
  6
CONTINUOUS
 10
10.1773881857
 20
-36.0376386398
 11
10.1928492763
 21
-36.0572820996
  0
LINE
  5
41D
100
AcDbEntity
  8
RACCORDO
100
AcDbLine
 62
7
  6
CONTINUOUS
 10
-11.3347280366
 20
-25.4995549524
 11
-11.0821167348
 21
-25.821590709
  0
LINE
  5
41E
100
AcDbEntity
  8
0
100
AcDbLine
 62
7
  6
CONTINUOUS
 10
3.9956839028
 20
-24.2264318868
 11
3.9651448668
 21
-24.1871535257
  0
LINE
  5
41F
100
AcDbEntity
  8
0
100
AcDbLine
 62
7
  6
CONTINUOUS
 10
3.5801109938
 20
-25.2638871241
 11
3.5922833917
 21
-25.2796009045
  0
LINE
  5
420
100
AcDbEntity
  8
0
100
AcDbLine
 62
7
  6
CONTINUOUS
 10
9.2197040968
 20
13.9315502582
 11
9.2434021909
 21
13.9008152176
  0
LINE
  5
421
100
AcDbEntity
  8
RACCORDO
100
AcDbLine
 62
7
  6
CONTINUOUS
 10
5.2715487459
 20
-35.0143565435
 11
5.2835948936
 21
-35.0299844866
  0
LINE
  5
422
100
AcDbEntity
  8
0
100
AcDbLine
 62
7
  6
CONTINUOUS
 10
-9.2894569118
 20
-15.7797882095
 11
-9.3094719653
 21
-15.7538169616
  0
LINE
  5
423
100
AcDbEntity
  8
0
100
AcDbLine
 62
7
  6
CONTINUOUS
 10
-8.7148320597
 20
-15.3567124319
 11
-8.7278042097
 21
-15.3398555157
  0
LINE
  5
424
100
AcDbEntity
  8
0
100
AcDbLine
 62
7
  6
CONTINUOUS
 10
4.0913321755
 20
-25.1978121711
 11
4.0747520137
 21
-25.1761821838
  0
LINE
  5
425
100
AcDbEntity
  8
RACCORDO
100
AcDbLine
 62
7
  6
CONTINUOUS
 10
13.6445637966
 20
25.1341219872
 11
13.3969338146
 21
25.4583352322
  0
LINE
  5
426
100
AcDbEntity
  8
RACCORDO
100
AcDbLine
 62
7
  6
CONTINUOUS
 10
13.9394364015
 20
25.352821685
 11
13.686016301
 21
25.6855684022
  0
LINE
  5
427
100
AcDbEntity
  8
0
100
AcDbLine
 62
7
  6
CONTINUOUS
 10
9.3733439541
 20
13.9946524886
 11
9.3914553251
 21
13.9708494541
  0
LINE
  5
428
100
AcDbEntity
  8
0
100
AcDbLine
 62
7
  6
CONTINUOUS
 10
4.0928360927
 20
-24.170311423
 11
4.0635343351
 21
-24.1317278366
  0
LINE
  5
429
100
AcDbEntity
  8
0
100
AcDbLine
 62
7
  6
CONTINUOUS
 10
-9.3094719653
 20
-15.7538169616
 11
-9.3285721254
 21
-15.728339688
  0
LINE
  5
42A
100
AcDbEntity
  8
RACCORDO
100
AcDbLine
 62
7
  6
CONTINUOUS
 10
-11.5965193844
 20
-25.2198729689
 11
-11.3465440345
 21
-25.553642437
  0
LINE
  5
42B
100
AcDbEntity
  8
RACCORDO
100
AcDbLine
 62
7
  6
CONTINUOUS
 10
-11.5789185454
 20
-25.1725242559
 11
-11.3347280366
 21
-25.4995549524
  0
LINE
  5
42C
100
AcDbEntity
  8
0
100
AcDbLine
 62
7
  6
CONTINUOUS
 10
-8.7278042097
 20
-15.3398555157
 11
-8.7401860259
 21
-15.3232749271
  0
LINE
  5
42D
100
AcDbEntity
  8
0
100
AcDbLine
 62
7
  6
CONTINUOUS
 10
4.0098692913
 20
-25.2753022718
 11
3.9962610809
 21
-25.2569031891
  0
LINE
  5
42E
100
AcDbEntity
  8
RACCORDO
100
AcDbLine
 62
7
  6
CONTINUOUS
 10
-14.3710275526
 20
-18.9165919205
 11
-14.3830833426
 21
-18.9002858605
  0
LINE
  5
42F
100
AcDbEntity
  8
0
100
AcDbLine
 62
7
  6
CONTINUOUS
 10
9.3914553251
 20
13.9708494541
 11
9.408662336
 21
13.9475564037
  0
LINE
  5
430
100
AcDbEntity
  8
0
100
AcDbLine
 62
7
  6
CONTINUOUS
 10
8.6105671225
 20
14.3875854645
 11
8.6231555111
 21
14.3704721619
  0
LINE
  5
431
100
AcDbEntity
  8
0
100
AcDbLine
 62
7
  6
CONTINUOUS
 10
3.6360871831
 20
-24.3460699993
 11
3.6486624671
 21
-24.3633558695
  0
LINE
  5
432
100
AcDbEntity
  8
0
100
AcDbLine
 62
7
  6
CONTINUOUS
 10
9.2434021909
 20
13.9008152176
 11
9.2661065756
 21
13.8695919722
  0
LINE
  5
433
100
AcDbEntity
  8
0
100
AcDbLine
 62
7
  6
CONTINUOUS
 10
-9.3285721254
 20
-15.728339688
 11
-9.3467311326
 21
-15.7033323423
  0
LINE
  5
434
100
AcDbEntity
  8
0
100
AcDbLine
 62
7
  6
CONTINUOUS
 10
-8.7401860259
 20
-15.3232749271
 11
-8.7519924715
 21
-15.3069969875
  0
LINE
  5
435
100
AcDbEntity
  8
0
100
AcDbLine
 62
7
  6
CONTINUOUS
 10
9.5171126167
 20
13.1611724874
 11
9.5006952145
 21
13.1839747139
  0
LINE
  5
436
100
AcDbEntity
  8
RACCORDO
100
AcDbLine
 62
7
  6
CONTINUOUS
 10
13.8823618006
 20
24.803598014
 11
13.6445637966
 21
25.1341219872
  0
LINE
  5
437
100
AcDbEntity
  8
0
100
AcDbLine
 62
7
  6
CONTINUOUS
 10
3.5922833917
 20
-25.2796009045
 11
3.6038059833
 21
-25.2956250984
  0
LINE
  5
438
100
AcDbEntity
  8
0
100
AcDbLine
 62
7
  6
CONTINUOUS
 10
9.408662336
 20
13.9475564037
 11
9.4249972827
 21
13.924802268
  0
LINE
  5
439
100
AcDbEntity
  8
RACCORDO
100
AcDbLine
 62
7
  6
CONTINUOUS
 10
14.1828631843
 20
25.0136249468
 11
13.9394364015
 21
25.352821685
  0
LINE
  5
43A
100
AcDbEntity
  8
0
100
AcDbLine
 62
7
  6
CONTINUOUS
 10
4.1066246842
 20
-25.2192192314
 11
4.0913321755
 21
-25.1978121711
  0
LINE
  5
43B
100
AcDbEntity
  8
0
100
AcDbLine
 62
7
  6
CONTINUOUS
 10
-7.1334842607
 20
-14.0474738181
 11
-7.1689497032
 21
-13.9978172405
  0
LINE
  5
43C
100
AcDbEntity
  8
0
100
AcDbLine
 62
7
  6
CONTINUOUS
 10
-7.9949664406
 20
-14.6761789257
 11
-8.0296192812
 21
-14.627608723
  0
LINE
  5
43D
100
AcDbEntity
  8
0
100
AcDbLine
 62
7
  6
CONTINUOUS
 10
4.0249940848
 20
-24.2675504768
 11
3.9956839028
 21
-24.2264318868
  0
LINE
  5
43E
100
AcDbEntity
  8
RACCORDO
100
AcDbLine
 62
7
  6
CONTINUOUS
 10
-11.8379593518
 20
-24.8808860989
 11
-11.5965193844
 21
-25.2198729689
  0
LINE
  5
43F
100
AcDbEntity
  8
RACCORDO
100
AcDbLine
 62
7
  6
CONTINUOUS
 10
-11.8147842051
 20
-24.8404173989
 11
-11.5789185454
 21
-25.1725242559
  0
LINE
  5
440
100
AcDbEntity
  8
0
100
AcDbLine
 62
7
  6
CONTINUOUS
 10
-8.7519924715
 20
-15.3069969875
 11
-8.7632387308
 21
-15.2910517869
  0
LINE
  5
441
100
AcDbEntity
  8
0
100
AcDbLine
 62
7
  6
CONTINUOUS
 10
-9.3467311326
 20
-15.7033323423
 11
-9.3639768357
 21
-15.6788201941
  0
LINE
  5
442
100
AcDbEntity
  8
0
100
AcDbLine
 62
7
  6
CONTINUOUS
 10
4.0228611041
 20
-25.2939220001
 11
4.0098692913
 21
-25.2753022718
  0
LINE
  5
443
100
AcDbEntity
  8
0
100
AcDbLine
 62
7
  6
CONTINUOUS
 10
9.4249972827
 20
13.924802268
 11
9.440426665
 21
13.9025570873
  0
LINE
  5
444
100
AcDbEntity
  8
0
100
AcDbLine
 62
7
  6
CONTINUOUS
 10
4.1206514808
 20
-24.210772642
 11
4.0928360927
 21
-24.170311423
  0
LINE
  5
445
100
AcDbEntity
  8
0
100
AcDbLine
 62
7
  6
CONTINUOUS
 10
-8.7632387308
 20
-15.2910517869
 11
-8.7739416333
 21
-15.2754563369
  0
LINE
  5
446
100
AcDbEntity
  8
0
100
AcDbLine
 62
7
  6
CONTINUOUS
 10
-9.3639768357
 20
-15.6788201941
 11
-9.3803911538
 21
-15.6548778076
  0
LINE
  5
447
100
AcDbEntity
  8
0
100
AcDbLine
 62
7
  6
CONTINUOUS
 10
9.2661065756
 20
13.8695919722
 11
9.287774114
 21
13.8379508321
  0
LINE
  5
448
100
AcDbEntity
  8
RACCORDO
100
AcDbLine
 62
7
  6
CONTINUOUS
 10
9.4087734501
 20
-35.9464197382
 11
9.4219670685
 21
-35.9658155894
  0
LINE
  5
449
100
AcDbEntity
  8
RACCORDO
100
AcDbLine
 62
7
  6
CONTINUOUS
 10
-12.070572701
 20
-24.5372351841
 11
-11.8379593518
 21
-24.8808860989
  0
LINE
  5
44A
100
AcDbEntity
  8
RACCORDO
100
AcDbLine
 62
7
  6
CONTINUOUS
 10
14.1102540485
 20
24.4668495881
 11
13.8823618006
 21
24.803598014
  0
LINE
  5
44B
100
AcDbEntity
  8
RACCORDO
100
AcDbLine
 62
7
  6
CONTINUOUS
 10
14.4158614046
 20
24.6686132694
 11
14.1828631843
 21
25.0136249468
  0
LINE
  5
44C
100
AcDbEntity
  8
RACCORDO
100
AcDbLine
 62
7
  6
CONTINUOUS
 10
-12.0423384387
 20
-24.503392088
 11
-11.8147842051
 21
-24.8404173989
  0
LINE
  5
44D
100
AcDbEntity
  8
0
100
AcDbLine
 62
7
  6
CONTINUOUS
 10
3.6038059833
 20
-25.2956250984
 11
3.6147042933
 21
-25.3118285676
  0
LINE
  5
44E
100
AcDbEntity
  8
RACCORDO
100
AcDbLine
 62
7
  6
CONTINUOUS
 10
-15.0443038565
 20
24.4897801622
 11
-15.0563661015
 21
24.5077673685
  0
LINE
  5
44F
100
AcDbEntity
  8
0
100
AcDbLine
 62
7
  6
CONTINUOUS
 10
-9.3803911538
 20
-15.6548778076
 11
-9.3960018098
 21
-15.6315303674
  0
LINE
  5
450
100
AcDbEntity
  8
0
100
AcDbLine
 62
7
  6
CONTINUOUS
 10
9.440426665
 20
13.9025570873
 11
9.4549499214
 21
13.8808203829
  0
LINE
  5
451
100
AcDbEntity
  8
0
100
AcDbLine
 62
7
  6
CONTINUOUS
 10
-8.7739416333
 20
-15.2754563369
 11
-8.7841189276
 21
-15.2602143151
  0
LINE
  5
452
100
AcDbEntity
  8
0
100
AcDbLine
 62
7
  6
CONTINUOUS
 10
9.517111695
 20
-22.4195032198
 11
9.5006939448
 21
-22.3948254282
  0
LINE
  5
453
100
AcDbEntity
  8
0
100
AcDbLine
 62
7
  6
CONTINUOUS
 10
3.6486624671
 20
-24.3633558695
 11
3.6603671147
 21
-24.3810284703
  0
LINE
  5
454
100
AcDbEntity
  8
0
100
AcDbLine
 62
7
  6
CONTINUOUS
 10
9.287774114
 20
13.8379508321
 11
9.2902190088
 21
13.8342560448
  0
LINE
  5
455
100
AcDbEntity
  8
0
100
AcDbLine
 62
7
  6
CONTINUOUS
 10
4.0352357873
 20
-25.3127425036
 11
4.0228611041
 21
-25.2939220001
  0
LINE
  5
456
100
AcDbEntity
  8
0
100
AcDbLine
 62
7
  6
CONTINUOUS
 10
4.1206268766
 20
-25.2405332739
 11
4.1066246842
 21
-25.2192192314
  0
LINE
  5
457
100
AcDbEntity
  8
0
100
AcDbLine
 62
7
  6
CONTINUOUS
 10
-8.7841189276
 20
-15.2602143151
 11
-8.7937874151
 21
-15.2453389148
  0
LINE
  5
458
100
AcDbEntity
  8
0
100
AcDbLine
 62
7
  6
CONTINUOUS
 10
-9.3960018098
 20
-15.6315303674
 11
-9.4107823684
 21
-15.6087537009
  0
LINE
  5
459
100
AcDbEntity
  8
0
100
AcDbLine
 62
7
  6
CONTINUOUS
 10
-7.1689497032
 20
-13.9978172405
 11
-7.2023198
 21
-13.9461362957
  0
LINE
  5
45A
100
AcDbEntity
  8
0
100
AcDbLine
 62
7
  6
CONTINUOUS
 10
4.0520716138
 20
-24.3094774542
 11
4.0249940848
 21
-24.2675504768
  0
LINE
  5
45B
100
AcDbEntity
  8
RACCORDO
100
AcDbLine
 62
7
  6
CONTINUOUS
 10
-12.2940921794
 20
-24.1894482119
 11
-12.070572701
 21
-24.5372351841
  0
LINE
  5
45C
100
AcDbEntity
  8
0
100
AcDbLine
 62
7
  6
CONTINUOUS
 10
9.2902226098
 20
13.8342471978
 11
9.3074198399
 21
13.8074703064
  0
LINE
  5
45D
100
AcDbEntity
  8
RACCORDO
100
AcDbLine
 62
7
  6
CONTINUOUS
 10
-12.2605400171
 20
-24.1632134711
 11
-12.0423384387
 21
-24.503392088
  0
LINE
  5
45E
100
AcDbEntity
  8
0
100
AcDbLine
 62
7
  6
CONTINUOUS
 10
-8.0296192812
 20
-14.627608723
 11
-8.0615856154
 21
-14.5776247683
  0
LINE
  5
45F
100
AcDbEntity
  8
0
100
AcDbLine
 62
7
  6
CONTINUOUS
 10
-8.5712679393
 20
21.3041451749
 11
-8.5575845855
 21
21.28270287
  0
LINE
  5
460
100
AcDbEntity
  8
RACCORDO
100
AcDbLine
 62
7
  6
CONTINUOUS
 10
14.3271134778
 20
24.1255715471
 11
14.1102540485
 21
24.4668495881
  0
LINE
  5
461
100
AcDbEntity
  8
0
100
AcDbLine
 62
7
  6
CONTINUOUS
 10
9.4549499214
 20
13.8808203829
 11
9.497500957
 21
13.813713423
  0
LINE
  5
462
100
AcDbEntity
  8
RACCORDO
100
AcDbLine
 62
7
  6
CONTINUOUS
 10
14.6378208829
 20
24.3183680278
 11
14.4158614046
 21
24.6686132694
  0
LINE
  5
463
100
AcDbEntity
  8
0
100
AcDbLine
 62
7
  6
CONTINUOUS
 10
-8.7937874151
 20
-15.2453389148
 11
-8.8029634636
 21
-15.2308532556
  0
LINE
  5
464
100
AcDbEntity
  8
0
100
AcDbLine
 62
7
  6
CONTINUOUS
 10
3.6147042933
 20
-25.3118285676
 11
3.6249814199
 21
-25.3281810349
  0
LINE
  5
465
100
AcDbEntity
  8
0
100
AcDbLine
 62
7
  6
CONTINUOUS
 10
-9.4107823684
 20
-15.6087537009
 11
-9.4247334281
 21
-15.5865482796
  0
LINE
  5
466
100
AcDbEntity
  8
DRAFT
100
AcDbLine
 62
7
  6
CONTINUOUS
 10
16.4513392394
 20
25.6084280824
 11
16.232919083
 21
25.9573030906
  0
LINE
  5
467
100
AcDbEntity
  8
0
100
AcDbLine
 62
7
  6
CONTINUOUS
 10
4.1337310577
 20
-25.2616517185
 11
4.1206268766
 21
-25.2405332739
  0
LINE
  5
468
100
AcDbEntity
  8
0
100
AcDbLine
 62
7
  6
CONTINUOUS
 10
-8.8029634636
 20
-15.2308532556
 11
-8.8116640297
 21
-15.2167733029
  0
LINE
  5
469
100
AcDbEntity
  8
0
100
AcDbLine
 62
7
  6
CONTINUOUS
 10
4.0469940771
 20
-25.3317836389
 11
4.0352357873
 21
-25.3127425036
  0
LINE
  5
46A
100
AcDbEntity
  8
RACCORDO
100
AcDbLine
 62
7
  6
CONTINUOUS
 10
10.163491784
 20
-36.0150748856
 11
10.1773881857
 21
-36.0376386398
  0
LINE
  5
46B
100
AcDbEntity
  8
0
100
AcDbLine
 62
7
  6
CONTINUOUS
 10
4.1470174333
 20
-24.2535914574
 11
4.1206514808
 21
-24.210772642
  0
LINE
  5
46C
100
AcDbEntity
  8
RACCORDO
100
AcDbLine
 62
7
  6
CONTINUOUS
 10
-12.508233814
 20
-23.8380837497
 11
-12.2940921794
 21
-24.1894482119
  0
LINE
  5
46D
100
AcDbEntity
  8
RACCORDO
100
AcDbLine
 62
7
  6
CONTINUOUS
 10
-12.4693029631
 20
-23.8200841308
 11
-12.2605400171
 21
-24.1632134711
  0
LINE
  5
46E
100
AcDbEntity
  8
0
100
AcDbLine
 62
7
  6
CONTINUOUS
 10
3.6603671147
 20
-24.3810284703
 11
3.6711520134
 21
-24.3988849438
  0
LINE
  5
46F
100
AcDbEntity
  8
RACCORDO
100
AcDbLine
 62
7
  6
CONTINUOUS
 10
-3.4771189098
 20
-31.5006943352
 11
-3.4685588054
 21
-31.5149221987
  0
LINE
  5
470
100
AcDbEntity
  8
0
100
AcDbLine
 62
7
  6
CONTINUOUS
 10
-9.4247334281
 20
-15.5865482796
 11
-9.4657694381
 21
-15.5182002834
  0
LINE
  5
471
100
AcDbEntity
  8
0
100
AcDbLine
 62
7
  6
CONTINUOUS
 10
9.3074198399
 20
13.8074703064
 11
9.3354612457
 21
13.7604536747
  0
LINE
  5
472
100
AcDbEntity
  8
RACCORDO
100
AcDbLine
 62
7
  6
CONTINUOUS
 10
14.532722317
 20
23.7798585138
 11
14.3271134778
 21
24.1255715471
  0
LINE
  5
473
100
AcDbEntity
  8
RACCORDO
100
AcDbLine
 62
7
  6
CONTINUOUS
 10
14.848331728
 20
23.9635921683
 11
14.6378208829
 21
24.3183680278
  0
LINE
  5
474
100
AcDbEntity
  8
DRAFT
100
AcDbLine
 62
7
  6
CONTINUOUS
 10
16.6596944382
 20
25.2554968838
 11
16.4513392394
 21
25.6084280824
  0
LINE
  5
475
100
AcDbEntity
  8
0
100
AcDbLine
 62
7
  6
CONTINUOUS
 10
4.0582266808
 20
-25.3509259364
 11
4.0469940771
 21
-25.3317836389
  0
LINE
  5
476
100
AcDbEntity
  8
0
100
AcDbLine
 62
7
  6
CONTINUOUS
 10
4.145988972
 20
-25.2825547406
 11
4.1337310577
 21
-25.2616517185
  0
LINE
  5
477
100
AcDbEntity
  8
0
100
AcDbLine
 62
7
  6
CONTINUOUS
 10
-8.8116640297
 20
-15.2167733029
 11
-8.8370532437
 21
-15.1734380069
  0
LINE
  5
478
100
AcDbEntity
  8
0
100
AcDbLine
 62
7
  6
CONTINUOUS
 10
3.6249814199
 20
-25.3281810349
 11
3.6346342636
 21
-25.3447127763
  0
LINE
  5
479
100
AcDbEntity
  8
0
100
AcDbLine
 62
7
  6
CONTINUOUS
 10
-7.2023198
 20
-13.9461362957
 11
-7.2328445224
 21
-13.8936138493
  0
LINE
  5
47A
100
AcDbEntity
  8
RACCORDO
100
AcDbLine
 62
7
  6
CONTINUOUS
 10
-12.712739531
 20
-23.4837109237
 11
-12.508233814
 21
-23.8380837497
  0
LINE
  5
47B
100
AcDbEntity
  8
RACCORDO
100
AcDbLine
 62
7
  6
CONTINUOUS
 10
-12.6688125644
 20
-23.4738869596
 11
-12.4693029631
 21
-23.8200841308
  0
LINE
  5
47C
100
AcDbEntity
  8
0
100
AcDbLine
 62
7
  6
CONTINUOUS
 10
4.0767888139
 20
-24.3524181809
 11
4.0520716138
 21
-24.3094774542
  0
LINE
  5
47D
100
AcDbEntity
  8
0
100
AcDbLine
 62
7
  6
CONTINUOUS
 10
9.497500957
 20
13.813713423
 11
9.5366791534
 21
13.7452117167
  0
LINE
  5
47E
100
AcDbEntity
  8
0
100
AcDbLine
 62
7
  6
CONTINUOUS
 10
-8.0615856154
 20
-14.5776247683
 11
-8.0906866745
 21
-14.526506592
  0
LINE
  5
47F
100
AcDbEntity
  8
0
100
AcDbLine
 62
7
  6
CONTINUOUS
 10
4.0689069447
 20
-25.3700848705
 11
4.0582266808
 21
-25.3509259364
  0
LINE
  5
480
100
AcDbEntity
  8
0
100
AcDbLine
 62
7
  6
CONTINUOUS
 10
4.1718986486
 20
-24.2982860496
 11
4.1470174333
 21
-24.2535914574
  0
LINE
  5
481
100
AcDbEntity
  8
RACCORDO
100
AcDbLine
 62
7
  6
CONTINUOUS
 10
14.7271740065
 20
23.4295181438
 11
14.532722317
 21
23.7798585138
  0
LINE
  5
482
100
AcDbEntity
  8
RACCORDO
100
AcDbLine
 62
7
  6
CONTINUOUS
 10
15.0472194536
 20
23.6046709497
 11
14.848331728
 21
23.9635921683
  0
LINE
  5
483
100
AcDbEntity
  8
RACCORDO
100
AcDbLine
 62
7
  6
CONTINUOUS
 10
5.2612188085
 20
-34.9955923937
 11
5.2715487459
 21
-35.0143565435
  0
LINE
  5
484
100
AcDbEntity
  8
0
100
AcDbLine
 62
7
  6
CONTINUOUS
 10
-9.4657694381
 20
-15.5182002834
 11
-9.5038941928
 21
-15.4488356482
  0
LINE
  5
485
100
AcDbEntity
  8
0
100
AcDbLine
 62
7
  6
CONTINUOUS
 10
4.1573486745
 20
-25.303262399
 11
4.145988972
 21
-25.2825547406
  0
LINE
  5
486
100
AcDbEntity
  8
0
100
AcDbLine
 62
7
  6
CONTINUOUS
 10
3.6711520134
 20
-24.3988849438
 11
3.6810154732
 21
-24.4169215931
  0
LINE
  5
487
100
AcDbEntity
  8
RACCORDO
100
AcDbLine
 62
7
  6
CONTINUOUS
 10
-12.9073763841
 20
-23.126866526
 11
-12.712739531
 21
-23.4837109237
  0
LINE
  5
488
100
AcDbEntity
  8
RACCORDO
100
AcDbLine
 62
7
  6
CONTINUOUS
 10
-12.8584479188
 20
-23.1259255679
 11
-12.6688125644
 21
-23.4738869596
  0
LINE
  5
489
100
AcDbEntity
  8
0
100
AcDbLine
 62
7
  6
CONTINUOUS
 10
3.6346342636
 20
-25.3447127763
 11
3.6436790383
 21
-25.3613835057
  0
LINE
  5
48A
100
AcDbEntity
  8
0
100
AcDbLine
 62
7
  6
CONTINUOUS
 10
-8.8370532437
 20
-15.1734380069
 11
-8.8609374801
 21
-15.1292812065
  0
LINE
  5
48B
100
AcDbEntity
  8
0
100
AcDbLine
 62
7
  6
CONTINUOUS
 10
9.5006952145
 20
13.1839747139
 11
9.4880266641
 21
13.2074091187
  0
LINE
  5
48C
100
AcDbEntity
  8
0
100
AcDbLine
 62
7
  6
CONTINUOUS
 10
9.3354612457
 20
13.7604536747
 11
9.3610982123
 21
13.7129593865
  0
LINE
  5
48D
100
AcDbEntity
  8
0
100
AcDbLine
 62
7
  6
CONTINUOUS
 10
8.5996318804
 20
14.4079244429
 11
8.6105671225
 21
14.3875854645
  0
LINE
  5
48E
100
AcDbEntity
  8
0
100
AcDbLine
 62
7
  6
CONTINUOUS
 10
4.0790615224
 20
-25.3893449762
 11
4.0689069447
 21
-25.3700848705
  0
LINE
  5
48F
100
AcDbEntity
  8
0
100
AcDbLine
 62
7
  6
CONTINUOUS
 10
4.168046956
 20
-25.3237319197
 11
4.1573486745
 21
-25.303262399
  0
LINE
  5
490
100
AcDbEntity
  8
0
100
AcDbLine
 62
7
  6
CONTINUOUS
 10
-7.2328445224
 20
-13.8936138493
 11
-7.2603663056
 21
-13.8404484075
  0
LINE
  5
491
100
AcDbEntity
  8
RACCORDO
100
AcDbLine
 62
7
  6
CONTINUOUS
 10
9.3972309394
 20
-35.9240997599
 11
9.4087734501
 21
-35.9464197382
  0
LINE
  5
492
100
AcDbEntity
  8
RACCORDO
100
AcDbLine
 62
7
  6
CONTINUOUS
 10
14.9097866692
 20
23.0758040999
 11
14.7271740065
 21
23.4295181438
  0
LINE
  5
493
100
AcDbEntity
  8
RACCORDO
100
AcDbLine
 62
7
  6
CONTINUOUS
 10
15.2342381197
 20
23.2417153823
 11
15.0472194536
 21
23.6046709497
  0
LINE
  5
494
100
AcDbEntity
  8
RACCORDO
100
AcDbLine
 62
7
  6
CONTINUOUS
 10
-13.0918967955
 20
-22.7681169095
 11
-12.9073763841
 21
-23.126866526
  0
LINE
  5
495
100
AcDbEntity
  8
RACCORDO
100
AcDbLine
 62
7
  6
CONTINUOUS
 10
-13.0382441872
 20
-22.7762218942
 11
-12.8584479188
 21
-23.1259255679
  0
LINE
  5
496
100
AcDbEntity
  8
0
100
AcDbLine
 62
7
  6
CONTINUOUS
 10
4.0992737454
 20
-24.396166878
 11
4.0767888139
 21
-24.3524181809
  0
LINE
  5
497
100
AcDbEntity
  8
0
100
AcDbLine
 62
7
  6
CONTINUOUS
 10
9.5366791534
 20
13.7452117167
 11
9.5724805707
 21
13.6753116712
  0
LINE
  5
498
100
AcDbEntity
  8
0
100
AcDbLine
 62
7
  6
CONTINUOUS
 10
3.6436790383
 20
-25.3613835057
 11
3.6521211613
 21
-25.3781797862
  0
LINE
  5
499
100
AcDbEntity
  8
0
100
AcDbLine
 62
7
  6
CONTINUOUS
 10
4.0888611058
 20
-25.4088403485
 11
4.0790615224
 21
-25.3893449762
  0
LINE
  5
49A
100
AcDbEntity
  8
0
100
AcDbLine
 62
7
  6
CONTINUOUS
 10
-8.0906866745
 20
-14.526506592
 11
-8.1167597136
 21
-14.4745400677
  0
LINE
  5
49B
100
AcDbEntity
  8
0
100
AcDbLine
 62
7
  6
CONTINUOUS
 10
-9.5038941928
 20
-15.4488356482
 11
-9.5391121615
 21
-15.3784576696
  0
LINE
  5
49C
100
AcDbEntity
  8
RACCORDO
100
AcDbLine
 62
7
  6
CONTINUOUS
 10
-14.3830833426
 20
-18.9002858605
 11
-14.3917483846
 21
-18.8829509974
  0
LINE
  5
49D
100
AcDbEntity
  8
0
100
AcDbLine
 62
7
  6
CONTINUOUS
 10
4.1781116457
 20
-25.3439556266
 11
4.168046956
 21
-25.3237319197
  0
LINE
  5
49E
100
AcDbEntity
  8
0
100
AcDbLine
 62
7
  6
CONTINUOUS
 10
-8.8609374801
 20
-15.1292812065
 11
-8.8831898461
 21
-15.0844374542
  0
LINE
  5
49F
100
AcDbEntity
  8
0
100
AcDbLine
 62
7
  6
CONTINUOUS
 10
9.5006939448
 20
-22.3948254282
 11
9.4880250717
 21
-22.3692963974
  0
LINE
  5
4A0
100
AcDbEntity
  8
0
100
AcDbLine
 62
7
  6
CONTINUOUS
 10
4.193958579
 20
-24.3428236737
 11
4.1718986486
 21
-24.2982860496
  0
LINE
  5
4A1
100
AcDbEntity
  8
0
100
AcDbLine
 62
7
  6
CONTINUOUS
 10
3.6810154732
 20
-24.4169215931
 11
3.6899591996
 21
-24.4351421097
  0
LINE
  5
4A2
100
AcDbEntity
  8
0
100
AcDbLine
 62
7
  6
CONTINUOUS
 10
9.3610982123
 20
13.7129593865
 11
9.3842279416
 21
13.6652263036
  0
LINE
  5
4A3
100
AcDbEntity
  8
RACCORDO
100
AcDbLine
 62
7
  6
CONTINUOUS
 10
-13.2660763455
 20
-22.4080377292
 11
-13.0918967955
 21
-22.7681169095
  0
LINE
  5
4A4
100
AcDbEntity
  8
RACCORDO
100
AcDbLine
 62
7
  6
CONTINUOUS
 10
-13.2082408163
 20
-22.4248340414
 11
-13.0382441872
 21
-22.7762218942
  0
LINE
  5
4A5
100
AcDbEntity
  8
RACCORDO
100
AcDbLine
 62
7
  6
CONTINUOUS
 10
10.1513345416
 20
-35.9898741268
 11
10.163491784
 21
-36.0150748856
  0
LINE
  5
4A6
100
AcDbEntity
  8
0
100
AcDbLine
 62
7
  6
CONTINUOUS
 10
4.0983255442
 20
-25.4285622558
 11
4.0888611058
 21
-25.4088403485
  0
LINE
  5
4A7
100
AcDbEntity
  8
RACCORDO
100
AcDbLine
 62
7
  6
CONTINUOUS
 10
15.0804851055
 20
22.7186479184
 11
14.9097866692
 21
23.0758040999
  0
LINE
  5
4A8
100
AcDbEntity
  8
RACCORDO
100
AcDbLine
 62
7
  6
CONTINUOUS
 10
15.4091084256
 20
22.8752379708
 11
15.2342381197
 21
23.2417153823
  0
LINE
  5
4A9
100
AcDbEntity
  8
0
100
AcDbLine
 62
7
  6
CONTINUOUS
 10
-8.5828320259
 20
21.3285051723
 11
-8.5712679393
 21
21.3041451749
  0
LINE
  5
4AA
100
AcDbEntity
  8
0
100
AcDbLine
 62
7
  6
CONTINUOUS
 10
4.187514766
 20
-25.363941382
 11
4.1781116457
 21
-25.3439556266
  0
LINE
  5
4AB
100
AcDbEntity
  8
RACCORDO
100
AcDbLine
 62
7
  6
CONTINUOUS
 10
-15.0563661015
 20
24.5077673685
 11
-15.0650053881
 21
24.5262426854
  0
LINE
  5
4AC
100
AcDbEntity
  8
0
100
AcDbLine
 62
7
  6
CONTINUOUS
 10
3.6521211613
 20
-25.3781797862
 11
3.6599552626
 21
-25.3951150201
  0
LINE
  5
4AD
100
AcDbEntity
  8
0
100
AcDbLine
 62
7
  6
CONTINUOUS
 10
4.1189047376
 20
-24.4390766773
 11
4.0992737454
 21
-24.396166878
  0
LINE
  5
4AE
100
AcDbEntity
  8
0
100
AcDbLine
 62
7
  6
CONTINUOUS
 10
-7.2603663056
 20
-13.8404484075
 11
-7.285056359
 21
-13.7864508144
  0
LINE
  5
4AF
100
AcDbEntity
  8
0
100
AcDbLine
 62
7
  6
CONTINUOUS
 10
4.1074351146
 20
-25.4485193048
 11
4.0983255442
 21
-25.4285622558
  0
LINE
  5
4B0
100
AcDbEntity
  8
0
100
AcDbLine
 62
7
  6
CONTINUOUS
 10
9.5724805707
 20
13.6753116712
 11
9.6051313414
 21
13.6035314849
  0
LINE
  5
4B1
100
AcDbEntity
  8
RACCORDO
100
AcDbLine
 62
7
  6
CONTINUOUS
 10
-13.3678313506
 20
-22.073132116
 11
-13.2082408163
 21
-22.4248340414
  0
LINE
  5
4B2
100
AcDbEntity
  8
RACCORDO
100
AcDbLine
 62
7
  6
CONTINUOUS
 10
-13.4297121031
 20
-22.0471727489
 11
-13.2660763455
 21
-22.4080377292
  0
LINE
  5
4B3
100
AcDbEntity
  8
0
100
AcDbLine
 62
7
  6
CONTINUOUS
 10
-9.5391121615
 20
-15.3784576696
 11
-9.5716546297
 21
-15.3065887671
  0
LINE
  5
4B4
100
AcDbEntity
  8
0
100
AcDbLine
 62
7
  6
CONTINUOUS
 10
-8.8831898461
 20
-15.0844374542
 11
-8.9037391973
 21
-15.0389116997
  0
LINE
  5
4B5
100
AcDbEntity
  8
0
100
AcDbLine
 62
7
  6
CONTINUOUS
 10
4.1964093961
 20
-25.3836697166
 11
4.187514766
 21
-25.363941382
  0
LINE
  5
4B6
100
AcDbEntity
  8
RACCORDO
100
AcDbLine
 62
7
  6
CONTINUOUS
 10
15.2392238233
 20
22.3580381245
 11
15.0804851055
 21
22.7186479184
  0
LINE
  5
4B7
100
AcDbEntity
  8
RACCORDO
100
AcDbLine
 62
7
  6
CONTINUOUS
 10
15.5715596888
 20
22.5058144623
 11
15.4091084256
 21
22.8752379708
  0
LINE
  5
4B8
100
AcDbEntity
  8
0
100
AcDbLine
 62
7
  6
CONTINUOUS
 10
3.6899591996
 20
-24.4351421097
 11
3.6979391089
 21
-24.4533547977
  0
LINE
  5
4B9
100
AcDbEntity
  8
0
100
AcDbLine
 62
7
  6
CONTINUOUS
 10
-8.1167597136
 20
-14.4745400677
 11
-8.1396589217
 21
-14.4220158133
  0
LINE
  5
4BA
100
AcDbEntity
  8
0
100
AcDbLine
 62
7
  6
CONTINUOUS
 10
4.1163012419
 20
-25.4688714962
 11
4.1074351146
 21
-25.4485193048
  0
LINE
  5
4BB
100
AcDbEntity
  8
0
100
AcDbLine
 62
7
  6
CONTINUOUS
 10
4.2048047357
 20
-25.4031182357
 11
4.1964093961
 21
-25.3836697166
  0
LINE
  5
4BC
100
AcDbEntity
  8
0
100
AcDbLine
 62
7
  6
CONTINUOUS
 10
9.3842279416
 20
13.6652263036
 11
9.4047709408
 21
13.6174908136
  0
LINE
  5
4BD
100
AcDbEntity
  8
0
100
AcDbLine
 62
7
  6
CONTINUOUS
 10
4.2127344089
 20
-24.3870723008
 11
4.193958579
 21
-24.3428236737
  0
LINE
  5
4BE
100
AcDbEntity
  8
RACCORDO
100
AcDbLine
 62
7
  6
CONTINUOUS
 10
-13.5170353475
 20
-21.721115846
 11
-13.3678313506
 21
-22.073132116
  0
LINE
  5
4BF
100
AcDbEntity
  8
RACCORDO
100
AcDbLine
 62
7
  6
CONTINUOUS
 10
-13.5825872391
 20
-21.6861009691
 11
-13.4297121031
 21
-22.0471727489
  0
LINE
  5
4C0
100
AcDbEntity
  8
0
100
AcDbLine
 62
7
  6
CONTINUOUS
 10
3.6599552626
 20
-25.3951150201
 11
3.6671813814
 21
-25.4121891772
  0
LINE
  5
4C1
100
AcDbEntity
  8
0
100
AcDbLine
 62
7
  6
CONTINUOUS
 10
4.1249327504
 20
-25.4896087332
 11
4.1163012419
 21
-25.4688714962
  0
LINE
  5
4C2
100
AcDbEntity
  8
0
100
AcDbLine
 62
7
  6
CONTINUOUS
 10
4.2126914537
 20
-25.4223095012
 11
4.2048047357
 21
-25.4031182357
  0
LINE
  5
4C3
100
AcDbEntity
  8
0
100
AcDbLine
 62
7
  6
CONTINUOUS
 10
-9.5716546297
 20
-15.3065887671
 11
-9.6012974754
 21
-15.2337119318
  0
LINE
  5
4C4
100
AcDbEntity
  8
0
100
AcDbLine
 62
7
  6
CONTINUOUS
 10
-8.9037391973
 20
-15.0389116997
 11
-8.9223988513
 21
-14.9929924639
  0
LINE
  5
4C5
100
AcDbEntity
  8
RACCORDO
100
AcDbLine
 62
7
  6
CONTINUOUS
 10
15.385351425
 20
21.9953080103
 11
15.2392238233
 21
22.3580381245
  0
LINE
  5
4C6
100
AcDbEntity
  8
RACCORDO
100
AcDbLine
 62
7
  6
CONTINUOUS
 10
15.7213308289
 20
22.1336452671
 11
15.5715596888
 21
22.5058144623
  0
LINE
  5
4C7
100
AcDbEntity
  8
0
100
AcDbLine
 62
7
  6
CONTINUOUS
 10
9.6051313414
 20
13.6035314849
 11
9.6343987631
 21
13.5303471203
  0
LINE
  5
4C8
100
AcDbEntity
  8
0
100
AcDbLine
 62
7
  6
CONTINUOUS
 10
-7.285056359
 20
-13.7864508144
 11
-7.3066594503
 21
-13.7322235323
  0
LINE
  5
4C9
100
AcDbEntity
  8
0
100
AcDbLine
 62
7
  6
CONTINUOUS
 10
4.1333210649
 20
-25.5107408573
 11
4.1249327504
 21
-25.4896087332
  0
LINE
  5
4CA
100
AcDbEntity
  8
0
100
AcDbLine
 62
7
  6
CONTINUOUS
 10
4.2201948432
 20
-25.4412914625
 11
4.2126914537
 21
-25.4223095012
  0
LINE
  5
4CB
100
AcDbEntity
  8
RACCORDO
100
AcDbLine
 62
7
  6
CONTINUOUS
 10
-13.6558828103
 20
-21.3688588905
 11
-13.5170353475
 21
-21.721115846
  0
LINE
  5
4CC
100
AcDbEntity
  8
RACCORDO
100
AcDbLine
 62
7
  6
CONTINUOUS
 10
-13.7245194358
 20
-21.3253849887
 11
-13.5825872391
 21
-21.6861009691
  0
LINE
  5
4CD
100
AcDbEntity
  8
0
100
AcDbLine
 62
7
  6
CONTINUOUS
 10
8.5904325926
 20
14.4313350787
 11
8.5996318804
 21
14.4079244429
  0
LINE
  5
4CE
100
AcDbEntity
  8
0
100
AcDbLine
 62
7
  6
CONTINUOUS
 10
4.1353188001
 20
-24.4808676527
 11
4.1189047376
 21
-24.4390766773
  0
LINE
  5
4CF
100
AcDbEntity
  8
0
100
AcDbLine
 62
7
  6
CONTINUOUS
 10
-0.9254079462
 20
-23.6440974775
 11
-0.6375634533
 21
-24.3783240294
  0
LINE
  5
4D0
100
AcDbEntity
  8
RACCORDO
100
AcDbLine
 62
7
  6
CONTINUOUS
 10
5.2527360384
 20
-34.9739299187
 11
5.2612188085
 21
-34.9955923937
  0
LINE
  5
4D1
100
AcDbEntity
  8
RACCORDO
100
AcDbLine
 62
7
  6
CONTINUOUS
 10
9.387485067
 20
-35.8991370701
 11
9.3972309394
 21
-35.9240997599
  0
LINE
  5
4D2
100
AcDbEntity
  8
0
100
AcDbLine
 62
7
  6
CONTINUOUS
 10
-1.2104668969
 20
-22.9071723032
 11
-0.9254079462
 21
-23.6440974775
  0
LINE
  5
4D3
100
AcDbEntity
  8
0
100
AcDbLine
 62
7
  6
CONTINUOUS
 10
3.6979391089
 20
-24.4533547977
 11
3.7049675556
 21
-24.4715522753
  0
LINE
  5
4D4
100
AcDbEntity
  8
0
100
AcDbLine
 62
7
  6
CONTINUOUS
 10
-1.2812955837
 20
-22.7225214335
 11
-1.2104668969
 21
-22.9071723032
  0
LINE
  5
4D5
100
AcDbEntity
  8
0
100
AcDbLine
 62
7
  6
CONTINUOUS
 10
-0.6606816463
 20
-23.4213451228
 11
-0.9603331576
 21
-22.6383463848
  0
LINE
  5
4D6
100
AcDbEntity
  8
0
100
AcDbLine
 62
7
  6
CONTINUOUS
 10
-0.6029213425
 20
-23.276504199
 11
-0.8740664177
 21
-22.5676809651
  0
LINE
  5
4D7
100
AcDbEntity
  8
0
100
AcDbLine
 62
7
  6
CONTINUOUS
 10
4.2273118186
 20
-25.460046429
 11
4.2201948432
 21
-25.4412914625
  0
LINE
  5
4D8
100
AcDbEntity
  8
0
100
AcDbLine
 62
7
  6
CONTINUOUS
 10
4.1415516217
 20
-25.5324576545
 11
4.1333210649
 21
-25.5107408573
  0
LINE
  5
4D9
100
AcDbEntity
  8
0
100
AcDbLine
 62
7
  6
CONTINUOUS
 10
-0.8740664177
 20
-22.5676809651
 11
-1.1115454636
 21
-21.9391419262
  0
LINE
  5
4DA
100
AcDbEntity
  8
0
100
AcDbLine
 62
7
  6
CONTINUOUS
 10
-0.9603331576
 20
-22.6383463848
 11
-1.1977851662
 21
-22.0097853549
  0
LINE
  5
4DB
100
AcDbEntity
  8
0
100
AcDbLine
 62
7
  6
CONTINUOUS
 10
9.4047709408
 20
13.6174908136
 11
9.4226623491
 21
13.5699953689
  0
LINE
  5
4DC
100
AcDbEntity
  8
RACCORDO
100
AcDbLine
 62
7
  6
CONTINUOUS
 10
-3.4835768996
 20
-31.4834852539
 11
-3.4771189098
 21
-31.5006943352
  0
LINE
  5
4DD
100
AcDbEntity
  8
0
100
AcDbLine
 62
7
  6
CONTINUOUS
 10
3.6671813814
 20
-25.4121891772
 11
3.6958882751
 21
-25.4886897457
  0
LINE
  5
4DE
100
AcDbEntity
  8
0
100
AcDbLine
 62
7
  6
CONTINUOUS
 10
-8.1396589217
 20
-14.4220158133
 11
-8.159256237
 21
-14.3692275657
  0
LINE
  5
4DF
100
AcDbEntity
  8
0
100
AcDbLine
 62
7
  6
CONTINUOUS
 10
9.4880266641
 20
13.2074091187
 11
9.4792074995
 21
13.2312897328
  0
LINE
  5
4E0
100
AcDbEntity
  8
RACCORDO
100
AcDbLine
 62
7
  6
CONTINUOUS
 10
-13.783791045
 20
-21.0178536689
 11
-13.6558828103
 21
-21.3688588905
  0
LINE
  5
4E1
100
AcDbEntity
  8
RACCORDO
100
AcDbLine
 62
7
  6
CONTINUOUS
 10
-13.8553501171
 20
-20.9655367292
 11
-13.7245194358
 21
-21.3253849887
  0
LINE
  5
4E2
100
AcDbEntity
  8
0
100
AcDbLine
 62
7
  6
CONTINUOUS
 10
3.6958882751
 20
-25.4886897457
 11
3.7242388063
 21
-25.566669176
  0
LINE
  5
4E3
100
AcDbEntity
  8
0
100
AcDbLine
 62
7
  6
CONTINUOUS
 10
4.2340453737
 20
-25.4785922115
 11
4.2273118186
 21
-25.460046429
  0
LINE
  5
4E4
100
AcDbEntity
  8
0
100
AcDbLine
 62
7
  6
CONTINUOUS
 10
4.2286887588
 20
-24.4311644251
 11
4.2127344089
 21
-24.3870723008
  0
LINE
  5
4E5
100
AcDbEntity
  8
0
100
AcDbLine
 62
7
  6
CONTINUOUS
 10
-8.9223988513
 20
-14.9929924639
 11
-8.9389356692
 21
-14.9472564908
  0
LINE
  5
4E6
100
AcDbEntity
  8
0
100
AcDbLine
 62
7
  6
CONTINUOUS
 10
4.1495864832
 20
-25.5547530915
 11
4.1415516217
 21
-25.5324576545
  0
LINE
  5
4E7
100
AcDbEntity
  8
0
100
AcDbLine
 62
7
  6
CONTINUOUS
 10
-9.6012974754
 20
-15.2337119318
 11
-9.6273624074
 21
-15.161271841
  0
LINE
  5
4E8
100
AcDbEntity
  8
0
100
AcDbLine
 62
7
  6
CONTINUOUS
 10
3.7242388063
 20
-25.566669176
 11
3.7522348407
 21
-25.6461254927
  0
LINE
  5
4E9
100
AcDbEntity
  8
0
100
AcDbLine
 62
7
  6
CONTINUOUS
 10
4.2405299567
 20
-25.4970299661
 11
4.2340453737
 21
-25.4785922115
  0
LINE
  5
4EA
100
AcDbEntity
  8
0
100
AcDbLine
 62
7
  6
CONTINUOUS
 10
2.6323063024
 20
-25.5626985345
 11
2.3494923621
 21
-24.744123337
  0
LINE
  5
4EB
100
AcDbEntity
  8
0
100
AcDbLine
 62
7
  6
CONTINUOUS
 10
2.5459234233
 20
-25.6334592464
 11
2.2631579983
 21
-24.8148434082
  0
LINE
  5
4EC
100
AcDbEntity
  8
0
100
AcDbLine
 62
7
  6
CONTINUOUS
 10
-8.5921892765
 20
21.3555983967
 11
-8.5828320259
 21
21.3285051723
  0
LINE
  5
4ED
100
AcDbEntity
  8
0
100
AcDbLine
 62
7
  6
CONTINUOUS
 10
4.1574639969
 20
-25.5776327772
 11
4.1495864832
 21
-25.5547530915
  0
LINE
  5
4EE
100
AcDbEntity
  8
0
100
AcDbLine
 62
7
  6
CONTINUOUS
 10
9.6343987631
 20
13.5303471203
 11
9.6595899385
 21
13.45719129
  0
LINE
  5
4EF
100
AcDbEntity
  8
0
100
AcDbLine
 62
7
  6
CONTINUOUS
 10
-4.0752768082
 20
-22.2328477058
 11
-3.7935718596
 21
-23.0619547672
  0
LINE
  5
4F0
100
AcDbEntity
  8
0
100
AcDbLine
 62
7
  6
CONTINUOUS
 10
2.2631579983
 20
-24.8148434082
 11
1.9839215337
 21
-23.9927653949
  0
LINE
  5
4F1
100
AcDbEntity
  8
0
100
AcDbLine
 62
7
  6
CONTINUOUS
 10
2.3494923621
 20
-24.744123337
 11
2.0702107851
 21
-23.9220819277
  0
LINE
  5
4F2
100
AcDbEntity
  8
0
100
AcDbLine
 62
7
  6
CONTINUOUS
 10
4.2467546113
 20
-25.5153593584
 11
4.2405299567
 21
-25.4970299661
  0
LINE
  5
4F3
100
AcDbEntity
  8
0
100
AcDbLine
 62
7
  6
CONTINUOUS
 10
-7.3066594503
 20
-13.7322235323
 11
-7.3252037649
 21
-13.6775904358
  0
LINE
  5
4F4
100
AcDbEntity
  8
0
100
AcDbLine
 62
7
  6
CONTINUOUS
 10
3.8341154791
 20
-25.8933351415
 11
3.922392476
 21
-26.1545297201
  0
LINE
  5
4F5
100
AcDbEntity
  8
0
100
AcDbLine
 62
7
  6
CONTINUOUS
 10
3.7522348407
 20
-25.6461254927
 11
3.779525805
 21
-25.7270281768
  0
LINE
  5
4F6
100
AcDbEntity
  8
0
100
AcDbLine
 62
7
  6
CONTINUOUS
 10
9.4880250717
 20
-22.3692963974
 11
9.4792056139
 21
-22.3431187214
  0
LINE
  5
4F7
100
AcDbEntity
  8
0
100
AcDbLine
 62
7
  6
CONTINUOUS
 10
4.1653841577
 20
-25.6013038129
 11
4.1574639969
 21
-25.5776327772
  0
LINE
  5
4F8
100
AcDbEntity
  8
RACCORDO
100
AcDbLine
 62
7
  6
CONTINUOUS
 10
-13.9007529056
 20
-20.6680808269
 11
-13.783791045
 21
-21.0178536689
  0
LINE
  5
4F9
100
AcDbEntity
  8
0
100
AcDbLine
 62
7
  6
CONTINUOUS
 10
-4.3534078349
 20
-21.4003495983
 11
-4.0752768082
 21
-22.2328477058
  0
LINE
  5
4FA
100
AcDbEntity
  8
0
100
AcDbLine
 62
7
  6
CONTINUOUS
 10
1.9839215337
 20
-23.9927653949
 11
1.708225983
 21
-23.1672603813
  0
LINE
  5
4FB
100
AcDbEntity
  8
0
100
AcDbLine
 62
7
  6
CONTINUOUS
 10
2.0702107851
 20
-23.9220819277
 11
1.7944738015
 21
-23.0966103044
  0
LINE
  5
4FC
100
AcDbEntity
  8
RACCORDO
100
AcDbLine
 62
7
  6
CONTINUOUS
 10
-13.9748983536
 20
-20.6071236575
 11
-13.8553501171
 21
-20.9655367292
  0
LINE
  5
4FD
100
AcDbEntity
  8
0
100
AcDbLine
 62
7
  6
CONTINUOUS
 10
3.7049675556
 20
-24.4715522753
 11
3.7110322241
 21
-24.4897419284
  0
LINE
  5
4FE
100
AcDbEntity
  8
0
100
AcDbLine
 62
7
  6
CONTINUOUS
 10
4.1488780134
 20
-24.5218209826
 11
4.1353188001
 21
-24.4808676527
  0
LINE
  5
4FF
100
AcDbEntity
  8
0
100
AcDbLine
 62
7
  6
CONTINUOUS
 10
-4.627952964
 20
-20.5644963187
 11
-4.3534078349
 21
-21.4003495983
  0
LINE
  5
500
100
AcDbEntity
  8
0
100
AcDbLine
 62
7
  6
CONTINUOUS
 10
3.779525805
 20
-25.7270281768
 11
3.8341154791
 21
-25.8933351415
  0
LINE
  5
501
100
AcDbEntity
  8
0
100
AcDbLine
 62
7
  6
CONTINUOUS
 10
4.1734138539
 20
-25.6258349901
 11
4.1653841577
 21
-25.6013038129
  0
LINE
  5
502
100
AcDbEntity
  8
0
100
AcDbLine
 62
7
  6
CONTINUOUS
 10
4.2586242131
 20
-25.5517963946
 11
4.2467546113
 21
-25.5153593584
  0
LINE
  5
503
100
AcDbEntity
  8
0
100
AcDbLine
 62
7
  6
CONTINUOUS
 10
9.4226623491
 20
13.5699953689
 11
9.4378495985
 21
13.523017175
  0
LINE
  5
504
100
AcDbEntity
  8
0
100
AcDbLine
 62
7
  6
CONTINUOUS
 10
4.2702786042
 20
-25.5882783345
 11
4.2586242131
 21
-25.5517963946
  0
LINE
  5
505
100
AcDbEntity
  8
0
100
AcDbLine
 62
7
  6
CONTINUOUS
 10
4.1814868018
 20
-25.6511568709
 11
4.1734138539
 21
-25.6258349901
  0
LINE
  5
506
100
AcDbEntity
  8
0
100
AcDbLine
 62
7
  6
CONTINUOUS
 10
-8.9389356692
 20
-14.9472564908
 11
-8.9533119563
 21
-14.9018928769
  0
LINE
  5
507
100
AcDbEntity
  8
0
100
AcDbLine
 62
7
  6
CONTINUOUS
 10
1.8815814634
 20
-24.9524818604
 11
2.0343925441
 21
-25.4365388118
  0
LINE
  5
508
100
AcDbEntity
  8
0
100
AcDbLine
 62
7
  6
CONTINUOUS
 10
4.3941722101
 20
-26.3302029766
 11
4.3271883349
 21
-26.1173146171
  0
LINE
  5
509
100
AcDbEntity
  8
0
100
AcDbLine
 62
7
  6
CONTINUOUS
 10
4.2596524047
 20
-25.9000099171
 11
4.189603314
 21
-25.6772691228
  0
LINE
  5
50A
100
AcDbEntity
  8
0
100
AcDbLine
 62
7
  6
CONTINUOUS
 10
4.4805935661
 20
-26.2594107461
 11
4.3916557557
 21
-25.9760531354
  0
LINE
  5
50B
100
AcDbEntity
  8
0
100
AcDbLine
 62
7
  6
CONTINUOUS
 10
4.3691760446
 20
-25.9035421833
 11
4.2702786042
 21
-25.5882783345
  0
LINE
  5
50C
100
AcDbEntity
  8
0
100
AcDbLine
 62
7
  6
CONTINUOUS
 10
4.2418710853
 20
-24.473466467
 11
4.2286887588
 21
-24.4311644251
  0
LINE
  5
50D
100
AcDbEntity
  8
0
100
AcDbLine
 62
7
  6
CONTINUOUS
 10
4.189603314
 20
-25.6772691228
 11
4.1814868018
 21
-25.6511568709
  0
LINE
  5
50E
100
AcDbEntity
  8
0
100
AcDbLine
 62
7
  6
CONTINUOUS
 10
4.3271883349
 20
-26.1173146171
 11
4.2596524047
 21
-25.9000099171
  0
LINE
  5
50F
100
AcDbEntity
  8
0
100
AcDbLine
 62
7
  6
CONTINUOUS
 10
-9.6273624074
 20
-15.161271841
 11
-9.6496816078
 21
-15.0893287871
  0
LINE
  5
510
100
AcDbEntity
  8
0
100
AcDbLine
 62
7
  6
CONTINUOUS
 10
4.3916557557
 20
-25.9760531354
 11
4.3691760446
 21
-25.9035421833
  0
LINE
  5
511
100
AcDbEntity
  8
0
100
AcDbLine
 62
7
  6
CONTINUOUS
 10
-8.159256237
 20
-14.3692275657
 11
-8.1754420635
 21
-14.3164705382
  0
LINE
  5
512
100
AcDbEntity
  8
RACCORDO
100
AcDbLine
 62
7
  6
CONTINUOUS
 10
-14.0067994088
 20
-20.3196242409
 11
-13.9007529056
 21
-20.6680808269
  0
LINE
  5
513
100
AcDbEntity
  8
0
100
AcDbLine
 62
7
  6
CONTINUOUS
 10
-3.6104191636
 20
-22.4781093519
 11
-3.839053303
 21
-21.7268268944
  0
LINE
  5
514
100
AcDbEntity
  8
0
100
AcDbLine
 62
7
  6
CONTINUOUS
 10
-3.5600362389
 20
-22.2899175046
 11
-3.7527308677
 21
-21.6561160216
  0
LINE
  5
515
100
AcDbEntity
  8
RACCORDO
100
AcDbLine
 62
7
  6
CONTINUOUS
 10
-14.0830161785
 20
-20.2506789972
 11
-13.9748983536
 21
-20.6071236575
  0
LINE
  5
516
100
AcDbEntity
  8
0
100
AcDbLine
 62
7
  6
CONTINUOUS
 10
-3.839053303
 20
-21.7268268944
 11
-4.0647309063
 21
-20.9727646126
  0
LINE
  5
517
100
AcDbEntity
  8
0
100
AcDbLine
 62
7
  6
CONTINUOUS
 10
-3.7527308677
 20
-21.6561160216
 11
-3.9784399915
 21
-20.9020792389
  0
LINE
  5
518
100
AcDbEntity
  8
0
100
AcDbLine
 62
7
  6
CONTINUOUS
 10
1.5556224898
 20
-23.8776403026
 11
1.7645184728
 21
-24.5773051808
  0
LINE
  5
519
100
AcDbEntity
  8
0
100
AcDbLine
 62
7
  6
CONTINUOUS
 10
-3.9784399915
 20
-20.9020792389
 11
-4.0344041442
 21
-20.7131375896
  0
LINE
  5
51A
100
AcDbEntity
  8
0
100
AcDbLine
 62
7
  6
CONTINUOUS
 10
-4.0647309063
 20
-20.9727646126
 11
-4.1206876778
 21
-20.7838169225
  0
LINE
  5
51B
100
AcDbEntity
  8
0
100
AcDbLine
 62
7
  6
CONTINUOUS
 10
1.4964151031
 20
-23.6772757153
 11
1.5556224898
 21
-23.8776403026
  0
LINE
  5
51C
100
AcDbEntity
  8
0
100
AcDbLine
 62
7
  6
CONTINUOUS
 10
9.6595899385
 20
13.45719129
 11
9.6805066685
 21
13.3840993996
  0
LINE
  5
51D
100
AcDbEntity
  8
RACCORDO
100
AcDbLine
 62
7
  6
CONTINUOUS
 10
-14.3917483846
 20
-18.8829509974
 11
-14.39691847
 21
-18.864795805
  0
LINE
  5
51E
100
AcDbEntity
  8
0
100
AcDbLine
 62
7
  6
CONTINUOUS
 10
4.1600469573
 20
-24.5611329269
 11
4.1488780134
 21
-24.5218209826
  0
LINE
  5
51F
100
AcDbEntity
  8
0
100
AcDbLine
 62
7
  6
CONTINUOUS
 10
-7.3252037649
 20
-13.6775904358
 11
-7.3406712795
 21
-13.6227345556
  0
LINE
  5
520
100
AcDbEntity
  8
0
100
AcDbLine
 62
7
  6
CONTINUOUS
 10
8.5830389213
 20
14.4576400933
 11
8.5904325926
 21
14.4313350787
  0
LINE
  5
521
100
AcDbEntity
  8
0
100
AcDbLine
 62
7
  6
CONTINUOUS
 10
3.7110322241
 20
-24.4897419284
 11
3.7160519619
 21
-24.5077542902
  0
LINE
  5
522
100
AcDbEntity
  8
RACCORDO
100
AcDbLine
 62
7
  6
CONTINUOUS
 10
-14.1014142028
 20
-19.9741420913
 11
-14.0067994088
 21
-20.3196242409
  0
LINE
  5
523
100
AcDbEntity
  8
RACCORDO
100
AcDbLine
 62
7
  6
CONTINUOUS
 10
-15.0650053881
 20
24.5262426854
 11
-15.0701176741
 21
24.5449836157
  0
LINE
  5
524
100
AcDbEntity
  8
RACCORDO
100
AcDbLine
 62
7
  6
CONTINUOUS
 10
-14.1795818042
 20
-19.896656001
 11
-14.0830161785
 21
-20.2506789972
  0
LINE
  5
525
100
AcDbEntity
  8
0
100
AcDbLine
 62
7
  6
CONTINUOUS
 10
-8.9533119563
 20
-14.9018928769
 11
-8.9654836429
 21
-14.8570384444
  0
LINE
  5
526
100
AcDbEntity
  8
0
100
AcDbLine
 62
7
  6
CONTINUOUS
 10
9.4378495985
 20
13.523017175
 11
9.4502996622
 21
13.4768796125
  0
LINE
  5
527
100
AcDbEntity
  8
RACCORDO
100
AcDbLine
 62
7
  6
CONTINUOUS
 10
5.2462079756
 20
-34.9496437433
 11
5.2527360384
 21
-34.9739299187
  0
LINE
  5
528
100
AcDbEntity
  8
0
100
AcDbLine
 62
7
  6
CONTINUOUS
 10
-9.6496816078
 20
-15.0893287871
 11
-9.6684290808
 21
-15.0178279165
  0
LINE
  5
529
100
AcDbEntity
  8
0
100
AcDbLine
 62
7
  6
CONTINUOUS
 10
4.2520034048
 20
-24.5134852922
 11
4.2418710853
 21
-24.473466467
  0
LINE
  5
52A
100
AcDbEntity
  8
RACCORDO
100
AcDbLine
 62
7
  6
CONTINUOUS
 10
-14.1844297167
 20
-19.6322089717
 11
-14.1014142028
 21
-19.9741420913
  0
LINE
  5
52B
100
AcDbEntity
  8
0
100
AcDbLine
 62
7
  6
CONTINUOUS
 10
-8.1754420635
 20
-14.3164705382
 11
-8.1881258835
 21
-14.2640397696
  0
LINE
  5
52C
100
AcDbEntity
  8
RACCORDO
100
AcDbLine
 62
7
  6
CONTINUOUS
 10
-14.2644546344
 20
-19.5455626059
 11
-14.1795818042
 21
-19.896656001
  0
LINE
  5
52D
100
AcDbEntity
  8
0
100
AcDbLine
 62
7
  6
CONTINUOUS
 10
-8.5992688335
 20
21.3852196854
 11
-8.5921892765
 21
21.3555983967
  0
LINE
  5
52E
100
AcDbEntity
  8
0
100
AcDbLine
 62
7
  6
CONTINUOUS
 10
4.1687361786
 20
-24.598549097
 11
4.1600469573
 21
-24.5611329269
  0
LINE
  5
52F
100
AcDbEntity
  8
0
100
AcDbLine
 62
7
  6
CONTINUOUS
 10
9.6805066685
 20
13.3840993996
 11
9.6973402748
 21
13.3110307811
  0
LINE
  5
530
100
AcDbEntity
  8
0
100
AcDbLine
 62
7
  6
CONTINUOUS
 10
-8.9654836429
 20
-14.8570384444
 11
-8.9753404105
 21
-14.8131861938
  0
LINE
  5
531
100
AcDbEntity
  8
0
100
AcDbLine
 62
7
  6
CONTINUOUS
 10
-7.3406712795
 20
-13.6227345556
 11
-7.3527372421
 21
-13.5687969347
  0
LINE
  5
532
100
AcDbEntity
  8
0
100
AcDbLine
 62
7
  6
CONTINUOUS
 10
3.7160519619
 20
-24.5077542902
 11
3.7199997225
 21
-24.5255328934
  0
LINE
  5
533
100
AcDbEntity
  8
0
100
AcDbLine
 62
7
  6
CONTINUOUS
 10
9.4502996622
 20
13.4768796125
 11
9.4600260215
 21
13.4318415814
  0
LINE
  5
534
100
AcDbEntity
  8
0
100
AcDbLine
 62
7
  6
CONTINUOUS
 10
-9.6684290808
 20
-15.0178279165
 11
-9.6834398486
 21
-14.9480419591
  0
LINE
  5
535
100
AcDbEntity
  8
RACCORDO
100
AcDbLine
 62
7
  6
CONTINUOUS
 10
-3.4878509041
 20
-31.463513122
 11
-3.4835768996
 21
-31.4834852539
  0
LINE
  5
536
100
AcDbEntity
  8
RACCORDO
100
AcDbLine
 62
7
  6
CONTINUOUS
 10
-14.2560151805
 20
-19.2933058932
 11
-14.1844297167
 21
-19.6322089717
  0
LINE
  5
537
100
AcDbEntity
  8
RACCORDO
100
AcDbLine
 62
7
  6
CONTINUOUS
 10
-14.3375009484
 20
-19.1979973451
 11
-14.2644546344
 21
-19.5455626059
  0
LINE
  5
538
100
AcDbEntity
  8
0
100
AcDbLine
 62
7
  6
CONTINUOUS
 10
9.4792074995
 20
13.2312897328
 11
9.4743077073
 21
13.2554270465
  0
LINE
  5
539
100
AcDbEntity
  8
0
100
AcDbLine
 62
7
  6
CONTINUOUS
 10
4.2593620641
 20
-24.5517161418
 11
4.2520034048
 21
-24.5134852922
  0
LINE
  5
53A
100
AcDbEntity
  8
0
100
AcDbLine
 62
7
  6
CONTINUOUS
 10
8.5775068556
 20
14.48664029
 11
8.5830389213
 21
14.4576400933
  0
LINE
  5
53B
100
AcDbEntity
  8
0
100
AcDbLine
 62
7
  6
CONTINUOUS
 10
9.4792056139
 20
-22.3431187214
 11
9.4743055611
 21
-22.316500142
  0
LINE
  5
53C
100
AcDbEntity
  8
RACCORDO
100
AcDbLine
 62
7
  6
CONTINUOUS
 10
-14.3161585252
 20
-18.9574521101
 11
-14.2560151805
 21
-19.2933058932
  0
LINE
  5
53D
100
AcDbEntity
  8
RACCORDO
100
AcDbLine
 62
7
  6
CONTINUOUS
 10
-14.3972672159
 20
-18.8627796597
 11
-14.3375009484
 21
-19.1979973451
  0
LINE
  5
53E
100
AcDbEntity
  8
0
100
AcDbLine
 62
7
  6
CONTINUOUS
 10
-8.9753404105
 20
-14.8131861938
 11
-8.982900587
 21
-14.7705879308
  0
LINE
  5
53F
100
AcDbEntity
  8
0
100
AcDbLine
 62
7
  6
CONTINUOUS
 10
4.1750338141
 20
-24.634325579
 11
4.1687361786
 21
-24.598549097
  0
LINE
  5
540
100
AcDbEntity
  8
0
100
AcDbLine
 62
7
  6
CONTINUOUS
 10
-8.1881258835
 20
-14.2640397696
 11
-8.1972367639
 21
-14.2122284739
  0
LINE
  5
541
100
AcDbEntity
  8
RACCORDO
100
AcDbLine
 62
7
  6
CONTINUOUS
 10
-14.39691847
 20
-18.864795805
 11
-14.3972672159
 21
-18.8627796597
  0
LINE
  5
542
100
AcDbEntity
  8
0
100
AcDbLine
 62
7
  6
CONTINUOUS
 10
-9.6834398486
 20
-14.9480419591
 11
-9.6946600916
 21
-14.8803964862
  0
LINE
  5
543
100
AcDbEntity
  8
0
100
AcDbLine
 62
7
  6
CONTINUOUS
 10
3.7199997225
 20
-24.5255328934
 11
3.7229026134
 21
-24.5431342182
  0
LINE
  5
544
100
AcDbEntity
  8
0
100
AcDbLine
 62
7
  6
CONTINUOUS
 10
-7.3527372421
 20
-13.5687969347
 11
-7.3612955191
 21
-13.5161593508
  0
LINE
  5
545
100
AcDbEntity
  8
RACCORDO
100
AcDbLine
 62
7
  6
CONTINUOUS
 10
-14.4477460302
 20
-18.5452471086
 11
-14.3972681566
 21
-18.8627787969
  0
LINE
  5
546
100
AcDbEntity
  8
RACCORDO
100
AcDbLine
 62
7
  6
CONTINUOUS
 10
-14.3736220973
 20
-18.5952742246
 11
-14.3161585252
 21
-18.9574521101
  0
LINE
  5
547
100
AcDbEntity
  8
0
100
AcDbLine
 62
7
  6
CONTINUOUS
 10
0.5658443528
 20
-24.8611490648
 11
0.449234985
 21
-24.1053611951
  0
LINE
  5
548
100
AcDbEntity
  8
0
100
AcDbLine
 62
7
  6
CONTINUOUS
 10
0.652207874
 20
-24.79040421
 11
0.535553135
 21
-24.0346542099
  0
LINE
  5
549
100
AcDbEntity
  8
RACCORDO
100
AcDbLine
 62
7
  6
CONTINUOUS
 10
-14.5050252016
 20
-18.1680088729
 11
-14.4477460302
 21
-18.5452471086
  0
LINE
  5
54A
100
AcDbEntity
  8
RACCORDO
100
AcDbLine
 62
7
  6
CONTINUOUS
 10
-14.4283376167
 20
-18.2334209381
 11
-14.3736220973
 21
-18.5952742246
  0
LINE
  5
54B
100
AcDbEntity
  8
0
100
AcDbLine
 62
7
  6
CONTINUOUS
 10
4.2648268264
 20
-24.5880091696
 11
4.2593620641
 21
-24.5517161418
  0
LINE
  5
54C
100
AcDbEntity
  8
0
100
AcDbLine
 62
7
  6
CONTINUOUS
 10
0.449234985
 20
-24.1053611951
 11
0.3359541258
 21
-23.346415501
  0
LINE
  5
54D
100
AcDbEntity
  8
0
100
AcDbLine
 62
7
  6
CONTINUOUS
 10
0.535553135
 20
-24.0346542099
 11
0.4222301943
 21
-23.2757426587
  0
LINE
  5
54E
100
AcDbEntity
  8
0
100
AcDbLine
 62
7
  6
CONTINUOUS
 10
-8.6040170871
 20
21.4171447321
 11
-8.5992688335
 21
21.3852196854
  0
LINE
  5
54F
100
AcDbEntity
  8
0
100
AcDbLine
 62
7
  6
CONTINUOUS
 10
0.3359541258
 20
-23.346415501
 11
0.2260062163
 21
-22.5843417333
  0
LINE
  5
550
100
AcDbEntity
  8
0
100
AcDbLine
 62
7
  6
CONTINUOUS
 10
0.4222301943
 20
-23.2757426587
 11
0.3122436221
 21
-22.513700186
  0
LINE
  5
551
100
AcDbEntity
  8
RACCORDO
100
AcDbLine
 62
7
  6
CONTINUOUS
 10
-14.5593307273
 20
-17.791104065
 11
-14.5050252016
 21
-18.1680088729
  0
LINE
  5
552
100
AcDbEntity
  8
RACCORDO
100
AcDbLine
 62
7
  6
CONTINUOUS
 10
-14.480302008
 20
-17.8718995246
 11
-14.4283376167
 21
-18.2334209381
  0
LINE
  5
553
100
AcDbEntity
  8
RACCORDO
100
AcDbLine
 62
7
  6
CONTINUOUS
 10
-14.6106611178
 20
-17.4145540332
 11
-14.5593307273
 21
-17.791104065
  0
LINE
  5
554
100
AcDbEntity
  8
RACCORDO
100
AcDbLine
 62
7
  6
CONTINUOUS
 10
-14.5295097647
 20
-17.5107099977
 11
-14.480302008
 21
-17.8718995246
  0
LINE
  5
555
100
AcDbEntity
  8
0
100
AcDbLine
 62
7
  6
CONTINUOUS
 10
4.1796702298
 20
-24.6684248804
 11
4.1750338141
 21
-24.634325579
  0
LINE
  5
556
100
AcDbEntity
  8
0
100
AcDbLine
 62
7
  6
CONTINUOUS
 10
-8.982900587
 20
-14.7705879308
 11
-8.9882462191
 21
-14.7292620586
  0
LINE
  5
557
100
AcDbEntity
  8
RACCORDO
100
AcDbLine
 62
7
  6
CONTINUOUS
 10
-14.5759602119
 20
-17.1498661177
 11
-14.5295097647
 21
-17.5107099977
  0
LINE
  5
558
100
AcDbEntity
  8
RACCORDO
100
AcDbLine
 62
7
  6
CONTINUOUS
 10
-14.659015439
 20
-17.038376652
 11
-14.6106611178
 21
-17.4145540332
  0
LINE
  5
559
100
AcDbEntity
  8
0
100
AcDbLine
 62
7
  6
CONTINUOUS
 10
-0.0068326543
 20
-23.8635471014
 11
0.096368672
 21
-24.6740150285
  0
LINE
  5
55A
100
AcDbEntity
  8
0
100
AcDbLine
 62
7
  6
CONTINUOUS
 10
-0.0865809866
 20
-23.2125171059
 11
-0.0068326543
 21
-23.8635471014
  0
LINE
  5
55B
100
AcDbEntity
  8
RACCORDO
100
AcDbLine
 62
7
  6
CONTINUOUS
 10
-14.6196577488
 20
-16.7893955303
 11
-14.5759602119
 21
-17.1498661177
  0
LINE
  5
55C
100
AcDbEntity
  8
RACCORDO
100
AcDbLine
 62
7
  6
CONTINUOUS
 10
-14.7043929128
 20
-16.6625886373
 11
-14.659015439
 21
-17.038376652
  0
LINE
  5
55D
100
AcDbEntity
  8
RACCORDO
100
AcDbLine
 62
7
  6
CONTINUOUS
 10
-14.6606020506
 20
-16.4293116906
 11
-14.6196577488
 21
-16.7893955303
  0
LINE
  5
55E
100
AcDbEntity
  8
0
100
AcDbLine
 62
7
  6
CONTINUOUS
 10
-9.6946600916
 20
-14.8803964862
 11
-9.7021465991
 21
-14.8144694127
  0
LINE
  5
55F
100
AcDbEntity
  8
RACCORDO
100
AcDbLine
 62
7
  6
CONTINUOUS
 10
-14.7467926222
 20
-16.2872078769
 11
-14.7043929128
 21
-16.6625886373
  0
LINE
  5
560
100
AcDbEntity
  8
0
100
AcDbLine
 62
7
  6
CONTINUOUS
 10
9.4670652629
 20
13.3881758555
 11
9.47148487
 21
13.3462347304
  0
LINE
  5
561
100
AcDbEntity
  8
0
100
AcDbLine
 62
7
  6
CONTINUOUS
 10
9.4743055611
 20
-22.316500142
 11
9.473306741
 21
-22.302104141
  0
LINE
  5
562
100
AcDbEntity
  8
0
100
AcDbLine
 62
7
  6
CONTINUOUS
 10
3.2602517829
 20
-25.8019833455
 11
3.2190469215
 21
-25.1377252277
  0
LINE
  5
563
100
AcDbEntity
  8
0
100
AcDbLine
 62
7
  6
CONTINUOUS
 10
3.1738580123
 20
-25.8727529793
 11
3.1326946194
 21
-25.2084608712
  0
LINE
  5
564
100
AcDbEntity
  8
0
100
AcDbLine
 62
7
  6
CONTINUOUS
 10
2.6443035853
 20
-24.9693192222
 11
2.6887088063
 21
-25.6881074006
  0
LINE
  5
565
100
AcDbEntity
  8
0
100
AcDbLine
 62
7
  6
CONTINUOUS
 10
9.7183910199
 20
13.1693559257
 11
9.7226034737
 21
13.1007469043
  0
LINE
  5
566
100
AcDbEntity
  8
0
100
AcDbLine
 62
7
  6
CONTINUOUS
 10
3.2190469215
 20
-25.1377252277
 11
3.2140198454
 21
-25.0532373663
  0
LINE
  5
567
100
AcDbEntity
  8
0
100
AcDbLine
 62
7
  6
CONTINUOUS
 10
3.1326946194
 20
-25.2084608712
 11
3.1214449424
 21
-25.0181837826
  0
LINE
  5
568
100
AcDbEntity
  8
0
100
AcDbLine
 62
7
  6
CONTINUOUS
 10
3.8817595925
 20
-25.1427708742
 11
3.8810170101
 21
-25.1298272672
  0
LINE
  5
569
100
AcDbEntity
  8
0
100
AcDbLine
 62
7
  6
CONTINUOUS
 10
2.6031566455
 20
-24.2474856631
 11
2.6443035853
 21
-24.9693192222
  0
LINE
  5
56A
100
AcDbEntity
  8
0
100
AcDbLine
 62
7
  6
CONTINUOUS
 10
4.2703243509
 20
-24.6545176896
 11
4.2685232878
 21
-24.6222314361
  0
LINE
  5
56B
100
AcDbEntity
  8
0
100
AcDbLine
 62
7
  6
CONTINUOUS
 10
3.1710318923
 20
-24.582585701
 11
3.143229924
 21
-24.0725195483
  0
LINE
  5
56C
100
AcDbEntity
  8
0
100
AcDbLine
 62
7
  6
CONTINUOUS
 10
3.0847119186
 20
-24.6532948839
 11
3.052066296
 21
-24.0504582302
  0
LINE
  5
56D
100
AcDbEntity
  8
0
100
AcDbLine
 62
7
  6
CONTINUOUS
 10
2.5652695487
 20
-23.5226341183
 11
2.6031566455
 21
-24.2474856631
  0
LINE
  5
56E
100
AcDbEntity
  8
0
100
AcDbLine
 62
7
  6
CONTINUOUS
 10
8.5721806942
 20
14.5518290595
 11
8.5738782873
 21
14.5181160629
  0
LINE
  5
56F
100
AcDbEntity
  8
0
100
AcDbLine
 62
7
  6
CONTINUOUS
 10
3.7247606995
 20
-24.5605582415
 11
3.7255779195
 21
-24.5777703024
  0
LINE
  5
570
100
AcDbEntity
  8
0
100
AcDbLine
 62
7
  6
CONTINUOUS
 10
4.1841758452
 20
-24.7315261093
 11
4.1827542306
 21
-24.7008133742
  0
LINE
  5
571
100
AcDbEntity
  8
0
100
AcDbLine
 62
7
  6
CONTINUOUS
 10
4.270730571
 20
-24.6851196652
 11
4.2703243509
 21
-24.6545176896
  0
LINE
  5
572
100
AcDbEntity
  8
0
100
AcDbLine
 62
7
  6
CONTINUOUS
 10
4.1843371067
 20
-24.7606286806
 11
4.1841758452
 21
-24.7315261093
  0
LINE
  5
573
100
AcDbEntity
  8
0
100
AcDbLine
 62
7
  6
CONTINUOUS
 10
3.7255779195
 20
-24.5777703024
 11
3.7255409365
 21
-24.5947919967
  0
LINE
  5
574
100
AcDbEntity
  8
0
100
AcDbLine
 62
7
  6
CONTINUOUS
 10
-1.2990599412
 20
-24.1084942297
 11
-1.2907920155
 21
-23.3399891014
  0
LINE
  5
575
100
AcDbEntity
  8
0
100
AcDbLine
 62
7
  6
CONTINUOUS
 10
-1.2126933253
 20
-24.0377468397
 11
-1.2044748525
 21
-23.2692824107
  0
LINE
  5
576
100
AcDbEntity
  8
0
100
AcDbLine
 62
7
  6
CONTINUOUS
 10
-1.2044748525
 20
-23.2692824107
 11
-1.1996600646
 21
-22.9352510361
  0
LINE
  5
577
100
AcDbEntity
  8
0
100
AcDbLine
 62
7
  6
CONTINUOUS
 10
-1.2907920155
 20
-23.3399891014
 11
-1.2839098579
 21
-22.8771096874
  0
LINE
  5
578
100
AcDbEntity
  8
0
100
AcDbLine
 62
7
  6
CONTINUOUS
 10
-1.2839098579
 20
-22.8771096874
 11
-1.2812955837
 21
-22.7225214335
  0
LINE
  5
579
100
AcDbEntity
  8
0
100
AcDbLine
 62
7
  6
CONTINUOUS
 10
-1.7379468088
 20
-23.4557214093
 11
-1.753190423
 21
-23.9214071422
  0
LINE
  5
57A
100
AcDbEntity
  8
0
100
AcDbLine
 62
7
  6
CONTINUOUS
 10
-1.7122494593
 20
-22.7545812798
 11
-1.7379468088
 21
-23.4557214093
  0
LINE
  5
57B
100
AcDbEntity
  8
0
100
AcDbLine
 62
7
  6
CONTINUOUS
 10
-1.6831546285
 20
-22.0503291205
 11
-1.7122494593
 21
-22.7545812798
  0
LINE
  5
57C
100
AcDbEntity
  8
0
100
AcDbLine
 62
7
  6
CONTINUOUS
 10
-1.6727014379
 20
-21.8148889897
 11
-1.6831546285
 21
-22.0503291205
  0
LINE
  5
57D
100
AcDbEntity
  8
0
100
AcDbLine
 62
7
  6
CONTINUOUS
 10
-9.7058997446
 20
20.8364062898
 11
-9.702146051
 21
20.9021712194
  0
LINE
  5
57E
100
AcDbEntity
  8
0
100
AcDbLine
 62
7
  6
CONTINUOUS
 10
-8.6063963218
 20
-16.3103366605
 11
-8.6040155786
 21
-16.2732828918
  0
LINE
  5
57F
100
AcDbEntity
  8
0
100
AcDbLine
 62
7
  6
CONTINUOUS
 10
-8.9914338006
 20
20.861927423
 11
-8.988245865
 21
20.9038584042
  0
LINE
  5
580
100
AcDbEntity
  8
RACCORDO
100
AcDbLine
 62
7
  6
CONTINUOUS
 10
-14.7038356074
 20
28.8267563506
 11
-14.7462816584
 21
28.4421824164
  0
LINE
  5
581
100
AcDbEntity
  8
RACCORDO
100
AcDbLine
 62
7
  6
CONTINUOUS
 10
-14.6196584125
 20
28.7119311872
 11
-14.6606025472
 21
28.3431928097
  0
LINE
  5
582
100
AcDbEntity
  8
0
100
AcDbLine
 62
7
  6
CONTINUOUS
 10
-9.702146051
 20
20.9021712194
 11
-9.694658227
 21
20.9660879768
  0
LINE
  5
583
100
AcDbEntity
  8
RACCORDO
100
AcDbLine
 62
7
  6
CONTINUOUS
 10
-14.6584107626
 20
29.210551247
 11
-14.7038356074
 21
28.8267563506
  0
LINE
  5
584
100
AcDbEntity
  8
RACCORDO
100
AcDbLine
 62
7
  6
CONTINUOUS
 10
-14.5759609902
 20
29.0799549118
 11
-14.6196584125
 21
28.7119311872
  0
LINE
  5
585
100
AcDbEntity
  8
RACCORDO
100
AcDbLine
 62
7
  6
CONTINUOUS
 10
-14.6100080751
 20
29.5935517656
 11
-14.6584107626
 21
29.210551247
  0
LINE
  5
586
100
AcDbEntity
  8
RACCORDO
100
AcDbLine
 62
7
  6
CONTINUOUS
 10
-14.5295105916
 20
29.4472525555
 11
-14.5759609902
 21
29.0799549118
  0
LINE
  5
587
100
AcDbEntity
  8
0
100
AcDbLine
 62
7
  6
CONTINUOUS
 10
-8.988245865
 20
20.9038584042
 11
-8.9828994885
 21
20.9448919134
  0
LINE
  5
588
100
AcDbEntity
  8
RACCORDO
100
AcDbLine
 62
7
  6
CONTINUOUS
 10
-14.4803027885
 20
29.8137898002
 11
-14.5295105916
 21
29.4472525555
  0
LINE
  5
589
100
AcDbEntity
  8
RACCORDO
100
AcDbLine
 62
7
  6
CONTINUOUS
 10
-14.5586283752
 20
29.9757437258
 11
-14.6100080751
 21
29.5935517656
  0
LINE
  5
58A
100
AcDbEntity
  8
RACCORDO
100
AcDbLine
 62
7
  6
CONTINUOUS
 10
-14.4283382431
 20
30.1795556124
 11
-14.4803027885
 21
29.8137898002
  0
LINE
  5
58B
100
AcDbEntity
  8
RACCORDO
100
AcDbLine
 62
7
  6
CONTINUOUS
 10
-14.5042726805
 20
30.3571117545
 11
-14.5586283752
 21
29.9757437258
  0
LINE
  5
58C
100
AcDbEntity
  8
RACCORDO
100
AcDbLine
 62
7
  6
CONTINUOUS
 10
-14.373622465
 20
30.5445623359
 11
-14.4283382431
 21
30.1795556124
  0
LINE
  5
58D
100
AcDbEntity
  8
RACCORDO
100
AcDbLine
 62
7
  6
CONTINUOUS
 10
-14.446942567
 20
30.7376375757
 11
-14.5042726805
 21
30.3571117545
  0
LINE
  5
58E
100
AcDbEntity
  8
RACCORDO
100
AcDbLine
 62
7
  6
CONTINUOUS
 10
-14.3161585252
 20
30.9088110293
 11
-14.373622465
 21
30.5445623359
  0
LINE
  5
58F
100
AcDbEntity
  8
RACCORDO
100
AcDbLine
 62
7
  6
CONTINUOUS
 10
-14.397301559
 20
31.0515784087
 11
-14.446942567
 21
30.7376375757
  0
LINE
  5
590
100
AcDbEntity
  8
RACCORDO
100
AcDbLine
 62
7
  6
CONTINUOUS
 10
-14.3465366338
 20
31.3367946344
 11
-14.3973003907
 21
31.0515761185
  0
LINE
  5
591
100
AcDbEntity
  8
RACCORDO
100
AcDbLine
 62
7
  6
CONTINUOUS
 10
-14.2560284814
 20
31.2396813182
 11
-14.3161585252
 21
30.9088110293
  0
LINE
  5
592
100
AcDbEntity
  8
RACCORDO
100
AcDbLine
 62
7
  6
CONTINUOUS
 10
10.1513317456
 20
-35.989874253
 11
10.4757323919
 21
-36.0074579398
  0
LINE
  5
593
100
AcDbEntity
  8
RACCORDO
100
AcDbLine
 62
7
  6
CONTINUOUS
 10
10.2798732332
 20
-36.1042219114
 11
10.556186109
 21
-36.1199303137
  0
LINE
  5
594
100
AcDbEntity
  8
RACCORDO
100
AcDbLine
 62
7
  6
CONTINUOUS
 10
10.2395498223
 20
-36.1011439722
 11
10.2798742599
 21
-36.1042231237
  0
LINE
  5
595
100
AcDbEntity
  8
RACCORDO
100
AcDbLine
 62
7
  6
CONTINUOUS
 10
10.0675522364
 20
-35.9832492019
 11
10.1513317249
 21
-35.9898740625
  0
LINE
  5
596
100
AcDbEntity
  8
RACCORDO
100
AcDbLine
 62
7
  6
CONTINUOUS
 10
10.1389660279
 20
-36.0926403876
 11
10.2395498223
 21
-36.1011439722
  0
LINE
  5
597
100
AcDbEntity
  8
RACCORDO
100
AcDbLine
 62
7
  6
CONTINUOUS
 10
9.9834971631
 20
-35.9757595951
 11
10.0675522364
 21
-35.9832492019
  0
LINE
  5
598
100
AcDbEntity
  8
RACCORDO
100
AcDbLine
 62
7
  6
CONTINUOUS
 10
10.0379900671
 20
-36.0829330651
 11
10.1389660279
 21
-36.0926403876
  0
LINE
  5
599
100
AcDbEntity
  8
RACCORDO
100
AcDbLine
 62
7
  6
CONTINUOUS
 10
9.8991662755
 20
-35.967405265
 11
9.9834971631
 21
-35.9757595951
  0
LINE
  5
59A
100
AcDbEntity
  8
0
100
AcDbLine
 62
7
  6
CONTINUOUS
 10
3.6036017272
 20
-24.7253837074
 11
3.5848145694
 21
-24.7231267283
  0
LINE
  5
59B
100
AcDbEntity
  8
0
100
AcDbLine
 62
7
  6
CONTINUOUS
 10
8.977991843
 20
-22.6175555235
 11
8.9369000554
 21
-22.6119093243
  0
LINE
  5
59C
100
AcDbEntity
  8
0
100
AcDbLine
 62
7
  6
CONTINUOUS
 10
3.5069414942
 20
-24.7949496942
 11
3.4892070877
 21
-24.7924343469
  0
LINE
  5
59D
100
AcDbEntity
  8
0
100
AcDbLine
 62
7
  6
CONTINUOUS
 10
3.5848145694
 20
-24.7231267283
 11
3.565874509
 21
-24.7201025929
  0
LINE
  5
59E
100
AcDbEntity
  8
0
100
AcDbLine
 62
7
  6
CONTINUOUS
 10
8.8251586627
 20
-23.3056911348
 11
8.7617917085
 21
-23.2954497965
  0
LINE
  5
59F
100
AcDbEntity
  8
0
100
AcDbLine
 62
7
  6
CONTINUOUS
 10
3.8810170101
 20
-25.1298272672
 11
3.890878915
 21
-25.1315175524
  0
LINE
  5
5A0
100
AcDbEntity
  8
0
100
AcDbLine
 62
7
  6
CONTINUOUS
 10
3.4892070877
 20
-24.7924343469
 11
3.4713091931
 21
-24.7892645932
  0
LINE
  5
5A1
100
AcDbEntity
  8
0
100
AcDbLine
 62
7
  6
CONTINUOUS
 10
8.9369000554
 20
-22.6119093243
 11
8.8958128274
 21
-22.6041951945
  0
LINE
  5
5A2
100
AcDbEntity
  8
0
100
AcDbLine
 62
7
  6
CONTINUOUS
 10
-9.5931905094
 20
-14.7905772452
 11
-9.5519093148
 21
-14.7997318151
  0
LINE
  5
5A3
100
AcDbEntity
  8
0
100
AcDbLine
 62
7
  6
CONTINUOUS
 10
8.7730621742
 20
14.2962596019
 11
8.8161727454
 21
14.2742052718
  0
LINE
  5
5A4
100
AcDbEntity
  8
0
100
AcDbLine
 62
7
  6
CONTINUOUS
 10
9.6498954206
 20
13.0627228707
 11
9.6172421148
 21
13.079799368
  0
LINE
  5
5A5
100
AcDbEntity
  8
0
100
AcDbLine
 62
7
  6
CONTINUOUS
 10
8.7617917099
 20
14.5067686222
 11
8.8251586638
 21
14.4727506367
  0
LINE
  5
5A6
100
AcDbEntity
  8
0
100
AcDbLine
 62
7
  6
CONTINUOUS
 10
8.8161727454
 20
14.2742052718
 11
8.8593592641
 21
14.2497043672
  0
LINE
  5
5A7
100
AcDbEntity
  8
0
100
AcDbLine
 62
7
  6
CONTINUOUS
 10
8.8251586638
 20
14.4727506367
 11
8.8884830538
 21
14.4352448716
  0
LINE
  5
5A8
100
AcDbEntity
  8
0
100
AcDbLine
 62
7
  6
CONTINUOUS
 10
-8.5242898066
 20
21.2491974989
 11
-8.5049305054
 21
21.2373881513
  0
LINE
  5
5A9
100
AcDbEntity
  8
0
100
AcDbLine
 62
7
  6
CONTINUOUS
 10
9.6172421148
 20
13.079799368
 11
9.5874127772
 21
13.0983347499
  0
LINE
  5
5AA
100
AcDbEntity
  8
0
100
AcDbLine
 62
7
  6
CONTINUOUS
 10
8.8593592641
 20
14.2497043672
 11
8.9023996905
 21
14.2228209696
  0
LINE
  5
5AB
100
AcDbEntity
  8
0
100
AcDbLine
 62
7
  6
CONTINUOUS
 10
8.8884830538
 20
14.4352448716
 11
8.950766295
 21
14.3946194969
  0
LINE
  5
5AC
100
AcDbEntity
  8
0
100
AcDbLine
 62
7
  6
CONTINUOUS
 10
8.6373017196
 20
14.3567141268
 11
8.6528986249
 21
14.3464155428
  0
LINE
  5
5AD
100
AcDbEntity
  8
0
100
AcDbLine
 62
7
  6
CONTINUOUS
 10
8.9023996905
 20
14.2228209696
 11
8.9450791528
 21
14.1936375718
  0
LINE
  5
5AE
100
AcDbEntity
  8
RACCORDO
100
AcDbLine
 62
7
  6
CONTINUOUS
 10
10.7953703997
 20
28.0295317554
 11
10.4758266778
 21
28.2675222281
  0
LINE
  5
5AF
100
AcDbEntity
  8
RACCORDO
100
AcDbLine
 62
7
  6
CONTINUOUS
 10
11.0243953174
 20
28.3233191087
 11
10.6972696527
 21
28.567635638
  0
LINE
  5
5B0
100
AcDbEntity
  8
RACCORDO
100
AcDbLine
 62
7
  6
CONTINUOUS
 10
11.1099456537
 20
27.7812028685
 11
10.7953703997
 21
28.0295317554
  0
LINE
  5
5B1
100
AcDbEntity
  8
RACCORDO
100
AcDbLine
 62
7
  6
CONTINUOUS
 10
11.3468760021
 20
28.0680294295
 11
11.0243953174
 21
28.3233191087
  0
LINE
  5
5B2
100
AcDbEntity
  8
RACCORDO
100
AcDbLine
 62
7
  6
CONTINUOUS
 10
11.420227779
 20
27.5219249215
 11
11.1099456537
 21
27.7812028685
  0
LINE
  5
5B3
100
AcDbEntity
  8
RACCORDO
100
AcDbLine
 62
7
  6
CONTINUOUS
 10
11.6644588895
 20
27.8019889598
 11
11.3468760021
 21
28.0680294295
  0
LINE
  5
5B4
100
AcDbEntity
  8
DRAFT
100
AcDbLine
 62
7
  6
CONTINUOUS
 10
13.2657808568
 20
29.3930858981
 11
12.9550041671
 21
29.6569183318
  0
LINE
  5
5B5
100
AcDbEntity
  8
0
100
AcDbLine
 62
7
  6
CONTINUOUS
 10
13.9297531907
 20
29.8502538218
 11
14.2580254461
 21
29.5708172607
  0
LINE
  5
5B6
100
AcDbEntity
  8
RACCORDO
100
AcDbLine
 62
7
  6
CONTINUOUS
 10
11.7255205522
 20
27.2522342137
 11
11.420227779
 21
27.5219249215
  0
LINE
  5
5B7
100
AcDbEntity
  8
RACCORDO
100
AcDbLine
 62
7
  6
CONTINUOUS
 10
11.9763951966
 20
27.5256679996
 11
11.6644588895
 21
27.8019889598
  0
LINE
  5
5B8
100
AcDbEntity
  8
DRAFT
100
AcDbLine
 62
7
  6
CONTINUOUS
 10
13.5710597087
 20
29.1197712279
 11
13.2657808568
 21
29.3930858981
  0
LINE
  5
5B9
100
AcDbEntity
  8
0
100
AcDbLine
 62
7
  6
CONTINUOUS
 10
14.2580254461
 20
29.5708172607
 11
14.5772437708
 21
29.280629353
  0
LINE
  5
5BA
100
AcDbEntity
  8
RACCORDO
100
AcDbLine
 62
7
  6
CONTINUOUS
 10
12.0237241406
 20
26.9737901362
 11
11.7255205522
 21
27.2522342137
  0
LINE
  5
5BB
100
AcDbEntity
  8
RACCORDO
100
AcDbLine
 62
7
  6
CONTINUOUS
 10
12.2814769242
 20
27.2398433989
 11
11.9763951966
 21
27.5256679996
  0
LINE
  5
5BC
100
AcDbEntity
  8
DRAFT
100
AcDbLine
 62
7
  6
CONTINUOUS
 10
13.8708641682
 20
28.8370147583
 11
13.5710597087
 21
29.1197712279
  0
LINE
  5
5BD
100
AcDbEntity
  8
0
100
AcDbLine
 62
7
  6
CONTINUOUS
 10
14.5772437708
 20
29.280629353
 11
14.8868646082
 21
28.9803921962
  0
LINE
  5
5BE
100
AcDbEntity
  8
RACCORDO
100
AcDbLine
 62
7
  6
CONTINUOUS
 10
12.3145846281
 20
26.6865675755
 11
12.0237241406
 21
26.9737901362
  0
LINE
  5
5BF
100
AcDbEntity
  8
RACCORDO
100
AcDbLine
 62
7
  6
CONTINUOUS
 10
12.5791401475
 20
26.945083098
 11
12.2814769242
 21
27.2398433989
  0
LINE
  5
5C0
100
AcDbEntity
  8
DRAFT
100
AcDbLine
 62
7
  6
CONTINUOUS
 10
14.16391208
 20
28.5460257363
 11
13.8708641682
 21
28.8370147583
  0
LINE
  5
5C1
100
AcDbEntity
  8
0
100
AcDbLine
 62
7
  6
CONTINUOUS
 10
14.8868646082
 20
28.9803921962
 11
15.1868931774
 21
28.6702714466
  0
LINE
  5
5C2
100
AcDbEntity
  8
RACCORDO
100
AcDbLine
 62
7
  6
CONTINUOUS
 10
12.5982835484
 20
26.3904881486
 11
12.3145846281
 21
26.6865675755
  0
LINE
  5
5C3
100
AcDbEntity
  8
DRAFT
100
AcDbLine
 62
7
  6
CONTINUOUS
 10
14.4501745075
 20
28.2467689041
 11
14.16391208
 21
28.5460257363
  0
LINE
  5
5C4
100
AcDbEntity
  8
RACCORDO
100
AcDbLine
 62
7
  6
CONTINUOUS
 10
12.8690682226
 20
26.6417321907
 11
12.5791401475
 21
26.945083098
  0
LINE
  5
5C5
100
AcDbEntity
  8
DRAFT
100
AcDbLine
 62
7
  6
CONTINUOUS
 10
14.7296803873
 20
27.9392795195
 11
14.4501745075
 21
28.2467689041
  0
LINE
  5
5C6
100
AcDbEntity
  8
0
100
AcDbLine
 62
7
  6
CONTINUOUS
 10
15.1868931774
 20
28.6702714466
 11
15.4767880191
 21
28.3509591446
  0
LINE
  5
5C7
100
AcDbEntity
  8
RACCORDO
100
AcDbLine
 62
7
  6
CONTINUOUS
 10
12.8733279304
 20
26.0871002975
 11
12.5982835484
 21
26.3904881486
  0
LINE
  5
5C8
100
AcDbEntity
  8
RACCORDO
100
AcDbLine
 62
7
  6
CONTINUOUS
 10
13.1504861668
 20
26.3303219673
 11
12.8690682226
 21
26.6417321907
  0
LINE
  5
5C9
100
AcDbEntity
  8
DRAFT
100
AcDbLine
 62
7
  6
CONTINUOUS
 10
15.0012343736
 20
27.6248726036
 11
14.7296803873
 21
27.9392795195
  0
LINE
  5
5CA
100
AcDbEntity
  8
RACCORDO
100
AcDbLine
 62
7
  6
CONTINUOUS
 10
13.4228939581
 20
26.0114710764
 11
13.1504861668
 21
26.3303219673
  0
LINE
  5
5CB
100
AcDbEntity
  8
0
100
AcDbLine
 62
7
  6
CONTINUOUS
 10
15.4767880191
 20
28.3509591446
 11
15.7562122033
 21
28.0229532963
  0
LINE
  5
5CC
100
AcDbEntity
  8
DRAFT
100
AcDbLine
 62
7
  6
CONTINUOUS
 10
15.2648024108
 20
27.3035185303
 11
15.0012343736
 21
27.6248726036
  0
LINE
  5
5CD
100
AcDbEntity
  8
0
100
AcDbLine
 62
7
  6
CONTINUOUS
 10
15.7562122033
 20
28.0229532963
 11
16.0249566989
 21
27.686585657
  0
LINE
  5
5CE
100
AcDbEntity
  8
DRAFT
100
AcDbLine
 62
7
  6
CONTINUOUS
 10
15.5204185545
 20
26.9752469256
 11
15.2648024108
 21
27.3035185303
  0
LINE
  5
5CF
100
AcDbEntity
  8
0
100
AcDbLine
 62
7
  6
CONTINUOUS
 10
16.0249566989
 20
27.686585657
 11
16.2826815059
 21
27.3423241901
  0
LINE
  5
5D0
100
AcDbEntity
  8
DRAFT
100
AcDbLine
 62
7
  6
CONTINUOUS
 10
15.766989627
 20
26.6414616886
 11
15.5204185545
 21
26.9752469256
  0
LINE
  5
5D1
100
AcDbEntity
  8
0
100
AcDbLine
 62
7
  6
CONTINUOUS
 10
16.2826815059
 20
27.3423241901
 11
16.5291385364
 21
26.9904975898
  0
LINE
  5
5D2
100
AcDbEntity
  8
DRAFT
100
AcDbLine
 62
7
  6
CONTINUOUS
 10
16.0044768906
 20
26.3021392058
 11
15.766989627
 21
26.6414616886
  0
LINE
  5
5D3
100
AcDbEntity
  8
DRAFT
100
AcDbLine
 62
7
  6
CONTINUOUS
 10
16.232919083
 20
25.9573030906
 11
16.0044768906
 21
26.3021392058
  0
LINE
  5
5D4
100
AcDbEntity
  8
0
100
AcDbLine
 62
7
  6
CONTINUOUS
 10
16.5291385364
 20
26.9904975898
 11
16.7639818974
 21
26.631546573
  0
LINE
  5
5D5
100
AcDbEntity
  8
0
100
AcDbLine
 62
7
  6
CONTINUOUS
 10
16.7639818974
 20
26.631546573
 11
16.9867484184
 21
26.2661031426
  0
LINE
  5
5D6
100
AcDbEntity
  8
0
100
AcDbLine
 62
7
  6
CONTINUOUS
 10
16.9867484184
 20
26.2661031426
 11
17.1971813955
 21
25.8944721458
  0
LINE
  5
5D7
100
AcDbEntity
  8
DRAFT
100
AcDbLine
 62
7
  6
CONTINUOUS
 10
16.858027601
 20
24.8985267923
 11
16.6596944382
 21
25.2554968838
  0
LINE
  5
5D8
100
AcDbEntity
  8
0
100
AcDbLine
 62
7
  6
CONTINUOUS
 10
17.1971813955
 20
25.8944721458
 11
17.3949277546
 21
25.5170937012
  0
LINE
  5
5D9
100
AcDbEntity
  8
DRAFT
100
AcDbLine
 62
7
  6
CONTINUOUS
 10
17.0454905286
 20
24.53904444
 11
16.858027601
 21
24.8985267923
  0
LINE
  5
5DA
100
AcDbEntity
  8
DRAFT
100
AcDbLine
 62
7
  6
CONTINUOUS
 10
17.2220366667
 20
24.1770390674
 11
17.0454905286
 21
24.53904444
  0
LINE
  5
5DB
100
AcDbEntity
  8
0
100
AcDbLine
 62
7
  6
CONTINUOUS
 10
17.3949277546
 20
25.5170937012
 11
17.5794516773
 21
25.1347929609
  0
LINE
  5
5DC
100
AcDbEntity
  8
DRAFT
100
AcDbLine
 62
7
  6
CONTINUOUS
 10
17.3877125696
 20
23.8125214339
 11
17.2220366667
 21
24.1770390674
  0
LINE
  5
5DD
100
AcDbEntity
  8
0
100
AcDbLine
 62
7
  6
CONTINUOUS
 10
17.5794516773
 20
25.1347929609
 11
17.7505298355
 21
24.747790079
  0
LINE
  5
5DE
100
AcDbEntity
  8
DRAFT
100
AcDbLine
 62
7
  6
CONTINUOUS
 10
17.5418097013
 20
23.4470504498
 11
17.3877125696
 21
23.8125214339
  0
LINE
  5
5DF
100
AcDbEntity
  8
0
100
AcDbLine
 62
7
  6
CONTINUOUS
 10
17.7505298355
 20
24.747790079
 11
17.9077846393
 21
24.3566006732
  0
LINE
  5
5E0
100
AcDbEntity
  8
DRAFT
100
AcDbLine
 62
7
  6
CONTINUOUS
 10
17.684278473
 20
23.080622032
 11
17.5418097013
 21
23.4470504498
  0
LINE
  5
5E1
100
AcDbEntity
  8
RACCORDO
100
AcDbLine
 62
7
  6
CONTINUOUS
 10
15.5187870216
 20
21.630375023
 11
15.385351425
 21
21.9953080103
  0
LINE
  5
5E2
100
AcDbEntity
  8
RACCORDO
100
AcDbLine
 62
7
  6
CONTINUOUS
 10
15.8581691155
 20
21.7592309777
 11
15.7213308289
 21
22.1336452671
  0
LINE
  5
5E3
100
AcDbEntity
  8
0
100
AcDbLine
 62
7
  6
CONTINUOUS
 10
17.9077846393
 20
24.3566006732
 11
18.0505905997
 21
23.9624818711
  0
LINE
  5
5E4
100
AcDbEntity
  8
DRAFT
100
AcDbLine
 62
7
  6
CONTINUOUS
 10
17.8151684736
 20
22.7132402636
 11
17.684278473
 21
23.080622032
  0
LINE
  5
5E5
100
AcDbEntity
  8
RACCORDO
100
AcDbLine
 62
7
  6
CONTINUOUS
 10
15.6394972267
 20
21.2632608958
 11
15.5187870216
 21
21.630375023
  0
LINE
  5
5E6
100
AcDbEntity
  8
RACCORDO
100
AcDbLine
 62
7
  6
CONTINUOUS
 10
15.9818302285
 20
21.3831755833
 11
15.8581691155
 21
21.7592309777
  0
LINE
  5
5E7
100
AcDbEntity
  8
DRAFT
100
AcDbLine
 62
7
  6
CONTINUOUS
 10
17.9339199339
 20
22.3464763035
 11
17.8151684736
 21
22.7132402636
  0
LINE
  5
5E8
100
AcDbEntity
  8
0
100
AcDbLine
 62
7
  6
CONTINUOUS
 10
18.0505905997
 20
23.9624818711
 11
18.1787492165
 21
23.5656859407
  0
LINE
  5
5E9
100
AcDbEntity
  8
RACCORDO
100
AcDbLine
 62
7
  6
CONTINUOUS
 10
16.0920535698
 20
21.0058373838
 11
15.9818302285
 21
21.3831755833
  0
LINE
  5
5EA
100
AcDbEntity
  8
RACCORDO
100
AcDbLine
 62
7
  6
CONTINUOUS
 10
15.7468896675
 20
20.8954501196
 11
15.6394972267
 21
21.2632608958
  0
LINE
  5
5EB
100
AcDbEntity
  8
DRAFT
100
AcDbLine
 62
7
  6
CONTINUOUS
 10
18.0404808675
 20
21.9803327976
 11
17.9339199339
 21
22.3464763035
  0
LINE
  5
5EC
100
AcDbEntity
  8
0
100
AcDbLine
 62
7
  6
CONTINUOUS
 10
18.1787492165
 20
23.5656859407
 11
18.2919598124
 21
23.1667136281
  0
LINE
  5
5ED
100
AcDbEntity
  8
DRAFT
100
AcDbLine
 62
7
  6
CONTINUOUS
 10
18.1349032608
 20
21.6148071002
 11
18.0404808675
 21
21.9803327976
  0
LINE
  5
5EE
100
AcDbEntity
  8
RACCORDO
100
AcDbLine
 62
7
  6
CONTINUOUS
 10
16.1886173921
 20
20.6277218864
 11
16.0920535698
 21
21.0058373838
  0
LINE
  5
5EF
100
AcDbEntity
  8
RACCORDO
100
AcDbLine
 62
7
  6
CONTINUOUS
 10
15.8408658658
 20
20.5268485255
 11
15.7468896675
 21
20.8954501196
  0
LINE
  5
5F0
100
AcDbEntity
  8
0
100
AcDbLine
 62
7
  6
CONTINUOUS
 10
18.2919598124
 20
23.1667136281
 11
18.3896723045
 21
22.7671864622
  0
LINE
  5
5F1
100
AcDbEntity
  8
DRAFT
100
AcDbLine
 62
7
  6
CONTINUOUS
 10
18.2167833032
 20
21.2514624324
 11
18.1349032608
 21
21.6148071002
  0
LINE
  5
5F2
100
AcDbEntity
  8
RACCORDO
100
AcDbLine
 62
7
  6
CONTINUOUS
 10
16.2713256484
 20
20.249446832
 11
16.1886173921
 21
20.6277218864
  0
LINE
  5
5F3
100
AcDbEntity
  8
RACCORDO
100
AcDbLine
 62
7
  6
CONTINUOUS
 10
15.9214205467
 20
20.1575102611
 11
15.8408658658
 21
20.5268485255
  0
LINE
  5
5F4
100
AcDbEntity
  8
0
100
AcDbLine
 62
7
  6
CONTINUOUS
 10
18.3896723045
 20
22.7671864622
 11
18.4716691566
 21
22.3678991553
  0
LINE
  5
5F5
100
AcDbEntity
  8
DRAFT
100
AcDbLine
 62
7
  6
CONTINUOUS
 10
18.2859863914
 20
20.890819868
 11
18.2167833032
 21
21.2514624324
  0
LINE
  5
5F6
100
AcDbEntity
  8
RACCORDO
100
AcDbLine
 62
7
  6
CONTINUOUS
 10
16.3399689932
 20
19.8715429218
 11
16.2713256484
 21
20.249446832
  0
LINE
  5
5F7
100
AcDbEntity
  8
RACCORDO
100
AcDbLine
 62
7
  6
CONTINUOUS
 10
15.9880906074
 20
19.7891371261
 11
15.9214205467
 21
20.1575102611
  0
LINE
  5
5F8
100
AcDbEntity
  8
0
100
AcDbLine
 62
7
  6
CONTINUOUS
 10
9.6973402748
 20
13.3110307811
 11
9.709981155
 21
13.2393035255
  0
LINE
  5
5F9
100
AcDbEntity
  8
0
100
AcDbLine
 62
7
  6
CONTINUOUS
 10
9.4600260215
 20
13.4318415814
 11
9.4670652629
 21
13.3881758555
  0
LINE
  5
5FA
100
AcDbEntity
  8
0
100
AcDbLine
 62
7
  6
CONTINUOUS
 10
9.709981155
 20
13.2393035255
 11
9.7183910199
 21
13.1693559257
  0
LINE
  5
5FB
100
AcDbEntity
  8
0
100
AcDbLine
 62
7
  6
CONTINUOUS
 10
8.5738782873
 20
14.5181160629
 11
8.5775068556
 21
14.48664029
  0
LINE
  5
5FC
100
AcDbEntity
  8
RACCORDO
100
AcDbLine
 62
7
  6
CONTINUOUS
 10
16.434414249
 20
19.119085311
 11
16.3943759072
 21
19.4945639168
  0
LINE
  5
5FD
100
AcDbEntity
  8
RACCORDO
100
AcDbLine
 62
7
  6
CONTINUOUS
 10
16.0793100604
 20
19.0563818225
 11
16.0406880774
 21
19.4222870036
  0
LINE
  5
5FE
100
AcDbEntity
  8
DRAFT
100
AcDbLine
 62
7
  6
CONTINUOUS
 10
18.4260629882
 20
19.7954609956
 11
18.3867655154
 21
20.1760778282
  0
LINE
  5
5FF
100
AcDbEntity
  8
0
100
AcDbLine
 62
7
  6
CONTINUOUS
 10
18.5882010749
 20
21.5704035286
 11
18.6274206816
 21
21.1905346328
  0
LINE
  5
600
100
AcDbEntity
  8
DRAFT
100
AcDbLine
 62
7
  6
CONTINUOUS
 10
18.463022409
 20
19.4155691109
 11
18.4260629882
 21
19.7954609956
  0
LINE
  5
601
100
AcDbEntity
  8
0
100
AcDbLine
 62
7
  6
CONTINUOUS
 10
18.6274206816
 20
21.1905346328
 11
18.6643176589
 21
20.8112590794
  0
LINE
  5
602
100
AcDbEntity
  8
DRAFT
100
AcDbLine
 62
7
  6
CONTINUOUS
 10
18.4976437779
 20
19.0364021741
 11
18.463022409
 21
19.4155691109
  0
LINE
  5
603
100
AcDbEntity
  8
0
100
AcDbLine
 62
7
  6
CONTINUOUS
 10
18.6643176589
 20
20.8112590794
 11
18.698889855
 21
20.4325910463
  0
LINE
  5
604
100
AcDbEntity
  8
DRAFT
100
AcDbLine
 62
7
  6
CONTINUOUS
 10
18.5299283211
 20
18.6579447193
 11
18.4976437779
 21
19.0364021741
  0
LINE
  5
605
100
AcDbEntity
  8
0
100
AcDbLine
 62
7
  6
CONTINUOUS
 10
18.698889855
 20
20.4325910463
 11
18.7311352299
 21
20.0545441636
  0
LINE
  5
606
100
AcDbEntity
  8
DRAFT
100
AcDbLine
 62
7
  6
CONTINUOUS
 10
18.5598748123
 20
18.2802122124
 11
18.5299283211
 21
18.6579447193
  0
LINE
  5
607
100
AcDbEntity
  8
0
100
AcDbLine
 62
7
  6
CONTINUOUS
 10
18.7311352299
 20
20.0545441636
 11
18.7610517157
 21
19.6771331391
  0
LINE
  5
608
100
AcDbEntity
  8
DRAFT
100
AcDbLine
 62
7
  6
CONTINUOUS
 10
18.5874795733
 20
17.9032510506
 11
18.5598748123
 21
18.2802122124
  0
LINE
  5
609
100
AcDbEntity
  8
0
100
AcDbLine
 62
7
  6
CONTINUOUS
 10
18.7610517157
 20
19.6771331391
 11
18.788637253
 21
19.3003737147
  0
LINE
  5
60A
100
AcDbEntity
  8
RACCORDO
100
AcDbLine
 62
7
  6
CONTINUOUS
 10
16.4599619621
 20
18.7456701293
 11
16.434414249
 21
19.119085311
  0
LINE
  5
60B
100
AcDbEntity
  8
RACCORDO
100
AcDbLine
 62
7
  6
CONTINUOUS
 10
16.1039207463
 20
18.6914213892
 11
16.0793100604
 21
19.0563818225
  0
LINE
  5
60C
100
AcDbEntity
  8
DRAFT
100
AcDbLine
 62
7
  6
CONTINUOUS
 10
18.6127413778
 20
17.5270766997
 11
18.5874795733
 21
17.9032510506
  0
LINE
  5
60D
100
AcDbEntity
  8
0
100
AcDbLine
 62
7
  6
CONTINUOUS
 10
18.788637253
 20
19.3003737147
 11
18.8138899602
 21
18.9242805195
  0
LINE
  5
60E
100
AcDbEntity
  8
DRAFT
100
AcDbLine
 62
7
  6
CONTINUOUS
 10
18.6356614522
 20
17.1516736939
 11
18.6127413778
 21
17.5270766997
  0
LINE
  5
60F
100
AcDbEntity
  8
0
100
AcDbLine
 62
7
  6
CONTINUOUS
 10
18.8138899602
 20
18.9242805195
 11
18.8368080983
 21
18.5488671134
  0
LINE
  5
610
100
AcDbEntity
  8
DRAFT
100
AcDbLine
 62
7
  6
CONTINUOUS
 10
18.6562397962
 20
16.7770420332
 11
18.6356614522
 21
17.1516736939
  0
LINE
  5
611
100
AcDbEntity
  8
0
100
AcDbLine
 62
7
  6
CONTINUOUS
 10
18.8368080983
 20
18.5488671134
 11
18.8573899563
 21
18.1741475815
  0
LINE
  5
612
100
AcDbEntity
  8
0
100
AcDbLine
 62
7
  6
CONTINUOUS
 10
9.47148487
 20
13.3462347304
 11
9.4734040882
 21
13.3062833619
  0
LINE
  5
613
100
AcDbEntity
  8
DRAFT
100
AcDbLine
 62
7
  6
CONTINUOUS
 10
18.8313550393
 20
13.0987681651
 11
18.6562397962
 21
16.7770420332
  0
LINE
  5
614
100
AcDbEntity
  8
0
100
AcDbLine
 62
7
  6
CONTINUOUS
 10
18.8573899563
 20
18.1741475815
 11
19.0325730212
 21
14.4945288809
  0
LINE
  5
615
100
AcDbEntity
  8
0
100
AcDbLine
 62
7
  6
CONTINUOUS
 10
9.4743077073
 20
13.2554270465
 11
9.4732842994
 21
13.2773063924
  0
LINE
  5
616
100
AcDbEntity
  8
RACCORDO
100
AcDbLine
 62
7
  6
CONTINUOUS
 10
16.4779648435
 20
18.3503853845
 11
16.4599614013
 21
18.7456697123
  0
LINE
  5
617
100
AcDbEntity
  8
RACCORDO
100
AcDbLine
 62
7
  6
CONTINUOUS
 10
16.1218801953
 20
18.2968836206
 11
16.1039207463
 21
18.6914213892
  0
LINE
  5
618
100
AcDbEntity
  8
RACCORDO
100
AcDbLine
 62
7
  6
CONTINUOUS
 10
16.1380124068
 20
17.9034247384
 11
16.1218801953
 21
18.2968836206
  0
LINE
  5
619
100
AcDbEntity
  8
RACCORDO
100
AcDbLine
 62
7
  6
CONTINUOUS
 10
16.4941303167
 20
17.9561442094
 11
16.4779648435
 21
18.3503853845
  0
LINE
  5
61A
100
AcDbEntity
  8
RACCORDO
100
AcDbLine
 62
7
  6
CONTINUOUS
 10
16.1523095049
 20
17.5110480847
 11
16.1380124068
 21
17.9034247384
  0
LINE
  5
61B
100
AcDbEntity
  8
RACCORDO
100
AcDbLine
 62
7
  6
CONTINUOUS
 10
16.5084559856
 20
17.5629611364
 11
16.4941303167
 21
17.9561442094
  0
LINE
  5
61C
100
AcDbEntity
  8
RACCORDO
100
AcDbLine
 62
7
  6
CONTINUOUS
 10
16.1647594964
 20
17.1197483593
 11
16.1523095049
 21
17.5110480847
  0
LINE
  5
61D
100
AcDbEntity
  8
RACCORDO
100
AcDbLine
 62
7
  6
CONTINUOUS
 10
16.5209409034
 20
17.1708501446
 11
16.5084559856
 21
17.5629611364
  0
LINE
  5
61E
100
AcDbEntity
  8
RACCORDO
100
AcDbLine
 62
7
  6
CONTINUOUS
 10
16.5315825886
 20
16.7798270962
 11
16.5209409034
 21
17.1708501446
  0
LINE
  5
61F
100
AcDbEntity
  8
RACCORDO
100
AcDbLine
 62
7
  6
CONTINUOUS
 10
16.175359908
 20
16.7295378494
 11
16.1647594964
 21
17.1197483593
  0
LINE
  5
620
100
AcDbEntity
  8
0
100
AcDbLine
 62
7
  6
CONTINUOUS
 10
9.3982694998
 20
-19.4570779098
 11
9.4733045684
 21
-22.3019529393
  0
LINE
  5
621
100
AcDbEntity
  8
0
100
AcDbLine
 62
7
  6
CONTINUOUS
 10
9.6463835005
 20
-19.6590141918
 11
9.7226170693
 21
-22.5531920581
  0
LINE
  5
622
100
AcDbEntity
  8
RACCORDO
100
AcDbLine
 62
7
  6
CONTINUOUS
 10
16.1841176796
 20
16.3404462818
 11
16.175359908
 21
16.7295378494
  0
LINE
  5
623
100
AcDbEntity
  8
RACCORDO
100
AcDbLine
 62
7
  6
CONTINUOUS
 10
16.5403771153
 20
16.3899097099
 11
16.5315825886
 21
16.7798270962
  0
LINE
  5
624
100
AcDbEntity
  8
0
100
AcDbLine
 62
7
  6
CONTINUOUS
 10
9.3354833683
 20
-16.5396903408
 11
9.3982694998
 21
-19.4570779098
  0
LINE
  5
625
100
AcDbEntity
  8
0
100
AcDbLine
 62
7
  6
CONTINUOUS
 10
9.5839939005
 20
-16.7513429681
 11
9.6463835005
 21
-19.6590141918
  0
LINE
  5
626
100
AcDbEntity
  8
RACCORDO
100
AcDbLine
 62
7
  6
CONTINUOUS
 10
16.1910310307
 20
15.9524859193
 11
16.1841176796
 21
16.3404462818
  0
LINE
  5
627
100
AcDbEntity
  8
RACCORDO
100
AcDbLine
 62
7
  6
CONTINUOUS
 10
16.5473223015
 20
16.0011137666
 11
16.5403771153
 21
16.3899097099
  0
LINE
  5
628
100
AcDbEntity
  8
RACCORDO
100
AcDbLine
 62
7
  6
CONTINUOUS
 10
16.2737840736
 20
9.7090805983
 11
16.2250222381
 21
12.624741989
  0
LINE
  5
629
100
AcDbEntity
  8
0
100
AcDbLine
 62
7
  6
CONTINUOUS
 10
9.2866498631
 20
-13.6089093623
 11
9.3354833683
 21
-16.5396903408
  0
LINE
  5
62A
100
AcDbEntity
  8
0
100
AcDbLine
 62
7
  6
CONTINUOUS
 10
9.5354596054
 20
-13.8303326544
 11
9.5839939005
 21
-16.7513429681
  0
LINE
  5
62B
100
AcDbEntity
  8
RACCORDO
100
AcDbLine
 62
7
  6
CONTINUOUS
 10
16.3053873003
 20
7.4052919191
 11
16.2737840736
 21
9.7090805983
  0
LINE
  5
62C
100
AcDbEntity
  8
RACCORDO
100
AcDbLine
 62
7
  6
CONTINUOUS
 10
16.1960895686
 20
15.5656517091
 11
16.1910310307
 21
15.9524859193
  0
LINE
  5
62D
100
AcDbEntity
  8
RACCORDO
100
AcDbLine
 62
7
  6
CONTINUOUS
 10
16.2250222381
 20
12.624741989
 11
16.2114155424
 21
13.7162852739
  0
LINE
  5
62E
100
AcDbEntity
  8
0
100
AcDbLine
 62
7
  6
CONTINUOUS
 10
9.251771879
 20
-10.6649061586
 11
9.2866498631
 21
-13.6089093623
  0
LINE
  5
62F
100
AcDbEntity
  8
0
100
AcDbLine
 62
7
  6
CONTINUOUS
 10
9.5007921513
 20
-10.89613755
 11
9.5354596054
 21
-13.8303326544
  0
LINE
  5
630
100
AcDbEntity
  8
0
100
AcDbLine
 62
7
  6
CONTINUOUS
 10
9.473306741
 20
-22.302104141
 11
9.4734806807
 21
-22.3221953169
  0
LINE
  5
631
100
AcDbEntity
  8
0
100
AcDbLine
 62
7
  6
CONTINUOUS
 10
9.230850221
 20
-7.7078336297
 11
9.251771879
 21
-10.6649061586
  0
LINE
  5
632
100
AcDbEntity
  8
0
100
AcDbLine
 62
7
  6
CONTINUOUS
 10
9.4799951464
 20
-7.9489121069
 11
9.5007921513
 21
-10.89613755
  0
LINE
  5
633
100
AcDbEntity
  8
0
100
AcDbLine
 62
7
  6
CONTINUOUS
 10
8.5724252206
 20
-23.2452286977
 11
8.5721792096
 21
-23.2096420429
  0
LINE
  5
634
100
AcDbEntity
  8
0
100
AcDbLine
 62
7
  6
CONTINUOUS
 10
9.2238852424
 20
-4.7378370127
 11
9.230850221
 21
-7.7078336297
  0
LINE
  5
635
100
AcDbEntity
  8
0
100
AcDbLine
 62
7
  6
CONTINUOUS
 10
9.4730642124
 20
-4.988810958
 11
9.4799951464
 21
-7.9489121069
  0
LINE
  5
636
100
AcDbEntity
  8
0
100
AcDbLine
 62
7
  6
CONTINUOUS
 10
9.7226034737
 20
13.1007469043
 11
9.7226170693
 21
13.0334759316
  0
LINE
  5
637
100
AcDbEntity
  8
0
100
AcDbLine
 62
7
  6
CONTINUOUS
 10
9.7226170693
 20
-22.5531920581
 11
9.7226032953
 21
-22.6158934249
  0
LINE
  5
638
100
AcDbEntity
  8
0
100
AcDbLine
 62
7
  6
CONTINUOUS
 10
9.230877103
 20
-1.7550680333
 11
9.2238852424
 21
-4.7378370127
  0
LINE
  5
639
100
AcDbEntity
  8
0
100
AcDbLine
 62
7
  6
CONTINUOUS
 10
9.4799951474
 20
-2.0159868634
 11
9.4730642124
 21
-4.988810958
  0
LINE
  5
63A
100
AcDbEntity
  8
0
100
AcDbLine
 62
7
  6
CONTINUOUS
 10
9.4734040882
 20
13.3062833619
 11
9.4732828065
 21
13.2773405799
  0
LINE
  5
63B
100
AcDbEntity
  8
0
100
AcDbLine
 62
7
  6
CONTINUOUS
 10
8.5724269312
 20
14.5875239856
 11
8.5721806942
 21
14.5518290595
  0
LINE
  5
63C
100
AcDbEntity
  8
0
100
AcDbLine
 62
7
  6
CONTINUOUS
 10
9.2518248359
 20
1.2403206222
 11
9.230877103
 21
-1.7550680333
  0
LINE
  5
63D
100
AcDbEntity
  8
0
100
AcDbLine
 62
7
  6
CONTINUOUS
 10
9.500792153
 20
0.9694037554
 11
9.4799951474
 21
-2.0159868634
  0
LINE
  5
63E
100
AcDbEntity
  8
0
100
AcDbLine
 62
7
  6
CONTINUOUS
 10
9.5354596073
 20
3.9672006326
 11
9.500792153
 21
0.9694037554
  0
LINE
  5
63F
100
AcDbEntity
  8
0
100
AcDbLine
 62
7
  6
CONTINUOUS
 10
9.2867272918
 20
4.2481824037
 11
9.2518248359
 21
1.2403206222
  0
LINE
  5
640
100
AcDbEntity
  8
0
100
AcDbLine
 62
7
  6
CONTINUOUS
 10
9.3355828522
 20
7.2683620408
 11
9.2867272918
 21
4.2481824037
  0
LINE
  5
641
100
AcDbEntity
  8
0
100
AcDbLine
 62
7
  6
CONTINUOUS
 10
9.5839939022
 20
6.9772471795
 11
9.5354596073
 21
3.9672006326
  0
LINE
  5
642
100
AcDbEntity
  8
0
100
AcDbLine
 62
7
  6
CONTINUOUS
 10
9.6463835016
 20
9.9993905278
 11
9.5839939022
 21
6.9772471795
  0
LINE
  5
643
100
AcDbEntity
  8
0
100
AcDbLine
 62
7
  6
CONTINUOUS
 10
9.3983878084
 20
10.3006821146
 11
9.3355828522
 21
7.2683620408
  0
LINE
  5
644
100
AcDbEntity
  8
0
100
AcDbLine
 62
7
  6
CONTINUOUS
 10
9.4732842994
 20
13.2773063924
 11
9.3983878084
 21
10.3006821146
  0
LINE
  5
645
100
AcDbEntity
  8
0
100
AcDbLine
 62
7
  6
CONTINUOUS
 10
9.7226170693
 20
13.0334759316
 11
9.6463835016
 21
9.9993905278
  0
LINE
  5
646
100
AcDbEntity
  8
0
100
AcDbLine
 62
7
  6
CONTINUOUS
 10
4.2698015526
 20
-24.7140692693
 11
4.270730571
 21
-24.6851196652
  0
LINE
  5
647
100
AcDbEntity
  8
0
100
AcDbLine
 62
7
  6
CONTINUOUS
 10
4.1832713096
 20
-24.7880844485
 11
4.1843371067
 21
-24.7606286806
  0
LINE
  5
648
100
AcDbEntity
  8
0
100
AcDbLine
 62
7
  6
CONTINUOUS
 10
8.5721792096
 20
-23.2096420429
 11
8.5738770162
 21
-23.1723138318
  0
LINE
  5
649
100
AcDbEntity
  8
0
100
AcDbLine
 62
7
  6
CONTINUOUS
 10
3.7255409365
 20
-24.5947919967
 11
3.7246498343
 21
-24.6116232824
  0
LINE
  5
64A
100
AcDbEntity
  8
0
100
AcDbLine
 62
7
  6
CONTINUOUS
 10
-8.6040155786
 20
-16.2732828918
 11
-8.5992675588
 21
-16.2349454258
  0
LINE
  5
64B
100
AcDbEntity
  8
0
100
AcDbLine
 62
7
  6
CONTINUOUS
 10
-9.694658227
 20
20.9660879768
 11
-9.6834358988
 21
21.0281575233
  0
LINE
  5
64C
100
AcDbEntity
  8
0
100
AcDbLine
 62
7
  6
CONTINUOUS
 10
-8.9828994885
 20
20.9448919134
 11
-8.9753381354
 21
20.9848622876
  0
LINE
  5
64D
100
AcDbEntity
  8
RACCORDO
100
AcDbLine
 62
7
  6
CONTINUOUS
 10
-14.2737221668
 20
31.6746834906
 11
-14.3465366338
 21
31.3367946344
  0
LINE
  5
64E
100
AcDbEntity
  8
RACCORDO
100
AcDbLine
 62
7
  6
CONTINUOUS
 10
-14.1844535373
 20
31.5612885212
 11
-14.2560284814
 21
31.2396813182
  0
LINE
  5
64F
100
AcDbEntity
  8
0
100
AcDbLine
 62
7
  6
CONTINUOUS
 10
-9.6834358988
 20
21.0281575233
 11
-9.668421765
 21
21.0887853803
  0
LINE
  5
650
100
AcDbEntity
  8
RACCORDO
100
AcDbLine
 62
7
  6
CONTINUOUS
 10
-14.1886394439
 20
32.0036193206
 11
-14.2737221668
 21
31.6746834906
  0
LINE
  5
651
100
AcDbEntity
  8
RACCORDO
100
AcDbLine
 62
7
  6
CONTINUOUS
 10
-14.1014456551
 20
31.8736521123
 11
-14.1844535373
 21
31.5612885212
  0
LINE
  5
652
100
AcDbEntity
  8
RACCORDO
100
AcDbLine
 62
7
  6
CONTINUOUS
 10
-14.0914236037
 20
32.3230728987
 11
-14.1886394439
 21
32.0036193206
  0
LINE
  5
653
100
AcDbEntity
  8
RACCORDO
100
AcDbLine
 62
7
  6
CONTINUOUS
 10
-14.0068348303
 20
32.1772479459
 11
-14.1014456551
 21
31.8736521123
  0
LINE
  5
654
100
AcDbEntity
  8
RACCORDO
100
AcDbLine
 62
7
  6
CONTINUOUS
 10
10.7952056397
 20
-36.0112027658
 11
11.1097348125
 21
-36.0011417819
  0
LINE
  5
655
100
AcDbEntity
  8
RACCORDO
100
AcDbLine
 62
7
  6
CONTINUOUS
 10
10.8930825276
 20
-36.126
 11
11.224570302
 21
-36.117395693
  0
LINE
  5
656
100
AcDbEntity
  8
RACCORDO
100
AcDbLine
 62
7
  6
CONTINUOUS
 10
10.4757323919
 20
-36.0074579398
 11
10.7952056397
 21
-36.0112027658
  0
LINE
  5
657
100
AcDbEntity
  8
RACCORDO
100
AcDbLine
 62
7
  6
CONTINUOUS
 10
10.556186109
 20
-36.1199303137
 11
10.8930825276
 21
-36.126
  0
LINE
  5
658
100
AcDbEntity
  8
0
100
AcDbLine
 62
7
  6
CONTINUOUS
 10
3.5408037056
 20
-24.7974542205
 11
3.5241608768
 21
-24.7966309291
  0
LINE
  5
659
100
AcDbEntity
  8
0
100
AcDbLine
 62
7
  6
CONTINUOUS
 10
8.9507662953
 20
-23.3159470925
 11
8.8884830533
 21
-23.3126291678
  0
LINE
  5
65A
100
AcDbEntity
  8
0
100
AcDbLine
 62
7
  6
CONTINUOUS
 10
3.6220536471
 20
-24.7265873692
 11
3.6036017272
 21
-24.7253837074
  0
LINE
  5
65B
100
AcDbEntity
  8
0
100
AcDbLine
 62
7
  6
CONTINUOUS
 10
3.890878915
 20
-25.1315175524
 11
3.9006050027
 21
-25.1321932005
  0
LINE
  5
65C
100
AcDbEntity
  8
0
100
AcDbLine
 62
7
  6
CONTINUOUS
 10
9.0188743332
 20
-22.6210380475
 11
8.977991843
 21
-22.6175555235
  0
LINE
  5
65D
100
AcDbEntity
  8
0
100
AcDbLine
 62
7
  6
CONTINUOUS
 10
3.5241608768
 20
-24.7966309291
 11
3.5069414942
 21
-24.7949496942
  0
LINE
  5
65E
100
AcDbEntity
  8
0
100
AcDbLine
 62
7
  6
CONTINUOUS
 10
-9.5093070693
 20
-14.8066088698
 11
-9.4657218526
 21
-14.8111538349
  0
LINE
  5
65F
100
AcDbEntity
  8
0
100
AcDbLine
 62
7
  6
CONTINUOUS
 10
8.8884830533
 20
-23.3126291678
 11
8.8251586627
 21
-23.3056911348
  0
LINE
  5
660
100
AcDbEntity
  8
0
100
AcDbLine
 62
7
  6
CONTINUOUS
 10
-9.5519093148
 20
-14.7997318151
 11
-9.5093070693
 21
-14.8066088698
  0
LINE
  5
661
100
AcDbEntity
  8
0
100
AcDbLine
 62
7
  6
CONTINUOUS
 10
-9.6704903519
 20
20.8208896919
 11
-9.6328210912
 21
20.807098264
  0
LINE
  5
662
100
AcDbEntity
  8
0
100
AcDbLine
 62
7
  6
CONTINUOUS
 10
9.7226170729
 20
13.0334759349
 11
9.6851135671
 21
13.0472407725
  0
LINE
  5
663
100
AcDbEntity
  8
0
100
AcDbLine
 62
7
  6
CONTINUOUS
 10
8.5724252084
 20
14.5875224672
 11
8.6355921177
 21
14.5640934501
  0
LINE
  5
664
100
AcDbEntity
  8
0
100
AcDbLine
 62
7
  6
CONTINUOUS
 10
-8.5705210159
 20
21.2635298083
 11
-8.5321480995
 21
21.2490872831
  0
LINE
  5
665
100
AcDbEntity
  8
0
100
AcDbLine
 62
7
  6
CONTINUOUS
 10
2.7738996992
 20
16.4888450207
 11
4.7387728069
 21
15.7490089784
  0
LINE
  5
666
100
AcDbEntity
  8
0
100
AcDbLine
 62
7
  6
CONTINUOUS
 10
2.6573170803
 20
16.7442823265
 11
4.6091729007
 21
16.0090284401
  0
LINE
  5
667
100
AcDbEntity
  8
0
100
AcDbLine
 62
7
  6
CONTINUOUS
 10
0.8297606971
 20
17.2450182988
 11
2.7738996992
 21
16.4888450207
  0
LINE
  5
668
100
AcDbEntity
  8
0
100
AcDbLine
 62
7
  6
CONTINUOUS
 10
0.7259612672
 20
17.495627318
 11
2.6573170803
 21
16.7442823265
  0
LINE
  5
669
100
AcDbEntity
  8
0
100
AcDbLine
 62
7
  6
CONTINUOUS
 10
-1.0931776525
 20
18.0173473834
 11
0.8297606971
 21
17.2450182988
  0
LINE
  5
66A
100
AcDbEntity
  8
0
100
AcDbLine
 62
7
  6
CONTINUOUS
 10
-1.1844065058
 20
18.2628740824
 11
0.7259612672
 21
17.495627318
  0
LINE
  5
66B
100
AcDbEntity
  8
0
100
AcDbLine
 62
7
  6
CONTINUOUS
 10
8.6879703394
 20
14.3328668375
 11
8.7302521683
 21
14.3158225721
  0
LINE
  5
66C
100
AcDbEntity
  8
0
100
AcDbLine
 62
7
  6
CONTINUOUS
 10
-2.9944865731
 20
18.805663221
 11
-1.0931776525
 21
18.0173473834
  0
LINE
  5
66D
100
AcDbEntity
  8
0
100
AcDbLine
 62
7
  6
CONTINUOUS
 10
-3.0732985296
 20
19.0458267451
 11
-1.1844065058
 21
18.2628740824
  0
LINE
  5
66E
100
AcDbEntity
  8
0
100
AcDbLine
 62
7
  6
CONTINUOUS
 10
8.6355921177
 20
14.5640934501
 11
8.6987141041
 21
14.5371754406
  0
LINE
  5
66F
100
AcDbEntity
  8
0
100
AcDbLine
 62
7
  6
CONTINUOUS
 10
-4.9402376976
 20
19.8442870176
 11
-3.0732985296
 21
19.0458267451
  0
LINE
  5
670
100
AcDbEntity
  8
0
100
AcDbLine
 62
7
  6
CONTINUOUS
 10
-4.8737039195
 20
19.60978039
 11
-2.9944865731
 21
18.805663221
  0
LINE
  5
671
100
AcDbEntity
  8
0
100
AcDbLine
 62
7
  6
CONTINUOUS
 10
8.6528986249
 20
14.3464155428
 11
8.664982907
 21
14.3411797998
  0
LINE
  5
672
100
AcDbEntity
  8
0
100
AcDbLine
 62
7
  6
CONTINUOUS
 10
-8.6636128032
 20
21.5118450803
 11
-8.6063938014
 21
21.4869234689
  0
LINE
  5
673
100
AcDbEntity
  8
0
100
AcDbLine
 62
7
  6
CONTINUOUS
 10
-8.5321480995
 20
21.2490872831
 11
-8.5013431927
 21
21.2356563354
  0
LINE
  5
674
100
AcDbEntity
  8
0
100
AcDbLine
 62
7
  6
CONTINUOUS
 10
-9.7058974709
 20
20.8364077236
 11
-9.6704903519
 21
20.8208896919
  0
LINE
  5
675
100
AcDbEntity
  8
0
100
AcDbLine
 62
7
  6
CONTINUOUS
 10
9.6851135671
 20
13.0472407725
 11
9.6498954206
 21
13.0627228707
  0
LINE
  5
676
100
AcDbEntity
  8
0
100
AcDbLine
 62
7
  6
CONTINUOUS
 10
-6.7847573362
 20
20.6580544758
 11
-4.9402376976
 21
19.8442870176
  0
LINE
  5
677
100
AcDbEntity
  8
0
100
AcDbLine
 62
7
  6
CONTINUOUS
 10
-6.7302886449
 20
20.4294664021
 11
-4.8737039195
 21
19.60978039
  0
LINE
  5
678
100
AcDbEntity
  8
0
100
AcDbLine
 62
7
  6
CONTINUOUS
 10
-8.6063938014
 20
21.4869234689
 11
-6.7847573362
 21
20.6580544758
  0
LINE
  5
679
100
AcDbEntity
  8
0
100
AcDbLine
 62
7
  6
CONTINUOUS
 10
-8.5011285789
 20
21.2355585382
 11
-6.7302886449
 21
20.4294664021
  0
LINE
  5
67A
100
AcDbEntity
  8
0
100
AcDbLine
 62
7
  6
CONTINUOUS
 10
8.7302521683
 20
14.3158225721
 11
8.7730621742
 21
14.2962596019
  0
LINE
  5
67B
100
AcDbEntity
  8
0
100
AcDbLine
 62
7
  6
CONTINUOUS
 10
-8.5013425847
 20
21.2356576502
 11
-8.5011285789
 21
21.2355585382
  0
LINE
  5
67C
100
AcDbEntity
  8
0
100
AcDbLine
 62
7
  6
CONTINUOUS
 10
8.6987141041
 20
14.5371754406
 11
8.7617917099
 21
14.5067686222
  0
LINE
  5
67D
100
AcDbEntity
  8
0
100
AcDbLine
 62
7
  6
CONTINUOUS
 10
-8.5049305054
 20
21.2373881513
 11
-8.5013425847
 21
21.2356576502
  0
LINE
  5
67E
100
AcDbEntity
  8
RACCORDO
100
AcDbLine
 62
7
  6
CONTINUOUS
 10
8.4053087519
 20
29.5328683589
 11
8.0116970161
 21
29.7486273035
  0
LINE
  5
67F
100
AcDbEntity
  8
RACCORDO
100
AcDbLine
 62
7
  6
CONTINUOUS
 10
8.7985075346
 20
29.313219571
 11
8.4053087519
 21
29.5328683589
  0
LINE
  5
680
100
AcDbEntity
  8
RACCORDO
100
AcDbLine
 62
7
  6
CONTINUOUS
 10
8.9905369781
 20
29.6336529793
 11
8.5953180313
 21
29.8545318312
  0
LINE
  5
681
100
AcDbEntity
  8
RACCORDO
100
AcDbLine
 62
7
  6
CONTINUOUS
 10
9.1912671157
 20
29.0896929157
 11
8.7985075346
 21
29.313219571
  0
LINE
  5
682
100
AcDbEntity
  8
RACCORDO
100
AcDbLine
 62
7
  6
CONTINUOUS
 10
9.3853297459
 20
29.4088629468
 11
8.9905369781
 21
29.6336529793
  0
LINE
  5
683
100
AcDbEntity
  8
RACCORDO
100
AcDbLine
 62
7
  6
CONTINUOUS
 10
9.3874850656
 20
28.9764739089
 11
9.1912671157
 21
29.0896929157
  0
LINE
  5
684
100
AcDbEntity
  8
RACCORDO
100
AcDbLine
 62
7
  6
CONTINUOUS
 10
9.5825463757
 20
29.2950122449
 11
9.3853297459
 21
29.4088629468
  0
LINE
  5
685
100
AcDbEntity
  8
RACCORDO
100
AcDbLine
 62
7
  6
CONTINUOUS
 10
9.473422702
 20
28.9261848101
 11
9.3874850656
 21
28.9764739089
  0
LINE
  5
686
100
AcDbEntity
  8
RACCORDO
100
AcDbLine
 62
7
  6
CONTINUOUS
 10
9.6706784839
 20
29.243349278
 11
9.5825463762
 21
29.2950122453
  0
LINE
  5
687
100
AcDbEntity
  8
RACCORDO
100
AcDbLine
 62
7
  6
CONTINUOUS
 10
9.5590965321
 20
28.8750983639
 11
9.473422702
 21
28.9261848101
  0
LINE
  5
688
100
AcDbEntity
  8
DRAFT
100
AcDbLine
 62
7
  6
CONTINUOUS
 10
10.8830032155
 20
31.0977495212
 11
10.4310468111
 21
31.3672320273
  0
LINE
  5
689
100
AcDbEntity
  8
RACCORDO
100
AcDbLine
 62
7
  6
CONTINUOUS
 10
9.7585546356
 20
29.1908606703
 11
9.6706784839
 21
29.243349278
  0
LINE
  5
68A
100
AcDbEntity
  8
RACCORDO
100
AcDbLine
 62
7
  6
CONTINUOUS
 10
9.6445067492
 20
28.8232143983
 11
9.5590965321
 21
28.8750983639
  0
LINE
  5
68B
100
AcDbEntity
  8
RACCORDO
100
AcDbLine
 62
7
  6
CONTINUOUS
 10
9.8461662978
 20
29.1375519426
 11
9.7585546356
 21
29.1908606703
  0
LINE
  5
68C
100
AcDbEntity
  8
DRAFT
100
AcDbLine
 62
7
  6
CONTINUOUS
 10
11.3338822395
 20
30.8224862024
 11
10.8830032155
 21
31.0977495212
  0
LINE
  5
68D
100
AcDbEntity
  8
0
100
AcDbLine
 62
7
  6
CONTINUOUS
 10
12.1078939167
 20
31.1097231634
 11
12.5450173787
 21
30.842855918
  0
LINE
  5
68E
100
AcDbEntity
  8
RACCORDO
100
AcDbLine
 62
7
  6
CONTINUOUS
 10
9.7296577199
 20
28.7705303758
 11
9.6445067492
 21
28.8232143983
  0
LINE
  5
68F
100
AcDbEntity
  8
RACCORDO
100
AcDbLine
 62
7
  6
CONTINUOUS
 10
9.9334976769
 20
29.0834335774
 11
9.8461662978
 21
29.1375519426
  0
LINE
  5
690
100
AcDbEntity
  8
RACCORDO
100
AcDbLine
 62
7
  6
CONTINUOUS
 10
9.8145454968
 20
28.7170485207
 11
9.7296577199
 21
28.7705303758
  0
LINE
  5
691
100
AcDbEntity
  8
RACCORDO
100
AcDbLine
 62
7
  6
CONTINUOUS
 10
10.020547607
 20
29.0285064909
 11
9.9334976769
 21
29.0834335774
  0
LINE
  5
692
100
AcDbEntity
  8
DRAFT
100
AcDbLine
 62
7
  6
CONTINUOUS
 10
11.6661700944
 20
30.6105771593
 11
11.3338822395
 21
30.8224862024
  0
LINE
  5
693
100
AcDbEntity
  8
RACCORDO
100
AcDbLine
 62
7
  6
CONTINUOUS
 10
9.8991577972
 20
28.662775802
 11
9.8145454968
 21
28.7170485207
  0
LINE
  5
694
100
AcDbEntity
  8
0
100
AcDbLine
 62
7
  6
CONTINUOUS
 10
12.5450173787
 20
30.842855918
 11
12.9013582607
 21
30.6140944792
  0
LINE
  5
695
100
AcDbEntity
  8
RACCORDO
100
AcDbLine
 62
7
  6
CONTINUOUS
 10
10.1073293614
 20
28.9727613826
 11
10.020547607
 21
29.0285064909
  0
LINE
  5
696
100
AcDbEntity
  8
RACCORDO
100
AcDbLine
 62
7
  6
CONTINUOUS
 10
9.9834906632
 20
28.6077144388
 11
9.8991577972
 21
28.662775802
  0
LINE
  5
697
100
AcDbEntity
  8
RACCORDO
100
AcDbLine
 62
7
  6
CONTINUOUS
 10
10.1938415448
 20
28.916198417
 11
10.1073293614
 21
28.9727613826
  0
LINE
  5
698
100
AcDbEntity
  8
RACCORDO
100
AcDbLine
 62
7
  6
CONTINUOUS
 10
10.0675484827
 20
28.5518619173
 11
9.9834906632
 21
28.6077144388
  0
LINE
  5
699
100
AcDbEntity
  8
RACCORDO
100
AcDbLine
 62
7
  6
CONTINUOUS
 10
10.2800682852
 20
28.8588278729
 11
10.1938415448
 21
28.916198417
  0
LINE
  5
69A
100
AcDbEntity
  8
RACCORDO
100
AcDbLine
 62
7
  6
CONTINUOUS
 10
10.1513314865
 20
28.4952181062
 11
10.0675484827
 21
28.5518619173
  0
LINE
  5
69B
100
AcDbEntity
  8
RACCORDO
100
AcDbLine
 62
7
  6
CONTINUOUS
 10
10.3660009891
 20
28.8006551605
 11
10.2800682852
 21
28.8588278729
  0
LINE
  5
69C
100
AcDbEntity
  8
DRAFT
100
AcDbLine
 62
7
  6
CONTINUOUS
 10
11.9943360486
 20
30.3881383797
 11
11.6661700944
 21
30.6105771593
  0
LINE
  5
69D
100
AcDbEntity
  8
0
100
AcDbLine
 62
7
  6
CONTINUOUS
 10
12.9013582607
 20
30.6140944792
 11
13.2510831097
 21
30.3722173951
  0
LINE
  5
69E
100
AcDbEntity
  8
RACCORDO
100
AcDbLine
 62
7
  6
CONTINUOUS
 10
10.4758266778
 20
28.2675222281
 11
10.1513315091
 21
28.4952183575
  0
LINE
  5
69F
100
AcDbEntity
  8
RACCORDO
100
AcDbLine
 62
7
  6
CONTINUOUS
 10
10.6972696527
 20
28.567635638
 11
10.3660009891
 21
28.8006551605
  0
LINE
  5
6A0
100
AcDbEntity
  8
DRAFT
100
AcDbLine
 62
7
  6
CONTINUOUS
 10
12.3183801019
 20
30.1551698638
 11
11.9943360486
 21
30.3881383797
  0
LINE
  5
6A1
100
AcDbEntity
  8
0
100
AcDbLine
 62
7
  6
CONTINUOUS
 10
13.2510831097
 20
30.3722173951
 11
13.5938640509
 21
30.1175917961
  0
LINE
  5
6A2
100
AcDbEntity
  8
DRAFT
100
AcDbLine
 62
7
  6
CONTINUOUS
 10
12.6387530849
 20
29.911308966
 11
12.3183801019
 21
30.1551698638
  0
LINE
  5
6A3
100
AcDbEntity
  8
0
100
AcDbLine
 62
7
  6
CONTINUOUS
 10
13.5938640509
 20
30.1175917961
 11
13.9297531907
 21
29.8502538218
  0
LINE
  5
6A4
100
AcDbEntity
  8
DRAFT
100
AcDbLine
 62
7
  6
CONTINUOUS
 10
12.9550041671
 20
29.6569183318
 11
12.6387530849
 21
29.911308966
  0
LINE
  5
6A5
100
AcDbEntity
  8
0
100
AcDbLine
 62
7
  6
CONTINUOUS
 10
18.4716691566
 20
22.3678991553
 11
18.5379020689
 21
21.9688356366
  0
LINE
  5
6A6
100
AcDbEntity
  8
DRAFT
100
AcDbLine
 62
7
  6
CONTINUOUS
 10
18.3426471288
 20
20.5323583333
 11
18.2859863914
 21
20.890819868
  0
LINE
  5
6A7
100
AcDbEntity
  8
RACCORDO
100
AcDbLine
 62
7
  6
CONTINUOUS
 10
16.3943759072
 20
19.4945639168
 11
16.3399689932
 21
19.8715429218
  0
LINE
  5
6A8
100
AcDbEntity
  8
RACCORDO
100
AcDbLine
 62
7
  6
CONTINUOUS
 10
16.0406880774
 20
19.4222870036
 11
15.9880906074
 21
19.7891371261
  0
LINE
  5
6A9
100
AcDbEntity
  8
0
100
AcDbLine
 62
7
  6
CONTINUOUS
 10
18.5379020689
 20
21.9688356366
 11
18.5882010749
 21
21.5704035286
  0
LINE
  5
6AA
100
AcDbEntity
  8
DRAFT
100
AcDbLine
 62
7
  6
CONTINUOUS
 10
18.3867655154
 20
20.1760778282
 11
18.3426471288
 21
20.5323583333
  0
LINE
  5
6AB
100
AcDbEntity
  8
DRAFT
100
AcDbLine
 62
7
  6
CONTINUOUS
 10
18.9746341864
 20
9.4324379807
 11
18.8313550393
 21
13.0987681651
  0
LINE
  5
6AC
100
AcDbEntity
  8
0
100
AcDbLine
 62
7
  6
CONTINUOUS
 10
19.0325730212
 20
14.4945288809
 11
19.1759222801
 21
10.8261034094
  0
LINE
  5
6AD
100
AcDbEntity
  8
DRAFT
100
AcDbLine
 62
7
  6
CONTINUOUS
 10
19.0860772376
 20
5.7780514797
 11
18.9746341864
 21
9.4324379807
  0
LINE
  5
6AE
100
AcDbEntity
  8
0
100
AcDbLine
 62
7
  6
CONTINUOUS
 10
19.1759222801
 20
10.8261034094
 11
19.2874248486
 21
7.1691529311
  0
LINE
  5
6AF
100
AcDbEntity
  8
DRAFT
100
AcDbLine
 62
7
  6
CONTINUOUS
 10
19.1656879073
 20
2.135326367
 11
19.0860772376
 21
5.7780514797
  0
LINE
  5
6B0
100
AcDbEntity
  8
0
100
AcDbLine
 62
7
  6
CONTINUOUS
 10
19.2874248486
 20
7.1691529311
 11
19.3670702438
 21
3.5239568602
  0
LINE
  5
6B1
100
AcDbEntity
  8
RACCORDO
100
AcDbLine
 62
7
  6
CONTINUOUS
 10
16.624602226
 20
9.7600857858
 11
16.5811531047
 21
12.6754308074
  0
LINE
  5
6B2
100
AcDbEntity
  8
RACCORDO
100
AcDbLine
 62
7
  6
CONTINUOUS
 10
16.656878347
 20
7.4565469759
 11
16.624602226
 21
9.7600857858
  0
LINE
  5
6B3
100
AcDbEntity
  8
RACCORDO
100
AcDbLine
 62
7
  6
CONTINUOUS
 10
16.5524176192
 20
15.6134531348
 11
16.5473223015
 21
16.0011137666
  0
LINE
  5
6B4
100
AcDbEntity
  8
DRAFT
100
AcDbLine
 62
7
  6
CONTINUOUS
 10
19.213462481
 20
-1.4954550621
 11
19.1656879073
 21
2.135326367
  0
LINE
  5
6B5
100
AcDbEntity
  8
0
100
AcDbLine
 62
7
  6
CONTINUOUS
 10
19.3670702438
 20
3.5239568602
 11
19.4148502793
 21
-0.1092031352
  0
LINE
  5
6B6
100
AcDbEntity
  8
RACCORDO
100
AcDbLine
 62
7
  6
CONTINUOUS
 10
16.687168266
 20
5.041903641
 11
16.656878347
 21
7.4565469759
  0
LINE
  5
6B7
100
AcDbEntity
  8
RACCORDO
100
AcDbLine
 62
7
  6
CONTINUOUS
 10
16.5811531047
 20
12.6754308074
 11
16.567655998
 21
13.7654002214
  0
LINE
  5
6B8
100
AcDbEntity
  8
RACCORDO
100
AcDbLine
 62
7
  6
CONTINUOUS
 10
16.3319010459
 20
4.9898965504
 11
16.3053873003
 21
7.4052919191
  0
LINE
  5
6B9
100
AcDbEntity
  8
RACCORDO
100
AcDbLine
 62
7
  6
CONTINUOUS
 10
16.7128223903
 20
2.4891932896
 11
16.687168266
 21
5.041903641
  0
LINE
  5
6BA
100
AcDbEntity
  8
RACCORDO
100
AcDbLine
 62
7
  6
CONTINUOUS
 10
16.3555986529
 20
2.4367651623
 11
16.3319010459
 21
4.9898965504
  0
LINE
  5
6BB
100
AcDbEntity
  8
RACCORDO
100
AcDbLine
 62
7
  6
CONTINUOUS
 10
16.2114155424
 20
13.7162852739
 11
16.1960895686
 21
15.5656517091
  0
LINE
  5
6BC
100
AcDbEntity
  8
RACCORDO
100
AcDbLine
 62
7
  6
CONTINUOUS
 10
16.567655998
 20
13.7654002214
 11
16.5524176192
 21
15.6134531348
  0
LINE
  5
6BD
100
AcDbEntity
  8
RACCORDO
100
AcDbLine
 62
7
  6
CONTINUOUS
 10
16.3762412705
 20
-0.2250101614
 11
16.3555986529
 21
2.4367651623
  0
LINE
  5
6BE
100
AcDbEntity
  8
RACCORDO
100
AcDbLine
 62
7
  6
CONTINUOUS
 10
16.7319329783
 20
-0.1727608842
 11
16.7128223903
 21
2.4891932896
  0
LINE
  5
6BF
100
AcDbEntity
  8
RACCORDO
100
AcDbLine
 62
7
  6
CONTINUOUS
 10
16.3902392956
 20
-2.9121696301
 11
16.3762412705
 21
-0.2250101614
  0
LINE
  5
6C0
100
AcDbEntity
  8
RACCORDO
100
AcDbLine
 62
7
  6
CONTINUOUS
 10
16.7450312535
 20
-2.8600018757
 11
16.7319329783
 21
-0.1727608842
  0
LINE
  5
6C1
100
AcDbEntity
  8
DRAFT
100
AcDbLine
 62
7
  6
CONTINUOUS
 10
19.2293898152
 20
-5.1134459219
 11
19.213462481
 21
-1.4954550621
  0
LINE
  5
6C2
100
AcDbEntity
  8
0
100
AcDbLine
 62
7
  6
CONTINUOUS
 10
19.4148502793
 20
-0.1092031352
 11
19.4307592021
 21
-3.7300433281
  0
LINE
  5
6C3
100
AcDbEntity
  8
RACCORDO
100
AcDbLine
 62
7
  6
CONTINUOUS
 10
16.7525593179
 20
-5.5710195158
 11
16.7450312535
 21
-2.8600018757
  0
LINE
  5
6C4
100
AcDbEntity
  8
RACCORDO
100
AcDbLine
 62
7
  6
CONTINUOUS
 10
16.3962195809
 20
-5.6234751839
 11
16.3902392956
 21
-2.9121696301
  0
LINE
  5
6C5
100
AcDbEntity
  8
RACCORDO
100
AcDbLine
 62
7
  6
CONTINUOUS
 10
16.3961897854
 20
-8.3589659467
 11
16.3962195809
 21
-5.6234751839
  0
LINE
  5
6C6
100
AcDbEntity
  8
RACCORDO
100
AcDbLine
 62
7
  6
CONTINUOUS
 10
16.7525383265
 20
-8.3065216337
 11
16.7525593179
 21
-5.5710195158
  0
LINE
  5
6C7
100
AcDbEntity
  8
RACCORDO
100
AcDbLine
 62
7
  6
CONTINUOUS
 10
16.3901692975
 20
-11.0392382895
 11
16.3961897854
 21
-8.3589659467
  0
LINE
  5
6C8
100
AcDbEntity
  8
RACCORDO
100
AcDbLine
 62
7
  6
CONTINUOUS
 10
16.7449618235
 20
-10.9870828925
 11
16.7525383265
 21
-8.3065216337
  0
LINE
  5
6C9
100
AcDbEntity
  8
DRAFT
100
AcDbLine
 62
7
  6
CONTINUOUS
 10
19.213462481
 20
-8.7186432287
 11
19.2293898152
 21
-5.1134459219
  0
LINE
  5
6CA
100
AcDbEntity
  8
0
100
AcDbLine
 62
7
  6
CONTINUOUS
 10
19.4307592021
 20
-3.7300433281
 11
19.4147937239
 21
-7.3382893855
  0
LINE
  5
6CB
100
AcDbEntity
  8
RACCORDO
100
AcDbLine
 62
7
  6
CONTINUOUS
 10
16.7318221849
 20
-13.6120241303
 11
16.7449618235
 21
-10.9870828925
  0
LINE
  5
6CC
100
AcDbEntity
  8
RACCORDO
100
AcDbLine
 62
7
  6
CONTINUOUS
 10
16.3761519232
 20
-13.6642654615
 11
16.3901692975
 21
-11.0392382895
  0
LINE
  5
6CD
100
AcDbEntity
  8
0
100
AcDbLine
 62
7
  6
CONTINUOUS
 10
18.857207382
 20
18.04545111
 11
18.8579519672
 21
18.1621571658
  0
LINE
  5
6CE
100
AcDbEntity
  8
RACCORDO
100
AcDbLine
 62
7
  6
CONTINUOUS
 10
16.7127023752
 20
-16.1824727907
 11
16.7318221849
 21
-13.6120241303
  0
LINE
  5
6CF
100
AcDbEntity
  8
RACCORDO
100
AcDbLine
 62
7
  6
CONTINUOUS
 10
16.3554909719
 20
-16.2348741707
 11
16.3761519232
 21
-13.6642654615
  0
LINE
  5
6D0
100
AcDbEntity
  8
RACCORDO
100
AcDbLine
 62
7
  6
CONTINUOUS
 10
16.1960896201
 20
-28.4776906068
 11
16.2077387359
 21
-27.1455748583
  0
LINE
  5
6D1
100
AcDbEntity
  8
RACCORDO
100
AcDbLine
 62
7
  6
CONTINUOUS
 10
16.5524176334
 20
-28.4228086669
 11
16.5640140443
 21
-27.0911902256
  0
LINE
  5
6D2
100
AcDbEntity
  8
RACCORDO
100
AcDbLine
 62
7
  6
CONTINUOUS
 10
16.3317906743
 20
-18.6749591175
 11
16.3554909719
 21
-16.2348741707
  0
LINE
  5
6D3
100
AcDbEntity
  8
RACCORDO
100
AcDbLine
 62
7
  6
CONTINUOUS
 10
16.687058798
 20
-18.6229871537
 11
16.7127023752
 21
-16.1824727907
  0
LINE
  5
6D4
100
AcDbEntity
  8
RACCORDO
100
AcDbLine
 62
7
  6
CONTINUOUS
 10
16.3052977454
 20
-20.9604837046
 11
16.3317906743
 21
-18.6749591175
  0
LINE
  5
6D5
100
AcDbEntity
  8
RACCORDO
100
AcDbLine
 62
7
  6
CONTINUOUS
 10
16.2077387359
 20
-27.1455748583
 11
16.2200568318
 21
-26.1508870665
  0
LINE
  5
6D6
100
AcDbEntity
  8
RACCORDO
100
AcDbLine
 62
7
  6
CONTINUOUS
 10
16.5640140443
 20
-27.0911902256
 11
16.5762257726
 21
-26.0978488496
  0
LINE
  5
6D7
100
AcDbEntity
  8
RACCORDO
100
AcDbLine
 62
7
  6
CONTINUOUS
 10
16.656788272
 20
-20.9092544505
 11
16.687058798
 21
-18.6229871537
  0
LINE
  5
6D8
100
AcDbEntity
  8
DRAFT
100
AcDbLine
 62
7
  6
CONTINUOUS
 10
19.1656879073
 20
-12.3110499662
 11
19.213462481
 21
-8.7186432287
  0
LINE
  5
6D9
100
AcDbEntity
  8
0
100
AcDbLine
 62
7
  6
CONTINUOUS
 10
19.4147937239
 20
-7.3382893855
 11
19.3669529358
 21
-10.9336600893
  0
LINE
  5
6DA
100
AcDbEntity
  8
RACCORDO
100
AcDbLine
 62
7
  6
CONTINUOUS
 10
16.2737314809
 20
-23.1183655625
 11
16.3052977454
 21
-20.9604837046
  0
LINE
  5
6DB
100
AcDbEntity
  8
RACCORDO
100
AcDbLine
 62
7
  6
CONTINUOUS
 10
16.1910311228
 20
-28.8200189123
 11
16.1960896201
 21
-28.4776906068
  0
LINE
  5
6DC
100
AcDbEntity
  8
RACCORDO
100
AcDbLine
 62
7
  6
CONTINUOUS
 10
16.5473223336
 20
-28.7659997736
 11
16.5524176334
 21
-28.4228086669
  0
LINE
  5
6DD
100
AcDbEntity
  8
RACCORDO
100
AcDbLine
 62
7
  6
CONTINUOUS
 10
16.6245486474
 20
-23.0673869407
 11
16.656788272
 21
-20.9092544505
  0
LINE
  5
6DE
100
AcDbEntity
  8
RACCORDO
100
AcDbLine
 62
7
  6
CONTINUOUS
 10
16.5762257726
 20
-26.0978488496
 11
16.6245486474
 21
-23.0673869407
  0
LINE
  5
6DF
100
AcDbEntity
  8
RACCORDO
100
AcDbLine
 62
7
  6
CONTINUOUS
 10
16.2200568318
 20
-26.1508870665
 11
16.2362374058
 21
-25.1498595548
  0
LINE
  5
6E0
100
AcDbEntity
  8
RACCORDO
100
AcDbLine
 62
7
  6
CONTINUOUS
 10
16.2362374239
 20
-25.1498595593
 11
16.2737314809
 21
-23.1183655625
  0
LINE
  5
6E1
100
AcDbEntity
  8
RACCORDO
100
AcDbLine
 62
7
  6
CONTINUOUS
 10
16.1841178045
 20
-29.1608808771
 11
16.1910311228
 21
-28.8200189123
  0
LINE
  5
6E2
100
AcDbEntity
  8
RACCORDO
100
AcDbLine
 62
7
  6
CONTINUOUS
 10
16.5403771679
 20
-29.1077336828
 11
16.5473223336
 21
-28.7659997736
  0
LINE
  5
6E3
100
AcDbEntity
  8
DRAFT
100
AcDbLine
 62
7
  6
CONTINUOUS
 10
19.0860772376
 20
-15.8898281994
 11
19.1656879073
 21
-12.3110499662
  0
LINE
  5
6E4
100
AcDbEntity
  8
0
100
AcDbLine
 62
7
  6
CONTINUOUS
 10
19.3669529358
 20
-10.9336600893
 11
19.2872387689
 21
-14.515863167
  0
LINE
  5
6E5
100
AcDbEntity
  8
RACCORDO
100
AcDbLine
 62
7
  6
CONTINUOUS
 10
16.1753600724
 20
-29.500283683
 11
16.1841178045
 21
-29.1608808771
  0
LINE
  5
6E6
100
AcDbEntity
  8
RACCORDO
100
AcDbLine
 62
7
  6
CONTINUOUS
 10
16.5315826465
 20
-29.4479990537
 11
16.5403771679
 21
-29.1077336828
  0
LINE
  5
6E7
100
AcDbEntity
  8
DRAFT
100
AcDbLine
 62
7
  6
CONTINUOUS
 10
18.9746341864
 20
-19.4546986168
 11
19.0860772376
 21
-15.8898281994
  0
LINE
  5
6E8
100
AcDbEntity
  8
0
100
AcDbLine
 62
7
  6
CONTINUOUS
 10
19.2872387689
 20
-14.515863167
 11
19.175655722
 21
-18.0846181759
  0
LINE
  5
6E9
100
AcDbEntity
  8
RACCORDO
100
AcDbLine
 62
7
  6
CONTINUOUS
 10
16.164759698
 20
-29.838214706
 11
16.1753600724
 21
-29.500283683
  0
LINE
  5
6EA
100
AcDbEntity
  8
RACCORDO
100
AcDbLine
 62
7
  6
CONTINUOUS
 10
16.5209409537
 20
-29.786779747
 11
16.5315826465
 21
-29.4479990537
  0
LINE
  5
6EB
100
AcDbEntity
  8
RACCORDO
100
AcDbLine
 62
7
  6
CONTINUOUS
 10
16.1523097092
 20
-30.174641712
 11
16.164759698
 21
-29.838214706
  0
LINE
  5
6EC
100
AcDbEntity
  8
RACCORDO
100
AcDbLine
 62
7
  6
CONTINUOUS
 10
16.508456076
 20
-30.1240548901
 11
16.5209409537
 21
-29.786779747
  0
LINE
  5
6ED
100
AcDbEntity
  8
DRAFT
100
AcDbLine
 62
7
  6
CONTINUOUS
 10
18.8313550393
 20
-23.00594053
 11
18.9746341864
 21
-19.4546986168
  0
LINE
  5
6EE
100
AcDbEntity
  8
0
100
AcDbLine
 62
7
  6
CONTINUOUS
 10
19.175655722
 20
-18.0846181759
 11
19.0322103912
 21
-21.6396562107
  0
LINE
  5
6EF
100
AcDbEntity
  8
RACCORDO
100
AcDbLine
 62
7
  6
CONTINUOUS
 10
16.1380125706
 20
-30.5095521909
 11
16.1523097092
 21
-30.174641712
  0
LINE
  5
6F0
100
AcDbEntity
  8
RACCORDO
100
AcDbLine
 62
7
  6
CONTINUOUS
 10
16.4941305507
 20
-30.4598085289
 11
16.508456076
 21
-30.1240548901
  0
LINE
  5
6F1
100
AcDbEntity
  8
0
100
AcDbLine
 62
7
  6
CONTINUOUS
 10
9.4734806807
 20
-22.3221953169
 11
9.4721162752
 21
-22.3523112025
  0
LINE
  5
6F2
100
AcDbEntity
  8
RACCORDO
100
AcDbLine
 62
7
  6
CONTINUOUS
 10
16.12188029
 20
-30.8429531637
 11
16.1380125706
 21
-30.5095521909
  0
LINE
  5
6F3
100
AcDbEntity
  8
RACCORDO
100
AcDbLine
 62
7
  6
CONTINUOUS
 10
16.4779653376
 20
-30.7940295638
 11
16.4941305507
 21
-30.4598085289
  0
LINE
  5
6F4
100
AcDbEntity
  8
DRAFT
100
AcDbLine
 62
7
  6
CONTINUOUS
 10
18.6562397962
 20
-26.543553939
 11
18.8313550393
 21
-23.00594053
  0
LINE
  5
6F5
100
AcDbEntity
  8
0
100
AcDbLine
 62
7
  6
CONTINUOUS
 10
19.0322103912
 20
-21.6396562107
 11
18.8569118498
 21
-25.1807040186
  0
LINE
  5
6F6
100
AcDbEntity
  8
RACCORDO
100
AcDbLine
 62
7
  6
CONTINUOUS
 10
16.1039207463
 20
-31.1748417501
 11
16.12188029
 21
-30.8429531637
  0
LINE
  5
6F7
100
AcDbEntity
  8
RACCORDO
100
AcDbLine
 62
7
  6
CONTINUOUS
 10
16.4599623023
 20
-31.1267045353
 11
16.4779653376
 21
-30.7940295638
  0
LINE
  5
6F8
100
AcDbEntity
  8
0
100
AcDbLine
 62
7
  6
CONTINUOUS
 10
9.7226032953
 20
-22.6158934249
 11
9.7183897938
 21
-22.6771280143
  0
LINE
  5
6F9
100
AcDbEntity
  8
0
100
AcDbLine
 62
7
  6
CONTINUOUS
 10
4.2674766426
 20
-24.7413358477
 11
4.2698015526
 21
-24.7140692693
  0
LINE
  5
6FA
100
AcDbEntity
  8
0
100
AcDbLine
 62
7
  6
CONTINUOUS
 10
4.1809441516
 20
-24.8139312336
 11
4.1832713096
 21
-24.7880844485
  0
LINE
  5
6FB
100
AcDbEntity
  8
0
100
AcDbLine
 62
7
  6
CONTINUOUS
 10
8.5738770162
 20
-23.1723138318
 11
8.5775057836
 21
-23.1335267312
  0
LINE
  5
6FC
100
AcDbEntity
  8
0
100
AcDbLine
 62
7
  6
CONTINUOUS
 10
3.7246498343
 20
-24.6116232824
 11
3.7229074129
 21
-24.6283809829
  0
LINE
  5
6FD
100
AcDbEntity
  8
0
100
AcDbLine
 62
7
  6
CONTINUOUS
 10
9.4721162752
 20
-22.3523112025
 11
9.468910554
 21
-22.3798013093
  0
LINE
  5
6FE
100
AcDbEntity
  8
0
100
AcDbLine
 62
7
  6
CONTINUOUS
 10
4.2640760737
 20
-24.7670771569
 11
4.2674766426
 21
-24.7413358477
  0
LINE
  5
6FF
100
AcDbEntity
  8
0
100
AcDbLine
 62
7
  6
CONTINUOUS
 10
4.1776562608
 20
-24.8383462695
 11
4.1809441516
 21
-24.8139312336
  0
LINE
  5
700
100
AcDbEntity
  8
0
100
AcDbLine
 62
7
  6
CONTINUOUS
 10
3.7229074129
 20
-24.6283809829
 11
3.7203111041
 21
-24.6449481346
  0
LINE
  5
701
100
AcDbEntity
  8
0
100
AcDbLine
 62
7
  6
CONTINUOUS
 10
-8.5992675588
 20
-16.2349454258
 11
-8.592188217
 21
-16.1956145756
  0
LINE
  5
702
100
AcDbEntity
  8
0
100
AcDbLine
 62
7
  6
CONTINUOUS
 10
-8.592188217
 20
-16.1956145756
 11
-8.5828311621
 21
-16.1555881767
  0
LINE
  5
703
100
AcDbEntity
  8
0
100
AcDbLine
 62
7
  6
CONTINUOUS
 10
-8.9753381354
 20
20.9848622876
 11
-8.9654795449
 21
21.0237040423
  0
LINE
  5
704
100
AcDbEntity
  8
0
100
AcDbLine
 62
7
  6
CONTINUOUS
 10
-9.668421765
 20
21.0887853803
 11
-9.6496701556
 21
21.1475695014
  0
LINE
  5
705
100
AcDbEntity
  8
0
100
AcDbLine
 62
7
  6
CONTINUOUS
 10
-8.9654795449
 20
21.0237040423
 11
-8.9533054357
 21
21.0611316347
  0
LINE
  5
706
100
AcDbEntity
  8
RACCORDO
100
AcDbLine
 62
7
  6
CONTINUOUS
 10
-13.982226789
 20
32.6326310441
 11
-14.0914236037
 21
32.3230728987
  0
LINE
  5
707
100
AcDbEntity
  8
RACCORDO
100
AcDbLine
 62
7
  6
CONTINUOUS
 10
-13.9007891807
 20
32.4716563006
 11
-14.0068348303
 21
32.1772479459
  0
LINE
  5
708
100
AcDbEntity
  8
RACCORDO
100
AcDbLine
 62
7
  6
CONTINUOUS
 10
-13.861195119
 20
32.9319151843
 11
-13.982226789
 21
32.6326310441
  0
LINE
  5
709
100
AcDbEntity
  8
RACCORDO
100
AcDbLine
 62
7
  6
CONTINUOUS
 10
11.4200016598
 20
-35.9772545986
 11
11.7253042639
 21
-35.9396107534
  0
LINE
  5
70A
100
AcDbEntity
  8
RACCORDO
100
AcDbLine
 62
7
  6
CONTINUOUS
 10
11.5500725035
 20
-36.094196331
 11
11.869099327
 21
-36.0565324513
  0
LINE
  5
70B
100
AcDbEntity
  8
RACCORDO
100
AcDbLine
 62
7
  6
CONTINUOUS
 10
11.1097348125
 20
-36.0011417819
 11
11.4200016598
 21
-35.9772545986
  0
LINE
  5
70C
100
AcDbEntity
  8
RACCORDO
100
AcDbLine
 62
7
  6
CONTINUOUS
 10
11.224570302
 20
-36.117395693
 11
11.5500725035
 21
-36.094196331
  0
LINE
  5
70D
100
AcDbEntity
  8
0
100
AcDbLine
 62
7
  6
CONTINUOUS
 10
3.9006050027
 20
-25.1321932005
 11
3.9101953328
 21
-25.1318541769
  0
LINE
  5
70E
100
AcDbEntity
  8
0
100
AcDbLine
 62
7
  6
CONTINUOUS
 10
9.0987808246
 20
-22.6213125907
 11
9.0591655382
 21
-22.622302306
  0
LINE
  5
70F
100
AcDbEntity
  8
0
100
AcDbLine
 62
7
  6
CONTINUOUS
 10
9.0120393773
 20
-23.3155066324
 11
8.9507662953
 21
-23.3159470925
  0
LINE
  5
710
100
AcDbEntity
  8
0
100
AcDbLine
 62
7
  6
CONTINUOUS
 10
3.556931388
 20
-24.7974435346
 11
3.5408037056
 21
-24.7974542205
  0
LINE
  5
711
100
AcDbEntity
  8
0
100
AcDbLine
 62
7
  6
CONTINUOUS
 10
3.6402551172
 20
-24.7267494185
 11
3.6220536471
 21
-24.7265873692
  0
LINE
  5
712
100
AcDbEntity
  8
0
100
AcDbLine
 62
7
  6
CONTINUOUS
 10
9.0591655382
 20
-22.622302306
 11
9.0188743332
 21
-22.6210380475
  0
LINE
  5
713
100
AcDbEntity
  8
0
100
AcDbLine
 62
7
  6
CONTINUOUS
 10
-9.4657218526
 20
-14.8111538349
 11
-9.4214995446
 21
-14.813330643
  0
LINE
  5
714
100
AcDbEntity
  8
0
100
AcDbLine
 62
7
  6
CONTINUOUS
 10
-9.6328210912
 20
20.807098264
 11
-9.5931886258
 21
20.7951428864
  0
LINE
  5
715
100
AcDbEntity
  8
0
100
AcDbLine
 62
7
  6
CONTINUOUS
 10
-8.6074952663
 20
21.2748898083
 11
-8.5705210159
 21
21.2635298083
  0
LINE
  5
716
100
AcDbEntity
  8
0
100
AcDbLine
 62
7
  6
CONTINUOUS
 10
-8.7784727749
 20
21.5513315718
 11
-8.7209725118
 21
21.5333143332
  0
LINE
  5
717
100
AcDbEntity
  8
0
100
AcDbLine
 62
7
  6
CONTINUOUS
 10
6.7238080765
 20
15.0257185368
 11
8.6649834714
 21
14.3411814291
  0
LINE
  5
718
100
AcDbEntity
  8
0
100
AcDbLine
 62
7
  6
CONTINUOUS
 10
6.5810407701
 20
15.2900486356
 11
8.5724252084
 21
14.5875224672
  0
LINE
  5
719
100
AcDbEntity
  8
0
100
AcDbLine
 62
7
  6
CONTINUOUS
 10
8.6650057685
 20
14.341171871
 11
8.6879703394
 21
14.3328668375
  0
LINE
  5
71A
100
AcDbEntity
  8
0
100
AcDbLine
 62
7
  6
CONTINUOUS
 10
4.7387728069
 20
15.7490089784
 11
6.7238080765
 21
15.0257185368
  0
LINE
  5
71B
100
AcDbEntity
  8
0
100
AcDbLine
 62
7
  6
CONTINUOUS
 10
4.6091729007
 20
16.0090284401
 11
6.5810407701
 21
15.2900486356
  0
LINE
  5
71C
100
AcDbEntity
  8
0
100
AcDbLine
 62
7
  6
CONTINUOUS
 10
-8.7209725118
 20
21.5333143332
 11
-8.6636128032
 21
21.5118450803
  0
LINE
  5
71D
100
AcDbEntity
  8
RACCORDO
100
AcDbLine
 62
7
  6
CONTINUOUS
 10
2.3059463329
 20
32.4649405437
 11
1.3308543026
 21
32.8715305374
  0
LINE
  5
71E
100
AcDbEntity
  8
RACCORDO
100
AcDbLine
 62
7
  6
CONTINUOUS
 10
3.2833051204
 20
32.042453827
 11
2.3059463329
 21
32.4649405437
  0
LINE
  5
71F
100
AcDbEntity
  8
RACCORDO
100
AcDbLine
 62
7
  6
CONTINUOUS
 10
3.451695356
 20
32.3756937766
 11
2.4709705056
 21
32.7996912629
  0
LINE
  5
720
100
AcDbEntity
  8
RACCORDO
100
AcDbLine
 62
7
  6
CONTINUOUS
 10
4.2633853753
 20
31.6038893574
 11
3.2833051204
 21
32.042453827
  0
LINE
  5
721
100
AcDbEntity
  8
RACCORDO
100
AcDbLine
 62
7
  6
CONTINUOUS
 10
4.4347561575
 20
31.9357253842
 11
3.451695356
 21
32.3756937766
  0
LINE
  5
722
100
AcDbEntity
  8
DRAFT
100
AcDbLine
 62
7
  6
CONTINUOUS
 10
6.2643966636
 20
33.5598050222
 11
5.2887227453
 21
34.0099442658
  0
LINE
  5
723
100
AcDbEntity
  8
0
100
AcDbLine
 62
7
  6
CONTINUOUS
 10
7.5997612667
 20
33.5119796831
 11
6.6360772133
 21
33.956541776
  0
LINE
  5
724
100
AcDbEntity
  8
RACCORDO
100
AcDbLine
 62
7
  6
CONTINUOUS
 10
5.2462079748
 20
31.1492454686
 11
4.2633853753
 21
31.6038893574
  0
LINE
  5
725
100
AcDbEntity
  8
RACCORDO
100
AcDbLine
 62
7
  6
CONTINUOUS
 10
5.4197831872
 20
31.4799604164
 11
4.4347561575
 21
31.9357253842
  0
LINE
  5
726
100
AcDbEntity
  8
RACCORDO
100
AcDbLine
 62
7
  6
CONTINUOUS
 10
5.6422530104
 20
30.9609903347
 11
5.2462079748
 21
31.1492454686
  0
LINE
  5
727
100
AcDbEntity
  8
RACCORDO
100
AcDbLine
 62
7
  6
CONTINUOUS
 10
5.8179429957
 20
31.2906367068
 11
5.4197827775
 21
31.4799600538
  0
LINE
  5
728
100
AcDbEntity
  8
DRAFT
100
AcDbLine
 62
7
  6
CONTINUOUS
 10
7.2394907601
 20
33.0904697807
 11
6.2643966636
 21
33.5598050222
  0
LINE
  5
729
100
AcDbEntity
  8
0
100
AcDbLine
 62
7
  6
CONTINUOUS
 10
8.5613222862
 20
33.0491503935
 11
7.5997612667
 21
33.5119796831
  0
LINE
  5
72A
100
AcDbEntity
  8
RACCORDO
100
AcDbLine
 62
7
  6
CONTINUOUS
 10
6.0379962874
 20
30.7687740358
 11
5.6422530104
 21
30.9609903347
  0
LINE
  5
72B
100
AcDbEntity
  8
RACCORDO
100
AcDbLine
 62
7
  6
CONTINUOUS
 10
6.2157774526
 20
31.097333054
 11
5.8179429957
 21
31.2906367068
  0
LINE
  5
72C
100
AcDbEntity
  8
RACCORDO
100
AcDbLine
 62
7
  6
CONTINUOUS
 10
6.4334320227
 20
30.5725998945
 11
6.0379962874
 21
30.7687740358
  0
LINE
  5
72D
100
AcDbEntity
  8
RACCORDO
100
AcDbLine
 62
7
  6
CONTINUOUS
 10
6.6132558294
 20
30.9000720689
 11
6.2157774526
 21
31.097333054
  0
LINE
  5
72E
100
AcDbEntity
  8
DRAFT
100
AcDbLine
 62
7
  6
CONTINUOUS
 10
7.6979641906
 20
32.8620205346
 11
7.2394907601
 21
33.0904697807
  0
LINE
  5
72F
100
AcDbEntity
  8
0
100
AcDbLine
 62
7
  6
CONTINUOUS
 10
8.5613222862
 20
33.0491503935
 11
9.008761452
 21
32.826206008
  0
LINE
  5
730
100
AcDbEntity
  8
RACCORDO
100
AcDbLine
 62
7
  6
CONTINUOUS
 10
6.8285368062
 20
30.3724866796
 11
6.4334320227
 21
30.5725998945
  0
LINE
  5
731
100
AcDbEntity
  8
RACCORDO
100
AcDbLine
 62
7
  6
CONTINUOUS
 10
7.0104046564
 20
30.6988452796
 11
6.6132558294
 21
30.9000720689
  0
LINE
  5
732
100
AcDbEntity
  8
DRAFT
100
AcDbLine
 62
7
  6
CONTINUOUS
 10
8.1556164
 20
32.627648583
 11
7.6979641906
 21
32.8620205346
  0
LINE
  5
733
100
AcDbEntity
  8
0
100
AcDbLine
 62
7
  6
CONTINUOUS
 10
9.008761452
 20
32.826206008
 11
9.4551682147
 21
32.5975996795
  0
LINE
  5
734
100
AcDbEntity
  8
RACCORDO
100
AcDbLine
 62
7
  6
CONTINUOUS
 10
7.2232917834
 20
30.1684476259
 11
6.8285368062
 21
30.3724866796
  0
LINE
  5
735
100
AcDbEntity
  8
RACCORDO
100
AcDbLine
 62
7
  6
CONTINUOUS
 10
7.4072057182
 20
30.4936651843
 11
7.0104046564
 21
30.6988452796
  0
LINE
  5
736
100
AcDbEntity
  8
DRAFT
100
AcDbLine
 62
7
  6
CONTINUOUS
 10
8.6124473882
 20
32.3873539258
 11
8.1556164
 21
32.627648583
  0
LINE
  5
737
100
AcDbEntity
  8
0
100
AcDbLine
 62
7
  6
CONTINUOUS
 10
9.4551682147
 20
32.5975996795
 11
9.9004728324
 21
32.3633767119
  0
LINE
  5
738
100
AcDbEntity
  8
RACCORDO
100
AcDbLine
 62
7
  6
CONTINUOUS
 10
7.6176848936
 20
29.9604904311
 11
7.2232917834
 21
30.1684476259
  0
LINE
  5
739
100
AcDbEntity
  8
RACCORDO
100
AcDbLine
 62
7
  6
CONTINUOUS
 10
7.8036333062
 20
30.284547962
 11
7.4072057182
 21
30.4936651843
  0
LINE
  5
73A
100
AcDbEntity
  8
RACCORDO
100
AcDbLine
 62
7
  6
CONTINUOUS
 10
8.0116970161
 20
29.7486273035
 11
7.6176848936
 21
29.9604904311
  0
LINE
  5
73B
100
AcDbEntity
  8
RACCORDO
100
AcDbLine
 62
7
  6
CONTINUOUS
 10
8.1996749818
 20
30.0715012679
 11
7.8036333062
 21
30.284547962
  0
LINE
  5
73C
100
AcDbEntity
  8
DRAFT
100
AcDbLine
 62
7
  6
CONTINUOUS
 10
9.0685425418
 20
32.1410892654
 11
8.6124473882
 21
32.3873539258
  0
LINE
  5
73D
100
AcDbEntity
  8
0
100
AcDbLine
 62
7
  6
CONTINUOUS
 10
9.9004728324
 20
32.3633767119
 11
10.3446155562
 21
32.1235776138
  0
LINE
  5
73E
100
AcDbEntity
  8
RACCORDO
100
AcDbLine
 62
7
  6
CONTINUOUS
 10
8.5953180313
 20
29.8545318312
 11
8.1996749818
 21
30.0715012679
  0
LINE
  5
73F
100
AcDbEntity
  8
0
100
AcDbLine
 62
7
  6
CONTINUOUS
 10
10.3446155562
 20
32.1235776138
 11
10.7875175084
 21
31.878253743
  0
LINE
  5
740
100
AcDbEntity
  8
DRAFT
100
AcDbLine
 62
7
  6
CONTINUOUS
 10
9.5238164742
 20
31.8889018994
 11
9.0685425418
 21
32.1410892654
  0
LINE
  5
741
100
AcDbEntity
  8
DRAFT
100
AcDbLine
 62
7
  6
CONTINUOUS
 10
9.9780130261
 20
31.6309337208
 11
9.5238164742
 21
31.8889018994
  0
LINE
  5
742
100
AcDbEntity
  8
0
100
AcDbLine
 62
7
  6
CONTINUOUS
 10
10.7875175084
 20
31.878253743
 11
11.2290803906
 21
31.6274688268
  0
LINE
  5
743
100
AcDbEntity
  8
0
100
AcDbLine
 62
7
  6
CONTINUOUS
 10
11.2290803906
 20
31.6274688268
 11
11.6692254803
 21
31.3712773779
  0
LINE
  5
744
100
AcDbEntity
  8
DRAFT
100
AcDbLine
 62
7
  6
CONTINUOUS
 10
10.4310468111
 20
31.3672320273
 11
9.9780130261
 21
31.6309337208
  0
LINE
  5
745
100
AcDbEntity
  8
0
100
AcDbLine
 62
7
  6
CONTINUOUS
 10
11.6692254803
 20
31.3712773779
 11
12.1078939167
 21
31.1097231634
  0
LINE
  5
746
100
AcDbEntity
  8
DRAFT
100
AcDbLine
 62
7
  6
CONTINUOUS
 10
18.6356614522
 20
-26.9016561459
 11
18.6562397962
 21
-26.543553939
  0
LINE
  5
747
100
AcDbEntity
  8
0
100
AcDbLine
 62
7
  6
CONTINUOUS
 10
18.836086562
 20
-25.5430772729
 11
18.8569118498
 21
-25.1807040186
  0
LINE
  5
748
100
AcDbEntity
  8
DRAFT
100
AcDbLine
 62
7
  6
CONTINUOUS
 10
18.6127413778
 20
-27.2586487146
 11
18.6356614522
 21
-26.9016561459
  0
LINE
  5
749
100
AcDbEntity
  8
0
100
AcDbLine
 62
7
  6
CONTINUOUS
 10
18.8128808435
 20
-25.9044428718
 11
18.836086562
 21
-25.5430772729
  0
LINE
  5
74A
100
AcDbEntity
  8
DRAFT
100
AcDbLine
 62
7
  6
CONTINUOUS
 10
18.5874795733
 20
-27.6145316451
 11
18.6127413778
 21
-27.2586487146
  0
LINE
  5
74B
100
AcDbEntity
  8
0
100
AcDbLine
 62
7
  6
CONTINUOUS
 10
18.7872952223
 20
-26.2647871998
 11
18.8128808435
 21
-25.9044428718
  0
LINE
  5
74C
100
AcDbEntity
  8
DRAFT
100
AcDbLine
 62
7
  6
CONTINUOUS
 10
18.5598748123
 20
-27.9693194182
 11
18.5874795733
 21
-27.6145316451
  0
LINE
  5
74D
100
AcDbEntity
  8
0
100
AcDbLine
 62
7
  6
CONTINUOUS
 10
18.7593300127
 20
-26.6241001974
 11
18.7872952223
 21
-26.2647871998
  0
LINE
  5
74E
100
AcDbEntity
  8
RACCORDO
100
AcDbLine
 62
7
  6
CONTINUOUS
 10
16.0793186867
 20
-31.4766092182
 11
16.1039207463
 21
-31.1748417501
  0
LINE
  5
74F
100
AcDbEntity
  8
RACCORDO
100
AcDbLine
 62
7
  6
CONTINUOUS
 10
16.4344150656
 20
-31.4363369686
 11
16.4599629481
 21
-31.1267040649
  0
LINE
  5
750
100
AcDbEntity
  8
DRAFT
100
AcDbLine
 62
7
  6
CONTINUOUS
 10
18.5299283211
 20
-28.3229975531
 11
18.5598748123
 21
-27.9693194182
  0
LINE
  5
751
100
AcDbEntity
  8
0
100
AcDbLine
 62
7
  6
CONTINUOUS
 10
18.7289861321
 20
-26.9823647226
 11
18.7593300127
 21
-26.6241001974
  0
LINE
  5
752
100
AcDbEntity
  8
DRAFT
100
AcDbLine
 62
7
  6
CONTINUOUS
 10
18.4976437779
 20
-28.6755226071
 11
18.5299283211
 21
-28.3229975531
  0
LINE
  5
753
100
AcDbEntity
  8
0
100
AcDbLine
 62
7
  6
CONTINUOUS
 10
18.6962653348
 20
-27.3395566694
 11
18.7289861321
 21
-26.9823647226
  0
LINE
  5
754
100
AcDbEntity
  8
DRAFT
100
AcDbLine
 62
7
  6
CONTINUOUS
 10
18.463022409
 20
-29.0268800994
 11
18.4976437779
 21
-28.6755226071
  0
LINE
  5
755
100
AcDbEntity
  8
0
100
AcDbLine
 62
7
  6
CONTINUOUS
 10
18.6611690147
 20
-27.6956590994
 11
18.6962653348
 21
-27.3395566694
  0
LINE
  5
756
100
AcDbEntity
  8
DRAFT
100
AcDbLine
 62
7
  6
CONTINUOUS
 10
18.4260629882
 20
-29.3770845108
 11
18.463022409
 21
-29.0268800994
  0
LINE
  5
757
100
AcDbEntity
  8
0
100
AcDbLine
 62
7
  6
CONTINUOUS
 10
18.6236979731
 20
-28.0506621232
 11
18.6611690147
 21
-27.6956590994
  0
LINE
  5
758
100
AcDbEntity
  8
DRAFT
100
AcDbLine
 62
7
  6
CONTINUOUS
 10
18.3867655154
 20
-29.7261358414
 11
18.4260629882
 21
-29.3770845108
  0
LINE
  5
759
100
AcDbEntity
  8
0
100
AcDbLine
 62
7
  6
CONTINUOUS
 10
18.583853398
 20
-28.4045523451
 11
18.6236979731
 21
-28.0506621232
  0
LINE
  5
75A
100
AcDbEntity
  8
RACCORDO
100
AcDbLine
 62
7
  6
CONTINUOUS
 10
16.0407037518
 20
-31.7712171623
 11
16.0793186867
 21
-31.4766092182
  0
LINE
  5
75B
100
AcDbEntity
  8
RACCORDO
100
AcDbLine
 62
7
  6
CONTINUOUS
 10
16.3943760646
 20
-31.7394326582
 11
16.4344150656
 21
-31.4363369686
  0
LINE
  5
75C
100
AcDbEntity
  8
0
100
AcDbLine
 62
7
  6
CONTINUOUS
 10
8.5775057836
 20
-23.1335267312
 11
8.5830380331
 21
-23.0935744554
  0
LINE
  5
75D
100
AcDbEntity
  8
0
100
AcDbLine
 62
7
  6
CONTINUOUS
 10
9.7183897938
 20
-22.6771280143
 11
9.7099780124
 21
-22.7368952957
  0
LINE
  5
75E
100
AcDbEntity
  8
0
100
AcDbLine
 62
7
  6
CONTINUOUS
 10
8.5830380331
 20
-23.0935744554
 11
8.5904318719
 21
-23.0527595419
  0
LINE
  5
75F
100
AcDbEntity
  8
0
100
AcDbLine
 62
7
  6
CONTINUOUS
 10
4.1734167253
 20
-24.8613377936
 11
4.1776562608
 21
-24.8383462695
  0
LINE
  5
760
100
AcDbEntity
  8
0
100
AcDbLine
 62
7
  6
CONTINUOUS
 10
4.2596073502
 20
-24.7912945031
 11
4.2640760737
 21
-24.7670771569
  0
LINE
  5
761
100
AcDbEntity
  8
0
100
AcDbLine
 62
7
  6
CONTINUOUS
 10
3.7203111041
 20
-24.6449481346
 11
3.716852843
 21
-24.6609741097
  0
LINE
  5
762
100
AcDbEntity
  8
0
100
AcDbLine
 62
7
  6
CONTINUOUS
 10
-3.4127942012
 20
-21.744899019
 11
-3.6104191636
 21
-22.4781093519
  0
LINE
  5
763
100
AcDbEntity
  8
0
100
AcDbLine
 62
7
  6
CONTINUOUS
 10
-3.2511630216
 20
-21.1551950228
 11
-3.4127942012
 21
-21.744899019
  0
LINE
  5
764
100
AcDbEntity
  8
0
100
AcDbLine
 62
7
  6
CONTINUOUS
 10
-8.5828311621
 20
-16.1555881767
 11
-8.5712672511
 21
-16.1151693316
  0
LINE
  5
765
100
AcDbEntity
  8
0
100
AcDbLine
 62
7
  6
CONTINUOUS
 10
-9.6496701556
 20
21.1475695014
 11
-9.6273475832
 21
21.2032998305
  0
LINE
  5
766
100
AcDbEntity
  8
0
100
AcDbLine
 62
7
  6
CONTINUOUS
 10
-8.9533054357
 20
21.0611316347
 11
-8.9389268566
 21
21.0966841101
  0
LINE
  5
767
100
AcDbEntity
  8
RACCORDO
100
AcDbLine
 62
7
  6
CONTINUOUS
 10
-13.7838270287
 20
32.7555546816
 11
-13.9007891807
 21
32.4716563006
  0
LINE
  5
768
100
AcDbEntity
  8
RACCORDO
100
AcDbLine
 62
7
  6
CONTINUOUS
 10
-13.7284855807
 20
33.2205337131
 11
-13.861195119
 21
32.9319151843
  0
LINE
  5
769
100
AcDbEntity
  8
RACCORDO
100
AcDbLine
 62
7
  6
CONTINUOUS
 10
-13.6559179781
 20
33.0288743811
 11
-13.7838270287
 21
32.7555546816
  0
LINE
  5
76A
100
AcDbEntity
  8
RACCORDO
100
AcDbLine
 62
7
  6
CONTINUOUS
 10
11.7253042639
 20
-35.9396107534
 11
12.0235247525
 21
-35.8883950138
  0
LINE
  5
76B
100
AcDbEntity
  8
RACCORDO
100
AcDbLine
 62
7
  6
CONTINUOUS
 10
11.869099327
 20
-36.0565324513
 11
12.1811944207
 21
-36.0045415129
  0
LINE
  5
76C
100
AcDbEntity
  8
0
100
AcDbLine
 62
7
  6
CONTINUOUS
 10
9.1375549836
 20
-22.6180307148
 11
9.0987808246
 21
-22.6213125907
  0
LINE
  5
76D
100
AcDbEntity
  8
0
100
AcDbLine
 62
7
  6
CONTINUOUS
 10
9.0722721852
 20
-23.3114456096
 11
9.0120393773
 21
-23.3155066324
  0
LINE
  5
76E
100
AcDbEntity
  8
0
100
AcDbLine
 62
7
  6
CONTINUOUS
 10
3.572376672
 20
-24.7964909613
 11
3.556931388
 21
-24.7974435346
  0
LINE
  5
76F
100
AcDbEntity
  8
0
100
AcDbLine
 62
7
  6
CONTINUOUS
 10
3.658121474
 20
-24.7258580961
 11
3.6402551172
 21
-24.7267494185
  0
LINE
  5
770
100
AcDbEntity
  8
0
100
AcDbLine
 62
7
  6
CONTINUOUS
 10
-9.4214995446
 20
-14.813330643
 11
-9.3769910814
 21
-14.8131220194
  0
LINE
  5
771
100
AcDbEntity
  8
0
100
AcDbLine
 62
7
  6
CONTINUOUS
 10
-8.6424807131
 20
21.2831088357
 11
-8.6074952663
 21
21.2748898083
  0
LINE
  5
772
100
AcDbEntity
  8
0
100
AcDbLine
 62
7
  6
CONTINUOUS
 10
-9.5931886258
 20
20.7951428864
 11
-9.5519074724
 21
20.785118435
  0
LINE
  5
773
100
AcDbEntity
  8
0
100
AcDbLine
 62
7
  6
CONTINUOUS
 10
-8.836417318
 20
21.5660294491
 11
-8.7784727749
 21
21.5513315718
  0
LINE
  5
774
100
AcDbEntity
  8
RACCORDO
100
AcDbLine
 62
7
  6
CONTINUOUS
 10
-3.7278706726
 20
35.1244500723
 11
-3.9203350178
 21
35.1854978986
  0
LINE
  5
775
100
AcDbEntity
  8
RACCORDO
100
AcDbLine
 62
7
  6
CONTINUOUS
 10
-3.8734481344
 20
34.782709377
 11
-4.0648407044
 21
34.8434488619
  0
LINE
  5
776
100
AcDbEntity
  8
RACCORDO
100
AcDbLine
 62
7
  6
CONTINUOUS
 10
-3.5351438202
 20
35.06226887
 11
-3.7278706726
 21
35.1244500723
  0
LINE
  5
777
100
AcDbEntity
  8
RACCORDO
100
AcDbLine
 62
7
  6
CONTINUOUS
 10
-3.6817970097
 20
34.7208457449
 11
-3.8734481344
 21
34.782709377
  0
LINE
  5
778
100
AcDbEntity
  8
RACCORDO
100
AcDbLine
 62
7
  6
CONTINUOUS
 10
-3.4898867551
 20
34.6578580628
 11
-3.6817970097
 21
34.7208457449
  0
LINE
  5
779
100
AcDbEntity
  8
RACCORDO
100
AcDbLine
 62
7
  6
CONTINUOUS
 10
-3.3421610112
 20
34.998955255
 11
-3.5351438202
 21
35.06226887
  0
LINE
  5
77A
100
AcDbEntity
  8
RACCORDO
100
AcDbLine
 62
7
  6
CONTINUOUS
 10
-2.3838607446
 20
34.6742360604
 11
-3.3421605196
 21
34.9989556987
  0
LINE
  5
77B
100
AcDbEntity
  8
RACCORDO
100
AcDbLine
 62
7
  6
CONTINUOUS
 10
-2.5338684358
 20
34.3338192375
 11
-3.4898867551
 21
34.6578580628
  0
LINE
  5
77C
100
AcDbEntity
  8
0
100
AcDbLine
 62
7
  6
CONTINUOUS
 10
1.7978501533
 20
35.8991089724
 11
0.8288463745
 21
36.2303410008
  0
LINE
  5
77D
100
AcDbEntity
  8
DRAFT
100
AcDbLine
 62
7
  6
CONTINUOUS
 10
0.4039751136
 20
35.9717690388
 11
-0.5716988047
 21
36.3053350784
  0
LINE
  5
77E
100
AcDbEntity
  8
RACCORDO
100
AcDbLine
 62
7
  6
CONTINUOUS
 10
-1.4208453997
 20
34.33261603
 11
-2.3838607446
 21
34.6742360604
  0
LINE
  5
77F
100
AcDbEntity
  8
RACCORDO
100
AcDbLine
 62
7
  6
CONTINUOUS
 10
-1.5738795382
 20
33.9932078234
 11
-2.5338684358
 21
34.3338192375
  0
LINE
  5
780
100
AcDbEntity
  8
DRAFT
100
AcDbLine
 62
7
  6
CONTINUOUS
 10
1.3802288538
 20
35.6185412623
 11
0.4039751136
 21
35.9717690388
  0
LINE
  5
781
100
AcDbEntity
  8
0
100
AcDbLine
 62
7
  6
CONTINUOUS
 10
2.7668669832
 20
35.5485725226
 11
1.7978501533
 21
35.8991089724
  0
LINE
  5
782
100
AcDbEntity
  8
RACCORDO
100
AcDbLine
 62
7
  6
CONTINUOUS
 10
-0.6099174275
 20
33.6360161543
 11
-1.5738795382
 21
33.9932078234
  0
LINE
  5
783
100
AcDbEntity
  8
RACCORDO
100
AcDbLine
 62
7
  6
CONTINUOUS
 10
-0.4534841947
 20
33.9742181348
 11
-1.4208453997
 21
34.33261603
  0
LINE
  5
784
100
AcDbEntity
  8
0
100
AcDbLine
 62
7
  6
CONTINUOUS
 10
3.7355925385
 20
35.1788674517
 11
2.7668669832
 21
35.5485725226
  0
LINE
  5
785
100
AcDbEntity
  8
DRAFT
100
AcDbLine
 62
7
  6
CONTINUOUS
 10
2.3574489636
 20
35.2454965026
 11
1.3802288538
 21
35.6185412623
  0
LINE
  5
786
100
AcDbEntity
  8
RACCORDO
100
AcDbLine
 62
7
  6
CONTINUOUS
 10
0.517905091
 20
33.5991516176
 11
-0.4534841947
 21
33.9742181348
  0
LINE
  5
787
100
AcDbEntity
  8
RACCORDO
100
AcDbLine
 62
7
  6
CONTINUOUS
 10
0.3584654595
 20
33.2620633322
 11
-0.6099174275
 21
33.6360161543
  0
LINE
  5
788
100
AcDbEntity
  8
RACCORDO
100
AcDbLine
 62
7
  6
CONTINUOUS
 10
1.3308543026
 20
32.8715305374
 11
0.3584654595
 21
33.2620633322
  0
LINE
  5
789
100
AcDbEntity
  8
RACCORDO
100
AcDbLine
 62
7
  6
CONTINUOUS
 10
1.492899395
 20
33.207571958
 11
0.517905091
 21
33.5991516176
  0
LINE
  5
78A
100
AcDbEntity
  8
DRAFT
100
AcDbLine
 62
7
  6
CONTINUOUS
 10
3.3352488953
 20
34.8527900061
 11
2.3574489636
 21
35.2454965026
  0
LINE
  5
78B
100
AcDbEntity
  8
0
100
AcDbLine
 62
7
  6
CONTINUOUS
 10
4.703653971
 20
34.7901601926
 11
3.7355925385
 21
35.1788674517
  0
LINE
  5
78C
100
AcDbEntity
  8
RACCORDO
100
AcDbLine
 62
7
  6
CONTINUOUS
 10
2.4709705056
 20
32.7996912629
 11
1.492899395
 21
33.207571958
  0
LINE
  5
78D
100
AcDbEntity
  8
0
100
AcDbLine
 62
7
  6
CONTINUOUS
 10
5.6706071555
 20
34.382655824
 11
4.703653971
 21
34.7901601926
  0
LINE
  5
78E
100
AcDbEntity
  8
DRAFT
100
AcDbLine
 62
7
  6
CONTINUOUS
 10
4.3124690052
 20
34.4408875117
 11
3.3352488953
 21
34.8527900061
  0
LINE
  5
78F
100
AcDbEntity
  8
DRAFT
100
AcDbLine
 62
7
  6
CONTINUOUS
 10
5.2887227453
 20
34.0099442658
 11
4.3124690052
 21
34.4408875117
  0
LINE
  5
790
100
AcDbEntity
  8
0
100
AcDbLine
 62
7
  6
CONTINUOUS
 10
6.6360772133
 20
33.956541776
 11
5.6706071555
 21
34.382655824
  0
LINE
  5
791
100
AcDbEntity
  8
0
100
AcDbLine
 62
7
  6
CONTINUOUS
 10
18.579763262
 20
-28.4368241269
 11
18.583853398
 21
-28.4045523451
  0
LINE
  5
792
100
AcDbEntity
  8
DRAFT
100
AcDbLine
 62
7
  6
CONTINUOUS
 10
18.3426471288
 20
-30.0469784691
 11
18.3867655154
 21
-29.7261358414
  0
LINE
  5
793
100
AcDbEntity
  8
0
100
AcDbLine
 62
7
  6
CONTINUOUS
 10
18.5315198749
 20
-28.7819330878
 11
18.583853398
 21
-28.4045523451
  0
LINE
  5
794
100
AcDbEntity
  8
DRAFT
100
AcDbLine
 62
7
  6
CONTINUOUS
 10
18.2859863914
 20
-30.3599275448
 11
18.3426471288
 21
-30.0469784691
  0
LINE
  5
795
100
AcDbEntity
  8
RACCORDO
100
AcDbLine
 62
7
  6
CONTINUOUS
 10
15.9881118187
 20
-32.0586654665
 11
16.0407037518
 21
-31.7712171623
  0
LINE
  5
796
100
AcDbEntity
  8
RACCORDO
100
AcDbLine
 62
7
  6
CONTINUOUS
 10
16.3399681691
 20
-32.0355262122
 11
16.3943760646
 21
-31.7394326582
  0
LINE
  5
797
100
AcDbEntity
  8
0
100
AcDbLine
 62
7
  6
CONTINUOUS
 10
18.4633489656
 20
-29.1510968572
 11
18.5315198749
 21
-28.7819330878
  0
LINE
  5
798
100
AcDbEntity
  8
0
100
AcDbLine
 62
7
  6
CONTINUOUS
 10
9.468910554
 20
-22.3798013093
 11
9.4641131686
 21
-22.4044595835
  0
LINE
  5
799
100
AcDbEntity
  8
0
100
AcDbLine
 62
7
  6
CONTINUOUS
 10
9.7099780124
 20
-22.7368952957
 11
9.6973338338
 21
-22.795581799
  0
LINE
  5
79A
100
AcDbEntity
  8
0
100
AcDbLine
 62
7
  6
CONTINUOUS
 10
8.5904318719
 20
-23.0527595419
 11
8.5996313103
 21
-23.0113910606
  0
LINE
  5
79B
100
AcDbEntity
  8
0
100
AcDbLine
 62
7
  6
CONTINUOUS
 10
4.1682156843
 20
-24.8828984496
 11
4.1734167253
 21
-24.8613377936
  0
LINE
  5
79C
100
AcDbEntity
  8
0
100
AcDbLine
 62
7
  6
CONTINUOUS
 10
4.2540621312
 20
-24.8139875482
 11
4.2596073502
 21
-24.7912945031
  0
LINE
  5
79D
100
AcDbEntity
  8
0
100
AcDbLine
 62
7
  6
CONTINUOUS
 10
8.5996313103
 20
-23.0113910606
 11
8.6105666859
 21
-22.9697822731
  0
LINE
  5
79E
100
AcDbEntity
  8
0
100
AcDbLine
 62
7
  6
CONTINUOUS
 10
1.3880390628
 20
-24.3261700591
 11
1.5312893653
 21
-23.7953888955
  0
LINE
  5
79F
100
AcDbEntity
  8
0
100
AcDbLine
 62
7
  6
CONTINUOUS
 10
1.3017185631
 20
-24.3968796729
 11
1.4964151031
 21
-23.6772757153
  0
LINE
  5
7A0
100
AcDbEntity
  8
0
100
AcDbLine
 62
7
  6
CONTINUOUS
 10
1.2038987513
 20
-25.0083205
 11
1.2835217262
 21
-24.7194436827
  0
LINE
  5
7A1
100
AcDbEntity
  8
0
100
AcDbLine
 62
7
  6
CONTINUOUS
 10
1.1175321487
 20
-25.0790678791
 11
1.223303446
 21
-24.695844644
  0
LINE
  5
7A2
100
AcDbEntity
  8
0
100
AcDbLine
 62
7
  6
CONTINUOUS
 10
3.716852843
 20
-24.6609741097
 11
3.7124999697
 21
-24.6764540713
  0
LINE
  5
7A3
100
AcDbEntity
  8
0
100
AcDbLine
 62
7
  6
CONTINUOUS
 10
4.1623253704
 20
-24.9031820038
 11
4.1682156843
 21
-24.8828984496
  0
LINE
  5
7A4
100
AcDbEntity
  8
0
100
AcDbLine
 62
7
  6
CONTINUOUS
 10
0.9034504381
 20
-24.0476268447
 11
0.6413220905
 21
-24.8910893217
  0
LINE
  5
7A5
100
AcDbEntity
  8
0
100
AcDbLine
 62
7
  6
CONTINUOUS
 10
-3.2940076711
 20
-23.1677457409
 11
-3.0979606831
 21
-22.54292443
  0
LINE
  5
7A6
100
AcDbEntity
  8
0
100
AcDbLine
 62
7
  6
CONTINUOUS
 10
-3.3804030437
 20
-23.238516687
 11
-3.1843059133
 21
-22.6136538933
  0
LINE
  5
7A7
100
AcDbEntity
  8
0
100
AcDbLine
 62
7
  6
CONTINUOUS
 10
-3.1843059133
 20
-22.6136538933
 11
-2.9843834582
 21
-21.9853985068
  0
LINE
  5
7A8
100
AcDbEntity
  8
0
100
AcDbLine
 62
7
  6
CONTINUOUS
 10
-3.0979606831
 20
-22.54292443
 11
-2.8980843583
 21
-21.9147066791
  0
LINE
  5
7A9
100
AcDbEntity
  8
0
100
AcDbLine
 62
7
  6
CONTINUOUS
 10
-2.9843834582
 20
-21.9853985068
 11
-2.7806443067
 21
-21.3537776557
  0
LINE
  5
7AA
100
AcDbEntity
  8
0
100
AcDbLine
 62
7
  6
CONTINUOUS
 10
-2.8980843583
 20
-21.9147066791
 11
-2.6943875234
 21
-21.2831202352
  0
LINE
  5
7AB
100
AcDbEntity
  8
0
100
AcDbLine
 62
7
  6
CONTINUOUS
 10
-8.5712672511
 20
-16.1151693316
 11
-8.5575840524
 21
-16.0746641148
  0
LINE
  5
7AC
100
AcDbEntity
  8
0
100
AcDbLine
 62
7
  6
CONTINUOUS
 10
-8.5575840524
 20
-16.0746641148
 11
-8.5418851831
 21
-16.0343792547
  0
LINE
  5
7AD
100
AcDbEntity
  8
0
100
AcDbLine
 62
7
  6
CONTINUOUS
 10
-8.9389268566
 20
21.0966841101
 11
-8.9223885407
 21
21.13023086
  0
LINE
  5
7AE
100
AcDbEntity
  8
0
100
AcDbLine
 62
7
  6
CONTINUOUS
 10
-9.6273475832
 20
21.2032998305
 11
-9.6012799709
 21
21.2558691968
  0
LINE
  5
7AF
100
AcDbEntity
  8
RACCORDO
100
AcDbLine
 62
7
  6
CONTINUOUS
 10
-13.5842984446
 20
33.4980933618
 11
-13.7284855807
 21
33.2205337131
  0
LINE
  5
7B0
100
AcDbEntity
  8
RACCORDO
100
AcDbLine
 62
7
  6
CONTINUOUS
 10
-13.5170685515
 20
33.2917562188
 11
-13.6559179781
 21
33.0288743811
  0
LINE
  5
7B1
100
AcDbEntity
  8
RACCORDO
100
AcDbLine
 62
7
  6
CONTINUOUS
 10
-13.4288436543
 20
33.7642043544
 11
-13.5842984446
 21
33.4980933618
  0
LINE
  5
7B2
100
AcDbEntity
  8
RACCORDO
100
AcDbLine
 62
7
  6
CONTINUOUS
 10
-13.3678616445
 20
33.543186196
 11
-13.5170685515
 21
33.2917562188
  0
LINE
  5
7B3
100
AcDbEntity
  8
RACCORDO
100
AcDbLine
 62
7
  6
CONTINUOUS
 10
12.0235247525
 20
-35.8883950138
 11
12.3144073344
 21
-35.8235474498
  0
LINE
  5
7B4
100
AcDbEntity
  8
RACCORDO
100
AcDbLine
 62
7
  6
CONTINUOUS
 10
12.1811944207
 20
-36.0045415129
 11
12.4858841377
 21
-35.9383695196
  0
LINE
  5
7B5
100
AcDbEntity
  8
0
100
AcDbLine
 62
7
  6
CONTINUOUS
 10
3.9101953328
 20
-25.1318541769
 11
3.9196233823
 21
-25.1303163538
  0
LINE
  5
7B6
100
AcDbEntity
  8
0
100
AcDbLine
 62
7
  6
CONTINUOUS
 10
9.175018084
 20
-22.6125110151
 11
9.1375549836
 21
-22.6180307148
  0
LINE
  5
7B7
100
AcDbEntity
  8
0
100
AcDbLine
 62
7
  6
CONTINUOUS
 10
3.6752160996
 20
-24.7235921346
 11
3.658121474
 21
-24.7258580961
  0
LINE
  5
7B8
100
AcDbEntity
  8
0
100
AcDbLine
 62
7
  6
CONTINUOUS
 10
9.1303726065
 20
-23.3038630362
 11
9.0722721852
 21
-23.3114456096
  0
LINE
  5
7B9
100
AcDbEntity
  8
0
100
AcDbLine
 62
7
  6
CONTINUOUS
 10
3.587099269
 20
-24.7946018423
 11
3.572376672
 21
-24.7964909613
  0
LINE
  5
7BA
100
AcDbEntity
  8
0
100
AcDbLine
 62
7
  6
CONTINUOUS
 10
-9.3769910814
 20
-14.8131220194
 11
-9.3325496695
 21
-14.8105296197
  0
LINE
  5
7BB
100
AcDbEntity
  8
0
100
AcDbLine
 62
7
  6
CONTINUOUS
 10
-8.9518120887
 20
21.5846767341
 11
-8.894501207
 21
21.5772765978
  0
LINE
  5
7BC
100
AcDbEntity
  8
0
100
AcDbLine
 62
7
  6
CONTINUOUS
 10
-9.5093052312
 20
20.7771044621
 11
-9.4657199865
 21
20.7711645654
  0
LINE
  5
7BD
100
AcDbEntity
  8
0
100
AcDbLine
 62
7
  6
CONTINUOUS
 10
-8.6744911111
 20
21.2881970527
 11
-8.6424807131
 21
21.2831088357
  0
LINE
  5
7BE
100
AcDbEntity
  8
0
100
AcDbLine
 62
7
  6
CONTINUOUS
 10
-9.5519074724
 20
20.785118435
 11
-9.5093052312
 21
20.7771044621
  0
LINE
  5
7BF
100
AcDbEntity
  8
0
100
AcDbLine
 62
7
  6
CONTINUOUS
 10
-8.894501207
 20
21.5772765978
 11
-8.836417318
 21
21.5660294491
  0
LINE
  5
7C0
100
AcDbEntity
  8
RACCORDO
100
AcDbLine
 62
7
  6
CONTINUOUS
 10
-6.9036933186
 20
35.6195744174
 11
-7.0907162273
 21
35.6623019698
  0
LINE
  5
7C1
100
AcDbEntity
  8
RACCORDO
100
AcDbLine
 62
7
  6
CONTINUOUS
 10
-6.5863744479
 20
35.9212740256
 11
-6.7747210946
 21
35.9653334527
  0
LINE
  5
7C2
100
AcDbEntity
  8
RACCORDO
100
AcDbLine
 62
7
  6
CONTINUOUS
 10
-6.7163791817
 20
35.5757166293
 11
-6.9036933186
 21
35.6195744174
  0
LINE
  5
7C3
100
AcDbEntity
  8
RACCORDO
100
AcDbLine
 62
7
  6
CONTINUOUS
 10
-6.3977454059
 20
35.8760803979
 11
-6.5863744479
 21
35.9212740256
  0
LINE
  5
7C4
100
AcDbEntity
  8
RACCORDO
100
AcDbLine
 62
7
  6
CONTINUOUS
 10
-6.5287760659
 20
35.5307293775
 11
-6.7163791817
 21
35.5757166293
  0
LINE
  5
7C5
100
AcDbEntity
  8
RACCORDO
100
AcDbLine
 62
7
  6
CONTINUOUS
 10
-6.2088269264
 20
35.8297514243
 11
-6.3977454059
 21
35.8760803979
  0
LINE
  5
7C6
100
AcDbEntity
  8
RACCORDO
100
AcDbLine
 62
7
  6
CONTINUOUS
 10
-6.3408911909
 20
35.4846149511
 11
-6.5287760659
 21
35.5307293775
  0
LINE
  5
7C7
100
AcDbEntity
  8
0
100
AcDbLine
 62
7
  6
CONTINUOUS
 10
-1.9712858835
 20
37.0624184319
 11
-2.4279894444
 21
37.1762144762
  0
LINE
  5
7C8
100
AcDbEntity
  8
DRAFT
100
AcDbLine
 62
7
  6
CONTINUOUS
 10
-3.3758446828
 20
37.1390357269
 11
-3.8311186153
 21
37.2525449113
  0
LINE
  5
7C9
100
AcDbEntity
  8
RACCORDO
100
AcDbLine
 62
7
  6
CONTINUOUS
 10
-6.0196255269
 20
35.7822886476
 11
-6.2088269264
 21
35.8297514243
  0
LINE
  5
7CA
100
AcDbEntity
  8
RACCORDO
100
AcDbLine
 62
7
  6
CONTINUOUS
 10
-6.1527244441
 20
35.4373736008
 11
-6.3408911909
 21
35.4846149511
  0
LINE
  5
7CB
100
AcDbEntity
  8
RACCORDO
100
AcDbLine
 62
7
  6
CONTINUOUS
 10
-5.8301478168
 20
35.7336937073
 11
-6.0196255269
 21
35.7822886476
  0
LINE
  5
7CC
100
AcDbEntity
  8
RACCORDO
100
AcDbLine
 62
7
  6
CONTINUOUS
 10
-5.9642753733
 20
35.3890051019
 11
-6.1527244441
 21
35.4373736008
  0
LINE
  5
7CD
100
AcDbEntity
  8
RACCORDO
100
AcDbLine
 62
7
  6
CONTINUOUS
 10
-5.6403868141
 20
35.6839651551
 11
-5.8301478168
 21
35.7336937073
  0
LINE
  5
7CE
100
AcDbEntity
  8
RACCORDO
100
AcDbLine
 62
7
  6
CONTINUOUS
 10
-5.7755506963
 20
35.3395110063
 11
-5.9642753733
 21
35.3890051019
  0
LINE
  5
7CF
100
AcDbEntity
  8
DRAFT
100
AcDbLine
 62
7
  6
CONTINUOUS
 10
-2.9197495293
 20
37.0189441951
 11
-3.3758446828
 21
37.1390357269
  0
LINE
  5
7D0
100
AcDbEntity
  8
0
100
AcDbLine
 62
7
  6
CONTINUOUS
 10
-1.5140369562
 20
36.942086363
 11
-1.9712858835
 21
37.0624184319
  0
LINE
  5
7D1
100
AcDbEntity
  8
RACCORDO
100
AcDbLine
 62
7
  6
CONTINUOUS
 10
-5.4503490873
 20
35.6331044212
 11
-5.6403868141
 21
35.6839651551
  0
LINE
  5
7D2
100
AcDbEntity
  8
RACCORDO
100
AcDbLine
 62
7
  6
CONTINUOUS
 10
-5.5865500738
 20
35.2888915458
 11
-5.7755506963
 21
35.3395110063
  0
LINE
  5
7D3
100
AcDbEntity
  8
RACCORDO
100
AcDbLine
 62
7
  6
CONTINUOUS
 10
-5.2600411537
 20
35.5811129968
 11
-5.4503490873
 21
35.6331044212
  0
LINE
  5
7D4
100
AcDbEntity
  8
RACCORDO
100
AcDbLine
 62
7
  6
CONTINUOUS
 10
-5.3972731497
 20
35.2371465464
 11
-5.5865500738
 21
35.2888915458
  0
LINE
  5
7D5
100
AcDbEntity
  8
0
100
AcDbLine
 62
7
  6
CONTINUOUS
 10
-1.0563360766
 20
36.815246969
 11
-1.5140369562
 21
36.942086363
  0
LINE
  5
7D6
100
AcDbEntity
  8
DRAFT
100
AcDbLine
 62
7
  6
CONTINUOUS
 10
-2.462918541
 20
36.8922916045
 11
-2.9197495293
 21
37.0189441951
  0
LINE
  5
7D7
100
AcDbEntity
  8
RACCORDO
100
AcDbLine
 62
7
  6
CONTINUOUS
 10
-5.0694558909
 20
35.527989082
 11
-5.2600411537
 21
35.5811129968
  0
LINE
  5
7D8
100
AcDbEntity
  8
RACCORDO
100
AcDbLine
 62
7
  6
CONTINUOUS
 10
-5.207726622
 20
35.1842769276
 11
-5.3972731497
 21
35.2371465464
  0
LINE
  5
7D9
100
AcDbEntity
  8
RACCORDO
100
AcDbLine
 62
7
  6
CONTINUOUS
 10
-4.8785998452
 20
35.4737339744
 11
-5.0694558909
 21
35.527989082
  0
LINE
  5
7DA
100
AcDbEntity
  8
RACCORDO
100
AcDbLine
 62
7
  6
CONTINUOUS
 10
-5.01791007
 20
35.1302829332
 11
-5.207726622
 21
35.1842769276
  0
LINE
  5
7DB
100
AcDbEntity
  8
RACCORDO
100
AcDbLine
 62
7
  6
CONTINUOUS
 10
-4.6874795353
 20
35.4183490395
 11
-4.8785998452
 21
35.4737339744
  0
LINE
  5
7DC
100
AcDbEntity
  8
RACCORDO
100
AcDbLine
 62
7
  6
CONTINUOUS
 10
-4.8278230916
 20
35.0751644097
 11
-5.01791007
 21
35.1302829332
  0
LINE
  5
7DD
100
AcDbEntity
  8
DRAFT
100
AcDbLine
 62
7
  6
CONTINUOUS
 10
-2.0052663317
 20
36.7590566665
 11
-2.462918541
 21
36.8922916045
  0
LINE
  5
7DE
100
AcDbEntity
  8
0
100
AcDbLine
 62
7
  6
CONTINUOUS
 10
-0.5982344772
 20
36.6819182199
 11
-1.0563360766
 21
36.815246969
  0
LINE
  5
7DF
100
AcDbEntity
  8
RACCORDO
100
AcDbLine
 62
7
  6
CONTINUOUS
 10
-4.4960877442
 20
35.3618321376
 11
-4.6874795353
 21
35.4183490395
  0
LINE
  5
7E0
100
AcDbEntity
  8
RACCORDO
100
AcDbLine
 62
7
  6
CONTINUOUS
 10
-4.6374724184
 20
35.0189216576
 11
-4.8278230916
 21
35.0751644097
  0
LINE
  5
7E1
100
AcDbEntity
  8
RACCORDO
100
AcDbLine
 62
7
  6
CONTINUOUS
 10
-4.304434293
 20
35.3041854273
 11
-4.4960877442
 21
35.3618321376
  0
LINE
  5
7E2
100
AcDbEntity
  8
RACCORDO
100
AcDbLine
 62
7
  6
CONTINUOUS
 10
-4.44685744
 20
34.9615548948
 11
-4.6374724184
 21
35.0189216576
  0
LINE
  5
7E3
100
AcDbEntity
  8
DRAFT
100
AcDbLine
 62
7
  6
CONTINUOUS
 10
-1.5467929012
 20
36.6192393812
 11
-2.0052663317
 21
36.7590566665
  0
LINE
  5
7E4
100
AcDbEntity
  8
0
100
AcDbLine
 62
7
  6
CONTINUOUS
 10
-0.1398043053
 20
36.5421240938
 11
-0.5982344772
 21
36.6819182199
  0
LINE
  5
7E5
100
AcDbEntity
  8
RACCORDO
100
AcDbLine
 62
7
  6
CONTINUOUS
 10
-4.1125224303
 20
35.2454092011
 11
-4.304434293
 21
35.3041854273
  0
LINE
  5
7E6
100
AcDbEntity
  8
RACCORDO
100
AcDbLine
 62
7
  6
CONTINUOUS
 10
-4.2559778191
 20
34.903064027
 11
-4.44685744
 21
34.9615548948
  0
LINE
  5
7E7
100
AcDbEntity
  8
RACCORDO
100
AcDbLine
 62
7
  6
CONTINUOUS
 10
-4.0648407044
 20
34.8434488619
 11
-4.2559778191
 21
34.903064027
  0
LINE
  5
7E8
100
AcDbEntity
  8
RACCORDO
100
AcDbLine
 62
7
  6
CONTINUOUS
 10
-3.9203350178
 20
35.1854978986
 11
-4.1125224303
 21
35.2454092011
  0
LINE
  5
7E9
100
AcDbEntity
  8
0
100
AcDbLine
 62
7
  6
CONTINUOUS
 10
0.8288463745
 20
36.2303410008
 11
-0.1398043053
 21
36.5421240938
  0
LINE
  5
7EA
100
AcDbEntity
  8
DRAFT
100
AcDbLine
 62
7
  6
CONTINUOUS
 10
-0.5716988047
 20
36.3053350784
 11
-1.5467929012
 21
36.6192393812
  0
LINE
  5
7EB
100
AcDbEntity
  8
DRAFT
100
AcDbLine
 62
7
  6
CONTINUOUS
 10
18.2167833032
 20
-30.6649830684
 11
18.2859863914
 21
-30.3599275448
  0
LINE
  5
7EC
100
AcDbEntity
  8
0
100
AcDbLine
 62
7
  6
CONTINUOUS
 10
18.4386908184
 20
-29.2574310709
 11
18.4633489656
 21
-29.1510968572
  0
LINE
  5
7ED
100
AcDbEntity
  8
RACCORDO
100
AcDbLine
 62
7
  6
CONTINUOUS
 10
15.9214457967
 20
-32.3393702578
 11
15.9881118187
 21
-32.0586654665
  0
LINE
  5
7EE
100
AcDbEntity
  8
RACCORDO
100
AcDbLine
 62
7
  6
CONTINUOUS
 10
16.271323903
 20
-32.3241716183
 11
16.3399681691
 21
-32.0355262122
  0
LINE
  5
7EF
100
AcDbEntity
  8
0
100
AcDbLine
 62
7
  6
CONTINUOUS
 10
9.4641131686
 20
-22.4044595835
 11
9.4580372629
 21
-22.4260797969
  0
LINE
  5
7F0
100
AcDbEntity
  8
0
100
AcDbLine
 62
7
  6
CONTINUOUS
 10
9.6973338338
 20
-22.795581799
 11
9.6804960627
 21
-22.8527981956
  0
LINE
  5
7F1
100
AcDbEntity
  8
0
100
AcDbLine
 62
7
  6
CONTINUOUS
 10
4.2477368917
 20
-24.8353115169
 11
4.2540621312
 21
-24.8139875482
  0
LINE
  5
7F2
100
AcDbEntity
  8
0
100
AcDbLine
 62
7
  6
CONTINUOUS
 10
8.6105666859
 20
-22.9697822731
 11
8.6231551909
 21
-22.9282482609
  0
LINE
  5
7F3
100
AcDbEntity
  8
0
100
AcDbLine
 62
7
  6
CONTINUOUS
 10
1.1723068442
 20
-23.1982565781
 11
0.9034504381
 21
-24.0476268447
  0
LINE
  5
7F4
100
AcDbEntity
  8
0
100
AcDbLine
 62
7
  6
CONTINUOUS
 10
1.2405705064
 20
-22.984996321
 11
1.1723068442
 21
-23.1982565781
  0
LINE
  5
7F5
100
AcDbEntity
  8
0
100
AcDbLine
 62
7
  6
CONTINUOUS
 10
4.1557658606
 20
-24.9221742324
 11
4.1623253704
 21
-24.9031820038
  0
LINE
  5
7F6
100
AcDbEntity
  8
0
100
AcDbLine
 62
7
  6
CONTINUOUS
 10
3.7124999697
 20
-24.6764540713
 11
3.7072851966
 21
-24.6913928945
  0
LINE
  5
7F7
100
AcDbEntity
  8
0
100
AcDbLine
 62
7
  6
CONTINUOUS
 10
4.2406449368
 20
-24.8552619481
 11
4.2477368917
 21
-24.8353115169
  0
LINE
  5
7F8
100
AcDbEntity
  8
0
100
AcDbLine
 62
7
  6
CONTINUOUS
 10
-8.5418851831
 20
-16.0343792547
 11
-8.5242895238
 21
-15.9946198111
  0
LINE
  5
7F9
100
AcDbEntity
  8
0
100
AcDbLine
 62
7
  6
CONTINUOUS
 10
-8.9223885407
 20
21.13023086
 11
-8.9037282609
 21
21.1616427798
  0
LINE
  5
7FA
100
AcDbEntity
  8
0
100
AcDbLine
 62
7
  6
CONTINUOUS
 10
-9.6012799709
 20
21.2558691968
 11
-9.5716352115
 21
21.3053903092
  0
LINE
  5
7FB
100
AcDbEntity
  8
RACCORDO
100
AcDbLine
 62
7
  6
CONTINUOUS
 10
-13.2623269488
 20
34.0185090158
 11
-13.4288436543
 21
33.7642043544
  0
LINE
  5
7FC
100
AcDbEntity
  8
RACCORDO
100
AcDbLine
 62
7
  6
CONTINUOUS
 10
-13.2082678968
 20
33.7831430567
 11
-13.3678616445
 21
33.543186196
  0
LINE
  5
7FD
100
AcDbEntity
  8
RACCORDO
100
AcDbLine
 62
7
  6
CONTINUOUS
 10
12.3144073344
 20
-35.8235474498
 11
12.5981356166
 21
-35.7452042394
  0
LINE
  5
7FE
100
AcDbEntity
  8
RACCORDO
100
AcDbLine
 62
7
  6
CONTINUOUS
 10
12.4858841377
 20
-35.9383695196
 11
12.7826796031
 21
-35.8582089115
  0
LINE
  5
7FF
100
AcDbEntity
  8
0
100
AcDbLine
 62
7
  6
CONTINUOUS
 10
3.6915037682
 20
-24.7198648811
 11
3.6752160996
 21
-24.7235921346
  0
LINE
  5
800
100
AcDbEntity
  8
0
100
AcDbLine
 62
7
  6
CONTINUOUS
 10
9.2109640912
 20
-22.6048333729
 11
9.175018084
 21
-22.6125110151
  0
LINE
  5
801
100
AcDbEntity
  8
0
100
AcDbLine
 62
7
  6
CONTINUOUS
 10
3.6011393413
 20
-24.7917709545
 11
3.587099269
 21
-24.7946018423
  0
LINE
  5
802
100
AcDbEntity
  8
0
100
AcDbLine
 62
7
  6
CONTINUOUS
 10
9.1859758822
 20
-23.2927926041
 11
9.1303726065
 21
-23.3038630362
  0
LINE
  5
803
100
AcDbEntity
  8
0
100
AcDbLine
 62
7
  6
CONTINUOUS
 10
-9.2885279836
 20
-14.8055740165
 11
-9.2452753675
 21
-14.7982945361
  0
LINE
  5
804
100
AcDbEntity
  8
0
100
AcDbLine
 62
7
  6
CONTINUOUS
 10
-9.3325496695
 20
-14.8105296197
 11
-9.2885279836
 21
-14.8055740165
  0
LINE
  5
805
100
AcDbEntity
  8
0
100
AcDbLine
 62
7
  6
CONTINUOUS
 10
-9.0083835869
 20
21.5880846487
 11
-8.9518120887
 21
21.5846767341
  0
LINE
  5
806
100
AcDbEntity
  8
0
100
AcDbLine
 62
7
  6
CONTINUOUS
 10
-8.7030047645
 20
21.2904530684
 11
-8.6744911111
 21
21.2881970527
  0
LINE
  5
807
100
AcDbEntity
  8
0
100
AcDbLine
 62
7
  6
CONTINUOUS
 10
-9.4657199865
 20
20.7711645654
 11
-9.4214976237
 21
20.7673458828
  0
LINE
  5
808
100
AcDbEntity
  8
RACCORDO
100
AcDbLine
 62
7
  6
CONTINUOUS
 10
-7.672672522
 20
36.1544673912
 11
-7.7559480877
 21
36.1679465504
  0
LINE
  5
809
100
AcDbEntity
  8
RACCORDO
100
AcDbLine
 62
7
  6
CONTINUOUS
 10
-7.7897414804
 20
35.8067142345
 11
-7.8708447209
 21
35.8198981742
  0
LINE
  5
80A
100
AcDbEntity
  8
RACCORDO
100
AcDbLine
 62
7
  6
CONTINUOUS
 10
-7.5892350543
 20
36.1400015374
 11
-7.672672522
 21
36.1544673912
  0
LINE
  5
80B
100
AcDbEntity
  8
RACCORDO
100
AcDbLine
 62
7
  6
CONTINUOUS
 10
-7.7084941422
 20
35.7925690844
 11
-7.7897414804
 21
35.8067142345
  0
LINE
  5
80C
100
AcDbEntity
  8
RACCORDO
100
AcDbLine
 62
7
  6
CONTINUOUS
 10
-7.5056368931
 20
36.1245489772
 11
-7.5892350543
 21
36.1400015374
  0
LINE
  5
80D
100
AcDbEntity
  8
RACCORDO
100
AcDbLine
 62
7
  6
CONTINUOUS
 10
-7.627106252
 20
35.7774635273
 11
-7.7084941422
 21
35.7925690844
  0
LINE
  5
80E
100
AcDbEntity
  8
DRAFT
100
AcDbLine
 62
7
  6
CONTINUOUS
 10
-5.1903053566
 20
37.553152608
 11
-5.6411843805
 21
37.6400556509
  0
LINE
  5
80F
100
AcDbEntity
  8
0
100
AcDbLine
 62
7
  6
CONTINUOUS
 10
-3.7936904562
 20
37.4780867644
 11
-4.2472220715
 21
37.5654815138
  0
LINE
  5
810
100
AcDbEntity
  8
RACCORDO
100
AcDbLine
 62
7
  6
CONTINUOUS
 10
-7.4218937838
 20
36.1081119166
 11
-7.5056368931
 21
36.1245489772
  0
LINE
  5
811
100
AcDbEntity
  8
RACCORDO
100
AcDbLine
 62
7
  6
CONTINUOUS
 10
-7.5455738218
 20
35.7613967311
 11
-7.627106252
 21
35.7774635273
  0
LINE
  5
812
100
AcDbEntity
  8
0
100
AcDbLine
 62
7
  6
CONTINUOUS
 10
-3.3392634123
 20
37.3840665794
 11
-3.7936904562
 21
37.4780867644
  0
LINE
  5
813
100
AcDbEntity
  8
DRAFT
100
AcDbLine
 62
7
  6
CONTINUOUS
 10
-4.7383489522
 20
37.4596033519
 11
-5.1903053566
 21
37.553152608
  0
LINE
  5
814
100
AcDbEntity
  8
RACCORDO
100
AcDbLine
 62
7
  6
CONTINUOUS
 10
-7.338014257
 20
36.0906916732
 11
-7.4218937838
 21
36.1081119166
  0
LINE
  5
815
100
AcDbEntity
  8
RACCORDO
100
AcDbLine
 62
7
  6
CONTINUOUS
 10
-7.4638966045
 20
35.7443686931
 11
-7.5455738218
 21
35.7613967311
  0
LINE
  5
816
100
AcDbEntity
  8
RACCORDO
100
AcDbLine
 62
7
  6
CONTINUOUS
 10
-7.1505498624
 20
36.0500444234
 11
-7.3380142612
 21
36.0906916693
  0
LINE
  5
817
100
AcDbEntity
  8
RACCORDO
100
AcDbLine
 62
7
  6
CONTINUOUS
 10
-7.2774505988
 20
35.7039000556
 11
-7.4638966045
 21
35.7443686931
  0
LINE
  5
818
100
AcDbEntity
  8
DRAFT
100
AcDbLine
 62
7
  6
CONTINUOUS
 10
-4.2853151672
 20
37.3594078825
 11
-4.7383489522
 21
37.4596033519
  0
LINE
  5
819
100
AcDbEntity
  8
0
100
AcDbLine
 62
7
  6
CONTINUOUS
 10
-2.8840127824
 20
37.2834381985
 11
-3.3392634123
 21
37.3840665794
  0
LINE
  5
81A
100
AcDbEntity
  8
RACCORDO
100
AcDbLine
 62
7
  6
CONTINUOUS
 10
-6.9627832767
 20
36.008257795
 11
-7.1505498624
 21
36.0500444234
  0
LINE
  5
81B
100
AcDbEntity
  8
RACCORDO
100
AcDbLine
 62
7
  6
CONTINUOUS
 10
-7.0907162273
 20
35.6623019698
 11
-7.2774505988
 21
35.7039000556
  0
LINE
  5
81C
100
AcDbEntity
  8
RACCORDO
100
AcDbLine
 62
7
  6
CONTINUOUS
 10
-6.7747210946
 20
35.9653334527
 11
-6.9627832767
 21
36.008257795
  0
LINE
  5
81D
100
AcDbEntity
  8
0
100
AcDbLine
 62
7
  6
CONTINUOUS
 10
-2.4279894444
 20
37.1762144762
 11
-2.8840127824
 21
37.2834381985
  0
LINE
  5
81E
100
AcDbEntity
  8
DRAFT
100
AcDbLine
 62
7
  6
CONTINUOUS
 10
-3.8311186153
 20
37.2525449113
 11
-4.2853151672
 21
37.3594078825
  0
LINE
  5
81F
100
AcDbEntity
  8
DRAFT
100
AcDbLine
 62
7
  6
CONTINUOUS
 10
18.1349032608
 20
-30.9625579942
 11
18.2167833032
 21
-30.6649830684
  0
LINE
  5
820
100
AcDbEntity
  8
RACCORDO
100
AcDbLine
 62
7
  6
CONTINUOUS
 10
15.8408938031
 20
-32.6128954321
 11
15.9214457967
 21
-32.3393702578
  0
LINE
  5
821
100
AcDbEntity
  8
RACCORDO
100
AcDbLine
 62
7
  6
CONTINUOUS
 10
16.1886148071
 20
-32.6049297581
 11
16.271323903
 21
-32.3241716183
  0
LINE
  5
822
100
AcDbEntity
  8
DRAFT
100
AcDbLine
 62
7
  6
CONTINUOUS
 10
18.0404808675
 20
-31.252239368
 11
18.1349032608
 21
-30.9625579942
  0
LINE
  5
823
100
AcDbEntity
  8
0
100
AcDbLine
 62
7
  6
CONTINUOUS
 10
8.6231551909
 20
-22.9282482609
 11
8.637301499
 21
-22.8871035391
  0
LINE
  5
824
100
AcDbEntity
  8
0
100
AcDbLine
 62
7
  6
CONTINUOUS
 10
9.4580372629
 20
-22.4260797969
 11
9.4510997752
 21
-22.4444830165
  0
LINE
  5
825
100
AcDbEntity
  8
0
100
AcDbLine
 62
7
  6
CONTINUOUS
 10
9.6804960627
 20
-22.8527981956
 11
9.6595758417
 21
-22.9073797856
  0
LINE
  5
826
100
AcDbEntity
  8
0
100
AcDbLine
 62
7
  6
CONTINUOUS
 10
8.637301499
 20
-22.8871035391
 11
8.6528984878
 21
-22.846659675
  0
LINE
  5
827
100
AcDbEntity
  8
0
100
AcDbLine
 62
7
  6
CONTINUOUS
 10
-0.3408186802
 20
-22.6235746305
 11
-0.6606816463
 21
-23.4213451228
  0
LINE
  5
828
100
AcDbEntity
  8
0
100
AcDbLine
 62
7
  6
CONTINUOUS
 10
-0.5706236372
 20
-24.4054531422
 11
-0.3035818063
 21
-23.7443407661
  0
LINE
  5
829
100
AcDbEntity
  8
0
100
AcDbLine
 62
7
  6
CONTINUOUS
 10
-0.4842607366
 20
-24.3347087955
 11
-0.2172680212
 21
-23.6736361103
  0
LINE
  5
82A
100
AcDbEntity
  8
0
100
AcDbLine
 62
7
  6
CONTINUOUS
 10
-0.2482120535
 20
-22.3945845984
 11
-0.3408186802
 21
-22.6235746305
  0
LINE
  5
82B
100
AcDbEntity
  8
0
100
AcDbLine
 62
7
  6
CONTINUOUS
 10
-0.2172680212
 20
-23.6736361103
 11
-0.0734967251
 21
-23.3207489102
  0
LINE
  5
82C
100
AcDbEntity
  8
0
100
AcDbLine
 62
7
  6
CONTINUOUS
 10
-0.3035818063
 20
-23.7443407661
 11
-0.0865809866
 21
-23.2125171059
  0
LINE
  5
82D
100
AcDbEntity
  8
0
100
AcDbLine
 62
7
  6
CONTINUOUS
 10
4.1485164222
 20
-24.9398900658
 11
4.1557658606
 21
-24.9221742324
  0
LINE
  5
82E
100
AcDbEntity
  8
0
100
AcDbLine
 62
7
  6
CONTINUOUS
 10
4.232772256
 20
-24.8738440737
 11
4.2406449368
 21
-24.8552619481
  0
LINE
  5
82F
100
AcDbEntity
  8
0
100
AcDbLine
 62
7
  6
CONTINUOUS
 10
3.7072851966
 20
-24.6913928945
 11
3.7012982841
 21
-24.7054547352
  0
LINE
  5
830
100
AcDbEntity
  8
0
100
AcDbLine
 62
7
  6
CONTINUOUS
 10
-8.5242895238
 20
-15.9946198111
 11
-8.504930319
 21
-15.9556868651
  0
LINE
  5
831
100
AcDbEntity
  8
RACCORDO
100
AcDbLine
 62
7
  6
CONTINUOUS
 10
-13.0850023326
 20
34.2606679805
 11
-13.2623269488
 21
34.0185090158
  0
LINE
  5
832
100
AcDbEntity
  8
RACCORDO
100
AcDbLine
 62
7
  6
CONTINUOUS
 10
-13.0382671057
 20
34.0117348748
 11
-13.2082678968
 21
33.7831430567
  0
LINE
  5
833
100
AcDbEntity
  8
0
100
AcDbLine
 62
7
  6
CONTINUOUS
 10
9.2454239689
 20
-22.5950321661
 11
9.2109640912
 21
-22.6048333729
  0
LINE
  5
834
100
AcDbEntity
  8
0
100
AcDbLine
 62
7
  6
CONTINUOUS
 10
3.9196233823
 20
-25.1303163538
 11
3.9289158574
 21
-25.1277637276
  0
LINE
  5
835
100
AcDbEntity
  8
0
100
AcDbLine
 62
7
  6
CONTINUOUS
 10
9.2394459493
 20
-23.2782014695
 11
9.1859758822
 21
-23.2927926041
  0
LINE
  5
836
100
AcDbEntity
  8
0
100
AcDbLine
 62
7
  6
CONTINUOUS
 10
-9.2452753675
 20
-14.7982945361
 11
-9.2031350619
 21
-14.7887489464
  0
LINE
  5
837
100
AcDbEntity
  8
0
100
AcDbLine
 62
7
  6
CONTINUOUS
 10
-9.3769890839
 20
20.7656787189
 11
-9.3325475795
 21
20.7661763039
  0
LINE
  5
838
100
AcDbEntity
  8
0
100
AcDbLine
 62
7
  6
CONTINUOUS
 10
-9.0641819179
 20
21.5876459458
 11
-9.0083835869
 21
21.5880846487
  0
LINE
  5
839
100
AcDbEntity
  8
0
100
AcDbLine
 62
7
  6
CONTINUOUS
 10
-8.7278972574
 20
21.29029719
 11
-8.7030047645
 21
21.2904530684
  0
LINE
  5
83A
100
AcDbEntity
  8
0
100
AcDbLine
 62
7
  6
CONTINUOUS
 10
-9.4214976237
 20
20.7673458828
 11
-9.3769890839
 21
20.7656787189
  0
LINE
  5
83B
100
AcDbEntity
  8
RACCORDO
100
AcDbLine
 62
7
  6
CONTINUOUS
 10
-8.0874981323
 20
36.2119964321
 11
-8.4060836362
 21
36.240006115
  0
LINE
  5
83C
100
AcDbEntity
  8
RACCORDO
100
AcDbLine
 62
7
  6
CONTINUOUS
 10
-8.1936967666
 20
35.8629951907
 11
-8.505508884
 21
35.8908907782
  0
LINE
  5
83D
100
AcDbEntity
  8
RACCORDO
100
AcDbLine
 62
7
  6
CONTINUOUS
 10
-8.0048621187
 20
36.2024673589
 11
-8.0874981323
 21
36.2119964321
  0
LINE
  5
83E
100
AcDbEntity
  8
RACCORDO
100
AcDbLine
 62
7
  6
CONTINUOUS
 10
-8.1132167857
 20
35.8536664079
 11
-8.1936967921
 21
35.8629949663
  0
LINE
  5
83F
100
AcDbEntity
  8
0
100
AcDbLine
 62
7
  6
CONTINUOUS
 10
-4.6223503376
 20
37.6270680879
 11
-4.9937100135
 21
37.6721359222
  0
LINE
  5
840
100
AcDbEntity
  8
DRAFT
100
AcDbLine
 62
7
  6
CONTINUOUS
 10
-5.9734722355
 20
37.6950551954
 11
-6.3016381897
 21
37.7362141069
  0
LINE
  5
841
100
AcDbEntity
  8
RACCORDO
100
AcDbLine
 62
7
  6
CONTINUOUS
 10
-7.9220515112
 20
36.191948214
 11
-8.0048621187
 21
36.2024673589
  0
LINE
  5
842
100
AcDbEntity
  8
RACCORDO
100
AcDbLine
 62
7
  6
CONTINUOUS
 10
-8.0325821789
 20
35.8433742446
 11
-8.1132167857
 21
35.8536664079
  0
LINE
  5
843
100
AcDbEntity
  8
RACCORDO
100
AcDbLine
 62
7
  6
CONTINUOUS
 10
-7.8390748946
 20
36.1804404583
 11
-7.9220515112
 21
36.191948214
  0
LINE
  5
844
100
AcDbEntity
  8
RACCORDO
100
AcDbLine
 62
7
  6
CONTINUOUS
 10
-7.9517928038
 20
35.8321184485
 11
-8.0325821789
 21
35.8433742446
  0
LINE
  5
845
100
AcDbEntity
  8
RACCORDO
100
AcDbLine
 62
7
  6
CONTINUOUS
 10
-7.7559480877
 20
36.1679465504
 11
-7.8390748946
 21
36.1804404583
  0
LINE
  5
846
100
AcDbEntity
  8
RACCORDO
100
AcDbLine
 62
7
  6
CONTINUOUS
 10
-7.8708447209
 20
35.8198981742
 11
-7.9517928038
 21
35.8321184485
  0
LINE
  5
847
100
AcDbEntity
  8
0
100
AcDbLine
 62
7
  6
CONTINUOUS
 10
-4.2472220715
 20
37.5654815138
 11
-4.6223503376
 21
37.6270680879
  0
LINE
  5
848
100
AcDbEntity
  8
DRAFT
100
AcDbLine
 62
7
  6
CONTINUOUS
 10
-5.6411843805
 20
37.6400556509
 11
-5.9734722355
 21
37.6950551954
  0
LINE
  5
849
100
AcDbEntity
  8
RACCORDO
100
AcDbLine
 62
7
  6
CONTINUOUS
 10
15.7469191466
 20
-32.8779635591
 11
15.8408938031
 21
-32.6128954321
  0
LINE
  5
84A
100
AcDbEntity
  8
RACCORDO
100
AcDbLine
 62
7
  6
CONTINUOUS
 10
16.0920495231
 20
-32.8773682355
 11
16.1886148071
 21
-32.6049297581
  0
LINE
  5
84B
100
AcDbEntity
  8
DRAFT
100
AcDbLine
 62
7
  6
CONTINUOUS
 10
17.9339199339
 20
-31.5327883272
 11
18.0404808675
 21
-31.252239368
  0
LINE
  5
84C
100
AcDbEntity
  8
0
100
AcDbLine
 62
7
  6
CONTINUOUS
 10
8.6528984878
 20
-22.846659675
 11
8.6698280495
 21
-22.8072229288
  0
LINE
  5
84D
100
AcDbEntity
  8
0
100
AcDbLine
 62
7
  6
CONTINUOUS
 10
4.1407881028
 20
-24.9565269375
 11
4.1485164222
 21
-24.9398900658
  0
LINE
  5
84E
100
AcDbEntity
  8
0
100
AcDbLine
 62
7
  6
CONTINUOUS
 10
8.6698280495
 20
-22.8072229288
 11
8.6879619855
 21
-22.769091934
  0
LINE
  5
84F
100
AcDbEntity
  8
0
100
AcDbLine
 62
7
  6
CONTINUOUS
 10
4.2243743499
 20
-24.8912276147
 11
4.232772256
 21
-24.8738440737
  0
LINE
  5
850
100
AcDbEntity
  8
0
100
AcDbLine
 62
7
  6
CONTINUOUS
 10
-8.504930319
 20
-15.9556868651
 11
-8.4839541676
 21
-15.9178752391
  0
LINE
  5
851
100
AcDbEntity
  8
0
100
AcDbLine
 62
7
  6
CONTINUOUS
 10
-8.9037282609
 20
21.1616427798
 11
-8.8831793693
 21
21.1905624831
  0
LINE
  5
852
100
AcDbEntity
  8
0
100
AcDbLine
 62
7
  6
CONTINUOUS
 10
-9.5716352115
 20
21.3053903092
 11
-9.5390933564
 21
21.3509822537
  0
LINE
  5
853
100
AcDbEntity
  8
RACCORDO
100
AcDbLine
 62
7
  6
CONTINUOUS
 10
-12.8971687664
 20
34.4903158847
 11
-13.0850023326
 21
34.2606679805
  0
LINE
  5
854
100
AcDbEntity
  8
RACCORDO
100
AcDbLine
 62
7
  6
CONTINUOUS
 10
-12.8584639831
 20
34.2281347667
 11
-13.0382671057
 21
34.0117348748
  0
LINE
  5
855
100
AcDbEntity
  8
RACCORDO
100
AcDbLine
 62
7
  6
CONTINUOUS
 10
-12.6991179148
 20
34.7071333609
 11
-12.8971687664
 21
34.4903158847
  0
LINE
  5
856
100
AcDbEntity
  8
0
100
AcDbLine
 62
7
  6
CONTINUOUS
 10
-9.3325475795
 20
20.7661763039
 11
-9.2885257909
 21
20.7688346892
  0
LINE
  5
857
100
AcDbEntity
  8
0
100
AcDbLine
 62
7
  6
CONTINUOUS
 10
-5.360828922
 20
37.7009630167
 11
-5.7232197314
 21
37.7138450673
  0
LINE
  5
858
100
AcDbEntity
  8
DRAFT
100
AcDbLine
 62
7
  6
CONTINUOUS
 10
-6.625682243
 20
37.7635323854
 11
-6.946055226
 21
37.7770095128
  0
LINE
  5
859
100
AcDbEntity
  8
RACCORDO
100
AcDbLine
 62
7
  6
CONTINUOUS
 10
-8.4060836362
 20
36.240006115
 11
-8.7210475899
 21
36.2535993968
  0
LINE
  5
85A
100
AcDbEntity
  8
RACCORDO
100
AcDbLine
 62
7
  6
CONTINUOUS
 10
-8.505508884
 20
35.8908907782
 11
-8.8127464091
 21
35.9046585075
  0
LINE
  5
85B
100
AcDbEntity
  8
0
100
AcDbLine
 62
7
  6
CONTINUOUS
 10
-4.9937100135
 20
37.6721359222
 11
-5.360828922
 21
37.7009630167
  0
LINE
  5
85C
100
AcDbEntity
  8
DRAFT
100
AcDbLine
 62
7
  6
CONTINUOUS
 10
-6.3016381897
 20
37.7362141069
 11
-6.625682243
 21
37.7635323854
  0
LINE
  5
85D
100
AcDbEntity
  8
RACCORDO
100
AcDbLine
 62
7
  6
CONTINUOUS
 10
15.9818234861
 20
-33.1410661288
 11
16.0920495231
 21
-32.8773682355
  0
LINE
  5
85E
100
AcDbEntity
  8
RACCORDO
100
AcDbLine
 62
7
  6
CONTINUOUS
 10
15.6395271486
 20
-33.1344766731
 11
15.7469191466
 21
-32.8779635591
  0
LINE
  5
85F
100
AcDbEntity
  8
DRAFT
100
AcDbLine
 62
7
  6
CONTINUOUS
 10
17.8151684736
 20
-31.8041657601
 11
17.9339199339
 21
-31.5327883272
  0
LINE
  5
860
100
AcDbEntity
  8
0
100
AcDbLine
 62
7
  6
CONTINUOUS
 10
9.4510997752
 20
-22.4444830165
 11
9.4435527292
 21
-22.4600505899
  0
LINE
  5
861
100
AcDbEntity
  8
0
100
AcDbLine
 62
7
  6
CONTINUOUS
 10
9.6595758417
 20
-22.9073797856
 11
9.6343816968
 21
-22.9592336493
  0
LINE
  5
862
100
AcDbEntity
  8
0
100
AcDbLine
 62
7
  6
CONTINUOUS
 10
3.7012982841
 20
-24.7054547352
 11
3.6945458799
 21
-24.7185675941
  0
LINE
  5
863
100
AcDbEntity
  8
0
100
AcDbLine
 62
7
  6
CONTINUOUS
 10
8.6879619855
 20
-22.769091934
 11
8.707162977
 21
-22.7325554367
  0
LINE
  5
864
100
AcDbEntity
  8
0
100
AcDbLine
 62
7
  6
CONTINUOUS
 10
4.1325928823
 20
-24.9721132894
 11
4.1407881028
 21
-24.9565269375
  0
LINE
  5
865
100
AcDbEntity
  8
0
100
AcDbLine
 62
7
  6
CONTINUOUS
 10
4.215480123
 20
-24.9074159233
 11
4.2243743499
 21
-24.8912276147
  0
LINE
  5
866
100
AcDbEntity
  8
0
100
AcDbLine
 62
7
  6
CONTINUOUS
 10
-8.4839541676
 20
-15.9178752391
 11
-8.4615199129
 21
-15.881471264
  0
LINE
  5
867
100
AcDbEntity
  8
0
100
AcDbLine
 62
7
  6
CONTINUOUS
 10
-8.4615199129
 20
-15.881471264
 11
-8.4377974399
 21
-15.8467506115
  0
LINE
  5
868
100
AcDbEntity
  8
0
100
AcDbLine
 62
7
  6
CONTINUOUS
 10
-8.8831793693
 20
21.1905624831
 11
-8.8609287989
 21
21.2168623109
  0
LINE
  5
869
100
AcDbEntity
  8
0
100
AcDbLine
 62
7
  6
CONTINUOUS
 10
-9.5390933564
 20
21.3509822537
 11
-9.5038791182
 21
21.3923529017
  0
LINE
  5
86A
100
AcDbEntity
  8
RACCORDO
100
AcDbLine
 62
7
  6
CONTINUOUS
 10
-12.668818785
 20
34.4323574311
 11
-12.8584639831
 21
34.2281347667
  0
LINE
  5
86B
100
AcDbEntity
  8
RACCORDO
100
AcDbLine
 62
7
  6
CONTINUOUS
 10
-12.5255829366
 20
34.8786873706
 11
-12.6991179148
 21
34.7071333609
  0
LINE
  5
86C
100
AcDbEntity
  8
RACCORDO
100
AcDbLine
 62
7
  6
CONTINUOUS
 10
-12.4692965856
 20
34.6244866704
 11
-12.668818785
 21
34.4323574311
  0
LINE
  5
86D
100
AcDbEntity
  8
0
100
AcDbLine
 62
7
  6
CONTINUOUS
 10
-9.2885257909
 20
20.7688346892
 11
-9.2452730677
 21
20.7736327782
  0
LINE
  5
86E
100
AcDbEntity
  8
0
100
AcDbLine
 62
7
  6
CONTINUOUS
 10
-8.7489173355
 20
21.288217408
 11
-8.7278972574
 21
21.29029719
  0
LINE
  5
86F
100
AcDbEntity
  8
0
100
AcDbLine
 62
7
  6
CONTINUOUS
 10
-9.1181957276
 20
21.5833989678
 11
-9.0641819179
 21
21.5876459458
  0
LINE
  5
870
100
AcDbEntity
  8
RACCORDO
100
AcDbLine
 62
7
  6
CONTINUOUS
 10
-9.1154665925
 20
35.9042708722
 11
-9.4143881867
 21
35.8896771731
  0
LINE
  5
871
100
AcDbEntity
  8
0
100
AcDbLine
 62
7
  6
CONTINUOUS
 10
-5.7232197314
 20
37.7138450673
 11
-6.0804815311
 21
37.7110986369
  0
LINE
  5
872
100
AcDbEntity
  8
RACCORDO
100
AcDbLine
 62
7
  6
CONTINUOUS
 10
-8.7210475899
 20
36.2535993968
 11
-9.0318873372
 21
36.2526937974
  0
LINE
  5
873
100
AcDbEntity
  8
RACCORDO
100
AcDbLine
 62
7
  6
CONTINUOUS
 10
-8.8127464091
 20
35.9046585075
 11
-9.1154665925
 21
35.9042708722
  0
LINE
  5
874
100
AcDbEntity
  8
DRAFT
100
AcDbLine
 62
7
  6
CONTINUOUS
 10
-6.946055226
 20
37.7770095128
 11
-7.2623063081
 21
37.7766460073
  0
LINE
  5
875
100
AcDbEntity
  8
RACCORDO
100
AcDbLine
 62
7
  6
CONTINUOUS
 10
15.8581586395
 20
-33.3956563433
 11
15.9818234861
 21
-33.1410661288
  0
LINE
  5
876
100
AcDbEntity
  8
RACCORDO
100
AcDbLine
 62
7
  6
CONTINUOUS
 10
15.5188162534
 20
-33.3825002956
 11
15.6395271486
 21
-33.1344766731
  0
LINE
  5
877
100
AcDbEntity
  8
DRAFT
100
AcDbLine
 62
7
  6
CONTINUOUS
 10
17.684278473
 20
-32.0664107783
 11
17.8151684736
 21
-31.8041657601
  0
LINE
  5
878
100
AcDbEntity
  8
0
100
AcDbLine
 62
7
  6
CONTINUOUS
 10
8.707162977
 20
-22.7325554367
 11
8.727285625
 21
-22.6978901085
  0
LINE
  5
879
100
AcDbEntity
  8
0
100
AcDbLine
 62
7
  6
CONTINUOUS
 10
9.6343816968
 20
-22.9592336493
 11
9.6051119768
 21
-23.0084475474
  0
LINE
  5
87A
100
AcDbEntity
  8
0
100
AcDbLine
 62
7
  6
CONTINUOUS
 10
4.123918278
 20
-24.9866211979
 11
4.1325928823
 21
-24.9721132894
  0
LINE
  5
87B
100
AcDbEntity
  8
0
100
AcDbLine
 62
7
  6
CONTINUOUS
 10
9.4435527292
 20
-22.4600505899
 11
9.43531195
 21
-22.4735390317
  0
LINE
  5
87C
100
AcDbEntity
  8
0
100
AcDbLine
 62
7
  6
CONTINUOUS
 10
3.6945458799
 20
-24.7185675941
 11
3.6870211755
 21
-24.7308036899
  0
LINE
  5
87D
100
AcDbEntity
  8
0
100
AcDbLine
 62
7
  6
CONTINUOUS
 10
4.2060600718
 20
-24.9224062607
 11
4.215480123
 21
-24.9074159233
  0
LINE
  5
87E
100
AcDbEntity
  8
0
100
AcDbLine
 62
7
  6
CONTINUOUS
 10
-8.4377974399
 20
-15.8467506115
 11
-8.4129663886
 21
-15.813976206
  0
LINE
  5
87F
100
AcDbEntity
  8
0
100
AcDbLine
 62
7
  6
CONTINUOUS
 10
-8.8609287989
 20
21.2168623109
 11
-8.8370479796
 21
21.240584184
  0
LINE
  5
880
100
AcDbEntity
  8
0
100
AcDbLine
 62
7
  6
CONTINUOUS
 10
-9.5038791182
 20
21.3923529017
 11
-9.46576063
 21
21.4297999747
  0
LINE
  5
881
100
AcDbEntity
  8
DRAFT
100
AcDbLine
 62
7
  6
CONTINUOUS
 10
-10.9718830009
 20
36.3464351798
 11
-12.5293522697
 21
34.875136058
  0
LINE
  5
882
100
AcDbEntity
  8
RACCORDO
100
AcDbLine
 62
7
  6
CONTINUOUS
 10
-12.5256284209
 20
34.8786519383
 11
-12.5285012547
 21
34.8759399838
  0
LINE
  5
883
100
AcDbEntity
  8
RACCORDO
100
AcDbLine
 62
7
  6
CONTINUOUS
 10
-12.4662047308
 20
34.9338004022
 11
-12.5256284209
 21
34.8786519383
  0
LINE
  5
884
100
AcDbEntity
  8
DRAFT
100
AcDbLine
 62
7
  6
CONTINUOUS
 10
-10.7586413805
 20
36.5365697341
 11
-10.9717669789
 21
36.3464974753
  0
LINE
  5
885
100
AcDbEntity
  8
RACCORDO
100
AcDbLine
 62
7
  6
CONTINUOUS
 10
-12.2523681859
 20
35.1181625535
 11
-12.4662047308
 21
34.9338004022
  0
LINE
  5
886
100
AcDbEntity
  8
RACCORDO
100
AcDbLine
 62
7
  6
CONTINUOUS
 10
-12.2605173116
 20
34.803790992
 11
-12.4692965856
 21
34.6244866704
  0
LINE
  5
887
100
AcDbEntity
  8
0
100
AcDbLine
 62
7
  6
CONTINUOUS
 10
-8.7661040266
 20
21.284764042
 11
-8.7489173355
 21
21.288217408
  0
LINE
  5
888
100
AcDbEntity
  8
0
100
AcDbLine
 62
7
  6
CONTINUOUS
 10
-9.2452730677
 20
20.7736327782
 11
-9.2031326563
 21
20.7805324941
  0
LINE
  5
889
100
AcDbEntity
  8
0
100
AcDbLine
 62
7
  6
CONTINUOUS
 10
-9.1700888771
 20
21.5753557902
 11
-9.1181957276
 21
21.5833989678
  0
LINE
  5
88A
100
AcDbEntity
  8
RACCORDO
100
AcDbLine
 62
7
  6
CONTINUOUS
 10
-9.3382433954
 20
36.2372606851
 11
-9.639471451
 21
36.207210042
  0
LINE
  5
88B
100
AcDbEntity
  8
RACCORDO
100
AcDbLine
 62
7
  6
CONTINUOUS
 10
-9.4143881867
 20
35.8896771731
 11
-9.7088862422
 21
35.8608838974
  0
LINE
  5
88C
100
AcDbEntity
  8
DRAFT
100
AcDbLine
 62
7
  6
CONTINUOUS
 10
-7.5730829979
 20
37.7624434233
 11
-7.8783618498
 21
37.7343424918
  0
LINE
  5
88D
100
AcDbEntity
  8
0
100
AcDbLine
 62
7
  6
CONTINUOUS
 10
-6.0804815311
 20
37.7110986369
 11
-6.0953187614
 21
37.710337312
  0
LINE
  5
88E
100
AcDbEntity
  8
RACCORDO
100
AcDbLine
 62
7
  6
CONTINUOUS
 10
-9.0318873372
 20
36.2526937974
 11
-9.3382433954
 21
36.2372606851
  0
LINE
  5
88F
100
AcDbEntity
  8
DRAFT
100
AcDbLine
 62
7
  6
CONTINUOUS
 10
-7.2623063081
 20
37.7766460073
 11
-7.5730829979
 21
37.7624434233
  0
LINE
  5
890
100
AcDbEntity
  8
RACCORDO
100
AcDbLine
 62
7
  6
CONTINUOUS
 10
15.7213159009
 20
-33.6408013434
 11
15.8581586395
 21
-33.3956563433
  0
LINE
  5
891
100
AcDbEntity
  8
RACCORDO
100
AcDbLine
 62
7
  6
CONTINUOUS
 10
15.3853788472
 20
-33.621012654
 11
15.5188162534
 21
-33.3825002956
  0
LINE
  5
892
100
AcDbEntity
  8
DRAFT
100
AcDbLine
 62
7
  6
CONTINUOUS
 10
17.5418097013
 20
-32.3184018549
 11
17.684278473
 21
-32.0664107783
  0
LINE
  5
893
100
AcDbEntity
  8
0
100
AcDbLine
 62
7
  6
CONTINUOUS
 10
8.727285625
 20
-22.6978901085
 11
8.7481775513
 21
-22.6653584515
  0
LINE
  5
894
100
AcDbEntity
  8
0
100
AcDbLine
 62
7
  6
CONTINUOUS
 10
4.1149386629
 20
-25.0001635043
 11
4.123918278
 21
-24.9866211979
  0
LINE
  5
895
100
AcDbEntity
  8
0
100
AcDbLine
 62
7
  6
CONTINUOUS
 10
4.1962821017
 20
-24.9363591659
 11
4.2060600718
 21
-24.9224062607
  0
LINE
  5
896
100
AcDbEntity
  8
0
100
AcDbLine
 62
7
  6
CONTINUOUS
 10
3.6870211755
 20
-24.7308036899
 11
3.6787935773
 21
-24.7420436519
  0
LINE
  5
897
100
AcDbEntity
  8
0
100
AcDbLine
 62
7
  6
CONTINUOUS
 10
-8.4129663886
 20
-15.813976206
 11
-8.3872147938
 21
-15.7833962339
  0
LINE
  5
898
100
AcDbEntity
  8
DRAFT
100
AcDbLine
 62
7
  6
CONTINUOUS
 10
-10.5402212241
 20
36.7099998242
 11
-10.7586413805
 21
36.5365697341
  0
LINE
  5
899
100
AcDbEntity
  8
RACCORDO
100
AcDbLine
 62
7
  6
CONTINUOUS
 10
-12.0288781313
 20
35.2895232249
 11
-12.2523681859
 21
35.1181625535
  0
LINE
  5
89A
100
AcDbEntity
  8
RACCORDO
100
AcDbLine
 62
7
  6
CONTINUOUS
 10
-12.0422923239
 20
34.9703520697
 11
-12.2605173116
 21
34.803790992
  0
LINE
  5
89B
100
AcDbEntity
  8
0
100
AcDbLine
 62
7
  6
CONTINUOUS
 10
-9.2201989398
 20
21.5635033381
 11
-9.1700888771
 21
21.5753557902
  0
LINE
  5
89C
100
AcDbEntity
  8
0
100
AcDbLine
 62
7
  6
CONTINUOUS
 10
-9.2031326563
 20
20.7805324941
 11
-9.1624389759
 21
20.7894790819
  0
LINE
  5
89D
100
AcDbEntity
  8
RACCORDO
100
AcDbLine
 62
7
  6
CONTINUOUS
 10
-9.639471451
 20
36.207210042
 11
-9.9346800935
 21
36.1624809216
  0
LINE
  5
89E
100
AcDbEntity
  8
RACCORDO
100
AcDbLine
 62
7
  6
CONTINUOUS
 10
-9.7088862422
 20
35.8608838974
 11
-9.9970214952
 21
35.8179295007
  0
LINE
  5
89F
100
AcDbEntity
  8
DRAFT
100
AcDbLine
 62
7
  6
CONTINUOUS
 10
-7.8783618498
 20
37.7343424918
 11
-8.1781663093
 21
37.6924024818
  0
LINE
  5
8A0
100
AcDbEntity
  8
RACCORDO
100
AcDbLine
 62
7
  6
CONTINUOUS
 10
15.5715401909
 20
-33.8761203339
 11
15.7213159009
 21
-33.6408013434
  0
LINE
  5
8A1
100
AcDbEntity
  8
DRAFT
100
AcDbLine
 62
7
  6
CONTINUOUS
 10
17.3877125696
 20
-32.5600950747
 11
17.5418097013
 21
-32.3184018549
  0
LINE
  5
8A2
100
AcDbEntity
  8
RACCORDO
100
AcDbLine
 62
7
  6
CONTINUOUS
 10
15.2392489283
 20
-33.8499405918
 11
15.3853788472
 21
-33.621012654
  0
LINE
  5
8A3
100
AcDbEntity
  8
0
100
AcDbLine
 62
7
  6
CONTINUOUS
 10
8.7481775513
 20
-22.6653584515
 11
8.7696805524
 21
-22.635206811
  0
LINE
  5
8A4
100
AcDbEntity
  8
0
100
AcDbLine
 62
7
  6
CONTINUOUS
 10
9.6051119768
 20
-23.0084475474
 11
9.5724615693
 21
-23.0541284128
  0
LINE
  5
8A5
100
AcDbEntity
  8
0
100
AcDbLine
 62
7
  6
CONTINUOUS
 10
4.1056744732
 20
-25.0127364366
 11
4.1149386629
 21
-25.0001635043
  0
LINE
  5
8A6
100
AcDbEntity
  8
0
100
AcDbLine
 62
7
  6
CONTINUOUS
 10
9.43531195
 20
-22.4735390317
 11
9.4262815882
 21
-22.4853802254
  0
LINE
  5
8A7
100
AcDbEntity
  8
0
100
AcDbLine
 62
7
  6
CONTINUOUS
 10
4.1861536813
 20
-24.9492915386
 11
4.1962821017
 21
-24.9363591659
  0
LINE
  5
8A8
100
AcDbEntity
  8
0
100
AcDbLine
 62
7
  6
CONTINUOUS
 10
8.7696805524
 20
-22.635206811
 11
8.7916317973
 21
-22.6076635094
  0
LINE
  5
8A9
100
AcDbEntity
  8
0
100
AcDbLine
 62
7
  6
CONTINUOUS
 10
-8.3872147938
 20
-15.7833962339
 11
-8.3607376612
 21
-15.755242264
  0
LINE
  5
8AA
100
AcDbEntity
  8
0
100
AcDbLine
 62
7
  6
CONTINUOUS
 10
-8.8370479796
 20
21.240584184
 11
-8.8116640297
 21
21.2616958161
  0
LINE
  5
8AB
100
AcDbEntity
  8
0
100
AcDbLine
 62
7
  6
CONTINUOUS
 10
-9.46576063
 20
21.4297999747
 11
-9.4247334281
 21
21.4633268486
  0
LINE
  5
8AC
100
AcDbEntity
  8
DRAFT
100
AcDbLine
 62
7
  6
CONTINUOUS
 10
-10.3117790317
 20
36.8713408703
 11
-10.5402212241
 21
36.7099998242
  0
LINE
  5
8AD
100
AcDbEntity
  8
RACCORDO
100
AcDbLine
 62
7
  6
CONTINUOUS
 10
-11.796134508
 20
35.4475011511
 11
-12.0288781313
 21
35.2895232249
  0
LINE
  5
8AE
100
AcDbEntity
  8
RACCORDO
100
AcDbLine
 62
7
  6
CONTINUOUS
 10
-11.8147108388
 20
35.1241960987
 11
-12.0422923239
 21
34.9703520697
  0
LINE
  5
8AF
100
AcDbEntity
  8
0
100
AcDbLine
 62
7
  6
CONTINUOUS
 10
-9.1624389759
 20
20.7894790819
 11
-9.1235149648
 21
20.8004015431
  0
LINE
  5
8B0
100
AcDbEntity
  8
RACCORDO
100
AcDbLine
 62
7
  6
CONTINUOUS
 10
-9.9346800935
 20
36.1624809216
 11
-10.2233038979
 21
36.1031871066
  0
LINE
  5
8B1
100
AcDbEntity
  8
RACCORDO
100
AcDbLine
 62
7
  6
CONTINUOUS
 10
-9.9970214952
 20
35.8179295007
 11
-10.278679048
 21
35.7606386383
  0
LINE
  5
8B2
100
AcDbEntity
  8
DRAFT
100
AcDbLine
 62
7
  6
CONTINUOUS
 10
-8.1781663093
 20
37.6924024818
 11
-8.4712142211
 21
37.6368027558
  0
LINE
  5
8B3
100
AcDbEntity
  8
DRAFT
100
AcDbLine
 62
7
  6
CONTINUOUS
 10
17.2220366667
 20
-32.7915343529
 11
17.3877125696
 21
-32.5600950747
  0
LINE
  5
8B4
100
AcDbEntity
  8
RACCORDO
100
AcDbLine
 62
7
  6
CONTINUOUS
 10
15.4090837064
 20
-34.1012887647
 11
15.5715401909
 21
-33.8761203339
  0
LINE
  5
8B5
100
AcDbEntity
  8
RACCORDO
100
AcDbLine
 62
7
  6
CONTINUOUS
 10
15.080506784
 20
-34.0693098664
 11
15.2392489283
 21
-33.8499405918
  0
LINE
  5
8B6
100
AcDbEntity
  8
0
100
AcDbLine
 62
7
  6
CONTINUOUS
 10
4.0961048173
 20
-25.0243442079
 11
4.1056744732
 21
-25.0127364366
  0
LINE
  5
8B7
100
AcDbEntity
  8
0
100
AcDbLine
 62
7
  6
CONTINUOUS
 10
9.5724615693
 20
-23.0541284128
 11
9.536663836
 21
-23.0959770321
  0
LINE
  5
8B8
100
AcDbEntity
  8
0
100
AcDbLine
 62
7
  6
CONTINUOUS
 10
3.6787935773
 20
-24.7420436519
 11
3.669899158
 21
-24.7522646829
  0
LINE
  5
8B9
100
AcDbEntity
  8
0
100
AcDbLine
 62
7
  6
CONTINUOUS
 10
4.1756668622
 20
-24.9611869472
 11
4.1861536813
 21
-24.9492915386
  0
LINE
  5
8BA
100
AcDbEntity
  8
0
100
AcDbLine
 62
7
  6
CONTINUOUS
 10
4.0863420848
 20
-25.035111612
 11
4.0961048173
 21
-25.0243442079
  0
LINE
  5
8BB
100
AcDbEntity
  8
0
100
AcDbLine
 62
7
  6
CONTINUOUS
 10
-8.3607376612
 20
-15.755242264
 11
-8.3337354909
 21
-15.7297274943
  0
LINE
  5
8BC
100
AcDbEntity
  8
0
100
AcDbLine
 62
7
  6
CONTINUOUS
 10
-9.4247334281
 20
21.4633268486
 11
-9.4107958129
 21
21.4736188159
  0
LINE
  5
8BD
100
AcDbEntity
  8
0
100
AcDbLine
 62
7
  6
CONTINUOUS
 10
-8.4896141983
 20
21.2303171544
 11
-8.991434321
 21
20.8619270416
  0
LINE
  5
8BE
100
AcDbEntity
  8
0
100
AcDbLine
 62
7
  6
CONTINUOUS
 10
-8.8116640297
 20
21.2616958161
 11
-8.8021222436
 21
21.2686953526
  0
LINE
  5
8BF
100
AcDbEntity
  8
0
100
AcDbLine
 62
7
  6
CONTINUOUS
 10
-8.8021222436
 20
21.2686953526
 11
-8.8018532893
 21
21.2688858549
  0
LINE
  5
8C0
100
AcDbEntity
  8
0
100
AcDbLine
 62
7
  6
CONTINUOUS
 10
-8.8018567825
 20
21.2688833805
 11
-8.799990794
 21
21.2701703635
  0
LINE
  5
8C1
100
AcDbEntity
  8
0
100
AcDbLine
 62
7
  6
CONTINUOUS
 10
-9.4107958129
 20
21.4736188159
 11
-9.3960255035
 21
21.483724647
  0
LINE
  5
8C2
100
AcDbEntity
  8
DRAFT
100
AcDbLine
 62
7
  6
CONTINUOUS
 10
-10.0742917681
 20
37.019902875
 11
-10.3117790317
 21
36.8713408703
  0
LINE
  5
8C3
100
AcDbEntity
  8
RACCORDO
100
AcDbLine
 62
7
  6
CONTINUOUS
 10
-11.554452772
 20
35.5918780267
 11
-11.796134508
 21
35.4475011511
  0
LINE
  5
8C4
100
AcDbEntity
  8
RACCORDO
100
AcDbLine
 62
7
  6
CONTINUOUS
 10
-11.5788231018
 20
35.2644942619
 11
-11.8147108388
 21
35.1241960987
  0
LINE
  5
8C5
100
AcDbEntity
  8
RACCORDO
100
AcDbLine
 62
7
  6
CONTINUOUS
 10
-10.2233038979
 20
36.1031871066
 11
-10.5050266302
 21
36.0294184679
  0
LINE
  5
8C6
100
AcDbEntity
  8
RACCORDO
100
AcDbLine
 62
7
  6
CONTINUOUS
 10
-10.278679048
 20
35.7606386383
 11
-10.5540962406
 21
35.6891034738
  0
LINE
  5
8C7
100
AcDbEntity
  8
DRAFT
100
AcDbLine
 62
7
  6
CONTINUOUS
 10
-8.4712142211
 20
37.6368027558
 11
-8.7574766486
 21
37.5674848126
  0
LINE
  5
8C8
100
AcDbEntity
  8
DRAFT
100
AcDbLine
 62
7
  6
CONTINUOUS
 10
17.0454905286
 20
-33.0117299071
 11
17.2220366667
 21
-32.7915343529
  0
LINE
  5
8C9
100
AcDbEntity
  8
RACCORDO
100
AcDbLine
 62
7
  6
CONTINUOUS
 10
15.2342059962
 20
-34.3160463471
 11
15.4090837064
 21
-34.1012887647
  0
LINE
  5
8CA
100
AcDbEntity
  8
RACCORDO
100
AcDbLine
 62
7
  6
CONTINUOUS
 10
14.9098020202
 20
-34.2782568191
 11
15.080506784
 21
-34.0693098664
  0
LINE
  5
8CB
100
AcDbEntity
  8
0
100
AcDbLine
 62
7
  6
CONTINUOUS
 10
8.7916317973
 20
-22.6076635094
 11
8.8138650609
 21
-22.5829371176
  0
LINE
  5
8CC
100
AcDbEntity
  8
0
100
AcDbLine
 62
7
  6
CONTINUOUS
 10
9.4262815882
 20
-22.4853802254
 11
9.4155949279
 21
-22.4965522389
  0
LINE
  5
8CD
100
AcDbEntity
  8
0
100
AcDbLine
 62
7
  6
CONTINUOUS
 10
4.1649664374
 20
-24.9721559023
 11
4.1756668622
 21
-24.9611869472
  0
LINE
  5
8CE
100
AcDbEntity
  8
0
100
AcDbLine
 62
7
  6
CONTINUOUS
 10
4.0763828063
 20
-25.0450346511
 11
4.0863420848
 21
-25.035111612
  0
LINE
  5
8CF
100
AcDbEntity
  8
0
100
AcDbLine
 62
7
  6
CONTINUOUS
 10
-7.5492345297
 20
-15.0301317938
 11
-8.3064187386
 21
-15.7070449042
  0
LINE
  5
8D0
100
AcDbEntity
  8
0
100
AcDbLine
 62
7
  6
CONTINUOUS
 10
-8.799990794
 20
21.2701703635
 11
-8.7962573132
 21
21.2725459656
  0
LINE
  5
8D1
100
AcDbEntity
  8
0
100
AcDbLine
 62
7
  6
CONTINUOUS
 10
-9.3960255035
 20
21.483724647
 11
-9.3804218989
 21
21.4936448079
  0
LINE
  5
8D2
100
AcDbEntity
  8
0
100
AcDbLine
 62
7
  6
CONTINUOUS
 10
-9.0203650958
 20
20.8440832232
 11
-8.9914323023
 21
20.8618966128
  0
LINE
  5
8D3
100
AcDbEntity
  8
0
100
AcDbLine
 62
7
  6
CONTINUOUS
 10
-9.3804218989
 20
21.4936448079
 11
-9.3640116425
 21
21.5034336742
  0
LINE
  5
8D4
100
AcDbEntity
  8
DRAFT
100
AcDbLine
 62
7
  6
CONTINUOUS
 10
-9.8277206956
 20
37.1556311089
 11
-10.0742917681
 21
37.019902875
  0
LINE
  5
8D5
100
AcDbEntity
  8
RACCORDO
100
AcDbLine
 62
7
  6
CONTINUOUS
 10
-11.3042828516
 20
35.7223689621
 11
-11.554452772
 21
35.5918780267
  0
LINE
  5
8D6
100
AcDbEntity
  8
RACCORDO
100
AcDbLine
 62
7
  6
CONTINUOUS
 10
-11.3346222742
 20
35.3911810593
 11
-11.5788231018
 21
35.2644942619
  0
LINE
  5
8D7
100
AcDbEntity
  8
DRAFT
100
AcDbLine
 62
7
  6
CONTINUOUS
 10
16.858027601
 20
-33.2206335835
 11
17.0454905286
 21
-33.0117299071
  0
LINE
  5
8D8
100
AcDbEntity
  8
RACCORDO
100
AcDbLine
 62
7
  6
CONTINUOUS
 10
15.0471769875
 20
-34.5200529846
 11
15.2342059962
 21
-34.3160463471
  0
LINE
  5
8D9
100
AcDbEntity
  8
RACCORDO
100
AcDbLine
 62
7
  6
CONTINUOUS
 10
14.727179995
 20
-34.476726437
 11
14.9098020202
 21
-34.2782568191
  0
LINE
  5
8DA
100
AcDbEntity
  8
0
100
AcDbLine
 62
7
  6
CONTINUOUS
 10
9.536663836
 20
-23.0959770321
 11
9.4974919752
 21
-23.1342869774
  0
LINE
  5
8DB
100
AcDbEntity
  8
0
100
AcDbLine
 62
7
  6
CONTINUOUS
 10
3.669899158
 20
-24.7522646829
 11
3.6603016641
 21
-24.761489794
  0
LINE
  5
8DC
100
AcDbEntity
  8
0
100
AcDbLine
 62
7
  6
CONTINUOUS
 10
9.4160956057
 20
-22.4960843875
 11
9.4155712785
 21
-22.4965781431
  0
LINE
  5
8DD
100
AcDbEntity
  8
0
100
AcDbLine
 62
7
  6
CONTINUOUS
 10
9.4155712785
 20
-22.4965781431
 11
9.4098821335
 21
-22.5018257148
  0
LINE
  5
8DE
100
AcDbEntity
  8
0
100
AcDbLine
 62
7
  6
CONTINUOUS
 10
4.1540491051
 20
-24.9821696291
 11
4.1649664374
 21
-24.9721559023
  0
LINE
  5
8DF
100
AcDbEntity
  8
0
100
AcDbLine
 62
7
  6
CONTINUOUS
 10
4.0662300811
 20
-25.0541176662
 11
4.0763828063
 21
-25.0450346511
  0
LINE
  5
8E0
100
AcDbEntity
  8
0
100
AcDbLine
 62
7
  6
CONTINUOUS
 10
-7.3682265211
 20
-13.4136518733
 11
-8.2045561651
 21
-14.1116182157
  0
LINE
  5
8E1
100
AcDbEntity
  8
0
100
AcDbLine
 62
7
  6
CONTINUOUS
 10
-8.3337354909
 20
-15.7297274943
 11
-8.3064127585
 21
-15.7070451369
  0
LINE
  5
8E2
100
AcDbEntity
  8
0
100
AcDbLine
 62
7
  6
CONTINUOUS
 10
-4.627952964
 20
-20.5644963187
 11
-4.541656296
 21
-20.4938062267
  0
LINE
  5
8E3
100
AcDbEntity
  8
0
100
AcDbLine
 62
7
  6
CONTINUOUS
 10
-4.1206876778
 20
-20.7838169225
 11
-4.0344041442
 21
-20.7131375896
  0
LINE
  5
8E4
100
AcDbEntity
  8
0
100
AcDbLine
 62
7
  6
CONTINUOUS
 10
-6.7414174129
 20
-14.378474785
 11
-7.5492345297
 21
-15.0301317938
  0
LINE
  5
8E5
100
AcDbEntity
  8
0
100
AcDbLine
 62
7
  6
CONTINUOUS
 10
-8.7962573132
 20
21.2725459656
 11
-8.7924107249
 21
21.2747395698
  0
LINE
  5
8E6
100
AcDbEntity
  8
0
100
AcDbLine
 62
7
  6
CONTINUOUS
 10
-9.3640116425
 20
21.5034336742
 11
-9.3467667971
 21
21.5130378707
  0
LINE
  5
8E7
100
AcDbEntity
  8
DRAFT
100
AcDbLine
 62
7
  6
CONTINUOUS
 10
-9.5721045518
 20
37.2785803014
 11
-9.8277206956
 21
37.1556311089
  0
LINE
  5
8E8
100
AcDbEntity
  8
RACCORDO
100
AcDbLine
 62
7
  6
CONTINUOUS
 10
-11.0459031442
 20
35.8388158648
 11
-11.3042828516
 21
35.7223689621
  0
LINE
  5
8E9
100
AcDbEntity
  8
RACCORDO
100
AcDbLine
 62
7
  6
CONTINUOUS
 10
-11.0820060215
 20
35.5044246787
 11
-11.3346222742
 21
35.3911810593
  0
LINE
  5
8EA
100
AcDbEntity
  8
DRAFT
100
AcDbLine
 62
7
  6
CONTINUOUS
 10
16.6596944382
 20
-33.418293536
 11
16.858027601
 21
-33.2206335835
  0
LINE
  5
8EB
100
AcDbEntity
  8
RACCORDO
100
AcDbLine
 62
7
  6
CONTINUOUS
 10
14.8482761405
 20
-34.7130015364
 11
15.0471769875
 21
-34.5200529846
  0
LINE
  5
8EC
100
AcDbEntity
  8
RACCORDO
100
AcDbLine
 62
7
  6
CONTINUOUS
 10
14.5327161156
 20
-34.6647121432
 11
14.727179995
 21
-34.476726437
  0
LINE
  5
8ED
100
AcDbEntity
  8
0
100
AcDbLine
 62
7
  6
CONTINUOUS
 10
9.4653538131
 20
-22.000508485
 11
8.8138712342
 21
-22.5829393386
  0
LINE
  5
8EE
100
AcDbEntity
  8
0
100
AcDbLine
 62
7
  6
CONTINUOUS
 10
3.6603016641
 20
-24.761489794
 11
3.6568551639
 21
-24.764403739
  0
LINE
  5
8EF
100
AcDbEntity
  8
0
100
AcDbLine
 62
7
  6
CONTINUOUS
 10
4.0617693743
 20
-25.0578536043
 11
4.0662300811
 21
-25.0541176662
  0
LINE
  5
8F0
100
AcDbEntity
  8
0
100
AcDbLine
 62
7
  6
CONTINUOUS
 10
4.148116595
 20
-24.9871293219
 11
4.1540491051
 21
-24.9821696291
  0
LINE
  5
8F1
100
AcDbEntity
  8
0
100
AcDbLine
 62
7
  6
CONTINUOUS
 10
9.4098821335
 20
-22.5018257148
 11
9.3830032935
 21
-22.5241618891
  0
LINE
  5
8F2
100
AcDbEntity
  8
0
100
AcDbLine
 62
7
  6
CONTINUOUS
 10
-3.2511630216
 20
-21.1551950228
 11
-3.1648981467
 21
-21.0845309742
  0
LINE
  5
8F3
100
AcDbEntity
  8
0
100
AcDbLine
 62
7
  6
CONTINUOUS
 10
-2.7806443067
 20
-21.3537776557
 11
-2.6943875234
 21
-21.2831202352
  0
LINE
  5
8F4
100
AcDbEntity
  8
0
100
AcDbLine
 62
7
  6
CONTINUOUS
 10
-2.6055809289
 20
-21.4271115143
 11
-2.519326807
 21
-21.356456274
  0
LINE
  5
8F5
100
AcDbEntity
  8
0
100
AcDbLine
 62
7
  6
CONTINUOUS
 10
-2.132906983
 20
-21.6243276852
 11
-2.0466590722
 21
-21.5536775328
  0
LINE
  5
8F6
100
AcDbEntity
  8
0
100
AcDbLine
 62
7
  6
CONTINUOUS
 10
-1.6727014379
 20
-21.8148889897
 11
-1.5864582355
 21
-21.7442426941
  0
LINE
  5
8F7
100
AcDbEntity
  8
0
100
AcDbLine
 62
7
  6
CONTINUOUS
 10
-3.3804030437
 20
-23.238516687
 11
-3.2940076711
 21
-23.1677457409
  0
LINE
  5
8F8
100
AcDbEntity
  8
0
100
AcDbLine
 62
7
  6
CONTINUOUS
 10
-1.1977851662
 20
-22.0097853549
 11
-1.1115454636
 21
-21.9391419262
  0
LINE
  5
8F9
100
AcDbEntity
  8
0
100
AcDbLine
 62
7
  6
CONTINUOUS
 10
-2.0081952902
 20
-23.8156899005
 11
-1.9218219226
 21
-23.7449369799
  0
LINE
  5
8FA
100
AcDbEntity
  8
0
100
AcDbLine
 62
7
  6
CONTINUOUS
 10
-0.2482120535
 20
-22.3945845984
 11
-0.1619752363
 21
-22.3239435333
  0
LINE
  5
8FB
100
AcDbEntity
  8
0
100
AcDbLine
 62
7
  6
CONTINUOUS
 10
0.2260062163
 20
-22.5843417333
 11
0.3122436221
 21
-22.513700186
  0
LINE
  5
8FC
100
AcDbEntity
  8
0
100
AcDbLine
 62
7
  6
CONTINUOUS
 10
-1.2990599412
 20
-24.1084942297
 11
-1.2126933253
 21
-24.0377468397
  0
LINE
  5
8FD
100
AcDbEntity
  8
0
100
AcDbLine
 62
7
  6
CONTINUOUS
 10
-0.5706236372
 20
-24.4054531422
 11
-0.4842607366
 21
-24.3347087955
  0
LINE
  5
8FE
100
AcDbEntity
  8
0
100
AcDbLine
 62
7
  6
CONTINUOUS
 10
1.2405705064
 20
-22.984996321
 11
1.3268136485
 21
-22.9143500748
  0
LINE
  5
8FF
100
AcDbEntity
  8
0
100
AcDbLine
 62
7
  6
CONTINUOUS
 10
1.708225983
 20
-23.1672603813
 11
1.7944738015
 21
-23.0966103044
  0
LINE
  5
900
100
AcDbEntity
  8
0
100
AcDbLine
 62
7
  6
CONTINUOUS
 10
0.5658443528
 20
-24.8611490648
 11
0.652207874
 21
-24.79040421
  0
LINE
  5
901
100
AcDbEntity
  8
0
100
AcDbLine
 62
7
  6
CONTINUOUS
 10
1.3017185631
 20
-24.3968796729
 11
1.3880390628
 21
-24.3261700591
  0
LINE
  5
902
100
AcDbEntity
  8
0
100
AcDbLine
 62
7
  6
CONTINUOUS
 10
2.5652695487
 20
-23.5226341183
 11
2.6515304923
 21
-23.4519732899
  0
LINE
  5
903
100
AcDbEntity
  8
0
100
AcDbLine
 62
7
  6
CONTINUOUS
 10
1.1175321487
 20
-25.0790678791
 11
1.2038987513
 21
-25.0083205
  0
LINE
  5
904
100
AcDbEntity
  8
0
100
AcDbLine
 62
7
  6
CONTINUOUS
 10
3.7714665056
 20
-24.0017502242
 11
3.857752392
 21
-23.931068964
  0
LINE
  5
905
100
AcDbEntity
  8
0
100
AcDbLine
 62
7
  6
CONTINUOUS
 10
3.0847119186
 20
-24.6532948839
 11
3.1710318923
 21
-24.582585701
  0
LINE
  5
906
100
AcDbEntity
  8
0
100
AcDbLine
 62
7
  6
CONTINUOUS
 10
3.3636602315
 20
-24.7587771923
 11
3.4499857269
 21
-24.6880634862
  0
LINE
  5
907
100
AcDbEntity
  8
0
100
AcDbLine
 62
7
  6
CONTINUOUS
 10
2.5459234233
 20
-25.6334592464
 11
2.6323063024
 21
-25.5626985345
  0
LINE
  5
908
100
AcDbEntity
  8
0
100
AcDbLine
 62
7
  6
CONTINUOUS
 10
3.8817595925
 20
-25.1427708742
 11
3.8951363158
 21
-25.1318133039
  0
LINE
  5
909
100
AcDbEntity
  8
0
100
AcDbLine
 62
7
  6
CONTINUOUS
 10
4.0617975655
 20
-25.057884164
 11
4.148140922
 21
-24.9871558271
  0
LINE
  5
90A
100
AcDbEntity
  8
0
100
AcDbLine
 62
7
  6
CONTINUOUS
 10
3.1738580123
 20
-25.8727529793
 11
3.2602517829
 21
-25.8019833455
  0
LINE
  5
90B
100
AcDbEntity
  8
0
100
AcDbLine
 62
7
  6
CONTINUOUS
 10
4.189603314
 20
-25.6772691228
 11
4.2759833288
 21
-25.6065107571
  0
LINE
  5
90C
100
AcDbEntity
  8
0
100
AcDbLine
 62
7
  6
CONTINUOUS
 10
4.3941722101
 20
-26.3302029766
 11
4.4805935661
 21
-26.2594107461
  0
LINE
  5
90D
100
AcDbEntity
  8
0
100
AcDbLine
 62
7
  6
CONTINUOUS
 10
9.4974919752
 20
-23.1342869774
 11
9.4549499214
 21
-23.1690547453
  0
LINE
  5
90E
100
AcDbEntity
  8
0
100
AcDbLine
 62
7
  6
CONTINUOUS
 10
4.0560061722
 20
-25.0624979302
 11
4.0617693743
 21
-25.0578536043
  0
LINE
  5
90F
100
AcDbEntity
  8
0
100
AcDbLine
 62
7
  6
CONTINUOUS
 10
-8.2045561651
 20
-14.1116182157
 11
-8.991434318
 21
-14.6893291888
  0
LINE
  5
910
100
AcDbEntity
  8
0
100
AcDbLine
 62
7
  6
CONTINUOUS
 10
-9.0203678247
 20
-14.710272582
 11
-8.9914350222
 21
-14.6893008907
  0
LINE
  5
911
100
AcDbEntity
  8
0
100
AcDbLine
 62
7
  6
CONTINUOUS
 10
-9.0521950332
 20
20.8278123776
 11
-9.0203650958
 21
20.8440832232
  0
LINE
  5
912
100
AcDbEntity
  8
0
100
AcDbLine
 62
7
  6
CONTINUOUS
 10
-9.3467667971
 20
21.5130378707
 11
-9.3286048058
 21
21.5222962982
  0
LINE
  5
913
100
AcDbEntity
  8
0
100
AcDbLine
 62
7
  6
CONTINUOUS
 10
-8.7924107249
 20
21.2747395698
 11
-8.7884433333
 21
21.2767620053
  0
LINE
  5
914
100
AcDbEntity
  8
0
100
AcDbLine
 62
7
  6
CONTINUOUS
 10
-9.3286048058
 20
21.5222962982
 11
-9.3094976042
 21
21.5311556744
  0
LINE
  5
915
100
AcDbEntity
  8
0
100
AcDbLine
 62
7
  6
CONTINUOUS
 10
-8.7884433333
 20
21.2767620053
 11
-8.7843115107
 21
21.2786399781
  0
LINE
  5
916
100
AcDbEntity
  8
DRAFT
100
AcDbLine
 62
7
  6
CONTINUOUS
 10
-9.3085365147
 20
37.3882246433
 11
-9.5721045518
 21
37.2785803014
  0
LINE
  5
917
100
AcDbEntity
  8
RACCORDO
100
AcDbLine
 62
7
  6
CONTINUOUS
 10
-10.7793944977
 20
35.9412206894
 11
-11.0459031442
 21
35.8388158648
  0
LINE
  5
918
100
AcDbEntity
  8
RACCORDO
100
AcDbLine
 62
7
  6
CONTINUOUS
 10
-10.8218988113
 20
35.6037283278
 11
-11.0820060215
 21
35.5044246787
  0
LINE
  5
919
100
AcDbEntity
  8
DRAFT
100
AcDbLine
 62
7
  6
CONTINUOUS
 10
-9.0369825283
 20
37.4845071533
 11
-9.3085365147
 21
37.3882246433
  0
LINE
  5
91A
100
AcDbEntity
  8
DRAFT
100
AcDbLine
 62
7
  6
CONTINUOUS
 10
16.4513392394
 20
-33.6038644444
 11
16.6596944382
 21
-33.418293536
  0
LINE
  5
91B
100
AcDbEntity
  8
RACCORDO
100
AcDbLine
 62
7
  6
CONTINUOUS
 10
14.6377489571
 20
-34.8946528174
 11
14.8482761405
 21
-34.7130015364
  0
LINE
  5
91C
100
AcDbEntity
  8
RACCORDO
100
AcDbLine
 62
7
  6
CONTINUOUS
 10
14.3270910105
 20
-34.8414327209
 11
14.5327161156
 21
-34.6647121432
  0
LINE
  5
91D
100
AcDbEntity
  8
0
100
AcDbLine
 62
7
  6
CONTINUOUS
 10
3.6568551639
 20
-24.764403739
 11
3.6499619769
 21
-24.7696683539
  0
LINE
  5
91E
100
AcDbEntity
  8
0
100
AcDbLine
 62
7
  6
CONTINUOUS
 10
4.0457057263
 20
-25.0701559964
 11
4.0560061722
 21
-25.0624979302
  0
LINE
  5
91F
100
AcDbEntity
  8
0
100
AcDbLine
 62
7
  6
CONTINUOUS
 10
9.4549499214
 20
-23.1690547453
 11
9.4404407289
 21
-23.1798149213
  0
LINE
  5
920
100
AcDbEntity
  8
0
100
AcDbLine
 62
7
  6
CONTINUOUS
 10
9.3830032935
 20
-22.5241618891
 11
9.3737463274
 21
-22.5310198644
  0
LINE
  5
921
100
AcDbEntity
  8
0
100
AcDbLine
 62
7
  6
CONTINUOUS
 10
-9.0521977411
 20
-14.7296766816
 11
-9.0203678247
 21
-14.710272582
  0
LINE
  5
922
100
AcDbEntity
  8
0
100
AcDbLine
 62
7
  6
CONTINUOUS
 10
-9.3094976042
 20
21.5311556744
 11
-9.2894716588
 21
21.5396705054
  0
LINE
  5
923
100
AcDbEntity
  8
0
100
AcDbLine
 62
7
  6
CONTINUOUS
 10
-9.0866695174
 20
20.8132131987
 11
-9.0521950332
 21
20.8278123776
  0
LINE
  5
924
100
AcDbEntity
  8
0
100
AcDbLine
 62
7
  6
CONTINUOUS
 10
-8.7843115107
 20
21.2786399781
 11
-8.7799320762
 21
21.2804075226
  0
LINE
  5
925
100
AcDbEntity
  8
0
100
AcDbLine
 62
7
  6
CONTINUOUS
 10
-9.2894716588
 20
21.5396705054
 11
-9.2685261148
 21
21.5478414447
  0
LINE
  5
926
100
AcDbEntity
  8
RACCORDO
100
AcDbLine
 62
7
  6
CONTINUOUS
 10
-10.5050266302
 20
36.0294184679
 11
-10.7793944977
 21
35.9412206894
  0
LINE
  5
927
100
AcDbEntity
  8
RACCORDO
100
AcDbLine
 62
7
  6
CONTINUOUS
 10
-10.5540962406
 20
35.6891034738
 11
-10.8218988113
 21
35.6037283278
  0
LINE
  5
928
100
AcDbEntity
  8
DRAFT
100
AcDbLine
 62
7
  6
CONTINUOUS
 10
-8.7574766486
 20
37.5674848126
 11
-9.0369825283
 21
37.4845071533
  0
LINE
  5
929
100
AcDbEntity
  8
DRAFT
100
AcDbLine
 62
7
  6
CONTINUOUS
 10
16.232919083
 20
-33.7772945345
 11
16.4513392394
 21
-33.6038644444
  0
LINE
  5
92A
100
AcDbEntity
  8
RACCORDO
100
AcDbLine
 62
7
  6
CONTINUOUS
 10
14.4157668895
 20
-35.0647782182
 11
14.6377489571
 21
-34.8946528174
  0
LINE
  5
92B
100
AcDbEntity
  8
RACCORDO
100
AcDbLine
 62
7
  6
CONTINUOUS
 10
14.1102077632
 20
-35.0068947092
 11
14.3270910105
 21
-34.8414327209
  0
LINE
  5
92C
100
AcDbEntity
  8
0
100
AcDbLine
 62
7
  6
CONTINUOUS
 10
9.3737463274
 20
-22.5310198644
 11
9.363938473
 21
-22.5378740614
  0
LINE
  5
92D
100
AcDbEntity
  8
0
100
AcDbLine
 62
7
  6
CONTINUOUS
 10
9.4404407289
 20
-23.1798149213
 11
9.4250220766
 21
-23.190451844
  0
LINE
  5
92E
100
AcDbEntity
  8
0
100
AcDbLine
 62
7
  6
CONTINUOUS
 10
4.0353337826
 20
-25.077111588
 11
4.0457057263
 21
-25.0701559964
  0
LINE
  5
92F
100
AcDbEntity
  8
0
100
AcDbLine
 62
7
  6
CONTINUOUS
 10
9.363938473
 20
-22.5378740614
 11
9.3535626404
 21
-22.5446947354
  0
LINE
  5
930
100
AcDbEntity
  8
0
100
AcDbLine
 62
7
  6
CONTINUOUS
 10
3.6499619769
 20
-24.7696683539
 11
3.6388626365
 21
-24.7767898927
  0
LINE
  5
931
100
AcDbEntity
  8
0
100
AcDbLine
 62
7
  6
CONTINUOUS
 10
-8.7799320762
 20
21.2804075226
 11
-8.7787640914
 21
21.2808438007
  0
LINE
  5
932
100
AcDbEntity
  8
0
100
AcDbLine
 62
7
  6
CONTINUOUS
 10
-8.779115697
 20
21.2807112649
 11
-8.778762946
 21
21.2808406658
  0
LINE
  5
933
100
AcDbEntity
  8
0
100
AcDbLine
 62
7
  6
CONTINUOUS
 10
-9.1235149648
 20
20.8004015431
 11
-9.0866695174
 21
20.8132131987
  0
LINE
  5
934
100
AcDbEntity
  8
0
100
AcDbLine
 62
7
  6
CONTINUOUS
 10
-9.2685261148
 20
21.5478414447
 11
-9.2201989398
 21
21.5635033381
  0
LINE
  5
935
100
AcDbEntity
  8
DRAFT
100
AcDbLine
 62
7
  6
CONTINUOUS
 10
16.1229239119
 20
-33.8573746465
 11
16.232919083
 21
-33.7772945345
  0
LINE
  5
936
100
AcDbEntity
  8
RACCORDO
100
AcDbLine
 62
7
  6
CONTINUOUS
 10
14.3807627406
 20
-35.089805186
 11
14.4157668895
 21
-35.0647782182
  0
LINE
  5
937
100
AcDbEntity
  8
RACCORDO
100
AcDbLine
 62
7
  6
CONTINUOUS
 10
14.3783930325
 20
-35.0914827082
 11
14.3807627406
 21
-35.089805186
  0
LINE
  5
938
100
AcDbEntity
  8
DRAFT
100
AcDbLine
 62
7
  6
CONTINUOUS
 10
16.1229465748
 20
-33.857410722
 11
14.3772581632
 21
-35.0922855054
  0
LINE
  5
939
100
AcDbEntity
  8
RACCORDO
100
AcDbLine
 62
7
  6
CONTINUOUS
 10
13.8822877499
 20
-35.1610160442
 11
14.1102077632
 21
-35.0068947092
  0
LINE
  5
93A
100
AcDbEntity
  8
RACCORDO
100
AcDbLine
 62
7
  6
CONTINUOUS
 10
14.1317246425
 20
-35.2554371622
 11
14.3807986445
 21
-35.0897733906
  0
LINE
  5
93B
100
AcDbEntity
  8
0
100
AcDbLine
 62
7
  6
CONTINUOUS
 10
9.4250220766
 20
-23.190451844
 11
9.4086945285
 21
-23.2009650246
  0
LINE
  5
93C
100
AcDbEntity
  8
0
100
AcDbLine
 62
7
  6
CONTINUOUS
 10
4.0250282137
 20
-25.0835607065
 11
4.0353337826
 21
-25.077111588
  0
LINE
  5
93D
100
AcDbEntity
  8
0
100
AcDbLine
 62
7
  6
CONTINUOUS
 10
9.3535626404
 20
-22.5446947354
 11
9.3426067853
 21
-22.5514472047
  0
LINE
  5
93E
100
AcDbEntity
  8
0
100
AcDbLine
 62
7
  6
CONTINUOUS
 10
9.4086945285
 20
-23.2009650246
 11
9.3914918396
 21
-23.2114030137
  0
LINE
  5
93F
100
AcDbEntity
  8
0
100
AcDbLine
 62
7
  6
CONTINUOUS
 10
4.0148070765
 20
-25.0895146106
 11
4.0250282137
 21
-25.0835607065
  0
LINE
  5
940
100
AcDbEntity
  8
0
100
AcDbLine
 62
7
  6
CONTINUOUS
 10
9.3426067853
 20
-22.5514472047
 11
9.3310495028
 21
-22.5581028317
  0
LINE
  5
941
100
AcDbEntity
  8
0
100
AcDbLine
 62
7
  6
CONTINUOUS
 10
9.3914918396
 20
-23.2114030137
 11
9.3733814651
 21
-23.2217162101
  0
LINE
  5
942
100
AcDbEntity
  8
0
100
AcDbLine
 62
7
  6
CONTINUOUS
 10
-9.086672178
 20
-14.747359204
 11
-9.0521977411
 21
-14.7296766816
  0
LINE
  5
943
100
AcDbEntity
  8
0
100
AcDbLine
 62
7
  6
CONTINUOUS
 10
-8.779115697
 20
21.2807112649
 11
-8.7661040266
 21
21.284764042
  0
LINE
  5
944
100
AcDbEntity
  8
RACCORDO
100
AcDbLine
 62
7
  6
CONTINUOUS
 10
13.6444672853
 20
-35.3028974052
 11
13.8822877499
 21
-35.1610160442
  0
LINE
  5
945
100
AcDbEntity
  8
RACCORDO
100
AcDbLine
 62
7
  6
CONTINUOUS
 10
13.8814573812
 20
-35.4020318596
 11
14.1317246425
 21
-35.2554371622
  0
LINE
  5
946
100
AcDbEntity
  8
0
100
AcDbLine
 62
7
  6
CONTINUOUS
 10
4.0046520556
 20
-25.0949622582
 11
4.0148070765
 21
-25.0895146106
  0
LINE
  5
947
100
AcDbEntity
  8
0
100
AcDbLine
 62
7
  6
CONTINUOUS
 10
9.3310495028
 20
-22.5581028317
 11
9.318859513
 21
-22.5646381962
  0
LINE
  5
948
100
AcDbEntity
  8
0
100
AcDbLine
 62
7
  6
CONTINUOUS
 10
9.3733814651
 20
-23.2217162101
 11
9.3542645881
 21
-23.2317568343
  0
LINE
  5
949
100
AcDbEntity
  8
0
100
AcDbLine
 62
7
  6
CONTINUOUS
 10
3.6388626365
 20
-24.7767898927
 11
3.6270210259
 21
-24.7828649842
  0
LINE
  5
94A
100
AcDbEntity
  8
0
100
AcDbLine
 62
7
  6
CONTINUOUS
 10
3.9946464913
 20
-25.1000661722
 11
4.0046520556
 21
-25.0949622582
  0
LINE
  5
94B
100
AcDbEntity
  8
0
100
AcDbLine
 62
7
  6
CONTINUOUS
 10
9.318859513
 20
-22.5646381962
 11
9.3060153746
 21
-22.5710207823
  0
LINE
  5
94C
100
AcDbEntity
  8
0
100
AcDbLine
 62
7
  6
CONTINUOUS
 10
-9.123517556
 20
-14.7631798257
 11
-9.086672178
 21
-14.747359204
  0
LINE
  5
94D
100
AcDbEntity
  8
RACCORDO
100
AcDbLine
 62
7
  6
CONTINUOUS
 10
13.3968266405
 20
-35.4324019359
 11
13.6444672853
 21
-35.3028974052
  0
LINE
  5
94E
100
AcDbEntity
  8
RACCORDO
100
AcDbLine
 62
7
  6
CONTINUOUS
 10
13.6209606414
 20
-35.5358976599
 11
13.8814573812
 21
-35.4020318596
  0
LINE
  5
94F
100
AcDbEntity
  8
0
100
AcDbLine
 62
7
  6
CONTINUOUS
 10
3.9848092304
 20
-25.1048454692
 11
3.9946464913
 21
-25.1000661722
  0
LINE
  5
950
100
AcDbEntity
  8
0
100
AcDbLine
 62
7
  6
CONTINUOUS
 10
9.3542645881
 20
-23.2317568343
 11
9.3341087668
 21
-23.2414751894
  0
LINE
  5
951
100
AcDbEntity
  8
0
100
AcDbLine
 62
7
  6
CONTINUOUS
 10
9.3060153746
 20
-22.5710207823
 11
9.2925062147
 21
-22.5772098199
  0
LINE
  5
952
100
AcDbEntity
  8
0
100
AcDbLine
 62
7
  6
CONTINUOUS
 10
3.9751212182
 20
-25.1092812019
 11
3.9848092304
 21
-25.1048454692
  0
LINE
  5
953
100
AcDbEntity
  8
0
100
AcDbLine
 62
7
  6
CONTINUOUS
 10
9.3341087668
 20
-23.2414751894
 11
9.3129479065
 21
-23.2509196882
  0
LINE
  5
954
100
AcDbEntity
  8
0
100
AcDbLine
 62
7
  6
CONTINUOUS
 10
3.9563583256
 20
-25.1175482619
 11
3.9751212182
 21
-25.1092812019
  0
LINE
  5
955
100
AcDbEntity
  8
0
100
AcDbLine
 62
7
  6
CONTINUOUS
 10
-9.1624414804
 20
-14.7770129985
 11
-9.123517556
 21
-14.7631798257
  0
LINE
  5
956
100
AcDbEntity
  8
RACCORDO
100
AcDbLine
 62
7
  6
CONTINUOUS
 10
13.1393948155
 20
-35.5495902413
 11
13.3968266405
 21
-35.4324019359
  0
LINE
  5
957
100
AcDbEntity
  8
RACCORDO
100
AcDbLine
 62
7
  6
CONTINUOUS
 10
13.3506807563
 20
-35.6567393395
 11
13.6209606414
 21
-35.5358976599
  0
LINE
  5
958
100
AcDbEntity
  8
0
100
AcDbLine
 62
7
  6
CONTINUOUS
 10
3.9472832807
 20
-25.1213797212
 11
3.9563583256
 21
-25.1175482619
  0
LINE
  5
959
100
AcDbEntity
  8
0
100
AcDbLine
 62
7
  6
CONTINUOUS
 10
9.2925062147
 20
-22.5772098199
 11
9.2783169209
 21
-22.5831667085
  0
LINE
  5
95A
100
AcDbEntity
  8
0
100
AcDbLine
 62
7
  6
CONTINUOUS
 10
9.3129479065
 20
-23.2509196882
 11
9.2907827884
 21
-23.2600896441
  0
LINE
  5
95B
100
AcDbEntity
  8
0
100
AcDbLine
 62
7
  6
CONTINUOUS
 10
3.6270210259
 20
-24.7828649842
 11
3.6144503048
 21
-24.7878745441
  0
LINE
  5
95C
100
AcDbEntity
  8
0
100
AcDbLine
 62
7
  6
CONTINUOUS
 10
3.9381526273
 20
-25.1247484714
 11
3.9472832807
 21
-25.1213797212
  0
LINE
  5
95D
100
AcDbEntity
  8
0
100
AcDbLine
 62
7
  6
CONTINUOUS
 10
9.2783169209
 20
-22.5831667085
 11
9.2454239689
 21
-22.5950321661
  0
LINE
  5
95E
100
AcDbEntity
  8
0
100
AcDbLine
 62
7
  6
CONTINUOUS
 10
-9.2031350619
 20
-14.7887489464
 11
-9.1624414804
 21
-14.7770129985
  0
LINE
  5
95F
100
AcDbEntity
  8
RACCORDO
100
AcDbLine
 62
7
  6
CONTINUOUS
 10
12.8732041113
 20
-35.6538771969
 11
13.1393948155
 21
-35.5495902413
  0
LINE
  5
960
100
AcDbEntity
  8
RACCORDO
100
AcDbLine
 62
7
  6
CONTINUOUS
 10
13.0710993062
 20
-35.7642631827
 11
13.3506807563
 21
-35.6567393395
  0
LINE
  5
961
100
AcDbEntity
  8
0
100
AcDbLine
 62
7
  6
CONTINUOUS
 10
9.2907827884
 20
-23.2600896441
 11
9.2394459493
 21
-23.2782014695
  0
LINE
  5
962
100
AcDbEntity
  8
0
100
AcDbLine
 62
7
  6
CONTINUOUS
 10
3.6943169508
 20
-24.718939861
 11
3.6915037682
 21
-24.7198648811
  0
LINE
  5
963
100
AcDbEntity
  8
0
100
AcDbLine
 62
7
  6
CONTINUOUS
 10
3.9289158574
 20
-25.1277637276
 11
3.9381526273
 21
-25.1247484714
  0
LINE
  5
964
100
AcDbEntity
  8
0
100
AcDbLine
 62
7
  6
CONTINUOUS
 10
3.6144503048
 20
-24.7878745441
 11
3.6011393413
 21
-24.7917709545
  0
LINE
  5
965
100
AcDbEntity
  8
RACCORDO
100
AcDbLine
 62
7
  6
CONTINUOUS
 10
12.5981356166
 20
-35.7452042394
 11
12.8732041113
 21
-35.6538771969
  0
LINE
  5
966
100
AcDbEntity
  8
RACCORDO
100
AcDbLine
 62
7
  6
CONTINUOUS
 10
12.7826796031
 20
-35.8582089115
 11
13.0710993062
 21
-35.7642631827
  0
ELLIPSE
  5
967
100
AcDbEntity
  8
0
100
AcDbEllipse
 62
7
  6
CONTINUOUS
 10
18.6706861095
 20
3.2013015879
 30
0.0
 11
40.1997628671
 21
-0.2432200617
 31
0.0
 40
0.5677065366
 41
-2.2516758986
 42
-2.1782267916
  0
ELLIPSE
  5
968
100
AcDbEntity
  8
0
100
AcDbEllipse
 62
7
  6
CONTINUOUS
 10
30.9579667739
 20
-1.7335473372
 30
0.0
 11
40.1997628671
 21
-0.2432200617
 31
0.0
 40
0.5677065366
 41
-2.1782267916
 42
-2.1322885796
  0
ENDSEC
  0
SECTION
  2
OBJECTS
  0
DICTIONARY
  5
C
100
AcDbDictionary
280
0
281
1
  3
ACAD_GROUP
350
D
  3
ACAD_MLINESTYLE
350
17
  3
ACAD_LAYOUT
350
1A
  3
ACAD_PLOTSETTINGS
350
19
  3
ACAD_PLOTSTYLENAME
350
E
  0
DICTIONARY
  5
D
102
{ACAD_REACTORS
330
C
102
}
100
AcDbDictionary
280
0
281
1
  0
ACDBDICTIONARYWDFLT
  5
E
102
{ACAD_REACTORS
330
C
102
}
100
AcDbDictionary
281
1
  3
Normal
350
F
100
AcDbDictionaryWithDefault
340
F
  0
DICTIONARY
  5
17
102
{ACAD_REACTORS
330
C
102
}
100
AcDbDictionary
280
0
281
1
  3
Standard
350
18
  0
DICTIONARY
  5
19
102
{ACAD_REACTORS
330
C
102
}
100
AcDbDictionary
281
1
  0
DICTIONARY
  5
1A
102
{ACAD_REACTORS
330
C
102
}
100
AcDbDictionary
281
1
  3
Model
350
969
  3
Layout1
350
96A
  0
ACDBPLACEHOLDER
  5
F
102
{ACAD_REACTORS
330
E
102
}
  0
MLINESTYLE
  5
18
102
{ACAD_REACTORS
330
17
102
}
100
AcDbMlineStyle
  2
STANDARD
 70
0
  3

 62
256
 51
90.0
 52
90.0
 71
2
 49
0.5
 62
256
  6
BYLAYER
 49
-0.5
 62
256
  6
BYLAYER
  0
LAYOUT
  5
969
102
{ACAD_REACTORS
330
1A
102
}
100
AcDbPlotSettings
  1

  2
none_device
  4
ISO_A4_(297.00_x_210.00_MM)
  6

 40
0.0
 41
0.0
 42
0.0
 43
0.0
 44
297.0
 45
210.0
 46
0.0
 47
0.0
 48
0.0
 49
0.0
140
0.0
141
0.0
142
1.0
143
1.0
 70
1024
 72
1
 73
0
 74
0
  7

 75
0
147
1.0
148
0.0
149
0.0
100
AcDbLayout
  1
Model
 70
0
 71
0
 10
0.0
 20
0.0
 11
297.0
 21
210.0
 12
0.0
 22
0.0
 32
0.0
 14
0.0
 24
0.0
 34
0.0
 15
0.0
 25
0.0
 35
0.0
146
0.0
 13
0.0
 23
0.0
 33
0.0
 16
1.0
 26
0.0
 36
0.0
 17
0.0
 27
1.0
 37
0.0
 76
0
330
219
345
0
346
0
  0
LAYOUT
  5
96A
102
{ACAD_REACTORS
330
1A
102
}
100
AcDbPlotSettings
  1

  2
none_device
  4
ISO_A4_(297.00_x_210.00_MM)
  6

 40
0.0
 41
0.0
 42
0.0
 43
0.0
 44
297.0
 45
210.0
 46
0.0
 47
0.0
 48
0.0
 49
0.0
140
0.0
141
0.0
142
1.0
143
1.0
 70
0
 72
1
 73
0
 74
0
  7

 75
0
147
1.0
148
0.0
149
0.0
100
AcDbLayout
  1
Layout1
 70
0
 71
1
 10
0.0
 20
0.0
 11
297.0
 21
210.0
 12
0.0
 22
0.0
 32
0.0
 14
0.0
 24
0.0
 34
0.0
 15
0.0
 25
0.0
 35
0.0
146
0.0
 13
0.0
 23
0.0
 33
0.0
 16
1.0
 26
0.0
 36
0.0
 17
0.0
 27
1.0
 37
0.0
 76
0
330
21A
345
0
346
0
  0
ENDSEC
  0
EOF
