  0
SECTION
  2
HEADER
  9
$ACADVER
  1
AC1021
  9
$DWGCODEPAGE
  3
ANSI_1252
  9
$EXTMAX
 10
297.0
 20
210.0
 30
0.0
  9
$EXTMIN
 10
0.0
 20
0.0
 30
0.0
  9
$LIMMIN
 10
0.0
 20
0.0
  9
$LIMMAX
 10
297.0
 20
210.0
  9
$VIEWCTR
 10
148.5
 20
105.0
  9
$VIEWSIZE
 40
210.0
  9
$CLAYER
  8
0
  9
$LTSCALE
 40
16.335
  9
$CELTYPE
  6
BYLAYER
  9
$DIMSCALE
 40
1.0
  9
$DIMASZ
 40
3.0
  9
$DIMEXO
 40
0.5
  9
$DIMDLI
 40
11.286
  9
$DIMEXE
 40
1.5
  9
$DIMCEN
 40
2.673
  9
$DIMLFAC
 40
1.0
  9
$DIMBLK
  1
_FILLED
  9
$DIMALT
 70
0
  9
$DIMALTF
 40
25.4
  9
$DIMTXT
 40
3.0
  9
$DIMTOL
 70
1
  9
$DIMLIM
 70
0
  9
$DIMTFAC
 40
1.0
  9
$DIMTP
 40
0.01
  9
$DIMTM
 40
0.01
  9
$DIMGAP
 40
0.625
  9
$DIMDSEP
 70
44
  9
$AUNITS
 70
0
  9
$PDMODE
 70
3
  9
$PDSIZE
 40
3.0
  9
$HANDSEED
  5
299
  9
$TILEMODE
 70
1
  9
$MEASUREMENT
 70
1
  9
$INSUNITS
 70
4
  0
ENDSEC
  0
SECTION
  2
CLASSES
  0
CLASS
  1
ACDBDICTIONARYWDFLT
  2
AcDbDictionaryWithDefault
  3
AutoCAD 2000
 90
0
 91
1
280
0
281
0
  0
CLASS
  1
ACDBPLACEHOLDER
  2
AcDbPlaceHolder
  3
AutoCAD 2000
 90
0
 91
1
280
0
281
0
  0
CLASS
  1
LAYOUT
  2
AcDbLayout
  3
AutoCAD 2000
 90
0
 91
0
280
0
281
0
  0
ENDSEC
  0
SECTION
  2
TABLES
  0
TABLE
  2
VPORT
  5
8
100
AcDbSymbolTable
 70
2
  0
VPORT
  5
1F4
100
AcDbSymbolTableRecord
100
AcDbViewportTableRecord
  2
*ACTIVE
 70
0
 10
0.0
 20
0.0
 11
1.0
 21
1.0
 12
148.5
 22
105.0
 13
0.0
 23
0.0
 14
1.0
 24
1.0
 15
0.0
 25
0.0
 16
0.0
 26
0.0
 36
1.0
 17
0.0
 27
0.0
 37
0.0
 40
210.0
 41
1.4142857143
 42
50.0
 43
0.0
 44
0.0
 50
0.0
 51
0.0
 71
0
 72
100
 73
1
 74
1
 75
0
 76
0
 77
0
 78
0
  0
ENDTAB
  0
TABLE
  2
LTYPE
  5
5
100
AcDbSymbolTable
 70
6
  0
LTYPE
  5
14
100
AcDbSymbolTableRecord
100
AcDbLinetypeTableRecord
  2
BYBLOCK
 70
0
  3

 72
65
 73
0
 40
0.0
  0
LTYPE
  5
15
100
AcDbSymbolTableRecord
100
AcDbLinetypeTableRecord
  2
BYLAYER
 70
0
  3

 72
65
 73
0
 40
0.0
  0
LTYPE
  5
16
100
AcDbSymbolTableRecord
100
AcDbLinetypeTableRecord
  2
CONTINUOUS
 70
64
  3
Solid line
 72
65
 73
0
 40
0.0
  0
LTYPE
  5
1F5
100
AcDbSymbolTableRecord
100
AcDbLinetypeTableRecord
  2
CENTER
 70
64
  3
____ _ ____ _ ____ _ ____ _ ____ _ ____ _ ____
 72
65
 73
4
 40
0.6
 49
0.375
 74
0
 49
-0.075
 74
0
 49
0.075
 74
0
 49
-0.075
 74
0
  0
LTYPE
  5
1F6
100
AcDbSymbolTableRecord
100
AcDbLinetypeTableRecord
  2
HIDDEN
 70
64
  3
- - - - - - - - - - - - - - - - - - - -
 72
65
 73
2
 40
0.2
 49
0.1
 74
0
 49
-0.1
 74
0
  0
LTYPE
  5
1F7
100
AcDbSymbolTableRecord
100
AcDbLinetypeTableRecord
  2
PHANTOM
 70
64
  3
_____ _ _ _____ _ _ _____ _ _ _____
 72
65
 73
6
 40
0.8
 49
0.45
 74
0
 49
-0.05
 74
0
 49
0.1
 74
0
 49
-0.05
 74
0
 49
0.1
 74
0
 49
-0.05
 74
0
  0
LTYPE
  5
1F8
100
AcDbSymbolTableRecord
100
AcDbLinetypeTableRecord
  2
DOT
 70
64
  3
. . . . . . . . . . . . . . . . . . . .
 72
65
 73
2
 40
0.2
 49
0.1
 74
0
 49
-0.1
 74
0
  0
LTYPE
  5
1F9
100
AcDbSymbolTableRecord
100
AcDbLinetypeTableRecord
  2
DASHED
 70
64
  3
- - - - - - - - - - - - - - - - - - - -
 72
65
 73
2
 40
0.2
 49
0.1
 74
0
 49
-0.1
 74
0
  0
ENDTAB
  0
TABLE
  2
LAYER
  5
2
100
AcDbSymbolTable
 70
36
  0
LAYER
  5
10
100
AcDbSymbolTableRecord
100
AcDbLayerTableRecord
  2
0
 70
0
 62
7
  6
CONTINUOUS
370
-3
390
F
  0
LAYER
  5
1FA
100
AcDbSymbolTableRecord
100
AcDbLayerTableRecord
  2
DEFAULT_1
 70
0
 62
7
  6
CENTER
370
-3
390
F
  0
LAYER
  5
1FB
100
AcDbSymbolTableRecord
100
AcDbLayerTableRecord
  2
DEFAULT_2
 70
0
 62
7
  6
HIDDEN
370
-3
390
F
  0
LAYER
  5
1FC
100
AcDbSymbolTableRecord
100
AcDbLayerTableRecord
  2
DEFAULT_3
 70
0
 62
7
  6
PHANTOM
370
-3
390
F
  0
LAYER
  5
1FD
100
AcDbSymbolTableRecord
100
AcDbLayerTableRecord
  2
ASSI
 70
0
 62
7
  6
CONTINUOUS
370
-3
390
F
  0
LAYER
  5
1FE
100
AcDbSymbolTableRecord
100
AcDbLayerTableRecord
  2
COLOR3
 70
0
 62
7
  6
CONTINUOUS
370
-3
390
F
  0
LAYER
  5
1FF
100
AcDbSymbolTableRecord
100
AcDbLayerTableRecord
  2
COORDINATE
 70
0
 62
7
  6
CONTINUOUS
370
-3
390
F
  0
LAYER
  5
200
100
AcDbSymbolTableRecord
100
AcDbLayerTableRecord
  2
COPY_PUBLISH
 70
0
 62
7
  6
CONTINUOUS
370
-3
390
F
  0
LAYER
  5
201
100
AcDbSymbolTableRecord
100
AcDbLayerTableRecord
  2
COSMETIC
 70
0
 62
7
  6
CONTINUOUS
370
-3
390
F
  0
LAYER
  5
202
100
AcDbSymbolTableRecord
100
AcDbLayerTableRecord
  2
COSMETICI
 70
0
 62
7
  6
CONTINUOUS
370
-3
390
F
  0
LAYER
  5
203
100
AcDbSymbolTableRecord
100
AcDbLayerTableRecord
  2
CURVE
 70
0
 62
7
  6
CONTINUOUS
370
-3
390
F
  0
LAYER
  5
204
100
AcDbSymbolTableRecord
100
AcDbLayerTableRecord
  2
DRAFT
 70
0
 62
7
  6
CONTINUOUS
370
-3
390
F
  0
LAYER
  5
205
100
AcDbSymbolTableRecord
100
AcDbLayerTableRecord
  2
IMPORT_IGES
 70
0
 62
7
  6
CONTINUOUS
370
-3
390
F
  0
LAYER
  5
206
100
AcDbSymbolTableRecord
100
AcDbLayerTableRecord
  2
INTFCLR_1
 70
0
 62
7
  6
CONTINUOUS
370
-3
390
F
  0
LAYER
  5
207
100
AcDbSymbolTableRecord
100
AcDbLayerTableRecord
  2
INTF_10
 70
0
 62
7
  6
CONTINUOUS
370
-3
390
F
  0
LAYER
  5
208
100
AcDbSymbolTableRecord
100
AcDbLayerTableRecord
  2
INTF_13
 70
0
 62
7
  6
CONTINUOUS
370
-3
390
F
  0
LAYER
  5
209
100
AcDbSymbolTableRecord
100
AcDbLayerTableRecord
  2
INTF_15
 70
0
 62
7
  6
CONTINUOUS
370
-3
390
F
  0
LAYER
  5
20A
100
AcDbSymbolTableRecord
100
AcDbLayerTableRecord
  2
INTF_16
 70
0
 62
7
  6
CONTINUOUS
370
-3
390
F
  0
LAYER
  5
20B
100
AcDbSymbolTableRecord
100
AcDbLayerTableRecord
  2
INTF_18
 70
0
 62
7
  6
CONTINUOUS
370
-3
390
F
  0
LAYER
  5
20C
100
AcDbSymbolTableRecord
100
AcDbLayerTableRecord
  2
INTF_20
 70
0
 62
7
  6
CONTINUOUS
370
-3
390
F
  0
LAYER
  5
20D
100
AcDbSymbolTableRecord
100
AcDbLayerTableRecord
  2
INTF_3
 70
0
 62
7
  6
CONTINUOUS
370
-3
390
F
  0
LAYER
  5
20E
100
AcDbSymbolTableRecord
100
AcDbLayerTableRecord
  2
INTF_5
 70
0
 62
7
  6
CONTINUOUS
370
-3
390
F
  0
LAYER
  5
20F
100
AcDbSymbolTableRecord
100
AcDbLayerTableRecord
  2
INTF_8
 70
0
 62
7
  6
CONTINUOUS
370
-3
390
F
  0
LAYER
  5
210
100
AcDbSymbolTableRecord
100
AcDbLayerTableRecord
  2
NOTE
 70
0
 62
7
  6
CONTINUOUS
370
-3
390
F
  0
LAYER
  5
211
100
AcDbSymbolTableRecord
100
AcDbLayerTableRecord
  2
PIANI
 70
0
 62
7
  6
CONTINUOUS
370
-3
390
F
  0
LAYER
  5
212
100
AcDbSymbolTableRecord
100
AcDbLayerTableRecord
  2
PUNTI
 70
0
 62
7
  6
CONTINUOUS
370
-3
390
F
  0
LAYER
  5
213
100
AcDbSymbolTableRecord
100
AcDbLayerTableRecord
  2
RACCORDO
 70
0
 62
7
  6
CONTINUOUS
370
-3
390
F
  0
LAYER
  5
214
100
AcDbSymbolTableRecord
100
AcDbLayerTableRecord
  2
SIMBOLI
 70
0
 62
7
  6
CONTINUOUS
370
-3
390
F
  0
LAYER
  5
215
100
AcDbSymbolTableRecord
100
AcDbLayerTableRecord
  2
SNAPLINE
 70
0
 62
7
  6
CONTINUOUS
370
-3
390
F
  0
LAYER
  5
216
100
AcDbSymbolTableRecord
100
AcDbLayerTableRecord
  2
SOLIDO
 70
0
 62
7
  6
CONTINUOUS
370
-3
390
F
  0
LAYER
  5
217
100
AcDbSymbolTableRecord
100
AcDbLayerTableRecord
  2
SUPERFICI
 70
0
 62
7
  6
CONTINUOUS
370
-3
390
F
  0
LAYER
  5
218
100
AcDbSymbolTableRecord
100
AcDbLayerTableRecord
  2
SUPERFICI_SKEL
 70
0
 62
7
  6
CONTINUOUS
370
-3
390
F
  0
LAYER
  5
219
100
AcDbSymbolTableRecord
100
AcDbLayerTableRecord
  2
TRASH
 70
0
 62
7
  6
CONTINUOUS
370
-3
390
F
  0
LAYER
  5
21A
100
AcDbSymbolTableRecord
100
AcDbLayerTableRecord
  2
___SHELL
 70
0
 62
7
  6
CONTINUOUS
370
-3
390
F
  0
ENDTAB
  0
TABLE
  2
STYLE
  5
3
100
AcDbSymbolTable
 70
1
  0
STYLE
  5
11
100
AcDbSymbolTableRecord
100
AcDbTextStyleTableRecord
  2
STANDARD
 70
0
 40
0.0
 41
0.8
 50
0.0
 71
0
 42
0.2
  3
txt
  4

  0
STYLE
  5
21B
100
AcDbSymbolTableRecord
100
AcDbTextStyleTableRecord
  2
TEXTSTYLE_1
 70
0
 40
0.0
 41
0.8
 50
0.0
 71
0
 42
0.2
  3
gdt
  4

  0
ENDTAB
  0
TABLE
  2
VIEW
  5
6
100
AcDbSymbolTable
 70
0
  0
ENDTAB
  0
TABLE
  2
UCS
  5
7
100
AcDbSymbolTable
 70
0
  0
ENDTAB
  0
TABLE
  2
APPID
  5
9
100
AcDbSymbolTable
 70
1
  0
APPID
  5
21C
100
AcDbSymbolTableRecord
100
AcDbRegAppTableRecord
  2
ACAD
 70
0
  0
ENDTAB
  0
TABLE
  2
BLOCK_RECORD
  5
1
100
AcDbSymbolTable
 70
0
  0
BLOCK_RECORD
  5
21D
100
AcDbSymbolTableRecord
100
AcDbBlockTableRecord
  2
*Model_Space
  0
BLOCK_RECORD
  5
21E
100
AcDbSymbolTableRecord
100
AcDbBlockTableRecord
  2
*Paper_Space
  0
ENDTAB
  0
TABLE
  2
DIMSTYLE
  5
A
100
AcDbSymbolTable
 70
1
100
AcDbDimStyleTable
 71
0
  0
DIMSTYLE
105
21F
100
AcDbSymbolTableRecord
100
AcDbDimStyleTableRecord
  2
STANDARD
 70
0
  3

  4

 40
1.0
 41
3.0
 42
0.5
 43
0.38
 44
1.5
 45
0.0
 46
0.0
 47
0.01
 48
0.01
140
3.0
141
0.09
142
0.0
143
25.4
144
1.0
145
0.0
146
1.0
147
0.625
 71
1.0
 72
0.0
 73
0
 74
0
 75
0
 76
0
 77
1
 78
8
170
0
171
1
172
0
173
0
174
0
175
0
176
0
177
0
178
0
270
2
271
2
272
2
273
2
274
2
275
0
280
0
281
0
282
0
283
1
284
8
285
0
286
0
287
3
288
0
340
11
278
44
  0
ENDTAB
  0
ENDSEC
  0
SECTION
  2
BLOCKS
  0
BLOCK
  5
20
100
AcDbEntity
  8
0
100
AcDbBlockBegin
  2
*Model_Space
 70
0
 10
0.0
 20
0.0
 30
0.0
  3
*Model_Space
  1

  0
ENDBLK
  5
21
100
AcDbEntity
  8
0
100
AcDbBlockEnd
  0
BLOCK
  5
1C
100
AcDbEntity
  8
0
100
AcDbBlockBegin
  2
*Paper_Space
 70
0
 10
0.0
 20
0.0
 30
0.0
  3
*Paper_Space
  1

  0
ENDBLK
  5
1D
100
AcDbEntity
  8
0
100
AcDbBlockEnd
  0
ENDSEC
  0
SECTION
  2
ENTITIES
  0
LINE
  5
220
100
AcDbEntity
  8
0
100
AcDbLine
 62
7
  6
CONTINUOUS
 10
-8.7227130604
 20
22.1486257802
 11
-8.7228332975
 21
22.1485452317
  0
LWPOLYLINE
  5
221
100
AcDbEntity
  8
0
100
AcDbPolyline
 62
7
  6
CONTINUOUS
 90
19
 70
0
 10
-8.7227093794
 20
22.1486202829
 10
-8.7614178073
 20
22.1215732172
 10
-8.8286930345
 20
22.0691846172
 10
-8.8928256676
 20
22.0123938551
 10
-8.9538394323
 20
21.9515162413
 10
-9.0117115586
 20
21.8868501029
 10
-9.0662572198
 20
21.8188088117
 10
-9.1173940355
 20
21.7476943963
 10
-9.165009065
 20
21.6737608443
 10
-9.2088246719
 20
21.597513114
 10
-9.2487209804
 20
21.5192231859
 10
-9.284536924
 20
21.4391378777
 10
-9.3160159183
 20
21.3577675119
 10
-9.3430005217
 20
21.2753457618
 10
-9.3652989389
 20
21.1920890952
 10
-9.3826772213
 20
21.108350031
 10
-9.3948952451
 20
21.0243025922
 10
-9.4016921799
 20
20.940118048
 10
-9.4022947414
 20
20.9255748679
  0
LINE
  5
222
100
AcDbEntity
  8
0
100
AcDbLine
 62
7
  6
CONTINUOUS
 10
-4.8197136215
 20
24.7658991706
 11
-8.7228332975
 21
22.1485452317
  0
LINE
  5
223
100
AcDbEntity
  8
0
100
AcDbLine
 62
253
  6
CONTINUOUS
 10
-4.5605674951
 20
24.7470646622
 11
-8.4628626887
 21
22.1302636046
  0
LWPOLYLINE
  5
224
100
AcDbEntity
  8
0
100
AcDbPolyline
 62
253
  6
CONTINUOUS
 90
22
 70
0
 10
-8.4628626887
 20
22.1302636046
 10
-8.5231505187
 20
22.0902825308
 10
-8.5829410499
 20
22.045813948
 10
-8.6419240862
 20
21.9970702273
 10
-8.699778065
 20
21.9442775236
 10
-8.7562193244
 20
21.887696868
 10
-8.8110030939
 20
21.8276216476
 10
-8.8638495513
 20
21.7643375435
 10
-8.9144807923
 20
21.6981514846
 10
-8.9626701437
 20
21.6294121261
 10
-9.0081699391
 20
21.5584549164
 10
-9.0507443276
 20
21.4856204916
 10
-9.0902058579
 20
21.4112825086
 10
-9.1263537734
 20
21.3358027299
 10
-9.1589994022
 20
21.2595468076
 10
-9.1879993661
 20
21.182903141
 10
-9.2132058811
 20
21.1062523906
 10
-9.2344895322
 20
21.0299604777
 10
-9.2517614721
 20
20.9543946275
 10
-9.2649373466
 20
20.879922817
 10
-9.2739406764
 20
20.8069116537
 10
-9.2787234196
 20
20.7357196716
  0
LWPOLYLINE
  5
225
100
AcDbEntity
  8
0
100
AcDbPolyline
 62
253
  6
CONTINUOUS
 90
16
 70
0
 10
5.4699663981
 20
-21.8713257352
 10
5.5085784967
 20
-21.8887162311
 10
5.5500037879
 20
-21.9036627718
 10
5.5938406154
 20
-21.916020437
 10
5.6396639411
 20
-21.9256694077
 10
5.6870294659
 20
-21.9325161284
 10
5.7354779377
 20
-21.9364942138
 10
5.7845396042
 20
-21.9375650928
 10
5.8337387678
 20
-21.9357183821
 10
5.8825983974
 20
-21.9309719874
 10
5.9306447543
 20
-21.9233719293
 10
5.977411985
 20
-21.9129918972
 10
6.0224466384
 20
-21.8999325352
 10
6.0653120625
 20
-21.8843204655
 10
6.1055926375
 20
-21.8663070617
 10
6.1428978066
 20
-21.8460669801
  0
LWPOLYLINE
  5
226
100
AcDbEntity
  8
0
100
AcDbPolyline
 62
7
  6
CONTINUOUS
 90
12
 70
0
 10
5.7321714072
 20
-22.3864615905
 10
5.7883686812
 20
-22.4121506051
 10
5.8516974177
 20
-22.4347641561
 10
5.9174515059
 20
-22.4518469891
 10
5.9852256675
 20
-22.4632143083
 10
6.0545566994
 20
-22.4687196523
 10
6.1254603111
 20
-22.4682499786
 10
6.1976132102
 20
-22.4616542149
 10
6.2706217647
 20
-22.4488332298
 10
6.3445636171
 20
-22.429581564
 10
6.4193187494
 20
-22.4036577692
 10
6.5010597076
 20
-22.3677527028
  0
LINE
  5
227
100
AcDbEntity
  8
0
100
AcDbLine
 62
7
  6
CONTINUOUS
 10
5.7321334163
 20
-22.386448126
 11
5.7320099552
 21
-22.3863854095
  0
LWPOLYLINE
  5
228
100
AcDbEntity
  8
0
100
AcDbPolyline
 62
253
  6
CONTINUOUS
 90
12
 70
0
 10
5.7320099552
 20
-22.3863854095
 10
5.6907486359
 20
-22.3621173821
 10
5.6524014646
 20
-22.3327051682
 10
5.6172957973
 20
-22.2983663152
 10
5.5855909186
 20
-22.2592655694
 10
5.5574613635
 20
-22.2156077711
 10
5.5330408182
 20
-22.1676110633
 10
5.512435503
 20
-22.1155053146
 10
5.4957550794
 20
-22.0595431335
 10
5.4830829514
 20
-21.9999956358
 10
5.4744732839
 20
-21.9371539964
 10
5.4699663957
 20
-21.871325731
  0
LWPOLYLINE
  5
229
100
AcDbEntity
  8
0
100
AcDbPolyline
 62
7
  6
CONTINUOUS
 90
10
 70
0
 10
-9.0472229014
 20
-13.8529020114
 10
-7.5707787385
 20
-14.8090210254
 10
-5.9848635585
 20
-15.8074593918
 10
-4.3730868216
 20
-16.7932772167
 10
-2.7358086998
 20
-17.7662493087
 10
-1.0733933522
 20
-18.7261561387
 10
0.6137813664
 20
-19.6727872906
 10
2.3253214116
 20
-20.6059388858
 10
4.060823847
 20
-21.5254099888
 10
5.7320068957
 20
-22.3863838546
  0
LWPOLYLINE
  5
22A
100
AcDbEntity
  8
0
100
AcDbPolyline
 62
253
  6
CONTINUOUS
 90
31
 70
0
 10
-9.2787234108
 20
-13.3556170609
 10
-8.8321045754
 20
-13.6486519529
 10
-8.3834835226
 20
-13.9404762339
 10
-7.9328706235
 20
-14.2310861288
 10
-7.4803824407
 20
-14.5204102971
 10
-7.0259241734
 20
-14.8085131486
 10
-6.5691847481
 20
-15.095592238
 10
-6.11002135
 20
-15.3817340144
 10
-5.6485877744
 20
-15.666839412
 10
-5.1850152354
 20
-15.9508263225
 10
-4.7193432696
 20
-16.2336707213
 10
-4.2515486347
 20
-16.5153868546
 10
-3.7816705574
 20
-16.7959512135
 10
-3.3096525104
 20
-17.0753974581
 10
-2.8355674058
 20
-17.3536822163
 10
-2.3596520832
 20
-17.6306684018
 10
-1.8822267871
 20
-17.9061756368
 10
-1.4029971755
 20
-18.1803801549
 10
-0.9212722754
 20
-18.4536763292
 10
-0.4379726946
 20
-18.7255414732
 10
0.0478085339
 20
-18.9964870555
 10
0.5395563414
 20
-19.2684272806
 10
1.0364792624
 20
-19.5408715836
 10
1.5394428867
 20
-19.8142454592
 10
2.0545369022
 20
-20.0917641103
 10
2.5820540034
 20
-20.373434595
 10
3.1219386624
 20
-20.6590796067
 10
3.679907779
 20
-20.951543033
 10
4.258030759
 20
-21.2516590965
 10
4.8546493602
 20
-21.5583025438
 10
5.4699663965
 20
-21.871325725
  0
LINE
  5
22B
100
AcDbEntity
  8
0
100
AcDbLine
 62
7
  6
CONTINUOUS
 10
-9.0473234295
 20
-13.8528359878
 11
-9.0472215772
 21
-13.8529028808
  0
LWPOLYLINE
  5
22C
100
AcDbEntity
  8
0
100
AcDbPolyline
 62
253
  6
CONTINUOUS
 90
8
 70
0
 10
-9.278713778
 20
-13.3556117736
 10
-9.3092585785
 20
-13.3330721609
 10
-9.3358605745
 20
-13.3087409307
 10
-9.3582618403
 20
-13.282853992
 10
-9.3762451796
 20
-13.2556623373
 10
-9.3896362308
 20
-13.2274296094
 10
-9.398305158
 20
-13.1984295447
 10
-9.4022500525
 20
-13.1670541304
  0
LINE
  5
22D
100
AcDbEntity
  8
0
100
AcDbLine
 62
7
  6
CONTINUOUS
 10
-2.9376092578
 20
23.8099889164
 11
-3.3560111449
 21
22.8484949092
  0
LWPOLYLINE
  5
22E
100
AcDbEntity
  8
0
100
AcDbPolyline
 62
253
  6
CONTINUOUS
 90
11
 70
0
 10
-9.2787234019
 20
-13.3556170507
 10
-9.273940659
 20
-13.4216046028
 10
-9.2649373284
 20
-13.4846735454
 10
-9.2517614527
 20
-13.5445119042
 10
-9.2344895121
 20
-13.6008156194
 10
-9.2132058614
 20
-13.6533130283
 10
-9.1879993469
 20
-13.7017635432
 10
-9.1589993831
 20
-13.7459239039
 10
-9.1263537543
 20
-13.7855678266
 10
-9.090205839
 20
-13.8205084602
 10
-9.0473234295
 20
-13.8528359878
  0
LWPOLYLINE
  5
22F
100
AcDbEntity
  8
0
100
AcDbPolyline
 62
253
  6
CONTINUOUS
 90
8
 70
0
 10
-9.5940444889
 20
4.1262009975
 10
-9.592250446
 20
4.084157765
 10
-9.5859597587
 20
4.0452499156
 10
-9.575604789
 20
4.0094535526
 10
-9.5615606648
 20
3.9768132004
 10
-9.5436831248
 20
3.9475253115
 10
-9.5218552896
 20
3.9220103497
 10
-9.4970304297
 20
3.9010546266
  0
LWPOLYLINE
  5
230
100
AcDbEntity
  8
0
100
AcDbPolyline
 62
7
  6
CONTINUOUS
 90
13
 70
0
 10
-9.4022500525
 20
-13.1670541304
 10
-9.4018824955
 20
-13.1759294746
 10
-9.3950825674
 20
-13.2578669251
 10
-9.3824012535
 20
-13.3363402993
 10
-9.3640446025
 20
-13.4111131584
 10
-9.3402237332
 20
-13.4821042912
 10
-9.3111413699
 20
-13.5491756804
 10
-9.2770767107
 20
-13.612017468
 10
-9.2383271747
 20
-13.6704153775
 10
-9.1952017609
 20
-13.7241793472
 10
-9.1481428936
 20
-13.7729971668
 10
-9.0975823512
 20
-13.8166573858
 10
-9.0473517963
 20
-13.8528102679
  0
LINE
  5
231
100
AcDbEntity
  8
0
100
AcDbLine
 62
253
  6
CONTINUOUS
 10
-9.7116113997
 20
4.3121984633
 11
-9.7115211804
 21
4.3064992924
  0
LWPOLYLINE
  5
232
100
AcDbEntity
  8
0
100
AcDbPolyline
 62
7
  6
CONTINUOUS
 90
10
 70
0
 10
-9.7116114649
 20
3.0715228043
 10
-9.7059159752
 20
1.3018038423
 10
-9.6929279125
 20
-0.529440731
 10
-9.6727278954
 20
-2.3563948331
 10
-9.6453152155
 20
-4.1790192218
 10
-9.6106897339
 20
-5.9972770418
 10
-9.5688513228
 20
-7.8111324259
 10
-9.5198007023
 20
-9.6205443222
 10
-9.4635393672
 20
-11.4254669683
 10
-9.4022654305
 20
-13.1668630538
  0
LWPOLYLINE
  5
233
100
AcDbEntity
  8
0
100
AcDbPolyline
 62
253
  6
CONTINUOUS
 90
10
 70
0
 10
-9.5940443477
 20
2.8855749887
 10
-9.5886853666
 20
1.203289078
 10
-9.5769397056
 20
-0.5003254016
 10
-9.5585261595
 20
-2.2250714299
 10
-9.5333730666
 20
-3.9576181322
 10
-9.501081474
 20
-5.7109490821
 10
-9.4604098297
 20
-7.5240519805
 10
-9.4102062664
 20
-9.4094458571
 10
-9.3499236497
 20
-11.3534903559
 10
-9.2787234108
 20
-13.3556170609
  0
LWPOLYLINE
  5
234
100
AcDbEntity
  8
0
100
AcDbPolyline
 62
7
  6
CONTINUOUS
 90
10
 70
0
 10
-9.4022946174
 20
20.9258000966
 10
-9.4633846907
 20
19.115587495
 10
-9.5196613711
 20
17.2423809602
 10
-9.5687283524
 20
15.3734432647
 10
-9.610584191
 20
13.508820041
 10
-9.645228243
 20
11.6485509339
 10
-9.6726601433
 20
9.7926732947
 10
-9.6928797792
 20
7.9412249099
 10
-9.7058883248
 20
6.0942446662
 10
-9.7116113997
 20
4.3121984633
  0
LWPOLYLINE
  5
235
100
AcDbEntity
  8
0
100
AcDbPolyline
 62
253
  6
CONTINUOUS
 90
10
 70
0
 10
-9.2787234093
 20
20.7357196719
 10
-9.3448128187
 20
18.8092217541
 10
-9.402245631
 20
16.9188003158
 10
-9.4514014977
 20
15.0642930558
 10
-9.4922204184
 20
13.2663544969
 10
-9.5256606829
 20
11.5039165422
 10
-9.5529113014
 20
9.7146230283
 10
-9.5738131237
 20
7.8780220177
 10
-9.5876470458
 20
6.0151312928
 10
-9.5940443551
 20
4.1262009039
  0
LWPOLYLINE
  5
236
100
AcDbEntity
  8
0
100
AcDbPolyline
 62
253
  6
CONTINUOUS
 90
16
 70
0
 10
-9.5940445555
 20
2.8855750478
 10
-9.592250446
 20
2.930059012
 10
-9.5859593031
 20
2.9748406879
 10
-9.5756036198
 20
3.0200883074
 10
-9.5615586886
 20
3.0663720344
 10
-9.5436802939
 20
3.1133644533
 10
-9.5218515558
 20
3.1596538013
 10
-9.4968682217
 20
3.2047679044
 10
-9.4690294353
 20
3.2487651545
 10
-9.4380048927
 20
3.2907312866
 10
-9.4045724099
 20
3.3302108091
 10
-9.3694293565
 20
3.3670536163
 10
-9.332198908
 20
3.400606271
 10
-9.2932695406
 20
3.4304362454
 10
-9.253831744
 20
3.4564791004
 10
-9.2146971988
 20
3.4786226337
  0
LINE
  5
237
100
AcDbEntity
  8
0
100
AcDbLine
 62
253
  6
CONTINUOUS
 10
6.2631131113
 20
13.6276697577
 11
10.3752742123
 21
16.1232968504
  0
LWPOLYLINE
  5
238
100
AcDbEntity
  8
0
100
AcDbPolyline
 62
253
  6
CONTINUOUS
 90
8
 70
0
 10
-9.7115211804
 20
4.3064992924
 10
-9.7082344474
 20
4.2785329689
 10
-9.7002518041
 20
4.2508787548
 10
-9.6876487376
 20
4.2237981266
 10
-9.6705444162
 20
4.1975471377
 10
-9.6491005696
 20
4.1723740055
 10
-9.6235199664
 20
4.1485167632
 10
-9.5940444889
 20
4.1262009975
  0
LWPOLYLINE
  5
239
100
AcDbEntity
  8
0
100
AcDbPolyline
 62
7
  6
CONTINUOUS
 90
13
 70
0
 10
-9.4747593814
 20
3.49733548
 10
-9.4963009173
 20
3.4832223553
 10
-9.5307305194
 20
3.4571043187
 10
-9.5628475654
 20
3.4280404738
 10
-9.5923850347
 20
3.3962397196
 10
-9.6191019976
 20
3.3619288515
 10
-9.6428439283
 20
3.325243614
 10
-9.6633445233
 20
3.2865151169
 10
-9.6804123232
 20
3.2460411757
 10
-9.6939398265
 20
3.2039409456
 10
-9.703748622
 20
3.160509791
 10
-9.7096680726
 20
3.1162289617
 10
-9.711611465
 20
3.0715228043
  0
LINE
  5
23A
100
AcDbEntity
  8
0
100
AcDbLine
 62
7
  6
CONTINUOUS
 10
-9.4747090923
 20
3.4973666101
 11
-9.1744706109
 21
3.6831502769
  0
LINE
  5
23B
100
AcDbEntity
  8
0
100
AcDbLine
 62
253
  6
CONTINUOUS
 10
-9.2146971658
 20
3.4786226537
 11
-9.0356536938
 21
3.5894124252
  0
LINE
  5
23C
100
AcDbEntity
  8
0
100
AcDbLine
 62
253
  6
CONTINUOUS
 10
6.6257939539
 20
13.0212667766
 11
10.7284642657
 21
15.5111340097
  0
LWPOLYLINE
  5
23D
100
AcDbEntity
  8
0
100
AcDbPolyline
 62
253
  6
CONTINUOUS
 90
9
 70
0
 10
-9.4747090923
 20
3.4973666101
 10
-9.4570363799
 20
3.5069282423
 10
-9.4277240809
 20
3.5176350672
 10
-9.3960211948
 20
3.5234459346
 10
-9.3622796346
 20
3.5242906165
 10
-9.3268791286
 20
3.5201575486
 10
-9.2902127719
 20
3.5110932378
 10
-9.2526810769
 20
3.4971972863
 10
-9.2146971985
 20
3.4786226335
  0
LINE
  5
23E
100
AcDbEntity
  8
0
100
AcDbLine
 62
7
  6
CONTINUOUS
 10
11.1779642994
 20
-8.0139083448
 11
12.1022799132
 21
-8.0185653216
  0
LWPOLYLINE
  5
23F
100
AcDbEntity
  8
0
100
AcDbPolyline
 62
7
  6
CONTINUOUS
 90
5
 70
0
 10
-9.6820782991
 20
4.142241372
 10
-9.694902019
 20
4.1833559683
 10
-9.7041834575
 20
4.2256709556
 10
-9.7097773297
 20
4.2687473536
 10
-9.7116113997
 20
4.3121984646
  0
LWPOLYLINE
  5
240
100
AcDbEntity
  8
0
100
AcDbPolyline
 62
7
  6
CONTINUOUS
 90
4
 70
0
 10
-9.6237056963
 20
4.028379526
 10
-9.6463567304
 20
4.0645624086
 10
-9.6658659029
 20
4.1026042932
 10
-9.6820782991
 20
4.142241372
  0
LINE
  5
241
100
AcDbEntity
  8
0
100
AcDbLine
 62
253
  6
CONTINUOUS
 10
-3.3560111449
 20
22.8484949092
 11
-3.3560111449
 21
22.7865216845
  0
LINE
  5
242
100
AcDbEntity
  8
0
100
AcDbLine
 62
7
  6
CONTINUOUS
 10
-2.9376092578
 20
23.8099889164
 11
-2.9376092578
 21
22.5269970508
  0
LINE
  5
243
100
AcDbEntity
  8
0
100
AcDbLine
 62
7
  6
CONTINUOUS
 10
4.9819866914
 20
19.2373134712
 11
4.5635848044
 21
18.2758194639
  0
LINE
  5
244
100
AcDbEntity
  8
0
100
AcDbLine
 62
7
  6
CONTINUOUS
 10
11.1779642994
 20
10.1117318
 11
10.7284642657
 21
9.8567255436
  0
LINE
  5
245
100
AcDbEntity
  8
0
100
AcDbLine
 62
7
  6
CONTINUOUS
 10
10.897659986
 20
9.4670577402
 11
10.7284642657
 21
9.3710711685
  0
LWPOLYLINE
  5
246
100
AcDbEntity
  8
0
100
AcDbPolyline
 62
253
  6
CONTINUOUS
 90
10
 70
0
 10
5.1510066647
 20
-5.6280326707
 10
3.3893446662
 20
-4.7560425729
 10
1.6578065361
 20
-3.8651548799
 10
-0.0432691449
 20
-2.9555604446
 10
-1.7134466212
 20
-2.0275103271
 10
-3.3524977741
 20
-1.0811427611
 10
-4.9603903606
 20
-0.1164763545
 10
-6.536884907
 20
0.8663571611
 10
-8.0815464751
 20
1.8671061339
 10
-9.5940443477
 20
2.8855749887
  0
LWPOLYLINE
  5
247
100
AcDbEntity
  8
0
100
AcDbPolyline
 62
253
  6
CONTINUOUS
 90
10
 70
0
 10
5.4700157042
 20
-5.0001464747
 10
3.7150080673
 20
-4.1313544787
 10
1.9906683507
 20
-3.2441378963
 10
0.2969965541
 20
-2.3384967274
 10
-1.3662410532
 20
-1.4142960111
 10
-2.9988107403
 20
-0.4716707084
 10
-4.6000113144
 20
0.4889742978
 10
-6.1696090445
 20
1.4675040464
 10
-7.7078376617
 20
2.4640534983
 10
-9.2146971658
 20
3.4786226537
  0
LWPOLYLINE
  5
248
100
AcDbEntity
  8
0
100
AcDbPolyline
 62
7
  6
CONTINUOUS
 90
13
 70
0
 10
-9.4940646822
 20
3.8989601529
 10
-8.4075760773
 20
3.1652951941
 10
-7.2501473994
 20
2.405350782
 10
-6.0740347429
 20
1.6549326257
 10
-4.8795043412
 20
0.9142299534
 10
-3.6668048595
 20
0.183414921
 10
-2.4361556159
 20
-0.5373828511
 10
-1.1877928277
 20
-1.2480295591
 10
0.0780473687
 20
-1.9483913181
 10
1.3611360959
 20
-2.6383438979
 10
2.6611704925
 20
-3.3177459592
 10
3.9778181527
 20
-3.9864461362
 10
5.2541503414
 20
-4.6167427828
  0
LINE
  5
249
100
AcDbEntity
  8
0
100
AcDbLine
 62
7
  6
CONTINUOUS
 10
-9.4940575625
 20
3.8989552963
 11
-9.4939899708
 21
3.898908999
  0
LWPOLYLINE
  5
24A
100
AcDbEntity
  8
0
100
AcDbPolyline
 62
7
  6
CONTINUOUS
 90
6
 70
0
 10
-9.4939899708
 20
3.898908999
 10
-9.5057534731
 20
3.9072104087
 10
-9.5389591886
 20
3.9335911677
 10
-9.5698342486
 20
3.9627159878
 10
-9.5981469104
 20
3.9943776033
 10
-9.6237056963
 20
4.028379526
  0
LWPOLYLINE
  5
24B
100
AcDbEntity
  8
0
100
AcDbPolyline
 62
253
  6
CONTINUOUS
 90
9
 70
0
 10
-9.5940445555
 20
2.8855750478
 10
-9.6235200331
 20
2.9079106828
 10
-9.6491006363
 20
2.9317996391
 10
-9.6705444829
 20
2.9570160303
 10
-9.6876488043
 20
2.9833214139
 10
-9.7002518708
 20
3.0104670582
 10
-9.7082345142
 20
3.0381962952
 10
-9.7115212472
 20
3.0662469392
 10
-9.711611465
 20
3.0715228041
  0
LINE
  5
24C
100
AcDbEntity
  8
0
100
AcDbLine
 62
7
  6
CONTINUOUS
 10
10.7284642657
 20
8.4720268847
 11
12.3576221794
 21
9.49940621
  0
LWPOLYLINE
  5
24D
100
AcDbEntity
  8
0
100
AcDbPolyline
 62
253
  6
CONTINUOUS
 90
16
 70
0
 10
5.1510067532
 20
-4.3874068793
 10
5.1896735078
 20
-4.4044355861
 10
5.2310202639
 20
-4.4192213634
 10
5.2746560593
 20
-4.4316244014
 10
5.320168281
 20
-4.4415274195
 10
5.3671265859
 20
-4.4488367797
 10
5.4150869724
 20
-4.4534833689
 10
5.4635959647
 20
-4.455423247
 10
5.512194855
 20
-4.4546380648
 10
5.5604240613
 20
-4.4511352475
 10
5.6078275213
 20
-4.444947924
 10
5.6539570267
 20
-4.4361346027
 10
5.6983764141
 20
-4.4247786171
 10
5.7406656745
 20
-4.4109873434
 10
5.7804249266
 20
-4.3948911893
 10
5.8172782195
 20
-4.3766423549
  0
LWPOLYLINE
  5
24E
100
AcDbEntity
  8
0
100
AcDbPolyline
 62
7
  6
CONTINUOUS
 90
12
 70
0
 10
5.2543175652
 20
-4.6168242905
 10
5.2662491524
 20
-4.6224371441
 10
5.3108875471
 20
-4.6401867282
 10
5.3571238392
 20
-4.6535946766
 10
5.4045908758
 20
-4.6625154533
 10
5.4528699932
 20
-4.6668218618
 10
5.5014954556
 20
-4.6664244201
 10
5.5500120793
 20
-4.6612805842
 10
5.597970114
 20
-4.6513879963
 10
5.6448816958
 20
-4.6367964041
 10
5.6902356732
 20
-4.6176228204
 10
5.7100467415
 20
-4.6075229072
  0
LINE
  5
24F
100
AcDbEntity
  8
0
100
AcDbLine
 62
7
  6
CONTINUOUS
 10
5.2541993081
 20
-4.6167666833
 11
5.2543175652
 21
-4.6168242905
  0
LINE
  5
250
100
AcDbEntity
  8
0
100
AcDbLine
 62
7
  6
CONTINUOUS
 10
12.1022799132
 20
-8.0185653216
 11
12.3359993528
 21
-8.1535119968
  0
LWPOLYLINE
  5
251
100
AcDbEntity
  8
0
100
AcDbPolyline
 62
253
  6
CONTINUOUS
 90
10
 70
0
 10
-9.5940443551
 20
4.1262009039
 10
-8.0815474007
 20
3.1103460324
 10
-6.536886555
 20
2.1115577375
 10
-4.9603925204
 20
1.130031421
 10
-3.3525002204
 20
0.1660186232
 10
-1.7134491144
 20
-0.7803489699
 10
-0.0432714314
 20
-1.7090527423
 10
1.6578047237
 20
-2.6199543984
 10
3.3893436086
 20
-3.5128027506
 10
5.1510066559
 20
-4.3874067564
  0
LINE
  5
252
100
AcDbEntity
  8
0
100
AcDbLine
 62
7
  6
CONTINUOUS
 10
10.7284642657
 20
5.0428517221
 11
12.3576221794
 21
6.1048796294
  0
LINE
  5
253
100
AcDbEntity
  8
0
100
AcDbLine
 62
7
  6
CONTINUOUS
 10
10.7284642657
 20
-5.7345559315
 11
9.9503801764
 21
-5.2852999301
  0
LINE
  5
254
100
AcDbEntity
  8
0
100
AcDbLine
 62
7
  6
CONTINUOUS
 10
8.5267221371
 20
-3.0918676677
 11
8.705937516
 21
-3.1953443814
  0
LINE
  5
255
100
AcDbEntity
  8
0
100
AcDbLine
 62
7
  6
CONTINUOUS
 10
10.7284642657
 20
1.1237943935
 11
9.0595313108
 21
0.2093522358
  0
LWPOLYLINE
  5
256
100
AcDbEntity
  8
0
100
AcDbPolyline
 62
253
  6
CONTINUOUS
 90
16
 70
0
 10
5.8172782883
 20
-5.6159956928
 10
5.8151103559
 20
-5.572887199
 10
5.8092576326
 20
-5.5278457818
 10
5.7997464309
 20
-5.4813410076
 10
5.7866274806
 20
-5.4338138121
 10
5.7700178965
 20
-5.3858294658
 10
5.7501379124
 20
-5.3380726018
 10
5.7272350698
 20
-5.2911241324
 10
5.7015392106
 20
-5.2454432958
 10
5.6733251993
 20
-5.2015214859
 10
5.6428958836
 20
-5.1598362534
 10
5.6105891232
 20
-5.1208560904
 10
5.5767685278
 20
-5.0850217544
 10
5.5418096394
 20
-5.05273054
 10
5.5060943113
 20
-5.0243345743
 10
5.4700157042
 20
-5.0001464747
  0
LWPOLYLINE
  5
257
100
AcDbEntity
  8
0
100
AcDbPolyline
 62
253
  6
CONTINUOUS
 90
9
 70
0
 10
5.1510067532
 20
-4.3874068793
 10
5.1531190651
 20
-4.4296353247
 10
5.1582046073
 20
-4.4678482453
 10
5.1663883901
 20
-4.5023914093
 10
5.1782027526
 20
-4.5337443043
 10
5.1935342709
 20
-4.5615617355
 10
5.2115244583
 20
-4.5848601351
 10
5.2323300614
 20
-4.6035362797
 10
5.2541993081
 20
-4.6167666833
  0
LWPOLYLINE
  5
258
100
AcDbEntity
  8
0
100
AcDbPolyline
 62
253
  6
CONTINUOUS
 90
10
 70
0
 10
6.1428978066
 20
-21.8460669801
 10
6.0753027956
 20
-19.9970618416
 10
6.0158702216
 20
-18.1746830424
 10
5.9646000846
 20
-16.3789305822
 10
5.9219039458
 20
-14.6300849519
 10
5.887370244
 20
-12.9078656608
 10
5.8597642957
 20
-11.1514312365
 10
5.8386745398
 20
-9.3405011883
 10
5.8245125373
 20
-7.4953560071
 10
5.8172782883
 20
-5.6159956928
  0
LWPOLYLINE
  5
259
100
AcDbEntity
  8
0
100
AcDbPolyline
 62
253
  6
CONTINUOUS
 90
10
 70
0
 10
5.4699663965
 20
-21.871325725
 10
5.4031259294
 20
-20.0215798518
 10
5.3450318358
 20
-18.197862201
 10
5.2953044642
 20
-16.4004488835
 10
5.2540079343
 20
-14.6499227567
 10
5.2201798371
 20
-12.926324711
 10
5.1926188047
 20
-11.1686787574
 10
5.1714798681
 20
-9.356351554
 10
5.1574862506
 20
-7.5095281017
 10
5.1510066647
 20
-5.6280326707
  0
LINE
  5
25A
100
AcDbEntity
  8
0
100
AcDbLine
 62
253
  6
CONTINUOUS
 10
4.5635848044
 20
18.2758194639
 11
4.5635848044
 21
18.2138462392
  0
LINE
  5
25B
100
AcDbEntity
  8
0
100
AcDbLine
 62
7
  6
CONTINUOUS
 10
4.9819866914
 20
19.2373134712
 11
4.9819866914
 21
17.9543216056
  0
LWPOLYLINE
  5
25C
100
AcDbEntity
  8
0
100
AcDbPolyline
 62
253
  6
CONTINUOUS
 90
10
 70
0
 10
5.8172782183
 20
-4.3766423555
 10
5.8223245592
 20
-2.6901059579
 10
5.8345536135
 20
-0.974680853
 10
5.8539653809
 20
0.769632959
 10
5.8797589412
 20
2.529202984
 10
5.9127352147
 20
4.3176617162
 10
5.9552969628
 20
6.1759066386
 10
6.008245106
 20
8.1175702457
 10
6.0707787237
 20
10.129020043
 10
6.1428978161
 20
12.2102560306
  0
LWPOLYLINE
  5
25D
100
AcDbEntity
  8
0
100
AcDbPolyline
 62
253
  6
CONTINUOUS
 90
10
 70
0
 10
5.1510066559
 20
-4.3874067564
 10
5.1564232416
 20
-2.6988991685
 10
5.1683068593
 20
-0.9816414395
 10
5.1869387142
 20
0.764494139
 10
5.212382035
 20
2.5262545766
 10
5.2450442076
 20
4.3170890165
 10
5.2861920827
 20
6.1774334798
 10
5.3369859604
 20
8.1211420131
 10
5.3979645424
 20
10.1352012083
 10
5.469966397
 20
12.2200110073
  0
LWPOLYLINE
  5
25E
100
AcDbEntity
  8
0
100
AcDbPolyline
 62
253
  6
CONTINUOUS
 90
16
 70
0
 10
5.1510068236
 20
-5.6280327498
 10
5.1531188869
 20
-5.5837341806
 10
5.1582040883
 20
-5.5382580357
 10
5.1663874238
 20
-5.4917578875
 10
5.1782011346
 20
-5.4441875455
 10
5.1935318536
 20
-5.3957256241
 10
5.2115213331
 20
-5.3472206437
 10
5.2323263771
 20
-5.2996945842
 10
5.2561524668
 20
-5.2533804361
 10
5.2820302537
 20
-5.2084421158
 10
5.3099035753
 20
-5.1657517625
 10
5.3398854436
 20
-5.1259274561
 10
5.3710743387
 20
-5.0888847672
 10
5.4030850156
 20
-5.0550582253
 10
5.436106173
 20
-5.0253086407
 10
5.4700157042
 20
-5.0001464747
  0
LWPOLYLINE
  5
25F
100
AcDbEntity
  8
0
100
AcDbPolyline
 62
253
  6
CONTINUOUS
 90
9
 70
0
 10
5.8172782185
 20
-4.3766423554
 10
5.8151102822
 20
-4.4178686169
 10
5.8092575498
 20
-4.4565382544
 10
5.7997463364
 20
-4.4922055186
 10
5.7866273745
 20
-4.5244837893
 10
5.7700177813
 20
-4.5529413786
 10
5.7501377908
 20
-4.5771516965
 10
5.7272349466
 20
-4.5968272772
 10
5.7100467415
 20
-4.6075229072
  0
LWPOLYLINE
  5
260
100
AcDbEntity
  8
0
100
AcDbPolyline
 62
253
  6
CONTINUOUS
 90
22
 70
0
 10
5.4699664134
 20
12.2200110118
 10
5.4744733022
 20
12.2913622808
 10
5.4830829712
 20
12.3646007485
 10
5.4957551007
 20
12.4393634216
 10
5.5124355249
 20
12.5152708068
 10
5.5330408397
 20
12.5919543794
 10
5.5574613844
 20
12.6690589362
 10
5.5855909394
 20
12.7462051651
 10
5.6172958179
 20
12.8230042642
 10
5.6524014851
 20
12.8990858233
 10
5.690748656
 20
12.9740672224
 10
5.73215805
 20
13.0475742992
 10
5.7764024285
 20
13.1192563697
 10
5.8232808631
 20
13.1887526341
 10
5.8725730447
 20
13.2557118481
 10
5.9240039194
 20
13.3198132907
 10
5.9773332262
 20
13.3807282977
 10
6.0323148299
 20
13.4381517379
 10
6.0886516892
 20
13.4918204066
 10
6.1460685386
 20
13.5414684249
 10
6.2043126024
 20
13.5868299205
 10
6.2631131113
 20
13.6276697577
  0
LWPOLYLINE
  5
261
100
AcDbEntity
  8
0
100
AcDbPolyline
 62
253
  6
CONTINUOUS
 90
22
 70
0
 10
6.1428978161
 20
12.2102560306
 10
6.1457117483
 20
12.2519255041
 10
6.1509592129
 20
12.2942864069
 10
6.15864021
 20
12.337338739
 10
6.1688160479
 20
12.3813192378
 10
6.1814254183
 20
12.4259911659
 10
6.1962843958
 20
12.4706443108
 10
6.2134251448
 20
12.5152605137
 10
6.2328155009
 20
12.5598579334
 10
6.2541750452
 20
12.6037808332
 10
6.2775352003
 20
12.647022199
 10
6.3028645435
 20
12.6895890448
 10
6.3297883888
 20
12.7308466763
 10
6.3583304491
 20
12.7707740821
 10
6.3884670114
 20
12.8093922734
 10
6.4197522503
 20
12.8461295893
 10
6.4522190495
 20
12.8809675128
 10
6.4858345254
 20
12.9139245608
 10
6.5200542014
 20
12.9444846223
 10
6.5546965854
 20
12.9724756602
 10
6.5899431696
 20
12.9980697117
 10
6.6257939539
 20
13.0212667766
  0
LINE
  5
262
100
AcDbEntity
  8
0
100
AcDbLine
 62
7
  6
CONTINUOUS
 10
10.897659986
 20
-8.6585824046
 11
10.7284642657
 21
-8.2963217659
  0
LINE
  5
263
100
AcDbEntity
  8
0
100
AcDbLine
 62
253
  6
CONTINUOUS
 10
8.705937516
 20
-3.1953443814
 11
5.4700157042
 21
-5.0001464747
  0
LINE
  5
264
100
AcDbEntity
  8
0
100
AcDbLine
 62
253
  6
CONTINUOUS
 10
9.0595313108
 20
-3.8076624319
 11
5.8172782883
 21
-5.6159956928
  0
LINE
  5
265
100
AcDbEntity
  8
0
100
AcDbLine
 62
253
  6
CONTINUOUS
 10
5.8172782183
 20
-4.3766423555
 11
9.0595313108
 21
-2.6319834217
  0
LINE
  5
266
100
AcDbEntity
  8
0
100
AcDbLine
 62
7
  6
CONTINUOUS
 10
5.7100276946
 20
-4.607533158
 11
8.9516589704
 21
-2.8632088242
  0
LWPOLYLINE
  5
267
100
AcDbEntity
  8
0
100
AcDbPolyline
 62
253
  6
CONTINUOUS
 90
16
 70
0
 10
5.8172782892
 20
-5.6159956923
 10
5.7804249963
 20
-5.6343688957
 10
5.7406657442
 20
-5.6505882429
 10
5.6983764839
 20
-5.6645003687
 10
5.6539570965
 20
-5.6759737229
 10
5.6078275912
 20
-5.6848998194
 10
5.5604241312
 20
-5.6911942582
 10
5.512194925
 20
-5.6947975184
 10
5.4635960349
 20
-5.6956755212
 10
5.4150870426
 20
-5.6938199634
 10
5.3671266561
 20
-5.6892483972
 10
5.3201683513
 20
-5.6820040531
 10
5.2746561296
 20
-5.6721554297
 10
5.2310203342
 20
-5.6597956506
 10
5.1896735782
 20
-5.6450415873
 10
5.1510068236
 20
-5.6280327498
  0
LINE
  5
268
100
AcDbEntity
  8
0
100
AcDbLine
 62
7
  6
CONTINUOUS
 10
9.0595313108
 20
-3.8076624319
 11
9.0595313108
 21
-6.6489980893
  0
LINE
  5
269
100
AcDbEntity
  8
0
100
AcDbLine
 62
7
  6
CONTINUOUS
 10
9.0595313108
 20
-2.6319834217
 11
9.0595313108
 21
0.2093522358
  0
LINE
  5
26A
100
AcDbEntity
  8
0
100
AcDbLine
 62
7
  6
CONTINUOUS
 10
9.9503801764
 20
-5.2852999301
 11
9.0595313108
 21
-5.773414061
  0
LINE
  5
26B
100
AcDbEntity
  8
0
100
AcDbLine
 62
7
  6
CONTINUOUS
 10
10.7284642657
 20
-5.7345559315
 11
9.0595313108
 21
-6.6489980893
  0
LINE
  5
26C
100
AcDbEntity
  8
0
100
AcDbLine
 62
7
  6
CONTINUOUS
 10
12.1022799132
 20
10.1070748232
 11
11.1779642994
 21
10.1117318
  0
LINE
  5
26D
100
AcDbEntity
  8
0
100
AcDbLine
 62
7
  6
CONTINUOUS
 10
10.7284642657
 20
15.5111340097
 11
10.7284642657
 21
1.1237943935
  0
LINE
  5
26E
100
AcDbEntity
  8
0
100
AcDbLine
 62
7
  6
CONTINUOUS
 10
10.7284642657
 20
-20.1218955477
 11
10.7284642657
 21
-5.7345559315
  0
LINE
  5
26F
100
AcDbEntity
  8
0
100
AcDbLine
 62
253
  6
CONTINUOUS
 10
12.3576221794
 20
9.49940621
 11
12.3576221794
 21
6.1048796294
  0
LINE
  5
270
100
AcDbEntity
  8
0
100
AcDbLine
 62
253
  6
CONTINUOUS
 10
12.3576221794
 20
-8.6262339348
 11
12.3576221794
 21
-12.0207605154
  0
LINE
  5
271
100
AcDbEntity
  8
0
100
AcDbLine
 62
7
  6
CONTINUOUS
 10
12.5117352841
 20
9.7284155506
 11
12.5117352841
 21
6.3394874398
  0
LINE
  5
272
100
AcDbEntity
  8
0
100
AcDbLine
 62
7
  6
CONTINUOUS
 10
12.5117352841
 20
-8.3972245942
 11
12.5117352841
 21
-11.786152705
  0
LINE
  5
273
100
AcDbEntity
  8
0
100
AcDbLine
 62
7
  6
CONTINUOUS
 10
10.7284642657
 20
-8.2689146012
 11
11.1779642994
 21
-8.0139083448
  0
LWPOLYLINE
  5
274
100
AcDbEntity
  8
0
100
AcDbPolyline
 62
253
  6
CONTINUOUS
 90
9
 70
0
 10
-9.2787234076
 20
20.7357196841
 10
-9.3092683584
 20
20.7577680501
 10
-9.3358703885
 20
20.7812733559
 10
-9.3582715671
 20
20.8060076961
 10
-9.376254694
 20
20.8317312487
 10
-9.3896454065
 20
20.8581946002
 10
-9.3983138694
 20
20.8851411642
 10
-9.4021760339
 20
20.9123096692
 10
-9.4023024503
 20
20.9255751353
  0
LINE
  5
275
100
AcDbEntity
  8
0
100
AcDbLine
 62
7
  6
CONTINUOUS
 10
10.7284642657
 20
-9.6536132601
 11
12.3576221794
 21
-8.6262339348
  0
LINE
  5
276
100
AcDbEntity
  8
0
100
AcDbLine
 62
7
  6
CONTINUOUS
 10
10.7284642657
 20
-8.7545689763
 11
10.897659986
 21
-8.6585824046
  0
LINE
  5
277
100
AcDbEntity
  8
0
100
AcDbLine
 62
7
  6
CONTINUOUS
 10
8.7523159751
 20
17.0603725961
 11
7.1908188748
 21
16.7588874387
  0
LWPOLYLINE
  5
278
100
AcDbEntity
  8
0
100
AcDbPolyline
 62
253
  6
CONTINUOUS
 90
16
 70
0
 10
5.4699748258
 20
12.2200161486
 10
5.5085864101
 20
12.2021341957
 10
5.5500111143
 20
12.1863614116
 10
5.5938472961
 20
12.1728507246
 10
5.6396699318
 20
12.1617331308
 10
5.6870347379
 20
12.1531164232
 10
5.7354824784
 20
12.1470841467
 10
5.7845434174
 20
12.1436947886
 10
5.8337418737
 20
12.1429812113
 10
5.8826008326
 20
12.1449503333
 10
5.9306465712
 20
12.1495830626
 10
5.9774132513
 20
12.1568344815
 10
6.0224474362
 20
12.1666342823
 10
6.0653124869
 20
12.1788874489
 10
6.1055927958
 20
12.1934751778
 10
6.1428978161
 20
12.2102560306
  0
LWPOLYLINE
  5
279
100
AcDbEntity
  8
0
100
AcDbPolyline
 62
253
  6
CONTINUOUS
 90
31
 70
0
 10
6.2631131113
 20
13.6276697577
 10
5.754967243
 20
13.8830773496
 10
5.249075175
 20
14.1397367625
 10
4.7454369072
 20
14.3976479964
 10
4.2441884511
 20
14.6567404298
 10
3.7451937953
 20
14.9170846843
 10
3.248044906
 20
15.1788926245
 10
2.7525369919
 20
15.442270422
 10
2.2588748444
 20
15.7071119054
 10
1.7672648041
 20
15.9733104246
 10
1.2777626924
 20
16.2408376593
 10
0.7903126879
 20
16.50972193
 10
0.304953667
 20
16.7799415482
 10
-0.1783857755
 20
17.0515392043
 10
-0.6596342343
 20
17.3244722079
 10
-1.1385386177
 20
17.5985907995
 10
-1.6148007706
 20
17.8737192878
 10
-2.0887188479
 20
18.1500333641
 10
-2.5609342226
 20
18.4279103432
 10
-3.0305535239
 20
18.706777165
 10
-3.4984701227
 20
18.9872068895
 10
-3.9680055038
 20
19.2712960116
 10
-4.4384590904
 20
19.5585116338
 10
-4.9105314593
 20
19.8493866535
 10
-5.3896458265
 20
20.1476162573
 10
-5.8761357725
 20
20.4532679857
 10
-6.3696677167
 20
20.7662742983
 10
-6.8746641331
 20
21.0901277599
 10
-7.3925991795
 20
21.4259925591
 10
-7.921998698
 20
21.7727045073
 10
-8.4628626887
 20
22.1302636046
  0
LWPOLYLINE
  5
27A
100
AcDbEntity
  8
0
100
AcDbPolyline
 62
253
  6
CONTINUOUS
 90
31
 70
0
 10
5.469966397
 20
12.2200110073
 10
4.9611874873
 20
12.4771554516
 10
4.454590184
 20
12.735504972
 10
3.9501810153
 20
12.9950535751
 10
3.4480837876
 20
13.2557341027
 10
2.9481866849
 20
13.51760114
 10
2.4501467678
 20
13.780833843
 10
1.9538139557
 20
14.0455144657
 10
1.4593601458
 20
14.3115543938
 10
0.9669277687
 20
14.5788779955
 10
0.4765585075
 20
14.8474624855
 10
-0.0117723999
 20
15.1173212325
 10
-0.4980242499
 20
15.3884315802
 10
-0.9822552941
 20
15.6608261933
 10
-1.464390468
 20
15.9344629424
 10
-1.9441924955
 20
16.2092049931
 10
-2.421349101
 20
16.4848673668
 10
-2.8961653589
 20
16.7616201
 10
-3.3693240448
 20
17.039862299
 10
-3.8399218584
 20
17.3190612842
 10
-4.3088426742
 20
17.5997418574
 10
-4.7793957838
 20
17.8839196355
 10
-5.250736099
 20
18.1711350144
 10
-5.723596242
 20
18.4618902629
 10
-6.2035257972
 20
18.7597124326
 10
-6.6905418504
 20
19.0647677148
 10
-7.1843331256
 20
19.3770264687
 10
-7.6897929345
 20
19.6998081111
 10
-8.2083558444
 20
20.0343134127
 10
-8.7380843867
 20
20.3795783416
 10
-9.2787234093
 20
20.7357196719
  0
LINE
  5
27B
100
AcDbEntity
  8
0
100
AcDbLine
 62
7
  6
CONTINUOUS
 10
12.3359993528
 20
9.972128148
 11
12.1022799132
 21
10.1070748232
  0
LWPOLYLINE
  5
27C
100
AcDbEntity
  8
0
100
AcDbPolyline
 62
253
  6
CONTINUOUS
 90
16
 70
0
 10
6.2631131113
 20
13.6276697577
 10
6.2991620415
 20
13.6035715691
 10
6.3350190755
 20
13.5753949952
 10
6.3702920405
 20
13.5434482066
 10
6.4045951517
 20
13.5080806093
 10
6.4375532316
 20
13.4696790232
 10
6.4688058141
 20
13.4286634513
 10
6.4980110857
 20
13.3854824859
 10
6.5248496248
 20
13.3406084027
 10
6.549027895
 20
13.2945319951
 10
6.5702814554
 20
13.2477572064
 10
6.5883778534
 20
13.2007956182
 10
6.6031191664
 20
13.1541608553
 10
6.6143441667
 20
13.1083629679
 10
6.6219300853
 20
13.0639028531
 10
6.6257939539
 20
13.0212667766
  0
LINE
  5
27D
100
AcDbEntity
  8
0
100
AcDbLine
 62
7
  6
CONTINUOUS
 10
10.7284642657
 20
9.8293183789
 11
10.897659986
 21
9.4670577402
  0
LINE
  5
27E
100
AcDbEntity
  8
0
100
AcDbLine
 62
7
  6
CONTINUOUS
 10
10.7284642657
 20
-13.0827884227
 11
12.3576221794
 21
-12.0207605154
  0
LWPOLYLINE
  5
27F
100
AcDbEntity
  8
0
100
AcDbPolyline
 62
253
  6
CONTINUOUS
 90
9
 70
0
 10
-8.4628626887
 20
22.1302636046
 10
-8.5006375551
 20
22.1487902791
 10
-8.5377968353
 20
22.1627722458
 10
-8.5739341075
 20
22.1720565961
 10
-8.6086541409
 20
22.1765418026
 10
-8.6415771863
 20
22.1761788238
 10
-8.6723431346
 20
22.1709716553
 10
-8.7006155012
 20
22.1609772831
 10
-8.7227130604
 20
22.1486257802
  0
LINE
  5
280
100
AcDbEntity
  8
0
100
AcDbLine
 62
7
  6
CONTINUOUS
 10
6.9976337095
 20
16.7844962738
 11
4.6153486135
 21
18.1599978313
  0
LINE
  5
281
100
AcDbEntity
  8
0
100
AcDbLine
 62
7
  6
CONTINUOUS
 10
-0.9219622398
 20
21.3571717191
 11
-3.3042473358
 21
22.7326732766
  0
LINE
  5
282
100
AcDbEntity
  8
0
100
AcDbLine
 62
7
  6
CONTINUOUS
 10
10.3752742123
 20
16.1232968504
 11
8.7523159751
 21
17.0603725961
  0
LINE
  5
283
100
AcDbEntity
  8
0
100
AcDbLine
 62
7
  6
CONTINUOUS
 10
4.9819866914
 20
19.2373134712
 11
0.8327200258
 21
21.6330480414
  0
LINE
  5
284
100
AcDbEntity
  8
0
100
AcDbLine
 62
7
  6
CONTINUOUS
 10
-2.9376092578
 20
23.8099889164
 11
-4.5605674951
 21
24.7470646622
  0
LINE
  5
285
100
AcDbEntity
  8
0
100
AcDbLine
 62
7
  6
CONTINUOUS
 10
0.8327200258
 20
21.6330480414
 11
-0.7287770745
 21
21.3315628839
  0
LWPOLYLINE
  5
286
100
AcDbEntity
  8
0
100
AcDbPolyline
 62
253
  6
CONTINUOUS
 90
9
 70
0
 10
6.5012442448
 20
-22.3676707181
 10
6.5248511577
 20
-22.3537474206
 10
6.5490292254
 20
-22.3335244176
 10
6.5702825235
 20
-22.3087622129
 10
6.5883786321
 20
-22.2797316613
 10
6.6031196624
 20
-22.2467502912
 10
6.6143444169
 20
-22.2101788399
 10
6.6219301547
 20
-22.1704173105
 10
6.6257939369
 20
-22.1279005883
  0
LINE
  5
287
100
AcDbEntity
  8
0
100
AcDbLine
 62
253
  6
CONTINUOUS
 10
10.7284642657
 20
-20.1218955477
 11
6.6257939369
 21
-22.1279005883
  0
LINE
  5
288
100
AcDbEntity
  8
0
100
AcDbLine
 62
7
  6
CONTINUOUS
 10
10.6147993738
 20
-20.3563435429
 11
6.5012442448
 21
-22.3676707181
  0
LWPOLYLINE
  5
289
100
AcDbEntity
  8
0
100
AcDbPolyline
 62
253
  6
CONTINUOUS
 90
22
 70
0
 10
6.6257939369
 20
-22.1279005883
 10
6.5899431523
 20
-22.1439902647
 10
6.5546965679
 20
-22.1570208475
 10
6.5200541837
 20
-22.1669923369
 10
6.4858345075
 20
-22.1739315822
 10
6.4522190314
 20
-22.177811734
 10
6.419752232
 20
-22.1785522438
 10
6.388466993
 20
-22.1760985597
 10
6.3583304306
 20
-22.1705052337
 10
6.3297883702
 20
-22.1618553733
 10
6.3028645248
 20
-22.1501019817
 10
6.2775351815
 20
-22.1352920559
 10
6.2541750264
 20
-22.117649694
 10
6.232815482
 20
-22.0971334479
 10
6.2134251258
 20
-22.0737847657
 10
6.1962843768
 20
-22.0479520897
 10
6.1814253991
 20
-22.0195820142
 10
6.1688160284
 20
-21.988727945
 10
6.1586401913
 20
-21.955898541
 10
6.1509591963
 20
-21.9212633554
 10
6.1457117348
 20
-21.8846528351
 10
6.1428978066
 20
-21.8460669801
  0
ELLIPSE
  5
28A
100
AcDbEntity
  8
0
100
AcDbEllipse
 62
7
  6
CONTINUOUS
 10
11.9117352841
 20
-11.7891756832
 30
0.0
 11
0.5999940844
 21
0.0045747266
 31
0.0
 40
0.5824033911
 41
-0.7374788609
 42
-0.0044405631
  0
ELLIPSE
  5
28B
100
AcDbEntity
  8
0
100
AcDbEllipse
 62
7
  6
CONTINUOUS
 10
10.3747896797
 20
-19.9171282264
 30
0.0
 11
-0.2500125069
 21
0.433896272
 31
0.0
 40
0.5765407173
 41
-3.1808199814
 42
-2.3559018685
  0
ELLIPSE
  5
28C
100
AcDbEntity
  8
0
100
AcDbEllipse
 62
7
  6
CONTINUOUS
 10
8.7058567247
 20
-3.6035484168
 30
0.0
 11
-0.2501454382
 21
0.4329727255
 31
0.0
 40
0.577463496
 41
-2.3564333972
 42
-0.7858655045
  0
ELLIPSE
  5
28D
100
AcDbEntity
  8
0
100
AcDbEllipse
 62
7
  6
CONTINUOUS
 10
11.9117352841
 20
-8.3942016159
 30
0.0
 11
0.5999944833
 21
-0.0044955697
 31
0.0
 40
0.5723275643
 41
-0.728750042
 42
0.7896864073
  0
ELLIPSE
  5
28E
100
AcDbEntity
  8
0
100
AcDbEllipse
 62
7
  6
CONTINUOUS
 10
11.9117352841
 20
6.3364644616
 30
0.0
 11
0.5999940844
 21
0.0045747266
 31
0.0
 40
0.5824033911
 41
-0.7374788609
 42
-0.0044405631
  0
ELLIPSE
  5
28F
100
AcDbEntity
  8
0
100
AcDbEllipse
 62
7
  6
CONTINUOUS
 10
10.3747896797
 20
15.7147812352
 30
0.0
 11
-0.2496682101
 21
0.4333034053
 31
0.0
 40
0.578122598
 41
-2.3545265006
 42
-0.7851001699
  0
ELLIPSE
  5
290
100
AcDbEntity
  8
0
100
AcDbEllipse
 62
7
  6
CONTINUOUS
 10
-4.5600829624
 20
24.3379895208
 30
0.0
 11
-0.2500125069
 21
0.433896272
 31
0.0
 40
0.5765407173
 41
-0.7837355456
 42
0.0392273283
  0
ELLIPSE
  5
291
100
AcDbEntity
  8
0
100
AcDbEllipse
 62
7
  6
CONTINUOUS
 10
7.1390550658
 20
16.8747090713
 30
0.0
 11
0.1999154856
 21
0.0095814127
 31
0.0
 40
0.6067642562
 41
-2.385266879
 42
-1.3380693278
  0
ELLIPSE
  5
292
100
AcDbEntity
  8
0
100
AcDbEllipse
 62
7
  6
CONTINUOUS
 10
-0.7805408835
 20
21.4473845166
 30
0.0
 11
0.1999154856
 21
0.0095814127
 31
0.0
 40
0.6067642562
 41
-2.385266879
 42
-1.3380693278
  0
ELLIPSE
  5
293
100
AcDbEntity
  8
0
100
AcDbEllipse
 62
7
  6
CONTINUOUS
 10
8.7058567247
 20
-2.4276828899
 30
0.0
 11
-0.2502024655
 21
0.4330717124
 31
0.0
 40
0.5771997317
 41
-3.1590443311
 42
-2.3566615088
  0
ELLIPSE
  5
294
100
AcDbEntity
  8
0
100
AcDbEllipse
 62
7
  6
CONTINUOUS
 10
4.7567699697
 20
18.2502106288
 30
0.0
 11
0.1999154856
 21
0.0095814127
 31
0.0
 40
0.6067642562
 41
2.850720877
 42
3.8979184282
  0
ELLIPSE
  5
295
100
AcDbEntity
  8
0
100
AcDbEllipse
 62
7
  6
CONTINUOUS
 10
-3.1628259796
 20
22.822886074
 30
0.0
 11
0.1999154856
 21
0.0095814127
 31
0.0
 40
0.6067642562
 41
2.850720877
 42
3.8979184282
  0
ELLIPSE
  5
296
100
AcDbEntity
  8
0
100
AcDbEllipse
 62
7
  6
CONTINUOUS
 10
11.9117352841
 20
9.7314385289
 30
0.0
 11
0.5999944833
 21
-0.0044955697
 31
0.0
 40
0.5723275643
 41
-0.728750042
 42
0.7896864073
  0
ENDSEC
  0
SECTION
  2
OBJECTS
  0
DICTIONARY
  5
C
100
AcDbDictionary
280
0
281
1
  3
ACAD_GROUP
350
D
  3
ACAD_MLINESTYLE
350
17
  3
ACAD_LAYOUT
350
1A
  3
ACAD_PLOTSETTINGS
350
19
  3
ACAD_PLOTSTYLENAME
350
E
  0
DICTIONARY
  5
D
102
{ACAD_REACTORS
330
C
102
}
100
AcDbDictionary
280
0
281
1
  0
ACDBDICTIONARYWDFLT
  5
E
102
{ACAD_REACTORS
330
C
102
}
100
AcDbDictionary
281
1
  3
Normal
350
F
100
AcDbDictionaryWithDefault
340
F
  0
DICTIONARY
  5
17
102
{ACAD_REACTORS
330
C
102
}
100
AcDbDictionary
280
0
281
1
  3
Standard
350
18
  0
DICTIONARY
  5
19
102
{ACAD_REACTORS
330
C
102
}
100
AcDbDictionary
281
1
  0
DICTIONARY
  5
1A
102
{ACAD_REACTORS
330
C
102
}
100
AcDbDictionary
281
1
  3
Model
350
297
  3
Layout1
350
298
  0
ACDBPLACEHOLDER
  5
F
102
{ACAD_REACTORS
330
E
102
}
  0
MLINESTYLE
  5
18
102
{ACAD_REACTORS
330
17
102
}
100
AcDbMlineStyle
  2
STANDARD
 70
0
  3

 62
256
 51
90.0
 52
90.0
 71
2
 49
0.5
 62
256
  6
BYLAYER
 49
-0.5
 62
256
  6
BYLAYER
  0
LAYOUT
  5
297
102
{ACAD_REACTORS
330
1A
102
}
100
AcDbPlotSettings
  1

  2
none_device
  4
ISO_A4_(297.00_x_210.00_MM)
  6

 40
0.0
 41
0.0
 42
0.0
 43
0.0
 44
297.0
 45
210.0
 46
0.0
 47
0.0
 48
0.0
 49
0.0
140
0.0
141
0.0
142
1.0
143
1.0
 70
1024
 72
1
 73
0
 74
0
  7

 75
0
147
1.0
148
0.0
149
0.0
100
AcDbLayout
  1
Model
 70
0
 71
0
 10
0.0
 20
0.0
 11
297.0
 21
210.0
 12
0.0
 22
0.0
 32
0.0
 14
0.0
 24
0.0
 34
0.0
 15
0.0
 25
0.0
 35
0.0
146
0.0
 13
0.0
 23
0.0
 33
0.0
 16
1.0
 26
0.0
 36
0.0
 17
0.0
 27
1.0
 37
0.0
 76
0
330
21D
345
0
346
0
  0
LAYOUT
  5
298
102
{ACAD_REACTORS
330
1A
102
}
100
AcDbPlotSettings
  1

  2
none_device
  4
ISO_A4_(297.00_x_210.00_MM)
  6

 40
0.0
 41
0.0
 42
0.0
 43
0.0
 44
297.0
 45
210.0
 46
0.0
 47
0.0
 48
0.0
 49
0.0
140
0.0
141
0.0
142
1.0
143
1.0
 70
0
 72
1
 73
0
 74
0
  7

 75
0
147
1.0
148
0.0
149
0.0
100
AcDbLayout
  1
Layout1
 70
0
 71
1
 10
0.0
 20
0.0
 11
297.0
 21
210.0
 12
0.0
 22
0.0
 32
0.0
 14
0.0
 24
0.0
 34
0.0
 15
0.0
 25
0.0
 35
0.0
146
0.0
 13
0.0
 23
0.0
 33
0.0
 16
1.0
 26
0.0
 36
0.0
 17
0.0
 27
1.0
 37
0.0
 76
0
330
21E
345
0
346
0
  0
ENDSEC
  0
EOF
