  0
SECTION
  2
HEADER
  9
$ACADVER
  1
AC1021
  9
$DWGCODEPAGE
  3
ANSI_1252
  9
$EXTMAX
 10
297.0
 20
210.0
 30
0.0
  9
$EXTMIN
 10
0.0
 20
0.0
 30
0.0
  9
$LIMMIN
 10
0.0
 20
0.0
  9
$LIMMAX
 10
297.0
 20
210.0
  9
$VIEWCTR
 10
148.5
 20
105.0
  9
$VIEWSIZE
 40
210.0
  9
$CLAYER
  8
0
  9
$LTSCALE
 40
16.335
  9
$CELTYPE
  6
BYLAYER
  9
$DIMSCALE
 40
1.0
  9
$DIMASZ
 40
3.0
  9
$DIMEXO
 40
0.5
  9
$DIMDLI
 40
11.286
  9
$DIMEXE
 40
1.5
  9
$DIMCEN
 40
2.673
  9
$DIMLFAC
 40
1.0
  9
$DIMBLK
  1
_FILLED
  9
$DIMALT
 70
0
  9
$DIMALTF
 40
25.4
  9
$DIMTXT
 40
3.0
  9
$DIMTOL
 70
1
  9
$DIMLIM
 70
0
  9
$DIMTFAC
 40
1.0
  9
$DIMTP
 40
0.01
  9
$DIMTM
 40
0.01
  9
$DIMGAP
 40
0.625
  9
$DIMDSEP
 70
44
  9
$AUNITS
 70
0
  9
$PDMODE
 70
3
  9
$PDSIZE
 40
3.0
  9
$HANDSEED
  5
2EF
  9
$TILEMODE
 70
1
  9
$MEASUREMENT
 70
1
  9
$INSUNITS
 70
4
  0
ENDSEC
  0
SECTION
  2
CLASSES
  0
CLASS
  1
ACDBDICTIONARYWDFLT
  2
AcDbDictionaryWithDefault
  3
AutoCAD 2000
 90
0
 91
1
280
0
281
0
  0
CLASS
  1
ACDBPLACEHOLDER
  2
AcDbPlaceHolder
  3
AutoCAD 2000
 90
0
 91
1
280
0
281
0
  0
CLASS
  1
LAYOUT
  2
AcDbLayout
  3
AutoCAD 2000
 90
0
 91
0
280
0
281
0
  0
ENDSEC
  0
SECTION
  2
TABLES
  0
TABLE
  2
VPORT
  5
8
100
AcDbSymbolTable
 70
2
  0
VPORT
  5
1F4
100
AcDbSymbolTableRecord
100
AcDbViewportTableRecord
  2
*ACTIVE
 70
0
 10
0.0
 20
0.0
 11
1.0
 21
1.0
 12
148.5
 22
105.0
 13
0.0
 23
0.0
 14
1.0
 24
1.0
 15
0.0
 25
0.0
 16
0.0
 26
0.0
 36
1.0
 17
0.0
 27
0.0
 37
0.0
 40
210.0
 41
1.4142857143
 42
50.0
 43
0.0
 44
0.0
 50
0.0
 51
0.0
 71
0
 72
100
 73
1
 74
1
 75
0
 76
0
 77
0
 78
0
  0
ENDTAB
  0
TABLE
  2
LTYPE
  5
5
100
AcDbSymbolTable
 70
6
  0
LTYPE
  5
14
100
AcDbSymbolTableRecord
100
AcDbLinetypeTableRecord
  2
BYBLOCK
 70
0
  3

 72
65
 73
0
 40
0.0
  0
LTYPE
  5
15
100
AcDbSymbolTableRecord
100
AcDbLinetypeTableRecord
  2
BYLAYER
 70
0
  3

 72
65
 73
0
 40
0.0
  0
LTYPE
  5
16
100
AcDbSymbolTableRecord
100
AcDbLinetypeTableRecord
  2
CONTINUOUS
 70
64
  3
Solid line
 72
65
 73
0
 40
0.0
  0
LTYPE
  5
1F5
100
AcDbSymbolTableRecord
100
AcDbLinetypeTableRecord
  2
CENTER
 70
64
  3
____ _ ____ _ ____ _ ____ _ ____ _ ____ _ ____
 72
65
 73
4
 40
0.6
 49
0.375
 74
0
 49
-0.075
 74
0
 49
0.075
 74
0
 49
-0.075
 74
0
  0
LTYPE
  5
1F6
100
AcDbSymbolTableRecord
100
AcDbLinetypeTableRecord
  2
HIDDEN
 70
64
  3
- - - - - - - - - - - - - - - - - - - -
 72
65
 73
2
 40
0.2
 49
0.1
 74
0
 49
-0.1
 74
0
  0
LTYPE
  5
1F7
100
AcDbSymbolTableRecord
100
AcDbLinetypeTableRecord
  2
PHANTOM
 70
64
  3
_____ _ _ _____ _ _ _____ _ _ _____
 72
65
 73
6
 40
0.8
 49
0.45
 74
0
 49
-0.05
 74
0
 49
0.1
 74
0
 49
-0.05
 74
0
 49
0.1
 74
0
 49
-0.05
 74
0
  0
LTYPE
  5
1F8
100
AcDbSymbolTableRecord
100
AcDbLinetypeTableRecord
  2
DOT
 70
64
  3
. . . . . . . . . . . . . . . . . . . .
 72
65
 73
2
 40
0.2
 49
0.1
 74
0
 49
-0.1
 74
0
  0
LTYPE
  5
1F9
100
AcDbSymbolTableRecord
100
AcDbLinetypeTableRecord
  2
DASHED
 70
64
  3
- - - - - - - - - - - - - - - - - - - -
 72
65
 73
2
 40
0.2
 49
0.1
 74
0
 49
-0.1
 74
0
  0
ENDTAB
  0
TABLE
  2
LAYER
  5
2
100
AcDbSymbolTable
 70
36
  0
LAYER
  5
10
100
AcDbSymbolTableRecord
100
AcDbLayerTableRecord
  2
0
 70
0
 62
7
  6
CONTINUOUS
370
-3
390
F
  0
LAYER
  5
1FA
100
AcDbSymbolTableRecord
100
AcDbLayerTableRecord
  2
DEFAULT_1
 70
0
 62
7
  6
CENTER
370
-3
390
F
  0
LAYER
  5
1FB
100
AcDbSymbolTableRecord
100
AcDbLayerTableRecord
  2
DEFAULT_2
 70
0
 62
7
  6
HIDDEN
370
-3
390
F
  0
LAYER
  5
1FC
100
AcDbSymbolTableRecord
100
AcDbLayerTableRecord
  2
DEFAULT_3
 70
0
 62
7
  6
PHANTOM
370
-3
390
F
  0
LAYER
  5
1FD
100
AcDbSymbolTableRecord
100
AcDbLayerTableRecord
  2
ASSI
 70
0
 62
7
  6
CONTINUOUS
370
-3
390
F
  0
LAYER
  5
1FE
100
AcDbSymbolTableRecord
100
AcDbLayerTableRecord
  2
COLOR3
 70
0
 62
7
  6
CONTINUOUS
370
-3
390
F
  0
LAYER
  5
1FF
100
AcDbSymbolTableRecord
100
AcDbLayerTableRecord
  2
COORDINATE
 70
0
 62
7
  6
CONTINUOUS
370
-3
390
F
  0
LAYER
  5
200
100
AcDbSymbolTableRecord
100
AcDbLayerTableRecord
  2
COPY_PUBLISH
 70
0
 62
7
  6
CONTINUOUS
370
-3
390
F
  0
LAYER
  5
201
100
AcDbSymbolTableRecord
100
AcDbLayerTableRecord
  2
COSMETIC
 70
0
 62
7
  6
CONTINUOUS
370
-3
390
F
  0
LAYER
  5
202
100
AcDbSymbolTableRecord
100
AcDbLayerTableRecord
  2
COSMETICI
 70
0
 62
7
  6
CONTINUOUS
370
-3
390
F
  0
LAYER
  5
203
100
AcDbSymbolTableRecord
100
AcDbLayerTableRecord
  2
CURVE
 70
0
 62
7
  6
CONTINUOUS
370
-3
390
F
  0
LAYER
  5
204
100
AcDbSymbolTableRecord
100
AcDbLayerTableRecord
  2
DRAFT
 70
0
 62
7
  6
CONTINUOUS
370
-3
390
F
  0
LAYER
  5
205
100
AcDbSymbolTableRecord
100
AcDbLayerTableRecord
  2
IMPORT_IGES
 70
0
 62
7
  6
CONTINUOUS
370
-3
390
F
  0
LAYER
  5
206
100
AcDbSymbolTableRecord
100
AcDbLayerTableRecord
  2
INTFCLR_1
 70
0
 62
7
  6
CONTINUOUS
370
-3
390
F
  0
LAYER
  5
207
100
AcDbSymbolTableRecord
100
AcDbLayerTableRecord
  2
INTF_10
 70
0
 62
7
  6
CONTINUOUS
370
-3
390
F
  0
LAYER
  5
208
100
AcDbSymbolTableRecord
100
AcDbLayerTableRecord
  2
INTF_13
 70
0
 62
7
  6
CONTINUOUS
370
-3
390
F
  0
LAYER
  5
209
100
AcDbSymbolTableRecord
100
AcDbLayerTableRecord
  2
INTF_15
 70
0
 62
7
  6
CONTINUOUS
370
-3
390
F
  0
LAYER
  5
20A
100
AcDbSymbolTableRecord
100
AcDbLayerTableRecord
  2
INTF_16
 70
0
 62
7
  6
CONTINUOUS
370
-3
390
F
  0
LAYER
  5
20B
100
AcDbSymbolTableRecord
100
AcDbLayerTableRecord
  2
INTF_18
 70
0
 62
7
  6
CONTINUOUS
370
-3
390
F
  0
LAYER
  5
20C
100
AcDbSymbolTableRecord
100
AcDbLayerTableRecord
  2
INTF_20
 70
0
 62
7
  6
CONTINUOUS
370
-3
390
F
  0
LAYER
  5
20D
100
AcDbSymbolTableRecord
100
AcDbLayerTableRecord
  2
INTF_3
 70
0
 62
7
  6
CONTINUOUS
370
-3
390
F
  0
LAYER
  5
20E
100
AcDbSymbolTableRecord
100
AcDbLayerTableRecord
  2
INTF_5
 70
0
 62
7
  6
CONTINUOUS
370
-3
390
F
  0
LAYER
  5
20F
100
AcDbSymbolTableRecord
100
AcDbLayerTableRecord
  2
INTF_8
 70
0
 62
7
  6
CONTINUOUS
370
-3
390
F
  0
LAYER
  5
210
100
AcDbSymbolTableRecord
100
AcDbLayerTableRecord
  2
LIVELLO_1
 70
0
 62
7
  6
CONTINUOUS
370
-3
390
F
  0
LAYER
  5
211
100
AcDbSymbolTableRecord
100
AcDbLayerTableRecord
  2
NOTE
 70
0
 62
7
  6
CONTINUOUS
370
-3
390
F
  0
LAYER
  5
212
100
AcDbSymbolTableRecord
100
AcDbLayerTableRecord
  2
PIANI
 70
0
 62
7
  6
CONTINUOUS
370
-3
390
F
  0
LAYER
  5
213
100
AcDbSymbolTableRecord
100
AcDbLayerTableRecord
  2
PUNTI
 70
0
 62
7
  6
CONTINUOUS
370
-3
390
F
  0
LAYER
  5
214
100
AcDbSymbolTableRecord
100
AcDbLayerTableRecord
  2
RACCORDO
 70
0
 62
7
  6
CONTINUOUS
370
-3
390
F
  0
LAYER
  5
215
100
AcDbSymbolTableRecord
100
AcDbLayerTableRecord
  2
SIMBOLI
 70
0
 62
7
  6
CONTINUOUS
370
-3
390
F
  0
LAYER
  5
216
100
AcDbSymbolTableRecord
100
AcDbLayerTableRecord
  2
SMUSSO
 70
0
 62
7
  6
CONTINUOUS
370
-3
390
F
  0
LAYER
  5
217
100
AcDbSymbolTableRecord
100
AcDbLayerTableRecord
  2
SNAPLINE
 70
0
 62
7
  6
CONTINUOUS
370
-3
390
F
  0
LAYER
  5
218
100
AcDbSymbolTableRecord
100
AcDbLayerTableRecord
  2
SOLIDO
 70
0
 62
7
  6
CONTINUOUS
370
-3
390
F
  0
LAYER
  5
219
100
AcDbSymbolTableRecord
100
AcDbLayerTableRecord
  2
SUPERFICI
 70
0
 62
7
  6
CONTINUOUS
370
-3
390
F
  0
LAYER
  5
21A
100
AcDbSymbolTableRecord
100
AcDbLayerTableRecord
  2
SUPERFICI_SKEL
 70
0
 62
7
  6
CONTINUOUS
370
-3
390
F
  0
LAYER
  5
21B
100
AcDbSymbolTableRecord
100
AcDbLayerTableRecord
  2
TRASH
 70
0
 62
7
  6
CONTINUOUS
370
-3
390
F
  0
LAYER
  5
21C
100
AcDbSymbolTableRecord
100
AcDbLayerTableRecord
  2
WHITE
 70
0
 62
7
  6
CONTINUOUS
370
-3
390
F
  0
LAYER
  5
21D
100
AcDbSymbolTableRecord
100
AcDbLayerTableRecord
  2
___SHELL
 70
0
 62
7
  6
CONTINUOUS
370
-3
390
F
  0
ENDTAB
  0
TABLE
  2
STYLE
  5
3
100
AcDbSymbolTable
 70
1
  0
STYLE
  5
11
100
AcDbSymbolTableRecord
100
AcDbTextStyleTableRecord
  2
STANDARD
 70
0
 40
0.0
 41
0.8
 50
0.0
 71
0
 42
0.2
  3
txt
  4

  0
STYLE
  5
21E
100
AcDbSymbolTableRecord
100
AcDbTextStyleTableRecord
  2
TEXTSTYLE_1
 70
0
 40
0.0
 41
0.8
 50
0.0
 71
0
 42
0.2
  3
gdt
  4

  0
ENDTAB
  0
TABLE
  2
VIEW
  5
6
100
AcDbSymbolTable
 70
0
  0
ENDTAB
  0
TABLE
  2
UCS
  5
7
100
AcDbSymbolTable
 70
0
  0
ENDTAB
  0
TABLE
  2
APPID
  5
9
100
AcDbSymbolTable
 70
1
  0
APPID
  5
21F
100
AcDbSymbolTableRecord
100
AcDbRegAppTableRecord
  2
ACAD
 70
0
  0
ENDTAB
  0
TABLE
  2
BLOCK_RECORD
  5
1
100
AcDbSymbolTable
 70
0
  0
BLOCK_RECORD
  5
220
100
AcDbSymbolTableRecord
100
AcDbBlockTableRecord
  2
*Model_Space
  0
BLOCK_RECORD
  5
221
100
AcDbSymbolTableRecord
100
AcDbBlockTableRecord
  2
*Paper_Space
  0
ENDTAB
  0
TABLE
  2
DIMSTYLE
  5
A
100
AcDbSymbolTable
 70
1
100
AcDbDimStyleTable
 71
0
  0
DIMSTYLE
105
222
100
AcDbSymbolTableRecord
100
AcDbDimStyleTableRecord
  2
STANDARD
 70
0
  3

  4

 40
1.0
 41
3.0
 42
0.5
 43
0.38
 44
1.5
 45
0.0
 46
0.0
 47
0.01
 48
0.01
140
3.0
141
0.09
142
0.0
143
25.4
144
1.0
145
0.0
146
1.0
147
0.625
 71
1.0
 72
0.0
 73
0
 74
0
 75
0
 76
0
 77
1
 78
8
170
0
171
1
172
0
173
0
174
0
175
0
176
0
177
0
178
0
270
2
271
2
272
2
273
2
274
2
275
0
280
0
281
0
282
0
283
1
284
8
285
0
286
0
287
3
288
0
340
11
278
44
  0
ENDTAB
  0
ENDSEC
  0
SECTION
  2
BLOCKS
  0
BLOCK
  5
20
100
AcDbEntity
  8
0
100
AcDbBlockBegin
  2
*Model_Space
 70
0
 10
0.0
 20
0.0
 30
0.0
  3
*Model_Space
  1

  0
ENDBLK
  5
21
100
AcDbEntity
  8
0
100
AcDbBlockEnd
  0
BLOCK
  5
1C
100
AcDbEntity
  8
0
100
AcDbBlockBegin
  2
*Paper_Space
 70
0
 10
0.0
 20
0.0
 30
0.0
  3
*Paper_Space
  1

  0
ENDBLK
  5
1D
100
AcDbEntity
  8
0
100
AcDbBlockEnd
  0
ENDSEC
  0
SECTION
  2
ENTITIES
  0
LINE
  5
223
100
AcDbEntity
  8
0
100
AcDbLine
 62
7
  6
CONTINUOUS
 10
-8.6352239706
 20
22.2461136231
 11
-8.6353442077
 21
22.2460330746
  0
LWPOLYLINE
  5
224
100
AcDbEntity
  8
0
100
AcDbPolyline
 62
7
  6
CONTINUOUS
 90
19
 70
0
 10
-8.6352202896
 20
22.2461081258
 10
-8.6739287176
 20
22.2190610601
 10
-8.7412039447
 20
22.1666724601
 10
-8.8053365778
 20
22.109881698
 10
-8.8663503425
 20
22.0490040842
 10
-8.9242224688
 20
21.9843379457
 10
-8.97876813
 20
21.9162966546
 10
-9.0299049458
 20
21.8451822392
 10
-9.0775199752
 20
21.7712486872
 10
-9.1213355821
 20
21.6950009569
 10
-9.1612318907
 20
21.6167110288
 10
-9.1970478343
 20
21.5366257205
 10
-9.2285268286
 20
21.4552553548
 10
-9.2555114319
 20
21.3728336047
 10
-9.2778098491
 20
21.2895769381
 10
-9.2951881315
 20
21.2058378739
 10
-9.3074061553
 20
21.1217904351
 10
-9.3142030902
 20
21.0376058909
 10
-9.3148056516
 20
21.0230627108
  0
LINE
  5
225
100
AcDbEntity
  8
0
100
AcDbLine
 62
7
  6
CONTINUOUS
 10
-6.2009688464
 20
23.878476471
 11
-8.6353442077
 21
22.2460330746
  0
LINE
  5
226
100
AcDbEntity
  8
0
100
AcDbLine
 62
253
  6
CONTINUOUS
 10
-5.9514293475
 20
23.8531999505
 11
-8.3753735989
 21
22.2277514475
  0
LWPOLYLINE
  5
227
100
AcDbEntity
  8
0
100
AcDbPolyline
 62
253
  6
CONTINUOUS
 90
22
 70
0
 10
-8.375373599
 20
22.2277514475
 10
-8.4356614289
 20
22.1877703737
 10
-8.4954519602
 20
22.1433017909
 10
-8.5544349964
 20
22.0945580702
 10
-8.6122889752
 20
22.0417653665
 10
-8.6687302346
 20
21.9851847109
 10
-8.7235140042
 20
21.9251094905
 10
-8.7763604615
 20
21.8618253863
 10
-8.8269917025
 20
21.7956393275
 10
-8.8751810539
 20
21.726899969
 10
-8.9206808493
 20
21.6559427593
 10
-8.9632552379
 20
21.5831083345
 10
-9.0027167681
 20
21.5087703515
 10
-9.0388646836
 20
21.4332905728
 10
-9.0715103124
 20
21.3570346505
 10
-9.1005102763
 20
21.2803909839
 10
-9.1257167913
 20
21.2037402335
 10
-9.1470004424
 20
21.1274483206
 10
-9.1642723823
 20
21.0518824704
 10
-9.1774482569
 20
20.9774106599
 10
-9.1864515867
 20
20.9043994966
 10
-9.1912343298
 20
20.8332075144
  0
LWPOLYLINE
  5
228
100
AcDbEntity
  8
0
100
AcDbPolyline
 62
253
  6
CONTINUOUS
 90
16
 70
0
 10
5.5574554879
 20
-21.7738378923
 10
5.5960675865
 20
-21.7912283882
 10
5.6374928777
 20
-21.8061749289
 10
5.6813297051
 20
-21.8185325941
 10
5.7271530308
 20
-21.8281815648
 10
5.7745185556
 20
-21.8350282855
 10
5.8229670275
 20
-21.8390063709
 10
5.872028694
 20
-21.8400772499
 10
5.9212278576
 20
-21.8382305392
 10
5.9700874872
 20
-21.8334841445
 10
6.018133844
 20
-21.8258840864
 10
6.0649010748
 20
-21.8155040543
 10
6.1099357282
 20
-21.8024446923
 10
6.1528011522
 20
-21.7868326227
 10
6.1930817273
 20
-21.7688192188
 10
6.2303868964
 20
-21.7485791372
  0
LWPOLYLINE
  5
229
100
AcDbEntity
  8
0
100
AcDbPolyline
 62
7
  6
CONTINUOUS
 90
12
 70
0
 10
5.819660497
 20
-22.2889737476
 10
5.875857771
 20
-22.3146627622
 10
5.9391865075
 20
-22.3372763133
 10
6.0049405957
 20
-22.3543591462
 10
6.0727147572
 20
-22.3657264654
 10
6.1420457892
 20
-22.3712318094
 10
6.2129494009
 20
-22.3707621357
 10
6.2851023
 20
-22.364166372
 10
6.3581108545
 20
-22.3513453869
 10
6.4320527069
 20
-22.3320937211
 10
6.5068078392
 20
-22.3061699263
 10
6.5885487974
 20
-22.2702648599
  0
LINE
  5
22A
100
AcDbEntity
  8
0
100
AcDbLine
 62
7
  6
CONTINUOUS
 10
5.8196225061
 20
-22.2889602831
 11
5.819499045
 21
-22.2888975666
  0
LWPOLYLINE
  5
22B
100
AcDbEntity
  8
0
100
AcDbPolyline
 62
253
  6
CONTINUOUS
 90
12
 70
0
 10
5.819499045
 20
-22.2888975666
 10
5.7782377257
 20
-22.2646295392
 10
5.7398905544
 20
-22.2352173253
 10
5.7047848871
 20
-22.2008784723
 10
5.6730800084
 20
-22.1617777265
 10
5.6449504533
 20
-22.1181199282
 10
5.620529908
 20
-22.0701232204
 10
5.5999245928
 20
-22.0180174717
 10
5.5832441692
 20
-21.9620552906
 10
5.5705720412
 20
-21.9025077928
 10
5.5619623736
 20
-21.8396661535
 10
5.5574554855
 20
-21.7738378881
  0
LWPOLYLINE
  5
22C
100
AcDbEntity
  8
0
100
AcDbPolyline
 62
7
  6
CONTINUOUS
 90
10
 70
0
 10
-8.9597338117
 20
-13.7554141685
 10
-7.4832896488
 20
-14.7115331826
 10
-5.8973744688
 20
-15.7099715489
 10
-4.2855977318
 20
-16.6957893738
 10
-2.64831961
 20
-17.6687614658
 10
-0.9859042624
 20
-18.6286682958
 10
0.7012704562
 20
-19.5752994478
 10
2.4128105014
 20
-20.5084510429
 10
4.1483129368
 20
-21.4279221459
 10
5.8194959854
 20
-22.2888960117
  0
LWPOLYLINE
  5
22D
100
AcDbEntity
  8
0
100
AcDbPolyline
 62
253
  6
CONTINUOUS
 90
31
 70
0
 10
-9.1912343211
 20
-13.258129218
 10
-8.7446154856
 20
-13.55116411
 10
-8.2959944328
 20
-13.842988391
 10
-7.8453815338
 20
-14.1335982859
 10
-7.3928933509
 20
-14.4229224542
 10
-6.9384350837
 20
-14.7110253057
 10
-6.4816956584
 20
-14.9981043951
 10
-6.0225322602
 20
-15.2842461715
 10
-5.5610986847
 20
-15.5693515691
 10
-5.0975261456
 20
-15.8533384796
 10
-4.6318541798
 20
-16.1361828784
 10
-4.1640595449
 20
-16.4178990117
 10
-3.6941814676
 20
-16.6984633706
 10
-3.2221634206
 20
-16.9779096152
 10
-2.748078316
 20
-17.2561943734
 10
-2.2721629935
 20
-17.5331805588
 10
-1.7947376973
 20
-17.8086877939
 10
-1.3155080857
 20
-18.082892312
 10
-0.8337831856
 20
-18.3561884863
 10
-0.3504836048
 20
-18.6280536303
 10
0.1352976237
 20
-18.8989992126
 10
0.6270454311
 20
-19.1709394377
 10
1.1239683522
 20
-19.4433837407
 10
1.6269319765
 20
-19.7167576163
 10
2.142025992
 20
-19.9942762674
 10
2.6695430931
 20
-20.2759467521
 10
3.2094277522
 20
-20.5615917638
 10
3.7673968687
 20
-20.8540551901
 10
4.3455198488
 20
-21.1541712536
 10
4.9421384499
 20
-21.4608147009
 10
5.5574554862
 20
-21.773837882
  0
LINE
  5
22E
100
AcDbEntity
  8
0
100
AcDbLine
 62
7
  6
CONTINUOUS
 10
-8.9598343398
 20
-13.7553481449
 11
-8.9597324874
 21
-13.7554150379
  0
LWPOLYLINE
  5
22F
100
AcDbEntity
  8
0
100
AcDbPolyline
 62
253
  6
CONTINUOUS
 90
8
 70
0
 10
-9.1912246882
 20
-13.2581239307
 10
-9.2217694887
 20
-13.235584318
 10
-9.2483714847
 20
-13.2112530878
 10
-9.2707727505
 20
-13.1853661491
 10
-9.2887560898
 20
-13.1581744944
 10
-9.302147141
 20
-13.1299417665
 10
-9.3108160683
 20
-13.1009417018
 10
-9.3147609627
 20
-13.0695662875
  0
LINE
  5
230
100
AcDbEntity
  8
0
100
AcDbLine
 62
7
  6
CONTINUOUS
 10
-4.0428815613
 20
22.7512283785
 11
-4.2231162097
 21
22.3370463691
  0
LWPOLYLINE
  5
231
100
AcDbEntity
  8
0
100
AcDbPolyline
 62
253
  6
CONTINUOUS
 90
55
 70
0
 10
-0.8517148671
 20
-12.2561165069
 10
-0.8491822339
 20
-12.257490094
 10
-0.8466748013
 20
-12.258760787
 10
-0.8441861263
 20
-12.2599334961
 10
-0.8417097657
 20
-12.2610131317
 10
-0.8392392765
 20
-12.262004604
 10
-0.8367695246
 20
-12.2629117222
 10
-0.8343006119
 20
-12.2637338905
 10
-0.831833949
 20
-12.2644694122
 10
-0.8293709469
 20
-12.2651165904
 10
-0.8269130164
 20
-12.2656737282
 10
-0.8244620011
 20
-12.2661390259
 10
-0.8220214773
 20
-12.2665102719
 10
-0.819595454
 20
-12.2667851517
 10
-0.8171879403
 20
-12.2669613505
 10
-0.8148029454
 20
-12.267036554
 10
-0.8128362034
 20
-12.2670206308
 10
-0.810894162
 20
-12.266932983
 10
-0.8089830993
 20
-12.266773629
 10
-0.807107639
 20
-12.2665423247
 10
-0.8052657857
 20
-12.2662377748
 10
-0.8034538892
 20
-12.2658584216
 10
-0.8016695261
 20
-12.2654028457
 10
-0.7999151808
 20
-12.2648701829
 10
-0.7981945645
 20
-12.2642597073
 10
-0.7965113884
 20
-12.2635706932
 10
-0.7948693636
 20
-12.2628024148
 10
-0.7932722014
 20
-12.2619541464
 10
-0.7917231952
 20
-12.2610257708
 10
-0.7902239665
 20
-12.2600196057
 10
-0.7887757195
 20
-12.2589385773
 10
-0.7873796578
 20
-12.2577856119
 10
-0.7860369854
 20
-12.2565636357
 10
-0.7847489062
 20
-12.255275575
 10
-0.7835159198
 20
-12.253923447
 10
-0.7823357086
 20
-12.2525056335
 10
-0.781205251
 20
-12.2510196073
 10
-0.7801226515
 20
-12.2494642549
 10
-0.7790905201
 20
-12.2478441182
 10
-0.7781125931
 20
-12.2461651528
 10
-0.7770147945
 20
-12.2440802825
 10
-0.7760003058
 20
-12.2419245058
 10
-0.7750690023
 20
-12.2397030531
 10
-0.7742207591
 20
-12.2374211552
 10
-0.7734554516
 20
-12.2350840426
 10
-0.7727727951
 20
-12.2326963716
 10
-0.7721718652
 20
-12.2302605005
 10
-0.771651578
 20
-12.2277782134
 10
-0.7712108493
 20
-12.2252512941
 10
-0.7708485949
 20
-12.2226815267
 10
-0.7705641586
 20
-12.2200690561
 10
-0.7703585945
 20
-12.217407471
 10
-0.7702333848
 20
-12.2146887209
 10
-0.7701900113
 20
-12.2119047553
 10
-0.7702299563
 20
-12.2090475239
  0
LINE
  5
232
100
AcDbEntity
  8
0
100
AcDbLine
 62
253
  6
CONTINUOUS
 10
-0.964044322
 20
-12.1931350841
 11
-0.8517149616
 21
-12.2561132075
  0
LWPOLYLINE
  5
233
100
AcDbEntity
  8
0
100
AcDbPolyline
 62
253
  6
CONTINUOUS
 90
55
 70
0
 10
-2.7846654629
 20
-11.1512322139
 10
-2.7821693921
 20
-11.1526429246
 10
-2.7796985859
 20
-11.1539488627
 10
-2.777246794
 20
-11.1551550628
 10
-2.774807766
 20
-11.1562665593
 10
-2.7723752517
 20
-11.157288387
 10
-2.7699442594
 20
-11.158224469
 10
-2.7675148335
 20
-11.1590742829
 10
-2.7650882768
 20
-11.159836195
 10
-2.7626658926
 20
-11.1605085715
 10
-2.7602489839
 20
-11.1610897786
 10
-2.7578393007
 20
-11.1615780711
 10
-2.7554403815
 20
-11.1619712575
 10
-2.7530562118
 20
-11.1622670351
 10
-2.7506907771
 20
-11.1624631008
 10
-2.7483480627
 20
-11.1625571518
 10
-2.7464166909
 20
-11.1625561715
 10
-2.7445101248
 20
-11.1624828156
 10
-2.7426346245
 20
-11.1623371512
 10
-2.7407948092
 20
-11.1621189978
 10
-2.7389887362
 20
-11.1618271842
 10
-2.7372128219
 20
-11.1614602916
 10
-2.7354646631
 20
-11.1610170315
 10
-2.733746578
 20
-11.1604966375
 10
-2.732062065
 20
-11.1598984736
 10
-2.7304146225
 20
-11.1592219037
 10
-2.7288077489
 20
-11.1584662918
 10
-2.7272449427
 20
-11.1576310019
 10
-2.7257293136
 20
-11.1567159936
 10
-2.7242624174
 20
-11.1557236088
 10
-2.7228454213
 20
-11.1546567851
 10
-2.7214794924
 20
-11.1535184603
 10
-2.7201657979
 20
-11.1523115719
 10
-2.7189055051
 20
-11.1510390574
 10
-2.7176990988
 20
-11.1497029459
 10
-2.7165443355
 20
-11.1483016311
 10
-2.7154382894
 20
-11.1468325982
 10
-2.7143791306
 20
-11.1452947278
 10
-2.7133694123
 20
-11.1436924826
 10
-2.7124127835
 20
-11.1420317208
 10
-2.7113389764
 20
-11.1399689886
 10
-2.7103467668
 20
-11.1378356041
 10
-2.7094360491
 20
-11.1356367434
 10
-2.7086067174
 20
-11.1333775823
 10
-2.7078586658
 20
-11.1310632968
 10
-2.7071916286
 20
-11.1286984877
 10
-2.7066046996
 20
-11.1262854545
 10
-2.706096813
 20
-11.1238259219
 10
-2.7056669026
 20
-11.1213216142
 10
-2.7053139025
 20
-11.1187742559
 10
-2.7050371603
 20
-11.1161839712
 10
-2.7048376784
 20
-11.1135444833
 10
-2.7047168728
 20
-11.110847915
 10
-2.7046761598
 20
-11.1080863894
 10
-2.7047169554
 20
-11.1052520294
  0
LINE
  5
234
100
AcDbEntity
  8
0
100
AcDbLine
 62
253
  6
CONTINUOUS
 10
-2.8945616602
 20
-11.0870429788
 11
-2.7846654282
 21
-11.1512334187
  0
LWPOLYLINE
  5
235
100
AcDbEntity
  8
0
100
AcDbPolyline
 62
253
  6
CONTINUOUS
 90
50
 70
0
 10
-4.2773958328
 20
-10.266287946
 10
-4.253676988
 20
-10.2801769518
 10
-4.2300855113
 20
-10.2931935221
 10
-4.206609508
 20
-10.3053514269
 10
-4.1832370836
 20
-10.3166644365
 10
-4.1599563434
 20
-10.3271463208
 10
-4.1367553929
 20
-10.3368108501
 10
-4.113630202
 20
-10.345666465
 10
-4.0906081981
 20
-10.3537002891
 10
-4.0677246733
 20
-10.3608941168
 10
-4.0450149195
 20
-10.3672297423
 10
-4.0225142288
 20
-10.3726889598
 10
-4.0002578931
 20
-10.3772535636
 10
-3.9782783129
 20
-10.3809093088
 10
-3.9565963227
 20
-10.3836577939
 10
-3.9352298652
 20
-10.3855045782
 10
-3.9141968834
 20
-10.3864552208
 10
-3.8935153202
 20
-10.386515281
 10
-3.8732031184
 20
-10.3856903182
 10
-3.8532771505
 20
-10.3839862627
 10
-3.8337500078
 20
-10.38141053
 10
-3.8146332111
 20
-10.3779709063
 10
-3.7959382811
 20
-10.3736751783
 10
-3.7776767387
 20
-10.3685311323
 10
-3.7598601047
 20
-10.3625465548
 10
-3.7425021076
 20
-10.3557267151
 10
-3.7256253061
 20
-10.3480668128
 10
-3.7092544665
 20
-10.3395595304
 10
-3.6934143554
 20
-10.3301975504
 10
-3.6781297389
 20
-10.3199735551
 10
-3.6634253836
 20
-10.3088802271
 10
-3.649323634
 20
-10.2969134465
 10
-3.6358371474
 20
-10.2840818844
 10
-3.6229761596
 20
-10.2703974094
 10
-3.610751637
 20
-10.2558690458
 10
-3.5991774693
 20
-10.2404944387
 10
-3.5882682769
 20
-10.2242683888
 10
-3.5780400653
 20
-10.207188663
 10
-3.5685143788
 20
-10.1892648941
 10
-3.5597141467
 20
-10.1705096811
 10
-3.5516595066
 20
-10.150939848
 10
-3.5443594298
 20
-10.1305891178
 10
-3.537820096
 20
-10.1094954384
 10
-3.5320471004
 20
-10.0876947078
 10
-3.5270437004
 20
-10.0652146252
 10
-3.5228125689
 20
-10.04208084
 10
-3.5201481032
 20
-10.0243089328
 10
-3.5179235121
 20
-10.0061465331
 10
-3.5161427661
 20
-9.9875564282
 10
-3.5148098351
 20
-9.9685014056
  0
LWPOLYLINE
  5
236
100
AcDbEntity
  8
0
100
AcDbPolyline
 62
253
  6
CONTINUOUS
 90
11
 70
0
 10
-9.1912343121
 20
-13.2581292077
 10
-9.1864515692
 20
-13.3241167599
 10
-9.1774482387
 20
-13.3871857025
 10
-9.1642723629
 20
-13.4470240613
 10
-9.1470004224
 20
-13.5033277765
 10
-9.1257167716
 20
-13.5558251854
 10
-9.1005102572
 20
-13.6042757003
 10
-9.0715102933
 20
-13.648436061
 10
-9.0388646646
 20
-13.6880799837
 10
-9.0027167493
 20
-13.7230206173
 10
-8.9598343398
 20
-13.7553481449
  0
LWPOLYLINE
  5
237
100
AcDbEntity
  8
0
100
AcDbPolyline
 62
253
  6
CONTINUOUS
 90
8
 70
0
 10
-9.5065682742
 20
4.2140525156
 10
-9.5047732951
 20
4.172010442
 10
-9.4984818521
 20
4.1331037488
 10
-9.4881262825
 20
4.097308527
 10
-9.4740816799
 20
4.064669281
 10
-9.4562037908
 20
4.035382452
 10
-9.4343757727
 20
4.0098684883
 10
-9.4095509224
 20
3.9889136983
  0
LWPOLYLINE
  5
238
100
AcDbEntity
  8
0
100
AcDbPolyline
 62
7
  6
CONTINUOUS
 90
13
 70
0
 10
-9.3147609627
 20
-13.0695662875
 10
-9.3143934057
 20
-13.0784416317
 10
-9.3075934776
 20
-13.1603790822
 10
-9.2949121637
 20
-13.2388524564
 10
-9.2765555128
 20
-13.3136253155
 10
-9.2527346434
 20
-13.3846164483
 10
-9.2236522801
 20
-13.4516878375
 10
-9.1895876209
 20
-13.5145296251
 10
-9.1508380849
 20
-13.5729275346
 10
-9.1077126711
 20
-13.6266915043
 10
-9.0606538038
 20
-13.6755093239
 10
-9.0100932614
 20
-13.7191695429
 10
-8.9598627065
 20
-13.755322425
  0
LINE
  5
239
100
AcDbEntity
  8
0
100
AcDbLine
 62
253
  6
CONTINUOUS
 10
-9.6241349435
 20
4.4000494539
 11
-9.6240447238
 21
4.394353662
  0
LWPOLYLINE
  5
23A
100
AcDbEntity
  8
0
100
AcDbPolyline
 62
7
  6
CONTINUOUS
 90
10
 70
0
 10
-9.624135009
 20
3.1786321747
 10
-9.618470478
 20
1.4078248581
 10
-9.6055063389
 20
-0.4245040485
 10
-9.5853218557
 20
-2.2525375682
 10
-9.5579163167
 20
-4.0762363872
 10
-9.5232895824
 20
-5.8955635845
 10
-9.4814415239
 20
-7.7104832282
 10
-9.4323728622
 20
-9.5209541988
 10
-9.3760850955
 20
-11.3269306559
 10
-9.3147763408
 20
-13.0693752109
  0
LWPOLYLINE
  5
23B
100
AcDbEntity
  8
0
100
AcDbPolyline
 62
253
  6
CONTINUOUS
 90
10
 70
0
 10
-9.5065681327
 20
2.9926841151
 10
-9.5012396932
 20
1.3094362007
 10
-9.489517868
 20
-0.3951614426
 10
-9.4711210126
 20
-2.1209114886
 10
-9.4459769892
 20
-3.8544740755
 10
-9.4136865429
 20
-5.6088411942
 10
-9.3730073593
 20
-7.4230259937
 10
-9.3227863272
 20
-9.3095553434
 10
-9.2624752256
 20
-11.2547794922
 10
-9.1912343211
 20
-13.258129218
  0
LWPOLYLINE
  5
23C
100
AcDbEntity
  8
0
100
AcDbPolyline
 62
7
  6
CONTINUOUS
 90
10
 70
0
 10
-9.3148055276
 20
21.0232879395
 10
-9.3759304296
 20
19.211984547
 10
-9.4322335526
 20
17.3376920757
 10
-9.4813185867
 20
15.46767338
 10
-9.523184085
 20
13.6019741702
 10
-9.557829403
 20
11.7406341576
 10
-9.5852541752
 20
9.8836907592
 10
-9.6054582904
 20
8.0311818287
 10
-9.6184429259
 20
6.1831463208
 10
-9.6241349435
 20
4.4000494539
  0
LWPOLYLINE
  5
23D
100
AcDbEntity
  8
0
100
AcDbPolyline
 62
253
  6
CONTINUOUS
 90
10
 70
0
 10
-9.1912343196
 20
20.8332075148
 10
-9.2573606307
 20
18.9055682023
 10
-9.3148205879
 20
17.0140352851
 10
-9.363994364
 20
15.1584462537
 10
-9.4048223286
 20
13.3594713913
 10
-9.4382636281
 20
11.596026296
 10
-9.4655075512
 20
9.8057070329
 10
-9.4863942929
 20
7.9680462086
 10
-9.5002042258
 20
6.1040778673
 10
-9.5065681401
 20
4.2140524223
  0
LWPOLYLINE
  5
23E
100
AcDbEntity
  8
0
100
AcDbPolyline
 62
253
  6
CONTINUOUS
 90
16
 70
0
 10
-9.5065683411
 20
2.992684174
 10
-9.5047732953
 20
3.0371678387
 10
-9.4984813967
 20
3.0819490952
 10
-9.4881251136
 20
3.1271961802
 10
-9.474079704
 20
3.1734792504
 10
-9.4562009601
 20
3.2204708999
 10
-9.4343720392
 20
3.2667594139
 10
-9.4093886583
 20
3.3118726522
 10
-9.3815499312
 20
3.3558690148
 10
-9.3505255848
 20
3.3978342667
 10
-9.3170934098
 20
3.4373129433
 10
-9.2819507359
 20
3.4741549559
 10
-9.2447207583
 20
3.5077068922
 10
-9.205791939
 20
3.5375362458
 10
-9.1663547144
 20
3.5635785882
 10
-9.1272207295
 20
3.5857217252
  0
LINE
  5
23F
100
AcDbEntity
  8
0
100
AcDbLine
 62
253
  6
CONTINUOUS
 10
6.3506022011
 20
13.7251576006
 11
8.904906461
 21
15.2753378483
  0
LWPOLYLINE
  5
240
100
AcDbEntity
  8
0
100
AcDbPolyline
 62
253
  6
CONTINUOUS
 90
55
 70
0
 10
0.2652443587
 20
-10.6399931805
 10
0.2678137991
 20
-10.6413495778
 10
0.2703580554
 20
-10.6426027486
 10
0.272883696
 20
-10.6437575822
 10
0.2753972892
 20
-10.6448189677
 10
0.2779054033
 20
-10.6457917944
 10
0.2804132706
 20
-10.6466798505
 10
0.2829207791
 20
-10.6474825196
 10
0.2854264808
 20
-10.6481980844
 10
0.2879289278
 20
-10.6488248275
 10
0.2904266719
 20
-10.6493610314
 10
0.2929178275
 20
-10.6498048792
 10
0.2953987589
 20
-10.650154156
 10
0.2978653926
 20
-10.6504065471
 10
0.300313655
 20
-10.6505597381
 10
0.3027394729
 20
-10.6506114145
 10
0.304740234
 20
-10.6505754965
 10
0.3067162039
 20
-10.6504675401
 10
0.3086610064
 20
-10.6502876102
 10
0.3105699404
 20
-10.6500354866
 10
0.3124450036
 20
-10.6497098069
 10
0.3142898683
 20
-10.6493089234
 10
0.3161069706
 20
-10.6488313495
 10
0.3178938001
 20
-10.6482762433
 10
0.3196466102
 20
-10.6476429241
 10
0.3213616542
 20
-10.646930711
 10
0.3230351854
 20
-10.6461389234
 10
0.324663457
 20
-10.6452668805
 10
0.3262431475
 20
-10.6443145176
 10
0.327772636
 20
-10.6432842342
 10
0.3292507267
 20
-10.6421790458
 10
0.3306762239
 20
-10.6410019679
 10
0.3320479317
 20
-10.639756016
 10
0.3333646545
 20
-10.6384442057
 10
0.3346259043
 20
-10.637068619
 10
0.335834025
 20
-10.6356276048
 10
0.3369920682
 20
-10.6341185784
 10
0.3381019462
 20
-10.6325403856
 10
0.339161015
 20
-10.6308975938
 10
0.3401654911
 20
-10.6291962007
 10
0.3412945768
 20
-10.6270847598
 10
0.3423396851
 20
-10.6249027706
 10
0.3433009002
 20
-10.6226554341
 10
0.3441783062
 20
-10.6203479509
 10
0.3449719872
 20
-10.617985522
 10
0.345682189
 20
-10.615572784
 10
0.3463098038
 20
-10.6131121173
 10
0.3468558855
 20
-10.6106053384
 10
0.3473214881
 20
-10.6080542634
 10
0.3477076654
 20
-10.6054607089
 10
0.3480150494
 20
-10.6028248332
 10
0.3482425846
 20
-10.6001401637
 10
0.3483887934
 20
-10.5973985698
 10
0.3484521984
 20
-10.5945919208
 10
0.3484313222
 20
-10.5917120863
  0
LWPOLYLINE
  5
241
100
AcDbEntity
  8
0
100
AcDbPolyline
 62
253
  6
CONTINUOUS
 90
55
 70
0
 10
0.1207324437
 20
-11.6802016249
 10
0.1233049582
 20
-11.6815664093
 10
0.1258518321
 20
-11.682828323
 10
0.1283796871
 20
-11.6839922767
 10
0.1308951449
 20
-11.6850631814
 10
0.1334048272
 20
-11.6860459476
 10
0.1359140063
 20
-11.6869443754
 10
0.1384225559
 20
-11.6877578208
 10
0.1409290002
 20
-11.6884845289
 10
0.1434318632
 20
-11.6891227449
 10
0.1459296693
 20
-11.6896707139
 10
0.1484205077
 20
-11.6901265794
 10
0.1509007284
 20
-11.6904880786
 10
0.1533662466
 20
-11.6907528469
 10
0.1558129774
 20
-11.6909185201
 10
0.158236836
 20
-11.6909827334
 10
0.1602356311
 20
-11.6909572643
 10
0.1622093324
 20
-11.6908597035
 10
0.1641515662
 20
-11.6906900597
 10
0.1660576323
 20
-11.6904480654
 10
0.1679295238
 20
-11.6901323493
 10
0.1697709073
 20
-11.6897412641
 10
0.1715842119
 20
-11.6892733159
 10
0.1733669167
 20
-11.6887276242
 10
0.1751152638
 20
-11.688103462
 10
0.1768254948
 20
-11.6874001024
 10
0.1784938517
 20
-11.6866168182
 10
0.1801165764
 20
-11.6857528824
 10
0.1816903404
 20
-11.6848081977
 10
0.1832135352
 20
-11.683785186
 10
0.1846849818
 20
-11.6826868988
 10
0.1861035013
 20
-11.6815163875
 10
0.1874679149
 20
-11.6802767037
 10
0.1887770437
 20
-11.678970899
 10
0.190030417
 20
-11.6776010937
 10
0.191230397
 20
-11.6761656834
 10
0.1923800542
 20
-11.6746621328
 10
0.1934813284
 20
-11.6730893239
 10
0.1945316373
 20
-11.6714518092
 10
0.1955272678
 20
-11.6697555586
 10
0.1966457102
 20
-11.6676500783
 10
0.1976801873
 20
-11.6654738069
 10
0.1986308175
 20
-11.6632319362
 10
0.199497719
 20
-11.660929658
 10
0.20028101
 20
-11.6585721641
 10
0.2009809649
 20
-11.656164092
 10
0.2015984827
 20
-11.6537078615
 10
0.2021346186
 20
-11.6512053383
 10
0.2025904277
 20
-11.648658388
 10
0.2029669652
 20
-11.6460688762
 10
0.2032648604
 20
-11.643436992
 10
0.2034830391
 20
-11.6407562192
 10
0.2036200012
 20
-11.6380183651
 10
0.2036742467
 20
-11.635215237
 10
0.2036442756
 20
-11.6323386422
  0
LWPOLYLINE
  5
242
100
AcDbEntity
  8
0
100
AcDbPolyline
 62
253
  6
CONTINUOUS
 90
54
 70
0
 10
-1.0287901957
 20
-9.6128753238
 10
-1.0310556931
 20
-9.6116411932
 10
-1.0332922537
 20
-9.6104948973
 10
-1.0355043003
 20
-9.6094326701
 10
-1.0376962558
 20
-9.6084507451
 10
-1.0398725429
 20
-9.6075453563
 10
-1.0420375847
 20
-9.6067127372
 10
-1.0441958038
 20
-9.6059491218
 10
-1.0467096616
 20
-9.605141794
 10
-1.0492192243
 20
-9.6044254915
 10
-1.0517234629
 20
-9.6038024445
 10
-1.0542213486
 20
-9.603274883
 10
-1.0567118526
 20
-9.6028450371
 10
-1.059193946
 20
-9.6025151369
 10
-1.0616657196
 20
-9.6022873625
 10
-1.0641217423
 20
-9.6021636944
 10
-1.0665557028
 20
-9.6021460628
 10
-1.0689612898
 20
-9.6022363984
 10
-1.0713321917
 20
-9.6024366316
 10
-1.0736620972
 20
-9.6027486927
 10
-1.0756220463
 20
-9.6031065515
 10
-1.0775450715
 20
-9.6035486549
 10
-1.0794290053
 20
-9.6040756696
 10
-1.0812716806
 20
-9.6046882626
 10
-1.0830709301
 20
-9.6053871009
 10
-1.0848245865
 20
-9.6061728512
 10
-1.0865304825
 20
-9.6070461804
 10
-1.0881866363
 20
-9.6080074087
 10
-1.0897918082
 20
-9.6090554684
 10
-1.0913449438
 20
-9.6101889451
 10
-1.0928449887
 20
-9.6114064246
 10
-1.0942908886
 20
-9.6127064924
 10
-1.0956815891
 20
-9.6140877342
 10
-1.0970160359
 20
-9.6155487355
 10
-1.0982931627
 20
-9.6170877518
 10
-1.0995118557
 20
-9.6187017174
 10
-1.1006709888
 20
-9.6203872366
 10
-1.1017694363
 20
-9.6221409134
 10
-1.1028060722
 20
-9.6239593521
 10
-1.1037797708
 20
-9.6258391569
 10
-1.1046894061
 20
-9.6277769318
 10
-1.1056685647
 20
-9.6301070005
 10
-1.1065595349
 20
-9.6325095212
 10
-1.1073628583
 20
-9.6349826642
 10
-1.1080790761
 20
-9.6375245998
 10
-1.1087087298
 20
-9.6401334982
 10
-1.1092523608
 20
-9.6428075297
 10
-1.1096498721
 20
-9.6451512269
 10
-1.109982514
 20
-9.6475475793
 10
-1.1102482198
 20
-9.6500027337
 10
-1.1104449227
 20
-9.6525228365
 10
-1.110570556
 20
-9.6551140346
 10
-1.110623053
 20
-9.6577824744
 10
-1.1106003468
 20
-9.6605343028
  0
LINE
  5
243
100
AcDbEntity
  8
0
100
AcDbLine
 62
253
  6
CONTINUOUS
 10
0.2584270586
 20
-10.3246469656
 11
-0.2585329778
 21
-10.0411930115
  0
LINE
  5
244
100
AcDbEntity
  8
0
100
AcDbLine
 62
253
  6
CONTINUOUS
 10
-0.2815497663
 20
-10.3399735614
 11
0.2652432829
 21
-10.6399443782
  0
LWPOLYLINE
  5
245
100
AcDbEntity
  8
0
100
AcDbPolyline
 62
253
  6
CONTINUOUS
 90
55
 70
0
 10
-1.6925725746
 20
-9.549207201
 10
-1.6900434112
 20
-9.5506013605
 10
-1.6875394178
 20
-9.5518919362
 10
-1.6850540877
 20
-9.5530839289
 10
-1.6825809143
 20
-9.5541823392
 10
-1.6801133911
 20
-9.5551921677
 10
-1.6776463362
 20
-9.5561172869
 10
-1.6751798671
 20
-9.5569570561
 10
-1.6727154257
 20
-9.5577097061
 10
-1.6702544542
 20
-9.5583734681
 10
-1.6677983949
 20
-9.5589465731
 10
-1.6653491205
 20
-9.5594271455
 10
-1.6629102267
 20
-9.5598128834
 10
-1.6604857398
 20
-9.5601013783
 10
-1.6580796863
 20
-9.5602902217
 10
-1.6556960925
 20
-9.5603770053
 10
-1.6537304851
 20
-9.560369851
 10
-1.6517895563
 20
-9.5602901129
 10
-1.6498795915
 20
-9.5601377544
 10
-1.6480052298
 20
-9.559912477
 10
-1.6461645244
 20
-9.5596129329
 10
-1.6443538821
 20
-9.5592375122
 10
-1.6425709179
 20
-9.5587847511
 10
-1.64081808
 20
-9.5582537705
 10
-1.6390990246
 20
-9.5576438372
 10
-1.6374174083
 20
-9.5569542182
 10
-1.6357768873
 20
-9.5561841805
 10
-1.6341811179
 20
-9.555332991
 10
-1.6326333387
 20
-9.5544005506
 10
-1.6311351159
 20
-9.5533892969
 10
-1.629687598
 20
-9.5523023016
 10
-1.6282919334
 20
-9.5511426361
 10
-1.6269492704
 20
-9.5499133721
 10
-1.6256607576
 20
-9.5486175811
 10
-1.6244268506
 20
-9.5472574035
 10
-1.6232452344
 20
-9.5458312545
 10
-1.6221129014
 20
-9.544336618
 10
-1.621027952
 20
-9.5427723846
 10
-1.61999292
 20
-9.5411430719
 10
-1.6190114474
 20
-9.5394546041
 10
-1.6179084409
 20
-9.5373578554
 10
-1.6168877039
 20
-9.5351896279
 10
-1.615949136
 20
-9.5329550948
 10
-1.6150926367
 20
-9.5306594295
 10
-1.6143181058
 20
-9.5283078055
 10
-1.6136252889
 20
-9.5259048465
 10
-1.613013316
 20
-9.5234529777
 10
-1.6124811633
 20
-9.5209540749
 10
-1.6120278069
 20
-9.5184100137
 10
-1.611652223
 20
-9.5158226698
 10
-1.6113538006
 20
-9.5131922397
 10
-1.6111335812
 20
-9.510512204
 10
-1.610993019
 20
-9.5077743643
 10
-1.6109335684
 20
-9.504970522
 10
-1.6109566837
 20
-9.5020924787
  0
LWPOLYLINE
  5
246
100
AcDbEntity
  8
0
100
AcDbPolyline
 62
253
  6
CONTINUOUS
 90
55
 70
0
 10
-1.8328367977
 20
-10.5872222795
 10
-1.8303279821
 20
-10.5886105812
 10
-1.8278439967
 20
-10.5898958968
 10
-1.8253784065
 20
-10.5910831842
 10
-1.8229247761
 20
-10.5921774014
 10
-1.8204766704
 20
-10.5931835061
 10
-1.8180289657
 20
-10.594105339
 10
-1.8155817838
 20
-10.5949422706
 10
-1.8131365581
 20
-10.5956925541
 10
-1.810694722
 20
-10.5963544426
 10
-1.8082577087
 20
-10.5969261894
 10
-1.8058273744
 20
-10.597405943
 10
-1.8034072665
 20
-10.597791434
 10
-1.8010013549
 20
-10.5980802882
 10
-1.7986136097
 20
-10.5982701315
 10
-1.7962480011
 20
-10.59835859
 10
-1.7942970853
 20
-10.5983533665
 10
-1.7923705
 20
-10.5982760395
 10
-1.7904744463
 20
-10.59812656
 10
-1.7886134936
 20
-10.5979046208
 10
-1.7867856861
 20
-10.5976088805
 10
-1.7849874363
 20
-10.5972377393
 10
-1.7832163702
 20
-10.5967897367
 10
-1.7814749679
 20
-10.5962639697
 10
-1.7797669224
 20
-10.5956596748
 10
-1.7780959273
 20
-10.5949760883
 10
-1.7764656757
 20
-10.5942124466
 10
-1.774879861
 20
-10.5933679862
 10
-1.7733417554
 20
-10.5924425661
 10
-1.7718529469
 20
-10.5914385363
 10
-1.7704146023
 20
-10.5903588697
 10
-1.7690278885
 20
-10.589206539
 10
-1.7676939724
 20
-10.5879845168
 10
-1.7664140208
 20
-10.5866957761
 10
-1.765188509
 20
-10.5853423726
 10
-1.7640151454
 20
-10.5839226955
 10
-1.7628909469
 20
-10.5824342168
 10
-1.7618140412
 20
-10.5808758213
 10
-1.7607869999
 20
-10.579252044
 10
-1.7598135055
 20
-10.5775688325
 10
-1.7587201003
 20
-10.5754780561
 10
-1.757708996
 20
-10.573315474
 10
-1.7567800829
 20
-10.5710863012
 10
-1.7559332516
 20
-10.5687957528
 10
-1.7551683923
 20
-10.5664490438
 10
-1.7544852399
 20
-10.5640508258
 10
-1.7538829058
 20
-10.5616034958
 10
-1.7533603458
 20
-10.5591088877
 10
-1.7529165154
 20
-10.556568835
 10
-1.7525503705
 20
-10.5539851714
 10
-1.7522612869
 20
-10.5513580651
 10
-1.7520503213
 20
-10.548681023
 10
-1.7519189504
 20
-10.5459458863
 10
-1.7518686511
 20
-10.5431444964
 10
-1.7519009
 20
-10.5402686946
  0
LWPOLYLINE
  5
247
100
AcDbEntity
  8
0
100
AcDbPolyline
 62
253
  6
CONTINUOUS
 90
3
 70
0
 10
0.1129409739
 20
-11.3654328133
 10
-0.5770967282
 20
-10.9846905654
 10
-0.8060245444
 20
-10.8571291067
  0
LWPOLYLINE
  5
248
100
AcDbEntity
  8
0
100
AcDbPolyline
 62
253
  6
CONTINUOUS
 90
3
 70
0
 10
-0.2585329778
 20
-10.0411930115
 10
-0.7727300185
 20
-9.7560872918
 10
-1.0287893036
 20
-9.6129167315
  0
LINE
  5
249
100
AcDbEntity
  8
0
100
AcDbLine
 62
253
  6
CONTINUOUS
 10
-0.8252623512
 20
-10.0381614518
 11
-0.2815497663
 21
-10.3399735614
  0
LWPOLYLINE
  5
24A
100
AcDbEntity
  8
0
100
AcDbPolyline
 62
253
  6
CONTINUOUS
 90
3
 70
0
 10
-0.7981427745
 20
-11.1718050974
 10
-0.5692338767
 20
-11.2993773278
 10
0.1207314158
 20
-11.6801608037
  0
LWPOLYLINE
  5
24B
100
AcDbEntity
  8
0
100
AcDbPolyline
 62
253
  6
CONTINUOUS
 90
55
 70
0
 10
-2.9596027152
 20
-8.5069582307
 10
-2.9620948032
 20
-8.5055457817
 10
-2.9645621829
 20
-8.5042380169
 10
-2.9670111443
 20
-8.5030298916
 10
-2.9694479778
 20
-8.5019163608
 10
-2.9718789733
 20
-8.5008923796
 10
-2.9743091495
 20
-8.4999540248
 10
-2.9767384384
 20
-8.4991018591
 10
-2.9791655002
 20
-8.4983375667
 10
-2.9815889956
 20
-8.4976628317
 10
-2.9840075847
 20
-8.4970793385
 10
-2.98641949
 20
-8.4965888818
 10
-2.9888211818
 20
-8.4961936991
 10
-2.9912086928
 20
-8.4958961385
 10
-2.9935780551
 20
-8.4956985479
 10
-2.9959253013
 20
-8.4956032754
 10
-2.9978609269
 20
-8.4956035054
 10
-2.999772205
 20
-8.4956764005
 10
-3.0016529021
 20
-8.4958219405
 10
-3.00349842
 20
-8.4960403572
 10
-3.005310703
 20
-8.4963328885
 10
-3.007093331
 20
-8.4967010237
 10
-3.0088486973
 20
-8.4971461174
 10
-3.0105744487
 20
-8.4976689841
 10
-3.0122670454
 20
-8.4982703037
 10
-3.0139229476
 20
-8.4989507558
 10
-3.0155386155
 20
-8.49971102
 10
-3.0171105093
 20
-8.5005517762
 10
-3.0186354846
 20
-8.5014730945
 10
-3.0201119791
 20
-8.5024726074
 10
-3.0215388261
 20
-8.5035473379
 10
-3.0229148585
 20
-8.5046943088
 10
-3.0242389097
 20
-8.5059105433
 10
-3.0255098128
 20
-8.5071930643
 10
-3.0267270866
 20
-8.5085398126
 10
-3.0278929932
 20
-8.509952401
 10
-3.0290104802
 20
-8.5114333601
 10
-3.0300813926
 20
-8.5129838153
 10
-3.0311031643
 20
-8.5145992717
 10
-3.0320721262
 20
-8.5162738291
 10
-3.0331610761
 20
-8.5183538371
 10
-3.0341687781
 20
-8.5205052576
 10
-3.0350953139
 20
-8.5227228941
 10
-3.0359407648
 20
-8.5250015499
 10
-3.0367052124
 20
-8.5273360283
 10
-3.0373888985
 20
-8.5297217029
 10
-3.0379927059
 20
-8.5321562288
 10
-3.0385176778
 20
-8.5346378313
 10
-3.0389648576
 20
-8.5371647358
 10
-3.0393352883
 20
-8.5397351677
 10
-3.0396296075
 20
-8.5423489837
 10
-3.03984683
 20
-8.5450125664
 10
-3.0399855646
 20
-8.5477339298
 10
-3.0400444205
 20
-8.5505210877
 10
-3.0400220065
 20
-8.5533820542
  0
LINE
  5
24C
100
AcDbEntity
  8
0
100
AcDbLine
 62
253
  6
CONTINUOUS
 10
-2.3292901798
 20
-10.302107448
 11
-1.832836916
 21
-10.5872176658
  0
LINE
  5
24D
100
AcDbEntity
  8
0
100
AcDbLine
 62
253
  6
CONTINUOUS
 10
-1.8407717322
 20
-10.2725726777
 11
-2.3372313152
 21
-9.9874660579
  0
LINE
  5
24E
100
AcDbEntity
  8
0
100
AcDbLine
 62
253
  6
CONTINUOUS
 10
-2.356614142
 20
-9.1685768544
 11
-1.6925727499
 21
-9.5491994147
  0
LINE
  5
24F
100
AcDbEntity
  8
0
100
AcDbLine
 62
253
  6
CONTINUOUS
 10
-1.699529983
 20
-9.2339900263
 11
-2.3635812758
 21
-8.8533730146
  0
LINE
  5
250
100
AcDbEntity
  8
0
100
AcDbLine
 62
253
  6
CONTINUOUS
 10
-2.732826175
 20
-10.0680862759
 11
-2.3292901798
 21
-10.302107448
  0
LINE
  5
251
100
AcDbEntity
  8
0
100
AcDbLine
 62
253
  6
CONTINUOUS
 10
-2.3372313152
 20
-9.9874660579
 11
-2.7407630945
 21
-9.7534424854
  0
LINE
  5
252
100
AcDbEntity
  8
0
100
AcDbLine
 62
253
  6
CONTINUOUS
 10
-2.7601356307
 20
-8.9345474668
 11
-2.356614142
 21
-9.1685768544
  0
LINE
  5
253
100
AcDbEntity
  8
0
100
AcDbLine
 62
253
  6
CONTINUOUS
 10
-2.3635812758
 20
-8.8533730146
 11
-2.9596028479
 21
-8.5069521013
  0
LWPOLYLINE
  5
254
100
AcDbEntity
  8
0
100
AcDbPolyline
 62
253
  6
CONTINUOUS
 90
52
 70
0
 10
-4.3358005052
 20
-7.9380566343
 10
-4.3224795077
 20
-7.9462808014
 10
-4.3092668457
 20
-7.9548089717
 10
-4.2961423762
 20
-7.9636470055
 10
-4.2830859558
 20
-7.9728007633
 10
-4.2700774415
 20
-7.9822761054
 10
-4.2538612169
 20
-7.994579035
 10
-4.2376954536
 20
-8.0073906203
 10
-4.2215872337
 20
-8.0207078848
 10
-4.2055436391
 20
-8.0345278521
 10
-4.1895764245
 20
-8.0488431866
 10
-4.173716036
 20
-8.0636291168
 10
-4.1579975927
 20
-8.0788565119
 10
-4.1424562135
 20
-8.0944962412
 10
-4.1271223043
 20
-8.1105218038
 10
-4.1120074187
 20
-8.1269172173
 10
-4.0971183971
 20
-8.143669129
 10
-4.0824620801
 20
-8.160764186
 10
-4.0680463649
 20
-8.1781841795
 10
-4.0538833751
 20
-8.1958914749
 10
-4.0399862912
 20
-8.2138435815
 10
-4.0263682938
 20
-8.2319980085
 10
-4.0130450804
 20
-8.2503139022
 10
-4.0000424177
 20
-8.2687569577
 10
-3.9873885895
 20
-8.2872945071
 10
-3.9751118796
 20
-8.3058938825
 10
-3.9655794479
 20
-8.3207993203
 10
-3.9563113808
 20
-8.3357269452
 10
-3.9473125855
 20
-8.3506802834
 10
-3.9385879692
 20
-8.3656628608
 10
-3.9301424391
 20
-8.3806782033
 10
-3.9219808012
 20
-8.3957252535
 10
-3.9141074569
 20
-8.4107846198
 10
-3.9065267063
 20
-8.4258323272
 10
-3.8992428496
 20
-8.4408444006
 10
-3.8922601868
 20
-8.4557968651
 10
-3.8839589528
 20
-8.4743740216
 10
-3.8761253876
 20
-8.4928153054
 10
-3.8687498255
 20
-8.5111154438
 10
-3.8618226008
 20
-8.5292691642
 10
-3.8553360123
 20
-8.5472653183
 10
-3.8492902174
 20
-8.5650692564
 10
-3.8436873378
 20
-8.582640453
 10
-3.8385294955
 20
-8.5999383826
 10
-3.833817663
 20
-8.616931669
 10
-3.8295482146
 20
-8.6336255314
 10
-3.8257163755
 20
-8.6500343382
 10
-3.8223173706
 20
-8.6661724577
 10
-3.819346425
 20
-8.6820542581
 10
-3.8167987637
 20
-8.6976941077
 10
-3.8146696116
 20
-8.713106375
 10
-3.8129541939
 20
-8.7283054281
  0
LWPOLYLINE
  5
255
100
AcDbEntity
  8
0
100
AcDbPolyline
 62
253
  6
CONTINUOUS
 90
8
 70
0
 10
-9.6240447238
 20
4.394353662
 10
-9.620758014
 20
4.3663866971
 10
-9.6127753983
 20
4.3387319124
 10
-9.6001723637
 20
4.3116507893
 10
-9.5830680778
 20
4.2853993857
 10
-9.5616242701
 20
4.2602259227
 10
-9.5360437083
 20
4.2363684364
 10
-9.5065682742
 20
4.2140525156
  0
LINE
  5
256
100
AcDbEntity
  8
0
100
AcDbLine
 62
253
  6
CONTINUOUS
 10
-1.8111551301
 20
8.8272904464
 11
-1.7920223311
 21
8.8535435868
  0
LWPOLYLINE
  5
257
100
AcDbEntity
  8
0
100
AcDbPolyline
 62
7
  6
CONTINUOUS
 90
13
 70
0
 10
-9.3872829126
 20
3.6044345712
 10
-9.4088212076
 20
3.5903236911
 10
-9.4432506201
 20
3.5642062538
 10
-9.4753675501
 20
3.5351430652
 10
-9.5049049938
 20
3.5033430077
 10
-9.5316220274
 20
3.4690328665
 10
-9.5553641228
 20
3.4323483904
 10
-9.5758649875
 20
3.3936206712
 10
-9.5929331685
 20
3.3531475079
 10
-9.606461164
 20
3.3110480654
 10
-9.6162705703
 20
3.2676176987
 10
-9.6221907565
 20
3.223337627
 10
-9.6241350091
 20
3.1786321747
  0
LINE
  5
258
100
AcDbEntity
  8
0
100
AcDbLine
 62
7
  6
CONTINUOUS
 10
-9.387232623
 20
3.6044657017
 11
-9.101860763
 21
3.7810500965
  0
LINE
  5
259
100
AcDbEntity
  8
0
100
AcDbLine
 62
253
  6
CONTINUOUS
 10
-9.1272206961
 20
3.5857217455
 11
-8.9630439487
 21
3.6873121812
  0
LINE
  5
25A
100
AcDbEntity
  8
0
100
AcDbLine
 62
253
  6
CONTINUOUS
 10
6.7132830437
 20
13.1187546195
 11
9.2896935485
 21
14.6823509135
  0
LWPOLYLINE
  5
25B
100
AcDbEntity
  8
0
100
AcDbPolyline
 62
253
  6
CONTINUOUS
 90
9
 70
0
 10
-9.387232623
 20
3.6044657017
 10
-9.3695599029
 20
3.6140273374
 10
-9.3402476044
 20
3.6247341607
 10
-9.308544719
 20
3.6305450268
 10
-9.2748031599
 20
3.6313897078
 10
-9.239402655
 20
3.6272566394
 10
-9.2027362996
 20
3.6181923285
 10
-9.1652046061
 20
3.6042963773
 10
-9.1272207291
 20
3.5857217251
  0
LINE
  5
25C
100
AcDbEntity
  8
0
100
AcDbLine
 62
253
  6
CONTINUOUS
 10
-0.7252105336
 20
7.1975587881
 11
-0.7543787097
 21
7.1855883273
  0
LWPOLYLINE
  5
25D
100
AcDbEntity
  8
0
100
AcDbPolyline
 62
7
  6
CONTINUOUS
 90
5
 70
0
 10
-9.5945991824
 20
4.230095253
 10
-9.60742339
 20
4.2712090637
 10
-9.6167054371
 20
4.3135232969
 10
-9.6223000351
 20
4.3565989878
 10
-9.6241349435
 20
4.4000494552
  0
LWPOLYLINE
  5
25E
100
AcDbEntity
  8
0
100
AcDbPolyline
 62
253
  6
CONTINUOUS
 90
9
 70
0
 10
-4.8082511564
 20
-9.161724991
 10
-4.8112669402
 20
-9.1314971525
 10
-4.8141096409
 20
-9.1012024966
 10
-4.8167850472
 20
-9.070837338
 10
-4.8192989474
 20
-9.0403979918
 10
-4.82165713
 20
-9.0098807729
 10
-4.8238655276
 20
-8.9792824274
 10
-4.8259306486
 20
-8.9486014264
 10
-4.8278591457
 20
-8.9178366722
  0
LWPOLYLINE
  5
25F
100
AcDbEntity
  8
0
100
AcDbPolyline
 62
253
  6
CONTINUOUS
 90
15
 70
0
 10
-3.8129541939
 20
-8.7283054281
 10
-3.8090769621
 20
-8.7681690064
 10
-3.8054508623
 20
-8.8081406145
 10
-3.8020734878
 20
-8.848222855
 10
-3.7989424324
 20
-8.8884183308
 10
-3.7960552896
 20
-8.9287296447
 10
-3.7934095449
 20
-8.9691584564
 10
-3.7910022512
 20
-9.0097026535
 10
-3.7888303536
 20
-9.0503591806
 10
-3.7868907971
 20
-9.0911249822
 10
-3.7851805265
 20
-9.1319970028
 10
-3.7836961158
 20
-9.1729734898
 10
-3.782432654
 20
-9.214057901
 10
-3.781384859
 20
-9.2552549971
 10
-3.7805474489
 20
-9.2965695386
  0
LWPOLYLINE
  5
260
100
AcDbEntity
  8
0
100
AcDbPolyline
 62
253
  6
CONTINUOUS
 90
3
 70
0
 10
-4.8278591457
 20
-8.9178366722
 10
-4.8313328781
 20
-8.8560515135
 10
-4.833264516
 20
-8.8172577278
  0
LWPOLYLINE
  5
261
100
AcDbEntity
  8
0
100
AcDbPolyline
 62
253
  6
CONTINUOUS
 90
3
 70
0
 10
-4.833264516
 20
-8.8172577278
 10
-4.8366547727
 20
-8.7392102053
 10
-4.8381503188
 20
-8.6999305075
  0
LWPOLYLINE
  5
262
100
AcDbEntity
  8
0
100
AcDbPolyline
 62
253
  6
CONTINUOUS
 90
16
 70
0
 10
-4.8381503188
 20
-8.6999305075
 10
-4.8395548873
 20
-8.6580197241
 10
-4.8407456742
 20
-8.6164817351
 10
-4.8417161656
 20
-8.5753191061
 10
-4.8424598478
 20
-8.5345344029
 10
-4.8429702068
 20
-8.4941301913
 10
-4.8432409909
 20
-8.4541098274
 10
-4.8432669951
 20
-8.4144798291
 10
-4.8430432764
 20
-8.3752475048
 10
-4.8425648919
 20
-8.3364201625
 10
-4.8418268984
 20
-8.2980051108
 10
-4.84082455
 20
-8.2600087059
 10
-4.8395538889
 20
-8.2224334966
 10
-4.8380111541
 20
-8.1852810795
 10
-4.8361925848
 20
-8.1485530515
 10
-4.8340944203
 20
-8.1122510092
  0
LINE
  5
263
100
AcDbEntity
  8
0
100
AcDbLine
 62
253
  6
CONTINUOUS
 10
-4.2231162097
 20
22.3370463691
 11
-4.2231161922
 21
22.2750731053
  0
LWPOLYLINE
  5
264
100
AcDbEntity
  8
0
100
AcDbPolyline
 62
253
  6
CONTINUOUS
 90
19
 70
0
 10
-5.101932383
 20
-7.9188080379
 10
-5.1052006196
 20
-7.9768084264
 10
-5.1078548693
 20
-8.0352838384
 10
-5.1099098036
 20
-8.0942295669
 10
-5.111380094
 20
-8.1536409053
 10
-5.112280412
 20
-8.2135131467
 10
-5.1126254291
 20
-8.2738415843
 10
-5.1124281474
 20
-8.3346187263
 10
-5.1116948907
 20
-8.3958259402
 10
-5.110430313
 20
-8.4574418089
 10
-5.1086390688
 20
-8.519444915
 10
-5.1063258122
 20
-8.581813841
 10
-5.1034951975
 20
-8.6445271697
 10
-5.1001464935
 20
-8.7075704181
 10
-5.0962574281
 20
-8.7709568414
 10
-5.0918003439
 20
-8.8347066292
 10
-5.0867475832
 20
-8.8988399711
 10
-5.0810714887
 20
-8.9633770569
 10
-5.0747444027
 20
-9.028338076
  0
LWPOLYLINE
  5
265
100
AcDbEntity
  8
0
100
AcDbPolyline
 62
253
  6
CONTINUOUS
 90
54
 70
0
 10
-4.8340944203
 20
-8.1122510092
 10
-4.8331813655
 20
-8.1002309074
 10
-4.8319781361
 20
-8.0885055446
 10
-4.8304860535
 20
-8.0770502801
 10
-4.828706439
 20
-8.0658404733
 10
-4.8266398864
 20
-8.0548564661
 10
-4.8242840792
 20
-8.0440985307
 10
-4.8216359731
 20
-8.0335719218
 10
-4.8186925239
 20
-8.023281894
 10
-4.8154516796
 20
-8.0132361549
 10
-4.8119153557
 20
-8.0034522242
 10
-4.8080864601
 20
-7.9939500741
 10
-4.8039679005
 20
-7.9847496772
 10
-4.7995638514
 20
-7.975868445
 10
-4.7948835545
 20
-7.9673135448
 10
-4.7899375184
 20
-7.9590895832
 10
-4.7847362515
 20
-7.9512011667
 10
-4.7774198717
 20
-7.9412104255
 10
-4.7696783717
 20
-7.9318186768
 10
-4.761521693
 20
-7.9230201995
 10
-4.7529624764
 20
-7.9148113249
 10
-4.7440241596
 20
-7.9071965952
 10
-4.7347328795
 20
-7.9001826054
 10
-4.7251126361
 20
-7.8937705772
 10
-4.71517888
 20
-7.8879402398
 10
-4.7049449248
 20
-7.8826659491
 10
-4.6944240841
 20
-7.877922061
 10
-4.6836296714
 20
-7.8736829315
 10
-4.6725750003
 20
-7.8699229165
 10
-4.6612714626
 20
-7.8666223404
 10
-4.6497227634
 20
-7.8637854014
 10
-4.6379306858
 20
-7.8614222661
 10
-4.6258970131
 20
-7.8595431013
 10
-4.6136235287
 20
-7.8581580737
 10
-4.6011120157
 20
-7.8572773498
 10
-4.5883636218
 20
-7.8569111961
 10
-4.5753769517
 20
-7.8570702778
 10
-4.5621499747
 20
-7.8577653601
 10
-4.5486806597
 20
-7.8590072079
 10
-4.5349669759
 20
-7.8608065861
 10
-4.5210068924
 20
-7.86317426
 10
-4.5067999069
 20
-7.8661195921
 10
-4.4923516314
 20
-7.8696463364
 10
-4.4776692065
 20
-7.8737568443
 10
-4.4627597728
 20
-7.8784534674
 10
-4.4476304708
 20
-7.8837385571
 10
-4.4322884412
 20
-7.8896144651
 10
-4.418973155
 20
-7.895124872
 10
-4.4055048785
 20
-7.9010838907
 10
-4.3918816649
 20
-7.9075043347
 10
-4.3781015676
 20
-7.9143990175
 10
-4.3641626396
 20
-7.9217807527
 10
-4.3500629344
 20
-7.9296623537
 10
-4.3358005052
 20
-7.9380566343
  0
LWPOLYLINE
  5
266
100
AcDbEntity
  8
0
100
AcDbPolyline
 62
253
  6
CONTINUOUS
 90
19
 70
0
 10
-4.1827073169
 20
10.3289863194
 10
-4.1890316035
 20
10.2693619262
 10
-4.1947392271
 20
10.2092395463
 10
-4.1998470559
 20
10.1486209687
 10
-4.2043719579
 20
10.0875079822
 10
-4.2083308013
 20
10.0259023756
 10
-4.211740454
 20
9.9638059377
 10
-4.2146152187
 20
9.9012254709
 10
-4.2169591348
 20
9.8381878316
 10
-4.2187736763
 20
9.7747248901
 10
-4.2200603171
 20
9.7108685162
 10
-4.2208205311
 20
9.6466505802
 10
-4.2210557924
 20
9.5821029519
 10
-4.2207629434
 20
9.5172483257
 10
-4.219920302
 20
9.4520726925
 10
-4.2185015543
 20
9.3865528672
 10
-4.2164803867
 20
9.3206656651
 10
-4.2138304856
 20
9.2543879012
 10
-4.2105255373
 20
9.1876963905
  0
LWPOLYLINE
  5
267
100
AcDbEntity
  8
0
100
AcDbPolyline
 62
253
  6
CONTINUOUS
 90
54
 70
0
 10
-3.9135437133
 20
10.1363375546
 10
-3.911693331
 20
10.1507638426
 10
-3.9094619718
 20
10.1647466993
 10
-3.9068518837
 20
10.1783266092
 10
-3.9038653145
 20
10.1915440569
 10
-3.90050429
 20
10.2044301642
 10
-3.8967699478
 20
10.2169786017
 10
-3.8926632034
 20
10.2291736774
 10
-3.888184972
 20
10.2409996992
 10
-3.883337005
 20
10.2524420008
 10
-3.8781243966
 20
10.2634900206
 10
-3.8725530769
 20
10.2741342229
 10
-3.8666289758
 20
10.2843650718
 10
-3.8603585755
 20
10.2941745915
 10
-3.8537505661
 20
10.3035610452
 10
-3.8468141898
 20
10.3125242558
 10
-3.839558689
 20
10.3210640465
 10
-3.8319929479
 20
10.3291796194
 10
-3.8241244193
 20
10.3368676933
 10
-3.8159601982
 20
10.3441243663
 10
-3.8075073796
 20
10.3509457365
 10
-3.7987738873
 20
10.3573296656
 10
-3.7897709605
 20
10.3632810711
 10
-3.7805106671
 20
10.368806634
 10
-3.7710050754
 20
10.3739130353
 10
-3.7612663619
 20
10.3786079172
 10
-3.751307137
 20
10.3829027661
 10
-3.7411401198
 20
10.3868100292
 10
-3.7307780293
 20
10.3903421539
 10
-3.7166768059
 20
10.3944835969
 10
-3.7022597138
 20
10.3979736289
 10
-3.6875350699
 20
10.4008056228
 10
-3.676294838
 20
10.4024921844
 10
-3.6648902693
 20
10.4037924167
 10
-3.6533253463
 20
10.4046938645
 10
-3.6416040521
 20
10.4051840727
 10
-3.6297303671
 20
10.4052520063
 10
-3.6177082622
 20
10.4048923112
 10
-3.6055417064
 20
10.4041010535
 10
-3.5932346683
 20
10.4028742992
 10
-3.5790050557
 20
10.4009368352
 10
-3.5646180755
 20
10.3984366384
 10
-3.5500946632
 20
10.3953849263
 10
-3.5354557546
 20
10.391792916
 10
-3.5207222854
 20
10.3876718249
 10
-3.5059151912
 20
10.3830328702
 10
-3.4910554077
 20
10.3778872693
 10
-3.4761592259
 20
10.3722432751
 10
-3.4612243577
 20
10.3660972841
 10
-3.4462438701
 20
10.3594427285
 10
-3.4312108302
 20
10.3522730402
 10
-3.4161183051
 20
10.3445816517
 10
-3.400959362
 20
10.3363619949
 10
-3.3857270679
 20
10.3276075021
  0
LWPOLYLINE
  5
268
100
AcDbEntity
  8
0
100
AcDbPolyline
 62
7
  6
CONTINUOUS
 90
4
 70
0
 10
-9.5362258052
 20
4.1162357835
 10
-9.5588769892
 20
4.1524178867
 10
-9.5783864179
 20
4.1904589742
 10
-9.5945991824
 20
4.230095253
  0
LWPOLYLINE
  5
269
100
AcDbEntity
  8
0
100
AcDbPolyline
 62
253
  6
CONTINUOUS
 90
49
 70
0
 10
-5.0747444027
 20
-9.028338076
 10
-5.0715074881
 20
-9.0566322147
 10
-5.0675191113
 20
-9.0850937866
 10
-5.0627825352
 20
-9.113733178
 10
-5.0573010229
 20
-9.1425607752
 10
-5.0510778375
 20
-9.1715869645
 10
-5.044116242
 20
-9.2008221323
 10
-5.0364212088
 20
-9.2302677101
 10
-5.0280045479
 20
-9.2598893101
 10
-5.0188797786
 20
-9.2896435894
 10
-5.0090604203
 20
-9.3194872056
 10
-4.9985599922
 20
-9.3493768157
 10
-4.9873920138
 20
-9.3792690773
 10
-4.9755696632
 20
-9.4091252865
 10
-4.9631047532
 20
-9.4389252965
 10
-4.9500087557
 20
-9.4686535991
 10
-4.9362931424
 20
-9.4982946864
 10
-4.9219693851
 20
-9.5278330504
 10
-4.9070489556
 20
-9.5572531832
 10
-4.8915452265
 20
-9.5865382641
 10
-4.8754791752
 20
-9.6156662225
 10
-4.8588736798
 20
-9.644613675
 10
-4.8417516186
 20
-9.6733572383
 10
-4.8241358698
 20
-9.7018735292
 10
-4.8060493115
 20
-9.7301391643
 10
-4.7875131028
 20
-9.7581306549
 10
-4.7685415251
 20
-9.7858240915
 10
-4.7491471405
 20
-9.813195459
 10
-4.7293425112
 20
-9.8402207423
 10
-4.7091401992
 20
-9.8668759264
 10
-4.6885527667
 20
-9.8931369964
 10
-4.6675941104
 20
-9.9189785898
 10
-4.6462834643
 20
-9.9443699544
 10
-4.6246413973
 20
-9.9692789906
 10
-4.6026884779
 20
-9.9936735989
 10
-4.5804452749
 20
-10.0175216796
 10
-4.5579323569
 20
-10.0407911331
 10
-4.5351731757
 20
-10.0634510763
 10
-4.5122027158
 20
-10.0854754915
 10
-4.4890588446
 20
-10.1068395771
 10
-4.4657794296
 20
-10.127518532
 10
-4.4424023383
 20
-10.1474875547
 10
-4.4189654382
 20
-10.1667218439
 10
-4.3954982043
 20
-10.1852011289
 10
-4.3719965411
 20
-10.2029232624
 10
-4.3484479604
 20
-10.2198906276
 10
-4.3248399741
 20
-10.2361056077
 10
-4.3011600943
 20
-10.2515705861
 10
-4.2773958328
 20
-10.266287946
  0
LWPOLYLINE
  5
26A
100
AcDbEntity
  8
0
100
AcDbPolyline
 62
253
  6
CONTINUOUS
 90
84
 70
0
 10
-3.5425745204
 20
-8.8593043498
 10
-3.545766462
 20
-8.8311709636
 10
-3.549733798
 20
-8.8027977285
 10
-3.5544787632
 20
-8.7741061675
 10
-3.5600070585
 20
-8.7450262687
 10
-3.566338248
 20
-8.7155218796
 10
-3.573495362
 20
-8.6855653123
 10
-3.5814951011
 20
-8.6551542196
 10
-3.5903288489
 20
-8.6243876156
 10
-3.5999816596
 20
-8.5933898547
 10
-3.6104275556
 20
-8.5622910449
 10
-3.621596433
 20
-8.5312443076
 10
-3.6334071561
 20
-8.5004085181
 10
-3.6457957828
 20
-8.4698999244
 10
-3.6587671454
 20
-8.4396642676
 10
-3.6723432697
 20
-8.4096046619
 10
-3.6865398295
 20
-8.3796460859
 10
-3.7013470904
 20
-8.3498009768
 10
-3.716748966
 20
-8.3201036365
 10
-3.7327317735
 20
-8.2905810899
 10
-3.7492914439
 20
-8.2612312551
 10
-3.766426312
 20
-8.2320447733
 10
-3.7841365015
 20
-8.203009836
 10
-3.8024292933
 20
-8.1741048347
 10
-3.8213137573
 20
-8.1453057114
 10
-3.844763739
 20
-8.1108720813
 10
-3.8690635458
 20
-8.0766312974
 10
-3.8941979341
 20
-8.0426583856
 10
-3.9201516604
 20
-8.0090283717
 10
-3.9469094812
 20
-7.9758162816
 10
-3.9744474034
 20
-7.9431024506
 10
-4.0027064356
 20
-7.9109884509
 10
-4.0316188369
 20
-7.8795811645
 10
-4.0611168663
 20
-7.8489874729
 10
-4.091132783
 20
-7.819314258
 10
-4.1215945557
 20
-7.7906623292
 10
-4.1524129916
 20
-7.7631082074
 10
-4.1834946076
 20
-7.7367223413
 10
-4.2147459206
 20
-7.7115751795
 10
-4.2460734473
 20
-7.6877371707
 10
-4.2774025759
 20
-7.6652664078
 10
-4.3087341786
 20
-7.6441715612
 10
-4.3400879987
 20
-7.6244489455
 10
-4.3714837796
 20
-7.6060948753
 10
-4.4029412648
 20
-7.5891056653
 10
-4.4344610384
 20
-7.5734874063
 10
-4.465967048
 20
-7.5592852931
 10
-4.4973640818
 20
-7.5465542971
 10
-4.5285569283
 20
-7.5353493893
 10
-4.5594503758
 20
-7.5257255407
 10
-4.5899509398
 20
-7.5177282541
 10
-4.6199720455
 20
-7.5113651577
 10
-4.649428845
 20
-7.5066344112
 10
-4.6782364908
 20
-7.5035341745
 10
-4.7063101349
 20
-7.5020626072
 10
-4.7335737818
 20
-7.502206625
 10
-4.7599868433
 20
-7.503908167
 10
-4.7855175834
 20
-7.5070979283
 10
-4.810134266
 20
-7.5117066037
 10
-4.8338051551
 20
-7.5176648884
 10
-4.8527929717
 20
-7.5236190512
 10
-4.8711282995
 20
-7.5304700528
 10
-4.88883749
 20
-7.5382256317
 10
-4.905942665
 20
-7.5468963896
 10
-4.9224490286
 20
-7.5565043795
 10
-4.9383575553
 20
-7.5670745176
 10
-4.9536646425
 20
-7.578624477
 10
-4.9683483786
 20
-7.5911429595
 10
-4.9823822747
 20
-7.6046114235
 10
-4.99574934
 20
-7.6190314064
 10
-5.008470575
 20
-7.6344847592
 10
-5.0205764783
 20
-7.6510734118
 10
-5.0320741517
 20
-7.6688678259
 10
-5.0428771103
 20
-7.6878125921
 10
-5.0528754724
 20
-7.7078208327
 10
-5.0619752579
 20
-7.7287930022
 10
-5.0701460926
 20
-7.750578882
 10
-5.0773735036
 20
-7.7730155857
 10
-5.0836522281
 20
-7.7959694462
 10
-5.089013841
 20
-7.8194236759
 10
-5.0934991272
 20
-7.8433907066
 10
-5.0971424829
 20
-7.8678946413
 10
-5.0999527503
 20
-7.893006266
 10
-5.101932383
 20
-7.9188080379
  0
LWPOLYLINE
  5
26B
100
AcDbEntity
  8
0
100
AcDbPolyline
 62
253
  6
CONTINUOUS
 90
53
 70
0
 10
-4.2105255373
 20
9.1876963905
 10
-4.2089491895
 20
9.1631935093
 10
-4.2068053074
 20
9.1384389316
 10
-4.2040826723
 20
9.1134052354
 10
-4.2007700651
 20
9.0880649984
 10
-4.196856267
 20
9.0623907983
 10
-4.1923300591
 20
9.0363552131
 10
-4.1871837012
 20
9.009947191
 10
-4.1814233684
 20
8.9832211628
 10
-4.1750587144
 20
8.9562479298
 10
-4.1680993929
 20
8.9290982933
 10
-4.1605550579
 20
8.9018430547
 10
-4.152435363
 20
8.8745530153
 10
-4.1437510768
 20
8.847290493
 10
-4.1345174264
 20
8.8200838722
 10
-4.1247507537
 20
8.7929530542
 10
-4.1144674007
 20
8.7659179399
 10
-4.1036837093
 20
8.7389984305
 10
-4.0924160213
 20
8.712214427
 10
-4.0806808801
 20
8.6855858839
 10
-4.068495634
 20
8.6591329687
 10
-4.0558778328
 20
8.6328759025
 10
-4.0428450263
 20
8.6068349062
 10
-4.0294147642
 20
8.5810302008
 10
-4.0156045963
 20
8.5554820072
 10
-3.9985519182
 20
8.5251828484
 10
-3.9809855065
 20
8.4952667675
 10
-3.9629134203
 20
8.4657183474
 10
-3.9443437188
 20
8.4365221709
 10
-3.9252844611
 20
8.4076628207
 10
-3.9057430876
 20
8.379132912
 10
-3.8857245638
 20
8.3509571893
 10
-3.8652332368
 20
8.3231684294
 10
-3.8442734533
 20
8.2957994092
 10
-3.8228495603
 20
8.2688829055
 10
-3.8046435239
 20
8.2468191956
 10
-3.7861123224
 20
8.2250958071
 10
-3.7672500703
 20
8.2037160521
 10
-3.748050882
 20
8.1826832428
 10
-3.7285088719
 20
8.1620006911
 10
-3.7086181547
 20
8.1416717093
 10
-3.6883750373
 20
8.121702655
 10
-3.6677845972
 20
8.1021120685
 10
-3.6468541045
 20
8.0829215355
 10
-3.625590829
 20
8.0641526418
 10
-3.6040020409
 20
8.0458269733
 10
-3.5820950102
 20
8.0279661156
 10
-3.5598751867
 20
8.0105927963
 10
-3.5373407399
 20
7.9937343098
 10
-3.5144880188
 20
7.9774190922
 10
-3.4913133728
 20
7.9616755796
 10
-3.467813151
 20
7.946532208
 10
-3.4439837025
 20
7.9320174137
  0
LWPOLYLINE
  5
26C
100
AcDbEntity
  8
0
100
AcDbPolyline
 62
253
  6
CONTINUOUS
 90
9
 70
0
 10
-3.9399411618
 20
9.0567004402
 10
-3.9415510714
 20
9.0879224392
 10
-3.9429739862
 20
9.1191915322
 10
-3.944216371
 20
9.1505121479
 10
-3.9452846903
 20
9.181888715
 10
-3.9461854087
 20
9.2133256621
 10
-3.9469251318
 20
9.2448266373
 10
-3.9475110288
 20
9.2763921674
 10
-3.94795041
 20
9.3080219983
  0
LWPOLYLINE
  5
26D
100
AcDbEntity
  8
0
100
AcDbPolyline
 62
253
  6
CONTINUOUS
 90
15
 70
0
 10
-2.8817843548
 20
9.5264152042
 10
-2.8797979751
 20
9.4855998065
 10
-2.8780762331
 20
9.4446469803
 10
-2.8766171824
 20
9.4035542623
 10
-2.8754188766
 20
9.362319189
 10
-2.8744793692
 20
9.320939297
 10
-2.873796542
 20
9.2794131233
 10
-2.8733675885
 20
9.2377432073
 10
-2.8731895304
 20
9.1959330886
 10
-2.8732593892
 20
9.153986307
 10
-2.8735741866
 20
9.1119064024
 10
-2.8741305953
 20
9.0696955427
 10
-2.8749238931
 20
9.0273504091
 10
-2.8759490086
 20
8.984866311
 10
-2.8772008705
 20
8.9422385579
  0
LWPOLYLINE
  5
26E
100
AcDbEntity
  8
0
100
AcDbPolyline
 62
253
  6
CONTINUOUS
 90
55
 70
0
 10
-2.9797625437
 20
-10.9446009211
 10
-2.9796423447
 20
-10.9474619603
 10
-2.9794450714
 20
-10.9503428575
 10
-2.9791716037
 20
-10.9532503169
 10
-2.9788228213
 20
-10.9561910428
 10
-2.978399604
 20
-10.9591717392
 10
-2.9779025504
 20
-10.9621977989
 10
-2.9773311341
 20
-10.9652693685
 10
-2.9766845475
 20
-10.9683852832
 10
-2.975961983
 20
-10.9715443782
 10
-2.9751626328
 20
-10.9747454887
 10
-2.974285818
 20
-10.9779869137
 10
-2.9733313731
 20
-10.9812648073
 10
-2.9722992613
 20
-10.9845747875
 10
-2.9711894458
 20
-10.9879124722
 10
-2.9700018897
 20
-10.9912734793
 10
-2.9689533837
 20
-10.9940879259
 10
-2.9678540597
 20
-10.9969067069
 10
-2.9667071117
 20
-10.9997210038
 10
-2.9655146347
 20
-11.0025244777
 10
-2.9642743265
 20
-11.005320708
 10
-2.9629827859
 20
-11.008115754
 10
-2.9616373898
 20
-11.0109138407
 10
-2.9602386269
 20
-11.0137118578
 10
-2.9587877639
 20
-11.0165048607
 10
-2.9572860678
 20
-11.019287905
 10
-2.9557348052
 20
-11.0220560464
 10
-2.954135243
 20
-11.0248043403
 10
-2.9524889871
 20
-11.0275281153
 10
-2.9507989996
 20
-11.0302237914
 10
-2.9490685818
 20
-11.0328880613
 10
-2.9473010351
 20
-11.035517618
 10
-2.9454996608
 20
-11.0381091544
 10
-2.9436677601
 20
-11.0406593633
 10
-2.9418074461
 20
-11.0431664388
 10
-2.9399160794
 20
-11.0456345796
 10
-2.9379898321
 20
-11.0480694856
 10
-2.9360267164
 20
-11.0504744958
 10
-2.9340321046
 20
-11.0528435059
 10
-2.9320132085
 20
-11.0551680507
 10
-2.9295673125
 20
-11.0578888866
 10
-2.9271013737
 20
-11.0605308463
 10
-2.924619933
 20
-11.0630912736
 10
-2.9221275314
 20
-11.0655675123
 10
-2.9196287099
 20
-11.0679569059
 10
-2.917127446
 20
-11.0702573117
 10
-2.9146254626
 20
-11.07246864
 10
-2.9121239192
 20
-11.0745913142
 10
-2.9096239752
 20
-11.0766257581
 10
-2.9071267899
 20
-11.0785723952
 10
-2.9046322333
 20
-11.0804319773
 10
-2.9021350166
 20
-11.0822065681
 10
-2.8996285614
 20
-11.0838985597
 10
-2.8971062892
 20
-11.085510344
 10
-2.8945616218
 20
-11.0870443129
  0
LWPOLYLINE
  5
26F
100
AcDbEntity
  8
0
100
AcDbPolyline
 62
253
  6
CONTINUOUS
 90
55
 70
0
 10
-1.7550666116
 20
-10.4146997312
 10
-1.7551787624
 20
-10.4118116865
 10
-1.7553702926
 20
-10.4089045074
 10
-1.7556401901
 20
-10.4059715919
 10
-1.755987443
 20
-10.403006338
 10
-1.7564110392
 20
-10.4000021437
 10
-1.7569102681
 20
-10.396953688
 10
-1.7574856249
 20
-10.3938607741
 10
-1.7581379063
 20
-10.3907244861
 10
-1.7588679091
 20
-10.387545908
 10
-1.75967643
 20
-10.3843261239
 10
-1.760564126
 20
-10.3810667929
 10
-1.7615310957
 20
-10.3777718734
 10
-1.7625772981
 20
-10.3744458985
 10
-1.7637026922
 20
-10.3710934017
 10
-1.764907237
 20
-10.3677189161
 10
-1.765970892
 20
-10.3648943974
 10
-1.7670860698
 20
-10.3620668542
 10
-1.7682493559
 20
-10.3592453838
 10
-1.7694584594
 20
-10.3564365671
 10
-1.7707155832
 20
-10.3536369191
 10
-1.7720240536
 20
-10.3508404385
 10
-1.773386423
 20
-10.3480429202
 10
-1.7748021483
 20
-10.3452473445
 10
-1.7762699122
 20
-10.3424584883
 10
-1.7777883978
 20
-10.3396811282
 10
-1.7793562878
 20
-10.3369200409
 10
-1.7809722651
 20
-10.3341800031
 10
-1.7826346688
 20
-10.3314655447
 10
-1.7843404627
 20
-10.3287802077
 10
-1.7860862668
 20
-10.3261272873
 10
-1.7878687011
 20
-10.3235100787
 10
-1.7896843858
 20
-10.3209318771
 10
-1.7915299407
 20
-10.3183959777
 10
-1.7934031912
 20
-10.3159041838
 10
-1.7953067839
 20
-10.3134523321
 10
-1.7972445705
 20
-10.3110347673
 10
-1.7992185601
 20
-10.3086481661
 10
-1.8012233916
 20
-10.3062985335
 10
-1.8032518611
 20
-10.3039942065
 10
-1.8057084009
 20
-10.3012985895
 10
-1.8081840622
 20
-10.2986828244
 10
-1.8106743011
 20
-10.2961495179
 10
-1.8131745742
 20
-10.2937012765
 10
-1.8156803378
 20
-10.2913407069
 10
-1.8181876213
 20
-10.2890699002
 10
-1.8206947464
 20
-10.2868888871
 10
-1.8232006083
 20
-10.2847971826
 10
-1.8257041018
 20
-10.2827943019
 10
-1.8282041218
 20
-10.2808797602
 10
-1.8307008286
 20
-10.2790527693
 10
-1.8331994444
 20
-10.2773113277
 10
-1.8357064564
 20
-10.2756531303
 10
-1.8382283521
 20
-10.2740758723
 10
-1.8407716189
 20
-10.2725772488
  0
LINE
  5
270
100
AcDbEntity
  8
0
100
AcDbLine
 62
7
  6
CONTINUOUS
 10
-4.0428815613
 20
22.7512283785
 11
-4.0216779473
 21
22.134804583
  0
LINE
  5
271
100
AcDbEntity
  8
0
100
AcDbLine
 62
253
  6
CONTINUOUS
 10
-2.7047169554
 20
-11.1052520294
 11
-2.7328261004
 21
-10.0680891832
  0
LINE
  5
272
100
AcDbEntity
  8
0
100
AcDbLine
 62
253
  6
CONTINUOUS
 10
-3.0118410572
 20
-9.7501812466
 11
-2.9797625437
 21
-10.9446009211
  0
LINE
  5
273
100
AcDbEntity
  8
0
100
AcDbLine
 62
253
  6
CONTINUOUS
 10
-2.7407630231
 20
-9.7534453658
 11
-2.7601355787
 21
-8.9345497737
  0
LINE
  5
274
100
AcDbEntity
  8
0
100
AcDbLine
 62
253
  6
CONTINUOUS
 10
-3.0400220065
 20
-8.5533820542
 11
-3.0118410572
 21
-9.7501812466
  0
LWPOLYLINE
  5
275
100
AcDbEntity
  8
0
100
AcDbPolyline
 62
253
  6
CONTINUOUS
 90
16
 70
0
 10
-3.5057271632
 20
-9.5000456411
 10
-3.5064806612
 20
-9.4564868634
 10
-3.5074812486
 20
-9.4130441068
 10
-3.5087283041
 20
-9.3697165371
 10
-3.5102212066
 20
-9.3265033199
 10
-3.511959335
 20
-9.2834036209
 10
-3.5139419045
 20
-9.2404175821
 10
-3.5161674759
 20
-9.1975492503
 10
-3.5186344464
 20
-9.1548036487
 10
-3.5213412132
 20
-9.1121858003
 10
-3.5242861733
 20
-9.0697007284
 10
-3.527468098
 20
-9.0273523481
 10
-3.5308872541
 20
-8.9851401437
 10
-3.5345442826
 20
-8.9430624916
 10
-3.5384398245
 20
-8.9011177682
 10
-3.5425745204
 20
-8.8593043498
  0
LINE
  5
276
100
AcDbEntity
  8
0
100
AcDbLine
 62
253
  6
CONTINUOUS
 10
-3.7805474489
 20
-9.2965695386
 11
-3.7794258327
 21
-9.3765745113
  0
LWPOLYLINE
  5
277
100
AcDbEntity
  8
0
100
AcDbPolyline
 62
253
  6
CONTINUOUS
 90
3
 70
0
 10
-3.94795041
 20
9.3080219983
 10
-3.9484188651
 20
9.3714735469
 10
-3.9484557466
 20
9.4112624391
  0
LWPOLYLINE
  5
278
100
AcDbEntity
  8
0
100
AcDbPolyline
 62
253
  6
CONTINUOUS
 90
13
 70
0
 10
-3.7794258327
 20
-9.3765745113
 10
-3.7788925066
 20
-9.4527366249
 10
-3.7788802222
 20
-9.4903145331
 10
-3.7790068367
 20
-9.5201275975
 10
-3.7792628683
 20
-9.5497122932
 10
-3.7796556602
 20
-9.5790617468
 10
-3.7801925552
 20
-9.6081690845
 10
-3.7808808963
 20
-9.6370274328
 10
-3.7817272654
 20
-9.665630843
 10
-3.7827352006
 20
-9.6939770657
 10
-3.7839074789
 20
-9.7220647764
 10
-3.7852468772
 20
-9.7498926508
 10
-3.7867561726
 20
-9.7774593643
  0
LWPOLYLINE
  5
279
100
AcDbEntity
  8
0
100
AcDbPolyline
 62
253
  6
CONTINUOUS
 90
3
 70
0
 10
-3.9484557466
 20
9.4112624391
 10
-3.9480235847
 20
9.4911956335
 10
-3.9475935761
 20
9.5313687211
  0
LWPOLYLINE
  5
27A
100
AcDbEntity
  8
0
100
AcDbPolyline
 62
253
  6
CONTINUOUS
 90
55
 70
0
 10
-2.1303708223
 20
7.2644287711
 10
-2.1303933358
 20
7.2614804323
 10
-2.1303356874
 20
7.2585130315
 10
-2.1301992009
 20
7.2555197815
 10
-2.1299851996
 20
7.2524938951
 10
-2.1296950074
 20
7.2494285848
 10
-2.1293295828
 20
7.2463183867
 10
-2.1288884247
 20
7.2431631302
 10
-2.1283706668
 20
7.2399639678
 10
-2.127775443
 20
7.2367220521
 10
-2.1271018873
 20
7.2334385359
 10
-2.1263492461
 20
7.2301151447
 10
-2.1255172174
 20
7.2267558971
 10
-2.1246056118
 20
7.2233653845
 10
-2.1236142399
 20
7.2199481986
 10
-2.1225429123
 20
7.2165089307
 10
-2.1215894433
 20
7.2136304026
 10
-2.1205833161
 20
7.2107488896
 10
-2.1195275286
 20
7.2078735531
 10
-2.1184240526
 20
7.2050110077
 10
-2.1172707555
 20
7.2021576823
 10
-2.1160644786
 20
7.1993074591
 10
-2.1148027755
 20
7.1964560674
 10
-2.113486051
 20
7.1936066239
 10
-2.1121154222
 20
7.1907640925
 10
-2.1106920065
 20
7.1879334371
 10
-2.109216921
 20
7.1851196213
 10
-2.1076912831
 20
7.1823276091
 10
-2.1061165654
 20
7.1795620897
 10
-2.1044956626
 20
7.1768266544
 10
-2.1028318247
 20
7.1741246201
 10
-2.1011283018
 20
7.1714593036
 10
-2.099388344
 20
7.1688340218
 10
-2.0976152013
 20
7.1662520915
 10
-2.0958109652
 20
7.1637153206
 10
-2.0939730922
 20
7.1612194818
 10
-2.0920978803
 20
7.1587588389
 10
-2.0901834195
 20
7.1563300397
 10
-2.0882349679
 20
7.153939269
 10
-2.0862595755
 20
7.1515950957
 10
-2.0838622002
 20
7.1488536353
 10
-2.0814407502
 20
7.1461942641
 10
-2.078999793
 20
7.143619632
 10
-2.0765438965
 20
7.1411323887
 10
-2.0740776283
 20
7.1387351839
 10
-2.071604986
 20
7.1364301397
 10
-2.0691276862
 20
7.1342172673
 10
-2.0666468754
 20
7.1320960505
 10
-2.0641637001
 20
7.1300659728
 10
-2.0616793068
 20
7.1281265178
 10
-2.0591935564
 20
7.1262768794
 10
-2.0567011686
 20
7.1245150929
 10
-2.0541955771
 20
7.1228389036
 10
-2.0516702162
 20
7.1212460573
 10
-2.0491185198
 20
7.1197342993
  0
LWPOLYLINE
  5
27B
100
AcDbEntity
  8
0
100
AcDbPolyline
 62
253
  6
CONTINUOUS
 90
16
 70
0
 10
-3.9475935761
 20
9.5313687211
 10
-3.9469249581
 20
9.5746268037
 10
-3.9460517999
 20
9.6174834471
 10
-3.9449677018
 20
9.6599365585
 10
-3.9436662641
 20
9.701984045
 10
-3.9421410871
 20
9.7436238137
 10
-3.9403861209
 20
9.7848528324
 10
-3.9383967145
 20
9.8256643117
 10
-3.9361685665
 20
9.8660505229
 10
-3.9336973757
 20
9.9060037374
 10
-3.9309788407
 20
9.9455162264
 10
-3.9280088063
 20
9.9845813835
 10
-3.9247837014
 20
10.0231970906
 10
-3.9213001009
 20
10.0613623521
 10
-3.9175545799
 20
10.099076172
 10
-3.9135437133
 20
10.1363375546
  0
LINE
  5
27C
100
AcDbEntity
  8
0
100
AcDbLine
 62
253
  6
CONTINUOUS
 10
-2.1020871797
 20
8.4940462436
 11
-2.1303708223
 21
7.2644287711
  0
LINE
  5
27D
100
AcDbEntity
  8
0
100
AcDbLine
 62
253
  6
CONTINUOUS
 10
-2.0698993795
 20
9.7257881987
 11
-2.1020871797
 21
8.4940462436
  0
LINE
  5
27E
100
AcDbEntity
  8
0
100
AcDbLine
 62
253
  6
CONTINUOUS
 10
-2.8772008705
 20
8.9422385579
 11
-2.8801515786
 21
8.8597023195
  0
LWPOLYLINE
  5
27F
100
AcDbEntity
  8
0
100
AcDbPolyline
 62
253
  6
CONTINUOUS
 90
13
 70
0
 10
-2.8801515786
 20
8.8597023195
 10
-2.883532117
 20
8.7812150519
 10
-2.8854643232
 20
8.7425017815
 10
-2.8871391275
 20
8.7117924656
 10
-2.8889354003
 20
8.6813213391
 10
-2.8908590791
 20
8.6510943907
 10
-2.8929161015
 20
8.6211176087
 10
-2.8951124049
 20
8.5913969816
 10
-2.8974537973
 20
8.5619379872
 10
-2.8999455678
 20
8.5327440591
 10
-2.9025928758
 20
8.5038181203
 10
-2.9054008808
 20
8.4751630938
 10
-2.9083747421
 20
8.4467819024
  0
LWPOLYLINE
  5
280
100
AcDbEntity
  8
0
100
AcDbPolyline
 62
253
  6
CONTINUOUS
 90
15
 70
0
 10
-3.5148098351
 20
-9.9685014056
 10
-3.5131597068
 20
-9.9391125708
 10
-3.5116653455
 20
-9.9094554122
 10
-3.5103254179
 20
-9.8795300342
 10
-3.5091385906
 20
-9.8493365413
 10
-3.5081035302
 20
-9.8188750379
 10
-3.5072188562
 20
-9.7881461812
 10
-3.5064829987
 20
-9.7571528394
 10
-3.5058943407
 20
-9.7258984338
 10
-3.5054512651
 20
-9.6943863854
 10
-3.505152155
 20
-9.6626201153
 10
-3.5049777502
 20
-9.6225592163
 10
-3.5050195759
 20
-9.5821084792
 10
-3.5052714432
 20
-9.5412699416
 10
-3.5057271632
 20
-9.5000456411
  0
LWPOLYLINE
  5
281
100
AcDbEntity
  8
0
100
AcDbPolyline
 62
253
  6
CONTINUOUS
 90
83
 70
0
 10
-3.7867561726
 20
-9.7774593643
 10
-3.7881942023
 20
-9.7953091446
 10
-3.7902758221
 20
-9.8124652255
 10
-3.7929930822
 20
-9.8290130122
 10
-3.7963388705
 20
-9.8450176293
 10
-3.800309423
 20
-9.8604630783
 10
-3.8049018131
 20
-9.8753130798
 10
-3.8101126138
 20
-9.8895351357
 10
-3.815936397
 20
-9.9031118734
 10
-3.8223672339
 20
-9.9160297015
 10
-3.8293969273
 20
-9.9282763137
 10
-3.837008204
 20
-9.9398445444
 10
-3.8451815224
 20
-9.9507285129
 10
-3.8538994081
 20
-9.9609235398
 10
-3.8631526576
 20
-9.9704297502
 10
-3.8729341347
 20
-9.9792484705
 10
-3.8832367034
 20
-9.9873810268
 10
-3.8940532277
 20
-9.9948287454
 10
-3.9053765716
 20
-10.0015929526
 10
-3.9171955644
 20
-10.0076777063
 10
-3.9294828971
 20
-10.0130979911
 10
-3.9422072262
 20
-10.0178715232
 10
-3.9553441736
 20
-10.0220127677
 10
-3.9688972221
 20
-10.0255231853
 10
-3.9828768203
 20
-10.0284009853
 10
-3.9972868181
 20
-10.030637945
 10
-4.0121046722
 20
-10.0322001127
 10
-4.0273012407
 20
-10.0330471042
 10
-4.0428515285
 20
-10.033141378
 10
-4.0587471259
 20
-10.0324567618
 10
-4.0749837701
 20
-10.030969926
 10
-4.0915506317
 20
-10.0286641804
 10
-4.1084106168
 20
-10.0255493936
 10
-4.1255200652
 20
-10.0216420738
 10
-4.1428353167
 20
-10.0169587293
 10
-4.1603127112
 20
-10.0115158683
 10
-4.1779085885
 20
-10.005329999
 10
-4.1991299276
 20
-9.9969458537
 10
-4.2204517419
 20
-9.9875226248
 10
-4.2418667622
 20
-9.9770673889
 10
-4.2633677192
 20
-9.9655872224
 10
-4.2849473437
 20
-9.9530892019
 10
-4.3065938914
 20
-9.9395817901
 10
-4.3282777193
 20
-9.9250789952
 10
-4.349964709
 20
-9.9095962116
 10
-4.3716207426
 20
-9.8931488337
 10
-4.3932117018
 20
-9.8757522559
 10
-4.4111259806
 20
-9.8605463191
 10
-4.4289284524
 20
-9.844731945
 10
-4.4465761939
 20
-9.8283491723
 10
-4.4640262817
 20
-9.8114380394
 10
-4.4812357925
 20
-9.7940385853
 10
-4.4981618029
 20
-9.7761908484
 10
-4.514768429
 20
-9.7579324871
 10
-4.5310479452
 20
-9.7392916386
 10
-4.5469996651
 20
-9.7202940596
 10
-4.5626187857
 20
-9.7009731415
 10
-4.5778840376
 20
-9.6813928138
 10
-4.5927700343
 20
-9.6616246406
 10
-4.6072566289
 20
-9.6417262642
 10
-4.621344632
 20
-9.6216996406
 10
-4.6350400935
 20
-9.6015328039
 10
-4.648342599
 20
-9.5812173823
 10
-4.661225877
 20
-9.5607593801
 10
-4.6736571917
 20
-9.5401683952
 10
-4.6856083418
 20
-9.5194521726
 10
-4.6970692632
 20
-9.4986110444
 10
-4.7080344265
 20
-9.4776434893
 10
-4.7184992348
 20
-9.456551678
 10
-4.7284628219
 20
-9.4353525471
 10
-4.7379252545
 20
-9.4140667253
 10
-4.7468844223
 20
-9.3927168034
 10
-4.7553295087
 20
-9.3713332211
 10
-4.76324752
 20
-9.3499483806
 10
-4.7706254628
 20
-9.3285946841
 10
-4.7774503436
 20
-9.3073045338
 10
-4.7837091689
 20
-9.2861103316
 10
-4.7893871112
 20
-9.2650396208
 10
-4.7944620064
 20
-9.244100508
 10
-4.7989098565
 20
-9.2232962409
 10
-4.8027066636
 20
-9.2026300673
 10
-4.8058284296
 20
-9.1821052347
 10
-4.8082511564
 20
-9.161724991
  0
LWPOLYLINE
  5
282
100
AcDbEntity
  8
0
100
AcDbPolyline
 62
253
  6
CONTINUOUS
 90
19
 70
0
 10
-2.6352287664
 20
8.2564037113
 10
-2.6291119606
 20
8.3153340601
 10
-2.6235777798
 20
8.3748385551
 10
-2.6186061608
 20
8.4349137354
 10
-2.6141770405
 20
8.4955561405
 10
-2.6102703558
 20
8.5567623095
 10
-2.6068660434
 20
8.6185287817
 10
-2.6039490775
 20
8.6808486763
 10
-2.6015245816
 20
8.7437014323
 10
-2.5996027163
 20
8.8070630684
 10
-2.5981936423
 20
8.8709096033
 10
-2.5973075203
 20
8.9352170559
 10
-2.5969545111
 20
8.999961445
 10
-2.5971470577
 20
9.065126271
 10
-2.5979067326
 20
9.1307249604
 10
-2.599257391
 20
9.1967784215
 10
-2.6012228877
 20
9.2633075624
 10
-2.6038270777
 20
9.3303332912
 10
-2.607093816
 20
9.3978765163
  0
LWPOLYLINE
  5
283
100
AcDbEntity
  8
0
100
AcDbPolyline
 62
253
  6
CONTINUOUS
 90
86
 70
0
 10
-2.9083747421
 20
8.4467819024
 10
-2.9103945303
 20
8.4309894727
 10
-2.9128933041
 20
8.4156382821
 10
-2.9158818471
 20
8.4006656169
 10
-2.9193709426
 20
8.3860087636
 10
-2.9233733481
 20
8.37162056
 10
-2.9279097171
 20
8.3575160493
 10
-2.9330026773
 20
8.3437258261
 10
-2.9386748563
 20
8.3302804849
 10
-2.9449435604
 20
8.3172133616
 10
-2.9518048103
 20
8.3045687563
 10
-2.9592493051
 20
8.2923937104
 10
-2.9672677442
 20
8.2807352653
 10
-2.9758495294
 20
8.2696366274
 10
-2.9849788736
 20
8.259125664
 10
-2.994638692
 20
8.2492264074
 10
-3.0048119001
 20
8.2399628899
 10
-3.0154823177
 20
8.2313543681
 10
-3.0266373825
 20
8.2234009954
 10
-3.0382654366
 20
8.2160981493
 10
-3.0503548222
 20
8.2094412075
 10
-3.0628935685
 20
8.2034244468
 10
-3.0758684534
 20
8.1980377412
 10
-3.0892659421
 20
8.1932698642
 10
-3.1030724997
 20
8.189109589
 10
-3.1193343929
 20
8.185093844
 10
-3.1360892905
 20
8.1818958065
 10
-3.1533135812
 20
8.179554245
 10
-3.1709836538
 20
8.1781079282
 10
-3.1890758968
 20
8.1775956246
 10
-3.2075666991
 20
8.1780561026
 10
-3.2264324492
 20
8.1795281308
 10
-3.2456471911
 20
8.1820419626
 10
-3.2651755891
 20
8.1855937906
 10
-3.2849799629
 20
8.1901712924
 10
-3.3050226323
 20
8.1957621455
 10
-3.3252659168
 20
8.2023540274
 10
-3.3456721361
 20
8.2099346156
 10
-3.3662036099
 20
8.2184915876
 10
-3.3868252126
 20
8.2280133924
 10
-3.4075120383
 20
8.2384915645
 10
-3.4282417357
 20
8.2499184098
 10
-3.4489919536
 20
8.2622862343
 10
-3.469740341
 20
8.2755873439
 10
-3.4904645465
 20
8.2898140445
 10
-3.5111422191
 20
8.3049586422
 10
-3.5291752368
 20
8.3189526614
 10
-3.5471153222
 20
8.3336118945
 10
-3.5649222825
 20
8.3489046815
 10
-3.5825559247
 20
8.3647993621
 10
-3.5999767984
 20
8.3812631987
 10
-3.6171484219
 20
8.3982591444
 10
-3.6340350558
 20
8.4157490746
 10
-3.6506009608
 20
8.4336948648
 10
-3.6668160029
 20
8.4520591704
 10
-3.68267247
 20
8.4708077665
 10
-3.6981682554
 20
8.4899072079
 10
-3.7133012524
 20
8.5093240495
 10
-3.728067375
 20
8.5290232646
 10
-3.7424546204
 20
8.5489635006
 10
-3.7564490063
 20
8.5691018235
 10
-3.7700365505
 20
8.5893952991
 10
-3.7832011501
 20
8.6098077711
 10
-3.7959182201
 20
8.6303301941
 10
-3.8081610547
 20
8.6509603001
 10
-3.8199029482
 20
8.6716958215
 10
-3.831119702
 20
8.6925282781
 10
-3.8417971464
 20
8.7134243404
 10
-3.851923619
 20
8.7343444665
 10
-3.8614874573
 20
8.7552491146
 10
-3.8704800057
 20
8.7760994349
 10
-3.8789046365
 20
8.7968593459
 10
-3.8867677287
 20
8.8174934583
 10
-3.8940756616
 20
8.8379663826
 10
-3.9008333207
 20
8.858238322
 10
-3.907039618
 20
8.8782518499
 10
-3.9126919717
 20
8.8979451322
 10
-3.9177878001
 20
8.9172563348
 10
-3.9223281468
 20
8.9361342218
 10
-3.9263285566
 20
8.9545699502
 10
-3.9298081992
 20
8.9725652753
 10
-3.9327862446
 20
8.9901219523
 10
-3.9352799144
 20
9.0072527231
 10
-3.9372986371
 20
9.0240142773
 10
-3.9388498928
 20
9.040474291
 10
-3.9399411618
 20
9.0567004402
  0
LINE
  5
284
100
AcDbEntity
  8
0
100
AcDbLine
 62
253
  6
CONTINUOUS
 10
-0.7181489602
 20
7.2238714679
 11
-0.7252105336
 21
7.1975587881
  0
LINE
  5
285
100
AcDbEntity
  8
0
100
AcDbLine
 62
7
  6
CONTINUOUS
 10
3.876714388
 20
18.1785529332
 11
3.6964797396
 21
17.7643709239
  0
LWPOLYLINE
  5
286
100
AcDbEntity
  8
0
100
AcDbPolyline
 62
253
  6
CONTINUOUS
 90
10
 70
0
 10
5.2384827295
 20
-5.5209234575
 10
3.4768195381
 20
-4.6489331327
 10
1.7452805382
 20
-3.7580452829
 10
0.0442043107
 20
-2.8484507612
 10
-1.6259733622
 20
-1.920400643
 10
-3.2650243915
 20
-0.9740331484
 10
-4.8729166144
 20
-0.0093668389
 10
-6.449410581
 20
0.973466571
 10
-7.9940713262
 20
1.9742154141
 10
-9.5065681327
 20
2.9926841151
  0
LWPOLYLINE
  5
287
100
AcDbEntity
  8
0
100
AcDbPolyline
 62
253
  6
CONTINUOUS
 90
10
 70
0
 10
5.5574914953
 20
-4.893046991
 10
3.8024827364
 20
-4.0242556483
 10
2.0781422172
 20
-3.1370395784
 10
0.3844699377
 20
-2.2313987811
 10
-1.2787678064
 20
-1.3071983111
 10
-2.9113373108
 20
-0.3645731139
 10
-4.5125374633
 20
0.5960719741
 10
-6.0821345596
 20
1.5746020072
 10
-7.6203623038
 20
2.571151931
 10
-9.1272206961
 20
3.5857217455
  0
LWPOLYLINE
  5
288
100
AcDbEntity
  8
0
100
AcDbPolyline
 62
7
  6
CONTINUOUS
 90
13
 70
0
 10
-9.4065885087
 20
3.9868215929
 10
-8.3201007855
 20
3.2531561891
 10
-7.1626728555
 20
2.4932113817
 10
-5.9865607715
 20
1.7427929089
 10
-4.7920307699
 20
1.0020900034
 10
-3.5793315187
 20
0.2712748249
 10
-2.3486823396
 20
-0.4495230036
 10
-1.1003194545
 20
-1.1601696758
 10
0.1655209963
 20
-1.8605313043
 10
1.4486101306
 20
-2.5504836568
 10
2.7486450803
 20
-3.2298853925
 10
4.0652934322
 20
-3.8985851437
 10
5.3416264045
 20
-4.5288812863
  0
LINE
  5
289
100
AcDbEntity
  8
0
100
AcDbLine
 62
7
  6
CONTINUOUS
 10
-9.4065813694
 20
3.9868167224
 11
-9.4065137711
 21
3.9867704206
  0
LWPOLYLINE
  5
28A
100
AcDbEntity
  8
0
100
AcDbPolyline
 62
7
  6
CONTINUOUS
 90
6
 70
0
 10
-9.4065137711
 20
3.9867704206
 10
-9.4182739421
 20
3.9950694185
 10
-9.4514794377
 20
4.0214495627
 10
-9.4823543603
 20
4.0505737139
 10
-9.5106669721
 20
4.0822346128
 10
-9.5362258052
 20
4.1162357835
  0
LWPOLYLINE
  5
28B
100
AcDbEntity
  8
0
100
AcDbPolyline
 62
253
  6
CONTINUOUS
 90
9
 70
0
 10
-9.5065683411
 20
2.992684174
 10
-9.5360437752
 20
3.0150196558
 10
-9.561624337
 20
3.0389083639
 10
-9.5830681448
 20
3.0641244145
 10
-9.6001724306
 20
3.0904293684
 10
-9.6127754653
 20
3.1175744984
 10
-9.620758081
 20
3.1453031416
 10
-9.6240447908
 20
3.173353118
 10
-9.6241350091
 20
3.1786321745
  0
LWPOLYLINE
  5
28C
100
AcDbEntity
  8
0
100
AcDbPolyline
 62
253
  6
CONTINUOUS
 90
76
 70
0
 10
-2.607093816
 20
9.3978765163
 10
-2.6095776794
 20
9.4341983005
 10
-2.6132775795
 20
9.4707259495
 10
-2.6181804516
 20
9.5074714441
 10
-2.6242732314
 20
9.5444467649
 10
-2.6315428544
 20
9.5816638929
 10
-2.6399754156
 20
9.6191224673
 10
-2.6495536477
 20
9.656772762
 10
-2.6602594426
 20
9.6945527098
 10
-2.6720746924
 20
9.7324002432
 10
-2.6849812893
 20
9.7702532947
 10
-2.6989609581
 20
9.8080549492
 10
-2.7139947561
 20
9.8457689003
 10
-2.7300635733
 20
9.8833639938
 10
-2.7471482998
 20
9.9208090753
 10
-2.7652298256
 20
9.9580729908
 10
-2.7842892095
 20
9.9951274443
 10
-2.8043081842
 20
10.0319555729
 10
-2.8252686511
 20
10.0685433722
 10
-2.8471525116
 20
10.1048768377
 10
-2.8699416671
 20
10.1409419649
 10
-2.8936177891
 20
10.1767137671
 10
-2.9181616294
 20
10.2121233298
 10
-2.9435537098
 20
10.247090756
 10
-2.9697745524
 20
10.2815361489
 10
-2.996804679
 20
10.3153796117
 10
-3.0246154119
 20
10.3485377335
 10
-3.0531412749
 20
10.3809130467
 10
-3.0823075919
 20
10.4124045697
 10
-3.1120396871
 20
10.4429113206
 10
-3.1422628845
 20
10.4723323179
 10
-3.1728999451
 20
10.5005739797
 10
-3.2038633767
 20
10.5275723242
 10
-3.235063124
 20
10.5532707695
 10
-3.2664091317
 20
10.5776127336
 10
-3.2978113446
 20
10.6005416347
 10
-3.3291992398
 20
10.6220128504
 10
-3.360580425
 20
10.6420295973
 10
-3.3919820405
 20
10.6606070516
 10
-3.4234312266
 20
10.6777603896
 10
-3.4549551234
 20
10.6935047875
 10
-3.4865605011
 20
10.7078446197
 10
-3.5181726493
 20
10.7207410536
 10
-3.5496964872
 20
10.7321444546
 10
-3.5810369343
 20
10.7420051884
 10
-3.61209891
 20
10.7502736206
 10
-3.6427906275
 20
10.7569106851
 10
-3.6730334756
 20
10.7619195904
 10
-3.7027521371
 20
10.7653141134
 10
-3.7318712947
 20
10.7671080311
 10
-3.7603156311
 20
10.7673151202
 10
-3.7880196176
 20
10.7659557282
 10
-3.8149568803
 20
10.7630764843
 10
-3.8411108338
 20
10.758730588
 10
-3.8664648928
 20
10.7529712391
 10
-3.891002472
 20
10.7458516371
 10
-3.9147076245
 20
10.7374145129
 10
-3.9375669582
 20
10.7276607223
 10
-3.9595677195
 20
10.7165806525
 10
-3.9806971545
 20
10.7041646904
 10
-4.0009425097
 20
10.6904032232
 10
-4.0202886306
 20
10.6752892847
 10
-4.0387107591
 20
10.6588264965
 10
-4.0561817363
 20
10.6410211268
 10
-4.0726744033
 20
10.621879444
 10
-4.0881616011
 20
10.6014077164
 10
-4.1026169434
 20
10.5796176986
 10
-4.1160171329
 20
10.55654309
 10
-4.1283396451
 20
10.5322230762
 10
-4.1395619553
 20
10.5066968428
 10
-4.1496615389
 20
10.4800035757
 10
-4.1586172881
 20
10.452171125
 10
-4.1664137634
 20
10.4231820001
 10
-4.1730369417
 20
10.3930073748
 10
-4.1784728005
 20
10.3616184233
 10
-4.1827073169
 20
10.3289863194
  0
LWPOLYLINE
  5
28D
100
AcDbEntity
  8
0
100
AcDbPolyline
 62
253
  6
CONTINUOUS
 90
55
 70
0
 10
-1.0505522238
 20
-12.0518751947
 10
-1.0504308383
 20
-12.0547471833
 10
-1.0502301334
 20
-12.0576379641
 10
-1.0499510753
 20
-12.0605541536
 10
-1.0495946299
 20
-12.0635023684
 10
-1.0491617632
 20
-12.0664892247
 10
-1.0486531456
 20
-12.0695200521
 10
-1.0480682652
 20
-12.0725950322
 10
-1.0474063148
 20
-12.0757130593
 10
-1.0466664869
 20
-12.0788730281
 10
-1.0458479741
 20
-12.082073833
 10
-1.0449501077
 20
-12.0853138062
 10
-1.0439727737
 20
-12.0885890296
 10
-1.0429159966
 20
-12.0918950227
 10
-1.0417798009
 20
-12.095227305
 10
-1.0405642112
 20
-12.098581396
 10
-1.0394911532
 20
-12.1013888336
 10
-1.0383663754
 20
-12.1041993196
 10
-1.0371932756
 20
-12.1070038693
 10
-1.0359741204
 20
-12.1097959947
 10
-1.0347066523
 20
-12.1125791963
 10
-1.0333874823
 20
-12.1153594714
 10
-1.0320140058
 20
-12.1181410162
 10
-1.0305867551
 20
-12.1209208221
 10
-1.0291070464
 20
-12.1236940789
 10
-1.0275761963
 20
-12.1264559766
 10
-1.025995521
 20
-12.129201705
 10
-1.024366337
 20
-12.1319264543
 10
-1.0226903069
 20
-12.1346256688
 10
-1.0209704786
 20
-12.1372958111
 10
-1.0192102461
 20
-12.1399335981
 10
-1.0174130037
 20
-12.142535747
 10
-1.0155821455
 20
-12.1450989747
 10
-1.0137210655
 20
-12.1476199982
 10
-1.0118319436
 20
-12.1500970231
 10
-1.009912103
 20
-12.1525342086
 10
-1.0079576522
 20
-12.1549372024
 10
-1.0059665634
 20
-12.1573093254
 10
-1.0039442606
 20
-12.1596445916
 10
-1.0018980313
 20
-12.1619346879
 10
-0.9994199008
 20
-12.1646134381
 10
-0.9969224041
 20
-12.1672125898
 10
-0.9944101353
 20
-12.1697295596
 10
-0.9918876887
 20
-12.1721617643
 10
-0.9893596583
 20
-12.1745066206
 10
-0.9868300603
 20
-12.1767620569
 10
-0.9843005986
 20
-12.1789280478
 10
-0.9817723989
 20
-12.1810050798
 10
-0.979246587
 20
-12.1829936392
 10
-0.9767242888
 20
-12.1848942125
 10
-0.9742053461
 20
-12.1867075868
 10
-0.9716844649
 20
-12.1884357527
 10
-0.9691550676
 20
-12.1900810017
 10
-0.9666105762
 20
-12.1916456252
 10
-0.9640444128
 20
-12.1931319145
  0
LWPOLYLINE
  5
28E
100
AcDbEntity
  8
0
100
AcDbPolyline
 62
253
  6
CONTINUOUS
 90
55
 70
0
 10
0.200539453
 20
-11.5067345222
 10
0.2004282005
 20
-11.5038526688
 10
0.2002362643
 20
-11.5009525531
 10
0.1999646479
 20
-11.4980275013
 10
0.1996143549
 20
-11.4950708393
 10
0.1991863886
 20
-11.4920758931
 10
0.1986814475
 20
-11.4890372896
 10
0.1980990097
 20
-11.4859548581
 10
0.197438248
 20
-11.4828297289
 10
0.1966983353
 20
-11.4796630321
 10
0.1958784447
 20
-11.4764558979
 10
0.194977887
 20
-11.4732100154
 10
0.1939965243
 20
-11.4699293103
 10
0.1929343569
 20
-11.4666182669
 10
0.1917913851
 20
-11.4632813699
 10
0.1905676088
 20
-11.4599231038
 10
0.1894866367
 20
-11.4571125206
 10
0.1883529519
 20
-11.4542991678
 10
0.1871699555
 20
-11.4514920015
 10
0.1859399085
 20
-11.4486974874
 10
0.184660511
 20
-11.4459121306
 10
0.1833283225
 20
-11.4431299459
 10
0.1819406976
 20
-11.4403467516
 10
0.1804981696
 20
-11.4375655793
 10
0.1790020666
 20
-11.4347912636
 10
0.1774537166
 20
-11.4320286396
 10
0.1758544479
 20
-11.429282542
 10
0.1742055884
 20
-11.4265578057
 10
0.1725088177
 20
-11.4238590011
 10
0.1707672207
 20
-11.421189641
 10
0.1689842338
 20
-11.4185529738
 10
0.1671632933
 20
-11.415952248
 10
0.1653078356
 20
-11.4133907121
 10
0.1634212971
 20
-11.4108716144
 10
0.161505884
 20
-11.4083967246
 10
0.1595588827
 20
-11.4059618971
 10
0.1575763494
 20
-11.4035615076
 10
0.1555562309
 20
-11.4011922531
 10
0.1535040351
 20
-11.398860116
 10
0.1514271606
 20
-11.3965734
 10
0.1489113989
 20
-11.393899024
 10
0.1463754194
 20
-11.3913045766
 10
0.1438238883
 20
-11.3887926228
 10
0.1412614716
 20
-11.3863657277
 10
0.1386928354
 20
-11.3840264562
 10
0.1361220602
 20
-11.3817768658
 10
0.1335508842
 20
-11.3796169836
 10
0.13098046
 20
-11.3775463291
 10
0.1284119401
 20
-11.3755644217
 10
0.1258464773
 20
-11.3736707811
 10
0.1232839168
 20
-11.3718646347
 10
0.1207188753
 20
-11.3701440418
 10
0.1181446621
 20
-11.3685067696
 10
0.1155545865
 20
-11.3669505855
 10
0.1129419578
 20
-11.3654732568
  0
LWPOLYLINE
  5
28F
100
AcDbEntity
  8
0
100
AcDbPolyline
 62
253
  6
CONTINUOUS
 90
55
 70
0
 10
-1.6137314913
 20
-9.3763266155
 10
-1.6138345495
 20
-9.3734379678
 10
-1.6140169065
 20
-9.3705303371
 10
-1.6142775585
 20
-9.3675970388
 10
-1.6146155016
 20
-9.3646313879
 10
-1.6150297319
 20
-9.3616266999
 10
-1.6155195489
 20
-9.3585775919
 10
-1.6160854653
 20
-9.355483889
 10
-1.6167282973
 20
-9.3523467185
 10
-1.617448861
 20
-9.3491672075
 10
-1.6182479723
 20
-9.3459464831
 10
-1.6191263132
 20
-9.342686234
 10
-1.6200840279
 20
-9.3393903953
 10
-1.6211211266
 20
-9.3360634636
 10
-1.6222376194
 20
-9.3327099355
 10
-1.6234335161
 20
-9.3293343077
 10
-1.6244902045
 20
-9.3265087143
 10
-1.6255987148
 20
-9.3236799033
 10
-1.6267557205
 20
-9.3208568814
 10
-1.62795901
 20
-9.3180461532
 10
-1.6292108325
 20
-9.3152442135
 10
-1.6305145523
 20
-9.312445055
 10
-1.6318727571
 20
-9.3096444776
 10
-1.6332849274
 20
-9.30684551
 10
-1.6347497673
 20
-9.3040529883
 10
-1.6362659806
 20
-9.3012717485
 10
-1.6378322713
 20
-9.2985066266
 10
-1.6394473432
 20
-9.2957624588
 10
-1.6411095532
 20
-9.2930438214
 10
-1.6428158689
 20
-9.2903542529
 10
-1.6445629109
 20
-9.2876970322
 10
-1.6463472998
 20
-9.2850754383
 10
-1.648165656
 20
-9.2824927499
 10
-1.6500146003
 20
-9.2799522461
 10
-1.6518919589
 20
-9.277455717
 10
-1.6538003819
 20
-9.274998998
 10
-1.6557437251
 20
-9.2725764354
 10
-1.6577239969
 20
-9.2701847102
 10
-1.6597358156
 20
-9.2678298393
 10
-1.6617719521
 20
-9.265520174
 10
-1.6642385584
 20
-9.2628180349
 10
-1.6667252097
 20
-9.2601956246
 10
-1.6692273435
 20
-9.2576555503
 10
-1.671740397
 20
-9.2552004189
 10
-1.6742598077
 20
-9.2528328375
 10
-1.6767815821
 20
-9.2505549037
 10
-1.679304003
 20
-9.2483666769
 10
-1.6818259223
 20
-9.2462677075
 10
-1.6843461921
 20
-9.2442575453
 10
-1.6868636642
 20
-9.2423357406
 10
-1.6893784782
 20
-9.2405015346
 10
-1.6918959235
 20
-9.2387529332
 10
-1.694422577
 20
-9.2370876336
 10
-1.6969650157
 20
-9.2355033329
 10
-1.6995298164
 20
-9.2339977281
  0
LWPOLYLINE
  5
290
100
AcDbEntity
  8
0
100
AcDbPolyline
 62
253
  6
CONTINUOUS
 90
55
 70
0
 10
0.345715689
 20
-10.4659120565
 10
0.3456129129
 20
-10.463020052
 10
0.3454288792
 20
-10.4601099853
 10
0.345164648
 20
-10.457175222
 10
0.3448212794
 20
-10.4542091277
 10
0.3443998337
 20
-10.4512050679
 10
0.343901057
 20
-10.4481576973
 10
0.3433244402
 20
-10.4450668265
 10
0.3426691603
 20
-10.4419335554
 10
0.3419343943
 20
-10.4387589835
 10
0.3411193189
 20
-10.4355442108
 10
0.3402232518
 20
-10.4322909098
 10
0.3392460722
 20
-10.4290030455
 10
0.3381878002
 20
-10.4256851557
 10
0.3370484555
 20
-10.4223417782
 10
0.335828058
 20
-10.4189774508
 10
0.3347497333
 20
-10.4161621873
 10
0.3336185915
 20
-10.4133445864
 10
0.3324380885
 20
-10.4105337077
 10
0.3312105388
 20
-10.4077361049
 10
0.329933692
 20
-10.4049483066
 10
0.3286041565
 20
-10.4021643354
 10
0.3272193277
 20
-10.3993800069
 10
0.3257797485
 20
-10.3965983101
 10
0.3242867491
 20
-10.393824027
 10
0.3227416593
 20
-10.3910619399
 10
0.3211458092
 20
-10.388316831
 10
0.3195005288
 20
-10.3855934822
 10
0.3178075009
 20
-10.3828964213
 10
0.3160698198
 20
-10.3802291582
 10
0.3142909325
 20
-10.3775949481
 10
0.3124742861
 20
-10.3749970464
 10
0.3106233275
 20
-10.3724387084
 10
0.3087415039
 20
-10.3699231895
 10
0.3068310325
 20
-10.3674522655
 10
0.3048892114
 20
-10.3650217948
 10
0.3029121089
 20
-10.3626261562
 10
0.3008976761
 20
-10.3602620442
 10
0.2988513968
 20
-10.3579354157
 10
0.2967806375
 20
-10.3556545432
 10
0.2942724394
 20
-10.3529875844
 10
0.2917442554
 20
-10.3504009775
 10
0.2892007427
 20
-10.3478972733
 10
0.2866465589
 20
-10.3454790228
 10
0.2840863612
 20
-10.3431487768
 10
0.2815242188
 20
-10.3409085761
 10
0.2789618483
 20
-10.3387584213
 10
0.276400378
 20
-10.3366978027
 10
0.2738409363
 20
-10.3347262108
 10
0.2712846514
 20
-10.3328431359
 10
0.2687313571
 20
-10.3310477849
 10
0.2661757079
 20
-10.3293382302
 10
0.2636110637
 20
-10.3277122604
 10
0.2610307844
 20
-10.3261676643
 10
0.2584282298
 20
-10.3247022308
  0
LINE
  5
291
100
AcDbEntity
  8
0
100
AcDbLine
 62
253
  6
CONTINUOUS
 10
-1.0825182328
 20
-10.8573901535
 11
-1.0505522238
 21
-12.0518751947
  0
LINE
  5
292
100
AcDbEntity
  8
0
100
AcDbLine
 62
253
  6
CONTINUOUS
 10
-0.7702299563
 20
-12.2090475239
 11
-0.7981436227
 21
-11.1717718109
  0
LINE
  5
293
100
AcDbEntity
  8
0
100
AcDbLine
 62
253
  6
CONTINUOUS
 10
-1.7519009
 20
-10.5402686946
 11
-1.7550666116
 21
-10.4146997312
  0
LINE
  5
294
100
AcDbEntity
  8
0
100
AcDbLine
 62
253
  6
CONTINUOUS
 10
0.2036442756
 20
-11.6323386422
 11
0.200539453
 21
-11.5067345222
  0
LINE
  5
295
100
AcDbEntity
  8
0
100
AcDbLine
 62
253
  6
CONTINUOUS
 10
-0.8060253561
 20
-10.8570961279
 11
-0.8252632165
 21
-10.0381227644
  0
LINE
  5
296
100
AcDbEntity
  8
0
100
AcDbLine
 62
253
  6
CONTINUOUS
 10
-1.1106003468
 20
-9.6605343028
 11
-1.0825182328
 21
-10.8573901535
  0
LINE
  5
297
100
AcDbEntity
  8
0
100
AcDbLine
 62
253
  6
CONTINUOUS
 10
-1.6109566837
 20
-9.5020924787
 11
-1.6137314913
 21
-9.3763266155
  0
LWPOLYLINE
  5
298
100
AcDbEntity
  8
0
100
AcDbPolyline
 62
253
  6
CONTINUOUS
 90
55
 70
0
 10
-0.3933791112
 20
8.7793405704
 10
-0.3933390274
 20
8.7823087523
 10
-0.3933800676
 20
8.7852941767
 10
-0.3935008609
 20
8.7883037952
 10
-0.3937000364
 20
8.7913445592
 10
-0.3939762232
 20
8.7944234204
 10
-0.394328432
 20
8.7975459719
 10
-0.3947572007
 20
8.8007123744
 10
-0.3952634487
 20
8.8039214303
 10
-0.3958480954
 20
8.807171942
 10
-0.3965120602
 20
8.8104627119
 10
-0.3972561535
 20
8.8137919731
 10
-0.3980807492
 20
8.8171556809
 10
-0.3989861122
 20
8.8205492216
 10
-0.3999725073
 20
8.8239679811
 10
-0.4010401993
 20
8.8274073456
 10
-0.4019917155
 20
8.8302848138
 10
-0.4029969044
 20
8.833164236
 10
-0.4040527987
 20
8.8360364613
 10
-0.4051574592
 20
8.8388948761
 10
-0.4063130595
 20
8.8417430157
 10
-0.4075228018
 20
8.8445869524
 10
-0.4087891731
 20
8.8474309256
 10
-0.4101118015
 20
8.8502718423
 10
-0.4114896002
 20
8.8531047764
 10
-0.4129214824
 20
8.8559248018
 10
-0.4144063615
 20
8.8587269922
 10
-0.4159431506
 20
8.8615064218
 10
-0.4175303823
 20
8.8642584387
 10
-0.4191650665
 20
8.8669794893
 10
-0.4208438324
 20
8.8696662946
 10
-0.4225633091
 20
8.8723155754
 10
-0.4243201259
 20
8.8749240526
 10
-0.4261109119
 20
8.8774884471
 10
-0.4279334747
 20
8.8800069769
 10
-0.4297903352
 20
8.8824838491
 10
-0.4316851928
 20
8.8849247682
 10
-0.4336199571
 20
8.8873331004
 10
-0.4355893801
 20
8.8897028588
 10
-0.4375864239
 20
8.8920257187
 10
-0.4400106914
 20
8.8947414963
 10
-0.4424600246
 20
8.8973752055
 10
-0.4449298492
 20
8.8999242996
 10
-0.4474155912
 20
8.9023862321
 10
-0.4499126766
 20
8.9047584563
 10
-0.4524170835
 20
8.9070389231
 10
-0.4549269998
 20
8.9092275743
 10
-0.4574411659
 20
8.9113248492
 10
-0.459958322
 20
8.9133311871
 10
-0.4624772083
 20
8.9152470274
 10
-0.4649979014
 20
8.9170731062
 10
-0.4675258229
 20
8.9188113466
 10
-0.4700677306
 20
8.9204639685
 10
-0.4726303825
 20
8.922033192
 10
-0.4752205362
 20
8.9235212368
  0
LINE
  5
299
100
AcDbEntity
  8
0
100
AcDbLine
 62
253
  6
CONTINUOUS
 10
-0.4531614908
 20
6.3183789992
 11
-0.4252001365
 21
7.5478090561
  0
LWPOLYLINE
  5
29A
100
AcDbEntity
  8
0
100
AcDbPolyline
 62
253
  6
CONTINUOUS
 90
3
 70
0
 10
-1.8528055054
 20
7.1054629709
 10
-1.8258887888
 20
8.2528764303
 10
-1.8111551301
 20
8.8272904464
  0
LINE
  5
29B
100
AcDbEntity
  8
0
100
AcDbLine
 62
253
  6
CONTINUOUS
 10
-0.6748108158
 20
8.9359011306
 11
-0.7181489602
 21
7.2238714679
  0
LINE
  5
29C
100
AcDbEntity
  8
0
100
AcDbLine
 62
253
  6
CONTINUOUS
 10
-0.4252001365
 20
7.5478090561
 11
-0.3933791112
 21
8.7793405704
  0
LWPOLYLINE
  5
29D
100
AcDbEntity
  8
0
100
AcDbPolyline
 62
253
  6
CONTINUOUS
 90
16
 70
0
 10
5.2384828175
 20
-4.2995552744
 10
5.2771495739
 20
-4.316583802
 10
5.3184963263
 20
-4.3313693093
 10
5.3621321132
 20
-4.3437719892
 10
5.4076443218
 20
-4.3536745646
 10
5.4546026099
 20
-4.3609834018
 10
5.5025629763
 20
-4.3656293927
 10
5.5510719461
 20
-4.367568603
 10
5.5996708117
 20
-4.3667826897
 10
5.6478999923
 20
-4.363279085
 10
5.6953034262
 20
-4.3570909252
 10
5.7414329055
 20
-4.3482767265
 10
5.7858522679
 20
-4.3369198306
 10
5.8281415048
 20
-4.3231276223
 10
5.8679007357
 20
-4.3070305178
 10
5.9047540101
 20
-4.2887807263
  0
LWPOLYLINE
  5
29E
100
AcDbEntity
  8
0
100
AcDbPolyline
 62
7
  6
CONTINUOUS
 90
12
 70
0
 10
5.341793596
 20
-4.5289627788
 10
5.3537319494
 20
-4.5345786992
 10
5.3983705802
 20
-4.5523275835
 10
5.4446070414
 20
-4.5657348153
 10
5.4920741766
 20
-4.5746548635
 10
5.5403533205
 20
-4.5789605383
 10
5.588978738
 20
-4.5785623652
 10
5.6374952456
 20
-4.5734178073
 10
5.6854530942
 20
-4.5635245134
 10
5.7323644219
 20
-4.5489322382
 10
5.7777180797
 20
-4.5297580022
 10
5.7975225183
 20
-4.5196612861
  0
LINE
  5
29F
100
AcDbEntity
  8
0
100
AcDbLine
 62
7
  6
CONTINUOUS
 10
5.3416753451
 20
-4.5289051746
 11
5.341793596
 21
-4.5289627788
  0
LWPOLYLINE
  5
2A0
100
AcDbEntity
  8
0
100
AcDbPolyline
 62
253
  6
CONTINUOUS
 90
10
 70
0
 10
-9.5065681401
 20
4.2140524223
 10
-7.9940722519
 20
3.1981960193
 10
-6.4494122292
 20
2.1994065903
 10
-4.8729187744
 20
1.217879537
 10
-3.2650268381
 20
0.2538664151
 10
-1.6259758557
 20
-0.6925011066
 10
0.044202024
 20
-1.6212044584
 10
1.7452787255
 20
-2.5321053586
 10
3.4768184803
 20
-3.4249526037
 10
5.2384827207
 20
-4.2995551512
  0
LINE
  5
2A1
100
AcDbEntity
  8
0
100
AcDbLine
 62
253
  6
CONTINUOUS
 10
0.3484313222
 20
-10.5917120863
 11
0.345715689
 21
-10.4659120565
  0
LWPOLYLINE
  5
2A2
100
AcDbEntity
  8
0
100
AcDbPolyline
 62
253
  6
CONTINUOUS
 90
41
 70
0
 10
-0.7420179927
 20
6.4255473447
 10
-0.7410084649
 20
6.423177594
 10
-0.7399642896
 20
6.4208318706
 10
-0.738884639
 20
6.4185064027
 10
-0.7377686856
 20
6.4161974185
 10
-0.7366156016
 20
6.413901146
 10
-0.7354245593
 20
6.4116138134
 10
-0.734194731
 20
6.4093316489
 10
-0.7327100582
 20
6.4066718301
 10
-0.7311716654
 20
6.4040151618
 10
-0.7295797512
 20
6.4013628943
 10
-0.7279345141
 20
6.3987162779
 10
-0.7262361529
 20
6.3960765627
 10
-0.724484866
 20
6.3934449989
 10
-0.7226812331
 20
6.3908233284
 10
-0.7208273589
 20
6.3882152592
 10
-0.718925729
 20
6.385624991
 10
-0.7169788291
 20
6.3830567233
 10
-0.7149891448
 20
6.3805146558
 10
-0.7129591619
 20
6.3780029881
 10
-0.7108913723
 20
6.3755258173
 10
-0.7087882929
 20
6.3730868308
 10
-0.7066524471
 20
6.3706896134
 10
-0.7044863581
 20
6.3683377499
 10
-0.7022925491
 20
6.366034825
 10
-0.7000735434
 20
6.3637844237
 10
-0.6981532591
 20
6.3618998846
 10
-0.6962170808
 20
6.3600579533
 10
-0.6942657727
 20
6.3582600149
 10
-0.6923000988
 20
6.3565074548
 10
-0.6903208233
 20
6.3548016582
 10
-0.6883287103
 20
6.3531440103
 10
-0.6863245238
 20
6.3515358965
 10
-0.6845611491
 20
6.3501704766
 10
-0.682787178
 20
6.3488447139
 10
-0.6810006727
 20
6.3475592803
 10
-0.6791996956
 20
6.346314848
 10
-0.6773823087
 20
6.345112089
 10
-0.6755465744
 20
6.3439516753
 10
-0.673690555
 20
6.342834279
 10
-0.6718123127
 20
6.3417605721
  0
LWPOLYLINE
  5
2A3
100
AcDbEntity
  8
0
100
AcDbPolyline
 62
253
  6
CONTINUOUS
 90
41
 70
0
 10
-1.7850597171
 20
9.6164734055
 10
-1.7860542206
 20
9.6188895238
 10
-1.7870834669
 20
9.6212788061
 10
-1.7881481109
 20
9.62364509
 10
-1.7892488075
 20
9.625992213
 10
-1.7903862117
 20
9.6283240125
 10
-1.7915609784
 20
9.6306443261
 10
-1.7927737625
 20
9.6329569912
 10
-1.7942372814
 20
9.6356492345
 10
-1.7957525605
 20
9.6383344707
 10
-1.797318723
 20
9.64101088
 10
-1.7989348919
 20
9.6436766425
 10
-1.8006001902
 20
9.6463299381
 10
-1.802313741
 20
9.6489689471
 10
-1.8040744999
 20
9.6515916524
 10
-1.8058807543
 20
9.6541952488
 10
-1.8077306239
 20
9.6567767342
 10
-1.8096222287
 20
9.6593331063
 10
-1.8115536886
 20
9.661861363
 10
-1.8135231235
 20
9.664358502
 10
-1.8155286986
 20
9.6668215439
 10
-1.8175687594
 20
9.6692475999
 10
-1.8196416969
 20
9.6716338043
 10
-1.8217459017
 20
9.6739772912
 10
-1.8238797648
 20
9.6762751945
 10
-1.826041677
 20
9.6785246485
 10
-1.8279158456
 20
9.6804120138
 10
-1.8298084018
 20
9.6822598496
 10
-1.8317183082
 20
9.6840663274
 10
-1.8336445273
 20
9.6858296186
 10
-1.8355860215
 20
9.6875478947
 10
-1.8375417534
 20
9.6892193273
 10
-1.8395106853
 20
9.6908420878
 10
-1.8412439541
 20
9.6922207294
 10
-1.8429884841
 20
9.6935600212
 10
-1.8447462248
 20
9.6948592779
 10
-1.8465191254
 20
9.6961178143
 10
-1.8483091353
 20
9.6973349451
 10
-1.8501182039
 20
9.698509985
 10
-1.8519482804
 20
9.6996422488
 10
-1.8538013142
 20
9.7007310512
  0
LINE
  5
2A4
100
AcDbEntity
  8
0
100
AcDbLine
 62
253
  6
CONTINUOUS
 10
-1.2263598118
 20
7.6031556911
 11
-0.7420179927
 21
6.4255473447
  0
LINE
  5
2A5
100
AcDbEntity
  8
0
100
AcDbLine
 62
253
  6
CONTINUOUS
 10
-0.8217788321
 20
7.2453597499
 11
-1.1430908166
 21
8.0296349836
  0
LINE
  5
2A6
100
AcDbEntity
  8
0
100
AcDbLine
 62
253
  6
CONTINUOUS
 10
-1.1430908166
 20
8.0296349836
 11
-1.4641911594
 21
8.8200093411
  0
LINE
  5
2A7
100
AcDbEntity
  8
0
100
AcDbLine
 62
253
  6
CONTINUOUS
 10
-1.7097161317
 20
8.7933040058
 11
-1.2263598118
 21
7.6031556911
  0
LINE
  5
2A8
100
AcDbEntity
  8
0
100
AcDbLine
 62
253
  6
CONTINUOUS
 10
-1.4641911594
 20
8.8200093411
 11
-1.7850597171
 21
9.6164734055
  0
LINE
  5
2A9
100
AcDbEntity
  8
0
100
AcDbLine
 62
253
  6
CONTINUOUS
 10
3.6964797396
 20
17.7643709239
 11
3.6964795484
 21
17.7023981266
  0
LINE
  5
2AA
100
AcDbEntity
  8
0
100
AcDbLine
 62
7
  6
CONTINUOUS
 10
9.4827684785
 20
-2.7037641442
 11
9.3329357932
 21
-2.6172526296
  0
LINE
  5
2AB
100
AcDbEntity
  8
0
100
AcDbLine
 62
253
  6
CONTINUOUS
 10
-0.8044893367
 20
7.2164801814
 11
-0.8081974724
 21
7.2205946365
  0
LINE
  5
2AC
100
AcDbEntity
  8
0
100
AcDbLine
 62
253
  6
CONTINUOUS
 10
-1.7233909255
 20
8.8181296363
 11
-1.7097161317
 21
8.7933040058
  0
LINE
  5
2AD
100
AcDbEntity
  8
0
100
AcDbLine
 62
253
  6
CONTINUOUS
 10
-0.8081974724
 20
7.2205946365
 11
-0.8217788321
 21
7.2453597499
  0
LWPOLYLINE
  5
2AE
100
AcDbEntity
  8
0
100
AcDbPolyline
 62
253
  6
CONTINUOUS
 90
16
 70
0
 10
5.9047540792
 20
-5.5088962091
 10
5.902586146
 20
-5.4657877058
 10
5.8967334206
 20
-5.4207462813
 10
5.8872222166
 20
-5.3742415025
 10
5.8741032647
 20
-5.3267143065
 10
5.8574936801
 20
-5.2787299628
 10
5.8376136959
 20
-5.2309731018
 10
5.8147108532
 20
-5.1840246344
 10
5.7890149942
 20
-5.1383438
 10
5.7608009834
 20
-5.0944219923
 10
5.7303716685
 20
-5.0527367619
 10
5.6980649089
 20
-5.013756601
 10
5.6642443147
 20
-4.9779222668
 10
5.6292854275
 20
-4.945631054
 10
5.5935701009
 20
-4.9172350897
 10
5.5574914951
 20
-4.8930469911
  0
LWPOLYLINE
  5
2AF
100
AcDbEntity
  8
0
100
AcDbPolyline
 62
253
  6
CONTINUOUS
 90
9
 70
0
 10
5.2384828175
 20
-4.2995552744
 10
5.2405958735
 20
-4.3417824501
 10
5.2456820538
 20
-4.3799941466
 10
5.2538663621
 20
-4.4145361265
 10
5.2656811137
 20
-4.4458878636
 10
5.2810128837
 20
-4.4737041787
 10
5.2990032131
 20
-4.4970015565
 10
5.3198088393
 20
-4.5156767961
 10
5.3416753451
 20
-4.5289051746
  0
LWPOLYLINE
  5
2B0
100
AcDbEntity
  8
0
100
AcDbPolyline
 62
253
  6
CONTINUOUS
 90
4
 70
0
 10
6.2303868964
 20
-21.7485791372
 10
6.1627546613
 20
-19.8984756148
 10
6.1032938768
 20
-18.0750178491
 10
6.0520045428
 20
-16.2782058401
  0
LWPOLYLINE
  5
2B1
100
AcDbEntity
  8
0
100
AcDbPolyline
 62
253
  6
CONTINUOUS
 90
10
 70
0
 10
5.5574554862
 20
-21.773837882
 10
5.4905777018
 20
-19.9229934674
 10
5.4324561478
 20
-18.0981958662
 10
5.3827106515
 20
-16.2997215829
 10
5.341404963
 20
-14.5481696624
 10
5.3075758162
 20
-12.8235656797
 10
5.2800215632
 20
-11.0648861968
 10
5.2588978891
 20
-9.2514816599
 10
5.2449285414
 20
-7.4035527272
 10
5.2384827295
 20
-5.5209234575
  0
LINE
  5
2B2
100
AcDbEntity
  8
0
100
AcDbLine
 62
7
  6
CONTINUOUS
 10
3.876714388
 20
18.1785529332
 11
3.897918002
 21
17.5621291377
  0
LWPOLYLINE
  5
2B3
100
AcDbEntity
  8
0
100
AcDbPolyline
 62
253
  6
CONTINUOUS
 90
7
 70
0
 10
6.0520045428
 20
-16.2782058401
 10
6.0092983233
 20
-14.5283358271
 10
5.9747635544
 20
-12.8051115708
 10
5.9471652446
 20
-11.0476443527
 10
5.9260917303
 20
-9.2356379334
 10
5.9119546752
 20
-7.3893885522
 10
5.9047540792
 20
-5.5088962091
  0
LWPOLYLINE
  5
2B4
100
AcDbEntity
  8
0
100
AcDbPolyline
 62
253
  6
CONTINUOUS
 90
10
 70
0
 10
5.9047540089
 20
-4.2887807269
 10
5.9097680337
 20
-2.6013186226
 10
5.9219726217
 20
-0.8849386036
 10
5.9413677728
 20
0.8603593302
 10
5.9671517688
 20
2.6209336702
 10
6.0001263279
 20
4.4104259248
 10
6.0426966057
 20
6.26976062
 10
6.0956643205
 20
8.212579264
 10
6.1582277539
 20
10.2252403485
 10
6.2303869059
 20
12.3077438735
  0
LWPOLYLINE
  5
2B5
100
AcDbEntity
  8
0
100
AcDbPolyline
 62
253
  6
CONTINUOUS
 90
10
 70
0
 10
5.2384827207
 20
-4.2995551512
 10
5.2438684005
 20
-2.6101210385
 10
5.2557279071
 20
-0.8919078298
 10
5.2743428851
 20
0.855212385
 10
5.2997770308
 20
2.6179781728
 10
5.3324380405
 20
4.4098474481
 10
5.3735935523
 20
6.2712825752
 10
5.4244051185
 20
8.2161468808
 10
5.4854125189
 20
10.2314188122
 10
5.5574554868
 20
12.3174988502
  0
LWPOLYLINE
  5
2B6
100
AcDbEntity
  8
0
100
AcDbPolyline
 62
253
  6
CONTINUOUS
 90
16
 70
0
 10
5.2384828882
 20
-5.5209235367
 10
5.2405956955
 20
-5.4766251561
 10
5.2456815351
 20
-5.4311493626
 10
5.253865396
 20
-5.384649706
 10
5.2656794959
 20
-5.3370799693
 10
5.2810104666
 20
-5.2886187608
 10
5.2990000882
 20
-5.240114591
 10
5.3198051553
 20
-5.1925893825
 10
5.3436311385
 20
-5.1462760946
 10
5.3695087253
 20
-5.1013386524
 10
5.3973817567
 20
-5.0586491551
 10
5.4273632429
 20
-5.0188256419
 10
5.458551698
 20
-4.9817836892
 10
5.4905618926
 20
-4.9479578062
 10
5.5235825238
 20
-4.9182087608
 10
5.5574914951
 20
-4.8930469911
  0
LWPOLYLINE
  5
2B7
100
AcDbEntity
  8
0
100
AcDbPolyline
 62
253
  6
CONTINUOUS
 90
9
 70
0
 10
5.9047540092
 20
-4.2887807268
 10
5.902586072
 20
-4.3300069969
 10
5.8967333376
 20
-4.3686766395
 10
5.8872221219
 20
-4.4043439055
 10
5.8741031583
 20
-4.4366221747
 10
5.8574935646
 20
-4.4650797607
 10
5.8376135741
 20
-4.4892900755
 10
5.8147107297
 20
-4.508965654
 10
5.7975225183
 20
-4.5196612861
  0
LWPOLYLINE
  5
2B8
100
AcDbEntity
  8
0
100
AcDbPolyline
 62
253
  6
CONTINUOUS
 90
22
 70
0
 10
5.5574555032
 20
12.3174988546
 10
5.561962392
 20
12.3888501236
 10
5.5705720609
 20
12.4620885914
 10
5.5832441904
 20
12.5368512645
 10
5.5999246147
 20
12.6127586497
 10
5.6205299295
 20
12.6894422222
 10
5.6449504742
 20
12.7665467791
 10
5.6730800292
 20
12.843693008
 10
5.7047849077
 20
12.9204921071
 10
5.7398905748
 20
12.9965736662
 10
5.7782377458
 20
13.0715550653
 10
5.8196471398
 20
13.145062142
 10
5.8638915183
 20
13.2167442126
 10
5.9107699529
 20
13.286240477
 10
5.9600621345
 20
13.353199691
 10
6.0114930092
 20
13.4173011336
 10
6.064822316
 20
13.4782161406
 10
6.1198039196
 20
13.5356395808
 10
6.1761407789
 20
13.5893082495
 10
6.2335576284
 20
13.6389562678
 10
6.2918016922
 20
13.6843177634
 10
6.3506022011
 20
13.7251576006
  0
LWPOLYLINE
  5
2B9
100
AcDbEntity
  8
0
100
AcDbPolyline
 62
253
  6
CONTINUOUS
 90
22
 70
0
 10
6.2303869059
 20
12.3077438735
 10
6.2332008381
 20
12.349413347
 10
6.2384483027
 20
12.3917742498
 10
6.2461292997
 20
12.4348265819
 10
6.2563051377
 20
12.4788070807
 10
6.2689145081
 20
12.5234790088
 10
6.2837734855
 20
12.5681321537
 10
6.3009142346
 20
12.6127483566
 10
6.3203045907
 20
12.6573457763
 10
6.341664135
 20
12.701268676
 10
6.36502429
 20
12.7445100418
 10
6.3903536333
 20
12.7870768877
 10
6.4172774786
 20
12.8283345192
 10
6.4458195389
 20
12.868261925
 10
6.4759561012
 20
12.9068801163
 10
6.5072413401
 20
12.9436174321
 10
6.5397081393
 20
12.9784553557
 10
6.5733236151
 20
13.0114124037
 10
6.6075432911
 20
13.0419724652
 10
6.6421856751
 20
13.0699635031
 10
6.6774322593
 20
13.0955575546
 10
6.7132830437
 20
13.1187546195
  0
LWPOLYLINE
  5
2BA
100
AcDbEntity
  8
0
100
AcDbPolyline
 62
253
  6
CONTINUOUS
 90
55
 70
0
 10
-0.5397835101
 20
6.2684017678
 10
-0.5372245826
 20
6.2670290133
 10
-0.5346872718
 20
6.265761407
 10
-0.5321650108
 20
6.2645939669
 10
-0.529651233
 20
6.263521711
 10
-0.5271393714
 20
6.2625396572
 10
-0.5246241943
 20
6.2616439563
 10
-0.5221058102
 20
6.2608352901
 10
-0.5195856623
 20
6.2601154734
 10
-0.5170651941
 20
6.2594863209
 10
-0.5145458491
 20
6.2589496474
 10
-0.5120295077
 20
6.2585073679
 10
-0.5095197997
 20
6.2581617982
 10
-0.5070207918
 20
6.2579153546
 10
-0.5045365507
 20
6.2577704532
 10
-0.5020711432
 20
6.2577295102
 10
-0.5000346487
 20
6.2577763037
 10
-0.4980205561
 20
6.2578969069
 10
-0.4960353643
 20
6.2580912586
 10
-0.4940838591
 20
6.2583596008
 10
-0.4921639753
 20
6.2587033907
 10
-0.4902719346
 20
6.2591243889
 10
-0.4884052157
 20
6.2596241785
 10
-0.4865663255
 20
6.2602036319
 10
-0.4847590279
 20
6.2608634437
 10
-0.482987087
 20
6.2616043088
 10
-0.4812542665
 20
6.2624269217
 10
-0.4795643306
 20
6.2633319774
 10
-0.4779206336
 20
6.2643195189
 10
-0.4763248923
 20
6.2653869841
 10
-0.4747784138
 20
6.266531159
 10
-0.4732825054
 20
6.2677488299
 10
-0.4718384744
 20
6.2690367829
 10
-0.470447628
 20
6.2703918043
 10
-0.4691105166
 20
6.2718116535
 10
-0.4678246637
 20
6.2732979828
 10
-0.4665868358
 20
6.2748534177
 10
-0.4653950036
 20
6.2764791244
 10
-0.4642519543
 20
6.2781704311
 10
-0.4631616794
 20
6.2799212066
 10
-0.4619275011
 20
6.2820928901
 10
-0.4607751816
 20
6.2843361057
 10
-0.4597048371
 20
6.2866455794
 10
-0.4587165839
 20
6.289016037
 10
-0.4578105382
 20
6.2914422044
 10
-0.4569866369
 20
6.2939193629
 10
-0.4562440985
 20
6.2964450148
 10
-0.4555819621
 20
6.2990172177
 10
-0.4549992669
 20
6.3016340294
 10
-0.4544950521
 20
6.3042935076
 10
-0.4540687082
 20
6.3069954386
 10
-0.4537210319
 20
6.3097465235
 10
-0.4534531714
 20
6.312555192
 10
-0.453266275
 20
6.315429874
 10
-0.4531614908
 20
6.3183789992
  0
LWPOLYLINE
  5
2BB
100
AcDbEntity
  8
0
100
AcDbPolyline
 62
253
  6
CONTINUOUS
 90
55
 70
0
 10
-1.9381618559
 20
7.0561885291
 10
-1.935639605
 20
7.0547934873
 10
-1.9331385822
 20
7.0535050653
 10
-1.930652432
 20
7.0523182095
 10
-1.9281747993
 20
7.051227866
 10
-1.9256993287
 20
7.0502289815
 10
-1.9232209476
 20
7.0493176336
 10
-1.9207397138
 20
7.048494426
 10
-1.9182569675
 20
7.0477610936
 10
-1.9157740491
 20
7.0471193714
 10
-1.9132922989
 20
7.0465709946
 10
-1.9108135052
 20
7.0461178026
 10
-1.9083412476
 20
7.0457620537
 10
-1.9058795537
 20
7.0455061107
 10
-1.903432451
 20
7.0453523362
 10
-1.901003967
 20
7.0453030931
 10
-1.8989980481
 20
7.0453433624
 10
-1.8970143225
 20
7.0454577319
 10
-1.8950592571
 20
7.0456460699
 10
-1.8931376191
 20
7.0459085403
 10
-1.8912473784
 20
7.0462464893
 10
-1.8893848054
 20
7.0466615586
 10
-1.8875473937
 20
7.0471552177
 10
-1.8857375299
 20
7.0477282473
 10
-1.8839588242
 20
7.0483812556
 10
-1.8822148865
 20
7.0491148511
 10
-1.8805093267
 20
7.0499296419
 10
-1.8788457548
 20
7.0508262366
 10
-1.8772273962
 20
7.0518046158
 10
-1.8756559373
 20
7.0528622497
 10
-1.8741326802
 20
7.053995981
 10
-1.8726589267
 20
7.0552026523
 10
-1.8712359787
 20
7.0564791062
 10
-1.8698651381
 20
7.0578221852
 10
-1.8685469652
 20
7.0592296985
 10
-1.8672790544
 20
7.0607033202
 10
-1.8660582584
 20
7.0622456911
 10
-1.8648826186
 20
7.0638579982
 10
-1.8637549301
 20
7.0655356139
 10
-1.8626791768
 20
7.0672724569
 10
-1.861461313
 20
7.0694271611
 10
-1.8603241171
 20
7.0716531377
 10
-1.8592677336
 20
7.0739451289
 10
-1.8582923072
 20
7.076297877
 10
-1.8573979825
 20
7.078706124
 10
-1.8565847195
 20
7.081165181
 10
-1.8558517396
 20
7.0836726331
 10
-1.8551980795
 20
7.0862266344
 10
-1.854622776
 20
7.0888253388
 10
-1.8541248658
 20
7.0914669002
 10
-1.8537037296
 20
7.0941511528
 10
-1.8533601245
 20
7.0968846513
 10
-1.8530951514
 20
7.0996756305
 10
-1.8529099114
 20
7.1025323254
 10
-1.8528055054
 20
7.1054629709
  0
LINE
  5
2BC
100
AcDbEntity
  8
0
100
AcDbLine
 62
253
  6
CONTINUOUS
 10
-0.6718122192
 20
6.3417650265
 11
-0.539783607
 21
6.2683971445
  0
LINE
  5
2BD
100
AcDbEntity
  8
0
100
AcDbLine
 62
253
  6
CONTINUOUS
 10
-0.7702236941
 20
7.187184794
 11
-0.7756521637
 21
7.1902144941
  0
LINE
  5
2BE
100
AcDbEntity
  8
0
100
AcDbLine
 62
253
  6
CONTINUOUS
 10
-2.0491185037
 20
7.1197350581
 11
-1.9381618745
 21
7.0561876474
  0
LWPOLYLINE
  5
2BF
100
AcDbEntity
  8
0
100
AcDbPolyline
 62
253
  6
CONTINUOUS
 90
52
 70
0
 10
-3.4439837025
 20
7.9320174137
 10
-3.4210087625
 20
7.9188210148
 10
-3.3982522992
 20
7.9065209182
 10
-3.3757112766
 20
7.8950923964
 10
-3.3533826586
 20
7.8845107218
 10
-3.3312634093
 20
7.8747511668
 10
-3.3093504925
 20
7.8657890039
 10
-3.2876432373
 20
7.8576025218
 10
-3.2661504326
 20
7.8501820746
 10
-3.2448832325
 20
7.8435210325
 10
-3.2238527911
 20
7.837612766
 10
-3.2030702624
 20
7.8324506452
 10
-3.1825468005
 20
7.8280280406
 10
-3.1582726582
 20
7.8236883112
 10
-3.1343849419
 20
7.8203958982
 10
-3.1108809597
 20
7.8181427614
 10
-3.0877580195
 20
7.8169208609
 10
-3.0650134294
 20
7.8167221566
 10
-3.0426472796
 20
7.8175361371
 10
-3.020670789
 20
7.8193424073
 10
-2.9990979587
 20
7.8221181005
 10
-2.9779427898
 20
7.8258403504
 10
-2.9572192833
 20
7.8304862904
 10
-2.93693989
 20
7.8360406917
 10
-2.9171108597
 20
7.8425188762
 10
-2.8977368916
 20
7.8499438035
 10
-2.8788226853
 20
7.8583384329
 10
-2.86037294
 20
7.8677257239
 10
-2.8453594552
 20
7.8763220438
 10
-2.8306931918
 20
7.885629322
 10
-2.8163955649
 20
7.8956532246
 10
-2.8024879902
 20
7.9063994175
 10
-2.7889918829
 20
7.9178735667
 10
-2.7759286585
 20
7.9300813381
 10
-2.7633200266
 20
7.9430243586
 10
-2.7511888743
 20
7.9566880987
 10
-2.7395583829
 20
7.9710539899
 10
-2.7284490986
 20
7.9861098796
 10
-2.7178710262
 20
8.001869279
 10
-2.7078315357
 20
8.0183521152
 10
-2.6983420611
 20
8.0355658716
 10
-2.689430294
 20
8.0534682577
 10
-2.6811279903
 20
8.0720045395
 10
-2.6734633351
 20
8.0911114565
 10
-2.6664502303
 20
8.110691643
 10
-2.6600990072
 20
8.1306392069
 10
-2.6544138879
 20
8.1508673879
 10
-2.6493746589
 20
8.1713659538
 10
-2.6449549978
 20
8.1921438045
 10
-2.6411314921
 20
8.2132158267
 10
-2.6378923692
 20
8.2346208551
 10
-2.6352287664
 20
8.2564037113
  0
LWPOLYLINE
  5
2C0
100
AcDbEntity
  8
0
100
AcDbPolyline
 62
253
  6
CONTINUOUS
 90
27
 70
0
 10
-0.7756521677
 20
7.1902143194
 10
-0.7765466848
 20
7.1907279795
 10
-0.7774412472
 20
7.1912699794
 10
-0.7783358776
 20
7.1918394602
 10
-0.7792305987
 20
7.1924355632
 10
-0.7801254331
 20
7.1930574295
 10
-0.7810204035
 20
7.1937042004
 10
-0.7819155327
 20
7.1943750171
 10
-0.7828108431
 20
7.1950690209
 10
-0.7837063575
 20
7.1957853528
 10
-0.7846020986
 20
7.1965231542
 10
-0.785498089
 20
7.1972815662
 10
-0.7863943514
 20
7.1980597301
 10
-0.7874702716
 20
7.1990183824
 10
-0.7885467419
 20
7.2000027103
 10
-0.7896238878
 20
7.2010111837
 10
-0.7907018352
 20
7.2020422721
 10
-0.7917807098
 20
7.2030944452
 10
-0.7928606372
 20
7.2041661728
 10
-0.7939417433
 20
7.2052559245
 10
-0.7950241537
 20
7.2063621699
 10
-0.7961079941
 20
7.2074833788
 10
-0.7971933903
 20
7.2086180208
 10
-0.7990063535
 20
7.2105358416
 10
-0.8008255944
 20
7.2124859754
 10
-0.8026527198
 20
7.2144676721
 10
-0.8044893367
 20
7.2164801814
  0
LINE
  5
2C1
100
AcDbEntity
  8
0
100
AcDbLine
 62
253
  6
CONTINUOUS
 10
-1.7571757463
 20
8.8501850954
 11
-1.7233909255
 21
8.8181296363
  0
LINE
  5
2C2
100
AcDbEntity
  8
0
100
AcDbLine
 62
253
  6
CONTINUOUS
 10
9.4827684785
 20
-2.7037641442
 11
5.5574914953
 21
-4.893046991
  0
LINE
  5
2C3
100
AcDbEntity
  8
0
100
AcDbLine
 62
253
  6
CONTINUOUS
 10
9.8363622732
 20
-3.3160821947
 11
5.9047540792
 21
-5.5088962091
  0
LINE
  5
2C4
100
AcDbEntity
  8
0
100
AcDbLine
 62
253
  6
CONTINUOUS
 10
5.9047540089
 20
-4.2887807269
 11
9.8363622732
 21
-2.173179234
  0
LINE
  5
2C5
100
AcDbEntity
  8
0
100
AcDbLine
 62
7
  6
CONTINUOUS
 10
5.7975034853
 20
-4.5196715294
 11
9.7284899328
 21
-2.4044046366
  0
LWPOLYLINE
  5
2C6
100
AcDbEntity
  8
0
100
AcDbPolyline
 62
253
  6
CONTINUOUS
 90
16
 70
0
 10
5.9047540801
 20
-5.5088962087
 10
5.8679008057
 20
-5.5272684386
 10
5.8281415748
 20
-5.5434868237
 10
5.7858523379
 20
-5.5573980082
 10
5.7414329756
 20
-5.5688704507
 10
5.6953034963
 20
-5.5777956739
 10
5.6479000625
 20
-5.5840892863
 10
5.599670882
 20
-5.5876917748
 10
5.5510720164
 20
-5.5885690677
 10
5.5025630468
 20
-5.5867128689
 10
5.4546026804
 20
-5.5821407364
 10
5.4076443924
 20
-5.5748959061
 10
5.3621321837
 20
-5.5650468811
 10
5.3184963969
 20
-5.5526867886
 10
5.2771496445
 20
-5.5379325032
 10
5.2384828882
 20
-5.5209235367
  0
LINE
  5
2C7
100
AcDbEntity
  8
0
100
AcDbLine
 62
253
  6
CONTINUOUS
 10
-1.7920223311
 20
8.8535435868
 11
-1.7571757463
 21
8.8501850954
  0
LINE
  5
2C8
100
AcDbEntity
  8
0
100
AcDbLine
 62
253
  6
CONTINUOUS
 10
-0.7557800033
 20
7.1838864845
 11
-0.7702236901
 21
7.187184969
  0
LWPOLYLINE
  5
2C9
100
AcDbEntity
  8
0
100
AcDbPolyline
 62
253
  6
CONTINUOUS
 90
55
 70
0
 10
-0.5877796608
 20
8.9861417695
 10
-0.590327205
 20
8.9875135862
 10
-0.592854062
 20
8.988780494
 10
-0.5953667667
 20
8.9899474545
 10
-0.5978718538
 20
8.9910194295
 10
-0.6003758581
 20
8.9920013807
 10
-0.6028839843
 20
8.9928971381
 10
-0.6053961167
 20
8.9937060062
 10
-0.6079108093
 20
8.994426158
 10
-0.6104266162
 20
8.9950557664
 10
-0.6129420915
 20
8.9955930043
 10
-0.6154553599
 20
8.9960359458
 10
-0.6179628277
 20
8.9963822686
 10
-0.6204604721
 20
8.996629552
 10
-0.62294427
 20
8.9967753747
 10
-0.6254101983
 20
8.9968173157
 10
-0.6274478968
 20
8.9967714047
 10
-0.6294639296
 20
8.9966517038
 10
-0.6314518344
 20
8.9964582444
 10
-0.6334068634
 20
8.9961907562
 10
-0.635331128
 20
8.9958477616
 10
-0.6372284541
 20
8.9954274811
 10
-0.6391013918
 20
8.9949283061
 10
-0.6409473865
 20
8.9943493117
 10
-0.6427626073
 20
8.9936897438
 10
-0.6445432235
 20
8.9929488483
 10
-0.6462854043
 20
8.992125871
 10
-0.647985319
 20
8.9912200578
 10
-0.649639549
 20
8.9902313084
 10
-0.6512463251
 20
8.9891621369
 10
-0.6528042905
 20
8.9880157115
 10
-0.6543120881
 20
8.9867952001
 10
-0.655768361
 20
8.9855037706
 10
-0.6571717523
 20
8.9841445911
 10
-0.6585216785
 20
8.9827198626
 10
-0.6598206491
 20
8.9812279177
 10
-0.6610719472
 20
8.9796661221
 10
-0.6622776277
 20
8.9780333138
 10
-0.6634348325
 20
8.9763342196
 10
-0.6645394756
 20
8.9745750382
 10
-0.6657910655
 20
8.9723925404
 10
-0.6669609394
 20
8.9701377946
 10
-0.6680489545
 20
8.967816152
 10
-0.6690549677
 20
8.9654329635
 10
-0.6699788361
 20
8.9629935802
 10
-0.6708206025
 20
8.9605027855
 10
-0.6715810531
 20
8.9579630923
 10
-0.6722611598
 20
8.9553764463
 10
-0.6728618944
 20
8.9527447928
 10
-0.6733842289
 20
8.9500700773
 10
-0.6738287903
 20
8.947352505
 10
-0.6741948266
 20
8.9445853202
 10
-0.6744812409
 20
8.9417600268
 10
-0.6746869363
 20
8.938868129
 10
-0.6748108158
 20
8.9359011306
  0
LWPOLYLINE
  5
2CA
100
AcDbEntity
  8
0
100
AcDbPolyline
 62
253
  6
CONTINUOUS
 90
55
 70
0
 10
-1.9838864958
 20
9.7752400695
 10
-1.9864118678
 20
9.776640621
 10
-1.9889164742
 20
9.7779344088
 10
-1.9914066886
 20
9.7791265023
 10
-1.9938888845
 20
9.7802219711
 10
-1.9963694354
 20
9.7812258847
 10
-1.9988534278
 20
9.7821421742
 10
-2.0013408008
 20
9.7829702159
 10
-2.0038302061
 20
9.7837082479
 10
-2.0063202959
 20
9.7843545083
 10
-2.0088097221
 20
9.7849072349
 10
-2.0112966901
 20
9.7853645602
 10
-2.0137776193
 20
9.7857241948
 10
-2.0162484826
 20
9.7859837439
 10
-2.0187052529
 20
9.7861408124
 10
-2.021143903
 20
9.7861930054
 10
-2.0231586709
 20
9.7861549074
 10
-2.0251515683
 20
9.7860424224
 10
-2.0271161046
 20
9.7858556569
 10
-2.0290474999
 20
9.7855944237
 10
-2.0309478173
 20
9.7852573625
 10
-2.0328208305
 20
9.7848428195
 10
-2.0346690777
 20
9.7843493085
 10
-2.0364901544
 20
9.7837760148
 10
-2.0382804207
 20
9.7831222914
 10
-2.0400362366
 20
9.7823874912
 10
-2.0417539621
 20
9.7815709672
 10
-2.0434299572
 20
9.7806720723
 10
-2.0450609666
 20
9.7796907981
 10
-2.0466452733
 20
9.7786296895
 10
-2.0481815449
 20
9.77749193
 10
-2.0496684492
 20
9.7762807033
 10
-2.0511046537
 20
9.7749991927
 10
-2.0524888262
 20
9.7736505818
 10
-2.0538203909
 20
9.7722370853
 10
-2.0551017976
 20
9.7707570423
 10
-2.0563362529
 20
9.7692078232
 10
-2.0575257585
 20
9.7675882558
 10
-2.0586674972
 20
9.7659029975
 10
-2.059757447
 20
9.764158163
 10
-2.0609924936
 20
9.7619934526
 10
-2.0621470104
 20
9.7597570546
 10
-2.063220835
 20
9.7574542655
 10
-2.0642138054
 20
9.7550903822
 10
-2.0651257592
 20
9.7526707012
 10
-2.0659567218
 20
9.7501999494
 10
-2.0667074686
 20
9.7476805748
 10
-2.0673789625
 20
9.7451144555
 10
-2.0679721663
 20
9.7425034697
 10
-2.068488043
 20
9.7398494956
 10
-2.0689272208
 20
9.7371527127
 10
-2.0692889888
 20
9.7344065056
 10
-2.0695723016
 20
9.7316025603
 10
-2.0697761137
 20
9.7287325627
 10
-2.0698993795
 20
9.7257881987
  0
LINE
  5
2CB
100
AcDbEntity
  8
0
100
AcDbLine
 62
253
  6
CONTINUOUS
 10
-0.475220655
 20
8.9235169416
 11
-0.5877795455
 21
8.9861459313
  0
LINE
  5
2CC
100
AcDbEntity
  8
0
100
AcDbLine
 62
253
  6
CONTINUOUS
 10
-1.8538013467
 20
9.7007298878
 11
-1.9838864684
 21
9.7752410493
  0
LWPOLYLINE
  5
2CD
100
AcDbEntity
  8
0
100
AcDbPolyline
 62
253
  6
CONTINUOUS
 90
53
 70
0
 10
-3.3857270679
 20
10.3276075021
 10
-3.3710881358
 20
10.3187218504
 10
-3.356736043
 20
10.3095522347
 10
-3.3426722692
 20
10.3001249912
 10
-3.3288982941
 20
10.2904664556
 10
-3.3154155971
 20
10.2806029641
 10
-3.302225658
 20
10.2705608525
 10
-3.2893299563
 20
10.2603664568
 10
-3.2767299716
 20
10.250046113
 10
-3.2626918022
 20
10.2381261241
 10
-3.2490308918
 20
10.2260861099
 10
-3.2357363241
 20
10.2139361511
 10
-3.2227971831
 20
10.2016863281
 10
-3.2102025524
 20
10.1893467215
 10
-3.197941516
 20
10.1769274116
 10
-3.1860031575
 20
10.164438479
 10
-3.1724686636
 20
10.1497928757
 10
-3.1593431286
 20
10.1350784262
 10
-3.1466111692
 20
10.1203073278
 10
-3.1342574018
 20
10.1054917778
 10
-3.1222664431
 20
10.0906439737
 10
-3.1106229095
 20
10.0757761128
 10
-3.0970891685
 20
10.0579232624
 10
-3.0840163327
 20
10.0400674742
 10
-3.0713871671
 20
10.0222171281
 10
-3.0591844369
 20
10.0043806041
 10
-3.0473909072
 20
9.9865662819
 10
-3.0359920566
 20
9.9687768458
 10
-3.0249842177
 20
9.9509921978
 10
-3.0143664369
 20
9.9331865441
 10
-3.0041377602
 20
9.9153340909
 10
-2.9942972339
 20
9.8974090445
 10
-2.9848432455
 20
9.8793886579
 10
-2.9757715483
 20
9.8612623716
 10
-2.9670772368
 20
9.8430226728
 10
-2.9587554056
 20
9.8246620487
 10
-2.9508011493
 20
9.8061729864
 10
-2.9432121432
 20
9.7875525259
 10
-2.9359963857
 20
9.768815918
 10
-2.929164456
 20
9.7499829662
 10
-2.9227269334
 20
9.731073474
 10
-2.916694397
 20
9.7121072449
 10
-2.9110783085
 20
9.6931078157
 10
-2.9058936602
 20
9.6741136571
 10
-2.9011563268
 20
9.6551669733
 10
-2.896882183
 20
9.6363099681
 10
-2.8930871036
 20
9.6175848457
 10
-2.890301623
 20
9.6021071421
 10
-2.8878671222
 20
9.5867469943
 10
-2.885790873
 20
9.5715010644
 10
-2.8840801474
 20
9.5563660147
 10
-2.8827422173
 20
9.5413385072
 10
-2.8817843548
 20
9.5264152042
  0
LINE
  5
2CE
100
AcDbEntity
  8
0
100
AcDbLine
 62
7
  6
CONTINUOUS
 10
9.2896935485
 20
14.6823509135
 11
9.8363622732
 21
7.9511299116
  0
LINE
  5
2CF
100
AcDbEntity
  8
0
100
AcDbLine
 62
7
  6
CONTINUOUS
 10
9.8363622732
 20
7.9511299116
 11
9.8363622732
 21
-2.173179234
  0
LINE
  5
2D0
100
AcDbEntity
  8
0
100
AcDbLine
 62
7
  6
CONTINUOUS
 10
9.8363622732
 20
-13.4403913404
 11
9.8363622732
 21
-3.3160821947
  0
LINE
  5
2D1
100
AcDbEntity
  8
0
100
AcDbLine
 62
7
  6
CONTINUOUS
 10
9.2896935485
 20
-20.7706740681
 11
9.8363622732
 21
-13.4403913404
  0
LWPOLYLINE
  5
2D2
100
AcDbEntity
  8
0
100
AcDbPolyline
 62
253
  6
CONTINUOUS
 90
9
 70
0
 10
-9.1912343178
 20
20.833207527
 10
-9.2217792686
 20
20.855255893
 10
-9.2483812988
 20
20.8787611988
 10
-9.2707824773
 20
20.903495539
 10
-9.2887656042
 20
20.9292190916
 10
-9.3021563167
 20
20.9556824431
 10
-9.3108247796
 20
20.9826290071
 10
-9.3146869441
 20
21.0097975121
 10
-9.3148133605
 20
21.0230629782
  0
LINE
  5
2D3
100
AcDbEntity
  8
0
100
AcDbLine
 62
7
  6
CONTINUOUS
 10
6.9963586749
 20
16.3773094203
 11
6.32371381
 21
16.2474388986
  0
LWPOLYLINE
  5
2D4
100
AcDbEntity
  8
0
100
AcDbPolyline
 62
253
  6
CONTINUOUS
 90
16
 70
0
 10
5.5574639156
 20
12.3175039915
 10
5.5960754999
 20
12.2996220386
 10
5.6375002041
 20
12.2838492544
 10
5.6813363858
 20
12.2703385675
 10
5.7271590216
 20
12.2592209737
 10
5.7745238277
 20
12.2506042661
 10
5.8229715682
 20
12.2445719896
 10
5.8720325072
 20
12.2411826315
 10
5.9212309635
 20
12.2404690542
 10
5.9700899223
 20
12.2424381762
 10
6.0181356609
 20
12.2470709055
 10
6.0649023411
 20
12.2543223244
 10
6.109936526
 20
12.2641221252
 10
6.1528015767
 20
12.2763752918
 10
6.1930818856
 20
12.2909630207
 10
6.2303869058
 20
12.3077438735
  0
LINE
  5
2D5
100
AcDbEntity
  8
0
100
AcDbLine
 62
253
  6
CONTINUOUS
 10
6.3506022011
 20
13.7251576006
 11
5.8424563328
 21
13.9805651925
  0
LWPOLYLINE
  5
2D6
100
AcDbEntity
  8
0
100
AcDbPolyline
 62
253
  6
CONTINUOUS
 90
31
 70
0
 10
5.5574554868
 20
12.3174988502
 10
5.0486765771
 20
12.5746432944
 10
4.5420792738
 20
12.8329928149
 10
4.037670105
 20
13.0925414179
 10
3.5355728774
 20
13.3532219456
 10
3.0356757747
 20
13.6150889829
 10
2.5376358575
 20
13.8783216859
 10
2.0413030455
 20
14.1430023086
 10
1.5468492356
 20
14.4090422367
 10
1.0544168585
 20
14.6763658384
 10
0.5640475973
 20
14.9449503284
 10
0.0757166899
 20
15.2148090754
 10
-0.4105351601
 20
15.4859194231
 10
-0.8947662043
 20
15.7583140361
 10
-1.3769013782
 20
16.0319507853
 10
-1.8567034057
 20
16.306692836
 10
-2.3338600112
 20
16.5823552096
 10
-2.8086762691
 20
16.8591079429
 10
-3.281834955
 20
17.1373501419
 10
-3.7524327687
 20
17.4165491271
 10
-4.2213535844
 20
17.6972297003
 10
-4.691906694
 20
17.9814074784
 10
-5.1632470092
 20
18.2686228573
 10
-5.6361071522
 20
18.5593781058
 10
-6.1160367074
 20
18.8572002755
 10
-6.6030527606
 20
19.1622555577
 10
-7.0968440358
 20
19.4745143116
 10
-7.6023038447
 20
19.797295954
 10
-8.1208667546
 20
20.1318012555
 10
-8.6505952969
 20
20.4770661845
 10
-9.1912343196
 20
20.8332075148
  0
LWPOLYLINE
  5
2D7
100
AcDbEntity
  8
0
100
AcDbPolyline
 62
253
  6
CONTINUOUS
 90
30
 70
0
 10
5.8424563328
 20
13.9805651925
 10
5.3365642647
 20
14.2372246054
 10
4.832925997
 20
14.4951358393
 10
4.3316775409
 20
14.7542282727
 10
3.832682885
 20
15.0145725272
 10
3.3355339958
 20
15.2763804674
 10
2.8400260817
 20
15.5397582649
 10
2.3463639342
 20
15.8045997482
 10
1.8547538939
 20
16.0707982675
 10
1.3652517822
 20
16.3383255022
 10
0.8778017777
 20
16.6072097729
 10
0.3924427568
 20
16.8774293911
 10
-0.0908966857
 20
17.1490270471
 10
-0.5721451445
 20
17.4219600507
 10
-1.0510495279
 20
17.6960786424
 10
-1.5273116808
 20
17.9712071307
 10
-2.0012297581
 20
18.247521207
 10
-2.4734451328
 20
18.525398186
 10
-2.9430644341
 20
18.8042650079
 10
-3.4109810329
 20
19.0846947324
 10
-3.880516414
 20
19.3687838544
 10
-4.3509700006
 20
19.6559994767
 10
-4.8230423695
 20
19.9468744964
 10
-5.3021567367
 20
20.2451041002
 10
-5.7886466827
 20
20.5507558286
 10
-6.282178627
 20
20.8637621412
 10
-6.7871750433
 20
21.1876156028
 10
-7.3051100897
 20
21.5234804019
 10
-7.8345096083
 20
21.8701923502
 10
-8.3753735989
 20
22.2277514475
  0
LWPOLYLINE
  5
2D8
100
AcDbEntity
  8
0
100
AcDbPolyline
 62
253
  6
CONTINUOUS
 90
16
 70
0
 10
6.3506022011
 20
13.7251576006
 10
6.3866511313
 20
13.701059412
 10
6.4225081653
 20
13.6728828381
 10
6.4577811303
 20
13.6409360495
 10
6.4920842414
 20
13.6055684522
 10
6.5250423214
 20
13.5671668661
 10
6.5562949038
 20
13.5261512942
 10
6.5855001755
 20
13.4829703288
 10
6.6123387146
 20
13.4380962456
 10
6.6365169847
 20
13.392019838
 10
6.6577705452
 20
13.3452450493
 10
6.6758669432
 20
13.2982834611
 10
6.6906082562
 20
13.2516486982
 10
6.7018332565
 20
13.2058508108
 10
6.7094191751
 20
13.1613906959
 10
6.7132830437
 20
13.1187546195
  0
LWPOLYLINE
  5
2D9
100
AcDbEntity
  8
0
100
AcDbPolyline
 62
253
  6
CONTINUOUS
 90
9
 70
0
 10
-8.375373599
 20
22.2277514475
 10
-8.4131484654
 20
22.246278122
 10
-8.4503077455
 20
22.2602600887
 10
-8.4864450177
 20
22.269544439
 10
-8.5211650511
 20
22.2740296455
 10
-8.5540880965
 20
22.2736666667
 10
-8.5848540449
 20
22.2684594982
 10
-8.6131264114
 20
22.258465126
 10
-8.6352239706
 20
22.2461136231
  0
LINE
  5
2DA
100
AcDbEntity
  8
0
100
AcDbLine
 62
7
  6
CONTINUOUS
 10
6.1305286447
 20
16.2730477338
 11
3.7482435486
 21
17.6485492912
  0
LINE
  5
2DB
100
AcDbEntity
  8
0
100
AcDbLine
 62
7
  6
CONTINUOUS
 10
-1.7890673046
 20
20.845723179
 11
-4.1713524007
 21
22.2212247365
  0
LINE
  5
2DC
100
AcDbEntity
  8
0
100
AcDbLine
 62
7
  6
CONTINUOUS
 10
8.904906461
 20
15.2753378483
 11
6.9963586749
 21
16.3773094203
  0
LINE
  5
2DD
100
AcDbEntity
  8
0
100
AcDbLine
 62
7
  6
CONTINUOUS
 10
3.876714388
 20
18.1785529332
 11
-0.9232372744
 21
20.9499848655
  0
LINE
  5
2DE
100
AcDbEntity
  8
0
100
AcDbLine
 62
7
  6
CONTINUOUS
 10
-4.0428815613
 20
22.7512283785
 11
-5.9514293475
 21
23.8531999505
  0
LINE
  5
2DF
100
AcDbEntity
  8
0
100
AcDbLine
 62
7
  6
CONTINUOUS
 10
-0.9232372744
 20
20.9499848655
 11
-1.5958821393
 21
20.8201143439
  0
LWPOLYLINE
  5
2E0
100
AcDbEntity
  8
0
100
AcDbPolyline
 62
253
  6
CONTINUOUS
 90
9
 70
0
 10
6.5887333345
 20
-22.2701828753
 10
6.6123402475
 20
-22.2562595777
 10
6.6365183152
 20
-22.2360365747
 10
6.6577716133
 20
-22.21127437
 10
6.6758677218
 20
-22.1822438184
 10
6.6906087522
 20
-22.1492624484
 10
6.7018335067
 20
-22.112690997
 10
6.7094192445
 20
-22.0729294676
 10
6.7132830266
 20
-22.0304127454
  0
LINE
  5
2E1
100
AcDbEntity
  8
0
100
AcDbLine
 62
253
  6
CONTINUOUS
 10
9.2896935485
 20
-20.7706740681
 11
6.7132830266
 21
-22.0304127454
  0
LINE
  5
2E2
100
AcDbEntity
  8
0
100
AcDbLine
 62
7
  6
CONTINUOUS
 10
9.1528030013
 20
-21.0164782722
 11
6.5887333345
 21
-22.2701828753
  0
LWPOLYLINE
  5
2E3
100
AcDbEntity
  8
0
100
AcDbPolyline
 62
253
  6
CONTINUOUS
 90
22
 70
0
 10
6.7132830266
 20
-22.0304127454
 10
6.6774322421
 20
-22.0465024218
 10
6.6421856577
 20
-22.0595330046
 10
6.6075432734
 20
-22.069504494
 10
6.5733235972
 20
-22.0764437393
 10
6.5397081212
 20
-22.0803238911
 10
6.5072413218
 20
-22.0810644009
 10
6.4759560827
 20
-22.0786107168
 10
6.4458195203
 20
-22.0730173908
 10
6.4172774599
 20
-22.0643675304
 10
6.3903536146
 20
-22.0526141389
 10
6.3650242713
 20
-22.037804213
 10
6.3416641162
 20
-22.0201618511
 10
6.3203045718
 20
-21.999645605
 10
6.3009142156
 20
-21.9762969228
 10
6.2837734666
 20
-21.9504642468
 10
6.2689144888
 20
-21.9220941713
 10
6.2563051182
 20
-21.8912401021
 10
6.246129281
 20
-21.8584106981
 10
6.2384482861
 20
-21.8237755125
 10
6.2332008245
 20
-21.7871649922
 10
6.2303868964
 20
-21.7485791372
  0
ELLIPSE
  5
2E4
100
AcDbEntity
  8
0
100
AcDbEllipse
 62
7
  6
CONTINUOUS
 10
8.9360623097
 20
-20.5658855522
 30
0.0
 11
-0.2148753492
 21
0.4514925988
 31
0.0
 40
0.626010046
 41
-3.1349764991
 42
-2.3100583745
  0
ELLIPSE
  5
2E5
100
AcDbEntity
  8
0
100
AcDbEllipse
 62
7
  6
CONTINUOUS
 10
9.4826876872
 20
-3.1119681797
 30
0.0
 11
-0.2501454382
 21
0.4329727255
 31
0.0
 40
0.577463496
 41
-2.3564333972
 42
-0.7858655045
  0
ELLIPSE
  5
2E6
100
AcDbEntity
  8
0
100
AcDbEllipse
 62
7
  6
CONTINUOUS
 10
-5.9209192141
 20
23.4642593761
 30
0.0
 11
-0.2806490066
 21
0.4138128862
 31
0.0
 40
0.5253010868
 41
-0.8257150379
 42
-0.0027521587
  0
ELLIPSE
  5
2E7
100
AcDbEntity
  8
0
100
AcDbEllipse
 62
7
  6
CONTINUOUS
 10
8.9360623097
 20
14.8860244459
 30
0.0
 11
-0.280860955
 21
0.4142191515
 31
0.0
 40
0.5243459323
 41
-2.3941007373
 42
-0.8246744066
  0
ELLIPSE
  5
2E8
100
AcDbEntity
  8
0
100
AcDbEllipse
 62
7
  6
CONTINUOUS
 10
9.4826876872
 20
-1.9688787023
 30
0.0
 11
-0.2502024655
 21
0.4330717124
 31
0.0
 40
0.5771997317
 41
-3.1590443311
 42
-2.3566615088
  0
ELLIPSE
  5
2E9
100
AcDbEntity
  8
0
100
AcDbEllipse
 62
7
  6
CONTINUOUS
 10
6.2719500009
 20
16.3632605312
 30
0.0
 11
0.1999154856
 21
0.0095814127
 31
0.0
 40
0.6067642562
 41
-2.385266879
 42
-1.3380693278
  0
ELLIPSE
  5
2EA
100
AcDbEntity
  8
0
100
AcDbEllipse
 62
7
  6
CONTINUOUS
 10
-1.6476459483
 20
20.9359359765
 30
0.0
 11
0.1999154856
 21
0.0095814127
 31
0.0
 40
0.6067642562
 41
-2.385266879
 42
-1.3380693278
  0
ELLIPSE
  5
2EB
100
AcDbEntity
  8
0
100
AcDbEllipse
 62
7
  6
CONTINUOUS
 10
3.8896649049
 20
17.7387620887
 30
0.0
 11
0.1999154856
 21
0.0095814127
 31
0.0
 40
0.6067642562
 41
2.850720877
 42
3.8979184282
  0
ELLIPSE
  5
2EC
100
AcDbEntity
  8
0
100
AcDbEllipse
 62
7
  6
CONTINUOUS
 10
-4.0299310444
 20
22.311437534
 30
0.0
 11
0.1999154856
 21
0.0095814127
 31
0.0
 40
0.6067642562
 41
2.850720877
 42
3.8979184282
  0
ENDSEC
  0
SECTION
  2
OBJECTS
  0
DICTIONARY
  5
C
100
AcDbDictionary
280
0
281
1
  3
ACAD_GROUP
350
D
  3
ACAD_MLINESTYLE
350
17
  3
ACAD_LAYOUT
350
1A
  3
ACAD_PLOTSETTINGS
350
19
  3
ACAD_PLOTSTYLENAME
350
E
  0
DICTIONARY
  5
D
102
{ACAD_REACTORS
330
C
102
}
100
AcDbDictionary
280
0
281
1
  0
ACDBDICTIONARYWDFLT
  5
E
102
{ACAD_REACTORS
330
C
102
}
100
AcDbDictionary
281
1
  3
Normal
350
F
100
AcDbDictionaryWithDefault
340
F
  0
DICTIONARY
  5
17
102
{ACAD_REACTORS
330
C
102
}
100
AcDbDictionary
280
0
281
1
  3
Standard
350
18
  0
DICTIONARY
  5
19
102
{ACAD_REACTORS
330
C
102
}
100
AcDbDictionary
281
1
  0
DICTIONARY
  5
1A
102
{ACAD_REACTORS
330
C
102
}
100
AcDbDictionary
281
1
  3
Model
350
2ED
  3
Layout1
350
2EE
  0
ACDBPLACEHOLDER
  5
F
102
{ACAD_REACTORS
330
E
102
}
  0
MLINESTYLE
  5
18
102
{ACAD_REACTORS
330
17
102
}
100
AcDbMlineStyle
  2
STANDARD
 70
0
  3

 62
256
 51
90.0
 52
90.0
 71
2
 49
0.5
 62
256
  6
BYLAYER
 49
-0.5
 62
256
  6
BYLAYER
  0
LAYOUT
  5
2ED
102
{ACAD_REACTORS
330
1A
102
}
100
AcDbPlotSettings
  1

  2
none_device
  4
ISO_A4_(297.00_x_210.00_MM)
  6

 40
0.0
 41
0.0
 42
0.0
 43
0.0
 44
297.0
 45
210.0
 46
0.0
 47
0.0
 48
0.0
 49
0.0
140
0.0
141
0.0
142
1.0
143
1.0
 70
1024
 72
1
 73
0
 74
0
  7

 75
0
147
1.0
148
0.0
149
0.0
100
AcDbLayout
  1
Model
 70
0
 71
0
 10
0.0
 20
0.0
 11
297.0
 21
210.0
 12
0.0
 22
0.0
 32
0.0
 14
0.0
 24
0.0
 34
0.0
 15
0.0
 25
0.0
 35
0.0
146
0.0
 13
0.0
 23
0.0
 33
0.0
 16
1.0
 26
0.0
 36
0.0
 17
0.0
 27
1.0
 37
0.0
 76
0
330
220
345
0
346
0
  0
LAYOUT
  5
2EE
102
{ACAD_REACTORS
330
1A
102
}
100
AcDbPlotSettings
  1

  2
none_device
  4
ISO_A4_(297.00_x_210.00_MM)
  6

 40
0.0
 41
0.0
 42
0.0
 43
0.0
 44
297.0
 45
210.0
 46
0.0
 47
0.0
 48
0.0
 49
0.0
140
0.0
141
0.0
142
1.0
143
1.0
 70
0
 72
1
 73
0
 74
0
  7

 75
0
147
1.0
148
0.0
149
0.0
100
AcDbLayout
  1
Layout1
 70
0
 71
1
 10
0.0
 20
0.0
 11
297.0
 21
210.0
 12
0.0
 22
0.0
 32
0.0
 14
0.0
 24
0.0
 34
0.0
 15
0.0
 25
0.0
 35
0.0
146
0.0
 13
0.0
 23
0.0
 33
0.0
 16
1.0
 26
0.0
 36
0.0
 17
0.0
 27
1.0
 37
0.0
 76
0
330
221
345
0
346
0
  0
ENDSEC
  0
EOF
