  0
SECTION
  2
HEADER
  9
$ACADVER
  1
AC1021
  9
$DWGCODEPAGE
  3
ANSI_1252
  9
$EXTMAX
 10
297.0
 20
210.0
 30
0.0
  9
$EXTMIN
 10
0.0
 20
0.0
 30
0.0
  9
$LIMMIN
 10
0.0
 20
0.0
  9
$LIMMAX
 10
297.0
 20
210.0
  9
$VIEWCTR
 10
148.5
 20
105.0
  9
$VIEWSIZE
 40
210.0
  9
$CLAYER
  8
0
  9
$LTSCALE
 40
16.335
  9
$CELTYPE
  6
BYLAYER
  9
$DIMSCALE
 40
1.0
  9
$DIMASZ
 40
3.0
  9
$DIMEXO
 40
0.5
  9
$DIMDLI
 40
11.286
  9
$DIMEXE
 40
1.5
  9
$DIMCEN
 40
2.673
  9
$DIMLFAC
 40
1.0
  9
$DIMBLK
  1
_FILLED
  9
$DIMALT
 70
0
  9
$DIMALTF
 40
25.4
  9
$DIMTXT
 40
3.0
  9
$DIMTOL
 70
1
  9
$DIMLIM
 70
0
  9
$DIMTFAC
 40
1.0
  9
$DIMTP
 40
0.01
  9
$DIMTM
 40
0.01
  9
$DIMGAP
 40
0.625
  9
$DIMDSEP
 70
44
  9
$AUNITS
 70
0
  9
$PDMODE
 70
3
  9
$PDSIZE
 40
3.0
  9
$HANDSEED
  5
2AD
  9
$TILEMODE
 70
1
  9
$MEASUREMENT
 70
1
  9
$INSUNITS
 70
4
  0
ENDSEC
  0
SECTION
  2
CLASSES
  0
CLASS
  1
ACDBDICTIONARYWDFLT
  2
AcDbDictionaryWithDefault
  3
AutoCAD 2000
 90
0
 91
1
280
0
281
0
  0
CLASS
  1
ACDBPLACEHOLDER
  2
AcDbPlaceHolder
  3
AutoCAD 2000
 90
0
 91
1
280
0
281
0
  0
CLASS
  1
LAYOUT
  2
AcDbLayout
  3
AutoCAD 2000
 90
0
 91
0
280
0
281
0
  0
ENDSEC
  0
SECTION
  2
TABLES
  0
TABLE
  2
VPORT
  5
8
100
AcDbSymbolTable
 70
2
  0
VPORT
  5
1F4
100
AcDbSymbolTableRecord
100
AcDbViewportTableRecord
  2
*ACTIVE
 70
0
 10
0.0
 20
0.0
 11
1.0
 21
1.0
 12
148.5
 22
105.0
 13
0.0
 23
0.0
 14
1.0
 24
1.0
 15
0.0
 25
0.0
 16
0.0
 26
0.0
 36
1.0
 17
0.0
 27
0.0
 37
0.0
 40
210.0
 41
1.4142857143
 42
50.0
 43
0.0
 44
0.0
 50
0.0
 51
0.0
 71
0
 72
100
 73
1
 74
1
 75
0
 76
0
 77
0
 78
0
  0
ENDTAB
  0
TABLE
  2
LTYPE
  5
5
100
AcDbSymbolTable
 70
6
  0
LTYPE
  5
14
100
AcDbSymbolTableRecord
100
AcDbLinetypeTableRecord
  2
BYBLOCK
 70
0
  3

 72
65
 73
0
 40
0.0
  0
LTYPE
  5
15
100
AcDbSymbolTableRecord
100
AcDbLinetypeTableRecord
  2
BYLAYER
 70
0
  3

 72
65
 73
0
 40
0.0
  0
LTYPE
  5
16
100
AcDbSymbolTableRecord
100
AcDbLinetypeTableRecord
  2
CONTINUOUS
 70
64
  3
Solid line
 72
65
 73
0
 40
0.0
  0
LTYPE
  5
1F5
100
AcDbSymbolTableRecord
100
AcDbLinetypeTableRecord
  2
CENTER
 70
64
  3
____ _ ____ _ ____ _ ____ _ ____ _ ____ _ ____
 72
65
 73
4
 40
0.6
 49
0.375
 74
0
 49
-0.075
 74
0
 49
0.075
 74
0
 49
-0.075
 74
0
  0
LTYPE
  5
1F6
100
AcDbSymbolTableRecord
100
AcDbLinetypeTableRecord
  2
HIDDEN
 70
64
  3
- - - - - - - - - - - - - - - - - - - -
 72
65
 73
2
 40
0.2
 49
0.1
 74
0
 49
-0.1
 74
0
  0
LTYPE
  5
1F7
100
AcDbSymbolTableRecord
100
AcDbLinetypeTableRecord
  2
PHANTOM
 70
64
  3
_____ _ _ _____ _ _ _____ _ _ _____
 72
65
 73
6
 40
0.8
 49
0.45
 74
0
 49
-0.05
 74
0
 49
0.1
 74
0
 49
-0.05
 74
0
 49
0.1
 74
0
 49
-0.05
 74
0
  0
LTYPE
  5
1F8
100
AcDbSymbolTableRecord
100
AcDbLinetypeTableRecord
  2
DOT
 70
64
  3
. . . . . . . . . . . . . . . . . . . .
 72
65
 73
2
 40
0.2
 49
0.1
 74
0
 49
-0.1
 74
0
  0
LTYPE
  5
1F9
100
AcDbSymbolTableRecord
100
AcDbLinetypeTableRecord
  2
DASHED
 70
64
  3
- - - - - - - - - - - - - - - - - - - -
 72
65
 73
2
 40
0.2
 49
0.1
 74
0
 49
-0.1
 74
0
  0
ENDTAB
  0
TABLE
  2
LAYER
  5
2
100
AcDbSymbolTable
 70
36
  0
LAYER
  5
10
100
AcDbSymbolTableRecord
100
AcDbLayerTableRecord
  2
0
 70
0
 62
7
  6
CONTINUOUS
370
-3
390
F
  0
LAYER
  5
1FA
100
AcDbSymbolTableRecord
100
AcDbLayerTableRecord
  2
DEFAULT_1
 70
0
 62
7
  6
CENTER
370
-3
390
F
  0
LAYER
  5
1FB
100
AcDbSymbolTableRecord
100
AcDbLayerTableRecord
  2
DEFAULT_2
 70
0
 62
7
  6
HIDDEN
370
-3
390
F
  0
LAYER
  5
1FC
100
AcDbSymbolTableRecord
100
AcDbLayerTableRecord
  2
DEFAULT_3
 70
0
 62
7
  6
PHANTOM
370
-3
390
F
  0
LAYER
  5
1FD
100
AcDbSymbolTableRecord
100
AcDbLayerTableRecord
  2
ASSI
 70
0
 62
7
  6
CONTINUOUS
370
-3
390
F
  0
LAYER
  5
1FE
100
AcDbSymbolTableRecord
100
AcDbLayerTableRecord
  2
COLOR3
 70
0
 62
7
  6
CONTINUOUS
370
-3
390
F
  0
LAYER
  5
1FF
100
AcDbSymbolTableRecord
100
AcDbLayerTableRecord
  2
COORDINATE
 70
0
 62
7
  6
CONTINUOUS
370
-3
390
F
  0
LAYER
  5
200
100
AcDbSymbolTableRecord
100
AcDbLayerTableRecord
  2
COPY_PUBLISH
 70
0
 62
7
  6
CONTINUOUS
370
-3
390
F
  0
LAYER
  5
201
100
AcDbSymbolTableRecord
100
AcDbLayerTableRecord
  2
COSMETIC
 70
0
 62
7
  6
CONTINUOUS
370
-3
390
F
  0
LAYER
  5
202
100
AcDbSymbolTableRecord
100
AcDbLayerTableRecord
  2
COSMETICI
 70
0
 62
7
  6
CONTINUOUS
370
-3
390
F
  0
LAYER
  5
203
100
AcDbSymbolTableRecord
100
AcDbLayerTableRecord
  2
CURVE
 70
0
 62
7
  6
CONTINUOUS
370
-3
390
F
  0
LAYER
  5
204
100
AcDbSymbolTableRecord
100
AcDbLayerTableRecord
  2
DRAFT
 70
0
 62
7
  6
CONTINUOUS
370
-3
390
F
  0
LAYER
  5
205
100
AcDbSymbolTableRecord
100
AcDbLayerTableRecord
  2
IMPORT_IGES
 70
0
 62
7
  6
CONTINUOUS
370
-3
390
F
  0
LAYER
  5
206
100
AcDbSymbolTableRecord
100
AcDbLayerTableRecord
  2
INTFCLR_1
 70
0
 62
7
  6
CONTINUOUS
370
-3
390
F
  0
LAYER
  5
207
100
AcDbSymbolTableRecord
100
AcDbLayerTableRecord
  2
INTF_10
 70
0
 62
7
  6
CONTINUOUS
370
-3
390
F
  0
LAYER
  5
208
100
AcDbSymbolTableRecord
100
AcDbLayerTableRecord
  2
INTF_13
 70
0
 62
7
  6
CONTINUOUS
370
-3
390
F
  0
LAYER
  5
209
100
AcDbSymbolTableRecord
100
AcDbLayerTableRecord
  2
INTF_15
 70
0
 62
7
  6
CONTINUOUS
370
-3
390
F
  0
LAYER
  5
20A
100
AcDbSymbolTableRecord
100
AcDbLayerTableRecord
  2
INTF_16
 70
0
 62
7
  6
CONTINUOUS
370
-3
390
F
  0
LAYER
  5
20B
100
AcDbSymbolTableRecord
100
AcDbLayerTableRecord
  2
INTF_18
 70
0
 62
7
  6
CONTINUOUS
370
-3
390
F
  0
LAYER
  5
20C
100
AcDbSymbolTableRecord
100
AcDbLayerTableRecord
  2
INTF_20
 70
0
 62
7
  6
CONTINUOUS
370
-3
390
F
  0
LAYER
  5
20D
100
AcDbSymbolTableRecord
100
AcDbLayerTableRecord
  2
INTF_3
 70
0
 62
7
  6
CONTINUOUS
370
-3
390
F
  0
LAYER
  5
20E
100
AcDbSymbolTableRecord
100
AcDbLayerTableRecord
  2
INTF_5
 70
0
 62
7
  6
CONTINUOUS
370
-3
390
F
  0
LAYER
  5
20F
100
AcDbSymbolTableRecord
100
AcDbLayerTableRecord
  2
INTF_8
 70
0
 62
7
  6
CONTINUOUS
370
-3
390
F
  0
LAYER
  5
210
100
AcDbSymbolTableRecord
100
AcDbLayerTableRecord
  2
LIVELLO_1
 70
0
 62
7
  6
CONTINUOUS
370
-3
390
F
  0
LAYER
  5
211
100
AcDbSymbolTableRecord
100
AcDbLayerTableRecord
  2
NOTE
 70
0
 62
7
  6
CONTINUOUS
370
-3
390
F
  0
LAYER
  5
212
100
AcDbSymbolTableRecord
100
AcDbLayerTableRecord
  2
PIANI
 70
0
 62
7
  6
CONTINUOUS
370
-3
390
F
  0
LAYER
  5
213
100
AcDbSymbolTableRecord
100
AcDbLayerTableRecord
  2
PUNTI
 70
0
 62
7
  6
CONTINUOUS
370
-3
390
F
  0
LAYER
  5
214
100
AcDbSymbolTableRecord
100
AcDbLayerTableRecord
  2
RACCORDO
 70
0
 62
7
  6
CONTINUOUS
370
-3
390
F
  0
LAYER
  5
215
100
AcDbSymbolTableRecord
100
AcDbLayerTableRecord
  2
SIMBOLI
 70
0
 62
7
  6
CONTINUOUS
370
-3
390
F
  0
LAYER
  5
216
100
AcDbSymbolTableRecord
100
AcDbLayerTableRecord
  2
SMUSSO
 70
0
 62
7
  6
CONTINUOUS
370
-3
390
F
  0
LAYER
  5
217
100
AcDbSymbolTableRecord
100
AcDbLayerTableRecord
  2
SNAPLINE
 70
0
 62
7
  6
CONTINUOUS
370
-3
390
F
  0
LAYER
  5
218
100
AcDbSymbolTableRecord
100
AcDbLayerTableRecord
  2
SOLIDO
 70
0
 62
7
  6
CONTINUOUS
370
-3
390
F
  0
LAYER
  5
219
100
AcDbSymbolTableRecord
100
AcDbLayerTableRecord
  2
SUPERFICI
 70
0
 62
7
  6
CONTINUOUS
370
-3
390
F
  0
LAYER
  5
21A
100
AcDbSymbolTableRecord
100
AcDbLayerTableRecord
  2
SUPERFICI_SKEL
 70
0
 62
7
  6
CONTINUOUS
370
-3
390
F
  0
LAYER
  5
21B
100
AcDbSymbolTableRecord
100
AcDbLayerTableRecord
  2
TRASH
 70
0
 62
7
  6
CONTINUOUS
370
-3
390
F
  0
LAYER
  5
21C
100
AcDbSymbolTableRecord
100
AcDbLayerTableRecord
  2
WHITE
 70
0
 62
7
  6
CONTINUOUS
370
-3
390
F
  0
LAYER
  5
21D
100
AcDbSymbolTableRecord
100
AcDbLayerTableRecord
  2
___SHELL
 70
0
 62
7
  6
CONTINUOUS
370
-3
390
F
  0
ENDTAB
  0
TABLE
  2
STYLE
  5
3
100
AcDbSymbolTable
 70
1
  0
STYLE
  5
11
100
AcDbSymbolTableRecord
100
AcDbTextStyleTableRecord
  2
STANDARD
 70
0
 40
0.0
 41
0.8
 50
0.0
 71
0
 42
0.2
  3
txt
  4

  0
STYLE
  5
21E
100
AcDbSymbolTableRecord
100
AcDbTextStyleTableRecord
  2
TEXTSTYLE_1
 70
0
 40
0.0
 41
0.8
 50
0.0
 71
0
 42
0.2
  3
gdt
  4

  0
ENDTAB
  0
TABLE
  2
VIEW
  5
6
100
AcDbSymbolTable
 70
0
  0
ENDTAB
  0
TABLE
  2
UCS
  5
7
100
AcDbSymbolTable
 70
0
  0
ENDTAB
  0
TABLE
  2
APPID
  5
9
100
AcDbSymbolTable
 70
1
  0
APPID
  5
21F
100
AcDbSymbolTableRecord
100
AcDbRegAppTableRecord
  2
ACAD
 70
0
  0
ENDTAB
  0
TABLE
  2
BLOCK_RECORD
  5
1
100
AcDbSymbolTable
 70
0
  0
BLOCK_RECORD
  5
220
100
AcDbSymbolTableRecord
100
AcDbBlockTableRecord
  2
*Model_Space
  0
BLOCK_RECORD
  5
221
100
AcDbSymbolTableRecord
100
AcDbBlockTableRecord
  2
*Paper_Space
  0
ENDTAB
  0
TABLE
  2
DIMSTYLE
  5
A
100
AcDbSymbolTable
 70
1
100
AcDbDimStyleTable
 71
0
  0
DIMSTYLE
105
222
100
AcDbSymbolTableRecord
100
AcDbDimStyleTableRecord
  2
STANDARD
 70
0
  3

  4

 40
1.0
 41
3.0
 42
0.5
 43
0.38
 44
1.5
 45
0.0
 46
0.0
 47
0.01
 48
0.01
140
3.0
141
0.09
142
0.0
143
25.4
144
1.0
145
0.0
146
1.0
147
0.625
 71
1.0
 72
0.0
 73
0
 74
0
 75
0
 76
0
 77
1
 78
8
170
0
171
1
172
0
173
0
174
0
175
0
176
0
177
0
178
0
270
2
271
2
272
2
273
2
274
2
275
0
280
0
281
0
282
0
283
1
284
8
285
0
286
0
287
3
288
0
340
11
278
44
  0
ENDTAB
  0
ENDSEC
  0
SECTION
  2
BLOCKS
  0
BLOCK
  5
20
100
AcDbEntity
  8
0
100
AcDbBlockBegin
  2
*Model_Space
 70
0
 10
0.0
 20
0.0
 30
0.0
  3
*Model_Space
  1

  0
ENDBLK
  5
21
100
AcDbEntity
  8
0
100
AcDbBlockEnd
  0
BLOCK
  5
1C
100
AcDbEntity
  8
0
100
AcDbBlockBegin
  2
*Paper_Space
 70
0
 10
0.0
 20
0.0
 30
0.0
  3
*Paper_Space
  1

  0
ENDBLK
  5
1D
100
AcDbEntity
  8
0
100
AcDbBlockEnd
  0
ENDSEC
  0
SECTION
  2
ENTITIES
  0
LINE
  5
223
100
AcDbEntity
  8
0
100
AcDbLine
 62
7
  6
CONTINUOUS
 10
-8.5467584401
 20
22.3566467142
 11
-8.5468786772
 21
22.3565661657
  0
LWPOLYLINE
  5
224
100
AcDbEntity
  8
0
100
AcDbPolyline
 62
7
  6
CONTINUOUS
 90
19
 70
0
 10
-8.5467547591
 20
22.3566412169
 10
-8.585463187
 20
22.3295941512
 10
-8.6527384142
 20
22.2772055512
 10
-8.7168710473
 20
22.2204147891
 10
-8.777884812
 20
22.1595371753
 10
-8.8357569383
 20
22.0948710368
 10
-8.8903025995
 20
22.0268297457
 10
-8.9414394152
 20
21.9557153303
 10
-8.9890544447
 20
21.8817817783
 10
-9.0328700516
 20
21.805534048
 10
-9.0727663602
 20
21.7272441199
 10
-9.1085823038
 20
21.6471588116
 10
-9.140061298
 20
21.5657884459
 10
-9.1670459014
 20
21.4833666958
 10
-9.1893443186
 20
21.4001100292
 10
-9.206722601
 20
21.316370965
 10
-9.2189406248
 20
21.2323235262
 10
-9.2257375596
 20
21.148138982
 10
-9.2263401211
 20
21.1335958019
  0
LINE
  5
225
100
AcDbEntity
  8
0
100
AcDbLine
 62
7
  6
CONTINUOUS
 10
-6.1125033159
 20
23.9890095621
 11
-8.5468786772
 21
22.3565661657
  0
LINE
  5
226
100
AcDbEntity
  8
0
100
AcDbLine
 62
253
  6
CONTINUOUS
 10
-5.862963817
 20
23.9637330416
 11
-8.2869080684
 21
22.3382845386
  0
LWPOLYLINE
  5
227
100
AcDbEntity
  8
0
100
AcDbPolyline
 62
253
  6
CONTINUOUS
 90
22
 70
0
 10
-8.2869080685
 20
22.3382845386
 10
-8.3471958984
 20
22.2983034648
 10
-8.4069864297
 20
22.253834882
 10
-8.4659694659
 20
22.2050911613
 10
-8.5238234447
 20
22.1522984576
 10
-8.5802647041
 20
22.095717802
 10
-8.6350484737
 20
22.0356425816
 10
-8.687894931
 20
21.9723584774
 10
-8.738526172
 20
21.9061724186
 10
-8.7867155234
 20
21.8374330601
 10
-8.8322153188
 20
21.7664758504
 10
-8.8747897074
 20
21.6936414256
 10
-8.9142512376
 20
21.6193034426
 10
-8.9503991531
 20
21.5438236639
 10
-8.9830447819
 20
21.4675677416
 10
-9.0120447458
 20
21.390924075
 10
-9.0372512608
 20
21.3142733246
 10
-9.0585349119
 20
21.2379814117
 10
-9.0758068518
 20
21.1624155615
 10
-9.0889827264
 20
21.087943751
 10
-9.0979860561
 20
21.0149325877
 10
-9.1027687993
 20
20.9437406055
  0
LWPOLYLINE
  5
228
100
AcDbEntity
  8
0
100
AcDbPolyline
 62
253
  6
CONTINUOUS
 90
16
 70
0
 10
5.6459210184
 20
-21.6633048012
 10
5.684533117
 20
-21.6806952971
 10
5.7259584082
 20
-21.6956418378
 10
5.7697952357
 20
-21.707999503
 10
5.8156185613
 20
-21.7176484737
 10
5.8629840862
 20
-21.7244951944
 10
5.911432558
 20
-21.7284732798
 10
5.9604942245
 20
-21.7295441588
 10
6.0096933881
 20
-21.7276974481
 10
6.0585530177
 20
-21.7229510534
 10
6.1065993746
 20
-21.7153509953
 10
6.1533666053
 20
-21.7049709632
 10
6.1984012587
 20
-21.6919116012
 10
6.2412666828
 20
-21.6762995316
 10
6.2815472578
 20
-21.6582861277
 10
6.3188524269
 20
-21.6380460461
  0
LWPOLYLINE
  5
229
100
AcDbEntity
  8
0
100
AcDbPolyline
 62
7
  6
CONTINUOUS
 90
12
 70
0
 10
5.9081260275
 20
-22.1784406565
 10
5.9643233015
 20
-22.2041296711
 10
6.027652038
 20
-22.2267432222
 10
6.0934061262
 20
-22.2438260551
 10
6.1611802878
 20
-22.2551933743
 10
6.2305113197
 20
-22.2606987183
 10
6.3014149314
 20
-22.2602290446
 10
6.3735678305
 20
-22.2536332809
 10
6.446576385
 20
-22.2408122958
 10
6.5205182374
 20
-22.22156063
 10
6.5952733697
 20
-22.1956368352
 10
6.6770143279
 20
-22.1597317688
  0
LINE
  5
22A
100
AcDbEntity
  8
0
100
AcDbLine
 62
7
  6
CONTINUOUS
 10
5.9080880366
 20
-22.178427192
 11
5.9079645755
 21
-22.1783644755
  0
LWPOLYLINE
  5
22B
100
AcDbEntity
  8
0
100
AcDbPolyline
 62
253
  6
CONTINUOUS
 90
12
 70
0
 10
5.9079645755
 20
-22.1783644755
 10
5.8667032562
 20
-22.1540964481
 10
5.8283560849
 20
-22.1246842342
 10
5.7932504176
 20
-22.0903453812
 10
5.7615455389
 20
-22.0512446354
 10
5.7334159838
 20
-22.0075868371
 10
5.7089954385
 20
-21.9595901293
 10
5.6883901233
 20
-21.9074843806
 10
5.6717096997
 20
-21.8515221995
 10
5.6590375717
 20
-21.7919747017
 10
5.6504279041
 20
-21.7291330624
 10
5.645921016
 20
-21.663304797
  0
LWPOLYLINE
  5
22C
100
AcDbEntity
  8
0
100
AcDbPolyline
 62
7
  6
CONTINUOUS
 90
10
 70
0
 10
-8.8712682811
 20
-13.6448810774
 10
-7.3948241182
 20
-14.6010000915
 10
-5.8089089382
 20
-15.5994384578
 10
-4.1971322013
 20
-16.5852562827
 10
-2.5598540795
 20
-17.5582283747
 10
-0.8974387319
 20
-18.5181352047
 10
0.7897359867
 20
-19.4647663567
 10
2.5012760319
 20
-20.3979179518
 10
4.2367784673
 20
-21.3173890548
 10
5.907961516
 20
-22.1783629206
  0
LWPOLYLINE
  5
22D
100
AcDbEntity
  8
0
100
AcDbPolyline
 62
253
  6
CONTINUOUS
 90
31
 70
0
 10
-9.1027687906
 20
-13.1475961269
 10
-8.6561499551
 20
-13.4406310189
 10
-8.2075289023
 20
-13.7324552999
 10
-7.7569160033
 20
-14.0230651948
 10
-7.3044278204
 20
-14.3123893631
 10
-6.8499695532
 20
-14.6004922146
 10
-6.3932301279
 20
-14.887571304
 10
-5.9340667297
 20
-15.1737130804
 10
-5.4726331542
 20
-15.458818478
 10
-5.0090606151
 20
-15.7428053885
 10
-4.5433886493
 20
-16.0256497873
 10
-4.0755940144
 20
-16.3073659206
 10
-3.6057159371
 20
-16.5879302795
 10
-3.1336978901
 20
-16.8673765241
 10
-2.6596127855
 20
-17.1456612823
 10
-2.1836974629
 20
-17.4226474677
 10
-1.7062721668
 20
-17.6981547028
 10
-1.2270425552
 20
-17.9723592209
 10
-0.7453176551
 20
-18.2456553952
 10
-0.2620180743
 20
-18.5175205392
 10
0.2237631542
 20
-18.7884661215
 10
0.7155109617
 20
-19.0604063466
 10
1.2124338827
 20
-19.3328506496
 10
1.715397507
 20
-19.6062245252
 10
2.2304915225
 20
-19.8837431763
 10
2.7580086236
 20
-20.165413661
 10
3.2978932827
 20
-20.4510586727
 10
3.8558623992
 20
-20.743522099
 10
4.4339853793
 20
-21.0436381625
 10
5.0306039804
 20
-21.3502816098
 10
5.6459210167
 20
-21.6633047909
  0
LINE
  5
22E
100
AcDbEntity
  8
0
100
AcDbLine
 62
7
  6
CONTINUOUS
 10
-8.8713688093
 20
-13.6448150538
 11
-8.8712669569
 21
-13.6448819468
  0
LWPOLYLINE
  5
22F
100
AcDbEntity
  8
0
100
AcDbPolyline
 62
253
  6
CONTINUOUS
 90
8
 70
0
 10
-9.1027591577
 20
-13.1475908396
 10
-9.1333039582
 20
-13.1250512269
 10
-9.1599059542
 20
-13.1007199967
 10
-9.18230722
 20
-13.074833058
 10
-9.2002905593
 20
-13.0476414033
 10
-9.2136816105
 20
-13.0194086754
 10
-9.2223505378
 20
-12.9904086107
 10
-9.2262954322
 20
-12.9590331964
  0
LINE
  5
230
100
AcDbEntity
  8
0
100
AcDbLine
 62
7
  6
CONTINUOUS
 10
-3.9544160308
 20
22.8617614696
 11
-4.1346506792
 21
22.4475794602
  0
LWPOLYLINE
  5
231
100
AcDbEntity
  8
0
100
AcDbPolyline
 62
253
  6
CONTINUOUS
 90
15
 70
0
 10
-2.0155046542
 20
-11.2855400885
 10
-1.9105763748
 20
-11.2604651436
 10
-1.8062497063
 20
-11.2338084452
 10
-1.7025170734
 20
-11.205568924
 10
-1.5993709013
 20
-11.1757455109
 10
-1.4968036149
 20
-11.1443371367
 10
-1.3948076391
 20
-11.1113427323
 10
-1.2933808703
 20
-11.0767629469
 10
-1.1925430899
 20
-11.0406053026
 10
-1.0923195509
 20
-11.0028790399
 10
-0.9927355063
 20
-10.9635933993
 10
-0.8938162088
 20
-10.9227576212
 10
-0.7955869114
 20
-10.8803809462
 10
-0.7369899471
 20
-10.8542186489
 10
-0.6786493822
 20
-10.8275039159
  0
LWPOLYLINE
  5
232
100
AcDbEntity
  8
0
100
AcDbPolyline
 62
253
  6
CONTINUOUS
 90
15
 70
0
 10
-2.0301414817
 20
-11.2549612375
 10
-1.9254263515
 20
-11.2299367456
 10
-1.8213089948
 20
-11.2033329157
 10
-1.7177818866
 20
-11.1751486232
 10
-1.6148375019
 20
-11.1453827432
 10
-1.5124683157
 20
-11.1140341512
 10
-1.410666803
 20
-11.0811017224
 10
-1.3094308881
 20
-11.0465860421
 10
-1.2087802919
 20
-11.0104945355
 10
-1.1087401847
 20
-10.972836338
 10
-1.0093357366
 20
-10.9336205848
 10
-0.9105921178
 20
-10.8928564112
 10
-0.8125344986
 20
-10.8505529525
 10
-0.7540385916
 20
-10.8244353167
 10
-0.6957976262
 20
-10.7977657758
  0
LWPOLYLINE
  5
233
100
AcDbEntity
  8
0
100
AcDbPolyline
 62
253
  6
CONTINUOUS
 90
45
 70
0
 10
-2.1792745023
 20
-10.8472213319
 10
-2.1808933073
 20
-10.847538776
 10
-2.1825166138
 20
-10.8477904994
 10
-2.1841463245
 20
-10.8479775521
 10
-2.185784342
 20
-10.848100984
 10
-2.187432569
 20
-10.8481618452
 10
-2.189092908
 20
-10.8481611857
 10
-2.1907672617
 20
-10.8481000554
 10
-2.1924575326
 20
-10.8479795044
 10
-2.1944105344
 20
-10.847770022
 10
-2.1963856447
 20
-10.8474840881
 10
-2.198381697
 20
-10.8471214904
 10
-2.200397525
 20
-10.8466820168
 10
-2.2024319622
 20
-10.8461654552
 10
-2.2044838422
 20
-10.8455715932
 10
-2.2065519984
 20
-10.8449002189
 10
-2.2086351184
 20
-10.8441512705
 10
-2.2107313055
 20
-10.8433252894
 10
-2.212838517
 20
-10.8424229674
 10
-2.2149547101
 20
-10.8414449963
 10
-2.2170778421
 20
-10.8403920679
 10
-2.2192058702
 20
-10.8392648741
 10
-2.2213367518
 20
-10.8380641068
 10
-2.2234684433
 20
-10.8367906605
 10
-2.2255988977
 20
-10.8354462407
 10
-2.2277260674
 20
-10.8340327553
 10
-2.2298479047
 20
-10.8325521127
 10
-2.231962362
 20
-10.8310062209
 10
-2.2340673914
 20
-10.829396988
 10
-2.2361609454
 20
-10.8277263222
 10
-2.2382411308
 20
-10.8259960891
 10
-2.2403066728
 20
-10.8242079842
 10
-2.2423564514
 20
-10.8223636604
 10
-2.2443893464
 20
-10.8204647706
 10
-2.2464042376
 20
-10.8185129679
 10
-2.2484000049
 20
-10.8165099052
 10
-2.2503755281
 20
-10.8144572354
 10
-2.2520870591
 20
-10.8126209767
 10
-2.2537840938
 20
-10.8107444376
 10
-2.2554684927
 20
-10.8088240526
 10
-2.2571421164
 20
-10.8068562563
 10
-2.2588068255
 20
-10.8048374832
 10
-2.2604644807
 20
-10.8027641676
 10
-2.2621169426
 20
-10.8006327443
 10
-2.2637660717
 20
-10.7984396475
  0
LINE
  5
234
100
AcDbEntity
  8
0
100
AcDbLine
 62
253
  6
CONTINUOUS
 10
-2.1649227179
 20
-10.8778783256
 11
-2.183272565
 21
-10.8787069115
  0
LWPOLYLINE
  5
235
100
AcDbEntity
  8
0
100
AcDbPolyline
 62
253
  6
CONTINUOUS
 90
43
 70
0
 10
-2.183272565
 20
-10.8787069115
 10
-2.1854019883
 20
-10.8784686282
 10
-2.187534843
 20
-10.8781585496
 10
-2.1896739408
 20
-10.8777775007
 10
-2.1918220933
 20
-10.8773263064
 10
-2.1939821123
 20
-10.8768057918
 10
-2.1961568093
 20
-10.8762167817
 10
-2.1983489962
 20
-10.8755601012
 10
-2.2005610947
 20
-10.8748362074
 10
-2.2027939682
 20
-10.8740440861
 10
-2.2050480898
 20
-10.8731823552
 10
-2.207323933
 20
-10.8722496327
 10
-2.2096219712
 20
-10.8712445365
 10
-2.2119426778
 20
-10.8701656846
 10
-2.214286526
 20
-10.8690116949
 10
-2.2166532296
 20
-10.8677816375
 10
-2.2190394637
 20
-10.8664763914
 10
-2.2214411438
 20
-10.8650972875
 10
-2.2238541852
 20
-10.8636456568
 10
-2.2262745034
 20
-10.8621228305
 10
-2.2286980138
 20
-10.8605301396
 10
-2.2311206318
 20
-10.858868915
 10
-2.2335383204
 20
-10.8571409125
 10
-2.2359472328
 20
-10.8553495855
 10
-2.2383435699
 20
-10.8534988125
 10
-2.2407235324
 20
-10.8515924714
 10
-2.2430833211
 20
-10.8496344407
 10
-2.2454191369
 20
-10.8476285984
 10
-2.2477271804
 20
-10.8455788228
 10
-2.2500044254
 20
-10.8434884841
 10
-2.2522509368
 20
-10.84135892
 10
-2.2544675525
 20
-10.8391909605
 10
-2.2566551103
 20
-10.8369854354
 10
-2.2588144481
 20
-10.8347431745
 10
-2.2609464036
 20
-10.8324650076
 10
-2.2630518147
 20
-10.8301517645
 10
-2.2651317954
 20
-10.8278034642
 10
-2.2671885642
 20
-10.8254168814
 10
-2.2692246155
 20
-10.82298798
 10
-2.2712424441
 20
-10.8205127238
 10
-2.2732445444
 20
-10.8179870766
 10
-2.2752334112
 20
-10.8154070023
 10
-2.2772115388
 20
-10.8127684648
  0
LWPOLYLINE
  5
236
100
AcDbEntity
  8
0
100
AcDbPolyline
 62
253
  6
CONTINUOUS
 90
31
 70
0
 10
-2.210305745
 20
-11.2157557431
 10
-2.2039224512
 20
-11.2193546353
 10
-2.1975656974
 20
-11.2227831789
 10
-2.1912283625
 20
-11.2260475715
 10
-2.1849033253
 20
-11.2291540107
 10
-2.1785834647
 20
-11.232108694
 10
-2.172262547
 20
-11.2349167125
 10
-2.1659378881
 20
-11.2375787324
 10
-2.1596076911
 20
-11.2400943133
 10
-2.1532701591
 20
-11.2424630151
 10
-2.1469234955
 20
-11.2446843973
 10
-2.1405681122
 20
-11.2467573597
 10
-2.134213256
 20
-11.2486781615
 10
-2.1278703826
 20
-11.2504424016
 10
-2.1215509476
 20
-11.2520456792
 10
-2.1152664068
 20
-11.2534835933
 10
-2.1090280215
 20
-11.2547525057
 10
-2.1028462762
 20
-11.2558518289
 10
-2.0967314612
 20
-11.256781738
 10
-2.0906938668
 20
-11.2575424083
 10
-2.0847437833
 20
-11.258134015
 10
-2.0788893728
 20
-11.2585570069
 10
-2.0731302853
 20
-11.2588129282
 10
-2.0674640425
 20
-11.2589035964
 10
-2.0618881661
 20
-11.2588308293
 10
-2.056400178
 20
-11.2585964447
 10
-2.0509971971
 20
-11.258201439
 10
-2.0456747317
 20
-11.2576435245
 10
-2.040427887
 20
-11.256919592
 10
-2.0352517686
 20
-11.2560265327
 10
-2.0301414817
 20
-11.2549612375
  0
LWPOLYLINE
  5
237
100
AcDbEntity
  8
0
100
AcDbPolyline
 62
253
  6
CONTINUOUS
 90
11
 70
0
 10
-9.1027687816
 20
-13.1475961166
 10
-9.0979860387
 20
-13.2135836688
 10
-9.0889827081
 20
-13.2766526114
 10
-9.0758068324
 20
-13.3364909702
 10
-9.0585348919
 20
-13.3927946854
 10
-9.0372512411
 20
-13.4452920943
 10
-9.0120447267
 20
-13.4937426092
 10
-8.9830447628
 20
-13.5379029699
 10
-8.9503991341
 20
-13.5775468926
 10
-8.9142512188
 20
-13.6124875262
 10
-8.8713688093
 20
-13.6448150538
  0
LWPOLYLINE
  5
238
100
AcDbEntity
  8
0
100
AcDbPolyline
 62
253
  6
CONTINUOUS
 90
8
 70
0
 10
-9.4181027437
 20
4.3245856067
 10
-9.4163077646
 20
4.2825435331
 10
-9.4100163216
 20
4.2436368399
 10
-9.399660752
 20
4.2078416181
 10
-9.3856161494
 20
4.1752023721
 10
-9.3677382603
 20
4.1459155431
 10
-9.3459102422
 20
4.1204015794
 10
-9.3210853919
 20
4.0994467894
  0
LWPOLYLINE
  5
239
100
AcDbEntity
  8
0
100
AcDbPolyline
 62
7
  6
CONTINUOUS
 90
13
 70
0
 10
-9.2262954322
 20
-12.9590331964
 10
-9.2259278752
 20
-12.9679085406
 10
-9.2191279471
 20
-13.0498459911
 10
-9.2064466332
 20
-13.1283193653
 10
-9.1880899823
 20
-13.2030922244
 10
-9.1642691129
 20
-13.2740833572
 10
-9.1351867496
 20
-13.3411547464
 10
-9.1011220904
 20
-13.403996534
 10
-9.0623725544
 20
-13.4623944435
 10
-9.0192471406
 20
-13.5161584132
 10
-8.9721882733
 20
-13.5649762328
 10
-8.9216277309
 20
-13.6086364518
 10
-8.871397176
 20
-13.6447893339
  0
LINE
  5
23A
100
AcDbEntity
  8
0
100
AcDbLine
 62
253
  6
CONTINUOUS
 10
-9.535669413
 20
4.510582545
 11
-9.5355791933
 21
4.5048867531
  0
LWPOLYLINE
  5
23B
100
AcDbEntity
  8
0
100
AcDbPolyline
 62
7
  6
CONTINUOUS
 90
10
 70
0
 10
-9.5356694785
 20
3.2891652658
 10
-9.5300049475
 20
1.5183579492
 10
-9.5170408083
 20
-0.3139709574
 10
-9.4968563252
 20
-2.1420044771
 10
-9.4694507862
 20
-3.9657032961
 10
-9.4348240519
 20
-5.7850304934
 10
-9.3929759934
 20
-7.5999501371
 10
-9.3439073317
 20
-9.4104211077
 10
-9.287619565
 20
-11.2163975648
 10
-9.2263108103
 20
-12.9588421198
  0
LWPOLYLINE
  5
23C
100
AcDbEntity
  8
0
100
AcDbPolyline
 62
253
  6
CONTINUOUS
 90
10
 70
0
 10
-9.4181026022
 20
3.1032172062
 10
-9.4127741627
 20
1.4199692918
 10
-9.4010523375
 20
-0.2846283515
 10
-9.3826554821
 20
-2.0103783975
 10
-9.3575114587
 20
-3.7439409844
 10
-9.3252210124
 20
-5.4983081031
 10
-9.2845418287
 20
-7.3124929026
 10
-9.2343207967
 20
-9.1990222523
 10
-9.1740096951
 20
-11.1442464011
 10
-9.1027687906
 20
-13.1475961269
  0
LWPOLYLINE
  5
23D
100
AcDbEntity
  8
0
100
AcDbPolyline
 62
7
  6
CONTINUOUS
 90
10
 70
0
 10
-9.2263399971
 20
21.1338210306
 10
-9.2874648991
 20
19.3225176381
 10
-9.3437680221
 20
17.4482251668
 10
-9.3928530562
 20
15.5782064711
 10
-9.4347185545
 20
13.7125072613
 10
-9.4693638725
 20
11.8511672487
 10
-9.4967886447
 20
9.9942238503
 10
-9.5169927599
 20
8.1417149198
 10
-9.5299773954
 20
6.2936794119
 10
-9.535669413
 20
4.510582545
  0
LWPOLYLINE
  5
23E
100
AcDbEntity
  8
0
100
AcDbPolyline
 62
253
  6
CONTINUOUS
 90
10
 70
0
 10
-9.1027687891
 20
20.9437406059
 10
-9.1688951002
 20
19.0161012934
 10
-9.2263550574
 20
17.1245683762
 10
-9.2755288335
 20
15.2689793448
 10
-9.3163567981
 20
13.4700044824
 10
-9.3497980976
 20
11.7065593871
 10
-9.3770420206
 20
9.916240124
 10
-9.3979287624
 20
8.0785792997
 10
-9.4117386953
 20
6.2146109584
 10
-9.4181026096
 20
4.3245855134
  0
LWPOLYLINE
  5
23F
100
AcDbEntity
  8
0
100
AcDbPolyline
 62
253
  6
CONTINUOUS
 90
16
 70
0
 10
-9.4181028106
 20
3.1032172651
 10
-9.4163077648
 20
3.1477009298
 10
-9.4100158662
 20
3.1924821863
 10
-9.3996595831
 20
3.2377292713
 10
-9.3856141735
 20
3.2840123415
 10
-9.3677354296
 20
3.331003991
 10
-9.3459065087
 20
3.377292505
 10
-9.3209231278
 20
3.4224057433
 10
-9.2930844007
 20
3.4664021059
 10
-9.2620600543
 20
3.5083673578
 10
-9.2286278793
 20
3.5478460344
 10
-9.1934852054
 20
3.584688047
 10
-9.1562552278
 20
3.6182399833
 10
-9.1173264085
 20
3.6480693369
 10
-9.0778891839
 20
3.6741116793
 10
-9.0387551989
 20
3.6962548163
  0
LINE
  5
240
100
AcDbEntity
  8
0
100
AcDbLine
 62
253
  6
CONTINUOUS
 10
6.4390677316
 20
13.8356906917
 11
8.9933719916
 21
15.3858709394
  0
LWPOLYLINE
  5
241
100
AcDbEntity
  8
0
100
AcDbPolyline
 62
253
  6
CONTINUOUS
 90
88
 70
0
 10
-4.2530943754
 20
9.2868500423
 10
-4.2570666388
 20
9.2844689966
 10
-4.2608587224
 20
9.2818675622
 10
-4.2644854422
 20
9.2790442959
 10
-4.267961614
 20
9.2759977541
 10
-4.2713020537
 20
9.2727264934
 10
-4.2753031719
 20
9.2683192592
 10
-4.2791075191
 20
9.2635561358
 10
-4.2827072558
 20
9.2584346127
 10
-4.2860945425
 20
9.2529521791
 10
-4.2892604982
 20
9.2471097709
 10
-4.292192077
 20
9.2409221091
 10
-4.2948751914
 20
9.234407361
 10
-4.2972957539
 20
9.2275836939
 10
-4.2990340227
 20
9.2219127942
 10
-4.3005899669
 20
9.2160545972
 10
-4.301958311
 20
9.2100078866
 10
-4.3031337795
 20
9.2037714463
 10
-4.3041110969
 20
9.1973440598
 10
-4.3048850322
 20
9.1907268759
 10
-4.305450532
 20
9.1839305024
 10
-4.3058025871
 20
9.1769679125
 10
-4.3059361885
 20
9.169852079
 10
-4.3058463273
 20
9.1625959748
 10
-4.3055298894
 20
9.1552138288
 10
-4.304991341
 20
9.1477248938
 10
-4.3042370434
 20
9.1401496783
 10
-4.3032733579
 20
9.132508691
 10
-4.3021066457
 20
9.1248224405
 10
-4.3007426162
 20
9.1171082855
 10
-4.2991843719
 20
9.1093709843
 10
-4.2974343633
 20
9.1016121454
 10
-4.295495041
 20
9.0938333771
 10
-4.2933688557
 20
9.0860362878
 10
-4.2910577957
 20
9.0782230359
 10
-4.2885620008
 20
9.0703979796
 10
-4.2858811489
 20
9.0625660274
 10
-4.2830149175
 20
9.0547320876
 10
-4.2799629844
 20
9.0469010683
 10
-4.2767257458
 20
9.0390796758
 10
-4.2733064721
 20
9.0312818069
 10
-4.2697091524
 20
9.0235231561
 10
-4.2659377756
 20
9.0158194182
 10
-4.2619963308
 20
9.0081862877
 10
-4.257889767
 20
9.0006388244
 10
-4.2536268748
 20
8.9931895486
 10
-4.2492174044
 20
8.9858503457
 10
-4.2446711065
 20
8.9786331011
 10
-4.2399977316
 20
8.9715497001
 10
-4.2352061814
 20
8.964610655
 10
-4.2303019627
 20
8.9578209847
 10
-4.2252897336
 20
8.9511843348
 10
-4.2201741521
 20
8.9447043511
 10
-4.2149598762
 20
8.9383846791
 10
-4.2096506156
 20
8.9322288354
 10
-4.2042462864
 20
8.9262398196
 10
-4.1987458565
 20
8.9204205025
 10
-4.1931482934
 20
8.9147737543
 10
-4.1874525651
 20
8.9093024458
 10
-4.1816596611
 20
8.9040117131
 10
-4.1757786587
 20
8.8989157547
 10
-4.1698206573
 20
8.8940310349
 10
-4.163796756
 20
8.8893740179
 10
-4.1577180541
 20
8.884961168
 10
-4.1526220939
 20
8.8814832634
 10
-4.147523081
 20
8.8782023345
 10
-4.1424483111
 20
8.8751343632
 10
-4.1374204186
 20
8.8722910423
 10
-4.1324433936
 20
8.8696669093
 10
-4.127516565
 20
8.8672522127
 10
-4.122637798
 20
8.8650376218
 10
-4.1177991032
 20
8.8630154889
 10
-4.1129910274
 20
8.861178587
 10
-4.1058264703
 20
8.8587596244
 10
-4.0987425779
 20
8.8567461261
 10
-4.0917710674
 20
8.8551411055
 10
-4.0849383584
 20
8.8539398083
 10
-4.0782650303
 20
8.8531354561
 10
-4.0717535963
 20
8.8527209405
 10
-4.0654039636
 20
8.8526891456
 10
-4.0592236807
 20
8.8530332548
 10
-4.0532222065
 20
8.8537465263
 10
-4.0474089999
 20
8.8548222186
 10
-4.0428977786
 20
8.8559417163
 10
-4.0385025542
 20
8.8573005855
 10
-4.0342127791
 20
8.8589105633
 10
-4.0300179052
 20
8.8607833865
 10
-4.0259073848
 20
8.8629307923
  0
LWPOLYLINE
  5
242
100
AcDbEntity
  8
0
100
AcDbPolyline
 62
253
  6
CONTINUOUS
 90
88
 70
0
 10
-4.2368670366
 20
9.2565288031
 10
-4.2402862568
 20
9.2544857145
 10
-4.2435497122
 20
9.2522519572
 10
-4.2466702164
 20
9.2498264432
 10
-4.2496605832
 20
9.2472080848
 10
-4.2525336263
 20
9.2443957941
 10
-4.2559742311
 20
9.2406058778
 10
-4.2592451628
 20
9.2365080477
 10
-4.2623400449
 20
9.2320991088
 10
-4.265252501
 20
9.2273758662
 10
-4.2679750199
 20
9.2223384211
 10
-4.2704955514
 20
9.2170000587
 10
-4.2728009105
 20
9.2113773601
 10
-4.2748779124
 20
9.2054869066
 10
-4.2763666358
 20
9.2005917963
 10
-4.2776964185
 20
9.195537786
 10
-4.2788629066
 20
9.1903267267
 10
-4.2798617462
 20
9.1849604695
 10
-4.2806885835
 20
9.1794408657
 10
-4.2813392499
 20
9.1737709612
 10
-4.281810318
 20
9.1679585823
 10
-4.2820985453
 20
9.1620127502
 10
-4.2822006895
 20
9.1559424861
 10
-4.2821135084
 20
9.1497568111
 10
-4.2818350718
 20
9.1434657672
 10
-4.2813686982
 20
9.1370834798
 10
-4.2807190185
 20
9.1306250949
 10
-4.2798906634
 20
9.1241057586
 10
-4.2788882635
 20
9.117540617
 10
-4.2777160337
 20
9.1109428297
 10
-4.2763765248
 20
9.1043176094
 10
-4.2748718716
 20
9.0976681825
 10
-4.2732042089
 20
9.0909977752
 10
-4.2713756714
 20
9.0843096139
 10
-4.269387983
 20
9.07760705
 10
-4.2672412231
 20
9.0708939357
 10
-4.2649350602
 20
9.0641742483
 10
-4.2624691627
 20
9.0574519654
 10
-4.2598431992
 20
9.0507310641
 10
-4.2570574741
 20
9.0440171582
 10
-4.2541148361
 20
9.037322406
 10
-4.2510187699
 20
9.0306606022
 10
-4.2477727601
 20
9.0240455413
 10
-4.2443802915
 20
9.0174910181
 10
-4.2408458206
 20
9.0110103983
 10
-4.2371776912
 20
9.0046153326
 10
-4.2333852188
 20
8.9983170428
 10
-4.2294777191
 20
8.9921267508
 10
-4.2254645076
 20
8.9860556785
 10
-4.2213539176
 20
8.9801134926
 10
-4.2171503533
 20
8.9743036402
 10
-4.2128572363
 20
8.9686280135
 10
-4.2084779885
 20
8.9630885043
 10
-4.2040160317
 20
8.9576870049
 10
-4.1994739258
 20
8.9524254074
 10
-4.1948507827
 20
8.9473056048
 10
-4.1901448529
 20
8.9423294903
 10
-4.1853543864
 20
8.9374989571
 10
-4.1804776336
 20
8.9328158984
 10
-4.17551485
 20
8.9282843937
 10
-4.1704743136
 20
8.9239172675
 10
-4.1653663076
 20
8.9197295309
 10
-4.1602011154
 20
8.9157361947
 10
-4.1549890204
 20
8.9119522699
 10
-4.1506201715
 20
8.9089706938
 10
-4.146249684
 20
8.9061590415
 10
-4.1419013494
 20
8.9035313876
 10
-4.1375950065
 20
8.9010980814
 10
-4.1333346827
 20
8.8988545688
 10
-4.1291204527
 20
8.8967925701
 10
-4.1249509369
 20
8.8949040473
 10
-4.1208189383
 20
8.8931819296
 10
-4.1167158054
 20
8.891619388
 10
-4.1106054437
 20
8.8895641647
 10
-4.1045662005
 20
8.8878555083
 10
-4.0986225195
 20
8.8864948225
 10
-4.0927940746
 20
8.8854775813
 10
-4.0870960609
 20
8.8847979148
 10
-4.0815305276
 20
8.8844505057
 10
-4.0760979312
 20
8.8844301453
 10
-4.0708055046
 20
8.8847315064
 10
-4.0656621749
 20
8.8853492321
 10
-4.0606768693
 20
8.8862779655
 10
-4.0568061482
 20
8.8872434444
 10
-4.0530333292
 20
8.8884147955
 10
-4.049349466
 20
8.8898022746
 10
-4.045745612
 20
8.8914161372
 10
-4.0422128206
 20
8.893266639
  0
LWPOLYLINE
  5
243
100
AcDbEntity
  8
0
100
AcDbPolyline
 62
253
  6
CONTINUOUS
 90
16
 70
0
 10
-4.0422128206
 20
8.893266639
 10
-3.933099212
 20
8.9529997764
 10
-3.8227979331
 20
9.0107940819
 10
-3.7112971514
 20
9.0666590801
 10
-3.5985850344
 20
9.1206042956
 10
-3.4846497495
 20
9.1726392528
 10
-3.3694870542
 20
9.2227698008
 10
-3.253123066
 20
9.2709870862
 10
-3.1355914927
 20
9.3172785803
 10
-3.0169260418
 20
9.3616317541
 10
-2.897160421
 20
9.404034079
 10
-2.776320265
 20
9.4444755267
 10
-2.6543989166
 20
9.4829560713
 10
-2.5313816456
 20
9.5194781878
 10
-2.4072537219
 20
9.554044351
 10
-2.2820004154
 20
9.5866570356
  0
LWPOLYLINE
  5
244
100
AcDbEntity
  8
0
100
AcDbPolyline
 62
253
  6
CONTINUOUS
 90
16
 70
0
 10
-4.0259073848
 20
8.8629307923
 10
-3.9169906005
 20
8.9225674287
 10
-3.8068888055
 20
8.9802689152
 10
-3.6955903386
 20
9.0360447343
 10
-3.5830835383
 20
9.0899043682
 10
-3.4693567433
 20
9.1418572996
 10
-3.3544057783
 20
9.1919093699
 10
-3.2382564109
 20
9.2400518564
 10
-3.1209418947
 20
9.2862723956
 10
-3.0024954834
 20
9.3305586239
 10
-2.8829504306
 20
9.3728981776
 10
-2.7623320147
 20
9.4132811508
 10
-2.6406336138
 20
9.4517074669
 10
-2.5178406306
 20
9.4881795069
 10
-2.3939384681
 20
9.522699652
 10
-2.268912529
 20
9.5552702831
  0
LWPOLYLINE
  5
245
100
AcDbEntity
  8
0
100
AcDbPolyline
 62
253
  6
CONTINUOUS
 90
50
 70
0
 10
-2.4078025484
 20
-11.0590441906
 10
-2.4008425183
 20
-11.0683060059
 10
-2.393812153
 20
-11.0773875001
 10
-2.3867025327
 20
-11.0863038616
 10
-2.3795047373
 20
-11.0950702784
 10
-2.3722098468
 20
-11.1037019388
 10
-2.3648104794
 20
-11.112211049
 10
-2.3573054061
 20
-11.1205978882
 10
-2.3496949362
 20
-11.1288597539
 10
-2.3419793787
 20
-11.1369939433
 10
-2.3341590429
 20
-11.1449977538
 10
-2.3262359225
 20
-11.152866978
 10
-2.3182187492
 20
-11.1605913893
 10
-2.3101179393
 20
-11.1681592563
 10
-2.301943909
 20
-11.1755588475
 10
-2.2937070747
 20
-11.1827784315
 10
-2.2854174328
 20
-11.1898068719
 10
-2.2770833009
 20
-11.1966354122
 10
-2.2687125768
 20
-11.2032558908
 10
-2.2603131585
 20
-11.2096601462
 10
-2.2518929437
 20
-11.2158400168
 10
-2.2425212989
 20
-11.2224348187
 10
-2.2331381697
 20
-11.2287395682
 10
-2.2237479958
 20
-11.2347513071
 10
-2.2143552171
 20
-11.2404670772
 10
-2.2049642734
 20
-11.2458839205
 10
-2.1955796044
 20
-11.2509988786
 10
-2.18620565
 20
-11.2558089934
 10
-2.1768468499
 20
-11.2603113066
 10
-2.1675076439
 20
-11.2645028602
 10
-2.1591238413
 20
-11.2680071736
 10
-2.1507691039
 20
-11.2712555778
 10
-2.1424530297
 20
-11.2742462748
 10
-2.1341852166
 20
-11.2769774668
 10
-2.1259752623
 20
-11.279447356
 10
-2.1178333103
 20
-11.2816545055
 10
-2.1097716864
 20
-11.2835989221
 10
-2.1018032618
 20
-11.2852809736
 10
-2.0939409079
 20
-11.2867010279
 10
-2.086197496
 20
-11.2878594525
 10
-2.0785833969
 20
-11.2887571908
 10
-2.0710989791
 20
-11.2893974873
 10
-2.0637421106
 20
-11.2897841621
 10
-2.0565106596
 20
-11.2899210352
 10
-2.049402494
 20
-11.2898119266
 10
-2.0424144285
 20
-11.2894592942
 10
-2.035539064
 20
-11.2888601472
 10
-2.0287679484
 20
-11.2880101326
 10
-2.0220926292
 20
-11.2869048973
 10
-2.0155046542
 20
-11.2855400885
  0
LWPOLYLINE
  5
246
100
AcDbEntity
  8
0
100
AcDbPolyline
 62
253
  6
CONTINUOUS
 90
31
 70
0
 10
-2.394475169
 20
-11.0446107279
 10
-2.3890186526
 20
-11.0518791281
 10
-2.3835100148
 20
-11.059029795
 10
-2.3779443021
 20
-11.0660723496
 10
-2.3723165609
 20
-11.0730164127
 10
-2.3666218377
 20
-11.0798716054
 10
-2.3608557566
 20
-11.0866460833
 10
-2.3550162536
 20
-11.0933421412
 10
-2.3491018422
 20
-11.0999606086
 10
-2.3431110359
 20
-11.106502315
 10
-2.3370423486
 20
-11.11296809
 10
-2.3308962096
 20
-11.1193568278
 10
-2.3246807124
 20
-11.1256596811
 10
-2.3184058664
 20
-11.1318658674
 10
-2.3120816807
 20
-11.1379646042
 10
-2.3057181649
 20
-11.1439451089
 10
-2.2993254912
 20
-11.14979708
 10
-2.2929144844
 20
-11.155512141
 10
-2.2864961326
 20
-11.1610823964
 10
-2.2800814235
 20
-11.1664999508
 10
-2.2736813451
 20
-11.1717569087
 10
-2.2673048058
 20
-11.1768471436
 10
-2.2609523971
 20
-11.1817716042
 10
-2.2546226306
 20
-11.1865330082
 10
-2.2483140184
 20
-11.1911340734
 10
-2.2420250723
 20
-11.1955775174
 10
-2.2357533572
 20
-11.1998660559
 10
-2.2294926501
 20
-11.2040023973
 10
-2.2232357813
 20
-11.2079892477
 10
-2.2169755808
 20
-11.2118293136
 10
-2.2107048786
 20
-11.2155253012
  0
LWPOLYLINE
  5
247
100
AcDbEntity
  8
0
100
AcDbPolyline
 62
253
  6
CONTINUOUS
 90
16
 70
0
 10
-2.2772115388
 20
-10.8127684648
 10
-2.4021366008
 20
-10.6419558402
 10
-2.525992584
 20
-10.4700826944
 10
-2.648798206
 20
-10.2971237754
 10
-2.7705721846
 20
-10.1230538312
 10
-2.8913332375
 20
-9.9478476099
 10
-3.0110884709
 20
-9.7714972564
 10
-3.1297985454
 20
-9.5940645033
 10
-3.24741251
 20
-9.4156284801
 10
-3.3638794139
 20
-9.2362683164
 10
-3.479148306
 20
-9.0560631415
 10
-3.5931796432
 20
-8.8750745622
 10
-3.7059795133
 20
-8.693294093
 10
-3.8175654116
 20
-8.5106957256
 10
-3.9279548337
 20
-8.3272534518
 10
-4.0371652749
 20
-8.1429412631
  0
LWPOLYLINE
  5
248
100
AcDbEntity
  8
0
100
AcDbPolyline
 62
253
  6
CONTINUOUS
 90
8
 70
0
 10
-9.5355791933
 20
4.5048867531
 10
-9.5322924835
 20
4.4769197882
 10
-9.5243098678
 20
4.4492650035
 10
-9.5117068332
 20
4.4221838804
 10
-9.4946025473
 20
4.3959324768
 10
-9.4731587395
 20
4.3707590138
 10
-9.4475781778
 20
4.3469015275
 10
-9.4181027437
 20
4.3245856067
  0
LWPOLYLINE
  5
249
100
AcDbEntity
  8
0
100
AcDbPolyline
 62
7
  6
CONTINUOUS
 90
13
 70
0
 10
-9.2988173821
 20
3.7149676623
 10
-9.3203556771
 20
3.7008567822
 10
-9.3547850896
 20
3.6747393449
 10
-9.3869020196
 20
3.6456761563
 10
-9.4164394633
 20
3.6138760988
 10
-9.4431564968
 20
3.5795659576
 10
-9.4668985923
 20
3.5428814815
 10
-9.487399457
 20
3.5041537623
 10
-9.504467638
 20
3.463680599
 10
-9.5179956335
 20
3.4215811565
 10
-9.5278050398
 20
3.3781507898
 10
-9.5337252259
 20
3.3338707181
 10
-9.5356694786
 20
3.2891652658
  0
LINE
  5
24A
100
AcDbEntity
  8
0
100
AcDbLine
 62
7
  6
CONTINUOUS
 10
-9.2987670924
 20
3.7149987928
 11
-9.0133952325
 21
3.8915831876
  0
LINE
  5
24B
100
AcDbEntity
  8
0
100
AcDbLine
 62
253
  6
CONTINUOUS
 10
-9.0387551656
 20
3.6962548366
 11
-8.8745784181
 21
3.7978452723
  0
LINE
  5
24C
100
AcDbEntity
  8
0
100
AcDbLine
 62
253
  6
CONTINUOUS
 10
6.8017485742
 20
13.2292877106
 11
9.378159079
 21
14.7928840046
  0
LWPOLYLINE
  5
24D
100
AcDbEntity
  8
0
100
AcDbPolyline
 62
253
  6
CONTINUOUS
 90
9
 70
0
 10
-9.2987670924
 20
3.7149987928
 10
-9.2810943724
 20
3.7245604285
 10
-9.2517820739
 20
3.7352672518
 10
-9.2200791885
 20
3.7410781179
 10
-9.1863376294
 20
3.7419227989
 10
-9.1509371245
 20
3.7377897305
 10
-9.1142707691
 20
3.7287254196
 10
-9.0767390756
 20
3.7148294684
 10
-9.0387551986
 20
3.6962548162
  0
LWPOLYLINE
  5
24E
100
AcDbEntity
  8
0
100
AcDbPolyline
 62
253
  6
CONTINUOUS
 90
16
 70
0
 10
-2.2637660717
 20
-10.7984396475
 10
-2.3885283792
 20
-10.6278614351
 10
-2.5122177044
 20
-10.4562322912
 10
-2.6348531922
 20
-10.2835264569
 10
-2.7564539873
 20
-10.1097181731
 10
-2.8770392347
 20
-9.9347816808
 10
-2.9966162309
 20
-9.7587089993
 10
-3.1151448791
 20
-9.5815632627
 10
-3.2325732344
 20
-9.403425383
 10
-3.3488493517
 20
-9.2243762727
 10
-3.463921286
 20
-9.0444968441
 10
-3.5777487625
 20
-8.863850115
 10
-3.6903381866
 20
-8.6824275249
 10
-3.8017076339
 20
-8.5002026191
 10
-3.91187518
 20
-8.3171489427
 10
-4.0208589004
 20
-8.1332400407
  0
LWPOLYLINE
  5
24F
100
AcDbEntity
  8
0
100
AcDbPolyline
 62
253
  6
CONTINUOUS
 90
88
 70
0
 10
-4.0208589004
 20
-8.1332400407
 10
-4.0249704852
 20
-8.1263924394
 10
-4.0291669752
 20
-8.1197057662
 10
-4.0334575154
 20
-8.1131578589
 10
-4.0378512504
 20
-8.1067265551
 10
-4.0423573254
 20
-8.1003896924
 10
-4.048158478
 20
-8.0925765782
 10
-4.0541472083
 20
-8.0848866289
 10
-4.0603212742
 20
-8.0773300738
 10
-4.0666784333
 20
-8.0699171422
 10
-4.0732130359
 20
-8.0626611462
 10
-4.0799058015
 20
-8.0555877294
 10
-4.0867340418
 20
-8.0487256184
 10
-4.0936750687
 20
-8.0421035395
 10
-4.0992954737
 20
-8.0369967383
 10
-4.1049716663
 20
-8.0320690572
 10
-4.110701771
 20
-8.0273276108
 10
-4.1164839126
 20
-8.0227795138
 10
-4.1223162155
 20
-8.0184318807
 10
-4.1281948787
 20
-8.0142928295
 10
-4.1341083981
 20
-8.0103744915
 10
-4.1400433439
 20
-8.0066900016
 10
-4.1459862862
 20
-8.0032524945
 10
-4.1519237953
 20
-8.0000751048
 10
-4.1578424252
 20
-7.9971687979
 10
-4.1637286642
 20
-7.9945358606
 10
-4.1695689848
 20
-7.9921764106
 10
-4.1753498591
 20
-7.990090565
 10
-4.1810577595
 20
-7.9882784416
 10
-4.1866814249
 20
-7.9867396609
 10
-4.1922186616
 20
-7.9854718575
 10
-4.1976695424
 20
-7.984472169
 10
-4.2030341403
 20
-7.9837377333
 10
-4.2083125281
 20
-7.9832656879
 10
-4.2135040727
 20
-7.9830541037
 10
-4.2186053167
 20
-7.9831047831
 10
-4.2236120964
 20
-7.9834204616
 10
-4.2285202483
 20
-7.9840038747
 10
-4.2333256087
 20
-7.984857758
 10
-4.238022903
 20
-7.9859846203
 10
-4.2426024122
 20
-7.9873860645
 10
-4.2470533062
 20
-7.9890634671
 10
-4.2513647551
 20
-7.9910182042
 10
-4.2555259287
 20
-7.9932516524
 10
-4.2595270543
 20
-7.995763494
 10
-4.2633625886
 20
-7.9985466354
 10
-4.2670280457
 20
-8.0015922892
 10
-4.2705189396
 20
-8.0048916678
 10
-4.2738307845
 20
-8.0084359839
 10
-4.276959773
 20
-8.0122170641
 10
-4.2799048122
 20
-8.0162291923
 10
-4.2826654877
 20
-8.0204672665
 10
-4.2852413852
 20
-8.0249261848
 10
-4.2876320905
 20
-8.0296008452
 10
-4.289836782
 20
-8.0344874474
 10
-4.2918530103
 20
-8.0395873982
 10
-4.2936779186
 20
-8.0449034055
 10
-4.2953086503
 20
-8.0504381778
 10
-4.2967423488
 20
-8.0561944232
 10
-4.2979753883
 20
-8.0621729678
 10
-4.2990010675
 20
-8.0683671081
 10
-4.299811916
 20
-8.0747682587
 10
-4.3004004633
 20
-8.0813678341
 10
-4.3007592391
 20
-8.0881572486
 10
-4.300878301
 20
-8.0939493713
 10
-4.300834238
 20
-8.0998351275
 10
-4.3006286764
 20
-8.1057822804
 10
-4.3002642397
 20
-8.1117633802
 10
-4.2997475401
 20
-8.1177701265
 10
-4.2990861868
 20
-8.1237990062
 10
-4.2982866577
 20
-8.1298488207
 10
-4.2973509061
 20
-8.1359276298
 10
-4.2962797539
 20
-8.1420458074
 10
-4.2944227248
 20
-8.1513062058
 10
-4.2922763334
 20
-8.1606332714
 10
-4.289854883
 20
-8.1699828104
 10
-4.2871761322
 20
-8.1793148686
 10
-4.2842563611
 20
-8.1885969772
 10
-4.2811024805
 20
-8.1978223688
 10
-4.2777200327
 20
-8.2069879636
 10
-4.2741184542
 20
-8.2160797312
 10
-4.2703081556
 20
-8.2250809037
 10
-4.2662995471
 20
-8.2339747131
 10
-4.2629534228
 20
-8.241006025
 10
-4.2594716713
 20
-8.2479783104
 10
-4.2558389211
 20
-8.2549119867
 10
-4.2520398008
 20
-8.2618274712
 10
-4.2480589388
 20
-8.2687451813
  0
LWPOLYLINE
  5
250
100
AcDbEntity
  8
0
100
AcDbPolyline
 62
253
  6
CONTINUOUS
 90
88
 70
0
 10
-4.0371652749
 20
-8.1429412631
 10
-4.0406979277
 20
-8.1370525566
 10
-4.0443037403
 20
-8.1313025006
 10
-4.0479906167
 20
-8.1256719052
 10
-4.051766461
 20
-8.1201415804
 10
-4.0556391771
 20
-8.1146923364
 10
-4.0606256353
 20
-8.1079731319
 10
-4.0657750162
 20
-8.1013585444
 10
-4.0710865301
 20
-8.0948564863
 10
-4.0765593874
 20
-8.0884748702
 10
-4.0821894434
 20
-8.0822247774
 10
-4.0879591337
 20
-8.0761299644
 10
-4.0938475388
 20
-8.0702173563
 10
-4.0998337395
 20
-8.0645138782
 10
-4.1046802012
 20
-8.0601186745
 10
-4.1095720298
 20
-8.0558818001
 10
-4.1145053912
 20
-8.051810509
 10
-4.1194764517
 20
-8.0479120551
 10
-4.1244813773
 20
-8.0441936924
 10
-4.1295154208
 20
-8.0406629449
 10
-4.1345701826
 20
-8.0373284174
 10
-4.1396363495
 20
-8.0341989847
 10
-4.1447046086
 20
-8.0312835215
 10
-4.149765647
 20
-8.0285909027
 10
-4.1548100225
 20
-8.0261285438
 10
-4.1598277774
 20
-8.0238980226
 10
-4.1648088245
 20
-8.0218994576
 10
-4.1697430769
 20
-8.0201329674
 10
-4.1746204477
 20
-8.0185986703
 10
-4.1794322888
 20
-8.0172963803
 10
-4.1841757074
 20
-8.0162246924
 10
-4.1888492499
 20
-8.0153818969
 10
-4.1934514624
 20
-8.014766284
 10
-4.1979808913
 20
-8.0143761442
 10
-4.2024357517
 20
-8.0142104341
 10
-4.2068129349
 20
-8.014270775
 10
-4.211109001
 20
-8.0145594548
 10
-4.2153205102
 20
-8.0150787612
 10
-4.2194440227
 20
-8.0158309819
 10
-4.2234750786
 20
-8.0168182145
 10
-4.2274051374
 20
-8.0180417959
 10
-4.2312246386
 20
-8.0195028731
 10
-4.2349240217
 20
-8.0212025927
 10
-4.2384937261
 20
-8.0231421016
 10
-4.2419250832
 20
-8.0253209401
 10
-4.2452129918
 20
-8.0277322222
 10
-4.2483532427
 20
-8.0303674558
 10
-4.2513416265
 20
-8.0332181483
 10
-4.2541739341
 20
-8.0362758074
 10
-4.2568467148
 20
-8.0395326794
 10
-4.2593595526
 20
-8.0429839651
 10
-4.2617127902
 20
-8.0466256039
 10
-4.2639067702
 20
-8.0504535353
 10
-4.2659418353
 20
-8.0544636987
 10
-4.2678178632
 20
-8.0586532336
 10
-4.2695328718
 20
-8.0630240797
 10
-4.2710844137
 20
-8.0675793766
 10
-4.2724700419
 20
-8.0723222641
 10
-4.2736873093
 20
-8.0772558818
 10
-4.274733068
 20
-8.0823815254
 10
-4.2756013675
 20
-8.0876931144
 10
-4.2762855567
 20
-8.0931827242
 10
-4.2767789846
 20
-8.0988424302
 10
-4.277075
 20
-8.1046643077
 10
-4.2771669994
 20
-8.1096301116
 10
-4.2771189562
 20
-8.1146748983
 10
-4.2769325386
 20
-8.1197705346
 10
-4.2766102841
 20
-8.1248928921
 10
-4.2761582082
 20
-8.1300338623
 10
-4.2755831956
 20
-8.1351893415
 10
-4.2748911325
 20
-8.1403574746
 10
-4.2740839121
 20
-8.1455454016
 10
-4.2731624289
 20
-8.150762511
 10
-4.2715692494
 20
-8.158652379
 10
-4.269731997
 20
-8.1665944131
 10
-4.2676621847
 20
-8.1745550905
 10
-4.2653733567
 20
-8.1825052726
 10
-4.2628777418
 20
-8.1904214936
 10
-4.260180276
 20
-8.1982985944
 10
-4.2572850329
 20
-8.2061335034
 10
-4.2541999306
 20
-8.2139131938
 10
-4.2509338483
 20
-8.2216221497
 10
-4.2474956652
 20
-8.2292448553
 10
-4.244624208
 20
-8.2352746943
 10
-4.2416350459
 20
-8.2412566671
 10
-4.2385149358
 20
-8.247208038
 10
-4.2352506347
 20
-8.2531460713
 10
-4.2318288995
 20
-8.2590880311
  0
LWPOLYLINE
  5
251
100
AcDbEntity
  8
0
100
AcDbPolyline
 62
253
  6
CONTINUOUS
 90
16
 70
0
 10
-4.2480589388
 20
-8.2687451813
 10
-4.1341873038
 20
-8.4613553498
 10
-4.0190430489
 20
-8.6530523016
 10
-3.9026120586
 20
-8.8438571021
 10
-3.7848802175
 20
-9.0337908168
 10
-3.6658334104
 20
-9.2228745109
 10
-3.5454665791
 20
-9.4111149634
 10
-3.4238108944
 20
-9.5984618071
 10
-3.3009065844
 20
-9.7848503886
 10
-3.1767938771
 20
-9.9702160543
 10
-3.0515130006
 20
-10.1544941507
 10
-2.9250946508
 20
-10.3376339121
 10
-2.7975313953
 20
-10.5196401236
 10
-2.6688062694
 20
-10.7005314585
 10
-2.5389023087
 20
-10.8803265899
 10
-2.4078025484
 20
-11.0590441906
  0
LWPOLYLINE
  5
252
100
AcDbEntity
  8
0
100
AcDbPolyline
 62
253
  6
CONTINUOUS
 90
16
 70
0
 10
-4.2318288995
 20
-8.2590880311
 10
-4.1181368413
 20
-8.4513622689
 10
-4.003174275
 20
-8.6427256943
 10
-3.8869271429
 20
-8.8331992663
 10
-3.7693813872
 20
-9.0228039441
 10
-3.6505229501
 20
-9.2115606866
 10
-3.5303467868
 20
-9.3994762338
 10
-3.408883904
 20
-9.5865004483
 10
-3.2861743213
 20
-9.7725689736
 10
-3.1622580582
 20
-9.9576174532
 10
-3.0371751344
 20
-10.1415815307
 10
-2.9109560806
 20
-10.324410668
 10
-2.7835934713
 20
-10.5061096015
 10
-2.6550703924
 20
-10.6866968861
 10
-2.5253699297
 20
-10.8661910766
 10
-2.394475169
 20
-11.0446107279
  0
LWPOLYLINE
  5
253
100
AcDbEntity
  8
0
100
AcDbPolyline
 62
7
  6
CONTINUOUS
 90
5
 70
0
 10
-9.5061336519
 20
4.3406283441
 10
-9.5189578595
 20
4.3817421548
 10
-9.5282399066
 20
4.424056388
 10
-9.5338345046
 20
4.4671320789
 10
-9.535669413
 20
4.5105825463
  0
LINE
  5
254
100
AcDbEntity
  8
0
100
AcDbLine
 62
253
  6
CONTINUOUS
 10
-4.1346506792
 20
22.4475794602
 11
-4.1346506617
 21
22.3856061964
  0
LWPOLYLINE
  5
255
100
AcDbEntity
  8
0
100
AcDbPolyline
 62
7
  6
CONTINUOUS
 90
4
 70
0
 10
-9.4477602747
 20
4.2267688746
 10
-9.4704114586
 20
4.2629509778
 10
-9.4899208873
 20
4.3009920653
 10
-9.5061336519
 20
4.3406283441
  0
LINE
  5
256
100
AcDbEntity
  8
0
100
AcDbLine
 62
7
  6
CONTINUOUS
 10
-3.9544160308
 20
22.8617614696
 11
-3.9332124168
 21
22.2453376741
  0
LINE
  5
257
100
AcDbEntity
  8
0
100
AcDbLine
 62
7
  6
CONTINUOUS
 10
3.9651799185
 20
18.2890860243
 11
3.7849452701
 21
17.874904015
  0
LWPOLYLINE
  5
258
100
AcDbEntity
  8
0
100
AcDbPolyline
 62
253
  6
CONTINUOUS
 90
10
 70
0
 10
5.32694826
 20
-5.4103903664
 10
3.5652850686
 20
-4.5384000416
 10
1.8337460687
 20
-3.6475121918
 10
0.1326698413
 20
-2.7379176701
 10
-1.5375078317
 20
-1.8098675519
 10
-3.176558861
 20
-0.8635000573
 10
-4.7844510839
 20
0.1011662522
 10
-6.3609450505
 20
1.0839996621
 10
-7.9056057957
 20
2.0847485052
 10
-9.4181026022
 20
3.1032172062
  0
LWPOLYLINE
  5
259
100
AcDbEntity
  8
0
100
AcDbPolyline
 62
253
  6
CONTINUOUS
 90
10
 70
0
 10
5.6459570258
 20
-4.7825138999
 10
3.8909482669
 20
-3.9137225572
 10
2.1666077477
 20
-3.0265064873
 10
0.4729354682
 20
-2.12086569
 10
-1.1903022759
 20
-1.19666522
 10
-2.8228717803
 20
-0.2540400228
 10
-4.4240719328
 20
0.7066050652
 10
-5.9936690291
 20
1.6851350983
 10
-7.5318967733
 20
2.6816850221
 10
-9.0387551656
 20
3.6962548366
  0
LWPOLYLINE
  5
25A
100
AcDbEntity
  8
0
100
AcDbPolyline
 62
7
  6
CONTINUOUS
 90
13
 70
0
 10
-9.3181229782
 20
4.097354684
 10
-8.231635255
 20
3.3636892802
 10
-7.0742073249
 20
2.6037444728
 10
-5.898095241
 20
1.853326
 10
-4.7035652394
 20
1.1126230945
 10
-3.4908659882
 20
0.381807916
 10
-2.2602168091
 20
-0.3389899125
 10
-1.011853924
 20
-1.0496365847
 10
0.2539865268
 20
-1.7499982132
 10
1.5370756611
 20
-2.4399505657
 10
2.8371106108
 20
-3.1193523014
 10
4.1537589627
 20
-3.7880520526
 10
5.430091935
 20
-4.4183481952
  0
LINE
  5
25B
100
AcDbEntity
  8
0
100
AcDbLine
 62
7
  6
CONTINUOUS
 10
-9.3181158389
 20
4.0973498135
 11
-9.3180482406
 21
4.0973035117
  0
LWPOLYLINE
  5
25C
100
AcDbEntity
  8
0
100
AcDbPolyline
 62
7
  6
CONTINUOUS
 90
6
 70
0
 10
-9.3180482406
 20
4.0973035117
 10
-9.3298084116
 20
4.1056025096
 10
-9.3630139072
 20
4.1319826538
 10
-9.3938888298
 20
4.161106805
 10
-9.4222014416
 20
4.1927677039
 10
-9.4477602747
 20
4.2267688746
  0
LWPOLYLINE
  5
25D
100
AcDbEntity
  8
0
100
AcDbPolyline
 62
253
  6
CONTINUOUS
 90
9
 70
0
 10
-9.4181028106
 20
3.1032172651
 10
-9.4475782447
 20
3.1255527469
 10
-9.4731588065
 20
3.149441455
 10
-9.4946026143
 20
3.1746575056
 10
-9.5117069001
 20
3.2009624595
 10
-9.5243099348
 20
3.2281075895
 10
-9.5322925505
 20
3.2558362327
 10
-9.5355792602
 20
3.2838862091
 10
-9.5356694786
 20
3.2891652656
  0
LWPOLYLINE
  5
25E
100
AcDbEntity
  8
0
100
AcDbPolyline
 62
253
  6
CONTINUOUS
 90
16
 70
0
 10
5.326948348
 20
-4.1890221833
 10
5.3656151044
 20
-4.2060507109
 10
5.4069618568
 20
-4.2208362182
 10
5.4505976437
 20
-4.2332388981
 10
5.4961098523
 20
-4.2431414735
 10
5.5430681404
 20
-4.2504503107
 10
5.5910285068
 20
-4.2550963016
 10
5.6395374766
 20
-4.2570355119
 10
5.6881363423
 20
-4.2562495986
 10
5.7363655228
 20
-4.2527459939
 10
5.7837689567
 20
-4.2465578341
 10
5.8298984361
 20
-4.2377436354
 10
5.8743177984
 20
-4.2263867395
 10
5.9166070353
 20
-4.2125945312
 10
5.9563662662
 20
-4.1964974267
 10
5.9932195406
 20
-4.1782476352
  0
LWPOLYLINE
  5
25F
100
AcDbEntity
  8
0
100
AcDbPolyline
 62
7
  6
CONTINUOUS
 90
12
 70
0
 10
5.4302591265
 20
-4.4184296877
 10
5.4421974799
 20
-4.4240456081
 10
5.4868361107
 20
-4.4417944924
 10
5.5330725719
 20
-4.4552017242
 10
5.5805397071
 20
-4.4641217724
 10
5.628818851
 20
-4.4684274472
 10
5.6774442686
 20
-4.4680292741
 10
5.7259607761
 20
-4.4628847162
 10
5.7739186247
 20
-4.4529914223
 10
5.8208299525
 20
-4.4383991471
 10
5.8661836102
 20
-4.4192249111
 10
5.8859880488
 20
-4.409128195
  0
LINE
  5
260
100
AcDbEntity
  8
0
100
AcDbLine
 62
7
  6
CONTINUOUS
 10
5.4301408756
 20
-4.4183720835
 11
5.4302591265
 21
-4.4184296877
  0
LWPOLYLINE
  5
261
100
AcDbEntity
  8
0
100
AcDbPolyline
 62
253
  6
CONTINUOUS
 90
10
 70
0
 10
-9.4181026096
 20
4.3245855134
 10
-7.9056067214
 20
3.3087291104
 10
-6.3609466987
 20
2.3099396814
 10
-4.7844532439
 20
1.3284126281
 10
-3.1765613076
 20
0.3643995062
 10
-1.5375103252
 20
-0.5819680155
 10
0.1326675545
 20
-1.5106713673
 10
1.833744256
 20
-2.4215722675
 10
3.5652840109
 20
-3.3144195126
 10
5.3269482512
 20
-4.1890220601
  0
LINE
  5
262
100
AcDbEntity
  8
0
100
AcDbLine
 62
253
  6
CONTINUOUS
 10
3.7849452701
 20
17.874904015
 11
3.7849450789
 21
17.8129312177
  0
LINE
  5
263
100
AcDbEntity
  8
0
100
AcDbLine
 62
7
  6
CONTINUOUS
 10
9.571234009
 20
-2.5932310531
 11
9.4214013237
 21
-2.5067195385
  0
LWPOLYLINE
  5
264
100
AcDbEntity
  8
0
100
AcDbPolyline
 62
253
  6
CONTINUOUS
 90
50
 70
0
 10
-2.0204892067
 20
9.778580425
 10
-2.0271749736
 20
9.7880005963
 10
-2.0339429607
 20
9.7972335844
 10
-2.0408015163
 20
9.8062949076
 10
-2.0477589885
 20
9.815200084
 10
-2.0548237257
 20
9.823964632
 10
-2.0620026499
 20
9.8326010233
 10
-2.0692969783
 20
9.841109544
 10
-2.0767065019
 20
9.8494874336
 10
-2.0842310117
 20
9.8577319315
 10
-2.0918702985
 20
9.8658402775
 10
-2.099622498
 20
9.8738081893
 10
-2.1074791238
 20
9.8816252987
 10
-2.1154300342
 20
9.8892797157
 10
-2.1234650877
 20
9.8967595504
 10
-2.1315741424
 20
9.9040529128
 10
-2.1397474616
 20
9.9111485164
 10
-2.1479769284
 20
9.918037489
 10
-2.1562548306
 20
9.9247115618
 10
-2.1645734562
 20
9.9311624659
 10
-2.1729250932
 20
9.9373819325
 10
-2.1822350535
 20
9.9440123502
 10
-2.1915718285
 20
9.950343864
 10
-2.2009309993
 20
9.9563735038
 10
-2.2103081468
 20
9.9620982992
 10
-2.2196988519
 20
9.9675152802
 10
-2.2290986958
 20
9.9726214765
 10
-2.2385032593
 20
9.977413918
 10
-2.2479081235
 20
9.9818896344
 10
-2.2573088694
 20
9.9860456555
 10
-2.2657612724
 20
9.98951036
 10
-2.2741969704
 20
9.9927120185
 10
-2.2826061735
 20
9.995648944
 10
-2.2909790918
 20
9.9983194497
 10
-2.2993059354
 20
10.0007218484
 10
-2.3075763376
 20
10.0028548324
 10
-2.315777623
 20
10.0047186102
 10
-2.3238965396
 20
10.0063137696
 10
-2.331919835
 20
10.0076408982
 10
-2.3398342571
 20
10.0087005837
 10
-2.3476291002
 20
10.0094939626
 10
-2.355303845
 20
10.0100243667
 10
-2.3628605184
 20
10.0102956766
 10
-2.3703011478
 20
10.0103117728
 10
-2.3776277601
 20
10.0100765358
 10
-2.3848435412
 20
10.0095924233
 10
-2.3919563109
 20
10.0088562015
 10
-2.3989750476
 20
10.0078632136
 10
-2.4059087296
 20
10.0066088028
 10
-2.4127663355
 20
10.0050883125
  0
LWPOLYLINE
  5
265
100
AcDbEntity
  8
0
100
AcDbPolyline
 62
253
  6
CONTINUOUS
 90
31
 70
0
 10
-2.0351502914
 20
9.7633768976
 10
-2.0403903541
 20
9.7707702753
 10
-2.04569054
 20
9.7780412998
 10
-2.0510554165
 20
9.7851998147
 10
-2.0564895511
 20
9.7922556638
 10
-2.0619975115
 20
9.7992186911
 10
-2.0675833483
 20
9.8060972397
 10
-2.0732490454
 20
9.812893651
 10
-2.0789960697
 20
9.8196087656
 10
-2.0848258883
 20
9.8262434242
 10
-2.0907399682
 20
9.8327984676
 10
-2.0967379048
 20
9.8392727756
 10
-2.1028118069
 20
9.8456573842
 10
-2.1089519115
 20
9.8519413685
 10
-2.1151484559
 20
9.8581138038
 10
-2.1213916771
 20
9.864163765
 10
-2.1276716209
 20
9.870080825
 10
-2.1339775668
 20
9.8758565468
 10
-2.1402986031
 20
9.881482991
 10
-2.1466238178
 20
9.8869522183
 10
-2.1529422992
 20
9.8922562894
 10
-2.1592451865
 20
9.8973890499
 10
-2.1655318234
 20
9.9023514864
 10
-2.1718036049
 20
9.9071463702
 10
-2.1780619258
 20
9.911776473
 10
-2.1843081808
 20
9.9162445662
 10
-2.1905447417
 20
9.9205534024
 10
-2.1967778867
 20
9.9247056577
 10
-2.203014871
 20
9.9287039892
 10
-2.2092629495
 20
9.9325510542
 10
-2.2155293774
 20
9.9362495097
  0
LWPOLYLINE
  5
266
100
AcDbEntity
  8
0
100
AcDbPolyline
 62
253
  6
CONTINUOUS
 90
16
 70
0
 10
-2.1697329487
 20
9.5215348452
 10
-2.0499814909
 20
9.3477350463
 10
-1.9310080902
 20
9.1730427586
 10
-1.8127972728
 20
8.997430857
 10
-1.6953335649
 20
8.8208722166
 10
-1.5786014926
 20
8.6433397124
 10
-1.4625970042
 20
8.4648237257
 10
-1.3473617371
 20
8.2853846624
 10
-1.2329487507
 20
8.1051004345
 10
-1.1194111045
 20
7.9240489541
 10
-1.006801858
 20
7.7423081332
 10
-0.8951631148
 20
7.5599381001
 10
-0.7844931545
 20
7.3769278477
 10
-0.6747793008
 20
7.1932485852
 10
-0.5660088776
 20
7.0088715217
 10
-0.4581692085
 20
6.8237678664
  0
LWPOLYLINE
  5
267
100
AcDbEntity
  8
0
100
AcDbPolyline
 62
253
  6
CONTINUOUS
 90
16
 70
0
 10
-2.1844256166
 20
9.5064859099
 10
-2.0648550774
 20
9.3329100355
 10
-1.9460667377
 20
9.158451124
 10
-1.828044749
 20
8.9830815131
 10
-1.7107732625
 20
8.8067735407
 10
-1.5942364296
 20
8.6294995446
 10
-1.4784300531
 20
8.4512497547
 10
-1.363396541
 20
8.2720859702
 10
-1.2491899532
 20
8.0920878824
 10
-1.1358643491
 20
7.9113351827
 10
-1.0234737885
 20
7.7299075625
 10
-0.9120611228
 20
7.5478665519
 10
-0.8016243704
 20
7.3652010362
 10
-0.6921503418
 20
7.1818817395
 10
-0.5836258471
 20
6.9978793857
 10
-0.4760376967
 20
6.8131646991
  0
LWPOLYLINE
  5
268
100
AcDbEntity
  8
0
100
AcDbPolyline
 62
253
  6
CONTINUOUS
 90
88
 70
0
 10
-0.4760376967
 20
6.8131646991
 10
-0.471967399
 20
6.8062932591
 10
-0.467798404
 20
6.7995907107
 10
-0.4635219609
 20
6.7930346639
 10
-0.4591293191
 20
6.7866027288
 10
-0.4546117276
 20
6.7802725157
 10
-0.4487788533
 20
6.7724777172
 10
-0.4427389202
 20
6.7648173317
 10
-0.4364937763
 20
6.7573018162
 10
-0.4300452697
 20
6.7499416274
 10
-0.4233987517
 20
6.74275025
 10
-0.4165735874
 20
6.7357532786
 10
-0.409592645
 20
6.7289793358
 10
-0.4024787929
 20
6.722457044
 10
-0.3967057089
 20
6.7174383978
 10
-0.3908638572
 20
6.7126063662
 10
-0.3849548967
 20
6.7079681889
 10
-0.3789804862
 20
6.7035311055
 10
-0.3729422846
 20
6.6993023557
 10
-0.366843967
 20
6.6952901302
 10
-0.3606972732
 20
6.6915064243
 10
-0.3545159594
 20
6.6879641841
 10
-0.3483137819
 20
6.6846763561
 10
-0.3421044967
 20
6.6816558866
 10
-0.3359019847
 20
6.6789134897
 10
-0.3297206246
 20
6.6764509516
 10
-0.3235749201
 20
6.6742678264
 10
-0.3174793745
 20
6.6723636681
 10
-0.3114484914
 20
6.6707380308
 10
-0.3054943707
 20
6.6693900509
 10
-0.2996194981
 20
6.6683171942
 10
-0.2938239558
 20
6.667516509
 10
-0.2881078259
 20
6.6669850434
 10
-0.2824711905
 20
6.6667198457
 10
-0.2769148447
 20
6.6667188931
 10
-0.2714424344
 20
6.6669838792
 10
-0.2660583187
 20
6.6675174269
 10
-0.2607668565
 20
6.6683221586
 10
-0.2555724065
 20
6.6694006973
 10
-0.2504805323
 20
6.6707553851
 10
-0.2455016147
 20
6.6723874428
 10
-0.2406472392
 20
6.6742978104
 10
-0.2359289913
 20
6.6764874283
 10
-0.2313584563
 20
6.6789572366
 10
-0.2269461656
 20
6.6817064798
 10
-0.2226984336
 20
6.6847276189
 10
-0.2186205207
 20
6.6880114195
 10
-0.2147176873
 20
6.6915486469
 10
-0.2109951936
 20
6.6953300664
 10
-0.2074575417
 20
6.6993471037
 10
-0.2041062003
 20
6.7035938257
 10
-0.2009418799
 20
6.7080649594
 10
-0.1979652908
 20
6.712755232
 10
-0.1951771435
 20
6.7176593704
 10
-0.1925785226
 20
6.7227734226
 10
-0.1901720091
 20
6.7280987191
 10
-0.1879605584
 20
6.7336379112
 10
-0.1859471257
 20
6.7393936502
 10
-0.1841346665
 20
6.7453685874
 10
-0.1825270497
 20
6.7515634081
 10
-0.1811317996
 20
6.7579709341
 10
-0.1799573541
 20
6.7645820211
 10
-0.1790121512
 20
6.7713875249
 10
-0.1783046287
 20
6.7783783014
 10
-0.1779018258
 20
6.7843342525
 10
-0.177669722
 20
6.7903794641
 10
-0.1776081007
 20
6.796480885
 10
-0.1777154463
 20
6.8026104259
 10
-0.1779850475
 20
6.8087598437
 10
-0.1784088939
 20
6.8149258569
 10
-0.1789800796
 20
6.8211075141
 10
-0.1796961167
 20
6.8273131836
 10
-0.1805556216
 20
6.8335535638
 10
-0.1821095806
 20
6.8429889509
 10
-0.1839709152
 20
6.8524806049
 10
-0.186126334
 20
6.8619837471
 10
-0.1885586376
 20
6.8714581008
 10
-0.1912518583
 20
6.8808710169
 10
-0.1941988636
 20
6.8902158557
 10
-0.1973938161
 20
6.8994897079
 10
-0.2008272231
 20
6.9086785755
 10
-0.2044886781
 20
6.9177656885
 10
-0.2083677745
 20
6.9267342766
 10
-0.2116242316
 20
6.9338173612
 10
-0.2150288192
 20
6.9408342
 10
-0.2185970375
 20
6.9478051362
 10
-0.2223443865
 20
6.9547505128
 10
-0.2262863666
 20
6.9616906729
  0
LWPOLYLINE
  5
269
100
AcDbEntity
  8
0
100
AcDbPolyline
 62
253
  6
CONTINUOUS
 90
88
 70
0
 10
-0.4581692085
 20
6.8237678664
 10
-0.4546713542
 20
6.8178590676
 10
-0.4510884713
 20
6.8120957723
 10
-0.4474129996
 20
6.806458592
 10
-0.4436373786
 20
6.8009281383
 10
-0.4397540478
 20
6.795485023
 10
-0.4347394311
 20
6.788782077
 10
-0.4295451255
 20
6.7821934284
 10
-0.4241715519
 20
6.7757272028
 10
-0.4186191308
 20
6.7693915258
 10
-0.4128917254
 20
6.7631976414
 10
-0.4070069674
 20
6.757169267
 10
-0.4009859313
 20
6.7513332383
 10
-0.394849691
 20
6.7457163912
 10
-0.3898707411
 20
6.7413976846
 10
-0.3848353019
 20
6.7372437292
 10
-0.3797471272
 20
6.7332618253
 10
-0.374609971
 20
6.729459273
 10
-0.3694275869
 20
6.7258433725
 10
-0.3642046953
 20
6.7224216636
 10
-0.3589498818
 20
6.7192026434
 10
-0.3536726985
 20
6.716195049
 10
-0.3483826973
 20
6.7134076169
 10
-0.3430894302
 20
6.7108490841
 10
-0.3378026592
 20
6.7085266812
 10
-0.3325329851
 20
6.7064416151
 10
-0.3272912186
 20
6.7045935861
 10
-0.3220881706
 20
6.7029822951
 10
-0.3169346517
 20
6.7016074425
 10
-0.3118399469
 20
6.7004684745
 10
-0.3068072383
 20
6.699563819
 10
-0.3018381822
 20
6.6988916493
 10
-0.2969344348
 20
6.6984501389
 10
-0.2920976525
 20
6.6982374611
 10
-0.2873298151
 20
6.69825246
 10
-0.2826341961
 20
6.6984966617
 10
-0.2780143927
 20
6.6989722634
 10
-0.273474002
 20
6.6996814618
 10
-0.269016621
 20
6.700626454
 10
-0.2646469512
 20
6.7018091981
 10
-0.2603741114
 20
6.703230697
 10
-0.2562083247
 20
6.704891715
 10
-0.2521598144
 20
6.7067930163
 10
-0.2482388035
 20
6.7089353652
 10
-0.2444546349
 20
6.7113179126
 10
-0.2408131297
 20
6.713933357
 10
-0.2373192288
 20
6.7167727836
 10
-0.2339778728
 20
6.7198272778
 10
-0.2307940026
 20
6.7230879248
 10
-0.2277717092
 20
6.726546601
 10
-0.224911685
 20
6.7301983478
 10
-0.2222137724
 20
6.7340389977
 10
-0.219677814
 20
6.7380643831
 10
-0.2173036524
 20
6.7422703365
 10
-0.2150915713
 20
6.7466539043
 10
-0.2130436191
 20
6.7512169879
 10
-0.2111622855
 20
6.7559627024
 10
-0.2094500601
 20
6.760894163
 10
-0.2079094324
 20
6.7660144849
 10
-0.2065437309
 20
6.7713248596
 10
-0.2053596386
 20
6.7768187833
 10
-0.2043646775
 20
6.7824878289
 10
-0.2035663692
 20
6.788323569
 10
-0.2029722358
 20
6.7943175761
 10
-0.2026377167
 20
6.7994234079
 10
-0.2024497537
 20
6.8046044616
 10
-0.2024078916
 20
6.8098319037
 10
-0.2025105509
 20
6.8150810528
 10
-0.2027516557
 20
6.820343835
 10
-0.2031240064
 20
6.8256163287
 10
-0.2036213676
 20
6.8308968802
 10
-0.2042413627
 20
6.8361929087
 10
-0.2049825795
 20
6.8415141017
 10
-0.2063177021
 20
6.8495529684
 10
-0.2079122046
 20
6.8576351633
 10
-0.2097552986
 20
6.865726745
 10
-0.2118338092
 20
6.8737983618
 10
-0.2141357035
 20
6.8818264346
 10
-0.2166559038
 20
6.8898058863
 10
-0.2193901588
 20
6.8977337478
 10
-0.2223305686
 20
6.9055969819
 10
-0.2254683212
 20
6.9133800338
 10
-0.2287946043
 20
6.921067349
 10
-0.2315884311
 20
6.9271420108
 10
-0.2345106459
 20
6.9331626381
 10
-0.2375746168
 20
6.9391464231
 10
-0.2407937121
 20
6.9451105577
 10
-0.2441812997
 20
6.9510722338
  0
LWPOLYLINE
  5
26A
100
AcDbEntity
  8
0
100
AcDbPolyline
 62
253
  6
CONTINUOUS
 90
16
 70
0
 10
-0.2441812997
 20
6.9510722338
 10
-0.3567809499
 20
7.1439772143
 10
-0.4703845302
 20
7.3361253012
 10
-0.5850009292
 20
7.5275404381
 10
-0.7006390357
 20
7.7182465686
 10
-0.8173077382
 20
7.9082676365
 10
-0.9350072719
 20
8.0976131585
 10
-1.0537032588
 20
8.286234944
 10
-1.1733526673
 20
8.4740703756
 10
-1.2939124657
 20
8.6610568358
 10
-1.4153396227
 20
8.8471317072
 10
-1.5376004713
 20
9.0322462626
 10
-1.6606988048
 20
9.2164073356
 10
-1.7846477807
 20
9.3996356499
 10
-1.9094605569
 20
9.5819519293
 10
-2.0351502914
 20
9.7633768976
  0
LWPOLYLINE
  5
26B
100
AcDbEntity
  8
0
100
AcDbPolyline
 62
253
  6
CONTINUOUS
 90
16
 70
0
 10
-0.2262863666
 20
6.9616906729
 10
-0.3390922612
 20
7.1549161865
 10
-0.4529035782
 20
7.34738276
 10
-0.5677292544
 20
7.5391144488
 10
-0.6835782264
 20
7.7301353085
 10
-0.8004594309
 20
7.9204693944
 10
-0.9183731072
 20
8.1101262678
 10
-1.0372847051
 20
8.2990575128
 10
-1.1571509768
 20
8.4872002195
 10
-1.2779286748
 20
8.6744914779
 10
-1.3995745511
 20
8.8608683778
 10
-1.5220547684
 20
9.0462819675
 10
-1.6453731296
 20
9.2307391279
 10
-1.7695428476
 20
9.4142606981
 10
-1.8945771357
 20
9.5968675175
 10
-2.0204892067
 20
9.778580425
  0
LWPOLYLINE
  5
26C
100
AcDbEntity
  8
0
100
AcDbPolyline
 62
253
  6
CONTINUOUS
 90
16
 70
0
 10
5.9932196097
 20
-5.398363118
 10
5.9910516765
 20
-5.3552546147
 10
5.9851989511
 20
-5.3102131902
 10
5.9756877472
 20
-5.2637084114
 10
5.9625687952
 20
-5.2161812154
 10
5.9459592106
 20
-5.1681968717
 10
5.9260792264
 20
-5.1204400107
 10
5.9031763837
 20
-5.0734915433
 10
5.8774805247
 20
-5.0278107089
 10
5.8492665139
 20
-4.9838889012
 10
5.818837199
 20
-4.9422036708
 10
5.7865304394
 20
-4.9032235099
 10
5.7527098453
 20
-4.8673891757
 10
5.7177509581
 20
-4.8350979629
 10
5.6820356314
 20
-4.8067019986
 10
5.6459570257
 20
-4.7825139
  0
LWPOLYLINE
  5
26D
100
AcDbEntity
  8
0
100
AcDbPolyline
 62
253
  6
CONTINUOUS
 90
9
 70
0
 10
5.326948348
 20
-4.1890221833
 10
5.3290614041
 20
-4.231249359
 10
5.3341475843
 20
-4.2694610555
 10
5.3423318926
 20
-4.3040030354
 10
5.3541466442
 20
-4.3353547725
 10
5.3694784142
 20
-4.3631710876
 10
5.3874687436
 20
-4.3864684654
 10
5.4082743698
 20
-4.405143705
 10
5.4301408756
 20
-4.4183720835
  0
LWPOLYLINE
  5
26E
100
AcDbEntity
  8
0
100
AcDbPolyline
 62
253
  6
CONTINUOUS
 90
4
 70
0
 10
6.3188524269
 20
-21.6380460461
 10
6.2512201918
 20
-19.7879425237
 10
6.1917594073
 20
-17.964484758
 10
6.1404700733
 20
-16.167672749
  0
LWPOLYLINE
  5
26F
100
AcDbEntity
  8
0
100
AcDbPolyline
 62
253
  6
CONTINUOUS
 90
10
 70
0
 10
5.6459210167
 20
-21.6633047909
 10
5.5790432323
 20
-19.8124603763
 10
5.5209216784
 20
-17.9876627751
 10
5.471176182
 20
-16.1891884918
 10
5.4298704935
 20
-14.4376365713
 10
5.3960413467
 20
-12.7130325886
 10
5.3684870937
 20
-10.9543531057
 10
5.3473634197
 20
-9.1409485688
 10
5.3333940719
 20
-7.2930196361
 10
5.32694826
 20
-5.4103903664
  0
LINE
  5
270
100
AcDbEntity
  8
0
100
AcDbLine
 62
7
  6
CONTINUOUS
 10
3.9651799185
 20
18.2890860243
 11
3.9863835325
 21
17.6726622288
  0
LWPOLYLINE
  5
271
100
AcDbEntity
  8
0
100
AcDbPolyline
 62
253
  6
CONTINUOUS
 90
7
 70
0
 10
6.1404700733
 20
-16.167672749
 10
6.0977638538
 20
-14.417802736
 10
6.0632290849
 20
-12.6945784797
 10
6.0356307752
 20
-10.9371112616
 10
6.0145572608
 20
-9.1251048423
 10
6.0004202057
 20
-7.2788554611
 10
5.9932196097
 20
-5.398363118
  0
LWPOLYLINE
  5
272
100
AcDbEntity
  8
0
100
AcDbPolyline
 62
253
  6
CONTINUOUS
 90
10
 70
0
 10
5.9932195395
 20
-4.1782476358
 10
5.9982335642
 20
-2.4907855315
 10
6.0104381522
 20
-0.7744055125
 10
6.0298333033
 20
0.9708924213
 10
6.0556172993
 20
2.7314667613
 10
6.0885918584
 20
4.5209590159
 10
6.1311621362
 20
6.3802937111
 10
6.184129851
 20
8.3231123551
 10
6.2466932844
 20
10.3357734396
 10
6.3188524364
 20
12.4182769646
  0
LWPOLYLINE
  5
273
100
AcDbEntity
  8
0
100
AcDbPolyline
 62
253
  6
CONTINUOUS
 90
10
 70
0
 10
5.3269482512
 20
-4.1890220601
 10
5.3323339311
 20
-2.4995879474
 10
5.3441934377
 20
-0.7813747387
 10
5.3628084156
 20
0.9657454761
 10
5.3882425613
 20
2.7285112639
 10
5.420903571
 20
4.5203805392
 10
5.4620590828
 20
6.3818156663
 10
5.512870649
 20
8.3266799719
 10
5.5738780494
 20
10.3419519033
 10
5.6459210173
 20
12.4280319413
  0
LWPOLYLINE
  5
274
100
AcDbEntity
  8
0
100
AcDbPolyline
 62
253
  6
CONTINUOUS
 90
16
 70
0
 10
5.3269484187
 20
-5.4103904456
 10
5.3290612261
 20
-5.366092065
 10
5.3341470656
 20
-5.3206162715
 10
5.3423309265
 20
-5.2741166149
 10
5.3541450264
 20
-5.2265468782
 10
5.3694759972
 20
-5.1780856697
 10
5.3874656187
 20
-5.1295814999
 10
5.4082706858
 20
-5.0820562914
 10
5.432096669
 20
-5.0357430035
 10
5.4579742558
 20
-4.9908055612
 10
5.4858472872
 20
-4.948116064
 10
5.5158287734
 20
-4.9082925508
 10
5.5470172285
 20
-4.8712505981
 10
5.5790274231
 20
-4.8374247151
 10
5.6120480543
 20
-4.8076756697
 10
5.6459570257
 20
-4.7825139
  0
LWPOLYLINE
  5
275
100
AcDbEntity
  8
0
100
AcDbPolyline
 62
253
  6
CONTINUOUS
 90
9
 70
0
 10
5.9932195397
 20
-4.1782476357
 10
5.9910516025
 20
-4.2194739058
 10
5.9851988681
 20
-4.2581435484
 10
5.9756876524
 20
-4.2938108144
 10
5.9625686888
 20
-4.3260890836
 10
5.9459590951
 20
-4.3545466696
 10
5.9260791046
 20
-4.3787569844
 10
5.9031762602
 20
-4.3984325629
 10
5.8859880488
 20
-4.409128195
  0
LWPOLYLINE
  5
276
100
AcDbEntity
  8
0
100
AcDbPolyline
 62
253
  6
CONTINUOUS
 90
22
 70
0
 10
5.6459210337
 20
12.4280319457
 10
5.6504279225
 20
12.4993832147
 10
5.6590375914
 20
12.5726216825
 10
5.6717097209
 20
12.6473843556
 10
5.6883901452
 20
12.7232917408
 10
5.70899546
 20
12.7999753133
 10
5.7334160047
 20
12.8770798702
 10
5.7615455597
 20
12.9542260991
 10
5.7932504382
 20
13.0310251982
 10
5.8283561054
 20
13.1071067573
 10
5.8667032763
 20
13.1820881564
 10
5.9081126703
 20
13.2555952331
 10
5.9523570488
 20
13.3272773037
 10
5.9992354834
 20
13.3967735681
 10
6.048527665
 20
13.4637327821
 10
6.0999585397
 20
13.5278342247
 10
6.1532878465
 20
13.5887492317
 10
6.2082694501
 20
13.6461726719
 10
6.2646063094
 20
13.6998413406
 10
6.3220231589
 20
13.7494893589
 10
6.3802672227
 20
13.7948508545
 10
6.4390677316
 20
13.8356906917
  0
LWPOLYLINE
  5
277
100
AcDbEntity
  8
0
100
AcDbPolyline
 62
253
  6
CONTINUOUS
 90
22
 70
0
 10
6.3188524364
 20
12.4182769646
 10
6.3216663686
 20
12.4599464381
 10
6.3269138332
 20
12.5023073409
 10
6.3345948302
 20
12.545359673
 10
6.3447706682
 20
12.5893401718
 10
6.3573800386
 20
12.6340120999
 10
6.372239016
 20
12.6786652448
 10
6.3893797651
 20
12.7232814477
 10
6.4087701212
 20
12.7678788674
 10
6.4301296655
 20
12.8118017671
 10
6.4534898206
 20
12.8550431329
 10
6.4788191638
 20
12.8976099788
 10
6.5057430091
 20
12.9388676103
 10
6.5342850694
 20
12.9787950161
 10
6.5644216317
 20
13.0174132074
 10
6.5957068706
 20
13.0541505232
 10
6.6281736698
 20
13.0889884468
 10
6.6617891456
 20
13.1219454948
 10
6.6960088216
 20
13.1525055563
 10
6.7306512057
 20
13.1804965942
 10
6.7658977898
 20
13.2060906457
 10
6.8017485742
 20
13.2292877106
  0
LINE
  5
278
100
AcDbEntity
  8
0
100
AcDbLine
 62
253
  6
CONTINUOUS
 10
9.571234009
 20
-2.5932310531
 11
5.6459570258
 21
-4.7825138999
  0
LINE
  5
279
100
AcDbEntity
  8
0
100
AcDbLine
 62
253
  6
CONTINUOUS
 10
9.9248278038
 20
-3.2055491036
 11
5.9932196097
 21
-5.398363118
  0
LINE
  5
27A
100
AcDbEntity
  8
0
100
AcDbLine
 62
253
  6
CONTINUOUS
 10
5.9932195395
 20
-4.1782476358
 11
9.9248278038
 21
-2.0626461429
  0
LINE
  5
27B
100
AcDbEntity
  8
0
100
AcDbLine
 62
7
  6
CONTINUOUS
 10
5.8859690158
 20
-4.4091384383
 11
9.8169554634
 21
-2.2938715455
  0
LWPOLYLINE
  5
27C
100
AcDbEntity
  8
0
100
AcDbPolyline
 62
253
  6
CONTINUOUS
 90
16
 70
0
 10
5.9932196106
 20
-5.3983631175
 10
5.9563663362
 20
-5.4167353475
 10
5.9166071053
 20
-5.4329537326
 10
5.8743178684
 20
-5.4468649171
 10
5.8298985061
 20
-5.4583373596
 10
5.7837690268
 20
-5.4672625828
 10
5.736365593
 20
-5.4735561952
 10
5.6881364125
 20
-5.4771586837
 10
5.639537547
 20
-5.4780359766
 10
5.5910285773
 20
-5.4761797778
 10
5.5430682109
 20
-5.4716076453
 10
5.4961099229
 20
-5.464362815
 10
5.4505977143
 20
-5.45451379
 10
5.4069619274
 20
-5.4421536975
 10
5.365615175
 20
-5.4273994121
 10
5.3269484187
 20
-5.4103904456
  0
LWPOLYLINE
  5
27D
100
AcDbEntity
  8
0
100
AcDbPolyline
 62
253
  6
CONTINUOUS
 90
31
 70
0
 10
-2.2159284888
 20
9.9364799645
 10
-2.2223159735
 20
9.9400764368
 10
-2.228685021
 20
9.9434978822
 10
-2.2350426322
 20
9.9467505676
 10
-2.2413958079
 20
9.94984076
 10
-2.2477515489
 20
9.9527747263
 10
-2.254116001
 20
9.9555576086
 10
-2.2604918896
 20
9.9581900491
 10
-2.2668810851
 20
9.9606715651
 10
-2.2732854577
 20
9.9630016739
 10
-2.2797068777
 20
9.9651798927
 10
-2.2861449764
 20
9.9672050964
 10
-2.2925904284
 20
9.9690735892
 10
-2.2990316693
 20
9.9707810332
 10
-2.3054571347
 20
9.9723230901
 10
-2.3118552601
 20
9.9736954219
 10
-2.318214643
 20
9.9748944718
 10
-2.3245245279
 20
9.9759198088
 10
-2.3307743214
 20
9.976771783
 10
-2.3369534298
 20
9.9774507449
 10
-2.3430512596
 20
9.9779570447
 10
-2.3490593958
 20
9.9782912774
 10
-2.3549781373
 20
9.9784550164
 10
-2.3608099617
 20
9.9784500799
 10
-2.3665573465
 20
9.978278286
 10
-2.3722227692
 20
9.9779414529
 10
-2.3778091667
 20
9.9774405447
 10
-2.3833213136
 20
9.9767731105
 10
-2.3887644437
 20
9.9759358453
 10
-2.3941437909
 20
9.9749254442
 10
-2.3994645891
 20
9.9737386024
  0
LINE
  5
27E
100
AcDbEntity
  8
0
100
AcDbLine
 62
7
  6
CONTINUOUS
 10
9.378159079
 20
14.7928840046
 11
9.9248278038
 21
8.0616630027
  0
LINE
  5
27F
100
AcDbEntity
  8
0
100
AcDbLine
 62
7
  6
CONTINUOUS
 10
9.9248278038
 20
8.0616630027
 11
9.9248278038
 21
-2.0626461429
  0
LINE
  5
280
100
AcDbEntity
  8
0
100
AcDbLine
 62
7
  6
CONTINUOUS
 10
9.9248278038
 20
-13.3298582493
 11
9.9248278038
 21
-3.2055491036
  0
LWPOLYLINE
  5
281
100
AcDbEntity
  8
0
100
AcDbPolyline
 62
253
  6
CONTINUOUS
 90
88
 70
0
 10
-0.2210242314
 20
-10.5937736579
 10
-0.2170912476
 20
-10.5914152916
 10
-0.2133512286
 20
-10.5888439187
 10
-0.2097891894
 20
-10.5860579981
 10
-0.2063901451
 20
-10.5830559888
 10
-0.2031391107
 20
-10.5798363497
 10
-0.199266859
 20
-10.5755035213
 10
-0.1956105771
 20
-10.570825889
 10
-0.1921783835
 20
-10.5658011031
 10
-0.1889783964
 20
-10.560426814
 10
-0.1860196401
 20
-10.5547040402
 10
-0.1833147616
 20
-10.5486472722
 10
-0.1808773137
 20
-10.5422743689
 10
-0.1787208494
 20
-10.5356031888
 10
-0.177206844
 20
-10.5300617759
 10
-0.175886783
 20
-10.5243397749
 10
-0.1747661077
 20
-10.5184360652
 10
-0.1738502592
 20
-10.5123495262
 10
-0.1731446787
 20
-10.5060790373
 10
-0.1726546542
 20
-10.4996257799
 10
-0.1723848609
 20
-10.4930001436
 10
-0.1723398205
 20
-10.4862148201
 10
-0.172524055
 20
-10.4792825011
 10
-0.1729420863
 20
-10.4722158782
 10
-0.1735964479
 20
-10.4650288452
 10
-0.1744817201
 20
-10.4577401041
 10
-0.1755904946
 20
-10.4503695591
 10
-0.1769153633
 20
-10.4429371145
 10
-0.178448918
 20
-10.4354626743
 10
-0.1801845551
 20
-10.4279630808
 10
-0.182118888
 20
-10.4204429284
 10
-0.1842493348
 20
-10.4129037498
 10
-0.1865733134
 20
-10.4053470772
 10
-0.189088242
 20
-10.3977744434
 10
-0.1917919829
 20
-10.3901879205
 10
-0.1946841768
 20
-10.3825917401
 10
-0.1977649087
 20
-10.3749906736
 10
-0.2010342638
 20
-10.3673894923
 10
-0.2044923271
 20
-10.3597929676
 10
-0.2081383708
 20
-10.352207614
 10
-0.2119684153
 20
-10.344646919
 10
-0.2159776681
 20
-10.3371261132
 10
-0.2201613367
 20
-10.3296604274
 10
-0.2245146286
 20
-10.3222650923
 10
-0.2290318025
 20
-10.3149547102
 10
-0.2337033224
 20
-10.3077413708
 10
-0.2385187035
 20
-10.3006365357
 10
-0.2434674611
 20
-10.2936516662
 10
-0.2485391104
 20
-10.2867982239
 10
-0.2537240931
 20
-10.2800863419
 10
-0.2590165575
 20
-10.2735208397
 10
-0.264411578
 20
-10.2671052088
 10
-0.2699042293
 20
-10.2608429404
 10
-0.2754895861
 20
-10.2547375259
 10
-0.2811636928
 20
-10.2487923397
 10
-0.2869264738
 20
-10.2430102896
 10
-0.2927788235
 20
-10.2373941665
 10
-0.2987216361
 20
-10.2319467611
 10
-0.304755806
 20
-10.2266708645
 10
-0.3108800722
 20
-10.2215714561
 10
-0.3170845532
 20
-10.2166622702
 10
-0.3233572122
 20
-10.2119592298
 10
-0.3296860127
 20
-10.2074782578
 10
-0.3360589177
 20
-10.2032352771
 10
-0.3413911009
 20
-10.1998937646
 10
-0.3467171184
 20
-10.1967439054
 10
-0.3520085353
 20
-10.1938010233
 10
-0.3572418442
 20
-10.1910763073
 10
-0.362413248
 20
-10.1885644062
 10
-0.3675238772
 20
-10.1862558337
 10
-0.3725763281
 20
-10.1841415257
 10
-0.3775790609
 20
-10.1822141063
 10
-0.3825420019
 20
-10.1804666217
 10
-0.389922311
 20
-10.1781722315
 10
-0.3972016855
 20
-10.1762716022
 10
-0.4043478258
 20
-10.1747674106
 10
-0.4113341804
 20
-10.1736548265
 10
-0.4181402214
 20
-10.1729271011
 10
-0.4247637667
 20
-10.1725773171
 10
-0.4312052811
 20
-10.1725985735
 10
-0.4374574722
 20
-10.1729842016
 10
-0.4435111082
 20
-10.1737275908
 10
-0.4493569572
 20
-10.1748221303
 10
-0.4538803121
 20
-10.1759486338
 10
-0.4582749649
 20
-10.177307173
 10
-0.4625511055
 20
-10.1789092783
 10
-0.4667189237
 20
-10.18076648
 10
-0.4707886094
 20
-10.1828903083
  0
LWPOLYLINE
  5
282
100
AcDbEntity
  8
0
100
AcDbPolyline
 62
253
  6
CONTINUOUS
 90
88
 70
0
 10
-0.2389182445
 20
-10.5644147354
 10
-0.235533415
 20
-10.5623915036
 10
-0.2323153983
 20
-10.560183982
 10
-0.2292512282
 20
-10.5577909946
 10
-0.2263279383
 20
-10.5552113656
 10
-0.2235325624
 20
-10.552443919
 10
-0.2202037974
 20
-10.5487185776
 10
-0.2170612891
 20
-10.5446948975
 10
-0.2141116884
 20
-10.5403698423
 10
-0.2113616464
 20
-10.5357403756
 10
-0.2088188211
 20
-10.5308066833
 10
-0.2064948979
 20
-10.5255818401
 10
-0.2044025695
 20
-10.5200821428
 10
-0.2025545284
 20
-10.5143238883
 10
-0.2012601551
 20
-10.5095409934
 10
-0.2001346081
 20
-10.5046049062
 10
-0.1991822465
 20
-10.4995174808
 10
-0.1984074295
 20
-10.4942805715
 10
-0.1978145163
 20
-10.4888960325
 10
-0.1974076226
 20
-10.4833668793
 10
-0.1971898897
 20
-10.477700773
 10
-0.1971642159
 20
-10.471906536
 10
-0.197333499
 20
-10.4659929906
 10
-0.197700637
 20
-10.4599689592
 10
-0.1982671448
 20
-10.4538442441
 10
-0.1990290046
 20
-10.4476325666
 10
-0.1999808153
 20
-10.4413486284
 10
-0.2011171758
 20
-10.4350071305
 10
-0.2024326853
 20
-10.4286227745
 10
-0.2039224546
 20
-10.4222083305
 10
-0.2055836431
 20
-10.415768844
 10
-0.2074139221
 20
-10.4093074293
 10
-0.2094109628
 20
-10.4028272008
 10
-0.2115724365
 20
-10.3963312727
 10
-0.2138964263
 20
-10.389822885
 10
-0.2163826623
 20
-10.3833057799
 10
-0.2190312866
 20
-10.3767838254
 10
-0.2218424409
 20
-10.3702608895
 10
-0.2248162674
 20
-10.36374084
 10
-0.2279521866
 20
-10.3572291317
 10
-0.231246734
 20
-10.3507375676
 10
-0.2346957234
 20
-10.3442795372
 10
-0.2382949691
 20
-10.3378684304
 10
-0.2420402851
 20
-10.3315176368
 10
-0.2459265162
 20
-10.3252401189
 10
-0.2499446302
 20
-10.3190471299
 10
-0.2540846259
 20
-10.3129494958
 10
-0.2583365018
 20
-10.3069580423
 10
-0.2626902567
 20
-10.3010835954
 10
-0.2671369592
 20
-10.2953354766
 10
-0.2716719579
 20
-10.2897169903
 10
-0.2762916716
 20
-10.2842299365
 10
-0.2809925191
 20
-10.2788761149
 10
-0.2857709189
 20
-10.2736573258
 10
-0.2906241658
 20
-10.2685753771
 10
-0.2955530576
 20
-10.26363211
 10
-0.3005592683
 20
-10.258829374
 10
-0.3056444718
 20
-10.2541690182
 10
-0.3108103418
 20
-10.2496528921
 10
-0.3160564171
 20
-10.2452849565
 10
-0.3213736963
 20
-10.2410776182
 10
-0.3267510425
 20
-10.2370453952
 10
-0.3321773192
 20
-10.233202806
 10
-0.3376413897
 20
-10.2295643686
 10
-0.3422125599
 20
-10.2266996104
 10
-0.3467774515
 20
-10.2240002045
 10
-0.3513112741
 20
-10.2214796491
 10
-0.3557934197
 20
-10.2191478491
 10
-0.3602200108
 20
-10.2170003372
 10
-0.3645913522
 20
-10.2150290526
 10
-0.3689092136
 20
-10.2132261827
 10
-0.3731812243
 20
-10.2115849062
 10
-0.377416478
 20
-10.2100986495
 10
-0.3837108612
 20
-10.2081496779
 10
-0.3899168679
 20
-10.2065373087
 10
-0.3960096442
 20
-10.2052627086
 10
-0.4019694589
 20
-10.2043213188
 10
-0.4077811903
 20
-10.2037073114
 10
-0.4134430313
 20
-10.2034155092
 10
-0.4189547881
 20
-10.203440855
 10
-0.4243094037
 20
-10.2037781232
 10
-0.4294981051
 20
-10.204422046
 10
-0.4345121196
 20
-10.2053673555
 10
-0.4383938479
 20
-10.2063391899
 10
-0.4421667901
 20
-10.2075106122
 10
-0.4458395745
 20
-10.2088916944
 10
-0.4494208292
 20
-10.2104925084
 10
-0.4529191824
 20
-10.2123231261
  0
LWPOLYLINE
  5
283
100
AcDbEntity
  8
0
100
AcDbPolyline
 62
253
  6
CONTINUOUS
 90
7
 70
0
 10
-0.4707886094
 20
-10.1828903083
 10
-0.5065295993
 20
-10.2027344011
 10
-0.542374274
 20
-10.2223471165
 10
-0.5783228931
 20
-10.2417287062
 10
-0.6143757166
 20
-10.2608794223
 10
-0.6505330043
 20
-10.2797995164
 10
-0.6867950159
 20
-10.2984892404
  0
LWPOLYLINE
  5
284
100
AcDbEntity
  8
0
100
AcDbPolyline
 62
253
  6
CONTINUOUS
 90
16
 70
0
 10
-0.4529191824
 20
-10.2123231261
 10
-0.5606755318
 20
-10.271272599
 10
-0.6693716837
 20
-10.3281401243
 10
-0.7790148065
 20
-10.3829325336
 10
-0.8896120688
 20
-10.4356566585
 10
-1.0011706389
 20
-10.4863193304
 10
-1.1136904098
 20
-10.5349238869
 10
-1.2271421721
 20
-10.5814596896
 10
-1.3414894408
 20
-10.625912606
 10
-1.456695731
 20
-10.6682685039
 10
-1.5727245579
 20
-10.7085132508
 10
-1.68954738
 20
-10.7466351403
 10
-1.8071674305
 20
-10.7826321694
 10
-1.9255958858
 20
-10.8165047612
 10
-2.0448439228
 20
-10.848253339
 10
-2.1649227179
 20
-10.8778783256
  0
LWPOLYLINE
  5
285
100
AcDbEntity
  8
0
100
AcDbPolyline
 62
253
  6
CONTINUOUS
 90
17
 70
0
 10
-0.6867950159
 20
-10.2984892404
 10
-0.7687687849
 20
-10.3397001335
 10
-0.8512769937
 20
-10.3797489217
 10
-0.934322602
 20
-10.4186384738
 10
-1.0179085692
 20
-10.4563716583
 10
-1.1114150683
 20
-10.4969426715
 10
-1.2055714808
 20
-10.5360815299
 10
-1.3003569568
 20
-10.5737801513
 10
-1.3957506463
 20
-10.6100304537
 10
-1.4917316995
 20
-10.6448243549
 10
-1.5882792662
 20
-10.6781537727
 10
-1.6853770367
 20
-10.7100120039
 10
-1.7830268611
 20
-10.7403978597
 10
-1.8812351296
 20
-10.7693115303
 10
-1.9800082325
 20
-10.7967532058
 10
-2.07935256
 20
-10.8227230763
 10
-2.1792745023
 20
-10.8472213319
  0
LWPOLYLINE
  5
286
100
AcDbEntity
  8
0
100
AcDbPolyline
 62
253
  6
CONTINUOUS
 90
8
 70
0
 10
-0.5800762014
 20
-10.7427667745
 10
-0.530790016
 20
-10.718516601
 10
-0.4816880752
 20
-10.6938579676
 10
-0.4327696991
 20
-10.6687902124
 10
-0.3840342079
 20
-10.6433126735
 10
-0.3354809216
 20
-10.617424689
 10
-0.2871091604
 20
-10.5911255969
 10
-0.2389182445
 20
-10.5644147354
  0
LWPOLYLINE
  5
287
100
AcDbEntity
  8
0
100
AcDbPolyline
 62
253
  6
CONTINUOUS
 90
9
 70
0
 10
-0.6385280867
 20
-10.8087409265
 10
-0.5856050229
 20
-10.7834977347
 10
-0.5328936482
 20
-10.7577910666
 10
-0.4803931297
 20
-10.7316201293
 10
-0.4281026345
 20
-10.7049841301
 10
-0.3760213299
 20
-10.6778822761
 10
-0.3241483831
 20
-10.6503137747
 10
-0.2724829612
 20
-10.6222778328
 10
-0.2210242314
 20
-10.5937736579
  0
LWPOLYLINE
  5
288
100
AcDbEntity
  8
0
100
AcDbPolyline
 62
253
  6
CONTINUOUS
 90
5
 70
0
 10
-0.6957976262
 20
-10.7977657758
 10
-0.6667724091
 20
-10.7842237125
 10
-0.6378105226
 20
-10.7705432788
 10
-0.6089118317
 20
-10.7567243432
 10
-0.5800762014
 20
-10.7427667745
  0
LWPOLYLINE
  5
289
100
AcDbEntity
  8
0
100
AcDbPolyline
 62
253
  6
CONTINUOUS
 90
3
 70
0
 10
-0.6786493822
 20
-10.8275039159
 10
-0.6652621187
 20
-10.8212789041
 10
-0.6385280867
 20
-10.8087409265
  0
LWPOLYLINE
  5
28A
100
AcDbEntity
  8
0
100
AcDbPolyline
 62
253
  6
CONTINUOUS
 90
16
 70
0
 10
-2.3994645891
 20
9.9737386024
 10
-2.5302360369
 20
9.9405258204
 10
-2.659833015
 20
9.9052208317
 10
-2.7882721323
 20
9.8678196108
 10
-2.9155699977
 20
9.8283181324
 10
-3.0417432203
 20
9.7867123709
 10
-3.1667988707
 20
9.7430013264
 10
-3.2907058656
 20
9.6971961006
 10
-3.4134235835
 20
9.6493108208
 10
-3.5349114029
 20
9.599359614
 10
-3.655128702
 20
9.5473566076
 10
-3.7740439106
 20
9.4933116869
 10
-3.8916616629
 20
9.4372177699
 10
-4.0079956444
 20
9.3790635328
 10
-4.1230595404
 20
9.3188376518
 10
-4.2368670366
 20
9.2565288031
  0
LWPOLYLINE
  5
28B
100
AcDbEntity
  8
0
100
AcDbPolyline
 62
253
  6
CONTINUOUS
 90
16
 70
0
 10
-2.4127663355
 20
10.0050883125
 10
-2.5437772277
 20
9.9718238599
 10
-2.6736070794
 20
9.9364643498
 10
-2.802272621
 20
9.8990058325
 10
-2.9297905828
 20
9.8594443587
 10
-3.056177695
 20
9.8177759786
 10
-3.1814411131
 20
9.7739997814
 10
-3.3055496938
 20
9.7281270108
 10
-3.4284627193
 20
9.6801719487
 10
-3.5501394714
 20
9.6301488773
 10
-3.6705392322
 20
9.5780720788
 10
-3.7896303744
 20
9.5239515793
 10
-3.9074176336
 20
9.4677803803
 10
-4.023914836
 20
9.4095472275
 10
-4.1391358078
 20
9.3492408663
 10
-4.2530943754
 20
9.2868500423
  0
LWPOLYLINE
  5
28C
100
AcDbEntity
  8
0
100
AcDbPolyline
 62
253
  6
CONTINUOUS
 90
45
 70
0
 10
-2.268912529
 20
9.5552702831
 10
-2.267225543
 20
9.555627094
 10
-2.2655375085
 20
9.5559161906
 10
-2.2638464045
 20
9.556138691
 10
-2.2621502101
 20
9.5562957135
 10
-2.2604469043
 20
9.5563883766
 10
-2.2587344662
 20
9.5564177984
 10
-2.257010875
 20
9.5563850973
 10
-2.2552741096
 20
9.5562913915
 10
-2.2532712159
 20
9.5561107161
 10
-2.251249689
 20
9.5558515826
 10
-2.2492107423
 20
9.5555137516
 10
-2.2471555891
 20
9.5550969839
 10
-2.2450854428
 20
9.5546010402
 10
-2.2430015168
 20
9.5540256813
 10
-2.2409050246
 20
9.5533706678
 10
-2.238797322
 20
9.5526359131
 10
-2.2366803354
 20
9.5518219413
 10
-2.2345561339
 20
9.5509294291
 10
-2.2324267864
 20
9.5499590532
 10
-2.230294362
 20
9.5489114902
 10
-2.2281609295
 20
9.5477874168
 10
-2.226028558
 20
9.5465875097
 10
-2.2238993063
 20
9.5453126547
 10
-2.2217751928
 20
9.5439645737
 10
-2.2196582258
 20
9.5425451974
 10
-2.2175504134
 20
9.541056457
 10
-2.215453764
 20
9.5395002831
 10
-2.2133702858
 20
9.5378786069
 10
-2.2113019869
 20
9.5361933591
 10
-2.2092507188
 20
9.5344464296
 10
-2.2072177049
 20
9.5326395433
 10
-2.2052040117
 20
9.5307743842
 10
-2.2032107058
 20
9.5288526362
 10
-2.2012388538
 20
9.5268759832
 10
-2.1992895221
 20
9.5248461091
 10
-2.1973637774
 20
9.5227646978
 10
-2.1956985317
 20
9.5209017146
 10
-2.1940504386
 20
9.5189969172
 10
-2.1924177755
 20
9.5170466607
 10
-2.1907988197
 20
9.5150472998
 10
-2.1891918486
 20
9.5129951894
 10
-2.1875951395
 20
9.5108866844
 10
-2.1860069697
 20
9.5087181396
 10
-2.1844256166
 20
9.5064859099
  0
LINE
  5
28D
100
AcDbEntity
  8
0
100
AcDbLine
 62
253
  6
CONTINUOUS
 10
-2.2820004154
 20
9.5866570356
 11
-2.2630323102
 21
9.587842596
  0
LWPOLYLINE
  5
28E
100
AcDbEntity
  8
0
100
AcDbPolyline
 62
253
  6
CONTINUOUS
 90
43
 70
0
 10
-2.2630323102
 20
9.587842596
 10
-2.2608492939
 20
9.5876352567
 10
-2.2586666454
 20
9.5873539284
 10
-2.2564814176
 20
9.5869995144
 10
-2.2542906634
 20
9.5865729178
 10
-2.2520914358
 20
9.5860750417
 10
-2.2498807876
 20
9.5855067894
 10
-2.2476557717
 20
9.584869064
 10
-2.2454138632
 20
9.5841623821
 10
-2.2431542255
 20
9.5833857141
 10
-2.2408764444
 20
9.5825376439
 10
-2.2385801054
 20
9.5816167554
 10
-2.2362647942
 20
9.5806216324
 10
-2.2339300964
 20
9.5795508589
 10
-2.2315755976
 20
9.5784030187
 10
-2.2292016427
 20
9.5771771481
 10
-2.2268116128
 20
9.5758740935
 10
-2.2244096486
 20
9.5744951537
 10
-2.2219998903
 20
9.5730416275
 10
-2.2195864785
 20
9.5715148135
 10
-2.2171735535
 20
9.5699160107
 10
-2.2147652558
 20
9.5682465178
 10
-2.2123656539
 20
9.5665080722
 10
-2.209978529
 20
9.5647041654
 10
-2.2076075903
 20
9.5628387276
 10
-2.2052565471
 20
9.560915689
 10
-2.2029291086
 20
9.5589389796
 10
-2.200628984
 20
9.5569125297
 10
-2.1983598826
 20
9.5548402694
 10
-2.1961247442
 20
9.5527256188
 10
-2.1939234301
 20
9.5505699584
 10
-2.1917550323
 20
9.5483741585
 10
-2.1896186428
 20
9.5461390894
 10
-2.1875133535
 20
9.5438656216
 10
-2.1854382564
 20
9.5415546254
 10
-2.1833924433
 20
9.5392069712
 10
-2.1813747658
 20
9.5368226978
 10
-2.1793831134
 20
9.5343985176
 10
-2.1774151353
 20
9.5319303115
 10
-2.1754684807
 20
9.5294139604
 10
-2.1735407986
 20
9.526845345
 10
-2.1716297383
 20
9.5242203463
 10
-2.1697329487
 20
9.5215348452
  0
LINE
  5
28F
100
AcDbEntity
  8
0
100
AcDbLine
 62
7
  6
CONTINUOUS
 10
9.378159079
 20
-20.660140977
 11
9.9248278038
 21
-13.3298582493
  0
LWPOLYLINE
  5
290
100
AcDbEntity
  8
0
100
AcDbPolyline
 62
253
  6
CONTINUOUS
 90
9
 70
0
 10
-9.1027687873
 20
20.9437406181
 10
-9.1333137381
 20
20.9657889841
 10
-9.1599157682
 20
20.9892942899
 10
-9.1823169468
 20
21.0140286301
 10
-9.2003000737
 20
21.0397521827
 10
-9.2136907862
 20
21.0662155342
 10
-9.2223592491
 20
21.0931620982
 10
-9.2262214136
 20
21.1203306032
 10
-9.22634783
 20
21.1335960693
  0
LINE
  5
291
100
AcDbEntity
  8
0
100
AcDbLine
 62
7
  6
CONTINUOUS
 10
7.0848242054
 20
16.4878425114
 11
6.4121793405
 21
16.3579719897
  0
LWPOLYLINE
  5
292
100
AcDbEntity
  8
0
100
AcDbPolyline
 62
253
  6
CONTINUOUS
 90
16
 70
0
 10
5.6459294461
 20
12.4280370826
 10
5.6845410304
 20
12.4101551297
 10
5.7259657346
 20
12.3943823455
 10
5.7698019163
 20
12.3808716586
 10
5.8156245521
 20
12.3697540648
 10
5.8629893582
 20
12.3611373572
 10
5.9114370987
 20
12.3551050807
 10
5.9604980377
 20
12.3517157226
 10
6.009696494
 20
12.3510021453
 10
6.0585554529
 20
12.3529712673
 10
6.1066011915
 20
12.3576039966
 10
6.1533678716
 20
12.3648554155
 10
6.1984020565
 20
12.3746552163
 10
6.2412671072
 20
12.3869083829
 10
6.2815474161
 20
12.4014961118
 10
6.3188524363
 20
12.4182769646
  0
LINE
  5
293
100
AcDbEntity
  8
0
100
AcDbLine
 62
253
  6
CONTINUOUS
 10
6.4390677316
 20
13.8356906917
 11
5.9309218633
 21
14.0910982836
  0
LWPOLYLINE
  5
294
100
AcDbEntity
  8
0
100
AcDbPolyline
 62
253
  6
CONTINUOUS
 90
31
 70
0
 10
5.6459210173
 20
12.4280319413
 10
5.1371421076
 20
12.6851763855
 10
4.6305448043
 20
12.943525906
 10
4.1261356355
 20
13.203074509
 10
3.6240384079
 20
13.4637550367
 10
3.1241413052
 20
13.725622074
 10
2.6261013881
 20
13.988854777
 10
2.129768576
 20
14.2535353997
 10
1.6353147661
 20
14.5195753278
 10
1.142882389
 20
14.7868989295
 10
0.6525131278
 20
15.0554834195
 10
0.1641822204
 20
15.3253421665
 10
-0.3220696296
 20
15.5964525142
 10
-0.8063006738
 20
15.8688471272
 10
-1.2884358477
 20
16.1424838764
 10
-1.7682378752
 20
16.4172259271
 10
-2.2453944806
 20
16.6928883007
 10
-2.7202107385
 20
16.969641034
 10
-3.1933694245
 20
17.247883233
 10
-3.6639672381
 20
17.5270822182
 10
-4.1328880539
 20
17.8077627914
 10
-4.6034411635
 20
18.0919405695
 10
-5.0747814787
 20
18.3791559484
 10
-5.5476416217
 20
18.6699111969
 10
-6.0275711769
 20
18.9677333666
 10
-6.5145872301
 20
19.2727886488
 10
-7.0083785053
 20
19.5850474027
 10
-7.5138383142
 20
19.9078290451
 10
-8.0324012241
 20
20.2423343466
 10
-8.5621297664
 20
20.5875992756
 10
-9.1027687891
 20
20.9437406059
  0
LWPOLYLINE
  5
295
100
AcDbEntity
  8
0
100
AcDbPolyline
 62
253
  6
CONTINUOUS
 90
30
 70
0
 10
5.9309218633
 20
14.0910982836
 10
5.4250297952
 20
14.3477576965
 10
4.9213915275
 20
14.6056689304
 10
4.4201430714
 20
14.8647613638
 10
3.9211484156
 20
15.1251056183
 10
3.4239995263
 20
15.3869135585
 10
2.9284916122
 20
15.650291356
 10
2.4348294647
 20
15.9151328393
 10
1.9432194244
 20
16.1813313586
 10
1.4537173127
 20
16.4488585933
 10
0.9662673082
 20
16.717742864
 10
0.4809082873
 20
16.9879624822
 10
-0.0024311551
 20
17.2595601382
 10
-0.483679614
 20
17.5324931418
 10
-0.9625839974
 20
17.8066117335
 10
-1.4388461503
 20
18.0817402218
 10
-1.9127642276
 20
18.3580542981
 10
-2.3849796023
 20
18.6359312771
 10
-2.8545989036
 20
18.914798099
 10
-3.3225155024
 20
19.1952278235
 10
-3.7920508835
 20
19.4793169455
 10
-4.2625044701
 20
19.7665325678
 10
-4.734576839
 20
20.0574075875
 10
-5.2136912062
 20
20.3556371913
 10
-5.7001811522
 20
20.6612889197
 10
-6.1937130964
 20
20.9742952323
 10
-6.6987095128
 20
21.2981486939
 10
-7.2166445592
 20
21.634013493
 10
-7.7460440778
 20
21.9807254413
 10
-8.2869080684
 20
22.3382845386
  0
LWPOLYLINE
  5
296
100
AcDbEntity
  8
0
100
AcDbPolyline
 62
253
  6
CONTINUOUS
 90
16
 70
0
 10
6.4390677316
 20
13.8356906917
 10
6.4751166618
 20
13.8115925031
 10
6.5109736958
 20
13.7834159292
 10
6.5462466608
 20
13.7514691406
 10
6.580549772
 20
13.7161015433
 10
6.6135078519
 20
13.6776999572
 10
6.6447604344
 20
13.6366843853
 10
6.673965706
 20
13.5935034199
 10
6.7008042451
 20
13.5486293367
 10
6.7249825152
 20
13.5025529291
 10
6.7462360757
 20
13.4557781404
 10
6.7643324737
 20
13.4088165522
 10
6.7790737867
 20
13.3621817893
 10
6.790298787
 20
13.3163839019
 10
6.7978847056
 20
13.271923787
 10
6.8017485742
 20
13.2292877106
  0
LWPOLYLINE
  5
297
100
AcDbEntity
  8
0
100
AcDbPolyline
 62
253
  6
CONTINUOUS
 90
9
 70
0
 10
-8.2869080685
 20
22.3382845386
 10
-8.3246829349
 20
22.3568112131
 10
-8.361842215
 20
22.3707931798
 10
-8.3979794872
 20
22.3800775301
 10
-8.4326995206
 20
22.3845627366
 10
-8.465622566
 20
22.3841997578
 10
-8.4963885144
 20
22.3789925893
 10
-8.5246608809
 20
22.3689982171
 10
-8.5467584401
 20
22.3566467142
  0
LINE
  5
298
100
AcDbEntity
  8
0
100
AcDbLine
 62
7
  6
CONTINUOUS
 10
6.2189941752
 20
16.3835808249
 11
3.8367090791
 21
17.7590823823
  0
LINE
  5
299
100
AcDbEntity
  8
0
100
AcDbLine
 62
7
  6
CONTINUOUS
 10
-1.7006017741
 20
20.9562562701
 11
-4.0828868702
 21
22.3317578276
  0
LINE
  5
29A
100
AcDbEntity
  8
0
100
AcDbLine
 62
7
  6
CONTINUOUS
 10
8.9933719916
 20
15.3858709394
 11
7.0848242054
 21
16.4878425114
  0
LINE
  5
29B
100
AcDbEntity
  8
0
100
AcDbLine
 62
7
  6
CONTINUOUS
 10
3.9651799185
 20
18.2890860243
 11
-0.8347717439
 21
21.0605179566
  0
LINE
  5
29C
100
AcDbEntity
  8
0
100
AcDbLine
 62
7
  6
CONTINUOUS
 10
-3.9544160308
 20
22.8617614696
 11
-5.862963817
 21
23.9637330416
  0
LINE
  5
29D
100
AcDbEntity
  8
0
100
AcDbLine
 62
7
  6
CONTINUOUS
 10
-0.8347717439
 20
21.0605179566
 11
-1.5074166088
 21
20.930647435
  0
LWPOLYLINE
  5
29E
100
AcDbEntity
  8
0
100
AcDbPolyline
 62
253
  6
CONTINUOUS
 90
9
 70
0
 10
6.677198865
 20
-22.1596497842
 10
6.700805778
 20
-22.1457264866
 10
6.7249838457
 20
-22.1255034836
 10
6.7462371438
 20
-22.1007412789
 10
6.7643332523
 20
-22.0717107273
 10
6.7790742827
 20
-22.0387293573
 10
6.7902990372
 20
-22.0021579059
 10
6.797884775
 20
-21.9623963765
 10
6.8017485572
 20
-21.9198796543
  0
LINE
  5
29F
100
AcDbEntity
  8
0
100
AcDbLine
 62
253
  6
CONTINUOUS
 10
9.378159079
 20
-20.660140977
 11
6.8017485572
 21
-21.9198796543
  0
LINE
  5
2A0
100
AcDbEntity
  8
0
100
AcDbLine
 62
7
  6
CONTINUOUS
 10
9.2412685318
 20
-20.9059451811
 11
6.677198865
 21
-22.1596497842
  0
LWPOLYLINE
  5
2A1
100
AcDbEntity
  8
0
100
AcDbPolyline
 62
253
  6
CONTINUOUS
 90
22
 70
0
 10
6.8017485572
 20
-21.9198796543
 10
6.7658977726
 20
-21.9359693307
 10
6.7306511882
 20
-21.9489999135
 10
6.696008804
 20
-21.9589714029
 10
6.6617891277
 20
-21.9659106482
 10
6.6281736517
 20
-21.9697908
 10
6.5957068523
 20
-21.9705313098
 10
6.5644216133
 20
-21.9680776257
 10
6.5342850508
 20
-21.9624842997
 10
6.5057429904
 20
-21.9538344393
 10
6.4788191451
 20
-21.9420810478
 10
6.4534898018
 20
-21.9272711219
 10
6.4301296467
 20
-21.90962876
 10
6.4087701023
 20
-21.8891125139
 10
6.3893797461
 20
-21.8657638317
 10
6.3722389971
 20
-21.8399311557
 10
6.3573800193
 20
-21.8115610802
 10
6.3447706487
 20
-21.780707011
 10
6.3345948116
 20
-21.747877607
 10
6.3269138166
 20
-21.7132424214
 10
6.321666355
 20
-21.6766319011
 10
6.3188524269
 20
-21.6380460461
  0
ELLIPSE
  5
2A2
100
AcDbEntity
  8
0
100
AcDbEllipse
 62
7
  6
CONTINUOUS
 10
9.0245278402
 20
-20.4553524611
 30
0.0
 11
-0.2148753492
 21
0.4514925988
 31
0.0
 40
0.626010046
 41
-3.1349764991
 42
-2.3100583745
  0
ELLIPSE
  5
2A3
100
AcDbEntity
  8
0
100
AcDbEllipse
 62
7
  6
CONTINUOUS
 10
9.5711532177
 20
-3.0014350886
 30
0.0
 11
-0.2501454382
 21
0.4329727255
 31
0.0
 40
0.577463496
 41
-2.3564333972
 42
-0.7858655045
  0
ELLIPSE
  5
2A4
100
AcDbEntity
  8
0
100
AcDbEllipse
 62
7
  6
CONTINUOUS
 10
-5.8324536836
 20
23.5747924672
 30
0.0
 11
-0.2806490066
 21
0.4138128862
 31
0.0
 40
0.5253010868
 41
-0.8257150379
 42
-0.0027521587
  0
ELLIPSE
  5
2A5
100
AcDbEntity
  8
0
100
AcDbEllipse
 62
7
  6
CONTINUOUS
 10
9.0245278402
 20
14.996557537
 30
0.0
 11
-0.280860955
 21
0.4142191515
 31
0.0
 40
0.5243459323
 41
-2.3941007373
 42
-0.8246744066
  0
ELLIPSE
  5
2A6
100
AcDbEntity
  8
0
100
AcDbEllipse
 62
7
  6
CONTINUOUS
 10
9.5711532177
 20
-1.8583456112
 30
0.0
 11
-0.2502024655
 21
0.4330717124
 31
0.0
 40
0.5771997317
 41
-3.1590443311
 42
-2.3566615088
  0
ELLIPSE
  5
2A7
100
AcDbEntity
  8
0
100
AcDbEllipse
 62
7
  6
CONTINUOUS
 10
6.3604155315
 20
16.4737936223
 30
0.0
 11
0.1999154856
 21
0.0095814127
 31
0.0
 40
0.6067642562
 41
-2.385266879
 42
-1.3380693278
  0
ELLIPSE
  5
2A8
100
AcDbEntity
  8
0
100
AcDbEllipse
 62
7
  6
CONTINUOUS
 10
-1.5591804178
 20
21.0464690676
 30
0.0
 11
0.1999154856
 21
0.0095814127
 31
0.0
 40
0.6067642562
 41
-2.385266879
 42
-1.3380693278
  0
ELLIPSE
  5
2A9
100
AcDbEntity
  8
0
100
AcDbEllipse
 62
7
  6
CONTINUOUS
 10
3.9781304354
 20
17.8492951798
 30
0.0
 11
0.1999154856
 21
0.0095814127
 31
0.0
 40
0.6067642562
 41
2.850720877
 42
3.8979184282
  0
ELLIPSE
  5
2AA
100
AcDbEntity
  8
0
100
AcDbEllipse
 62
7
  6
CONTINUOUS
 10
-3.9414655139
 20
22.4219706251
 30
0.0
 11
0.1999154856
 21
0.0095814127
 31
0.0
 40
0.6067642562
 41
2.850720877
 42
3.8979184282
  0
ENDSEC
  0
SECTION
  2
OBJECTS
  0
DICTIONARY
  5
C
100
AcDbDictionary
280
0
281
1
  3
ACAD_GROUP
350
D
  3
ACAD_MLINESTYLE
350
17
  3
ACAD_LAYOUT
350
1A
  3
ACAD_PLOTSETTINGS
350
19
  3
ACAD_PLOTSTYLENAME
350
E
  0
DICTIONARY
  5
D
102
{ACAD_REACTORS
330
C
102
}
100
AcDbDictionary
280
0
281
1
  0
ACDBDICTIONARYWDFLT
  5
E
102
{ACAD_REACTORS
330
C
102
}
100
AcDbDictionary
281
1
  3
Normal
350
F
100
AcDbDictionaryWithDefault
340
F
  0
DICTIONARY
  5
17
102
{ACAD_REACTORS
330
C
102
}
100
AcDbDictionary
280
0
281
1
  3
Standard
350
18
  0
DICTIONARY
  5
19
102
{ACAD_REACTORS
330
C
102
}
100
AcDbDictionary
281
1
  0
DICTIONARY
  5
1A
102
{ACAD_REACTORS
330
C
102
}
100
AcDbDictionary
281
1
  3
Model
350
2AB
  3
Layout1
350
2AC
  0
ACDBPLACEHOLDER
  5
F
102
{ACAD_REACTORS
330
E
102
}
  0
MLINESTYLE
  5
18
102
{ACAD_REACTORS
330
17
102
}
100
AcDbMlineStyle
  2
STANDARD
 70
0
  3

 62
256
 51
90.0
 52
90.0
 71
2
 49
0.5
 62
256
  6
BYLAYER
 49
-0.5
 62
256
  6
BYLAYER
  0
LAYOUT
  5
2AB
102
{ACAD_REACTORS
330
1A
102
}
100
AcDbPlotSettings
  1

  2
none_device
  4
ISO_A4_(297.00_x_210.00_MM)
  6

 40
0.0
 41
0.0
 42
0.0
 43
0.0
 44
297.0
 45
210.0
 46
0.0
 47
0.0
 48
0.0
 49
0.0
140
0.0
141
0.0
142
1.0
143
1.0
 70
1024
 72
1
 73
0
 74
0
  7

 75
0
147
1.0
148
0.0
149
0.0
100
AcDbLayout
  1
Model
 70
0
 71
0
 10
0.0
 20
0.0
 11
297.0
 21
210.0
 12
0.0
 22
0.0
 32
0.0
 14
0.0
 24
0.0
 34
0.0
 15
0.0
 25
0.0
 35
0.0
146
0.0
 13
0.0
 23
0.0
 33
0.0
 16
1.0
 26
0.0
 36
0.0
 17
0.0
 27
1.0
 37
0.0
 76
0
330
220
345
0
346
0
  0
LAYOUT
  5
2AC
102
{ACAD_REACTORS
330
1A
102
}
100
AcDbPlotSettings
  1

  2
none_device
  4
ISO_A4_(297.00_x_210.00_MM)
  6

 40
0.0
 41
0.0
 42
0.0
 43
0.0
 44
297.0
 45
210.0
 46
0.0
 47
0.0
 48
0.0
 49
0.0
140
0.0
141
0.0
142
1.0
143
1.0
 70
0
 72
1
 73
0
 74
0
  7

 75
0
147
1.0
148
0.0
149
0.0
100
AcDbLayout
  1
Layout1
 70
0
 71
1
 10
0.0
 20
0.0
 11
297.0
 21
210.0
 12
0.0
 22
0.0
 32
0.0
 14
0.0
 24
0.0
 34
0.0
 15
0.0
 25
0.0
 35
0.0
146
0.0
 13
0.0
 23
0.0
 33
0.0
 16
1.0
 26
0.0
 36
0.0
 17
0.0
 27
1.0
 37
0.0
 76
0
330
221
345
0
346
0
  0
ENDSEC
  0
EOF
