  0
SECTION
  2
HEADER
  9
$ACADVER
  1
AC1021
  9
$DWGCODEPAGE
  3
ANSI_1252
  9
$EXTMAX
 10
297.0
 20
210.0
 30
0.0
  9
$EXTMIN
 10
0.0
 20
0.0
 30
0.0
  9
$LIMMIN
 10
0.0
 20
0.0
  9
$LIMMAX
 10
297.0
 20
210.0
  9
$VIEWCTR
 10
148.5
 20
105.0
  9
$VIEWSIZE
 40
210.0
  9
$CLAYER
  8
0
  9
$LTSCALE
 40
16.335
  9
$CELTYPE
  6
BYLAYER
  9
$DIMSCALE
 40
1.0
  9
$DIMASZ
 40
3.0
  9
$DIMEXO
 40
0.5
  9
$DIMDLI
 40
11.286
  9
$DIMEXE
 40
1.5
  9
$DIMCEN
 40
2.673
  9
$DIMLFAC
 40
1.0
  9
$DIMBLK
  1
_FILLED
  9
$DIMALT
 70
0
  9
$DIMALTF
 40
25.4
  9
$DIMTXT
 40
3.0
  9
$DIMTOL
 70
1
  9
$DIMLIM
 70
0
  9
$DIMTFAC
 40
1.0
  9
$DIMTP
 40
0.01
  9
$DIMTM
 40
0.01
  9
$DIMGAP
 40
0.625
  9
$DIMDSEP
 70
44
  9
$AUNITS
 70
0
  9
$PDMODE
 70
3
  9
$PDSIZE
 40
3.0
  9
$HANDSEED
  5
364
  9
$TILEMODE
 70
1
  9
$MEASUREMENT
 70
1
  9
$INSUNITS
 70
4
  0
ENDSEC
  0
SECTION
  2
CLASSES
  0
CLASS
  1
ACDBDICTIONARYWDFLT
  2
AcDbDictionaryWithDefault
  3
AutoCAD 2000
 90
0
 91
1
280
0
281
0
  0
CLASS
  1
ACDBPLACEHOLDER
  2
AcDbPlaceHolder
  3
AutoCAD 2000
 90
0
 91
1
280
0
281
0
  0
CLASS
  1
LAYOUT
  2
AcDbLayout
  3
AutoCAD 2000
 90
0
 91
0
280
0
281
0
  0
ENDSEC
  0
SECTION
  2
TABLES
  0
TABLE
  2
VPORT
  5
8
100
AcDbSymbolTable
 70
2
  0
VPORT
  5
1F4
100
AcDbSymbolTableRecord
100
AcDbViewportTableRecord
  2
*ACTIVE
 70
0
 10
0.0
 20
0.0
 11
1.0
 21
1.0
 12
148.5
 22
105.0
 13
0.0
 23
0.0
 14
1.0
 24
1.0
 15
0.0
 25
0.0
 16
0.0
 26
0.0
 36
1.0
 17
0.0
 27
0.0
 37
0.0
 40
210.0
 41
1.4142857143
 42
50.0
 43
0.0
 44
0.0
 50
0.0
 51
0.0
 71
0
 72
100
 73
1
 74
1
 75
0
 76
0
 77
0
 78
0
  0
ENDTAB
  0
TABLE
  2
LTYPE
  5
5
100
AcDbSymbolTable
 70
6
  0
LTYPE
  5
14
100
AcDbSymbolTableRecord
100
AcDbLinetypeTableRecord
  2
BYBLOCK
 70
0
  3

 72
65
 73
0
 40
0.0
  0
LTYPE
  5
15
100
AcDbSymbolTableRecord
100
AcDbLinetypeTableRecord
  2
BYLAYER
 70
0
  3

 72
65
 73
0
 40
0.0
  0
LTYPE
  5
16
100
AcDbSymbolTableRecord
100
AcDbLinetypeTableRecord
  2
CONTINUOUS
 70
64
  3
Solid line
 72
65
 73
0
 40
0.0
  0
LTYPE
  5
1F5
100
AcDbSymbolTableRecord
100
AcDbLinetypeTableRecord
  2
CENTER
 70
64
  3
____ _ ____ _ ____ _ ____ _ ____ _ ____ _ ____
 72
65
 73
4
 40
0.6
 49
0.375
 74
0
 49
-0.075
 74
0
 49
0.075
 74
0
 49
-0.075
 74
0
  0
LTYPE
  5
1F6
100
AcDbSymbolTableRecord
100
AcDbLinetypeTableRecord
  2
HIDDEN
 70
64
  3
- - - - - - - - - - - - - - - - - - - -
 72
65
 73
2
 40
0.2
 49
0.1
 74
0
 49
-0.1
 74
0
  0
LTYPE
  5
1F7
100
AcDbSymbolTableRecord
100
AcDbLinetypeTableRecord
  2
PHANTOM
 70
64
  3
_____ _ _ _____ _ _ _____ _ _ _____
 72
65
 73
6
 40
0.8
 49
0.45
 74
0
 49
-0.05
 74
0
 49
0.1
 74
0
 49
-0.05
 74
0
 49
0.1
 74
0
 49
-0.05
 74
0
  0
LTYPE
  5
1F8
100
AcDbSymbolTableRecord
100
AcDbLinetypeTableRecord
  2
DOT
 70
64
  3
. . . . . . . . . . . . . . . . . . . .
 72
65
 73
2
 40
0.2
 49
0.1
 74
0
 49
-0.1
 74
0
  0
LTYPE
  5
1F9
100
AcDbSymbolTableRecord
100
AcDbLinetypeTableRecord
  2
DASHED
 70
64
  3
- - - - - - - - - - - - - - - - - - - -
 72
65
 73
2
 40
0.2
 49
0.1
 74
0
 49
-0.1
 74
0
  0
ENDTAB
  0
TABLE
  2
LAYER
  5
2
100
AcDbSymbolTable
 70
36
  0
LAYER
  5
10
100
AcDbSymbolTableRecord
100
AcDbLayerTableRecord
  2
0
 70
0
 62
7
  6
CONTINUOUS
370
-3
390
F
  0
LAYER
  5
1FA
100
AcDbSymbolTableRecord
100
AcDbLayerTableRecord
  2
DEFAULT_1
 70
0
 62
7
  6
CENTER
370
-3
390
F
  0
LAYER
  5
1FB
100
AcDbSymbolTableRecord
100
AcDbLayerTableRecord
  2
DEFAULT_2
 70
0
 62
7
  6
HIDDEN
370
-3
390
F
  0
LAYER
  5
1FC
100
AcDbSymbolTableRecord
100
AcDbLayerTableRecord
  2
DEFAULT_3
 70
0
 62
7
  6
PHANTOM
370
-3
390
F
  0
LAYER
  5
1FD
100
AcDbSymbolTableRecord
100
AcDbLayerTableRecord
  2
ASSI
 70
0
 62
7
  6
CONTINUOUS
370
-3
390
F
  0
LAYER
  5
1FE
100
AcDbSymbolTableRecord
100
AcDbLayerTableRecord
  2
COLOR3
 70
0
 62
7
  6
CONTINUOUS
370
-3
390
F
  0
LAYER
  5
1FF
100
AcDbSymbolTableRecord
100
AcDbLayerTableRecord
  2
COORDINATE
 70
0
 62
7
  6
CONTINUOUS
370
-3
390
F
  0
LAYER
  5
200
100
AcDbSymbolTableRecord
100
AcDbLayerTableRecord
  2
COPY_PUBLISH
 70
0
 62
7
  6
CONTINUOUS
370
-3
390
F
  0
LAYER
  5
201
100
AcDbSymbolTableRecord
100
AcDbLayerTableRecord
  2
COSMETIC
 70
0
 62
7
  6
CONTINUOUS
370
-3
390
F
  0
LAYER
  5
202
100
AcDbSymbolTableRecord
100
AcDbLayerTableRecord
  2
COSMETICI
 70
0
 62
7
  6
CONTINUOUS
370
-3
390
F
  0
LAYER
  5
203
100
AcDbSymbolTableRecord
100
AcDbLayerTableRecord
  2
CURVE
 70
0
 62
7
  6
CONTINUOUS
370
-3
390
F
  0
LAYER
  5
204
100
AcDbSymbolTableRecord
100
AcDbLayerTableRecord
  2
DRAFT
 70
0
 62
7
  6
CONTINUOUS
370
-3
390
F
  0
LAYER
  5
205
100
AcDbSymbolTableRecord
100
AcDbLayerTableRecord
  2
IMPORT_IGES
 70
0
 62
7
  6
CONTINUOUS
370
-3
390
F
  0
LAYER
  5
206
100
AcDbSymbolTableRecord
100
AcDbLayerTableRecord
  2
INTFCLR_1
 70
0
 62
7
  6
CONTINUOUS
370
-3
390
F
  0
LAYER
  5
207
100
AcDbSymbolTableRecord
100
AcDbLayerTableRecord
  2
INTF_10
 70
0
 62
7
  6
CONTINUOUS
370
-3
390
F
  0
LAYER
  5
208
100
AcDbSymbolTableRecord
100
AcDbLayerTableRecord
  2
INTF_13
 70
0
 62
7
  6
CONTINUOUS
370
-3
390
F
  0
LAYER
  5
209
100
AcDbSymbolTableRecord
100
AcDbLayerTableRecord
  2
INTF_15
 70
0
 62
7
  6
CONTINUOUS
370
-3
390
F
  0
LAYER
  5
20A
100
AcDbSymbolTableRecord
100
AcDbLayerTableRecord
  2
INTF_16
 70
0
 62
7
  6
CONTINUOUS
370
-3
390
F
  0
LAYER
  5
20B
100
AcDbSymbolTableRecord
100
AcDbLayerTableRecord
  2
INTF_18
 70
0
 62
7
  6
CONTINUOUS
370
-3
390
F
  0
LAYER
  5
20C
100
AcDbSymbolTableRecord
100
AcDbLayerTableRecord
  2
INTF_20
 70
0
 62
7
  6
CONTINUOUS
370
-3
390
F
  0
LAYER
  5
20D
100
AcDbSymbolTableRecord
100
AcDbLayerTableRecord
  2
INTF_3
 70
0
 62
7
  6
CONTINUOUS
370
-3
390
F
  0
LAYER
  5
20E
100
AcDbSymbolTableRecord
100
AcDbLayerTableRecord
  2
INTF_5
 70
0
 62
7
  6
CONTINUOUS
370
-3
390
F
  0
LAYER
  5
20F
100
AcDbSymbolTableRecord
100
AcDbLayerTableRecord
  2
INTF_8
 70
0
 62
7
  6
CONTINUOUS
370
-3
390
F
  0
LAYER
  5
210
100
AcDbSymbolTableRecord
100
AcDbLayerTableRecord
  2
LIVELLO_1
 70
0
 62
7
  6
CONTINUOUS
370
-3
390
F
  0
LAYER
  5
211
100
AcDbSymbolTableRecord
100
AcDbLayerTableRecord
  2
NOTE
 70
0
 62
7
  6
CONTINUOUS
370
-3
390
F
  0
LAYER
  5
212
100
AcDbSymbolTableRecord
100
AcDbLayerTableRecord
  2
PIANI
 70
0
 62
7
  6
CONTINUOUS
370
-3
390
F
  0
LAYER
  5
213
100
AcDbSymbolTableRecord
100
AcDbLayerTableRecord
  2
PUNTI
 70
0
 62
7
  6
CONTINUOUS
370
-3
390
F
  0
LAYER
  5
214
100
AcDbSymbolTableRecord
100
AcDbLayerTableRecord
  2
RACCORDO
 70
0
 62
7
  6
CONTINUOUS
370
-3
390
F
  0
LAYER
  5
215
100
AcDbSymbolTableRecord
100
AcDbLayerTableRecord
  2
SIMBOLI
 70
0
 62
7
  6
CONTINUOUS
370
-3
390
F
  0
LAYER
  5
216
100
AcDbSymbolTableRecord
100
AcDbLayerTableRecord
  2
SMUSSO
 70
0
 62
7
  6
CONTINUOUS
370
-3
390
F
  0
LAYER
  5
217
100
AcDbSymbolTableRecord
100
AcDbLayerTableRecord
  2
SNAPLINE
 70
0
 62
7
  6
CONTINUOUS
370
-3
390
F
  0
LAYER
  5
218
100
AcDbSymbolTableRecord
100
AcDbLayerTableRecord
  2
SOLIDO
 70
0
 62
7
  6
CONTINUOUS
370
-3
390
F
  0
LAYER
  5
219
100
AcDbSymbolTableRecord
100
AcDbLayerTableRecord
  2
SUPERFICI
 70
0
 62
7
  6
CONTINUOUS
370
-3
390
F
  0
LAYER
  5
21A
100
AcDbSymbolTableRecord
100
AcDbLayerTableRecord
  2
SUPERFICI_SKEL
 70
0
 62
7
  6
CONTINUOUS
370
-3
390
F
  0
LAYER
  5
21B
100
AcDbSymbolTableRecord
100
AcDbLayerTableRecord
  2
TRASH
 70
0
 62
7
  6
CONTINUOUS
370
-3
390
F
  0
LAYER
  5
21C
100
AcDbSymbolTableRecord
100
AcDbLayerTableRecord
  2
WHITE
 70
0
 62
7
  6
CONTINUOUS
370
-3
390
F
  0
LAYER
  5
21D
100
AcDbSymbolTableRecord
100
AcDbLayerTableRecord
  2
___SHELL
 70
0
 62
7
  6
CONTINUOUS
370
-3
390
F
  0
ENDTAB
  0
TABLE
  2
STYLE
  5
3
100
AcDbSymbolTable
 70
1
  0
STYLE
  5
11
100
AcDbSymbolTableRecord
100
AcDbTextStyleTableRecord
  2
STANDARD
 70
0
 40
0.0
 41
0.8
 50
0.0
 71
0
 42
0.2
  3
txt
  4

  0
STYLE
  5
21E
100
AcDbSymbolTableRecord
100
AcDbTextStyleTableRecord
  2
TEXTSTYLE_1
 70
0
 40
0.0
 41
0.8
 50
0.0
 71
0
 42
0.2
  3
gdt
  4

  0
ENDTAB
  0
TABLE
  2
VIEW
  5
6
100
AcDbSymbolTable
 70
0
  0
ENDTAB
  0
TABLE
  2
UCS
  5
7
100
AcDbSymbolTable
 70
0
  0
ENDTAB
  0
TABLE
  2
APPID
  5
9
100
AcDbSymbolTable
 70
1
  0
APPID
  5
21F
100
AcDbSymbolTableRecord
100
AcDbRegAppTableRecord
  2
ACAD
 70
0
  0
ENDTAB
  0
TABLE
  2
BLOCK_RECORD
  5
1
100
AcDbSymbolTable
 70
0
  0
BLOCK_RECORD
  5
220
100
AcDbSymbolTableRecord
100
AcDbBlockTableRecord
  2
*Model_Space
  0
BLOCK_RECORD
  5
221
100
AcDbSymbolTableRecord
100
AcDbBlockTableRecord
  2
*Paper_Space
  0
ENDTAB
  0
TABLE
  2
DIMSTYLE
  5
A
100
AcDbSymbolTable
 70
1
100
AcDbDimStyleTable
 71
0
  0
DIMSTYLE
105
222
100
AcDbSymbolTableRecord
100
AcDbDimStyleTableRecord
  2
STANDARD
 70
0
  3

  4

 40
1.0
 41
3.0
 42
0.5
 43
0.38
 44
1.5
 45
0.0
 46
0.0
 47
0.01
 48
0.01
140
3.0
141
0.09
142
0.0
143
25.4
144
1.0
145
0.0
146
1.0
147
0.625
 71
1.0
 72
0.0
 73
0
 74
0
 75
0
 76
0
 77
1
 78
8
170
0
171
1
172
0
173
0
174
0
175
0
176
0
177
0
178
0
270
2
271
2
272
2
273
2
274
2
275
0
280
0
281
0
282
0
283
1
284
8
285
0
286
0
287
3
288
0
340
11
278
44
  0
ENDTAB
  0
ENDSEC
  0
SECTION
  2
BLOCKS
  0
BLOCK
  5
20
100
AcDbEntity
  8
0
100
AcDbBlockBegin
  2
*Model_Space
 70
0
 10
0.0
 20
0.0
 30
0.0
  3
*Model_Space
  1

  0
ENDBLK
  5
21
100
AcDbEntity
  8
0
100
AcDbBlockEnd
  0
BLOCK
  5
1C
100
AcDbEntity
  8
0
100
AcDbBlockBegin
  2
*Paper_Space
 70
0
 10
0.0
 20
0.0
 30
0.0
  3
*Paper_Space
  1

  0
ENDBLK
  5
1D
100
AcDbEntity
  8
0
100
AcDbBlockEnd
  0
ENDSEC
  0
SECTION
  2
ENTITIES
  0
LINE
  5
223
100
AcDbEntity
  8
0
100
AcDbLine
 62
7
  6
CONTINUOUS
 10
-8.7977037088
 20
21.8711603812
 11
-8.7978239458
 21
21.8710798327
  0
LWPOLYLINE
  5
224
100
AcDbEntity
  8
0
100
AcDbPolyline
 62
7
  6
CONTINUOUS
 90
19
 70
0
 10
-8.7977000277
 20
21.8711548839
 10
-8.8364084557
 20
21.8441078182
 10
-8.9036836829
 20
21.7917192182
 10
-8.9678163159
 20
21.7349284561
 10
-9.0288300807
 20
21.6740508423
 10
-9.086702207
 20
21.6093847039
 10
-9.1412478682
 20
21.5413434127
 10
-9.1923846839
 20
21.4702289973
 10
-9.2399997134
 20
21.3962954453
 10
-9.2838153203
 20
21.320047715
 10
-9.3237116288
 20
21.2417577869
 10
-9.3595275724
 20
21.1616724787
 10
-9.3910065667
 20
21.0803021129
 10
-9.41799117
 20
20.9978803628
 10
-9.4402895872
 20
20.9146236962
 10
-9.4576678697
 20
20.830884632
 10
-9.4698858935
 20
20.7468371932
 10
-9.4766828283
 20
20.662652649
 10
-9.4772853898
 20
20.6481094689
  0
LINE
  5
225
100
AcDbEntity
  8
0
100
AcDbLine
 62
7
  6
CONTINUOUS
 10
-6.3634485846
 20
23.5035232291
 11
-8.7978239458
 21
21.8710798327
  0
LINE
  5
226
100
AcDbEntity
  8
0
100
AcDbLine
 62
253
  6
CONTINUOUS
 10
-6.1139090856
 20
23.4782467086
 11
-8.5378533371
 21
21.8527982056
  0
LWPOLYLINE
  5
227
100
AcDbEntity
  8
0
100
AcDbPolyline
 62
253
  6
CONTINUOUS
 90
22
 70
0
 10
-8.5378533371
 20
21.8527982056
 10
-8.5981411671
 20
21.8128171318
 10
-8.6579316983
 20
21.768348549
 10
-8.7169147346
 20
21.7196048283
 10
-8.7747687134
 20
21.6668121246
 10
-8.8312099727
 20
21.610231469
 10
-8.8859937423
 20
21.5501562486
 10
-8.9388401997
 20
21.4868721445
 10
-8.9894714407
 20
21.4206860856
 10
-9.037660792
 20
21.3519467271
 10
-9.0831605875
 20
21.2809895174
 10
-9.125734976
 20
21.2081550926
 10
-9.1651965063
 20
21.1338171096
 10
-9.2013444217
 20
21.0583373309
 10
-9.2339900506
 20
20.9820814086
 10
-9.2629900145
 20
20.905437742
 10
-9.2881965295
 20
20.8287869916
 10
-9.3094801806
 20
20.7524950787
 10
-9.3267521204
 20
20.6769292285
 10
-9.339927995
 20
20.602457418
 10
-9.3489313248
 20
20.5294462547
 10
-9.353714068
 20
20.4582542725
  0
LWPOLYLINE
  5
228
100
AcDbEntity
  8
0
100
AcDbPolyline
 62
253
  6
CONTINUOUS
 90
16
 70
0
 10
5.3949757497
 20
-22.1487911342
 10
5.4335878484
 20
-22.1661816301
 10
5.4750131395
 20
-22.1811281708
 10
5.518849967
 20
-22.193485836
 10
5.5646732927
 20
-22.2031348067
 10
5.6120388175
 20
-22.2099815274
 10
5.6604872893
 20
-22.2139596128
 10
5.7095489559
 20
-22.2150304918
 10
5.7587481194
 20
-22.2131837811
 10
5.807607749
 20
-22.2084373864
 10
5.8556541059
 20
-22.2008373283
 10
5.9024213366
 20
-22.1904572962
 10
5.9474559901
 20
-22.1773979342
 10
5.9903214141
 20
-22.1617858646
 10
6.0306019892
 20
-22.1437724607
 10
6.0679071583
 20
-22.1235323791
  0
LWPOLYLINE
  5
229
100
AcDbEntity
  8
0
100
AcDbPolyline
 62
7
  6
CONTINUOUS
 90
12
 70
0
 10
5.6571807588
 20
-22.6639269895
 10
5.7133780329
 20
-22.6896160041
 10
5.7767067693
 20
-22.7122295552
 10
5.8424608575
 20
-22.7293123881
 10
5.9102350191
 20
-22.7406797073
 10
5.9795660511
 20
-22.7461850513
 10
6.0504696627
 20
-22.7457153776
 10
6.1226225618
 20
-22.7391196139
 10
6.1956311163
 20
-22.7262986288
 10
6.2695729687
 20
-22.707046963
 10
6.344328101
 20
-22.6811231682
 10
6.4260690592
 20
-22.6452181018
  0
LINE
  5
22A
100
AcDbEntity
  8
0
100
AcDbLine
 62
7
  6
CONTINUOUS
 10
5.657142768
 20
-22.663913525
 11
5.6570193068
 21
-22.6638508085
  0
LWPOLYLINE
  5
22B
100
AcDbEntity
  8
0
100
AcDbPolyline
 62
253
  6
CONTINUOUS
 90
12
 70
0
 10
5.6570193068
 20
-22.6638508085
 10
5.6157579876
 20
-22.6395827811
 10
5.5774108162
 20
-22.6101705672
 10
5.5423051489
 20
-22.5758317142
 10
5.5106002702
 20
-22.5367309684
 10
5.4824707151
 20
-22.4930731701
 10
5.4580501698
 20
-22.4450764623
 10
5.4374448546
 20
-22.3929707136
 10
5.420764431
 20
-22.3370085325
 10
5.408092303
 20
-22.2774610347
 10
5.3994826355
 20
-22.2146193954
 10
5.3949757473
 20
-22.1487911299
  0
LWPOLYLINE
  5
22C
100
AcDbEntity
  8
0
100
AcDbPolyline
 62
7
  6
CONTINUOUS
 90
10
 70
0
 10
-9.1222135498
 20
-14.1303674104
 10
-7.6457693869
 20
-15.0864864244
 10
-6.0598542069
 20
-16.0849247908
 10
-4.44807747
 20
-17.0707426157
 10
-2.8107993482
 20
-18.0437147077
 10
-1.1483840006
 20
-19.0036215377
 10
0.538790718
 20
-19.9502526896
 10
2.2503307632
 20
-20.8834042848
 10
3.9858331987
 20
-21.8028753878
 10
5.6570162473
 20
-22.6638492536
  0
LWPOLYLINE
  5
22D
100
AcDbEntity
  8
0
100
AcDbPolyline
 62
253
  6
CONTINUOUS
 90
31
 70
0
 10
-9.3537140592
 20
-13.6330824599
 10
-8.9070952238
 20
-13.9261173519
 10
-8.458474171
 20
-14.2179416329
 10
-8.0078612719
 20
-14.5085515278
 10
-7.5553730891
 20
-14.7978756961
 10
-7.1009148218
 20
-15.0859785476
 10
-6.6441753965
 20
-15.373057637
 10
-6.1850119984
 20
-15.6591994134
 10
-5.7235784228
 20
-15.944304811
 10
-5.2600058838
 20
-16.2282917215
 10
-4.794333918
 20
-16.5111361203
 10
-4.3265392831
 20
-16.7928522536
 10
-3.8566612058
 20
-17.0734166125
 10
-3.3846431588
 20
-17.3528628571
 10
-2.9105580542
 20
-17.6311476153
 10
-2.4346427316
 20
-17.9081338007
 10
-1.9572174355
 20
-18.1836410358
 10
-1.4779878239
 20
-18.4578455539
 10
-0.9962629238
 20
-18.7311417282
 10
-0.512963343
 20
-19.0030068722
 10
-0.0271821145
 20
-19.2739524545
 10
0.464565693
 20
-19.5458926796
 10
0.961488614
 20
-19.8183369826
 10
1.4644522383
 20
-20.0917108582
 10
1.9795462538
 20
-20.3692295093
 10
2.507063355
 20
-20.650899994
 10
3.046948014
 20
-20.9365450057
 10
3.6049171306
 20
-21.229008432
 10
4.1830401106
 20
-21.5291244955
 10
4.7796587118
 20
-21.8357679428
 10
5.3949757481
 20
-22.1487911239
  0
LINE
  5
22E
100
AcDbEntity
  8
0
100
AcDbLine
 62
7
  6
CONTINUOUS
 10
-9.1223140779
 20
-14.1303013868
 11
-9.1222122256
 21
-14.1303682798
  0
LWPOLYLINE
  5
22F
100
AcDbEntity
  8
0
100
AcDbPolyline
 62
253
  6
CONTINUOUS
 90
8
 70
0
 10
-9.3537044264
 20
-13.6330771726
 10
-9.3842492269
 20
-13.6105375599
 10
-9.4108512228
 20
-13.5862063297
 10
-9.4332524887
 20
-13.560319391
 10
-9.451235828
 20
-13.5331277363
 10
-9.4646268792
 20
-13.5048950084
 10
-9.4732958064
 20
-13.4758949437
 10
-9.4772407009
 20
-13.4445195294
  0
LINE
  5
230
100
AcDbEntity
  8
0
100
AcDbLine
 62
7
  6
CONTINUOUS
 10
-4.2053612995
 20
22.3762751366
 11
-4.3855959478
 21
21.9620931272
  0
LWPOLYLINE
  5
231
100
AcDbEntity
  8
0
100
AcDbPolyline
 62
253
  6
CONTINUOUS
 90
22
 70
0
 10
-1.4695045998
 20
-11.9076841939
 10
-1.4676744601
 20
-11.9073683828
 10
-1.4658646402
 20
-11.9070097666
 10
-1.4640751592
 20
-11.90660811
 10
-1.4623060361
 20
-11.9061631781
 10
-1.46055729
 20
-11.9056747357
 10
-1.4588289401
 20
-11.9051425478
 10
-1.4571210055
 20
-11.9045663792
 10
-1.4554335052
 20
-11.9039459949
 10
-1.4537664583
 20
-11.9032811597
 10
-1.452119884
 20
-11.9025716387
 10
-1.4506408597
 20
-11.9018875648
 10
-1.4491792645
 20
-11.9011657104
 10
-1.4477355924
 20
-11.9004054198
 10
-1.4463103373
 20
-11.8996060371
 10
-1.4449039932
 20
-11.8987669067
 10
-1.4435170538
 20
-11.8978873729
 10
-1.4421500132
 20
-11.8969667799
 10
-1.4408033652
 20
-11.896004472
 10
-1.4394776038
 20
-11.8949997934
 10
-1.4381732229
 20
-11.8939520884
 10
-1.4368907164
 20
-11.8928607014
  0
LINE
  5
232
100
AcDbEntity
  8
0
100
AcDbLine
 62
253
  6
CONTINUOUS
 10
-0.7728734122
 20
-11.9522267272
 11
-0.7653975731
 21
-11.9512134098
  0
LWPOLYLINE
  5
233
100
AcDbEntity
  8
0
100
AcDbPolyline
 62
253
  6
CONTINUOUS
 90
22
 70
0
 10
-0.9127234495
 20
-10.9222692313
 10
-0.9141893845
 20
-10.9222985329
 10
-0.9156519012
 20
-10.9223633166
 10
-0.9171112479
 20
-10.9224626397
 10
-0.9185676728
 20
-10.92259556
 10
-0.9200214241
 20
-10.9227611351
 10
-0.9214727501
 20
-10.9229584225
 10
-0.922921899
 20
-10.9231864798
 10
-0.924369119
 20
-10.9234443647
 10
-0.9258146583
 20
-10.9237311347
 10
-0.9272587652
 20
-10.9240458474
 10
-0.9287016879
 20
-10.9243875604
 10
-0.9301436746
 20
-10.9247553314
 10
-0.9318733826
 20
-10.9252295332
 10
-0.933603788
 20
-10.9257371157
 10
-0.9353365789
 20
-10.9262752932
 10
-0.9370734431
 20
-10.92684128
 10
-0.9388160684
 20
-10.9274322904
 10
-0.9405661428
 20
-10.9280455387
 10
-0.9423253542
 20
-10.9286782394
 10
-0.9440953904
 20
-10.9293276067
 10
-0.9476746889
 20
-10.9306651983
  0
LWPOLYLINE
  5
234
100
AcDbEntity
  8
0
100
AcDbPolyline
 62
253
  6
CONTINUOUS
 90
22
 70
0
 10
-0.7924368922
 20
-11.980273602
 10
-0.7890319854
 20
-11.9808195862
 10
-0.7856622276
 20
-11.9812551767
 10
-0.7823252486
 20
-11.9815810608
 10
-0.7790186784
 20
-11.9817979261
 10
-0.7757401471
 20
-11.9819064602
 10
-0.7724872846
 20
-11.9819073505
 10
-0.7692584288
 20
-11.9818009145
 10
-0.7660547493
 20
-11.9815859904
 10
-0.7628781237
 20
-11.981261046
 10
-0.7597304294
 20
-11.9808245493
 10
-0.7566135441
 20
-11.9802749684
 10
-0.7535293452
 20
-11.9796107712
 10
-0.7504788824
 20
-11.9788322999
 10
-0.7474598936
 20
-11.977947393
 10
-0.7444692887
 20
-11.9769657629
 10
-0.741503978
 20
-11.9758971223
 10
-0.7385608712
 20
-11.9747511838
 10
-0.7356368785
 20
-11.9735376599
 10
-0.7312796133
 20
-11.9716133655
 10
-0.7269458399
 20
-11.9696004446
 10
-0.7182985184
 20
-11.9654750729
  0
LWPOLYLINE
  5
235
100
AcDbEntity
  8
0
100
AcDbPolyline
 62
253
  6
CONTINUOUS
 90
23
 70
0
 10
-1.5105455564
 20
-11.9032929618
 10
-1.5085935533
 20
-11.9038928852
 10
-1.5066501871
 20
-11.9044527279
 10
-1.5047153836
 20
-11.9049728529
 10
-1.5027890687
 20
-11.9054536233
 10
-1.5008711685
 20
-11.9058954024
 10
-1.4989616089
 20
-11.9062985532
 10
-1.4970603157
 20
-11.9066634389
 10
-1.4951672151
 20
-11.9069904226
 10
-1.4932822328
 20
-11.9072798675
 10
-1.4914052949
 20
-11.9075321366
 10
-1.4895363273
 20
-11.9077475932
 10
-1.4876752726
 20
-11.9079265194
 10
-1.4858221394
 20
-11.9080688741
 10
-1.4839769533
 20
-11.9081745351
 10
-1.4821397395
 20
-11.9082433802
 10
-1.4803105234
 20
-11.9082752874
 10
-1.4784893304
 20
-11.9082701344
 10
-1.4766761859
 20
-11.9082277993
 10
-1.4748711152
 20
-11.9081481598
 10
-1.4730741437
 20
-11.9080310938
 10
-1.4712852968
 20
-11.9078764792
 10
-1.4695045998
 20
-11.9076841939
  0
LWPOLYLINE
  5
236
100
AcDbEntity
  8
0
100
AcDbPolyline
 62
253
  6
CONTINUOUS
 90
31
 70
0
 10
-0.8307589816
 20
-11.9405555557
 10
-0.828903424
 20
-11.9415742565
 10
-0.8270331248
 20
-11.9425685872
 10
-0.8251475107
 20
-11.9435366892
 10
-0.8232460086
 20
-11.9444767038
 10
-0.8213280453
 20
-11.9453867722
 10
-0.8193930475
 20
-11.9462650358
 10
-0.8174404421
 20
-11.9471096357
 10
-0.8154696558
 20
-11.9479187133
 10
-0.8137024041
 20
-11.9486062311
 10
-0.81192164
 20
-11.9492608765
 10
-0.810128669
 20
-11.9498793128
 10
-0.8083247967
 20
-11.9504582034
 10
-0.8065113285
 20
-11.9509942115
 10
-0.8046895701
 20
-11.9514840003
 10
-0.8028608271
 20
-11.9519242331
 10
-0.8010264049
 20
-11.9523115733
 10
-0.7991876092
 20
-11.9526426841
 10
-0.7973455587
 20
-11.9529152168
 10
-0.7955006253
 20
-11.9531307749
 10
-0.7936529939
 20
-11.9532919499
 10
-0.7918028495
 20
-11.9534013333
 10
-0.7899503773
 20
-11.9534615166
 10
-0.7880957621
 20
-11.9534750913
 10
-0.7862391892
 20
-11.9534446489
 10
-0.7843808433
 20
-11.953372781
 10
-0.7825209097
 20
-11.9532620789
 10
-0.780126531
 20
-11.9530676361
 10
-0.7777242265
 20
-11.9528234708
 10
-0.7753083892
 20
-11.9525397716
 10
-0.7728734122
 20
-11.9522267272
  0
LWPOLYLINE
  5
237
100
AcDbEntity
  8
0
100
AcDbPolyline
 62
253
  6
CONTINUOUS
 90
54
 70
0
 10
-1.5397379965
 20
-11.8654765695
 10
-1.5363024216
 20
-11.8673669122
 10
-1.5329257959
 20
-11.8691166003
 10
-1.5296068044
 20
-11.8707281135
 10
-1.5263441323
 20
-11.8722039311
 10
-1.5231364647
 20
-11.8735465326
 10
-1.5199824868
 20
-11.8747583975
 10
-1.5168808836
 20
-11.8758420051
 10
-1.5138303403
 20
-11.876799835
 10
-1.510829542
 20
-11.8776343666
 10
-1.5075126106
 20
-11.8784291007
 10
-1.50426196
 20
-11.879075527
 10
-1.5010825763
 20
-11.879578249
 10
-1.4979794458
 20
-11.8799418703
 10
-1.4949577016
 20
-11.8801713835
 10
-1.4920230633
 20
-11.8802733383
 10
-1.4891813975
 20
-11.8802546733
 10
-1.4864385706
 20
-11.8801223274
 10
-1.4837982502
 20
-11.8798829358
 10
-1.4812553087
 20
-11.8795419204
 10
-1.4788024194
 20
-11.8791043993
 10
-1.4764322557
 20
-11.8785754909
 10
-1.474138531
 20
-11.8779601185
 10
-1.4719191171
 20
-11.877262425
 10
-1.4697729261
 20
-11.8764863585
 10
-1.4676988698
 20
-11.8756358668
 10
-1.4654153579
 20
-11.8745774772
 10
-1.4632224536
 20
-11.8734309453
 10
-1.4611179687
 20
-11.8722001806
 10
-1.4590997154
 20
-11.8708890925
 10
-1.4571655057
 20
-11.8695015906
 10
-1.4553131516
 20
-11.8680415845
 10
-1.4535404652
 20
-11.8665129835
 10
-1.4515707263
 20
-11.8646475148
 10
-1.4497067102
 20
-11.8626964875
 10
-1.4479486812
 20
-11.8606623869
 10
-1.4462969037
 20
-11.8585476983
 10
-1.4447516418
 20
-11.856354907
 10
-1.44331316
 20
-11.8540864983
 10
-1.4419816811
 20
-11.8517443247
 10
-1.4407572618
 20
-11.8493277077
 10
-1.4396399178
 20
-11.8468353361
 10
-1.4386293267
 20
-11.8442667113
 10
-1.4377238159
 20
-11.8416245845
 10
-1.4369213753
 20
-11.8389125197
 10
-1.4362184701
 20
-11.8361345451
 10
-1.4356054675
 20
-11.8332965471
 10
-1.4350712105
 20
-11.8304048767
 10
-1.4346050743
 20
-11.8274657148
 10
-1.4341985652
 20
-11.8244845639
 10
-1.4338437217
 20
-11.8214667563
 10
-1.4333909732
 20
-11.8168829016
 10
-1.4330100421
 20
-11.8122461034
 10
-1.4323575622
 20
-11.8028838188
  0
LWPOLYLINE
  5
238
100
AcDbEntity
  8
0
100
AcDbPolyline
 62
253
  6
CONTINUOUS
 90
47
 70
0
 10
-3.9852543977
 20
-10.6805413375
 10
-3.9570297801
 20
-10.6968155016
 10
-3.9290451372
 20
-10.7117967855
 10
-3.9012633799
 20
-10.7254553672
 10
-3.8736474188
 20
-10.7377614247
 10
-3.8461601646
 20
-10.7486851359
 10
-3.8187900219
 20
-10.7581888507
 10
-3.7916273714
 20
-10.7662036063
 10
-3.7647880876
 20
-10.7726526116
 10
-3.7383880452
 20
-10.7774590755
 10
-3.7125431188
 20
-10.7805462071
 10
-3.6915031314
 20
-10.7817651629
 10
-3.6709350059
 20
-10.7817831268
 10
-3.6508446388
 20
-10.7806464148
 10
-3.631244911
 20
-10.778398195
 10
-3.6121766429
 20
-10.775069043
 10
-3.5936876397
 20
-10.7706863867
 10
-3.575815252
 20
-10.7652778669
 10
-3.5585550121
 20
-10.7588719786
 10
-3.5418919975
 20
-10.7514974295
 10
-3.5258217234
 20
-10.7431712091
 10
-3.5103814541
 20
-10.7338634315
 10
-3.4956188916
 20
-10.7235324922
 10
-3.4815851276
 20
-10.7121364044
 10
-3.4683448142
 20
-10.6996316524
 10
-3.4559659934
 20
-10.6859743384
 10
-3.4445073864
 20
-10.6711330124
 10
-3.4339904312
 20
-10.6551260158
 10
-3.424427245
 20
-10.6379841379
 10
-3.415820306
 20
-10.6197489058
 10
-3.4081335357
 20
-10.6005047972
 10
-3.4013212169
 20
-10.5803470276
 10
-3.3953371365
 20
-10.5593679096
 10
-3.3901330999
 20
-10.5376481442
 10
-3.3856604168
 20
-10.5152655293
 10
-3.3818704677
 20
-10.4922989936
 10
-3.3787149168
 20
-10.4688319882
 10
-3.3761454991
 20
-10.4449490946
 10
-3.3732781275
 20
-10.4085553657
 10
-3.3714180741
 20
-10.3718539349
 10
-3.3703626821
 20
-10.3352044601
 10
-3.3699102092
 20
-10.2986542797
 10
-3.3698720736
 20
-10.2622109873
 10
-3.3701114217
 20
-10.2260355168
 10
-3.3706862648
 20
-10.1784545472
 10
-3.3714699047
 20
-10.1315280838
 10
-3.3739622774
 20
-10.0160508144
  0
LWPOLYLINE
  5
239
100
AcDbEntity
  8
0
100
AcDbPolyline
 62
253
  6
CONTINUOUS
 90
45
 70
0
 10
-3.9845525246
 20
-10.7056269672
 10
-3.9560258773
 20
-10.7220886937
 10
-3.9277247839
 20
-10.7372728338
 10
-3.8996117389
 20
-10.7511506838
 10
-3.8716492369
 20
-10.7636935399
 10
-3.8437997724
 20
-10.7748726984
 10
-3.8160515958
 20
-10.7846513115
 10
-3.7884959817
 20
-10.7929599553
 10
-3.7612499603
 20
-10.7997210617
 10
-3.734430562
 20
-10.8048570625
 10
-3.7081548171
 20
-10.8082903897
 10
-3.6867482158
 20
-10.8098091679
 10
-3.66580893
 20
-10.8101325012
 10
-3.6453454673
 20
-10.8093012237
 10
-3.6253731487
 20
-10.807354763
 10
-3.6059345507
 20
-10.80432692
 10
-3.5870790633
 20
-10.8002500895
 10
-3.5688441992
 20
-10.7951569614
 10
-3.5512199609
 20
-10.789081407
 10
-3.5341844732
 20
-10.7820575932
 10
-3.5177256196
 20
-10.7741115561
 10
-3.5018703174
 20
-10.76523681
 10
-3.4866552423
 20
-10.7554187382
 10
-3.4721218878
 20
-10.7446342357
 10
-3.4583310175
 20
-10.7328262417
 10
-3.4453482129
 20
-10.7199292066
 10
-3.433233194
 20
-10.7058905366
 10
-3.4220222353
 20
-10.6907094601
 10
-3.41174575
 20
-10.674398161
 10
-3.400668943
 20
-10.6533688209
 10
-3.3909060173
 20
-10.6308643037
 10
-3.3823814174
 20
-10.6070194078
 10
-3.3750195877
 20
-10.5819689316
 10
-3.3687449728
 20
-10.5558476736
 10
-3.3634807278
 20
-10.5287937894
 10
-3.3591448518
 20
-10.5009588634
 10
-3.3556540544
 20
-10.4724978375
 10
-3.3529250452
 20
-10.4435656534
 10
-3.3508745341
 20
-10.4143172528
 10
-3.3491389336
 20
-10.3775194626
 10
-3.3481723967
 20
-10.3406003769
 10
-3.3478139749
 20
-10.303690692
 10
-3.3479027197
 20
-10.2669211039
 10
-3.348286803
 20
-10.2304016718
 10
-3.3501946706
 20
-10.1224231965
  0
LWPOLYLINE
  5
23A
100
AcDbEntity
  8
0
100
AcDbPolyline
 62
253
  6
CONTINUOUS
 90
46
 70
0
 10
-3.9916378085
 20
-10.4587126532
 10
-4.0092749849
 20
-10.4477581569
 10
-4.0267345191
 20
-10.4361064268
 10
-4.0440753156
 20
-10.4237330063
 10
-4.0613453543
 20
-10.4106163372
 10
-4.0785489161
 20
-10.3967464552
 10
-4.0956793576
 20
-10.3821162945
 10
-4.1127218909
 20
-10.3667265603
 10
-4.1296291503
 20
-10.3506090428
 10
-4.1463456263
 20
-10.3338033027
 10
-4.1628183861
 20
-10.3163492347
 10
-4.1790048061
 20
-10.2982880674
 10
-4.1948648397
 20
-10.2796613627
 10
-4.210361705
 20
-10.2605050613
 10
-4.2254716776
 20
-10.2408326186
 10
-4.2401742979
 20
-10.2206518684
 10
-4.2509156021
 20
-10.2051962962
 10
-4.2613714605
 20
-10.18951564
 10
-4.2715059347
 20
-10.1736525976
 10
-4.2813185381
 20
-10.157594928
 10
-4.2908156042
 20
-10.1413205533
 10
-4.299995296
 20
-10.1248229873
 10
-4.308852926
 20
-10.1081104638
 10
-4.3173805761
 20
-10.0912345062
 10
-4.3255679492
 20
-10.0742563986
 10
-4.3333984636
 20
-10.0572331789
 10
-4.3408515663
 20
-10.0402110639
 10
-4.3478971033
 20
-10.0231972311
 10
-4.3545073182
 20
-10.0061854472
 10
-4.3606736451
 20
-9.9891548747
 10
-4.3663924916
 20
-9.9720960212
 10
-4.3716609699
 20
-9.9550593801
 10
-4.377993733
 20
-9.9324709954
 10
-4.3835949029
 20
-9.9100701124
 10
-4.3885383616
 20
-9.8878883176
 10
-4.3928991726
 20
-9.8659437285
 10
-4.3967571248
 20
-9.8442005852
 10
-4.4001931884
 20
-9.8226096585
 10
-4.4046978538
 20
-9.7904400966
 10
-4.4084956598
 20
-9.7585707718
 10
-4.4116575517
 20
-9.7270377134
 10
-4.4142974278
 20
-9.6957470074
 10
-4.4165333482
 20
-9.6645909203
 10
-4.4184570666
 20
-9.6335363817
 10
-4.4216379424
 20
-9.571605365
 10
-4.4241681515
 20
-9.5094938792
  0
LWPOLYLINE
  5
23B
100
AcDbEntity
  8
0
100
AcDbPolyline
 62
253
  6
CONTINUOUS
 90
43
 70
0
 10
-3.9914526098
 20
-10.4341366062
 10
-4.0111578401
 20
-10.4218741244
 10
-4.0304491468
 20
-10.4088313819
 10
-4.0493290966
 20
-10.3950525033
 10
-4.0678002563
 20
-10.380581613
 10
-4.0858651926
 20
-10.3654628357
 10
-4.1035264722
 20
-10.349740296
 10
-4.1207845823
 20
-10.3334547812
 10
-4.1376316918
 20
-10.3166337296
 10
-4.1540578903
 20
-10.2993012425
 10
-4.1700532671
 20
-10.2814814211
 10
-4.1856079117
 20
-10.2631983666
 10
-4.2007119136
 20
-10.24447618
 10
-4.215352286
 20
-10.2253398174
 10
-4.2295037381
 20
-10.2058176534
 10
-4.2431379031
 20
-10.1859389175
 10
-4.2562308908
 20
-10.1657232582
 10
-4.2687767192
 20
-10.1451520016
 10
-4.2807738832
 20
-10.1241968928
 10
-4.2922177145
 20
-10.1028505956
 10
-4.3030908924
 20
-10.0811894477
 10
-4.3133729329
 20
-10.0593107052
 10
-4.3230352067
 20
-10.0373051262
 10
-4.3320165029
 20
-10.0152374762
 10
-4.3402474654
 20
-9.9931660227
 10
-4.3476754837
 20
-9.9711441538
 10
-4.3543149298
 20
-9.9492057402
 10
-4.3601969216
 20
-9.9273797732
 10
-4.365362274
 20
-9.9056983137
 10
-4.3698905902
 20
-9.8842056999
 10
-4.3738711705
 20
-9.8629493397
 10
-4.3789932457
 20
-9.8315494406
 10
-4.3832824185
 20
-9.8005755466
 10
-4.3869190313
 20
-9.7698580842
 10
-4.3900104865
 20
-9.7393981169
 10
-4.3926418058
 20
-9.709214878
 10
-4.3948814272
 20
-9.6792296404
 10
-4.3967920737
 20
-9.6493527572
 10
-4.3984301924
 20
-9.6195488619
 10
-4.4011267729
 20
-9.5599900793
 10
-4.403414693
 20
-9.500051417
 10
-4.4053928745
 20
-9.4394722326
 10
-4.4070281147
 20
-9.3780246647
  0
LINE
  5
23C
100
AcDbEntity
  8
0
100
AcDbLine
 62
253
  6
CONTINUOUS
 10
-1.5532899915
 20
-11.8569395767
 11
-1.5397379965
 21
-11.8654765695
  0
LWPOLYLINE
  5
23D
100
AcDbEntity
  8
0
100
AcDbPolyline
 62
253
  6
CONTINUOUS
 90
11
 70
0
 10
-9.3537140502
 20
-13.6330824496
 10
-9.3489313074
 20
-13.6990700018
 10
-9.3399279768
 20
-13.7621389444
 10
-9.3267521011
 20
-13.8219773032
 10
-9.3094801605
 20
-13.8782810184
 10
-9.2881965098
 20
-13.9307784273
 10
-9.2629899953
 20
-13.9792289422
 10
-9.2339900315
 20
-14.0233893029
 10
-9.2013444027
 20
-14.0630332256
 10
-9.1651964874
 20
-14.0979738592
 10
-9.1223140779
 20
-14.1303013868
  0
LWPOLYLINE
  5
23E
100
AcDbEntity
  8
0
100
AcDbPolyline
 62
253
  6
CONTINUOUS
 90
8
 70
0
 10
-9.6690480124
 20
3.8390992737
 10
-9.6672530332
 20
3.7970572001
 10
-9.6609615903
 20
3.7581505069
 10
-9.6506060207
 20
3.7223552851
 10
-9.6365614181
 20
3.6897160391
 10
-9.618683529
 20
3.6604292101
 10
-9.5968555108
 20
3.6349152464
 10
-9.5720306605
 20
3.6139604564
  0
LWPOLYLINE
  5
23F
100
AcDbEntity
  8
0
100
AcDbPolyline
 62
7
  6
CONTINUOUS
 90
13
 70
0
 10
-9.4772407009
 20
-13.4445195294
 10
-9.4768731439
 20
-13.4533948736
 10
-9.4700732158
 20
-13.5353323241
 10
-9.4573919019
 20
-13.6138056983
 10
-9.4390352509
 20
-13.6885785574
 10
-9.4152143816
 20
-13.7595696902
 10
-9.3861320183
 20
-13.8266410794
 10
-9.3520673591
 20
-13.889482867
 10
-9.3133178231
 20
-13.9478807765
 10
-9.2701924093
 20
-14.0016447462
 10
-9.223133542
 20
-14.0504625658
 10
-9.1725729996
 20
-14.0941227848
 10
-9.1223424446
 20
-14.1302756669
  0
LINE
  5
240
100
AcDbEntity
  8
0
100
AcDbLine
 62
253
  6
CONTINUOUS
 10
-9.7866146817
 20
4.025096212
 11
-9.7865244619
 21
4.0194004201
  0
LWPOLYLINE
  5
241
100
AcDbEntity
  8
0
100
AcDbPolyline
 62
7
  6
CONTINUOUS
 90
10
 70
0
 10
-9.7866147471
 20
2.8036789328
 10
-9.7809502161
 20
1.0328716162
 10
-9.767986077
 20
-0.7994572904
 10
-9.7478015938
 20
-2.6274908101
 10
-9.7203960549
 20
-4.4511896291
 10
-9.6857693206
 20
-6.2705168264
 10
-9.6439212621
 20
-8.0854364701
 10
-9.5948526004
 20
-9.8959074407
 10
-9.5385648337
 20
-11.7018838978
 10
-9.4772560789
 20
-13.4443284528
  0
LWPOLYLINE
  5
242
100
AcDbEntity
  8
0
100
AcDbPolyline
 62
253
  6
CONTINUOUS
 90
10
 70
0
 10
-9.6690478708
 20
2.6177308732
 10
-9.6637194313
 20
0.9344829588
 10
-9.6519976062
 20
-0.7701146845
 10
-9.6336007508
 20
-2.4958647305
 10
-9.6084567274
 20
-4.2294273174
 10
-9.5761662811
 20
-5.9837944361
 10
-9.5354870974
 20
-7.7979792356
 10
-9.4852660654
 20
-9.6845085853
 10
-9.4249549637
 20
-11.6297327341
 10
-9.3537140592
 20
-13.6330824599
  0
LWPOLYLINE
  5
243
100
AcDbEntity
  8
0
100
AcDbPolyline
 62
7
  6
CONTINUOUS
 90
10
 70
0
 10
-9.4772852658
 20
20.6483346976
 10
-9.5384101677
 20
18.8370313051
 10
-9.5947132908
 20
16.9627388338
 10
-9.6437983248
 20
15.0927201381
 10
-9.6856638231
 20
13.2270209283
 10
-9.7203091411
 20
11.3656809157
 10
-9.7477339134
 20
9.5087375173
 10
-9.7679380285
 20
7.6562285868
 10
-9.7809226641
 20
5.8081930789
 10
-9.7866146817
 20
4.025096212
  0
LWPOLYLINE
  5
244
100
AcDbEntity
  8
0
100
AcDbPolyline
 62
253
  6
CONTINUOUS
 90
10
 70
0
 10
-9.3537140577
 20
20.4582542729
 10
-9.4198403689
 20
18.5306149604
 10
-9.4773003261
 20
16.6390820432
 10
-9.5264741021
 20
14.7834930118
 10
-9.5673020668
 20
12.9845181494
 10
-9.6007433663
 20
11.2210730541
 10
-9.6279872893
 20
9.4307537911
 10
-9.648874031
 20
7.5930929667
 10
-9.6626839639
 20
5.7291246254
 10
-9.6690478783
 20
3.8390991804
  0
LWPOLYLINE
  5
245
100
AcDbEntity
  8
0
100
AcDbPolyline
 62
253
  6
CONTINUOUS
 90
16
 70
0
 10
-9.6690480792
 20
2.6177309321
 10
-9.6672530334
 20
2.6622145968
 10
-9.6609611349
 20
2.7069958534
 10
-9.6506048517
 20
2.7522429383
 10
-9.6365594422
 20
2.7985260085
 10
-9.6186806982
 20
2.845517658
 10
-9.5968517773
 20
2.891806172
 10
-9.5718683965
 20
2.9369194103
 10
-9.5440296694
 20
2.9809157729
 10
-9.513005323
 20
3.0228810248
 10
-9.4795731479
 20
3.0623597014
 10
-9.4444304741
 20
3.099201714
 10
-9.4072004965
 20
3.1327536503
 10
-9.3682716771
 20
3.1625830039
 10
-9.3288344526
 20
3.1886253463
 10
-9.2897004676
 20
3.2107684833
  0
LWPOLYLINE
  5
246
100
AcDbEntity
  8
0
100
AcDbPolyline
 62
253
  6
CONTINUOUS
 90
53
 70
0
 10
-1.186805226
 20
8.9698626496
 10
-1.183422997
 20
8.9719667067
 10
-1.1799648235
 20
8.9738693306
 10
-1.1764239636
 20
8.9755788791
 10
-1.1727936751
 20
8.9771037099
 10
-1.1690672161
 20
8.978452181
 10
-1.1652390681
 20
8.9796307602
 10
-1.1613086075
 20
8.9806383554
 10
-1.1572764344
 20
8.9814719846
 10
-1.1531431487
 20
8.9821286658
 10
-1.1489093505
 20
8.9826054169
 10
-1.144576442
 20
8.9828991547
 10
-1.1401490346
 20
8.9830063902
 10
-1.135632542
 20
8.9829235335
 10
-1.1310323779
 20
8.9826469943
 10
-1.126353956
 20
8.9821731825
 10
-1.1224010496
 20
8.9816257192
 10
-1.1184106093
 20
8.9809406761
 10
-1.1143956872
 20
8.9801199615
 10
-1.1103656868
 20
8.9791645351
 10
-1.1063154164
 20
8.9780715632
 10
-1.1022360354
 20
8.9768372634
 10
-1.0972942174
 20
8.9751652343
 10
-1.0923083501
 20
8.9732837637
 10
-1.0872890339
 20
8.9711923685
 10
-1.082246869
 20
8.9688905657
 10
-1.0771924561
 20
8.9663778723
 10
-1.072136307
 20
8.9636556762
 10
-1.0670885803
 20
8.9607328489
 10
-1.0620593462
 20
8.9576201329
 10
-1.057058675
 20
8.9543282707
 10
-1.0520966369
 20
8.9508680046
 10
-1.0479959382
 20
8.9478615611
 10
-1.0439202284
 20
8.9447398664
 10
-1.0398606747
 20
8.9414971562
 10
-1.0358123722
 20
8.9381307693
 10
-1.0317861267
 20
8.9346504553
 10
-1.0277966719
 20
8.931069067
 10
-1.0230754293
 20
8.926654115
 10
-1.0184346072
 20
8.9221225477
 10
-1.0138804315
 20
8.9174847894
 10
-1.0094191275
 20
8.912751264
 10
-1.005056921
 20
8.9079323958
 10
-1.0007989889
 20
8.9030374008
 10
-0.9966463141
 20
8.8980706629
 10
-0.9925988311
 20
8.8930353576
 10
-0.9886564742
 20
8.8879346606
 10
-0.9848191778
 20
8.8827717477
 10
-0.9810857435
 20
8.8775466809
 10
-0.9774504422
 20
8.8722470669
 10
-0.9739064119
 20
8.866857399
 10
-0.9704467907
 20
8.8613621704
 10
-0.9670647167
 20
8.8557458743
  0
LINE
  5
247
100
AcDbEntity
  8
0
100
AcDbLine
 62
253
  6
CONTINUOUS
 10
6.188122463
 20
13.3502043587
 11
8.7424267229
 21
14.9003846064
  0
LINE
  5
248
100
AcDbEntity
  8
0
100
AcDbLine
 62
253
  6
CONTINUOUS
 10
-2.9419713171
 20
8.9194501493
 11
-2.63458063
 21
9.0952872976
  0
LWPOLYLINE
  5
249
100
AcDbEntity
  8
0
100
AcDbPolyline
 62
253
  6
CONTINUOUS
 90
29
 70
0
 10
-3.3829337024
 20
9.100264284
 10
-3.3773517706
 20
9.102609614
 10
-3.375529502
 20
9.103354591
 10
-3.3737210277
 20
9.1040700354
 10
-3.3719239914
 20
9.1047514894
 10
-3.3701362371
 20
9.1053950005
 10
-3.3683556088
 20
9.1059966158
 10
-3.3665799503
 20
9.1065523826
 10
-3.3648071056
 20
9.1070583483
 10
-3.3630349186
 20
9.1075105601
 10
-3.3614833017
 20
9.1078591456
 10
-3.359930306
 20
9.1081615164
 10
-3.3583757001
 20
9.1084156396
 10
-3.3568192522
 20
9.1086194821
 10
-3.3552605791
 20
9.1087711003
 10
-3.3536986892
 20
9.1088689089
 10
-3.3521324392
 20
9.1089114119
 10
-3.3505606858
 20
9.1088971134
 10
-3.3492987126
 20
9.1088437894
 10
-3.3480328613
 20
9.1087524916
 10
-3.346763508
 20
9.1086225566
 10
-3.3454910286
 20
9.1084533209
 10
-3.3442157989
 20
9.1082441212
 10
-3.3431511515
 20
9.1080384398
 10
-3.3420843148
 20
9.1078021114
 10
-3.3410147485
 20
9.1075327027
 10
-3.3399419121
 20
9.1072277802
 10
-3.3388652652
 20
9.1068849106
 10
-3.3377842673
 20
9.1065016603
  0
LWPOLYLINE
  5
24A
100
AcDbEntity
  8
0
100
AcDbPolyline
 62
253
  6
CONTINUOUS
 90
4
 70
0
 10
-3.3887588023
 20
9.0978999918
 10
-3.3867844901
 20
9.0986785584
 10
-3.3848439088
 20
9.0994689833
 10
-3.3829337024
 20
9.100264284
  0
LWPOLYLINE
  5
24B
100
AcDbEntity
  8
0
100
AcDbPolyline
 62
253
  6
CONTINUOUS
 90
23
 70
0
 10
-2.4400732083
 20
-10.1743131185
 10
-2.4417950246
 20
-10.1746015648
 10
-2.4434988061
 20
-10.1749296012
 10
-2.4451847711
 20
-10.175297602
 10
-2.4468531375
 20
-10.1757059411
 10
-2.4485041235
 20
-10.1761549927
 10
-2.4501379472
 20
-10.1766451307
 10
-2.4517548268
 20
-10.1771767293
 10
-2.4533547476
 20
-10.1777501114
 10
-2.4549367641
 20
-10.1783653955
 10
-2.4564996979
 20
-10.1790226489
 10
-2.4580423709
 20
-10.1797219392
 10
-2.4595636048
 20
-10.1804633337
 10
-2.4610622212
 20
-10.1812468997
 10
-2.4625370419
 20
-10.1820727047
 10
-2.4638071719
 20
-10.1828300734
 10
-2.4650580408
 20
-10.1836204005
 10
-2.466289508
 20
-10.184444254
 10
-2.4675014332
 20
-10.1853022014
 10
-2.4686936758
 20
-10.1861948105
 10
-2.4698660953
 20
-10.187122649
 10
-2.4710185513
 20
-10.1880862847
 10
-2.4743775947
 20
-10.1910174166
  0
LWPOLYLINE
  5
24C
100
AcDbEntity
  8
0
100
AcDbPolyline
 62
253
  6
CONTINUOUS
 90
21
 70
0
 10
-1.6394556753
 20
-10.1897522567
 10
-1.6409329351
 20
-10.1897692656
 10
-1.6423937645
 20
-10.1898221885
 10
-1.6438386468
 20
-10.1899094026
 10
-1.6452680653
 20
-10.190029285
 10
-1.6466825035
 20
-10.1901802128
 10
-1.6480824446
 20
-10.1903605632
 10
-1.6494683719
 20
-10.1905687134
 10
-1.6508407689
 20
-10.1908030404
 10
-1.6522001188
 20
-10.1910619216
 10
-1.6539296105
 20
-10.1914283411
 10
-1.6556402579
 20
-10.191829846
 10
-1.6573339854
 20
-10.1922636147
 10
-1.6590127173
 20
-10.1927268259
 10
-1.660678378
 20
-10.1932166581
 10
-1.6623328918
 20
-10.19373029
 10
-1.6639781831
 20
-10.1942649001
 10
-1.6662695155
 20
-10.1950432239
 10
-1.6685503512
 20
-10.1958493825
 10
-1.6708244979
 20
-10.1966756233
 10
-1.6753679552
 20
-10.1983573409
  0
LWPOLYLINE
  5
24D
100
AcDbEntity
  8
0
100
AcDbPolyline
 62
253
  6
CONTINUOUS
 90
18
 70
0
 10
-2.0275702192
 20
-10.3800432348
 10
-2.0293406311
 20
-10.3796514644
 10
-2.0311181073
 20
-10.3792208494
 10
-2.0329019441
 20
-10.3787534132
 10
-2.034691438
 20
-10.3782511792
 10
-2.0364858853
 20
-10.3777161708
 10
-2.0382845825
 20
-10.3771504113
 10
-2.0400868259
 20
-10.3765559241
 10
-2.0418919119
 20
-10.3759347327
 10
-2.043957658
 20
-10.3751945723
 10
-2.0460264232
 20
-10.3744244521
 10
-2.0480984326
 20
-10.3736266489
 10
-2.0501739115
 20
-10.3728034393
 10
-2.0522530851
 20
-10.3719570997
 10
-2.0543361787
 20
-10.3710899068
 10
-2.0564234175
 20
-10.3702041372
 10
-2.0593526485
 20
-10.3689372663
 10
-2.0622892874
 20
-10.3676451795
  0
LWPOLYLINE
  5
24E
100
AcDbEntity
  8
0
100
AcDbPolyline
 62
253
  6
CONTINUOUS
 90
25
 70
0
 10
-2.3976591765
 20
-10.179548434
 10
-2.4008439066
 20
-10.1784417854
 10
-2.402595398
 20
-10.1778679779
 10
-2.4043424212
 20
-10.1773316146
 10
-2.4060850359
 20
-10.1768323918
 10
-2.4078233016
 20
-10.176370006
 10
-2.409557278
 20
-10.1759441539
 10
-2.4112870248
 20
-10.1755545318
 10
-2.4130126013
 20
-10.1752008362
 10
-2.4147340674
 20
-10.1748827636
 10
-2.4164514826
 20
-10.1746000106
 10
-2.4181649065
 20
-10.1743522736
 10
-2.4198743986
 20
-10.1741392491
 10
-2.4215800013
 20
-10.1739607106
 10
-2.4232816868
 20
-10.1738167396
 10
-2.4249794103
 20
-10.1737074947
 10
-2.4266731268
 20
-10.1736331343
 10
-2.4283627913
 20
-10.173593817
 10
-2.4300483588
 20
-10.1735897013
 10
-2.4317297843
 20
-10.1736209458
 10
-2.4334070229
 20
-10.1736877089
 10
-2.4350800296
 20
-10.1737901492
 10
-2.4367487593
 20
-10.1739284253
 10
-2.4384131672
 20
-10.1741026955
 10
-2.4400732083
 20
-10.1743131185
  0
LWPOLYLINE
  5
24F
100
AcDbEntity
  8
0
100
AcDbPolyline
 62
253
  6
CONTINUOUS
 90
25
 70
0
 10
-0.8709094063
 20
-10.9322340041
 10
-0.8728952405
 20
-10.931404057
 10
-0.8748730651
 20
-10.9306056051
 10
-0.876842962
 20
-10.9298391959
 10
-0.878805013
 20
-10.9291053768
 10
-0.8807593
 20
-10.928404695
 10
-0.8827059048
 20
-10.927737698
 10
-0.8846449094
 20
-10.927104933
 10
-0.8865763955
 20
-10.9265069476
 10
-0.8885004449
 20
-10.9259442889
 10
-0.8904171396
 20
-10.9254175044
 10
-0.8923265614
 20
-10.9249271415
 10
-0.8939365378
 20
-10.9245411521
 10
-0.895541005
 20
-10.9241824432
 10
-0.8971396026
 20
-10.923851826
 10
-0.8987319702
 20
-10.9235501121
 10
-0.9003177474
 20
-10.923278113
 10
-0.9018965735
 20
-10.9230366403
 10
-0.9034680882
 20
-10.9228265052
 10
-0.905031931
 20
-10.9226485194
 10
-0.9065877413
 20
-10.9225034944
 10
-0.9081351588
 20
-10.9223922416
 10
-0.909673823
 20
-10.9223155725
 10
-0.9112033734
 20
-10.9222742985
 10
-0.9127234495
 20
-10.9222692313
  0
LWPOLYLINE
  5
250
100
AcDbEntity
  8
0
100
AcDbPolyline
 62
253
  6
CONTINUOUS
 90
25
 70
0
 10
-1.5967275657
 20
-10.2000822964
 10
-1.5987974782
 20
-10.1991968106
 10
-1.6008655386
 20
-10.1983441287
 10
-1.6029322531
 20
-10.1975249666
 10
-1.604998128
 20
-10.1967400399
 10
-1.6070636695
 20
-10.1959900643
 10
-1.6091293838
 20
-10.1952757555
 10
-1.6111957772
 20
-10.1945978292
 10
-1.6130045506
 20
-10.194035157
 10
-1.6148129158
 20
-10.1935020014
 10
-1.616619557
 20
-10.1929994756
 10
-1.6184231586
 20
-10.1925286931
 10
-1.6202224048
 20
-10.1920907671
 10
-1.62201598
 20
-10.1916868109
 10
-1.6238025684
 20
-10.1913179378
 10
-1.6255808544
 20
-10.1909852612
 10
-1.6271536638
 20
-10.1907208244
 10
-1.6287188164
 20
-10.1904865808
 10
-1.6302762547
 20
-10.1902832444
 10
-1.6318259215
 20
-10.1901115291
 10
-1.6333677594
 20
-10.1899721488
 10
-1.634901711
 20
-10.1898658175
 10
-1.6364277191
 20
-10.1897932491
 10
-1.6379457263
 20
-10.1897551575
 10
-1.6394556753
 20
-10.1897522567
  0
LINE
  5
251
100
AcDbEntity
  8
0
100
AcDbLine
 62
253
  6
CONTINUOUS
 10
-2.0622892874
 20
-10.3676451795
 11
-2.0711320701
 21
-10.3636849477
  0
LINE
  5
252
100
AcDbEntity
  8
0
100
AcDbLine
 62
253
  6
CONTINUOUS
 10
-2.0617200517
 20
-10.392863577
 11
-2.0705253206
 21
-10.3888255007
  0
LWPOLYLINE
  5
253
100
AcDbEntity
  8
0
100
AcDbPolyline
 62
253
  6
CONTINUOUS
 90
13
 70
0
 10
-2.3784848386
 20
-10.1879299083
 10
-2.3805539298
 20
-10.186918706
 10
-2.3826223175
 20
-10.1859246087
 10
-2.3846899887
 20
-10.1849511943
 10
-2.3861368703
 20
-10.184284063
 10
-2.3875830621
 20
-10.183630265
 10
-2.3890282316
 20
-10.1829912458
 10
-2.3904720467
 20
-10.182368451
 10
-2.3919141751
 20
-10.181763326
 10
-2.3933542845
 20
-10.1811773163
 10
-2.3947920427
 20
-10.1806118674
 10
-2.3962271175
 20
-10.1800684248
 10
-2.3976591765
 20
-10.179548434
  0
LINE
  5
254
100
AcDbEntity
  8
0
100
AcDbLine
 62
253
  6
CONTINUOUS
 10
-2.3743445991
 20
-10.1899893159
 11
-2.3784848386
 21
-10.1879299083
  0
LINE
  5
255
100
AcDbEntity
  8
0
100
AcDbLine
 62
253
  6
CONTINUOUS
 10
-2.3702017052
 20
-10.1920742078
 11
-2.3743445991
 21
-10.1899893159
  0
LWPOLYLINE
  5
256
100
AcDbEntity
  8
0
100
AcDbPolyline
 62
253
  6
CONTINUOUS
 90
55
 70
0
 10
-2.3680707072
 20
-10.2180918473
 10
-2.371732966
 20
-10.216214741
 10
-2.3753367521
 20
-10.2144004527
 10
-2.3788881128
 20
-10.2126636534
 10
-2.3823930951
 20
-10.2110190141
 10
-2.3851671478
 20
-10.2097794137
 10
-2.3879148575
 20
-10.2086150782
 10
-2.3906356932
 20
-10.2075329006
 10
-2.3933291239
 20
-10.2065397738
 10
-2.3959946185
 20
-10.2056425908
 10
-2.3986311292
 20
-10.2048467003
 10
-2.401235541
 20
-10.2041512738
 10
-2.4038042221
 20
-10.2035539383
 10
-2.4063335406
 20
-10.203052321
 10
-2.4088198648
 20
-10.202644049
 10
-2.411862302
 20
-10.202261281
 10
-2.414827946
 20
-10.2020155435
 10
-2.4177128569
 20
-10.2019017229
 10
-2.4205130949
 20
-10.2019147052
 10
-2.4232256388
 20
-10.2020492433
 10
-2.425851142
 20
-10.2022995562
 10
-2.4283911766
 20
-10.2026597292
 10
-2.4308473146
 20
-10.2031238481
 10
-2.4332211283
 20
-10.2036859982
 10
-2.4355141896
 20
-10.2043402651
 10
-2.4377280706
 20
-10.2050807343
 10
-2.4398643435
 20
-10.2059014913
 10
-2.4422130539
 20
-10.2069308906
 10
-2.4444664154
 20
-10.2080526021
 10
-2.4466283912
 20
-10.2092617973
 10
-2.4487029449
 20
-10.2105536479
 10
-2.4506940398
 20
-10.2119233253
 10
-2.4526056395
 20
-10.2133660011
 10
-2.4544417073
 20
-10.2148768469
 10
-2.4564921992
 20
-10.2167202735
 10
-2.458443107
 20
-10.2186485824
 10
-2.4602922593
 20
-10.2206604408
 10
-2.4620374845
 20
-10.2227545163
 10
-2.4636766111
 20
-10.2249294762
 10
-2.4652074678
 20
-10.2271839879
 10
-2.4666281406
 20
-10.2295173139
 10
-2.4679377468
 20
-10.231931096
 10
-2.4691356613
 20
-10.2344275712
 10
-2.4702213892
 20
-10.2370081088
 10
-2.4711949579
 20
-10.2396706079
 10
-2.4720565252
 20
-10.2424121
 10
-2.4728083342
 20
-10.2452288955
 10
-2.4734609713
 20
-10.2481144206
 10
-2.474027108
 20
-10.2510613801
 10
-2.4745187934
 20
-10.2540625863
 10
-2.4749455845
 20
-10.2571112803
 10
-2.4753164155
 20
-10.2602008107
 10
-2.4757872372
 20
-10.264897597
 10
-2.476182142
 20
-10.2696516878
 10
-2.4768637654
 20
-10.2792533386
  0
LINE
  5
257
100
AcDbEntity
  8
0
100
AcDbLine
 62
253
  6
CONTINUOUS
 10
-2.3499395369
 20
-10.9953070248
 11
-2.0508811463
 21
-11.1669206355
  0
LINE
  5
258
100
AcDbEntity
  8
0
100
AcDbLine
 62
253
  6
CONTINUOUS
 10
-2.3506000468
 20
-10.9701975117
 11
-2.0515412925
 21
-11.1418109142
  0
LINE
  5
259
100
AcDbEntity
  8
0
100
AcDbLine
 62
253
  6
CONTINUOUS
 10
-2.0705253724
 20
-10.3888233596
 11
-2.3680706748
 21
-10.2180931848
  0
LINE
  5
25A
100
AcDbEntity
  8
0
100
AcDbLine
 62
253
  6
CONTINUOUS
 10
-2.0711321218
 20
-10.3636828003
 11
-2.3702016729
 21
-10.1920755441
  0
LINE
  5
25B
100
AcDbEntity
  8
0
100
AcDbLine
 62
253
  6
CONTINUOUS
 10
-0.8354065236
 20
-11.9378810729
 11
-0.8307589816
 21
-11.9405555557
  0
LWPOLYLINE
  5
25C
100
AcDbEntity
  8
0
100
AcDbPolyline
 62
253
  6
CONTINUOUS
 90
46
 70
0
 10
-4.0365013154
 20
-8.5684174803
 10
-4.0674263031
 20
-8.5505530846
 10
-4.0973775157
 20
-8.5345818337
 10
-4.1263404209
 20
-8.5204629346
 10
-4.1543004865
 20
-8.5081555943
 10
-4.181254283
 20
-8.4976129018
 10
-4.2072427925
 20
-8.4887634739
 10
-4.2323180998
 20
-8.4815298093
 10
-4.2565322896
 20
-8.4758344065
 10
-4.2799328081
 20
-8.4716016164
 10
-4.3025485467
 20
-8.4687631978
 10
-4.3244037582
 20
-8.4672527617
 10
-4.3455226954
 20
-8.4670039192
 10
-4.3659308704
 20
-8.467953181
 10
-4.3856588325
 20
-8.4700486579
 10
-4.4047383905
 20
-8.4732413603
 10
-4.4232013531
 20
-8.4774822987
 10
-4.446909657
 20
-8.4847032422
 10
-4.4696248834
 20
-8.4937071567
 10
-4.4913935756
 20
-8.5045005747
 10
-4.5071073799
 20
-8.5137873675
 10
-4.5222172717
 20
-8.5241678143
 10
-4.5366255835
 20
-8.5357252988
 10
-4.5502346478
 20
-8.5485432047
 10
-4.5629575327
 20
-8.5626839859
 10
-4.5747502501
 20
-8.5781263769
 10
-4.5855795474
 20
-8.5948281824
 10
-4.5954121722
 20
-8.6127472072
 10
-4.6042297771
 20
-8.6318153678
 10
-4.6120736353
 20
-8.6518610285
 10
-4.6189999248
 20
-8.6726866652
 10
-4.6250648239
 20
-8.6940947541
 10
-4.6319138339
 20
-8.7232933549
 10
-4.637496442
 20
-8.7532471375
 10
-4.641977735
 20
-8.7840269668
 10
-4.6447087708
 20
-8.8077305228
 10
-4.6469437901
 20
-8.8321722555
 10
-4.6487134045
 20
-8.8575858286
 10
-4.6500482262
 20
-8.8842049061
 10
-4.6509795949
 20
-8.9122184936
 10
-4.6515417621
 20
-8.9416369646
 10
-4.6517697076
 20
-8.9724260344
 10
-4.6516984107
 20
-9.0045514182
 10
-4.6513707788
 20
-9.0379426901
 10
-4.6508614304
 20
-9.0723848586
 10
-4.6480044932
 20
-9.2160315359
  0
LWPOLYLINE
  5
25D
100
AcDbEntity
  8
0
100
AcDbPolyline
 62
253
  6
CONTINUOUS
 90
45
 70
0
 10
-4.0369763751
 20
-8.5433804296
 10
-4.0686645917
 20
-8.5250684041
 10
-4.0993959794
 20
-8.5086626629
 10
-4.1291573778
 20
-8.4941270133
 10
-4.157935627
 20
-8.481425263
 10
-4.1857276615
 20
-8.4705155593
 10
-4.2125707945
 20
-8.4613334097
 10
-4.2385124341
 20
-8.453808662
 10
-4.2635999884
 20
-8.4478711636
 10
-4.2878763162
 20
-8.4434517295
 10
-4.3113660802
 20
-8.4404850447
 10
-4.3340893937
 20
-8.4389067614
 10
-4.3560663703
 20
-8.4386525321
 10
-4.3773186011
 20
-8.4396600818
 10
-4.3978735881
 20
-8.4418754269
 10
-4.4177603109
 20
-8.4452466564
 10
-4.4370077493
 20
-8.4497218594
 10
-4.4617234282
 20
-8.4573369494
 10
-4.4854035049
 20
-8.4668228243
 10
-4.5080973637
 20
-8.4781799355
 10
-4.5244784006
 20
-8.4879422065
 10
-4.5402221463
 20
-8.4988544959
 10
-4.5552182787
 20
-8.5110139975
 10
-4.5693564755
 20
-8.5245179053
 10
-4.5825412373
 20
-8.5394370152
 10
-4.5947363549
 20
-8.5557365304
 10
-4.6059204418
 20
-8.5733552561
 10
-4.6160721116
 20
-8.5922319975
 10
-4.6251817894
 20
-8.6122821475
 10
-4.6332871466
 20
-8.6333274497
 10
-4.6404376662
 20
-8.6551662353
 10
-4.646682831
 20
-8.6775968358
 10
-4.6536985729
 20
-8.7081674319
 10
-4.6593800105
 20
-8.7395001384
 10
-4.6639143889
 20
-8.7716634725
 10
-4.6666652973
 20
-8.7964128933
 10
-4.6688967587
 20
-8.8219406087
 10
-4.6706292214
 20
-8.8485191444
 10
-4.6718831336
 20
-8.8764210257
 10
-4.6726870084
 20
-8.9058563395
 10
-4.6731016189
 20
-8.9367854164
 10
-4.6731958028
 20
-8.9691061482
 10
-4.673038398
 20
-9.0027164267
 10
-4.6726922132
 20
-9.0374902854
 10
-4.6715822421
 20
-9.1096192849
  0
LWPOLYLINE
  5
25E
100
AcDbEntity
  8
0
100
AcDbPolyline
 62
253
  6
CONTINUOUS
 90
24
 70
0
 10
-0.8356579272
 20
-11.9624800952
 10
-0.8335992629
 20
-11.963709234
 10
-0.8315398709
 20
-11.9649039122
 10
-0.8294791865
 20
-11.966063945
 10
-0.8274166448
 20
-11.9671891477
 10
-0.8253516809
 20
-11.9682793357
 10
-0.8232837301
 20
-11.9693343241
 10
-0.8212122274
 20
-11.9703539283
 10
-0.8193965538
 20
-11.9712167733
 10
-0.817578843
 20
-11.9720514389
 10
-0.8157602097
 20
-11.972856978
 10
-0.8139417686
 20
-11.9736324435
 10
-0.8121246343
 20
-11.9743768885
 10
-0.8103099214
 20
-11.9750893659
 10
-0.8084987447
 20
-11.9757689287
 10
-0.8066922187
 20
-11.9764146299
 10
-0.8048912544
 20
-11.9770255734
 10
-0.8030959478
 20
-11.9776010661
 10
-0.8013061914
 20
-11.9781404661
 10
-0.7995218774
 20
-11.9786431312
 10
-0.7977428981
 20
-11.9791084195
 10
-0.7959691459
 20
-11.9795356887
 10
-0.7942005132
 20
-11.9799242969
 10
-0.7924368922
 20
-11.980273602
  0
LWPOLYLINE
  5
25F
100
AcDbEntity
  8
0
100
AcDbPolyline
 62
253
  6
CONTINUOUS
 90
47
 70
0
 10
-4.0331636101
 20
-8.7897625851
 10
-4.0156009504
 20
-8.800647435
 10
-3.99819899
 20
-8.8122372453
 10
-3.9808983742
 20
-8.8245553711
 10
-3.9636480147
 20
-8.8376256053
 10
-3.9464298886
 20
-8.8514734925
 10
-3.9292342394
 20
-8.8661250156
 10
-3.9120676549
 20
-8.8815910279
 10
-3.8950021011
 20
-8.8978218651
 10
-3.8781258881
 20
-8.9147527333
 10
-3.8615229882
 20
-8.9323164911
 10
-3.8452600219
 20
-8.9504366071
 10
-3.8293992718
 20
-8.9690342022
 10
-3.8139930093
 20
-8.988043704
 10
-3.7990534621
 20
-9.0074527658
 10
-3.7845828466
 20
-9.0272623476
 10
-3.7705966942
 20
-9.0474533428
 10
-3.7571637953
 20
-9.0679263787
 10
-3.7443662553
 20
-9.088562016
 10
-3.7352249693
 20
-9.1040851791
 10
-3.7264650356
 20
-9.1196517
 10
-3.7180603532
 20
-9.1352825915
 10
-3.7099693034
 20
-9.1510065995
 10
-3.7021474114
 20
-9.1668582192
 10
-3.694554296
 20
-9.1828872092
 10
-3.6871674805
 20
-9.1991377935
 10
-3.68003201
 20
-9.2156167943
 10
-3.6732126372
 20
-9.2323139703
 10
-3.6667854219
 20
-9.2491882281
 10
-3.6608106489
 20
-9.2662011181
 10
-3.6552741984
 20
-9.283355618
 10
-3.650144912
 20
-9.3006599963
 10
-3.6453978845
 20
-9.3181022576
 10
-3.6410085757
 20
-9.3356803196
 10
-3.6369476535
 20
-9.353452017
 10
-3.6331878771
 20
-9.3714763639
 10
-3.6297151631
 20
-9.3897571755
 10
-3.6265208567
 20
-9.408261626
 10
-3.6236048605
 20
-9.4268655254
 10
-3.6201420092
 20
-9.4516270973
 10
-3.6171145254
 20
-9.4762903777
 10
-3.6144593722
 20
-9.5008416662
 10
-3.6110559734
 20
-9.5374342371
 10
-3.6082503598
 20
-9.5737313146
 10
-3.6059459891
 20
-9.6096575587
 10
-3.6040526559
 20
-9.6448870145
 10
-3.6024772844
 20
-9.6791531175
  0
LWPOLYLINE
  5
260
100
AcDbEntity
  8
0
100
AcDbPolyline
 62
253
  6
CONTINUOUS
 90
44
 70
0
 10
-4.0325886492
 20
-8.8150079022
 10
-4.0126109668
 20
-8.8274666097
 10
-3.9930159471
 20
-8.8407635257
 10
-3.9737436521
 20
-8.8548899628
 10
-3.9547460547
 20
-8.8698360403
 10
-3.9360227714
 20
-8.8855871036
 10
-3.9175853298
 20
-8.9021273049
 10
-3.8994507794
 20
-8.9194353537
 10
-3.8816582562
 20
-8.9374681907
 10
-3.8642524183
 20
-8.9561773141
 10
-3.8472828549
 20
-8.9755044057
 10
-3.8308188806
 20
-8.9953518823
 10
-3.8149347414
 20
-9.0156123442
 10
-3.8034381103
 20
-9.0310259882
 10
-3.7922884798
 20
-9.0466375167
 10
-3.7814713747
 20
-9.0624655208
 10
-3.7709980999
 20
-9.0784989864
 10
-3.7608855048
 20
-9.0947226198
 10
-3.7511468385
 20
-9.1111336168
 10
-3.7417923162
 20
-9.1277266586
 10
-3.7328236184
 20
-9.144473881
 10
-3.7242351305
 20
-9.1613453507
 10
-3.7160005911
 20
-9.1783254051
 10
-3.7080989772
 20
-9.1954081602
 10
-3.700550865
 20
-9.2126125775
 10
-3.6933930767
 20
-9.2299598647
 10
-3.6866858197
 20
-9.2474553687
 10
-3.6804781652
 20
-9.2651030852
 10
-3.6747512563
 20
-9.2829174639
 10
-3.6694712321
 20
-9.3009094058
 10
-3.6646121432
 20
-9.3190651623
 10
-3.6601535283
 20
-9.3373526921
 10
-3.6560889651
 20
-9.3556914332
 10
-3.6512654046
 20
-9.3801062291
 10
-3.6470578311
 20
-9.4044896933
 10
-3.6433868732
 20
-9.428884238
 10
-3.6395875594
 20
-9.4582009232
 10
-3.6363650715
 20
-9.487481258
 10
-3.6336378032
 20
-9.5166118623
 10
-3.6313241486
 20
-9.5454793561
 10
-3.6293425017
 20
-9.5739703591
 10
-3.6265938832
 20
-9.6204117404
 10
-3.6243908836
 20
-9.6655732692
 10
-3.6225835622
 20
-9.7095358454
  0
LWPOLYLINE
  5
261
100
AcDbEntity
  8
0
100
AcDbPolyline
 62
253
  6
CONTINUOUS
 90
3
 70
0
 10
-2.0497009447
 20
-11.1676604165
 10
-2.0436745567
 20
-11.1714098345
 10
-2.0427524519
 20
-11.1719885831
  0
LINE
  5
262
100
AcDbEntity
  8
0
100
AcDbLine
 62
253
  6
CONTINUOUS
 10
-2.0515412348
 20
-11.1418131122
 11
-2.0346964835
 21
-11.1524529346
  0
LINE
  5
263
100
AcDbEntity
  8
0
100
AcDbLine
 62
253
  6
CONTINUOUS
 10
-2.0418256486
 20
-11.1725735984
 11
-2.0408942001
 21
-11.1731656643
  0
LWPOLYLINE
  5
264
100
AcDbEntity
  8
0
100
AcDbPolyline
 62
253
  6
CONTINUOUS
 90
4
 70
0
 10
-2.0399581596
 20
-11.1737655647
 10
-2.0390175802
 20
-11.1743740834
 10
-2.0380725152
 20
-11.1749920043
 10
-2.0371230177
 20
-11.1756201111
  0
LWPOLYLINE
  5
265
100
AcDbEntity
  8
0
100
AcDbPolyline
 62
253
  6
CONTINUOUS
 90
25
 70
0
 10
-2.0371230177
 20
-11.1756201111
 10
-2.0343248333
 20
-11.1775019399
 10
-2.0324845797
 20
-11.1787752188
 10
-2.0306482857
 20
-11.1800791116
 10
-2.0288158567
 20
-11.1814137053
 10
-2.026987198
 20
-11.1827790873
 10
-2.025162215
 20
-11.1841753447
 10
-2.0233408131
 20
-11.1856025647
 10
-2.0215228977
 20
-11.1870608344
 10
-2.0197083741
 20
-11.1885502411
 10
-2.0178971479
 20
-11.1900708719
 10
-2.0160891243
 20
-11.1916228139
 10
-2.0142842088
 20
-11.1932061545
 10
-2.012620864
 20
-11.1946956918
 10
-2.0109603375
 20
-11.1962124163
 10
-2.00930288
 20
-11.197756687
 10
-2.0076487424
 20
-11.199328863
 10
-2.0059981752
 20
-11.2009293035
 10
-2.0043514293
 20
-11.2025583674
 10
-2.0027087552
 20
-11.2042164139
 10
-2.0010704037
 20
-11.2059038022
 10
-1.9994366255
 20
-11.2076208913
 10
-1.9978076713
 20
-11.2093680403
 10
-1.9961837918
 20
-11.2111456084
 10
-1.9945652377
 20
-11.2129539546
  0
LWPOLYLINE
  5
266
100
AcDbEntity
  8
0
100
AcDbPolyline
 62
253
  6
CONTINUOUS
 90
30
 70
0
 10
-2.0346964835
 20
-11.1524529346
 10
-2.0316834434
 20
-11.1545151273
 10
-2.0286936725
 20
-11.1566353289
 10
-2.0257270867
 20
-11.1588122733
 10
-2.0227836023
 20
-11.1610446943
 10
-2.0198631352
 20
-11.1633313258
 10
-2.0169656017
 20
-11.1656709017
 10
-2.0140909178
 20
-11.1680621559
 10
-2.0112389996
 20
-11.1705038222
 10
-2.0084097632
 20
-11.1729946344
 10
-2.0052539143
 20
-11.1758543817
 10
-2.0021267537
 20
-11.1787754146
 10
-1.9990283694
 20
-11.1817584208
 10
-1.9959588494
 20
-11.1848040881
 10
-1.9929182815
 20
-11.1879131041
 10
-1.9899067536
 20
-11.1910861565
 10
-1.9869243538
 20
-11.1943239331
 10
-1.9839711698
 20
-11.1976271215
 10
-1.981047246
 20
-11.2009953942
 10
-1.9781524522
 20
-11.2044243624
 10
-1.9752866145
 20
-11.2079086223
 10
-1.9724495591
 20
-11.21144277
 10
-1.9696411122
 20
-11.2150214014
 10
-1.9668611
 20
-11.2186391126
 10
-1.9641093487
 20
-11.2222904998
 10
-1.9613856843
 20
-11.2259701589
 10
-1.9577960806
 20
-11.2309126593
 10
-1.9542470385
 20
-11.2358929038
 10
-1.9507294959
 20
-11.2409079821
 10
-1.947234391
 20
-11.2459549838
  0
LWPOLYLINE
  5
267
100
AcDbEntity
  8
0
100
AcDbPolyline
 62
253
  6
CONTINUOUS
 90
23
 70
0
 10
-1.555375924
 20
-11.8803221698
 10
-1.5532550075
 20
-11.8817788649
 10
-1.5511322067
 20
-11.8832010316
 10
-1.5490070798
 20
-11.8845887544
 10
-1.5468791852
 20
-11.8859421176
 10
-1.544748081
 20
-11.8872612057
 10
-1.5426133256
 20
-11.8885461029
 10
-1.5404744772
 20
-11.8897968937
 10
-1.5383313776
 20
-11.8910134762
 10
-1.5361850034
 20
-11.8921950032
 10
-1.5340366148
 20
-11.8933404412
 10
-1.5318874718
 20
-11.8944487569
 10
-1.5297388347
 20
-11.8955189168
 10
-1.5275919634
 20
-11.8965498873
 10
-1.5254481183
 20
-11.8975406352
 10
-1.5235755584
 20
-11.8983737908
 10
-1.5217061138
 20
-11.8991750205
 10
-1.5198396182
 20
-11.8999439852
 10
-1.5179759055
 20
-11.9006803456
 10
-1.5161148092
 20
-11.9013837626
 10
-1.5142561631
 20
-11.9020538971
 10
-1.5123998009
 20
-11.9026904099
 10
-1.5105455564
 20
-11.9032929618
  0
LWPOLYLINE
  5
268
100
AcDbEntity
  8
0
100
AcDbPolyline
 62
253
  6
CONTINUOUS
 90
22
 70
0
 10
-0.8292465625
 20
-10.957991631
 10
-0.8310536013
 20
-10.9565669069
 10
-0.8328618353
 20
-10.9551724969
 10
-0.8346712687
 20
-10.9538078714
 10
-0.8364819054
 20
-10.9524725012
 10
-0.8382937495
 20
-10.9511658567
 10
-0.8401068051
 20
-10.9498874084
 10
-0.8419210762
 20
-10.948636627
 10
-0.8439959304
 20
-10.9472404671
 10
-0.8460718311
 20
-10.9458795976
 10
-0.8481482319
 20
-10.944553864
 10
-0.8502245864
 20
-10.943263112
 10
-0.8523003482
 20
-10.9420071871
 10
-0.8543749708
 20
-10.9407859349
 10
-0.856447908
 20
-10.939599201
 10
-0.8585187415
 20
-10.9384467973
 10
-0.860587567
 20
-10.9373284001
 10
-0.8626546081
 20
-10.936243652
 10
-0.8647200888
 20
-10.9351921958
 10
-0.8667842328
 20
-10.934173674
 10
-0.8688472641
 20
-10.9331877292
 10
-0.8709094063
 20
-10.9322340041
  0
LWPOLYLINE
  5
269
100
AcDbEntity
  8
0
100
AcDbPolyline
 62
253
  6
CONTINUOUS
 90
22
 70
0
 10
-1.5517508004
 20
-10.2284411792
 10
-1.5539466789
 20
-10.2266885115
 10
-1.5561479607
 20
-10.2249709647
 10
-1.5583546916
 20
-10.2232884627
 10
-1.5605669176
 20
-10.2216409294
 10
-1.5627846845
 20
-10.2200282886
 10
-1.5650080383
 20
-10.2184504642
 10
-1.5672370248
 20
-10.21690738
 10
-1.5694716898
 20
-10.21539896
 10
-1.5717120794
 20
-10.2139251281
 10
-1.5739582393
 20
-10.212485808
 10
-1.576005234
 20
-10.2112073009
 10
-1.5780569811
 20
-10.209957684
 10
-1.5801134259
 20
-10.2087373883
 10
-1.5821745141
 20
-10.2075468447
 10
-1.5842401911
 20
-10.2063864841
 10
-1.5863104024
 20
-10.2052567375
 10
-1.5883850935
 20
-10.2041580358
 10
-1.5904642099
 20
-10.2030908099
 10
-1.592547697
 20
-10.2020554907
 10
-1.5946355005
 20
-10.2010525093
 10
-1.5967275657
 20
-10.2000822964
  0
LWPOLYLINE
  5
26A
100
AcDbEntity
  8
0
100
AcDbPolyline
 62
253
  6
CONTINUOUS
 90
20
 70
0
 10
-2.3940701632
 20
-10.9615329126
 10
-2.3924656673
 20
-10.9630202482
 10
-2.3908565399
 20
-10.9644803533
 10
-2.3892432606
 20
-10.9659142084
 10
-2.3876263089
 20
-10.9673227941
 10
-2.3860061643
 20
-10.9687070909
 10
-2.3843833064
 20
-10.9700680793
 10
-2.3827582147
 20
-10.97140674
 10
-2.3811313688
 20
-10.9727240533
 10
-2.3795032481
 20
-10.9740209999
 10
-2.3774086217
 20
-10.975660277
 10
-2.3753123376
 20
-10.9772703291
 10
-2.3732140527
 20
-10.9788539778
 10
-2.3711134236
 20
-10.9804140448
 10
-2.3690101073
 20
-10.9819533517
 10
-2.3669037606
 20
-10.9834747201
 10
-2.3647940401
 20
-10.9849809716
 10
-2.3618344052
 20
-10.9870694371
 10
-2.3588683132
 20
-10.9891399711
 10
-2.3499395729
 20
-10.9953056564
  0
LWPOLYLINE
  5
26B
100
AcDbEntity
  8
0
100
AcDbPolyline
 62
253
  6
CONTINUOUS
 90
23
 70
0
 10
-0.8789879797
 20
-11.9284469236
 10
-0.8771096899
 20
-11.9302660868
 10
-0.8752226016
 20
-11.9320588097
 10
-0.8733267354
 20
-11.9338252302
 10
-0.8714221122
 20
-11.935565486
 10
-0.8695087526
 20
-11.9372797152
 10
-0.8675866776
 20
-11.9389680555
 10
-0.8656559079
 20
-11.9406306449
 10
-0.8637164642
 20
-11.9422676213
 10
-0.8617683673
 20
-11.9438791226
 10
-0.859811638
 20
-11.9454652867
 10
-0.8578462971
 20
-11.9470262513
 10
-0.85587236
 20
-11.9485620847
 10
-0.8538898204
 20
-11.950072575
 10
-0.8518986666
 20
-11.9515574407
 10
-0.849898887
 20
-11.9530164003
 10
-0.8478904699
 20
-11.9544491722
 10
-0.8458734037
 20
-11.9558554749
 10
-0.8438476766
 20
-11.9572350268
 10
-0.8418132771
 20
-11.9585875463
 10
-0.8397701935
 20
-11.9599127519
 10
-0.8377184141
 20
-11.9612103621
 10
-0.8356579272
 20
-11.9624800952
  0
LWPOLYLINE
  5
26C
100
AcDbEntity
  8
0
100
AcDbPolyline
 62
253
  6
CONTINUOUS
 90
25
 70
0
 10
-1.6001547347
 20
-11.8400285421
 10
-1.5969086811
 20
-11.8437284495
 10
-1.5952961532
 20
-11.845527545
 10
-1.5936649219
 20
-11.8473060578
 10
-1.5920151905
 20
-11.8490642424
 10
-1.5903471626
 20
-11.8508023533
 10
-1.5886610417
 20
-11.852520645
 10
-1.5869570314
 20
-11.8542193719
 10
-1.5852353352
 20
-11.8558987886
 10
-1.5834961566
 20
-11.8575591496
 10
-1.5817396993
 20
-11.8592007094
 10
-1.5799661666
 20
-11.8608237224
 10
-1.5781757621
 20
-11.8624284433
 10
-1.5763686472
 20
-11.8640151097
 10
-1.5745448138
 20
-11.865583893
 10
-1.5727042118
 20
-11.8671349478
 10
-1.570846791
 20
-11.8686684287
 10
-1.5689725012
 20
-11.8701844903
 10
-1.5670812922
 20
-11.8716832873
 10
-1.5651731138
 20
-11.8731649742
 10
-1.5632479158
 20
-11.8746297057
 10
-1.561305648
 20
-11.8760776364
 10
-1.5593462603
 20
-11.8775089209
 10
-1.5573697023
 20
-11.8789237138
 10
-1.555375924
 20
-11.8803221698
  0
LWPOLYLINE
  5
26D
100
AcDbEntity
  8
0
100
AcDbPolyline
 62
253
  6
CONTINUOUS
 90
16
 70
0
 10
-1.9945652377
 20
-11.2129539546
 10
-1.9912581831
 20
-11.2167313042
 10
-1.9895817179
 20
-11.2186895515
 10
-1.9879223524
 20
-11.2206667915
 10
-1.9862795749
 20
-11.2226616363
 10
-1.9846528737
 20
-11.2246726976
 10
-1.9830417369
 20
-11.2266985872
 10
-1.981445653
 20
-11.228737917
 10
-1.9798641102
 20
-11.2307892988
 10
-1.9780736304
 20
-11.2331469745
 10
-1.9762998026
 20
-11.2355180815
 10
-1.9745409551
 20
-11.2379021227
 10
-1.9727954159
 20
-11.2402986012
 10
-1.971061513
 20
-11.2427070199
 10
-1.9693375746
 20
-11.2451268819
 10
-1.9676219287
 20
-11.24755769
  0
LWPOLYLINE
  5
26E
100
AcDbEntity
  8
0
100
AcDbPolyline
 62
253
  6
CONTINUOUS
 90
8
 70
0
 10
-9.7865244619
 20
4.0194004201
 10
-9.7832377521
 20
3.9914334552
 10
-9.7752551365
 20
3.9637786705
 10
-9.7626521018
 20
3.9366975474
 10
-9.745547816
 20
3.9104461438
 10
-9.7241040082
 20
3.8852726808
 10
-9.6985234465
 20
3.8614151945
 10
-9.6690480124
 20
3.8390992737
  0
LWPOLYLINE
  5
26F
100
AcDbEntity
  8
0
100
AcDbPolyline
 62
253
  6
CONTINUOUS
 90
22
 70
0
 10
-3.4037715228
 20
9.076185566
 10
-3.4031054029
 20
9.0774717515
 10
-3.4024260298
 20
9.0787552316
 10
-3.4017322104
 20
9.0800349268
 10
-3.4010227519
 20
9.0813097573
 10
-3.4002964612
 20
9.0825786437
 10
-3.3995521455
 20
9.0838405062
 10
-3.3987886117
 20
9.0850942653
 10
-3.3980046669
 20
9.0863388412
 10
-3.3971991182
 20
9.0875731545
 10
-3.3965800491
 20
9.088491423
 10
-3.3959475793
 20
9.0894023627
 10
-3.3953011313
 20
9.0903050253
 10
-3.3946401277
 20
9.0911984619
 10
-3.3939639911
 20
9.0920817241
 10
-3.3932721439
 20
9.0929538632
 10
-3.3925640087
 20
9.0938139307
 10
-3.3918390081
 20
9.0946609779
 10
-3.3910965646
 20
9.0954940562
 10
-3.3903361008
 20
9.096312217
 10
-3.3895570392
 20
9.0971145118
 10
-3.3887588023
 20
9.0978999918
  0
LWPOLYLINE
  5
270
100
AcDbEntity
  8
0
100
AcDbPolyline
 62
253
  6
CONTINUOUS
 90
53
 70
0
 10
-2.0397760629
 20
8.4676087031
 10
-2.0426571712
 20
8.4648286948
 10
-2.0453968153
 20
8.4619022802
 10
-2.0480042065
 20
8.4588250835
 10
-2.0504885564
 20
8.4555927288
 10
-2.0528590763
 20
8.4522008404
 10
-2.0551229697
 20
8.4486457081
 10
-2.0572794083
 20
8.4449262845
 10
-2.059325556
 20
8.4410421877
 10
-2.0612585764
 20
8.4369930358
 10
-2.0630756334
 20
8.432778447
 10
-2.0647735521
 20
8.4283987972
 10
-2.0663478031
 20
8.4238574933
 10
-2.0677935183
 20
8.4191587002
 10
-2.0691058297
 20
8.4143065825
 10
-2.0702798693
 20
8.409305305
 10
-2.0711490927
 20
8.4050285263
 10
-2.0719160579
 20
8.4006648033
 10
-2.072577909
 20
8.3962278829
 10
-2.0731322067
 20
8.3917274491
 10
-2.0735781757
 20
8.3871569352
 10
-2.0739154566
 20
8.3825057121
 10
-2.0741756089
 20
8.3768076225
 10
-2.0742744461
 20
8.3709889224
 10
-2.0742076811
 20
8.3650605286
 10
-2.0739710269
 20
8.3590333584
 10
-2.0735601964
 20
8.3529183289
 10
-2.0729725488
 20
8.3467268807
 10
-2.0722120298
 20
8.3404725497
 10
-2.0712842315
 20
8.3341693954
 10
-2.070194746
 20
8.3278314773
 10
-2.0689491654
 20
8.3214728548
 10
-2.0677951239
 20
8.3161651123
 10
-2.066534686
 20
8.3108415854
 10
-2.0651659713
 20
8.3054911038
 10
-2.0636883972
 20
8.3001076672
 10
-2.0621065721
 20
8.2947059528
 10
-2.0604264023
 20
8.2893058074
 10
-2.0582881179
 20
8.2828516174
 10
-2.0560234385
 20
8.2764383771
 10
-2.0536390803
 20
8.2700761976
 10
-2.05114176
 20
8.2637751901
 10
-2.0485381937
 20
8.2575454654
 10
-2.0458344382
 20
8.2513956428
 10
-2.0430339114
 20
8.2453283726
 10
-2.0401393715
 20
8.2393448133
 10
-2.0371535766
 20
8.2334461232
 10
-2.0340792851
 20
8.2276334608
 10
-2.0309169737
 20
8.2219056718
 10
-2.0276579933
 20
8.2162523507
 10
-2.0242914138
 20
8.2106607795
 10
-2.0208063047
 20
8.20511824
 10
-2.0134291228
 20
8.1938861998
  0
LWPOLYLINE
  5
271
100
AcDbEntity
  8
0
100
AcDbPolyline
 62
253
  6
CONTINUOUS
 90
53
 70
0
 10
-1.6073816951
 20
8.7232123944
 10
-1.604059685
 20
8.7254230308
 10
-1.6006597491
 20
8.7274315334
 10
-1.5971753398
 20
8.7292465625
 10
-1.5935999094
 20
8.7308767786
 10
-1.5899269105
 20
8.7323308421
 10
-1.5861509755
 20
8.7336154646
 10
-1.5822714564
 20
8.7347295633
 10
-1.5782888853
 20
8.7356701066
 10
-1.5742037945
 20
8.7364340628
 10
-1.5700167159
 20
8.7370184004
 10
-1.5657289842
 20
8.7374199639
 10
-1.5613451448
 20
8.7376351027
 10
-1.5568705452
 20
8.7376600425
 10
-1.5523105335
 20
8.737491009
 10
-1.5476704574
 20
8.7371242276
 10
-1.5437480876
 20
8.736665437
 10
-1.5397869011
 20
8.7360683614
 10
-1.5357999677
 20
8.7353346618
 10
-1.5317967135
 20
8.7344651287
 10
-1.5277719908
 20
8.7334570709
 10
-1.523717008
 20
8.7323069265
 10
-1.5188029693
 20
8.7307350972
 10
-1.5138430781
 20
8.7289528584
 10
-1.5088477161
 20
8.7269595339
 10
-1.5038272649
 20
8.7247544478
 10
-1.4987921061
 20
8.722336924
 10
-1.4937525954
 20
8.7197081995
 10
-1.4887189845
 20
8.7168771634
 10
-1.483701499
 20
8.713854618
 10
-1.4787103648
 20
8.7106513655
 10
-1.4737558075
 20
8.7072782081
 10
-1.4696598696
 20
8.7043432798
 10
-1.4655876014
 20
8.7012923033
 10
-1.4615301707
 20
8.6981197187
 10
-1.4574826581
 20
8.6948229858
 10
-1.4534557942
 20
8.6914116456
 10
-1.4494642223
 20
8.6878982593
 10
-1.4447383669
 20
8.6835632838
 10
-1.4400906879
 20
8.6791097739
 10
-1.4355274549
 20
8.6745480538
 10
-1.4310549376
 20
8.6698884477
 10
-1.4266794055
 20
8.6651412796
 10
-1.4224060855
 20
8.6603156943
 10
-1.4182360331
 20
8.6554161188
 10
-1.414169261
 20
8.6504458004
 10
-1.4102057818
 20
8.6454079868
 10
-1.4063456083
 20
8.6403059253
 10
-1.4025875768
 20
8.6351397414
 10
-1.3989258183
 20
8.6298970717
 10
-1.3953532873
 20
8.6245624306
 10
-1.3918629383
 20
8.6191203327
 10
-1.3884477261
 20
8.6135552925
  0
LWPOLYLINE
  5
272
100
AcDbEntity
  8
0
100
AcDbPolyline
 62
7
  6
CONTINUOUS
 90
13
 70
0
 10
-9.5497626508
 20
3.2294813293
 10
-9.5713009458
 20
3.2153704492
 10
-9.6057303582
 20
3.1892530119
 10
-9.6378472883
 20
3.1601898233
 10
-9.6673847319
 20
3.1283897658
 10
-9.6941017655
 20
3.0940796246
 10
-9.717843861
 20
3.0573951485
 10
-9.7383447257
 20
3.0186674293
 10
-9.7554129066
 20
2.978194266
 10
-9.7689409022
 20
2.9360948235
 10
-9.7787503084
 20
2.8926644568
 10
-9.7846704946
 20
2.8483843851
 10
-9.7866147473
 20
2.8036789328
  0
LINE
  5
273
100
AcDbEntity
  8
0
100
AcDbLine
 62
7
  6
CONTINUOUS
 10
-9.5497123611
 20
3.2295124598
 11
-9.2643405011
 21
3.4060968546
  0
LINE
  5
274
100
AcDbEntity
  8
0
100
AcDbLine
 62
253
  6
CONTINUOUS
 10
-9.2897004343
 20
3.2107685036
 11
-9.1255236868
 21
3.3123589393
  0
LINE
  5
275
100
AcDbEntity
  8
0
100
AcDbLine
 62
253
  6
CONTINUOUS
 10
6.5508033055
 20
12.7438013776
 11
9.1272138104
 21
14.3073976716
  0
LWPOLYLINE
  5
276
100
AcDbEntity
  8
0
100
AcDbPolyline
 62
253
  6
CONTINUOUS
 90
9
 70
0
 10
-9.5497123611
 20
3.2295124598
 10
-9.532039641
 20
3.2390740955
 10
-9.5027273426
 20
3.2497809188
 10
-9.4710244572
 20
3.2555917849
 10
-9.437282898
 20
3.2564364659
 10
-9.4018823932
 20
3.2523033975
 10
-9.3652160378
 20
3.2432390866
 10
-9.3276843442
 20
3.2293431354
 10
-9.2897004673
 20
3.2107684832
  0
LWPOLYLINE
  5
277
100
AcDbEntity
  8
0
100
AcDbPolyline
 62
253
  6
CONTINUOUS
 90
36
 70
0
 10
-1.2440854034
 20
6.3621522598
 10
-1.2192494833
 20
6.3751544986
 10
-1.1950674273
 20
6.3890338738
 10
-1.1715279545
 20
6.4037885559
 10
-1.148619784
 20
6.4194167157
 10
-1.1263316349
 20
6.4359165239
 10
-1.1046522264
 20
6.4532861511
 10
-1.0835702775
 20
6.4715237681
 10
-1.0630797992
 20
6.4906241201
 10
-1.0431959693
 20
6.5105682504
 10
-1.0239392576
 20
6.5313337771
 10
-1.0053301336
 20
6.552898318
 10
-0.9873890671
 20
6.5752394911
 10
-0.9701365277
 20
6.5983349144
 10
-0.953592985
 20
6.6221622058
 10
-0.9377744012
 20
6.646704561
 10
-0.9226787085
 20
6.671967487
 10
-0.9082993315
 20
6.6979620687
 10
-0.8946296948
 20
6.7246993907
 10
-0.8816632232
 20
6.752190538
 10
-0.8693933412
 20
6.7804465952
 10
-0.8578134736
 20
6.8094786472
 10
-0.8469194933
 20
6.8392906544
 10
-0.8367170676
 20
6.8698580805
 10
-0.8272143119
 20
6.9011492645
 10
-0.8184193417
 20
6.9331325458
 10
-0.8103402727
 20
6.9657762634
 10
-0.8029852204
 20
6.9990487567
 10
-0.7963623002
 20
7.0329183649
 10
-0.7904791894
 20
7.0673612212
 10
-0.7853418117
 20
7.1023846357
 10
-0.7809556524
 20
7.1380037125
 10
-0.7773261967
 20
7.1742335557
 10
-0.7744589301
 20
7.2110892693
 10
-0.7723593379
 20
7.2485859575
 10
-0.7710329053
 20
7.2867387243
  0
LWPOLYLINE
  5
278
100
AcDbEntity
  8
0
100
AcDbPolyline
 62
253
  6
CONTINUOUS
 90
41
 70
0
 10
-1.6357393415
 20
7.0641878935
 10
-1.6240012342
 20
7.0699190289
 10
-1.6124084574
 20
7.0761119143
 10
-1.6009506499
 20
7.0827745454
 10
-1.5896174504
 20
7.0899149178
 10
-1.5783995198
 20
7.0975430481
 10
-1.5672916064
 20
7.1056770368
 10
-1.5562894808
 20
7.114337005
 10
-1.5453889132
 20
7.1235430742
 10
-1.534592441
 20
7.1333084634
 10
-1.5239296688
 20
7.1436187826
 10
-1.5134369681
 20
7.1544527399
 10
-1.5031507103
 20
7.1657890431
 10
-1.493103301
 20
7.1776077045
 10
-1.4833112814
 20
7.1898939547
 10
-1.473787227
 20
7.2026343284
 10
-1.464543713
 20
7.2158153606
 10
-1.4555931116
 20
7.2294228803
 10
-1.4469469817
 20
7.2434398936
 10
-1.4386166789
 20
7.2578487006
 10
-1.4306135591
 20
7.2726316015
 10
-1.4229478324
 20
7.2877724307
 10
-1.4156251274
 20
7.3032611596
 10
-1.4086499273
 20
7.3190892937
 10
-1.4020267154
 20
7.3352483386
 10
-1.3957612373
 20
7.3517253523
 10
-1.3898642894
 20
7.3684896025
 10
-1.3843479306
 20
7.3855059091
 10
-1.3792242197
 20
7.4027390922
 10
-1.3745038074
 20
7.4201471881
 10
-1.3701917112
 20
7.4376610979
 10
-1.3662915405
 20
7.4552049387
 10
-1.3628069045
 20
7.4727028279
 10
-1.359737695
 20
7.4900950055
 10
-1.3570689347
 20
7.5073862035
 10
-1.3547819286
 20
7.5245972763
 10
-1.352857982
 20
7.5417490785
 10
-1.3512805445
 20
7.5588606071
 10
-1.3500416437
 20
7.5759434276
 10
-1.349135452
 20
7.5930072476
 10
-1.3485561414
 20
7.6100617749
  0
LWPOLYLINE
  5
279
100
AcDbEntity
  8
0
100
AcDbPolyline
 62
253
  6
CONTINUOUS
 90
37
 70
0
 10
-1.4358180838
 20
6.6810128087
 10
-1.4381572331
 20
6.6799230628
 10
-1.440529089
 20
6.6789269807
 10
-1.4429357253
 20
6.6780216707
 10
-1.4453792159
 20
6.6772042414
 10
-1.4478616345
 20
6.6764718012
 10
-1.450385055
 20
6.6758214587
 10
-1.452950968
 20
6.6752508049
 10
-1.4555585309
 20
6.6747593612
 10
-1.4582063179
 20
6.6743471314
 10
-1.4608929032
 20
6.6740141194
 10
-1.463616861
 20
6.6737603291
 10
-1.4663767655
 20
6.6735857644
 10
-1.4691711857
 20
6.6734904075
 10
-1.47199867
 20
6.6734741535
 10
-1.4748577618
 20
6.673536876
 10
-1.4777470042
 20
6.6736784484
 10
-1.4806649407
 20
6.6738987442
 10
-1.4836101143
 20
6.674197637
 10
-1.4865810965
 20
6.6745750636
 10
-1.4895765702
 20
6.6750312138
 10
-1.4925952465
 20
6.6755663412
 10
-1.4956358364
 20
6.6761806989
 10
-1.4986970509
 20
6.6768745403
 10
-1.501777601
 20
6.6776481187
 10
-1.5048761136
 20
6.6785016531
 10
-1.5079908788
 20
6.6794352246
 10
-1.5111201025
 20
6.6804488799
 10
-1.5142619905
 20
6.6815426659
 10
-1.517414749
 20
6.6827166293
 10
-1.5205765837
 20
6.6839708168
 10
-1.5237466797
 20
6.6853060032
 10
-1.5269281385
 20
6.6867258746
 10
-1.5301250408
 20
6.6882348451
 10
-1.533341467
 20
6.6898373287
 10
-1.5365814978
 20
6.6915377396
 10
-1.5398492138
 20
6.6933404917
  0
LWPOLYLINE
  5
27A
100
AcDbEntity
  8
0
100
AcDbPolyline
 62
253
  6
CONTINUOUS
 90
25
 70
0
 10
-2.5452349607
 20
7.5442274113
 10
-2.547433882
 20
7.543464197
 10
-2.5496138851
 20
7.5427341368
 10
-2.5517788162
 20
7.5420449079
 10
-2.5535022829
 20
7.5415277854
 10
-2.5552192684
 20
7.5410438564
 10
-2.556930476
 20
7.5405952692
 10
-2.558636609
 20
7.5401841716
 10
-2.5603383707
 20
7.5398127118
 10
-2.5620366405
 20
7.5394830096
 10
-2.5637330016
 20
7.5391970727
 10
-2.5654292137
 20
7.5389568803
 10
-2.5671270362
 20
7.5387644118
 10
-2.5688282285
 20
7.5386216467
 10
-2.5705341667
 20
7.5385304005
 10
-2.5722446931
 20
7.538491834
 10
-2.5739592666
 20
7.5385069442
 10
-2.5756773463
 20
7.538576728
 10
-2.577398391
 20
7.5387021823
 10
-2.5788346245
 20
7.5388504075
 10
-2.5802731577
 20
7.5390411684
 10
-2.5817146072
 20
7.5392776484
 10
-2.5831595892
 20
7.5395630308
 10
-2.5846087202
 20
7.539900499
 10
-2.5860626167
 20
7.5402932362
  0
LWPOLYLINE
  5
27B
100
AcDbEntity
  8
0
100
AcDbPolyline
 62
253
  6
CONTINUOUS
 90
3
 70
0
 10
-2.5338219655
 20
7.5482720882
 10
-2.5361731704
 20
7.5474582631
 10
-2.5452349607
 20
7.5442274113
  0
LWPOLYLINE
  5
27C
100
AcDbEntity
  8
0
100
AcDbPolyline
 62
253
  6
CONTINUOUS
 90
39
 70
0
 10
-1.8472645954
 20
7.3940029024
 10
-1.8359952434
 20
7.397756068
 10
-1.8249583755
 20
7.4019200827
 10
-1.8141552805
 20
7.4065072795
 10
-1.8035872469
 20
7.4115299917
 10
-1.7932555635
 20
7.4170005521
 10
-1.7848284421
 20
7.4219090932
 10
-1.7765739315
 20
7.4271367619
 10
-1.7684996155
 20
7.4326831154
 10
-1.7606130778
 20
7.4385477109
 10
-1.7529219023
 20
7.4447301057
 10
-1.7454336727
 20
7.4512298569
 10
-1.7381547238
 20
7.4580452417
 10
-1.7310863949
 20
7.4651694178
 10
-1.7242287764
 20
7.4725942625
 10
-1.7175819584
 20
7.4803116535
 10
-1.7111460314
 20
7.4883134683
 10
-1.7049210857
 20
7.4965915845
 10
-1.6977301907
 20
7.5068795527
 10
-1.6908458993
 20
7.5175453477
 10
-1.6842708721
 20
7.5285806188
 10
-1.6780077696
 20
7.539977015
 10
-1.6720592525
 20
7.5517261857
 10
-1.6664282665
 20
7.563820126
 10
-1.6611188992
 20
7.576252215
 10
-1.6561355232
 20
7.5890161778
 10
-1.6514825113
 20
7.6021057394
 10
-1.6471642363
 20
7.615514625
 10
-1.6431854422
 20
7.629235911
 10
-1.6395523591
 20
7.6432600802
 10
-1.6362715884
 20
7.6575769667
 10
-1.6333497316
 20
7.6721764049
 10
-1.63079339
 20
7.6870482289
 10
-1.6289472733
 20
7.6996440533
 10
-1.6273645445
 20
7.7124274887
 10
-1.6260501772
 20
7.7254040488
 10
-1.6250091452
 20
7.7385792472
 10
-1.6242464218
 20
7.7519585977
 10
-1.6237669808
 20
7.765547614
  0
LWPOLYLINE
  5
27D
100
AcDbEntity
  8
0
100
AcDbPolyline
 62
253
  6
CONTINUOUS
 90
53
 70
0
 10
-2.0233570326
 20
7.7865502317
 10
-2.031111938
 20
7.7839727692
 10
-2.0347236083
 20
7.7825549035
 10
-2.0382258279
 20
7.7809591542
 10
-2.0416295335
 20
7.7791853588
 10
-2.044945662
 20
7.7772333549
 10
-2.0481828316
 20
7.7751027778
 10
-2.0513403856
 20
7.772792454
 10
-2.0544153486
 20
7.7703010077
 10
-2.0574047454
 20
7.767627063
 10
-2.0603056004
 20
7.764769244
 10
-2.0631144073
 20
7.7617266835
 10
-2.0658255348
 20
7.7585005479
 10
-2.0684328206
 20
7.7550925118
 10
-2.0709301024
 20
7.7515042502
 10
-2.0733112177
 20
7.7477374379
 10
-2.0752018693
 20
7.744464826
 10
-2.0770014406
 20
7.7410798507
 10
-2.0787038019
 20
7.7375929791
 10
-2.0803041769
 20
7.7340114101
 10
-2.0818032021
 20
7.7303292698
 10
-2.0832028676
 20
7.7265374161
 10
-2.0847523422
 20
7.7218334066
 10
-2.0861544156
 20
7.7169659005
 10
-2.0874018991
 20
7.711942553
 10
-2.0884876039
 20
7.7067710194
 10
-2.0894043412
 20
7.7014589551
 10
-2.0901465871
 20
7.6960150417
 10
-2.0907154768
 20
7.6904520664
 10
-2.0911138106
 20
7.684783843
 10
-2.0913443885
 20
7.679024185
 10
-2.0914100107
 20
7.6731869062
 10
-2.0913405066
 20
7.6682701468
 10
-2.0911588054
 20
7.6632988756
 10
-2.0908653181
 20
7.6582628915
 10
-2.0904607159
 20
7.6531568967
 10
-2.0899467117
 20
7.647995207
 10
-2.0893252786
 20
7.6427970418
 10
-2.0884408103
 20
7.6365344892
 10
-2.0874095716
 20
7.6302582942
 10
-2.0862366484
 20
7.6239796634
 10
-2.0849271266
 20
7.6177098035
 10
-2.0834860921
 20
7.6114599211
 10
-2.0819182366
 20
7.6052396763
 10
-2.0802266758
 20
7.5990525428
 10
-2.0784141312
 20
7.5929004476
 10
-2.0764833243
 20
7.586785318
 10
-2.0744369768
 20
7.5807090809
 10
-2.0722758491
 20
7.5746708689
 10
-2.0699928582
 20
7.5686586353
 10
-2.0675789598
 20
7.5626575388
 10
-2.0650251098
 20
7.5566527382
 10
-2.0623222641
 20
7.550629392
  0
LWPOLYLINE
  5
27E
100
AcDbEntity
  8
0
100
AcDbPolyline
 62
253
  6
CONTINUOUS
 90
23
 70
0
 10
-0.7882405415
 20
-10.9985751451
 10
-0.7898108119
 20
-10.996647623
 10
-0.7913943988
 20
-10.9947419925
 10
-0.7929910997
 20
-10.9928580284
 10
-0.7946007121
 20
-10.9909955053
 10
-0.7962230336
 20
-10.9891541979
 10
-0.7978578618
 20
-10.9873338809
 10
-0.7995049942
 20
-10.9855343289
 10
-0.8011642283
 20
-10.9837553166
 10
-0.8028353619
 20
-10.9819966187
 10
-0.8045181923
 20
-10.98025801
 10
-0.8062125173
 20
-10.9785392649
 10
-0.8080737984
 20
-10.9766867094
 10
-0.8099485861
 20
-10.974857528
 10
-0.8118369486
 20
-10.9730517236
 10
-0.8137389539
 20
-10.9712692991
 10
-0.8156546703
 20
-10.9695102571
 10
-0.8175841657
 20
-10.9677746007
 10
-0.8195275085
 20
-10.9660623325
 10
-0.8214847666
 20
-10.9643734553
 10
-0.8234560083
 20
-10.9627079721
 10
-0.8254413017
 20
-10.9610658856
 10
-0.8292465625
 20
-10.957991631
  0
LWPOLYLINE
  5
27F
100
AcDbEntity
  8
0
100
AcDbPolyline
 62
253
  6
CONTINUOUS
 90
23
 70
0
 10
-1.5100561106
 20
-10.2712529047
 10
-1.5117993076
 20
-10.2690896145
 10
-1.5135573526
 20
-10.2669476093
 10
-1.5153301709
 20
-10.2648267522
 10
-1.5171176878
 20
-10.2627269063
 10
-1.5189198286
 20
-10.2606479347
 10
-1.5207365187
 20
-10.2585897006
 10
-1.5225676834
 20
-10.2565520671
 10
-1.5244132479
 20
-10.2545348974
 10
-1.5262731377
 20
-10.2525380544
 10
-1.528147278
 20
-10.2505614014
 10
-1.5300355942
 20
-10.2486048016
 10
-1.5319380337
 20
-10.246668174
 10
-1.5338546326
 20
-10.2447516621
 10
-1.5357854491
 20
-10.2428554654
 10
-1.5377305414
 20
-10.2409797834
 10
-1.5396899677
 20
-10.2391248156
 10
-1.5416637863
 20
-10.2372907615
 10
-1.5436520553
 20
-10.2354778207
 10
-1.5456548331
 20
-10.2336861925
 10
-1.5476721777
 20
-10.2319160765
 10
-1.5497041474
 20
-10.2301676723
 10
-1.5517508004
 20
-10.2284411792
  0
LWPOLYLINE
  5
280
100
AcDbEntity
  8
0
100
AcDbPolyline
 62
253
  6
CONTINUOUS
 90
57
 70
0
 10
-0.7982789007
 20
-11.0148799971
 10
-0.8005812615
 20
-11.012004561
 10
-0.8029018675
 20
-11.0092056995
 10
-0.805244976
 20
-11.0064772303
 10
-0.8076148443
 20
-11.0038129707
 10
-0.8100157297
 20
-11.0012067383
 10
-0.8124518896
 20
-10.9986523506
 10
-0.8149257723
 20
-10.9961459242
 10
-0.817432591
 20
-10.993692772
 10
-0.8199657497
 20
-10.9913005061
 10
-0.8225204734
 20
-10.988975149
 10
-0.825099269
 20
-10.9867163659
 10
-0.8277064644
 20
-10.9845222323
 10
-0.8303452918
 20
-10.9823912275
 10
-0.8330146026
 20
-10.9803234455
 10
-0.8357121526
 20
-10.9783193836
 10
-0.8384347769
 20
-10.9763788196
 10
-0.8411756271
 20
-10.9744986512
 10
-0.8439269341
 20
-10.972675056
 10
-0.8480577239
 20
-10.9700364842
 10
-0.8521759018
 20
-10.9674986662
 10
-0.8562603016
 20
-10.9650440566
 10
-0.8602889189
 20
-10.9626584324
 10
-0.8622901149
 20
-10.9614970914
 10
-0.8642909885
 20
-10.9603732275
 10
-0.8662961719
 20
-10.9593044473
 10
-0.8683008064
 20
-10.958308965
 10
-0.8702982826
 20
-10.957400815
 10
-0.8722844768
 20
-10.9565767057
 10
-0.8742561364
 20
-10.955829235
 10
-0.8762110064
 20
-10.9551518859
 10
-0.8781472108
 20
-10.954538259
 10
-0.8800633926
 20
-10.9539815411
 10
-0.881958523
 20
-10.9534746814
 10
-0.8838323675
 20
-10.9530100901
 10
-0.8856844338
 20
-10.9525809706
 10
-0.8875124038
 20
-10.9521842364
 10
-0.8893142913
 20
-10.9518186058
 10
-0.8910912628
 20
-10.9514863045
 10
-0.8934243693
 20
-10.9511006296
 10
-0.8957164326
 20
-10.9507881861
 10
-0.8979672296
 20
-10.9505574366
 10
-0.900176032
 20
-10.9504157565
 10
-0.9023400924
 20
-10.950366171
 10
-0.9044561583
 20
-10.950410618
 10
-0.9065217764
 20
-10.9505491025
 10
-0.9085376891
 20
-10.9507738989
 10
-0.9105054377
 20
-10.9510753488
 10
-0.912426653
 20
-10.951444255
 10
-0.9143033228
 20
-10.9518732645
 10
-0.9161375247
 20
-10.9523554854
 10
-0.9188152669
 20
-10.9531644814
 10
-0.9214182778
 20
-10.9540602508
 10
-0.9239598524
 20
-10.9550247878
 10
-0.9264418767
 20
-10.9560378443
 10
-0.9296653334
 20
-10.9574330782
 10
-0.9359818167
 20
-10.960293616
  0
LWPOLYLINE
  5
281
100
AcDbEntity
  8
0
100
AcDbPolyline
 62
253
  6
CONTINUOUS
 90
15
 70
0
 10
-1.6218291619
 20
-11.8121057815
 10
-1.6200588395
 20
-11.814575588
 10
-1.6182618607
 20
-11.8170558131
 10
-1.6168603821
 20
-11.818970163
 10
-1.6154414856
 20
-11.8208889404
 10
-1.6140045355
 20
-11.8228108194
 10
-1.6125488966
 20
-11.8247344742
 10
-1.6110739334
 20
-11.826658579
 10
-1.6095790104
 20
-11.8285818079
 10
-1.6080634923
 20
-11.8305028352
 10
-1.6065267436
 20
-11.8324203349
 10
-1.6049681289
 20
-11.8343329813
 10
-1.6033870128
 20
-11.8362394485
 10
-1.6017827599
 20
-11.8381384107
 10
-1.6001547347
 20
-11.8400285421
  0
LWPOLYLINE
  5
282
100
AcDbEntity
  8
0
100
AcDbPolyline
 62
253
  6
CONTINUOUS
 90
30
 70
0
 10
-1.6108390289
 20
-11.7969901914
 10
-1.6083502044
 20
-11.8005031063
 10
-1.6058372376
 20
-11.8039972515
 10
-1.6039327913
 20
-11.8066029189
 10
-1.6020096748
 20
-11.8091920181
 10
-1.6000666934
 20
-11.8117606241
 10
-1.598102652
 20
-11.8143048119
 10
-1.5965151928
 20
-11.8163201578
 10
-1.5949113187
 20
-11.8183166393
 10
-1.5932888579
 20
-11.8202935318
 10
-1.5916456384
 20
-11.8222501103
 10
-1.5899794886
 20
-11.8241856502
 10
-1.5882888722
 20
-11.8260992765
 10
-1.5865747961
 20
-11.8279895137
 10
-1.5848389026
 20
-11.829854736
 10
-1.5830828343
 20
-11.8316933178
 10
-1.5813082336
 20
-11.8335036333
 10
-1.5795167096
 20
-11.8352842524
 10
-1.5777097379
 20
-11.8370345275
 10
-1.5758887607
 20
-11.8387540065
 10
-1.5740552201
 20
-11.8404422375
 10
-1.5722105585
 20
-11.8420987682
 10
-1.5698910714
 20
-11.8441243192
 10
-1.5675579701
 20
-11.846099677
 10
-1.5652127633
 20
-11.848024886
 10
-1.5628569603
 20
-11.8498999908
 10
-1.5604910077
 20
-11.8517256503
 10
-1.5581111044
 20
-11.8535049808
 10
-1.5557123868
 20
-11.8552417127
 10
-1.5532899915
 20
-11.8569395767
  0
LINE
  5
283
100
AcDbEntity
  8
0
100
AcDbLine
 62
253
  6
CONTINUOUS
 10
-1.6252966624
 20
-11.8072002065
 11
-1.6218291619
 21
-11.8121057815
  0
LINE
  5
284
100
AcDbEntity
  8
0
100
AcDbLine
 62
253
  6
CONTINUOUS
 10
-1.6286780122
 20
-11.8023446524
 11
-1.6252966624
 21
-11.8072002065
  0
LWPOLYLINE
  5
285
100
AcDbEntity
  8
0
100
AcDbPolyline
 62
253
  6
CONTINUOUS
 90
3
 70
0
 10
-1.6206913979
 20
-11.7828249828
 10
-1.6157719498
 20
-11.789922882
 10
-1.6108390289
 20
-11.7969901914
  0
LINE
  5
286
100
AcDbEntity
  8
0
100
AcDbLine
 62
253
  6
CONTINUOUS
 10
-1.9676219287
 20
-11.24755769
 11
-1.9628501418
 21
-11.254415509
  0
LINE
  5
287
100
AcDbEntity
  8
0
100
AcDbLine
 62
253
  6
CONTINUOUS
 10
-1.6352368588
 20
-11.7928058641
 11
-1.6286780122
 21
-11.8023446524
  0
LWPOLYLINE
  5
288
100
AcDbEntity
  8
0
100
AcDbPolyline
 62
253
  6
CONTINUOUS
 90
25
 70
0
 10
-2.4337340673
 20
-10.9145244981
 10
-2.4322660477
 20
-10.9166702067
 10
-2.4307824419
 20
-10.9188010553
 10
-2.42928284
 20
-10.9209173624
 10
-2.4277668318
 20
-10.9230194464
 10
-2.4262340071
 20
-10.9251076255
 10
-2.4246839557
 20
-10.9271822183
 10
-2.4231162677
 20
-10.929243543
 10
-2.4215305328
 20
-10.9312919182
 10
-2.4199265372
 20
-10.9333273856
 10
-2.418304852
 20
-10.9353488818
 10
-2.4166662449
 20
-10.9373550666
 10
-2.4150114832
 20
-10.9393445999
 10
-2.4133413344
 20
-10.9413161417
 10
-2.4116565661
 20
-10.9432683519
 10
-2.4099579457
 20
-10.9451998905
 10
-2.4082462407
 20
-10.9471094173
 10
-2.4065220165
 20
-10.9489957886
 10
-2.4047850299
 20
-10.9508586459
 10
-2.4030348356
 20
-10.952697827
 10
-2.4012709883
 20
-10.9545131697
 10
-2.3994930427
 20
-10.9563045118
 10
-2.3977005536
 20
-10.9580716911
 10
-2.3958930755
 20
-10.9598145455
 10
-2.3940701632
 20
-10.9615329126
  0
LINE
  5
289
100
AcDbEntity
  8
0
100
AcDbLine
 62
253
  6
CONTINUOUS
 10
-1.9628501418
 20
-11.254415509
 11
-1.9557375467
 21
-11.2647998578
  0
LWPOLYLINE
  5
28A
100
AcDbEntity
  8
0
100
AcDbPolyline
 62
253
  6
CONTINUOUS
 90
22
 70
0
 10
-0.9153476969
 20
-11.8847921361
 10
-0.9138576667
 20
-11.8869781566
 10
-0.9123428399
 20
-11.8891529431
 10
-0.9108033564
 20
-11.8913166136
 10
-0.9092393558
 20
-11.8934692862
 10
-0.9076509778
 20
-11.8956110791
 10
-0.906038362
 20
-11.8977421103
 10
-0.9044016482
 20
-11.8998624979
 10
-0.902740976
 20
-11.9019723601
 10
-0.9010564852
 20
-11.9040718149
 10
-0.8993483154
 20
-11.9061609804
 10
-0.8976165706
 20
-11.9082399374
 10
-0.8958612115
 20
-11.910308618
 10
-0.8940821634
 20
-11.9123669168
 10
-0.8922793512
 20
-11.9144147284
 10
-0.8904527
 20
-11.9164519476
 10
-0.888602135
 20
-11.918478469
 10
-0.8867275812
 20
-11.9204941873
 10
-0.8848289637
 20
-11.9224989973
 10
-0.8829062075
 20
-11.9244927935
 10
-0.8809592378
 20
-11.9264754707
 10
-0.8789879797
 20
-11.9284469236
  0
LINE
  5
28B
100
AcDbEntity
  8
0
100
AcDbLine
 62
253
  6
CONTINUOUS
 10
-1.947234391
 20
-11.2459549838
 11
-1.9402752467
 21
-11.2561331166
  0
LWPOLYLINE
  5
28C
100
AcDbEntity
  8
0
100
AcDbPolyline
 62
253
  6
CONTINUOUS
 90
81
 70
0
 10
-0.9139988579
 20
-11.1602709851
 10
-0.8980671429
 20
-11.1836138947
 10
-0.8927026584
 20
-11.1917361562
 10
-0.8873323891
 20
-11.2001216274
 10
-0.8819545706
 20
-11.2088114829
 10
-0.8765733367
 20
-11.2178337379
 10
-0.8712164135
 20
-11.2271637704
 10
-0.865917425
 20
-11.2367637991
 10
-0.8607055547
 20
-11.2466032074
 10
-0.855592223
 20
-11.2566800377
 10
-0.8505844097
 20
-11.2669994969
 10
-0.8447275133
 20
-11.2797017616
 10
-0.8390648811
 20
-11.2927177784
 10
-0.8336287799
 20
-11.3060044155
 10
-0.8284514765
 20
-11.3195185413
 10
-0.8235652376
 20
-11.3332170238
 10
-0.8190002036
 20
-11.3470589956
 10
-0.8147780097
 20
-11.3610126461
 10
-0.8109181645
 20
-11.3750484289
 10
-0.8074401767
 20
-11.3891367978
 10
-0.8043635551
 20
-11.4032482065
 10
-0.8017069028
 20
-11.4173468215
 10
-0.7994852013
 20
-11.4313716616
 10
-0.7977125264
 20
-11.4452554583
 10
-0.796402954
 20
-11.4589309434
 10
-0.7955705599
 20
-11.4723308485
 10
-0.7952228822
 20
-11.4853930878
 10
-0.7953413074
 20
-11.4980763067
 10
-0.795900684
 20
-11.5103443329
 10
-0.7968758606
 20
-11.5221609944
 10
-0.7982416859
 20
-11.5334901191
 10
-0.7999737399
 20
-11.5443034765
 10
-0.8020505292
 20
-11.554604603
 10
-0.8044512918
 20
-11.5644049767
 10
-0.8071552658
 20
-11.5737160757
 10
-0.8101416892
 20
-11.582549378
 10
-0.8142431458
 20
-11.5929311766
 10
-0.8187301122
 20
-11.6025742874
 10
-0.8235768632
 20
-11.6114708904
 10
-0.8287482809
 20
-11.6196221464
 10
-0.8342112356
 20
-11.627034026
 10
-0.8399499432
 20
-11.6337227589
 10
-0.8459419132
 20
-11.6397155082
 10
-0.8521204839
 20
-11.6450729114
 10
-0.8584151943
 20
-11.6498684153
 10
-0.86478456
 20
-11.6541932293
 10
-0.8711932448
 20
-11.658136281
 10
-0.8776015306
 20
-11.6617596085
 10
-0.8839716163
 20
-11.6651186187
 10
-0.8902777502
 20
-11.6682690835
 10
-0.8965019599
 20
-11.6712626383
 10
-0.9026453399
 20
-11.6741340075
 10
-0.908695281
 20
-11.676928518
 10
-0.9145652901
 20
-11.6797508176
 10
-0.9201572893
 20
-11.6827301334
 10
-0.9254007455
 20
-11.686034687
 10
-0.9286681747
 20
-11.688500734
 10
-0.931714694
 20
-11.6912097823
 10
-0.934502589
 20
-11.6941811855
 10
-0.9370028168
 20
-11.6974241113
 10
-0.9392210209
 20
-11.7009069857
 10
-0.9411715165
 20
-11.7045880492
 10
-0.9436259799
 20
-11.7104028376
 10
-0.945554776
 20
-11.7165062795
 10
-0.9470018016
 20
-11.7228263922
 10
-0.9480086688
 20
-11.7292565141
 10
-0.9486166556
 20
-11.7357008717
 10
-0.9488679879
 20
-11.7421419214
 10
-0.9488051286
 20
-11.7485816774
 10
-0.9484705405
 20
-11.7550221537
 10
-0.9476594204
 20
-11.7636072301
 10
-0.9464471329
 20
-11.7721609797
 10
-0.9448400943
 20
-11.7806472146
 10
-0.9428417247
 20
-11.7890338018
 10
-0.940443458
 20
-11.7973048286
 10
-0.9376337315
 20
-11.8054484375
 10
-0.9344169825
 20
-11.813459089
 10
-0.9308616473
 20
-11.8213565162
 10
-0.9270521621
 20
-11.8291667706
 10
-0.9210356227
 20
-11.8407771956
 10
-0.9148592927
 20
-11.8523470514
  0
LWPOLYLINE
  5
28D
100
AcDbEntity
  8
0
100
AcDbPolyline
 62
253
  6
CONTINUOUS
 90
8
 70
0
 10
-0.9151301085
 20
-11.1904399714
 10
-0.910137285
 20
-11.1978695283
 10
-0.9076480472
 20
-11.2016295414
 10
-0.9051694856
 20
-11.205422073
 10
-0.9027060206
 20
-11.2092488948
 10
-0.9002620724
 20
-11.2131117784
 10
-0.8978420614
 20
-11.2170124952
 10
-0.8954504077
 20
-11.220952817
  0
LWPOLYLINE
  5
28E
100
AcDbEntity
  8
0
100
AcDbPolyline
 62
253
  6
CONTINUOUS
 90
37
 70
0
 10
-0.90213994
 20
-11.8722522962
 10
-0.9006990642
 20
-11.8744315246
 10
-0.8992366107
 20
-11.8765829014
 10
-0.8977513457
 20
-11.8787090719
 10
-0.8962420357
 20
-11.8808126816
 10
-0.8947074468
 20
-11.8828963757
 10
-0.8931463454
 20
-11.8849627996
 10
-0.891558068
 20
-11.8870138139
 10
-0.8899442317
 20
-11.8890481409
 10
-0.8883070239
 20
-11.8910637182
 10
-0.8866486319
 20
-11.8930584835
 10
-0.8849712431
 20
-11.8950303744
 10
-0.8832770447
 20
-11.8969773285
 10
-0.8812238824
 20
-11.8992790102
 10
-0.8791473522
 20
-11.9015451919
 10
-0.8770451419
 20
-11.9037792527
 10
-0.8749149396
 20
-11.9059845714
 10
-0.8727544331
 20
-11.9081645269
 10
-0.8709290601
 20
-11.9099640088
 10
-0.8690788952
 20
-11.9117489143
 10
-0.8672017968
 20
-11.9135199342
 10
-0.865295623
 20
-11.9152777589
 10
-0.8633582322
 20
-11.9170230792
 10
-0.8613874826
 20
-11.9187565855
 10
-0.8593819127
 20
-11.9204783359
 10
-0.8573427821
 20
-11.922185858
 10
-0.8552720307
 20
-11.9238760467
 10
-0.8531715984
 20
-11.9255457969
 10
-0.8510434251
 20
-11.9271920037
 10
-0.8488894506
 20
-11.9288115621
 10
-0.8470237545
 20
-11.930176441
 10
-0.8451395471
 20
-11.9315190033
 10
-0.843235848
 20
-11.932838792
 10
-0.8413116766
 20
-11.9341353503
 10
-0.8393660524
 20
-11.9354082211
 10
-0.8373979949
 20
-11.9366569476
 10
-0.8354065236
 20
-11.9378810729
  0
LWPOLYLINE
  5
28F
100
AcDbEntity
  8
0
100
AcDbPolyline
 62
253
  6
CONTINUOUS
 90
3
 70
0
 10
-0.9190526777
 20
-11.8792151192
 10
-0.9183084168
 20
-11.8803428998
 10
-0.9153476969
 20
-11.8847921361
  0
LINE
  5
290
100
AcDbEntity
  8
0
100
AcDbLine
 62
253
  6
CONTINUOUS
 10
-0.9205308721
 20
-11.8769531059
 11
-0.919793711
 21
-11.8780853716
  0
LWPOLYLINE
  5
291
100
AcDbEntity
  8
0
100
AcDbPolyline
 62
253
  6
CONTINUOUS
 90
3
 70
0
 10
-0.7417654368
 20
-11.0678095488
 10
-0.7563501294
 20
-11.0453436941
 10
-0.7599736861
 20
-11.0396678131
  0
LINE
  5
292
100
AcDbEntity
  8
0
100
AcDbLine
 62
253
  6
CONTINUOUS
 10
-0.9215759063
 20
-11.8753302074
 11
-0.9210546806
 21
-11.8761425084
  0
LINE
  5
293
100
AcDbEntity
  8
0
100
AcDbLine
 62
253
  6
CONTINUOUS
 10
-0.7345360177
 20
-11.079077357
 11
-0.7417654368
 21
-11.0678095488
  0
LINE
  5
294
100
AcDbEntity
  8
0
100
AcDbLine
 62
253
  6
CONTINUOUS
 10
-0.9148592927
 20
-11.8523470514
 11
-0.90213994
 21
-11.8722522962
  0
LINE
  5
295
100
AcDbEntity
  8
0
100
AcDbLine
 62
253
  6
CONTINUOUS
 10
-0.9226094963
 20
-11.873699945
 11
-0.9220942709
 21
-11.8745160655
  0
LINE
  5
296
100
AcDbEntity
  8
0
100
AcDbLine
 62
253
  6
CONTINUOUS
 10
-0.9308167173
 20
-11.8603491306
 11
-0.923121304
 21
-11.8728817083
  0
LINE
  5
297
100
AcDbEntity
  8
0
100
AcDbLine
 62
253
  6
CONTINUOUS
 10
-0.9241335539
 20
-11.871238336
 11
-0.923629416
 21
-11.8720612178
  0
LINE
  5
298
100
AcDbEntity
  8
0
100
AcDbLine
 62
253
  6
CONTINUOUS
 10
-1.9557375467
 20
-11.2647998578
 11
-1.6352368588
 21
-11.7928058641
  0
LINE
  5
299
100
AcDbEntity
  8
0
100
AcDbLine
 62
253
  6
CONTINUOUS
 10
-1.9402752467
 20
-11.2561331166
 11
-1.6206913979
 21
-11.7828249828
  0
LWPOLYLINE
  5
29A
100
AcDbEntity
  8
0
100
AcDbPolyline
 62
253
  6
CONTINUOUS
 90
23
 70
0
 10
-2.4639666926
 20
-10.8600554418
 10
-2.4628428272
 20
-10.862579278
 10
-2.4616947057
 20
-10.8650983987
 10
-2.4605224271
 20
-10.8676128495
 10
-2.4593260905
 20
-10.8701226761
 10
-2.4581057951
 20
-10.8726279241
 10
-2.4568616401
 20
-10.8751286392
 10
-2.4555937244
 20
-10.8776248671
 10
-2.4543021474
 20
-10.8801166533
 10
-2.4529870081
 20
-10.8826040435
 10
-2.4516484056
 20
-10.8850870834
 10
-2.4502864391
 20
-10.8875658185
 10
-2.4489011648
 20
-10.8900402673
 10
-2.4474924675
 20
-10.8925103389
 10
-2.4460601891
 20
-10.8949759149
 10
-2.4446041714
 20
-10.8974368772
 10
-2.4431242564
 20
-10.8998931076
 10
-2.4416202859
 20
-10.9023444878
 10
-2.4400921019
 20
-10.9047908996
 10
-2.4385395461
 20
-10.9072322247
 10
-2.4369624605
 20
-10.909668345
 10
-2.4353606869
 20
-10.9120991422
 10
-2.4337340673
 20
-10.9145244981
  0
LWPOLYLINE
  5
29B
100
AcDbEntity
  8
0
100
AcDbPolyline
 62
7
  6
CONTINUOUS
 90
5
 70
0
 10
-9.7570789206
 20
3.8551420111
 10
-9.7699031281
 20
3.8962558218
 10
-9.7791851752
 20
3.938570055
 10
-9.7847797733
 20
3.9816457459
 10
-9.7866146817
 20
4.0250962133
  0
LWPOLYLINE
  5
29C
100
AcDbEntity
  8
0
100
AcDbPolyline
 62
253
  6
CONTINUOUS
 90
46
 70
0
 10
-4.6620664451
 20
-9.4508151222
 10
-4.6603518534
 20
-9.4903722159
 10
-4.6582773495
 20
-9.5304696735
 10
-4.6556931657
 20
-9.5711056995
 10
-4.6523245986
 20
-9.6125177404
 10
-4.6478962804
 20
-9.6549210325
 10
-4.6422551194
 20
-9.698202728
 10
-4.6377611563
 20
-9.7274543176
 10
-4.6326440992
 20
-9.7569840943
 10
-4.6268743497
 20
-9.7867664522
 10
-4.6204193308
 20
-9.8167748416
 10
-4.6132345507
 20
-9.8469789386
 10
-4.6052725387
 20
-9.8773474762
 10
-4.5964857145
 20
-9.9078513504
 10
-4.5868260577
 20
-9.9384701116
 10
-4.5762454383
 20
-9.9691854739
 10
-4.5647035355
 20
-9.9999711175
 10
-4.552191267
 20
-10.0307685884
 10
-4.53870736
 20
-10.0615113991
 10
-4.5279670066
 20
-10.0844820452
 10
-4.5167447356
 20
-10.1072929284
 10
-4.5051016378
 20
-10.1298702286
 10
-4.4930817858
 20
-10.1522113159
 10
-4.4807194097
 20
-10.1743359172
 10
-4.4680263869
 20
-10.1962819969
 10
-4.4550121897
 20
-10.2180771854
 10
-4.4416990222
 20
-10.2396895398
 10
-4.4235156994
 20
-10.2681593011
 10
-4.404838701
 20
-10.2962216329
 10
-4.3856607216
 20
-10.3238774087
 10
-4.3659819397
 20
-10.3511154798
 10
-4.345832471
 20
-10.37787661
 10
-4.3252499154
 20
-10.4040895413
 10
-4.3042678406
 20
-10.4296862869
 10
-4.2829036851
 20
-10.4546119462
 10
-4.261170855
 20
-10.4788148899
 10
-4.2346341669
 20
-10.5068412878
 10
-4.2076719523
 20
-10.5337206768
 10
-4.180370271
 20
-10.5594211045
 10
-4.1528151828
 20
-10.5839106185
 10
-4.1250927474
 20
-10.6071572664
 10
-4.0972695851
 20
-10.6291450781
 10
-4.0693345587
 20
-10.6499220126
 10
-4.041257091
 20
-10.6695520114
 10
-4.0130066053
 20
-10.6880990158
 10
-3.9845525246
 20
-10.7056269672
  0
LWPOLYLINE
  5
29D
100
AcDbEntity
  8
0
100
AcDbPolyline
 62
253
  6
CONTINUOUS
 90
46
 70
0
 10
-4.6414900599
 20
-9.440522541
 10
-4.6400002058
 20
-9.4791855135
 10
-4.6381918648
 20
-9.5183784375
 10
-4.6359261054
 20
-9.5581252765
 10
-4.6330006939
 20
-9.5986621108
 10
-4.6292046784
 20
-9.6401959222
 10
-4.6243555355
 20
-9.6826051804
 10
-4.620452827
 20
-9.7112710716
 10
-4.61596262
 20
-9.7402187823
 10
-4.6108434352
 20
-9.7694315591
 10
-4.6050534971
 20
-9.7988915009
 10
-4.5985498467
 20
-9.8285761152
 10
-4.5912892286
 20
-9.8584617616
 10
-4.5832256876
 20
-9.8885255421
 10
-4.5743024679
 20
-9.9187475292
 10
-4.5644601139
 20
-9.9491085378
 10
-4.5536475082
 20
-9.9795814706
 10
-4.5418468874
 20
-10.0101075808
 10
-4.5290488262
 20
-10.0406202096
 10
-4.5188000094
 20
-10.0634427066
 10
-4.5080406684
 20
-10.0861138359
 10
-4.4968247885
 20
-10.1085476292
 10
-4.4851989472
 20
-10.1307393998
 10
-4.4732028958
 20
-10.1527101971
 10
-4.4608564902
 20
-10.1745027332
 10
-4.4481772855
 20
-10.1961496008
 10
-4.4351935279
 20
-10.2176212522
 10
-4.417447174
 20
-10.2459170359
 10
-4.3992014375
 20
-10.2738186847
 10
-4.3804433954
 20
-10.3013237069
 10
-4.3611687904
 20
-10.3284180229
 10
-4.3414080273
 20
-10.3550412014
 10
-4.3212001765
 20
-10.3811212231
 10
-4.300580349
 20
-10.4065893474
 10
-4.2795678193
 20
-10.4313899473
 10
-4.2581779026
 20
-10.4554706746
 10
-4.2320434873
 20
-10.483352776
 10
-4.2054745852
 20
-10.5100874236
 10
-4.1785580931
 20
-10.5356391619
 10
-4.1513809078
 20
-10.5599725355
 10
-4.1240299262
 20
-10.5830520889
 10
-4.0965724044
 20
-10.6048594843
 10
-4.0689970369
 20
-10.6254448555
 10
-4.0412728773
 20
-10.6448754538
 10
-4.0133689797
 20
-10.6632185307
 10
-3.9852543977
 20
-10.6805413375
  0
LINE
  5
29E
100
AcDbEntity
  8
0
100
AcDbLine
 62
253
  6
CONTINUOUS
 10
-4.6439483405
 20
-9.3647049171
 11
-4.6414900599
 21
-9.440522541
  0
LINE
  5
29F
100
AcDbEntity
  8
0
100
AcDbLine
 62
253
  6
CONTINUOUS
 10
-4.4241681515
 20
-9.5094938792
 11
-4.4268997718
 21
-9.4255570029
  0
LWPOLYLINE
  5
2A0
100
AcDbEntity
  8
0
100
AcDbPolyline
 62
253
  6
CONTINUOUS
 90
4
 70
0
 10
-4.6692719403
 20
-9.2210659577
 10
-4.6672382201
 20
-9.2969391564
 10
-4.6648490787
 20
-9.3732828588
 10
-4.6620664451
 20
-9.4508151222
  0
LINE
  5
2A1
100
AcDbEntity
  8
0
100
AcDbLine
 62
253
  6
CONTINUOUS
 10
-4.6480044932
 20
-9.2160315359
 11
-4.6439483405
 21
-9.3647049171
  0
LINE
  5
2A2
100
AcDbEntity
  8
0
100
AcDbLine
 62
253
  6
CONTINUOUS
 10
-4.4268997718
 20
-9.4255570029
 11
-4.4290860967
 21
-9.3395356999
  0
LINE
  5
2A3
100
AcDbEntity
  8
0
100
AcDbLine
 62
253
  6
CONTINUOUS
 10
-4.6715822421
 20
-9.1096192849
 11
-4.6692719403
 21
-9.2210659577
  0
LINE
  5
2A4
100
AcDbEntity
  8
0
100
AcDbLine
 62
253
  6
CONTINUOUS
 10
-4.4070281147
 20
-9.3780246647
 11
-4.4086652097
 21
-9.2943937852
  0
LWPOLYLINE
  5
2A5
100
AcDbEntity
  8
0
100
AcDbPolyline
 62
253
  6
CONTINUOUS
 90
45
 70
0
 10
-4.4290860967
 20
-9.3395356999
 10
-4.4307040253
 20
-9.2503666462
 10
-4.4312160904
 20
-9.204252136
 10
-4.4313796939
 20
-9.1572033779
 10
-4.4310384707
 20
-9.1093989575
 10
-4.4303327582
 20
-9.0732197742
 10
-4.4290425222
 20
-9.0371669555
 10
-4.4277569558
 20
-9.0134248998
 10
-4.4260800097
 20
-8.9900745743
 10
-4.4239745826
 20
-8.9672511161
 10
-4.4213968715
 20
-8.9450725448
 10
-4.4182762668
 20
-8.923588412
 10
-4.414535457
 20
-8.9028311518
 10
-4.4112751419
 20
-8.8877772613
 10
-4.4075827148
 20
-8.8732693624
 10
-4.4034223213
 20
-8.8594137848
 10
-4.3987737252
 20
-8.8462666507
 10
-4.3936168969
 20
-8.8338707525
 10
-4.3879170152
 20
-8.8222657714
 10
-4.3816517159
 20
-8.8114708683
 10
-4.374863256
 20
-8.8014262338
 10
-4.3676092089
 20
-8.7920500583
 10
-4.3599437935
 20
-8.7832514999
 10
-4.3519023582
 20
-8.7749620779
 10
-4.3434481243
 20
-8.7672117879
 10
-4.3345324411
 20
-8.7600583551
 10
-4.3251312966
 20
-8.7535719474
 10
-4.315234943
 20
-8.7478126155
 10
-4.3048660488
 20
-8.7427874978
 10
-4.2940579631
 20
-8.7384909973
 10
-4.2828543398
 20
-8.734919487
 10
-4.2712893268
 20
-8.7320681294
 10
-4.2593487435
 20
-8.729925276
 10
-4.2428226974
 20
-8.728153523
 10
-4.2256660948
 20
-8.727624014
 10
-4.2079627492
 20
-8.7283431664
 10
-4.1897936442
 20
-8.7303131032
 10
-4.1712284437
 20
-8.7335187707
 10
-4.1523339817
 20
-8.737940821
 10
-4.1331663638
 20
-8.7435619965
 10
-4.1137387809
 20
-8.7503734009
 10
-4.0940536952
 20
-8.7583682283
 10
-4.0741019233
 20
-8.7675536504
 10
-4.053827699
 20
-8.7779927494
 10
-4.0331636101
 20
-8.7897625851
  0
LWPOLYLINE
  5
2A6
100
AcDbEntity
  8
0
100
AcDbPolyline
 62
253
  6
CONTINUOUS
 90
42
 70
0
 10
-4.4086652097
 20
-9.2943937852
 10
-4.4097347646
 20
-9.2079752905
 10
-4.4098720822
 20
-9.1637330794
 10
-4.4094875553
 20
-9.1190613536
 10
-4.4087301292
 20
-9.0854407086
 10
-4.4074490836
 20
-9.0520207502
 10
-4.4055277669
 20
-9.0191263769
 10
-4.4028495272
 20
-8.9870824871
 10
-4.4005770439
 20
-8.9663471393
 10
-4.3978285115
 20
-8.9461963155
 10
-4.3945161363
 20
-8.9266921475
 10
-4.3905557054
 20
-8.9079131106
 10
-4.3858773279
 20
-8.8900030531
 10
-4.3804146935
 20
-8.8731221664
 10
-4.3757638752
 20
-8.8612250693
 10
-4.3706109322
 20
-8.8500154259
 10
-4.3649393642
 20
-8.8395041214
 10
-4.3587613912
 20
-8.8296718332
 10
-4.3521014043
 20
-8.8204829368
 10
-4.3450037571
 20
-8.8118668088
 10
-4.3375036828
 20
-8.8037607529
 10
-4.3295799699
 20
-8.7961687785
 10
-4.3211998737
 20
-8.7891206838
 10
-4.3123409639
 20
-8.7826827133
 10
-4.3029910447
 20
-8.7769193053
 10
-4.2931685458
 20
-8.7718512273
 10
-4.282903806
 20
-8.767486892
 10
-4.2722441771
 20
-8.7638289663
 10
-4.2612265327
 20
-8.7608764656
 10
-4.2498288216
 20
-8.758619545
 10
-4.2340060803
 20
-8.7566786333
 10
-4.2175290645
 20
-8.7559671606
 10
-4.2004845654
 20
-8.7564994188
 10
-4.1829594008
 20
-8.7582820862
 10
-4.1650404965
 20
-8.7612913867
 10
-4.1468148048
 20
-8.7654959307
 10
-4.1283560738
 20
-8.7708665703
 10
-4.1096852322
 20
-8.7773831244
 10
-4.0908100044
 20
-8.7850276538
 10
-4.0717215739
 20
-8.7937991897
 10
-4.0523449619
 20
-8.8037646447
 10
-4.0325886492
 20
-8.8150079022
  0
LINE
  5
2A7
100
AcDbEntity
  8
0
100
AcDbLine
 62
253
  6
CONTINUOUS
 10
-4.3855959478
 20
21.9620931272
 11
-4.3855959304
 21
21.9001198634
  0
LWPOLYLINE
  5
2A8
100
AcDbEntity
  8
0
100
AcDbPolyline
 62
253
  6
CONTINUOUS
 90
3
 70
0
 10
-4.3650981453
 20
8.3096731211
 10
-4.3324787802
 20
9.7003514369
 10
-4.3143181125
 20
10.3966975542
  0
LWPOLYLINE
  5
2A9
100
AcDbEntity
  8
0
100
AcDbPolyline
 62
253
  6
CONTINUOUS
 90
55
 70
0
 10
-4.064363885
 20
8.1293734913
 10
-4.0645232189
 20
8.1252411982
 10
-4.0648166118
 20
8.1212201273
 10
-4.0652408076
 20
8.1173068803
 10
-4.0657925507
 20
8.1134980589
 10
-4.066468585
 20
8.1097902648
 10
-4.0672656549
 20
8.1061800999
 10
-4.0681805043
 20
8.1026641658
 10
-4.0692098775
 20
8.0992390643
 10
-4.0703505185
 20
8.0959013972
 10
-4.0715997612
 20
8.0926490726
 10
-4.0729572975
 20
8.0894852249
 10
-4.0744234089
 20
8.0864142946
 10
-4.0759983771
 20
8.0834407224
 10
-4.0776824835
 20
8.080568949
 10
-4.0794760098
 20
8.0778034152
 10
-4.0813792375
 20
8.0751485615
 10
-4.0833924482
 20
8.0726088287
 10
-4.0855159234
 20
8.0701886574
 10
-4.0875213073
 20
8.0681169882
 10
-4.0896149222
 20
8.066152536
 10
-4.0917954571
 20
8.064302076
 10
-4.0940616006
 20
8.0625723833
 10
-4.0964120416
 20
8.0609702331
 10
-4.0988454238
 20
8.0595024279
 10
-4.1013602107
 20
8.0581758802
 10
-4.1039548212
 20
8.0569975296
 10
-4.1066276736
 20
8.0559743159
 10
-4.1093771865
 20
8.0551131788
 10
-4.112201893
 20
8.0544196087
 10
-4.1151007829
 20
8.0538932979
 10
-4.1180729607
 20
8.0535324893
 10
-4.1211175307
 20
8.0533354259
 10
-4.1242335971
 20
8.0533003507
 10
-4.1274192773
 20
8.0534248294
 10
-4.1306687404
 20
8.0537037184
 10
-4.1339751684
 20
8.0541311971
 10
-4.1373317433
 20
8.0547014446
 10
-4.1407316472
 20
8.0554086404
 10
-4.1441697154
 20
8.056247345
 10
-4.1476473966
 20
8.0572136449
 10
-4.1511677927
 20
8.0583040079
 10
-4.1547340056
 20
8.0595149019
 10
-4.1583491372
 20
8.0608427947
 10
-4.1629394637
 20
8.0626613547
 10
-4.1676044974
 20
8.0646475806
 10
-4.1723376632
 20
8.0667918466
 10
-4.1771323861
 20
8.0690845269
 10
-4.1826811594
 20
8.071874344
 10
-4.188304822
 20
8.0748324297
 10
-4.1940064499
 20
8.077945778
 10
-4.1997891192
 20
8.0812013827
 10
-4.2056559058
 20
8.0845862376
 10
-4.2116098859
 20
8.0880873365
 10
-4.2176541354
 20
8.0916916734
  0
LWPOLYLINE
  5
2AA
100
AcDbEntity
  8
0
100
AcDbPolyline
 62
253
  6
CONTINUOUS
 90
55
 70
0
 10
-4.3143181125
 20
10.3966975542
 10
-4.3141375989
 20
10.400839301
 10
-4.3138244599
 20
10.4048708274
 10
-4.3133818548
 20
10.4087954933
 10
-4.3128129425
 20
10.4126166588
 10
-4.3121208822
 20
10.4163376838
 10
-4.3113088329
 20
10.4199619285
 10
-4.3103799537
 20
10.4234927529
 10
-4.3093374038
 20
10.4269335169
 10
-4.3081843421
 20
10.4302875806
 10
-4.306923346
 20
10.4335569971
 10
-4.305554666
 20
10.4367385923
 10
-4.3040779709
 20
10.439827885
 10
-4.3024929292
 20
10.4428203941
 10
-4.3007992097
 20
10.4457116385
 10
-4.2989964812
 20
10.4484971371
 10
-4.2970844123
 20
10.4511724088
 10
-4.2950626718
 20
10.4537329725
 10
-4.2929309284
 20
10.4561743471
 10
-4.2909182924
 20
10.4582653761
 10
-4.2888175998
 20
10.4602493782
 10
-4.2866301651
 20
10.4621194996
 10
-4.2843573025
 20
10.4638688862
 10
-4.2820003262
 20
10.4654906842
 10
-4.2795605867
 20
10.4669780075
 10
-4.2770395796
 20
10.4683238425
 10
-4.2744388369
 20
10.4695211431
 10
-4.2717598902
 20
10.4705628637
 10
-4.2690042715
 20
10.4714419583
 10
-4.2661734085
 20
10.4721528328
 10
-4.2632683118
 20
10.4726956992
 10
-4.260289888
 20
10.4730722215
 10
-4.2572390437
 20
10.4732840633
 10
-4.2541166854
 20
10.4733328885
 10
-4.2509247085
 20
10.4732210623
 10
-4.2476689637
 20
10.4729537564
 10
-4.2443562904
 20
10.4725368437
 10
-4.2409935283
 20
10.4719761974
 10
-4.2375875168
 20
10.4712776907
 10
-4.2341434321
 20
10.4704468124
 10
-4.2306597969
 20
10.4694875147
 10
-4.2271334706
 20
10.4684033659
 10
-4.2235613125
 20
10.467197934
 10
-4.2199401821
 20
10.4658747871
 10
-4.2153422443
 20
10.4640612121
 10
-4.2106695089
 20
10.462079009
 10
-4.2059286049
 20
10.4599379042
 10
-4.2011261613
 20
10.4576476241
 10
-4.1955686134
 20
10.4548597293
 10
-4.1899361001
 20
10.4519027445
 10
-4.1842253762
 20
10.448789717
 10
-4.1784331962
 20
10.4455336941
 10
-4.172556315
 20
10.442147723
 10
-4.1665914871
 20
10.438644851
 10
-4.1605354671
 20
10.4350381254
  0
LINE
  5
2AB
100
AcDbEntity
  8
0
100
AcDbLine
 62
253
  6
CONTINUOUS
 10
-3.4092334482
 20
9.0394478249
 11
-3.4037715228
 21
9.076185566
  0
LWPOLYLINE
  5
2AC
100
AcDbEntity
  8
0
100
AcDbPolyline
 62
253
  6
CONTINUOUS
 90
26
 70
0
 10
-2.5187278638
 20
7.5708111905
 10
-2.5190794907
 20
7.5697865024
 10
-2.519450474
 20
7.5687829226
 10
-2.519840135
 20
7.5677999115
 10
-2.5202477951
 20
7.5668369293
 10
-2.5206727755
 20
7.5658934363
 10
-2.5211143978
 20
7.5649688927
 10
-2.521571983
 20
7.5640627589
 10
-2.5220448527
 20
7.563174495
 10
-2.5225323281
 20
7.5623035613
 10
-2.5230337306
 20
7.5614494181
 10
-2.5235483815
 20
7.5606115256
 10
-2.5240756021
 20
7.5597893442
 10
-2.5246147138
 20
7.558982334
 10
-2.5251650379
 20
7.5581899553
 10
-2.5258807125
 20
7.5572017391
 10
-2.5266127502
 20
7.5562349722
 10
-2.5273604512
 20
7.5552882778
 10
-2.5281231158
 20
7.5543602787
 10
-2.5289000442
 20
7.5534495979
 10
-2.5296905365
 20
7.5525548586
 10
-2.5304938931
 20
7.5516746837
 10
-2.5313094141
 20
7.5508076962
 10
-2.5321363996
 20
7.5499525191
 10
-2.5329741501
 20
7.5491077755
 10
-2.5338219655
 20
7.5482720882
  0
LWPOLYLINE
  5
2AD
100
AcDbEntity
  8
0
100
AcDbPolyline
 62
253
  6
CONTINUOUS
 90
37
 70
0
 10
-1.0372929042
 20
5.9811293317
 10
-1.0396547949
 20
5.9799635966
 10
-1.042050959
 20
5.9788929074
 10
-1.0444836868
 20
5.9779142496
 10
-1.0469552689
 20
5.9770246086
 10
-1.0494679956
 20
5.9762209697
 10
-1.0520241576
 20
5.9755003184
 10
-1.0546254122
 20
5.9748601717
 10
-1.0572708848
 20
5.9743001734
 10
-1.0599590678
 20
5.9738204988
 10
-1.0626884537
 20
5.9734213234
 10
-1.0654575348
 20
5.9731028224
 10
-1.0682648035
 20
5.9728651712
 10
-1.0711087672
 20
5.9727085199
 10
-1.0739879933
 20
5.9726329169
 10
-1.0769010642
 20
5.9726383852
 10
-1.0798465625
 20
5.9727249479
 10
-1.0828230704
 20
5.9728926281
 10
-1.0858291705
 20
5.9731414488
 10
-1.0888634847
 20
5.973471516
 10
-1.0919247936
 20
5.9738832672
 10
-1.0950119173
 20
5.9743772229
 10
-1.0981236759
 20
5.9749539033
 10
-1.1012588895
 20
5.975613829
 10
-1.1044163782
 20
5.9763575203
 10
-1.1075948369
 20
5.9771854591
 10
-1.1107924589
 20
5.9780979731
 10
-1.1140073122
 20
5.9790953517
 10
-1.117237465
 20
5.9801778839
 10
-1.1204809852
 20
5.981345859
 10
-1.123735941
 20
5.9825995662
 10
-1.1270014257
 20
5.9839400581
 10
-1.1302806344
 20
5.9853714405
 10
-1.1335777877
 20
5.9868985828
 10
-1.136897106
 20
5.9885263542
 10
-1.1402428098
 20
5.9902596239
 10
-1.1436191197
 20
5.9921032612
  0
LINE
  5
2AE
100
AcDbEntity
  8
0
100
AcDbLine
 62
253
  6
CONTINUOUS
 10
-0.7273258976
 20
-11.0904706649
 11
-0.7345360177
 21
-11.079077357
  0
LWPOLYLINE
  5
2AF
100
AcDbEntity
  8
0
100
AcDbPolyline
 62
7
  6
CONTINUOUS
 90
4
 70
0
 10
-9.6987055433
 20
3.7412825416
 10
-9.7213567273
 20
3.7774646448
 10
-9.740866156
 20
3.8155057323
 10
-9.7570789206
 20
3.8551420111
  0
LWPOLYLINE
  5
2B0
100
AcDbEntity
  8
0
100
AcDbPolyline
 62
253
  6
CONTINUOUS
 90
9
 70
0
 10
-0.7599736861
 20
-11.0396678131
 10
-0.7671448801
 20
-11.0282098635
 10
-0.7707725531
 20
-11.0224916054
 10
-0.7732471148
 20
-11.0187058013
 10
-0.7757848525
 20
-11.0149577118
 10
-0.7784002018
 20
-11.0112642597
 10
-0.7811012099
 20
-11.0076365834
 10
-0.7838703708
 20
-11.0040626855
 10
-0.7882405415
 20
-10.9985751451
  0
LINE
  5
2B1
100
AcDbEntity
  8
0
100
AcDbLine
 62
253
  6
CONTINUOUS
 10
-0.7176778931
 20
-11.1059597549
 11
-0.7273258976
 21
-11.0904706649
  0
LINE
  5
2B2
100
AcDbEntity
  8
0
100
AcDbLine
 62
253
  6
CONTINUOUS
 10
-0.7091310679
 20
-11.1199105845
 11
-0.7176778931
 21
-11.1059597549
  0
LINE
  5
2B3
100
AcDbEntity
  8
0
100
AcDbLine
 62
253
  6
CONTINUOUS
 10
-0.7016810748
 20
-11.1322585508
 11
-0.7091310679
 21
-11.1199105845
  0
LWPOLYLINE
  5
2B4
100
AcDbEntity
  8
0
100
AcDbPolyline
 62
253
  6
CONTINUOUS
 90
24
 70
0
 10
-0.8954504077
 20
-11.220952817
 10
-0.8926017557
 20
-11.22576797
 10
-0.8898005656
 20
-11.2306117697
 10
-0.8870465403
 20
-11.2354841779
 10
-0.8843393825
 20
-11.2403851563
 10
-0.881678795
 20
-11.2453146667
 10
-0.8790644805
 20
-11.2502726711
 10
-0.8764961417
 20
-11.2552591311
 10
-0.8739734814
 20
-11.2602740087
 10
-0.8714962024
 20
-11.2653172655
 10
-0.8690640074
 20
-11.2703888635
 10
-0.8666765991
 20
-11.2754887644
 10
-0.8645273509
 20
-11.2801885061
 10
-0.8624159729
 20
-11.2849119797
 10
-0.8603429519
 20
-11.289659167
 10
-0.8583087747
 20
-11.2944300495
 10
-0.8563139279
 20
-11.2992246092
 10
-0.8543588984
 20
-11.3040428275
 10
-0.8524441728
 20
-11.3088846864
 10
-0.850570238
 20
-11.3137501673
 10
-0.8487375805
 20
-11.3186392522
 10
-0.8469466873
 20
-11.3235519226
 10
-0.8451980449
 20
-11.3284881603
 10
-0.8434921402
 20
-11.3334479469
  0
LINE
  5
2B5
100
AcDbEntity
  8
0
100
AcDbLine
 62
253
  6
CONTINUOUS
 10
-0.9361913987
 20
-11.8503505012
 11
-0.9308167173
 21
-11.8603491306
  0
LWPOLYLINE
  5
2B6
100
AcDbEntity
  8
0
100
AcDbPolyline
 62
253
  6
CONTINUOUS
 90
23
 70
0
 10
-1.4757063165
 20
-10.32412289
 10
-1.4770851871
 20
-10.3215271441
 10
-1.478481654
 20
-10.3189499561
 10
-1.4798956514
 20
-10.3163912526
 10
-1.4813271137
 20
-10.3138509604
 10
-1.4827759749
 20
-10.3113290062
 10
-1.4842421693
 20
-10.3088253167
 10
-1.4857256311
 20
-10.3063398187
 10
-1.4872262944
 20
-10.3038724389
 10
-1.4887440935
 20
-10.301423104
 10
-1.4902789626
 20
-10.2989917408
 10
-1.4918308359
 20
-10.2965782758
 10
-1.493399686
 20
-10.2941826829
 10
-1.4949856395
 20
-10.291805123
 10
-1.4965888616
 20
-10.2894458044
 10
-1.4982095172
 20
-10.287104935
 10
-1.4998477714
 20
-10.2847827228
 10
-1.5015037892
 20
-10.2824793761
 10
-1.5031777358
 20
-10.2801951028
 10
-1.5048697762
 20
-10.2779301109
 10
-1.5065800754
 20
-10.2756846086
 10
-1.5083087985
 20
-10.2734588038
 10
-1.5100561106
 20
-10.2712529047
  0
LWPOLYLINE
  5
2B7
100
AcDbEntity
  8
0
100
AcDbPolyline
 62
253
  6
CONTINUOUS
 90
17
 70
0
 10
-0.9650435863
 20
-11.1108898139
 10
-0.9633437526
 20
-11.1142562119
 10
-0.9615953716
 20
-11.117612057
 10
-0.9598010327
 20
-11.1209573485
 10
-0.9579633254
 20
-11.1242920857
 10
-0.9560848392
 20
-11.1276162678
 10
-0.9541681636
 20
-11.1309298943
 10
-0.9522158881
 20
-11.1342329643
 10
-0.9502306022
 20
-11.1375254772
 10
-0.9482148954
 20
-11.1408074324
 10
-0.9461713572
 20
-11.1440788291
 10
-0.944102577
 20
-11.1473396666
 10
-0.9412209441
 20
-11.1518072622
 10
-0.9382996059
 20
-11.1562620098
 10
-0.9353416843
 20
-11.1607110263
 10
-0.9323503013
 20
-11.1651614284
 10
-0.9151301085
 20
-11.1904399714
  0
LWPOLYLINE
  5
2B8
100
AcDbEntity
  8
0
100
AcDbPolyline
 62
253
  6
CONTINUOUS
 90
15
 70
0
 10
-0.6495638338
 20
-11.2269418081
 10
-0.6529316558
 20
-11.2201592937
 10
-0.6562944901
 20
-11.2135134321
 10
-0.659646116
 20
-11.2070055526
 10
-0.6629803129
 20
-11.2006369847
 10
-0.6662908601
 20
-11.1944090577
 10
-0.6695727309
 20
-11.1883214509
 10
-0.6728256734
 20
-11.1823672442
 10
-0.6760506298
 20
-11.1765378674
 10
-0.679248542
 20
-11.1708247501
 10
-0.6824203522
 20
-11.1652193222
 10
-0.6863495975
 20
-11.1583522589
 10
-0.6902398902
 20
-11.1516313678
 10
-0.6940915902
 20
-11.1450479473
 10
-0.7016810748
 20
-11.1322585508
  0
LWPOLYLINE
  5
2B9
100
AcDbEntity
  8
0
100
AcDbPolyline
 62
253
  6
CONTINUOUS
 90
17
 70
0
 10
-0.9572709422
 20
-11.806233633
 10
-0.956351936
 20
-11.8085397436
 10
-0.9554083705
 20
-11.8108414291
 10
-0.9544414818
 20
-11.813138597
 10
-0.953452506
 20
-11.8154311544
 10
-0.9524426794
 20
-11.8177190087
 10
-0.9514132381
 20
-11.8200020673
 10
-0.9503654183
 20
-11.8222802375
 10
-0.9493004562
 20
-11.8245534266
 10
-0.948219588
 20
-11.8268215418
 10
-0.9471240497
 20
-11.8290844907
 10
-0.9460150777
 20
-11.8313421804
 10
-0.944893908
 20
-11.8335945183
 10
-0.9431917494
 20
-11.836963135
 10
-0.9414676733
 20
-11.8403212716
 10
-0.9397244256
 20
-11.8436706982
 10
-0.9361913987
 20
-11.8503505012
  0
LWPOLYLINE
  5
2BA
100
AcDbEntity
  8
0
100
AcDbPolyline
 62
253
  6
CONTINUOUS
 90
24
 70
0
 10
-2.4822243774
 20
-10.8035413166
 10
-2.4817635353
 20
-10.8058721985
 10
-2.4812727912
 20
-10.8082065618
 10
-2.4807527097
 20
-10.8105443329
 10
-2.4802038557
 20
-10.8128854383
 10
-2.4796267938
 20
-10.8152298042
 10
-2.4790220889
 20
-10.8175773572
 10
-2.4783903057
 20
-10.8199280237
 10
-2.477732009
 20
-10.82228173
 10
-2.4770477511
 20
-10.8246383294
 10
-2.4763380354
 20
-10.826997382
 10
-2.4756033528
 20
-10.8293583748
 10
-2.4748441943
 20
-10.8317207948
 10
-2.4740610507
 20
-10.834084129
 10
-2.4732544132
 20
-10.8364478643
 10
-2.4724247725
 20
-10.8388114877
 10
-2.4715726198
 20
-10.8411744861
 10
-2.4705716864
 20
-10.8438738103
 10
-2.4695420731
 20
-10.8465719499
 10
-2.4684838623
 20
-10.8492692068
 10
-2.4673971364
 20
-10.8519658826
 10
-2.4662819778
 20
-10.8546622792
 10
-2.4651384691
 20
-10.8573586983
 10
-2.4639666926
 20
-10.8600554418
  0
LWPOLYLINE
  5
2BB
100
AcDbEntity
  8
0
100
AcDbPolyline
 62
253
  6
CONTINUOUS
 90
3
 70
0
 10
-1.444604871
 20
-10.4339973526
 10
-1.4449208037
 20
-10.4311122087
 10
-1.4455628025
 20
-10.425337093
  0
LWPOLYLINE
  5
2BC
100
AcDbEntity
  8
0
100
AcDbPolyline
 62
253
  6
CONTINUOUS
 90
79
 70
0
 10
-1.4670807655
 20
-10.4215676994
 10
-1.4675827858
 20
-10.4166952266
 10
-1.4681126837
 20
-10.4118357248
 10
-1.4686939405
 20
-10.4069457618
 10
-1.4693500377
 20
-10.4019819056
 10
-1.4701039202
 20
-10.3969106718
 10
-1.4709763871
 20
-10.3917383647
 10
-1.4716346662
 20
-10.3882396797
 10
-1.4723651468
 20
-10.3846939871
 10
-1.4731783208
 20
-10.3810919777
 10
-1.4740836445
 20
-10.3774264674
 10
-1.4750864331
 20
-10.3736987737
 10
-1.476190966
 20
-10.3699123389
 10
-1.4774003118
 20
-10.3660714359
 10
-1.4787126953
 20
-10.3621836584
 10
-1.4801251302
 20
-10.3582574304
 10
-1.481634437
 20
-10.3543013875
 10
-1.4832366633
 20
-10.3503250113
 10
-1.4849276638
 20
-10.346337995
 10
-1.4867047388
 20
-10.3423469811
 10
-1.4885709728
 20
-10.3383464082
 10
-1.490530896
 20
-10.3343276641
 10
-1.492588792
 20
-10.3302837025
 10
-1.4947479569
 20
-10.3262137409
 10
-1.4970114402
 20
-10.3221185628
 10
-1.4993797765
 20
-10.3180026808
 10
-1.5018434413
 20
-10.3138855246
 10
-1.5043903956
 20
-10.3097902529
 10
-1.5075417034
 20
-10.3049323339
 10
-1.5107866365
 20
-10.3001487661
 10
-1.5141162201
 20
-10.2954490382
 10
-1.5175214788
 20
-10.2908426388
 10
-1.5209934377
 20
-10.2863390567
 10
-1.5239337207
 20
-10.2826690226
 10
-1.5269239428
 20
-10.2790678565
 10
-1.5299739562
 20
-10.275526436
 10
-1.533090025
 20
-10.2720400616
 10
-1.5362640606
 20
-10.2686217254
 10
-1.5394843862
 20
-10.2652888423
 10
-1.5427393221
 20
-10.2620580909
 10
-1.546017178
 20
-10.2589432043
 10
-1.5493062605
 20
-10.2559571795
 10
-1.5525967979
 20
-10.2531102046
 10
-1.5558867057
 20
-10.250401233
 10
-1.5591758209
 20
-10.2478264096
 10
-1.5624648883
 20
-10.2453796904
 10
-1.565758284
 20
-10.2430462766
 10
-1.5690612919
 20
-10.2408091808
 10
-1.5715466006
 20
-10.2391856047
 10
-1.574033915
 20
-10.237607021
 10
-1.5789951393
 20
-10.2345796531
 10
-1.5839218032
 20
-10.2317034731
 10
-1.5863641718
 20
-10.2303229518
 10
-1.5887894587
 20
-10.2289939287
 10
-1.591195556
 20
-10.2277305153
 10
-1.5935784598
 20
-10.2265450598
 10
-1.5959347482
 20
-10.2254467807
 10
-1.5982652234
 20
-10.2244341417
 10
-1.6005721794
 20
-10.2235030537
 10
-1.6028596535
 20
-10.2226499723
 10
-1.6051308605
 20
-10.2218720266
 10
-1.6073839803
 20
-10.2211684935
 10
-1.6103553
 20
-10.2203455798
 10
-1.6132853965
 20
-10.2196523782
 10
-1.6161706746
 20
-10.2190866422
 10
-1.619007156
 20
-10.218646282
 10
-1.6217893278
 20
-10.2183298328
 10
-1.6245112935
 20
-10.218135986
 10
-1.6271681354
 20
-10.2180624571
 10
-1.6297588498
 20
-10.2181030569
 10
-1.6322834116
 20
-10.2182506204
 10
-1.6347432775
 20
-10.2184974332
 10
-1.6371458309
 20
-10.2188335849
 10
-1.639499937
 20
-10.219248616
 10
-1.642954819
 20
-10.2199964594
 10
-1.6463215735
 20
-10.220864615
 10
-1.6506880283
 20
-10.2221565816
 10
-1.6549792259
 20
-10.2235553498
 10
-1.6592749224
 20
-10.2250136246
  0
LWPOLYLINE
  5
2BD
100
AcDbEntity
  8
0
100
AcDbPolyline
 62
253
  6
CONTINUOUS
 90
14
 70
0
 10
-2.48552727
 20
-10.7793773492
 10
-2.4853224327
 20
-10.7815581778
 10
-2.4851044596
 20
-10.7837396327
 10
-2.4848712283
 20
-10.7859229932
 10
-2.4846722539
 20
-10.7876718426
 10
-2.4844612071
 20
-10.7894229612
 10
-2.4842371392
 20
-10.7911765801
 10
-2.4839991013
 20
-10.79293293
 10
-2.4837461448
 20
-10.794692242
 10
-2.483477321
 20
-10.7964547471
 10
-2.483191681
 20
-10.7982206761
 10
-2.4828882763
 20
-10.79999026
 10
-2.482566158
 20
-10.8017637299
 10
-2.4822243774
 20
-10.8035413166
  0
LWPOLYLINE
  5
2BE
100
AcDbEntity
  8
0
100
AcDbPolyline
 62
253
  6
CONTINUOUS
 90
55
 70
0
 10
-2.4634094064
 20
-10.7898062186
 10
-2.4629394314
 20
-10.7949367595
 10
-2.4626125146
 20
-10.7980733978
 10
-2.4622362503
 20
-10.801264872
 10
-2.4617967319
 20
-10.8045189576
 10
-2.461280053
 20
-10.8078434301
 10
-2.4606723072
 20
-10.8112460653
 10
-2.4599623438
 20
-10.8147316761
 10
-2.4591500355
 20
-10.8182932261
 10
-2.4582380107
 20
-10.821920716
 10
-2.4572288981
 20
-10.8256041469
 10
-2.456125326
 20
-10.8293335195
 10
-2.4549298473
 20
-10.8331002287
 10
-2.4536447122
 20
-10.8369012448
 10
-2.4522720954
 20
-10.840734932
 10
-2.4508141714
 20
-10.8445996543
 10
-2.4492731146
 20
-10.848493776
 10
-2.4476512406
 20
-10.8524145858
 10
-2.4459514278
 20
-10.8563550701
 10
-2.4441766956
 20
-10.8603071399
 10
-2.4423300632
 20
-10.8642627061
 10
-2.4404145501
 20
-10.8682136799
 10
-2.438433178
 20
-10.8721522242
 10
-2.4363889778
 20
-10.8760715103
 10
-2.4342849831
 20
-10.8799649615
 10
-2.4321242272
 20
-10.8838260014
 10
-2.4299097437
 20
-10.8876480531
 10
-2.4276441565
 20
-10.891425461
 10
-2.4253284519
 20
-10.8951562522
 10
-2.4229632067
 20
-10.8988393748
 10
-2.4205489977
 20
-10.9024737768
 10
-2.4180864018
 20
-10.9060584063
 10
-2.4155770793
 20
-10.9095907583
 10
-2.4130270252
 20
-10.9130625161
 10
-2.4104433179
 20
-10.9164639097
 10
-2.4078330359
 20
-10.9197851694
 10
-2.4052032576
 20
-10.9230165254
 10
-2.4030005472
 20
-10.9256354423
 10
-2.4007846569
 20
-10.9281905594
 10
-2.3985510301
 20
-10.9306872942
 10
-2.3962964443
 20
-10.9331291952
 10
-2.3940230127
 20
-10.9355123335
 10
-2.3917341826
 20
-10.9378309107
 10
-2.389433446
 20
-10.9400799294
 10
-2.3871244737
 20
-10.9422575963
 10
-2.3848109812
 20
-10.944362919
 10
-2.3824965068
 20
-10.9463959457
 10
-2.3801838793
 20
-10.9483608879
 10
-2.37787575
 20
-10.9502629974
 10
-2.3744252469
 20
-10.9530107492
 10
-2.3709845171
 20
-10.9556521283
 10
-2.3675504098
 20
-10.9582078107
 10
-2.3641324242
 20
-10.9606884419
 10
-2.3596118933
 20
-10.9638996744
 10
-2.3506000827
 20
-10.970196144
  0
LINE
  5
2BF
100
AcDbEntity
  8
0
100
AcDbLine
 62
253
  6
CONTINUOUS
 10
-2.4859060279
 20
-10.7750124543
 11
-2.48552727
 21
-10.7793773492
  0
LINE
  5
2C0
100
AcDbEntity
  8
0
100
AcDbLine
 62
253
  6
CONTINUOUS
 10
-2.4642396416
 20
-10.7797081419
 11
-2.4634094064
 21
-10.7898062186
  0
LINE
  5
2C1
100
AcDbEntity
  8
0
100
AcDbLine
 62
253
  6
CONTINUOUS
 10
-2.4864287109
 20
-10.7684378292
 11
-2.4859060279
 21
-10.7750124543
  0
LWPOLYLINE
  5
2C2
100
AcDbEntity
  8
0
100
AcDbPolyline
 62
253
  6
CONTINUOUS
 90
46
 70
0
 10
-3.3824480887
 20
-9.7534883853
 10
-3.3838580891
 20
-9.7234812505
 10
-3.3854342675
 20
-9.6943038677
 10
-3.3872153244
 20
-9.6659689122
 10
-3.3892385493
 20
-9.6383730185
 10
-3.3915408789
 20
-9.6113838111
 10
-3.3941592496
 20
-9.5848689144
 10
-3.3982165016
 20
-9.5499986725
 10
-3.403052604
 20
-9.5152661423
 10
-3.408818891
 20
-9.4802011511
 10
-3.4138367751
 20
-9.4534578192
 10
-3.4194770467
 20
-9.4264032152
 10
-3.4257642546
 20
-9.3991320313
 10
-3.4327650087
 20
-9.3715568891
 10
-3.4405533556
 20
-9.343595005
 10
-3.4491910266
 20
-9.3153640445
 10
-3.4587271929
 20
-9.2870179088
 10
-3.4691731004
 20
-9.2586549902
 10
-3.4805207288
 20
-9.2303532649
 10
-3.4927229192
 20
-9.2021645513
 10
-3.5057184517
 20
-9.1741389067
 10
-3.5194290022
 20
-9.1463455016
 10
-3.5337769387
 20
-9.118847756
 10
-3.5487045003
 20
-9.0916669745
 10
-3.5641588942
 20
-9.0648139328
 10
-3.5800873275
 20
-9.0382994066
 10
-3.6020079956
 20
-9.0034706171
 10
-3.6247720638
 20
-8.9691605781
 10
-3.6484740495
 20
-8.9352670776
 10
-3.6669200561
 20
-8.9100697097
 10
-3.6859695866
 20
-8.8850713748
 10
-3.7056454203
 20
-8.8602942968
 10
-3.7259703365
 20
-8.8357606999
 10
-3.7469732591
 20
-8.8114904009
 10
-3.7687076911
 20
-8.7874935871
 10
-3.7912332799
 20
-8.7637780385
 10
-3.8146096732
 20
-8.7403515353
 10
-3.8388917656
 20
-8.7172295477
 10
-3.8641154412
 20
-8.6944583064
 10
-3.890311831
 20
-8.6720917325
 10
-3.9175120662
 20
-8.6501837468
 10
-3.9400121611
 20
-8.6330253876
 10
-3.9631678873
 20
-8.6162323079
 10
-3.9869724909
 20
-8.5998417811
 10
-4.0114192182
 20
-8.5838910807
 10
-4.0365013154
 20
-8.5684174803
  0
LWPOLYLINE
  5
2C3
100
AcDbEntity
  8
0
100
AcDbPolyline
 62
253
  6
CONTINUOUS
 90
45
 70
0
 10
-3.3598970809
 20
-9.7797302054
 10
-3.3612548787
 20
-9.7482949868
 10
-3.3628104775
 20
-9.7176550406
 10
-3.3645955841
 20
-9.6879382252
 10
-3.366642968
 20
-9.6590471892
 10
-3.3689856649
 20
-9.6308282788
 10
-3.3716567102
 20
-9.6031278402
 10
-3.3757951228
 20
-9.5667192816
 10
-3.3807092395
 20
-9.530501607
 10
-3.3865323041
 20
-9.4940171352
 10
-3.3934026162
 20
-9.4568886498
 10
-3.4014786992
 20
-9.4190607943
 10
-3.4109241322
 20
-9.380558677
 10
-3.4189977359
 20
-9.3512709258
 10
-3.4279575612
 20
-9.3217259198
 10
-3.4378275571
 20
-9.2920315529
 10
-3.4486316726
 20
-9.2622957192
 10
-3.4603795318
 20
-9.2326181193
 10
-3.4730234585
 20
-9.2030656812
 10
-3.486501452
 20
-9.1736971395
 10
-3.5007515113
 20
-9.1445712291
 10
-3.5157101594
 20
-9.1157398733
 10
-3.5313080164
 20
-9.0872277507
 10
-3.5474742261
 20
-9.0590527288
 10
-3.5641379327
 20
-9.0312326749
 10
-3.5870535833
 20
-8.9946988833
 10
-3.6108355013
 20
-8.9587296177
 10
-3.6355914815
 20
-8.9232265857
 10
-3.6548578005
 20
-8.8968577027
 10
-3.6747497004
 20
-8.8707236454
 10
-3.6952842174
 20
-8.8448522723
 10
-3.716478388
 20
-8.8192714422
 10
-3.7383559071
 20
-8.7940055879
 10
-3.7609671039
 20
-8.7690654384
 10
-3.7843689667
 20
-8.7444582968
 10
-3.8086184833
 20
-8.7201914662
 10
-3.8337675966
 20
-8.6962802372
 10
-3.8598480679
 20
-8.6727718508
 10
-3.8868866131
 20
-8.6497215355
 10
-3.9149099482
 20
-8.6271845197
 10
-3.9380523452
 20
-8.6095624476
 10
-3.9618361461
 20
-8.5923376179
 10
-3.9862553913
 20
-8.5755434153
 10
-4.0113041209
 20
-8.5592132243
 10
-4.0369763751
 20
-8.5433804296
  0
LINE
  5
2C4
100
AcDbEntity
  8
0
100
AcDbLine
 62
253
  6
CONTINUOUS
 10
-3.6024772844
 20
-9.6791531175
 11
-3.5998546131
 21
-9.7457231195
  0
LINE
  5
2C5
100
AcDbEntity
  8
0
100
AcDbLine
 62
253
  6
CONTINUOUS
 10
-3.379970409
 20
-9.8158251692
 11
-3.3824480887
 21
-9.7534883853
  0
LINE
  5
2C6
100
AcDbEntity
  8
0
100
AcDbLine
 62
7
  6
CONTINUOUS
 10
-4.2053612995
 20
22.3762751366
 11
-4.1841576855
 21
21.7598513411
  0
LINE
  5
2C7
100
AcDbEntity
  8
0
100
AcDbLine
 62
253
  6
CONTINUOUS
 10
-3.3575970885
 20
-9.8445589729
 11
-3.3598970809
 21
-9.7797302054
  0
LINE
  5
2C8
100
AcDbEntity
  8
0
100
AcDbLine
 62
253
  6
CONTINUOUS
 10
-3.5998546131
 20
-9.7457231195
 11
-3.5976865395
 21
-9.8101070892
  0
LINE
  5
2C9
100
AcDbEntity
  8
0
100
AcDbLine
 62
253
  6
CONTINUOUS
 10
-3.3770501338
 20
-9.9030502732
 11
-3.379970409
 21
-9.8158251692
  0
LINE
  5
2CA
100
AcDbEntity
  8
0
100
AcDbLine
 62
253
  6
CONTINUOUS
 10
-3.6225835622
 20
-9.7095358454
 11
-3.6197043206
 21
-9.7942906483
  0
LINE
  5
2CB
100
AcDbEntity
  8
0
100
AcDbLine
 62
253
  6
CONTINUOUS
 10
-3.3534385758
 20
-9.9813436158
 11
-3.3575970885
 21
-9.8445589729
  0
LINE
  5
2CC
100
AcDbEntity
  8
0
100
AcDbLine
 62
253
  6
CONTINUOUS
 10
-3.5976865395
 20
-9.8101070892
 11
-3.5959512017
 21
-9.8723905125
  0
LINE
  5
2CD
100
AcDbEntity
  8
0
100
AcDbLine
 62
253
  6
CONTINUOUS
 10
-3.3739622774
 20
-10.0160508144
 11
-3.3770501338
 21
-9.9030502732
  0
LWPOLYLINE
  5
2CE
100
AcDbEntity
  8
0
100
AcDbPolyline
 62
253
  6
CONTINUOUS
 90
45
 70
0
 10
-3.6197043206
 20
-9.7942906483
 10
-3.6170384159
 20
-9.8958409861
 10
-3.6158458775
 20
-9.9551963093
 10
-3.6149972601
 20
-10.0137803122
 10
-3.6146278506
 20
-10.0718375181
 10
-3.6147403096
 20
-10.1103340205
 10
-3.615266473
 20
-10.1486056548
 10
-3.6163362019
 20
-10.1865623019
 10
-3.6175913055
 20
-10.2147583727
 10
-3.6193878316
 20
-10.242625602
 10
-3.6218884001
 20
-10.2700630209
 10
-3.625255631
 20
-10.2969696603
 10
-3.6280644256
 20
-10.3145498481
 10
-3.6313919952
 20
-10.3317423432
 10
-3.635299656
 20
-10.3484402301
 10
-3.6398503434
 20
-10.3645291285
 10
-3.6451134693
 20
-10.3798647999
 10
-3.6511600648
 20
-10.3942955409
 10
-3.6562502127
 20
-10.4044441749
 10
-3.6618409019
 20
-10.4139986391
 10
-3.6679343498
 20
-10.4229689628
 10
-3.6744621039
 20
-10.4314045438
 10
-3.681348267
 20
-10.4393557339
 10
-3.6885578342
 20
-10.4468373303
 10
-3.6960761721
 20
-10.4538447913
 10
-3.7039292426
 20
-10.4603317728
 10
-3.7121490666
 20
-10.466248595
 10
-3.720751305
 20
-10.471574038
 10
-3.7297423526
 20
-10.4762974034
 10
-3.7391078987
 20
-10.4804216184
 10
-3.7521468725
 20
-10.4849979457
 10
-3.7657870299
 20
-10.4885260213
 10
-3.7799984238
 20
-10.4910114901
 10
-3.7947553393
 20
-10.4924570688
 10
-3.8100489904
 20
-10.492853763
 10
-3.8258748235
 20
-10.4921896505
 10
-3.8422275219
 20
-10.4904513018
 10
-3.8590987171
 20
-10.4876192605
 10
-3.8764792775
 20
-10.4836725632
 10
-3.8943624079
 20
-10.4785843478
 10
-3.9127506589
 20
-10.4723041595
 10
-3.9316489176
 20
-10.4647756446
 10
-3.951062071
 20
-10.4559424497
 10
-3.970995006
 20
-10.4457482214
 10
-3.9914526098
 20
-10.4341366062
  0
LINE
  5
2CF
100
AcDbEntity
  8
0
100
AcDbLine
 62
253
  6
CONTINUOUS
 10
-2.4990933194
 20
-10.2664222222
 11
-2.4864287109
 21
-10.7684378292
  0
LINE
  5
2D0
100
AcDbEntity
  8
0
100
AcDbLine
 62
253
  6
CONTINUOUS
 10
-2.4768637654
 20
-10.2792533386
 11
-2.4642396416
 21
-10.7797081419
  0
LINE
  5
2D1
100
AcDbEntity
  8
0
100
AcDbLine
 62
253
  6
CONTINUOUS
 10
-3.3501946706
 20
-10.1224231965
 11
-3.3534385758
 21
-9.9813436158
  0
LWPOLYLINE
  5
2D2
100
AcDbEntity
  8
0
100
AcDbPolyline
 62
253
  6
CONTINUOUS
 90
46
 70
0
 10
-3.5959512017
 20
-9.8723905125
 10
-3.5940473585
 20
-9.9631938572
 10
-3.5931997191
 20
-10.0225588687
 10
-3.5927057655
 20
-10.0814367685
 10
-3.5929193201
 20
-10.1397733607
 10
-3.5934299126
 20
-10.1686790917
 10
-3.5942943465
 20
-10.197333361
 10
-3.5955852651
 20
-10.2256692588
 10
-3.5973940498
 20
-10.2536558998
 10
-3.5998199055
 20
-10.2812443721
 10
-3.6029745938
 20
-10.3082776347
 10
-3.6055477189
 20
-10.3258983002
 10
-3.6085799902
 20
-10.3431228984
 10
-3.6121555613
 20
-10.3598839326
 10
-3.6163535334
 20
-10.3761098618
 10
-3.6212327986
 20
-10.3917129688
 10
-3.6268471968
 20
-10.4066014926
 10
-3.6315679559
 20
-10.4172424721
 10
-3.6367260746
 20
-10.4273835624
 10
-3.6423145677
 20
-10.4369908924
 10
-3.6483242588
 20
-10.446080388
 10
-3.6547442151
 20
-10.4546789492
 10
-3.6615586689
 20
-10.4628075771
 10
-3.6687521002
 20
-10.4704773497
 10
-3.6763148155
 20
-10.4776655528
 10
-3.6842374802
 20
-10.484340674
 10
-3.6925063711
 20
-10.4904697982
 10
-3.701110828
 20
-10.4960271581
 10
-3.7100568325
 20
-10.5010169777
 10
-3.7250871873
 20
-10.5078417669
 10
-3.7409454917
 20
-10.513245494
 10
-3.7575593688
 20
-10.517229991
 10
-3.7748564419
 20
-10.5197970903
 10
-3.7927643344
 20
-10.5209486241
 10
-3.8081042365
 20
-10.5208291342
 10
-3.8237898312
 20
-10.5197344148
 10
-3.8397928928
 20
-10.5176709957
 10
-3.8560794944
 20
-10.5146493286
 10
-3.8725929055
 20
-10.5106955523
 10
-3.8892706945
 20
-10.5058397277
 10
-3.9060599078
 20
-10.5001098384
 10
-3.9229455047
 20
-10.49352556
 10
-3.9399219225
 20
-10.486104491
 10
-3.9569946109
 20
-10.4778537162
 10
-3.9742130691
 20
-10.4687382651
 10
-3.9916378085
 20
-10.4587126532
  0
LINE
  5
2D3
100
AcDbEntity
  8
0
100
AcDbLine
 62
253
  6
CONTINUOUS
 10
-3.4189065545
 20
8.5332041783
 11
-3.4092334482
 21
9.0394478249
  0
LINE
  5
2D4
100
AcDbEntity
  8
0
100
AcDbLine
 62
253
  6
CONTINUOUS
 10
-2.4798993287
 20
8.9283182634
 11
-2.5124095492
 21
7.6072656117
  0
LWPOLYLINE
  5
2D5
100
AcDbEntity
  8
0
100
AcDbPolyline
 62
253
  6
CONTINUOUS
 90
3
 70
0
 10
-4.0134090519
 20
10.2164988519
 10
-4.0316322339
 20
9.5201168971
 10
-4.064363885
 20
8.1293734913
  0
LWPOLYLINE
  5
2D6
100
AcDbEntity
  8
0
100
AcDbPolyline
 62
253
  6
CONTINUOUS
 90
38
 70
0
 10
-1.9325886759
 20
7.9411200483
 10
-1.9327957072
 20
7.9354256047
 10
-1.933132281
 20
7.929830172
 10
-1.93359521
 20
7.9243309929
 10
-1.9341813069
 20
7.9189253098
 10
-1.9348873844
 20
7.9136103656
 10
-1.9357102551
 20
7.9083834027
 10
-1.9366467319
 20
7.9032416637
 10
-1.9378788781
 20
7.8973481269
 10
-1.9392577954
 20
7.8915691997
 10
-1.9407799631
 20
7.8859072454
 10
-1.9424418601
 20
7.8803646275
 10
-1.9442399655
 20
7.8749437092
 10
-1.9461707584
 20
7.8696468539
 10
-1.948230884
 20
7.8644762769
 10
-1.9504176523
 20
7.8594336002
 10
-1.9527285391
 20
7.8545202976
 10
-1.9551610206
 20
7.8497378431
 10
-1.9577125729
 20
7.8450877104
 10
-1.9603806718
 20
7.8405713736
 10
-1.9631630807
 20
7.836190426
 10
-1.9660587113
 20
7.8319469402
 10
-1.9690667626
 20
7.827843108
 10
-1.9721864337
 20
7.8238811215
 10
-1.9754169236
 20
7.8200631728
 10
-1.9787574311
 20
7.8163914538
 10
-1.9822072093
 20
7.8128685037
 10
-1.9857657266
 20
7.8094982499
 10
-1.9894325053
 20
7.8062849671
 10
-1.9932070677
 20
7.8032329298
 10
-1.9970889361
 20
7.8003464125
 10
-2.001077633
 20
7.79762969
 10
-2.0045816279
 20
7.7954396823
 10
-2.0081661409
 20
7.7933816273
 10
-2.011833555
 20
7.7914595897
 10
-2.015586253
 20
7.7896776346
 10
-2.0194266179
 20
7.788039827
 10
-2.0233570326
 20
7.7865502317
  0
LINE
  5
2D7
100
AcDbEntity
  8
0
100
AcDbLine
 62
253
  6
CONTINUOUS
 10
-2.5124095492
 20
7.6072656117
 11
-2.5187278638
 21
7.5708111905
  0
LINE
  5
2D8
100
AcDbEntity
  8
0
100
AcDbLine
 62
7
  6
CONTINUOUS
 10
3.7142346498
 20
17.8035996913
 11
3.5340000014
 21
17.389417682
  0
LWPOLYLINE
  5
2D9
100
AcDbEntity
  8
0
100
AcDbPolyline
 62
253
  6
CONTINUOUS
 90
10
 70
0
 10
5.0760029914
 20
-5.8958766994
 10
3.3143397999
 20
-5.0238863746
 10
1.5828008
 20
-4.1329985248
 10
-0.1182754274
 20
-3.2234040031
 10
-1.7884531004
 20
-2.2953538849
 10
-3.4275041297
 20
-1.3489863903
 10
-5.0353963526
 20
-0.3843200808
 10
-6.6118903192
 20
0.5985133291
 10
-8.1565510644
 20
1.5992621722
 10
-9.6690478708
 20
2.6177308732
  0
LWPOLYLINE
  5
2DA
100
AcDbEntity
  8
0
100
AcDbPolyline
 62
253
  6
CONTINUOUS
 90
10
 70
0
 10
5.3950117571
 20
-5.2680002329
 10
3.6400029983
 20
-4.3992088902
 10
1.9156624791
 20
-3.5119928202
 10
0.2219901995
 20
-2.606352023
 10
-1.4412475446
 20
-1.682151553
 10
-3.073817049
 20
-0.7395263558
 10
-4.6750172014
 20
0.2211187322
 10
-6.2446142977
 20
1.1996487653
 10
-7.782842042
 20
2.1961986891
 10
-9.2897004343
 20
3.2107685036
  0
LWPOLYLINE
  5
2DB
100
AcDbEntity
  8
0
100
AcDbPolyline
 62
7
  6
CONTINUOUS
 90
13
 70
0
 10
-9.5690682468
 20
3.611868351
 10
-8.4825805237
 20
2.8782029472
 10
-7.3251525936
 20
2.1182581398
 10
-6.1490405096
 20
1.367839667
 10
-4.954510508
 20
0.6271367615
 10
-3.7418112569
 20
-0.103678417
 10
-2.5111620778
 20
-0.8244762455
 10
-1.2627991926
 20
-1.5351229177
 10
0.0030412581
 20
-2.2354845462
 10
1.2861303925
 20
-2.9254368987
 10
2.5861653422
 20
-3.6048386344
 10
3.9028136941
 20
-4.2735383855
 10
5.1791466664
 20
-4.9038345282
  0
LINE
  5
2DC
100
AcDbEntity
  8
0
100
AcDbLine
 62
7
  6
CONTINUOUS
 10
-9.5690611076
 20
3.6118634805
 11
-9.5689935092
 21
3.6118171787
  0
LWPOLYLINE
  5
2DD
100
AcDbEntity
  8
0
100
AcDbPolyline
 62
7
  6
CONTINUOUS
 90
6
 70
0
 10
-9.5689935092
 20
3.6118171787
 10
-9.5807536802
 20
3.6201161766
 10
-9.6139591758
 20
3.6464963208
 10
-9.6448340984
 20
3.675620472
 10
-9.6731467102
 20
3.7072813709
 10
-9.6987055433
 20
3.7412825416
  0
LWPOLYLINE
  5
2DE
100
AcDbEntity
  8
0
100
AcDbPolyline
 62
253
  6
CONTINUOUS
 90
9
 70
0
 10
-9.6690480792
 20
2.6177309321
 10
-9.6985235134
 20
2.6400664139
 10
-9.7241040751
 20
2.663955122
 10
-9.7455478829
 20
2.6891711726
 10
-9.7626521688
 20
2.7154761265
 10
-9.7752552035
 20
2.7426212565
 10
-9.7832378191
 20
2.7703498997
 10
-9.7865245289
 20
2.7983998761
 10
-9.7866147473
 20
2.8036789326
  0
LWPOLYLINE
  5
2DF
100
AcDbEntity
  8
0
100
AcDbPolyline
 62
253
  6
CONTINUOUS
 90
23
 70
0
 10
-0.8434921402
 20
-11.3334479469
 10
-0.8417500396
 20
-11.3386621517
 10
-0.8400711257
 20
-11.3438576404
 10
-0.8384549914
 20
-11.3490345026
 10
-0.8369012295
 20
-11.3541928277
 10
-0.8354094329
 20
-11.3593327054
 10
-0.8339791946
 20
-11.3644542251
 10
-0.8326101073
 20
-11.3695574763
 10
-0.8313017641
 20
-11.3746425487
 10
-0.8300537576
 20
-11.3797095318
 10
-0.828865681
 20
-11.384758515
 10
-0.8277371269
 20
-11.3897895879
 10
-0.8266678438
 20
-11.3948027895
 10
-0.8256582019
 20
-11.3997979564
 10
-0.8247087267
 20
-11.4047748748
 10
-0.8238199439
 20
-11.4097333308
 10
-0.8229923791
 20
-11.4146731105
 10
-0.8222265581
 20
-11.419594
 10
-0.8215230063
 20
-11.4244957854
 10
-0.8208822495
 20
-11.4293782528
 10
-0.8203048133
 20
-11.4342411885
 10
-0.8197912233
 20
-11.4390843784
 10
-0.8193420052
 20
-11.4439076087
  0
LWPOLYLINE
  5
2E0
100
AcDbEntity
  8
0
100
AcDbPolyline
 62
253
  6
CONTINUOUS
 90
25
 70
0
 10
-1.4534408212
 20
-10.3804548392
 10
-1.4540342369
 20
-10.3781715478
 10
-1.4546587786
 20
-10.3758822495
 10
-1.4553141011
 20
-10.3735870206
 10
-1.4559998589
 20
-10.3712859377
 10
-1.4567157067
 20
-10.3689790771
 10
-1.4574612993
 20
-10.3666665152
 10
-1.4582362912
 20
-10.3643483286
 10
-1.4590403371
 20
-10.3620245936
 10
-1.4598730918
 20
-10.3596953867
 10
-1.4607342098
 20
-10.3573607843
 10
-1.4616233458
 20
-10.3550208628
 10
-1.4625401545
 20
-10.3526756987
 10
-1.4634843668
 20
-10.3503253511
 10
-1.4644560184
 20
-10.3479698106
 10
-1.4654552211
 20
-10.3456090502
 10
-1.466482087
 20
-10.3432430432
 10
-1.4675367279
 20
-10.3408717627
 10
-1.4686192557
 20
-10.3384951819
 10
-1.4697297825
 20
-10.3361132741
 10
-1.47086842
 20
-10.3337260123
 10
-1.4720352803
 20
-10.3313333698
 10
-1.4732304752
 20
-10.3289353198
 10
-1.4744541166
 20
-10.3265318355
 10
-1.4757063165
 20
-10.32412289
  0
LWPOLYLINE
  5
2E1
100
AcDbEntity
  8
0
100
AcDbPolyline
 62
253
  6
CONTINUOUS
 90
24
 70
0
 10
-0.9843734785
 20
-11.0563772213
 10
-0.9837786133
 20
-11.0589014972
 10
-0.9831527616
 20
-11.0614333411
 10
-0.9824954994
 20
-11.0639734311
 10
-0.9818064027
 20
-11.066522445
 10
-0.9810850474
 20
-11.0690810609
 10
-0.9803310095
 20
-11.0716499566
 10
-0.9795438651
 20
-11.0742298102
 10
-0.9788276935
 20
-11.0764964323
 10
-0.9780859913
 20
-11.0787707881
 10
-0.9773188993
 20
-11.0810517024
 10
-0.9765265589
 20
-11.0833380001
 10
-0.9757091111
 20
-11.0856285063
 10
-0.9748666969
 20
-11.0879220458
 10
-0.9739994576
 20
-11.0902174437
 10
-0.9731075342
 20
-11.0925135247
 10
-0.9721909567
 20
-11.0948093561
 10
-0.971249311
 20
-11.0971049745
 10
-0.9702820717
 20
-11.0994006583
 10
-0.9692887135
 20
-11.1016966863
 10
-0.9682687112
 20
-11.1039933372
 10
-0.9672215394
 20
-11.1062908896
 10
-0.9661466729
 20
-11.1085896223
 10
-0.9650435863
 20
-11.1108898139
  0
LWPOLYLINE
  5
2E2
100
AcDbEntity
  8
0
100
AcDbPolyline
 62
253
  6
CONTINUOUS
 90
25
 70
0
 10
-0.5699083455
 20
-11.452687877
 10
-0.572261363
 20
-11.4425403116
 10
-0.5747100169
 20
-11.4324536644
 10
-0.5772524897
 20
-11.4224285703
 10
-0.5798869638
 20
-11.4124656644
 10
-0.5826116218
 20
-11.4025655817
 10
-0.585424646
 20
-11.3927289574
 10
-0.5883242189
 20
-11.3829564265
 10
-0.5913085231
 20
-11.373248624
 10
-0.5943757409
 20
-11.3636061849
 10
-0.5975240549
 20
-11.3540297444
 10
-0.6007516474
 20
-11.3445199375
 10
-0.6040567011
 20
-11.3350773992
 10
-0.607437668
 20
-11.3257025891
 10
-0.6108940794
 20
-11.3163952648
 10
-0.6144257361
 20
-11.3071550084
 10
-0.618032439
 20
-11.2979814021
 10
-0.621713989
 20
-11.288874028
 10
-0.6254701871
 20
-11.2798324681
 10
-0.6293008341
 20
-11.2708563047
 10
-0.6332057308
 20
-11.2619451198
 10
-0.6371846783
 20
-11.2530984956
 10
-0.6412374774
 20
-11.2443160141
 10
-0.6453639289
 20
-11.2355972576
 10
-0.6495638338
 20
-11.2269418081
  0
LWPOLYLINE
  5
2E3
100
AcDbEntity
  8
0
100
AcDbPolyline
 62
253
  6
CONTINUOUS
 90
18
 70
0
 10
-1.446241048
 20
-10.4195418356
 10
-1.4466022889
 20
-10.4166315148
 10
-1.4469828224
 20
-10.4137099917
 10
-1.4473860587
 20
-10.4107752107
 10
-1.447815408
 20
-10.4078251161
 10
-1.4481297505
 20
-10.4057727866
 10
-1.4484594389
 20
-10.4037120206
 10
-1.448805669
 20
-10.4016427064
 10
-1.4491696365
 20
-10.3995647322
 10
-1.4495525372
 20
-10.3974779864
 10
-1.4499555667
 20
-10.3953823573
 10
-1.4503799207
 20
-10.3932777331
 10
-1.4508267951
 20
-10.3911640024
 10
-1.4512973855
 20
-10.3890410532
 10
-1.4517928875
 20
-10.386908774
 10
-1.452314497
 20
-10.384767053
 10
-1.4528634097
 20
-10.3826157787
 10
-1.4534408212
 20
-10.3804548392
  0
LINE
  5
2E4
100
AcDbEntity
  8
0
100
AcDbLine
 62
253
  6
CONTINUOUS
 10
-1.4455628025
 20
-10.425337093
 11
-1.446241048
 21
-10.4195418356
  0
LWPOLYLINE
  5
2E5
100
AcDbEntity
  8
0
100
AcDbPolyline
 62
253
  6
CONTINUOUS
 90
24
 70
0
 10
-0.9702358403
 20
-11.7527128155
 10
-0.9699947366
 20
-11.7550296486
 10
-0.9697203502
 20
-11.7573573568
 10
-0.9694127845
 20
-11.7596959707
 10
-0.9690721431
 20
-11.7620455212
 10
-0.9686985293
 20
-11.7644060388
 10
-0.9682920467
 20
-11.7667775543
 10
-0.9678527987
 20
-11.7691600983
 10
-0.9673808887
 20
-11.7715537016
 10
-0.9668764201
 20
-11.7739583948
 10
-0.9663394966
 20
-11.7763742086
 10
-0.9657702214
 20
-11.7788011737
 10
-0.965219978
 20
-11.7810357089
 10
-0.9646422598
 20
-11.7832796327
 10
-0.9640366895
 20
-11.7855329379
 10
-0.9634028897
 20
-11.787795617
 10
-0.9627404829
 20
-11.7900676628
 10
-0.9620490919
 20
-11.7923490679
 10
-0.9613283392
 20
-11.7946398249
 10
-0.9605778474
 20
-11.7969399266
 10
-0.9597972392
 20
-11.7992493656
 10
-0.9589861372
 20
-11.8015681345
 10
-0.9581441639
 20
-11.8038962261
 10
-0.9572709422
 20
-11.806233633
  0
LWPOLYLINE
  5
2E6
100
AcDbEntity
  8
0
100
AcDbPolyline
 62
253
  6
CONTINUOUS
 90
23
 70
0
 10
-0.8193420052
 20
-11.4439076087
 10
-0.8189367844
 20
-11.4485410975
 10
-0.8185962404
 20
-11.4531487394
 10
-0.8183201356
 20
-11.457730723
 10
-0.8181082325
 20
-11.4622872367
 10
-0.8179602936
 20
-11.4668184694
 10
-0.8178760815
 20
-11.4713246094
 10
-0.8178553585
 20
-11.4758058456
 10
-0.8178978873
 20
-11.4802623664
 10
-0.8180034303
 20
-11.4846943605
 10
-0.8181717499
 20
-11.4891020165
 10
-0.8184026088
 20
-11.493485523
 10
-0.8186959146
 20
-11.4978449482
 10
-0.8190521567
 20
-11.5021798786
 10
-0.8194719694
 20
-11.5064897805
 10
-0.8199559872
 20
-11.51077412
 10
-0.8205048447
 20
-11.5150323634
 10
-0.8211191763
 20
-11.5192639766
 10
-0.8217996166
 20
-11.5234684261
 10
-0.8225467999
 20
-11.5276451778
 10
-0.8233613609
 20
-11.531793698
 10
-0.8242439339
 20
-11.5359134529
 10
-0.8251951535
 20
-11.5400039087
  0
LWPOLYLINE
  5
2E7
100
AcDbEntity
  8
0
100
AcDbPolyline
 62
253
  6
CONTINUOUS
 90
3
 70
0
 10
-1.4323575622
 20
-11.8028838188
 10
-1.4560832092
 20
-10.88235838
 10
-1.4670807655
 20
-10.4215676994
  0
LWPOLYLINE
  5
2E8
100
AcDbEntity
  8
0
100
AcDbPolyline
 62
253
  6
CONTINUOUS
 90
3
 70
0
 10
-1.4098810047
 20
-11.8155723186
 10
-1.4336072195
 20
-10.8948743895
 10
-1.444604871
 20
-10.4339973526
  0
LWPOLYLINE
  5
2E9
100
AcDbEntity
  8
0
100
AcDbPolyline
 62
253
  6
CONTINUOUS
 90
39
 70
0
 10
-1.6237669808
 20
7.765547614
 10
-1.6235753759
 20
7.7792845178
 10
-1.6236686272
 20
7.7931337545
 10
-1.6240415212
 20
7.8070948255
 10
-1.6246888445
 20
7.8211672319
 10
-1.6256053834
 20
7.8353504752
 10
-1.6267859245
 20
7.8496440567
 10
-1.6285442489
 20
7.8669387949
 10
-1.6306694178
 20
7.8843758165
 10
-1.6331556197
 20
7.9019392361
 10
-1.6359970437
 20
7.9196131681
 10
-1.6391878784
 20
7.9373817272
 10
-1.6427227461
 20
7.955230103
 10
-1.6465980026
 20
7.973147786
 10
-1.6508104372
 20
7.9911253421
 10
-1.6553568392
 20
8.009153337
 10
-1.6602339978
 20
8.0272223365
 10
-1.6654388321
 20
8.0453223664
 10
-1.6709687801
 20
8.0634412929
 10
-1.6768214095
 20
8.0815664421
 10
-1.6829942882
 20
8.0996851402
 10
-1.6894849839
 20
8.1177847136
 10
-1.6951352223
 20
8.1328438648
 10
-1.7010048901
 20
8.1478731571
 10
-1.7070943993
 20
8.1628648139
 10
-1.7134041621
 20
8.1778110585
 10
-1.7199345904
 20
8.1927041145
 10
-1.7266860966
 20
8.2075362051
 10
-1.7336577923
 20
8.222299263
 10
-1.7408435883
 20
8.2369840571
 10
-1.7482360946
 20
8.2515810656
 10
-1.7558279218
 20
8.2660807664
 10
-1.76361168
 20
8.2804736378
 10
-1.7715799796
 20
8.2947501577
 10
-1.7813770297
 20
8.3117195114
 10
-1.7914278132
 20
8.3285182763
 10
-1.801730965
 20
8.3451571213
 10
-1.8122851202
 20
8.3616467151
 10
-1.8230889136
 20
8.3779977267
  0
LWPOLYLINE
  5
2EA
100
AcDbEntity
  8
0
100
AcDbPolyline
 62
253
  6
CONTINUOUS
 90
37
 70
0
 10
-1.3485561414
 20
7.6100617749
 10
-1.3482852423
 20
7.6289657674
 10
-1.3483898725
 20
7.6480271697
 10
-1.3488623556
 20
7.667244836
 10
-1.3496950151
 20
7.6866176205
 10
-1.3508801746
 20
7.7061443775
 10
-1.3524101576
 20
7.7258239612
 10
-1.3546910866
 20
7.7496362906
 10
-1.357447787
 20
7.7736453263
 10
-1.3606705386
 20
7.7978293542
 10
-1.3643496209
 20
7.82216666
 10
-1.3684753137
 20
7.8466355295
 10
-1.3730384096
 20
7.8712159441
 10
-1.3780317526
 20
7.8958946681
 10
-1.3834486998
 20
7.9206601613
 10
-1.3892826082
 20
7.9455008838
 10
-1.3955268348
 20
7.9704052953
 10
-1.4021750956
 20
7.9953615875
 10
-1.4092225424
 20
8.0203568783
 10
-1.4166646863
 20
8.0453780172
 10
-1.4244970379
 20
8.070411854
 10
-1.4327151083
 20
8.095445238
 10
-1.4413152039
 20
8.1204658055
 10
-1.4502968139
 20
8.1454643381
 10
-1.4596602229
 20
8.1704324042
 10
-1.4694057157
 20
8.1953615722
 10
-1.479533577
 20
8.2202434101
 10
-1.4900432521
 20
8.2450669333
 10
-1.5009308289
 20
8.2698109443
 10
-1.5121915558
 20
8.2944516925
 10
-1.5238206812
 20
8.3189654273
 10
-1.5358134536
 20
8.3433283983
 10
-1.5460834237
 20
8.363500916
 10
-1.5566096885
 20
8.3835525604
 10
-1.5673993098
 20
8.4034836488
 10
-1.5784593494
 20
8.4232944985
 10
-1.5897968692
 20
8.4429854267
  0
LWPOLYLINE
  5
2EB
100
AcDbEntity
  8
0
100
AcDbPolyline
 62
253
  6
CONTINUOUS
 90
41
 70
0
 10
-0.7710329053
 20
7.2867387243
 10
-0.7705208373
 20
7.3199140807
 10
-0.7705942239
 20
7.3533516689
 10
-0.7712511197
 20
7.3870575071
 10
-0.772489579
 20
7.4210376136
 10
-0.7743076563
 20
7.4552980065
 10
-0.7767036015
 20
7.4898401089
 10
-0.7796764457
 20
7.5246469621
 10
-0.7832254154
 20
7.5596970124
 10
-0.7873497374
 20
7.5949687059
 10
-0.792048638
 20
7.6304404889
 10
-0.797321439
 20
7.6660922603
 10
-0.8031678423
 20
7.7019097298
 10
-0.8095876449
 20
7.7378800603
 10
-0.8165806438
 20
7.7739904142
 10
-0.824146636
 20
7.8102279543
 10
-0.832285474
 20
7.846579312
 10
-0.8409972315
 20
7.8830289948
 10
-0.8502820378
 20
7.919560979
 10
-0.8601400219
 20
7.956159241
 10
-0.870571313
 20
7.992807757
 10
-0.8815742786
 20
8.0294903416
 10
-0.8931402391
 20
8.0661901611
 10
-0.9052587532
 20
8.1028902198
 10
-0.9179193796
 20
8.1395735221
 10
-0.931111677
 20
8.1762230726
 10
-0.9448255566
 20
8.2128224667
 10
-0.9590523402
 20
8.2493576648
 10
-0.9737837018
 20
8.2858152183
 10
-0.9890113157
 20
8.3221816786
 10
-1.0047268561
 20
8.3584435974
 10
-1.020921335
 20
8.3945862505
 10
-1.0375831163
 20
8.4305898119
 10
-1.0546999017
 20
8.4664331798
 10
-1.0722593927
 20
8.5020952528
 10
-1.0902492912
 20
8.5375549292
 10
-1.1086601422
 20
8.5727957212
 10
-1.1274938648
 20
8.6078195969
 10
-1.1467552215
 20
8.6426331381
 10
-1.1664489746
 20
8.6772429265
 10
-1.1865798867
 20
8.7116555441
  0
LWPOLYLINE
  5
2EC
100
AcDbEntity
  8
0
100
AcDbPolyline
 62
253
  6
CONTINUOUS
 90
36
 70
0
 10
-0.4583501308
 20
7.1133380169
 10
-0.4599074914
 20
7.0683789129
 10
-0.4623851528
 20
7.0240002629
 10
-0.4657883924
 20
6.9801822539
 10
-0.4701224881
 20
6.9369050729
 10
-0.4753927173
 20
6.8941489069
 10
-0.4816043578
 20
6.8518939428
 10
-0.4887626872
 20
6.8101203678
 10
-0.4968704608
 20
6.7688222003
 10
-0.5059203441
 20
6.7280487851
 10
-0.5159024802
 20
6.6878632987
 10
-0.5268070122
 20
6.6483289174
 10
-0.5386240834
 20
6.6095088176
 10
-0.5513438368
 20
6.5714661756
 10
-0.5649564155
 20
6.5342641678
 10
-0.5794537537
 20
6.497956133
 10
-0.5948349488
 20
6.4625560591
 10
-0.6111008893
 20
6.4280680964
 10
-0.6282524638
 20
6.3944963952
 10
-0.6462905606
 20
6.3618451058
 10
-0.6652160683
 20
6.3301183785
 10
-0.6850298754
 20
6.2993203635
 10
-0.7057247364
 20
6.2694612571
 10
-0.7272608699
 20
6.2405754393
 10
-0.7495903607
 20
6.2127033361
 10
-0.7726652936
 20
6.1858853733
 10
-0.7964377533
 20
6.1601619771
 10
-0.8208598246
 20
6.1355735733
 10
-0.8458835922
 20
6.1121605878
 10
-0.8714711126
 20
6.0899533947
 10
-0.8976243296
 20
6.0689421595
 10
-0.9243551586
 20
6.049106996
 10
-0.9516755151
 20
6.0304280178
 10
-0.9795973145
 20
6.0128853386
 10
-1.0081324724
 20
5.996459072
 10
-1.0372929042
 20
5.9811293317
  0
LWPOLYLINE
  5
2ED
100
AcDbEntity
  8
0
100
AcDbPolyline
 62
253
  6
CONTINUOUS
 90
36
 70
0
 10
-1.0387250793
 20
7.4361091539
 10
-1.0397779632
 20
7.4058605877
 10
-1.0414527068
 20
7.3759991629
 10
-1.0437557147
 20
7.3465091964
 10
-1.0466933913
 20
7.3173750053
 10
-1.0502721411
 20
7.2885809065
 10
-1.0544983688
 20
7.260111217
 10
-1.0593784788
 20
7.2319502538
 10
-1.0649163047
 20
7.2040937791
 10
-1.0711053964
 20
7.1765833373
 10
-1.0779367327
 20
7.149471918
 10
-1.0854012926
 20
7.1228125107
 10
-1.093490055
 20
7.0966581052
 10
-1.1021939988
 20
7.0710616909
 10
-1.1115041029
 20
7.0460762576
 10
-1.1214131936
 20
7.0217454132
 10
-1.1319214868
 20
6.9980752385
 10
-1.143031046
 20
6.9750624328
 10
-1.1547439345
 20
6.9527036953
 10
-1.1670622155
 20
6.9309957253
 10
-1.1799879526
 20
6.9099352218
 10
-1.1935232089
 20
6.8895188843
 10
-1.2076647319
 20
6.8697483652
 10
-1.2223880047
 20
6.8506451316
 10
-1.2376631944
 20
6.8322356036
 10
-1.2534604682
 20
6.8145462017
 10
-1.2697499932
 20
6.797603346
 10
-1.2865019366
 20
6.781433457
 10
-1.3036864656
 20
6.7660629549
 10
-1.3212802587
 20
6.7515122578
 10
-1.3392860413
 20
6.7377777748
 10
-1.3577130501
 20
6.7248499126
 10
-1.376570522
 20
6.7127190781
 10
-1.3958676937
 20
6.7013756781
 10
-1.415613802
 20
6.6908101193
 10
-1.4358180838
 20
6.6810128087
  0
LWPOLYLINE
  5
2EE
100
AcDbEntity
  8
0
100
AcDbPolyline
 62
253
  6
CONTINUOUS
 90
23
 70
0
 10
-0.5484363717
 20
-11.6634884678
 10
-0.5481019719
 20
-11.6548766196
 10
-0.547891101
 20
-11.6461738324
 10
-0.5478037151
 20
-11.6373799155
 10
-0.5478397704
 20
-11.6284946779
 10
-0.5479992229
 20
-11.6195179285
 10
-0.5482820289
 20
-11.6104494766
 10
-0.5486881444
 20
-11.6012891311
 10
-0.5492175255
 20
-11.5920367011
 10
-0.5498701285
 20
-11.5826919957
 10
-0.5506459094
 20
-11.5732548239
 10
-0.5515448244
 20
-11.5637249947
 10
-0.552567101
 20
-11.554102288
 10
-0.5537140519
 20
-11.5443863663
 10
-0.5549872613
 20
-11.5345768628
 10
-0.5563883135
 20
-11.5246734107
 10
-0.5579187926
 20
-11.5146756432
 10
-0.5595802827
 20
-11.5045831936
 10
-0.5613743681
 20
-11.4943956951
 10
-0.5633026329
 20
-11.484112781
 10
-0.5653666613
 20
-11.4737340845
 10
-0.5675680374
 20
-11.4632592387
 10
-0.5699083455
 20
-11.452687877
  0
LWPOLYLINE
  5
2EF
100
AcDbEntity
  8
0
100
AcDbPolyline
 62
253
  6
CONTINUOUS
 90
23
 70
0
 10
-0.989274032
 20
-11.0055746656
 10
-0.9893680024
 20
-11.0075389753
 10
-0.9894350591
 20
-11.0095175079
 10
-0.9894753699
 20
-11.0115103866
 10
-0.9894891027
 20
-11.0135177347
 10
-0.9894764255
 20
-11.0155396754
 10
-0.9894375062
 20
-11.0175763319
 10
-0.9893725127
 20
-11.0196278274
 10
-0.989281613
 20
-11.0216942851
 10
-0.9891462044
 20
-11.0240742095
 10
-0.9889773292
 20
-11.0264726975
 10
-0.988775138
 20
-11.028888609
 10
-0.9885397817
 20
-11.0313208041
 10
-0.9882714109
 20
-11.0337681428
 10
-0.9879701763
 20
-11.0362294852
 10
-0.9876362288
 20
-11.0387036914
 10
-0.9872696555
 20
-11.0411898827
 10
-0.986870289
 20
-11.0436882263
 10
-0.9864378984
 20
-11.0461991505
 10
-0.985972253
 20
-11.0487230836
 10
-0.9854731218
 20
-11.0512604542
 10
-0.9849402739
 20
-11.0538116906
 10
-0.9843734785
 20
-11.0563772213
  0
LWPOLYLINE
  5
2F0
100
AcDbEntity
  8
0
100
AcDbPolyline
 62
253
  6
CONTINUOUS
 90
16
 70
0
 10
5.0760030794
 20
-4.6745085163
 10
5.1146698357
 20
-4.6915370439
 10
5.1560165881
 20
-4.7063225512
 10
5.199652375
 20
-4.7187252311
 10
5.2451645837
 20
-4.7286278065
 10
5.2921228718
 20
-4.7359366437
 10
5.3400832382
 20
-4.7405826346
 10
5.3885922079
 20
-4.7425218449
 10
5.4371910736
 20
-4.7417359316
 10
5.4854202542
 20
-4.7382323269
 10
5.532823688
 20
-4.7320441671
 10
5.5789531674
 20
-4.7232299684
 10
5.6233725298
 20
-4.7118730725
 10
5.6656617667
 20
-4.6980808642
 10
5.7054209975
 20
-4.6819837597
 10
5.742274272
 20
-4.6637339682
  0
LWPOLYLINE
  5
2F1
100
AcDbEntity
  8
0
100
AcDbPolyline
 62
7
  6
CONTINUOUS
 90
12
 70
0
 10
5.1793138578
 20
-4.9039160207
 10
5.1912522113
 20
-4.9095319411
 10
5.235890842
 20
-4.9272808254
 10
5.2821273033
 20
-4.9406880572
 10
5.3295944384
 20
-4.9496081054
 10
5.3778735824
 20
-4.9539137802
 10
5.4264989999
 20
-4.9535156071
 10
5.4750155074
 20
-4.9483710492
 10
5.522973356
 20
-4.9384777553
 10
5.5698846838
 20
-4.9238854801
 10
5.6152383416
 20
-4.9047112441
 10
5.6350427801
 20
-4.894614528
  0
LINE
  5
2F2
100
AcDbEntity
  8
0
100
AcDbLine
 62
7
  6
CONTINUOUS
 10
5.1791956069
 20
-4.9038584165
 11
5.1793138578
 21
-4.9039160207
  0
LWPOLYLINE
  5
2F3
100
AcDbEntity
  8
0
100
AcDbPolyline
 62
253
  6
CONTINUOUS
 90
10
 70
0
 10
-9.6690478783
 20
3.8390991804
 10
-8.1565519901
 20
2.8232427775
 10
-6.6118919674
 20
1.8244533484
 10
-5.0353985126
 20
0.8429262951
 10
-3.4275065763
 20
-0.1210868268
 10
-1.7884555939
 20
-1.0674543485
 10
-0.1182777142
 20
-1.9961577003
 10
1.5827989874
 20
-2.9070586005
 10
3.3143387422
 20
-3.7999058456
 10
5.0760029825
 20
-4.6745083931
  0
LINE
  5
2F4
100
AcDbEntity
  8
0
100
AcDbLine
 62
253
  6
CONTINUOUS
 10
-2.4843447612
 20
8.968179328
 11
-2.4798993287
 21
8.9283182634
  0
LWPOLYLINE
  5
2F5
100
AcDbEntity
  8
0
100
AcDbPolyline
 62
253
  6
CONTINUOUS
 90
22
 70
0
 10
-0.96904922
 20
-11.7051650468
 10
-0.9694291291
 20
-11.7072939561
 10
-0.9697766363
 20
-11.709447702
 10
-0.9700915995
 20
-11.7116264971
 10
-0.9703738767
 20
-11.7138305538
 10
-0.970623326
 20
-11.7160600846
 10
-0.9708398054
 20
-11.718315302
 10
-0.9710231727
 20
-11.7205964186
 10
-0.9711732861
 20
-11.7229036469
 10
-0.9712900035
 20
-11.7252371994
 10
-0.9713731829
 20
-11.7275972885
 10
-0.9714195078
 20
-11.7297660368
 10
-0.9714374706
 20
-11.7319570893
 10
-0.9714265441
 20
-11.7341706433
 10
-0.971386201
 20
-11.7364068963
 10
-0.971315914
 20
-11.7386660454
 10
-0.9712151557
 20
-11.7409482883
 10
-0.9710833989
 20
-11.7432538222
 10
-0.9709201163
 20
-11.7455828444
 10
-0.9707247805
 20
-11.7479355525
 10
-0.9704968643
 20
-11.7503121437
 10
-0.9702358403
 20
-11.7527128155
  0
LWPOLYLINE
  5
2F6
100
AcDbEntity
  8
0
100
AcDbPolyline
 62
253
  6
CONTINUOUS
 90
25
 70
0
 10
-0.8251951535
 20
-11.5400039087
 10
-0.8261550813
 20
-11.5438359851
 10
-0.827163571
 20
-11.5475887243
 10
-0.828220045
 20
-11.5512626001
 10
-0.8293239259
 20
-11.5548580862
 10
-0.830474636
 20
-11.5583756563
 10
-0.8316715979
 20
-11.5618157842
 10
-0.8329142339
 20
-11.5651789436
 10
-0.8342019666
 20
-11.5684656083
 10
-0.8355342184
 20
-11.5716762521
 10
-0.8369104118
 20
-11.5748113486
 10
-0.8383299693
 20
-11.5778713718
 10
-0.8397923133
 20
-11.5808567952
 10
-0.8412969806
 20
-11.5837680058
 10
-0.8428439655
 20
-11.5866050429
 10
-0.8444333768
 20
-11.5893678591
 10
-0.846065323
 20
-11.5920564067
 10
-0.8477399129
 20
-11.5946706383
 10
-0.8494572551
 20
-11.5972105064
 10
-0.8512174583
 20
-11.5996759634
 10
-0.8530206312
 20
-11.6020669619
 10
-0.8548668824
 20
-11.6043834542
 10
-0.8567563206
 20
-11.6066253929
 10
-0.8586890545
 20
-11.6087927305
 10
-0.8606651927
 20
-11.6108854195
  0
LWPOLYLINE
  5
2F7
100
AcDbEntity
  8
0
100
AcDbPolyline
 62
253
  6
CONTINUOUS
 90
20
 70
0
 10
-2.4927080025
 20
-10.2207987272
 10
-2.4932191713
 20
-10.222491464
 10
-2.4936991275
 20
-10.2242119282
 10
-2.4941492171
 20
-10.225958715
 10
-2.4945707862
 20
-10.2277304199
 10
-2.494965181
 20
-10.2295256381
 10
-2.4953337474
 20
-10.2313429649
 10
-2.4956778316
 20
-10.2331809957
 10
-2.4959987797
 20
-10.2350383256
 10
-2.4962979378
 20
-10.2369135502
 10
-2.4965766518
 20
-10.2388052645
 10
-2.496836268
 20
-10.2407120641
 10
-2.4970781324
 20
-10.2426325441
 10
-2.4973753412
 20
-10.245212295
 10
-2.4976466365
 20
-10.2478120885
 10
-2.4978952707
 20
-10.2504301435
 10
-2.498124496
 20
-10.2530646787
 10
-2.4983375647
 20
-10.2557139132
 10
-2.4985377291
 20
-10.2583760659
 10
-2.4990933194
 20
-10.2664222222
  0
LWPOLYLINE
  5
2F8
100
AcDbEntity
  8
0
100
AcDbPolyline
 62
253
  6
CONTINUOUS
 90
20
 70
0
 10
-1.416224565
 20
-11.8610564908
 10
-1.4157055189
 20
-11.8593499635
 10
-1.41521982
 20
-11.8576172771
 10
-1.4147659176
 20
-11.8558600915
 10
-1.4143422609
 20
-11.8540800662
 10
-1.4139472993
 20
-11.852278861
 10
-1.4135794819
 20
-11.8504581357
 10
-1.4132372581
 20
-11.8486195498
 10
-1.4129190771
 20
-11.846764763
 10
-1.4125829066
 20
-11.8446270423
 10
-1.4122738827
 20
-11.842471272
 10
-1.4119897746
 20
-11.8402983947
 10
-1.4117283513
 20
-11.8381093533
 10
-1.4114873821
 20
-11.8359050906
 10
-1.4112646361
 20
-11.8336865494
 10
-1.4110578824
 20
-11.8314546725
 10
-1.410791127
 20
-11.8283097158
 10
-1.4105457028
 20
-11.8251447355
 10
-1.4103159686
 20
-11.8219639982
 10
-1.4098810047
 20
-11.8155723186
  0
LINE
  5
2F9
100
AcDbEntity
  8
0
100
AcDbLine
 62
253
  6
CONTINUOUS
 10
-2.6726534814
 20
7.6219085916
 11
-2.9497371964
 21
8.1218672386
  0
LWPOLYLINE
  5
2FA
100
AcDbEntity
  8
0
100
AcDbPolyline
 62
253
  6
CONTINUOUS
 90
53
 70
0
 10
-1.2567193855
 20
6.1136310814
 10
-1.2597767154
 20
6.1194084063
 10
-1.2626945099
 20
6.125189085
 10
-1.2654822638
 20
6.1309867731
 10
-1.268149472
 20
6.1368151266
 10
-1.2707056292
 20
6.1426878011
 10
-1.2731581801
 20
6.148615768
 10
-1.2755063683
 20
6.1545992609
 10
-1.2777473872
 20
6.1606358288
 10
-1.2798784304
 20
6.1667230208
 10
-1.2818966911
 20
6.1728583861
 10
-1.2837989865
 20
6.1790383503
 10
-1.2855806281
 20
6.185254845
 10
-1.2872365511
 20
6.1914986785
 10
-1.2887616909
 20
6.197760659
 10
-1.2901509825
 20
6.2040315949
 10
-1.2912012231
 20
6.2092556655
 10
-1.2921502225
 20
6.2144627405
 10
-1.2929945959
 20
6.2196359884
 10
-1.2937315404
 20
6.2247631047
 10
-1.2943605823
 20
6.2298498928
 10
-1.2948818302
 20
6.2349066828
 10
-1.295364384
 20
6.2409442645
 10
-1.2956872084
 20
6.2469382914
 10
-1.2958456413
 20
6.2528735304
 10
-1.2958350206
 20
6.2587347485
 10
-1.2956506842
 20
6.2645067124
 10
-1.2952895896
 20
6.2701753137
 10
-1.2947551742
 20
6.275730943
 10
-1.294052495
 20
6.2811651153
 10
-1.293186609
 20
6.2864693457
 10
-1.2921625733
 20
6.2916351496
 10
-1.2911913136
 20
6.2958304941
 10
-1.2901122497
 20
6.2999331382
 10
-1.2889238914
 20
6.3039524034
 10
-1.2876258658
 20
6.3078937197
 10
-1.2862222681
 20
6.3117469503
 10
-1.2847183106
 20
6.315498067
 10
-1.2827879967
 20
6.3198483441
 10
-1.280727105
 20
6.3240280113
 10
-1.2785420702
 20
6.3280337031
 10
-1.276239327
 20
6.3318620543
 10
-1.2738253102
 20
6.3355096994
 10
-1.2713058344
 20
6.338974118
 10
-1.2686842334
 20
6.3422561686
 10
-1.2659632209
 20
6.3453575546
 10
-1.2631455106
 20
6.3482799793
 10
-1.260233816
 20
6.3510251461
 10
-1.2572286495
 20
6.3535947625
 10
-1.2541217188
 20
6.3559905533
 10
-1.25090253
 20
6.3582142472
 10
-1.2475605895
 20
6.3602675731
 10
-1.2440854034
 20
6.3621522598
  0
LWPOLYLINE
  5
2FB
100
AcDbEntity
  8
0
100
AcDbPolyline
 62
253
  6
CONTINUOUS
 90
53
 70
0
 10
-1.6541311455
 20
6.8185643284
 10
-1.6570647804
 20
6.8243514107
 10
-1.6598597
 20
6.8301380652
 10
-1.6625250676
 20
6.8359381505
 10
-1.6650700464
 20
6.8417655252
 10
-1.6675037995
 20
6.8476340482
 10
-1.6698334908
 20
6.8535548312
 10
-1.6720582868
 20
6.8595279984
 10
-1.6741753545
 20
6.8655509275
 10
-1.676181861
 20
6.8716209957
 10
-1.6780749736
 20
6.8777355805
 10
-1.6798515201
 20
6.8838909864
 10
-1.6815069731
 20
6.8900792263
 10
-1.6830364657
 20
6.89629124
 10
-1.6844351313
 20
6.9025179674
 10
-1.6856981033
 20
6.9087503484
 10
-1.6866433718
 20
6.9139399285
 10
-1.6874879601
 20
6.9191107817
 10
-1.6882287992
 20
6.9242465467
 10
-1.6888632938
 20
6.929335282
 10
-1.6893907427
 20
6.9343827252
 10
-1.6898109183
 20
6.9393990336
 10
-1.6901725083
 20
6.9453862921
 10
-1.6903747054
 20
6.9513278038
 10
-1.6904129182
 20
6.9572080294
 10
-1.6902825552
 20
6.9630114298
 10
-1.6899790247
 20
6.9687224656
 10
-1.6894993507
 20
6.9743268315
 10
-1.6888470189
 20
6.9798151576
 10
-1.6880271304
 20
6.9851793078
 10
-1.6870447863
 20
6.9904111461
 10
-1.6859050878
 20
6.9955025364
 10
-1.6848380361
 20
6.9996345062
 10
-1.6836635141
 20
7.0036723893
 10
-1.6823797829
 20
7.0076252826
 10
-1.680986319
 20
7.0114984594
 10
-1.6794874603
 20
7.0152819003
 10
-1.6778887602
 20
7.0189617628
 10
-1.6758458425
 20
7.0232248427
 10
-1.6736737096
 20
7.0273156688
 10
-1.6713789211
 20
7.0312310736
 10
-1.6689680368
 20
7.0349678896
 10
-1.6664476162
 20
7.0385229494
 10
-1.6638235753
 20
7.0418939009
 10
-1.6610992557
 20
7.0450816548
 10
-1.6582773552
 20
7.0480879372
 10
-1.6553605717
 20
7.0509144742
 10
-1.6523516032
 20
7.053562992
 10
-1.6492509149
 20
7.0560351541
 10
-1.646050042
 20
7.0583323743
 10
-1.6427382871
 20
7.0604560034
 10
-1.6393049527
 20
7.0624073928
 10
-1.6357393415
 20
7.0641878935
  0
LWPOLYLINE
  5
2FC
100
AcDbEntity
  8
0
100
AcDbPolyline
 62
253
  6
CONTINUOUS
 90
30
 70
0
 10
-3.3936126213
 20
8.4662627172
 10
-3.4007245115
 20
8.4808028902
 10
-3.4019338276
 20
8.4833164285
 10
-3.403116528
 20
8.4858030152
 10
-3.4042707204
 20
8.4882634462
 10
-3.4053947308
 20
8.4906990107
 10
-3.4064877587
 20
8.4931129717
 10
-3.4075492218
 20
8.4955090854
 10
-3.4085785377
 20
8.4978911083
 10
-3.4095746997
 20
8.5002616464
 10
-3.4105350015
 20
8.5026187047
 10
-3.4114563126
 20
8.504959138
 10
-3.4123355021
 20
8.5072798011
 10
-3.4130066178
 20
8.5091202429
 10
-3.413648342
 20
8.5109459649
 10
-3.4142602445
 20
8.5127569134
 10
-3.4148418953
 20
8.5145530345
 10
-3.4153928642
 20
8.5163342744
 10
-3.4159126687
 20
8.5181005352
 10
-3.4164006161
 20
8.5198515432
 10
-3.4168559615
 20
8.5215869808
 10
-3.4172779597
 20
8.5233065302
 10
-3.4176658656
 20
8.5250098738
 10
-3.4179211853
 20
8.5262162509
 10
-3.4181556363
 20
8.5274128888
 10
-3.4183661242
 20
8.5285984786
 10
-3.4185495545
 20
8.5297717113
 10
-3.4187028326
 20
8.5309312781
 10
-3.4188228641
 20
8.53207587
 10
-3.4189065545
 20
8.5332041783
  0
LWPOLYLINE
  5
2FD
100
AcDbEntity
  8
0
100
AcDbPolyline
 62
253
  6
CONTINUOUS
 90
4
 70
0
 10
-3.3890920189
 20
8.4568046164
 10
-3.3905991372
 20
8.4600045304
 10
-3.3921077441
 20
8.4631566464
 10
-3.3936126213
 20
8.4662627172
  0
LWPOLYLINE
  5
2FE
100
AcDbEntity
  8
0
100
AcDbPolyline
 62
253
  6
CONTINUOUS
 90
39
 70
0
 10
-2.0623222641
 20
7.550629392
 10
-2.0602868212
 20
7.546272542
 10
-2.0581976074
 20
7.5419775964
 10
-2.0560540789
 20
7.5377386623
 10
-2.053855692
 20
7.5335498472
 10
-2.0516019026
 20
7.5294052583
 10
-2.0492921671
 20
7.5252990027
 10
-2.0469259416
 20
7.5212251879
 10
-2.0440935114
 20
7.5165072658
 10
-2.0411843213
 20
7.5118264531
 10
-2.0381992406
 20
7.5071837244
 10
-2.0351391388
 20
7.5025800544
 10
-2.0320048853
 20
7.4980164177
 10
-2.0287973495
 20
7.4934937891
 10
-2.0255181596
 20
7.489014121
 10
-2.0221719777
 20
7.4845832772
 10
-2.0187642251
 20
7.480208099
 10
-2.0153003227
 20
7.4758954282
 10
-2.0117856915
 20
7.4716521061
 10
-2.0082257525
 20
7.4674849743
 10
-2.0046260879
 20
7.4634006634
 10
-2.0009929242
 20
7.4594049605
 10
-1.9973326491
 20
7.4555034419
 10
-1.9936516505
 20
7.4517016839
 10
-1.989956316
 20
7.4480052625
 10
-1.9862530334
 20
7.444419754
 10
-1.9825472462
 20
7.4409497477
 10
-1.9788406209
 20
7.4375958845
 10
-1.9751338801
 20
7.4343578185
 10
-1.9714277461
 20
7.4312352036
 10
-1.9677229414
 20
7.4282276938
 10
-1.9640201884
 20
7.4253349432
 10
-1.9608477844
 20
7.4229464215
 10
-1.9576730954
 20
7.4206411539
 10
-1.9544917982
 20
7.418418336
 10
-1.9512995697
 20
7.4162771632
 10
-1.9480920868
 20
7.4142168311
 10
-1.9448650262
 20
7.4122365351
 10
-1.941614065
 20
7.4103354708
  0
LINE
  5
2FF
100
AcDbEntity
  8
0
100
AcDbLine
 62
253
  6
CONTINUOUS
 10
3.5340000014
 20
17.389417682
 11
3.5339998102
 21
17.3274448847
  0
LWPOLYLINE
  5
300
100
AcDbEntity
  8
0
100
AcDbPolyline
 62
253
  6
CONTINUOUS
 90
25
 70
0
 10
-0.9798940781
 20
-10.9637526363
 10
-0.9806136585
 20
-10.9651939085
 10
-0.9813044281
 20
-10.9666613761
 10
-0.9819665022
 20
-10.9681549928
 10
-0.982599996
 20
-10.969674712
 10
-0.9832050248
 20
-10.9712204873
 10
-0.9837817039
 20
-10.9727922723
 10
-0.9843301486
 20
-10.9743900204
 10
-0.9848504741
 20
-10.9760136853
 10
-0.9853427958
 20
-10.9776632205
 10
-0.9858072287
 20
-10.9793385795
 10
-0.9862438884
 20
-10.981039716
 10
-0.9866528899
 20
-10.9827665833
 10
-0.9870342494
 20
-10.9845191905
 10
-0.9873875858
 20
-10.9862977675
 10
-0.987712419
 20
-10.9881025998
 10
-0.9880082686
 20
-10.9899339728
 10
-0.9882746546
 20
-10.9917921717
 10
-0.9885110965
 20
-10.9936774821
 10
-0.9887171143
 20
-10.9955901893
 10
-0.9888922276
 20
-10.9975305787
 10
-0.9890359562
 20
-10.9994989356
 10
-0.98914782
 20
-11.0014955455
 10
-0.9892273387
 20
-11.0035206937
 10
-0.989274032
 20
-11.0055746656
  0
LINE
  5
301
100
AcDbEntity
  8
0
100
AcDbLine
 62
7
  6
CONTINUOUS
 10
9.3202887404
 20
-3.0787173861
 11
9.1704560551
 21
-2.9922058715
  0
LWPOLYLINE
  5
302
100
AcDbEntity
  8
0
100
AcDbPolyline
 62
253
  6
CONTINUOUS
 90
24
 70
0
 10
-3.3635738435
 20
8.4247014751
 10
-3.3647623281
 20
8.425879303
 10
-3.3659391222
 20
8.4270735302
 10
-3.3671043373
 20
8.4282837548
 10
-3.3682580851
 20
8.4295095749
 10
-3.3694004774
 20
8.4307505884
 10
-3.3705316257
 20
8.4320063936
 10
-3.3716516418
 20
8.4332765884
 10
-3.3727606372
 20
8.434560771
 10
-3.3738587238
 20
8.4358585393
 10
-3.374946013
 20
8.4371694915
 10
-3.3760226167
 20
8.4384932257
 10
-3.3770886464
 20
8.4398293399
 10
-3.3782396559
 20
8.4413006582
 10
-3.3793783375
 20
8.442786262
 10
-3.3805048142
 20
8.4442861822
 10
-3.3816192092
 20
8.4458004495
 10
-3.3827216453
 20
8.4473290945
 10
-3.3838122457
 20
8.4488721479
 10
-3.3848911335
 20
8.4504296405
 10
-3.3859584316
 20
8.4520016029
 10
-3.3870142632
 20
8.4535880659
 10
-3.3880587513
 20
8.4551890601
 10
-3.3890920189
 20
8.4568046164
  0
LWPOLYLINE
  5
303
100
AcDbEntity
  8
0
100
AcDbPolyline
 62
253
  6
CONTINUOUS
 90
24
 70
0
 10
-2.9883830281
 20
8.1783637543
 10
-2.9906517588
 20
8.181031119
 10
-2.9929348264
 20
8.1836617109
 10
-2.9952323035
 20
8.1862556342
 10
-2.997544263
 20
8.1888129934
 10
-2.9998707775
 20
8.191333893
 10
-3.0022119198
 20
8.1938184373
 10
-3.0045677627
 20
8.1962667308
 10
-3.0069383789
 20
8.1986788778
 10
-3.0093238412
 20
8.2010549828
 10
-3.0117242223
 20
8.2033951502
 10
-3.014139595
 20
8.2056994845
 10
-3.016366918
 20
8.2077802857
 10
-3.0186069529
 20
8.2098304502
 10
-3.0208597533
 20
8.2118493633
 10
-3.0231253729
 20
8.2138364103
 10
-3.0254038653
 20
8.2157909765
 10
-3.0276952841
 20
8.2177124474
 10
-3.0299996831
 20
8.2196002083
 10
-3.0323171158
 20
8.2214536444
 10
-3.0346476359
 20
8.2232721412
 10
-3.0369912971
 20
8.225055084
 10
-3.039348153
 20
8.226801858
 10
-3.0417182572
 20
8.2285118488
  0
LWPOLYLINE
  5
304
100
AcDbEntity
  8
0
100
AcDbPolyline
 62
253
  6
CONTINUOUS
 90
53
 70
0
 10
-1.8230889136
 20
8.3779977267
 10
-1.826755139
 20
8.3833531397
 10
-1.8304803476
 20
8.3885744503
 10
-1.8342724753
 20
8.3936767061
 10
-1.8381394579
 20
8.3986749548
 10
-1.8420892312
 20
8.403584244
 10
-1.8461282403
 20
8.4084164596
 10
-1.8502569669
 20
8.4131708394
 10
-1.8544744018
 20
8.4178434592
 10
-1.8587795359
 20
8.4224303952
 10
-1.8631713602
 20
8.4269277232
 10
-1.8676480892
 20
8.431330712
 10
-1.8722048334
 20
8.4356314019
 10
-1.8768359267
 20
8.4398210261
 10
-1.8815357035
 20
8.4438908177
 10
-1.8862984977
 20
8.4478320097
 10
-1.8903099625
 20
8.4510109147
 10
-1.8943484896
 20
8.4540841859
 10
-1.8984013138
 20
8.4570415828
 10
-1.9024592663
 20
8.4598752835
 10
-1.9065275641
 20
8.4625871412
 10
-1.9106150203
 20
8.4651814281
 10
-1.915553263
 20
8.4681422973
 10
-1.9205205955
 20
8.4709288205
 10
-1.9255058284
 20
8.473529802
 10
-1.930497772
 20
8.4759340461
 10
-1.9354852368
 20
8.4781303575
 10
-1.9404573446
 20
8.4801096633
 10
-1.9454044622
 20
8.4818713826
 10
-1.9503172676
 20
8.4834170573
 10
-1.955186439
 20
8.4847482294
 10
-1.9600026546
 20
8.4858664409
 10
-1.9639713182
 20
8.486636977
 10
-1.967905309
 20
8.4872631415
 10
-1.9718132029
 20
8.4877473814
 10
-1.975699808
 20
8.4880916376
 10
-1.9795548615
 20
8.4882958275
 10
-1.9833643333
 20
8.4883593626
 10
-1.9878589065
 20
8.4882501079
 10
-1.9922621718
 20
8.4879424234
 10
-1.9965686625
 20
8.4874412696
 10
-2.0007729119
 20
8.486751607
 10
-2.0048694534
 20
8.4858783962
 10
-2.008853771
 20
8.4848263387
 10
-2.0127251507
 20
8.4835990992
 10
-2.0164838294
 20
8.4822000833
 10
-2.0201300439
 20
8.4806326967
 10
-2.0236640309
 20
8.478900345
 10
-2.027086965
 20
8.477004237
 10
-2.0304037718
 20
8.4749367942
 10
-2.0336203147
 20
8.4726882411
 10
-2.0367424573
 20
8.4702488026
 10
-2.0397760629
 20
8.4676087031
  0
LINE
  5
305
100
AcDbEntity
  8
0
100
AcDbLine
 62
253
  6
CONTINUOUS
 10
-2.9497371964
 20
8.1218672386
 11
-2.9883830281
 21
8.1783637543
  0
LINE
  5
306
100
AcDbEntity
  8
0
100
AcDbLine
 62
253
  6
CONTINUOUS
 10
-2.6470987819
 20
7.5838642701
 11
-2.6726534814
 21
7.6219085916
  0
LWPOLYLINE
  5
307
100
AcDbEntity
  8
0
100
AcDbPolyline
 62
253
  6
CONTINUOUS
 90
38
 70
0
 10
-2.0134291228
 20
8.1938861998
 10
-2.0097551676
 20
8.1881126697
 10
-2.0061676805
 20
8.182292198
 10
-2.002664472
 20
8.1764255587
 10
-1.9992433526
 20
8.1705135259
 10
-1.9959021327
 20
8.1645568738
 10
-1.9926386227
 20
8.1585563763
 10
-1.9889272275
 20
8.1515020237
 10
-1.9853195709
 20
8.1443939397
 10
-1.9818166
 20
8.1372370177
 10
-1.9784192618
 20
8.1300361507
 10
-1.9751285031
 20
8.1227962323
 10
-1.971945271
 20
8.1155221556
 10
-1.9688705564
 20
8.1082185992
 10
-1.965905526
 20
8.1008893819
 10
-1.9630513903
 20
8.093538108
 10
-1.9603093602
 20
8.0861683816
 10
-1.9576806462
 20
8.0787838068
 10
-1.955166459
 20
8.0713879877
 10
-1.9527682303
 20
8.0639846241
 10
-1.9504882767
 20
8.0565777977
 10
-1.9483291357
 20
8.0491716857
 10
-1.9462933448
 20
8.0417704654
 10
-1.9443834416
 20
8.034378314
 10
-1.9426019638
 20
8.0269994089
 10
-1.9409516369
 20
8.0196380381
 10
-1.9394359386
 20
8.0122989329
 10
-1.9380585347
 20
8.0049869354
 10
-1.936823091
 20
7.9977068875
 10
-1.9357332731
 20
7.9904636315
 10
-1.9347927468
 20
7.9832620094
 10
-1.9341084718
 20
7.9771257715
 10
-1.9335406083
 20
7.9710253693
 10
-1.9330931909
 20
7.9649624929
 10
-1.9327702543
 20
7.9589388325
 10
-1.9325758332
 20
7.9529560782
 10
-1.9325139621
 20
7.9470159201
 10
-1.9325886759
 20
7.9411200483
  0
LWPOLYLINE
  5
308
100
AcDbEntity
  8
0
100
AcDbPolyline
 62
253
  6
CONTINUOUS
 90
41
 70
0
 10
-1.3884477261
 20
8.6135552925
 10
-1.371542324
 20
8.5852971301
 10
-1.3550159425
 20
8.5568579503
 10
-1.3388630385
 20
8.5282329269
 10
-1.3230780688
 20
8.4994172336
 10
-1.3076554904
 20
8.4704060442
 10
-1.2925922659
 20
8.4411985975
 10
-1.2778953821
 20
8.4118103922
 10
-1.2635743313
 20
8.3822609917
 10
-1.2496386063
 20
8.3525699598
 10
-1.2360976994
 20
8.3227568599
 10
-1.2229603463
 20
8.2928397825
 10
-1.2102322555
 20
8.2628309251
 10
-1.1979183781
 20
8.2327410124
 10
-1.1860236659
 20
8.2025807685
 10
-1.1745530701
 20
8.1723609181
 10
-1.1635118991
 20
8.1420926219
 10
-1.1529068892
 20
8.1117887866
 10
-1.1427451334
 20
8.0814627551
 10
-1.1330337249
 20
8.0511278703
 10
-1.1237797567
 20
8.0207974754
 10
-1.1149894277
 20
7.9904850883
 10
-1.1066653598
 20
7.9602049271
 10
-1.0988092808
 20
7.9299713851
 10
-1.0914229181
 20
7.8997988555
 10
-1.0845079995
 20
7.8697017314
 10
-1.0780662724
 20
7.8396937892
 10
-1.0720995634
 20
7.8097863376
 10
-1.0666097187
 20
7.7799900684
 10
-1.0615985848
 20
7.7503156736
 10
-1.0570680079
 20
7.7207738449
 10
-1.0530199491
 20
7.691376909
 10
-1.0494568277
 20
7.6621437321
 10
-1.0463811779
 20
7.6330948148
 10
-1.043795534
 20
7.6042506582
 10
-1.0417024299
 20
7.5756317631
 10
-1.0401044909
 20
7.5472544337
 10
-1.0390047062
 20
7.5191181873
 10
-1.0384061558
 20
7.4912183447
 10
-1.0383119202
 20
7.4635502267
 10
-1.0387250793
 20
7.4361091539
  0
LWPOLYLINE
  5
309
100
AcDbEntity
  8
0
100
AcDbPolyline
 62
253
  6
CONTINUOUS
 90
53
 70
0
 10
-1.5897968692
 20
8.4429854267
 10
-1.6047676728
 20
8.4682026949
 10
-1.6079820843
 20
8.4738700503
 10
-1.6110722549
 20
8.4795717361
 10
-1.6140482742
 20
8.4853206718
 10
-1.6169202317
 20
8.4911297766
 10
-1.6196960715
 20
8.4970094646
 10
-1.622375155
 20
8.502960128
 10
-1.6249546985
 20
8.5089796535
 10
-1.6274319179
 20
8.515065928
 10
-1.6298040293
 20
8.5212168383
 10
-1.6320677957
 20
8.5274291125
 10
-1.6342181676
 20
8.533694844
 10
-1.6362496422
 20
8.5400049673
 10
-1.6381567172
 20
8.5463504172
 10
-1.6399338898
 20
8.5527221282
 10
-1.6413114589
 20
8.558043386
 10
-1.642590569
 20
8.5633592077
 10
-1.643766792
 20
8.5686522159
 10
-1.6448365913
 20
8.5739097228
 10
-1.6457999938
 20
8.5791377989
 10
-1.6466579175
 20
8.5843472045
 10
-1.6475483318
 20
8.5905833833
 10
-1.6482828362
 20
8.5967930859
 10
-1.6488560879
 20
8.6029612268
 10
-1.6492627444
 20
8.6090727208
 10
-1.6494974631
 20
8.6151124823
 10
-1.6495565022
 20
8.6210663524
 10
-1.6494425239
 20
8.626923878
 10
-1.6491597909
 20
8.6326755322
 10
-1.6487125662
 20
8.6383117881
 10
-1.6481051127
 20
8.643823119
 10
-1.6474790404
 20
8.6483161626
 10
-1.6467438874
 20
8.6527257427
 10
-1.6458988828
 20
8.6570617648
 10
-1.6449440436
 20
8.6613299372
 10
-1.6438825382
 20
8.6655191765
 10
-1.642718323
 20
8.6696142022
 10
-1.6411911004
 20
8.6743860342
 10
-1.6395275616
 20
8.6789958618
 10
-1.6377335952
 20
8.6834393527
 10
-1.6358150899
 20
8.6877121745
 10
-1.6337779343
 20
8.6918099952
 10
-1.6316274829
 20
8.695729451
 10
-1.6293669527
 20
8.699471053
 10
-1.6269990267
 20
8.7030362808
 10
-1.6245263877
 20
8.7064266141
 10
-1.6219517185
 20
8.7096435326
 10
-1.6192756209
 20
8.7126887857
 10
-1.616490373
 20
8.715565201
 10
-1.6135861714
 20
8.7182758759
 10
-1.6105532132
 20
8.720823908
 10
-1.6073816951
 20
8.7232123944
  0
LWPOLYLINE
  5
30A
100
AcDbEntity
  8
0
100
AcDbPolyline
 62
253
  6
CONTINUOUS
 90
41
 70
0
 10
-0.9670647167
 20
8.8557458743
 10
-0.9424593637
 20
8.8136900662
 10
-0.9184091773
 20
8.7713866848
 10
-0.8949063024
 20
8.7288285646
 10
-0.8719428838
 20
8.6860085404
 10
-0.8495110666
 20
8.6429194468
 10
-0.8276065206
 20
8.5995600309
 10
-0.8062390153
 20
8.5559526896
 10
-0.7854218454
 20
8.5121257322
 10
-0.7651683054
 20
8.4681074679
 10
-0.7454916898
 20
8.4239262062
 10
-0.7264041627
 20
8.379608027
 10
-0.7079133669
 20
8.335170094
 10
-0.6900258146
 20
8.2906273414
 10
-0.672748018
 20
8.2459947036
 10
-0.6560864895
 20
8.2012871149
 10
-0.6400482427
 20
8.1565201558
 10
-0.6246422973
 20
8.1117119912
 10
-0.6098781746
 20
8.0668814322
 10
-0.5957653958
 20
8.0220472898
 10
-0.5823134818
 20
7.9772283753
 10
-0.5695308543
 20
7.9324436611
 10
-0.5574215355
 20
7.8877127658
 10
-0.5459884481
 20
7.8430554695
 10
-0.5352345145
 20
7.7984915522
 10
-0.5251626575
 20
7.7540407939
 10
-0.5157758745
 20
7.7097222051
 10
-0.5070774627
 20
7.6655517169
 10
-0.4990707942
 20
7.6215444909
 10
-0.4917592411
 20
7.5777156887
 10
-0.4851461757
 20
7.5340804717
 10
-0.4792351314
 20
7.4906563723
 10
-0.4740302881
 20
7.4474704055
 10
-0.469535987
 20
7.4045519574
 10
-0.4657565692
 20
7.3619304137
 10
-0.4626963761
 20
7.3196351603
 10
-0.460359864
 20
7.2776896333
 10
-0.4587519507
 20
7.236093469
 10
-0.4578776688
 20
7.1948403538
 10
-0.4577420512
 20
7.1539239743
 10
-0.4583501308
 20
7.1133380169
  0
LWPOLYLINE
  5
30B
100
AcDbEntity
  8
0
100
AcDbPolyline
 62
253
  6
CONTINUOUS
 90
53
 70
0
 10
-1.1865798867
 20
8.7116555441
 10
-1.1898457713
 20
8.717341712
 10
-1.1929757134
 20
8.723044539
 10
-1.1959796126
 20
8.7287771724
 10
-1.1988673685
 20
8.7345527594
 10
-1.2016488805
 20
8.740384447
 10
-1.2043319282
 20
8.7462828196
 10
-1.2069158101
 20
8.7522482102
 10
-1.2093977047
 20
8.758278389
 10
-1.2117747904
 20
8.7643711263
 10
-1.2140442458
 20
8.7705241922
 10
-1.2162028241
 20
8.7767342221
 10
-1.2182455772
 20
8.7829933115
 10
-1.2201671322
 20
8.7892924208
 10
-1.2219621158
 20
8.7956225106
 10
-1.2236251549
 20
8.8019745414
 10
-1.2249061868
 20
8.8072761594
 10
-1.2260877497
 20
8.8125696262
 10
-1.2271657343
 20
8.8178378312
 10
-1.2281368203
 20
8.8230682831
 10
-1.2290008448
 20
8.8282669676
 10
-1.2297584339
 20
8.8334444898
 10
-1.2305268871
 20
8.839638938
 10
-1.2311378118
 20
8.8458030511
 10
-1.2315860449
 20
8.8519216959
 10
-1.231866423
 20
8.8579797397
 10
-1.2319737827
 20
8.8639620493
 10
-1.2319045748
 20
8.8698544803
 10
-1.2316617054
 20
8.8756468417
 10
-1.2312496948
 20
8.881329931
 10
-1.2306730629
 20
8.8868945457
 10
-1.22993633
 20
8.8923314832
 10
-1.2292027445
 20
8.8967606012
 10
-1.2283601143
 20
8.90110438
 10
-1.2274074369
 20
8.9053725361
 10
-1.2263445998
 20
8.9095706771
 10
-1.2251750506
 20
8.9136879764
 10
-1.2239031268
 20
8.9177094987
 10
-1.2222475483
 20
8.9223914898
 10
-1.2204568347
 20
8.9269099584
 10
-1.2185370244
 20
8.9312608076
 10
-1.2164941556
 20
8.9354399404
 10
-1.2143342666
 20
8.9394432597
 10
-1.2120628384
 20
8.9432675989
 10
-1.2096831235
 20
8.9469135122
 10
-1.2071978174
 20
8.9503824841
 10
-1.2046096152
 20
8.9536759991
 10
-1.2019212124
 20
8.9567955418
 10
-1.1991331818
 20
8.9597428129
 10
-1.1962376069
 20
8.9625203776
 10
-1.1932244487
 20
8.9651310176
 10
-1.190083668
 20
8.9675775145
 10
-1.186805226
 20
8.9698626496
  0
LWPOLYLINE
  5
30C
100
AcDbEntity
  8
0
100
AcDbPolyline
 62
253
  6
CONTINUOUS
 90
28
 70
0
 10
-2.5171760602
 20
9.0387160299
 10
-2.5086252018
 20
9.0238238424
 10
-2.507000835
 20
9.0209544625
 10
-2.5054121114
 20
9.0181162854
 10
-2.5038606143
 20
9.015306912
 10
-2.5023479272
 20
9.0125239435
 10
-2.5008756334
 20
9.009764981
 10
-2.4994453164
 20
9.0070276257
 10
-2.4980585594
 20
9.0043094785
 10
-2.4968822322
 20
9.0019453523
 10
-2.4957421729
 20
8.999594779
 10
-2.4946400865
 20
8.9972584417
 10
-2.493577678
 20
8.9949370236
 10
-2.4925564402
 20
8.9926309074
 10
-2.4915770175
 20
8.9903392735
 10
-2.4906398424
 20
8.9880610014
 10
-2.489745347
 20
8.9857949711
 10
-2.4890608779
 20
8.9839904237
 10
-2.4884048649
 20
8.9821937144
 10
-2.4877781727
 20
8.9804055636
 10
-2.4871816656
 20
8.9786266916
 10
-2.4866162081
 20
8.9768578188
 10
-2.4861696127
 20
8.975391873
 10
-2.4857473423
 20
8.9739335291
 10
-2.4853515595
 20
8.9724829448
 10
-2.4849844267
 20
8.9710402781
 10
-2.4846481065
 20
8.9696056866
 10
-2.4843447612
 20
8.968179328
  0
LINE
  5
30D
100
AcDbEntity
  8
0
100
AcDbLine
 62
253
  6
CONTINUOUS
 10
-2.5207230129
 20
9.0449662619
 11
-2.5171760602
 21
9.0387160299
  0
LWPOLYLINE
  5
30E
100
AcDbEntity
  8
0
100
AcDbPolyline
 62
253
  6
CONTINUOUS
 90
16
 70
0
 10
5.7422743411
 20
-5.883849451
 10
5.7401064078
 20
-5.8407409477
 10
5.7342536825
 20
-5.7956995232
 10
5.7247424785
 20
-5.7491947444
 10
5.7116235265
 20
-5.7016675483
 10
5.6950139419
 20
-5.6536832047
 10
5.6751339577
 20
-5.6059263437
 10
5.652231115
 20
-5.5589778763
 10
5.6265352561
 20
-5.5132970419
 10
5.5983212453
 20
-5.4693752342
 10
5.5678919303
 20
-5.4276900038
 10
5.5355851708
 20
-5.3887098429
 10
5.5017645766
 20
-5.3528755087
 10
5.4668056894
 20
-5.3205842959
 10
5.4310903627
 20
-5.2921883316
 10
5.395011757
 20
-5.268000233
  0
LWPOLYLINE
  5
30F
100
AcDbEntity
  8
0
100
AcDbPolyline
 62
253
  6
CONTINUOUS
 90
9
 70
0
 10
5.0760030794
 20
-4.6745085163
 10
5.0781161354
 20
-4.716735692
 10
5.0832023156
 20
-4.7549473885
 10
5.0913866239
 20
-4.7894893684
 10
5.1032013756
 20
-4.8208411055
 10
5.1185331455
 20
-4.8486574206
 10
5.136523475
 20
-4.8719547984
 10
5.1573291011
 20
-4.890630038
 10
5.1791956069
 20
-4.9038584165
  0
LWPOLYLINE
  5
310
100
AcDbEntity
  8
0
100
AcDbPolyline
 62
253
  6
CONTINUOUS
 90
4
 70
0
 10
6.0679071583
 20
-22.1235323791
 10
6.0002749231
 20
-20.2734288567
 10
5.9408141386
 20
-18.449971091
 10
5.8895248047
 20
-16.653159082
  0
LWPOLYLINE
  5
311
100
AcDbEntity
  8
0
100
AcDbPolyline
 62
253
  6
CONTINUOUS
 90
10
 70
0
 10
5.3949757481
 20
-22.1487911239
 10
5.3280979636
 20
-20.2979467093
 10
5.2699764097
 20
-18.4731491081
 10
5.2202309134
 20
-16.6746748248
 10
5.1789252248
 20
-14.9231229043
 10
5.145096078
 20
-13.1985189216
 10
5.117541825
 20
-11.4398394387
 10
5.096418151
 20
-9.6264349018
 10
5.0824488032
 20
-7.7785059691
 10
5.0760029914
 20
-5.8958766994
  0
LINE
  5
312
100
AcDbEntity
  8
0
100
AcDbLine
 62
7
  6
CONTINUOUS
 10
3.7142346498
 20
17.8035996913
 11
3.7354382638
 21
17.1871758958
  0
LWPOLYLINE
  5
313
100
AcDbEntity
  8
0
100
AcDbPolyline
 62
253
  6
CONTINUOUS
 90
7
 70
0
 10
5.8895248047
 20
-16.653159082
 10
5.8468185851
 20
-14.903289069
 10
5.8122838162
 20
-13.1800648127
 10
5.7846855065
 20
-11.4225975946
 10
5.7636119922
 20
-9.6105911752
 10
5.749474937
 20
-7.764341794
 10
5.7422743411
 20
-5.883849451
  0
LWPOLYLINE
  5
314
100
AcDbEntity
  8
0
100
AcDbPolyline
 62
253
  6
CONTINUOUS
 90
10
 70
0
 10
5.7422742708
 20
-4.6637339688
 10
5.7472882955
 20
-2.9762718645
 10
5.7594928835
 20
-1.2598918455
 10
5.7788880347
 20
0.4854060883
 10
5.8046720306
 20
2.2459804283
 10
5.8376465898
 20
4.035472683
 10
5.8802168675
 20
5.8948073781
 10
5.9331845823
 20
7.8376260221
 10
5.9957480157
 20
9.8502871066
 10
6.0679071677
 20
11.9327906316
  0
LWPOLYLINE
  5
315
100
AcDbEntity
  8
0
100
AcDbPolyline
 62
253
  6
CONTINUOUS
 90
10
 70
0
 10
5.0760029825
 20
-4.6745083931
 10
5.0813886624
 20
-2.9850742804
 10
5.093248169
 20
-1.2668610717
 10
5.111863147
 20
0.4802591431
 10
5.1372972927
 20
2.2430249309
 10
5.1699583023
 20
4.0348942062
 10
5.2111138141
 20
5.8963293333
 10
5.2619253803
 20
7.8411936389
 10
5.3229327807
 20
9.8564655703
 10
5.3949757486
 20
11.9425456083
  0
LWPOLYLINE
  5
316
100
AcDbEntity
  8
0
100
AcDbPolyline
 62
253
  6
CONTINUOUS
 90
16
 70
0
 10
5.07600315
 20
-5.8958767786
 10
5.0781159574
 20
-5.851578398
 10
5.0832017969
 20
-5.8061026045
 10
5.0913856579
 20
-5.7596029479
 10
5.1031997577
 20
-5.7120332112
 10
5.1185307285
 20
-5.6635720027
 10
5.13652035
 20
-5.6150678329
 10
5.1573254171
 20
-5.5675426244
 10
5.1811514003
 20
-5.5212293365
 10
5.2070289872
 20
-5.4762918942
 10
5.2349020186
 20
-5.433602397
 10
5.2648835047
 20
-5.3937788838
 10
5.2960719598
 20
-5.3567369311
 10
5.3280821545
 20
-5.3229110481
 10
5.3611027856
 20
-5.2931620027
 10
5.395011757
 20
-5.268000233
  0
LWPOLYLINE
  5
317
100
AcDbEntity
  8
0
100
AcDbPolyline
 62
253
  6
CONTINUOUS
 90
9
 70
0
 10
5.742274271
 20
-4.6637339687
 10
5.7401063339
 20
-4.7049602388
 10
5.7342535994
 20
-4.7436298814
 10
5.7247423837
 20
-4.7792971474
 10
5.7116234202
 20
-4.8115754166
 10
5.6950138264
 20
-4.8400330026
 10
5.6751338359
 20
-4.8642433174
 10
5.6522309915
 20
-4.8839188959
 10
5.6350427801
 20
-4.894614528
  0
LWPOLYLINE
  5
318
100
AcDbEntity
  8
0
100
AcDbPolyline
 62
253
  6
CONTINUOUS
 90
22
 70
0
 10
5.394975765
 20
11.9425456127
 10
5.3994826538
 20
12.0138968817
 10
5.4080923228
 20
12.0871353495
 10
5.4207644523
 20
12.1618980226
 10
5.4374448765
 20
12.2378054078
 10
5.4580501913
 20
12.3144889804
 10
5.482470736
 20
12.3915935372
 10
5.510600291
 20
12.4687397661
 10
5.5423051696
 20
12.5455388652
 10
5.5774108367
 20
12.6216204243
 10
5.6157580076
 20
12.6966018234
 10
5.6571674016
 20
12.7701089002
 10
5.7014117801
 20
12.8417909707
 10
5.7482902148
 20
12.9112872351
 10
5.7975823963
 20
12.9782464491
 10
5.849013271
 20
13.0423478917
 10
5.9023425778
 20
13.1032628987
 10
5.9573241815
 20
13.1606863389
 10
6.0136610408
 20
13.2143550076
 10
6.0710778903
 20
13.2640030259
 10
6.129321954
 20
13.3093645215
 10
6.1881224629
 20
13.3502043587
  0
LWPOLYLINE
  5
319
100
AcDbEntity
  8
0
100
AcDbPolyline
 62
253
  6
CONTINUOUS
 90
22
 70
0
 10
6.0679071677
 20
11.9327906316
 10
6.0707210999
 20
11.9744601051
 10
6.0759685645
 20
12.0168210079
 10
6.0836495616
 20
12.05987334
 10
6.0938253995
 20
12.1038538388
 10
6.1064347699
 20
12.1485257669
 10
6.1212937474
 20
12.1931789118
 10
6.1384344964
 20
12.2377951147
 10
6.1578248525
 20
12.2823925344
 10
6.1791843968
 20
12.3263154341
 10
6.2025445519
 20
12.3695568
 10
6.2278738952
 20
12.4121236458
 10
6.2547977404
 20
12.4533812773
 10
6.2833398007
 20
12.4933086831
 10
6.313476363
 20
12.5319268744
 10
6.3447616019
 20
12.5686641903
 10
6.3772284012
 20
12.6035021138
 10
6.410843877
 20
12.6364591618
 10
6.445063553
 20
12.6670192233
 10
6.479705937
 20
12.6950102612
 10
6.5149525212
 20
12.7206043127
 10
6.5508033055
 20
12.7438013776
  0
LWPOLYLINE
  5
31A
100
AcDbEntity
  8
0
100
AcDbPolyline
 62
253
  6
CONTINUOUS
 90
23
 70
0
 10
-0.5882254737
 20
-11.8348516828
 10
-0.5851163662
 20
-11.8280497657
 10
-0.5821355769
 20
-11.8211493481
 10
-0.5792821854
 20
-11.8141513178
 10
-0.5765552712
 20
-11.8070565626
 10
-0.5739539137
 20
-11.7998659705
 10
-0.5714771925
 20
-11.7925804292
 10
-0.5691241869
 20
-11.7852008267
 10
-0.5668939766
 20
-11.7777280508
 10
-0.564785641
 20
-11.7701629894
 10
-0.5627982595
 20
-11.7625065303
 10
-0.5609309117
 20
-11.7547595615
 10
-0.5591829681
 20
-11.7469227192
 10
-0.5575549631
 20
-11.738995634
 10
-0.5560477224
 20
-11.7309776848
 10
-0.5546620714
 20
-11.7228682507
 10
-0.5533988357
 20
-11.7146667106
 10
-0.5522588407
 20
-11.7063724435
 10
-0.5512429121
 20
-11.6979848284
 10
-0.5503518754
 20
-11.6895032443
 10
-0.5495865561
 20
-11.6809270702
 10
-0.5489477797
 20
-11.672255685
 10
-0.5484363717
 20
-11.6634884678
  0
LWPOLYLINE
  5
31B
100
AcDbEntity
  8
0
100
AcDbPolyline
 62
253
  6
CONTINUOUS
 90
23
 70
0
 10
-2.4743775947
 20
-10.1910174166
 10
-2.4754579472
 20
-10.1920301578
 10
-2.4765164286
 20
-10.1930748273
 10
-2.4775531318
 20
-10.1941517835
 10
-2.47856815
 20
-10.1952613849
 10
-2.4795615763
 20
-10.1964039899
 10
-2.4805335037
 20
-10.1975799571
 10
-2.4814838885
 20
-10.198789518
 10
-2.4824121391
 20
-10.2000323963
 10
-2.4833175267
 20
-10.2013081889
 10
-2.4841993228
 20
-10.2026164927
 10
-2.4850567989
 20
-10.2039569046
 10
-2.4858892263
 20
-10.2053290214
 10
-2.4866958765
 20
-10.20673244
 10
-2.4874760209
 20
-10.2081667572
 10
-2.4882289942
 20
-10.2096317526
 10
-2.488954385
 20
-10.2111279355
 10
-2.4896518451
 20
-10.212655998
 10
-2.4903210265
 20
-10.2142166323
 10
-2.4909615811
 20
-10.2158105303
 10
-2.4915731607
 20
-10.217438384
 10
-2.4921554172
 20
-10.2191008857
 10
-2.4927080025
 20
-10.2207987272
  0
LINE
  5
31C
100
AcDbEntity
  8
0
100
AcDbLine
 62
253
  6
CONTINUOUS
 10
-2.4721509034
 20
-10.1890862853
 11
-2.4732752778
 21
-10.1900362453
  0
LWPOLYLINE
  5
31D
100
AcDbEntity
  8
0
100
AcDbPolyline
 62
253
  6
CONTINUOUS
 90
22
 70
0
 10
-2.5860626167
 20
7.5402932362
 10
-2.5875935443
 20
7.5408494504
 10
-2.5891286316
 20
7.5414334664
 10
-2.5906680032
 20
7.5420456399
 10
-2.5922117834
 20
7.5426863267
 10
-2.5937600968
 20
7.5433558825
 10
-2.595313068
 20
7.5440546632
 10
-2.5968708214
 20
7.5447830245
 10
-2.5984334815
 20
7.5455413221
 10
-2.600001173
 20
7.5463299118
 10
-2.6015740201
 20
7.5471491494
 10
-2.6030084259
 20
7.547920846
 10
-2.6044470849
 20
7.5487186762
 10
-2.6058898862
 20
7.5495431506
 10
-2.6073367193
 20
7.55039478
 10
-2.6087874733
 20
7.551274075
 10
-2.6102420374
 20
7.5521815464
 10
-2.6117003011
 20
7.5531177049
 10
-2.6131621535
 20
7.5540830612
 10
-2.614627484
 20
7.5550781259
 10
-2.6160961817
 20
7.5561034099
 10
-2.617568136
 20
7.5571594238
  0
LWPOLYLINE
  5
31E
100
AcDbEntity
  8
0
100
AcDbPolyline
 62
253
  6
CONTINUOUS
 90
33
 70
0
 10
-1.941614065
 20
7.4103354708
 10
-1.9384602947
 20
7.4085788444
 10
-1.9353159751
 20
7.4069107426
 10
-1.9321806241
 20
7.4053295233
 10
-1.9290537595
 20
7.4038335442
 10
-1.9259348994
 20
7.4024211632
 10
-1.9228235616
 20
7.4010907381
 10
-1.9197192639
 20
7.3998406268
 10
-1.9166215245
 20
7.3986691869
 10
-1.9135301992
 20
7.3975750628
 10
-1.9104464967
 20
7.3965580442
 10
-1.9073719639
 20
7.3956182074
 10
-1.9043081475
 20
7.3947556285
 10
-1.9012565944
 20
7.3939703838
 10
-1.8982188512
 20
7.3932625493
 10
-1.8951964649
 20
7.3926322015
 10
-1.8921909822
 20
7.3920794163
 10
-1.8892038669
 20
7.3916042805
 10
-1.8862362504
 20
7.3912069224
 10
-1.8832891811
 20
7.3908874806
 10
-1.8803637076
 20
7.3906460939
 10
-1.8774608782
 20
7.3904829009
 10
-1.8745817414
 20
7.3903980404
 10
-1.8717273456
 20
7.3903916511
 10
-1.8688987393
 20
7.3904638717
 10
-1.8660968546
 20
7.3906150649
 10
-1.8633221586
 20
7.3908464891
 10
-1.8605750022
 20
7.3911596268
 10
-1.8578557364
 20
7.3915559604
 10
-1.8551647119
 20
7.3920369723
 10
-1.8525022797
 20
7.392604145
 10
-1.8498687906
 20
7.3932589609
 10
-1.8472645954
 20
7.3940029024
  0
LWPOLYLINE
  5
31F
100
AcDbEntity
  8
0
100
AcDbPolyline
 62
253
  6
CONTINUOUS
 90
37
 70
0
 10
-1.1436191197
 20
5.9921032612
 10
-1.1471443273
 20
5.9941310641
 10
-1.1506432005
 20
5.9962492694
 10
-1.1541205602
 20
5.9984583463
 10
-1.1575812272
 20
6.0007587644
 10
-1.1610300222
 20
6.0031509929
 10
-1.1644717662
 20
6.0056355013
 10
-1.1679104303
 20
6.0082126858
 10
-1.1713465877
 20
6.0108826503
 10
-1.1747799618
 20
6.0136454254
 10
-1.1782102761
 20
6.0165010418
 10
-1.1816372542
 20
6.0194495301
 10
-1.1850606195
 20
6.0224909212
 10
-1.188479329
 20
6.0256244984
 10
-1.1918892741
 20
6.0288465567
 10
-1.1952855794
 20
6.0321526437
 10
-1.1986633696
 20
6.0355383071
 10
-1.2020177696
 20
6.0389990947
 10
-1.2053439042
 20
6.0425305541
 10
-1.2086369986
 20
6.0461280262
 10
-1.2118926808
 20
6.0497860249
 10
-1.2151066794
 20
6.0534988572
 10
-1.2182747229
 20
6.0572608301
 10
-1.2213925399
 20
6.0610662508
 10
-1.2244558589
 20
6.0649094262
 10
-1.2274611218
 20
6.0687855099
 10
-1.2304076239
 20
6.0726930405
 10
-1.2332953737
 20
6.0766314034
 10
-1.2361243799
 20
6.0805999838
 10
-1.238894651
 20
6.0845981668
 10
-1.2416061956
 20
6.0886253377
 10
-1.2442593774
 20
6.0926821243
 10
-1.2468559804
 20
6.0967741247
 10
-1.2493981437
 20
6.1009081799
 10
-1.2518880062
 20
6.1050911305
 10
-1.2543277071
 20
6.1093298174
 10
-1.2567193855
 20
6.1136310814
  0
LWPOLYLINE
  5
320
100
AcDbEntity
  8
0
100
AcDbPolyline
 62
253
  6
CONTINUOUS
 90
38
 70
0
 10
-1.5398492138
 20
6.6933404917
 10
-1.5429676967
 20
6.6951447563
 10
-1.5460621959
 20
6.6970179542
 10
-1.5491360943
 20
6.6989603177
 10
-1.5521927747
 20
6.7009720787
 10
-1.5552356198
 20
6.7030534695
 10
-1.5582680126
 20
6.7052047222
 10
-1.5612933359
 20
6.7074260688
 10
-1.5648174713
 20
6.7101064266
 10
-1.5683360426
 20
6.7128821903
 10
-1.5718485041
 20
6.7157530441
 10
-1.5753543096
 20
6.7187186721
 10
-1.5788529133
 20
6.7217787587
 10
-1.5823437692
 20
6.724932988
 10
-1.5858255976
 20
6.7281803155
 10
-1.5892941838
 20
6.7315167819
 10
-1.5927445794
 20
6.7349376991
 10
-1.5961718358
 20
6.7384383792
 10
-1.5995710046
 20
6.7420141341
 10
-1.6029371373
 20
6.7456602758
 10
-1.6062653835
 20
6.7493719089
 10
-1.6095512848
 20
6.7531433083
 10
-1.6127904811
 20
6.7569685414
 10
-1.615978612
 20
6.7608416758
 10
-1.6191113173
 20
6.7647567791
 10
-1.6221842368
 20
6.7687079186
 10
-1.6251937319
 20
6.7726900338
 10
-1.6281390519
 20
6.7767015509
 10
-1.6310201678
 20
6.780741768
 10
-1.6338370503
 20
6.7848099832
 10
-1.6365896707
 20
6.7889054946
 10
-1.6392779997
 20
6.7930276004
 10
-1.6419023553
 20
6.7971769177
 10
-1.6444644425
 20
6.8013593399
 10
-1.6469663132
 20
6.8055820796
 10
-1.6494100193
 20
6.8098523492
 10
-1.6517976128
 20
6.8141773613
 10
-1.6541311455
 20
6.8185643284
  0
LINE
  5
321
100
AcDbEntity
  8
0
100
AcDbLine
 62
253
  6
CONTINUOUS
 10
-3.3126896451
 20
9.0949167949
 11
-3.0397964935
 21
8.9349898247
  0
LINE
  5
322
100
AcDbEntity
  8
0
100
AcDbLine
 62
253
  6
CONTINUOUS
 10
-3.0417182572
 20
8.2285118488
 11
-3.3307109671
 21
8.3986816816
  0
LWPOLYLINE
  5
323
100
AcDbEntity
  8
0
100
AcDbPolyline
 62
253
  6
CONTINUOUS
 90
55
 70
0
 10
-4.2176541354
 20
8.0916916734
 10
-4.2237391089
 20
8.0953597255
 10
-4.2297330455
 20
8.0990230214
 10
-4.2356393182
 20
8.1026992509
 10
-4.2414613
 20
8.1064061037
 10
-4.2472023639
 20
8.1101612694
 10
-4.2528658831
 20
8.1139824379
 10
-4.2584552304
 20
8.1178872987
 10
-4.2632858745
 20
8.1213847943
 10
-4.268053518
 20
8.1249608531
 10
-4.2727493654
 20
8.1286164179
 10
-4.2773646216
 20
8.1323524312
 10
-4.280994076
 20
8.1354008958
 10
-4.2845689339
 20
8.1385085192
 10
-4.2880918064
 20
8.1416823696
 10
-4.2915653046
 20
8.1449295156
 10
-4.2949920394
 20
8.1482570255
 10
-4.2983729642
 20
8.1516703627
 10
-4.3017024013
 20
8.1551685703
 10
-4.3049730156
 20
8.1587490862
 10
-4.3081774717
 20
8.1624093486
 10
-4.3113084344
 20
8.1661467955
 10
-4.3143595225
 20
8.169958968
 10
-4.3173281711
 20
8.1738438194
 10
-4.3202127696
 20
8.1777994062
 10
-4.3230117072
 20
8.1818237848
 10
-4.3257233732
 20
8.1859150115
 10
-4.3283464393
 20
8.1900701886
 10
-4.3308807063
 20
8.1942826008
 10
-4.3333262575
 20
8.1985445785
 10
-4.335683176
 20
8.2028484522
 10
-4.337951545
 20
8.2071865525
 10
-4.3401312096
 20
8.2115509226
 10
-4.3422210617
 20
8.2159324582
 10
-4.3442197554
 20
8.2203217675
 10
-4.3461259443
 20
8.224709459
 10
-4.3479382825
 20
8.229086141
 10
-4.3496559339
 20
8.2334438908
 10
-4.3512801035
 20
8.2377806611
 10
-4.3528125067
 20
8.2420958735
 10
-4.3542548585
 20
8.2463889497
 10
-4.3556088742
 20
8.2506593112
 10
-4.3571789317
 20
8.2559630671
 10
-4.3586118785
 20
8.2612210636
 10
-4.359905949
 20
8.2664239368
 10
-4.3610593776
 20
8.2715623229
 10
-4.3620706513
 20
8.2766272677
 10
-4.3629392682
 20
8.2816114568
 10
-4.3636649788
 20
8.2865079857
 10
-4.3642475338
 20
8.2913099496
 10
-4.3646099938
 20
8.2950807066
 10
-4.3648784797
 20
8.2987944627
 10
-4.3650507968
 20
8.3024591574
 10
-4.3651247503
 20
8.3060827304
 10
-4.3650981453
 20
8.3096731211
  0
LWPOLYLINE
  5
324
100
AcDbEntity
  8
0
100
AcDbPolyline
 62
253
  6
CONTINUOUS
 90
24
 70
0
 10
-2.617568136
 20
7.5571594238
 10
-2.6189689238
 20
7.5581380725
 10
-2.6203640351
 20
7.5591389486
 10
-2.6217535155
 20
7.5601620378
 10
-2.6231374104
 20
7.5612073261
 10
-2.6245157653
 20
7.5622747993
 10
-2.6258886257
 20
7.5633644434
 10
-2.627256037
 20
7.5644762441
 10
-2.6286180448
 20
7.5656101875
 10
-2.6299746945
 20
7.5667662593
 10
-2.6313260317
 20
7.5679444455
 10
-2.6326721017
 20
7.5691447319
 10
-2.6339013848
 20
7.5702644326
 10
-2.6351261575
 20
7.5714028955
 10
-2.6363462968
 20
7.5725603243
 10
-2.63756168
 20
7.5737369229
 10
-2.6387721842
 20
7.5749328949
 10
-2.6399776865
 20
7.5761484441
 10
-2.6411780641
 20
7.5773837743
 10
-2.6423731942
 20
7.5786390891
 10
-2.6435629539
 20
7.5799145924
 10
-2.6447472203
 20
7.5812104878
 10
-2.6459258706
 20
7.5825269791
 10
-2.6470987819
 20
7.5838642701
  0
LINE
  5
325
100
AcDbEntity
  8
0
100
AcDbLine
 62
253
  6
CONTINUOUS
 10
-3.3307109671
 20
8.3986816816
 11
-3.3635738435
 21
8.4247014751
  0
LWPOLYLINE
  5
326
100
AcDbEntity
  8
0
100
AcDbPolyline
 62
253
  6
CONTINUOUS
 90
26
 70
0
 10
-2.5483040232
 20
9.0748704347
 10
-2.5470766015
 20
9.073757533
 10
-2.5458379798
 20
9.072620548
 10
-2.5445882433
 20
9.0714582809
 10
-2.5433274774
 20
9.0702695327
 10
-2.5420557671
 20
9.0690531049
 10
-2.5407731979
 20
9.0678077983
 10
-2.5394798548
 20
9.0665324144
 10
-2.5383395127
 20
9.0653908767
 10
-2.5371916677
 20
9.0642248218
 10
-2.5360370003
 20
9.0630336782
 10
-2.5348761909
 20
9.0618168748
 10
-2.5337099202
 20
9.06057384
 10
-2.5325388686
 20
9.0593040027
 10
-2.5313637165
 20
9.0580067913
 10
-2.5301851446
 20
9.0566816347
 10
-2.5292402899
 20
9.0556009653
 10
-2.5282940778
 20
9.0545015155
 10
-2.5273469041
 20
9.0533827557
 10
-2.5263991647
 20
9.0522441561
 10
-2.5254512553
 20
9.0510851871
 10
-2.5245035718
 20
9.0499053191
 10
-2.52355651
 20
9.0487040222
 10
-2.5226104657
 20
9.0474807668
 10
-2.5216658347
 20
9.0462350233
 10
-2.5207230129
 20
9.0449662619
  0
LWPOLYLINE
  5
327
100
AcDbEntity
  8
0
100
AcDbPolyline
 62
253
  6
CONTINUOUS
 90
24
 70
0
 10
-0.9534795613
 20
-11.6695629488
 10
-0.9544376911
 20
-11.6706832715
 10
-0.9553662632
 20
-11.6718386845
 10
-0.9562656919
 20
-11.6730286214
 10
-0.9571363916
 20
-11.674252516
 10
-0.9579787767
 20
-11.675509802
 10
-0.9587932616
 20
-11.6767999132
 10
-0.9595802607
 20
-11.6781222832
 10
-0.9603401884
 20
-11.6794763457
 10
-0.9610734591
 20
-11.6808615346
 10
-0.9617804871
 20
-11.6822772835
 10
-0.962461687
 20
-11.6837230262
 10
-0.963117473
 20
-11.6851981963
 10
-0.9638042986
 20
-11.6868405013
 10
-0.9644614319
 20
-11.6885172098
 10
-0.965088932
 20
-11.6902283783
 10
-0.9656868577
 20
-11.6919740631
 10
-0.9662552683
 20
-11.6937543205
 10
-0.9667942228
 20
-11.6955692069
 10
-0.9673037802
 20
-11.6974187788
 10
-0.9677839995
 20
-11.6993030923
 10
-0.9682349399
 20
-11.7012222039
 10
-0.9686566604
 20
-11.7031761699
 10
-0.96904922
 20
-11.7051650468
  0
LWPOLYLINE
  5
328
100
AcDbEntity
  8
0
100
AcDbPolyline
 62
253
  6
CONTINUOUS
 90
15
 70
0
 10
-0.8606651927
 20
-11.6108854195
 10
-0.8633239672
 20
-11.6134676626
 10
-0.8660513968
 20
-11.615938608
 10
-0.8688438627
 20
-11.6183051669
 10
-0.8716977455
 20
-11.6205742502
 10
-0.8746094262
 20
-11.622752769
 10
-0.8775752857
 20
-11.6248476344
 10
-0.8811995511
 20
-11.6272601025
 10
-0.8848832518
 20
-11.6295699318
 10
-0.8886130172
 20
-11.6317849928
 10
-0.8923754766
 20
-11.6339131558
 10
-0.8961572594
 20
-11.635962291
 10
-0.9008981933
 20
-11.6384280593
 10
-0.9056637208
 20
-11.6408189681
 10
-0.9104647069
 20
-11.6431678153
  0
LWPOLYLINE
  5
329
100
AcDbEntity
  8
0
100
AcDbPolyline
 62
253
  6
CONTINUOUS
 90
25
 70
0
 10
-1.4368907164
 20
-11.8928607014
 10
-1.4357728349
 20
-11.8918951561
 10
-1.4346750502
 20
-11.8909007327
 10
-1.433597388
 20
-11.8898768596
 10
-1.4325398735
 20
-11.8888229655
 10
-1.4315025325
 20
-11.8877384789
 10
-1.4304853903
 20
-11.8866228285
 10
-1.4294884725
 20
-11.8854754427
 10
-1.4285118045
 20
-11.8842957502
 10
-1.4275555586
 20
-11.8830833238
 10
-1.4266204936
 20
-11.8818383137
 10
-1.4257075151
 20
-11.8805610144
 10
-1.4248175288
 20
-11.8792517204
 10
-1.4239514402
 20
-11.8779107261
 10
-1.4231101548
 20
-11.876538326
 10
-1.4222945784
 20
-11.8751348146
 10
-1.4215056163
 20
-11.8737004863
 10
-1.4207441038
 20
-11.8722354495
 10
-1.4200105933
 20
-11.8707390679
 10
-1.4193055668
 20
-11.8692105194
 10
-1.4186295064
 20
-11.8676489816
 10
-1.417982894
 20
-11.8660536321
 10
-1.4173662116
 20
-11.8644236487
 10
-1.4167799413
 20
-11.8627582091
 10
-1.416224565
 20
-11.8610564908
  0
LWPOLYLINE
  5
32A
100
AcDbEntity
  8
0
100
AcDbPolyline
 62
253
  6
CONTINUOUS
 90
23
 70
0
 10
-0.9539907759
 20
-10.9345129379
 10
-0.9555809138
 20
-10.9358456722
 10
-0.9571675248
 20
-10.9371937617
 10
-0.9587486532
 20
-10.9385611955
 10
-0.9603223433
 20
-10.9399519627
 10
-0.9618866394
 20
-10.9413700525
 10
-0.963439586
 20
-10.9428194539
 10
-0.9647599426
 20
-10.9440895941
 10
-0.9660679446
 20
-10.9453872861
 10
-0.9673610129
 20
-10.9467141467
 10
-0.9686365682
 20
-10.9480717926
 10
-0.9698920311
 20
-10.9494618404
 10
-0.9711248226
 20
-10.9508859067
 10
-0.9723323633
 20
-10.9523456083
 10
-0.973252498
 20
-10.9535066795
 10
-0.9741548521
 20
-10.9546915036
 10
-0.9750384804
 20
-10.9559012981
 10
-0.9759024377
 20
-10.9571372808
 10
-0.9767457788
 20
-10.9584006694
 10
-0.9775675586
 20
-10.9596926816
 10
-0.9783668319
 20
-10.961014535
 10
-0.9791426535
 20
-10.9623674473
 10
-0.9798940781
 20
-10.9637526363
  0
LWPOLYLINE
  5
32B
100
AcDbEntity
  8
0
100
AcDbPolyline
 62
253
  6
CONTINUOUS
 90
36
 70
0
 10
-0.9359818167
 20
-10.960293616
 10
-0.9389684135
 20
-10.9627436621
 10
-0.9418750734
 20
-10.9651881002
 10
-0.9475664151
 20
-10.9703689276
 10
-0.9502759465
 20
-10.9731523303
 10
-0.9528544014
 20
-10.9761023184
 10
-0.9552799591
 20
-10.9792584871
 10
-0.9575249997
 20
-10.9826756169
 10
-0.9595617161
 20
-10.9864033889
 10
-0.9613673517
 20
-10.9904558996
 10
-0.9629235638
 20
-10.9948299423
 10
-0.9642246156
 20
-10.9994886799
 10
-0.9652692359
 20
-11.0043848305
 10
-0.9660614108
 20
-11.0094629616
 10
-0.9666074447
 20
-11.0146782911
 10
-0.9669176586
 20
-11.0200367867
 10
-0.96697912
 20
-11.0274238102
 10
-0.9666389213
 20
-11.0350672308
 10
-0.9658945042
 20
-11.0429357627
 10
-0.9650721177
 20
-11.0489586247
 10
-0.9640362416
 20
-11.0550326403
 10
-0.9628006133
 20
-11.0611090138
 10
-0.9613726306
 20
-11.0671752589
 10
-0.9597543775
 20
-11.0732319206
 10
-0.9579330201
 20
-11.0792953594
 10
-0.9558942893
 20
-11.0853781814
 10
-0.9536330898
 20
-11.09146216
 10
-0.951145912
 20
-11.0975210926
 10
-0.9484264142
 20
-11.1035277059
 10
-0.9454779239
 20
-11.1094552612
 10
-0.9423452772
 20
-11.1152802285
 10
-0.9390804474
 20
-11.120990442
 10
-0.9357224499
 20
-11.1266159826
 10
-0.9288128842
 20
-11.1377556875
 10
-0.9216016761
 20
-11.1489225095
 10
-0.9139988579
 20
-11.1602709851
  0
LINE
  5
32C
100
AcDbEntity
  8
0
100
AcDbLine
 62
253
  6
CONTINUOUS
 10
-0.9476746889
 20
-10.9306651983
 11
-0.9539907759
 21
-10.9345129379
  0
LINE
  5
32D
100
AcDbEntity
  8
0
100
AcDbLine
 62
253
  6
CONTINUOUS
 10
-1.6592749224
 20
-10.2250136246
 11
-1.9624678984
 21
-10.4001253624
  0
LINE
  5
32E
100
AcDbEntity
  8
0
100
AcDbLine
 62
253
  6
CONTINUOUS
 10
-1.6753679552
 20
-10.1983573409
 11
-1.9782122159
 21
-10.3730949516
  0
LINE
  5
32F
100
AcDbEntity
  8
0
100
AcDbLine
 62
253
  6
CONTINUOUS
 10
9.3202887404
 20
-3.0787173861
 11
5.3950117571
 21
-5.2680002329
  0
LINE
  5
330
100
AcDbEntity
  8
0
100
AcDbLine
 62
253
  6
CONTINUOUS
 10
9.6738825351
 20
-3.6910354366
 11
5.7422743411
 21
-5.883849451
  0
LINE
  5
331
100
AcDbEntity
  8
0
100
AcDbLine
 62
253
  6
CONTINUOUS
 10
5.7422742708
 20
-4.6637339688
 11
9.6738825351
 21
-2.5481324759
  0
LINE
  5
332
100
AcDbEntity
  8
0
100
AcDbLine
 62
7
  6
CONTINUOUS
 10
5.6350237471
 20
-4.8946247713
 11
9.5660101947
 21
-2.7793578785
  0
LWPOLYLINE
  5
333
100
AcDbEntity
  8
0
100
AcDbPolyline
 62
253
  6
CONTINUOUS
 90
16
 70
0
 10
5.7422743419
 20
-5.8838494505
 10
5.7054210675
 20
-5.9022216805
 10
5.6656618366
 20
-5.9184400656
 10
5.6233725998
 20
-5.9323512501
 10
5.5789532374
 20
-5.9438236926
 10
5.5328237581
 20
-5.9527489158
 10
5.4854203244
 20
-5.9590425282
 10
5.4371911439
 20
-5.9626450167
 10
5.3885922783
 20
-5.9635223096
 10
5.3400833086
 20
-5.9616661108
 10
5.2921229423
 20
-5.9570939783
 10
5.2451646542
 20
-5.949849148
 10
5.1996524456
 20
-5.940000123
 10
5.1560166587
 20
-5.9276400305
 10
5.1146699064
 20
-5.9128857451
 10
5.07600315
 20
-5.8958767786
  0
LWPOLYLINE
  5
334
100
AcDbEntity
  8
0
100
AcDbPolyline
 62
253
  6
CONTINUOUS
 90
11
 70
0
 10
-1.9791199107
 20
-10.3735478679
 10
-1.9818149859
 20
-10.3748935179
 10
-1.9827076906
 20
-10.3753315855
 10
-1.98359941
 20
-10.3757613539
 10
-1.9843637623
 20
-10.3761217579
 10
-1.9851287078
 20
-10.3764737264
 10
-1.9858947518
 20
-10.3768162692
 10
-1.9866623996
 20
-10.3771483963
 10
-1.9874321567
 20
-10.3774691175
 10
-1.9882045285
 20
-10.3777774428
 10
-1.9889800203
 20
-10.378072382
  0
LINE
  5
335
100
AcDbEntity
  8
0
100
AcDbLine
 62
253
  6
CONTINUOUS
 10
-1.9624678984
 20
-10.4001253624
 11
-1.9744125593
 21
-10.4056093418
  0
LWPOLYLINE
  5
336
100
AcDbEntity
  8
0
100
AcDbPolyline
 62
253
  6
CONTINUOUS
 90
24
 70
0
 10
-2.993894418
 20
8.9168104242
 10
-2.9913795504
 20
8.9163357414
 10
-2.988879291
 20
8.9159154055
 10
-2.9863935504
 20
8.9155496014
 10
-2.9839222389
 20
8.9152385138
 10
-2.9814652669
 20
8.9149823276
 10
-2.9790225449
 20
8.9147812275
 10
-2.9765939833
 20
8.9146353983
 10
-2.9741794925
 20
8.914545025
 10
-2.9717789829
 20
8.9145102921
 10
-2.9693923649
 20
8.9145313846
 10
-2.9670195489
 20
8.9146084873
 10
-2.9648566127
 20
8.9147286672
 10
-2.9627057111
 20
8.9148970561
 10
-2.9605673565
 20
8.9151146435
 10
-2.9584420613
 20
8.915382419
 10
-2.9563303377
 20
8.9157013724
 10
-2.9542326981
 20
8.9160724931
 10
-2.952149655
 20
8.9164967708
 10
-2.9500817205
 20
8.916975195
 10
-2.9480294072
 20
8.9175087554
 10
-2.9459932272
 20
8.9180984415
 10
-2.9439736931
 20
8.9187452429
 10
-2.9419713171
 20
8.9194501493
  0
LINE
  5
337
100
AcDbEntity
  8
0
100
AcDbLine
 62
253
  6
CONTINUOUS
 10
-3.0397965893
 20
8.9349860651
 11
-2.993894418
 21
8.9168104242
  0
LINE
  5
338
100
AcDbEntity
  8
0
100
AcDbLine
 62
253
  6
CONTINUOUS
 10
-3.3377842673
 20
9.1065016603
 11
-3.312689531
 21
9.0949212818
  0
LWPOLYLINE
  5
339
100
AcDbEntity
  8
0
100
AcDbPolyline
 62
253
  6
CONTINUOUS
 90
23
 70
0
 10
-2.5788587725
 20
9.0944169286
 10
-2.5773352026
 20
9.0936931873
 10
-2.5758118703
 20
9.0929481529
 10
-2.5742885776
 20
9.0921809489
 10
-2.5727651267
 20
9.0913906984
 10
-2.5712413194
 20
9.0905765246
 10
-2.5697169579
 20
9.0897375509
 10
-2.5681918441
 20
9.0888729005
 10
-2.5666657801
 20
9.0879816967
 10
-2.5651385679
 20
9.0870630626
 10
-2.5636100095
 20
9.0861161215
 10
-2.5623350959
 20
9.0853047328
 10
-2.5610593329
 20
9.0844724781
 10
-2.5597829433
 20
9.0836187582
 10
-2.5585061502
 20
9.0827429735
 10
-2.5572291763
 20
9.0818445246
 10
-2.5559522447
 20
9.0809228122
 10
-2.5546755781
 20
9.0799772368
 10
-2.5533993995
 20
9.0790071989
 10
-2.5521239318
 20
9.0780120992
 10
-2.5508493979
 20
9.0769913382
 10
-2.5495760207
 20
9.0759443165
 10
-2.5483040232
 20
9.0748704347
  0
LWPOLYLINE
  5
33A
100
AcDbEntity
  8
0
100
AcDbPolyline
 62
253
  6
CONTINUOUS
 90
55
 70
0
 10
-4.1605354671
 20
10.4350381254
 10
-4.1544429895
 20
10.4313703885
 10
-4.1484411158
 20
10.4277072817
 10
-4.1425266014
 20
10.4240310864
 10
-4.1366962014
 20
10.4203240843
 10
-4.130946671
 20
10.416568557
 10
-4.1252747657
 20
10.4127467862
 10
-4.1196772405
 20
10.4088410534
 10
-4.1148397091
 20
10.4053425474
 10
-4.1100655009
 20
10.4017652085
 10
-4.105363476
 20
10.3981080526
 10
-4.1007424947
 20
10.3943700959
 10
-4.0971088261
 20
10.3913197885
 10
-4.0935300994
 20
10.3882100104
 10
-4.0900037182
 20
10.385033633
 10
-4.0865270859
 20
10.3817835279
 10
-4.0830976062
 20
10.3784525667
 10
-4.0797143519
 20
10.3750352345
 10
-4.0763830737
 20
10.3715324716
 10
-4.0731111914
 20
10.3679468321
 10
-4.0699061251
 20
10.3642808698
 10
-4.0667752947
 20
10.3605371388
 10
-4.0637251543
 20
10.3567180873
 10
-4.0607582953
 20
10.3528257409
 10
-4.0578763429
 20
10.3488620194
 10
-4.0550809226
 20
10.3448288428
 10
-4.0523736599
 20
10.3407281309
 10
-4.0497558894
 20
10.3365627685
 10
-4.0472277834
 20
10.3323395003
 10
-4.0447892237
 20
10.3280660358
 10
-4.0424400918
 20
10.3237500847
 10
-4.0401802694
 20
10.3193993565
 10
-4.0380098735
 20
10.3150218414
 10
-4.0359299624
 20
10.3106266521
 10
-4.0339418298
 20
10.3062231816
 10
-4.0320467693
 20
10.3018208232
 10
-4.0302460746
 20
10.2974289702
 10
-4.0285405389
 20
10.2930555552
 10
-4.0269289541
 20
10.2887026698
 10
-4.0254096116
 20
10.2843709451
 10
-4.0239808028
 20
10.2800610121
 10
-4.0226408191
 20
10.2757735018
 10
-4.0210889911
 20
10.2704479878
 10
-4.0196750119
 20
10.2651680097
 10
-4.0184006106
 20
10.2599430818
 10
-4.0172675161
 20
10.2547827184
 10
-4.0162771977
 20
10.2496959903
 10
-4.0154300837
 20
10.2446901949
 10
-4.0147263426
 20
10.2397721859
 10
-4.0141661428
 20
10.2349488173
 10
-4.0138218053
 20
10.2311609495
 10
-4.0135716847
 20
10.2274300285
 10
-4.0134180238
 20
10.2237480448
 10
-4.0133630653
 20
10.2201069891
 10
-4.0134090519
 20
10.2164988519
  0
LINE
  5
33B
100
AcDbEntity
  8
0
100
AcDbLine
 62
7
  6
CONTINUOUS
 10
9.1272138104
 20
14.3073976716
 11
9.6738825351
 21
7.5761766697
  0
LINE
  5
33C
100
AcDbEntity
  8
0
100
AcDbLine
 62
7
  6
CONTINUOUS
 10
9.6738825351
 20
7.5761766697
 11
9.6738825351
 21
-2.5481324759
  0
LINE
  5
33D
100
AcDbEntity
  8
0
100
AcDbLine
 62
7
  6
CONTINUOUS
 10
9.6738825351
 20
-13.8153445822
 11
9.6738825351
 21
-3.6910354366
  0
LWPOLYLINE
  5
33E
100
AcDbEntity
  8
0
100
AcDbPolyline
 62
253
  6
CONTINUOUS
 90
24
 70
0
 10
-0.6838584718
 20
-11.9482406134
 10
-0.6786463123
 20
-11.9449422113
 10
-0.6735139802
 20
-11.9414724809
 10
-0.668461553
 20
-11.9378308319
 10
-0.6634891079
 20
-11.9340166738
 10
-0.6585967224
 20
-11.9300294162
 10
-0.6537844738
 20
-11.9258684687
 10
-0.6490524395
 20
-11.9215332409
 10
-0.6444006969
 20
-11.9170231423
 10
-0.6398293233
 20
-11.9123375826
 10
-0.6353383961
 20
-11.9074759713
 10
-0.6309279926
 20
-11.9024377181
 10
-0.6269562018
 20
-11.8976634443
 10
-0.623053848
 20
-11.8927386176
 10
-0.6192226408
 20
-11.8876616095
 10
-0.6154642901
 20
-11.8824307917
 10
-0.6117805053
 20
-11.8770445356
 10
-0.6081729963
 20
-11.8715012128
 10
-0.6046434727
 20
-11.8657991949
 10
-0.6011936441
 20
-11.8599368534
 10
-0.5978252202
 20
-11.8539125599
 10
-0.5945399107
 20
-11.8477246859
 10
-0.5913394253
 20
-11.841371603
 10
-0.5882254737
 20
-11.8348516828
  0
LWPOLYLINE
  5
33F
100
AcDbEntity
  8
0
100
AcDbPolyline
 62
253
  6
CONTINUOUS
 90
16
 70
0
 10
-0.9104647069
 20
-11.6431678153
 10
-0.9201434442
 20
-11.6478153157
 10
-0.925011854
 20
-11.650172758
 10
-0.9274536903
 20
-11.6513796876
 10
-0.929899875
 20
-11.652619594
 10
-0.932349456
 20
-11.6539056932
 10
-0.9348014808
 20
-11.6552512015
 10
-0.9372532069
 20
-11.6566689306
 10
-0.93969473
 20
-11.6581700749
 10
-0.9421143551
 20
-11.6597654247
 10
-0.9445003876
 20
-11.6614657701
 10
-0.9463772069
 20
-11.6629091344
 10
-0.9482192881
 20
-11.6644335681
 10
-0.950020877
 20
-11.6660460375
 10
-0.9517762195
 20
-11.6677535089
 10
-0.9534795613
 20
-11.6695629488
  0
LWPOLYLINE
  5
340
100
AcDbEntity
  8
0
100
AcDbPolyline
 62
253
  6
CONTINUOUS
 90
8
 70
0
 10
-0.7182985184
 20
-11.9654750729
 10
-0.7067236136
 20
-11.9600524017
 10
-0.7009374035
 20
-11.9573003911
 10
-0.6974757796
 20
-11.9556047294
 10
-0.6940295174
 20
-11.9538619577
 10
-0.690606174
 20
-11.9520610391
 10
-0.6872133065
 20
-11.9501909367
 10
-0.6838584718
 20
-11.9482406134
  0
LWPOLYLINE
  5
341
100
AcDbEntity
  8
0
100
AcDbPolyline
 62
253
  6
CONTINUOUS
 90
64
 70
0
 10
-0.7653975731
 20
-11.9512134098
 10
-0.7481180116
 20
-11.9444557106
 10
-0.7310737551
 20
-11.9373817199
 10
-0.7199470721
 20
-11.9322773822
 10
-0.7090999294
 20
-11.9267359985
 10
-0.6986157635
 20
-11.9206569539
 10
-0.6885561125
 20
-11.9139546559
 10
-0.6788949213
 20
-11.906603602
 10
-0.6695842367
 20
-11.8985933116
 10
-0.6628040238
 20
-11.8921424602
 10
-0.6561835329
 20
-11.8852852411
 10
-0.6497122995
 20
-11.8779920024
 10
-0.6433798596
 20
-11.870233092
 10
-0.6371777366
 20
-11.8619767644
 10
-0.6311054057
 20
-11.8531829
 10
-0.6251643295
 20
-11.8438092858
 10
-0.6193559711
 20
-11.8338137085
 10
-0.6148079982
 20
-11.8253399866
 10
-0.6103596944
 20
-11.8164131013
 10
-0.6060248532
 20
-11.8070049623
 10
-0.601817268
 20
-11.7970874787
 10
-0.5977507325
 20
-11.7866325601
 10
-0.5938421459
 20
-11.7756163343
 10
-0.5901208308
 20
-11.7640318027
 10
-0.5866192158
 20
-11.7518761849
 10
-0.5833697293
 20
-11.7391467009
 10
-0.5804047997
 20
-11.7258405704
 10
-0.5777566631
 20
-11.7119581312
 10
-0.5754567856
 20
-11.6975121943
 10
-0.5735364409
 20
-11.6825186884
 10
-0.5720269028
 20
-11.6669935427
 10
-0.5709594449
 20
-11.6509526859
 10
-0.5703614655
 20
-11.6344114058
 10
-0.5702448603
 20
-11.6173824247
 10
-0.5706176498
 20
-11.5998778236
 10
-0.5714878542
 20
-11.5819096837
 10
-0.5728634938
 20
-11.5634900859
 10
-0.574752845
 20
-11.5446292741
 10
-0.5771652078
 20
-11.5253301436
 10
-0.5801101382
 20
-11.5055937525
 10
-0.5835971923
 20
-11.4854211589
 10
-0.5876359259
 20
-11.4648134207
 10
-0.5914320238
 20
-11.4473103118
 10
-0.5956364215
 20
-11.4295162352
 10
-0.6002676718
 20
-11.4114416724
 10
-0.6053443275
 20
-11.3930971044
 10
-0.6108849416
 20
-11.3744930127
 10
-0.6169080668
 20
-11.3556398786
 10
-0.6234298533
 20
-11.3365551587
 10
-0.6304568412
 20
-11.3172842123
 10
-0.6379931678
 20
-11.2978793737
 10
-0.6460429026
 20
-11.2783921889
 10
-0.6546098428
 20
-11.2588710489
 10
-0.6636977179
 20
-11.239363556
 10
-0.6733025265
 20
-11.2199114281
 10
-0.6833893448
 20
-11.2005328447
 10
-0.6939155183
 20
-11.1812401012
 10
-0.7048304566
 20
-11.1620526595
 10
-0.7160518261
 20
-11.1430186488
 10
-0.7274893576
 20
-11.1241933653
 10
-0.7413940701
 20
-11.1019256697
 10
-0.7554527243
 20
-11.0799493264
 10
-0.7696379765
 20
-11.0581754941
 10
-0.7982789007
 20
-11.0148799971
  0
LWPOLYLINE
  5
342
100
AcDbEntity
  8
0
100
AcDbPolyline
 62
253
  6
CONTINUOUS
 90
31
 70
0
 10
-1.9744125593
 20
-10.4056093418
 10
-1.9769363702
 20
-10.4064635592
 10
-1.9794929427
 20
-10.4072284086
 10
-1.9820832115
 20
-10.4079036568
 10
-1.9847081116
 20
-10.4084890702
 10
-1.987368578
 20
-10.4089844157
 10
-1.9900655454
 20
-10.4093894599
 10
-1.9927999488
 20
-10.4097039694
 10
-1.995572723
 20
-10.4099277109
 10
-1.998070125
 20
-10.4100499638
 10
-2.0005977119
 20
-10.4100987137
 10
-2.0031546123
 20
-10.41007236
 10
-2.0057399548
 20
-10.4099693019
 10
-2.008352868
 20
-10.4097879389
 10
-2.0109924805
 20
-10.4095266701
 10
-2.0136579207
 20
-10.409183895
 10
-2.0163483174
 20
-10.4087580129
 10
-2.0190627989
 20
-10.408247423
 10
-2.021800371
 20
-10.4076515735
 10
-2.0245595472
 20
-10.4069741077
 10
-2.0273387183
 20
-10.4062197176
 10
-2.0301362748
 20
-10.4053930953
 10
-2.0329506075
 20
-10.4044989328
 10
-2.035780107
 20
-10.4035419222
 10
-2.0386231639
 20
-10.4025267556
 10
-2.041478169
 20
-10.4014581249
 10
-2.0443435129
 20
-10.4003407223
 10
-2.0486582917
 20
-10.3985832588
 10
-2.0529926694
 20
-10.3967413942
 10
-2.0573466035
 20
-10.3948299074
 10
-2.0617200517
 20
-10.392863577
  0
LWPOLYLINE
  5
343
100
AcDbEntity
  8
0
100
AcDbPolyline
 62
253
  6
CONTINUOUS
 90
25
 70
0
 10
-1.9889800203
 20
-10.378072382
 10
-1.9905471496
 20
-10.3785945938
 10
-1.9921294285
 20
-10.3790798273
 10
-1.9937272763
 20
-10.37952758
 10
-1.9953411119
 20
-10.3799373491
 10
-1.9969713547
 20
-10.3803086318
 10
-1.9986184237
 20
-10.3806409255
 10
-2.0002827381
 20
-10.3809337274
 10
-2.0019647172
 20
-10.3811865349
 10
-2.0036647799
 20
-10.3813988452
 10
-2.0053833455
 20
-10.3815701556
 10
-2.0071208332
 20
-10.3816999634
 10
-2.0086060905
 20
-10.3817769202
 10
-2.0101053631
 20
-10.3818229469
 10
-2.0116188181
 20
-10.3818371882
 10
-2.013146623
 20
-10.3818187887
 10
-2.0146889451
 20
-10.3817668932
 10
-2.0162459516
 20
-10.3816806463
 10
-2.01781781
 20
-10.3815591928
 10
-2.0194046875
 20
-10.3814016773
 10
-2.0210067515
 20
-10.3812072445
 10
-2.0226241694
 20
-10.3809750392
 10
-2.0242571084
 20
-10.380704206
 10
-2.0259057359
 20
-10.3803938897
 10
-2.0275702192
 20
-10.3800432348
  0
LINE
  5
344
100
AcDbEntity
  8
0
100
AcDbLine
 62
253
  6
CONTINUOUS
 10
-2.63458063
 20
9.0952872976
 11
-2.60880727
 21
9.1021295868
  0
LWPOLYLINE
  5
345
100
AcDbEntity
  8
0
100
AcDbPolyline
 62
253
  6
CONTINUOUS
 90
23
 70
0
 10
-2.60880727
 20
9.1021295868
 10
-2.6076227484
 20
9.1020846988
 10
-2.606431167
 20
9.102011104
 10
-2.6052327797
 20
9.101909482
 10
-2.6040278405
 20
9.1017805123
 10
-2.6028166033
 20
9.1016248743
 10
-2.601599322
 20
9.1014432475
 10
-2.6003762507
 20
9.1012363114
 10
-2.5991476433
 20
9.1010047455
 10
-2.5979137538
 20
9.1007492293
 10
-2.5966748361
 20
9.1004704423
 10
-2.5954311441
 20
9.100169064
 10
-2.5941829318
 20
9.0998457737
 10
-2.5926793825
 20
9.099429771
 10
-2.5911696156
 20
9.0989838424
 10
-2.5896535573
 20
9.0985086366
 10
-2.5881311335
 20
9.0980048024
 10
-2.5866022702
 20
9.0974729884
 10
-2.5850668935
 20
9.0969138435
 10
-2.5835249294
 20
9.0963280164
 10
-2.5819763038
 20
9.0957161557
 10
-2.5804209429
 20
9.0950789102
 10
-2.5788587725
 20
9.0944169286
  0
LINE
  5
346
100
AcDbEntity
  8
0
100
AcDbLine
 62
7
  6
CONTINUOUS
 10
9.1272138104
 20
-21.14562731
 11
9.6738825351
 21
-13.8153445822
  0
LWPOLYLINE
  5
347
100
AcDbEntity
  8
0
100
AcDbPolyline
 62
253
  6
CONTINUOUS
 90
9
 70
0
 10
-9.3537140559
 20
20.4582542851
 10
-9.3842590067
 20
20.4803026511
 10
-9.4108610369
 20
20.5038079569
 10
-9.4332622154
 20
20.5285422971
 10
-9.4512453424
 20
20.5542658497
 10
-9.4646360549
 20
20.5807292012
 10
-9.4733045177
 20
20.6076757652
 10
-9.4771666823
 20
20.6348442702
 10
-9.4772930986
 20
20.6481097363
  0
LINE
  5
348
100
AcDbEntity
  8
0
100
AcDbLine
 62
7
  6
CONTINUOUS
 10
6.8338789368
 20
16.0023561784
 11
6.1612340718
 21
15.8724856567
  0
LWPOLYLINE
  5
349
100
AcDbEntity
  8
0
100
AcDbPolyline
 62
253
  6
CONTINUOUS
 90
16
 70
0
 10
5.3949841774
 20
11.9425507496
 10
5.4335957617
 20
11.9246687967
 10
5.475020466
 20
11.9088960126
 10
5.5188566477
 20
11.8953853256
 10
5.5646792834
 20
11.8842677318
 10
5.6120440895
 20
11.8756510242
 10
5.66049183
 20
11.8696187477
 10
5.7095527691
 20
11.8662293896
 10
5.7587512253
 20
11.8655158123
 10
5.8076101842
 20
11.8674849343
 10
5.8556559228
 20
11.8721176636
 10
5.9024226029
 20
11.8793690825
 10
5.9474567878
 20
11.8891688833
 10
5.9903218386
 20
11.9014220499
 10
6.0306021474
 20
11.9160097788
 10
6.0679071677
 20
11.9327906316
  0
LINE
  5
34A
100
AcDbEntity
  8
0
100
AcDbLine
 62
253
  6
CONTINUOUS
 10
6.188122463
 20
13.3502043587
 11
5.6799765946
 21
13.6056119506
  0
LWPOLYLINE
  5
34B
100
AcDbEntity
  8
0
100
AcDbPolyline
 62
253
  6
CONTINUOUS
 90
31
 70
0
 10
5.3949757486
 20
11.9425456083
 10
4.886196839
 20
12.1996900525
 10
4.3795995357
 20
12.458039573
 10
3.8751903669
 20
12.717588176
 10
3.3730931392
 20
12.9782687037
 10
2.8731960366
 20
13.240135741
 10
2.3751561194
 20
13.503368444
 10
1.8788233073
 20
13.7680490667
 10
1.3843694974
 20
14.0340889948
 10
0.8919371204
 20
14.3014125965
 10
0.4015678591
 20
14.5699970865
 10
-0.0867630482
 20
14.8398558335
 10
-0.5730148982
 20
15.1109661812
 10
-1.0572459425
 20
15.3833607942
 10
-1.5393811163
 20
15.6569975434
 10
-2.0191831439
 20
15.9317395941
 10
-2.4963397493
 20
16.2074019678
 10
-2.9711560072
 20
16.484154701
 10
-3.4443146932
 20
16.7623969
 10
-3.9149125068
 20
17.0415958852
 10
-4.3838333226
 20
17.3222764584
 10
-4.8543864322
 20
17.6064542365
 10
-5.3257267474
 20
17.8936696154
 10
-5.7985868903
 20
18.1844248639
 10
-6.2785164456
 20
18.4822470336
 10
-6.7655324988
 20
18.7873023158
 10
-7.259323774
 20
19.0995610697
 10
-7.7647835829
 20
19.4223427121
 10
-8.2833464928
 20
19.7568480136
 10
-8.8130750351
 20
20.1021129426
 10
-9.3537140577
 20
20.4582542729
  0
LWPOLYLINE
  5
34C
100
AcDbEntity
  8
0
100
AcDbPolyline
 62
253
  6
CONTINUOUS
 90
30
 70
0
 10
5.6799765946
 20
13.6056119506
 10
5.1740845266
 20
13.8622713635
 10
4.6704462589
 20
14.1201825974
 10
4.1691978027
 20
14.3792750308
 10
3.6702031469
 20
14.6396192853
 10
3.1730542576
 20
14.9014272255
 10
2.6775463436
 20
15.164805023
 10
2.183884196
 20
15.4296465063
 10
1.6922741557
 20
15.6958450256
 10
1.2027720441
 20
15.9633722603
 10
0.7153220396
 20
16.232256531
 10
0.2299630187
 20
16.5024761492
 10
-0.2533764238
 20
16.7740738052
 10
-0.7346248827
 20
17.0470068088
 10
-1.2135292661
 20
17.3211254005
 10
-1.6897914189
 20
17.5962538888
 10
-2.1637094962
 20
17.8725679651
 10
-2.6359248709
 20
18.1504449442
 10
-3.1055441723
 20
18.429311766
 10
-3.573460771
 20
18.7097414905
 10
-4.0429961521
 20
18.9938306126
 10
-4.5134497387
 20
19.2810462348
 10
-4.9855221077
 20
19.5719212545
 10
-5.4646364749
 20
19.8701508583
 10
-5.9511264209
 20
20.1758025867
 10
-6.4446583651
 20
20.4888088993
 10
-6.9496547814
 20
20.8126623609
 10
-7.4675898279
 20
21.1485271601
 10
-7.9969893464
 20
21.4952391083
 10
-8.5378533371
 20
21.8527982056
  0
LWPOLYLINE
  5
34D
100
AcDbEntity
  8
0
100
AcDbPolyline
 62
253
  6
CONTINUOUS
 90
16
 70
0
 10
6.1881224629
 20
13.3502043587
 10
6.2241713931
 20
13.3261061701
 10
6.2600284272
 20
13.2979295962
 10
6.2953013922
 20
13.2659828076
 10
6.3296045033
 20
13.2306152103
 10
6.3625625832
 20
13.1922136242
 10
6.3938151657
 20
13.1511980523
 10
6.4230204373
 20
13.1080170869
 10
6.4498589764
 20
13.0631430037
 10
6.4740372466
 20
13.0170665961
 10
6.4952908071
 20
12.9702918074
 10
6.513387205
 20
12.9233302192
 10
6.528128518
 20
12.8766954563
 10
6.5393535184
 20
12.8308975689
 10
6.5469394369
 20
12.7864374541
 10
6.5508033055
 20
12.7438013776
  0
LWPOLYLINE
  5
34E
100
AcDbEntity
  8
0
100
AcDbPolyline
 62
253
  6
CONTINUOUS
 90
9
 70
0
 10
-8.5378533371
 20
21.8527982056
 10
-8.5756282035
 20
21.8713248801
 10
-8.6127874837
 20
21.8853068468
 10
-8.6489247558
 20
21.8945911971
 10
-8.6836447893
 20
21.8990764036
 10
-8.7165678347
 20
21.8987134248
 10
-8.747333783
 20
21.8935062563
 10
-8.7756061495
 20
21.8835118841
 10
-8.7977037088
 20
21.8711603812
  0
LINE
  5
34F
100
AcDbEntity
  8
0
100
AcDbLine
 62
7
  6
CONTINUOUS
 10
5.9680489066
 20
15.8980944919
 11
3.5857638105
 21
17.2735960493
  0
LINE
  5
350
100
AcDbEntity
  8
0
100
AcDbLine
 62
7
  6
CONTINUOUS
 10
-1.9515470427
 20
20.4707699371
 11
-4.3338321388
 21
21.8462714946
  0
LINE
  5
351
100
AcDbEntity
  8
0
100
AcDbLine
 62
7
  6
CONTINUOUS
 10
8.7424267229
 20
14.9003846064
 11
6.8338789368
 21
16.0023561784
  0
LINE
  5
352
100
AcDbEntity
  8
0
100
AcDbLine
 62
7
  6
CONTINUOUS
 10
3.7142346498
 20
17.8035996913
 11
-1.0857170125
 21
20.5750316236
  0
LINE
  5
353
100
AcDbEntity
  8
0
100
AcDbLine
 62
7
  6
CONTINUOUS
 10
-4.2053612995
 20
22.3762751366
 11
-6.1139090856
 21
23.4782467086
  0
LINE
  5
354
100
AcDbEntity
  8
0
100
AcDbLine
 62
7
  6
CONTINUOUS
 10
-1.0857170125
 20
20.5750316236
 11
-1.7583618775
 21
20.445161102
  0
LWPOLYLINE
  5
355
100
AcDbEntity
  8
0
100
AcDbPolyline
 62
253
  6
CONTINUOUS
 90
9
 70
0
 10
6.4262535964
 20
-22.6451361171
 10
6.4498605093
 20
-22.6312128196
 10
6.474038577
 20
-22.6109898166
 10
6.4952918751
 20
-22.5862276119
 10
6.5133879837
 20
-22.5571970603
 10
6.528129014
 20
-22.5242156902
 10
6.5393537685
 20
-22.4876442389
 10
6.5469395064
 20
-22.4478827095
 10
6.5508032885
 20
-22.4053659873
  0
LINE
  5
356
100
AcDbEntity
  8
0
100
AcDbLine
 62
253
  6
CONTINUOUS
 10
9.1272138104
 20
-21.14562731
 11
6.5508032885
 21
-22.4053659873
  0
LINE
  5
357
100
AcDbEntity
  8
0
100
AcDbLine
 62
7
  6
CONTINUOUS
 10
8.9903232632
 20
-21.3914315141
 11
6.4262535964
 21
-22.6451361171
  0
LWPOLYLINE
  5
358
100
AcDbEntity
  8
0
100
AcDbPolyline
 62
253
  6
CONTINUOUS
 90
22
 70
0
 10
6.5508032885
 20
-22.4053659873
 10
6.5149525039
 20
-22.4214556637
 10
6.4797059195
 20
-22.4344862465
 10
6.4450635353
 20
-22.4444577359
 10
6.4108438591
 20
-22.4513969812
 10
6.377228383
 20
-22.455277133
 10
6.3447615836
 20
-22.4560176428
 10
6.3134763446
 20
-22.4535639587
 10
6.2833397822
 20
-22.4479706327
 10
6.2547977218
 20
-22.4393207723
 10
6.2278738764
 20
-22.4275673807
 10
6.2025445331
 20
-22.4127574549
 10
6.179184378
 20
-22.395115093
 10
6.1578248336
 20
-22.3745988469
 10
6.1384344775
 20
-22.3512501647
 10
6.1212937284
 20
-22.3254174887
 10
6.1064347507
 20
-22.2970474132
 10
6.0938253801
 20
-22.266193344
 10
6.0836495429
 20
-22.23336394
 10
6.0759685479
 20
-22.1987287544
 10
6.0707210864
 20
-22.1621182341
 10
6.0679071583
 20
-22.1235323791
  0
ELLIPSE
  5
359
100
AcDbEntity
  8
0
100
AcDbEllipse
 62
7
  6
CONTINUOUS
 10
8.7735825715
 20
-20.9408387941
 30
0.0
 11
-0.2148753492
 21
0.4514925988
 31
0.0
 40
0.626010046
 41
-3.1349764991
 42
-2.3100583745
  0
ELLIPSE
  5
35A
100
AcDbEntity
  8
0
100
AcDbEllipse
 62
7
  6
CONTINUOUS
 10
9.320207949
 20
-3.4869214216
 30
0.0
 11
-0.2501454382
 21
0.4329727255
 31
0.0
 40
0.577463496
 41
-2.3564333972
 42
-0.7858655045
  0
ELLIPSE
  5
35B
100
AcDbEntity
  8
0
100
AcDbEllipse
 62
7
  6
CONTINUOUS
 10
-6.0833989523
 20
23.0893061342
 30
0.0
 11
-0.2806490066
 21
0.4138128862
 31
0.0
 40
0.5253010868
 41
-0.8257150379
 42
-0.0027521587
  0
ELLIPSE
  5
35C
100
AcDbEntity
  8
0
100
AcDbEllipse
 62
7
  6
CONTINUOUS
 10
8.7735825715
 20
14.511071204
 30
0.0
 11
-0.280860955
 21
0.4142191515
 31
0.0
 40
0.5243459323
 41
-2.3941007373
 42
-0.8246744066
  0
ELLIPSE
  5
35D
100
AcDbEntity
  8
0
100
AcDbEllipse
 62
7
  6
CONTINUOUS
 10
9.320207949
 20
-2.3438319442
 30
0.0
 11
-0.2502024655
 21
0.4330717124
 31
0.0
 40
0.5771997317
 41
-3.1590443311
 42
-2.3566615088
  0
ELLIPSE
  5
35E
100
AcDbEntity
  8
0
100
AcDbEllipse
 62
7
  6
CONTINUOUS
 10
6.1094702628
 20
15.9883072894
 30
0.0
 11
0.1999154856
 21
0.0095814127
 31
0.0
 40
0.6067642562
 41
-2.385266879
 42
-1.3380693278
  0
ELLIPSE
  5
35F
100
AcDbEntity
  8
0
100
AcDbEllipse
 62
7
  6
CONTINUOUS
 10
-1.8101256865
 20
20.5609827346
 30
0.0
 11
0.1999154856
 21
0.0095814127
 31
0.0
 40
0.6067642562
 41
-2.385266879
 42
-1.3380693278
  0
ELLIPSE
  5
360
100
AcDbEntity
  8
0
100
AcDbEllipse
 62
7
  6
CONTINUOUS
 10
3.7271851667
 20
17.3638088468
 30
0.0
 11
0.1999154856
 21
0.0095814127
 31
0.0
 40
0.6067642562
 41
2.850720877
 42
3.8979184282
  0
ELLIPSE
  5
361
100
AcDbEntity
  8
0
100
AcDbEllipse
 62
7
  6
CONTINUOUS
 10
-4.1924107826
 20
21.9364842921
 30
0.0
 11
0.1999154856
 21
0.0095814127
 31
0.0
 40
0.6067642562
 41
2.850720877
 42
3.8979184282
  0
ENDSEC
  0
SECTION
  2
OBJECTS
  0
DICTIONARY
  5
C
100
AcDbDictionary
280
0
281
1
  3
ACAD_GROUP
350
D
  3
ACAD_MLINESTYLE
350
17
  3
ACAD_LAYOUT
350
1A
  3
ACAD_PLOTSETTINGS
350
19
  3
ACAD_PLOTSTYLENAME
350
E
  0
DICTIONARY
  5
D
102
{ACAD_REACTORS
330
C
102
}
100
AcDbDictionary
280
0
281
1
  0
ACDBDICTIONARYWDFLT
  5
E
102
{ACAD_REACTORS
330
C
102
}
100
AcDbDictionary
281
1
  3
Normal
350
F
100
AcDbDictionaryWithDefault
340
F
  0
DICTIONARY
  5
17
102
{ACAD_REACTORS
330
C
102
}
100
AcDbDictionary
280
0
281
1
  3
Standard
350
18
  0
DICTIONARY
  5
19
102
{ACAD_REACTORS
330
C
102
}
100
AcDbDictionary
281
1
  0
DICTIONARY
  5
1A
102
{ACAD_REACTORS
330
C
102
}
100
AcDbDictionary
281
1
  3
Model
350
362
  3
Layout1
350
363
  0
ACDBPLACEHOLDER
  5
F
102
{ACAD_REACTORS
330
E
102
}
  0
MLINESTYLE
  5
18
102
{ACAD_REACTORS
330
17
102
}
100
AcDbMlineStyle
  2
STANDARD
 70
0
  3

 62
256
 51
90.0
 52
90.0
 71
2
 49
0.5
 62
256
  6
BYLAYER
 49
-0.5
 62
256
  6
BYLAYER
  0
LAYOUT
  5
362
102
{ACAD_REACTORS
330
1A
102
}
100
AcDbPlotSettings
  1

  2
none_device
  4
ISO_A4_(297.00_x_210.00_MM)
  6

 40
0.0
 41
0.0
 42
0.0
 43
0.0
 44
297.0
 45
210.0
 46
0.0
 47
0.0
 48
0.0
 49
0.0
140
0.0
141
0.0
142
1.0
143
1.0
 70
1024
 72
1
 73
0
 74
0
  7

 75
0
147
1.0
148
0.0
149
0.0
100
AcDbLayout
  1
Model
 70
0
 71
0
 10
0.0
 20
0.0
 11
297.0
 21
210.0
 12
0.0
 22
0.0
 32
0.0
 14
0.0
 24
0.0
 34
0.0
 15
0.0
 25
0.0
 35
0.0
146
0.0
 13
0.0
 23
0.0
 33
0.0
 16
1.0
 26
0.0
 36
0.0
 17
0.0
 27
1.0
 37
0.0
 76
0
330
220
345
0
346
0
  0
LAYOUT
  5
363
102
{ACAD_REACTORS
330
1A
102
}
100
AcDbPlotSettings
  1

  2
none_device
  4
ISO_A4_(297.00_x_210.00_MM)
  6

 40
0.0
 41
0.0
 42
0.0
 43
0.0
 44
297.0
 45
210.0
 46
0.0
 47
0.0
 48
0.0
 49
0.0
140
0.0
141
0.0
142
1.0
143
1.0
 70
0
 72
1
 73
0
 74
0
  7

 75
0
147
1.0
148
0.0
149
0.0
100
AcDbLayout
  1
Layout1
 70
0
 71
1
 10
0.0
 20
0.0
 11
297.0
 21
210.0
 12
0.0
 22
0.0
 32
0.0
 14
0.0
 24
0.0
 34
0.0
 15
0.0
 25
0.0
 35
0.0
146
0.0
 13
0.0
 23
0.0
 33
0.0
 16
1.0
 26
0.0
 36
0.0
 17
0.0
 27
1.0
 37
0.0
 76
0
330
221
345
0
346
0
  0
ENDSEC
  0
EOF
