  0
SECTION
  2
HEADER
  9
$ACADVER
  1
AC1021
  9
$DWGCODEPAGE
  3
ANSI_1252
  9
$EXTMAX
 10
297.0
 20
210.0
 30
0.0
  9
$EXTMIN
 10
0.0
 20
0.0
 30
0.0
  9
$LIMMIN
 10
0.0
 20
0.0
  9
$LIMMAX
 10
297.0
 20
210.0
  9
$VIEWCTR
 10
148.5
 20
105.0
  9
$VIEWSIZE
 40
210.0
  9
$CLAYER
  8
0
  9
$LTSCALE
 40
16.335
  9
$CELTYPE
  6
BYLAYER
  9
$DIMSCALE
 40
1.0
  9
$DIMASZ
 40
3.0
  9
$DIMEXO
 40
0.5
  9
$DIMDLI
 40
11.286
  9
$DIMEXE
 40
1.5
  9
$DIMCEN
 40
2.673
  9
$DIMLFAC
 40
1.0
  9
$DIMBLK
  1
_FILLED
  9
$DIMALT
 70
0
  9
$DIMALTF
 40
25.4
  9
$DIMTXT
 40
3.0
  9
$DIMTOL
 70
1
  9
$DIMLIM
 70
0
  9
$DIMTFAC
 40
1.0
  9
$DIMTP
 40
0.01
  9
$DIMTM
 40
0.01
  9
$DIMGAP
 40
0.625
  9
$DIMDSEP
 70
44
  9
$AUNITS
 70
0
  9
$PDMODE
 70
3
  9
$PDSIZE
 40
3.0
  9
$HANDSEED
  5
329
  9
$TILEMODE
 70
1
  9
$MEASUREMENT
 70
1
  9
$INSUNITS
 70
4
  0
ENDSEC
  0
SECTION
  2
CLASSES
  0
CLASS
  1
ACDBDICTIONARYWDFLT
  2
AcDbDictionaryWithDefault
  3
AutoCAD 2000
 90
0
 91
1
280
0
281
0
  0
CLASS
  1
ACDBPLACEHOLDER
  2
AcDbPlaceHolder
  3
AutoCAD 2000
 90
0
 91
1
280
0
281
0
  0
CLASS
  1
LAYOUT
  2
AcDbLayout
  3
AutoCAD 2000
 90
0
 91
0
280
0
281
0
  0
ENDSEC
  0
SECTION
  2
TABLES
  0
TABLE
  2
VPORT
  5
8
100
AcDbSymbolTable
 70
2
  0
VPORT
  5
1F4
100
AcDbSymbolTableRecord
100
AcDbViewportTableRecord
  2
*ACTIVE
 70
0
 10
0.0
 20
0.0
 11
1.0
 21
1.0
 12
148.5
 22
105.0
 13
0.0
 23
0.0
 14
1.0
 24
1.0
 15
0.0
 25
0.0
 16
0.0
 26
0.0
 36
1.0
 17
0.0
 27
0.0
 37
0.0
 40
210.0
 41
1.4142857143
 42
50.0
 43
0.0
 44
0.0
 50
0.0
 51
0.0
 71
0
 72
100
 73
1
 74
1
 75
0
 76
0
 77
0
 78
0
  0
ENDTAB
  0
TABLE
  2
LTYPE
  5
5
100
AcDbSymbolTable
 70
6
  0
LTYPE
  5
14
100
AcDbSymbolTableRecord
100
AcDbLinetypeTableRecord
  2
BYBLOCK
 70
0
  3

 72
65
 73
0
 40
0.0
  0
LTYPE
  5
15
100
AcDbSymbolTableRecord
100
AcDbLinetypeTableRecord
  2
BYLAYER
 70
0
  3

 72
65
 73
0
 40
0.0
  0
LTYPE
  5
16
100
AcDbSymbolTableRecord
100
AcDbLinetypeTableRecord
  2
CONTINUOUS
 70
64
  3
Solid line
 72
65
 73
0
 40
0.0
  0
LTYPE
  5
1F5
100
AcDbSymbolTableRecord
100
AcDbLinetypeTableRecord
  2
CENTER
 70
64
  3
____ _ ____ _ ____ _ ____ _ ____ _ ____ _ ____
 72
65
 73
4
 40
0.6
 49
0.375
 74
0
 49
-0.075
 74
0
 49
0.075
 74
0
 49
-0.075
 74
0
  0
LTYPE
  5
1F6
100
AcDbSymbolTableRecord
100
AcDbLinetypeTableRecord
  2
HIDDEN
 70
64
  3
- - - - - - - - - - - - - - - - - - - -
 72
65
 73
2
 40
0.2
 49
0.1
 74
0
 49
-0.1
 74
0
  0
LTYPE
  5
1F7
100
AcDbSymbolTableRecord
100
AcDbLinetypeTableRecord
  2
PHANTOM
 70
64
  3
_____ _ _ _____ _ _ _____ _ _ _____
 72
65
 73
6
 40
0.8
 49
0.45
 74
0
 49
-0.05
 74
0
 49
0.1
 74
0
 49
-0.05
 74
0
 49
0.1
 74
0
 49
-0.05
 74
0
  0
LTYPE
  5
1F8
100
AcDbSymbolTableRecord
100
AcDbLinetypeTableRecord
  2
DOT
 70
64
  3
. . . . . . . . . . . . . . . . . . . .
 72
65
 73
2
 40
0.2
 49
0.1
 74
0
 49
-0.1
 74
0
  0
LTYPE
  5
1F9
100
AcDbSymbolTableRecord
100
AcDbLinetypeTableRecord
  2
DASHED
 70
64
  3
- - - - - - - - - - - - - - - - - - - -
 72
65
 73
2
 40
0.2
 49
0.1
 74
0
 49
-0.1
 74
0
  0
ENDTAB
  0
TABLE
  2
LAYER
  5
2
100
AcDbSymbolTable
 70
36
  0
LAYER
  5
10
100
AcDbSymbolTableRecord
100
AcDbLayerTableRecord
  2
0
 70
0
 62
7
  6
CONTINUOUS
370
-3
390
F
  0
LAYER
  5
1FA
100
AcDbSymbolTableRecord
100
AcDbLayerTableRecord
  2
DEFAULT_1
 70
0
 62
7
  6
CENTER
370
-3
390
F
  0
LAYER
  5
1FB
100
AcDbSymbolTableRecord
100
AcDbLayerTableRecord
  2
DEFAULT_2
 70
0
 62
7
  6
HIDDEN
370
-3
390
F
  0
LAYER
  5
1FC
100
AcDbSymbolTableRecord
100
AcDbLayerTableRecord
  2
DEFAULT_3
 70
0
 62
7
  6
PHANTOM
370
-3
390
F
  0
LAYER
  5
1FD
100
AcDbSymbolTableRecord
100
AcDbLayerTableRecord
  2
ASSI
 70
0
 62
7
  6
CONTINUOUS
370
-3
390
F
  0
LAYER
  5
1FE
100
AcDbSymbolTableRecord
100
AcDbLayerTableRecord
  2
COLOR3
 70
0
 62
7
  6
CONTINUOUS
370
-3
390
F
  0
LAYER
  5
1FF
100
AcDbSymbolTableRecord
100
AcDbLayerTableRecord
  2
COORDINATE
 70
0
 62
7
  6
CONTINUOUS
370
-3
390
F
  0
LAYER
  5
200
100
AcDbSymbolTableRecord
100
AcDbLayerTableRecord
  2
COPY_PUBLISH
 70
0
 62
7
  6
CONTINUOUS
370
-3
390
F
  0
LAYER
  5
201
100
AcDbSymbolTableRecord
100
AcDbLayerTableRecord
  2
COSMETIC
 70
0
 62
7
  6
CONTINUOUS
370
-3
390
F
  0
LAYER
  5
202
100
AcDbSymbolTableRecord
100
AcDbLayerTableRecord
  2
COSMETICI
 70
0
 62
7
  6
CONTINUOUS
370
-3
390
F
  0
LAYER
  5
203
100
AcDbSymbolTableRecord
100
AcDbLayerTableRecord
  2
CURVE
 70
0
 62
7
  6
CONTINUOUS
370
-3
390
F
  0
LAYER
  5
204
100
AcDbSymbolTableRecord
100
AcDbLayerTableRecord
  2
DRAFT
 70
0
 62
7
  6
CONTINUOUS
370
-3
390
F
  0
LAYER
  5
205
100
AcDbSymbolTableRecord
100
AcDbLayerTableRecord
  2
IMPORT_IGES
 70
0
 62
7
  6
CONTINUOUS
370
-3
390
F
  0
LAYER
  5
206
100
AcDbSymbolTableRecord
100
AcDbLayerTableRecord
  2
INTFCLR_1
 70
0
 62
7
  6
CONTINUOUS
370
-3
390
F
  0
LAYER
  5
207
100
AcDbSymbolTableRecord
100
AcDbLayerTableRecord
  2
INTF_10
 70
0
 62
7
  6
CONTINUOUS
370
-3
390
F
  0
LAYER
  5
208
100
AcDbSymbolTableRecord
100
AcDbLayerTableRecord
  2
INTF_13
 70
0
 62
7
  6
CONTINUOUS
370
-3
390
F
  0
LAYER
  5
209
100
AcDbSymbolTableRecord
100
AcDbLayerTableRecord
  2
INTF_15
 70
0
 62
7
  6
CONTINUOUS
370
-3
390
F
  0
LAYER
  5
20A
100
AcDbSymbolTableRecord
100
AcDbLayerTableRecord
  2
INTF_16
 70
0
 62
7
  6
CONTINUOUS
370
-3
390
F
  0
LAYER
  5
20B
100
AcDbSymbolTableRecord
100
AcDbLayerTableRecord
  2
INTF_18
 70
0
 62
7
  6
CONTINUOUS
370
-3
390
F
  0
LAYER
  5
20C
100
AcDbSymbolTableRecord
100
AcDbLayerTableRecord
  2
INTF_20
 70
0
 62
7
  6
CONTINUOUS
370
-3
390
F
  0
LAYER
  5
20D
100
AcDbSymbolTableRecord
100
AcDbLayerTableRecord
  2
INTF_3
 70
0
 62
7
  6
CONTINUOUS
370
-3
390
F
  0
LAYER
  5
20E
100
AcDbSymbolTableRecord
100
AcDbLayerTableRecord
  2
INTF_5
 70
0
 62
7
  6
CONTINUOUS
370
-3
390
F
  0
LAYER
  5
20F
100
AcDbSymbolTableRecord
100
AcDbLayerTableRecord
  2
INTF_8
 70
0
 62
7
  6
CONTINUOUS
370
-3
390
F
  0
LAYER
  5
210
100
AcDbSymbolTableRecord
100
AcDbLayerTableRecord
  2
LIVELLO_1
 70
0
 62
7
  6
CONTINUOUS
370
-3
390
F
  0
LAYER
  5
211
100
AcDbSymbolTableRecord
100
AcDbLayerTableRecord
  2
NOTE
 70
0
 62
7
  6
CONTINUOUS
370
-3
390
F
  0
LAYER
  5
212
100
AcDbSymbolTableRecord
100
AcDbLayerTableRecord
  2
PIANI
 70
0
 62
7
  6
CONTINUOUS
370
-3
390
F
  0
LAYER
  5
213
100
AcDbSymbolTableRecord
100
AcDbLayerTableRecord
  2
PUNTI
 70
0
 62
7
  6
CONTINUOUS
370
-3
390
F
  0
LAYER
  5
214
100
AcDbSymbolTableRecord
100
AcDbLayerTableRecord
  2
RACCORDO
 70
0
 62
7
  6
CONTINUOUS
370
-3
390
F
  0
LAYER
  5
215
100
AcDbSymbolTableRecord
100
AcDbLayerTableRecord
  2
SIMBOLI
 70
0
 62
7
  6
CONTINUOUS
370
-3
390
F
  0
LAYER
  5
216
100
AcDbSymbolTableRecord
100
AcDbLayerTableRecord
  2
SMUSSO
 70
0
 62
7
  6
CONTINUOUS
370
-3
390
F
  0
LAYER
  5
217
100
AcDbSymbolTableRecord
100
AcDbLayerTableRecord
  2
SNAPLINE
 70
0
 62
7
  6
CONTINUOUS
370
-3
390
F
  0
LAYER
  5
218
100
AcDbSymbolTableRecord
100
AcDbLayerTableRecord
  2
SOLIDO
 70
0
 62
7
  6
CONTINUOUS
370
-3
390
F
  0
LAYER
  5
219
100
AcDbSymbolTableRecord
100
AcDbLayerTableRecord
  2
SUPERFICI
 70
0
 62
7
  6
CONTINUOUS
370
-3
390
F
  0
LAYER
  5
21A
100
AcDbSymbolTableRecord
100
AcDbLayerTableRecord
  2
SUPERFICI_SKEL
 70
0
 62
7
  6
CONTINUOUS
370
-3
390
F
  0
LAYER
  5
21B
100
AcDbSymbolTableRecord
100
AcDbLayerTableRecord
  2
TRASH
 70
0
 62
7
  6
CONTINUOUS
370
-3
390
F
  0
LAYER
  5
21C
100
AcDbSymbolTableRecord
100
AcDbLayerTableRecord
  2
WHITE
 70
0
 62
7
  6
CONTINUOUS
370
-3
390
F
  0
LAYER
  5
21D
100
AcDbSymbolTableRecord
100
AcDbLayerTableRecord
  2
___SHELL
 70
0
 62
7
  6
CONTINUOUS
370
-3
390
F
  0
ENDTAB
  0
TABLE
  2
STYLE
  5
3
100
AcDbSymbolTable
 70
1
  0
STYLE
  5
11
100
AcDbSymbolTableRecord
100
AcDbTextStyleTableRecord
  2
STANDARD
 70
0
 40
0.0
 41
0.8
 50
0.0
 71
0
 42
0.2
  3
txt
  4

  0
STYLE
  5
21E
100
AcDbSymbolTableRecord
100
AcDbTextStyleTableRecord
  2
TEXTSTYLE_1
 70
0
 40
0.0
 41
0.8
 50
0.0
 71
0
 42
0.2
  3
gdt
  4

  0
ENDTAB
  0
TABLE
  2
VIEW
  5
6
100
AcDbSymbolTable
 70
0
  0
ENDTAB
  0
TABLE
  2
UCS
  5
7
100
AcDbSymbolTable
 70
0
  0
ENDTAB
  0
TABLE
  2
APPID
  5
9
100
AcDbSymbolTable
 70
1
  0
APPID
  5
21F
100
AcDbSymbolTableRecord
100
AcDbRegAppTableRecord
  2
ACAD
 70
0
  0
ENDTAB
  0
TABLE
  2
BLOCK_RECORD
  5
1
100
AcDbSymbolTable
 70
0
  0
BLOCK_RECORD
  5
220
100
AcDbSymbolTableRecord
100
AcDbBlockTableRecord
  2
*Model_Space
  0
BLOCK_RECORD
  5
221
100
AcDbSymbolTableRecord
100
AcDbBlockTableRecord
  2
*Paper_Space
  0
ENDTAB
  0
TABLE
  2
DIMSTYLE
  5
A
100
AcDbSymbolTable
 70
1
100
AcDbDimStyleTable
 71
0
  0
DIMSTYLE
105
222
100
AcDbSymbolTableRecord
100
AcDbDimStyleTableRecord
  2
STANDARD
 70
0
  3

  4

 40
1.0
 41
3.0
 42
0.5
 43
0.38
 44
1.5
 45
0.0
 46
0.0
 47
0.01
 48
0.01
140
3.0
141
0.09
142
0.0
143
25.4
144
1.0
145
0.0
146
1.0
147
0.625
 71
1.0
 72
0.0
 73
0
 74
0
 75
0
 76
0
 77
1
 78
8
170
0
171
1
172
0
173
0
174
0
175
0
176
0
177
0
178
0
270
2
271
2
272
2
273
2
274
2
275
0
280
0
281
0
282
0
283
1
284
8
285
0
286
0
287
3
288
0
340
11
278
44
  0
ENDTAB
  0
ENDSEC
  0
SECTION
  2
BLOCKS
  0
BLOCK
  5
20
100
AcDbEntity
  8
0
100
AcDbBlockBegin
  2
*Model_Space
 70
0
 10
0.0
 20
0.0
 30
0.0
  3
*Model_Space
  1

  0
ENDBLK
  5
21
100
AcDbEntity
  8
0
100
AcDbBlockEnd
  0
BLOCK
  5
1C
100
AcDbEntity
  8
0
100
AcDbBlockBegin
  2
*Paper_Space
 70
0
 10
0.0
 20
0.0
 30
0.0
  3
*Paper_Space
  1

  0
ENDBLK
  5
1D
100
AcDbEntity
  8
0
100
AcDbBlockEnd
  0
ENDSEC
  0
SECTION
  2
ENTITIES
  0
LWPOLYLINE
  5
223
100
AcDbEntity
  8
ASSI
100
AcDbPolyline
 62
7
  6
CONTINUOUS
 90
19
 70
0
 10
-18.3130029567
 20
25.0877174539
 10
-18.3517114775
 20
25.0606703204
 10
-18.4189867934
 20
25.008281635
 10
-18.483119508
 20
24.9514907727
 10
-18.5441333474
 20
24.890613044
 10
-18.60200554
 20
24.8259467773
 10
-18.6565512563
 20
24.7579053483
 10
-18.7076881154
 20
24.6867907866
 10
-18.7553031752
 20
24.6128570811
 10
-18.799118797
 20
24.5366091949
 10
-18.8390151044
 20
24.4583191098
 10
-18.8748310299
 20
24.3782336448
 10
-18.9063099877
 20
24.296863127
 10
-18.9332945355
 20
24.2144412305
 10
-18.9555928778
 20
24.131184424
 10
-18.9729710648
 20
24.0474452287
 10
-18.9851889718
 20
23.9633976687
 10
-18.9919857674
 20
23.8792130136
 10
-18.9925883048
 20
23.8646697497
  0
LINE
  5
224
100
AcDbEntity
  8
ASSI
100
AcDbLine
 62
7
  6
CONTINUOUS
 10
-15.8787531367
 20
26.7200847107
 11
-18.3131268749
 21
25.0876424026
  0
LINE
  5
225
100
AcDbEntity
  8
ASSI
100
AcDbLine
 62
253
  6
CONTINUOUS
 10
-15.6292136378
 20
26.6948081901
 11
-18.0531562662
 21
25.0693607755
  0
LWPOLYLINE
  5
226
100
AcDbEntity
  8
ASSI
100
AcDbPolyline
 62
253
  6
CONTINUOUS
 90
22
 70
0
 10
-18.0531562662
 20
25.0693607755
 10
-18.113444136
 20
25.0293796081
 10
-18.1732347045
 20
24.9849109173
 10
-18.2322177745
 20
24.9361670756
 10
-18.2900717828
 20
24.8833742397
 10
-18.3465130667
 20
24.8267934423
 10
-18.4012968544
 20
24.7667180713
 10
-18.4541433228
 20
24.7034338097
 10
-18.5047745672
 20
24.6372475884
 10
-18.552963913
 20
24.5685080638
 10
-18.5984636935
 20
24.4975506866
 10
-18.6410380572
 20
24.424716095
 10
-18.6804995518
 20
24.3503779473
 10
-18.7166474206
 20
24.2748980083
 10
-18.7492929914
 20
24.1986419321
 10
-18.7782928855
 20
24.12199812
 10
-18.8034993183
 20
24.045347234
 10
-18.8247828755
 20
23.969055198
 10
-18.8420547109
 20
23.8934892401
 10
-18.8552304711
 20
23.8190173398
 10
-18.864233677
 20
23.7460061059
 10
-18.8690162872
 20
23.674814074
  0
LINE
  5
227
100
AcDbEntity
  8
ASSI
100
AcDbLine
 62
7
  6
CONTINUOUS
 10
-13.7206658516
 20
25.5928366181
 11
-13.9009005
 21
25.1786546088
  0
LWPOLYLINE
  5
228
100
AcDbEntity
  8
ASSI
100
AcDbPolyline
 62
253
  6
CONTINUOUS
 90
11
 70
0
 10
-18.8690161961
 20
-10.4165182093
 10
-18.8642335841
 20
-10.4825059558
 10
-18.8552303764
 20
-10.5455750915
 10
-18.8420546147
 20
-10.6054136401
 10
-18.8247827789
 20
-10.66171754
 10
-18.8034992226
 20
-10.7142151262
 10
-18.7782927909
 20
-10.7626658091
 10
-18.7492928976
 20
-10.8068263273
 10
-18.7166473275
 20
-10.8464703955
 10
-18.6804994598
 20
-10.8814111611
 10
-18.6376156443
 20
-10.9137397649
  0
LWPOLYLINE
  5
229
100
AcDbEntity
  8
ASSI
100
AcDbPolyline
 62
253
  6
CONTINUOUS
 90
8
 70
0
 10
-19.184265206
 20
7.0557008353
 10
-19.1824702877
 20
7.0136588147
 10
-19.1761789744
 20
6.9747522705
 10
-19.165823626
 20
6.9389572703
 10
-19.1517793672
 20
6.9063183048
 10
-19.1339019274
 20
6.8770318069
 10
-19.1120744183
 20
6.8515182235
 10
-19.0872502686
 20
6.8305639568
  0
LWPOLYLINE
  5
22A
100
AcDbEntity
  8
ASSI
100
AcDbPolyline
 62
7
  6
CONTINUOUS
 90
13
 70
0
 10
-18.9925435654
 20
-10.2279546923
 10
-18.9921760156
 20
-10.2368302952
 10
-18.9853762247
 20
-10.3187679667
 10
-18.972695023
 20
-10.3972415591
 10
-18.9543384582
 20
-10.4720146342
 10
-18.9305176488
 20
-10.5430059793
 10
-18.9014353199
 20
-10.6100775721
 10
-18.8673706695
 20
-10.6729195534
 10
-18.8286211173
 20
-10.7313176452
 10
-18.7854956659
 20
-10.7850817803
 10
-18.7384367416
 20
-10.8338997467
 10
-18.6878761256
 20
-10.8775600922
 10
-18.6376440087
 20
-10.9137140465
  0
LINE
  5
22B
100
AcDbEntity
  8
ASSI
100
AcDbLine
 62
253
  6
CONTINUOUS
 10
-19.3018411536
 20
7.2417041135
 11
-19.3017507877
 21
7.2360039847
  0
LWPOLYLINE
  5
22C
100
AcDbEntity
  8
ASSI
100
AcDbPolyline
 62
7
  6
CONTINUOUS
 90
10
 70
0
 10
-19.3018411518
 20
6.0202890093
 10
-19.2961766259
 20
4.2490580717
 10
-19.2832131212
 20
2.4164107283
 10
-19.2630311838
 20
0.588163319
 10
-19.2356306203
 20
-1.2356446844
 10
-19.2010116087
 20
-3.0549762967
 10
-19.1591743325
 20
-4.8697954723
 10
-19.1101194634
 20
-6.6800621014
 10
-19.0538483851
 20
-8.4857306937
 10
-18.9925590146
 20
-10.2277636719
  0
LWPOLYLINE
  5
22D
100
AcDbEntity
  8
ASSI
100
AcDbPolyline
 62
253
  6
CONTINUOUS
 90
10
 70
0
 10
-19.1842651903
 20
5.8343346206
 10
-19.1789600545
 20
4.1553248604
 10
-19.1672829806
 20
2.4534554613
 10
-19.1489361179
 20
0.7289337789
 10
-19.1238208732
 20
-1.0054609415
 10
-19.0915252525
 20
-2.7621353078
 10
-19.0508301871
 20
-4.5783842453
 10
-19.0005997255
 20
-6.4661665036
 10
-18.9402747418
 20
-8.4124013131
 10
-18.8690163023
 20
-10.416518248
  0
LWPOLYLINE
  5
22E
100
AcDbEntity
  8
ASSI
100
AcDbPolyline
 62
7
  6
CONTINUOUS
 90
10
 70
0
 10
-18.9925881956
 20
23.8648949729
 10
-19.0536931392
 20
22.0540451463
 10
-19.1099792907
 20
20.1800944919
 10
-19.1590504313
 20
18.3103059341
 10
-19.200905149
 20
16.4447245394
 10
-19.2355427684
 20
14.5833893923
 10
-19.2629627742
 20
12.7263381432
 10
-19.2831648659
 20
10.8736092534
 10
-19.2961491622
 20
9.0252425744
 10
-19.3018411536
 20
7.2417041135
  0
LWPOLYLINE
  5
22F
100
AcDbEntity
  8
ASSI
100
AcDbPolyline
 62
253
  6
CONTINUOUS
 90
13
 70
0
 10
-18.8690163061
 20
23.6748140765
 10
-18.9197302378
 20
22.2167632929
 10
-18.9652884013
 20
20.784726676
 10
-19.0059043136
 20
19.3786086075
 10
-19.0415999946
 20
18.0059795414
 10
-19.0728140121
 20
16.6590541761
 10
-19.1001815607
 20
15.3148113989
 10
-19.1237052788
 20
13.973301072
 10
-19.1433919746
 20
12.6344987135
 10
-19.1594865157
 20
11.2754901686
 10
-19.1718492743
 20
9.8887725542
 10
-19.180176907
 20
8.4821313592
 10
-19.1842651902
 20
7.0557008164
  0
LWPOLYLINE
  5
230
100
AcDbEntity
  8
ASSI
100
AcDbPolyline
 62
253
  6
CONTINUOUS
 90
16
 70
0
 10
-19.1842652055
 20
5.83433464
 10
-19.1824702233
 20
5.8788183758
 10
-19.1761784563
 20
5.9235997183
 10
-19.1658223958
 20
5.9688469296
 10
-19.1517773318
 20
6.0151302018
 10
-19.1338990394
 20
6.0621221429
 10
-19.1120706299
 20
6.1084110092
 10
-19.0870878505
 20
6.1535246399
 10
-19.0592498321
 20
6.1975214492
 10
-19.0282262432
 20
6.2394872004
 10
-18.9947948808
 20
6.2789664123
 10
-18.9596530973
 20
6.3158089935
 10
-18.9224240359
 20
6.349361538
 10
-18.8834961403
 20
6.3791915313
 10
-18.8440598702
 20
6.4052345278
 10
-18.8049268719
 20
6.4273783213
  0
LWPOLYLINE
  5
231
100
AcDbEntity
  8
0
100
AcDbPolyline
 62
253
  6
CONTINUOUS
 90
37
 70
0
 10
-13.4622790029
 20
14.1083266133
 10
-13.45932423
 20
14.1099325163
 10
-13.4563134235
 20
14.1114104273
 10
-13.4532471915
 20
14.1127628934
 10
-13.4501261419
 20
14.1139924614
 10
-13.4469508827
 20
14.1151016785
 10
-13.4437220219
 20
14.1160930915
 10
-13.4404401673
 20
14.1169692475
 10
-13.437106235
 20
14.117732333
 10
-13.4337223724
 20
14.1183830935
 10
-13.4302910351
 20
14.118921914
 10
-13.4268146787
 20
14.1193491795
 10
-13.4232957585
 20
14.119665275
 10
-13.4197367301
 20
14.1198705856
 10
-13.4161400491
 20
14.1199654963
 10
-13.4125079754
 20
14.1199503128
 10
-13.4088419872
 20
14.1198250243
 10
-13.4051433671
 20
14.1195895405
 10
-13.4014133978
 20
14.1192437711
 10
-13.397653362
 20
14.1187876259
 10
-13.3938645422
 20
14.1182210148
 10
-13.3900482213
 20
14.1175438475
 10
-13.3862057332
 20
14.1167559033
 10
-13.3823386178
 20
14.1158564398
 10
-13.3784484665
 20
14.1148445841
 10
-13.3745368705
 20
14.1137194634
 10
-13.3706054211
 20
14.1124802048
 10
-13.3666557097
 20
14.1111259353
 10
-13.3626893276
 20
14.1096557822
 10
-13.3592060926
 20
14.1082733574
 10
-13.35571102
 20
14.106799194
 10
-13.3522038172
 20
14.1052309447
 10
-13.3486841918
 20
14.1035662626
 10
-13.3451518513
 20
14.1018028006
 10
-13.3416065034
 20
14.0999382118
 10
-13.3380478554
 20
14.097970149
 10
-13.334475615
 20
14.0958962654
  0
LWPOLYLINE
  5
232
100
AcDbEntity
  8
ASSI
100
AcDbPolyline
 62
253
  6
CONTINUOUS
 90
16
 70
0
 10
11.7895747029
 20
-28.1184044549
 10
11.8281867956
 20
-28.1357950368
 10
11.8696120968
 20
-28.1507416689
 10
11.9134489491
 20
-28.1630994294
 10
11.9592723128
 20
-28.1727484981
 10
12.0066378873
 20
-28.1795953184
 10
12.0550864186
 20
-28.1835735037
 10
12.1041481527
 20
-28.1846444818
 10
12.1533473896
 20
-28.1827978686
 10
12.2022070966
 20
-28.1780515687
 10
12.2502535326
 20
-28.170451602
 10
12.2970208421
 20
-28.1600716573
 10
12.342055572
 20
-28.1470123779
 10
12.3849210682
 20
-28.1314003859
 10
12.4252017093
 20
-28.1133870543
 10
12.4625069364
 20
-28.0931470392
  0
LWPOLYLINE
  5
233
100
AcDbEntity
  8
ASSI
100
AcDbPolyline
 62
7
  6
CONTINUOUS
 90
12
 70
0
 10
12.051779493
 20
-28.6335424469
 10
12.1079778349
 20
-28.6592320074
 10
12.171306562
 20
-28.6818455586
 10
12.2370606418
 20
-28.6989283932
 10
12.3048347963
 20
-28.7102957151
 10
12.3741658223
 20
-28.7158010624
 10
12.4450694287
 20
-28.715331392
 10
12.5172223231
 20
-28.7087356316
 10
12.5902308734
 20
-28.6959146496
 10
12.6641727219
 20
-28.6766629865
 10
12.7389278503
 20
-28.6507391937
 10
12.8206687939
 20
-28.6148341339
  0
LWPOLYLINE
  5
234
100
AcDbEntity
  8
ASSI
100
AcDbPolyline
 62
7
  6
CONTINUOUS
 90
10
 70
0
 10
4.4148067395
 20
-24.4966150579
 10
5.1971908398
 20
-24.9453204237
 10
6.0431000802
 20
-25.4237325148
 10
6.895360574
 20
-25.8988239156
 10
7.7539175559
 20
-26.3705635468
 10
8.6187227102
 20
-26.8389250514
 10
9.4897303097
 20
-27.3038838393
 10
10.3668932166
 20
-27.765414724
 10
11.2501608106
 20
-28.2234915155
 10
12.051614754
 20
-28.6334645951
  0
LINE
  5
235
100
AcDbEntity
  8
ASSI
100
AcDbLine
 62
7
  6
CONTINUOUS
 10
-11.4950432184
 20
-15.3104693178
 11
4.4148047642
 21
-24.4966161457
  0
LWPOLYLINE
  5
236
100
AcDbEntity
  8
ASSI
100
AcDbPolyline
 62
7
  6
CONTINUOUS
 90
10
 70
0
 10
-18.6375149255
 20
-10.9138059134
 10
-17.9379094447
 20
-11.3701327398
 10
-17.1484780598
 20
-11.8779624521
 10
-16.3525306448
 20
-12.3825578399
 10
-15.5501140285
 20
-12.8838916249
 10
-14.7412725825
 20
-13.3819385819
 10
-13.9260489987
 20
-13.8766744951
 10
-13.1044938382
 20
-14.3680713138
 10
-12.2766654782
 20
-14.856097253
 10
-11.4950411314
 20
-15.3104682926
  0
LWPOLYLINE
  5
237
100
AcDbEntity
  8
ASSI
100
AcDbPolyline
 62
253
  6
CONTINUOUS
 90
10
 70
0
 10
-18.8690163023
 20
-10.416518248
 10
-18.1611684328
 20
-10.8797727539
 10
-17.4369770241
 20
-11.3472731718
 10
-16.696221581
 20
-11.8188661499
 10
-15.9439863231
 20
-12.2910762601
 10
-15.1748272136
 20
-12.7671058934
 10
-14.3723572186
 20
-13.256609695
 10
-13.5305364982
 20
-13.7624528812
 10
-12.6540880477
 20
-14.2809362983
 10
-11.7423762499
 20
-14.8116387975
  0
LWPOLYLINE
  5
238
100
AcDbEntity
  8
ASSI
100
AcDbPolyline
 62
253
  6
CONTINUOUS
 90
8
 70
0
 10
-18.8690065728
 20
-10.4165129178
 10
-18.8995514965
 20
-10.3939733275
 10
-18.92615361
 20
-10.3696421192
 10
-18.9485549859
 20
-10.3437552022
 10
-18.9665384261
 20
-10.3165635696
 10
-18.9799295676
 20
-10.2883308646
 10
-18.9885985732
 20
-10.2593308243
 10
-18.9925435654
 20
-10.2279546923
  0
LINE
  5
239
100
AcDbEntity
  8
0
100
AcDbLine
 62
253
  6
CONTINUOUS
 10
-11.2941876763
 20
12.2036204562
 11
-10.740912248
 21
12.5231014178
  0
LINE
  5
23A
100
AcDbEntity
  8
0
100
AcDbLine
 62
253
  6
CONTINUOUS
 10
-13.5416172628
 20
10.9064584194
 11
-12.999723962
 21
11.2189066089
  0
LWPOLYLINE
  5
23B
100
AcDbEntity
  8
0
100
AcDbPolyline
 62
253
  6
CONTINUOUS
 90
37
 70
0
 10
-12.999723962
 20
11.2189066089
 10
-12.9967970361
 20
11.2205545816
 10
-12.9938110049
 20
11.2220711161
 10
-12.9907665703
 20
11.2234589711
 10
-12.9876644342
 20
11.2247209053
 10
-12.9845052987
 20
11.2258596774
 10
-12.9812898655
 20
11.2268780462
 10
-12.9780188368
 20
11.2277787704
 10
-12.9746932527
 20
11.2285642372
 10
-12.9713155068
 20
11.2292353476
 10
-12.9678883308
 20
11.229792631
 10
-12.9644144565
 20
11.2302366167
 10
-12.9608966156
 20
11.2305678342
 10
-12.95733754
 20
11.2307868128
 10
-12.9537399614
 20
11.230894082
 10
-12.9501063661
 20
11.2308900962
 10
-12.9464382581
 20
11.2307750105
 10
-12.9427368961
 20
11.2305489048
 10
-12.9390035387
 20
11.2302118593
 10
-12.9352394444
 20
11.229763954
 10
-12.9314458718
 20
11.229205269
 10
-12.9276240795
 20
11.2285358844
 10
-12.9237753827
 20
11.2277557361
 10
-12.9199013227
 20
11.2268641833
 10
-12.9160034975
 20
11.2258604415
 10
-12.912083505
 20
11.2247437256
 10
-12.9081429432
 20
11.2235132509
 10
-12.90418341
 20
11.2221682326
 10
-12.9002065034
 20
11.2207078859
 10
-12.8967134843
 20
11.219334562
 10
-12.8932080752
 20
11.2178700238
 10
-12.8896899643
 20
11.216311956
 10
-12.8861588396
 20
11.2146580435
 10
-12.8826143893
 20
11.2129059712
 10
-12.8790563015
 20
11.2110534238
 10
-12.8754842642
 20
11.2090980862
 10
-12.8718979657
 20
11.2070376432
  0
LWPOLYLINE
  5
23C
100
AcDbEntity
  8
0
100
AcDbPolyline
 62
253
  6
CONTINUOUS
 90
36
 70
0
 10
-10.740912248
 20
12.5231014178
 10
-10.7379185092
 20
12.5247581903
 10
-10.7348664916
 20
12.5262844389
 10
-10.7317568683
 20
12.5276828657
 10
-10.7285903119
 20
12.528956173
 10
-10.7253674954
 20
12.5301070629
 10
-10.7220890914
 20
12.5311382375
 10
-10.7187557728
 20
12.5320523992
 10
-10.7153685547
 20
12.5328518819
 10
-10.7119298206
 20
12.5335375472
 10
-10.7084422964
 20
12.5341098886
 10
-10.7049087079
 20
12.5345693997
 10
-10.7013317809
 20
12.534916574
 10
-10.6977142413
 20
12.5351519048
 10
-10.694058815
 20
12.5352758859
 10
-10.6903679857
 20
12.5352889375
 10
-10.68664327
 20
12.5351911877
 10
-10.6828859423
 20
12.5349826916
 10
-10.6790972772
 20
12.5346635042
 10
-10.675278549
 20
12.5342336803
 10
-10.6714310323
 20
12.5336932752
 10
-10.6675560016
 20
12.5330423436
 10
-10.6636547897
 20
12.5322808
 10
-10.6597289625
 20
12.5314079959
 10
-10.6557801444
 20
12.5304231422
 10
-10.6518099596
 20
12.5293254495
 10
-10.6478200324
 20
12.5281141289
 10
-10.6438119872
 20
12.526788391
 10
-10.6397874481
 20
12.5253474468
 10
-10.6357476941
 20
12.5237900685
 10
-10.6316926226
 20
12.5221132732
 10
-10.6276217857
 20
12.5203136397
 10
-10.6235347355
 20
12.5183877465
 10
-10.6194310239
 20
12.5163321724
 10
-10.6153102031
 20
12.514143496
 10
-10.611171825
 20
12.5118182958
  0
LWPOLYLINE
  5
23D
100
AcDbEntity
  8
0
100
AcDbPolyline
 62
253
  6
CONTINUOUS
 90
53
 70
0
 10
-12.7060389551
 20
12.7172287848
 10
-12.7100619529
 20
12.7150595534
 10
-12.7141656357
 20
12.713127952
 10
-12.7183579433
 20
12.7114248714
 10
-12.7226468155
 20
12.7099412023
 10
-12.727040192
 20
12.7086678356
 10
-12.7315444839
 20
12.707597698
 10
-12.7361599873
 20
12.7067318606
 10
-12.7408854697
 20
12.7060734302
 10
-12.7457196985
 20
12.7056255141
 10
-12.7506614412
 20
12.705391219
 10
-12.75570866
 20
12.7053736986
 10
-12.7608560954
 20
12.7055762919
 10
-12.7660976828
 20
12.7060023848
 10
-12.7714273574
 20
12.7066553627
 10
-12.7768390547
 20
12.7075386114
 10
-12.7814053606
 20
12.7084522201
 10
-12.7860105696
 20
12.7095253949
 10
-12.7906408365
 20
12.7107554406
 10
-12.7952860819
 20
12.7121408533
 10
-12.7999512907
 20
12.7136848939
 10
-12.8046452143
 20
12.715392015
 10
-12.8103237706
 20
12.7176608678
 10
-12.8160451383
 20
12.7201712952
 10
-12.8217981784
 20
12.7229236243
 10
-12.8275717515
 20
12.7259181824
 10
-12.8333547186
 20
12.7291552968
 10
-12.8391363115
 20
12.7326335479
 10
-12.8449072469
 20
12.7363445289
 10
-12.8506586125
 20
12.7402780861
 10
-12.856381496
 20
12.744424066
 10
-12.8620669851
 20
12.7487723149
 10
-12.8667721958
 20
12.7525451752
 10
-12.8714538792
 20
12.7564583759
 10
-12.8761206653
 20
12.7605188439
 10
-12.8807766905
 20
12.7647295138
 10
-12.8854081166
 20
12.7690773516
 10
-12.8899966116
 20
12.7735453309
 10
-12.8954243048
 20
12.7790441396
 10
-12.900755979
 20
12.7846777299
 10
-12.9059838339
 20
12.7904323978
 10
-12.911100069
 20
12.7962944388
 10
-12.9160968842
 20
12.8022501488
 10
-12.9209679184
 20
12.8082876009
 10
-12.9257125685
 20
12.8144019784
 10
-12.9303316704
 20
12.8205902419
 10
-12.9348260604
 20
12.8268493521
 10
-12.9391965746
 20
12.8331762696
 10
-12.9434451508
 20
12.8395715413
 10
-12.9475781337
 20
12.8460500581
 10
-12.9516029698
 20
12.8526302969
 10
-12.9555271053
 20
12.8593307349
 10
-12.9593579867
 20
12.8661698489
  0
LWPOLYLINE
  5
23E
100
AcDbEntity
  8
ASSI
100
AcDbPolyline
 62
253
  6
CONTINUOUS
 90
13
 70
0
 10
4.167456982
 20
-23.9977771098
 10
4.8096956086
 20
-24.3664911559
 10
5.4460527861
 20
-24.7277017823
 10
6.0763467685
 20
-25.0814938376
 10
6.6974908065
 20
-25.4263473552
 10
7.3121901182
 20
-25.763969025
 10
7.9290935926
 20
-26.0991999356
 10
8.5476407385
 20
-26.4317528466
 10
9.1683225052
 20
-26.7619191205
 10
9.8016592993
 20
-27.0952262563
 10
10.4513123191
 20
-27.4334051173
 10
11.1139084103
 20
-27.7744995163
 10
11.7895747017
 20
-28.1184044477
  0
LINE
  5
23F
100
AcDbEntity
  8
ASSI
100
AcDbLine
 62
253
  6
CONTINUOUS
 10
-11.7423782169
 20
-14.8116412315
 11
4.1674550151
 21
-23.9977795427
  0
LWPOLYLINE
  5
240
100
AcDbEntity
  8
ASSI
100
AcDbPolyline
 62
253
  6
CONTINUOUS
 90
12
 70
0
 10
12.0516178134
 20
-28.6334661499
 10
12.0103565318
 20
-28.6091980209
 10
11.9720093202
 20
-28.579785645
 10
11.9369036288
 20
-28.5454466186
 10
11.9051987434
 20
-28.5063456894
 10
11.8770691989
 20
-28.4626876992
 10
11.8526486818
 20
-28.4146907921
 10
11.8320434135
 20
-28.3625848389
 10
11.8153630571
 20
-28.306622451
 10
11.8026910172
 20
-28.2470747466
 10
11.7940814581
 20
-28.1842329024
 10
11.7895746985
 20
-28.1184044362
  0
LWPOLYLINE
  5
241
100
AcDbEntity
  8
ASSI
100
AcDbPolyline
 62
253
  6
CONTINUOUS
 90
8
 70
0
 10
-19.3017507877
 20
7.2360039847
 10
-19.2984632212
 20
7.2080364807
 10
-19.2904795732
 20
7.1803812176
 10
-19.277875343
 20
7.1532996921
 10
-19.2607697147
 20
7.1270479767
 10
-19.2393244365
 20
7.1018743056
 10
-19.2137422982
 20
7.0780167257
 10
-19.184265206
 20
7.0557008353
  0
LWPOLYLINE
  5
242
100
AcDbEntity
  8
0
100
AcDbPolyline
 62
253
  6
CONTINUOUS
 90
55
 70
0
 10
-14.1157393159
 20
12.7201303655
 10
-14.1154979735
 20
12.7264984577
 10
-14.115088225
 20
12.7327032323
 10
-14.1145123701
 20
12.7387623865
 10
-14.1137727089
 20
12.7446936174
 10
-14.1128715411
 20
12.7505146221
 10
-14.1118105444
 20
12.7562393974
 10
-14.1105889072
 20
12.7618671395
 10
-14.1092051958
 20
12.7673933441
 10
-14.1076579763
 20
12.7728135071
 10
-14.1059458149
 20
12.7781231242
 10
-14.1040675564
 20
12.7833167988
 10
-14.1020231607
 20
12.7883855636
 10
-14.0998128663
 20
12.7933195587
 10
-14.0974369117
 20
12.7981089245
 10
-14.0948955354
 20
12.8027438012
 10
-14.0926526409
 20
12.806480102
 10
-14.0903018385
 20
12.8100907429
 10
-14.0878499308
 20
12.8135641954
 10
-14.0853015975
 20
12.8168915847
 10
-14.0826530263
 20
12.8200746512
 10
-14.079898282
 20
12.8231177895
 10
-14.0770327982
 20
12.8260235213
 10
-14.0740574835
 20
12.828786878
 10
-14.0709746152
 20
12.8314010184
 10
-14.0677864709
 20
12.8338591013
 10
-14.0644953277
 20
12.8361542855
 10
-14.0611034633
 20
12.8382797297
 10
-14.0576136832
 20
12.8402298766
 10
-14.0540309064
 20
12.8420043037
 10
-14.0503605799
 20
12.8436038723
 10
-14.0466081511
 20
12.8450294439
 10
-14.0427790671
 20
12.8462818796
 10
-14.0388787751
 20
12.8473620409
 10
-14.0349105961
 20
12.8482709346
 10
-14.0308693466
 20
12.8490101494
 10
-14.0267477169
 20
12.8495814195
 10
-14.0225424264
 20
12.8499860081
 10
-14.0182663108
 20
12.8502232936
 10
-14.0139362348
 20
12.8502921833
 10
-14.008689633
 20
12.8501523863
 10
-14.0034005852
 20
12.8497747753
 10
-13.9980800632
 20
12.8491655997
 10
-13.9927390388
 20
12.8483311088
 10
-13.9873884835
 20
12.847277552
 10
-13.9820377937
 20
12.8460108102
 10
-13.9766900628
 20
12.8445352903
 10
-13.9713468089
 20
12.8428550307
 10
-13.9660095498
 20
12.8409740699
 10
-13.9606798037
 20
12.8388964462
 10
-13.9553565486
 20
12.8366235847
 10
-13.9500286042
 20
12.834146457
 10
-13.9446822501
 20
12.8314534212
 10
-13.939303766
 20
12.8285328354
 10
-13.9338794318
 20
12.8253730579
  0
LWPOLYLINE
  5
243
100
AcDbEntity
  8
ASSI
100
AcDbPolyline
 62
7
  6
CONTINUOUS
 90
13
 70
0
 10
-19.0649890491
 20
6.4460911713
 10
-19.0865296236
 20
6.4319787129
 10
-19.1209587301
 20
6.405861219
 10
-19.1530753507
 20
6.3767980251
 10
-19.1826124901
 20
6.3449980133
 10
-19.2093292373
 20
6.3106879616
 10
-19.2330710648
 20
6.2740036243
 10
-19.2535716883
 20
6.2352760906
 10
-19.2706396643
 20
6.1948031511
 10
-19.2841674956
 20
6.1527039692
 10
-19.2939767845
 20
6.1092738942
 10
-19.2998969066
 20
6.0649941349
 10
-19.3018411517
 20
6.0202890052
  0
LINE
  5
244
100
AcDbEntity
  8
ASSI
100
AcDbLine
 62
7
  6
CONTINUOUS
 10
-19.0649387653
 20
6.4461222983
 11
-18.7803101914
 21
6.6222467573
  0
LINE
  5
245
100
AcDbEntity
  8
ASSI
100
AcDbLine
 62
253
  6
CONTINUOUS
 10
-18.8049268771
 20
6.4273783181
 11
-18.6418313436
 21
6.5282997127
  0
LINE
  5
246
100
AcDbEntity
  8
0
100
AcDbLine
 62
253
  6
CONTINUOUS
 10
-10.4935426223
 20
12.0754342147
 11
-11.0464482297
 21
11.7557347453
  0
LINE
  5
247
100
AcDbEntity
  8
0
100
AcDbLine
 62
253
  6
CONTINUOUS
 10
-12.7530647327
 20
10.7706852516
 11
-13.2958866742
 21
10.4575856524
  0
LWPOLYLINE
  5
248
100
AcDbEntity
  8
0
100
AcDbPolyline
 62
253
  6
CONTINUOUS
 90
37
 70
0
 10
-11.3428186529
 20
10.256121298
 10
-11.3398576283
 20
10.2577887235
 10
-11.336836781
 20
10.2593245851
 10
-11.333756832
 20
10.2607316539
 10
-11.3306185023
 20
10.2620127012
 10
-11.327422513
 20
10.2631704983
 10
-11.3241695852
 20
10.2642078164
 10
-11.3208604397
 20
10.2651274269
 10
-11.3174961439
 20
10.2659317275
 10
-11.3140791489
 20
10.266621623
 10
-11.3106122523
 20
10.2671976447
 10
-11.3070982516
 20
10.267660324
 10
-11.3035399442
 20
10.2680101921
 10
-11.2999401276
 20
10.2682477805
 10
-11.2963015992
 20
10.2683736203
 10
-11.292626902
 20
10.2683881704
 10
-11.2889175606
 20
10.2682915984
 10
-11.2851748453
 20
10.2680839996
 10
-11.2814000261
 20
10.267765469
 10
-11.2775943733
 20
10.2673361018
 10
-11.2737591569
 20
10.2667959931
 10
-11.2698956471
 20
10.266145238
 10
-11.266005172
 20
10.2653837864
 10
-11.2620892916
 20
10.2645110062
 10
-11.2581496238
 20
10.2635261201
 10
-11.2541877866
 20
10.2624283507
 10
-11.2502053977
 20
10.2612169209
 10
-11.2462040751
 20
10.2598910531
 10
-11.2421854368
 20
10.2584499701
 10
-11.2386559628
 20
10.257093602
 10
-11.2351141553
 20
10.255646125
 10
-11.2315596998
 20
10.2541052368
 10
-11.2279922814
 20
10.2524686353
 10
-11.2244115854
 20
10.2507340185
 10
-11.2208172972
 20
10.248899084
 10
-11.217209102
 20
10.2469615298
 10
-11.213586685
 20
10.2449190537
  0
LWPOLYLINE
  5
249
100
AcDbEntity
  8
0
100
AcDbPolyline
 62
253
  6
CONTINUOUS
 90
53
 70
0
 10
-13.2958866742
 20
10.4575856524
 10
-13.2998518905
 20
10.4554385791
 10
-13.3038985379
 20
10.4535285615
 10
-13.3080344963
 20
10.4518465349
 10
-13.3122676453
 20
10.4503834346
 10
-13.3166058647
 20
10.4491301957
 10
-13.3210555189
 20
10.4480797896
 10
-13.3256169112
 20
10.4472333313
 10
-13.3302888297
 20
10.4465939723
 10
-13.3350700627
 20
10.4461648636
 10
-13.3399593982
 20
10.4459491564
 10
-13.3449548315
 20
10.4459500455
 10
-13.3500511868
 20
10.4461708993
 10
-13.3552424952
 20
10.4466151296
 10
-13.3605227881
 20
10.4472861484
 10
-13.3658860968
 20
10.4481873676
 10
-13.3704129189
 20
10.4491159141
 10
-13.3749795297
 20
10.4502039948
 10
-13.3795722128
 20
10.4514489132
 10
-13.3841809996
 20
10.4528491803
 10
-13.3888109124
 20
10.4544081374
 10
-13.393470721
 20
10.4561303333
 10
-13.3991099211
 20
10.4584176012
 10
-13.4047936691
 20
10.4609468613
 10
-13.4105108346
 20
10.4637184917
 10
-13.4162502867
 20
10.4667328706
 10
-13.422000895
 20
10.4699903759
 10
-13.4277518956
 20
10.473489622
 10
-13.4334939926
 20
10.4772221673
 10
-13.4392182571
 20
10.4811778067
 10
-13.4449157601
 20
10.4853463349
 10
-13.4505775725
 20
10.4897175465
 10
-13.4552643474
 20
10.4935098362
 10
-13.4599287888
 20
10.4974427745
 10
-13.4645795491
 20
10.5015233448
 10
-13.4692207707
 20
10.5057544935
 10
-13.4738385568
 20
10.5101230194
 10
-13.4784145006
 20
10.5146116844
 10
-13.4838284752
 20
10.5201350494
 10
-13.4891478282
 20
10.5257927317
 10
-13.4943646966
 20
10.531570871
 10
-13.4994712174
 20
10.5374556071
 10
-13.5044595277
 20
10.5434330798
 10
-13.509323214
 20
10.5494912283
 10
-13.5140616606
 20
10.5556251904
 10
-13.5186757012
 20
10.5618319036
 10
-13.5231661697
 20
10.5681083051
 10
-13.5275338999
 20
10.5744513324
 10
-13.5317808461
 20
10.5808615405
 10
-13.5359134453
 20
10.5873539561
 10
-13.5399392549
 20
10.5939472235
 10
-13.5438658325
 20
10.6006599873
 10
-13.5477007356
 20
10.6075108916
  0
LWPOLYLINE
  5
24A
100
AcDbEntity
  8
ASSI
100
AcDbPolyline
 62
253
  6
CONTINUOUS
 90
9
 70
0
 10
-19.0649387653
 20
6.4461222983
 10
-19.047266079
 20
6.4556839182
 10
-19.01795378
 20
6.4663907483
 10
-18.9862508917
 20
6.4722016203
 10
-18.9525093276
 20
6.4730463056
 10
-18.9171088171
 20
6.4689132395
 10
-18.8804424556
 20
6.4598489292
 10
-18.8429107556
 20
6.4459529766
 10
-18.804926872
 20
6.4273783213
  0
LWPOLYLINE
  5
24B
100
AcDbEntity
  8
0
100
AcDbPolyline
 62
253
  6
CONTINUOUS
 90
53
 70
0
 10
-11.0464482297
 20
11.7557347453
 10
-11.0505301773
 20
11.7535580846
 10
-11.054692642
 20
11.7516182435
 10
-11.0589437056
 20
11.749906145
 10
-11.0632914503
 20
11.7484127118
 10
-11.067743958
 20
11.7471288669
 10
-11.072307777
 20
11.7460475722
 10
-11.076983321
 20
11.7451699453
 10
-11.0817694698
 20
11.7444991428
 10
-11.0866651033
 20
11.7440383214
 10
-11.0916691014
 20
11.7437906375
 10
-11.0967794948
 20
11.7437592985
 10
-11.1019909185
 20
11.7439477147
 10
-11.107297158
 20
11.744359347
 10
-11.1126919991
 20
11.7449976565
 10
-11.1181692276
 20
11.7458661041
 10
-11.1227902658
 20
11.7467673164
 10
-11.1274499832
 20
11.7478280082
 10
-11.132134161
 20
11.7490454371
 10
-11.1368324211
 20
11.7504180416
 10
-11.1415497472
 20
11.7519489825
 10
-11.1462949637
 20
11.7536426009
 10
-11.1520340779
 20
11.7558945912
 10
-11.1578149972
 20
11.7583873974
 10
-11.1636266573
 20
11.761121328
 10
-11.1694579941
 20
11.7640966916
 10
-11.1752979435
 20
11.7673137967
 10
-11.181135768
 20
11.7707711805
 10
-11.1869620371
 20
11.7744602948
 10
-11.192767647
 20
11.7783708197
 10
-11.1985434938
 20
11.7824924356
 10
-11.2042804737
 20
11.7868148228
 10
-11.2090273599
 20
11.7905648645
 10
-11.21374963
 20
11.7944539762
 10
-11.2184559811
 20
11.7984889699
 10
-11.2231506112
 20
11.8026727256
 10
-11.2278197229
 20
11.8069923952
 10
-11.2324450198
 20
11.8114311988
 10
-11.2379157474
 20
11.8168939739
 10
-11.2432892265
 20
11.8224906232
 10
-11.2485576483
 20
11.8282076311
 10
-11.2537132042
 20
11.8340314821
 10
-11.2587480856
 20
11.8399486605
 10
-11.2636559125
 20
11.8459473896
 10
-11.2684360191
 20
11.8520228477
 10
-11.2730891687
 20
11.8581719522
 10
-11.2776161242
 20
11.8643916202
 10
-11.2820176486
 20
11.8706787691
 10
-11.2862956264
 20
11.8770338975
 10
-11.2904564277
 20
11.8834718304
 10
-11.2945075439
 20
11.8900109744
 10
-11.2984564666
 20
11.896669736
 10
-11.3023106872
 20
11.9034665215
  0
LWPOLYLINE
  5
24C
100
AcDbEntity
  8
0
100
AcDbPolyline
 62
253
  6
CONTINUOUS
 90
53
 70
0
 10
-12.697420477
 20
-7.3647550959
 10
-12.6946276306
 20
-7.371765781
 10
-12.6920096485
 20
-7.3787213155
 10
-12.6895570194
 20
-7.3856389371
 10
-12.6872602321
 20
-7.3925358836
 10
-12.6851097755
 20
-7.3994293926
 10
-12.6830981979
 20
-7.406333202
 10
-12.6812262865
 20
-7.4132470503
 10
-12.6794968883
 20
-7.420167176
 10
-12.6779128502
 20
-7.4270898177
 10
-12.6764770189
 20
-7.434011214
 10
-12.6751924888
 20
-7.4409264387
 10
-12.6740633435
 20
-7.4478259067
 10
-12.6730939137
 20
-7.454698868
 10
-12.6722885304
 20
-7.4615345726
 10
-12.6716515244
 20
-7.4683222706
 10
-12.6712522231
 20
-7.4739324193
 10
-12.67097411
 20
-7.4794845088
 10
-12.6708184367
 20
-7.4849612832
 10
-12.670786482
 20
-7.4903498517
 10
-12.6708796309
 20
-7.4956547838
 10
-12.6710992957
 20
-7.5008850142
 10
-12.6715319758
 20
-7.5070701318
 10
-12.6721518728
 20
-7.5131451883
 10
-12.6729619875
 20
-7.5190948273
 10
-12.6739653207
 20
-7.524903692
 10
-12.6751648733
 20
-7.5305564262
 10
-12.6765621144
 20
-7.5360393734
 10
-12.6781523867
 20
-7.5413456794
 10
-12.679929501
 20
-7.5464701899
 10
-12.6818872685
 20
-7.5514077508
 10
-12.6840195
 20
-7.5561532081
 10
-12.6859263456
 20
-7.5599589588
 10
-12.6879535475
 20
-7.5636347454
 10
-12.6901046042
 20
-7.5671875887
 10
-12.6923808755
 20
-7.5706211393
 10
-12.6947751661
 20
-7.5739255692
 10
-12.697278142
 20
-7.5770876802
 10
-12.7004131831
 20
-7.580679378
 10
-12.7036820465
 20
-7.5840459744
 10
-12.7070754888
 20
-7.5871863119
 10
-12.7105842666
 20
-7.5900992331
 10
-12.7141991363
 20
-7.5927835807
 10
-12.7179119445
 20
-7.5952389271
 10
-12.7217188981
 20
-7.5974677631
 10
-12.7256172937
 20
-7.5994733094
 10
-12.7296044283
 20
-7.6012587867
 10
-12.7336775986
 20
-7.6028274156
 10
-12.7378367634
 20
-7.6041814249
 10
-12.7420925301
 20
-7.6053190767
 10
-12.7464581679
 20
-7.6062376409
 10
-12.7509469462
 20
-7.6069343877
 10
-12.7555721341
 20
-7.6074065873
  0
LWPOLYLINE
  5
24D
100
AcDbEntity
  8
0
100
AcDbPolyline
 62
253
  6
CONTINUOUS
 90
53
 70
0
 10
-13.3156525538
 20
-7.4110292163
 10
-13.3184281855
 20
-7.4040131592
 10
-13.3210307459
 20
-7.3970527861
 10
-13.3234696709
 20
-7.3901307803
 10
-13.3257543966
 20
-7.3832298253
 10
-13.327894359
 20
-7.3763326045
 10
-13.3298969433
 20
-7.369425322
 10
-13.331761332
 20
-7.3625082648
 10
-13.3334846568
 20
-7.3555852405
 10
-13.3350640495
 20
-7.3486600569
 10
-13.3364966418
 20
-7.3417365215
 10
-13.3377793194
 20
-7.3348196014
 10
-13.3389079838
 20
-7.3279188999
 10
-13.3398782906
 20
-7.32104518
 10
-13.3406858954
 20
-7.3142092042
 10
-13.3413264538
 20
-7.3074217354
 10
-13.3417297165
 20
-7.3018121624
 10
-13.3420126642
 20
-7.2962609706
 10
-13.3421740032
 20
-7.2907853816
 10
-13.3422124179
 20
-7.2853982594
 10
-13.3421265051
 20
-7.2800950365
 10
-13.3419148393
 20
-7.2748667875
 10
-13.3414927384
 20
-7.268684432
 10
-13.3408844292
 20
-7.2626126316
 10
-13.3400868401
 20
-7.2566668314
 10
-13.3390968996
 20
-7.2508624763
 10
-13.337911536
 20
-7.2452150114
 10
-13.3365292127
 20
-7.2397381584
 10
-13.3349545324
 20
-7.2344387443
 10
-13.333193633
 20
-7.2293218732
 10
-13.3312526524
 20
-7.2243926485
 10
-13.3291377283
 20
-7.2196561743
 10
-13.327245676
 20
-7.2158583694
 10
-13.3252336231
 20
-7.2121909273
 10
-13.3230981007
 20
-7.2086468122
 10
-13.3208377641
 20
-7.2052223527
 10
-13.3184597669
 20
-7.2019273364
 10
-13.315973387
 20
-7.1987749154
 10
-13.312858591
 20
-7.1951951485
 10
-13.3096102879
 20
-7.191840751
 10
-13.3062376811
 20
-7.1887128159
 10
-13.3027499745
 20
-7.1858124365
 10
-13.2991563717
 20
-7.1831407059
 10
-13.295464993
 20
-7.1806979926
 10
-13.2916796245
 20
-7.1784817664
 10
-13.2878029691
 20
-7.1764887729
 10
-13.2838377295
 20
-7.1747157573
 10
-13.2797866084
 20
-7.1731594649
 10
-13.2756496479
 20
-7.1718176405
 10
-13.2714162473
 20
-7.1706920264
 10
-13.2670731454
 20
-7.1697853641
 10
-13.2626070807
 20
-7.1691003953
 10
-13.2580047919
 20
-7.1686398616
  0
LWPOLYLINE
  5
24E
100
AcDbEntity
  8
ASSI
100
AcDbPolyline
 62
7
  6
CONTINUOUS
 90
5
 70
0
 10
-19.272304927
 20
7.0717488993
 10
-19.2851293142
 20
7.1128629262
 10
-19.2944115024
 20
7.1551774076
 10
-19.3000061969
 20
7.198253369
 10
-19.3018411536
 20
7.241704117
  0
LWPOLYLINE
  5
24F
100
AcDbEntity
  8
ASSI
100
AcDbPolyline
 62
253
  6
CONTINUOUS
 90
10
 70
0
 10
-11.7423866611
 20
-14.811636356
 10
-11.7359746402
 20
-14.8873772254
 10
-11.7239856241
 20
-14.9590321623
 10
-11.7064991201
 20
-15.0261259727
 10
-11.6836310936
 20
-15.0882137106
 10
-11.6555331983
 20
-15.1448836292
 10
-11.6223917711
 20
-15.1957599104
 10
-11.5844265958
 20
-15.2405051583
 10
-11.541889446
 20
-15.2788226358
 10
-11.4950624152
 20
-15.3104582331
  0
LWPOLYLINE
  5
250
100
AcDbEntity
  8
ASSI
100
AcDbPolyline
 62
253
  6
CONTINUOUS
 90
9
 70
0
 10
-12.12594164
 20
2.6193842565
 10
-12.1240904046
 20
2.5779577758
 10
-12.1184185481
 20
2.5391905809
 10
-12.1089876853
 20
2.5035038095
 10
-12.0959002659
 20
2.4712851356
 10
-12.0792984621
 20
2.4428845587
 10
-12.0593626234
 20
2.4186106013
 10
-12.036309318
 20
2.3987269574
 10
-12.0224009533
 20
2.3897485707
  0
LWPOLYLINE
  5
251
100
AcDbEntity
  8
0
100
AcDbPolyline
 62
253
  6
CONTINUOUS
 90
55
 70
0
 10
-12.2212075517
 20
-6.0820274602
 10
-12.2209809773
 20
-6.0883422177
 10
-12.220581809
 20
-6.0946982637
 10
-12.2200124677
 20
-6.1011096362
 10
-12.2192753738
 20
-6.1075903734
 10
-12.2183729482
 20
-6.1141545132
 10
-12.2173069599
 20
-6.1208133283
 10
-12.2160765725
 20
-6.1275670286
 10
-12.214680298
 20
-6.1344130587
 10
-12.2131166483
 20
-6.1413488629
 10
-12.2113841356
 20
-6.1483718859
 10
-12.209481559
 20
-6.1554783811
 10
-12.2074088654
 20
-6.1626598385
 10
-12.2051662892
 20
-6.1699065572
 10
-12.2027540645
 20
-6.1772088362
 10
-12.2001724255
 20
-6.1845569745
 10
-12.1978929571
 20
-6.1907062283
 10
-12.1955029905
 20
-6.1968616128
 10
-12.1930095138
 20
-6.2030041487
 10
-12.1904173494
 20
-6.2091198603
 10
-12.187722656
 20
-6.2152147861
 10
-12.1849194264
 20
-6.2212999686
 10
-12.1820030396
 20
-6.2273830988
 10
-12.1789744178
 20
-6.2334584627
 10
-12.1758358691
 20
-6.2395169955
 10
-12.1725897019
 20
-6.2455496321
 10
-12.1692382243
 20
-6.2515473074
 10
-12.1657837445
 20
-6.2575009564
 10
-12.1622291188
 20
-6.2634020989
 10
-12.1585793963
 20
-6.2692445939
 10
-12.1548401741
 20
-6.2750228851
 10
-12.1510170494
 20
-6.2807314165
 10
-12.1471156193
 20
-6.2863646317
 10
-12.1431414811
 20
-6.2919169747
 10
-12.1390980593
 20
-6.297385501
 10
-12.1349800885
 20
-6.3027777137
 10
-12.1307801306
 20
-6.308103728
 10
-12.1264948404
 20
-6.3133685495
 10
-12.1221372443
 20
-6.3185567473
 10
-12.1177244613
 20
-6.3236477811
 10
-12.1123773076
 20
-6.3296046251
 10
-12.1069864912
 20
-6.3353851653
 10
-12.1015631669
 20
-6.3409825919
 10
-12.0961184896
 20
-6.346390095
 10
-12.0906636139
 20
-6.3516008649
 10
-12.0852080979
 20
-6.3566095658
 10
-12.0797551115
 20
-6.3614167581
 10
-12.074306228
 20
-6.3660244764
 10
-12.0688630205
 20
-6.3704347549
 10
-12.0634270623
 20
-6.3746496283
 10
-12.0579973313
 20
-6.3786716067
 10
-12.0525624251
 20
-6.3825051029
 10
-12.0471083462
 20
-6.3861550057
 10
-12.0416210971
 20
-6.3896262038
 10
-12.0360866803
 20
-6.3929235859
  0
LWPOLYLINE
  5
252
100
AcDbEntity
  8
ASSI
100
AcDbPolyline
 62
253
  6
CONTINUOUS
 90
3
 70
0
 10
-11.9496197409
 20
-9.4602052257
 10
-11.8559140865
 20
-12.1422758532
 10
-11.7423782169
 20
-14.8116412315
  0
LINE
  5
253
100
AcDbEntity
  8
ASSI
100
AcDbLine
 62
7
  6
CONTINUOUS
 10
-13.7206658516
 20
25.5928366181
 11
-13.6994622376
 21
24.9764128226
  0
LWPOLYLINE
  5
254
100
AcDbEntity
  8
0
100
AcDbPolyline
 62
253
  6
CONTINUOUS
 90
53
 70
0
 10
-11.8689877544
 20
-5.8656814398
 10
-11.8691818987
 20
-5.8599074217
 10
-11.8695215568
 20
-5.854080944
 10
-11.8700043895
 20
-5.8482016475
 10
-11.870628058
 20
-5.8422691729
 10
-11.8713902229
 20
-5.8362831609
 10
-11.8722885454
 20
-5.8302432524
 10
-11.8733206862
 20
-5.824149088
 10
-11.8746910569
 20
-5.8169718669
 10
-11.8762378434
 20
-5.809729878
 10
-11.8779585034
 20
-5.8024326907
 10
-11.8798504947
 20
-5.7950898745
 10
-11.8819112751
 20
-5.7877109987
 10
-11.8841383022
 20
-5.7803056329
 10
-11.8865291354
 20
-5.7728828997
 10
-11.8890817398
 20
-5.765450136
 10
-11.891794182
 20
-5.7580142319
 10
-11.8946645287
 20
-5.7505820774
 10
-11.8976908465
 20
-5.7431605626
 10
-11.900871202
 20
-5.7357565778
 10
-11.9037184015
 20
-5.7294296428
 10
-11.9066764001
 20
-5.7231259628
 10
-11.9097442471
 20
-5.7168508519
 10
-11.9129209915
 20
-5.7106096239
 10
-11.9162056825
 20
-5.7044075927
 10
-11.919597369
 20
-5.6982500722
 10
-11.9230951001
 20
-5.6921423763
 10
-11.9266973896
 20
-5.6860896102
 10
-11.9304006095
 20
-5.6800960446
 10
-11.9342005962
 20
-5.6741657416
 10
-11.9380931864
 20
-5.6683027631
 10
-11.9420742167
 20
-5.6625111711
 10
-11.9461395237
 20
-5.6567950278
 10
-11.9502849438
 20
-5.651158395
 10
-11.9552172765
 20
-5.6446879083
 10
-11.9602482301
 20
-5.6383356615
 10
-11.9653730497
 20
-5.6321061429
 10
-11.97058698
 20
-5.6260038409
 10
-11.9758852661
 20
-5.6200332437
 10
-11.9812631528
 20
-5.6141988397
 10
-11.9867155593
 20
-5.6085055476
 10
-11.9922361017
 20
-5.6029600081
 10
-11.9978180703
 20
-5.5975692925
 10
-12.0034547557
 20
-5.5923404722
 10
-12.0091394481
 20
-5.5872806182
 10
-12.0148654381
 20
-5.582396802
 10
-12.0198021553
 20
-5.5783557814
 10
-12.0247657136
 20
-5.5744515582
 10
-12.0297575426
 20
-5.570686401
 10
-12.0347790716
 20
-5.5670625781
 10
-12.0398317304
 20
-5.563582358
 10
-12.0449169485
 20
-5.5602480091
 10
-12.0500361555
 20
-5.5570617998
  0
LINE
  5
255
100
AcDbEntity
  8
0
100
AcDbLine
 62
253
  6
CONTINUOUS
 10
-11.8030700274
 20
-8.5371437544
 11
-11.7907912963
 21
-8.9609220866
  0
LINE
  5
256
100
AcDbEntity
  8
0
100
AcDbLine
 62
253
  6
CONTINUOUS
 10
-12.1522185362
 20
-8.7519756806
 11
-12.1644916186
 21
-8.3281940833
  0
LINE
  5
257
100
AcDbEntity
  8
ASSI
100
AcDbLine
 62
253
  6
CONTINUOUS
 10
-12.0234838737
 20
-6.7656150239
 11
-11.9496197409
 21
-9.4602052257
  0
LINE
  5
258
100
AcDbEntity
  8
0
100
AcDbLine
 62
253
  6
CONTINUOUS
 10
-11.8598144197
 20
-6.2909935632
 11
-11.8689877543
 21
-5.8656814452
  0
LINE
  5
259
100
AcDbEntity
  8
0
100
AcDbLine
 62
253
  6
CONTINUOUS
 10
-12.2303759222
 20
-5.6567124705
 11
-12.2212075517
 21
-6.0820274602
  0
LWPOLYLINE
  5
25A
100
AcDbEntity
  8
0
100
AcDbPolyline
 62
253
  6
CONTINUOUS
 90
53
 70
0
 10
-11.7907912962
 20
-8.9609220902
 10
-11.7906966562
 20
-8.9665853091
 10
-11.7907494983
 20
-8.9721318244
 10
-11.7909473792
 20
-8.9775647442
 10
-11.7912878555
 20
-8.982887177
 10
-11.791768484
 20
-8.9881022309
 10
-11.7923868213
 20
-8.9932130144
 10
-11.7931404241
 20
-8.9982226356
 10
-11.794187621
 20
-9.0039415274
 10
-11.79541348
 20
-9.0095201603
 10
-11.7968158773
 20
-9.0149517378
 10
-11.7983926892
 20
-9.0202294633
 10
-11.800141792
 20
-9.0253465403
 10
-11.8020610618
 20
-9.0302961721
 10
-11.8041484552
 20
-9.0350718918
 10
-11.8064022487
 20
-9.0396685512
 10
-11.8088207989
 20
-9.0440813318
 10
-11.8114024627
 20
-9.048305415
 10
-11.8141455966
 20
-9.0523359822
 10
-11.8170485573
 20
-9.0561682148
 10
-11.8196628287
 20
-9.0592912611
 10
-11.8223926161
 20
-9.0622607348
 10
-11.8252372191
 20
-9.0650723185
 10
-11.8281959375
 20
-9.0677216949
 10
-11.8312680707
 20
-9.0702045467
 10
-11.8344529183
 20
-9.0725165565
 10
-11.83774978
 20
-9.0746534071
 10
-11.8411573874
 20
-9.0766116274
 10
-11.8446722009
 20
-9.0783911307
 10
-11.8482901127
 20
-9.0799926769
 10
-11.8520070155
 20
-9.0814170257
 10
-11.8558188014
 20
-9.0826649367
 10
-11.859721363
 20
-9.0837371696
 10
-11.8637105926
 20
-9.0846344842
 10
-11.8684690616
 20
-9.0854612557
 10
-11.8733352359
 20
-9.0860519938
 10
-11.8783044469
 20
-9.0864077144
 10
-11.8833720258
 20
-9.0865294333
 10
-11.888533304
 20
-9.0864181665
 10
-11.8937836129
 20
-9.0860749299
 10
-11.8991179785
 20
-9.0855006729
 10
-11.9045302052
 20
-9.0846960797
 10
-11.910013792
 20
-9.083661768
 10
-11.9155622379
 20
-9.0823983555
 10
-11.921169042
 20
-9.08090646
 10
-11.9268277033
 20
-9.0791866993
 10
-11.9317152751
 20
-9.0775309902
 10
-11.9366377424
 20
-9.075704305
 10
-11.9415966776
 20
-9.0737026251
 10
-11.9465936534
 20
-9.0715219317
 10
-11.9516302423
 20
-9.0691582062
 10
-11.9567080167
 20
-9.0666074298
 10
-11.9618285491
 20
-9.0638655838
  0
LWPOLYLINE
  5
25B
100
AcDbEntity
  8
0
100
AcDbPolyline
 62
253
  6
CONTINUOUS
 90
55
 70
0
 10
-12.1644916186
 20
-8.3281940833
 10
-12.1645806115
 20
-8.3220170534
 10
-12.164494391
 20
-8.3159993877
 10
-12.1642361477
 20
-8.3101239055
 10
-12.1638090719
 20
-8.3043734263
 10
-12.1632163542
 20
-8.2987307694
 10
-12.1624603782
 20
-8.2931823476
 10
-12.1615403006
 20
-8.2877289474
 10
-12.1604544712
 20
-8.2823749489
 10
-12.15920124
 20
-8.2771247319
 10
-12.157778957
 20
-8.2719826765
 10
-12.1561862013
 20
-8.266954026
 10
-12.1544224705
 20
-8.2620474779
 10
-12.1524874912
 20
-8.2572725933
 10
-12.1503809902
 20
-8.2526389331
 10
-12.1481026944
 20
-8.2481560582
 10
-12.1460737345
 20
-8.2445433456
 10
-12.1439314213
 20
-8.2410531299
 10
-12.141681893
 20
-8.2376965565
 10
-12.1393293218
 20
-8.2344822081
 10
-12.1368700149
 20
-8.2314084174
 10
-12.1342983133
 20
-8.2284709547
 10
-12.1316098183
 20
-8.2256674007
 10
-12.1288051722
 20
-8.2230025789
 10
-12.1258862774
 20
-8.2204831237
 10
-12.1228550364
 20
-8.2181156691
 10
-12.1197133517
 20
-8.2159068493
 10
-12.1164631259
 20
-8.2138632985
 10
-12.1131068507
 20
-8.2119904011
 10
-12.1096493752
 20
-8.2102885423
 10
-12.1060961378
 20
-8.2087568574
 10
-12.1024525768
 20
-8.2073944818
 10
-12.0987241307
 20
-8.2062005509
 10
-12.0949162379
 20
-8.2051742001
 10
-12.0910322374
 20
-8.2043144352
 10
-12.0870670712
 20
-8.2036197445
 10
-12.0830135822
 20
-8.2030884869
 10
-12.0788685825
 20
-8.2027194557
 10
-12.0746447631
 20
-8.2025131834
 10
-12.0703587844
 20
-8.2024706368
 10
-12.0651540858
 20
-8.2026357598
 10
-12.0598950672
 20
-8.2030319081
 10
-12.0545929271
 20
-8.2036529493
 10
-12.0492588637
 20
-8.2044927508
 10
-12.0439040756
 20
-8.2055451805
 10
-12.0385381799
 20
-8.2068044722
 10
-12.0331644702
 20
-8.2082663257
 10
-12.0277846587
 20
-8.209926807
 10
-12.022400458
 20
-8.211781982
 10
-12.0170135802
 20
-8.213827917
 10
-12.0116230853
 20
-8.2160632293
 10
-12.0062174228
 20
-8.2184967427
 10
-12.0007823894
 20
-8.2211398321
 10
-11.9953037822
 20
-8.2240038728
 10
-11.989767398
 20
-8.2271002397
  0
LWPOLYLINE
  5
25C
100
AcDbEntity
  8
0
100
AcDbPolyline
 62
253
  6
CONTINUOUS
 90
52
 70
0
 10
-12.4074225194
 20
-7.0826820216
 10
-12.4075767562
 20
-7.0689153747
 10
-12.4073370825
 20
-7.0554056604
 10
-12.4067022575
 20
-7.0421451183
 10
-12.4056710406
 20
-7.0291259882
 10
-12.4042421913
 20
-7.0163405099
 10
-12.4024144688
 20
-7.0037809233
 10
-12.4001866326
 20
-6.991439468
 10
-12.3975574421
 20
-6.9793083839
 10
-12.3948821554
 20
-6.9686996537
 10
-12.3918861809
 20
-6.9582702878
 10
-12.3885669306
 20
-6.948039563
 10
-12.3849218165
 20
-6.9380267559
 10
-12.3809482505
 20
-6.9282511433
 10
-12.3766436446
 20
-6.9187320018
 10
-12.3720054108
 20
-6.909488608
 10
-12.367030961
 20
-6.9005402388
 10
-12.3617177073
 20
-6.8919061707
 10
-12.3560645629
 20
-6.8836055018
 10
-12.3500764471
 20
-6.8756566148
 10
-12.3437597802
 20
-6.868077714
 10
-12.337120983
 20
-6.8608870033
 10
-12.3301664758
 20
-6.854102687
 10
-12.3229026793
 20
-6.8477429692
 10
-12.315336014
 20
-6.841826054
 10
-12.3074729003
 20
-6.8363701455
 10
-12.2993197589
 20
-6.8313934478
 10
-12.2908849442
 20
-6.8269100315
 10
-12.2821845464
 20
-6.8229174334
 10
-12.2732365895
 20
-6.8194090567
 10
-12.2640590977
 20
-6.8163783044
 10
-12.2546700951
 20
-6.8138185798
 10
-12.2450876058
 20
-6.8117232861
 10
-12.2353296539
 20
-6.8100858264
 10
-12.2254142636
 20
-6.808899604
 10
-12.2153594588
 20
-6.808158022
 10
-12.2039015069
 20
-6.807846708
 10
-12.1923030141
 20
-6.8080785718
 10
-12.1805770743
 20
-6.8088423921
 10
-12.1687367813
 20
-6.8101269478
 10
-12.1567983574
 20
-6.8119202768
 10
-12.14479054
 20
-6.8142074534
 10
-12.1327451951
 20
-6.8169728111
 10
-12.1206941887
 20
-6.8202006834
 10
-12.1086647486
 20
-6.8238761157
 10
-12.0966655501
 20
-6.8279870017
 10
-12.0847006301
 20
-6.832521947
 10
-12.0727740255
 20
-6.8374695571
 10
-12.060883651
 20
-6.8428239419
 10
-12.0490029314
 20
-6.8486012271
 10
-12.037099169
 20
-6.8548230426
 10
-12.0251396663
 20
-6.8615110183
  0
LWPOLYLINE
  5
25D
100
AcDbEntity
  8
ASSI
100
AcDbPolyline
 62
253
  6
CONTINUOUS
 90
4
 70
0
 10
-12.125935006
 20
1.3914020502
 10
-12.1116493232
 20
-1.3396233525
 10
-12.077496573
 20
-4.0586918764
 10
-12.0234838737
 20
-6.7656150239
  0
LINE
  5
25E
100
AcDbEntity
  8
ASSI
100
AcDbLine
 62
253
  6
CONTINUOUS
 10
-13.9009005
 20
25.1786546088
 11
-13.9009004825
 21
25.116681345
  0
LWPOLYLINE
  5
25F
100
AcDbEntity
  8
0
100
AcDbPolyline
 62
253
  6
CONTINUOUS
 90
55
 70
0
 10
-12.256295851
 20
9.3301813755
 10
-12.2563286996
 20
9.3237375592
 10
-12.256187486
 20
9.3172538256
 10
-12.255875215
 20
9.3107156644
 10
-12.2553948918
 20
9.304108565
 10
-12.2547495213
 20
9.2974180173
 10
-12.2539413351
 20
9.2906323873
 10
-12.2529694715
 20
9.2837515482
 10
-12.2518322956
 20
9.2767782496
 10
-12.2505281724
 20
9.2697152411
 10
-12.2490554668
 20
9.2625652726
 10
-12.2474127777
 20
9.255332264
 10
-12.2455996388
 20
9.248024818
 10
-12.2436158177
 20
9.2406527073
 10
-12.2414610818
 20
9.2332257051
 10
-12.2391351988
 20
9.2257535843
 10
-12.2370671097
 20
9.2195016309
 10
-12.2348861836
 20
9.2132441611
 10
-12.2325985974
 20
9.207000204
 10
-12.2302085349
 20
9.2007837415
 10
-12.2277122089
 20
9.194588566
 10
-12.2251038393
 20
9.1884034225
 10
-12.2223789345
 20
9.1822205012
 10
-12.2195381563
 20
9.1760457716
 10
-12.2165834553
 20
9.1698886484
 10
-12.2135167818
 20
9.1637585463
 10
-12.210340086
 20
9.1576648798
 10
-12.2070553185
 20
9.1516170637
 10
-12.2036650109
 20
9.1456238723
 10
-12.2001740197
 20
9.1396915195
 10
-12.1965877831
 20
9.1338255789
 10
-12.1929117388
 20
9.1280316244
 10
-12.1891513248
 20
9.1223152294
 10
-12.1853119791
 20
9.1166819677
 10
-12.1813970291
 20
9.1111347706
 10
-12.1774013601
 20
9.1056660003
 10
-12.1733177473
 20
9.1002653767
 10
-12.1691429786
 20
9.0949278358
 10
-12.1648898954
 20
9.0896691785
 10
-12.1605753522
 20
9.0845104219
 10
-12.1553375297
 20
9.0784764665
 10
-12.1500467519
 20
9.072623499
 10
-12.1447142958
 20
9.0669583859
 10
-12.1393514379
 20
9.0614879933
 10
-12.1339694553
 20
9.0562191876
 10
-12.1285780274
 20
9.0511573288
 10
-12.1231804455
 20
9.0463017518
 10
-12.1177784038
 20
9.0416502851
 10
-12.1123735966
 20
9.0372007572
 10
-12.1069677178
 20
9.0329509966
 10
-12.1015598023
 20
9.02889838
 10
-12.0961382466
 20
9.0250384765
 10
-12.090688788
 20
9.0213664032
 10
-12.0851971635
 20
9.0178772772
 10
-12.0796491103
 20
9.0145662157
  0
LWPOLYLINE
  5
260
100
AcDbEntity
  8
ASSI
100
AcDbPolyline
 62
253
  6
CONTINUOUS
 90
5
 70
0
 10
-12.1259350155
 20
2.6193804316
 10
-12.1116490909
 20
5.3671915596
 10
-12.0774963375
 20
8.126056049
 10
-12.0234838736
 20
10.8957771823
 10
-11.9496202148
 20
13.6761575565
  0
LWPOLYLINE
  5
261
100
AcDbEntity
  8
0
100
AcDbPolyline
 62
253
  6
CONTINUOUS
 90
49
 70
0
 10
-11.8772913792
 20
10.0060235407
 10
-11.877245646
 20
10.0125855149
 10
-11.8773814858
 20
10.0192132642
 10
-11.8776955022
 20
10.0259073142
 10
-11.8781842989
 20
10.0326681905
 10
-11.8788444795
 20
10.0394964185
 10
-11.8796726476
 20
10.0463925239
 10
-11.8806656329
 20
10.0533555116
 10
-11.8818211697
 20
10.0603783041
 10
-11.883137218
 20
10.0674523036
 10
-11.8846117383
 20
10.0745689121
 10
-11.8862426908
 20
10.0817195314
 10
-11.8880280356
 20
10.0888955638
 10
-11.8899657895
 20
10.096088846
 10
-11.8920541945
 20
10.1032929546
 10
-11.8942915492
 20
10.1105019009
 10
-11.8966761519
 20
10.1177096963
 10
-11.8992063012
 20
10.1249103522
 10
-11.9018802955
 20
10.13209788
 10
-11.9046966288
 20
10.1392661398
 10
-11.9076545776
 20
10.1464083872
 10
-11.9107536138
 20
10.1535177263
 10
-11.9139932093
 20
10.1605872615
 10
-11.917372836
 20
10.167610097
 10
-11.920891966
 20
10.1745793371
 10
-11.9245493675
 20
10.1814881795
 10
-11.9283409939
 20
10.1883301955
 10
-11.9322620953
 20
10.1950990499
 10
-11.9363079214
 20
10.2017884075
 10
-11.9404737222
 20
10.2083919331
 10
-11.9447547474
 20
10.2149032914
 10
-11.9491463302
 20
10.2213165664
 10
-11.953644136
 20
10.2276275189
 10
-11.9582439136
 20
10.2338323287
 10
-11.9629414116
 20
10.239927176
 10
-11.9677323788
 20
10.2459082407
 10
-11.9726125638
 20
10.2517717026
 10
-11.9775775735
 20
10.2575133913
 10
-11.982622447
 20
10.2631277338
 10
-11.9877420816
 20
10.2686088067
 10
-11.9929313744
 20
10.2739506865
 10
-11.9981852229
 20
10.2791474497
 10
-12.0034985241
 20
10.284193173
 10
-12.0088674003
 20
10.2890824732
 10
-12.0142928741
 20
10.2938121289
 10
-12.0197771926
 20
10.2983794591
 10
-12.0253226034
 20
10.3027817827
 10
-12.0309313538
 20
10.3070164186
 10
-12.0366056912
 20
10.3110806859
  0
LINE
  5
262
100
AcDbEntity
  8
0
100
AcDbLine
 62
253
  6
CONTINUOUS
 10
-11.8949428441
 20
9.1211921047
 11
-11.8772913786
 21
10.0060235699
  0
LINE
  5
263
100
AcDbEntity
  8
0
100
AcDbLine
 62
253
  6
CONTINUOUS
 10
-12.2386544182
 20
10.2150070191
 11
-12.256295851
 21
9.3301813755
  0
LINE
  5
264
100
AcDbEntity
  8
0
100
AcDbLine
 62
253
  6
CONTINUOUS
 10
-11.7835949312
 20
13.6491237281
 11
-11.8095959797
 21
12.7589528586
  0
LINE
  5
265
100
AcDbEntity
  8
0
100
AcDbLine
 62
253
  6
CONTINUOUS
 10
-12.1709940144
 20
12.9679161609
 11
-12.145004942
 21
13.8580800856
  0
LWPOLYLINE
  5
266
100
AcDbEntity
  8
ASSI
100
AcDbPolyline
 62
253
  6
CONTINUOUS
 90
3
 70
0
 10
-11.9496202148
 20
13.6761575565
 10
-11.855915273
 20
16.4669990971
 10
-11.7423803546
 20
19.2681030726
  0
LWPOLYLINE
  5
267
100
AcDbEntity
  8
0
100
AcDbPolyline
 62
253
  6
CONTINUOUS
 90
57
 70
0
 10
-12.5996656907
 20
11.8185628914
 10
-12.5990244872
 20
11.8360203123
 10
-12.5979661443
 20
11.8532031076
 10
-12.5964916996
 20
11.8701466671
 10
-12.594602191
 20
11.8868863803
 10
-12.5922974663
 20
11.9034504273
 10
-12.5895726145
 20
11.9198381488
 10
-12.5864215347
 20
11.9360416759
 10
-12.5828381261
 20
11.9520531395
 10
-12.5788176919
 20
11.9678606759
 10
-12.5743611523
 20
11.9834364431
 10
-12.5694708315
 20
11.998748604
 10
-12.5641490537
 20
12.0137653219
 10
-12.5583974961
 20
12.0284574848
 10
-12.5522152464
 20
12.0428068812
 10
-12.5456007452
 20
12.0567980243
 10
-12.5385524332
 20
12.0704154276
 10
-12.5310698562
 20
12.0836420132
 10
-12.523156982
 20
12.0964543386
 10
-12.5148188837
 20
12.1088273701
 10
-12.5060606345
 20
12.120736074
 10
-12.4968848893
 20
12.1321574989
 10
-12.4872846306
 20
12.1430770233
 10
-12.4772504228
 20
12.1534821079
 10
-12.4667728302
 20
12.1633602134
 10
-12.4558468983
 20
12.1726947786
 10
-12.4444855976
 20
12.1814531529
 10
-12.4327063798
 20
12.1895986639
 10
-12.4205266964
 20
12.1970946388
 10
-12.4079683651
 20
12.2039108895
 10
-12.3950706672
 20
12.2100431656
 10
-12.38187725
 20
12.2154937009
 10
-12.3684317608
 20
12.2202647296
 10
-12.3547709803
 20
12.2243610096
 10
-12.3409042226
 20
12.2277973956
 10
-12.326833935
 20
12.2305912665
 10
-12.3125625651
 20
12.2327600011
 10
-12.2980933648
 20
12.2343188166
 10
-12.2834328043
 20
12.2352742841
 10
-12.2685881585
 20
12.2356308131
 10
-12.2535667021
 20
12.2353928129
 10
-12.2383793852
 20
12.2345651317
 10
-12.223051859
 20
12.233154371
 10
-12.20761345
 20
12.2311675711
 10
-12.1920934847
 20
12.2286117721
 10
-12.1765234223
 20
12.2254965717
 10
-12.1609432539
 20
12.221841798
 10
-12.1453951032
 20
12.2176698364
 10
-12.1299210939
 20
12.2130030727
 10
-12.1145554401
 20
12.2078618498
 10
-12.0993007164
 20
12.2022583403
 10
-12.0841515874
 20
12.1962026742
 10
-12.0691027181
 20
12.1897049815
 10
-12.0541450679
 20
12.1827710077
 10
-12.039254776
 20
12.1753889601
 10
-12.024404276
 20
12.1675426617
 10
-12.009566002
 20
12.1592159353
  0
LWPOLYLINE
  5
268
100
AcDbEntity
  8
0
100
AcDbPolyline
 62
253
  6
CONTINUOUS
 90
53
 70
0
 10
-13.0154263682
 20
12.0628238376
 10
-13.0156719438
 20
12.0564379013
 10
-13.0160898175
 20
12.0502159082
 10
-13.0166775238
 20
12.0441402503
 10
-13.017432597
 20
12.0381933193
 10
-13.0183525715
 20
12.0323575071
 10
-13.0194356195
 20
12.0266188646
 10
-13.0206824638
 20
12.0209780799
 10
-13.0220944649
 20
12.0154394999
 10
-13.0236729834
 20
12.0100074719
 10
-13.0254193797
 20
12.0046863429
 10
-13.0273347227
 20
11.999481372
 10
-13.0294189134
 20
11.9944014661
 10
-13.0316715612
 20
11.9894564437
 10
-13.0340922753
 20
11.9846561238
 10
-13.0366806652
 20
11.980010325
 10
-13.0389643178
 20
11.9762649256
 10
-13.0413570588
 20
11.9726452068
 10
-13.0438518061
 20
11.9691627242
 10
-13.0464436388
 20
11.9658263611
 10
-13.0491362794
 20
11.9626343118
 10
-13.0519356114
 20
11.959582098
 10
-13.055441546
 20
11.9561009222
 10
-13.0591054733
 20
11.9528261406
 10
-13.0629232784
 20
11.9497692329
 10
-13.0668908466
 20
11.9469416785
 10
-13.0710040627
 20
11.9443549569
 10
-13.0752579081
 20
11.9420184015
 10
-13.0796437478
 20
11.9399327601
 10
-13.0841520431
 20
11.9380966344
 10
-13.0887732553
 20
11.9365086261
 10
-13.0934978454
 20
11.9351673367
 10
-13.097509238
 20
11.9342369025
 10
-13.1015931558
 20
11.93347512
 10
-13.1057569581
 20
11.9328802791
 10
-13.110003961
 20
11.9324511597
 10
-13.1143213094
 20
11.9321884992
 10
-13.1186921053
 20
11.9320935251
 10
-13.1239868598
 20
11.9322012681
 10
-13.129323292
 20
11.9325461954
 10
-13.1346904486
 20
11.9331222562
 10
-13.1400773762
 20
11.9339233993
 10
-13.1454731213
 20
11.9349435737
 10
-13.150868309
 20
11.9361770807
 10
-13.1562598784
 20
11.9376196312
 10
-13.1616463472
 20
11.9392672882
 10
-13.1670262328
 20
11.9411161151
 10
-13.172398053
 20
11.9431621748
 10
-13.1777628455
 20
11.945404097
 10
-13.1831317285
 20
11.9478507756
 10
-13.1885183406
 20
11.9505136709
 10
-13.1939363201
 20
11.9534042434
 10
-13.1993993056
 20
11.9565339533
  0
LWPOLYLINE
  5
269
100
AcDbEntity
  8
0
100
AcDbPolyline
 62
253
  6
CONTINUOUS
 90
51
 70
0
 10
-11.4516797537
 20
11.153465945
 10
-11.4524776117
 20
11.1329763846
 10
-11.4538472559
 20
11.1129384917
 10
-11.4557823758
 20
11.093295231
 10
-11.4582766607
 20
11.0739895668
 10
-11.4613259033
 20
11.0549759923
 10
-11.4649343097
 20
11.0362551164
 10
-11.4691081894
 20
11.0178390765
 10
-11.4738538518
 20
10.9997400104
 10
-11.4791753711
 20
10.9819752721
 10
-11.4850678809
 20
10.9645830821
 10
-11.4915242799
 20
10.9476068777
 10
-11.4985374663
 20
10.931090096
 10
-11.5061016031
 20
10.9150723235
 10
-11.5142159099
 20
10.899577745
 10
-11.5228808707
 20
10.8846266949
 10
-11.5320969698
 20
10.8702395072
 10
-11.5407510434
 20
10.8579421399
 10
-11.5498347696
 20
10.8461292774
 10
-11.5593419513
 20
10.8348238369
 10
-11.5692663913
 20
10.8240487358
 10
-11.5796018925
 20
10.8138268913
 10
-11.5903422578
 20
10.8041812206
 10
-11.6014812902
 20
10.795134641
 10
-11.6130127926
 20
10.7867100697
 10
-11.6249305678
 20
10.7789304239
 10
-11.6372258969
 20
10.7718140968
 10
-11.6498799733
 20
10.7653613845
 10
-11.6628714687
 20
10.759568059
 10
-11.6761790545
 20
10.7544298925
 10
-11.6897814025
 20
10.7499426569
 10
-11.7036571841
 20
10.7461021243
 10
-11.717785071
 20
10.7429040667
 10
-11.7321437347
 20
10.7403442561
 10
-11.7467118468
 20
10.7384184647
 10
-11.7633267591
 20
10.7370034912
 10
-11.7801613095
 20
10.7363733092
 10
-11.797197047
 20
10.7365156307
 10
-11.8144155203
 20
10.7374181677
 10
-11.8317945604
 20
10.7390681567
 10
-11.849297127
 20
10.7414509312
 10
-11.8668824617
 20
10.7445513491
 10
-11.8845098064
 20
10.7483542686
 10
-11.9021439887
 20
10.7528449999
 10
-11.9197721806
 20
10.7580106633
 10
-11.9373871399
 20
10.7638388313
 10
-11.9549816244
 20
10.7703170767
 10
-11.9725572496
 20
10.7774406016
 10
-11.9901510611
 20
10.785235126
 10
-12.0078089622
 20
10.7937339995
 10
-12.0255768563
 20
10.8029705717
  0
LWPOLYLINE
  5
26A
100
AcDbEntity
  8
0
100
AcDbPolyline
 62
253
  6
CONTINUOUS
 90
49
 70
0
 10
-11.8095959788
 20
12.7589528891
 10
-11.8098711473
 20
12.7524809226
 10
-11.8103267724
 20
12.7461530255
 10
-11.8109595198
 20
12.7399647464
 10
-11.8117660553
 20
12.733911634
 10
-11.8127430446
 20
12.7279892368
 10
-11.8138871534
 20
12.7221931036
 10
-11.8151951877
 20
12.7165205383
 10
-11.8166645147
 20
12.7109758668
 10
-11.8182926421
 20
12.7055651707
 10
-11.8200770774
 20
12.7002945312
 10
-11.8220153281
 20
12.6951700298
 10
-11.8241049019
 20
12.6901977479
 10
-11.8263433868
 20
12.6853833894
 10
-11.8287286928
 20
12.6807311489
 10
-11.8312588105
 20
12.6762448437
 10
-11.8339317304
 20
12.6719282908
 10
-11.8367454431
 20
12.6677853075
 10
-11.8396979391
 20
12.663819711
 10
-11.842787395
 20
12.6600356898
 10
-11.8460127311
 20
12.6564389187
 10
-11.8493730539
 20
12.6530354434
 10
-11.8528674699
 20
12.6498313101
 10
-11.8564950854
 20
12.6468325647
 10
-11.8602550069
 20
12.6440452531
 10
-11.8641456763
 20
12.6414745359
 10
-11.8681628778
 20
12.6391220308
 10
-11.8723017308
 20
12.63698847
 10
-11.876557355
 20
12.6350745857
 10
-11.8809248701
 20
12.6333811102
 10
-11.8853993955
 20
12.6319087758
 10
-11.8899761572
 20
12.6306580117
 10
-11.8946508062
 20
12.6296280361
 10
-11.8994191
 20
12.6288177642
 10
-11.9042767958
 20
12.6282261113
 10
-11.9092196512
 20
12.6278519925
 10
-11.9142434234
 20
12.6276943231
 10
-11.9193437148
 20
12.6277522011
 10
-11.924515508
 20
12.6280254548
 10
-11.9297536305
 20
12.6285140956
 10
-11.9350529099
 20
12.6292181346
 10
-11.9404081736
 20
12.630137583
 10
-11.9458142492
 20
12.631272452
 10
-11.9512671648
 20
12.6326236198
 10
-11.9567677496
 20
12.6341954329
 10
-11.9623180339
 20
12.6359931049
 10
-11.9679200474
 20
12.6380218494
 10
-11.97357582
 20
12.64028688
 10
-11.9792873818
 20
12.6427934102
  0
LWPOLYLINE
  5
26B
100
AcDbEntity
  8
ASSI
100
AcDbPolyline
 62
253
  6
CONTINUOUS
 90
16
 70
0
 10
-12.12594164
 20
1.3914058806
 10
-12.1240899304
 20
1.4349757234
 10
-12.1184167275
 20
1.4802981111
 10
-12.1089837997
 20
1.5268805329
 10
-12.0958937179
 20
1.5742169572
 10
-12.0792888514
 20
1.6217929033
 10
-12.059349921
 20
1.6690910299
 10
-12.0362937633
 20
1.7155974668
 10
-12.0103710349
 20
1.7608070465
 10
-11.9818637392
 20
1.8042284
 10
-11.9510817842
 20
1.8453899643
 10
-11.9183596901
 20
1.8838448636
 10
-11.8840531947
 20
1.919175482
 10
-11.848535102
 20
1.9509983569
 10
-11.8121912026
 20
1.9789682894
 10
-11.7754162457
 20
2.0027819173
  0
LWPOLYLINE
  5
26C
100
AcDbEntity
  8
0
100
AcDbPolyline
 62
253
  6
CONTINUOUS
 90
53
 70
0
 10
-12.145004942
 20
13.8580800856
 10
-12.1447204009
 20
13.8644918567
 10
-12.1442624571
 20
13.8707405446
 10
-12.1436334892
 20
13.8768438079
 10
-12.1428358756
 20
13.8828193052
 10
-12.1418719949
 20
13.8886846948
 10
-12.1407435961
 20
13.8944539695
 10
-12.1394499111
 20
13.9001264578
 10
-12.1379895422
 20
13.9056978221
 10
-12.1363610919
 20
13.9111637252
 10
-12.1345631626
 20
13.9165198296
 10
-12.1325946596
 20
13.9217608693
 10
-12.1304557005
 20
13.9268778641
 10
-12.1281467057
 20
13.9318609051
 10
-12.1256680956
 20
13.9367000838
 10
-12.1230202907
 20
13.9413854912
 10
-12.1206860143
 20
13.9451643897
 10
-12.1182417991
 20
13.9488179182
 10
-12.1156949104
 20
13.9523343733
 10
-12.1130504035
 20
13.9557047629
 10
-12.1103044926
 20
13.95893094
 10
-12.1074511817
 20
13.9620174687
 10
-12.1038794241
 20
13.9655401645
 10
-12.1001485706
 20
13.9688568505
 10
-12.0962628156
 20
13.9719560381
 10
-12.0922263536
 20
13.9748262389
 10
-12.0880433792
 20
13.9774559642
 10
-12.0837190055
 20
13.9798358711
 10
-12.0792620207
 20
13.9819651997
 10
-12.0746821319
 20
13.9838453358
 10
-12.0699890459
 20
13.985477665
 10
-12.0651924699
 20
13.9868635733
 10
-12.0611210885
 20
13.987831427
 10
-12.0569771002
 20
13.9886309317
 10
-12.0527530255
 20
13.9892639016
 10
-12.0484454795
 20
13.9897316238
 10
-12.0440674564
 20
13.9900332757
 10
-12.0396360452
 20
13.9901675073
 10
-12.0342688609
 20
13.9901070732
 10
-12.0288604564
 20
13.9898095768
 10
-12.0234218822
 20
13.989280985
 10
-12.0179641889
 20
13.9885272645
 10
-12.0124984271
 20
13.987554382
 10
-12.0070340575
 20
13.9863679662
 10
-12.0015741828
 20
13.9849722933
 10
-11.9961203159
 20
13.9833713015
 10
-11.9906739698
 20
13.9815689288
 10
-11.9852366573
 20
13.9795691134
 10
-11.9798073388
 20
13.9773732424
 10
-11.9743747638
 20
13.9749725002
 10
-11.9689251291
 20
13.9723555199
 10
-11.9634446317
 20
13.9695109348
 10
-11.9579194684
 20
13.9664273782
  0
LWPOLYLINE
  5
26D
100
AcDbEntity
  8
ASSI
100
AcDbPolyline
 62
253
  6
CONTINUOUS
 90
19
 70
0
 10
-11.7423866611
 20
19.2681067139
 10
-11.7359746843
 20
19.3512516195
 10
-11.7239857423
 20
19.4367508829
 10
-11.7064993154
 20
19.5240375121
 10
-11.6836313281
 20
19.6125327073
 10
-11.6555334174
 20
19.7016495505
 10
-11.6223919566
 20
19.7907968954
 10
-11.5844267543
 20
19.8793834933
 10
-11.5418895696
 20
19.9668219124
 10
-11.4950625001
 20
20.0525322835
 10
-11.4442560914
 20
20.1359462009
 10
-11.3898072784
 20
20.216510489
 10
-11.3320771527
 20
20.2936908683
 10
-11.2714485654
 20
20.366975503
 10
-11.2083235884
 20
20.4358783935
 10
-11.14312085
 20
20.4999425978
 10
-11.0762727565
 20
20.558743264
 10
-11.0082226245
 20
20.6118904474
 10
-10.9394217422
 20
20.6590316956
  0
LINE
  5
26E
100
AcDbEntity
  8
ASSI
100
AcDbLine
 62
7
  6
CONTINUOUS
 10
-5.8010699023
 20
21.0201611729
 11
-5.9813045507
 21
20.6059791635
  0
LWPOLYLINE
  5
26F
100
AcDbEntity
  8
0
100
AcDbPolyline
 62
253
  6
CONTINUOUS
 90
53
 70
0
 10
-10.5710462013
 20
8.8741068839
 10
-10.5750768701
 20
8.8719233029
 10
-10.5791898333
 20
8.8699757211
 10
-10.5833932042
 20
8.8682550016
 10
-10.5876950959
 20
8.866752008
 10
-10.5921036217
 20
8.8654576036
 10
-10.5966253472
 20
8.8643647143
 10
-10.6012606478
 20
8.8634745162
 10
-10.6060083515
 20
8.8627902481
 10
-10.6108672861
 20
8.8623151487
 10
-10.6158362796
 20
8.8620524566
 10
-10.6209133426
 20
8.8620054635
 10
-10.626093218
 20
8.862177672
 10
-10.6313698313
 20
8.8625726379
 10
-10.6367371082
 20
8.8631939168
 10
-10.6421889743
 20
8.8640450643
 10
-10.64679068
 20
8.8649317428
 10
-10.6514328919
 20
8.8659779568
 10
-10.6561015922
 20
8.8671811417
 10
-10.6607865917
 20
8.8685399123
 10
-10.6654930166
 20
8.8700576008
 10
-10.670229822
 20
8.8717387192
 10
-10.6759622396
 20
8.8739769278
 10
-10.6817400157
 20
8.8764574892
 10
-10.6875518655
 20
8.8791809205
 10
-10.6933865042
 20
8.8821477389
 10
-10.6992326472
 20
8.8853584613
 10
-10.705079365
 20
8.8888117997
 10
-10.71091715
 20
8.8924992446
 10
-10.7167368503
 20
8.8964104817
 10
-10.7225293134
 20
8.9005351963
 10
-10.7282853875
 20
8.9048630739
 10
-10.7330500684
 20
8.9086195367
 10
-10.7377919429
 20
8.9125168263
 10
-10.7425198307
 20
8.9165618468
 10
-10.7472379666
 20
8.9207575009
 10
-10.7519322472
 20
8.925090685
 10
-10.7565839844
 20
8.9295442938
 10
-10.7620876473
 20
8.9350261262
 10
-10.7674951334
 20
8.9406429325
 10
-10.7727984392
 20
8.9463809065
 10
-10.7779895614
 20
8.9522262421
 10
-10.7830604964
 20
8.958165133
 10
-10.7880047058
 20
8.9641855514
 10
-10.7928215111
 20
8.9702825829
 10
-10.7975116989
 20
8.9764530915
 10
-10.8020760558
 20
8.982693941
 10
-10.8065153684
 20
8.9890019956
 10
-10.8108315803
 20
8.9953777645
 10
-10.8150312639
 20
9.0018363395
 10
-10.8191221486
 20
9.0083964577
 10
-10.823111964
 20
9.0150768562
 10
-10.8270084393
 20
9.0218962722
  0
LINE
  5
270
100
AcDbEntity
  8
0
100
AcDbLine
 62
253
  6
CONTINUOUS
 10
-11.9617827732
 20
-9.0638391935
 11
-11.9655941799
 21
-9.0616868772
  0
LINE
  5
271
100
AcDbEntity
  8
0
100
AcDbLine
 62
253
  6
CONTINUOUS
 10
-11.9985086347
 20
-7.7615287341
 11
-12.00246866
 21
-7.7592664588
  0
LINE
  5
272
100
AcDbEntity
  8
0
100
AcDbLine
 62
253
  6
CONTINUOUS
 10
-12.0251396663
 20
-6.8615110183
 11
-12.0210668101
 21
-6.8638885024
  0
LWPOLYLINE
  5
273
100
AcDbEntity
  8
0
100
AcDbPolyline
 62
253
  6
CONTINUOUS
 90
29
 70
0
 10
-10.8105231444
 20
-8.9693180677
 10
-10.8138873193
 20
-8.9673395686
 10
-10.8172463596
 20
-8.9652923486
 10
-10.8206006961
 20
-8.9631768306
 10
-10.8239507596
 20
-8.9609934377
 10
-10.827296981
 20
-8.9587425928
 10
-10.8306397911
 20
-8.956424719
 10
-10.8339796206
 20
-8.9540402393
 10
-10.8373166029
 20
-8.951589673
 10
-10.840649681
 20
-8.9490739251
 10
-10.8439775005
 20
-8.9464939969
 10
-10.847298707
 20
-8.9438508896
 10
-10.850611946
 20
-8.9411456047
 10
-10.853915863
 20
-8.9383791433
 10
-10.8572091037
 20
-8.935552507
 10
-10.8604903149
 20
-8.9326666837
 10
-10.863758149
 20
-8.9297226092
 10
-10.8670112596
 20
-8.9267212061
 10
-10.8702483004
 20
-8.923663397
 10
-10.8734679252
 20
-8.9205501043
 10
-10.8766687875
 20
-8.9173822507
 10
-10.8798495412
 20
-8.9141607587
 10
-10.8830090438
 20
-8.9108862042
 10
-10.886146969
 20
-8.9075577758
 10
-10.8892631945
 20
-8.9041743154
 10
-10.8923575981
 20
-8.9007346651
 10
-10.8954300573
 20
-8.8972376667
 10
-10.8984804498
 20
-8.8936821621
 10
-10.9015086533
 20
-8.8900669933
  0
LINE
  5
274
100
AcDbEntity
  8
0
100
AcDbLine
 62
253
  6
CONTINUOUS
 10
-11.989767398
 20
-8.2271002397
 11
-11.9858168354
 21
-8.2294335793
  0
LWPOLYLINE
  5
275
100
AcDbEntity
  8
0
100
AcDbPolyline
 62
253
  6
CONTINUOUS
 90
42
 70
0
 10
-11.1681324236
 20
-7.4484586588
 10
-11.1719719382
 20
-7.4461855702
 10
-11.1757949172
 20
-7.4438111444
 10
-11.1796059089
 20
-7.4413350313
 10
-11.1834094616
 20
-7.4387568809
 10
-11.1872101236
 20
-7.4360763432
 10
-11.1910124431
 20
-7.4332930681
 10
-11.195582425
 20
-7.4298171803
 10
-11.200160841
 20
-7.4261931319
 10
-11.2047471888
 20
-7.4224212083
 10
-11.2093409662
 20
-7.4185016949
 10
-11.2139416706
 20
-7.4144348768
 10
-11.2185474457
 20
-7.4102224071
 10
-11.2231510177
 20
-7.4058714091
 10
-11.2277437588
 20
-7.4013903736
 10
-11.2323170411
 20
-7.3967877914
 10
-11.2368622368
 20
-7.3920721535
 10
-11.2413714825
 20
-7.3872514154
 10
-11.2458399732
 20
-7.3823313908
 10
-11.2502636682
 20
-7.377317358
 10
-11.2546385269
 20
-7.3722145955
 10
-11.2589605087
 20
-7.3670283815
 10
-11.2632255202
 20
-7.3617639828
 10
-11.2674292558
 20
-7.3564266196
 10
-11.2715673572
 20
-7.3510215008
 10
-11.275635466
 20
-7.3455538349
 10
-11.2796292238
 20
-7.3400288308
 10
-11.2835438254
 20
-7.3344526734
 10
-11.2873726793
 20
-7.3288354541
 10
-11.2911087469
 20
-7.3231882403
 10
-11.2947449899
 20
-7.3175220997
 10
-11.2982743697
 20
-7.3118480999
 10
-11.3016910744
 20
-7.3061755139
 10
-11.3049941971
 20
-7.3005064373
 10
-11.3081840574
 20
-7.2948411709
 10
-11.3112609747
 20
-7.2891800156
 10
-11.3142252687
 20
-7.2835232725
 10
-11.3170774674
 20
-7.2778695196
 10
-11.3198189337
 20
-7.2722104438
 10
-11.3224512387
 20
-7.2665360094
 10
-11.3249759539
 20
-7.2608361803
 10
-11.3273946504
 20
-7.2551009208
  0
LWPOLYLINE
  5
276
100
AcDbEntity
  8
0
100
AcDbPolyline
 62
253
  6
CONTINUOUS
 90
55
 70
0
 10
-11.9655941799
 20
-9.0616868772
 10
-11.9710161554
 20
-9.058460004
 10
-11.9763966919
 20
-9.0550667037
 10
-11.9817494695
 20
-9.051501663
 10
-11.9870881685
 20
-9.0477595685
 10
-11.9924264691
 20
-9.0438351068
 10
-11.9977753892
 20
-9.039723638
 10
-12.0031352977
 20
-9.0354232162
 10
-12.0085039012
 20
-9.0309325689
 10
-12.0138789065
 20
-9.0262504239
 10
-12.0192580202
 20
-9.0213755087
 10
-12.0246377237
 20
-9.0163076631
 10
-12.0300095985
 20
-9.0110511756
 10
-12.0353640007
 20
-9.0056114473
 10
-12.0406912863
 20
-8.9999938788
 10
-12.0459818117
 20
-8.9942038711
 10
-12.0503539946
 20
-8.9892533297
 10
-12.0546790722
 20
-8.9842036733
 10
-12.0589421643
 20
-8.9790717857
 10
-12.0631320306
 20
-8.9738700319
 10
-12.0672519905
 20
-8.968592702
 10
-12.0713090033
 20
-8.963229567
 10
-12.07530778
 20
-8.9577730799
 10
-12.0792440388
 20
-8.9522264193
 10
-12.0831112495
 20
-8.9465954458
 10
-12.086902882
 20
-8.9408860197
 10
-12.0906124061
 20
-8.9351040015
 10
-12.0942332919
 20
-8.9292552515
 10
-12.097759734
 20
-8.9233458677
 10
-12.1011888273
 20
-8.9173828979
 10
-12.1045183916
 20
-8.9113736277
 10
-12.1077462464
 20
-8.9053253423
 10
-12.1108702116
 20
-8.8992453272
 10
-12.1138881069
 20
-8.8931408677
 10
-12.1167989896
 20
-8.887016216
 10
-12.1196068667
 20
-8.8808634904
 10
-12.1223169832
 20
-8.8746717763
 10
-12.1249320602
 20
-8.8684360543
 10
-12.1274447256
 20
-8.8621748875
 10
-12.1298450839
 20
-8.8559127347
 10
-12.1325660698
 20
-8.8484263754
 10
-12.1351103904
 20
-8.8409866082
 10
-12.137477352
 20
-8.8336062246
 10
-12.1396662611
 20
-8.8262980161
 10
-12.1416764242
 20
-8.8190747741
 10
-12.1435076745
 20
-8.8119472479
 10
-12.145161952
 20
-8.8049180176
 10
-12.1466417234
 20
-8.7979876211
 10
-12.1479494555
 20
-8.7911565963
 10
-12.1490876151
 20
-8.784425481
 10
-12.150057848
 20
-8.7777923195
 10
-12.1508585159
 20
-8.771245182
 10
-12.1514871594
 20
-8.7647696453
 10
-12.1519413192
 20
-8.7583512859
 10
-12.1522185362
 20
-8.7519756806
  0
LWPOLYLINE
  5
277
100
AcDbEntity
  8
0
100
AcDbPolyline
 62
253
  6
CONTINUOUS
 90
52
 70
0
 10
-12.00246866
 20
-7.7592664588
 10
-12.01456518
 20
-7.752057951
 10
-12.0266226008
 20
-7.7444271698
 10
-12.0386741206
 20
-7.7363582646
 10
-12.0507529373
 20
-7.7278353846
 10
-12.0628860678
 20
-7.7188441976
 10
-12.0750758033
 20
-7.7093764467
 10
-12.0873182538
 20
-7.6994253933
 10
-12.0996095292
 20
-7.6889842991
 10
-12.1119409752
 20
-7.6780513254
 10
-12.124284881
 20
-7.6666442334
 10
-12.1366087717
 20
-7.6547856839
 10
-12.1488801721
 20
-7.6424983379
 10
-12.1586395117
 20
-7.6323730086
 10
-12.1683388575
 20
-7.6219876718
 10
-12.1779725937
 20
-7.6113422469
 10
-12.1875351043
 20
-7.6004366531
 10
-12.1970207733
 20
-7.5892708098
 10
-12.2074613201
 20
-7.5765622011
 10
-12.2177795721
 20
-7.5635513633
 10
-12.227955034
 20
-7.5502574627
 10
-12.2379672105
 20
-7.5366996655
 10
-12.2477956061
 20
-7.522897138
 10
-12.2574197257
 20
-7.5088690463
 10
-12.2668190739
 20
-7.4946345567
 10
-12.2759731553
 20
-7.4802128355
 10
-12.2848614746
 20
-7.4656230489
 10
-12.2934661733
 20
-7.450885204
 10
-12.3017799406
 20
-7.436022672
 10
-12.3097981024
 20
-7.4210596649
 10
-12.3175159845
 20
-7.4060203949
 10
-12.3249289129
 20
-7.3909290738
 10
-12.3320322135
 20
-7.3758099139
 10
-12.3388212122
 20
-7.3606871272
 10
-12.3452912349
 20
-7.3455849256
 10
-12.3514376077
 20
-7.3305275214
 10
-12.3579613886
 20
-7.3136677102
 10
-12.3640737451
 20
-7.2969061628
 10
-12.3697787878
 20
-7.2802538029
 10
-12.3750806277
 20
-7.2637215545
 10
-12.3799821168
 20
-7.2473246869
 10
-12.3844810738
 20
-7.2310958522
 10
-12.3885740587
 20
-7.2150720482
 10
-12.3922576316
 20
-7.1992902727
 10
-12.3955302024
 20
-7.1837814285
 10
-12.3983975808
 20
-7.1685520396
 10
-12.4008674262
 20
-7.1536025348
 10
-12.4029473983
 20
-7.1389333431
 10
-12.404643606
 20
-7.1245388583
 10
-12.4059559573
 20
-7.110389332
 10
-12.4068828093
 20
-7.096448981
 10
-12.4074225194
 20
-7.0826820216
  0
LWPOLYLINE
  5
278
100
AcDbEntity
  8
0
100
AcDbPolyline
 62
253
  6
CONTINUOUS
 90
28
 70
0
 10
-12.8736151826
 20
-6.4590186887
 10
-12.8769607563
 20
-6.4570125389
 10
-12.880299928
 20
-6.4549347809
 10
-12.8836331474
 20
-6.4527860118
 10
-12.8869608641
 20
-6.4505668285
 10
-12.8902835276
 20
-6.4482778281
 10
-12.8936015876
 20
-6.4459196075
 10
-12.8969154937
 20
-6.4434927638
 10
-12.9002253844
 20
-6.4409980008
 10
-12.9035301542
 20
-6.4384364499
 10
-12.9068283865
 20
-6.435809349
 10
-12.9101186647
 20
-6.4331179363
 10
-12.9133995721
 20
-6.43036345
 10
-12.9166696921
 20
-6.4275471281
 10
-12.9199276081
 20
-6.4246702088
 10
-12.9231719305
 20
-6.4217338926
 10
-12.9264013767
 20
-6.4187392299
 10
-12.9296146912
 20
-6.4156872337
 10
-12.9328106186
 20
-6.4125789167
 10
-12.9359879033
 20
-6.4094152919
 10
-12.9391452897
 20
-6.4061973721
 10
-12.9422815223
 20
-6.4029261703
 10
-12.9453955377
 20
-6.3996023479
 10
-12.9484870407
 20
-6.3962251612
 10
-12.9515559283
 20
-6.3927935152
 10
-12.9546020974
 20
-6.3893063148
 10
-12.957625445
 20
-6.3857624649
 10
-12.960625868
 20
-6.3821608705
  0
LWPOLYLINE
  5
279
100
AcDbEntity
  8
0
100
AcDbPolyline
 62
253
  6
CONTINUOUS
 90
42
 70
0
 10
-13.1580724203
 20
-7.605214166
 10
-13.1618537007
 20
-7.6029197078
 10
-13.1656194023
 20
-7.6005250123
 10
-13.1693740399
 20
-7.5980296004
 10
-13.1731221283
 20
-7.5954329928
 10
-13.1768681823
 20
-7.5927347102
 10
-13.1806167166
 20
-7.5899342734
 10
-13.1851231956
 20
-7.5864384117
 10
-13.189639191
 20
-7.5827950146
 10
-13.1941641463
 20
-7.5790043387
 10
-13.1986975048
 20
-7.5750666406
 10
-13.2032387101
 20
-7.5709821772
 10
-13.2077858846
 20
-7.5667525647
 10
-13.2123318669
 20
-7.5623848585
 10
-13.2168681745
 20
-7.5578874736
 10
-13.2213863252
 20
-7.5532688253
 10
-13.2258778364
 20
-7.5485373285
 10
-13.2303349925
 20
-7.5437008333
 10
-13.234753144
 20
-7.5387649303
 10
-13.2391284082
 20
-7.533734645
 10
-13.2434569022
 20
-7.5286150029
 10
-13.2477347433
 20
-7.5234110297
 10
-13.2519579429
 20
-7.5181278064
 10
-13.25612209
 20
-7.5127706368
 10
-13.2602226678
 20
-7.5073448803
 10
-13.2642551594
 20
-7.5018558963
 10
-13.268215048
 20
-7.496309044
 10
-13.2720973944
 20
-7.4907106465
 10
-13.2758955704
 20
-7.4850708807
 10
-13.2796025251
 20
-7.4794008874
 10
-13.2832112078
 20
-7.4737118072
 10
-13.2867145679
 20
-7.4680147806
 10
-13.2901067782
 20
-7.4623191319
 10
-13.293386907
 20
-7.4566269201
 10
-13.2965552461
 20
-7.4509383877
 10
-13.2996120873
 20
-7.4452537773
 10
-13.3025577225
 20
-7.4395733315
 10
-13.3053926398
 20
-7.43389559
 10
-13.3081181123
 20
-7.4282122818
 10
-13.3107356092
 20
-7.4225134327
 10
-13.3132465999
 20
-7.4167890688
 10
-13.3156525538
 20
-7.4110292163
  0
LWPOLYLINE
  5
27A
100
AcDbEntity
  8
0
100
AcDbPolyline
 62
253
  6
CONTINUOUS
 90
53
 70
0
 10
-12.021134176
 20
-6.8639274229
 10
-12.0099877117
 20
-6.8706910253
 10
-11.9989025573
 20
-6.8777881883
 10
-11.9878753068
 20
-6.8852147258
 10
-11.9769025544
 20
-6.8929664518
 10
-11.9659808941
 20
-6.9010391801
 10
-11.9551069202
 20
-6.9094287249
 10
-11.9442772266
 20
-6.9181309
 10
-11.9316976716
 20
-6.9286713749
 10
-11.9191903385
 20
-6.9396153808
 10
-11.9067718145
 20
-6.9509466219
 10
-11.8944586868
 20
-6.9626488022
 10
-11.8822675424
 20
-6.9747056258
 10
-11.8702149687
 20
-6.9871007968
 10
-11.8583166975
 20
-6.999818881
 10
-11.8465850395
 20
-7.0128478916
 10
-11.8350314504
 20
-7.0261767034
 10
-11.8236673855
 20
-7.0397941913
 10
-11.8125043005
 20
-7.05368923
 10
-11.8015536507
 20
-7.0678506944
 10
-11.7923455344
 20
-7.0801923498
 10
-11.7833114657
 20
-7.0927123905
 10
-11.774461001
 20
-7.1054016339
 10
-11.7658036965
 20
-7.1182508977
 10
-11.7573491088
 20
-7.1312509992
 10
-11.749106794
 20
-7.1443927561
 10
-11.7410863087
 20
-7.1576669857
 10
-11.7332960118
 20
-7.1710640021
 10
-11.7257394724
 20
-7.1845721048
 10
-11.7184190625
 20
-7.1981790898
 10
-11.7113371538
 20
-7.2118727532
 10
-11.7044961182
 20
-7.225640891
 10
-11.6978983274
 20
-7.2394712993
 10
-11.6915461533
 20
-7.2533517739
 10
-11.6844488918
 20
-7.2695934871
 10
-11.6776930072
 20
-7.2858723301
 10
-11.6712823368
 20
-7.3021738979
 10
-11.6652207176
 20
-7.3184837853
 10
-11.6595119868
 20
-7.3347875871
 10
-11.6541599815
 20
-7.3510708982
 10
-11.6491688877
 20
-7.3673181861
 10
-11.6445442873
 20
-7.3835094085
 10
-11.6402921114
 20
-7.3996233956
 10
-11.6364182906
 20
-7.4156389779
 10
-11.6329287559
 20
-7.4315349856
 10
-11.6298294381
 20
-7.4472902491
 10
-11.6274882283
 20
-7.4606690218
 10
-11.6254434307
 20
-7.4739294811
 10
-11.6237004103
 20
-7.4870722704
 10
-11.6222645319
 20
-7.5000980333
 10
-11.6211411605
 20
-7.5130074136
 10
-11.620335661
 20
-7.5258010547
 10
-11.6198533982
 20
-7.5384796004
  0
LWPOLYLINE
  5
27B
100
AcDbEntity
  8
0
100
AcDbPolyline
 62
253
  6
CONTINUOUS
 90
53
 70
0
 10
-11.9858708185
 20
-8.229464796
 10
-11.9808342728
 20
-8.2325876186
 10
-11.9758245075
 20
-8.2358564767
 10
-11.9708400176
 20
-8.2392697933
 10
-11.9658792983
 20
-8.2428259911
 10
-11.9609408446
 20
-8.2465234931
 10
-11.9560231517
 20
-8.250360722
 10
-11.9511247147
 20
-8.2543361008
 10
-11.945433803
 20
-8.2591458305
 10
-11.9397742741
 20
-8.2641346604
 10
-11.9341533499
 20
-8.2692958003
 10
-11.9285782522
 20
-8.27462246
 10
-11.9230562027
 20
-8.280107849
 10
-11.9175944232
 20
-8.2857451771
 10
-11.9121998337
 20
-8.2915279522
 10
-11.9068781465
 20
-8.2974508744
 10
-11.901634772
 20
-8.3035089422
 10
-11.8964751208
 20
-8.3096971542
 10
-11.8914046031
 20
-8.3160105086
 10
-11.8864286296
 20
-8.322444004
 10
-11.8822429937
 20
-8.3280501435
 10
-11.8781350037
 20
-8.3337370289
 10
-11.8741088693
 20
-8.3395008134
 10
-11.8701688004
 20
-8.3453376509
 10
-11.8663190069
 20
-8.3512436947
 10
-11.8625636985
 20
-8.3572150985
 10
-11.8589070851
 20
-8.3632480157
 10
-11.8553528811
 20
-8.3693383122
 10
-11.8519028191
 20
-8.3754807022
 10
-11.8485581363
 20
-8.3816696122
 10
-11.8453200698
 20
-8.3878994688
 10
-11.8421898569
 20
-8.3941646985
 10
-11.8391687346
 20
-8.4004597278
 10
-11.8362579401
 20
-8.4067789831
 10
-11.8330030844
 20
-8.4141750708
 10
-11.8299019165
 20
-8.4215903341
 10
-11.8269562722
 20
-8.4290185604
 10
-11.8241679869
 20
-8.4364535371
 10
-11.8215388963
 20
-8.4438890515
 10
-11.8190708358
 20
-8.4513188909
 10
-11.8167658386
 20
-8.458736275
 10
-11.8146267283
 20
-8.4661321513
 10
-11.8126565259
 20
-8.4734968998
 10
-11.8108582525
 20
-8.4808209003
 10
-11.8092349292
 20
-8.4880945326
 10
-11.807789577
 20
-8.4953081764
 10
-11.8066947783
 20
-8.5014372885
 10
-11.8057356605
 20
-8.5075153623
 10
-11.8049149305
 20
-8.5135425007
 10
-11.8042352952
 20
-8.5195188063
 10
-11.8036994616
 20
-8.525444382
 10
-11.8033101367
 20
-8.5313193305
 10
-11.8030700274
 20
-8.5371437544
  0
LWPOLYLINE
  5
27C
100
AcDbEntity
  8
0
100
AcDbPolyline
 62
253
  6
CONTINUOUS
 90
53
 70
0
 10
-11.2303106008
 20
-8.4913113346
 10
-11.2351119126
 20
-8.4854076118
 10
-11.2397844238
 20
-8.4794367172
 10
-11.2443416206
 20
-8.4733860125
 10
-11.248796989
 20
-8.4672428593
 10
-11.2531640152
 20
-8.460994619
 10
-11.2574533672
 20
-8.4546311342
 10
-11.261664441
 20
-8.4481521703
 10
-11.2657938146
 20
-8.4415599739
 10
-11.2698380659
 20
-8.4348567913
 10
-11.273793773
 20
-8.4280448689
 10
-11.27765685
 20
-8.4211275855
 10
-11.2814205568
 20
-8.4141128496
 10
-11.2850774893
 20
-8.4070097021
 10
-11.2886202436
 20
-8.3998271838
 10
-11.2920414157
 20
-8.3925743356
 10
-11.2947934731
 20
-8.3864853429
 10
-11.2974474567
 20
-8.3803725151
 10
-11.2999948662
 20
-8.3742545791
 10
-11.3024291459
 20
-8.3681452584
 10
-11.3047515173
 20
-8.362038264
 10
-11.3069651467
 20
-8.3559223039
 10
-11.3094800405
 20
-8.3485612452
 10
-11.3118340993
 20
-8.3411864691
 10
-11.3140185176
 20
-8.3338134295
 10
-11.3160244902
 20
-8.3264575804
 10
-11.3178432115
 20
-8.3191343758
 10
-11.3194675713
 20
-8.3118584374
 10
-11.32089724
 20
-8.3046410577
 10
-11.3221335829
 20
-8.2974926969
 10
-11.3231779655
 20
-8.290423815
 10
-11.3240317532
 20
-8.2834448723
 10
-11.3245986785
 20
-8.2777025518
 10
-11.3250352482
 20
-8.2720192966
 10
-11.325342516
 20
-8.2663844504
 10
-11.3255213019
 20
-8.2607928179
 10
-11.3255714904
 20
-8.2552610469
 10
-11.3254927323
 20
-8.2498112467
 10
-11.3252284639
 20
-8.2434058144
 10
-11.3247830604
 20
-8.237158445
 10
-11.3241615728
 20
-8.2310773265
 10
-11.3233690521
 20
-8.225170647
 10
-11.3224105491
 20
-8.2194465947
 10
-11.3212907866
 20
-8.2139117073
 10
-11.3200131748
 20
-8.2085659203
 10
-11.3185807956
 20
-8.2034075191
 10
-11.3169967309
 20
-8.1984347889
 10
-11.3152640628
 20
-8.1936460149
 10
-11.3133838211
 20
-8.189038651
 10
-11.3113488271
 20
-8.1846068249
 10
-11.3091498499
 20
-8.1803438334
 10
-11.3067776587
 20
-8.1762429729
 10
-11.3042230226
 20
-8.1722975398
  0
LWPOLYLINE
  5
27D
100
AcDbEntity
  8
0
100
AcDbPolyline
 62
253
  6
CONTINUOUS
 90
53
 70
0
 10
-10.7301753298
 20
-8.6382737964
 10
-10.7253975623
 20
-8.6441859619
 10
-10.7207475118
 20
-8.6501642847
 10
-10.7162118868
 20
-8.6562213719
 10
-10.7117773957
 20
-8.6623698306
 10
-10.7074307466
 20
-8.668622268
 10
-10.7031614312
 20
-8.6749888097
 10
-10.6989700732
 20
-8.6814696551
 10
-10.6948600795
 20
-8.6880625221
 10
-10.6908348569
 20
-8.6947651289
 10
-10.6868978124
 20
-8.7015751932
 10
-10.6830529944
 20
-8.7084893333
 10
-10.6793070177
 20
-8.7154997684
 10
-10.6756671387
 20
-8.7225976179
 10
-10.6721406137
 20
-8.7297740012
 10
-10.6687346993
 20
-8.7370200378
 10
-10.6659944955
 20
-8.7431029972
 10
-10.6633514278
 20
-8.7492097918
 10
-10.6608138359
 20
-8.7553220535
 10
-10.6583881534
 20
-8.7614263394
 10
-10.6560731895
 20
-8.7675289078
 10
-10.6538658471
 20
-8.7736409423
 10
-10.6513570948
 20
-8.7809978342
 10
-10.6490076566
 20
-8.7883690409
 10
-10.646826331
 20
-8.7957391416
 10
-10.6448219166
 20
-8.8030927158
 10
-10.643003212
 20
-8.8104143428
 10
-10.6413773358
 20
-8.8176894559
 10
-10.6399446879
 20
-8.8249069045
 10
-10.6387039885
 20
-8.8320563919
 10
-10.6376539574
 20
-8.8391276215
 10
-10.636793315
 20
-8.8461102965
 10
-10.6362198119
 20
-8.8518568695
 10
-10.6357759027
 20
-8.8575453455
 10
-10.6354605504
 20
-8.8631862742
 10
-10.6352729563
 20
-8.8687847729
 10
-10.6352132762
 20
-8.8743242291
 10
-10.6352819042
 20
-8.879782598
 10
-10.6355332347
 20
-8.8861995531
 10
-10.6359649082
 20
-8.8924598257
 10
-10.6365719363
 20
-8.8985552436
 10
-10.6373493304
 20
-8.9044776343
 10
-10.6382921023
 20
-8.9102188258
 10
-10.6393955871
 20
-8.9157722966
 10
-10.6406564142
 20
-8.9211381297
 10
-10.642071537
 20
-8.9263180589
 10
-10.6436379084
 20
-8.931313818
 10
-10.6453524817
 20
-8.9361271408
 10
-10.6472142297
 20
-8.9407605979
 10
-10.6492302039
 20
-8.9452201062
 10
-10.6514094757
 20
-8.9495124196
 10
-10.6537611162
 20
-8.9536442916
 10
-10.6562941967
 20
-8.9576224761
  0
LINE
  5
27E
100
AcDbEntity
  8
0
100
AcDbLine
 62
253
  6
CONTINUOUS
 10
-12.960625868
 20
-6.3821608705
 11
-13.2879207471
 21
-5.9776163288
  0
LINE
  5
27F
100
AcDbEntity
  8
0
100
AcDbLine
 62
253
  6
CONTINUOUS
 10
-13.117480873
 20
-5.7261949711
 11
-12.7928724614
 21
-6.1274871489
  0
LWPOLYLINE
  5
280
100
AcDbEntity
  8
0
100
AcDbPolyline
 62
253
  6
CONTINUOUS
 90
53
 70
0
 10
-12.7928724614
 20
-6.1274871489
 10
-12.7882003141
 20
-6.1333678718
 10
-12.7836509875
 20
-6.1393118852
 10
-12.7792119182
 20
-6.1453312082
 10
-12.7748705428
 20
-6.1514378595
 10
-12.770614298
 20
-6.1576438582
 10
-12.7664331943
 20
-6.1639590311
 10
-12.7623275383
 20
-6.1703844377
 10
-12.7583002104
 20
-6.176918945
 10
-12.7543540912
 20
-6.1835614206
 10
-12.750492061
 20
-6.1903107318
 10
-12.7467179656
 20
-6.1971637812
 10
-12.7430395114
 20
-6.2041096131
 10
-12.7394653699
 20
-6.2111353074
 10
-12.7360042127
 20
-6.2182279438
 10
-12.7326647114
 20
-6.2253746019
 10
-12.7294548862
 20
-6.2325632863
 10
-12.726380151
 20
-6.2397857015
 10
-12.7234452687
 20
-6.2470344766
 10
-12.7206550018
 20
-6.2543022409
 10
-12.7180141129
 20
-6.2615816235
 10
-12.7155275564
 20
-6.2688652308
 10
-12.7132010526
 20
-6.2761455775
 10
-12.7110405135
 20
-6.2834151551
 10
-12.7090518512
 20
-6.2906664555
 10
-12.7072409776
 20
-6.2978919704
 10
-12.7056128441
 20
-6.3050838981
 10
-12.7041685599
 20
-6.3122332644
 10
-12.7029082734
 20
-6.3193308014
 10
-12.7018321331
 20
-6.3263672416
 10
-12.7009402874
 20
-6.3333333173
 10
-12.7003378469
 20
-6.3390801078
 10
-12.699862837
 20
-6.3447792212
 10
-12.6995146028
 20
-6.3504382802
 10
-12.6992927251
 20
-6.3560604349
 10
-12.699197728
 20
-6.3616309441
 10
-12.6992303711
 20
-6.3671305937
 10
-12.6994383752
 20
-6.3736138087
 10
-12.6998282521
 20
-6.3799594584
 10
-12.7003969786
 20
-6.3861596833
 10
-12.7011415316
 20
-6.3922066245
 10
-12.7020588879
 20
-6.3980924226
 10
-12.7031462315
 20
-6.4038102598
 10
-12.7044015753
 20
-6.4093574834
 10
-12.7058231396
 20
-6.4147324823
 10
-12.7074091447
 20
-6.4199336451
 10
-12.7091578106
 20
-6.4249593607
 10
-12.7107392384
 20
-6.4290128823
 10
-12.7124387706
 20
-6.4329461747
 10
-12.714262789
 20
-6.4367619658
 10
-12.7162176751
 20
-6.4404629837
 10
-12.7183098103
 20
-6.4440519564
 10
-12.7205455764
 20
-6.4475316119
  0
LWPOLYLINE
  5
281
100
AcDbEntity
  8
0
100
AcDbPolyline
 62
253
  6
CONTINUOUS
 90
53
 70
0
 10
-13.2879207471
 20
-5.9776163288
 10
-13.2926388472
 20
-5.9716291177
 10
-13.2972296111
 20
-5.965578014
 10
-13.3017062232
 20
-5.9594501274
 10
-13.3060818678
 20
-5.9532325673
 10
-13.3103697295
 20
-5.9469124433
 10
-13.3145802372
 20
-5.940479371
 10
-13.3187127975
 20
-5.9339329898
 10
-13.3227640617
 20
-5.9272754452
 10
-13.3267306809
 20
-5.9205088826
 10
-13.3306093063
 20
-5.9136354473
 10
-13.3343959196
 20
-5.9066584621
 10
-13.3380838249
 20
-5.8995859583
 10
-13.3416656565
 20
-5.8924271447
 10
-13.345134049
 20
-5.8851912298
 10
-13.3484816369
 20
-5.8778874223
 10
-13.3511730156
 20
-5.8717579719
 10
-13.3537670275
 20
-5.8656067463
 10
-13.356255313
 20
-5.859452723
 10
-13.3586314204
 20
-5.8533098382
 10
-13.3608965304
 20
-5.8471718631
 10
-13.3630537313
 20
-5.8410275277
 10
-13.3655019848
 20
-5.8336358474
 10
-13.3677908538
 20
-5.8262340222
 10
-13.3699118955
 20
-5.8188372951
 10
-13.3718566667
 20
-5.8114609091
 10
-13.3736167244
 20
-5.8041201071
 10
-13.3751852812
 20
-5.7968293387
 10
-13.3765621726
 20
-5.7895998796
 10
-13.3777488898
 20
-5.7824422123
 10
-13.378746924
 20
-5.7753668191
 10
-13.3795577663
 20
-5.7683841823
 10
-13.3800915827
 20
-5.7626409559
 10
-13.3804974973
 20
-5.7569588061
 10
-13.3807765675
 20
-5.751327116
 10
-13.38092964
 20
-5.7457406637
 10
-13.3809567208
 20
-5.7402158073
 10
-13.3808576056
 20
-5.7347743
 10
-13.3805726857
 20
-5.7283802125
 10
-13.3801107043
 20
-5.7221454922
 10
-13.3794766167
 20
-5.716078159
 10
-13.3786753779
 20
-5.7101862324
 10
-13.3777119429
 20
-5.7044777324
 10
-13.3765909445
 20
-5.6989590655
 10
-13.3753157256
 20
-5.6936301861
 10
-13.3738893067
 20
-5.6884894354
 10
-13.3723147083
 20
-5.6835351547
 10
-13.3705949509
 20
-5.6787656852
 10
-13.3687310413
 20
-5.6741785326
 10
-13.3667159317
 20
-5.6697678597
 10
-13.3645405604
 20
-5.6655269939
 10
-13.362195866
 20
-5.6614492624
 10
-13.3596727867
 20
-5.6575279927
  0
LWPOLYLINE
  5
282
100
AcDbEntity
  8
ASSI
100
AcDbPolyline
 62
7
  6
CONTINUOUS
 90
4
 70
0
 10
-19.2139308315
 20
6.9578890002
 10
-19.236582279
 20
6.9940712064
 10
-19.2560919499
 20
7.0321124398
 10
-19.272304927
 20
7.0717488993
  0
LWPOLYLINE
  5
283
100
AcDbEntity
  8
0
100
AcDbPolyline
 62
253
  6
CONTINUOUS
 90
53
 70
0
 10
-11.3273946504
 20
-7.2551009208
 10
-11.3301839332
 20
-7.2481391702
 10
-11.3327983729
 20
-7.2412301122
 10
-11.3352474933
 20
-7.2343564664
 10
-11.3375408184
 20
-7.2275009524
 10
-11.3396878724
 20
-7.2206462898
 10
-11.3416961028
 20
-7.2137787401
 10
-11.3435646528
 20
-7.2068987325
 10
-11.3452905889
 20
-7.2000102378
 10
-11.346870978
 20
-7.1931172272
 10
-11.3483028868
 20
-7.1862236715
 10
-11.3495831514
 20
-7.179334622
 10
-11.3507076857
 20
-7.1724594499
 10
-11.3516721728
 20
-7.1656086068
 10
-11.3524722961
 20
-7.1587925441
 10
-11.3531037388
 20
-7.1520217132
 10
-11.3534981679
 20
-7.1464232397
 10
-11.3537711288
 20
-7.1408802425
 10
-11.3539212903
 20
-7.1354095289
 10
-11.3539472761
 20
-7.1300236202
 10
-11.3538475297
 20
-7.1247178932
 10
-11.3536204495
 20
-7.1194834386
 10
-11.3531775286
 20
-7.1132888551
 10
-11.3525456408
 20
-7.1072000403
 10
-11.3517214865
 20
-7.10123296
 10
-11.3507017659
 20
-7.0954035801
 10
-11.3494831794
 20
-7.0897278666
 10
-11.3480639867
 20
-7.0842199894
 10
-11.3464486844
 20
-7.078886936
 10
-11.3446433288
 20
-7.0737338978
 10
-11.3426539761
 20
-7.0687660664
 10
-11.3404866823
 20
-7.0639886332
 10
-11.3385478604
 20
-7.0601549509
 10
-11.3364860637
 20
-7.0564500395
 10
-11.3342976818
 20
-7.0528668438
 10
-11.3319813116
 20
-7.0494017438
 10
-11.3295443785
 20
-7.0460648604
 10
-11.3269965152
 20
-7.0428697497
 10
-11.3238050322
 20
-7.0392381402
 10
-11.3204772346
 20
-7.0358314067
 10
-11.3170226763
 20
-7.0326507516
 10
-11.3134509112
 20
-7.0296973772
 10
-11.3097714932
 20
-7.0269724859
 10
-11.305992843
 20
-7.0244765258
 10
-11.3021188475
 20
-7.0222069282
 10
-11.2981522604
 20
-7.0201603701
 10
-11.2940958355
 20
-7.0183335283
 10
-11.2899523264
 20
-7.0167230799
 10
-11.285721765
 20
-7.0153266916
 10
-11.2813932968
 20
-7.0141459884
 10
-11.2769533453
 20
-7.0131835854
 10
-11.2723883341
 20
-7.0124420973
 10
-11.2676846869
 20
-7.011924139
  0
LWPOLYLINE
  5
284
100
AcDbEntity
  8
0
100
AcDbPolyline
 62
253
  6
CONTINUOUS
 90
53
 70
0
 10
-10.7005905488
 20
-7.2042806803
 10
-10.6978155882
 20
-7.2112534269
 10
-10.6952155079
 20
-7.2181728099
 10
-10.69278086
 20
-7.2250559669
 10
-10.6905021966
 20
-7.2319200356
 10
-10.6883700698
 20
-7.2387821536
 10
-10.6863770833
 20
-7.2456559601
 10
-10.6845240471
 20
-7.2525410998
 10
-10.682813823
 20
-7.2594337189
 10
-10.6812492725
 20
-7.2663299636
 10
-10.6798332575
 20
-7.2732259801
 10
-10.678568874
 20
-7.2801168042
 10
-10.6774601561
 20
-7.2869930293
 10
-10.6765113725
 20
-7.2938441385
 10
-10.6757267915
 20
-7.3006596149
 10
-10.6751106819
 20
-7.3074289415
 10
-10.6747288253
 20
-7.3130254019
 10
-10.6744681686
 20
-7.3185655986
 10
-10.6743299532
 20
-7.3240326198
 10
-10.6743154691
 20
-7.3294138501
 10
-10.6744261993
 20
-7.3347138599
 10
-10.6746636751
 20
-7.3399415159
 10
-10.6751181828
 20
-7.3461265318
 10
-10.6757605122
 20
-7.3522045559
 10
-10.6765937663
 20
-7.3581600174
 10
-10.677621048
 20
-7.363977346
 10
-10.67884546
 20
-7.3696409711
 10
-10.6802685737
 20
-7.3751370569
 10
-10.6818858334
 20
-7.3804587077
 10
-10.6836911518
 20
-7.3856007624
 10
-10.6856784417
 20
-7.3905580602
 10
-10.6878416158
 20
-7.3953254399
 10
-10.6897754082
 20
-7.3991511222
 10
-10.6918306902
 20
-7.4028483387
 10
-10.6940110371
 20
-7.4064240951
 10
-10.6963178482
 20
-7.4098820017
 10
-10.6987438194
 20
-7.4132120867
 10
-10.7012794707
 20
-7.4164009829
 10
-10.7044548519
 20
-7.4200261142
 10
-10.7077651563
 20
-7.4234274636
 10
-10.711201019
 20
-7.4266038095
 10
-10.7147530747
 20
-7.4295539305
 10
-10.7184119585
 20
-7.4322766054
 10
-10.7221694159
 20
-7.4347713575
 10
-10.7260216353
 20
-7.437040689
 10
-10.7299659154
 20
-7.4390878472
 10
-10.7339995555
 20
-7.4409160792
 10
-10.7381198543
 20
-7.442528632
 10
-10.742326793
 20
-7.4439277844
 10
-10.7466310807
 20
-7.4451119412
 10
-10.7510461086
 20
-7.4460785391
 10
-10.7555852679
 20
-7.4468250143
 10
-10.7602619499
 20
-7.4473488035
  0
LWPOLYLINE
  5
285
100
AcDbEntity
  8
0
100
AcDbPolyline
 62
253
  6
CONTINUOUS
 90
53
 70
0
 10
-11.6198533982
 20
-7.5384796004
 10
-11.6197004518
 20
-7.5510513974
 10
-11.6198798606
 20
-7.5633557954
 10
-11.6203858573
 20
-7.5754000555
 10
-11.6212126743
 20
-7.5871914389
 10
-11.6223545444
 20
-7.5987372065
 10
-11.6238057
 20
-7.6100446196
 10
-11.6255603737
 20
-7.6211209391
 10
-11.6279840126
 20
-7.6337564466
 10
-11.6308073692
 20
-7.646071968
 10
-11.6340248895
 20
-7.6580521778
 10
-11.6376310194
 20
-7.6696817508
 10
-11.6416202049
 20
-7.6809453616
 10
-11.6459868918
 20
-7.6918276848
 10
-11.6507258256
 20
-7.7023142586
 10
-11.6558329496
 20
-7.7123940752
 10
-11.6613045062
 20
-7.7220569904
 10
-11.6671367383
 20
-7.7312928601
 10
-11.6733258884
 20
-7.74009154
 10
-11.6798681991
 20
-7.7484428859
 10
-11.6857540972
 20
-7.7552369754
 10
-11.6918941189
 20
-7.7616857127
 10
-11.6982856832
 20
-7.7677798521
 10
-11.7049262092
 20
-7.7735101479
 10
-11.7118131159
 20
-7.7788673542
 10
-11.7189438224
 20
-7.7838422253
 10
-11.7263157478
 20
-7.7884255155
 10
-11.7339251767
 20
-7.7926099618
 10
-11.7417638556
 20
-7.7963962322
 10
-11.7498223968
 20
-7.7997869777
 10
-11.7580914123
 20
-7.802784849
 10
-11.7665615145
 20
-7.8053924971
 10
-11.7752233153
 20
-7.8076125727
 10
-11.7840674269
 20
-7.8094477268
 10
-11.7946041142
 20
-7.811105476
 10
-11.8053652258
 20
-7.8122453078
 10
-11.8163398185
 20
-7.8128696178
 10
-11.8275169492
 20
-7.8129808014
 10
-11.8388856748
 20
-7.8125812543
 10
-11.850435052
 20
-7.8116733718
 10
-11.8621533669
 20
-7.8102596195
 10
-11.8740258221
 20
-7.8083427424
 10
-11.8860368494
 20
-7.8059255556
 10
-11.8981708806
 20
-7.8030108741
 10
-11.9104123474
 20
-7.7996015128
 10
-11.9227456818
 20
-7.7957002869
 10
-11.9333806572
 20
-7.7919653993
 10
-11.9440752537
 20
-7.7878632073
 10
-11.9548330357
 20
-7.7833857082
 10
-11.9656575675
 20
-7.7785248995
 10
-11.9765524137
 20
-7.7732727783
 10
-11.9875211387
 20
-7.7676213422
 10
-11.9985673068
 20
-7.7615625885
  0
LWPOLYLINE
  5
286
100
AcDbEntity
  8
0
100
AcDbPolyline
 62
253
  6
CONTINUOUS
 90
55
 70
0
 10
-11.0322768584
 20
10.9113079696
 10
-11.0320313363
 20
10.9176724803
 10
-11.0316135773
 20
10.923876323
 10
-11.0310259191
 20
10.9299371859
 10
-11.0302706994
 20
10.9358727577
 10
-11.029350256
 20
10.9417007265
 10
-11.0282662953
 20
10.9474350743
 10
-11.0270179981
 20
10.9530749559
 10
-11.025603914
 20
10.9586158196
 10
-11.0240225927
 20
10.9640531136
 10
-11.0222725836
 20
10.9693822861
 10
-11.0203527155
 20
10.9745979082
 10
-11.0182629332
 20
10.9796910416
 10
-11.0160034607
 20
10.9846518709
 10
-11.0135745221
 20
10.9894705805
 10
-11.0109763413
 20
10.9941373551
 10
-11.0086831933
 20
10.9979022105
 10
-11.0062795409
 20
11.0015431757
 10
-11.0037722532
 20
11.005048687
 10
-11.0011660342
 20
11.008409845
 10
-10.9984569257
 20
11.0116284053
 10
-10.995638804
 20
11.0147087875
 10
-10.9927069558
 20
11.0176535103
 10
-10.9896623097
 20
11.0204574883
 10
-10.9865072042
 20
11.0231137353
 10
-10.983243978
 20
11.025615265
 10
-10.9798749701
 20
11.0279550909
 10
-10.9764025189
 20
11.0301262269
 10
-10.9728294989
 20
11.0321229795
 10
-10.9691609261
 20
11.0339448263
 10
-10.9654023522
 20
11.035592538
 10
-10.9615593291
 20
11.037066885
 10
-10.9576374082
 20
11.0383686379
 10
-10.9536421414
 20
11.0394985673
 10
-10.9495769049
 20
11.0404576153
 10
-10.9454363734
 20
11.0412474103
 10
-10.9412130464
 20
11.0418697522
 10
-10.9369035703
 20
11.0423259214
 10
-10.9325211796
 20
11.0426151196
 10
-10.9280832558
 20
11.0427360287
 10
-10.9227057957
 20
11.0426585307
 10
-10.9172847053
 20
11.0423429704
 10
-10.9118312922
 20
11.0417955194
 10
-10.9063568641
 20
11.0410223495
 10
-10.9008727288
 20
11.0400296323
 10
-10.8953885667
 20
11.038823187
 10
-10.8899075503
 20
11.037407422
 10
-10.8844312247
 20
11.0357863934
 10
-10.878961135
 20
11.0339641571
 10
-10.8734988266
 20
11.031944769
 10
-10.8680432373
 20
11.0297296882
 10
-10.8625828762
 20
11.0273099868
 10
-10.8571036448
 20
11.0246741397
 10
-10.8515914451
 20
11.0218106223
 10
-10.8460321787
 20
11.0187079095
  0
LWPOLYLINE
  5
287
100
AcDbEntity
  8
0
100
AcDbPolyline
 62
253
  6
CONTINUOUS
 90
55
 70
0
 10
-9.9130376324
 20
10.2650732679
 10
-9.9132842838
 20
10.2586872724
 10
-9.9137042724
 20
10.2524635687
 10
-9.9142951671
 20
10.2463845102
 10
-9.9150545364
 20
10.2404324499
 10
-9.9159799491
 20
10.2345897411
 10
-9.9170696183
 20
10.2288424116
 10
-9.9183243346
 20
10.223191188
 10
-9.9197455328
 20
10.2176404718
 10
-9.921334648
 20
10.2121946642
 10
-9.9230931151
 20
10.2068581667
 10
-9.9250220769
 20
10.2016362938
 10
-9.9271215081
 20
10.1965380128
 10
-9.9293910913
 20
10.1915732043
 10
-9.9318305092
 20
10.186751749
 10
-9.9344394442
 20
10.1820835274
 10
-9.9367416685
 20
10.1783185121
 10
-9.9391542993
 20
10.1746784139
 10
-9.9416702432
 20
10.1711748759
 10
-9.9442845898
 20
10.1678168506
 10
-9.9470011598
 20
10.1646025284
 10
-9.9498259572
 20
10.1615274087
 10
-9.9527635904
 20
10.1585888608
 10
-9.9558130874
 20
10.1557917315
 10
-9.958972081
 20
10.1531427373
 10
-9.9622382039
 20
10.1506485946
 10
-9.9656090887
 20
10.1483160199
 10
-9.9690823683
 20
10.1461517295
 10
-9.9726551354
 20
10.1441611848
 10
-9.9763223234
 20
10.1423448271
 10
-9.9800783257
 20
10.1407018426
 10
-9.9839175358
 20
10.1392314176
 10
-9.9878343469
 20
10.1379327382
 10
-9.9918231527
 20
10.1368049907
 10
-9.9958805239
 20
10.1358471974
 10
-10.0000117414
 20
10.1350577249
 10
-10.0042242634
 20
10.1344347762
 10
-10.0085214523
 20
10.1339770715
 10
-10.0128902855
 20
10.133685401
 10
-10.0173136448
 20
10.1335610727
 10
-10.022672625
 20
10.1336332316
 10
-10.0280743574
 20
10.1339422255
 10
-10.0335077273
 20
10.1344820335
 10
-10.0389616198
 20
10.1352466349
 10
-10.0444249203
 20
10.1362300087
 10
-10.0498881093
 20
10.1374264766
 10
-10.055348048
 20
10.1388317307
 10
-10.060803193
 20
10.1404418054
 10
-10.0662520007
 20
10.1422527355
 10
-10.0716929275
 20
10.1442605553
 10
-10.0771270064
 20
10.1464638619
 10
-10.0825655767
 20
10.1488715018
 10
-10.0880225539
 20
10.1514948841
 10
-10.0935118536
 20
10.1543454178
 10
-10.0990473916
 20
10.1574345118
  0
LWPOLYLINE
  5
288
100
AcDbEntity
  8
0
100
AcDbPolyline
 62
253
  6
CONTINUOUS
 90
53
 70
0
 10
-12.0320780492
 20
-6.3952648475
 10
-12.0270539183
 20
-6.3979445878
 10
-12.0220650824
 20
-6.4004411571
 10
-12.0171099056
 20
-6.4027579837
 10
-12.0121867524
 20
-6.4048984958
 10
-12.0072939869
 20
-6.4068661216
 10
-12.0024299734
 20
-6.4086642895
 10
-11.9975930762
 20
-6.4102964276
 10
-11.991983734
 20
-6.4119941786
 10
-11.9864161647
 20
-6.4134692101
 10
-11.9808974593
 20
-6.4147201216
 10
-11.9754347088
 20
-6.4157455123
 10
-11.9700350043
 20
-6.4165439815
 10
-11.9647054367
 20
-6.4171141285
 10
-11.9594527954
 20
-6.4174545999
 10
-11.9542826627
 20
-6.417564232
 10
-11.949200319
 20
-6.4174419082
 10
-11.9442110449
 20
-6.417086512
 10
-11.9393201211
 20
-6.4164969269
 10
-11.934532828
 20
-6.4156720364
 10
-11.9305160471
 20
-6.4147768163
 10
-11.9265833816
 20
-6.4137069496
 10
-11.9227389302
 20
-6.4124614876
 10
-11.9189867918
 20
-6.4110394813
 10
-11.9153310652
 20
-6.4094399821
 10
-11.9117758493
 20
-6.4076620411
 10
-11.9083252429
 20
-6.4057047094
 10
-11.9049828259
 20
-6.4035679086
 10
-11.9017501031
 20
-6.4012550417
 10
-11.8986280603
 20
-6.3987703823
 10
-11.8956176834
 20
-6.3961182039
 10
-11.8927199581
 20
-6.3933027798
 10
-11.8899358702
 20
-6.3903283835
 10
-11.8872664057
 20
-6.3871992885
 10
-11.884298218
 20
-6.3833584243
 10
-11.8814889595
 20
-6.3793170045
 10
-11.8788402027
 20
-6.3750792189
 10
-11.8763535199
 20
-6.3706492573
 10
-11.8740304836
 20
-6.3660313096
 10
-11.8718726661
 20
-6.3612295656
 10
-11.8698818191
 20
-6.3562485693
 10
-11.868060411
 20
-6.3510942805
 10
-11.8664110897
 20
-6.3457730135
 10
-11.8649365028
 20
-6.3402910823
 10
-11.8636392982
 20
-6.3346548009
 10
-11.8625221236
 20
-6.3288704834
 10
-11.8617100353
 20
-6.3237982462
 10
-11.8610349888
 20
-6.3186185887
 10
-11.8604998137
 20
-6.3133282127
 10
-11.8601073397
 20
-6.3079238202
 10
-11.8598603963
 20
-6.3024021132
 10
-11.8597618131
 20
-6.2967597936
 10
-11.8598144197
 20
-6.2909935632
  0
LWPOLYLINE
  5
289
100
AcDbEntity
  8
0
100
AcDbPolyline
 62
253
  6
CONTINUOUS
 90
55
 70
0
 10
-12.0541619421
 20
-5.5545280323
 10
-12.0595740364
 20
-5.5514998056
 10
-12.0649351503
 20
-5.5486931456
 10
-12.0702590556
 20
-5.5460974768
 10
-12.0755595242
 20
-5.5437022236
 10
-12.0808503279
 20
-5.5414968103
 10
-12.0861425398
 20
-5.5394730899
 10
-12.0914364373
 20
-5.5376326288
 10
-12.096729599
 20
-5.5359794223
 10
-12.1020196036
 20
-5.5345174653
 10
-12.1073040297
 20
-5.5332507529
 10
-12.1125792564
 20
-5.5321835675
 10
-12.1178368652
 20
-5.5313213403
 10
-12.1230672381
 20
-5.5306697898
 10
-12.1282607572
 20
-5.5302346344
 10
-12.1334078044
 20
-5.5300215926
 10
-12.1376530981
 20
-5.5300173002
 10
-12.14184503
 20
-5.5301712137
 10
-12.1459691897
 20
-5.5304833224
 10
-12.1500146738
 20
-5.5309540243
 10
-12.1539846077
 20
-5.5315853532
 10
-12.157885624
 20
-5.5323797517
 10
-12.161722177
 20
-5.5333395261
 10
-12.1654900077
 20
-5.5344664368
 10
-12.1691826791
 20
-5.5357621077
 10
-12.1727937539
 20
-5.537228163
 10
-12.1763167949
 20
-5.5388662266
 10
-12.179745365
 20
-5.5406779224
 10
-12.183073786
 20
-5.5426637834
 10
-12.1862994165
 20
-5.5448199771
 10
-12.1894203742
 20
-5.5471415803
 10
-12.1924347765
 20
-5.5496236695
 10
-12.1953407412
 20
-5.5522613212
 10
-12.198136386
 20
-5.555049612
 10
-12.2008209438
 20
-5.5579853066
 10
-12.2033981097
 20
-5.5610719221
 10
-12.2058726941
 20
-5.5643146637
 10
-12.2082472068
 20
-5.5677155726
 10
-12.2105149539
 20
-5.5712640336
 10
-12.2126669409
 20
-5.5749462677
 10
-12.2150864362
 20
-5.579524013
 10
-12.2173262135
 20
-5.5842620492
 10
-12.2193862016
 20
-5.5891478762
 10
-12.2212663293
 20
-5.5941689938
 10
-12.2229665252
 20
-5.599312902
 10
-12.2244871596
 20
-5.6045686133
 10
-12.2258303684
 20
-5.6099311924
 10
-12.2269987289
 20
-5.6153972167
 10
-12.2279948187
 20
-5.6209632635
 10
-12.2288212151
 20
-5.6266259102
 10
-12.2294795188
 20
-5.6323852873
 10
-12.2299674239
 20
-5.6382557368
 10
-12.2302816479
 20
-5.6442551538
 10
-12.2304189082
 20
-5.6504014333
 10
-12.2303759222
 20
-5.6567124705
  0
LINE
  5
28A
100
AcDbEntity
  8
0
100
AcDbLine
 62
253
  6
CONTINUOUS
 10
-12.0360866803
 20
-6.3929235859
 11
-12.0320061819
 21
-6.3952234035
  0
LINE
  5
28B
100
AcDbEntity
  8
0
100
AcDbLine
 62
253
  6
CONTINUOUS
 10
-12.0499567504
 20
-5.5570158973
 11
-12.0541619421
 21
-5.5545280323
  0
LWPOLYLINE
  5
28C
100
AcDbEntity
  8
0
100
AcDbPolyline
 62
253
  6
CONTINUOUS
 90
53
 70
0
 10
-13.3596727867
 20
-5.6575279927
 10
-13.3570393466
 20
-5.6538212651
 10
-13.3542786132
 20
-5.6503371417
 10
-13.351386616
 20
-5.64706318
 10
-13.3483593845
 20
-5.6439869372
 10
-13.3451929483
 20
-5.6410959706
 10
-13.3418840351
 20
-5.6383805307
 10
-13.3384321659
 20
-5.6358416398
 10
-13.33483756
 20
-5.6334830138
 10
-13.3311004367
 20
-5.631308368
 10
-13.3272210151
 20
-5.6293214182
 10
-13.3232001193
 20
-5.6275262004
 10
-13.3190409917
 20
-5.6259280329
 10
-13.3147474796
 20
-5.6245325543
 10
-13.3103234301
 20
-5.6233454032
 10
-13.3057726906
 20
-5.6223722183
 10
-13.3018879573
 20
-5.6217285461
 10
-13.297929451
 20
-5.6212394446
 10
-13.293908706
 20
-5.6209069811
 10
-13.2898339609
 20
-5.6207331624
 10
-13.2857002713
 20
-5.6207197534
 10
-13.281499397
 20
-5.6208684587
 10
-13.2763619234
 20
-5.6212635535
 10
-13.2711247691
 20
-5.6218990382
 10
-13.2657968652
 20
-5.6227794041
 10
-13.2603871427
 20
-5.6239091419
 10
-13.254904533
 20
-5.6252927428
 10
-13.2493580902
 20
-5.6269327186
 10
-13.2437573607
 20
-5.6288236649
 10
-13.2381120138
 20
-5.630958198
 10
-13.2324317191
 20
-5.6333289342
 10
-13.2267261458
 20
-5.63592849
 10
-13.2219567719
 20
-5.6382656876
 10
-13.2171677804
 20
-5.6407609989
 10
-13.2123503934
 20
-5.6434187629
 10
-13.2075005343
 20
-5.6462406478
 10
-13.2026329309
 20
-5.6492176405
 10
-13.1977670122
 20
-5.6523380574
 10
-13.1919535623
 20
-5.6562568052
 10
-13.1861805266
 20
-5.6603533399
 10
-13.1804579151
 20
-5.6646157418
 10
-13.1747957384
 20
-5.6690320912
 10
-13.1692040068
 20
-5.6735904687
 10
-13.1636910771
 20
-5.6782803579
 10
-13.1582586926
 20
-5.6830968556
 10
-13.1529069432
 20
-5.6880364618
 10
-13.1476359188
 20
-5.6930956767
 10
-13.1424457091
 20
-5.6982710002
 10
-13.1373345709
 20
-5.7035623582
 10
-13.1322934278
 20
-5.7089833797
 10
-13.1273113702
 20
-5.7145511192
 10
-13.1223774884
 20
-5.7202826314
 10
-13.117480873
 20
-5.7261949711
  0
LWPOLYLINE
  5
28D
100
AcDbEntity
  8
0
100
AcDbPolyline
 62
253
  6
CONTINUOUS
 90
29
 70
0
 10
-11.0785834947
 20
-7.4736113827
 10
-11.0814862397
 20
-7.4737275598
 10
-11.0844145425
 20
-7.4737663233
 10
-11.0873685469
 20
-7.4737282314
 10
-11.0903483965
 20
-7.4736138422
 10
-11.0933542349
 20
-7.4734237139
 10
-11.0963862059
 20
-7.4731584047
 10
-11.099444453
 20
-7.4728184727
 10
-11.1025289144
 20
-7.4724043813
 10
-11.1056387061
 20
-7.4719162146
 10
-11.1087727386
 20
-7.471353962
 10
-11.1119299223
 20
-7.4707176127
 10
-11.1151091678
 20
-7.4700071562
 10
-11.1183093855
 20
-7.4692225818
 10
-11.1215294859
 20
-7.4683638787
 10
-11.1247683613
 20
-7.4674310314
 10
-11.1280248322
 20
-7.466424004
 10
-11.1312977006
 20
-7.4653427555
 10
-11.1345857688
 20
-7.4641872452
 10
-11.1378878389
 20
-7.4629574322
 10
-11.1412027133
 20
-7.4616532756
 10
-11.144529194
 20
-7.4602747345
 10
-11.1478663559
 20
-7.4588215345
 10
-11.1512143642
 20
-7.4572924674
 10
-11.1545736566
 20
-7.4556860913
 10
-11.157944671
 20
-7.4540009642
 10
-11.1613278451
 20
-7.4522356443
 10
-11.1647236167
 20
-7.4503886898
 10
-11.1681324236
 20
-7.4484586588
  0
LINE
  5
28E
100
AcDbEntity
  8
ASSI
100
AcDbLine
 62
7
  6
CONTINUOUS
 10
-5.8010699023
 20
21.0201611729
 11
-5.7798662883
 21
20.4037373773
  0
LINE
  5
28F
100
AcDbEntity
  8
ASSI
100
AcDbLine
 62
253
  6
CONTINUOUS
 10
-5.9813045507
 20
20.6059791635
 11
-5.9813045332
 21
20.5440058998
  0
LWPOLYLINE
  5
290
100
AcDbEntity
  8
0
100
AcDbPolyline
 62
253
  6
CONTINUOUS
 90
42
 70
0
 10
-12.7205455764
 20
-6.4475316119
 10
-12.7224166792
 20
-6.4501283859
 10
-12.7243641699
 20
-6.4526063498
 10
-12.7263884895
 20
-6.4549708067
 10
-12.7284900789
 20
-6.45722706
 10
-12.7306693789
 20
-6.4593804129
 10
-12.7329268305
 20
-6.4614361688
 10
-12.73573939
 20
-6.4637801254
 10
-12.7386649048
 20
-6.4659908079
 10
-12.7417031574
 20
-6.4680678455
 10
-12.7448539299
 20
-6.470010867
 10
-12.7481170047
 20
-6.4718195017
 10
-12.7514910757
 20
-6.4734930128
 10
-12.7549704828
 20
-6.4750292011
 10
-12.7585484779
 20
-6.4764255015
 10
-12.7622183127
 20
-6.4776793491
 10
-12.7659732388
 20
-6.4787881787
 10
-12.7698069453
 20
-6.4797498619
 10
-12.7737148711
 20
-6.4805640161
 10
-12.7776928924
 20
-6.4812306955
 10
-12.7817368854
 20
-6.481749954
 10
-12.7858427263
 20
-6.4821218457
 10
-12.7900062911
 20
-6.4823463474
 10
-12.7942234545
 20
-6.4824231282
 10
-12.7984900912
 20
-6.4823517799
 10
-12.8028020755
 20
-6.4821318944
 10
-12.8071552821
 20
-6.4817630635
 10
-12.8115448283
 20
-6.4812452714
 10
-12.8159628032
 20
-6.4805800708
 10
-12.8204005387
 20
-6.4797694064
 10
-12.8248493667
 20
-6.4788152231
 10
-12.8293006191
 20
-6.4777194659
 10
-12.8337470393
 20
-6.4764838708
 10
-12.8381870174
 20
-6.4751093383
 10
-12.8426203548
 20
-6.4735965605
 10
-12.847046853
 20
-6.4719462291
 10
-12.8514663136
 20
-6.470159036
 10
-12.8558798506
 20
-6.4682342676
 10
-12.8602938287
 20
-6.4661655891
 10
-12.8647159253
 20
-6.46394526
 10
-12.8691538175
 20
-6.46156554
 10
-12.8736151826
 20
-6.4590186887
  0
LINE
  5
291
100
AcDbEntity
  8
0
100
AcDbLine
 62
253
  6
CONTINUOUS
 10
-12.7555721341
 20
-7.6074065873
 11
-13.0695718477
 21
-7.6308570013
  0
LINE
  5
292
100
AcDbEntity
  8
0
100
AcDbLine
 62
253
  6
CONTINUOUS
 10
-13.2580047919
 20
-7.1686398616
 11
-12.9442915782
 21
-7.1455277054
  0
LWPOLYLINE
  5
293
100
AcDbEntity
  8
0
100
AcDbPolyline
 62
253
  6
CONTINUOUS
 90
29
 70
0
 10
-13.0695718477
 20
-7.6308570013
 10
-13.0724331871
 20
-7.6310215453
 10
-13.0753223922
 20
-7.6310986065
 10
-13.0782393824
 20
-7.6310893761
 10
-13.0811840773
 20
-7.6309950451
 10
-13.0841563961
 20
-7.6308168047
 10
-13.0871562585
 20
-7.6305558461
 10
-13.0901835838
 20
-7.6302133602
 10
-13.0932380605
 20
-7.6297904401
 10
-13.0963184525
 20
-7.629287786
 10
-13.0994232929
 20
-7.6287060002
 10
-13.1025511145
 20
-7.6280456849
 10
-13.1057004505
 20
-7.6273074422
 10
-13.1088698337
 20
-7.6264918743
 10
-13.1120577971
 20
-7.6255995834
 10
-13.1152629351
 20
-7.6246311387
 10
-13.1184840877
 20
-7.6235869781
 10
-13.1217201564
 20
-7.6224675062
 10
-13.1249700426
 20
-7.6212731278
 10
-13.1282326477
 20
-7.6200042478
 10
-13.1315068732
 20
-7.618661271
 10
-13.1347916205
 20
-7.617244602
 10
-13.1380860396
 20
-7.6157543998
 10
-13.1413902744
 20
-7.6141898392
 10
-13.1447047174
 20
-7.6125498488
 10
-13.1480297611
 20
-7.6108333575
 10
-13.1513657978
 20
-7.6090392941
 10
-13.1547132201
 20
-7.6071665873
 10
-13.1580724203
 20
-7.605214166
  0
LWPOLYLINE
  5
294
100
AcDbEntity
  8
0
100
AcDbPolyline
 62
253
  6
CONTINUOUS
 90
53
 70
0
 10
-10.9496236324
 20
-6.9855238782
 10
-10.9448793514
 20
-6.9852935228
 10
-10.9400898175
 20
-6.9852864723
 10
-10.9352447023
 20
-6.9854984801
 10
-10.9303336774
 20
-6.9859252995
 10
-10.9253464143
 20
-6.9865626837
 10
-10.9202746071
 20
-6.9874074634
 10
-10.9151180395
 20
-6.9884607773
 10
-10.9098785175
 20
-6.9897248414
 10
-10.9045578474
 20
-6.9912018717
 10
-10.8991578353
 20
-6.9928940843
 10
-10.8936811796
 20
-6.9948034235
 10
-10.8881341486
 20
-6.9969307482
 10
-10.8825239028
 20
-6.9992766457
 10
-10.8768576027
 20
-7.0018417032
 10
-10.8711424091
 20
-7.0046265081
 10
-10.866349301
 20
-7.007114168
 10
-10.8615417751
 20
-7.0097473958
 10
-10.8567343951
 20
-7.0125187492
 10
-10.8519378435
 20
-7.0154231984
 10
-10.8471472802
 20
-7.018465363
 10
-10.8423539841
 20
-7.0216522751
 10
-10.8365906598
 20
-7.0256748674
 10
-10.8308228775
 20
-7.0299121524
 10
-10.8250626728
 20
-7.0343602598
 10
-10.8193220815
 20
-7.0390153194
 10
-10.8136131391
 20
-7.0438734611
 10
-10.8079471947
 20
-7.0489294786
 10
-10.8023328508
 20
-7.0541728205
 10
-10.7967780234
 20
-7.0595915993
 10
-10.7912906285
 20
-7.0651739275
 10
-10.785878582
 20
-7.0709079177
 10
-10.7814296884
 20
-7.0757961515
 10
-10.7770304565
 20
-7.080790364
 10
-10.7726727253
 20
-7.0858994682
 10
-10.7683524947
 20
-7.0911274165
 10
-10.7640824067
 20
-7.0964583189
 10
-10.7598792638
 20
-7.1018713248
 10
-10.7549436894
 20
-7.1084495952
 10
-10.7501347742
 20
-7.1151019065
 10
-10.745458581
 20
-7.1218140955
 10
-10.7409211721
 20
-7.1285719989
 10
-10.73652861
 20
-7.1353614535
 10
-10.7322857197
 20
-7.1421702768
 10
-10.7281923749
 20
-7.1489942084
 10
-10.7242472117
 20
-7.155830969
 10
-10.7204488663
 20
-7.1626782789
 10
-10.7167959747
 20
-7.1695338586
 10
-10.7132865729
 20
-7.1763988259
 10
-10.7099162952
 20
-7.1832878875
 10
-10.7066801758
 20
-7.1902191477
 10
-10.703573249
 20
-7.1972107106
 10
-10.7005905488
 20
-7.2042806803
  0
LWPOLYLINE
  5
295
100
AcDbEntity
  8
0
100
AcDbPolyline
 62
253
  6
CONTINUOUS
 90
53
 70
0
 10
-12.9442915782
 20
-7.1455277054
 10
-12.939605882
 20
-7.1453161137
 10
-12.9348738259
 20
-7.145329308
 10
-12.9300853224
 20
-7.1455629571
 10
-12.9252302838
 20
-7.1460127302
 10
-12.9202986226
 20
-7.1466742962
 10
-12.9152822142
 20
-7.1475444069
 10
-12.910180787
 20
-7.1486241451
 10
-12.9049960323
 20
-7.149915676
 10
-12.8997296416
 20
-7.1514211651
 10
-12.8943833061
 20
-7.1531427779
 10
-12.8889596324
 20
-7.1550823934
 10
-12.8834648877
 20
-7.1572407459
 10
-12.8779062542
 20
-7.1596182834
 10
-12.8722909142
 20
-7.1622154538
 10
-12.8666260499
 20
-7.1650327051
 10
-12.8618744335
 20
-7.1675475218
 10
-12.8571080891
 20
-7.1702077434
 10
-12.8523416926
 20
-7.1730056297
 10
-12.8475860328
 20
-7.1759358899
 10
-12.8428363476
 20
-7.1790030309
 10
-12.8380839878
 20
-7.1822140092
 10
-12.8323699019
 20
-7.1862641716
 10
-12.8266512928
 20
-7.1905274714
 10
-12.8209399436
 20
-7.1949999033
 10
-12.8152476378
 20
-7.199677462
 10
-12.8095861588
 20
-7.2045561423
 10
-12.8039666549
 20
-7.209630605
 10
-12.798397735
 20
-7.214890176
 10
-12.7928873728
 20
-7.2203228473
 10
-12.7874435421
 20
-7.2259166106
 10
-12.7820742167
 20
-7.2316594581
 10
-12.7776603251
 20
-7.2365530309
 10
-12.7732956033
 20
-7.2415507235
 10
-12.768971944
 20
-7.246661464
 10
-12.7646853615
 20
-7.2518892324
 10
-12.7604483576
 20
-7.2572182174
 10
-12.7562775555
 20
-7.2626276597
 10
-12.7513796062
 20
-7.2691996022
 10
-12.7466069774
 20
-7.2758434607
 10
-12.7419657215
 20
-7.2825451862
 10
-12.7374618909
 20
-7.2892907295
 10
-12.7331015378
 20
-7.2960660416
 10
-12.7288894892
 20
-7.3028590417
 10
-12.7248256701
 20
-7.3096655228
 10
-12.7209087801
 20
-7.316483246
 10
-12.7171375188
 20
-7.3233099727
 10
-12.7135105858
 20
-7.3301434642
 10
-12.7100260819
 20
-7.3369848501
 10
-12.7066797125
 20
-7.3438487342
 10
-12.7034665842
 20
-7.3507530884
 10
-12.7003818035
 20
-7.3577158849
 10
-12.697420477
 20
-7.3647550959
  0
LWPOLYLINE
  5
296
100
AcDbEntity
  8
ASSI
100
AcDbPolyline
 62
253
  6
CONTINUOUS
 90
16
 70
0
 10
11.4706724384
 20
-10.6440759449
 10
11.5093391367
 20
-10.6611054219
 10
11.5506860414
 20
-10.6758918301
 10
11.5943221743
 20
-10.6882953486
 10
11.6398349029
 20
-10.6981986882
 10
11.6867938631
 20
-10.705508204
 10
11.7347550298
 20
-10.710154778
 10
11.7832649027
 20
-10.7120944681
 10
11.8318647477
 20
-10.7113089264
 10
11.8800949564
 20
-10.707805582
 10
11.9274994394
 20
-10.70161757
 10
11.9736299614
 20
-10.6928034074
 10
12.0180503328
 20
-10.681446439
 10
12.0603405191
 20
-10.6676540545
 10
12.1001006149
 20
-10.6515566769
 10
12.1369546467
 20
-10.6333065238
  0
LWPOLYLINE
  5
297
100
AcDbEntity
  8
ASSI
100
AcDbPolyline
 62
7
  6
CONTINUOUS
 90
12
 70
0
 10
11.5739839608
 20
-10.8734835771
 10
11.5859249417
 20
-10.8791010226
 10
11.6305641293
 20
-10.8968509497
 10
11.6768012788
 20
-10.9102590865
 10
11.7242692119
 20
-10.9191798859
 10
11.772549241
 20
-10.9234861445
 10
11.8211756061
 20
-10.9230883769
 10
11.8696930954
 20
-10.9179440385
 10
11.9176519333
 20
-10.9080507744
 10
11.9645642295
 20
-10.8934583389
 10
12.0099188052
 20
-10.8742837569
 10
12.0297231474
 20
-10.8641870876
  0
LWPOLYLINE
  5
298
100
AcDbEntity
  8
ASSI
100
AcDbPolyline
 62
253
  6
CONTINUOUS
 90
10
 70
0
 10
11.4706723969
 20
-11.8654421364
 10
10.589257505
 20
-11.4333612463
 10
9.7144886483
 20
-10.9961717739
 10
8.846427754
 20
-10.5538849022
 10
7.9851681173
 20
-10.1065284608
 10
7.1307404668
 20
-9.6540976504
 10
6.2831157186
 20
-9.1965533733
 10
5.4423289717
 20
-8.7338887251
 10
4.6084767546
 20
-8.2661306658
 10
3.7816250185
 20
-7.7932895761
  0
LINE
  5
299
100
AcDbEntity
  8
ASSI
100
AcDbLine
 62
253
  6
CONTINUOUS
 10
11.7896920561
 20
-11.2375712136
 11
10.9117773982
 21
-10.8072116822
  0
LINE
  5
29A
100
AcDbEntity
  8
ASSI
100
AcDbLine
 62
253
  6
CONTINUOUS
 10
3.7815091699
 20
-7.7933568498
 11
-12.125935006
 21
1.3914020502
  0
LWPOLYLINE
  5
29B
100
AcDbEntity
  8
ASSI
100
AcDbPolyline
 62
253
  6
CONTINUOUS
 90
10
 70
0
 10
-12.1258191574
 20
1.3914693239
 10
-12.9448297977
 20
1.8689286123
 10
-13.7551765471
 20
2.3505106016
 10
-14.5568414471
 20
2.8361771723
 10
-15.3497781595
 20
3.3258727445
 10
-16.1339983107
 20
3.8195768095
 10
-16.9095686011
 20
4.3173055208
 10
-17.6764970049
 20
4.8190408898
 10
-18.4347356601
 20
5.3247291934
 10
-19.1842651903
 20
5.8343346206
  0
LWPOLYLINE
  5
29C
100
AcDbEntity
  8
ASSI
100
AcDbPolyline
 62
253
  6
CONTINUOUS
 90
10
 70
0
 10
-19.1842651902
 20
7.0557008164
 10
-18.4347299502
 20
6.5474742682
 10
-17.6764869054
 20
6.0430042523
 10
-16.9095554787
 20
5.5423264935
 10
-16.1339835767
 20
5.045495028
 10
-15.3497632718
 20
4.5525273762
 10
-14.5568279119
 20
4.0634061316
 10
-13.7551659166
 20
3.5781513422
 10
-12.9448236673
 20
3.0968189223
 10
-12.1258191669
 20
2.619446937
  0
LWPOLYLINE
  5
29D
100
AcDbEntity
  8
ASSI
100
AcDbPolyline
 62
7
  6
CONTINUOUS
 90
10
 70
0
 10
-19.084283578
 20
6.8284688753
 10
-18.3728555121
 20
6.3458206927
 10
-17.601035173
 20
5.8318798845
 10
-16.8209074929
 20
5.3223228307
 10
-16.0325543902
 20
4.8172019826
 10
-15.2360467562
 20
4.3165594204
 10
-14.4314504222
 20
3.8204333569
 10
-13.618837609
 20
3.3288652784
 10
-12.7982978238
 20
2.8419040518
 10
-12.0222850588
 20
2.3898142713
  0
LINE
  5
29E
100
AcDbEntity
  8
ASSI
100
AcDbLine
 62
7
  6
CONTINUOUS
 10
-19.0842764496
 20
6.8284640425
 11
-19.0842088596
 21
6.8284177491
  0
LWPOLYLINE
  5
29F
100
AcDbEntity
  8
ASSI
100
AcDbPolyline
 62
7
  6
CONTINUOUS
 90
6
 70
0
 10
-19.0842088596
 20
6.8284177491
 10
-19.0959778163
 20
6.8367226584
 10
-19.1291836006
 20
6.8631027289
 10
-19.1600588175
 20
6.8922268532
 10
-19.188371721
 20
6.9238877714
 10
-19.2139308315
 20
6.9578890002
  0
LWPOLYLINE
  5
2A0
100
AcDbEntity
  8
ASSI
100
AcDbPolyline
 62
253
  6
CONTINUOUS
 90
9
 70
0
 10
-19.1842652055
 20
5.83433464
 10
-19.2137422977
 20
5.8566700804
 10
-19.2393244359
 20
5.8805588672
 10
-19.2607697142
 20
5.9057751071
 10
-19.2778753425
 20
5.9320803503
 10
-19.2904795726
 20
5.9592258568
 10
-19.2984632207
 20
5.9869549489
 10
-19.3017507872
 20
6.015005432
 10
-19.3018411517
 20
6.0202890052
  0
LWPOLYLINE
  5
2A1
100
AcDbEntity
  8
0
100
AcDbPolyline
 62
253
  6
CONTINUOUS
 90
53
 70
0
 10
-10.5649247337
 20
9.172586694
 10
-10.5612177184
 20
9.1658221491
 10
-10.5576721825
 20
9.1590475524
 10
-10.5542766685
 20
9.1522472633
 10
-10.5510197189
 20
9.1454056414
 10
-10.5478898762
 20
9.138507046
 10
-10.5448781265
 20
9.131538991
 10
-10.5419852305
 20
9.1245016073
 10
-10.5392143926
 20
9.1173981802
 10
-10.5365688172
 20
9.1102319951
 10
-10.5340517087
 20
9.1030063371
 10
-10.5316666765
 20
9.0957256363
 10
-10.5294189493
 20
9.0883989008
 10
-10.527314161
 20
9.0810362832
 10
-10.5253579455
 20
9.0736479363
 10
-10.5235559365
 20
9.0662440127
 10
-10.5221762875
 20
9.0600716187
 10
-10.5209118826
 20
9.0539140325
 10
-10.5197669655
 20
9.0477898282
 10
-10.5187450191
 20
9.0417127057
 10
-10.5178464823
 20
9.035676866
 10
-10.517071033
 20
9.0296716355
 10
-10.5163035556
 20
9.0224965695
 10
-10.5157185402
 20
9.0153667744
 10
-10.5153216667
 20
9.0082988139
 10
-10.5151186146
 20
9.0013092514
 10
-10.5151150637
 20
8.9944146506
 10
-10.515315036
 20
8.987630194
 10
-10.5157159236
 20
8.9809655411
 10
-10.516313461
 20
8.9744289705
 10
-10.5171033825
 20
8.9680287606
 10
-10.5180814227
 20
8.9617731901
 10
-10.519037793
 20
8.9566743145
 10
-10.5201236452
 20
8.9516722564
 10
-10.5213407856
 20
8.94675764
 10
-10.5226897641
 20
8.9419258278
 10
-10.5241661048
 20
8.9371911342
 10
-10.5257640758
 20
8.9325726118
 10
-10.527834451
 20
8.9272059266
 10
-10.5300637873
 20
8.9220391065
 10
-10.5324441526
 20
8.9170772945
 10
-10.5349676148
 20
8.9123256336
 10
-10.5376262416
 20
8.9077892669
 10
-10.5404129315
 20
8.9034720413
 10
-10.5433239049
 20
8.8993726189
 10
-10.546356213
 20
8.8954883656
 10
-10.5495069069
 20
8.8918166472
 10
-10.5527730378
 20
8.8883548297
 10
-10.55615417
 20
8.8851003175
 10
-10.5596599213
 20
8.8820506694
 10
-10.5633024229
 20
8.8792034828
 10
-10.5670938059
 20
8.8765563552
 10
-10.5710462013
 20
8.8741068839
  0
LWPOLYLINE
  5
2A2
100
AcDbEntity
  8
0
100
AcDbPolyline
 62
253
  6
CONTINUOUS
 90
53
 70
0
 10
-11.3494352527
 20
9.9568659494
 10
-11.35314876
 20
9.9636805729
 10
-11.3567005514
 20
9.9705036728
 10
-11.3601020769
 20
9.9773511084
 10
-11.3633647868
 20
9.9842387393
 10
-11.3665001312
 20
9.9911824248
 10
-11.3695171075
 20
9.9981948554
 10
-11.372414901
 20
10.0052760454
 10
-11.375190244
 20
10.0124228405
 10
-11.3778398691
 20
10.019632086
 10
-11.3803605087
 20
10.0269006274
 10
-11.3827484691
 20
10.0342241002
 10
-11.3849983526
 20
10.0415932986
 10
-11.3871043355
 20
10.0489978069
 10
-11.3890605939
 20
10.0564272093
 10
-11.3908613042
 20
10.06387109
 10
-11.392238717
 20
10.0700757049
 10
-11.3934997603
 20
10.0762641271
 10
-11.3946401284
 20
10.0824173423
 10
-11.3956562906
 20
10.0885212997
 10
-11.396547816
 20
10.0945818006
 10
-11.3973150487
 20
10.1006096092
 10
-11.3980711149
 20
10.1078091535
 10
-11.3986431012
 20
10.1149607524
 10
-11.3990254135
 20
10.1220480369
 10
-11.3992124577
 20
10.1290546377
 10
-11.3991986399
 20
10.1359641859
 10
-11.3989800487
 20
10.1427616463
 10
-11.3985595045
 20
10.1494373204
 10
-11.3979415105
 20
10.1559828436
 10
-11.3971305698
 20
10.1623898513
 10
-11.3961311856
 20
10.1686499789
 10
-11.3951569374
 20
10.1737509008
 10
-11.3940531967
 20
10.1787534748
 10
-11.3928182074
 20
10.1836671617
 10
-11.3914514744
 20
10.1884967044
 10
-11.3899575464
 20
10.1932279736
 10
-11.3883422333
 20
10.1978421222
 10
-11.3862514618
 20
10.2032025469
 10
-11.3840022153
 20
10.2083621055
 10
-11.3816024474
 20
10.2133157254
 10
-11.3790601117
 20
10.2180583342
 10
-11.3763831617
 20
10.2225848594
 10
-11.3735787272
 20
10.2268915041
 10
-11.3706506427
 20
10.2309795731
 10
-11.3676019193
 20
10.2348516467
 10
-11.3644355676
 20
10.2385103052
 10
-11.3611545985
 20
10.2419581289
 10
-11.3577594852
 20
10.2451976682
 10
-11.3542405497
 20
10.2482313539
 10
-11.3505855762
 20
10.2510615868
 10
-11.3467823492
 20
10.2536907679
 10
-11.3428186529
 20
10.256121298
  0
LINE
  5
2A3
100
AcDbEntity
  8
0
100
AcDbLine
 62
253
  6
CONTINUOUS
 10
-13.2102669381
 20
13.9585156988
 11
-12.697932691
 21
13.0173730501
  0
LWPOLYLINE
  5
2A4
100
AcDbEntity
  8
0
100
AcDbPolyline
 62
253
  6
CONTINUOUS
 90
3
 70
0
 10
-12.9593579867
 20
12.8661698489
 10
-13.3853398241
 20
13.6503630106
 10
-13.470804729
 20
13.8084874177
  0
LWPOLYLINE
  5
2A5
100
AcDbEntity
  8
0
100
AcDbPolyline
 62
253
  6
CONTINUOUS
 90
53
 70
0
 10
-12.7464621715
 20
11.0699324945
 10
-12.7427850437
 20
11.063119053
 10
-12.7392679214
 20
11.0562971794
 10
-12.7358994513
 20
11.0494509865
 10
-12.7326682799
 20
11.0425645872
 10
-12.7295630536
 20
11.0356220942
 10
-12.7265748528
 20
11.0286108101
 10
-12.7237044932
 20
11.0215307958
 10
-12.7209552242
 20
11.0143853019
 10
-12.7183302951
 20
11.007177579
 10
-12.7158329556
 20
10.9999108778
 10
-12.7134668661
 20
10.9925896254
 10
-12.7112373318
 20
10.9852229551
 10
-12.709150069
 20
10.9778211769
 10
-12.7072107942
 20
10.9703946007
 10
-12.7054252236
 20
10.9629535365
 10
-12.7040589435
 20
10.956751161
 10
-12.7028076305
 20
10.9505646945
 10
-12.7016755429
 20
10.9444129473
 10
-12.7006661796
 20
10.9383098014
 10
-12.6997800022
 20
10.9322494251
 10
-12.6990167128
 20
10.9262210582
 10
-12.6982635868
 20
10.9190199837
 10
-12.6976926492
 20
10.9118660971
 10
-12.6973095584
 20
10.9047759873
 10
-12.6971199731
 20
10.8977662431
 10
-12.6971295521
 20
10.8908534536
 10
-12.697342281
 20
10.8840528289
 10
-12.6977554543
 20
10.8773740642
 10
-12.6983646936
 20
10.8708254759
 10
-12.6991656204
 20
10.8644153803
 10
-12.7001538563
 20
10.8581520939
 10
-12.701118028
 20
10.853048458
 10
-12.7022110048
 20
10.8480431035
 10
-12.7034345567
 20
10.8431265856
 10
-12.7047891954
 20
10.8382941992
 10
-12.7062703986
 20
10.8335601975
 10
-12.707872386
 20
10.8289435737
 10
-12.709946408
 20
10.8235806831
 10
-12.7121780936
 20
10.8184192498
 10
-12.7145595009
 20
10.8134643574
 10
-12.7170826883
 20
10.8087210892
 10
-12.7197397141
 20
10.8041945289
 10
-12.7225234626
 20
10.7998884734
 10
-12.7254301214
 20
10.7958015732
 10
-12.7284567042
 20
10.7919311926
 10
-12.7316002248
 20
10.7882746956
 10
-12.7348576967
 20
10.7848294464
 10
-12.7382286531
 20
10.7815928536
 10
-12.7417227048
 20
10.7785625053
 10
-12.7453519818
 20
10.7757360338
 10
-12.7491286144
 20
10.7731110717
 10
-12.7530647327
 20
10.7706852516
  0
LWPOLYLINE
  5
2A6
100
AcDbEntity
  8
0
100
AcDbPolyline
 62
253
  6
CONTINUOUS
 90
53
 70
0
 10
-12.697932691
 20
13.0173730501
 10
-12.6942782357
 20
13.0105476515
 10
-12.6907842818
 20
13.0037134521
 10
-12.6874395238
 20
12.9968545458
 10
-12.6842326562
 20
12.9899550263
 10
-12.6811523735
 20
12.9829989872
 10
-12.678189795
 20
12.975973716
 10
-12.6753457388
 20
12.9688792742
 10
-12.672623448
 20
12.9617189172
 10
-12.6700261657
 20
12.9544959002
 10
-12.6675571348
 20
12.9472134784
 10
-12.6652200045
 20
12.9398760847
 10
-12.6630200487
 20
12.932492862
 10
-12.6609629475
 20
12.9250741306
 10
-12.6590543809
 20
12.9176302109
 10
-12.657300029
 20
12.9101714233
 10
-12.6559601184
 20
12.9039540004
 10
-12.6547354238
 20
12.8977522622
 10
-12.6536301232
 20
12.8915850515
 10
-12.6526476578
 20
12.8854662715
 10
-12.6517885213
 20
12.879390067
 10
-12.651052471
 20
12.8733456431
 10
-12.6503323459
 20
12.8661249684
 10
-12.6497947177
 20
12.8589511558
 10
-12.6494451891
 20
12.851840848
 10
-12.6492893628
 20
12.8448106876
 10
-12.6493328415
 20
12.8378773171
 10
-12.6495795565
 20
12.8310559966
 10
-12.6500267523
 20
12.8243564563
 10
-12.6506700022
 20
12.8177870439
 10
-12.6515048794
 20
12.8113561071
 10
-12.6525269568
 20
12.8050719937
 10
-12.6535192258
 20
12.7999510266
 10
-12.6546402458
 20
12.7949283379
 10
-12.655891842
 20
12.7899944484
 10
-12.657274553
 20
12.7851446377
 10
-12.6587837713
 20
12.7803932206
 10
-12.6604136032
 20
12.7757592705
 10
-12.6625206774
 20
12.770375802
 10
-12.6647849513
 20
12.765194068
 10
-12.6671984284
 20
12.7602191845
 10
-12.669753112
 20
12.7554562674
 10
-12.6724410057
 20
12.7509104328
 10
-12.6752549488
 20
12.7465855032
 10
-12.6781911242
 20
12.7424801275
 10
-12.6812465507
 20
12.7385916609
 10
-12.6844182472
 20
12.734917459
 10
-12.6877032325
 20
12.7314548772
 10
-12.6911010518
 20
12.7282013113
 10
-12.6946213563
 20
12.7251543201
 10
-12.6982763234
 20
12.7223115025
 10
-12.7020781305
 20
12.7196704577
 10
-12.7060389551
 20
12.7172287848
  0
LWPOLYLINE
  5
2A7
100
AcDbEntity
  8
0
100
AcDbPolyline
 62
253
  6
CONTINUOUS
 90
53
 70
0
 10
-13.5477007356
 20
10.6075108916
 10
-13.5513564853
 20
10.6143608565
 10
-13.5548531315
 20
10.6212176581
 10
-13.5582019257
 20
10.6280971835
 10
-13.5614141192
 20
10.6350153198
 10
-13.5645009635
 20
10.6419879542
 10
-13.5674713062
 20
10.6490277997
 10
-13.570324379
 20
10.6561348733
 10
-13.57305701
 20
10.6633060181
 10
-13.5756660269
 20
10.6705380769
 10
-13.5781482578
 20
10.6778278928
 10
-13.5805001086
 20
10.685171088
 10
-13.5827162974
 20
10.6925584018
 10
-13.5847911206
 20
10.6999793528
 10
-13.5867188744
 20
10.7074234594
 10
-13.588493855
 20
10.7148802403
 10
-13.5898520343
 20
10.7210941777
 10
-13.5910959326
 20
10.7272905724
 10
-13.5922213223
 20
10.7334503592
 10
-13.5932247427
 20
10.7395594386
 10
-13.5941058002
 20
10.7456235756
 10
-13.5948648682
 20
10.7516535009
 10
-13.5956142337
 20
10.7588535508
 10
-13.5961830238
 20
10.7660034718
 10
-13.5965657901
 20
10.7730869472
 10
-13.5967570848
 20
10.7800876605
 10
-13.5967514596
 20
10.7869892951
 10
-13.5965451068
 20
10.7937768695
 10
-13.5961407806
 20
10.8004407418
 10
-13.5955428753
 20
10.8069726052
 10
-13.5947557857
 20
10.813364153
 10
-13.5937839062
 20
10.8196070783
 10
-13.5928353087
 20
10.8246923615
 10
-13.5917597238
 20
10.8296780762
 10
-13.5905554387
 20
10.8345736325
 10
-13.5892219667
 20
10.839383754
 10
-13.5877637253
 20
10.8440944184
 10
-13.5861863581
 20
10.8486869172
 10
-13.5841438836
 20
10.8540201536
 10
-13.5819457436
 20
10.8591513136
 10
-13.5795996872
 20
10.86407542
 10
-13.5771134634
 20
10.8687874956
 10
-13.5744948212
 20
10.8732825632
 10
-13.571750707
 20
10.8775569078
 10
-13.568884857
 20
10.8816118628
 10
-13.5659002045
 20
10.885450024
 10
-13.5627996832
 20
10.8890739871
 10
-13.5595862266
 20
10.8924863475
 10
-13.5562602855
 20
10.8956896487
 10
-13.5528123806
 20
10.8986862248
 10
-13.5492305498
 20
10.9014783575
 10
-13.5455028312
 20
10.9040683284
 10
-13.5416172628
 20
10.9064584194
  0
LWPOLYLINE
  5
2A8
100
AcDbEntity
  8
0
100
AcDbPolyline
 62
253
  6
CONTINUOUS
 90
53
 70
0
 10
-13.470804729
 20
13.8084874177
 10
-13.4744202746
 20
13.8153030571
 10
-13.4778759288
 20
13.822128007
 10
-13.4811829294
 20
13.8289780803
 10
-13.4843525145
 20
13.8358690901
 10
-13.487395922
 20
13.8428168493
 10
-13.4903219903
 20
13.8498339805
 10
-13.4931299599
 20
13.8569203438
 10
-13.4958166719
 20
13.8640726087
 10
-13.4983789673
 20
13.871287445
 10
-13.5008136871
 20
13.8785615221
 10
-13.5031172803
 20
13.885890358
 10
-13.5052846282
 20
13.8932648636
 10
-13.5073102198
 20
13.9006747982
 10
-13.5091885444
 20
13.9081099209
 10
-13.5109140912
 20
13.915559991
 10
-13.5122312196
 20
13.9217702838
 10
-13.5134343594
 20
13.9279651451
 10
-13.5145194445
 20
13.934125875
 10
-13.5154831239
 20
13.9402386843
 10
-13.5163249059
 20
13.946309427
 10
-13.5170450136
 20
13.9523488675
 10
-13.51774786
 20
13.9595641396
 10
-13.5182702802
 20
13.9667330715
 10
-13.5186067374
 20
13.9738388972
 10
-13.5187516949
 20
13.9808648506
 10
-13.518699616
 20
13.9877941653
 10
-13.5184466029
 20
13.9946114854
 10
-13.5179953133
 20
14.0013070954
 10
-13.5173500438
 20
14.00787269
 10
-13.516515091
 20
14.0142999637
 10
-13.5154947515
 20
14.0205806113
 10
-13.5145052268
 20
14.0256988617
 10
-13.5133880708
 20
14.0307189663
 10
-13.5121414093
 20
14.0356503708
 10
-13.5107646563
 20
14.0404977517
 10
-13.5092623792
 20
14.0452467084
 10
-13.5076404335
 20
14.0498780711
 10
-13.5055440166
 20
14.0552581587
 10
-13.5032916421
 20
14.060436184
 10
-13.5008912432
 20
14.0654070247
 10
-13.498350753
 20
14.070165558
 10
-13.4956781044
 20
14.0747066614
 10
-13.492880394
 20
14.079026514
 10
-13.4899613709
 20
14.0831265014
 10
-13.4869239477
 20
14.0870093108
 10
-13.483771037
 20
14.0906776293
 10
-13.4805055513
 20
14.0941341441
 10
-13.4771279036
 20
14.0973814857
 10
-13.4736285092
 20
14.1004220571
 10
-13.4699952838
 20
14.1032582047
 10
-13.4662161431
 20
14.1058922747
 10
-13.4622790029
 20
14.1083266133
  0
LINE
  5
2A9
100
AcDbEntity
  8
ASSI
100
AcDbLine
 62
7
  6
CONTINUOUS
 10
2.1892367251
 20
16.4066582683
 11
2.0090020767
 21
15.9924762589
  0
LWPOLYLINE
  5
2AA
100
AcDbEntity
  8
0
100
AcDbPolyline
 62
253
  6
CONTINUOUS
 90
42
 70
0
 10
-10.6562941967
 20
-8.9576224761
 10
-10.6581687516
 20
-8.9602574366
 10
-10.6601231349
 20
-8.9627693257
 10
-10.6621575328
 20
-8.9651636601
 10
-10.6642721315
 20
-8.9674459566
 10
-10.6664671174
 20
-8.969621732
 10
-10.6687426766
 20
-8.9716965032
 10
-10.6715798647
 20
-8.9740590729
 10
-10.6745330565
 20
-8.9762840869
 10
-10.6776019619
 20
-8.9783714913
 10
-10.6807862909
 20
-8.9803212324
 10
-10.6840857534
 20
-8.9821332562
 10
-10.6874989217
 20
-8.9838071193
 10
-10.6910198174
 20
-8.9853408188
 10
-10.6946413243
 20
-8.9867319623
 10
-10.6983563264
 20
-8.9879781572
 10
-10.7021577077
 20
-8.989077011
 10
-10.7060387325
 20
-8.9900266028
 10
-10.7099941872
 20
-8.9908268981
 10
-10.7140192388
 20
-8.9914783338
 10
-10.7181090541
 20
-8.991981347
 10
-10.7222588001
 20
-8.9923363748
 10
-10.7264638037
 20
-8.9925437862
 10
-10.7307200319
 20
-8.9926036792
 10
-10.735023612
 20
-8.9925160837
 10
-10.739370671
 20
-8.9922810298
 10
-10.7437573361
 20
-8.9918985474
 10
-10.7481789292
 20
-8.9913690226
 10
-10.7526275516
 20
-8.9906942657
 10
-10.7570944997
 20
-8.9898764429
 10
-10.7615710696
 20
-8.9889177208
 10
-10.7660485574
 20
-8.9878202657
 10
-10.7705196511
 20
-8.9865860458
 10
-10.7749826046
 20
-8.9852162375
 10
-10.7794370636
 20
-8.9837118193
 10
-10.7838826737
 20
-8.9820737693
 10
-10.7883190806
 20
-8.980303066
 10
-10.7927473098
 20
-8.9783992803
 10
-10.7971739061
 20
-8.9763563536
 10
-10.8016067942
 20
-8.9741668199
 10
-10.8060538987
 20
-8.9718232133
 10
-10.8105231444
 20
-8.9693180677
  0
LWPOLYLINE
  5
2AB
100
AcDbEntity
  8
0
100
AcDbPolyline
 62
253
  6
CONTINUOUS
 90
53
 70
0
 10
-11.3042230226
 20
-8.1722975398
 10
-11.3015509421
 20
-8.1685960078
 10
-11.2987505263
 20
-8.1651151187
 10
-11.2958177163
 20
-8.1618425123
 10
-11.2927484533
 20
-8.1587658282
 10
-11.2895386784
 20
-8.155872706
 10
-11.2861850376
 20
-8.1531534709
 10
-11.2826869975
 20
-8.1506091905
 10
-11.2790447295
 20
-8.1482436178
 10
-11.275258405
 20
-8.1460605058
 10
-11.2713281956
 20
-8.1440636076
 10
-11.267254898
 20
-8.1422570051
 10
-11.2630418108
 20
-8.1406460953
 10
-11.2586928576
 20
-8.1392366043
 10
-11.2542119625
 20
-8.1380342578
 10
-11.249603049
 20
-8.1370447819
 10
-11.24566891
 20
-8.1363867605
 10
-11.2416603637
 20
-8.1358826646
 10
-11.2375891796
 20
-8.1355346167
 10
-11.2334637799
 20
-8.1353446618
 10
-11.2292791979
 20
-8.1353145357
 10
-11.2250271198
 20
-8.1354458968
 10
-11.2198277126
 20
-8.1358192932
 10
-11.2145280967
 20
-8.1364320737
 10
-11.2091372295
 20
-8.137288693
 10
-11.2036640687
 20
-8.1383936055
 10
-11.1981175719
 20
-8.1397512657
 10
-11.19250685
 20
-8.1413641404
 10
-11.1868416271
 20
-8.1432267462
 10
-11.1811317809
 20
-8.1453316115
 10
-11.1753871888
 20
-8.1476712653
 10
-11.1696177283
 20
-8.1502382363
 10
-11.1647955467
 20
-8.1525470615
 10
-11.1599541065
 20
-8.1550128011
 10
-11.1550845595
 20
-8.1576396987
 10
-11.1501827824
 20
-8.1604293733
 10
-11.145263553
 20
-8.1633729449
 10
-11.1403463737
 20
-8.1664589089
 10
-11.1344719827
 20
-8.1703351786
 10
-11.1286386762
 20
-8.1743881685
 10
-11.1228565024
 20
-8.1786061207
 10
-11.1171355094
 20
-8.182977277
 10
-11.1114857455
 20
-8.1874898795
 10
-11.1059156071
 20
-8.1921335424
 10
-11.1004268832
 20
-8.1969033693
 10
-11.095019711
 20
-8.201795836
 10
-11.0896942279
 20
-8.2068074183
 10
-11.0844505712
 20
-8.211934592
 10
-11.0792870116
 20
-8.2171772418
 10
-11.0741943552
 20
-8.2225488877
 10
-11.0691615414
 20
-8.2280664584
 10
-11.0641775097
 20
-8.2337468829
 10
-11.0592311996
 20
-8.2396070899
  0
LWPOLYLINE
  5
2AC
100
AcDbEntity
  8
ASSI
100
AcDbPolyline
 62
253
  6
CONTINUOUS
 90
9
 70
0
 10
10.9117773982
 20
-10.8072116822
 10
10.0406045239
 20
-10.3717895094
 10
9.1761734331
 20
-9.9313046952
 10
8.3184516502
 20
-9.4857607843
 10
7.4674716508
 20
-9.0351542321
 10
6.6233308622
 20
-8.5794744042
 10
5.7860617602
 20
-8.1187177559
 10
4.955631869
 20
-7.652887832
 10
4.1320411885
 20
-7.1819846325
  0
LWPOLYLINE
  5
2AD
100
AcDbEntity
  8
ASSI
100
AcDbPolyline
 62
253
  6
CONTINUOUS
 90
10
 70
0
 10
3.781625009
 20
-6.565311963
 10
4.608483003
 20
-7.0382402878
 10
5.4423400154
 20
-7.5062477458
 10
6.2831300502
 20
-7.969323954
 10
7.1307565336
 20
-8.4274423379
 10
7.9851843241
 20
-8.880609392
 10
8.8464424658
 20
-9.3288630118
 10
9.7145001891
 20
-9.7722075791
 10
10.5892641557
 20
-10.2106156284
 10
11.470672397
 20
-10.6440759406
  0
LWPOLYLINE
  5
2AE
100
AcDbEntity
  8
ASSI
100
AcDbPolyline
 62
7
  6
CONTINUOUS
 90
10
 70
0
 10
3.8851722871
 20
-6.794952233
 10
4.6633385204
 20
-7.240275692
 10
5.5066696332
 20
-7.7140693068
 10
6.358030658
 20
-8.1833206148
 10
7.2173355754
 20
-8.6479787829
 10
8.0845110433
 20
-9.1080028996
 10
8.9594892908
 20
-9.5633557084
 10
9.8421959721
 20
-10.013997088
 10
10.7325388826
 20
-10.4598805998
 10
11.5738166903
 20
-10.8734021414
  0
LINE
  5
2AF
100
AcDbEntity
  8
ASSI
100
AcDbLine
 62
253
  6
CONTINUOUS
 10
4.1320411885
 20
-7.1819846325
 11
-11.7754162457
 21
2.0027819228
  0
LINE
  5
2B0
100
AcDbEntity
  8
ASSI
100
AcDbLine
 62
7
  6
CONTINUOUS
 10
-12.0224009533
 20
2.3897485707
 11
3.885056481
 21
-6.7950179845
  0
LINE
  5
2B1
100
AcDbEntity
  8
ASSI
100
AcDbLine
 62
253
  6
CONTINUOUS
 10
-12.1259350155
 20
2.6193804316
 11
3.7815091604
 21
-6.5653784685
  0
LWPOLYLINE
  5
2B2
100
AcDbEntity
  8
ASSI
100
AcDbPolyline
 62
253
  6
CONTINUOUS
 90
5
 70
0
 10
-11.7754162457
 20
2.0027819228
 10
-12.5910673372
 20
2.4783565321
 10
-13.3980654518
 20
2.9579571709
 10
-14.1964105895
 20
3.4415838394
 10
-14.9860968993
 20
3.9292555061
  0
LWPOLYLINE
  5
2B3
100
AcDbEntity
  8
ASSI
100
AcDbPolyline
 62
253
  6
CONTINUOUS
 90
6
 70
0
 10
-14.9860968993
 20
3.9292555061
 10
-15.7671302322
 20
4.4209532024
 10
-16.5395281412
 20
4.9166200223
 10
-17.3032964771
 20
5.4162369973
 10
-18.0584293891
 20
5.9198230959
 10
-18.8049268771
 20
6.4273783181
  0
LWPOLYLINE
  5
2B4
100
AcDbEntity
  8
0
100
AcDbPolyline
 62
253
  6
CONTINUOUS
 90
53
 70
0
 10
-11.3023106872
 20
11.9034665215
 10
-11.3060010031
 20
11.9102962301
 10
-11.3095291155
 20
11.9171346605
 10
-11.3129064236
 20
11.9239976989
 10
-11.3161443264
 20
11.9309012315
 10
-11.3192542232
 20
11.9378611445
 10
-11.3222450698
 20
11.9448901514
 10
-11.3251160487
 20
11.951988275
 10
-11.3278638991
 20
11.9591523655
 10
-11.3304853602
 20
11.966379273
 10
-11.3329771712
 20
11.9736658477
 10
-11.3353356491
 20
11.981007724
 10
-11.3375554219
 20
11.9883956734
 10
-11.3396306956
 20
11.9958192518
 10
-11.341555676
 20
12.003268015
 10
-11.3433245691
 20
12.0107315189
 10
-11.3446750877
 20
12.0169526588
 10
-11.3459089635
 20
12.0231577063
 10
-11.3470219714
 20
12.0293275854
 10
-11.3480106394
 20
12.0354481995
 10
-11.3488745078
 20
12.0415253699
 10
-11.3496138702
 20
12.0475698973
 10
-11.3503361649
 20
12.054789605
 10
-11.3508740684
 20
12.0619614591
 10
-11.3512220554
 20
12.0690690588
 10
-11.3513746006
 20
12.0760960034
 10
-11.3513261787
 20
12.0830258921
 10
-11.3510729461
 20
12.0898436575
 10
-11.3506177848
 20
12.0965395667
 10
-11.3499652584
 20
12.1031052201
 10
-11.3491199307
 20
12.1095322183
 10
-11.3480863651
 20
12.1158121619
 10
-11.3470838188
 20
12.1209294479
 10
-11.345951914
 20
12.1259482762
 10
-11.3446888438
 20
12.1308781434
 10
-11.343294089
 20
12.1357238123
 10
-11.3417722821
 20
12.1404711104
 10
-11.3401293435
 20
12.1451011315
 10
-11.3380058876
 20
12.1504803265
 10
-11.3357245286
 20
12.1556583196
 10
-11.3332932676
 20
12.1606300133
 10
-11.330720106
 20
12.1653903095
 10
-11.3280130448
 20
12.1699341106
 10
-11.3251792527
 20
12.1742575989
 10
-11.3222225683
 20
12.1783620785
 10
-11.3191459974
 20
12.1822501335
 10
-11.3159525461
 20
12.185924348
 10
-11.3126452204
 20
12.1893873062
 10
-11.309224482
 20
12.1926415664
 10
-11.3056806168
 20
12.195689583
 10
-11.3020013664
 20
12.1985337845
 10
-11.2981744723
 20
12.2011765994
 10
-11.2941876763
 20
12.2036204562
  0
LWPOLYLINE
  5
2B5
100
AcDbEntity
  8
0
100
AcDbPolyline
 62
253
  6
CONTINUOUS
 90
53
 70
0
 10
-10.48495001
 20
12.3753120296
 10
-10.4812691365
 20
12.368460717
 10
-10.477751391
 20
12.3616013396
 10
-10.4743853978
 20
12.3547180875
 10
-10.4711597809
 20
12.3477951507
 10
-10.4680631646
 20
12.3408167193
 10
-10.4650865988
 20
12.3337701218
 10
-10.4622308362
 20
12.3266552397
 10
-10.4594990551
 20
12.3194750927
 10
-10.4568944339
 20
12.3122327007
 10
-10.4544201508
 20
12.3049310836
 10
-10.4520798209
 20
12.2975745305
 10
-10.4498788055
 20
12.2901724084
 10
-10.4478229024
 20
12.2827353535
 10
-10.4459179098
 20
12.2752740021
 10
-10.4441696254
 20
12.2677989904
 10
-10.4428367471
 20
12.2615692629
 10
-10.4416208834
 20
12.2553568528
 10
-10.4405261975
 20
12.2491811774
 10
-10.4395560984
 20
12.2430566194
 10
-10.4387109789
 20
12.236977423
 10
-10.4379904777
 20
12.2309327978
 10
-10.4372908441
 20
12.2237154721
 10
-10.4367753987
 20
12.2165484457
 10
-10.4364493994
 20
12.2094477737
 10
-10.4363181042
 20
12.2024295111
 10
-10.4363867713
 20
12.1955097128
 10
-10.4366590034
 20
12.1887031671
 10
-10.4371317823
 20
12.1820195947
 10
-10.4378004348
 20
12.1754674493
 10
-10.4386602875
 20
12.169055185
 10
-10.439706667
 20
12.1627912555
 10
-10.4407185137
 20
12.1576883298
 10
-10.4418584403
 20
12.1526848081
 10
-10.4431282396
 20
12.1477712135
 10
-10.4445284244
 20
12.1429427554
 10
-10.4460543868
 20
12.1382133894
 10
-10.4477002394
 20
12.1336017573
 10
-10.4498256105
 20
12.1282449257
 10
-10.4521072701
 20
12.1230895108
 10
-10.4545373435
 20
12.1181405478
 10
-10.4571079559
 20
12.113403072
 10
-10.4598112325
 20
12.1088821189
 10
-10.4626401176
 20
12.1045814653
 10
-10.4655908318
 20
12.1004998555
 10
-10.4686604148
 20
12.0966347751
 10
-10.4718459061
 20
12.0929837099
 10
-10.4751443456
 20
12.0895441457
 10
-10.4785552965
 20
12.0863135951
 10
-10.4820884174
 20
12.0832896791
 10
-10.4857558905
 20
12.0804700452
 10
-10.489569898
 20
12.0778523411
 10
-10.4935426223
 20
12.0754342147
  0
LINE
  5
2B6
100
AcDbEntity
  8
ASSI
100
AcDbLine
 62
253
  6
CONTINUOUS
 10
12.5827222547
 20
7.3805885628
 11
15.1370247475
 21
8.930767738
  0
LWPOLYLINE
  5
2B7
100
AcDbEntity
  8
ASSI
100
AcDbPolyline
 62
253
  6
CONTINUOUS
 90
10
 70
0
 10
4.1674613216
 20
-23.9977831839
 10
4.1738732982
 20
-24.0735236997
 10
4.1858622402
 20
-24.1451784333
 10
4.203348667
 20
-24.2122721751
 10
4.2262166543
 20
-24.2743599918
 10
4.2543145649
 20
-24.331030072
 10
4.2874560258
 20
-24.3819064886
 10
4.3254212282
 20
-24.4266518225
 10
4.3679584129
 20
-24.4649693669
 10
4.4148047642
 20
-24.4966161457
  0
LINE
  5
2B8
100
AcDbEntity
  8
ASSI
100
AcDbLine
 62
253
  6
CONTINUOUS
 10
2.0090020767
 20
15.9924762589
 11
2.0090020942
 21
15.9305029952
  0
LINE
  5
2B9
100
AcDbEntity
  8
ASSI
100
AcDbLine
 62
253
  6
CONTINUOUS
 10
12.9454030972
 20
6.7741855817
 11
15.5218118349
 21
8.3377808032
  0
LWPOLYLINE
  5
2BA
100
AcDbEntity
  8
0
100
AcDbPolyline
 62
253
  6
CONTINUOUS
 90
13
 70
0
 10
-12.0796491103
 20
9.0145662157
 10
-12.0782258695
 20
9.0137513369
 10
-12.0767979764
 20
9.0129482184
 10
-12.0753653756
 20
9.0121568997
 10
-12.0739280115
 20
9.0113774201
 10
-12.0724858646
 20
9.0106098392
 10
-12.0710390594
 20
9.0098542964
 10
-12.0695877566
 20
9.0091109515
 10
-12.0681321165
 20
9.0083799641
 10
-12.0666722653
 20
9.0076614772
 10
-12.0652081911
 20
9.0069555689
 10
-12.0637398477
 20
9.0062623004
 10
-12.062267189
 20
9.0055817332
  0
LINE
  5
2BB
100
AcDbEntity
  8
ASSI
100
AcDbLine
 62
7
  6
CONTINUOUS
 10
15.7148867649
 20
-9.0483342545
 11
15.5650540796
 21
-8.9618227398
  0
LWPOLYLINE
  5
2BC
100
AcDbEntity
  8
0
100
AcDbPolyline
 62
253
  6
CONTINUOUS
 90
13
 70
0
 10
-12.0365318322
 20
10.311123095
 10
-12.0379727045
 20
10.3121201643
 10
-12.0394099662
 20
10.3131004309
 10
-12.0408436586
 20
10.3140640021
 10
-12.0422738227
 20
10.3150109851
 10
-12.0437004669
 20
10.3159414648
 10
-12.0451234678
 20
10.316855437
 10
-12.0465426693
 20
10.3177528749
 10
-12.0479579154
 20
10.318633752
 10
-12.0493690843
 20
10.3194980622
 10
-12.050776192
 20
10.3203458822
 10
-12.0521792889
 20
10.321177309
 10
-12.0535784255
 20
10.3219924398
  0
LWPOLYLINE
  5
2BD
100
AcDbEntity
  8
ASSI
100
AcDbPolyline
 62
253
  6
CONTINUOUS
 90
9
 70
0
 10
3.7815157943
 20
-6.5653822988
 10
3.7833675038
 20
-6.6068138338
 10
3.7890407068
 20
-6.6455849491
 10
3.7984736346
 20
-6.6812744622
 10
3.8115637163
 20
-6.7134947883
 10
3.8281685829
 20
-6.7418958506
 10
3.8481075132
 20
-6.7661690003
 10
3.871163671
 20
-6.7860507642
 10
3.885056481
 20
-6.7950179845
  0
LWPOLYLINE
  5
2BE
100
AcDbEntity
  8
ASSI
100
AcDbPolyline
 62
253
  6
CONTINUOUS
 90
3
 70
0
 10
3.9591802562
 20
-18.64574696
 10
4.0533729177
 20
-21.3280987793
 10
4.1674550151
 20
-23.9977795427
  0
LINE
  5
2BF
100
AcDbEntity
  8
ASSI
100
AcDbLine
 62
7
  6
CONTINUOUS
 10
2.1892367251
 20
16.4066582683
 11
2.2104403391
 21
15.7902344727
  0
LINE
  5
2C0
100
AcDbEntity
  8
ASSI
100
AcDbLine
 62
253
  6
CONTINUOUS
 10
3.884888337
 20
-15.9509097597
 11
3.9591802562
 21
-18.64574696
  0
LWPOLYLINE
  5
2C1
100
AcDbEntity
  8
ASSI
100
AcDbPolyline
 62
253
  6
CONTINUOUS
 90
4
 70
0
 10
3.7815091699
 20
-7.7933568498
 10
3.7960449769
 20
-10.5245266712
 10
3.830507072
 20
-13.243773807
 10
3.884888337
 20
-15.9509097597
  0
LWPOLYLINE
  5
2C2
100
AcDbEntity
  8
ASSI
100
AcDbPolyline
 62
253
  6
CONTINUOUS
 90
5
 70
0
 10
3.7815091604
 20
-6.5653784685
 10
3.7960452093
 20
-3.8177117591
 10
3.8305073076
 20
-1.0590258816
 10
3.8848883371
 20
1.7104824465
 10
3.9591797823
 20
4.4906158222
  0
LWPOLYLINE
  5
2C3
100
AcDbEntity
  8
ASSI
100
AcDbPolyline
 62
253
  6
CONTINUOUS
 90
3
 70
0
 10
3.9591797823
 20
4.4906158222
 10
4.0533717312
 20
7.281176171
 10
4.1674528774
 20
10.0819647615
  0
LWPOLYLINE
  5
2C4
100
AcDbEntity
  8
ASSI
100
AcDbPolyline
 62
253
  6
CONTINUOUS
 90
16
 70
0
 10
3.7815157943
 20
-7.7933606747
 10
3.7833670296
 20
-7.7497964339
 10
3.7890388862
 20
-7.7044795213
 10
3.798469749
 20
-7.6579022258
 10
3.8115571683
 20
-7.6105705281
 10
3.8281589722
 20
-7.5629986043
 10
3.8480948108
 20
-7.5157032401
 10
3.8711481163
 20
-7.4691982169
 10
3.8970684546
 20
-7.4239887302
 10
3.9255742467
 20
-7.3805659018
 10
3.956355827
 20
-7.3394014445
 10
3.9890788075
 20
-7.300942538
 10
4.0233877106
 20
-7.2656069705
 10
4.0589098301
 20
-7.233778601
 10
4.0952592804
 20
-7.2058031889
 10
4.1320411886
 20
-7.1819846379
  0
LWPOLYLINE
  5
2C5
100
AcDbEntity
  8
ASSI
100
AcDbPolyline
 62
253
  6
CONTINUOUS
 90
19
 70
0
 10
4.1674613216
 20
10.0819598859
 10
4.1738733424
 20
10.1651051963
 10
4.1858623586
 20
10.2506047485
 10
4.2033488625
 20
10.3378915353
 10
4.226216889
 20
10.4263866971
 10
4.2543147843
 20
10.5155033608
 10
4.2874562116
 20
10.6046505315
 10
4.3254213869
 20
10.6932370122
 10
4.3679585367
 20
10.7806753241
 10
4.4147855675
 20
10.8663856028
 10
4.4655919365
 20
10.9497994435
 10
4.5200407113
 20
11.0303636709
 10
4.577770804
 20
11.1075440074
 10
4.6383993662
 20
11.1808286163
 10
4.7015243274
 20
11.2497314962
 10
4.7667270621
 20
11.3137957041
 10
4.8335751655
 20
11.3725963855
 10
4.901625321
 20
11.425743592
 10
4.9704262407
 20
11.4728848675
  0
LINE
  5
2C6
100
AcDbEntity
  8
ASSI
100
AcDbLine
 62
7
  6
CONTINUOUS
 10
10.1088326744
 20
11.833982823
 11
9.928598026
 21
11.4198008136
  0
LWPOLYLINE
  5
2C7
100
AcDbEntity
  8
0
100
AcDbPolyline
 62
253
  6
CONTINUOUS
 90
49
 70
0
 10
-12.0623519274
 20
9.0055326164
 10
-12.0567701157
 20
9.0030845349
 10
-12.0512345633
 20
9.0008628309
 10
-12.0457430047
 20
8.9988636701
 10
-12.0402931743
 20
8.9970832182
 10
-12.0348828066
 20
8.9955176407
 10
-12.029509636
 20
8.9941631033
 10
-12.0241727897
 20
8.9930166141
 10
-12.0188769662
 20
8.9920785518
 10
-12.0136282567
 20
8.9913501374
 10
-12.0084327526
 20
8.9908325922
 10
-12.003296545
 20
8.9905271372
 10
-11.9982257252
 20
8.9904349935
 10
-11.9932262349
 20
8.9905574369
 10
-11.9883034167
 20
8.9908959614
 10
-11.983462464
 20
8.9914521157
 10
-11.9787085697
 20
8.9922274484
 10
-11.9740469271
 20
8.993223508
 10
-11.9694827292
 20
8.9944418433
 10
-11.9650211786
 20
8.9958836525
 10
-11.9606675151
 20
8.9975487322
 10
-11.9564269879
 20
8.9994365288
 10
-11.9523048462
 20
9.0015464885
 10
-11.9483063391
 20
9.0038780577
 10
-11.9444367159
 20
9.0064306827
 10
-11.9407005147
 20
9.0092028109
 10
-11.9370994293
 20
9.0121888945
 10
-11.9336344426
 20
9.0153823867
 10
-11.9303065373
 20
9.0187767409
 10
-11.9271166964
 20
9.0223654104
 10
-11.9240659027
 20
9.0261418484
 10
-11.9211552496
 20
9.0300999774
 10
-11.9183862736
 20
9.0342355962
 10
-11.9157606217
 20
9.038544973
 10
-11.9132799409
 20
9.0430243758
 10
-11.9109458783
 20
9.0476700726
 10
-11.9087600811
 20
9.0524783314
 10
-11.9067243202
 20
9.057445023
 10
-11.9048408631
 20
9.0625644281
 10
-11.9031121011
 20
9.0678304301
 10
-11.9015404257
 20
9.0732369125
 10
-11.9001282282
 20
9.0787777586
 10
-11.8988779001
 20
9.0844468518
 10
-11.897791989
 20
9.090239835
 10
-11.8968736672
 20
9.0961593886
 10
-11.8961262632
 20
9.1022099525
 10
-11.8955531057
 20
9.1083959666
 10
-11.8951575231
 20
9.1147218707
 10
-11.8949428441
 20
9.1211921047
  0
LINE
  5
2C8
100
AcDbEntity
  8
0
100
AcDbLine
 62
253
  6
CONTINUOUS
 10
-12.025512665
 20
10.8030077018
 11
-12.0304182607
 21
10.8056830392
  0
LWPOLYLINE
  5
2C9
100
AcDbEntity
  8
0
100
AcDbPolyline
 62
253
  6
CONTINUOUS
 90
55
 70
0
 10
-12.0535784255
 20
10.3219924398
 10
-12.0590543369
 20
10.325051547
 10
-12.0644826564
 20
10.3278777151
 10
-12.0698770433
 20
10.3304820909
 10
-12.075251157
 20
10.3328758213
 10
-12.0806186568
 20
10.3350700532
 10
-12.0859904123
 20
10.3370734792
 10
-12.0913661339
 20
10.3388849753
 10
-12.0967427423
 20
10.3405009634
 10
-12.1021171583
 20
10.3419178654
 10
-12.1074863027
 20
10.3431321032
 10
-12.1128462178
 20
10.3441398907
 10
-12.1181894333
 20
10.344936611
 10
-12.1235076007
 20
10.345517439
 10
-12.1287923712
 20
10.34587755
 10
-12.1340353964
 20
10.346012119
 10
-12.1383652771
 20
10.3459489651
 10
-12.142647169
 20
10.345725893
 10
-12.1468678705
 20
10.3453429616
 10
-12.1510175193
 20
10.344799713
 10
-12.1550996084
 20
10.3440936225
 10
-12.1591209696
 20
10.3432216487
 10
-12.1630861262
 20
10.3421810015
 10
-12.1669903662
 20
10.3409698965
 10
-12.1708266687
 20
10.3395868005
 10
-12.174588013
 20
10.3380301805
 10
-12.1782673782
 20
10.3362985032
 10
-12.1818577436
 20
10.3343902356
 10
-12.1853528966
 20
10.3323049695
 10
-12.1887498578
 20
10.3300467959
 10
-12.1920464561
 20
10.3276209311
 10
-12.1952405204
 20
10.3250325909
 10
-12.1983298794
 20
10.3222869915
 10
-12.201312362
 20
10.3193893489
 10
-12.2041870463
 20
10.3163430743
 10
-12.2069580068
 20
10.3131443598
 10
-12.2096305671
 20
10.3097875923
 10
-12.2122075068
 20
10.3062704986
 10
-12.2146814287
 20
10.3026041627
 10
-12.2170423914
 20
10.298803008
 10
-12.2197152101
 20
10.2940819791
 10
-12.2222104762
 20
10.2892005606
 10
-12.224527614
 20
10.2841717321
 10
-12.2266660475
 20
10.279008473
 10
-12.228625201
 20
10.273723763
 10
-12.2304050299
 20
10.2683289854
 10
-12.232007614
 20
10.2628291388
 10
-12.2334355642
 20
10.2572276255
 10
-12.2346914915
 20
10.251527848
 10
-12.2357780067
 20
10.2457332085
 10
-12.23669687
 20
10.2398435164
 10
-12.2374464375
 20
10.233844208
 10
-12.2380242146
 20
10.2277171268
 10
-12.2384277063
 20
10.221444116
 10
-12.2386544182
 20
10.2150070191
  0
LINE
  5
2CA
100
AcDbEntity
  8
0
100
AcDbLine
 62
253
  6
CONTINUOUS
 10
-12.0304182607
 20
10.8056830392
 11
-12.03532042
 21
10.8084086091
  0
LWPOLYLINE
  5
2CB
100
AcDbEntity
  8
0
100
AcDbPolyline
 62
253
  6
CONTINUOUS
 90
3
 70
0
 10
-12.03532042
 20
10.8084086091
 10
-12.0402187159
 20
10.8111843145
 10
-12.0426662818
 20
10.8125909376
  0
LINE
  5
2CC
100
AcDbEntity
  8
0
100
AcDbLine
 62
253
  6
CONTINUOUS
 10
-10.0990473916
 20
10.1574345118
 11
-10.8564571407
 21
10.5947534084
  0
LINE
  5
2CD
100
AcDbEntity
  8
0
100
AcDbLine
 62
253
  6
CONTINUOUS
 10
-10.8460321787
 20
11.0187079095
 11
-10.0886224296
 21
10.581389013
  0
LINE
  5
2CE
100
AcDbEntity
  8
0
100
AcDbLine
 62
253
  6
CONTINUOUS
 10
-12.0095694311
 20
12.1592139554
 11
-12.0047289118
 21
12.1563934806
  0
LWPOLYLINE
  5
2CF
100
AcDbEntity
  8
0
100
AcDbPolyline
 62
253
  6
CONTINUOUS
 90
36
 70
0
 10
-11.213586685
 20
10.2449190537
 10
-11.2095175292
 20
10.2425074146
 10
-11.2054667314
 20
10.2399836782
 10
-11.2014333014
 20
10.2373497062
 10
-11.197416249
 20
10.2346073601
 10
-11.1934145841
 20
10.2317585018
 10
-11.1894273166
 20
10.2288049927
 10
-11.1854534562
 20
10.2257486946
 10
-11.1814926335
 20
10.2225917329
 10
-11.1775469614
 20
10.2193372881
 10
-11.1736191736
 20
10.2159888048
 10
-11.1697120037
 20
10.2125497272
 10
-11.1658281853
 20
10.2090234998
 10
-11.1619704521
 20
10.205413567
 10
-11.1581415376
 20
10.2017233732
 10
-11.1543438807
 20
10.1979560049
 10
-11.1505787407
 20
10.1941131167
 10
-11.1468470825
 20
10.1901960053
 10
-11.1431498705
 20
10.1862059676
 10
-11.1394880695
 20
10.1821443003
 10
-11.135862644
 20
10.1780123001
 10
-11.1322745588
 20
10.1738112638
 10
-11.1287249586
 20
10.1695425238
 10
-11.1252157091
 20
10.165207556
 10
-11.1217488561
 20
10.1608078717
 10
-11.1183264454
 20
10.1563449824
 10
-11.1149505228
 20
10.1518203995
 10
-11.111623134
 20
10.1472356345
 10
-11.1083463251
 20
10.1425921989
 10
-11.1051220234
 20
10.1378910711
 10
-11.1019516838
 20
10.1331310976
 10
-11.0988366428
 20
10.1283105922
 10
-11.0957782369
 20
10.1234278683
 10
-11.0927778027
 20
10.1184812396
 10
-11.0898366767
 20
10.1134690195
 10
-11.0869561954
 20
10.1083895218
  0
LWPOLYLINE
  5
2D0
100
AcDbEntity
  8
0
100
AcDbPolyline
 62
253
  6
CONTINUOUS
 90
57
 70
0
 10
-12.0426671853
 20
10.812590416
 10
-12.0576090324
 20
10.8214707889
 10
-12.0725310262
 20
10.8308389292
 10
-12.0874613827
 20
10.8407102688
 10
-12.1024283178
 20
10.8511002397
 10
-12.1174558493
 20
10.8620240298
 10
-12.1325512023
 20
10.8734958502
 10
-12.1477174036
 20
10.8855296676
 10
-12.1629574803
 20
10.898139449
 10
-12.1782672478
 20
10.9113324902
 10
-12.1936136765
 20
10.9250894037
 10
-12.2089565254
 20
10.9393841311
 10
-12.2242555536
 20
10.9541906139
 10
-12.2394736317
 20
10.9694841873
 10
-12.2545860766
 20
10.9852457602
 10
-12.2695713168
 20
11.0014576353
 10
-12.2844077807
 20
11.0181021152
 10
-12.2990747576
 20
11.0351622528
 10
-12.313554979
 20
11.0526241017
 10
-12.3278320373
 20
11.0704744659
 10
-12.3418895249
 20
11.0887001494
 10
-12.3557117516
 20
11.107289411
 10
-12.3692858982
 20
11.1262363295
 10
-12.3825998628
 20
11.1455364382
 10
-12.3956415436
 20
11.1651852708
 10
-12.4083960322
 20
11.1851737475
 10
-12.4208371928
 20
11.2054743362
 10
-12.4329360831
 20
11.2260548913
 10
-12.4446637607
 20
11.2468832675
 10
-12.4559935324
 20
11.2679233186
 10
-12.4669077026
 20
11.2891228954
 10
-12.4773908247
 20
11.3104258483
 10
-12.4874274524
 20
11.3317760273
 10
-12.4970067944
 20
11.3531272484
 10
-12.5061366804
 20
11.3744731911
 10
-12.5148295952
 20
11.3958175004
 10
-12.5230980237
 20
11.4171638214
 10
-12.5309524842
 20
11.4385141326
 10
-12.5383956294
 20
11.4598637453
 10
-12.5454281454
 20
11.4812063042
 10
-12.5520507185
 20
11.5025354537
 10
-12.5582626457
 20
11.5238397855
 10
-12.5640576673
 20
11.5450876785
 10
-12.5694281344
 20
11.5662424587
 10
-12.5743663982
 20
11.5872674518
 10
-12.5788658744
 20
11.608124702
 10
-12.5829242373
 20
11.6287711263
 10
-12.5865402257
 20
11.6491623597
 10
-12.5897125783
 20
11.6692540375
 10
-12.592441624
 20
11.689010448
 10
-12.5947340514
 20
11.7084304924
 10
-12.5965981389
 20
11.7275217249
 10
-12.5980421653
 20
11.7462916999
 10
-12.5990725724
 20
11.7647519214
 10
-12.5996884562
 20
11.7829296921
 10
-12.5998870759
 20
11.8008562646
 10
-12.5996656907
 20
11.8185628914
  0
LINE
  5
2D1
100
AcDbEntity
  8
0
100
AcDbLine
 62
253
  6
CONTINUOUS
 10
-12.0047289118
 20
12.1563934806
 11
-11.9998843491
 21
12.1535195268
  0
LWPOLYLINE
  5
2D2
100
AcDbEntity
  8
0
100
AcDbPolyline
 62
253
  6
CONTINUOUS
 90
55
 70
0
 10
-10.0886224296
 20
10.581389013
 10
-10.0831500557
 20
10.5781252572
 10
-10.0777343686
 20
10.5746882305
 10
-10.0723615098
 20
10.5710731568
 10
-10.0670176205
 20
10.5672752598
 10
-10.0616888422
 20
10.5632897632
 10
-10.0563641569
 20
10.5591126863
 10
-10.0510439093
 20
10.5547432303
 10
-10.0457312848
 20
10.550181392
 10
-10.0404294689
 20
10.5454271683
 10
-10.0351416469
 20
10.540480556
 10
-10.0298718673
 20
10.5353423508
 10
-10.0246276312
 20
10.5300165443
 10
-10.0194173027
 20
10.5245079271
 10
-10.0142492459
 20
10.5188212896
 10
-10.0091318249
 20
10.5129614224
 10
-10.0049133593
 20
10.5079513842
 10
-10.000748731
 20
10.5028394861
 10
-9.996650805
 20
10.4976408399
 10
-9.9926292144
 20
10.4923662346
 10
-9.9886806646
 20
10.4870091699
 10
-9.9847986291
 20
10.4815588228
 10
-9.9809788295
 20
10.4760072651
 10
-9.9772259803
 20
10.4703581486
 10
-9.9735470443
 20
10.46461802
 10
-9.9699489843
 20
10.458793426
 10
-9.9664387629
 20
10.4528909132
 10
-9.9630233431
 20
10.4469170283
 10
-9.9597088404
 20
10.440878495
 10
-9.956497983
 20
10.4347827448
 10
-9.9533926518
 20
10.4286373863
 10
-9.9503947277
 20
10.4224500278
 10
-9.9475060917
 20
10.4162282779
 10
-9.9447286248
 20
10.4099797451
 10
-9.9420630682
 20
10.4037088381
 10
-9.9395056042
 20
10.3974071664
 10
-9.9370512754
 20
10.3910631398
 10
-9.9346974594
 20
10.3846713595
 10
-9.932450874
 20
10.3782511936
 10
-9.9303205723
 20
10.3718282013
 10
-9.9279278375
 20
10.3641477415
 10
-9.9257155492
 20
10.3565134271
 10
-9.9236836691
 20
10.3489386677
 10
-9.9218321591
 20
10.3414368727
 10
-9.9201609808
 20
10.3340214518
 10
-9.9186696502
 20
10.3267036392
 10
-9.9173559
 20
10.3194859682
 10
-9.9162170167
 20
10.3123687968
 10
-9.9152502871
 20
10.3053524831
 10
-9.914452998
 20
10.2984373852
 10
-9.9138234316
 20
10.2916213058
 10
-9.9133638521
 20
10.2848918273
 10
-9.9130775192
 20
10.2782339768
 10
-9.9129676927
 20
10.2716327812
 10
-9.9130376324
 20
10.2650732679
  0
LWPOLYLINE
  5
2D3
100
AcDbEntity
  8
0
100
AcDbPolyline
 62
253
  6
CONTINUOUS
 90
55
 70
0
 10
-10.8564571407
 20
10.5947534084
 10
-10.8619387685
 20
10.5980234537
 10
-10.8673636346
 20
10.6014685317
 10
-10.8727454632
 20
10.6050932093
 10
-10.8780979786
 20
10.6089020534
 10
-10.8834349049
 20
10.6128996311
 10
-10.8887671625
 20
10.6170897415
 10
-10.8940944562
 20
10.6214731137
 10
-10.8994136867
 20
10.6260497087
 10
-10.904721755
 20
10.6308194877
 10
-10.9100155619
 20
10.635782412
 10
-10.9152911297
 20
10.6409376272
 10
-10.9205409664
 20
10.6462810163
 10
-10.9257567018
 20
10.6518076466
 10
-10.9309299651
 20
10.6575125857
 10
-10.9360523861
 20
10.6633909009
 10
-10.9402748461
 20
10.6684162994
 10
-10.9444432579
 20
10.6735433439
 10
-10.9485446935
 20
10.6787567058
 10
-10.9525694687
 20
10.6840453953
 10
-10.9565208751
 20
10.6894157773
 10
-10.9604054485
 20
10.6948785557
 10
-10.9642274936
 20
10.7004415605
 10
-10.9679823919
 20
10.7061011267
 10
-10.9716632938
 20
10.7118507153
 10
-10.9752633499
 20
10.7176837876
 10
-10.9787757108
 20
10.7235938048
 10
-10.982193527
 20
10.7295742281
 10
-10.9855107707
 20
10.7356183434
 10
-10.9887247012
 20
10.7417187362
 10
-10.9918333995
 20
10.7478678167
 10
-10.9948349464
 20
10.7540579952
 10
-10.997727423
 20
10.7602816819
 10
-11.0005089102
 20
10.766531287
 10
-11.0031786286
 20
10.7728024118
 10
-11.0057403565
 20
10.7791034208
 10
-11.0081990123
 20
10.7854458697
 10
-11.0105571843
 20
10.7918351532
 10
-11.0128081435
 20
10.7982520229
 10
-11.0149428311
 20
10.8046710695
 10
-11.0173408288
 20
10.8123461211
 10
-11.0195583314
 20
10.8199744016
 10
-11.0215953195
 20
10.8275425947
 10
-11.0234517735
 20
10.8350373839
 10
-11.0251276739
 20
10.842445453
 10
-11.0266234496
 20
10.8497556528
 10
-11.0279413227
 20
10.8569655033
 10
-11.0290839636
 20
10.8640746919
 10
-11.0300540427
 20
10.8710829057
 10
-11.0308542305
 20
10.8779898321
 10
-11.0314862101
 20
10.8847976685
 10
-11.0319477157
 20
10.8915186526
 10
-11.0322354944
 20
10.8981675322
 10
-11.032346293
 20
10.9047590553
 10
-11.0322768584
 20
10.9113079696
  0
LINE
  5
2D4
100
AcDbEntity
  8
0
100
AcDbLine
 62
253
  6
CONTINUOUS
 10
-13.1993993056
 20
11.9565339533
 11
-13.6966090821
 21
12.2527757395
  0
LINE
  5
2D5
100
AcDbEntity
  8
0
100
AcDbLine
 62
253
  6
CONTINUOUS
 10
-13.686286062
 20
12.6766714227
 11
-13.1890268107
 21
12.3804581606
  0
LINE
  5
2D6
100
AcDbEntity
  8
0
100
AcDbLine
 62
253
  6
CONTINUOUS
 10
-13.6966090821
 20
12.2527757395
 11
-13.9441713142
 21
12.4014953952
  0
LINE
  5
2D7
100
AcDbEntity
  8
0
100
AcDbLine
 62
253
  6
CONTINUOUS
 10
-13.9338794318
 20
12.8253730579
 11
-13.686286062
 21
12.6766714227
  0
LWPOLYLINE
  5
2D8
100
AcDbEntity
  8
0
100
AcDbPolyline
 62
253
  6
CONTINUOUS
 90
36
 70
0
 10
-12.8718979657
 20
11.2070376432
 10
-12.8678709521
 20
11.2046071295
 10
-12.8638617702
 20
11.2020651726
 10
-12.8598694594
 20
11.19941361
 10
-12.8558930591
 20
11.1966542792
 10
-12.8519316087
 20
11.1937890176
 10
-12.8479841475
 20
11.1908196627
 10
-12.8440497149
 20
11.1877480519
 10
-12.8401279533
 20
11.1845762723
 10
-12.8362209169
 20
11.1813074101
 10
-12.832331263
 20
11.1779448008
 10
-12.8284616489
 20
11.1744917802
 10
-12.8246147318
 20
11.1709516839
 10
-12.8207931689
 20
11.1673278476
 10
-12.8169996177
 20
11.1636236069
 10
-12.8132364669
 20
11.1598419587
 10
-12.8095050324
 20
11.1559845431
 10
-12.8058063616
 20
11.1520526617
 10
-12.8021415019
 20
11.1480476158
 10
-12.7985115008
 20
11.1439707067
 10
-12.7949174057
 20
11.1398232359
 10
-12.7913602641
 20
11.1356065047
 10
-12.7878412959
 20
11.1313218463
 10
-12.7843624115
 20
11.1269707211
 10
-12.780925694
 20
11.1225546212
 10
-12.7775332261
 20
11.118075039
 10
-12.7741870909
 20
11.1135334666
 10
-12.7708893713
 20
11.1089313962
 10
-12.7676421503
 20
11.10427032
 10
-12.7644473989
 20
11.0995511954
 10
-12.761306641
 20
11.0947728399
 10
-12.7582212884
 20
11.0899335363
 10
-12.7551927533
 20
11.0850315672
 10
-12.7522224474
 20
11.0800652154
 10
-12.7493117829
 20
11.0750327636
 10
-12.7464621715
 20
11.0699324945
  0
LWPOLYLINE
  5
2D9
100
AcDbEntity
  8
0
100
AcDbPolyline
 62
253
  6
CONTINUOUS
 90
3
 70
0
 10
-11.9998843491
 20
12.1535195268
 10
-11.9950361567
 20
12.1505924751
 10
-11.9926108286
 20
12.1491091567
  0
LWPOLYLINE
  5
2DA
100
AcDbEntity
  8
0
100
AcDbPolyline
 62
253
  6
CONTINUOUS
 90
55
 70
0
 10
-13.1890268107
 20
12.3804581606
 10
-13.1836133306
 20
12.3771464648
 10
-13.17825591
 20
12.3736612229
 10
-13.1729409251
 20
12.3699976592
 10
-13.1676547521
 20
12.3661509976
 10
-13.162383767
 20
12.3621164624
 10
-13.1571171293
 20
12.3578900736
 10
-13.1518551314
 20
12.3534710352
 10
-13.146600849
 20
12.3488593471
 10
-13.1413573579
 20
12.3440550095
 10
-13.1361277337
 20
12.3390580221
 10
-13.1309159265
 20
12.3338692105
 10
-13.1257293838
 20
12.3284927017
 10
-13.1205764274
 20
12.3229334481
 10
-13.1154653791
 20
12.3171964022
 10
-13.1104045608
 20
12.3112865165
 10
-13.1062329199
 20
12.3062352464
 10
-13.1021147586
 20
12.3010828071
 10
-13.0980628958
 20
12.2958446177
 10
-13.0940869387
 20
12.290531728
 10
-13.0901836488
 20
12.2851377108
 10
-13.0863465759
 20
12.2796517695
 10
-13.0825714745
 20
12.274066
 10
-13.0788629167
 20
12.2683840681
 10
-13.0752276793
 20
12.2626125321
 10
-13.0716725389
 20
12.2567579502
 10
-13.0682042722
 20
12.2508268808
 10
-13.0648296559
 20
12.2448258822
 10
-13.061554649
 20
12.2387616952
 10
-13.0583819398
 20
12.232641792
 10
-13.0553133991
 20
12.2264738273
 10
-13.0523508974
 20
12.2202654555
 10
-13.0494963056
 20
12.2140243316
 10
-13.0467514942
 20
12.2077581102
 10
-13.0441172093
 20
12.2014712368
 10
-13.0415896982
 20
12.1951553211
 10
-13.0391640835
 20
12.1887987635
 10
-13.0368377845
 20
12.1823961358
 10
-13.0346174069
 20
12.1759666954
 10
-13.032511853
 20
12.1695358712
 10
-13.0301467264
 20
12.1618477526
 10
-13.0279597679
 20
12.1542075595
 10
-13.0259509799
 20
12.1466285925
 10
-13.024120365
 20
12.1391241523
 10
-13.0224679257
 20
12.1317075396
 10
-13.0209932253
 20
12.1243898968
 10
-13.0196940691
 20
12.117173734
 10
-13.0185678229
 20
12.110059403
 10
-13.0176118525
 20
12.1030472557
 10
-13.016823524
 20
12.0961376439
 10
-13.0162011796
 20
12.0893283908
 10
-13.0157470673
 20
12.0826072043
 10
-13.0154644116
 20
12.0759592638
 10
-13.0153564371
 20
12.0693697484
 10
-13.0154263682
 20
12.0628238376
  0
LWPOLYLINE
  5
2DB
100
AcDbEntity
  8
0
100
AcDbPolyline
 62
253
  6
CONTINUOUS
 90
53
 70
0
 10
-13.9441713142
 20
12.4014953952
 10
-13.9495264744
 20
12.4048267457
 10
-13.9548257982
 20
12.4083331201
 10
-13.9600826623
 20
12.4120191725
 10
-13.9653104432
 20
12.4158895573
 10
-13.9705225173
 20
12.4199489288
 10
-13.975729527
 20
12.4242011431
 10
-13.9809311768
 20
12.4286468643
 10
-13.986124437
 20
12.4332859586
 10
-13.991306278
 20
12.438118292
 10
-13.9964736701
 20
12.4431437305
 10
-14.0016227358
 20
12.4483613219
 10
-14.0067462066
 20
12.4537668408
 10
-14.0118359661
 20
12.4593552435
 10
-14.0168838981
 20
12.4651214864
 10
-14.0218818862
 20
12.4710605256
 10
-14.0260015598
 20
12.4761359968
 10
-14.0300683606
 20
12.4813125239
 10
-14.0340697354
 20
12.486574668
 10
-14.0379962857
 20
12.4919113565
 10
-14.0418512311
 20
12.4973289826
 10
-14.0456409456
 20
12.5028383062
 10
-14.0501077132
 20
12.5095806691
 10
-14.0544781814
 20
12.5164590692
 10
-14.0587408042
 20
12.5234620053
 10
-14.0628840358
 20
12.5305779762
 10
-14.0668963301
 20
12.5377954808
 10
-14.0707675292
 20
12.5451027533
 10
-14.0744930263
 20
12.5524869691
 10
-14.0780696026
 20
12.5599350391
 10
-14.0814940393
 20
12.5674338741
 10
-14.0847631175
 20
12.5749703849
 10
-14.0873674579
 20
12.5812733453
 10
-14.0898664562
 20
12.5876049917
 10
-14.0922648936
 20
12.5939769361
 10
-14.0945652788
 20
12.6003945964
 10
-14.096761031
 20
12.6068386147
 10
-14.0988432969
 20
12.6132834386
 10
-14.1011822963
 20
12.6209874517
 10
-14.1033451124
 20
12.6286425059
 10
-14.1053317306
 20
12.6362352773
 10
-14.1071421365
 20
12.643752442
 10
-14.1087763153
 20
12.6511806758
 10
-14.1102346901
 20
12.6585088347
 10
-14.1115194337
 20
12.6657344933
 10
-14.1126331564
 20
12.6728574059
 10
-14.1135784684
 20
12.6798773269
 10
-14.1143579801
 20
12.6867940107
 10
-14.1149733372
 20
12.6936096923
 10
-14.1154223269
 20
12.7003365299
 10
-14.1157017715
 20
12.7069891621
 10
-14.1158084937
 20
12.7135822277
 10
-14.1157393159
 20
12.7201303655
  0
LWPOLYLINE
  5
2DC
100
AcDbEntity
  8
0
100
AcDbPolyline
 62
253
  6
CONTINUOUS
 90
51
 70
0
 10
-11.9926738279
 20
12.1490728478
 10
-11.9749283877
 20
12.1378082743
 10
-11.9573277271
 20
12.1259499355
 10
-11.9398253686
 20
12.1134780535
 10
-11.9223748348
 20
12.1003728505
 10
-11.9049387126
 20
12.0866172717
 10
-11.887515846
 20
12.0722051531
 10
-11.8701141436
 20
12.0571330537
 10
-11.8527415136
 20
12.0413975325
 10
-11.8354112225
 20
12.0250009854
 10
-11.8181579687
 20
12.0079691576
 10
-11.8010218085
 20
11.9903336311
 10
-11.7840427983
 20
11.972125988
 10
-11.7672574035
 20
11.9533740709
 10
-11.750687725
 20
11.9340907634
 10
-11.734352273
 20
11.9142852098
 10
-11.7182695574
 20
11.8939665542
 10
-11.704202257
 20
11.8754844463
 10
-11.6903701302
 20
11.856624249
 10
-11.6767940322
 20
11.8374060617
 10
-11.6634948184
 20
11.817849984
 10
-11.6504933442
 20
11.7979761152
 10
-11.6378104648
 20
11.777804555
 10
-11.6254670356
 20
11.7573554028
 10
-11.6134839118
 20
11.7366487581
 10
-11.6018819489
 20
11.7157047205
 10
-11.5906793345
 20
11.6945449455
 10
-11.5798835857
 20
11.6731973136
 10
-11.569499552
 20
11.6516912613
 10
-11.5595320829
 20
11.6300562251
 10
-11.5499860279
 20
11.6083216415
 10
-11.5408662365
 20
11.5865169471
 10
-11.5321775581
 20
11.5646715784
 10
-11.5239248423
 20
11.5428149718
 10
-11.5161129385
 20
11.5209765641
 10
-11.5078560868
 20
11.4964629578
 10
-11.5001617428
 20
11.4720287369
 10
-11.493028374
 20
11.4476929982
 10
-11.4864544476
 20
11.4234748388
 10
-11.4804394907
 20
11.3993984925
 10
-11.4749872681
 20
11.3755087408
 10
-11.4701026041
 20
11.3518555021
 10
-11.4657903232
 20
11.3284886948
 10
-11.4620533685
 20
11.3054507796
 10
-11.4588871585
 20
11.2827543864
 10
-11.4562852304
 20
11.2604046876
 10
-11.4542411216
 20
11.2384068553
 10
-11.4527509651
 20
11.2167571292
 10
-11.451821277
 20
11.1954160181
 10
-11.4514611692
 20
11.174335098
 10
-11.4516797537
 20
11.153465945
  0
LWPOLYLINE
  5
2DD
100
AcDbEntity
  8
0
100
AcDbPolyline
 62
253
  6
CONTINUOUS
 90
49
 70
0
 10
-11.9412866428
 20
13.9557767587
 10
-11.9357384559
 20
13.9518041756
 10
-11.9302459381
 20
13.9476585589
 10
-11.9248066518
 20
13.9433412304
 10
-11.9194181593
 20
13.9388535121
 10
-11.9140780231
 20
13.9341967259
 10
-11.9087838056
 20
13.9293721936
 10
-11.9035344858
 20
13.9243820276
 10
-11.8983347093
 20
13.9192315028
 10
-11.8931905381
 20
13.9139266841
 10
-11.8881080345
 20
13.9084736371
 10
-11.8830932607
 20
13.9028784268
 10
-11.8781522787
 20
13.8971471185
 10
-11.8732909577
 20
13.8912855057
 10
-11.8685143949
 20
13.8852982951
 10
-11.8638274945
 20
13.8791899218
 10
-11.8592351608
 20
13.8729648205
 10
-11.8547422978
 20
13.8666274264
 10
-11.8503538099
 20
13.8601821744
 10
-11.8460746341
 20
13.8536338284
 10
-11.8419098388
 20
13.846988468
 10
-11.8378645253
 20
13.8402525017
 10
-11.8339437951
 20
13.833432338
 10
-11.8301527492
 20
13.8265343855
 10
-11.8264964892
 20
13.8195650527
 10
-11.8229794117
 20
13.8125309594
 10
-11.8196030954
 20
13.8054395701
 10
-11.8163684141
 20
13.7982985608
 10
-11.8132762418
 20
13.7911156073
 10
-11.8103274527
 20
13.7838983854
 10
-11.8075229205
 20
13.776654571
 10
-11.8048636334
 20
13.7693914966
 10
-11.8023510352
 20
13.7621151207
 10
-11.7999866836
 20
13.7548310587
 10
-11.7977721366
 20
13.7475449256
 10
-11.795708952
 20
13.7402623368
 10
-11.7937986876
 20
13.7329889074
 10
-11.7920430041
 20
13.7257308362
 10
-11.7904439739
 20
13.7184966563
 10
-11.7890037724
 20
13.7112954843
 10
-11.7877245746
 20
13.7041364371
 10
-11.7866085561
 20
13.6970286312
 10
-11.7856578919
 20
13.6899811833
 10
-11.784874974
 20
13.683001586
 10
-11.78426306
 20
13.676090835
 10
-11.7838256244
 20
13.6692483021
 10
-11.7835661416
 20
13.6624733588
 10
-11.7834880857
 20
13.655765377
 10
-11.7835949312
 20
13.6491237281
  0
LWPOLYLINE
  5
2DE
100
AcDbEntity
  8
0
100
AcDbPolyline
 62
253
  6
CONTINUOUS
 90
13
 70
0
 10
-11.9792358285
 20
12.6428233492
 10
-11.9806829293
 20
12.643493308
 10
-11.9821257155
 20
12.6441755894
 10
-11.9835642323
 20
12.6448701351
 10
-11.9849985244
 20
12.6455768867
 10
-11.9864286039
 20
12.64629577
 10
-11.9878543517
 20
12.6470266484
 10
-11.9892756156
 20
12.6477693698
 10
-11.9906922438
 20
12.6485237818
 10
-11.9921041184
 20
12.6492897512
 10
-11.9935112586
 20
12.6500672208
 10
-11.9949137177
 20
12.6508561526
 10
-11.9963115491
 20
12.6516565085
  0
LWPOLYLINE
  5
2DF
100
AcDbEntity
  8
0
100
AcDbPolyline
 62
253
  6
CONTINUOUS
 90
13
 70
0
 10
-11.9579194684
 20
13.9664273782
 10
-11.9565500744
 20
13.9656296159
 10
-11.9551769866
 20
13.9648160462
 10
-11.9538001575
 20
13.9639865765
 10
-11.9524195397
 20
13.9631411138
 10
-11.9510351186
 20
13.9622795853
 10
-11.9496470107
 20
13.961401997
 10
-11.9482553656
 20
13.9605083745
 10
-11.9468603328
 20
13.9595987437
 10
-11.9454620302
 20
13.9586731089
 10
-11.9440604506
 20
13.9577313901
 10
-11.9426555552
 20
13.9567734856
 10
-11.9412473051
 20
13.9557992941
  0
LWPOLYLINE
  5
2E0
100
AcDbEntity
  8
0
100
AcDbPolyline
 62
253
  6
CONTINUOUS
 90
36
 70
0
 10
-10.611171825
 20
12.5118182958
 10
-10.6071054537
 20
12.509407976
 10
-10.6030581973
 20
12.5068854236
 10
-10.5990290476
 20
12.5042524962
 10
-10.595016996
 20
12.5015110515
 10
-10.5910210342
 20
12.4986629471
 10
-10.5870401536
 20
12.4957100406
 10
-10.5830733459
 20
12.4926541896
 10
-10.5791202255
 20
12.4894975222
 10
-10.5751828982
 20
12.4862432476
 10
-10.5712640928
 20
12.4828948459
 10
-10.5673665378
 20
12.4794557967
 10
-10.563492962
 20
12.47592958
 10
-10.559646094
 20
12.4723196755
 10
-10.5558286627
 20
12.4686295631
 10
-10.5520430937
 20
12.4648623572
 10
-10.5482906013
 20
12.461019711
 10
-10.5445720967
 20
12.4571029125
 10
-10.5408884915
 20
12.4531132495
 10
-10.5372406968
 20
12.4490520098
 10
-10.5336296241
 20
12.4449204813
 10
-10.5300561846
 20
12.4407199519
 10
-10.5265214723
 20
12.4364517479
 10
-10.523027312
 20
12.4321173499
 10
-10.5195757109
 20
12.4277182768
 10
-10.5161686765
 20
12.4232560475
 10
-10.5128082161
 20
12.4187321812
 10
-10.509496337
 20
12.4141481967
 10
-10.5062350466
 20
12.409505613
 10
-10.5030262325
 20
12.4048054177
 10
-10.4998713026
 20
12.4000464719
 10
-10.4967715455
 20
12.3952271056
 10
-10.4937282493
 20
12.3903456484
 10
-10.4907427025
 20
12.3854004301
 10
-10.4878161933
 20
12.3803897806
 10
-10.48495001
 20
12.3753120296
  0
LWPOLYLINE
  5
2E1
100
AcDbEntity
  8
0
100
AcDbPolyline
 62
253
  6
CONTINUOUS
 90
55
 70
0
 10
-11.9963115491
 20
12.6516565085
 10
-12.0017897171
 20
12.6549256812
 10
-12.0072099837
 20
12.6583692134
 10
-12.0125861264
 20
12.6619917468
 10
-12.0179319223
 20
12.6657979228
 10
-12.0232611487
 20
12.6697923832
 10
-12.0285847715
 20
12.6739790034
 10
-12.0339025115
 20
12.6783585953
 10
-12.0392112778
 20
12.6829312044
 10
-12.04450798
 20
12.6876968766
 10
-12.0497895273
 20
12.6926556576
 10
-12.0550519392
 20
12.6978067643
 10
-12.0602876763
 20
12.7031460985
 10
-12.0654883091
 20
12.7086687332
 10
-12.0706454083
 20
12.7143697416
 10
-12.0757505444
 20
12.7202441966
 10
-12.0799577026
 20
12.7252664211
 10
-12.0841099643
 20
12.7303902581
 10
-12.0881943721
 20
12.7356002925
 10
-12.0922012139
 20
12.7408854637
 10
-12.0961337587
 20
12.7462521297
 10
-12.0999985206
 20
12.7517110029
 10
-12.1037997984
 20
12.7572699282
 10
-12.1075330285
 20
12.7629252797
 10
-12.1111914321
 20
12.768670564
 10
-12.1147682299
 20
12.7744992876
 10
-12.1182566431
 20
12.780404957
 10
-12.1216498926
 20
12.7863810786
 10
-12.1249420194
 20
12.7924209632
 10
-12.1281303443
 20
12.7985171381
 10
-12.1312130081
 20
12.8046619351
 10
-12.1341881517
 20
12.8108476856
 10
-12.1370539159
 20
12.8170667213
 10
-12.1398084415
 20
12.8233113738
 10
-12.1424509974
 20
12.8295771766
 10
-12.1449853655
 20
12.8358724704
 10
-12.1474164554
 20
12.8422087982
 10
-12.1497468785
 20
12.8485915623
 10
-12.1519700523
 20
12.8550016045
 10
-12.1540770955
 20
12.8614136264
 10
-12.1564423168
 20
12.8690801191
 10
-12.1586275741
 20
12.8766997581
 10
-12.1606329201
 20
12.8842592688
 10
-12.1624584075
 20
12.8917453766
 10
-12.1641040893
 20
12.8991448069
 10
-12.1655704531
 20
12.9064464335
 10
-12.1668597267
 20
12.9136477231
 10
-12.1679745728
 20
12.9207482909
 10
-12.1689176541
 20
12.927747752
 10
-12.1696916334
 20
12.9346457215
 10
-12.1702981799
 20
12.941444346
 10
-12.1707349892
 20
12.9481558982
 10
-12.1709987633
 20
12.954795182
 10
-12.1710862044
 20
12.9613770016
 10
-12.1709940144
 20
12.9679161609
  0
LWPOLYLINE
  5
2E2
100
AcDbEntity
  8
0
100
AcDbPolyline
 62
253
  6
CONTINUOUS
 90
36
 70
0
 10
-13.334475615
 20
14.0958962654
 10
-13.3304766629
 20
14.0934570778
 10
-13.3264962186
 20
14.0909063894
 10
-13.3225333091
 20
14.0882460331
 10
-13.3185869613
 20
14.0854778417
 10
-13.3146562021
 20
14.0826036483
 10
-13.3107400587
 20
14.0796252856
 10
-13.3068375579
 20
14.0765445865
 10
-13.3029483283
 20
14.0733636406
 10
-13.2990744038
 20
14.0700855636
 10
-13.29521842
 20
14.0667137279
 10
-13.2913830126
 20
14.063251506
 10
-13.2875708171
 20
14.0597022703
 10
-13.283784469
 20
14.056069393
 10
-13.280026604
 20
14.0523562468
 10
-13.2762995843
 20
14.0485658577
 10
-13.2726046796
 20
14.0446998674
 10
-13.2689428864
 20
14.0407595712
 10
-13.265315201
 20
14.0367462646
 10
-13.26172262
 20
14.0326612429
 10
-13.2581661398
 20
14.0285058016
 10
-13.2546467567
 20
14.024281236
 10
-13.251165641
 20
14.0199888759
 10
-13.2477246572
 20
14.0156301879
 10
-13.2443258438
 20
14.0112066733
 10
-13.2409712391
 20
14.0067198331
 10
-13.2376628815
 20
14.0021711684
 10
-13.2344028092
 20
13.9975621801
 10
-13.2311930607
 20
13.9928943695
 10
-13.228035563
 20
13.9881687039
 10
-13.2249317981
 20
13.9833840159
 10
-13.2218831365
 20
13.9785386042
 10
-13.2188909491
 20
13.9736307679
 10
-13.2159566065
 20
13.9686588056
 10
-13.2130814793
 20
13.9636210163
 10
-13.2102669381
 20
13.9585156988
  0
LINE
  5
2E3
100
AcDbEntity
  8
ASSI
100
AcDbLine
 62
7
  6
CONTINUOUS
 10
13.2284769613
 20
10.03273931
 11
12.5558320964
 21
9.9028687884
  0
LWPOLYLINE
  5
2E4
100
AcDbEntity
  8
ASSI
100
AcDbPolyline
 62
253
  6
CONTINUOUS
 90
9
 70
0
 10
-18.8690163048
 20
23.674814085
 10
-18.8995613756
 20
23.6968624643
 10
-18.9261635197
 20
23.7203678015
 10
-18.9485648043
 20
23.7451021901
 10
-18.9665480278
 20
23.7708258069
 10
-18.9799388258
 20
23.7972892373
 10
-18.9886073621
 20
23.8242358932
 10
-18.9924695869
 20
23.8514045015
 10
-18.9925960278
 20
23.8646700176
  0
LWPOLYLINE
  5
2E5
100
AcDbEntity
  8
ASSI
100
AcDbPolyline
 62
253
  6
CONTINUOUS
 90
16
 70
0
 10
12.1369546454
 20
-11.8534204287
 10
12.1347867152
 20
-11.8103119597
 10
12.128933997
 20
-11.765270562
 10
12.1194228017
 20
-11.7187658006
 10
12.1063038563
 20
-11.6712386081
 10
12.0896942745
 20
-11.6232542568
 10
12.0698142918
 20
-11.5754973872
 10
12.0469114509
 20
-11.5285489142
 10
12.021215593
 20
-11.4828680738
 10
11.9930015815
 20
-11.4389462585
 10
11.9625722636
 20
-11.3972610189
 10
11.9302654994
 20
-11.3582808481
 10
11.8964448996
 20
-11.322446505
 10
11.8614860065
 20
-11.2901552846
 10
11.8257706735
 20
-11.261759314
 10
11.7896920613
 20
-11.2375712107
  0
LWPOLYLINE
  5
2E6
100
AcDbEntity
  8
ASSI
100
AcDbPolyline
 62
253
  6
CONTINUOUS
 90
9
 70
0
 10
11.4706724384
 20
-10.6440759449
 10
11.4727855982
 20
-10.6863031684
 10
11.4778719789
 20
-10.724514911
 10
11.4860565859
 20
-10.7590569733
 10
11.4978717536
 20
-10.7904088718
 10
11.5132040615
 20
-10.8182254285
 10
11.531195024
 20
-10.8415230885
 10
11.5520013668
 20
-10.8601986539
 10
11.5738656362
 20
-10.8734259336
  0
LWPOLYLINE
  5
2E7
100
AcDbEntity
  8
ASSI
100
AcDbPolyline
 62
253
  6
CONTINUOUS
 90
5
 70
0
 10
12.4625069364
 20
-28.0931470392
 10
12.4105061481
 20
-26.6946117214
 10
12.3633921157
 20
-25.3164431419
 10
12.3211648391
 20
-23.9586413008
 10
12.2841159251
 20
-22.6285804702
  0
LWPOLYLINE
  5
2E8
100
AcDbEntity
  8
ASSI
100
AcDbPolyline
 62
253
  6
CONTINUOUS
 90
13
 70
0
 10
11.7895747017
 20
-28.1184044477
 10
11.7382824184
 20
-26.7192507743
 10
11.6921992602
 20
-25.340126708
 10
11.6511117103
 20
-23.9811831946
 10
11.6150006546
 20
-22.6500144383
 10
11.5834246195
 20
-21.3393432624
 10
11.5557396924
 20
-20.0268870947
 10
11.5319403064
 20
-18.7127005351
 10
11.5120225819
 20
-17.3967652725
 10
11.4957417198
 20
-16.0564498797
 10
11.4832373707
 20
-14.6840902215
 10
11.4748128552
 20
-13.287121507
 10
11.4706723969
 20
-11.8654421364
  0
LINE
  5
2E9
100
AcDbEntity
  8
ASSI
100
AcDbLine
 62
7
  6
CONTINUOUS
 10
10.1088326744
 20
11.833982823
 11
10.1300362884
 21
11.2175590275
  0
LINE
  5
2EA
100
AcDbEntity
  8
ASSI
100
AcDbLine
 62
253
  6
CONTINUOUS
 10
9.928598026
 20
11.4198008136
 11
9.9285980435
 21
11.3578275499
  0
LWPOLYLINE
  5
2EB
100
AcDbEntity
  8
ASSI
100
AcDbPolyline
 62
253
  6
CONTINUOUS
 90
10
 70
0
 10
11.470672397
 20
-10.6440759406
 10
11.4760345439
 20
-8.958907025
 10
11.487849677
 20
-7.2434735201
 10
11.506415647
 20
-5.4976388307
 10
11.5318228033
 20
-3.7340731091
 10
11.5644913837
 20
-1.9398892273
 10
11.6056651882
 20
-0.0763702304
 10
11.6564884121
 20
1.8697591595
 10
11.7175119374
 20
3.8860590771
 10
11.7895746977
 20
5.9729278766
  0
LWPOLYLINE
  5
2EC
100
AcDbEntity
  8
ASSI
100
AcDbPolyline
 62
253
  6
CONTINUOUS
 90
22
 70
0
 10
11.789574757
 20
5.9729279335
 10
11.7940815152
 20
6.044279246
 10
11.802691074
 20
6.1175177722
 10
11.8153631142
 20
6.1922805177
 10
11.832043471
 20
6.2681879881
 10
11.8526487396
 20
6.3448716568
 10
11.8770692571
 20
6.4219763182
 10
11.905198802
 20
6.499122658
 10
11.9369036881
 20
6.5759218731
 10
11.9720093801
 20
6.6520035511
 10
12.0103565922
 20
6.7269850705
 10
12.0517660427
 20
6.8004922672
 10
12.0960104923
 20
6.8721744555
 10
12.1428890113
 20
6.9416708338
 10
12.1921812891
 20
7.0086301565
 10
12.2436122712
 20
7.0727317009
 10
12.2969416948
 20
7.1336468013
 10
12.3519234229
 20
7.1910703255
 10
12.4082604137
 20
7.2447390674
 10
12.4656774002
 20
7.2943871468
 10
12.5239216042
 20
7.3397486909
 10
12.5827222546
 20
7.3805885628
  0
LWPOLYLINE
  5
2ED
100
AcDbEntity
  8
ASSI
100
AcDbPolyline
 62
253
  6
CONTINUOUS
 90
16
 70
0
 10
11.7895831688
 20
5.9729330552
 10
11.8281947435
 20
5.9550510481
 10
11.8696194544
 20
5.9392782218
 10
11.9134556578
 20
5.9257675055
 10
11.9592783289
 20
5.9146498959
 10
12.0066431825
 20
5.9060331865
 10
12.0550909807
 20
5.9000009225
 10
12.1041519859
 20
5.8966115911
 10
12.1533505148
 20
5.8958980546
 10
12.2022095507
 20
5.8978672312
 10
12.2502553688
 20
5.9025000281
 10
12.2970221287
 20
5.9097515271
 10
12.3420563916
 20
5.9195514194
 10
12.3849215166
 20
5.9318046876
 10
12.4252018941
 20
5.9463925271
 10
12.4625069757
 20
5.963173498
  0
LWPOLYLINE
  5
2EE
100
AcDbEntity
  8
ASSI
100
AcDbPolyline
 62
253
  6
CONTINUOUS
 90
10
 70
0
 10
11.7895746977
 20
5.9729278766
 10
10.98527116
 20
6.3804900885
 10
10.1738231423
 20
6.797609634
 10
9.3554951037
 20
7.2244131677
 10
8.5362930437
 20
7.6579574857
 10
7.7106819047
 20
8.1013924247
 10
6.8619744855
 20
8.5641993169
 10
5.9852171492
 20
9.049870539
 10
5.0868017926
 20
9.5556705398
 10
4.1674548442
 20
10.0819645988
  0
LINE
  5
2EF
100
AcDbEntity
  8
ASSI
100
AcDbLine
 62
253
  6
CONTINUOUS
 10
4.1674528774
 20
10.0819647615
 11
-11.7423803546
 21
19.2681030726
  0
LWPOLYLINE
  5
2F0
100
AcDbEntity
  8
ASSI
100
AcDbPolyline
 62
253
  6
CONTINUOUS
 90
13
 70
0
 10
-11.7423783876
 20
19.2681029111
 10
-12.3808822148
 20
19.6389733836
 10
-13.0062581
 20
20.0065244706
 10
-13.6186522824
 20
20.370651646
 10
-14.2154305557
 20
20.7295736508
 10
-14.7995489735
 20
21.0848523454
 10
-15.3793947438
 20
21.4414799099
 10
-15.9544803176
 20
21.7991269879
 10
-16.525300176
 20
22.1580829028
 10
-17.1014015496
 20
22.5244370531
 10
-17.6857742271
 20
22.9003079656
 10
-18.2750395613
 20
23.2837426245
 10
-18.8690163061
 20
23.6748140765
  0
LWPOLYLINE
  5
2F1
100
AcDbEntity
  8
ASSI
100
AcDbPolyline
 62
253
  6
CONTINUOUS
 90
9
 70
0
 10
12.2841159251
 20
-22.6285804702
 10
12.251953767
 20
-21.3188863779
 10
12.2238035443
 20
-20.0074362076
 10
12.1993902634
 20
-18.6944183349
 10
12.1789889179
 20
-17.3796443841
 10
12.1625496674
 20
-16.0404264124
 10
12.1500558984
 20
-14.6692017721
 10
12.1415242244
 20
-13.2735331109
 10
12.1369546453
 20
-11.8534204287
  0
LWPOLYLINE
  5
2F2
100
AcDbEntity
  8
ASSI
100
AcDbPolyline
 62
253
  6
CONTINUOUS
 90
10
 70
0
 10
12.1369546459
 20
-10.6333065243
 10
12.1419154484
 20
-8.9501123856
 10
12.1540797685
 20
-7.2364995305
 10
12.1734476063
 20
-5.492467959
 10
12.1992197591
 20
-3.7310791147
 10
12.2321954295
 20
-1.939271554
 10
12.2747722255
 20
-0.0778609455
 10
12.3277493499
 20
1.8662141545
 10
12.3903276
 20
3.8798923024
 10
12.4625069757
 20
5.9631734979
  0
LWPOLYLINE
  5
2F3
100
AcDbEntity
  8
ASSI
100
AcDbPolyline
 62
253
  6
CONTINUOUS
 90
16
 70
0
 10
11.4706724378
 20
-11.8654421408
 10
11.4727853509
 20
-11.8211437873
 10
11.4778713927
 20
-11.7756681009
 10
11.4860555543
 20
-11.72916862
 10
11.4978700719
 20
-11.681599121
 10
11.5132015824
 20
-11.6331381915
 10
11.5311918388
 20
-11.5846343293
 10
11.5519976245
 20
-11.5371094892
 10
11.5758244214
 20
-11.4907966323
 10
11.6017029025
 20
-11.445859643
 10
11.629576889
 20
-11.4031706279
 10
11.6595593867
 20
-11.3633476412
 10
11.6907489076
 20
-11.3263062275
 10
11.7227602088
 20
-11.2924808868
 10
11.7557819651
 20
-11.2627324017
 10
11.7896920612
 20
-11.2375712106
  0
LWPOLYLINE
  5
2F4
100
AcDbEntity
  8
ASSI
100
AcDbPolyline
 62
253
  6
CONTINUOUS
 90
9
 70
0
 10
12.1369546458
 20
-10.6333065243
 10
12.134786712
 20
-10.6745327632
 10
12.1289339849
 20
-10.7132023871
 10
12.1194227779
 20
-10.7488696459
 10
12.1063038211
 20
-10.7811479197
 10
12.0896942301
 20
-10.809605517
 10
12.069814241
 20
-10.8338158422
 10
12.0469113985
 20
-10.8534914286
 10
12.0297231474
 20
-10.8641870876
  0
LWPOLYLINE
  5
2F5
100
AcDbEntity
  8
ASSI
100
AcDbPolyline
 62
253
  6
CONTINUOUS
 90
22
 70
0
 10
12.4625069757
 20
5.9631734979
 10
12.4653208454
 20
6.004843011
 10
12.4705682521
 20
6.0472039592
 10
12.4782491957
 20
6.0902563426
 10
12.4884249834
 20
6.134236899
 10
12.5010343079
 20
6.1789088906
 10
12.5158932482
 20
6.2235621036
 10
12.5330339704
 20
6.26817838
 10
12.5524243083
 20
6.3127758779
 10
12.5737838423
 20
6.3566988572
 10
12.5971439951
 20
6.3999403038
 10
12.622473344
 20
6.4425072319
 10
12.6493972014
 20
6.4837649437
 10
12.6779392805
 20
6.523692428
 10
12.7080758681
 20
6.562310696
 10
12.7393611371
 20
6.599048084
 10
12.7718279713
 20
6.633886075
 10
12.8054434869
 20
6.666843186
 10
12.8396632051
 20
6.6974033035
 10
12.8743056332
 20
6.7253943897
 10
12.9095522639
 20
6.7509884825
 10
12.9454030972
 20
6.7741855817
  0
LINE
  5
2F6
100
AcDbEntity
  8
ASSI
100
AcDbLine
 62
7
  6
CONTINUOUS
 10
5.308881012
 20
14.6054147553
 11
4.6362361471
 21
14.4755442336
  0
LWPOLYLINE
  5
2F7
100
AcDbEntity
  8
ASSI
100
AcDbPolyline
 62
253
  6
CONTINUOUS
 90
10
 70
0
 10
12.5827222547
 20
7.3805885628
 10
11.7781423844
 20
7.7856339788
 10
10.9672743808
 20
8.2005479831
 10
10.150118244
 20
8.6253305757
 10
9.3320333955
 20
9.0565884832
 10
8.5076604137
 20
9.4977149789
 10
7.6609210338
 20
9.9588898832
 10
6.7864558342
 20
10.4435064695
 10
5.8896242365
 20
10.9481714642
 10
4.9704262407
 20
11.4728848675
  0
LINE
  5
2F8
100
AcDbEntity
  8
ASSI
100
AcDbLine
 62
253
  6
CONTINUOUS
 10
4.9704262407
 20
11.4728848675
 11
-10.9394217422
 21
20.6590316956
  0
LWPOLYLINE
  5
2F9
100
AcDbEntity
  8
ASSI
100
AcDbPolyline
 62
253
  6
CONTINUOUS
 90
13
 70
0
 10
-10.9394217422
 20
20.6590316956
 10
-11.5765104967
 20
21.0294952801
 10
-12.200651347
 20
21.3965092017
 10
-12.8118442931
 20
21.7600734602
 10
-13.4071348442
 20
22.118496169
 10
-13.9894774911
 20
22.4734692149
 10
-14.5677357059
 20
22.8300682579
 10
-15.1417559275
 20
23.1879332959
 10
-15.7116917171
 20
23.5474243311
 10
-16.2868672302
 20
23.91469703
 10
-16.8703905187
 20
24.2918032814
 10
-17.4591535307
 20
24.6766911966
 10
-18.0531562662
 20
25.0693607755
  0
LWPOLYLINE
  5
2FA
100
AcDbEntity
  8
ASSI
100
AcDbPolyline
 62
253
  6
CONTINUOUS
 90
16
 70
0
 10
12.5827222546
 20
7.3805885628
 10
12.6187711848
 20
7.3564903742
 10
12.6546282188
 20
7.3283138003
 10
12.6899011838
 20
7.2963670117
 10
12.724204295
 20
7.2609994144
 10
12.7571623749
 20
7.2225978283
 10
12.7884149574
 20
7.1815822564
 10
12.817620229
 20
7.138401291
 10
12.8444587681
 20
7.0935272078
 10
12.8686370383
 20
7.0474508002
 10
12.8898905987
 20
7.0006760115
 10
12.9079869967
 20
6.9537144233
 10
12.9227283097
 20
6.9070796604
 10
12.9339533101
 20
6.861281773
 10
12.9415392286
 20
6.8168216582
 10
12.9454030972
 20
6.7741855817
  0
LINE
  5
2FB
100
AcDbEntity
  8
ASSI
100
AcDbLine
 62
7
  6
CONTINUOUS
 10
15.5218118349
 20
8.3377808032
 11
16.0684805596
 21
1.6065598014
  0
LINE
  5
2FC
100
AcDbEntity
  8
ASSI
100
AcDbLine
 62
7
  6
CONTINUOUS
 10
16.0684805596
 20
1.6065598014
 11
16.0684805596
 21
-8.5177493443
  0
LINE
  5
2FD
100
AcDbEntity
  8
ASSI
100
AcDbLine
 62
7
  6
CONTINUOUS
 10
16.0684805596
 20
-19.7849614506
 11
16.0684805596
 21
-9.6606523049
  0
LINE
  5
2FE
100
AcDbEntity
  8
ASSI
100
AcDbLine
 62
253
  6
CONTINUOUS
 10
15.7148867649
 20
-9.0483342545
 11
11.7896920561
 21
-11.2375712136
  0
LINE
  5
2FF
100
AcDbEntity
  8
ASSI
100
AcDbLine
 62
253
  6
CONTINUOUS
 10
16.0684805596
 20
-9.6606523049
 11
12.1369546453
 21
-11.8534204287
  0
LINE
  5
300
100
AcDbEntity
  8
ASSI
100
AcDbLine
 62
253
  6
CONTINUOUS
 10
12.1369546459
 20
-10.6333065243
 11
16.0684805596
 21
-8.5177493443
  0
LINE
  5
301
100
AcDbEntity
  8
ASSI
100
AcDbLine
 62
7
  6
CONTINUOUS
 10
12.0297041225
 20
-10.8641973266
 11
15.9606082193
 21
-8.7489747468
  0
LWPOLYLINE
  5
302
100
AcDbEntity
  8
ASSI
100
AcDbPolyline
 62
253
  6
CONTINUOUS
 90
16
 70
0
 10
12.1369546462
 20
-11.8534204282
 10
12.1001006144
 20
-11.8717929741
 10
12.0603405186
 20
-11.8880115871
 10
12.0180503323
 20
-11.9019229033
 10
11.9736299609
 20
-11.913395375
 10
11.9274994389
 20
-11.9223205203
 10
11.8800949559
 20
-11.9286139449
 10
11.8318647472
 20
-11.9322161353
 10
11.7832649022
 20
-11.9330930214
 10
11.7347550293
 20
-11.9312363103
 10
11.6867938626
 20
-11.9266635655
 10
11.6398349024
 20
-11.9194180305
 10
11.5943221737
 20
-11.9095682189
 10
11.5506860409
 20
-11.8972072691
 10
11.5093391361
 20
-11.8824520677
 10
11.4706724378
 20
-11.8654421408
  0
LWPOLYLINE
  5
303
100
AcDbEntity
  8
ASSI
100
AcDbPolyline
 62
253
  6
CONTINUOUS
 90
9
 70
0
 10
-18.0531562662
 20
25.0693607755
 10
-18.0909311326
 20
25.08788745
 10
-18.1280904128
 20
25.1018694167
 10
-18.1642276849
 20
25.111153767
 10
-18.1989477184
 20
25.1156389735
 10
-18.2318707638
 20
25.1152759947
 10
-18.2626367121
 20
25.1100688262
 10
-18.2909090787
 20
25.100074454
 10
-18.3130066377
 20
25.0877229512
  0
LINE
  5
304
100
AcDbEntity
  8
ASSI
100
AcDbLine
 62
7
  6
CONTINUOUS
 10
2.0607658857
 20
15.8766546262
 11
4.4430509818
 21
14.5011530688
  0
LINE
  5
305
100
AcDbEntity
  8
ASSI
100
AcDbLine
 62
7
  6
CONTINUOUS
 10
9.980361835
 20
11.303979181
 11
12.3626469311
 21
9.9284776235
  0
LINE
  5
306
100
AcDbEntity
  8
ASSI
100
AcDbLine
 62
7
  6
CONTINUOUS
 10
-3.5472556456
 20
19.1146559734
 11
-5.9295407417
 21
20.4901575308
  0
LINE
  5
307
100
AcDbEntity
  8
ASSI
100
AcDbLine
 62
7
  6
CONTINUOUS
 10
-11.4668515949
 20
23.6873314187
 11
-13.849136691
 21
25.0628329761
  0
LINE
  5
308
100
AcDbEntity
  8
ASSI
100
AcDbLine
 62
7
  6
CONTINUOUS
 10
15.1370247475
 20
8.930767738
 11
13.2284769613
 21
10.03273931
  0
LINE
  5
309
100
AcDbEntity
  8
ASSI
100
AcDbLine
 62
7
  6
CONTINUOUS
 10
10.1088326744
 20
11.833982823
 11
5.308881012
 21
14.6054147553
  0
LINE
  5
30A
100
AcDbEntity
  8
ASSI
100
AcDbLine
 62
7
  6
CONTINUOUS
 10
2.1892367251
 20
16.4066582683
 11
-2.6814256154
 21
19.2189176599
  0
LINE
  5
30B
100
AcDbEntity
  8
ASSI
100
AcDbLine
 62
7
  6
CONTINUOUS
 10
-5.8010699023
 20
21.0201611729
 11
-10.6010215647
 21
23.7915931052
  0
LINE
  5
30C
100
AcDbEntity
  8
ASSI
100
AcDbLine
 62
7
  6
CONTINUOUS
 10
-13.7206658516
 20
25.5928366181
 11
-15.6292136378
 21
26.6948081901
  0
LINE
  5
30D
100
AcDbEntity
  8
ASSI
100
AcDbLine
 62
7
  6
CONTINUOUS
 10
15.5218118349
 20
-27.1152441783
 11
16.0684805596
 21
-19.7849614506
  0
LINE
  5
30E
100
AcDbEntity
  8
ASSI
100
AcDbLine
 62
7
  6
CONTINUOUS
 10
-2.6814256154
 20
19.2189176599
 11
-3.3540704803
 21
19.0890471382
  0
LINE
  5
30F
100
AcDbEntity
  8
ASSI
100
AcDbLine
 62
7
  6
CONTINUOUS
 10
-10.6010215647
 20
23.7915931052
 11
-11.2736664296
 21
23.6617225835
  0
LWPOLYLINE
  5
310
100
AcDbEntity
  8
ASSI
100
AcDbPolyline
 62
253
  6
CONTINUOUS
 90
9
 70
0
 10
12.8208533313
 20
-28.6147521492
 10
12.8444602442
 20
-28.6008288516
 10
12.8686383119
 20
-28.5806058486
 10
12.88989161
 20
-28.5558436439
 10
12.9079877186
 20
-28.5268130924
 10
12.9227287489
 20
-28.4938317223
 10
12.9339535034
 20
-28.457260271
 10
12.9415392413
 20
-28.4174987415
 10
12.9454030234
 20
-28.3749820194
  0
LINE
  5
311
100
AcDbEntity
  8
ASSI
100
AcDbLine
 62
253
  6
CONTINUOUS
 10
15.5218118349
 20
-27.1152441783
 11
12.9454030234
 21
-28.3749820194
  0
LINE
  5
312
100
AcDbEntity
  8
ASSI
100
AcDbLine
 62
7
  6
CONTINUOUS
 10
15.3849212877
 20
-27.3610483825
 11
12.8208533313
 21
-28.6147521492
  0
LWPOLYLINE
  5
313
100
AcDbEntity
  8
ASSI
100
AcDbPolyline
 62
253
  6
CONTINUOUS
 90
22
 70
0
 10
12.9454030234
 20
-28.3749820194
 10
12.9095521896
 20
-28.3910717152
 10
12.8743055585
 20
-28.4041023079
 10
12.83966313
 20
-28.4140737973
 10
12.8054434113
 20
-28.421013033
 10
12.7718278953
 20
-28.4248931655
 10
12.7393610608
 20
-28.4256336463
 10
12.7080757915
 20
-28.423179923
 10
12.6779392037
 20
-28.4175865481
 10
12.6493971243
 20
-28.4089366299
 10
12.6224732667
 20
-28.3971831714
 10
12.5971439176
 20
-28.3823731696
 10
12.5737837647
 20
-28.3647307244
 10
12.5524242305
 20
-28.3442143875
 10
12.5330338924
 20
-28.3208656072
 10
12.5158931701
 20
-28.2950328283
 10
12.5010342284
 20
-28.2666626447
 10
12.4884249025
 20
-28.2358084624
 10
12.4782491178
 20
-28.2029789444
 10
12.4705681828
 20
-28.1683436451
 10
12.465320789
 20
-28.13173301
 10
12.4625069364
 20
-28.0931470392
  0
ELLIPSE
  5
314
100
AcDbEntity
  8
ASSI
100
AcDbEllipse
 62
7
  6
CONTINUOUS
 10
15.1681805961
 20
-26.9104556624
 30
0.0
 11
-0.2148753492
 21
0.4514925988
 31
0.0
 40
0.626010046
 41
-3.1349764991
 42
-2.3100583745
  0
ELLIPSE
  5
315
100
AcDbEntity
  8
ASSI
100
AcDbEllipse
 62
7
  6
CONTINUOUS
 10
15.7148059736
 20
-9.4565382899
 30
0.0
 11
-0.2501454382
 21
0.4329727255
 31
0.0
 40
0.577463496
 41
-2.3564333972
 42
-0.7858655045
  0
ELLIPSE
  5
316
100
AcDbEntity
  8
0
100
AcDbEllipse
 62
253
  6
CONTINUOUS
 10
256.2987745708
 20
173.639425533
 30
0.0
 11
-509.2234057161
 21
594.6462446087
 31
0.0
 40
0.4113021019
 41
1.5252133419
 42
1.5258740671
  0
ELLIPSE
  5
317
100
AcDbEntity
  8
0
100
AcDbEllipse
 62
253
  6
CONTINUOUS
 10
256.9658646669
 20
173.2542560721
 30
0.0
 11
-511.1006008301
 21
595.6575930307
 31
0.0
 40
0.4101908955
 41
1.5238991066
 42
1.5245583092
  0
ELLIPSE
  5
318
100
AcDbEntity
  8
0
100
AcDbEllipse
 62
253
  6
CONTINUOUS
 10
285.132737392
 20
156.9910567744
 30
0.0
 11
564.4621495907
 21
125.1922785291
 31
0.0
 40
0.2015865937
 41
-2.1673032373
 42
-2.1666417985
  0
ELLIPSE
  5
319
100
AcDbEntity
  8
0
100
AcDbEllipse
 62
253
  6
CONTINUOUS
 10
284.4060742369
 20
157.410622973
 30
0.0
 11
564.3493291361
 21
125.271138209
 31
0.0
 40
0.2015246598
 41
-2.1663318357
 42
-2.1656712104
  0
ELLIPSE
  5
31A
100
AcDbEntity
  8
ASSI
100
AcDbEllipse
 62
7
  6
CONTINUOUS
 10
15.1681805961
 20
8.5414543357
 30
0.0
 11
-0.280860955
 21
0.4142191515
 31
0.0
 40
0.5243459323
 41
-2.3941007373
 42
-0.8246744066
  0
ELLIPSE
  5
31B
100
AcDbEntity
  8
ASSI
100
AcDbEllipse
 62
7
  6
CONTINUOUS
 10
15.7148059736
 20
-8.3134488125
 30
0.0
 11
-0.2502024655
 21
0.4330717124
 31
0.0
 40
0.5771997317
 41
-3.1590443311
 42
-2.3566615088
  0
ELLIPSE
  5
31C
100
AcDbEntity
  8
ASSI
100
AcDbEllipse
 62
7
  6
CONTINUOUS
 10
-15.5987035044
 20
26.3058676157
 30
0.0
 11
-0.2806490066
 21
0.4138128862
 31
0.0
 40
0.5253010868
 41
-0.8257150379
 42
-0.0027521587
  0
ELLIPSE
  5
31D
100
AcDbEntity
  8
ASSI
100
AcDbEllipse
 62
7
  6
CONTINUOUS
 10
12.5040682874
 20
10.018690421
 30
0.0
 11
0.1999154856
 21
0.0095814127
 31
0.0
 40
0.6067642562
 41
-2.385266879
 42
-1.3380693278
  0
ELLIPSE
  5
31E
100
AcDbEntity
  8
ASSI
100
AcDbEllipse
 62
7
  6
CONTINUOUS
 10
4.5844723381
 20
14.5913658663
 30
0.0
 11
0.1999154856
 21
0.0095814127
 31
0.0
 40
0.6067642562
 41
-2.385266879
 42
-1.3380693278
  0
ELLIPSE
  5
31F
100
AcDbEntity
  8
ASSI
100
AcDbEllipse
 62
7
  6
CONTINUOUS
 10
-3.4058342893
 20
19.2048687709
 30
0.0
 11
0.1999154856
 21
0.0095814127
 31
0.0
 40
0.6067642562
 41
-2.385266879
 42
-1.3380693278
  0
ELLIPSE
  5
320
100
AcDbEntity
  8
ASSI
100
AcDbEllipse
 62
7
  6
CONTINUOUS
 10
-11.3254302386
 20
23.7775442161
 30
0.0
 11
0.1999154856
 21
0.0095814127
 31
0.0
 40
0.6067642562
 41
-2.385266879
 42
-1.3380693278
  0
ELLIPSE
  5
321
100
AcDbEntity
  8
ASSI
100
AcDbEllipse
 62
7
  6
CONTINUOUS
 10
10.1217831913
 20
11.3941919784
 30
0.0
 11
0.1999154856
 21
0.0095814127
 31
0.0
 40
0.6067642562
 41
2.850720877
 42
3.8979184282
  0
ELLIPSE
  5
322
100
AcDbEntity
  8
ASSI
100
AcDbEllipse
 62
7
  6
CONTINUOUS
 10
2.202187242
 20
15.9668674237
 30
0.0
 11
0.1999154856
 21
0.0095814127
 31
0.0
 40
0.6067642562
 41
2.850720877
 42
3.8979184282
  0
ELLIPSE
  5
323
100
AcDbEntity
  8
ASSI
100
AcDbEllipse
 62
7
  6
CONTINUOUS
 10
-5.7881193854
 20
20.5803703283
 30
0.0
 11
0.1999154856
 21
0.0095814127
 31
0.0
 40
0.6067642562
 41
2.850720877
 42
3.8979184282
  0
ELLIPSE
  5
324
100
AcDbEntity
  8
ASSI
100
AcDbEllipse
 62
7
  6
CONTINUOUS
 10
-13.7077153347
 20
25.1530457736
 30
0.0
 11
0.1999154856
 21
0.0095814127
 31
0.0
 40
0.6067642562
 41
2.850720877
 42
3.8979184282
  0
ELLIPSE
  5
325
100
AcDbEntity
  8
0
100
AcDbEllipse
 62
253
  6
CONTINUOUS
 10
279.0949161158
 20
160.4772191077
 30
0.0
 11
-282.704173388
 21
489.8562799571
 31
0.0
 40
0.5774671019
 41
1.5446069843
 42
1.5465020105
  0
ELLIPSE
  5
326
100
AcDbEntity
  8
0
100
AcDbEllipse
 62
253
  6
CONTINUOUS
 10
278.5876356377
 20
160.770116498
 30
0.0
 11
-282.9182290577
 21
489.9304261572
 31
0.0
 40
0.5772923295
 41
1.5453605011
 42
1.5472539849
  0
ENDSEC
  0
SECTION
  2
OBJECTS
  0
DICTIONARY
  5
C
100
AcDbDictionary
280
0
281
1
  3
ACAD_GROUP
350
D
  3
ACAD_MLINESTYLE
350
17
  3
ACAD_LAYOUT
350
1A
  3
ACAD_PLOTSETTINGS
350
19
  3
ACAD_PLOTSTYLENAME
350
E
  0
DICTIONARY
  5
D
102
{ACAD_REACTORS
330
C
102
}
100
AcDbDictionary
280
0
281
1
  0
ACDBDICTIONARYWDFLT
  5
E
102
{ACAD_REACTORS
330
C
102
}
100
AcDbDictionary
281
1
  3
Normal
350
F
100
AcDbDictionaryWithDefault
340
F
  0
DICTIONARY
  5
17
102
{ACAD_REACTORS
330
C
102
}
100
AcDbDictionary
280
0
281
1
  3
Standard
350
18
  0
DICTIONARY
  5
19
102
{ACAD_REACTORS
330
C
102
}
100
AcDbDictionary
281
1
  0
DICTIONARY
  5
1A
102
{ACAD_REACTORS
330
C
102
}
100
AcDbDictionary
281
1
  3
Model
350
327
  3
Layout1
350
328
  0
ACDBPLACEHOLDER
  5
F
102
{ACAD_REACTORS
330
E
102
}
  0
MLINESTYLE
  5
18
102
{ACAD_REACTORS
330
17
102
}
100
AcDbMlineStyle
  2
STANDARD
 70
0
  3

 62
256
 51
90.0
 52
90.0
 71
2
 49
0.5
 62
256
  6
BYLAYER
 49
-0.5
 62
256
  6
BYLAYER
  0
LAYOUT
  5
327
102
{ACAD_REACTORS
330
1A
102
}
100
AcDbPlotSettings
  1

  2
none_device
  4
ISO_A4_(297.00_x_210.00_MM)
  6

 40
0.0
 41
0.0
 42
0.0
 43
0.0
 44
297.0
 45
210.0
 46
0.0
 47
0.0
 48
0.0
 49
0.0
140
0.0
141
0.0
142
1.0
143
1.0
 70
1024
 72
1
 73
0
 74
0
  7

 75
0
147
1.0
148
0.0
149
0.0
100
AcDbLayout
  1
Model
 70
0
 71
0
 10
0.0
 20
0.0
 11
297.0
 21
210.0
 12
0.0
 22
0.0
 32
0.0
 14
0.0
 24
0.0
 34
0.0
 15
0.0
 25
0.0
 35
0.0
146
0.0
 13
0.0
 23
0.0
 33
0.0
 16
1.0
 26
0.0
 36
0.0
 17
0.0
 27
1.0
 37
0.0
 76
0
330
220
345
0
346
0
  0
LAYOUT
  5
328
102
{ACAD_REACTORS
330
1A
102
}
100
AcDbPlotSettings
  1

  2
none_device
  4
ISO_A4_(297.00_x_210.00_MM)
  6

 40
0.0
 41
0.0
 42
0.0
 43
0.0
 44
297.0
 45
210.0
 46
0.0
 47
0.0
 48
0.0
 49
0.0
140
0.0
141
0.0
142
1.0
143
1.0
 70
0
 72
1
 73
0
 74
0
  7

 75
0
147
1.0
148
0.0
149
0.0
100
AcDbLayout
  1
Layout1
 70
0
 71
1
 10
0.0
 20
0.0
 11
297.0
 21
210.0
 12
0.0
 22
0.0
 32
0.0
 14
0.0
 24
0.0
 34
0.0
 15
0.0
 25
0.0
 35
0.0
146
0.0
 13
0.0
 23
0.0
 33
0.0
 16
1.0
 26
0.0
 36
0.0
 17
0.0
 27
1.0
 37
0.0
 76
0
330
221
345
0
346
0
  0
ENDSEC
  0
EOF
