  0
SECTION
  2
HEADER
  9
$ACADVER
  1
AC1021
  9
$DWGCODEPAGE
  3
ANSI_1252
  9
$EXTMAX
 10
297.0
 20
210.0
 30
0.0
  9
$EXTMIN
 10
0.0
 20
0.0
 30
0.0
  9
$LIMMIN
 10
0.0
 20
0.0
  9
$LIMMAX
 10
297.0
 20
210.0
  9
$VIEWCTR
 10
148.5
 20
105.0
  9
$VIEWSIZE
 40
210.0
  9
$CLAYER
  8
0
  9
$LTSCALE
 40
16.335
  9
$CELTYPE
  6
BYLAYER
  9
$DIMSCALE
 40
1.0
  9
$DIMASZ
 40
3.0
  9
$DIMEXO
 40
0.5
  9
$DIMDLI
 40
11.286
  9
$DIMEXE
 40
1.5
  9
$DIMCEN
 40
2.673
  9
$DIMLFAC
 40
1.0
  9
$DIMBLK
  1
_FILLED
  9
$DIMALT
 70
0
  9
$DIMALTF
 40
25.4
  9
$DIMTXT
 40
3.0
  9
$DIMTOL
 70
1
  9
$DIMLIM
 70
0
  9
$DIMTFAC
 40
1.0
  9
$DIMTP
 40
0.01
  9
$DIMTM
 40
0.01
  9
$DIMGAP
 40
0.625
  9
$DIMDSEP
 70
44
  9
$AUNITS
 70
0
  9
$PDMODE
 70
3
  9
$PDSIZE
 40
3.0
  9
$HANDSEED
  5
658
  9
$TILEMODE
 70
1
  9
$MEASUREMENT
 70
1
  9
$INSUNITS
 70
4
  0
ENDSEC
  0
SECTION
  2
CLASSES
  0
CLASS
  1
ACDBDICTIONARYWDFLT
  2
AcDbDictionaryWithDefault
  3
AutoCAD 2000
 90
0
 91
1
280
0
281
0
  0
CLASS
  1
ACDBPLACEHOLDER
  2
AcDbPlaceHolder
  3
AutoCAD 2000
 90
0
 91
1
280
0
281
0
  0
CLASS
  1
LAYOUT
  2
AcDbLayout
  3
AutoCAD 2000
 90
0
 91
0
280
0
281
0
  0
ENDSEC
  0
SECTION
  2
TABLES
  0
TABLE
  2
VPORT
  5
8
100
AcDbSymbolTable
 70
2
  0
VPORT
  5
1F4
100
AcDbSymbolTableRecord
100
AcDbViewportTableRecord
  2
*ACTIVE
 70
0
 10
0.0
 20
0.0
 11
1.0
 21
1.0
 12
148.5
 22
105.0
 13
0.0
 23
0.0
 14
1.0
 24
1.0
 15
0.0
 25
0.0
 16
0.0
 26
0.0
 36
1.0
 17
0.0
 27
0.0
 37
0.0
 40
210.0
 41
1.4142857143
 42
50.0
 43
0.0
 44
0.0
 50
0.0
 51
0.0
 71
0
 72
100
 73
1
 74
1
 75
0
 76
0
 77
0
 78
0
  0
ENDTAB
  0
TABLE
  2
LTYPE
  5
5
100
AcDbSymbolTable
 70
6
  0
LTYPE
  5
14
100
AcDbSymbolTableRecord
100
AcDbLinetypeTableRecord
  2
BYBLOCK
 70
0
  3

 72
65
 73
0
 40
0.0
  0
LTYPE
  5
15
100
AcDbSymbolTableRecord
100
AcDbLinetypeTableRecord
  2
BYLAYER
 70
0
  3

 72
65
 73
0
 40
0.0
  0
LTYPE
  5
16
100
AcDbSymbolTableRecord
100
AcDbLinetypeTableRecord
  2
CONTINUOUS
 70
64
  3
Solid line
 72
65
 73
0
 40
0.0
  0
LTYPE
  5
1F5
100
AcDbSymbolTableRecord
100
AcDbLinetypeTableRecord
  2
CENTER
 70
64
  3
____ _ ____ _ ____ _ ____ _ ____ _ ____ _ ____
 72
65
 73
4
 40
0.6
 49
0.375
 74
0
 49
-0.075
 74
0
 49
0.075
 74
0
 49
-0.075
 74
0
  0
LTYPE
  5
1F6
100
AcDbSymbolTableRecord
100
AcDbLinetypeTableRecord
  2
HIDDEN
 70
64
  3
- - - - - - - - - - - - - - - - - - - -
 72
65
 73
2
 40
0.2
 49
0.1
 74
0
 49
-0.1
 74
0
  0
LTYPE
  5
1F7
100
AcDbSymbolTableRecord
100
AcDbLinetypeTableRecord
  2
PHANTOM
 70
64
  3
_____ _ _ _____ _ _ _____ _ _ _____
 72
65
 73
6
 40
0.8
 49
0.45
 74
0
 49
-0.05
 74
0
 49
0.1
 74
0
 49
-0.05
 74
0
 49
0.1
 74
0
 49
-0.05
 74
0
  0
LTYPE
  5
1F8
100
AcDbSymbolTableRecord
100
AcDbLinetypeTableRecord
  2
DOT
 70
64
  3
. . . . . . . . . . . . . . . . . . . .
 72
65
 73
2
 40
0.2
 49
0.1
 74
0
 49
-0.1
 74
0
  0
LTYPE
  5
1F9
100
AcDbSymbolTableRecord
100
AcDbLinetypeTableRecord
  2
DASHED
 70
64
  3
- - - - - - - - - - - - - - - - - - - -
 72
65
 73
2
 40
0.2
 49
0.1
 74
0
 49
-0.1
 74
0
  0
ENDTAB
  0
TABLE
  2
LAYER
  5
2
100
AcDbSymbolTable
 70
36
  0
LAYER
  5
10
100
AcDbSymbolTableRecord
100
AcDbLayerTableRecord
  2
0
 70
0
 62
7
  6
CONTINUOUS
370
-3
390
F
  0
LAYER
  5
1FA
100
AcDbSymbolTableRecord
100
AcDbLayerTableRecord
  2
DEFAULT_1
 70
0
 62
7
  6
CENTER
370
-3
390
F
  0
LAYER
  5
1FB
100
AcDbSymbolTableRecord
100
AcDbLayerTableRecord
  2
DEFAULT_2
 70
0
 62
7
  6
HIDDEN
370
-3
390
F
  0
LAYER
  5
1FC
100
AcDbSymbolTableRecord
100
AcDbLayerTableRecord
  2
DEFAULT_3
 70
0
 62
7
  6
PHANTOM
370
-3
390
F
  0
LAYER
  5
1FD
100
AcDbSymbolTableRecord
100
AcDbLayerTableRecord
  2
ASSI
 70
0
 62
7
  6
CONTINUOUS
370
-3
390
F
  0
LAYER
  5
1FE
100
AcDbSymbolTableRecord
100
AcDbLayerTableRecord
  2
COLOR3
 70
0
 62
7
  6
CONTINUOUS
370
-3
390
F
  0
LAYER
  5
1FF
100
AcDbSymbolTableRecord
100
AcDbLayerTableRecord
  2
COORDINATE
 70
0
 62
7
  6
CONTINUOUS
370
-3
390
F
  0
LAYER
  5
200
100
AcDbSymbolTableRecord
100
AcDbLayerTableRecord
  2
COPY_PUBLISH
 70
0
 62
7
  6
CONTINUOUS
370
-3
390
F
  0
LAYER
  5
201
100
AcDbSymbolTableRecord
100
AcDbLayerTableRecord
  2
COSMETIC
 70
0
 62
7
  6
CONTINUOUS
370
-3
390
F
  0
LAYER
  5
202
100
AcDbSymbolTableRecord
100
AcDbLayerTableRecord
  2
COSMETICI
 70
0
 62
7
  6
CONTINUOUS
370
-3
390
F
  0
LAYER
  5
203
100
AcDbSymbolTableRecord
100
AcDbLayerTableRecord
  2
CURVE
 70
0
 62
7
  6
CONTINUOUS
370
-3
390
F
  0
LAYER
  5
204
100
AcDbSymbolTableRecord
100
AcDbLayerTableRecord
  2
DRAFT
 70
0
 62
7
  6
CONTINUOUS
370
-3
390
F
  0
LAYER
  5
205
100
AcDbSymbolTableRecord
100
AcDbLayerTableRecord
  2
IMPORT_IGES
 70
0
 62
7
  6
CONTINUOUS
370
-3
390
F
  0
LAYER
  5
206
100
AcDbSymbolTableRecord
100
AcDbLayerTableRecord
  2
INTFCLR_1
 70
0
 62
7
  6
CONTINUOUS
370
-3
390
F
  0
LAYER
  5
207
100
AcDbSymbolTableRecord
100
AcDbLayerTableRecord
  2
INTF_10
 70
0
 62
7
  6
CONTINUOUS
370
-3
390
F
  0
LAYER
  5
208
100
AcDbSymbolTableRecord
100
AcDbLayerTableRecord
  2
INTF_13
 70
0
 62
7
  6
CONTINUOUS
370
-3
390
F
  0
LAYER
  5
209
100
AcDbSymbolTableRecord
100
AcDbLayerTableRecord
  2
INTF_15
 70
0
 62
7
  6
CONTINUOUS
370
-3
390
F
  0
LAYER
  5
20A
100
AcDbSymbolTableRecord
100
AcDbLayerTableRecord
  2
INTF_16
 70
0
 62
7
  6
CONTINUOUS
370
-3
390
F
  0
LAYER
  5
20B
100
AcDbSymbolTableRecord
100
AcDbLayerTableRecord
  2
INTF_18
 70
0
 62
7
  6
CONTINUOUS
370
-3
390
F
  0
LAYER
  5
20C
100
AcDbSymbolTableRecord
100
AcDbLayerTableRecord
  2
INTF_20
 70
0
 62
7
  6
CONTINUOUS
370
-3
390
F
  0
LAYER
  5
20D
100
AcDbSymbolTableRecord
100
AcDbLayerTableRecord
  2
INTF_3
 70
0
 62
7
  6
CONTINUOUS
370
-3
390
F
  0
LAYER
  5
20E
100
AcDbSymbolTableRecord
100
AcDbLayerTableRecord
  2
INTF_5
 70
0
 62
7
  6
CONTINUOUS
370
-3
390
F
  0
LAYER
  5
20F
100
AcDbSymbolTableRecord
100
AcDbLayerTableRecord
  2
INTF_8
 70
0
 62
7
  6
CONTINUOUS
370
-3
390
F
  0
LAYER
  5
210
100
AcDbSymbolTableRecord
100
AcDbLayerTableRecord
  2
NOTE
 70
0
 62
7
  6
CONTINUOUS
370
-3
390
F
  0
LAYER
  5
211
100
AcDbSymbolTableRecord
100
AcDbLayerTableRecord
  2
PIANI
 70
0
 62
7
  6
CONTINUOUS
370
-3
390
F
  0
LAYER
  5
212
100
AcDbSymbolTableRecord
100
AcDbLayerTableRecord
  2
PUNTI
 70
0
 62
7
  6
CONTINUOUS
370
-3
390
F
  0
LAYER
  5
213
100
AcDbSymbolTableRecord
100
AcDbLayerTableRecord
  2
RACCORDO
 70
0
 62
7
  6
CONTINUOUS
370
-3
390
F
  0
LAYER
  5
214
100
AcDbSymbolTableRecord
100
AcDbLayerTableRecord
  2
SIMBOLI
 70
0
 62
7
  6
CONTINUOUS
370
-3
390
F
  0
LAYER
  5
215
100
AcDbSymbolTableRecord
100
AcDbLayerTableRecord
  2
SMUSSO
 70
0
 62
7
  6
CONTINUOUS
370
-3
390
F
  0
LAYER
  5
216
100
AcDbSymbolTableRecord
100
AcDbLayerTableRecord
  2
SNAPLINE
 70
0
 62
7
  6
CONTINUOUS
370
-3
390
F
  0
LAYER
  5
217
100
AcDbSymbolTableRecord
100
AcDbLayerTableRecord
  2
SOLIDO
 70
0
 62
7
  6
CONTINUOUS
370
-3
390
F
  0
LAYER
  5
218
100
AcDbSymbolTableRecord
100
AcDbLayerTableRecord
  2
SUPERFICI
 70
0
 62
7
  6
CONTINUOUS
370
-3
390
F
  0
LAYER
  5
219
100
AcDbSymbolTableRecord
100
AcDbLayerTableRecord
  2
SUPERFICI_SKEL
 70
0
 62
7
  6
CONTINUOUS
370
-3
390
F
  0
LAYER
  5
21A
100
AcDbSymbolTableRecord
100
AcDbLayerTableRecord
  2
TRASH
 70
0
 62
7
  6
CONTINUOUS
370
-3
390
F
  0
LAYER
  5
21B
100
AcDbSymbolTableRecord
100
AcDbLayerTableRecord
  2
___SHELL
 70
0
 62
7
  6
CONTINUOUS
370
-3
390
F
  0
ENDTAB
  0
TABLE
  2
STYLE
  5
3
100
AcDbSymbolTable
 70
1
  0
STYLE
  5
11
100
AcDbSymbolTableRecord
100
AcDbTextStyleTableRecord
  2
STANDARD
 70
0
 40
0.0
 41
0.8
 50
0.0
 71
0
 42
0.2
  3
txt
  4

  0
STYLE
  5
21C
100
AcDbSymbolTableRecord
100
AcDbTextStyleTableRecord
  2
TEXTSTYLE_1
 70
0
 40
0.0
 41
0.8
 50
0.0
 71
0
 42
0.2
  3
gdt
  4

  0
ENDTAB
  0
TABLE
  2
VIEW
  5
6
100
AcDbSymbolTable
 70
0
  0
ENDTAB
  0
TABLE
  2
UCS
  5
7
100
AcDbSymbolTable
 70
0
  0
ENDTAB
  0
TABLE
  2
APPID
  5
9
100
AcDbSymbolTable
 70
1
  0
APPID
  5
21D
100
AcDbSymbolTableRecord
100
AcDbRegAppTableRecord
  2
ACAD
 70
0
  0
ENDTAB
  0
TABLE
  2
BLOCK_RECORD
  5
1
100
AcDbSymbolTable
 70
0
  0
BLOCK_RECORD
  5
21E
100
AcDbSymbolTableRecord
100
AcDbBlockTableRecord
  2
*Model_Space
  0
BLOCK_RECORD
  5
21F
100
AcDbSymbolTableRecord
100
AcDbBlockTableRecord
  2
*Paper_Space
  0
BLOCK_RECORD
  5
220
100
AcDbSymbolTableRecord
100
AcDbBlockTableRecord
  2
_FILLED
  0
ENDTAB
  0
TABLE
  2
DIMSTYLE
  5
A
100
AcDbSymbolTable
 70
1
100
AcDbDimStyleTable
 71
0
  0
DIMSTYLE
105
221
100
AcDbSymbolTableRecord
100
AcDbDimStyleTableRecord
  2
STANDARD
 70
0
  3

  4

 40
1.0
 41
3.0
 42
0.5
 43
0.38
 44
1.5
 45
0.0
 46
0.0
 47
0.01
 48
0.01
140
3.0
141
0.09
142
0.0
143
25.4
144
1.0
145
0.0
146
1.0
147
0.625
 71
1.0
 72
0.0
 73
0
 74
0
 75
0
 76
0
 77
1
 78
8
 79
2
170
0
171
1
172
0
173
0
174
0
175
0
176
0
177
0
178
0
270
2
179
2
271
2
272
2
273
2
274
2
275
0
280
0
281
0
282
0
283
1
284
8
285
0
286
0
287
3
288
0
340
11
278
44
341
220
342
220
343
220
344
220
  0
ENDTAB
  0
ENDSEC
  0
SECTION
  2
BLOCKS
  0
BLOCK
  5
20
100
AcDbEntity
  8
0
100
AcDbBlockBegin
  2
*Model_Space
 70
0
 10
0.0
 20
0.0
 30
0.0
  3
*Model_Space
  1

  0
ENDBLK
  5
21
100
AcDbEntity
  8
0
100
AcDbBlockEnd
  0
BLOCK
  5
1C
100
AcDbEntity
  8
0
100
AcDbBlockBegin
  2
*Paper_Space
 70
0
 10
0.0
 20
0.0
 30
0.0
  3
*Paper_Space
  1

  0
ENDBLK
  5
1D
100
AcDbEntity
  8
0
100
AcDbBlockEnd
  0
BLOCK
  5
222
100
AcDbEntity
  8
0
100
AcDbBlockBegin
  2
_FILLED
 70
64
 10
0.0
 20
0.0
  3
_FILLED
  1

  0
SOLID
  5
223
100
AcDbEntity
  8
0
  6
BYBLOCK
 62
0
100
AcDbTrace
 10
0.0
 20
0.0
 11
-1.0
 21
0.1333333333
 12
-1.0
 22
-0.1333333333
 13
-1.0
 23
-0.1333333333
  0
ENDBLK
  5
224
100
AcDbEntity
  8
0
  6
BYBLOCK
 62
0
100
AcDbBlockEnd
  0
ENDSEC
  0
SECTION
  2
ENTITIES
  0
LINE
  5
225
100
AcDbEntity
  8
0
100
AcDbLine
 62
7
  6
CONTINUOUS
 10
-9.0843482629
 20
13.9087784098
 11
-9.0864502572
 21
13.9303571806
  0
LINE
  5
226
100
AcDbEntity
  8
0
100
AcDbLine
 62
7
  6
CONTINUOUS
 10
-9.0342236866
 20
-4.7960551572
 11
-9.0361927304
 21
-4.7755587517
  0
LINE
  5
227
100
AcDbEntity
  8
0
100
AcDbLine
 62
7
  6
CONTINUOUS
 10
-7.983671774
 20
15.5768971207
 11
-7.9816793624
 21
15.5554003498
  0
LINE
  5
228
100
AcDbEntity
  8
0
100
AcDbLine
 62
7
  6
CONTINUOUS
 10
-8.0340586379
 20
-3.2760293152
 11
-8.0322027267
 21
-3.2965304708
  0
LINE
  5
229
100
AcDbEntity
  8
ASSI
100
AcDbLine
 62
7
  6
CONTINUOUS
 10
-15.5178962389
 20
-6.958181446
 11
-15.511096448
 21
-7.0401191174
  0
LINE
  5
22A
100
AcDbEntity
  8
ASSI
100
AcDbLine
 62
7
  6
CONTINUOUS
 10
-15.3947364195
 20
-7.1378693601
 11
-15.3899538074
 21
-7.2038571066
  0
LINE
  5
22B
100
AcDbEntity
  8
0
100
AcDbLine
 62
7
  6
CONTINUOUS
 10
-9.0864502572
 20
13.9303571806
 11
-9.0879897047
 21
13.951696942
  0
LINE
  5
22C
100
AcDbEntity
  8
0
100
AcDbLine
 62
7
  6
CONTINUOUS
 10
-7.9816793624
 20
15.5554003498
 11
-7.9804842407
 21
15.5383611831
  0
LINE
  5
22D
100
AcDbEntity
  8
0
100
AcDbLine
 62
7
  6
CONTINUOUS
 10
-9.0361927304
 20
-4.7755587517
 11
-9.0375977029
 21
-4.755348457
  0
LINE
  5
22E
100
AcDbEntity
  8
0
100
AcDbLine
 62
7
  6
CONTINUOUS
 10
-8.0322027267
 20
-3.2965304708
 11
-8.0309079479
 21
-3.3168306854
  0
LINE
  5
22F
100
AcDbEntity
  8
0
100
AcDbLine
 62
7
  6
CONTINUOUS
 10
-7.9804842407
 20
15.5383611831
 11
-7.9796473165
 21
15.521446059
  0
LINE
  5
230
100
AcDbEntity
  8
0
100
AcDbLine
 62
7
  6
CONTINUOUS
 10
-9.0879897047
 20
13.951696942
 11
-9.0889646412
 21
13.9727746095
  0
LINE
  5
231
100
AcDbEntity
  8
ASSI
100
AcDbLine
 62
7
  6
CONTINUOUS
 10
-15.7099854293
 20
10.3343496846
 11
-15.708190511
 21
10.2923076639
  0
LINE
  5
232
100
AcDbEntity
  8
ASSI
100
AcDbLine
 62
7
  6
CONTINUOUS
 10
-15.8257264203
 20
10.4769022183
 11
-15.827561377
 21
10.5203529663
  0
LINE
  5
233
100
AcDbEntity
  8
0
100
AcDbLine
 62
7
  6
CONTINUOUS
 10
-9.0375977029
 20
-4.755348457
 11
-9.0384355786
 21
-4.7354467225
  0
LINE
  5
234
100
AcDbEntity
  8
ASSI
100
AcDbLine
 62
7
  6
CONTINUOUS
 10
-15.5182637888
 20
-6.9493058431
 11
-15.5178962389
 21
-6.958181446
  0
LINE
  5
235
100
AcDbEntity
  8
0
100
AcDbLine
 62
7
  6
CONTINUOUS
 10
-8.0309079479
 20
-3.3168306854
 11
-8.0301759373
 21
-3.3369383301
  0
LINE
  5
236
100
AcDbEntity
  8
ASSI
100
AcDbLine
 62
7
  6
CONTINUOUS
 10
-15.4659949652
 20
-5.1337524638
 11
-15.3947365257
 21
-7.1378693987
  0
LINE
  5
237
100
AcDbEntity
  8
ASSI
100
AcDbLine
 62
7
  6
CONTINUOUS
 10
-15.5795686084
 20
-5.2070818444
 11
-15.518279238
 21
-6.9491148226
  0
LINE
  5
238
100
AcDbEntity
  8
ASSI
100
AcDbLine
 62
7
  6
CONTINUOUS
 10
-10.246386075
 20
28.8714854674
 11
-10.225182461
 21
28.2550616719
  0
LINE
  5
239
100
AcDbEntity
  8
ASSI
100
AcDbLine
 62
7
  6
CONTINUOUS
 10
-15.6358396868
 20
-3.4014132521
 11
-15.5795686084
 21
-5.2070818444
  0
LINE
  5
23A
100
AcDbEntity
  8
ASSI
100
AcDbLine
 62
7
  6
CONTINUOUS
 10
-15.5263199488
 20
-3.1875176544
 11
-15.4659949652
 21
-5.1337524638
  0
LINE
  5
23B
100
AcDbEntity
  8
0
100
AcDbLine
 62
7
  6
CONTINUOUS
 10
-7.9796473165
 20
15.521446059
 11
-7.9791731539
 21
15.5046339884
  0
LINE
  5
23C
100
AcDbEntity
  8
ASSI
100
AcDbLine
 62
7
  6
CONTINUOUS
 10
-15.6848945558
 20
-1.591146623
 11
-15.6358396868
 21
-3.4014132521
  0
LINE
  5
23D
100
AcDbEntity
  8
0
100
AcDbLine
 62
7
  6
CONTINUOUS
 10
-8.0031536299
 20
-4.4609159053
 11
-7.979331372
 21
-5.3487569868
  0
LINE
  5
23E
100
AcDbEntity
  8
ASSI
100
AcDbLine
 62
7
  6
CONTINUOUS
 10
-15.5765504104
 20
-1.299735396
 11
-15.5263199488
 21
-3.1875176544
  0
LINE
  5
23F
100
AcDbEntity
  8
0
100
AcDbLine
 62
7
  6
CONTINUOUS
 10
-9.0384355786
 20
-4.7354467225
 11
-9.0735141255
 21
-3.3949576701
  0
LINE
  5
240
100
AcDbEntity
  8
0
100
AcDbLine
 62
7
  6
CONTINUOUS
 10
-8.0301759373
 20
-3.3369383301
 11
-8.0031536299
 21
-4.4609159053
  0
LINE
  5
241
100
AcDbEntity
  8
0
100
AcDbLine
 62
7
  6
CONTINUOUS
 10
-9.0735141255
 20
-3.3949576701
 11
-9.0892131249
 21
-2.7235893494
  0
LINE
  5
242
100
AcDbEntity
  8
ASSI
100
AcDbLine
 62
7
  6
CONTINUOUS
 10
-15.7267318321
 20
0.2236725526
 11
-15.6848945558
 21
-1.591146623
  0
LINE
  5
243
100
AcDbEntity
  8
ASSI
100
AcDbLine
 62
7
  6
CONTINUOUS
 10
-15.6172454758
 20
0.5165135415
 11
-15.5765504104
 21
-1.299735396
  0
LINE
  5
244
100
AcDbEntity
  8
0
100
AcDbLine
 62
7
  6
CONTINUOUS
 10
-9.0889646412
 20
13.9727746095
 11
-9.0893731027
 21
13.9935670986
  0
LINE
  5
245
100
AcDbEntity
  8
ASSI
100
AcDbLine
 62
7
  6
CONTINUOUS
 10
-15.7613508436
 20
2.0430041649
 11
-15.7267318321
 21
0.2236725526
  0
LINE
  5
246
100
AcDbEntity
  8
ASSI
100
AcDbLine
 62
7
  6
CONTINUOUS
 10
-15.6495410965
 20
2.2731879077
 11
-15.6172454758
 21
0.5165135415
  0
LINE
  5
247
100
AcDbEntity
  8
ASSI
100
AcDbLine
 62
7
  6
CONTINUOUS
 10
-15.8274710105
 20
9.2936542813
 11
-15.8275613751
 21
9.2989378545
  0
LINE
  5
248
100
AcDbEntity
  8
0
100
AcDbLine
 62
7
  6
CONTINUOUS
 10
-7.9793313714
 20
-5.348757007
 11
-7.9790663174
 21
-5.3646913397
  0
LINE
  5
249
100
AcDbEntity
  8
ASSI
100
AcDbLine
 62
7
  6
CONTINUOUS
 10
-15.827561377
 20
10.5203529628
 11
-15.827471011
 21
10.514652834
  0
LINE
  5
24A
100
AcDbEntity
  8
ASSI
100
AcDbLine
 62
7
  6
CONTINUOUS
 10
-15.7887514071
 20
3.8668121682
 11
-15.7613508436
 21
2.0430041649
  0
LINE
  5
24B
100
AcDbEntity
  8
ASSI
100
AcDbLine
 62
7
  6
CONTINUOUS
 10
-15.6746563413
 20
4.0075826282
 11
-15.6495410965
 21
2.2731879077
  0
LINE
  5
24C
100
AcDbEntity
  8
ASSI
100
AcDbLine
 62
7
  6
CONTINUOUS
 10
-15.8089333445
 20
5.6950595776
 11
-15.7887514071
 21
3.8668121682
  0
LINE
  5
24D
100
AcDbEntity
  8
ASSI
100
AcDbLine
 62
7
  6
CONTINUOUS
 10
-15.693003204
 20
5.7321043106
 11
-15.6746563413
 21
4.0075826282
  0
LINE
  5
24E
100
AcDbEntity
  8
ASSI
100
AcDbLine
 62
7
  6
CONTINUOUS
 10
-15.5181898102
 20
27.1300533508
 11
-15.5183162512
 21
27.1433188668
  0
LINE
  5
24F
100
AcDbEntity
  8
0
100
AcDbLine
 62
7
  6
CONTINUOUS
 10
-9.0892131249
 20
-2.7235893494
 11
-9.0893730995
 21
-2.7039502168
  0
LINE
  5
250
100
AcDbEntity
  8
ASSI
100
AcDbLine
 62
7
  6
CONTINUOUS
 10
-15.8218968493
 20
7.5277069209
 11
-15.8089333445
 21
5.6950595776
  0
LINE
  5
251
100
AcDbEntity
  8
ASSI
100
AcDbLine
 62
7
  6
CONTINUOUS
 10
-15.7046802778
 20
7.4339737097
 11
-15.693003204
 21
5.7321043106
  0
LINE
  5
252
100
AcDbEntity
  8
0
100
AcDbLine
 62
7
  6
CONTINUOUS
 10
-7.9791731539
 20
15.5046339884
 11
-7.9790663174
 21
15.4879039822
  0
LINE
  5
253
100
AcDbEntity
  8
ASSI
100
AcDbLine
 62
7
  6
CONTINUOUS
 10
-15.8275613751
 20
9.2989378586
 11
-15.8218968493
 21
7.5277069209
  0
LINE
  5
254
100
AcDbEntity
  8
ASSI
100
AcDbLine
 62
7
  6
CONTINUOUS
 10
-15.7099854136
 20
9.1129834699
 11
-15.7046802778
 21
7.4339737097
  0
LINE
  5
255
100
AcDbEntity
  8
ASSI
100
AcDbLine
 62
7
  6
CONTINUOUS
 10
-10.4266207233
 20
28.457303458
 11
-10.4266207059
 21
28.3953301943
  0
LINE
  5
256
100
AcDbEntity
  8
ASSI
100
AcDbLine
 62
7
  6
CONTINUOUS
 10
-15.7058971304
 20
11.7607802085
 11
-15.7099854136
 21
10.3343496657
  0
LINE
  5
257
100
AcDbEntity
  8
ASSI
100
AcDbLine
 62
7
  6
CONTINUOUS
 10
-15.8218693855
 20
12.3038914237
 11
-15.8275613769
 21
10.5203529628
  0
LINE
  5
258
100
AcDbEntity
  8
ASSI
100
AcDbLine
 62
7
  6
CONTINUOUS
 10
-15.6975694977
 20
13.1674214034
 11
-15.7058971304
 21
11.7607802085
  0
LINE
  5
259
100
AcDbEntity
  8
ASSI
100
AcDbLine
 62
7
  6
CONTINUOUS
 10
-15.8088850893
 20
14.1522581027
 11
-15.8218693855
 21
12.3038914237
  0
LINE
  5
25A
100
AcDbEntity
  8
0
100
AcDbLine
 62
7
  6
CONTINUOUS
 10
-7.9790663174
 20
-5.3646913397
 11
-7.9791731531
 21
-5.3802652442
  0
LINE
  5
25B
100
AcDbEntity
  8
0
100
AcDbLine
 62
7
  6
CONTINUOUS
 10
-9.0893731027
 20
13.9935670986
 11
-9.0892131249
 21
14.0140513249
  0
LINE
  5
25C
100
AcDbEntity
  8
ASSI
100
AcDbLine
 62
7
  6
CONTINUOUS
 10
-15.6852067391
 20
14.5541390179
 11
-15.6975694977
 21
13.1674214034
  0
LINE
  5
25D
100
AcDbEntity
  8
ASSI
100
AcDbLine
 62
7
  6
CONTINUOUS
 10
-15.7886829975
 20
16.0049869924
 11
-15.8088850893
 21
14.1522581027
  0
LINE
  5
25E
100
AcDbEntity
  8
ASSI
100
AcDbLine
 62
7
  6
CONTINUOUS
 10
-15.6691121979
 20
15.9131475628
 11
-15.6852067391
 21
14.5541390179
  0
LINE
  5
25F
100
AcDbEntity
  8
ASSI
100
AcDbLine
 62
7
  6
CONTINUOUS
 10
-15.6494255022
 20
17.2519499213
 11
-15.6691121979
 21
15.9131475628
  0
LINE
  5
260
100
AcDbEntity
  8
ASSI
100
AcDbLine
 62
7
  6
CONTINUOUS
 10
-15.7612629917
 20
17.8620382416
 11
-15.7886829975
 21
16.0049869924
  0
LINE
  5
261
100
AcDbEntity
  8
0
100
AcDbLine
 62
7
  6
CONTINUOUS
 10
-7.9790663174
 20
15.4879039822
 11
-7.9793313714
 21
15.4712350513
  0
LINE
  5
262
100
AcDbEntity
  8
ASSI
100
AcDbLine
 62
7
  6
CONTINUOUS
 10
-15.6259017841
 20
18.5934602482
 11
-15.6494255022
 21
17.2519499213
  0
LINE
  5
263
100
AcDbEntity
  8
ASSI
100
AcDbLine
 62
7
  6
CONTINUOUS
 10
-15.7266253723
 20
19.7233733887
 11
-15.7612629917
 21
17.8620382416
  0
LINE
  5
264
100
AcDbEntity
  8
ASSI
100
AcDbLine
 62
7
  6
CONTINUOUS
 10
-15.5985342354
 20
19.9377030254
 11
-15.6259017841
 21
18.5934602482
  0
LINE
  5
265
100
AcDbEntity
  8
0
100
AcDbLine
 62
7
  6
CONTINUOUS
 10
-9.0893730995
 20
-2.7039502168
 11
-9.0889646295
 21
-2.6846633744
  0
LINE
  5
266
100
AcDbEntity
  8
ASSI
100
AcDbLine
 62
7
  6
CONTINUOUS
 10
-15.6847706546
 20
21.5889547834
 11
-15.7266253723
 21
19.7233733887
  0
LINE
  5
267
100
AcDbEntity
  8
0
100
AcDbLine
 62
7
  6
CONTINUOUS
 10
-8.0090794293
 20
14.3145695021
 11
-8.0301759369
 21
13.4007023649
  0
LINE
  5
268
100
AcDbEntity
  8
ASSI
100
AcDbLine
 62
7
  6
CONTINUOUS
 10
-15.567320218
 20
21.2846283907
 11
-15.5985342354
 21
19.9377030254
  0
LINE
  5
269
100
AcDbEntity
  8
0
100
AcDbLine
 62
7
  6
CONTINUOUS
 10
-9.0892131249
 20
14.0140513249
 11
-9.0565882767
 21
15.3937141254
  0
LINE
  5
26A
100
AcDbEntity
  8
0
100
AcDbLine
 62
7
  6
CONTINUOUS
 10
-7.9793313714
 20
15.4712350513
 11
-8.0090794293
 21
14.3145695021
  0
LINE
  5
26B
100
AcDbEntity
  8
ASSI
100
AcDbLine
 62
7
  6
CONTINUOUS
 10
-15.531624537
 20
22.6572574568
 11
-15.567320218
 21
21.2846283907
  0
LINE
  5
26C
100
AcDbEntity
  8
ASSI
100
AcDbLine
 62
7
  6
CONTINUOUS
 10
-15.6356995141
 20
23.4587433411
 11
-15.6847706546
 21
21.5889547834
  0
LINE
  5
26D
100
AcDbEntity
  8
0
100
AcDbLine
 62
7
  6
CONTINUOUS
 10
-9.0565882767
 20
15.3937141254
 11
-9.0384355786
 21
16.0845453357
  0
LINE
  5
26E
100
AcDbEntity
  8
ASSI
100
AcDbLine
 62
7
  6
CONTINUOUS
 10
-15.4910086247
 20
24.0633755252
 11
-15.531624537
 21
22.6572574568
  0
LINE
  5
26F
100
AcDbEntity
  8
ASSI
100
AcDbLine
 62
7
  6
CONTINUOUS
 10
-15.5794133625
 20
25.3326939955
 11
-15.6356995141
 21
23.4587433411
  0
LINE
  5
270
100
AcDbEntity
  8
ASSI
100
AcDbLine
 62
7
  6
CONTINUOUS
 10
-15.4454504612
 20
25.4954121422
 11
-15.4910086247
 21
24.0633755252
  0
LINE
  5
271
100
AcDbEntity
  8
ASSI
100
AcDbLine
 62
7
  6
CONTINUOUS
 10
-15.518308419
 20
27.1435438222
 11
-15.5794133625
 21
25.3326939955
  0
LINE
  5
272
100
AcDbEntity
  8
ASSI
100
AcDbLine
 62
7
  6
CONTINUOUS
 10
-15.3947365294
 20
26.9534629257
 11
-15.4454504612
 21
25.4954121422
  0
LINE
  5
273
100
AcDbEntity
  8
ASSI
100
AcDbLine
 62
7
  6
CONTINUOUS
 10
-15.7099854288
 20
9.1129834893
 11
-15.7081904466
 21
9.157467225
  0
LINE
  5
274
100
AcDbEntity
  8
ASSI
100
AcDbLine
 62
7
  6
CONTINUOUS
 10
-15.5177059908
 20
27.1578618629
 11
-15.5183085282
 21
27.143318599
  0
LINE
  5
275
100
AcDbEntity
  8
ASSI
100
AcDbLine
 62
7
  6
CONTINUOUS
 10
-15.8256171299
 20
9.3436429842
 11
-15.8275613751
 21
9.2989378545
  0
LINE
  5
276
100
AcDbEntity
  8
ASSI
100
AcDbLine
 62
7
  6
CONTINUOUS
 10
-15.3899539003
 20
27.0246549552
 11
-15.3947365105
 21
26.9534629232
  0
LINE
  5
277
100
AcDbEntity
  8
ASSI
100
AcDbLine
 62
7
  6
CONTINUOUS
 10
-15.5109091951
 20
27.242046518
 11
-15.5177059908
 21
27.1578618629
  0
LINE
  5
278
100
AcDbEntity
  8
ASSI
100
AcDbLine
 62
7
  6
CONTINUOUS
 10
15.3877287257
 20
-24.8844505801
 11
15.4335520894
 21
-24.8940996489
  0
LINE
  5
279
100
AcDbEntity
  8
ASSI
100
AcDbLine
 62
7
  6
CONTINUOUS
 10
15.6455863386
 20
-25.4031967093
 11
15.7113404185
 21
-25.420279544
  0
LINE
  5
27A
100
AcDbEntity
  8
ASSI
100
AcDbLine
 62
7
  6
CONTINUOUS
 10
15.3438918735
 20
-24.8720928196
 11
15.3877287257
 21
-24.8844505801
  0
LINE
  5
27B
100
AcDbEntity
  8
ASSI
100
AcDbLine
 62
7
  6
CONTINUOUS
 10
16.1522189803
 20
-25.1389376988
 11
16.123676901
 21
-25.1302877807
  0
LINE
  5
27C
100
AcDbEntity
  8
0
100
AcDbLine
 62
7
  6
CONTINUOUS
 10
-8.3718334529
 20
-5.6988011955
 11
-8.388583992
 21
-5.6932138156
  0
LINE
  5
27D
100
AcDbEntity
  8
ASSI
100
AcDbLine
 62
7
  6
CONTINUOUS
 10
15.5822576115
 20
-25.3805831582
 11
15.6455863386
 21
-25.4031967093
  0
LINE
  5
27E
100
AcDbEntity
  8
ASSI
100
AcDbLine
 62
7
  6
CONTINUOUS
 10
15.3024665723
 20
-24.8571461876
 11
15.3438918735
 21
-24.8720928196
  0
LINE
  5
27F
100
AcDbEntity
  8
0
100
AcDbLine
 62
7
  6
CONTINUOUS
 10
-8.388583992
 20
-5.6932138156
 11
-8.4054505284
 21
-5.6869423651
  0
LINE
  5
280
100
AcDbEntity
  8
0
100
AcDbLine
 62
7
  6
CONTINUOUS
 10
-8.6759245878
 20
-2.3780230886
 11
-8.6589224159
 21
-2.3843866141
  0
LINE
  5
281
100
AcDbEntity
  8
0
100
AcDbLine
 62
7
  6
CONTINUOUS
 10
-8.4054505284
 20
-5.6869423651
 11
-8.4224234322
 21
-5.6799939114
  0
LINE
  5
282
100
AcDbEntity
  8
0
100
AcDbLine
 62
7
  6
CONTINUOUS
 10
-8.6589224159
 20
-2.3843866141
 11
-8.6418122925
 21
-2.3914402577
  0
LINE
  5
283
100
AcDbEntity
  8
ASSI
100
AcDbLine
 62
7
  6
CONTINUOUS
 10
16.123676901
 20
-25.1302877807
 11
16.0967530434
 21
-25.1185343221
  0
LINE
  5
284
100
AcDbEntity
  8
ASSI
100
AcDbLine
 62
7
  6
CONTINUOUS
 10
14.9836189128
 20
-8.6038032185
 11
14.9449522145
 21
-8.5867932915
  0
LINE
  5
285
100
AcDbEntity
  8
ASSI
100
AcDbLine
 62
7
  6
CONTINUOUS
 10
14.944952215
 20
-7.3654270956
 11
14.9836189133
 21
-7.3824565726
  0
LINE
  5
286
100
AcDbEntity
  8
0
100
AcDbLine
 62
7
  6
CONTINUOUS
 10
-8.4224234322
 20
-5.6799939114
 11
-8.4360760216
 21
-5.6739492084
  0
LINE
  5
287
100
AcDbEntity
  8
0
100
AcDbLine
 62
7
  6
CONTINUOUS
 10
-8.6418122925
 20
-2.3914402577
 11
-8.6246126056
 21
-2.3991760287
  0
LINE
  5
288
100
AcDbEntity
  8
ASSI
100
AcDbLine
 62
7
  6
CONTINUOUS
 10
15.2638544795
 20
-24.8397556056
 11
15.3024665723
 21
-24.8571461876
  0
LINE
  5
289
100
AcDbEntity
  8
ASSI
100
AcDbLine
 62
7
  6
CONTINUOUS
 10
15.5260592697
 20
-25.3548935976
 11
15.5822576115
 21
-25.3805831582
  0
LINE
  5
28A
100
AcDbEntity
  8
ASSI
100
AcDbLine
 62
7
  6
CONTINUOUS
 10
15.0482637374
 20
-7.5948347278
 11
15.0602047184
 21
-7.6004521733
  0
LINE
  5
28B
100
AcDbEntity
  8
0
100
AcDbLine
 62
7
  6
CONTINUOUS
 10
-8.4360760216
 20
-5.6739492084
 11
-8.4498105106
 21
-5.6674598834
  0
LINE
  5
28C
100
AcDbEntity
  8
0
100
AcDbLine
 62
7
  6
CONTINUOUS
 10
-8.6246126056
 20
-2.3991760287
 11
-8.607341743
 21
-2.4075859363
  0
LINE
  5
28D
100
AcDbEntity
  8
ASSI
100
AcDbLine
 62
7
  6
CONTINUOUS
 10
-15.3686309789
 20
9.7246018259
 11
-15.3306470953
 21
9.7060271706
  0
LINE
  5
28E
100
AcDbEntity
  8
ASSI
100
AcDbLine
 62
7
  6
CONTINUOUS
 10
14.9449521736
 20
-8.5867932871
 11
14.0635372817
 21
-8.154712397
  0
LINE
  5
28F
100
AcDbEntity
  8
ASSI
100
AcDbLine
 62
7
  6
CONTINUOUS
 10
15.2639718327
 20
-7.9589223643
 11
14.3860571748
 21
-7.5285628329
  0
LINE
  5
290
100
AcDbEntity
  8
ASSI
100
AcDbLine
 62
7
  6
CONTINUOUS
 10
14.2068186593
 20
-7.1812317506
 11
15.048096467
 21
-7.5947532922
  0
LINE
  5
291
100
AcDbEntity
  8
ASSI
100
AcDbLine
 62
7
  6
CONTINUOUS
 10
14.0635439323
 20
-6.9319667791
 11
14.9449521736
 21
-7.3654270913
  0
LINE
  5
292
100
AcDbEntity
  8
ASSI
100
AcDbLine
 62
7
  6
CONTINUOUS
 10
14.0635372817
 20
-8.154712397
 11
13.188768425
 21
-7.7175229246
  0
LINE
  5
293
100
AcDbEntity
  8
ASSI
100
AcDbLine
 62
7
  6
CONTINUOUS
 10
14.3860571748
 20
-7.5285628329
 11
13.5148843005
 21
-7.0931406601
  0
LINE
  5
294
100
AcDbEntity
  8
ASSI
100
AcDbLine
 62
7
  6
CONTINUOUS
 10
13.3164757488
 20
-6.7353482388
 11
14.2068186593
 21
-7.1812317506
  0
LINE
  5
295
100
AcDbEntity
  8
ASSI
100
AcDbLine
 62
7
  6
CONTINUOUS
 10
13.1887799658
 20
-6.4935587298
 11
14.0635439323
 21
-6.9319667791
  0
LINE
  5
296
100
AcDbEntity
  8
0
100
AcDbLine
 62
7
  6
CONTINUOUS
 10
-8.4498105106
 20
-5.6674598834
 11
-8.4636468863
 21
-5.6605100734
  0
LINE
  5
297
100
AcDbEntity
  8
ASSI
100
AcDbLine
 62
7
  6
CONTINUOUS
 10
14.5881881869
 20
-24.495850667
 11
15.2638544784
 21
-24.8397555984
  0
LINE
  5
298
100
AcDbEntity
  8
ASSI
100
AcDbLine
 62
7
  6
CONTINUOUS
 10
13.188768425
 20
-7.7175229246
 11
12.3207075307
 21
-7.2752360529
  0
LINE
  5
299
100
AcDbEntity
  8
ASSI
100
AcDbLine
 62
7
  6
CONTINUOUS
 10
13.5148843005
 20
-7.0931406601
 11
12.6504532098
 21
-6.6526558459
  0
LINE
  5
29A
100
AcDbEntity
  8
ASSI
100
AcDbLine
 62
7
  6
CONTINUOUS
 10
12.4337690674
 20
-6.2847068591
 11
13.3164757488
 21
-6.7353482388
  0
LINE
  5
29B
100
AcDbEntity
  8
ASSI
100
AcDbLine
 62
7
  6
CONTINUOUS
 10
12.3207222425
 20
-6.0502141626
 11
13.1887799658
 21
-6.4935587298
  0
LINE
  5
29C
100
AcDbEntity
  8
ASSI
100
AcDbLine
 62
7
  6
CONTINUOUS
 10
14.7244405872
 20
-24.9448426662
 11
15.5258945307
 21
-25.3548157458
  0
LINE
  5
29D
100
AcDbEntity
  8
ASSI
100
AcDbLine
 62
7
  6
CONTINUOUS
 10
13.9255920958
 20
-24.154756268
 11
14.5881881869
 21
-24.495850667
  0
LINE
  5
29E
100
AcDbEntity
  8
ASSI
100
AcDbLine
 62
7
  6
CONTINUOUS
 10
13.8411729933
 20
-24.4867658747
 11
14.7244405872
 21
-24.9448426662
  0
LINE
  5
29F
100
AcDbEntity
  8
ASSI
100
AcDbLine
 62
7
  6
CONTINUOUS
 10
12.3207075307
 20
-7.2752360529
 11
11.459447894
 21
-6.8278796115
  0
LINE
  5
2A0
100
AcDbEntity
  8
ASSI
100
AcDbLine
 62
7
  6
CONTINUOUS
 10
12.6504532098
 20
-6.6526558459
 11
11.7927314268
 21
-6.2071119351
  0
LINE
  5
2A1
100
AcDbEntity
  8
ASSI
100
AcDbLine
 62
7
  6
CONTINUOUS
 10
13.275939076
 20
-23.8165774071
 11
13.9255920958
 21
-24.154756268
  0
LINE
  5
2A2
100
AcDbEntity
  8
ASSI
100
AcDbLine
 62
7
  6
CONTINUOUS
 10
11.55879082
 20
-5.8293540503
 11
12.4337690674
 21
-6.2847068591
  0
LINE
  5
2A3
100
AcDbEntity
  8
ASSI
100
AcDbLine
 62
7
  6
CONTINUOUS
 10
11.4594641007
 20
-5.6019605427
 11
12.3207222425
 21
-6.0502141626
  0
LINE
  5
2A4
100
AcDbEntity
  8
0
100
AcDbLine
 62
7
  6
CONTINUOUS
 10
-8.607341743
 20
-2.4075859363
 11
-8.5900180927
 21
-2.4166619895
  0
LINE
  5
2A5
100
AcDbEntity
  8
ASSI
100
AcDbLine
 62
7
  6
CONTINUOUS
 10
12.9640100864
 20
-24.02523499
 11
13.8411729933
 21
-24.4867658747
  0
LINE
  5
2A6
100
AcDbEntity
  8
ASSI
100
AcDbLine
 62
7
  6
CONTINUOUS
 10
12.6426022818
 20
-23.4832702712
 11
13.275939076
 21
-23.8165774071
  0
LINE
  5
2A7
100
AcDbEntity
  8
ASSI
100
AcDbLine
 62
7
  6
CONTINUOUS
 10
11.459447894
 20
-6.8278796115
 11
10.6050202434
 21
-6.3754488011
  0
LINE
  5
2A8
100
AcDbEntity
  8
ASSI
100
AcDbLine
 62
7
  6
CONTINUOUS
 10
11.7927314268
 20
-6.2071119351
 11
10.9417514274
 21
-5.7565053828
  0
LINE
  5
2A9
100
AcDbEntity
  8
ASSI
100
AcDbLine
 62
7
  6
CONTINUOUS
 10
10.6050363102
 20
-5.1487934886
 11
11.4594641007
 21
-5.6019605427
  0
LINE
  5
2AA
100
AcDbEntity
  8
ASSI
100
AcDbLine
 62
7
  6
CONTINUOUS
 10
10.691615352
 20
-5.3693299336
 11
11.55879082
 21
-5.8293540503
  0
LINE
  5
2AB
100
AcDbEntity
  8
ASSI
100
AcDbLine
 62
7
  6
CONTINUOUS
 10
12.0219205151
 20
-23.1531039973
 11
12.6426022818
 21
-23.4832702712
  0
LINE
  5
2AC
100
AcDbEntity
  8
0
100
AcDbLine
 62
7
  6
CONTINUOUS
 10
-8.4636468863
 20
-5.6605100734
 11
-8.4776051363
 21
-5.6530839155
  0
LINE
  5
2AD
100
AcDbEntity
  8
ASSI
100
AcDbLine
 62
7
  6
CONTINUOUS
 10
12.0930024868
 20
-23.5602762021
 11
12.9640100864
 21
-24.02523499
  0
LINE
  5
2AE
100
AcDbEntity
  8
ASSI
100
AcDbLine
 62
7
  6
CONTINUOUS
 10
11.4033733692
 20
-22.8205510863
 11
12.0219205151
 21
-23.1531039973
  0
LINE
  5
2AF
100
AcDbEntity
  8
ASSI
100
AcDbLine
 62
7
  6
CONTINUOUS
 10
10.6050202434
 20
-6.3754488011
 11
9.7573954953
 21
-5.917904524
  0
LINE
  5
2B0
100
AcDbEntity
  8
ASSI
100
AcDbLine
 62
7
  6
CONTINUOUS
 10
10.9417514274
 20
-5.7565053828
 11
10.0976106389
 21
-5.3008255549
  0
LINE
  5
2B1
100
AcDbEntity
  8
ASSI
100
AcDbLine
 62
7
  6
CONTINUOUS
 10
9.7574098269
 20
-4.6906751047
 11
10.6050363102
 21
-5.1487934886
  0
LINE
  5
2B2
100
AcDbEntity
  8
ASSI
100
AcDbLine
 62
7
  6
CONTINUOUS
 10
9.8323104347
 20
-4.9046717655
 11
10.691615352
 21
-5.3693299336
  0
LINE
  5
2B3
100
AcDbEntity
  8
ASSI
100
AcDbLine
 62
7
  6
CONTINUOUS
 10
11.2281973326
 20
-23.0919146976
 11
12.0930024868
 21
-23.5602762021
  0
LINE
  5
2B4
100
AcDbEntity
  8
ASSI
100
AcDbLine
 62
7
  6
CONTINUOUS
 10
10.7864698948
 20
-22.4853201757
 11
11.4033733692
 21
-22.8205510863
  0
LINE
  5
2B5
100
AcDbEntity
  8
ASSI
100
AcDbLine
 62
7
  6
CONTINUOUS
 10
10.1717705831
 20
-22.147698506
 11
10.7864698948
 21
-22.4853201757
  0
LINE
  5
2B6
100
AcDbEntity
  8
ASSI
100
AcDbLine
 62
7
  6
CONTINUOUS
 10
10.3696403506
 20
-22.6201750663
 11
11.2281973326
 21
-23.0919146976
  0
LINE
  5
2B7
100
AcDbEntity
  8
ASSI
100
AcDbLine
 62
7
  6
CONTINUOUS
 10
9.7573954953
 20
-5.917904524
 11
8.9166087483
 21
-5.4552398758
  0
LINE
  5
2B8
100
AcDbEntity
  8
ASSI
100
AcDbLine
 62
7
  6
CONTINUOUS
 10
10.0976106389
 20
-5.3008255549
 11
9.2603415368
 21
-4.8400689067
  0
LINE
  5
2B9
100
AcDbEntity
  8
ASSI
100
AcDbLine
 62
7
  6
CONTINUOUS
 10
8.916619792
 20
-4.2275988966
 11
9.7574098269
 21
-4.6906751047
  0
LINE
  5
2BA
100
AcDbEntity
  8
ASSI
100
AcDbLine
 62
7
  6
CONTINUOUS
 10
8.9809494099
 20
-4.4354204575
 11
9.8323104347
 21
-4.9046717655
  0
LINE
  5
2BB
100
AcDbEntity
  8
ASSI
100
AcDbLine
 62
7
  6
CONTINUOUS
 10
9.5506265452
 20
-21.8028449883
 11
10.1717705831
 21
-22.147698506
  0
LINE
  5
2BC
100
AcDbEntity
  8
0
100
AcDbLine
 62
7
  6
CONTINUOUS
 10
-8.555235042
 20
13.0767589606
 11
-8.572738176
 21
13.0864955713
  0
LINE
  5
2BD
100
AcDbEntity
  8
ASSI
100
AcDbLine
 62
7
  6
CONTINUOUS
 10
9.5173798568
 20
-22.1450836655
 11
10.3696403506
 21
-22.6201750663
  0
LINE
  5
2BE
100
AcDbEntity
  8
0
100
AcDbLine
 62
7
  6
CONTINUOUS
 10
-8.5900180927
 20
-2.4166619895
 11
-8.5726600425
 21
-2.4263961976
  0
LINE
  5
2BF
100
AcDbEntity
  8
ASSI
100
AcDbLine
 62
7
  6
CONTINUOUS
 10
8.9166087483
 20
-5.4552398758
 11
8.0827565312
 21
-4.9874818166
  0
LINE
  5
2C0
100
AcDbEntity
  8
ASSI
100
AcDbLine
 62
7
  6
CONTINUOUS
 10
9.2603415368
 20
-4.8400689067
 11
8.4299116456
 21
-4.3742389828
  0
LINE
  5
2C1
100
AcDbEntity
  8
ASSI
100
AcDbLine
 62
7
  6
CONTINUOUS
 10
8.9203325628
 20
-21.449052933
 11
9.5506265452
 21
-21.8028449883
  0
LINE
  5
2C2
100
AcDbEntity
  8
ASSI
100
AcDbLine
 62
7
  6
CONTINUOUS
 10
8.0827627796
 20
-3.7595914385
 11
8.916619792
 21
-4.2275988966
  0
LINE
  5
2C3
100
AcDbEntity
  8
0
100
AcDbLine
 62
7
  6
CONTINUOUS
 10
-8.4776051363
 20
-5.6530839155
 11
-8.4917052477
 21
-5.6451655467
  0
LINE
  5
2C4
100
AcDbEntity
  8
ASSI
100
AcDbLine
 62
7
  6
CONTINUOUS
 10
8.1376182971
 20
-3.9616268427
 11
8.9809494099
 21
-4.4354204575
  0
LINE
  5
2C5
100
AcDbEntity
  8
ASSI
100
AcDbLine
 62
7
  6
CONTINUOUS
 10
8.6714706165
 20
-21.6666715744
 11
9.5173798568
 21
-22.1450836655
  0
LINE
  5
2C6
100
AcDbEntity
  8
ASSI
100
AcDbLine
 62
7
  6
CONTINUOUS
 10
8.2839753852
 20
-21.0878423067
 11
8.9203325628
 21
-21.449052933
  0
LINE
  5
2C7
100
AcDbEntity
  8
ASSI
100
AcDbLine
 62
7
  6
CONTINUOUS
 10
8.4299116456
 20
-4.3742389828
 11
7.6063209652
 21
-3.9033357832
  0
LINE
  5
2C8
100
AcDbEntity
  8
ASSI
100
AcDbLine
 62
7
  6
CONTINUOUS
 10
8.0827565312
 20
-4.9874818166
 11
7.2559047951
 21
-4.5146407269
  0
LINE
  5
2C9
100
AcDbEntity
  8
ASSI
100
AcDbLine
 62
7
  6
CONTINUOUS
 10
7.2559047857
 20
-3.2866631138
 11
8.0827627796
 21
-3.7595914385
  0
LINE
  5
2CA
100
AcDbEntity
  8
ASSI
100
AcDbLine
 62
7
  6
CONTINUOUS
 10
7.3594520637
 20
-3.5163033837
 11
8.1376182971
 21
-3.9616268427
  0
LINE
  5
2CB
100
AcDbEntity
  8
ASSI
100
AcDbLine
 62
7
  6
CONTINUOUS
 10
7.8890865161
 20
-21.2179662086
 11
8.6714706165
 21
-21.6666715744
  0
LINE
  5
2CC
100
AcDbEntity
  8
ASSI
100
AcDbLine
 62
7
  6
CONTINUOUS
 10
7.6417367586
 20
-20.7191282605
 11
8.2839753852
 21
-21.0878423067
  0
LINE
  5
2CD
100
AcDbEntity
  8
ASSI
100
AcDbLine
 62
7
  6
CONTINUOUS
 10
-8.0207634418
 20
-12.0318204685
 11
7.8890845408
 21
-21.2179672965
  0
LINE
  5
2CE
100
AcDbEntity
  8
ASSI
100
AcDbLine
 62
7
  6
CONTINUOUS
 10
-8.2680984402
 20
-11.5329923823
 11
7.6417347918
 21
-20.7191306934
  0
LINE
  5
2CF
100
AcDbEntity
  8
ASSI
100
AcDbLine
 62
7
  6
CONTINUOUS
 10
7.2557889465
 20
-4.5147080006
 11
-8.6516552294
 21
4.6700508995
  0
LINE
  5
2D0
100
AcDbEntity
  8
ASSI
100
AcDbLine
 62
7
  6
CONTINUOUS
 10
7.6063209652
 20
-3.9033357832
 11
-8.3011364691
 21
5.2814307721
  0
LINE
  5
2D1
100
AcDbEntity
  8
ASSI
100
AcDbLine
 62
7
  6
CONTINUOUS
 10
-8.5481211766
 20
5.66839742
 11
7.3593362576
 21
-3.5163691353
  0
LINE
  5
2D2
100
AcDbEntity
  8
ASSI
100
AcDbLine
 62
7
  6
CONTINUOUS
 10
-8.6516552389
 20
5.8980292809
 11
7.255788937
 21
-3.2867296192
  0
LINE
  5
2D3
100
AcDbEntity
  8
ASSI
100
AcDbLine
 62
7
  6
CONTINUOUS
 10
19.1891665416
 20
-5.7696854052
 11
19.0393338563
 21
-5.6831738906
  0
LINE
  5
2D4
100
AcDbEntity
  8
ASSI
100
AcDbLine
 62
7
  6
CONTINUOUS
 10
-8.8023857015
 20
-11.5774484038
 11
-8.0207613547
 21
-12.0318194433
  0
LINE
  5
2D5
100
AcDbEntity
  8
ASSI
100
AcDbLine
 62
7
  6
CONTINUOUS
 10
-9.179808271
 20
-11.002287449
 11
-8.2680964732
 21
-11.5329899483
  0
LINE
  5
2D6
100
AcDbEntity
  8
ASSI
100
AcDbLine
 62
7
  6
CONTINUOUS
 10
-9.3240180472
 20
6.120552901
 11
-8.5480052822
 21
5.6684631205
  0
LINE
  5
2D7
100
AcDbEntity
  8
ASSI
100
AcDbLine
 62
7
  6
CONTINUOUS
 10
-8.6515393807
 20
4.6701181732
 11
-9.470550021
 21
5.1475774616
  0
LINE
  5
2D8
100
AcDbEntity
  8
ASSI
100
AcDbLine
 62
7
  6
CONTINUOUS
 10
-9.4705438907
 20
6.3754677715
 11
-8.6515393902
 21
5.8980957863
  0
LINE
  5
2D9
100
AcDbEntity
  8
ASSI
100
AcDbLine
 62
7
  6
CONTINUOUS
 10
-8.3011364691
 20
5.2814307721
 11
-9.1167875606
 21
5.7570053813
  0
LINE
  5
2DA
100
AcDbEntity
  8
ASSI
100
AcDbLine
 62
7
  6
CONTINUOUS
 10
16.0967530434
 20
-25.1185343221
 11
16.0714236943
 21
-25.1037243203
  0
LINE
  5
2DB
100
AcDbEntity
  8
ASSI
100
AcDbLine
 62
7
  6
CONTINUOUS
 10
15.52589759
 20
-25.3548173006
 11
15.4846363085
 21
-25.3305491717
  0
LINE
  5
2DC
100
AcDbEntity
  8
ASSI
100
AcDbLine
 62
7
  6
CONTINUOUS
 10
-9.6302140616
 20
-11.0894224645
 11
-8.8023857015
 21
-11.5774484038
  0
LINE
  5
2DD
100
AcDbEntity
  8
ASSI
100
AcDbLine
 62
7
  6
CONTINUOUS
 10
-10.0562567216
 20
-10.4838040319
 11
-9.179808271
 21
-11.002287449
  0
LINE
  5
2DE
100
AcDbEntity
  8
ASSI
100
AcDbLine
 62
7
  6
CONTINUOUS
 10
-10.1445578324
 20
6.6075141277
 11
-9.3240180472
 21
6.120552901
  0
LINE
  5
2DF
100
AcDbEntity
  8
ASSI
100
AcDbLine
 62
7
  6
CONTINUOUS
 10
-10.2808861399
 20
6.8568001915
 11
-9.4705438907
 21
6.3754677715
  0
LINE
  5
2E0
100
AcDbEntity
  8
ASSI
100
AcDbLine
 62
7
  6
CONTINUOUS
 10
-9.470550021
 20
5.1475774616
 11
-10.2808967705
 21
5.6291594508
  0
LINE
  5
2E1
100
AcDbEntity
  8
ASSI
100
AcDbLine
 62
7
  6
CONTINUOUS
 10
-9.1167875606
 20
5.7570053813
 11
-9.9237856751
 21
6.2366060202
  0
LINE
  5
2E2
100
AcDbEntity
  8
0
100
AcDbLine
 62
7
  6
CONTINUOUS
 10
-8.4917052477
 20
16.3995312791
 11
-8.4776051439
 21
16.3911516163
  0
LINE
  5
2E3
100
AcDbEntity
  8
0
100
AcDbLine
 62
7
  6
CONTINUOUS
 10
-8.4916581181
 20
-5.6451383365
 11
-8.509023232
 21
-5.6348116132
  0
LINE
  5
2E4
100
AcDbEntity
  8
0
100
AcDbLine
 62
7
  6
CONTINUOUS
 10
-8.5726600425
 20
13.0865406881
 11
-8.5900181082
 21
13.0968691559
  0
LINE
  5
2E5
100
AcDbEntity
  8
0
100
AcDbLine
 62
7
  6
CONTINUOUS
 10
-8.572738176
 20
-2.4264413144
 11
-8.555235027
 21
-2.4368997486
  0
LINE
  5
2E6
100
AcDbEntity
  8
ASSI
100
AcDbLine
 62
7
  6
CONTINUOUS
 10
-10.451769222
 20
-10.5980256458
 11
-9.6302140616
 21
-11.0894224645
  0
LINE
  5
2E7
100
AcDbEntity
  8
ASSI
100
AcDbLine
 62
7
  6
CONTINUOUS
 10
-10.8980774419
 20
-9.9779608457
 11
-10.0562567216
 21
-10.4838040319
  0
LINE
  5
2E8
100
AcDbEntity
  8
ASSI
100
AcDbLine
 62
7
  6
CONTINUOUS
 10
-10.9571706456
 20
7.0990822062
 11
-10.1445578324
 21
6.6075141277
  0
LINE
  5
2E9
100
AcDbEntity
  8
ASSI
100
AcDbLine
 62
7
  6
CONTINUOUS
 10
15.0262811435
 20
-7.5815498046
 11
15.0481454128
 21
-7.5947770843
  0
LINE
  5
2EA
100
AcDbEntity
  8
ASSI
100
AcDbLine
 62
7
  6
CONTINUOUS
 10
-11.0825481353
 20
7.3420549809
 11
-10.2808861399
 21
6.8568001915
  0
LINE
  5
2EB
100
AcDbEntity
  8
ASSI
100
AcDbLine
 62
7
  6
CONTINUOUS
 10
-10.2808967705
 20
5.6291594508
 11
-11.0825616705
 21
6.1148260215
  0
LINE
  5
2EC
100
AcDbEntity
  8
ASSI
100
AcDbLine
 62
7
  6
CONTINUOUS
 10
-9.9237856751
 20
6.2366060202
 11
-10.7221308128
 21
6.7202326886
  0
LINE
  5
2ED
100
AcDbEntity
  8
ASSI
100
AcDbLine
 62
7
  6
CONTINUOUS
 10
-11.2669928059
 20
-10.1032897326
 11
-10.451769222
 21
-10.5980256458
  0
LINE
  5
2EE
100
AcDbEntity
  8
ASSI
100
AcDbLine
 62
7
  6
CONTINUOUS
 10
-11.7005474369
 20
-9.4884570442
 11
-10.8980774419
 21
-9.9779608457
  0
LINE
  5
2EF
100
AcDbEntity
  8
ASSI
100
AcDbLine
 62
7
  6
CONTINUOUS
 10
-12.0758342518
 20
-9.6052427757
 11
-11.2669928059
 21
-10.1032897326
  0
LINE
  5
2F0
100
AcDbEntity
  8
ASSI
100
AcDbLine
 62
7
  6
CONTINUOUS
 10
-11.7617669795
 20
7.5952082696
 11
-10.9571706456
 21
7.0990822062
  0
LINE
  5
2F1
100
AcDbEntity
  8
ASSI
100
AcDbLine
 62
7
  6
CONTINUOUS
 10
-11.8754834951
 20
7.8311762255
 11
-11.0825481353
 21
7.3420549809
  0
LINE
  5
2F2
100
AcDbEntity
  8
ASSI
100
AcDbLine
 62
7
  6
CONTINUOUS
 10
-11.0825616705
 20
6.1148260215
 11
-11.8754983828
 21
6.6045215938
  0
LINE
  5
2F3
100
AcDbEntity
  8
ASSI
100
AcDbLine
 62
7
  6
CONTINUOUS
 10
-10.7221308128
 20
6.7202326886
 11
-11.5118171227
 21
7.2079043553
  0
LINE
  5
2F4
100
AcDbEntity
  8
ASSI
100
AcDbLine
 62
7
  6
CONTINUOUS
 10
-12.4697065464
 20
-9.0124274109
 11
-11.7005474369
 21
-9.4884570442
  0
LINE
  5
2F5
100
AcDbEntity
  8
ASSI
100
AcDbLine
 62
7
  6
CONTINUOUS
 10
-12.8782508681
 20
-9.1039089906
 11
-12.0758342518
 21
-9.6052427757
  0
LINE
  5
2F6
100
AcDbEntity
  8
0
100
AcDbLine
 62
7
  6
CONTINUOUS
 10
-8.4776051439
 20
16.3911516163
 11
-8.4636469053
 21
16.3824148828
  0
LINE
  5
2F7
100
AcDbEntity
  8
ASSI
100
AcDbLine
 62
7
  6
CONTINUOUS
 10
-13.2219418043
 20
-8.5402173007
 11
-12.4697065464
 21
-9.0124274109
  0
LINE
  5
2F8
100
AcDbEntity
  8
ASSI
100
AcDbLine
 62
7
  6
CONTINUOUS
 10
-12.5582746136
 20
8.0958508319
 11
-11.7617669795
 21
7.5952082696
  0
LINE
  5
2F9
100
AcDbEntity
  8
ASSI
100
AcDbLine
 62
7
  6
CONTINUOUS
 10
-12.6597038001
 20
8.3241438773
 11
-11.8754834951
 21
7.8311762255
  0
LINE
  5
2FA
100
AcDbEntity
  8
ASSI
100
AcDbLine
 62
7
  6
CONTINUOUS
 10
-11.8754983828
 20
6.6045215938
 11
-12.6597185341
 21
7.0982256588
  0
LINE
  5
2FB
100
AcDbEntity
  8
ASSI
100
AcDbLine
 62
7
  6
CONTINUOUS
 10
-11.5118171227
 20
7.2079043553
 11
-12.2928504556
 21
7.6996020516
  0
LINE
  5
2FC
100
AcDbEntity
  8
0
100
AcDbLine
 62
7
  6
CONTINUOUS
 10
-8.509023232
 20
-5.6348116132
 11
-8.5263865836
 21
-5.6238472242
  0
LINE
  5
2FD
100
AcDbEntity
  8
ASSI
100
AcDbLine
 62
7
  6
CONTINUOUS
 10
-13.6741982832
 20
-8.5993136028
 11
-12.8782508681
 21
-9.1039089906
  0
LINE
  5
2FE
100
AcDbEntity
  8
0
100
AcDbLine
 62
7
  6
CONTINUOUS
 10
-8.5900181082
 20
13.0968691559
 11
-8.6073417686
 21
13.1078550527
  0
LINE
  5
2FF
100
AcDbEntity
  8
0
100
AcDbLine
 62
7
  6
CONTINUOUS
 10
-8.555235027
 20
-2.4368997486
 11
-8.5378378477
 21
-2.4479357833
  0
LINE
  5
300
100
AcDbEntity
  8
ASSI
100
AcDbLine
 62
7
  6
CONTINUOUS
 10
-13.9626972474
 20
-8.0686243225
 11
-13.2219418043
 21
-8.5402173007
  0
LINE
  5
301
100
AcDbEntity
  8
ASSI
100
AcDbLine
 62
7
  6
CONTINUOUS
 10
-13.3466277162
 20
8.60097168
 11
-12.5582746136
 21
8.0958508319
  0
LINE
  5
302
100
AcDbEntity
  8
ASSI
100
AcDbLine
 62
7
  6
CONTINUOUS
 10
-13.4352757021
 20
8.8209753428
 11
-12.6597038001
 21
8.3241438773
  0
LINE
  5
303
100
AcDbEntity
  8
ASSI
100
AcDbLine
 62
7
  6
CONTINUOUS
 10
-12.6597185341
 20
7.0982256588
 11
-13.4352888245
 21
7.5959543701
  0
LINE
  5
304
100
AcDbEntity
  8
ASSI
100
AcDbLine
 62
7
  6
CONTINUOUS
 10
-12.2928504556
 20
7.6996020516
 11
-13.0652483645
 21
8.1952688716
  0
LINE
  5
305
100
AcDbEntity
  8
ASSI
100
AcDbLine
 62
7
  6
CONTINUOUS
 10
-14.463629668
 20
-8.0914838905
 11
-13.6741982832
 21
-8.5993136028
  0
LINE
  5
306
100
AcDbEntity
  8
ASSI
100
AcDbLine
 62
7
  6
CONTINUOUS
 10
-13.6271217729
 20
25.8030859024
 11
-14.2114944505
 21
26.1789568148
  0
LINE
  5
307
100
AcDbEntity
  8
ASSI
100
AcDbLine
 62
7
  6
CONTINUOUS
 10
-14.6868886561
 20
-7.6011239046
 11
-13.9626972474
 21
-8.0686243225
  0
LINE
  5
308
100
AcDbEntity
  8
ASSI
100
AcDbLine
 62
7
  6
CONTINUOUS
 10
-14.2114944505
 20
26.1789568148
 11
-14.8007597847
 21
26.5623914738
  0
LINE
  5
309
100
AcDbEntity
  8
ASSI
100
AcDbLine
 62
7
  6
CONTINUOUS
 10
-15.1632351488
 20
-7.6351570641
 11
-14.463629668
 21
-8.0914838905
  0
LINE
  5
30A
100
AcDbEntity
  8
ASSI
100
AcDbLine
 62
7
  6
CONTINUOUS
 10
-14.2022071288
 20
9.3216531016
 11
-13.4352757021
 21
8.8209753428
  0
LINE
  5
30B
100
AcDbEntity
  8
ASSI
100
AcDbLine
 62
7
  6
CONTINUOUS
 10
-14.1267553963
 20
9.1105287337
 11
-13.3466277162
 21
8.60097168
  0
LINE
  5
30C
100
AcDbEntity
  8
ASSI
100
AcDbLine
 62
7
  6
CONTINUOUS
 10
-13.0652483645
 20
8.1952688716
 11
-13.8290167005
 21
8.6948858465
  0
LINE
  5
30D
100
AcDbEntity
  8
ASSI
100
AcDbLine
 62
7
  6
CONTINUOUS
 10
-13.4352888245
 20
7.5959543701
 11
-14.2022172282
 21
8.097689739
  0
LINE
  5
30E
100
AcDbEntity
  8
ASSI
100
AcDbLine
 62
7
  6
CONTINUOUS
 10
-15.3947365257
 20
-7.1378693987
 11
-14.6868886561
 21
-7.6011239046
  0
LINE
  5
30F
100
AcDbEntity
  8
0
100
AcDbLine
 62
7
  6
CONTINUOUS
 10
-8.4636469053
 20
16.3824148828
 11
-8.4498105443
 21
16.3733141713
  0
LINE
  5
310
100
AcDbEntity
  8
ASSI
100
AcDbLine
 62
7
  6
CONTINUOUS
 10
-14.8007597847
 20
26.5623914738
 11
-15.3947365294
 21
26.9534629257
  0
LINE
  5
311
100
AcDbEntity
  8
ASSI
100
AcDbLine
 62
7
  6
CONTINUOUS
 10
-14.9604501735
 20
9.8261231174
 11
-14.2022071288
 21
9.3216531016
  0
LINE
  5
312
100
AcDbEntity
  8
ASSI
100
AcDbLine
 62
7
  6
CONTINUOUS
 10
-14.8985757354
 20
9.624469542
 11
-14.1267553963
 21
9.1105287337
  0
LINE
  5
313
100
AcDbEntity
  8
ASSI
100
AcDbLine
 62
7
  6
CONTINUOUS
 10
-14.2022172282
 20
8.097689739
 11
-14.9604558834
 21
8.6033780427
  0
LINE
  5
314
100
AcDbEntity
  8
ASSI
100
AcDbLine
 62
7
  6
CONTINUOUS
 10
-13.8290167005
 20
8.6948858465
 11
-14.5841496125
 21
9.1984719451
  0
LINE
  5
315
100
AcDbEntity
  8
0
100
AcDbLine
 62
7
  6
CONTINUOUS
 10
-8.5263865836
 20
-5.6238472242
 11
-8.5437296645
 21
-5.6122585587
  0
LINE
  5
316
100
AcDbEntity
  8
ASSI
100
AcDbLine
 62
7
  6
CONTINUOUS
 10
15.3000504502
 20
-7.9831104648
 11
15.2639718379
 21
-7.9589223614
  0
LINE
  5
317
100
AcDbEntity
  8
0
100
AcDbLine
 62
7
  6
CONTINUOUS
 10
-8.5378378477
 20
-2.4479357833
 11
-8.5205383464
 21
-2.4595521532
  0
LINE
  5
318
100
AcDbEntity
  8
0
100
AcDbLine
 62
7
  6
CONTINUOUS
 10
-8.6073417686
 20
13.1078550527
 11
-8.6246126337
 21
13.1194848992
  0
LINE
  5
319
100
AcDbEntity
  8
ASSI
100
AcDbLine
 62
7
  6
CONTINUOUS
 10
-15.7099854136
 20
10.3343496657
 11
-14.9604501735
 21
9.8261231174
  0
LINE
  5
31A
100
AcDbEntity
  8
ASSI
100
AcDbLine
 62
7
  6
CONTINUOUS
 10
-15.6100038013
 20
10.1071177245
 11
-14.8985757354
 21
9.624469542
  0
LINE
  5
31B
100
AcDbEntity
  8
ASSI
100
AcDbLine
 62
7
  6
CONTINUOUS
 10
-14.9604558834
 20
8.6033780427
 11
-15.7099854136
 21
9.1129834699
  0
LINE
  5
31C
100
AcDbEntity
  8
ASSI
100
AcDbLine
 62
7
  6
CONTINUOUS
 10
-14.5841496125
 20
9.1984719451
 11
-15.3306471005
 21
9.7060271674
  0
LINE
  5
31D
100
AcDbEntity
  8
ASSI
100
AcDbLine
 62
7
  6
CONTINUOUS
 10
-15.609996673
 20
10.1071128918
 11
-15.6099290829
 21
10.1070665984
  0
LINE
  5
31E
100
AcDbEntity
  8
0
100
AcDbLine
 62
7
  6
CONTINUOUS
 10
-8.4498105443
 20
16.3733141713
 11
-8.4360760734
 21
16.3638425746
  0
LINE
  5
31F
100
AcDbEntity
  8
0
100
AcDbLine
 62
7
  6
CONTINUOUS
 10
-8.5437296645
 20
-5.6122585587
 11
-8.561033966
 21
-5.600059006
  0
LINE
  5
320
100
AcDbEntity
  8
ASSI
100
AcDbLine
 62
7
  6
CONTINUOUS
 10
-15.6099290829
 20
10.1070665984
 11
-15.6216980396
 21
10.1153715076
  0
LINE
  5
321
100
AcDbEntity
  8
0
100
AcDbLine
 62
7
  6
CONTINUOUS
 10
-8.5205383464
 20
-2.4595521532
 11
-8.5033282313
 21
-2.4717515929
  0
LINE
  5
322
100
AcDbEntity
  8
0
100
AcDbLine
 62
7
  6
CONTINUOUS
 10
-8.6246126337
 20
13.1194848992
 11
-8.6418123135
 21
13.1317452162
  0
LINE
  5
323
100
AcDbEntity
  8
ASSI
100
AcDbLine
 62
7
  6
CONTINUOUS
 10
-15.2135963489
 20
-7.5989112429
 11
-15.163364232
 21
-7.6350651972
  0
LINE
  5
324
100
AcDbEntity
  8
0
100
AcDbLine
 62
7
  6
CONTINUOUS
 10
-8.4360760734
 20
16.3638425746
 11
-8.4224235049
 21
16.3539931853
  0
LINE
  5
325
100
AcDbEntity
  8
ASSI
100
AcDbLine
 62
7
  6
CONTINUOUS
 10
-15.3947365282
 20
26.9534629343
 11
-15.425281599
 21
26.9755113136
  0
LINE
  5
326
100
AcDbEntity
  8
ASSI
100
AcDbLine
 62
7
  6
CONTINUOUS
 10
-15.3947267962
 20
-7.1378640685
 11
-15.4252717199
 21
-7.1153244783
  0
LINE
  5
327
100
AcDbEntity
  8
0
100
AcDbLine
 62
7
  6
CONTINUOUS
 10
-8.561033966
 20
-5.600059006
 11
-8.5782809797
 21
-5.5872619552
  0
LINE
  5
328
100
AcDbEntity
  8
0
100
AcDbLine
 62
7
  6
CONTINUOUS
 10
-8.5033282313
 20
-2.4717515929
 11
-8.4861992109
 21
-2.4845368371
  0
LINE
  5
329
100
AcDbEntity
  8
0
100
AcDbLine
 62
7
  6
CONTINUOUS
 10
-8.6418123135
 20
13.1317452162
 11
-8.6589224178
 21
13.1446225246
  0
LINE
  5
32A
100
AcDbEntity
  8
ASSI
100
AcDbLine
 62
7
  6
CONTINUOUS
 10
-15.2062196832
 20
-7.6027623119
 11
-15.1633358676
 21
-7.6350909156
  0
LINE
  5
32B
100
AcDbEntity
  8
ASSI
100
AcDbLine
 62
7
  6
CONTINUOUS
 10
16.0714236943
 20
-25.1037243203
 11
16.0480635413
 21
-25.0860818751
  0
LINE
  5
32C
100
AcDbEntity
  8
ASSI
100
AcDbLine
 62
7
  6
CONTINUOUS
 10
-15.7394625216
 20
10.3566655749
 11
-15.7099854293
 21
10.3343496846
  0
LINE
  5
32D
100
AcDbEntity
  8
0
100
AcDbLine
 62
7
  6
CONTINUOUS
 10
-8.4224235049
 20
16.3539931853
 11
-8.4054506319
 21
16.3411425702
  0
LINE
  5
32E
100
AcDbEntity
  8
ASSI
100
AcDbLine
 62
7
  6
CONTINUOUS
 10
-15.7099854288
 20
9.1129834893
 11
-15.739462521
 21
9.1353189297
  0
LINE
  5
32F
100
AcDbEntity
  8
ASSI
100
AcDbLine
 62
7
  6
CONTINUOUS
 10
15.4846363085
 20
-25.3305491717
 11
15.4462890969
 21
-25.3011367958
  0
LINE
  5
330
100
AcDbEntity
  8
0
100
AcDbLine
 62
7
  6
CONTINUOUS
 10
-8.5782809797
 20
-5.5872619552
 11
-8.595452197
 21
-5.5738807956
  0
LINE
  5
331
100
AcDbEntity
  8
0
100
AcDbLine
 62
7
  6
CONTINUOUS
 10
-8.4861992109
 20
-2.4845368371
 11
-8.4691429934
 21
-2.4979106203
  0
LINE
  5
332
100
AcDbEntity
  8
ASSI
100
AcDbLine
 62
7
  6
CONTINUOUS
 10
16.0930509615
 20
10.6351392235
 11
16.1289079955
 21
10.6069626495
  0
LINE
  5
333
100
AcDbEntity
  8
0
100
AcDbLine
 62
7
  6
CONTINUOUS
 10
-8.6589224178
 20
13.1446225246
 11
-8.6759245567
 21
13.1581033451
  0
LINE
  5
334
100
AcDbEntity
  8
ASSI
100
AcDbLine
 62
7
  6
CONTINUOUS
 10
-15.6216980396
 20
10.1153715076
 11
-15.6549038239
 21
10.1417515781
  0
LINE
  5
335
100
AcDbEntity
  8
ASSI
100
AcDbLine
 62
7
  6
CONTINUOUS
 10
15.3357657832
 20
-8.0115064354
 11
15.3000504502
 21
-7.9831104648
  0
LINE
  5
336
100
AcDbEntity
  8
0
100
AcDbLine
 62
7
  6
CONTINUOUS
 10
-8.4054506319
 20
16.3411425702
 11
-8.3885841347
 21
16.3276948618
  0
LINE
  5
337
100
AcDbEntity
  8
0
100
AcDbLine
 62
7
  6
CONTINUOUS
 10
-8.595452197
 20
-5.5738807956
 11
-8.6125291094
 21
-5.5599289163
  0
LINE
  5
338
100
AcDbEntity
  8
0
100
AcDbLine
 62
7
  6
CONTINUOUS
 10
-8.4691429934
 20
-2.4979106203
 11
-8.4521568433
 21
-2.5118717869
  0
LINE
  5
339
100
AcDbEntity
  8
0
100
AcDbLine
 62
7
  6
CONTINUOUS
 10
-8.6759245567
 20
13.1581033451
 11
-8.6928003399
 21
13.1721741984
  0
LINE
  5
33A
100
AcDbEntity
  8
0
100
AcDbLine
 62
7
  6
CONTINUOUS
 10
-8.3885841347
 20
16.3276948618
 11
-8.371833647
 21
16.3136540601
  0
LINE
  5
33B
100
AcDbEntity
  8
ASSI
100
AcDbLine
 62
7
  6
CONTINUOUS
 10
-15.6377946416
 20
10.1301670728
 11
-15.6129704919
 21
10.1092128061
  0
LINE
  5
33C
100
AcDbEntity
  8
0
100
AcDbLine
 62
7
  6
CONTINUOUS
 10
-8.6125291094
 20
-5.5599289163
 11
-8.6294932084
 21
-5.5454197064
  0
LINE
  5
33D
100
AcDbEntity
  8
0
100
AcDbLine
 62
7
  6
CONTINUOUS
 10
-8.4521568433
 20
-2.5118717869
 11
-8.4352602496
 21
-2.5264036201
  0
LINE
  5
33E
100
AcDbEntity
  8
ASSI
100
AcDbLine
 62
7
  6
CONTINUOUS
 10
-15.2641569649
 20
-7.5552508974
 11
-15.2135963489
 21
-7.5989112429
  0
LINE
  5
33F
100
AcDbEntity
  8
0
100
AcDbLine
 62
7
  6
CONTINUOUS
 10
-8.6928003399
 20
13.1721741984
 11
-8.7095313774
 21
13.1868216055
  0
LINE
  5
340
100
AcDbEntity
  8
0
100
AcDbLine
 62
7
  6
CONTINUOUS
 10
-8.371833647
 20
16.3136540601
 11
-8.3552088025
 21
16.2990241652
  0
LINE
  5
341
100
AcDbEntity
  8
ASSI
100
AcDbLine
 62
7
  6
CONTINUOUS
 10
-15.425281599
 20
26.9755113136
 11
-15.4518837431
 21
26.9990166508
  0
LINE
  5
342
100
AcDbEntity
  8
0
100
AcDbLine
 62
7
  6
CONTINUOUS
 10
-8.6294932084
 20
-5.5454197064
 11
-8.6463261655
 21
-5.5303673458
  0
LINE
  5
343
100
AcDbEntity
  8
ASSI
100
AcDbLine
 62
7
  6
CONTINUOUS
 10
15.0054748006
 20
-7.5628742393
 11
15.0262811435
 21
-7.5815498046
  0
LINE
  5
344
100
AcDbEntity
  8
0
100
AcDbLine
 62
7
  6
CONTINUOUS
 10
-8.4352602496
 20
-2.5264036201
 11
-8.4184782572
 21
-2.5414855128
  0
LINE
  5
345
100
AcDbEntity
  8
ASSI
100
AcDbLine
 62
7
  6
CONTINUOUS
 10
16.1289079955
 20
10.6069626495
 11
16.1641809605
 21
10.575015861
  0
LINE
  5
346
100
AcDbEntity
  8
ASSI
100
AcDbLine
 62
7
  6
CONTINUOUS
 10
-15.4252717199
 20
-7.1153244783
 11
-15.4518738334
 21
-7.09099327
  0
LINE
  5
347
100
AcDbEntity
  8
0
100
AcDbLine
 62
7
  6
CONTINUOUS
 10
-8.7095313774
 20
13.1868216055
 11
-8.7260995045
 21
13.2020312658
  0
LINE
  5
348
100
AcDbEntity
  8
0
100
AcDbLine
 62
7
  6
CONTINUOUS
 10
-8.3552088025
 20
16.2990241652
 11
-8.3387220983
 21
16.283812753
  0
LINE
  5
349
100
AcDbEntity
  8
ASSI
100
AcDbLine
 62
7
  6
CONTINUOUS
 10
15.3707246763
 20
-8.0437976557
 11
15.3357657832
 21
-8.0115064354
  0
LINE
  5
34A
100
AcDbEntity
  8
ASSI
100
AcDbLine
 62
7
  6
CONTINUOUS
 10
-15.7650446598
 20
10.3805231548
 11
-15.7394625216
 21
10.3566655749
  0
LINE
  5
34B
100
AcDbEntity
  8
0
100
AcDbLine
 62
7
  6
CONTINUOUS
 10
-8.6463261655
 20
-5.5303673458
 11
-8.6630103732
 21
-5.5147891761
  0
LINE
  5
34C
100
AcDbEntity
  8
ASSI
100
AcDbLine
 62
7
  6
CONTINUOUS
 10
-15.739462521
 20
9.1353189297
 11
-15.7650446593
 21
9.1592077165
  0
LINE
  5
34D
100
AcDbEntity
  8
0
100
AcDbLine
 62
7
  6
CONTINUOUS
 10
-8.4184782572
 20
-2.5414855128
 11
-8.4018359111
 21
-2.5570968579
  0
LINE
  5
34E
100
AcDbEntity
  8
ASSI
100
AcDbLine
 62
7
  6
CONTINUOUS
 10
-15.6549038239
 20
10.1417515781
 11
-15.6857790409
 21
10.1708757024
  0
LINE
  5
34F
100
AcDbEntity
  8
ASSI
100
AcDbLine
 62
7
  6
CONTINUOUS
 10
16.0480635413
 20
-25.0860818751
 11
16.0267040071
 21
-25.0655655382
  0
LINE
  5
350
100
AcDbEntity
  8
0
100
AcDbLine
 62
7
  6
CONTINUOUS
 10
-8.7260995045
 20
13.2020312658
 11
-8.7424874576
 21
13.2177855937
  0
LINE
  5
351
100
AcDbEntity
  8
0
100
AcDbLine
 62
7
  6
CONTINUOUS
 10
-8.3387220983
 20
16.283812753
 11
-8.3223974849
 21
16.2680417025
  0
LINE
  5
352
100
AcDbEntity
  8
ASSI
100
AcDbLine
 62
7
  6
CONTINUOUS
 10
-15.2423675509
 20
-7.5678215463
 11
-15.2062196832
 21
-7.6027623119
  0
LINE
  5
353
100
AcDbEntity
  8
0
100
AcDbLine
 62
7
  6
CONTINUOUS
 10
-8.6630103732
 20
-5.5147891761
 11
-8.679528404
 21
-5.4987033292
  0
LINE
  5
354
100
AcDbEntity
  8
0
100
AcDbLine
 62
7
  6
CONTINUOUS
 10
-8.4018359111
 20
-2.5570968579
 11
-8.3853582564
 21
-2.5732170483
  0
LINE
  5
355
100
AcDbEntity
  8
ASSI
100
AcDbLine
 62
7
  6
CONTINUOUS
 10
15.4462890969
 20
-25.3011367958
 11
15.4111834055
 21
-25.2667977694
  0
LINE
  5
356
100
AcDbEntity
  8
0
100
AcDbLine
 62
7
  6
CONTINUOUS
 10
-8.7424874576
 20
13.2177855937
 11
-8.7586781984
 21
13.2340661823
  0
LINE
  5
357
100
AcDbEntity
  8
0
100
AcDbLine
 62
7
  6
CONTINUOUS
 10
-8.3223974849
 20
16.2680417025
 11
-8.3062617762
 21
16.2517364687
  0
LINE
  5
358
100
AcDbEntity
  8
0
100
AcDbLine
 62
7
  6
CONTINUOUS
 10
-8.679528404
 20
-5.4987033292
 11
-8.6958628304
 21
-5.4821279374
  0
LINE
  5
359
100
AcDbEntity
  8
0
100
AcDbLine
 62
7
  6
CONTINUOUS
 10
-8.3853582564
 20
-2.5732170483
 11
-8.369070338
 21
-2.5898254769
  0
LINE
  5
35A
100
AcDbEntity
  8
ASSI
100
AcDbLine
 62
7
  6
CONTINUOUS
 10
16.1641809605
 20
10.575015861
 11
16.1984840716
 21
10.5396482637
  0
LINE
  5
35B
100
AcDbEntity
  8
ASSI
100
AcDbLine
 62
7
  6
CONTINUOUS
 10
-15.3112158892
 20
-7.5064329311
 11
-15.2641569649
 21
-7.5552508974
  0
LINE
  5
35C
100
AcDbEntity
  8
0
100
AcDbLine
 62
7
  6
CONTINUOUS
 10
-8.7586781984
 20
13.2340661823
 11
-8.7746546885
 21
13.2508546246
  0
LINE
  5
35D
100
AcDbEntity
  8
0
100
AcDbLine
 62
7
  6
CONTINUOUS
 10
-8.3062617762
 20
16.2517364687
 11
-8.2903417862
 21
16.2349225064
  0
LINE
  5
35E
100
AcDbEntity
  8
0
100
AcDbLine
 62
7
  6
CONTINUOUS
 10
-8.6958628304
 20
-5.4821279374
 11
-8.711996225
 21
-5.4650811329
  0
LINE
  5
35F
100
AcDbEntity
  8
ASSI
100
AcDbLine
 62
7
  6
CONTINUOUS
 10
15.4045452761
 20
-8.0796319988
 11
15.3707246763
 21
-8.0437976557
  0
LINE
  5
360
100
AcDbEntity
  8
0
100
AcDbLine
 62
7
  6
CONTINUOUS
 10
-8.369070338
 20
-2.5898254769
 11
-8.3529954622
 21
-2.606901899
  0
LINE
  5
361
100
AcDbEntity
  8
0
100
AcDbLine
 62
7
  6
CONTINUOUS
 10
-8.7746546885
 20
13.2508546246
 11
-8.7903998898
 21
13.2681325139
  0
LINE
  5
362
100
AcDbEntity
  8
0
100
AcDbLine
 62
7
  6
CONTINUOUS
 10
-8.711996225
 20
-5.4650811329
 11
-8.7279111604
 21
-5.4475810476
  0
LINE
  5
363
100
AcDbEntity
  8
0
100
AcDbLine
 62
7
  6
CONTINUOUS
 10
-8.2903417862
 20
16.2349225064
 11
-8.2746622454
 21
16.2176238632
  0
LINE
  5
364
100
AcDbEntity
  8
ASSI
100
AcDbLine
 62
7
  6
CONTINUOUS
 10
-15.4518837431
 20
26.9990166508
 11
-15.4742850277
 21
27.0237510394
  0
LINE
  5
365
100
AcDbEntity
  8
0
100
AcDbLine
 62
7
  6
CONTINUOUS
 10
-8.3529954622
 20
-2.606901899
 11
-8.337149979
 21
-2.624427519
  0
LINE
  5
366
100
AcDbEntity
  8
ASSI
100
AcDbLine
 62
7
  6
CONTINUOUS
 10
-15.6857790409
 20
10.1708757024
 11
-15.7140919443
 21
10.2025366207
  0
LINE
  5
367
100
AcDbEntity
  8
0
100
AcDbLine
 62
7
  6
CONTINUOUS
 10
-8.7279111604
 20
-5.4475810476
 11
-8.7435902091
 21
-5.4296458137
  0
LINE
  5
368
100
AcDbEntity
  8
0
100
AcDbLine
 62
7
  6
CONTINUOUS
 10
-8.7903998898
 20
13.2681325139
 11
-8.805896764
 21
13.285881443
  0
LINE
  5
369
100
AcDbEntity
  8
0
100
AcDbLine
 62
7
  6
CONTINUOUS
 10
-8.337149979
 20
-2.624427519
 11
-8.3215484998
 21
-2.6423839039
  0
LINE
  5
36A
100
AcDbEntity
  8
0
100
AcDbLine
 62
7
  6
CONTINUOUS
 10
-8.2746622454
 20
16.2176238632
 11
-8.2592395516
 21
16.1998589577
  0
LINE
  5
36B
100
AcDbEntity
  8
ASSI
100
AcDbLine
 62
7
  6
CONTINUOUS
 10
-15.4518738334
 20
-7.09099327
 11
-15.4742752093
 21
-7.0651063529
  0
LINE
  5
36C
100
AcDbEntity
  8
ASSI
100
AcDbLine
 62
7
  6
CONTINUOUS
 10
16.1984840716
 20
10.5396482637
 11
16.2314421516
 21
10.5012466776
  0
LINE
  5
36D
100
AcDbEntity
  8
ASSI
100
AcDbLine
 62
7
  6
CONTINUOUS
 10
-15.6596221507
 20
10.1556806562
 11
-15.6377946416
 21
10.1301670728
  0
LINE
  5
36E
100
AcDbEntity
  8
ASSI
100
AcDbLine
 62
7
  6
CONTINUOUS
 10
-15.7864899381
 20
10.405696826
 11
-15.7650446598
 21
10.3805231548
  0
LINE
  5
36F
100
AcDbEntity
  8
ASSI
100
AcDbLine
 62
7
  6
CONTINUOUS
 10
-15.7650446593
 20
9.1592077165
 11
-15.7864899375
 21
9.1844239563
  0
LINE
  5
370
100
AcDbEntity
  8
0
100
AcDbLine
 62
7
  6
CONTINUOUS
 10
-8.7435902091
 20
-5.4296458137
 11
-8.7590159436
 21
-5.4112935634
  0
LINE
  5
371
100
AcDbEntity
  8
0
100
AcDbLine
 62
7
  6
CONTINUOUS
 10
-8.805896764
 20
13.285881443
 11
-8.8211282727
 21
13.3040830053
  0
LINE
  5
372
100
AcDbEntity
  8
0
100
AcDbLine
 62
7
  6
CONTINUOUS
 10
-8.3215484998
 20
-2.6423839039
 11
-8.3062056358
 21
-2.6607526205
  0
LINE
  5
373
100
AcDbEntity
  8
0
100
AcDbLine
 62
7
  6
CONTINUOUS
 10
-8.2592395516
 20
16.1998589577
 11
-8.2440880188
 21
16.1816448011
  0
LINE
  5
374
100
AcDbEntity
  8
ASSI
100
AcDbLine
 62
7
  6
CONTINUOUS
 10
16.0267040071
 20
-25.0655655382
 11
16.0073136691
 21
-25.042216758
  0
LINE
  5
375
100
AcDbEntity
  8
ASSI
100
AcDbLine
 62
7
  6
CONTINUOUS
 10
15.4368520403
 20
-8.1186121696
 11
15.4045452761
 21
-8.0796319988
  0
LINE
  5
376
100
AcDbEntity
  8
ASSI
100
AcDbLine
 62
7
  6
CONTINUOUS
 10
-15.2750131209
 20
-7.528177478
 11
-15.2423675509
 21
-7.5678215463
  0
LINE
  5
377
100
AcDbEntity
  8
ASSI
100
AcDbLine
 62
7
  6
CONTINUOUS
 10
15.4111834055
 20
-25.2667977694
 11
15.37947852
 21
-25.2276968402
  0
LINE
  5
378
100
AcDbEntity
  8
0
100
AcDbLine
 62
7
  6
CONTINUOUS
 10
-8.7590159436
 20
-5.4112935634
 11
-8.7741713332
 21
-5.3925429923
  0
LINE
  5
379
100
AcDbEntity
  8
0
100
AcDbLine
 62
7
  6
CONTINUOUS
 10
-8.3062056358
 20
-2.6607526205
 11
-8.2911359984
 21
-2.6795152357
  0
LINE
  5
37A
100
AcDbEntity
  8
ASSI
100
AcDbLine
 62
7
  6
CONTINUOUS
 10
-15.3543413407
 20
-7.452668796
 11
-15.3112158892
 21
-7.5064329311
  0
LINE
  5
37B
100
AcDbEntity
  8
0
100
AcDbLine
 62
7
  6
CONTINUOUS
 10
-8.8211282727
 20
13.3040830053
 11
-8.8360773777
 21
13.3227187937
  0
LINE
  5
37C
100
AcDbEntity
  8
0
100
AcDbLine
 62
7
  6
CONTINUOUS
 10
-8.2440880188
 20
16.1816448011
 11
-8.2292219615
 21
16.1629984049
  0
LINE
  5
37D
100
AcDbEntity
  8
0
100
AcDbLine
 62
7
  6
CONTINUOUS
 10
-8.7741713332
 20
-5.3925429923
 11
-8.7890409342
 21
-5.3734150502
  0
LINE
  5
37E
100
AcDbEntity
  8
0
100
AcDbLine
 62
7
  6
CONTINUOUS
 10
-8.2911359984
 20
-2.6795152357
 11
-8.2763541989
 21
-2.6986533163
  0
LINE
  5
37F
100
AcDbEntity
  8
ASSI
100
AcDbLine
 62
7
  6
CONTINUOUS
 10
14.9874838381
 20
-7.5395765793
 11
15.0054748006
 21
-7.5628742393
  0
LINE
  5
380
100
AcDbEntity
  8
0
100
AcDbLine
 62
7
  6
CONTINUOUS
 10
-8.8360773777
 20
13.3227187937
 11
-8.8507274815
 21
13.341769816
  0
LINE
  5
381
100
AcDbEntity
  8
0
100
AcDbLine
 62
7
  6
CONTINUOUS
 10
-8.2292219615
 20
16.1629984049
 11
-8.2146557462
 21
16.143937581
  0
LINE
  5
382
100
AcDbEntity
  8
ASSI
100
AcDbLine
 62
7
  6
CONTINUOUS
 10
16.2314421516
 20
10.5012466776
 11
16.262694734
 21
10.4602311056
  0
LINE
  5
383
100
AcDbEntity
  8
ASSI
100
AcDbLine
 62
7
  6
CONTINUOUS
 10
-15.7140919443
 20
10.2025366207
 11
-15.7396510549
 21
10.2365378495
  0
LINE
  5
384
100
AcDbEntity
  8
0
100
AcDbLine
 62
7
  6
CONTINUOUS
 10
-8.7890409342
 20
-5.3734150502
 11
-8.8036096996
 21
-5.3539312504
  0
LINE
  5
385
100
AcDbEntity
  8
0
100
AcDbLine
 62
7
  6
CONTINUOUS
 10
-8.2763541989
 20
-2.6986533163
 11
-8.2618749233
 21
-2.7181478524
  0
LINE
  5
386
100
AcDbEntity
  8
0
100
AcDbLine
 62
7
  6
CONTINUOUS
 10
-8.8507274815
 20
13.341769816
 11
-8.86506375
 21
13.3612147389
  0
LINE
  5
387
100
AcDbEntity
  8
0
100
AcDbLine
 62
7
  6
CONTINUOUS
 10
-8.2146557462
 20
16.143937581
 11
-8.2004039482
 21
16.1244833441
  0
LINE
  5
388
100
AcDbEntity
  8
ASSI
100
AcDbLine
 62
7
  6
CONTINUOUS
 10
15.4672813581
 20
-8.1602974092
 11
15.4368520403
 21
-8.1186121696
  0
LINE
  5
389
100
AcDbEntity
  8
0
100
AcDbLine
 62
7
  6
CONTINUOUS
 10
-8.8036096996
 20
-5.3539312504
 11
-8.8178625823
 21
-5.3341131063
  0
LINE
  5
38A
100
AcDbEntity
  8
0
100
AcDbLine
 62
7
  6
CONTINUOUS
 10
-8.2618749233
 20
-2.7181478524
 11
-8.247713157
 21
-2.7379775272
  0
LINE
  5
38B
100
AcDbEntity
  8
0
100
AcDbLine
 62
7
  6
CONTINUOUS
 10
-8.86506375
 20
13.3612147389
 11
-8.87907179
 21
13.3810316433
  0
LINE
  5
38C
100
AcDbEntity
  8
0
100
AcDbLine
 62
7
  6
CONTINUOUS
 10
-8.2004039482
 20
16.1244833441
 11
-8.1864811955
 21
16.1046575094
  0
LINE
  5
38D
100
AcDbEntity
  8
ASSI
100
AcDbLine
 62
7
  6
CONTINUOUS
 10
-15.4742850277
 20
27.0237510394
 11
-15.4922682511
 21
27.0494746562
  0
LINE
  5
38E
100
AcDbEntity
  8
0
100
AcDbLine
 62
7
  6
CONTINUOUS
 10
-8.8178625823
 20
-5.3341131063
 11
-8.8317845354
 21
-5.3139821312
  0
LINE
  5
38F
100
AcDbEntity
  8
0
100
AcDbLine
 62
7
  6
CONTINUOUS
 10
-8.247713157
 20
-2.7379775272
 11
-8.2338839603
 21
-2.7581204471
  0
LINE
  5
390
100
AcDbEntity
  8
0
100
AcDbLine
 62
7
  6
CONTINUOUS
 10
-8.87907179
 20
13.3810316433
 11
-8.8927372081
 21
13.4011986107
  0
LINE
  5
391
100
AcDbEntity
  8
ASSI
100
AcDbLine
 62
7
  6
CONTINUOUS
 10
16.262694734
 20
10.4602311056
 11
16.2919000057
 21
10.4170501403
  0
LINE
  5
392
100
AcDbEntity
  8
0
100
AcDbLine
 62
7
  6
CONTINUOUS
 10
-8.1864811955
 20
16.1046575094
 11
-8.1729021156
 21
16.0844818924
  0
LINE
  5
393
100
AcDbEntity
  8
0
100
AcDbLine
 62
7
  6
CONTINUOUS
 10
-8.8317845354
 20
-5.3139821312
 11
-8.8453605118
 21
-5.2935598384
  0
LINE
  5
394
100
AcDbEntity
  8
ASSI
100
AcDbLine
 62
7
  6
CONTINUOUS
 10
-15.3930908929
 20
-7.3942707041
 11
-15.3543413407
 21
-7.452668796
  0
LINE
  5
395
100
AcDbEntity
  8
ASSI
100
AcDbLine
 62
7
  6
CONTINUOUS
 10
16.0073136691
 20
-25.042216758
 11
15.9901729468
 21
-25.016383979
  0
LINE
  5
396
100
AcDbEntity
  8
ASSI
100
AcDbLine
 62
7
  6
CONTINUOUS
 10
-15.4742752093
 20
-7.0651063529
 11
-15.4922586494
 21
-7.0379147203
  0
LINE
  5
397
100
AcDbEntity
  8
0
100
AcDbLine
 62
7
  6
CONTINUOUS
 10
-8.2338839603
 20
-2.7581204471
 11
-8.2204023933
 21
-2.7785547185
  0
LINE
  5
398
100
AcDbEntity
  8
ASSI
100
AcDbLine
 62
7
  6
CONTINUOUS
 10
-15.3040130143
 20
-7.4840169598
 11
-15.2750131209
 21
-7.528177478
  0
LINE
  5
399
100
AcDbEntity
  8
ASSI
100
AcDbLine
 62
7
  6
CONTINUOUS
 10
-15.8035955664
 20
10.4319485413
 11
-15.7864899381
 21
10.405696826
  0
LINE
  5
39A
100
AcDbEntity
  8
ASSI
100
AcDbLine
 62
7
  6
CONTINUOUS
 10
-15.7864899375
 20
9.1844239563
 11
-15.8035955659
 21
9.2107291996
  0
LINE
  5
39B
100
AcDbEntity
  8
0
100
AcDbLine
 62
7
  6
CONTINUOUS
 10
-8.8927372081
 20
13.4011986107
 11
-8.906045611
 21
13.4216937222
  0
LINE
  5
39C
100
AcDbEntity
  8
0
100
AcDbLine
 62
7
  6
CONTINUOUS
 10
-8.1729021156
 20
16.0844818924
 11
-8.1596813363
 21
16.0639783084
  0
LINE
  5
39D
100
AcDbEntity
  8
ASSI
100
AcDbLine
 62
7
  6
CONTINUOUS
 10
15.37947852
 20
-25.2276968402
 11
15.3513489756
 21
-25.1840388499
  0
LINE
  5
39E
100
AcDbEntity
  8
ASSI
100
AcDbLine
 62
7
  6
CONTINUOUS
 10
15.4954953696
 20
-8.2042192245
 11
15.4672813581
 21
-8.1602974092
  0
LINE
  5
39F
100
AcDbEntity
  8
0
100
AcDbLine
 62
7
  6
CONTINUOUS
 10
-8.8453605118
 20
-5.2935598384
 11
-8.8585754645
 21
-5.2728677414
  0
LINE
  5
3A0
100
AcDbEntity
  8
0
100
AcDbLine
 62
7
  6
CONTINUOUS
 10
-8.2204023933
 20
-2.7785547185
 11
-8.2072835163
 21
-2.7992584478
  0
LINE
  5
3A1
100
AcDbEntity
  8
ASSI
100
AcDbLine
 62
7
  6
CONTINUOUS
 10
-15.7396510549
 20
10.2365378495
 11
-15.7623025024
 21
10.2727200557
  0
LINE
  5
3A2
100
AcDbEntity
  8
0
100
AcDbLine
 62
7
  6
CONTINUOUS
 10
-8.906045611
 20
13.4216937222
 11
-8.9189826056
 21
13.4424950591
  0
LINE
  5
3A3
100
AcDbEntity
  8
0
100
AcDbLine
 62
7
  6
CONTINUOUS
 10
-8.1596813363
 20
16.0639783084
 11
-8.1468334852
 21
16.0431685727
  0
LINE
  5
3A4
100
AcDbEntity
  8
0
100
AcDbLine
 62
7
  6
CONTINUOUS
 10
-8.8585754645
 20
-5.2728677414
 11
-8.8714143466
 21
-5.2519273533
  0
LINE
  5
3A5
100
AcDbEntity
  8
ASSI
100
AcDbLine
 62
7
  6
CONTINUOUS
 10
-15.6774995906
 20
10.184967154
 11
-15.6596221507
 21
10.1556806562
  0
LINE
  5
3A6
100
AcDbEntity
  8
0
100
AcDbLine
 62
7
  6
CONTINUOUS
 10
-8.2072835163
 20
-2.7992584478
 11
-8.1945423895
 21
-2.8202097414
  0
LINE
  5
3A7
100
AcDbEntity
  8
ASSI
100
AcDbLine
 62
7
  6
CONTINUOUS
 10
16.2919000057
 20
10.4170501403
 11
16.3187385448
 21
10.3721760571
  0
LINE
  5
3A8
100
AcDbEntity
  8
0
100
AcDbLine
 62
7
  6
CONTINUOUS
 10
-8.9189826056
 20
13.4424950591
 11
-8.9315337985
 21
13.4635807025
  0
LINE
  5
3A9
100
AcDbEntity
  8
0
100
AcDbLine
 62
7
  6
CONTINUOUS
 10
-8.1468334852
 20
16.0431685727
 11
-8.1343731902
 21
16.0220745007
  0
LINE
  5
3AA
100
AcDbEntity
  8
0
100
AcDbLine
 62
7
  6
CONTINUOUS
 10
-8.8714143466
 20
-5.2519273533
 11
-8.8838626624
 21
-5.2307605171
  0
LINE
  5
3AB
100
AcDbEntity
  8
0
100
AcDbLine
 62
7
  6
CONTINUOUS
 10
-8.1945423895
 20
-2.8202097414
 11
-8.1821935486
 21
-2.8413864086
  0
LINE
  5
3AC
100
AcDbEntity
  8
0
100
AcDbLine
 62
7
  6
CONTINUOUS
 10
-8.9315337985
 20
13.4635807025
 11
-8.9436847963
 21
13.4849287336
  0
LINE
  5
3AD
100
AcDbEntity
  8
0
100
AcDbLine
 62
7
  6
CONTINUOUS
 10
-8.1343731902
 20
16.0220745007
 11
-8.1223150789
 21
16.0007179077
  0
LINE
  5
3AE
100
AcDbEntity
  8
0
100
AcDbLine
 62
7
  6
CONTINUOUS
 10
-8.8838626624
 20
-5.2307605171
 11
-8.8959081222
 21
-5.2093903937
  0
LINE
  5
3AF
100
AcDbEntity
  8
ASSI
100
AcDbLine
 62
7
  6
CONTINUOUS
 10
15.5211912276
 20
-8.249900065
 11
15.4954953696
 21
-8.2042192245
  0
LINE
  5
3B0
100
AcDbEntity
  8
0
100
AcDbLine
 62
7
  6
CONTINUOUS
 10
-8.1821935486
 20
-2.8413864086
 11
-8.1702494309
 21
-2.8627650702
  0
LINE
  5
3B1
100
AcDbEntity
  8
ASSI
100
AcDbLine
 62
7
  6
CONTINUOUS
 10
14.9721515303
 20
-7.5117600226
 11
14.9874838381
 21
-7.5395765793
  0
LINE
  5
3B2
100
AcDbEntity
  8
0
100
AcDbLine
 62
7
  6
CONTINUOUS
 10
-8.9436847963
 20
13.4849287336
 11
-8.9554217903
 21
13.5065168858
  0
LINE
  5
3B3
100
AcDbEntity
  8
ASSI
100
AcDbLine
 62
7
  6
CONTINUOUS
 10
-15.4271555432
 20
-7.3314287228
 11
-15.3930908929
 21
-7.3942707041
  0
LINE
  5
3B4
100
AcDbEntity
  8
0
100
AcDbLine
 62
7
  6
CONTINUOUS
 10
-8.8959081222
 20
-5.2093903937
 11
-8.9075389873
 21
-5.1878404733
  0
LINE
  5
3B5
100
AcDbEntity
  8
0
100
AcDbLine
 62
7
  6
CONTINUOUS
 10
-8.1223150789
 20
16.0007179077
 11
-8.1106731164
 21
15.9791210029
  0
LINE
  5
3B6
100
AcDbEntity
  8
0
100
AcDbLine
 62
7
  6
CONTINUOUS
 10
-8.1702494309
 20
-2.8627650702
 11
-8.1587219491
 21
-2.8843220498
  0
LINE
  5
3B7
100
AcDbEntity
  8
ASSI
100
AcDbLine
 62
7
  6
CONTINUOUS
 10
16.3187385448
 20
10.3721760571
 11
16.3429168149
 21
10.3260996495
  0
LINE
  5
3B8
100
AcDbEntity
  8
ASSI
100
AcDbLine
 62
7
  6
CONTINUOUS
 10
15.9901729468
 20
-25.016383979
 11
15.9753140051
 21
-24.9880137954
  0
LINE
  5
3B9
100
AcDbEntity
  8
ASSI
100
AcDbLine
 62
7
  6
CONTINUOUS
 10
-15.329219446
 20
-7.4355662769
 11
-15.3040130143
 21
-7.4840169598
  0
LINE
  5
3BA
100
AcDbEntity
  8
0
100
AcDbLine
 62
7
  6
CONTINUOUS
 10
-8.9554217903
 20
13.5065168858
 11
-8.9667333092
 21
13.528321501
  0
LINE
  5
3BB
100
AcDbEntity
  8
0
100
AcDbLine
 62
7
  6
CONTINUOUS
 10
-8.9075389873
 20
-5.1878404733
 11
-8.9187435195
 21
-5.1661342462
  0
LINE
  5
3BC
100
AcDbEntity
  8
0
100
AcDbLine
 62
7
  6
CONTINUOUS
 10
-8.1106731164
 20
15.9791210029
 11
-8.0994586177
 21
15.9573075703
  0
LINE
  5
3BD
100
AcDbEntity
  8
ASSI
100
AcDbLine
 62
7
  6
CONTINUOUS
 10
-15.7623025024
 20
10.2727200557
 11
-15.7818121732
 21
10.3107612891
  0
LINE
  5
3BE
100
AcDbEntity
  8
0
100
AcDbLine
 62
7
  6
CONTINUOUS
 10
-8.1587219491
 20
-2.8843220498
 11
-8.1476230162
 21
-2.906033671
  0
LINE
  5
3BF
100
AcDbEntity
  8
ASSI
100
AcDbLine
 62
7
  6
CONTINUOUS
 10
15.3513489756
 20
-25.1840388499
 11
15.3269284584
 21
-25.1360419428
  0
LINE
  5
3C0
100
AcDbEntity
  8
ASSI
100
AcDbLine
 62
7
  6
CONTINUOUS
 10
-15.4922682511
 20
27.0494746562
 11
-15.5056590492
 21
27.0759380865
  0
LINE
  5
3C1
100
AcDbEntity
  8
0
100
AcDbLine
 62
7
  6
CONTINUOUS
 10
-8.9667333092
 20
13.528321501
 11
-8.9776084661
 21
13.5503185732
  0
LINE
  5
3C2
100
AcDbEntity
  8
0
100
AcDbLine
 62
7
  6
CONTINUOUS
 10
-8.9187435195
 20
-5.1661342462
 11
-8.9295099802
 21
-5.144295203
  0
LINE
  5
3C3
100
AcDbEntity
  8
0
100
AcDbLine
 62
7
  6
CONTINUOUS
 10
-8.0994586177
 20
15.9573075703
 11
-8.0886822351
 21
15.935301788
  0
LINE
  5
3C4
100
AcDbEntity
  8
0
100
AcDbLine
 62
7
  6
CONTINUOUS
 10
-8.1476230162
 20
-2.906033671
 11
-8.1369645449
 21
-2.9278762575
  0
LINE
  5
3C5
100
AcDbEntity
  8
ASSI
100
AcDbLine
 62
7
  6
CONTINUOUS
 10
15.5440940684
 20
-8.2968485379
 11
15.5211912276
 21
-8.249900065
  0
LINE
  5
3C6
100
AcDbEntity
  8
ASSI
100
AcDbLine
 62
7
  6
CONTINUOUS
 10
-15.4922586494
 20
-7.0379147203
 11
-15.5056497909
 21
-7.0096820154
  0
LINE
  5
3C7
100
AcDbEntity
  8
0
100
AcDbLine
 62
7
  6
CONTINUOUS
 10
-8.9776084661
 20
13.5503185732
 11
-8.9880363741
 21
13.5724840963
  0
LINE
  5
3C8
100
AcDbEntity
  8
0
100
AcDbLine
 62
7
  6
CONTINUOUS
 10
-8.9295099802
 20
-5.144295203
 11
-8.939826631
 21
-5.1223468339
  0
LINE
  5
3C9
100
AcDbEntity
  8
0
100
AcDbLine
 62
7
  6
CONTINUOUS
 10
-8.0886822351
 20
15.935301788
 11
-8.078354621
 21
15.9131278339
  0
LINE
  5
3CA
100
AcDbEntity
  8
ASSI
100
AcDbLine
 62
7
  6
CONTINUOUS
 10
-15.8161997965
 20
10.4590300668
 11
-15.8035955664
 21
10.4319485413
  0
LINE
  5
3CB
100
AcDbEntity
  8
0
100
AcDbLine
 62
7
  6
CONTINUOUS
 10
-8.1369645449
 20
-2.9278762575
 11
-8.1267584481
 21
-2.9498261329
  0
LINE
  5
3CC
100
AcDbEntity
  8
ASSI
100
AcDbLine
 62
7
  6
CONTINUOUS
 10
-15.8035955659
 20
9.2107291996
 11
-15.816199796
 21
9.237874706
  0
LINE
  5
3CD
100
AcDbEntity
  8
ASSI
100
AcDbLine
 62
7
  6
CONTINUOUS
 10
16.3429168149
 20
10.3260996495
 11
16.3641703754
 21
10.2793248607
  0
LINE
  5
3CE
100
AcDbEntity
  8
0
100
AcDbLine
 62
7
  6
CONTINUOUS
 10
-8.939826631
 20
-5.1223468339
 11
-8.9496817335
 21
-5.1003126292
  0
LINE
  5
3CF
100
AcDbEntity
  8
0
100
AcDbLine
 62
7
  6
CONTINUOUS
 10
-8.9880363741
 20
13.5724840963
 11
-8.9980061463
 21
13.5947940643
  0
LINE
  5
3D0
100
AcDbEntity
  8
0
100
AcDbLine
 62
7
  6
CONTINUOUS
 10
-8.1267584481
 20
-2.9498261329
 11
-8.1170161647
 21
-2.9718599797
  0
LINE
  5
3D1
100
AcDbEntity
  8
0
100
AcDbLine
 62
7
  6
CONTINUOUS
 10
-8.078354621
 20
15.9131278339
 11
-8.0684864276
 21
15.890809886
  0
LINE
  5
3D2
100
AcDbEntity
  8
ASSI
100
AcDbLine
 62
7
  6
CONTINUOUS
 10
-15.4562378721
 20
-7.26435713
 11
-15.4271555432
 21
-7.3314287228
  0
LINE
  5
3D3
100
AcDbEntity
  8
ASSI
100
AcDbLine
 62
7
  6
CONTINUOUS
 10
-15.6915438493
 20
10.2176061196
 11
-15.6774995906
 21
10.184967154
  0
LINE
  5
3D4
100
AcDbEntity
  8
0
100
AcDbLine
 62
7
  6
CONTINUOUS
 10
-8.9496817335
 20
-5.1003126292
 11
-8.9590635492
 21
-5.0782160794
  0
LINE
  5
3D5
100
AcDbEntity
  8
0
100
AcDbLine
 62
7
  6
CONTINUOUS
 10
-8.9980061463
 20
13.5947940643
 11
-9.0075068959
 21
13.6172244712
  0
LINE
  5
3D6
100
AcDbEntity
  8
0
100
AcDbLine
 62
7
  6
CONTINUOUS
 10
-8.1170161647
 20
-2.9718599797
 11
-8.1077472386
 21
-2.9939559158
  0
LINE
  5
3D7
100
AcDbEntity
  8
0
100
AcDbLine
 62
7
  6
CONTINUOUS
 10
-8.0684864276
 20
15.890809886
 11
-8.0590883073
 21
15.8683721222
  0
LINE
  5
3D8
100
AcDbEntity
  8
ASSI
100
AcDbLine
 62
7
  6
CONTINUOUS
 10
15.5639740512
 20
-8.3446054075
 11
15.5440940684
 21
-8.2968485379
  0
LINE
  5
3D9
100
AcDbEntity
  8
ASSI
100
AcDbLine
 62
7
  6
CONTINUOUS
 10
-15.7818121732
 20
10.3107612891
 11
-15.7980251503
 21
10.3503977486
  0
LINE
  5
3DA
100
AcDbEntity
  8
ASSI
100
AcDbLine
 62
7
  6
CONTINUOUS
 10
15.9753140051
 20
-24.9880137954
 11
15.9627046792
 21
-24.9571596131
  0
LINE
  5
3DB
100
AcDbEntity
  8
ASSI
100
AcDbLine
 62
7
  6
CONTINUOUS
 10
-15.3505030023
 20
-7.3830686907
 11
-15.329219446
 21
-7.4355662769
  0
LINE
  5
3DC
100
AcDbEntity
  8
0
100
AcDbLine
 62
7
  6
CONTINUOUS
 10
-8.9590635492
 20
-5.0782160794
 11
-8.9679610276
 21
-5.0560807236
  0
LINE
  5
3DD
100
AcDbEntity
  8
0
100
AcDbLine
 62
7
  6
CONTINUOUS
 10
-9.0075068959
 20
13.6172244712
 11
-9.016527736
 21
13.6397513111
  0
LINE
  5
3DE
100
AcDbEntity
  8
0
100
AcDbLine
 62
7
  6
CONTINUOUS
 10
-8.1077472386
 20
-2.9939559158
 11
-8.0989607398
 21
-3.0160924176
  0
LINE
  5
3DF
100
AcDbEntity
  8
0
100
AcDbLine
 62
7
  6
CONTINUOUS
 10
-8.0590883073
 20
15.8683721222
 11
-8.0501709124
 21
15.8458387204
  0
LINE
  5
3E0
100
AcDbEntity
  8
ASSI
100
AcDbLine
 62
7
  6
CONTINUOUS
 10
15.3269284584
 20
-25.1360419428
 11
15.3063231901
 21
-25.0839359896
  0
LINE
  5
3E1
100
AcDbEntity
  8
ASSI
100
AcDbLine
 62
7
  6
CONTINUOUS
 10
16.3641703754
 20
10.2793248607
 11
16.3822667734
 21
10.2323632726
  0
LINE
  5
3E2
100
AcDbEntity
  8
0
100
AcDbLine
 62
7
  6
CONTINUOUS
 10
-8.9679610276
 20
-5.0560807236
 11
-8.976365869
 21
-5.0339302964
  0
LINE
  5
3E3
100
AcDbEntity
  8
0
100
AcDbLine
 62
7
  6
CONTINUOUS
 10
-9.016527736
 20
13.6397513111
 11
-9.0250577798
 21
13.6623505778
  0
LINE
  5
3E4
100
AcDbEntity
  8
ASSI
100
AcDbLine
 62
7
  6
CONTINUOUS
 10
14.9603363626
 20
-7.4804081241
 11
14.9721515303
 21
-7.5117600226
  0
LINE
  5
3E5
100
AcDbEntity
  8
0
100
AcDbLine
 62
7
  6
CONTINUOUS
 10
-8.0989607398
 20
-3.0160924176
 11
-8.0906657384
 21
-3.0382479618
  0
LINE
  5
3E6
100
AcDbEntity
  8
0
100
AcDbLine
 62
7
  6
CONTINUOUS
 10
-8.0501709124
 20
15.8458387204
 11
-8.0417448954
 21
15.8232338586
  0
LINE
  5
3E7
100
AcDbEntity
  8
0
100
AcDbLine
 62
7
  6
CONTINUOUS
 10
-8.976365869
 20
-5.0339302964
 11
-8.9842704618
 21
-5.0117885812
  0
LINE
  5
3E8
100
AcDbEntity
  8
0
100
AcDbLine
 62
7
  6
CONTINUOUS
 10
-9.0250577798
 20
13.6623505778
 11
-9.0330868504
 21
13.684998202
  0
LINE
  5
3E9
100
AcDbEntity
  8
0
100
AcDbLine
 62
7
  6
CONTINUOUS
 10
-8.0906657384
 20
-3.0382479618
 11
-8.0828713043
 21
-3.060401025
  0
LINE
  5
3EA
100
AcDbEntity
  8
0
100
AcDbLine
 62
7
  6
CONTINUOUS
 10
-8.0417448954
 20
15.8232338586
 11
-8.0338202604
 21
15.8005812352
  0
LINE
  5
3EB
100
AcDbEntity
  8
ASSI
100
AcDbLine
 62
7
  6
CONTINUOUS
 10
15.580583633
 20
-8.3925897588
 11
15.5639740512
 21
-8.3446054075
  0
LINE
  5
3EC
100
AcDbEntity
  8
ASSI
100
AcDbLine
 62
7
  6
CONTINUOUS
 10
-15.4800586816
 20
-7.193365785
 11
-15.4562378721
 21
-7.26435713
  0
LINE
  5
3ED
100
AcDbEntity
  8
0
100
AcDbLine
 62
7
  6
CONTINUOUS
 10
-8.9842704618
 20
-5.0117885812
 11
-8.9916671943
 21
-4.9896793614
  0
LINE
  5
3EE
100
AcDbEntity
  8
0
100
AcDbLine
 62
7
  6
CONTINUOUS
 10
-9.0330868504
 20
13.684998202
 11
-9.040607612
 21
13.7076698605
  0
LINE
  5
3EF
100
AcDbEntity
  8
0
100
AcDbLine
 62
7
  6
CONTINUOUS
 10
-8.0828713043
 20
-3.060401025
 11
-8.0755865077
 21
-3.0825300838
  0
LINE
  5
3F0
100
AcDbEntity
  8
0
100
AcDbLine
 62
7
  6
CONTINUOUS
 10
-8.0338202604
 20
15.8005812352
 11
-8.0264044197
 21
15.7779026298
  0
LINE
  5
3F1
100
AcDbEntity
  8
ASSI
100
AcDbLine
 62
7
  6
CONTINUOUS
 10
-15.5056590492
 20
27.0759380865
 11
-15.5143275854
 21
27.1028847425
  0
LINE
  5
3F2
100
AcDbEntity
  8
ASSI
100
AcDbLine
 62
7
  6
CONTINUOUS
 10
16.3822667734
 20
10.2323632726
 11
16.3970080863
 21
10.1857285097
  0
LINE
  5
3F3
100
AcDbEntity
  8
0
100
AcDbLine
 62
7
  6
CONTINUOUS
 10
-8.9916671943
 20
-4.9896793614
 11
-8.9985484547
 21
-4.9676264205
  0
LINE
  5
3F4
100
AcDbEntity
  8
ASSI
100
AcDbLine
 62
7
  6
CONTINUOUS
 10
-15.7980251503
 20
10.3503977486
 11
-15.8108495376
 21
10.3915117755
  0
LINE
  5
3F5
100
AcDbEntity
  8
ASSI
100
AcDbLine
 62
7
  6
CONTINUOUS
 10
15.9627046792
 20
-24.9571596131
 11
15.9525288945
 21
-24.9243300952
  0
LINE
  5
3F6
100
AcDbEntity
  8
0
100
AcDbLine
 62
7
  6
CONTINUOUS
 10
-9.040607612
 20
13.7076698605
 11
-9.0476134385
 21
13.7303411668
  0
LINE
  5
3F7
100
AcDbEntity
  8
ASSI
100
AcDbLine
 62
7
  6
CONTINUOUS
 10
-15.367774838
 20
-7.3267647909
 11
-15.3505030023
 21
-7.3830686907
  0
LINE
  5
3F8
100
AcDbEntity
  8
0
100
AcDbLine
 62
7
  6
CONTINUOUS
 10
-8.0755865077
 20
-3.0825300838
 11
-8.0688199037
 21
-3.104611955
  0
LINE
  5
3F9
100
AcDbEntity
  8
0
100
AcDbLine
 62
7
  6
CONTINUOUS
 10
-8.0264044197
 20
15.7779026298
 11
-8.0195041373
 21
15.7552193427
  0
LINE
  5
3FA
100
AcDbEntity
  8
ASSI
100
AcDbLine
 62
7
  6
CONTINUOUS
 10
-15.5056497909
 20
-7.0096820154
 11
-15.5143187965
 21
-6.980681975
  0
LINE
  5
3FB
100
AcDbEntity
  8
ASSI
100
AcDbLine
 62
7
  6
CONTINUOUS
 10
15.3063231901
 20
-25.0839359896
 11
15.2896428338
 21
-25.0279736018
  0
LINE
  5
3FC
100
AcDbEntity
  8
0
100
AcDbLine
 62
7
  6
CONTINUOUS
 10
-8.9985484547
 20
-4.9676264205
 11
-9.0049066314
 21
-4.9456535419
  0
LINE
  5
3FD
100
AcDbEntity
  8
ASSI
100
AcDbLine
 62
7
  6
CONTINUOUS
 10
-15.7018991977
 20
10.2534011198
 11
-15.6915438493
 21
10.2176061196
  0
LINE
  5
3FE
100
AcDbEntity
  8
ASSI
100
AcDbLine
 62
7
  6
CONTINUOUS
 10
-15.8241834446
 20
10.48668533
 11
-15.8161997965
 21
10.4590300668
  0
LINE
  5
3FF
100
AcDbEntity
  8
ASSI
100
AcDbLine
 62
7
  6
CONTINUOUS
 10
-15.816199796
 20
9.237874706
 11
-15.8241834441
 21
9.2656037982
  0
LINE
  5
400
100
AcDbEntity
  8
0
100
AcDbLine
 62
7
  6
CONTINUOUS
 10
-9.0476134385
 20
13.7303411668
 11
-9.0540977042
 21
13.7529877343
  0
LINE
  5
401
100
AcDbEntity
  8
0
100
AcDbLine
 62
7
  6
CONTINUOUS
 10
-8.0688199037
 20
-3.104611955
 11
-8.0625779875
 21
-3.1266168154
  0
LINE
  5
402
100
AcDbEntity
  8
0
100
AcDbLine
 62
7
  6
CONTINUOUS
 10
-8.0195041373
 20
15.7552193427
 11
-8.0131261775
 21
15.7325526739
  0
LINE
  5
403
100
AcDbEntity
  8
ASSI
100
AcDbLine
 62
7
  6
CONTINUOUS
 10
15.5937025783
 20
-8.4401169513
 11
15.580583633
 21
-8.3925897588
  0
LINE
  5
404
100
AcDbEntity
  8
0
100
AcDbLine
 62
7
  6
CONTINUOUS
 10
-9.0049066314
 20
-4.9456535419
 11
-9.0107341125
 21
-4.923784509
  0
LINE
  5
405
100
AcDbEntity
  8
0
100
AcDbLine
 62
7
  6
CONTINUOUS
 10
-9.0540977042
 20
13.7529877343
 11
-9.0600537831
 21
13.7755851764
  0
LINE
  5
406
100
AcDbEntity
  8
0
100
AcDbLine
 62
7
  6
CONTINUOUS
 10
-8.0625779875
 20
-3.1266168154
 11
-8.0568667396
 21
-3.1485131822
  0
LINE
  5
407
100
AcDbEntity
  8
0
100
AcDbLine
 62
7
  6
CONTINUOUS
 10
-8.0131261775
 20
15.7325526739
 11
-8.0072774172
 21
15.7099264705
  0
LINE
  5
408
100
AcDbEntity
  8
ASSI
100
AcDbLine
 62
7
  6
CONTINUOUS
 10
-15.4984152463
 20
-7.1185927098
 11
-15.4800586816
 21
-7.193365785
  0
LINE
  5
409
100
AcDbEntity
  8
0
100
AcDbLine
 62
7
  6
CONTINUOUS
 10
-9.0107341125
 20
-4.923784509
 11
-9.0160232865
 21
-4.9020431053
  0
LINE
  5
40A
100
AcDbEntity
  8
0
100
AcDbLine
 62
7
  6
CONTINUOUS
 10
-9.0600537831
 20
13.7755851764
 11
-9.0654750493
 21
13.7981091067
  0
LINE
  5
40B
100
AcDbEntity
  8
0
100
AcDbLine
 62
7
  6
CONTINUOUS
 10
-8.0568667396
 20
-3.1485131822
 11
-8.0516921405
 21
-3.1702695725
  0
LINE
  5
40C
100
AcDbEntity
  8
ASSI
100
AcDbLine
 62
7
  6
CONTINUOUS
 10
14.9521517555
 20
-7.4458660618
 11
14.9603363626
 21
-7.4804081241
  0
LINE
  5
40D
100
AcDbEntity
  8
0
100
AcDbLine
 62
7
  6
CONTINUOUS
 10
-8.0072774172
 20
15.7099264705
 11
-8.0019651839
 21
15.6873747665
  0
LINE
  5
40E
100
AcDbEntity
  8
ASSI
100
AcDbLine
 62
7
  6
CONTINUOUS
 10
15.9525288945
 20
-24.9243300952
 11
15.9448479594
 21
-24.8896947958
  0
LINE
  5
40F
100
AcDbEntity
  8
ASSI
100
AcDbLine
 62
7
  6
CONTINUOUS
 10
-15.3809505997
 20
-7.2669262423
 11
-15.367774838
 21
-7.3267647909
  0
LINE
  5
410
100
AcDbEntity
  8
0
100
AcDbLine
 62
7
  6
CONTINUOUS
 10
-9.0160232865
 20
-4.9020431053
 11
-9.020767306
 21
-4.8804528918
  0
LINE
  5
411
100
AcDbEntity
  8
ASSI
100
AcDbLine
 62
7
  6
CONTINUOUS
 10
-15.8108495376
 20
10.3915117755
 11
-15.8201317258
 21
10.4338262569
  0
LINE
  5
412
100
AcDbEntity
  8
0
100
AcDbLine
 62
7
  6
CONTINUOUS
 10
-9.0654750493
 20
13.7981091067
 11
-9.070354877
 21
13.8205351385
  0
LINE
  5
413
100
AcDbEntity
  8
0
100
AcDbLine
 62
7
  6
CONTINUOUS
 10
-8.0516921405
 20
-3.1702695725
 11
-8.0470601704
 21
-3.1918545032
  0
LINE
  5
414
100
AcDbEntity
  8
ASSI
100
AcDbLine
 62
7
  6
CONTINUOUS
 10
15.2896428338
 20
-25.0279736018
 11
15.2769707939
 21
-24.9684258973
  0
LINE
  5
415
100
AcDbEntity
  8
0
100
AcDbLine
 62
7
  6
CONTINUOUS
 10
-8.0019651839
 20
15.6873747665
 11
-7.9971969182
 21
15.6649341428
  0
LINE
  5
416
100
AcDbEntity
  8
0
100
AcDbLine
 62
7
  6
CONTINUOUS
 10
-9.020767306
 20
-4.8804528918
 11
-9.0249623811
 21
-4.8590365406
  0
LINE
  5
417
100
AcDbEntity
  8
0
100
AcDbLine
 62
7
  6
CONTINUOUS
 10
-9.070354877
 20
13.8205351385
 11
-9.0746866403
 21
13.8428388854
  0
LINE
  5
418
100
AcDbEntity
  8
0
100
AcDbLine
 62
7
  6
CONTINUOUS
 10
-8.0470601704
 20
-3.1918545032
 11
-8.0429768099
 21
-3.2132364914
  0
LINE
  5
419
100
AcDbEntity
  8
0
100
AcDbLine
 62
7
  6
CONTINUOUS
 10
-7.9971969182
 20
15.6649341428
 11
-7.9929800605
 21
15.6426411803
  0
LINE
  5
41A
100
AcDbEntity
  8
0
100
AcDbLine
 62
7
  6
CONTINUOUS
 10
-9.0249623811
 20
-4.8590365406
 11
-9.0286054866
 21
-4.8378165013
  0
LINE
  5
41B
100
AcDbEntity
  8
0
100
AcDbLine
 62
7
  6
CONTINUOUS
 10
-9.0746866403
 20
13.8428388854
 11
-9.0784644903
 21
13.8649961777
  0
LINE
  5
41C
100
AcDbEntity
  8
0
100
AcDbLine
 62
7
  6
CONTINUOUS
 10
-8.0429768099
 20
-3.2132364914
 11
-8.0394473151
 21
-3.2343906966
  0
LINE
  5
41D
100
AcDbEntity
  8
0
100
AcDbLine
 62
7
  6
CONTINUOUS
 10
-7.9929800605
 20
15.6426411803
 11
-7.9893205489
 21
15.6205281284
  0
LINE
  5
41E
100
AcDbEntity
  8
ASSI
100
AcDbLine
 62
7
  6
CONTINUOUS
 10
-15.511096448
 20
-7.0401191174
 11
-15.4984152463
 21
-7.1185927098
  0
LINE
  5
41F
100
AcDbEntity
  8
ASSI
100
AcDbLine
 62
7
  6
CONTINUOUS
 10
-15.708190511
 20
10.2923076639
 11
-15.7018991977
 21
10.2534011198
  0
LINE
  5
420
100
AcDbEntity
  8
0
100
AcDbLine
 62
7
  6
CONTINUOUS
 10
-9.0286054866
 20
-4.8378165013
 11
-9.0316935969
 21
-4.8168152236
  0
LINE
  5
421
100
AcDbEntity
  8
0
100
AcDbLine
 62
7
  6
CONTINUOUS
 10
-9.0784644903
 20
13.8649961777
 11
-9.0816856859
 21
13.886983714
  0
LINE
  5
422
100
AcDbEntity
  8
ASSI
100
AcDbLine
 62
7
  6
CONTINUOUS
 10
-15.3899538074
 20
-7.2038571066
 11
-15.3809505997
 21
-7.2669262423
  0
LINE
  5
423
100
AcDbEntity
  8
ASSI
100
AcDbLine
 62
7
  6
CONTINUOUS
 10
-15.5143275854
 20
27.1028847425
 11
-15.5181898102
 21
27.1300533508
  0
LINE
  5
424
100
AcDbEntity
  8
0
100
AcDbLine
 62
7
  6
CONTINUOUS
 10
-8.0394473151
 20
-3.2343906966
 11
-8.0364740459
 21
-3.2553188475
  0
LINE
  5
425
100
AcDbEntity
  8
0
100
AcDbLine
 62
7
  6
CONTINUOUS
 10
-7.9893205489
 20
15.6205281284
 11
-7.9862183115
 21
15.598609911
  0
LINE
  5
426
100
AcDbEntity
  8
ASSI
100
AcDbLine
 62
7
  6
CONTINUOUS
 10
-15.8201317258
 20
10.4338262569
 11
-15.8257264203
 21
10.4769022183
  0
LINE
  5
427
100
AcDbEntity
  8
ASSI
100
AcDbLine
 62
7
  6
CONTINUOUS
 10
-15.5143187965
 20
-6.980681975
 11
-15.5182637888
 21
-6.9493058431
  0
LINE
  5
428
100
AcDbEntity
  8
0
100
AcDbLine
 62
7
  6
CONTINUOUS
 10
-9.0816856859
 20
13.886983714
 11
-9.0843482629
 21
13.9087784098
  0
LINE
  5
429
100
AcDbEntity
  8
0
100
AcDbLine
 62
7
  6
CONTINUOUS
 10
-9.0316935969
 20
-4.8168152236
 11
-9.0342236866
 21
-4.7960551572
  0
LINE
  5
42A
100
AcDbEntity
  8
ASSI
100
AcDbLine
 62
7
  6
CONTINUOUS
 10
-15.827471011
 20
10.514652834
 11
-15.8241834446
 21
10.48668533
  0
LINE
  5
42B
100
AcDbEntity
  8
0
100
AcDbLine
 62
7
  6
CONTINUOUS
 10
-7.9862183115
 20
15.598609911
 11
-7.983671774
 21
15.5768971207
  0
LINE
  5
42C
100
AcDbEntity
  8
ASSI
100
AcDbLine
 62
7
  6
CONTINUOUS
 10
-15.8241834441
 20
9.2656037982
 11
-15.8274710105
 21
9.2936542813
  0
LINE
  5
42D
100
AcDbEntity
  8
0
100
AcDbLine
 62
7
  6
CONTINUOUS
 10
-8.0364740459
 20
-3.2553188475
 11
-8.0340586379
 21
-3.2760293152
  0
LINE
  5
42E
100
AcDbEntity
  8
ASSI
100
AcDbLine
 62
7
  6
CONTINUOUS
 10
-2.3267901257
 20
24.2988100221
 11
-2.3055865117
 21
23.6823862266
  0
LINE
  5
42F
100
AcDbEntity
  8
ASSI
100
AcDbLine
 62
7
  6
CONTINUOUS
 10
5.6635165017
 20
19.6853071175
 11
5.6847201157
 21
19.068883322
  0
LINE
  5
430
100
AcDbEntity
  8
ASSI
100
AcDbLine
 62
7
  6
CONTINUOUS
 10
-2.507024774
 20
23.8846280128
 11
-2.5070247566
 21
23.822654749
  0
LINE
  5
431
100
AcDbEntity
  8
0
100
AcDbLine
 62
7
  6
CONTINUOUS
 10
-7.9791731531
 20
-5.3802652442
 11
-7.979647314
 21
-5.3955035449
  0
LINE
  5
432
100
AcDbEntity
  8
0
100
AcDbLine
 62
7
  6
CONTINUOUS
 10
-8.0301759373
 20
13.4007023441
 11
-8.0309078863
 21
13.3804065818
  0
LINE
  5
433
100
AcDbEntity
  8
0
100
AcDbLine
 62
7
  6
CONTINUOUS
 10
-9.0384355786
 20
16.0845453357
 11
-9.0375976984
 21
16.1047546772
  0
LINE
  5
434
100
AcDbEntity
  8
0
100
AcDbLine
 62
7
  6
CONTINUOUS
 10
-9.0889646295
 20
-2.6846633744
 11
-9.0879896827
 21
-2.6657484616
  0
LINE
  5
435
100
AcDbEntity
  8
0
100
AcDbLine
 62
7
  6
CONTINUOUS
 10
-7.979647314
 20
-5.3955035449
 11
-7.9804842355
 21
-5.4104310661
  0
LINE
  5
436
100
AcDbEntity
  8
0
100
AcDbLine
 62
7
  6
CONTINUOUS
 10
-8.0309078863
 20
13.3804065818
 11
-8.0322025525
 21
13.3605773495
  0
LINE
  5
437
100
AcDbEntity
  8
0
100
AcDbLine
 62
7
  6
CONTINUOUS
 10
-9.0375976984
 20
16.1047546772
 11
-9.0361927166
 21
16.1246112965
  0
LINE
  5
438
100
AcDbEntity
  8
0
100
AcDbLine
 62
7
  6
CONTINUOUS
 10
-7.9804842355
 20
-5.4104310661
 11
-7.9816793531
 21
-5.4250726321
  0
LINE
  5
439
100
AcDbEntity
  8
0
100
AcDbLine
 62
7
  6
CONTINUOUS
 10
-9.0879896827
 20
-2.6657484616
 11
-9.0864502272
 21
-2.647225118
  0
LINE
  5
43A
100
AcDbEntity
  8
0
100
AcDbLine
 62
7
  6
CONTINUOUS
 10
-8.0322025525
 20
13.3605773495
 11
-8.0340583251
 21
13.3412038646
  0
LINE
  5
43B
100
AcDbEntity
  8
0
100
AcDbLine
 62
7
  6
CONTINUOUS
 10
-9.0361927166
 20
16.1246112965
 11
-9.0342236627
 21
16.1440949698
  0
LINE
  5
43C
100
AcDbEntity
  8
0
100
AcDbLine
 62
7
  6
CONTINUOUS
 10
-9.0864502272
 20
-2.647225118
 11
-9.0843482307
 21
-2.6291129829
  0
LINE
  5
43D
100
AcDbEntity
  8
ASSI
100
AcDbLine
 62
7
  6
CONTINUOUS
 10
-15.3809506945
 20
27.0976661891
 11
-15.3899539003
 21
27.0246549552
  0
LINE
  5
43E
100
AcDbEntity
  8
0
100
AcDbLine
 62
7
  6
CONTINUOUS
 10
-9.0342236627
 20
16.1440949698
 11
-9.0316935658
 21
16.1631854736
  0
LINE
  5
43F
100
AcDbEntity
  8
ASSI
100
AcDbLine
 62
7
  6
CONTINUOUS
 10
-15.8196970079
 20
9.3879227435
 11
-15.8256171299
 21
9.3436429842
  0
LINE
  5
440
100
AcDbEntity
  8
ASSI
100
AcDbLine
 62
7
  6
CONTINUOUS
 10
-15.7081904466
 20
9.157467225
 11
-15.7018986796
 21
9.2022485675
  0
LINE
  5
441
100
AcDbEntity
  8
ASSI
100
AcDbLine
 62
7
  6
CONTINUOUS
 10
-15.4986912882
 20
27.3260940779
 11
-15.5109091951
 21
27.242046518
  0
LINE
  5
442
100
AcDbEntity
  8
ASSI
100
AcDbLine
 62
7
  6
CONTINUOUS
 10
-15.3677749342
 20
27.1721380894
 11
-15.3809506945
 21
27.0976661891
  0
LINE
  5
443
100
AcDbEntity
  8
ASSI
100
AcDbLine
 62
7
  6
CONTINUOUS
 10
-15.4813131012
 20
27.4098332733
 11
-15.4986912882
 21
27.3260940779
  0
LINE
  5
444
100
AcDbEntity
  8
ASSI
100
AcDbLine
 62
7
  6
CONTINUOUS
 10
15.4335520894
 20
-24.8940996489
 11
15.4809176639
 21
-24.9009464691
  0
LINE
  5
445
100
AcDbEntity
  8
ASSI
100
AcDbLine
 62
7
  6
CONTINUOUS
 10
15.7113404185
 20
-25.420279544
 11
15.7791145729
 21
-25.4316468658
  0
LINE
  5
446
100
AcDbEntity
  8
ASSI
100
AcDbLine
 62
7
  6
CONTINUOUS
 10
16.1823555682
 20
-25.1445310738
 11
16.1522189803
 21
-25.1389376988
  0
LINE
  5
447
100
AcDbEntity
  8
0
100
AcDbLine
 62
7
  6
CONTINUOUS
 10
-8.3387217502
 20
-5.7078956135
 11
-8.3552085406
 21
-5.7036974378
  0
LINE
  5
448
100
AcDbEntity
  8
ASSI
100
AcDbLine
 62
7
  6
CONTINUOUS
 10
15.0686019504
 20
-8.6309193696
 11
15.0249658175
 21
-8.6185584198
  0
LINE
  5
449
100
AcDbEntity
  8
ASSI
100
AcDbLine
 62
7
  6
CONTINUOUS
 10
15.0249658181
 20
-7.3972429808
 11
15.0686019509
 21
-7.4096464994
  0
LINE
  5
44A
100
AcDbEntity
  8
ASSI
100
AcDbLine
 62
7
  6
CONTINUOUS
 10
15.104843906
 20
-7.6182021005
 11
15.1510810554
 21
-7.6316102372
  0
LINE
  5
44B
100
AcDbEntity
  8
0
100
AcDbLine
 62
7
  6
CONTINUOUS
 10
-8.3552085406
 20
-5.7036974378
 11
-8.3718334529
 21
-5.6988011955
  0
LINE
  5
44C
100
AcDbEntity
  8
0
100
AcDbLine
 62
7
  6
CONTINUOUS
 10
-8.7095315257
 20
-2.3673983556
 11
-8.6928004204
 21
-2.3723576722
  0
LINE
  5
44D
100
AcDbEntity
  8
0
100
AcDbLine
 62
7
  6
CONTINUOUS
 10
-8.6928004204
 20
-2.3723576722
 11
-8.6759245878
 21
-2.3780230886
  0
LINE
  5
44E
100
AcDbEntity
  8
ASSI
100
AcDbLine
 62
7
  6
CONTINUOUS
 10
15.0249658175
 20
-8.6185584198
 11
14.9836189128
 21
-8.6038032185
  0
LINE
  5
44F
100
AcDbEntity
  8
ASSI
100
AcDbLine
 62
7
  6
CONTINUOUS
 10
14.9836189133
 20
-7.3824565726
 11
15.0249658181
 21
-7.3972429808
  0
LINE
  5
450
100
AcDbEntity
  8
ASSI
100
AcDbLine
 62
7
  6
CONTINUOUS
 10
-15.4061626789
 20
9.7384977785
 11
-15.3686309789
 21
9.7246018259
  0
LINE
  5
451
100
AcDbEntity
  8
ASSI
100
AcDbLine
 62
7
  6
CONTINUOUS
 10
15.0602047184
 20
-7.6004521733
 11
15.104843906
 21
-7.6182021005
  0
LINE
  5
452
100
AcDbEntity
  8
0
100
AcDbLine
 62
7
  6
CONTINUOUS
 10
-8.4862002095
 20
13.0450543394
 11
-8.5033288286
 21
13.0519080727
  0
LINE
  5
453
100
AcDbEntity
  8
0
100
AcDbLine
 62
7
  6
CONTINUOUS
 10
-8.5033288286
 20
13.0519080727
 11
-8.5205386515
 21
13.0594721369
  0
LINE
  5
454
100
AcDbEntity
  8
0
100
AcDbLine
 62
7
  6
CONTINUOUS
 10
-8.5610339324
 20
16.4343024921
 11
-8.5437296263
 21
16.4266473117
  0
LINE
  5
455
100
AcDbEntity
  8
0
100
AcDbLine
 62
7
  6
CONTINUOUS
 10
-8.5205386515
 20
13.0594721369
 11
-8.5378379616
 21
13.0677534577
  0
LINE
  5
456
100
AcDbEntity
  8
0
100
AcDbLine
 62
7
  6
CONTINUOUS
 10
-8.5437296263
 20
16.4266473117
 11
-8.5263865511
 21
16.4182996566
  0
LINE
  5
457
100
AcDbEntity
  8
ASSI
100
AcDbLine
 62
7
  6
CONTINUOUS
 10
16.0570020313
 20
10.6592374121
 11
15.2524221611
 21
11.0642828281
  0
LINE
  5
458
100
AcDbEntity
  8
ASSI
100
AcDbLine
 62
7
  6
CONTINUOUS
 10
15.2638544744
 20
9.2515767259
 11
14.4595509366
 21
9.6591389378
  0
LINE
  5
459
100
AcDbEntity
  8
ASSI
100
AcDbLine
 62
7
  6
CONTINUOUS
 10
15.2524221611
 20
11.0642828281
 11
14.4415541575
 21
11.4791968324
  0
LINE
  5
45A
100
AcDbEntity
  8
ASSI
100
AcDbLine
 62
7
  6
CONTINUOUS
 10
14.4595509366
 20
9.6591389378
 11
13.648102919
 21
10.0762584833
  0
LINE
  5
45B
100
AcDbEntity
  8
0
100
AcDbLine
 62
7
  6
CONTINUOUS
 10
-8.5378379616
 20
13.0677534577
 11
-8.555235042
 21
13.0767589606
  0
LINE
  5
45C
100
AcDbEntity
  8
ASSI
100
AcDbLine
 62
7
  6
CONTINUOUS
 10
14.4415541575
 20
11.4791968324
 11
13.6243980206
 21
11.903979425
  0
LINE
  5
45D
100
AcDbEntity
  8
0
100
AcDbLine
 62
7
  6
CONTINUOUS
 10
-8.5263865511
 20
16.4182996566
 11
-8.509023213
 21
16.4092674185
  0
LINE
  5
45E
100
AcDbEntity
  8
ASSI
100
AcDbLine
 62
7
  6
CONTINUOUS
 10
13.648102919
 20
10.0762584833
 11
12.8297748804
 21
10.503062017
  0
LINE
  5
45F
100
AcDbEntity
  8
ASSI
100
AcDbLine
 62
7
  6
CONTINUOUS
 10
13.6243980206
 20
11.903979425
 11
12.8063131721
 21
12.3352373325
  0
LINE
  5
460
100
AcDbEntity
  8
ASSI
100
AcDbLine
 62
7
  6
CONTINUOUS
 10
12.8297748804
 20
10.503062017
 11
12.0105728203
 21
10.9366063349
  0
LINE
  5
461
100
AcDbEntity
  8
ASSI
100
AcDbLine
 62
7
  6
CONTINUOUS
 10
12.8063131721
 20
12.3352373325
 11
11.9819401903
 21
12.7763638282
  0
LINE
  5
462
100
AcDbEntity
  8
ASSI
100
AcDbLine
 62
7
  6
CONTINUOUS
 10
12.0105728203
 20
10.9366063349
 11
11.1849616814
 21
11.3800412739
  0
LINE
  5
463
100
AcDbEntity
  8
ASSI
100
AcDbLine
 62
7
  6
CONTINUOUS
 10
11.9819401903
 20
12.7763638282
 11
11.1352008104
 21
13.2375387325
  0
LINE
  5
464
100
AcDbEntity
  8
ASSI
100
AcDbLine
 62
7
  6
CONTINUOUS
 10
11.1849616814
 20
11.3800412739
 11
10.3362542621
 21
11.8428481662
  0
LINE
  5
465
100
AcDbEntity
  8
ASSI
100
AcDbLine
 62
7
  6
CONTINUOUS
 10
10.3362542621
 20
11.8428481662
 11
9.4594969258
 21
12.3285193882
  0
LINE
  5
466
100
AcDbEntity
  8
ASSI
100
AcDbLine
 62
7
  6
CONTINUOUS
 10
11.1352008104
 20
13.2375387325
 11
10.2607356108
 21
13.7221553187
  0
LINE
  5
467
100
AcDbEntity
  8
0
100
AcDbLine
 62
7
  6
CONTINUOUS
 10
-8.509023213
 20
16.4092674185
 11
-8.4916581181
 21
16.3995584893
  0
LINE
  5
468
100
AcDbEntity
  8
ASSI
100
AcDbLine
 62
7
  6
CONTINUOUS
 10
10.2607356108
 20
13.7221553187
 11
9.3639040131
 21
14.2268203135
  0
LINE
  5
469
100
AcDbEntity
  8
ASSI
100
AcDbLine
 62
7
  6
CONTINUOUS
 10
9.4594969258
 20
12.3285193882
 11
8.5610815692
 21
12.8343193891
  0
LINE
  5
46A
100
AcDbEntity
  8
ASSI
100
AcDbLine
 62
7
  6
CONTINUOUS
 10
9.3639040131
 20
14.2268203135
 11
8.4447060173
 21
14.7515337168
  0
LINE
  5
46B
100
AcDbEntity
  8
ASSI
100
AcDbLine
 62
7
  6
CONTINUOUS
 10
8.5610815692
 20
12.8343193891
 11
7.6417346208
 21
13.3606134481
  0
LINE
  5
46C
100
AcDbEntity
  8
ASSI
100
AcDbLine
 62
7
  6
CONTINUOUS
 10
7.641732654
 20
13.3606136108
 11
-8.268100578
 21
22.5467519219
  0
LINE
  5
46D
100
AcDbEntity
  8
ASSI
100
AcDbLine
 62
7
  6
CONTINUOUS
 10
8.4447060173
 20
14.7515337168
 11
-7.4651419655
 21
23.9376805448
  0
LINE
  5
46E
100
AcDbEntity
  8
ASSI
100
AcDbLine
 62
7
  6
CONTINUOUS
 10
5.5350456624
 20
19.1553034755
 11
7.9173307585
 21
17.7798019181
  0
LINE
  5
46F
100
AcDbEntity
  8
ASSI
100
AcDbLine
 62
7
  6
CONTINUOUS
 10
13.4546416117
 20
14.5826280302
 11
15.8369267078
 21
13.2071264728
  0
LINE
  5
470
100
AcDbEntity
  8
ASSI
100
AcDbLine
 62
7
  6
CONTINUOUS
 10
-0.0729758689
 20
22.3933048227
 11
-2.455260965
 21
23.7688063801
  0
LINE
  5
471
100
AcDbEntity
  8
ASSI
100
AcDbLine
 62
7
  6
CONTINUOUS
 10
-7.9925718182
 20
26.9659802679
 11
-10.3748569143
 21
28.3414818254
  0
LINE
  5
472
100
AcDbEntity
  8
ASSI
100
AcDbLine
 62
7
  6
CONTINUOUS
 10
18.6113045241
 20
12.2094165873
 11
16.702756738
 21
13.3113881593
  0
LINE
  5
473
100
AcDbEntity
  8
ASSI
100
AcDbLine
 62
7
  6
CONTINUOUS
 10
13.583112451
 20
15.1126316723
 11
8.7831607887
 21
17.8840636046
  0
LINE
  5
474
100
AcDbEntity
  8
ASSI
100
AcDbLine
 62
7
  6
CONTINUOUS
 10
5.6635165017
 20
19.6853071175
 11
0.7928541613
 21
22.4975665092
  0
LINE
  5
475
100
AcDbEntity
  8
ASSI
100
AcDbLine
 62
7
  6
CONTINUOUS
 10
-2.3267901257
 20
24.2988100221
 11
-7.126741788
 21
27.0702419544
  0
LINE
  5
476
100
AcDbEntity
  8
ASSI
100
AcDbLine
 62
7
  6
CONTINUOUS
 10
-10.246386075
 20
28.8714854674
 11
-12.1549338611
 21
29.9734570394
  0
LINE
  5
477
100
AcDbEntity
  8
ASSI
100
AcDbLine
 62
7
  6
CONTINUOUS
 10
-8.2680986109
 20
22.5467517604
 11
-8.9066024382
 21
22.9176222329
  0
LINE
  5
478
100
AcDbEntity
  8
ASSI
100
AcDbLine
 62
7
  6
CONTINUOUS
 10
-7.4651419655
 20
23.9376805448
 11
-8.10223072
 21
24.3081441294
  0
LINE
  5
479
100
AcDbEntity
  8
ASSI
100
AcDbLine
 62
7
  6
CONTINUOUS
 10
-8.9066024382
 20
22.9176222329
 11
-9.5319783233
 21
23.2851733198
  0
LINE
  5
47A
100
AcDbEntity
  8
ASSI
100
AcDbLine
 62
7
  6
CONTINUOUS
 10
-8.10223072
 20
24.3081441294
 11
-8.7263715703
 21
24.6751580509
  0
LINE
  5
47B
100
AcDbEntity
  8
ASSI
100
AcDbLine
 62
7
  6
CONTINUOUS
 10
-9.5319783233
 20
23.2851733198
 11
-10.1443725058
 21
23.6493004953
  0
LINE
  5
47C
100
AcDbEntity
  8
ASSI
100
AcDbLine
 62
7
  6
CONTINUOUS
 10
-8.7263715703
 20
24.6751580509
 11
-9.3375645164
 21
25.0387223095
  0
LINE
  5
47D
100
AcDbEntity
  8
ASSI
100
AcDbLine
 62
7
  6
CONTINUOUS
 10
-10.1443725058
 20
23.6493004953
 11
-10.7411507791
 21
24.0082225001
  0
LINE
  5
47E
100
AcDbEntity
  8
ASSI
100
AcDbLine
 62
7
  6
CONTINUOUS
 10
-9.3375645164
 20
25.0387223095
 11
-9.9328550675
 21
25.3971450183
  0
LINE
  5
47F
100
AcDbEntity
  8
ASSI
100
AcDbLine
 62
7
  6
CONTINUOUS
 10
-10.7411507791
 20
24.0082225001
 11
-11.3252691968
 21
24.3635011947
  0
LINE
  5
480
100
AcDbEntity
  8
ASSI
100
AcDbLine
 62
7
  6
CONTINUOUS
 10
-9.9328550675
 20
25.3971450183
 11
-10.5151977144
 21
25.7521180641
  0
LINE
  5
481
100
AcDbEntity
  8
ASSI
100
AcDbLine
 62
7
  6
CONTINUOUS
 10
-11.3252691968
 20
24.3635011947
 11
-11.9051149672
 21
24.7201287592
  0
LINE
  5
482
100
AcDbEntity
  8
ASSI
100
AcDbLine
 62
7
  6
CONTINUOUS
 10
-10.5151977144
 20
25.7521180641
 11
-11.0934559292
 21
26.1087171071
  0
LINE
  5
483
100
AcDbEntity
  8
ASSI
100
AcDbLine
 62
7
  6
CONTINUOUS
 10
-11.9051149672
 20
24.7201287592
 11
-12.480200541
 21
25.0777758372
  0
LINE
  5
484
100
AcDbEntity
  8
ASSI
100
AcDbLine
 62
7
  6
CONTINUOUS
 10
-11.0934559292
 20
26.1087171071
 11
-11.6674761509
 21
26.4665821452
  0
LINE
  5
485
100
AcDbEntity
  8
ASSI
100
AcDbLine
 62
7
  6
CONTINUOUS
 10
-12.480200541
 20
25.0777758372
 11
-13.0510203994
 21
25.436731752
  0
LINE
  5
486
100
AcDbEntity
  8
ASSI
100
AcDbLine
 62
7
  6
CONTINUOUS
 10
-11.6674761509
 20
26.4665821452
 11
-12.2374119405
 21
26.8260731803
  0
LINE
  5
487
100
AcDbEntity
  8
ASSI
100
AcDbLine
 62
7
  6
CONTINUOUS
 10
-13.0510203994
 20
25.436731752
 11
-13.6271217729
 21
25.8030859024
  0
LINE
  5
488
100
AcDbEntity
  8
ASSI
100
AcDbLine
 62
7
  6
CONTINUOUS
 10
-12.2374119405
 20
26.8260731803
 11
-12.8125874536
 21
27.1933458792
  0
LINE
  5
489
100
AcDbEntity
  8
ASSI
100
AcDbLine
 62
7
  6
CONTINUOUS
 10
-12.8125874536
 20
27.1933458792
 11
-13.3961107421
 21
27.5704521307
  0
LINE
  5
48A
100
AcDbEntity
  8
ASSI
100
AcDbLine
 62
7
  6
CONTINUOUS
 10
-13.3961107421
 20
27.5704521307
 11
-13.984873754
 21
27.9553400459
  0
LINE
  5
48B
100
AcDbEntity
  8
ASSI
100
AcDbLine
 62
7
  6
CONTINUOUS
 10
-13.984873754
 20
27.9553400459
 11
-14.5788764895
 21
28.3480096248
  0
LINE
  5
48C
100
AcDbEntity
  8
ASSI
100
AcDbLine
 62
7
  6
CONTINUOUS
 10
16.0570020313
 20
10.659237412
 11
16.0930509615
 21
10.6351392235
  0
LINE
  5
48D
100
AcDbEntity
  8
ASSI
100
AcDbLine
 62
7
  6
CONTINUOUS
 10
16.3970080863
 20
10.1857285097
 11
16.4082330867
 21
10.1399306223
  0
LINE
  5
48E
100
AcDbEntity
  8
ASSI
100
AcDbLine
 62
7
  6
CONTINUOUS
 10
15.6032137737
 20
-8.4866217127
 11
15.5937025783
 21
-8.4401169513
  0
LINE
  5
48F
100
AcDbEntity
  8
ASSI
100
AcDbLine
 62
7
  6
CONTINUOUS
 10
16.4082330867
 20
10.1399306223
 11
16.4158190053
 21
10.0954705074
  0
LINE
  5
490
100
AcDbEntity
  8
ASSI
100
AcDbLine
 62
7
  6
CONTINUOUS
 10
15.9448479594
 20
-24.8896947958
 11
15.9396005657
 21
-24.8530841607
  0
LINE
  5
491
100
AcDbEntity
  8
ASSI
100
AcDbLine
 62
7
  6
CONTINUOUS
 10
15.2769707939
 20
-24.9684258973
 11
15.2683612348
 21
-24.9055840531
  0
LINE
  5
492
100
AcDbEntity
  8
ASSI
100
AcDbLine
 62
7
  6
CONTINUOUS
 10
14.9470653749
 20
-7.4076543191
 11
14.9521517555
 21
-7.4458660618
  0
LINE
  5
493
100
AcDbEntity
  8
ASSI
100
AcDbLine
 62
7
  6
CONTINUOUS
 10
15.6090664919
 20
-8.5316631104
 11
15.6032137737
 21
-8.4866217127
  0
LINE
  5
494
100
AcDbEntity
  8
ASSI
100
AcDbLine
 62
7
  6
CONTINUOUS
 10
16.4158190053
 20
10.0954705074
 11
16.4196828739
 21
10.052834431
  0
LINE
  5
495
100
AcDbEntity
  8
ASSI
100
AcDbLine
 62
7
  6
CONTINUOUS
 10
18.9960916116
 20
11.6164296525
 11
19.5427603363
 21
4.8852086506
  0
LINE
  5
496
100
AcDbEntity
  8
ASSI
100
AcDbLine
 62
7
  6
CONTINUOUS
 10
15.9396005657
 20
-24.8530841607
 11
15.9367867131
 21
-24.8144981899
  0
LINE
  5
497
100
AcDbEntity
  8
ASSI
100
AcDbLine
 62
7
  6
CONTINUOUS
 10
15.2683612348
 20
-24.9055840531
 11
15.2638544752
 21
-24.8397555869
  0
LINE
  5
498
100
AcDbEntity
  8
ASSI
100
AcDbLine
 62
7
  6
CONTINUOUS
 10
15.611234422
 20
-8.5747715795
 11
15.6090664919
 21
-8.5316631104
  0
LINE
  5
499
100
AcDbEntity
  8
ASSI
100
AcDbLine
 62
7
  6
CONTINUOUS
 10
14.944952215
 20
-7.3654270956
 11
14.9470653749
 21
-7.4076543191
  0
LINE
  5
49A
100
AcDbEntity
  8
ASSI
100
AcDbLine
 62
7
  6
CONTINUOUS
 10
15.9367867131
 20
-24.8144981899
 11
15.8847859248
 21
-23.4159628721
  0
LINE
  5
49B
100
AcDbEntity
  8
ASSI
100
AcDbLine
 62
7
  6
CONTINUOUS
 10
15.2638544784
 20
-24.8397555984
 11
15.212562195
 21
-23.440601925
  0
LINE
  5
49C
100
AcDbEntity
  8
ASSI
100
AcDbLine
 62
7
  6
CONTINUOUS
 10
13.583112451
 20
15.1126316723
 11
13.604316065
 21
14.4962078767
  0
LINE
  5
49D
100
AcDbEntity
  8
ASSI
100
AcDbLine
 62
7
  6
CONTINUOUS
 10
15.8847859248
 20
-23.4159628721
 11
15.8376718923
 21
-22.0377942926
  0
LINE
  5
49E
100
AcDbEntity
  8
ASSI
100
AcDbLine
 62
7
  6
CONTINUOUS
 10
15.212562195
 20
-23.440601925
 11
15.1664790369
 21
-22.0614778587
  0
LINE
  5
49F
100
AcDbEntity
  8
ASSI
100
AcDbLine
 62
7
  6
CONTINUOUS
 10
15.8376718923
 20
-22.0377942926
 11
15.7954446157
 21
-20.6799924515
  0
LINE
  5
4A0
100
AcDbEntity
  8
ASSI
100
AcDbLine
 62
7
  6
CONTINUOUS
 10
15.1664790369
 20
-22.0614778587
 11
15.125391487
 21
-20.7025343454
  0
LINE
  5
4A1
100
AcDbEntity
  8
ASSI
100
AcDbLine
 62
7
  6
CONTINUOUS
 10
15.7954446157
 20
-20.6799924515
 11
15.7583957018
 21
-19.3499316209
  0
LINE
  5
4A2
100
AcDbEntity
  8
ASSI
100
AcDbLine
 62
7
  6
CONTINUOUS
 10
15.125391487
 20
-20.7025343454
 11
15.0892804313
 21
-19.3713655891
  0
LINE
  5
4A3
100
AcDbEntity
  8
ASSI
100
AcDbLine
 62
7
  6
CONTINUOUS
 10
15.7583957018
 20
-19.3499316209
 11
15.7262335437
 21
-18.0402375286
  0
LINE
  5
4A4
100
AcDbEntity
  8
ASSI
100
AcDbLine
 62
7
  6
CONTINUOUS
 10
15.0892804313
 20
-19.3713655891
 11
15.0577043962
 21
-18.0606944131
  0
LINE
  5
4A5
100
AcDbEntity
  8
ASSI
100
AcDbLine
 62
7
  6
CONTINUOUS
 10
15.7262335437
 20
-18.0402375286
 11
15.6980833209
 21
-16.7287873584
  0
LINE
  5
4A6
100
AcDbEntity
  8
ASSI
100
AcDbLine
 62
7
  6
CONTINUOUS
 10
15.0577043962
 20
-18.0606944131
 11
15.0300194691
 21
-16.7482382455
  0
LINE
  5
4A7
100
AcDbEntity
  8
ASSI
100
AcDbLine
 62
7
  6
CONTINUOUS
 10
15.6980833209
 20
-16.7287873584
 11
15.6736700401
 21
-15.4157694856
  0
LINE
  5
4A8
100
AcDbEntity
  8
ASSI
100
AcDbLine
 62
7
  6
CONTINUOUS
 10
15.0300194691
 20
-16.7482382455
 11
15.006220083
 21
-15.4340516858
  0
LINE
  5
4A9
100
AcDbEntity
  8
ASSI
100
AcDbLine
 62
7
  6
CONTINUOUS
 10
15.6736700401
 20
-15.4157694856
 11
15.6532686946
 21
-14.1009955348
  0
LINE
  5
4AA
100
AcDbEntity
  8
ASSI
100
AcDbLine
 62
7
  6
CONTINUOUS
 10
15.006220083
 20
-15.4340516858
 11
14.9863023586
 21
-14.1181164232
  0
LINE
  5
4AB
100
AcDbEntity
  8
ASSI
100
AcDbLine
 62
7
  6
CONTINUOUS
 10
15.6532686946
 20
-14.1009955348
 11
15.636829444
 21
-12.7617775631
  0
LINE
  5
4AC
100
AcDbEntity
  8
ASSI
100
AcDbLine
 62
7
  6
CONTINUOUS
 10
14.9863023586
 20
-14.1181164232
 11
14.9700214964
 21
-12.7778010304
  0
LINE
  5
4AD
100
AcDbEntity
  8
ASSI
100
AcDbLine
 62
7
  6
CONTINUOUS
 10
14.9700214964
 20
-12.7778010304
 11
14.9575171474
 21
-11.4054413722
  0
LINE
  5
4AE
100
AcDbEntity
  8
ASSI
100
AcDbLine
 62
7
  6
CONTINUOUS
 10
15.636829444
 20
-12.7617775631
 11
15.624335675
 21
-11.3905529228
  0
LINE
  5
4AF
100
AcDbEntity
  8
ASSI
100
AcDbLine
 62
7
  6
CONTINUOUS
 10
15.624335675
 20
-11.3905529228
 11
15.615804001
 21
-9.9948842616
  0
LINE
  5
4B0
100
AcDbEntity
  8
ASSI
100
AcDbLine
 62
7
  6
CONTINUOUS
 10
14.9575171474
 20
-11.4054413722
 11
14.9490926319
 21
-10.0084726577
  0
LINE
  5
4B1
100
AcDbEntity
  8
ASSI
100
AcDbLine
 62
7
  6
CONTINUOUS
 10
14.9490926319
 20
-10.0084726577
 11
14.9449521736
 21
-8.5867932871
  0
LINE
  5
4B2
100
AcDbEntity
  8
ASSI
100
AcDbLine
 62
7
  6
CONTINUOUS
 10
5.4832818534
 20
19.2711251081
 11
5.4832818708
 21
19.2091518444
  0
LINE
  5
4B3
100
AcDbEntity
  8
ASSI
100
AcDbLine
 62
7
  6
CONTINUOUS
 10
13.4028778027
 20
14.6984496629
 11
13.4028778201
 21
14.6364763992
  0
LINE
  5
4B4
100
AcDbEntity
  8
0
100
AcDbLine
 62
7
  6
CONTINUOUS
 10
-7.9816793531
 20
-5.4250726321
 11
-7.9836717573
 21
-5.4430002584
  0
LINE
  5
4B5
100
AcDbEntity
  8
0
100
AcDbLine
 62
7
  6
CONTINUOUS
 10
-8.0340583251
 20
13.3412038646
 11
-8.0364735934
 21
13.3222753449
  0
LINE
  5
4B6
100
AcDbEntity
  8
0
100
AcDbLine
 62
7
  6
CONTINUOUS
 10
-7.9836717573
 20
-5.4430002584
 11
-7.9862182825
 21
-5.4605082031
  0
LINE
  5
4B7
100
AcDbEntity
  8
0
100
AcDbLine
 62
7
  6
CONTINUOUS
 10
-9.0843482307
 20
-2.6291129829
 11
-9.0816856613
 21
-2.6114316961
  0
LINE
  5
4B8
100
AcDbEntity
  8
0
100
AcDbLine
 62
7
  6
CONTINUOUS
 10
-8.0364735934
 20
13.3222753449
 11
-8.0394467468
 21
13.3037810081
  0
LINE
  5
4B9
100
AcDbEntity
  8
0
100
AcDbLine
 62
7
  6
CONTINUOUS
 10
-9.0316935658
 20
16.1631854736
 11
-9.0286054553
 21
16.1818625842
  0
LINE
  5
4BA
100
AcDbEntity
  8
0
100
AcDbLine
 62
7
  6
CONTINUOUS
 10
-7.9862182825
 20
-5.4605082031
 11
-7.9893205005
 21
-5.4775848016
  0
LINE
  5
4BB
100
AcDbEntity
  8
0
100
AcDbLine
 62
7
  6
CONTINUOUS
 10
-9.0816856613
 20
-2.6114316961
 11
-9.0784644868
 21
-2.5942008969
  0
LINE
  5
4BC
100
AcDbEntity
  8
0
100
AcDbLine
 62
7
  6
CONTINUOUS
 10
-8.0394467468
 20
13.3037810081
 11
-8.0429761744
 21
13.2857100716
  0
LINE
  5
4BD
100
AcDbEntity
  8
0
100
AcDbLine
 62
7
  6
CONTINUOUS
 10
-9.0286054553
 20
16.1818625842
 11
-9.0249623604
 21
16.2001060778
  0
LINE
  5
4BE
100
AcDbEntity
  8
ASSI
100
AcDbLine
 62
7
  6
CONTINUOUS
 10
-15.8098877189
 20
9.4313528184
 11
-15.8196970079
 21
9.3879227435
  0
LINE
  5
4BF
100
AcDbEntity
  8
ASSI
100
AcDbLine
 62
7
  6
CONTINUOUS
 10
-15.3505030988
 20
27.2477040473
 11
-15.3677749342
 21
27.1721380894
  0
LINE
  5
4C0
100
AcDbEntity
  8
ASSI
100
AcDbLine
 62
7
  6
CONTINUOUS
 10
-15.7018986796
 20
9.2022485675
 11
-15.6915426192
 21
9.2474957789
  0
LINE
  5
4C1
100
AcDbEntity
  8
ASSI
100
AcDbLine
 62
7
  6
CONTINUOUS
 10
-15.4590147589
 20
27.4930900798
 11
-15.4813131012
 21
27.4098332733
  0
LINE
  5
4C2
100
AcDbEntity
  8
ASSI
100
AcDbLine
 62
7
  6
CONTINUOUS
 10
-15.3292195417
 20
27.3239960833
 11
-15.3505030988
 21
27.2477040473
  0
LINE
  5
4C3
100
AcDbEntity
  8
ASSI
100
AcDbLine
 62
7
  6
CONTINUOUS
 10
16.2136408374
 20
-25.146984797
 11
16.1823555682
 21
-25.1445310738
  0
LINE
  5
4C4
100
AcDbEntity
  8
ASSI
100
AcDbLine
 62
7
  6
CONTINUOUS
 10
15.7791145729
 20
-25.4316468658
 11
15.8484455989
 21
-25.4371522131
  0
LINE
  5
4C5
100
AcDbEntity
  8
ASSI
100
AcDbLine
 62
7
  6
CONTINUOUS
 10
15.4809176639
 20
-24.9009464691
 11
15.5293661953
 21
-24.9049246544
  0
LINE
  5
4C6
100
AcDbEntity
  8
0
100
AcDbLine
 62
7
  6
CONTINUOUS
 10
-8.306261222
 20
-5.714172407
 11
-8.3223970371
 21
-5.7113893485
  0
LINE
  5
4C7
100
AcDbEntity
  8
ASSI
100
AcDbLine
 62
7
  6
CONTINUOUS
 10
15.1510810554
 20
-7.6316102372
 11
15.1985489885
 21
-7.6405310366
  0
LINE
  5
4C8
100
AcDbEntity
  8
0
100
AcDbLine
 62
7
  6
CONTINUOUS
 10
-8.3223970371
 20
-5.7113893485
 11
-8.3387217502
 21
-5.7078956135
  0
LINE
  5
4C9
100
AcDbEntity
  8
0
100
AcDbLine
 62
7
  6
CONTINUOUS
 10
-8.7424877921
 20
-2.3596219142
 11
-8.7260997395
 21
-2.3631521208
  0
LINE
  5
4CA
100
AcDbEntity
  8
ASSI
100
AcDbLine
 62
7
  6
CONTINUOUS
 10
15.114114679
 20
-8.6407691813
 11
15.0686019504
 21
-8.6309193696
  0
LINE
  5
4CB
100
AcDbEntity
  8
ASSI
100
AcDbLine
 62
7
  6
CONTINUOUS
 10
15.0686019509
 20
-7.4096464994
 11
15.1141146796
 21
-7.4195498389
  0
LINE
  5
4CC
100
AcDbEntity
  8
0
100
AcDbLine
 62
7
  6
CONTINUOUS
 10
-8.7260997395
 20
-2.3631521208
 11
-8.7095315257
 21
-2.3673983556
  0
LINE
  5
4CD
100
AcDbEntity
  8
0
100
AcDbLine
 62
7
  6
CONTINUOUS
 10
-8.4521590007
 20
13.0334526617
 11
-8.4691445111
 21
13.0389040114
  0
LINE
  5
4CE
100
AcDbEntity
  8
0
100
AcDbLine
 62
7
  6
CONTINUOUS
 10
-8.4691445111
 20
13.0389040114
 11
-8.4862002095
 21
13.0450543394
  0
LINE
  5
4CF
100
AcDbEntity
  8
0
100
AcDbLine
 62
7
  6
CONTINUOUS
 10
-8.5954522123
 20
16.447503861
 11
-8.5782809631
 21
16.4412573058
  0
LINE
  5
4D0
100
AcDbEntity
  8
ASSI
100
AcDbLine
 62
7
  6
CONTINUOUS
 10
15.3024745202
 20
9.2336998974
 11
15.3438992311
 21
9.217927071
  0
LINE
  5
4D1
100
AcDbEntity
  8
0
100
AcDbLine
 62
7
  6
CONTINUOUS
 10
-8.5782809631
 20
16.4412573058
 11
-8.5610339324
 21
16.4343024921
  0
LINE
  5
4D2
100
AcDbEntity
  8
ASSI
100
AcDbLine
 62
7
  6
CONTINUOUS
 10
15.2638629454
 20
9.2515819044
 11
15.3024745202
 21
9.2336998974
  0
LINE
  5
4D3
100
AcDbEntity
  8
ASSI
100
AcDbLine
 62
7
  6
CONTINUOUS
 10
-14.5788764896
 20
28.3480096248
 11
-14.616651356
 21
28.3665362993
  0
LINE
  5
4D4
100
AcDbEntity
  8
ASSI
100
AcDbLine
 62
7
  6
CONTINUOUS
 10
15.615804001
 20
-9.9948842616
 11
15.611234422
 21
-8.5747715795
  0
LINE
  5
4D5
100
AcDbEntity
  8
ASSI
100
AcDbLine
 62
7
  6
CONTINUOUS
 10
19.5427603363
 20
4.8852086506
 11
19.5427603363
 21
-5.239100495
  0
LINE
  5
4D6
100
AcDbEntity
  8
ASSI
100
AcDbLine
 62
7
  6
CONTINUOUS
 10
19.5427603363
 20
-16.5063126013
 11
19.5427603363
 21
-6.3820034557
  0
LINE
  5
4D7
100
AcDbEntity
  8
ASSI
100
AcDbLine
 62
7
  6
CONTINUOUS
 10
15.6112344225
 20
-7.354657675
 11
15.616195225
 21
-5.6714635364
  0
LINE
  5
4D8
100
AcDbEntity
  8
ASSI
100
AcDbLine
 62
7
  6
CONTINUOUS
 10
14.9449521736
 20
-7.3654270913
 11
14.9503143205
 21
-5.6802581758
  0
LINE
  5
4D9
100
AcDbEntity
  8
ASSI
100
AcDbLine
 62
7
  6
CONTINUOUS
 10
14.9503143205
 20
-5.6802581758
 11
14.9621294536
 21
-3.9648246708
  0
LINE
  5
4DA
100
AcDbEntity
  8
ASSI
100
AcDbLine
 62
7
  6
CONTINUOUS
 10
15.616195225
 20
-5.6714635364
 11
15.6283595452
 21
-3.9578506813
  0
LINE
  5
4DB
100
AcDbEntity
  8
ASSI
100
AcDbLine
 62
7
  6
CONTINUOUS
 10
14.9621294536
 20
-3.9648246708
 11
14.9806954236
 21
-2.2189899815
  0
LINE
  5
4DC
100
AcDbEntity
  8
ASSI
100
AcDbLine
 62
7
  6
CONTINUOUS
 10
15.6283595452
 20
-3.9578506813
 11
15.647727383
 21
-2.2138191097
  0
LINE
  5
4DD
100
AcDbEntity
  8
ASSI
100
AcDbLine
 62
7
  6
CONTINUOUS
 10
14.9806954236
 20
-2.2189899815
 11
15.00610258
 21
-0.4554242598
  0
LINE
  5
4DE
100
AcDbEntity
  8
ASSI
100
AcDbLine
 62
7
  6
CONTINUOUS
 10
15.647727383
 20
-2.2138191097
 11
15.6734995357
 21
-0.4524302655
  0
LINE
  5
4DF
100
AcDbEntity
  8
ASSI
100
AcDbLine
 62
7
  6
CONTINUOUS
 10
15.00610258
 20
-0.4554242598
 11
15.0387711604
 21
1.338759622
  0
LINE
  5
4E0
100
AcDbEntity
  8
ASSI
100
AcDbLine
 62
7
  6
CONTINUOUS
 10
15.6734995357
 20
-0.4524302655
 11
15.7064752061
 21
1.3393772953
  0
LINE
  5
4E1
100
AcDbEntity
  8
ASSI
100
AcDbLine
 62
7
  6
CONTINUOUS
 10
15.0387711604
 20
1.338759622
 11
15.0799449649
 21
3.2022786189
  0
LINE
  5
4E2
100
AcDbEntity
  8
ASSI
100
AcDbLine
 62
7
  6
CONTINUOUS
 10
15.7064752061
 20
1.3393772953
 11
15.7490520022
 21
3.2007879038
  0
LINE
  5
4E3
100
AcDbEntity
  8
ASSI
100
AcDbLine
 62
7
  6
CONTINUOUS
 10
15.0799449649
 20
3.2022786189
 11
15.1307681887
 21
5.1484080087
  0
LINE
  5
4E4
100
AcDbEntity
  8
ASSI
100
AcDbLine
 62
7
  6
CONTINUOUS
 10
15.7490520022
 20
3.2007879038
 11
15.8020291266
 21
5.1448630038
  0
LINE
  5
4E5
100
AcDbEntity
  8
ASSI
100
AcDbLine
 62
7
  6
CONTINUOUS
 10
15.1307681887
 20
5.1484080087
 11
15.191791714
 21
7.1647079264
  0
LINE
  5
4E6
100
AcDbEntity
  8
ASSI
100
AcDbLine
 62
7
  6
CONTINUOUS
 10
15.8020291266
 20
5.1448630038
 11
15.8646073766
 21
7.1585411516
  0
LINE
  5
4E7
100
AcDbEntity
  8
ASSI
100
AcDbLine
 62
7
  6
CONTINUOUS
 10
15.191791714
 20
7.1647079264
 11
15.2638544744
 21
9.2515767259
  0
LINE
  5
4E8
100
AcDbEntity
  8
ASSI
100
AcDbLine
 62
7
  6
CONTINUOUS
 10
15.8646073766
 20
7.1585411516
 11
15.9367867524
 21
9.2418223472
  0
LINE
  5
4E9
100
AcDbEntity
  8
ASSI
100
AcDbLine
 62
7
  6
CONTINUOUS
 10
14.9449522145
 20
-8.5867932915
 11
14.9470651275
 21
-8.542494938
  0
LINE
  5
4EA
100
AcDbEntity
  8
ASSI
100
AcDbLine
 62
7
  6
CONTINUOUS
 10
15.6112344225
 20
-7.354657675
 11
15.6090664887
 21
-7.3958839139
  0
LINE
  5
4EB
100
AcDbEntity
  8
ASSI
100
AcDbLine
 62
7
  6
CONTINUOUS
 10
15.2638545336
 20
9.2515767827
 11
15.2683612919
 21
9.3229280952
  0
LINE
  5
4EC
100
AcDbEntity
  8
ASSI
100
AcDbLine
 62
7
  6
CONTINUOUS
 10
15.9367867524
 20
9.2418223472
 11
15.9396006221
 21
9.2834918603
  0
LINE
  5
4ED
100
AcDbEntity
  8
0
100
AcDbLine
 62
7
  6
CONTINUOUS
 10
-7.9893205005
 20
-5.4775848016
 11
-7.9929799828
 21
-5.4942183892
  0
LINE
  5
4EE
100
AcDbEntity
  8
0
100
AcDbLine
 62
7
  6
CONTINUOUS
 10
-9.0784644868
 20
-2.5942008969
 11
-9.0746866751
 21
-2.5774402249
  0
LINE
  5
4EF
100
AcDbEntity
  8
0
100
AcDbLine
 62
7
  6
CONTINUOUS
 10
-8.0429761744
 20
13.2857100716
 11
-8.0470595386
 21
13.2680578847
  0
LINE
  5
4F0
100
AcDbEntity
  8
0
100
AcDbLine
 62
7
  6
CONTINUOUS
 10
-9.0249623604
 20
16.2001060778
 11
-9.0207673105
 21
16.2178957309
  0
LINE
  5
4F1
100
AcDbEntity
  8
0
100
AcDbLine
 62
7
  6
CONTINUOUS
 10
-7.9929799828
 20
-5.4942183892
 11
-7.9971967993
 21
-5.5103949328
  0
LINE
  5
4F2
100
AcDbEntity
  8
0
100
AcDbLine
 62
7
  6
CONTINUOUS
 10
-9.0746866751
 20
-2.5774402249
 11
-9.0703549694
 21
-2.5611686239
  0
LINE
  5
4F3
100
AcDbEntity
  8
0
100
AcDbLine
 62
7
  6
CONTINUOUS
 10
-8.0470595386
 20
13.2680578847
 11
-8.0516915931
 21
13.2508443226
  0
LINE
  5
4F4
100
AcDbEntity
  8
0
100
AcDbLine
 62
7
  6
CONTINUOUS
 10
-9.0207673105
 20
16.2178957309
 11
-9.0160233349
 21
16.2352113198
  0
LINE
  5
4F5
100
AcDbEntity
  8
ASSI
100
AcDbLine
 62
7
  6
CONTINUOUS
 10
-15.6915426192
 20
9.2474957789
 11
-15.6774975551
 21
9.2937790511
  0
LINE
  5
4F6
100
AcDbEntity
  8
0
100
AcDbLine
 62
7
  6
CONTINUOUS
 10
-9.0160233349
 20
16.2352113198
 11
-9.0107342252
 21
16.2520333216
  0
LINE
  5
4F7
100
AcDbEntity
  8
ASSI
100
AcDbLine
 62
7
  6
CONTINUOUS
 10
-15.7963598877
 20
9.4734520004
 11
-15.8098877189
 21
9.4313528184
  0
LINE
  5
4F8
100
AcDbEntity
  8
ASSI
100
AcDbLine
 62
7
  6
CONTINUOUS
 10
-15.432030211
 20
27.5755119762
 11
-15.4590147589
 21
27.4930900798
  0
LINE
  5
4F9
100
AcDbEntity
  8
ASSI
100
AcDbLine
 62
7
  6
CONTINUOUS
 10
-15.3040131089
 20
27.4006469693
 11
-15.3292195417
 21
27.3239960833
  0
LINE
  5
4FA
100
AcDbEntity
  8
ASSI
100
AcDbLine
 62
7
  6
CONTINUOUS
 10
-15.2750132148
 20
27.4772907814
 11
-15.3040131089
 21
27.4006469693
  0
LINE
  5
4FB
100
AcDbEntity
  8
ASSI
100
AcDbLine
 62
7
  6
CONTINUOUS
 10
-15.4005512533
 20
27.6568824941
 11
-15.432030211
 21
27.5755119762
  0
LINE
  5
4FC
100
AcDbEntity
  8
ASSI
100
AcDbLine
 62
7
  6
CONTINUOUS
 10
15.5784279293
 20
-24.9059956325
 11
15.6276271663
 21
-24.9041490193
  0
LINE
  5
4FD
100
AcDbEntity
  8
ASSI
100
AcDbLine
 62
7
  6
CONTINUOUS
 10
16.246107672
 20
-25.1462443162
 11
16.2136408374
 21
-25.146984797
  0
LINE
  5
4FE
100
AcDbEntity
  8
ASSI
100
AcDbLine
 62
7
  6
CONTINUOUS
 10
15.8484455989
 20
-25.4371522131
 11
15.9193492053
 21
-25.4366825427
  0
LINE
  5
4FF
100
AcDbEntity
  8
ASSI
100
AcDbLine
 62
7
  6
CONTINUOUS
 10
15.5293661953
 20
-24.9049246544
 11
15.5784279293
 21
-24.9059956325
  0
LINE
  5
500
100
AcDbEntity
  8
0
100
AcDbLine
 62
7
  6
CONTINUOUS
 10
-8.2746614861
 20
-5.7175825619
 11
-8.2903411258
 21
-5.716238553
  0
LINE
  5
501
100
AcDbEntity
  8
ASSI
100
AcDbLine
 62
7
  6
CONTINUOUS
 10
15.1985489885
 20
-7.6405310366
 11
15.2468290177
 21
-7.6448372953
  0
LINE
  5
502
100
AcDbEntity
  8
ASSI
100
AcDbLine
 62
7
  6
CONTINUOUS
 10
15.209034806
 20
-8.6525874611
 11
15.1610736392
 21
-8.6480147162
  0
LINE
  5
503
100
AcDbEntity
  8
ASSI
100
AcDbLine
 62
7
  6
CONTINUOUS
 10
15.1610736397
 20
-7.4268593548
 11
15.2090348065
 21
-7.4315059287
  0
LINE
  5
504
100
AcDbEntity
  8
0
100
AcDbLine
 62
7
  6
CONTINUOUS
 10
-8.2903411258
 20
-5.716238553
 11
-8.306261222
 21
-5.714172407
  0
LINE
  5
505
100
AcDbEntity
  8
0
100
AcDbLine
 62
7
  6
CONTINUOUS
 10
-8.7746552294
 20
-2.3547173359
 11
-8.7586786374
 21
-2.3568096734
  0
LINE
  5
506
100
AcDbEntity
  8
ASSI
100
AcDbLine
 62
7
  6
CONTINUOUS
 10
15.1610736392
 20
-8.6480147162
 11
15.114114679
 21
-8.6407691813
  0
LINE
  5
507
100
AcDbEntity
  8
ASSI
100
AcDbLine
 62
7
  6
CONTINUOUS
 10
15.1141146796
 20
-7.4195498389
 11
15.1610736397
 21
-7.4268593548
  0
LINE
  5
508
100
AcDbEntity
  8
0
100
AcDbLine
 62
7
  6
CONTINUOUS
 10
-8.7586786374
 20
-2.3568096734
 11
-8.7424877921
 21
-2.3596219142
  0
LINE
  5
509
100
AcDbEntity
  8
0
100
AcDbLine
 62
7
  6
CONTINUOUS
 10
-8.4184819743
 20
13.0246716698
 11
-8.4352631483
 21
13.0287058589
  0
LINE
  5
50A
100
AcDbEntity
  8
0
100
AcDbLine
 62
7
  6
CONTINUOUS
 10
-8.6463263877
 20
16.4619160906
 11
-8.6294933416
 21
16.4578406284
  0
LINE
  5
50B
100
AcDbEntity
  8
ASSI
100
AcDbLine
 62
7
  6
CONTINUOUS
 10
15.3877354345
 20
9.2044163548
 11
15.4335581056
 21
9.1932987452
  0
LINE
  5
50C
100
AcDbEntity
  8
ASSI
100
AcDbLine
 62
7
  6
CONTINUOUS
 10
-15.4428290404
 20
9.7475620888
 11
-15.4061626789
 21
9.7384977785
  0
LINE
  5
50D
100
AcDbEntity
  8
0
100
AcDbLine
 62
7
  6
CONTINUOUS
 10
-8.4352631483
 20
13.0287058589
 11
-8.4521590007
 21
13.0334526617
  0
LINE
  5
50E
100
AcDbEntity
  8
0
100
AcDbLine
 62
7
  6
CONTINUOUS
 10
-8.6294933416
 20
16.4578406284
 11
-8.6125291739
 21
16.4530342658
  0
LINE
  5
50F
100
AcDbEntity
  8
ASSI
100
AcDbLine
 62
7
  6
CONTINUOUS
 10
15.3438992311
 20
9.217927071
 11
15.3877354345
 21
9.2044163548
  0
LINE
  5
510
100
AcDbEntity
  8
0
100
AcDbLine
 62
7
  6
CONTINUOUS
 10
-8.6125291739
 20
16.4530342658
 11
-8.5954522123
 21
16.447503861
  0
LINE
  5
511
100
AcDbEntity
  8
ASSI
100
AcDbLine
 62
7
  6
CONTINUOUS
 10
-14.616651356
 20
28.3665362993
 11
-14.6538106361
 21
28.380518266
  0
LINE
  5
512
100
AcDbEntity
  8
ASSI
100
AcDbLine
 62
7
  6
CONTINUOUS
 10
18.9960916116
 20
-23.8365953291
 11
19.5427603363
 21
-16.5063126013
  0
LINE
  5
513
100
AcDbEntity
  8
ASSI
100
AcDbLine
 62
7
  6
CONTINUOUS
 10
16.4158190179
 20
-25.1388498923
 11
16.4196828
 21
-25.0963331701
  0
LINE
  5
514
100
AcDbEntity
  8
ASSI
100
AcDbLine
 62
7
  6
CONTINUOUS
 10
14.9470651275
 20
-8.542494938
 11
14.9521511693
 21
-8.4970192516
  0
LINE
  5
515
100
AcDbEntity
  8
ASSI
100
AcDbLine
 62
7
  6
CONTINUOUS
 10
15.2683612919
 20
9.3229280952
 11
15.2769708506
 21
9.3961666215
  0
LINE
  5
516
100
AcDbEntity
  8
ASSI
100
AcDbLine
 62
7
  6
CONTINUOUS
 10
15.9396006221
 20
9.2834918603
 11
15.9448480288
 21
9.3258528085
  0
LINE
  5
517
100
AcDbEntity
  8
ASSI
100
AcDbLine
 62
7
  6
CONTINUOUS
 10
15.6090664887
 20
-7.3958839139
 11
15.6032137616
 21
-7.4345535379
  0
LINE
  5
518
100
AcDbEntity
  8
ASSI
100
AcDbLine
 62
7
  6
CONTINUOUS
 10
15.2769708506
 20
9.3961666215
 11
15.2896428908
 21
9.470929367
  0
LINE
  5
519
100
AcDbEntity
  8
ASSI
100
AcDbLine
 62
7
  6
CONTINUOUS
 10
15.9448480288
 20
9.3258528085
 11
15.9525289724
 21
9.3689051919
  0
LINE
  5
51A
100
AcDbEntity
  8
0
100
AcDbLine
 62
7
  6
CONTINUOUS
 10
-7.9971967993
 20
-5.5103949328
 11
-8.0019650112
 21
-5.5260909239
  0
LINE
  5
51B
100
AcDbEntity
  8
0
100
AcDbLine
 62
7
  6
CONTINUOUS
 10
-8.0516915931
 20
13.2508443226
 11
-8.0568663648
 21
13.2340953919
  0
LINE
  5
51C
100
AcDbEntity
  8
0
100
AcDbLine
 62
7
  6
CONTINUOUS
 10
-9.0703549694
 20
-2.5611686239
 11
-9.0654752135
 21
-2.5454022548
  0
LINE
  5
51D
100
AcDbEntity
  8
0
100
AcDbLine
 62
7
  6
CONTINUOUS
 10
-8.0568663648
 20
13.2340953919
 11
-8.0625778804
 21
13.2178370993
  0
LINE
  5
51E
100
AcDbEntity
  8
0
100
AcDbLine
 62
7
  6
CONTINUOUS
 10
-9.0107342252
 20
16.2520333216
 11
-9.0049068236
 21
16.268345017
  0
LINE
  5
51F
100
AcDbEntity
  8
ASSI
100
AcDbLine
 62
7
  6
CONTINUOUS
 10
-15.6774975551
 20
9.2937790511
 11
-15.6596192627
 21
9.3407709922
  0
LINE
  5
520
100
AcDbEntity
  8
0
100
AcDbLine
 62
7
  6
CONTINUOUS
 10
-9.0049068236
 20
16.268345017
 11
-8.9985487343
 21
16.2841303875
  0
LINE
  5
521
100
AcDbEntity
  8
ASSI
100
AcDbLine
 62
7
  6
CONTINUOUS
 10
-15.7792919117
 20
9.5139249399
 11
-15.7963598877
 21
9.4734520004
  0
LINE
  5
522
100
AcDbEntity
  8
ASSI
100
AcDbLine
 62
7
  6
CONTINUOUS
 10
-15.2423676439
 20
27.5535468576
 11
-15.2750132148
 21
27.4772907814
  0
LINE
  5
523
100
AcDbEntity
  8
ASSI
100
AcDbLine
 62
7
  6
CONTINUOUS
 10
-10.246386075
 20
28.8714854674
 11
-10.4266207233
 21
28.457303458
  0
LINE
  5
524
100
AcDbEntity
  8
ASSI
100
AcDbLine
 62
7
  6
CONTINUOUS
 10
-15.3647353277
 20
27.7369679591
 11
-15.4005512533
 21
27.6568824941
  0
LINE
  5
525
100
AcDbEntity
  8
ASSI
100
AcDbLine
 62
7
  6
CONTINUOUS
 10
-15.2062197752
 20
27.6290267966
 11
-15.2423676439
 21
27.5535468576
  0
LINE
  5
526
100
AcDbEntity
  8
ASSI
100
AcDbLine
 62
7
  6
CONTINUOUS
 10
16.279723188
 20
-25.1423641837
 11
16.246107672
 21
-25.1462443162
  0
LINE
  5
527
100
AcDbEntity
  8
ASSI
100
AcDbLine
 62
7
  6
CONTINUOUS
 10
15.6276271663
 20
-24.9041490193
 11
15.6764868732
 21
-24.8994027194
  0
LINE
  5
528
100
AcDbEntity
  8
ASSI
100
AcDbLine
 62
7
  6
CONTINUOUS
 10
15.9193492053
 20
-25.4366825427
 11
15.9915020998
 21
-25.4300867824
  0
LINE
  5
529
100
AcDbEntity
  8
ASSI
100
AcDbLine
 62
7
  6
CONTINUOUS
 10
15.2575446789
 20
-8.6544441721
 11
15.209034806
 21
-8.6525874611
  0
LINE
  5
52A
100
AcDbEntity
  8
ASSI
100
AcDbLine
 62
7
  6
CONTINUOUS
 10
15.2090348065
 20
-7.4315059287
 11
15.2575446794
 21
-7.4334456188
  0
LINE
  5
52B
100
AcDbEntity
  8
0
100
AcDbLine
 62
7
  6
CONTINUOUS
 10
-8.2592387094
 20
-5.7182032534
 11
-8.2746614861
 21
-5.7175825619
  0
LINE
  5
52C
100
AcDbEntity
  8
0
100
AcDbLine
 62
7
  6
CONTINUOUS
 10
-8.8058974691
 20
-2.3527001213
 11
-8.790400522
 21
-2.3533468394
  0
LINE
  5
52D
100
AcDbEntity
  8
0
100
AcDbLine
 62
7
  6
CONTINUOUS
 10
-8.790400522
 20
-2.3533468394
 11
-8.7746552294
 21
-2.3547173359
  0
LINE
  5
52E
100
AcDbEntity
  8
ASSI
100
AcDbLine
 62
7
  6
CONTINUOUS
 10
-15.478229551
 20
9.7516951549
 11
-15.4428290404
 21
9.7475620888
  0
LINE
  5
52F
100
AcDbEntity
  8
0
100
AcDbLine
 62
7
  6
CONTINUOUS
 10
-8.3853637435
 20
13.018773402
 11
-8.4018404992
 21
13.0213581618
  0
LINE
  5
530
100
AcDbEntity
  8
ASSI
100
AcDbLine
 62
7
  6
CONTINUOUS
 10
15.4335581056
 20
9.1932987452
 11
15.4809229591
 21
9.1846820358
  0
LINE
  5
531
100
AcDbEntity
  8
0
100
AcDbLine
 62
7
  6
CONTINUOUS
 10
-8.4018404992
 20
13.0213581618
 11
-8.4184819743
 21
13.0246716698
  0
LINE
  5
532
100
AcDbEntity
  8
0
100
AcDbLine
 62
7
  6
CONTINUOUS
 10
-8.6630106982
 20
16.4652579287
 11
-8.6463263877
 21
16.4619160906
  0
LINE
  5
533
100
AcDbEntity
  8
ASSI
100
AcDbLine
 62
7
  6
CONTINUOUS
 10
-14.6538106361
 20
28.380518266
 11
-14.6899479083
 21
28.3898026163
  0
LINE
  5
534
100
AcDbEntity
  8
ASSI
100
AcDbLine
 62
7
  6
CONTINUOUS
 10
14.9521511693
 20
-8.4970192516
 11
14.9603353309
 21
-8.4505197707
  0
LINE
  5
535
100
AcDbEntity
  8
ASSI
100
AcDbLine
 62
7
  6
CONTINUOUS
 10
16.4082332801
 20
-25.1786114217
 11
16.4158190179
 21
-25.1388498923
  0
LINE
  5
536
100
AcDbEntity
  8
ASSI
100
AcDbLine
 62
7
  6
CONTINUOUS
 10
15.2896428908
 20
9.470929367
 11
15.3063232476
 21
9.5468368373
  0
LINE
  5
537
100
AcDbEntity
  8
ASSI
100
AcDbLine
 62
7
  6
CONTINUOUS
 10
15.9525289724
 20
9.3689051919
 11
15.96270476
 21
9.4128857483
  0
LINE
  5
538
100
AcDbEntity
  8
ASSI
100
AcDbLine
 62
7
  6
CONTINUOUS
 10
14.9603353309
 20
-8.4505197707
 11
14.9721498486
 21
-8.4029502718
  0
LINE
  5
539
100
AcDbEntity
  8
ASSI
100
AcDbLine
 62
7
  6
CONTINUOUS
 10
15.3063232476
 20
9.5468368373
 11
15.3269285163
 21
9.6235205061
  0
LINE
  5
53A
100
AcDbEntity
  8
0
100
AcDbLine
 62
7
  6
CONTINUOUS
 10
-8.0019650112
 20
-5.5260909239
 11
-8.0072771774
 21
-5.5412804857
  0
LINE
  5
53B
100
AcDbEntity
  8
0
100
AcDbLine
 62
7
  6
CONTINUOUS
 10
-9.0654752135
 20
-2.5454022548
 11
-9.0600540267
 21
-2.5301565828
  0
LINE
  5
53C
100
AcDbEntity
  8
0
100
AcDbLine
 62
7
  6
CONTINUOUS
 10
-8.0625778804
 20
13.2178370993
 11
-8.0688201666
 21
13.2020954515
  0
LINE
  5
53D
100
AcDbEntity
  8
0
100
AcDbLine
 62
7
  6
CONTINUOUS
 10
-8.0072771774
 20
-5.5412804857
 11
-8.0131258572
 21
-5.5559377411
  0
LINE
  5
53E
100
AcDbEntity
  8
0
100
AcDbLine
 62
7
  6
CONTINUOUS
 10
-9.0600540267
 20
-2.5301565828
 11
-9.0540980281
 21
-2.5154470731
  0
LINE
  5
53F
100
AcDbEntity
  8
ASSI
100
AcDbLine
 62
7
  6
CONTINUOUS
 10
-2.3267901257
 20
24.2988100221
 11
-2.507024774
 21
23.8846280128
  0
LINE
  5
540
100
AcDbEntity
  8
0
100
AcDbLine
 62
7
  6
CONTINUOUS
 10
-8.0688201666
 20
13.2020954515
 11
-8.0755872504
 21
13.1868964553
  0
LINE
  5
541
100
AcDbEntity
  8
0
100
AcDbLine
 62
7
  6
CONTINUOUS
 10
-8.9985487343
 20
16.2841303875
 11
-8.9916675618
 21
16.2993734146
  0
LINE
  5
542
100
AcDbEntity
  8
ASSI
100
AcDbLine
 62
7
  6
CONTINUOUS
 10
-15.6596192627
 20
9.3407709922
 11
-15.6377908532
 21
9.3870598585
  0
LINE
  5
543
100
AcDbEntity
  8
ASSI
100
AcDbLine
 62
7
  6
CONTINUOUS
 10
-15.3248390204
 20
27.8152580442
 11
-15.3647353277
 21
27.7369679591
  0
LINE
  5
544
100
AcDbEntity
  8
ASSI
100
AcDbLine
 62
7
  6
CONTINUOUS
 10
-15.1667582806
 20
27.7033649442
 11
-15.2062197752
 21
27.6290267966
  0
LINE
  5
545
100
AcDbEntity
  8
ASSI
100
AcDbLine
 62
7
  6
CONTINUOUS
 10
-15.2810233986
 20
27.8915059304
 11
-15.3248390204
 21
27.8152580442
  0
LINE
  5
546
100
AcDbEntity
  8
ASSI
100
AcDbLine
 62
7
  6
CONTINUOUS
 10
-15.1241839168
 20
27.7761995359
 11
-15.1667582806
 21
27.7033649442
  0
LINE
  5
547
100
AcDbEntity
  8
ASSI
100
AcDbLine
 62
7
  6
CONTINUOUS
 10
15.9915020998
 20
-25.4300867824
 11
16.0645106501
 21
-25.4172658004
  0
LINE
  5
548
100
AcDbEntity
  8
ASSI
100
AcDbLine
 62
7
  6
CONTINUOUS
 10
15.6764868732
 20
-24.8994027194
 11
15.7245333092
 21
-24.8918027527
  0
LINE
  5
549
100
AcDbEntity
  8
ASSI
100
AcDbLine
 62
7
  6
CONTINUOUS
 10
15.3543747325
 20
-8.6499650957
 11
15.3061445238
 21
-8.653567286
  0
LINE
  5
54A
100
AcDbEntity
  8
ASSI
100
AcDbLine
 62
7
  6
CONTINUOUS
 10
15.3061445244
 20
-7.4326600772
 11
15.354374733
 21
-7.4291567327
  0
LINE
  5
54B
100
AcDbEntity
  8
ASSI
100
AcDbLine
 62
7
  6
CONTINUOUS
 10
15.3061445238
 20
-8.653567286
 11
15.2575446789
 21
-8.6544441721
  0
LINE
  5
54C
100
AcDbEntity
  8
ASSI
100
AcDbLine
 62
7
  6
CONTINUOUS
 10
15.2575446794
 20
-7.4334456188
 11
15.3061445244
 21
-7.4326600772
  0
LINE
  5
54D
100
AcDbEntity
  8
ASSI
100
AcDbLine
 62
7
  6
CONTINUOUS
 10
15.2468290177
 20
-7.6448372953
 11
15.2954553827
 21
-7.6444395276
  0
LINE
  5
54E
100
AcDbEntity
  8
0
100
AcDbLine
 62
7
  6
CONTINUOUS
 10
-8.2440871191
 20
-5.718100458
 11
-8.2592387094
 21
-5.7182032534
  0
LINE
  5
54F
100
AcDbEntity
  8
0
100
AcDbLine
 62
7
  6
CONTINUOUS
 10
-8.8211290248
 20
-2.3527791192
 11
-8.8058974691
 21
-2.3527001213
  0
LINE
  5
550
100
AcDbEntity
  8
0
100
AcDbLine
 62
7
  6
CONTINUOUS
 10
-8.3530027336
 20
13.0158207277
 11
-8.3690767278
 21
13.0169254573
  0
LINE
  5
551
100
AcDbEntity
  8
ASSI
100
AcDbLine
 62
7
  6
CONTINUOUS
 10
15.5293707573
 20
9.1786497718
 11
15.5784317625
 21
9.1752604404
  0
LINE
  5
552
100
AcDbEntity
  8
0
100
AcDbLine
 62
7
  6
CONTINUOUS
 10
-8.3690767278
 20
13.0169254573
 11
-8.3853637435
 21
13.018773402
  0
LINE
  5
553
100
AcDbEntity
  8
0
100
AcDbLine
 62
7
  6
CONTINUOUS
 10
-8.69586337
 20
16.4697339726
 11
-8.6795288375
 21
16.4678644527
  0
LINE
  5
554
100
AcDbEntity
  8
ASSI
100
AcDbLine
 62
7
  6
CONTINUOUS
 10
15.4809229591
 20
9.1846820358
 11
15.5293707573
 21
9.1786497718
  0
LINE
  5
555
100
AcDbEntity
  8
0
100
AcDbLine
 62
7
  6
CONTINUOUS
 10
-8.6795288375
 20
16.4678644527
 11
-8.6630106982
 21
16.4652579287
  0
LINE
  5
556
100
AcDbEntity
  8
ASSI
100
AcDbLine
 62
7
  6
CONTINUOUS
 10
15.6032137616
 20
-7.4345535379
 11
15.5937025546
 21
-7.4702207967
  0
LINE
  5
557
100
AcDbEntity
  8
ASSI
100
AcDbLine
 62
7
  6
CONTINUOUS
 10
15.96270476
 20
9.4128857483
 11
15.9753140846
 21
9.4575577399
  0
LINE
  5
558
100
AcDbEntity
  8
ASSI
100
AcDbLine
 62
7
  6
CONTINUOUS
 10
14.9721498486
 20
-8.4029502718
 11
14.987481359
 21
-8.3544893422
  0
LINE
  5
559
100
AcDbEntity
  8
ASSI
100
AcDbLine
 62
7
  6
CONTINUOUS
 10
15.3269285163
 20
9.6235205061
 11
15.3513490337
 21
9.7006251674
  0
LINE
  5
55A
100
AcDbEntity
  8
ASSI
100
AcDbLine
 62
7
  6
CONTINUOUS
 10
15.9753140846
 20
9.4575577399
 11
15.9901730248
 21
9.5022109528
  0
LINE
  5
55B
100
AcDbEntity
  8
ASSI
100
AcDbLine
 62
7
  6
CONTINUOUS
 10
15.3513490337
 20
9.7006251674
 11
15.3794785787
 21
9.7777715073
  0
LINE
  5
55C
100
AcDbEntity
  8
ASSI
100
AcDbLine
 62
7
  6
CONTINUOUS
 10
5.6635165017
 20
19.6853071175
 11
5.4832818534
 21
19.2711251081
  0
LINE
  5
55D
100
AcDbEntity
  8
0
100
AcDbLine
 62
7
  6
CONTINUOUS
 10
-8.0131258572
 20
-5.5559377411
 11
-8.0195037247
 21
-5.5700390776
  0
LINE
  5
55E
100
AcDbEntity
  8
0
100
AcDbLine
 62
7
  6
CONTINUOUS
 10
-9.0540980281
 20
-2.5154470731
 11
-9.0476138368
 21
-2.5012891908
  0
LINE
  5
55F
100
AcDbEntity
  8
0
100
AcDbLine
 62
7
  6
CONTINUOUS
 10
-8.0755872504
 20
13.1868964553
 11
-8.0828726389
 21
13.1722637483
  0
LINE
  5
560
100
AcDbEntity
  8
0
100
AcDbLine
 62
7
  6
CONTINUOUS
 10
-8.9916675618
 20
16.2993734146
 11
-8.9842709106
 21
16.3140580797
  0
LINE
  5
561
100
AcDbEntity
  8
ASSI
100
AcDbLine
 62
7
  6
CONTINUOUS
 10
-15.7587912881
 20
9.5526524735
 11
-15.7792919117
 21
9.5139249399
  0
LINE
  5
562
100
AcDbEntity
  8
ASSI
100
AcDbLine
 62
7
  6
CONTINUOUS
 10
-15.6377908532
 20
9.3870598585
 11
-15.6128080738
 21
9.4321734892
  0
LINE
  5
563
100
AcDbEntity
  8
0
100
AcDbLine
 62
7
  6
CONTINUOUS
 10
-8.0828726389
 20
13.1722637483
 11
-8.0906677621
 21
13.1582114922
  0
LINE
  5
564
100
AcDbEntity
  8
0
100
AcDbLine
 62
7
  6
CONTINUOUS
 10
-8.9842709106
 20
16.3140580797
 11
-8.976366385
 21
16.3281683644
  0
LINE
  5
565
100
AcDbEntity
  8
ASSI
100
AcDbLine
 62
7
  6
CONTINUOUS
 10
-15.0786841364
 20
27.8471569131
 11
-15.1241839168
 21
27.7761995359
  0
LINE
  5
566
100
AcDbEntity
  8
ASSI
100
AcDbLine
 62
7
  6
CONTINUOUS
 10
-15.2334083387
 20
27.9654396359
 11
-15.2810233986
 21
27.8915059304
  0
LINE
  5
567
100
AcDbEntity
  8
ASSI
100
AcDbLine
 62
7
  6
CONTINUOUS
 10
16.0645106501
 20
-25.4172658004
 11
16.1384524985
 21
-25.3980141372
  0
LINE
  5
568
100
AcDbEntity
  8
ASSI
100
AcDbLine
 62
7
  6
CONTINUOUS
 10
15.7245333092
 20
-24.8918027527
 11
15.7713006187
 21
-24.881422808
  0
LINE
  5
569
100
AcDbEntity
  8
ASSI
100
AcDbLine
 62
7
  6
CONTINUOUS
 10
16.3139429067
 20
-25.135424948
 11
16.279723188
 21
-25.1423641837
  0
LINE
  5
56A
100
AcDbEntity
  8
ASSI
100
AcDbLine
 62
7
  6
CONTINUOUS
 10
15.4017792155
 20
-8.643671671
 11
15.3543747325
 21
-8.6499650957
  0
LINE
  5
56B
100
AcDbEntity
  8
ASSI
100
AcDbLine
 62
7
  6
CONTINUOUS
 10
15.354374733
 20
-7.4291567327
 11
15.401779216
 21
-7.4229687207
  0
LINE
  5
56C
100
AcDbEntity
  8
0
100
AcDbLine
 62
7
  6
CONTINUOUS
 10
-8.2146548407
 20
-5.7157244144
 11
-8.2292210387
 21
-5.7172740064
  0
LINE
  5
56D
100
AcDbEntity
  8
ASSI
100
AcDbLine
 62
7
  6
CONTINUOUS
 10
15.2954553827
 20
-7.6444395276
 11
15.3439728721
 21
-7.6392951892
  0
LINE
  5
56E
100
AcDbEntity
  8
0
100
AcDbLine
 62
7
  6
CONTINUOUS
 10
-8.2292210387
 20
-5.7172740064
 11
-8.2440871191
 21
-5.718100458
  0
LINE
  5
56F
100
AcDbEntity
  8
0
100
AcDbLine
 62
7
  6
CONTINUOUS
 10
-8.836078143
 20
-2.3535857707
 11
-8.8211290248
 21
-2.3527791192
  0
LINE
  5
570
100
AcDbEntity
  8
ASSI
100
AcDbLine
 62
7
  6
CONTINUOUS
 10
15.5784317625
 20
9.1752604404
 11
15.6276302914
 21
9.1745469039
  0
LINE
  5
571
100
AcDbEntity
  8
0
100
AcDbLine
 62
7
  6
CONTINUOUS
 10
-8.3371580874
 20
13.0154589434
 11
-8.3530027336
 21
13.0158207277
  0
LINE
  5
572
100
AcDbEntity
  8
0
100
AcDbLine
 62
7
  6
CONTINUOUS
 10
-8.7279118723
 20
16.4712552398
 11
-8.7119968601
 21
16.4708647983
  0
LINE
  5
573
100
AcDbEntity
  8
0
100
AcDbLine
 62
7
  6
CONTINUOUS
 10
-8.7119968601
 20
16.4708647983
 11
-8.69586337
 21
16.4697339726
  0
LINE
  5
574
100
AcDbEntity
  8
ASSI
100
AcDbLine
 62
7
  6
CONTINUOUS
 10
-14.6899479083
 20
28.3898026163
 11
-14.7246679418
 21
28.3942878227
  0
LINE
  5
575
100
AcDbEntity
  8
ASSI
100
AcDbLine
 62
7
  6
CONTINUOUS
 10
16.3970085255
 20
-25.2151828731
 11
16.4082332801
 21
-25.1786114217
  0
LINE
  5
576
100
AcDbEntity
  8
ASSI
100
AcDbLine
 62
7
  6
CONTINUOUS
 10
14.987481359
 20
-8.3544893422
 11
15.0054716155
 21
-8.30598548
  0
LINE
  5
577
100
AcDbEntity
  8
ASSI
100
AcDbLine
 62
7
  6
CONTINUOUS
 10
15.9901730248
 20
9.5022109528
 11
16.007313747
 21
9.5468272293
  0
LINE
  5
578
100
AcDbEntity
  8
ASSI
100
AcDbLine
 62
7
  6
CONTINUOUS
 10
15.3794785787
 20
9.7777715073
 11
15.4111834648
 21
9.8545707224
  0
LINE
  5
579
100
AcDbEntity
  8
ASSI
100
AcDbLine
 62
7
  6
CONTINUOUS
 10
16.007313747
 20
9.5468272293
 11
16.0267040849
 21
9.5914247271
  0
LINE
  5
57A
100
AcDbEntity
  8
ASSI
100
AcDbLine
 62
7
  6
CONTINUOUS
 10
13.583112451
 20
15.1126316723
 11
13.4028778027
 21
14.6984496629
  0
LINE
  5
57B
100
AcDbEntity
  8
0
100
AcDbLine
 62
7
  6
CONTINUOUS
 10
-8.0195037247
 20
-5.5700390776
 11
-8.0264039145
 21
-5.58356994
  0
LINE
  5
57C
100
AcDbEntity
  8
0
100
AcDbLine
 62
7
  6
CONTINUOUS
 10
-9.0476138368
 20
-2.5012891908
 11
-9.040608072
 21
-2.4876984012
  0
LINE
  5
57D
100
AcDbEntity
  8
0
100
AcDbLine
 62
7
  6
CONTINUOUS
 10
-9.040608072
 20
-2.4876984012
 11
-9.0330873529
 21
-2.4746901695
  0
LINE
  5
57E
100
AcDbEntity
  8
0
100
AcDbLine
 62
7
  6
CONTINUOUS
 10
-8.0906677621
 20
13.1582114922
 11
-8.0989635301
 21
13.1447514798
  0
LINE
  5
57F
100
AcDbEntity
  8
0
100
AcDbLine
 62
7
  6
CONTINUOUS
 10
-8.976366385
 20
16.3281683644
 11
-8.9679615894
 21
16.3416882502
  0
LINE
  5
580
100
AcDbEntity
  8
ASSI
100
AcDbLine
 62
7
  6
CONTINUOUS
 10
-15.6128080738
 20
9.4321734892
 11
-15.5849700555
 21
9.4761702984
  0
LINE
  5
581
100
AcDbEntity
  8
ASSI
100
AcDbLine
 62
7
  6
CONTINUOUS
 10
-15.7350494606
 20
9.5893368109
 11
-15.7587912881
 21
9.5526524735
  0
LINE
  5
582
100
AcDbEntity
  8
ASSI
100
AcDbLine
 62
7
  6
CONTINUOUS
 10
-15.0304947906
 20
27.9158964377
 11
-15.0786841364
 21
27.8471569131
  0
LINE
  5
583
100
AcDbEntity
  8
ASSI
100
AcDbLine
 62
7
  6
CONTINUOUS
 10
-15.1822714797
 20
28.0365541976
 11
-15.2334083387
 21
27.9654396359
  0
LINE
  5
584
100
AcDbEntity
  8
ASSI
100
AcDbLine
 62
7
  6
CONTINUOUS
 10
-14.9798635462
 20
27.9820826589
 11
-15.0304947906
 21
27.9158964377
  0
LINE
  5
585
100
AcDbEntity
  8
ASSI
100
AcDbLine
 62
7
  6
CONTINUOUS
 10
15.3439728721
 20
-7.6392951892
 11
15.3919317099
 21
-7.6294019251
  0
LINE
  5
586
100
AcDbEntity
  8
ASSI
100
AcDbLine
 62
7
  6
CONTINUOUS
 10
15.4479097375
 20
-8.6347465257
 11
15.4017792155
 21
-8.643671671
  0
LINE
  5
587
100
AcDbEntity
  8
ASSI
100
AcDbLine
 62
7
  6
CONTINUOUS
 10
15.401779216
 20
-7.4229687207
 11
15.4479097381
 21
-7.4141545581
  0
LINE
  5
588
100
AcDbEntity
  8
0
100
AcDbLine
 62
7
  6
CONTINUOUS
 10
-8.2004030936
 20
-5.7134549377
 11
-8.2146548407
 21
-5.7157244144
  0
LINE
  5
589
100
AcDbEntity
  8
0
100
AcDbLine
 62
7
  6
CONTINUOUS
 10
-8.8650644328
 20
-2.3573814903
 11
-8.8507282214
 21
-2.3551209766
  0
LINE
  5
58A
100
AcDbEntity
  8
0
100
AcDbLine
 62
7
  6
CONTINUOUS
 10
-8.8507282214
 20
-2.3551209766
 11
-8.836078143
 21
-2.3535857707
  0
LINE
  5
58B
100
AcDbEntity
  8
ASSI
100
AcDbLine
 62
7
  6
CONTINUOUS
 10
15.6764893274
 20
9.1765160804
 11
15.7245351454
 21
9.1811488774
  0
LINE
  5
58C
100
AcDbEntity
  8
ASSI
100
AcDbLine
 62
7
  6
CONTINUOUS
 10
15.6276302914
 20
9.1745469039
 11
15.6764893274
 21
9.1765160804
  0
LINE
  5
58D
100
AcDbEntity
  8
ASSI
100
AcDbLine
 62
7
  6
CONTINUOUS
 10
-15.511971115
 20
9.7508504696
 11
-15.478229551
 21
9.7516951549
  0
LINE
  5
58E
100
AcDbEntity
  8
0
100
AcDbLine
 62
7
  6
CONTINUOUS
 10
-8.3215573769
 20
13.0158381673
 11
-8.3371580874
 21
13.0154589434
  0
LINE
  5
58F
100
AcDbEntity
  8
0
100
AcDbLine
 62
7
  6
CONTINUOUS
 10
-8.7435909711
 20
16.4709036072
 11
-8.7279118723
 21
16.4712552398
  0
LINE
  5
590
100
AcDbEntity
  8
ASSI
100
AcDbLine
 62
7
  6
CONTINUOUS
 10
15.5937025546
 20
-7.4702207967
 11
15.5805835977
 21
-7.5024990704
  0
LINE
  5
591
100
AcDbEntity
  8
ASSI
100
AcDbLine
 62
7
  6
CONTINUOUS
 10
15.0054716155
 20
-8.30598548
 11
15.0262774011
 21
-8.25846064
  0
LINE
  5
592
100
AcDbEntity
  8
ASSI
100
AcDbLine
 62
7
  6
CONTINUOUS
 10
15.4111834648
 20
9.8545707224
 11
15.4462891568
 21
9.9306524004
  0
LINE
  5
593
100
AcDbEntity
  8
ASSI
100
AcDbLine
 62
7
  6
CONTINUOUS
 10
16.0267040849
 20
9.5914247271
 11
16.0480636189
 21
9.6353477065
  0
LINE
  5
594
100
AcDbEntity
  8
ASSI
100
AcDbLine
 62
7
  6
CONTINUOUS
 10
15.4462891568
 20
9.9306524004
 11
15.4846363689
 21
10.0056339197
  0
LINE
  5
595
100
AcDbEntity
  8
ASSI
100
AcDbLine
 62
7
  6
CONTINUOUS
 10
16.0480636189
 20
9.6353477065
 11
16.0714237717
 21
9.6785891531
  0
LINE
  5
596
100
AcDbEntity
  8
0
100
AcDbLine
 62
7
  6
CONTINUOUS
 10
-8.0264039145
 20
-5.58356994
 11
-8.0338196765
 21
-5.5965180378
  0
LINE
  5
597
100
AcDbEntity
  8
0
100
AcDbLine
 62
7
  6
CONTINUOUS
 10
-8.0338196765
 20
-5.5965180378
 11
-8.0417442602
 21
-5.6088710802
  0
LINE
  5
598
100
AcDbEntity
  8
0
100
AcDbLine
 62
7
  6
CONTINUOUS
 10
-9.0330873529
 20
-2.4746901695
 11
-9.0250582986
 21
-2.4622799609
  0
LINE
  5
599
100
AcDbEntity
  8
0
100
AcDbLine
 62
7
  6
CONTINUOUS
 10
-8.0989635301
 20
13.1447514798
 11
-8.1077508534
 21
13.1318955038
  0
LINE
  5
59A
100
AcDbEntity
  8
0
100
AcDbLine
 62
7
  6
CONTINUOUS
 10
-8.9679615894
 20
16.3416882502
 11
-8.9590641284
 21
16.3546017186
  0
LINE
  5
59B
100
AcDbEntity
  8
ASSI
100
AcDbLine
 62
7
  6
CONTINUOUS
 10
-15.5849700555
 20
9.4761702984
 11
-15.5539464665
 21
9.5181360497
  0
LINE
  5
59C
100
AcDbEntity
  8
0
100
AcDbLine
 62
7
  6
CONTINUOUS
 10
-8.9590641284
 20
16.3546017186
 11
-8.9496822969
 21
16.3668936343
  0
LINE
  5
59D
100
AcDbEntity
  8
ASSI
100
AcDbLine
 62
7
  6
CONTINUOUS
 10
-15.1277257634
 20
28.1045956266
 11
-15.1822714797
 21
28.0365541976
  0
LINE
  5
59E
100
AcDbEntity
  8
ASSI
100
AcDbLine
 62
7
  6
CONTINUOUS
 10
-14.9270170777
 20
28.0453669205
 11
-14.9798635462
 21
27.9820826589
  0
LINE
  5
59F
100
AcDbEntity
  8
ASSI
100
AcDbLine
 62
7
  6
CONTINUOUS
 10
15.492330109
 20
-8.6232740541
 11
15.4479097375
 21
-8.6347465257
  0
LINE
  5
5A0
100
AcDbEntity
  8
ASSI
100
AcDbLine
 62
7
  6
CONTINUOUS
 10
15.4479097381
 20
-7.4141545581
 11
15.4923301095
 21
-7.4027975898
  0
LINE
  5
5A1
100
AcDbEntity
  8
0
100
AcDbLine
 62
7
  6
CONTINUOUS
 10
-8.1864804147
 20
-5.7104695169
 11
-8.2004030936
 21
-5.7134549377
  0
LINE
  5
5A2
100
AcDbEntity
  8
0
100
AcDbLine
 62
7
  6
CONTINUOUS
 10
-8.879072394
 20
-2.3603630286
 11
-8.8650644328
 21
-2.3573814903
  0
LINE
  5
5A3
100
AcDbEntity
  8
ASSI
100
AcDbLine
 62
7
  6
CONTINUOUS
 10
15.7245351454
 20
9.1811488774
 11
15.7713019053
 21
9.1884003764
  0
LINE
  5
5A4
100
AcDbEntity
  8
0
100
AcDbLine
 62
7
  6
CONTINUOUS
 10
-8.2911461138
 20
13.0188118913
 11
-8.3062151899
 21
13.0169564623
  0
LINE
  5
5A5
100
AcDbEntity
  8
0
100
AcDbLine
 62
7
  6
CONTINUOUS
 10
-8.3062151899
 20
13.0169564623
 11
-8.3215573769
 21
13.0158381673
  0
LINE
  5
5A6
100
AcDbEntity
  8
0
100
AcDbLine
 62
7
  6
CONTINUOUS
 10
-8.7590167207
 20
16.4698082102
 11
-8.7435909711
 21
16.4709036072
  0
LINE
  5
5A7
100
AcDbEntity
  8
ASSI
100
AcDbLine
 62
7
  6
CONTINUOUS
 10
-14.7246679418
 20
28.3942878227
 11
-14.7575909871
 21
28.393924844
  0
LINE
  5
5A8
100
AcDbEntity
  8
ASSI
100
AcDbLine
 62
7
  6
CONTINUOUS
 10
16.3822674952
 20
-25.2481642431
 11
16.3970085255
 21
-25.2151828731
  0
LINE
  5
5A9
100
AcDbEntity
  8
ASSI
100
AcDbLine
 62
7
  6
CONTINUOUS
 10
15.0262774011
 20
-8.25846064
 11
15.050104198
 21
-8.212147783
  0
LINE
  5
5AA
100
AcDbEntity
  8
ASSI
100
AcDbLine
 62
7
  6
CONTINUOUS
 10
15.4846363689
 20
10.0056339197
 11
15.5260458193
 21
10.0791411165
  0
LINE
  5
5AB
100
AcDbEntity
  8
ASSI
100
AcDbLine
 62
7
  6
CONTINUOUS
 10
16.0714237717
 20
9.6785891531
 11
16.0967531207
 21
9.7211560812
  0
LINE
  5
5AC
100
AcDbEntity
  8
ASSI
100
AcDbLine
 62
7
  6
CONTINUOUS
 10
15.5260458193
 20
10.0791411165
 11
15.5702902689
 21
10.1508233047
  0
LINE
  5
5AD
100
AcDbEntity
  8
0
100
AcDbLine
 62
7
  6
CONTINUOUS
 10
-8.0417442602
 20
-5.6088710802
 11
-8.0501702635
 21
-5.6206170552
  0
LINE
  5
5AE
100
AcDbEntity
  8
0
100
AcDbLine
 62
7
  6
CONTINUOUS
 10
-9.0250582986
 20
-2.4622799609
 11
-9.016528241
 21
-2.450482368
  0
LINE
  5
5AF
100
AcDbEntity
  8
0
100
AcDbLine
 62
7
  6
CONTINUOUS
 10
-8.1077508534
 20
13.1318955038
 11
-8.1170206423
 21
13.1196553569
  0
LINE
  5
5B0
100
AcDbEntity
  8
ASSI
100
AcDbLine
 62
7
  6
CONTINUOUS
 10
-15.7083327134
 20
9.6236468626
 11
-15.7350494606
 21
9.5893368109
  0
LINE
  5
5B1
100
AcDbEntity
  8
0
100
AcDbLine
 62
7
  6
CONTINUOUS
 10
-8.1170206423
 20
13.1196553569
 11
-8.1267638072
 21
13.1080428318
  0
LINE
  5
5B2
100
AcDbEntity
  8
0
100
AcDbLine
 62
7
  6
CONTINUOUS
 10
-8.9496822969
 20
16.3668936343
 11
-8.9398271522
 21
16.3785523948
  0
LINE
  5
5B3
100
AcDbEntity
  8
ASSI
100
AcDbLine
 62
7
  6
CONTINUOUS
 10
-15.5539464665
 20
9.5181360497
 11
-15.5205151041
 21
9.5576152616
  0
LINE
  5
5B4
100
AcDbEntity
  8
ASSI
100
AcDbLine
 62
7
  6
CONTINUOUS
 10
-15.0698535707
 20
28.1692618933
 11
-15.1277257634
 21
28.1045956266
  0
LINE
  5
5B5
100
AcDbEntity
  8
ASSI
100
AcDbLine
 62
7
  6
CONTINUOUS
 10
-14.87223329
 20
28.1054422916
 11
-14.9270170777
 21
28.0453669205
  0
LINE
  5
5B6
100
AcDbEntity
  8
ASSI
100
AcDbLine
 62
7
  6
CONTINUOUS
 10
-14.8157920062
 20
28.162023089
 11
-14.87223329
 21
28.1054422916
  0
LINE
  5
5B7
100
AcDbEntity
  8
ASSI
100
AcDbLine
 62
7
  6
CONTINUOUS
 10
-15.0088397314
 20
28.230139622
 11
-15.0698535707
 21
28.1692618933
  0
LINE
  5
5B8
100
AcDbEntity
  8
0
100
AcDbLine
 62
7
  6
CONTINUOUS
 10
-8.1729014218
 20
-5.706772093
 11
-8.1864804147
 21
-5.7104695169
  0
LINE
  5
5B9
100
AcDbEntity
  8
0
100
AcDbLine
 62
7
  6
CONTINUOUS
 10
-8.8927377215
 20
-2.3640613082
 11
-8.879072394
 21
-2.3603630286
  0
LINE
  5
5BA
100
AcDbEntity
  8
ASSI
100
AcDbLine
 62
7
  6
CONTINUOUS
 10
15.7713019053
 20
9.1884003764
 11
15.8163361682
 21
9.1982002686
  0
LINE
  5
5BB
100
AcDbEntity
  8
ASSI
100
AcDbLine
 62
7
  6
CONTINUOUS
 10
16.702756738
 20
13.3113881593
 11
16.030111873
 21
13.1815176376
  0
LINE
  5
5BC
100
AcDbEntity
  8
ASSI
100
AcDbLine
 62
7
  6
CONTINUOUS
 10
-15.5436740034
 20
9.7450395976
 11
-15.511971115
 21
9.7508504696
  0
LINE
  5
5BD
100
AcDbEntity
  8
0
100
AcDbLine
 62
7
  6
CONTINUOUS
 10
-8.2763647365
 20
13.0214025173
 11
-8.2911461138
 21
13.0188118913
  0
LINE
  5
5BE
100
AcDbEntity
  8
0
100
AcDbLine
 62
7
  6
CONTINUOUS
 10
-8.7741720855
 20
16.467968417
 11
-8.7590167207
 21
16.4698082102
  0
LINE
  5
5BF
100
AcDbEntity
  8
ASSI
100
AcDbLine
 62
7
  6
CONTINUOUS
 10
15.050104198
 20
-8.212147783
 11
15.0759826792
 21
-8.1672107938
  0
LINE
  5
5C0
100
AcDbEntity
  8
ASSI
100
AcDbLine
 62
7
  6
CONTINUOUS
 10
15.5805835977
 20
-7.5024990704
 11
15.5639740068
 21
-7.5309566677
  0
LINE
  5
5C1
100
AcDbEntity
  8
ASSI
100
AcDbLine
 62
7
  6
CONTINUOUS
 10
16.0967531207
 20
9.7211560812
 11
16.1236769781
 21
9.762413793
  0
LINE
  5
5C2
100
AcDbEntity
  8
ASSI
100
AcDbLine
 62
7
  6
CONTINUOUS
 10
15.5702902689
 20
10.1508233047
 11
15.617168788
 21
10.2203196831
  0
LINE
  5
5C3
100
AcDbEntity
  8
ASSI
100
AcDbLine
 62
7
  6
CONTINUOUS
 10
16.1236769781
 20
9.762413793
 11
16.1522190572
 21
9.8023412773
  0
LINE
  5
5C4
100
AcDbEntity
  8
ASSI
100
AcDbLine
 62
7
  6
CONTINUOUS
 10
15.617168788
 20
10.2203196831
 11
15.6664610657
 21
10.2872790058
  0
LINE
  5
5C5
100
AcDbEntity
  8
0
100
AcDbLine
 62
7
  6
CONTINUOUS
 10
-8.0501702635
 20
-5.6206170552
 11
-8.059087676
 21
-5.6317450649
  0
LINE
  5
5C6
100
AcDbEntity
  8
0
100
AcDbLine
 62
7
  6
CONTINUOUS
 10
-9.016528241
 20
-2.450482368
 11
-9.0075073631
 21
-2.4393084929
  0
LINE
  5
5C7
100
AcDbEntity
  8
ASSI
100
AcDbLine
 62
7
  6
CONTINUOUS
 10
-15.678795574
 20
9.6554468743
 11
-15.7083327134
 21
9.6236468626
  0
LINE
  5
5C8
100
AcDbEntity
  8
0
100
AcDbLine
 62
7
  6
CONTINUOUS
 10
-8.1267638072
 20
13.1080428318
 11
-8.1369707844
 21
13.0970695276
  0
LINE
  5
5C9
100
AcDbEntity
  8
0
100
AcDbLine
 62
7
  6
CONTINUOUS
 10
-8.9398271522
 20
16.3785523948
 11
-8.9295104423
 21
16.3895672809
  0
LINE
  5
5CA
100
AcDbEntity
  8
ASSI
100
AcDbLine
 62
7
  6
CONTINUOUS
 10
-15.5205151041
 20
9.5576152616
 11
-15.4853733206
 21
9.5944578428
  0
LINE
  5
5CB
100
AcDbEntity
  8
ASSI
100
AcDbLine
 62
7
  6
CONTINUOUS
 10
-14.7579379978
 20
28.2148159248
 11
-14.8157920062
 21
28.162023089
  0
LINE
  5
5CC
100
AcDbEntity
  8
ASSI
100
AcDbLine
 62
7
  6
CONTINUOUS
 10
-14.9447070168
 20
28.2869304843
 11
-15.0088397314
 21
28.230139622
  0
LINE
  5
5CD
100
AcDbEntity
  8
0
100
AcDbLine
 62
7
  6
CONTINUOUS
 10
-8.2618857254
 20
13.0247258908
 11
-8.2763647365
 21
13.0214025173
  0
LINE
  5
5CE
100
AcDbEntity
  8
0
100
AcDbLine
 62
7
  6
CONTINUOUS
 10
-8.8036103145
 20
16.4620711002
 11
-8.7890416289
 21
16.4653878276
  0
LINE
  5
5CF
100
AcDbEntity
  8
ASSI
100
AcDbLine
 62
7
  6
CONTINUOUS
 10
8.7831607887
 20
17.8840636046
 11
8.1105159237
 21
17.7541930829
  0
LINE
  5
5D0
100
AcDbEntity
  8
ASSI
100
AcDbLine
 62
7
  6
CONTINUOUS
 10
0.7928541613
 20
22.4975665092
 11
0.1202092963
 21
22.3676959875
  0
LINE
  5
5D1
100
AcDbEntity
  8
0
100
AcDbLine
 62
7
  6
CONTINUOUS
 10
-8.7890416289
 20
16.4653878276
 11
-8.7741720855
 21
16.467968417
  0
LINE
  5
5D2
100
AcDbEntity
  8
ASSI
100
AcDbLine
 62
7
  6
CONTINUOUS
 10
16.3641713866
 20
-25.2771947947
 11
16.3822674952
 21
-25.2481642431
  0
LINE
  5
5D3
100
AcDbEntity
  8
ASSI
100
AcDbLine
 62
7
  6
CONTINUOUS
 10
15.0759826792
 20
-8.1672107938
 11
15.1038566657
 21
-8.1245217786
  0
LINE
  5
5D4
100
AcDbEntity
  8
ASSI
100
AcDbLine
 62
7
  6
CONTINUOUS
 10
16.1522190572
 20
9.8023412773
 11
16.1823556447
 21
9.8409595453
  0
LINE
  5
5D5
100
AcDbEntity
  8
ASSI
100
AcDbLine
 62
7
  6
CONTINUOUS
 10
15.6664610657
 20
10.2872790058
 11
15.7178920478
 21
10.3513805501
  0
LINE
  5
5D6
100
AcDbEntity
  8
0
100
AcDbLine
 62
7
  6
CONTINUOUS
 10
-8.059087676
 20
-5.6317450649
 11
-8.0684858356
 21
-5.6422444903
  0
LINE
  5
5D7
100
AcDbEntity
  8
0
100
AcDbLine
 62
7
  6
CONTINUOUS
 10
-9.0075073631
 20
-2.4393084929
 11
-8.9980065606
 21
-2.4287685653
  0
LINE
  5
5D8
100
AcDbEntity
  8
0
100
AcDbLine
 62
7
  6
CONTINUOUS
 10
-8.1369707844
 20
13.0970695276
 11
-8.1476301148
 21
13.0867462684
  0
LINE
  5
5D9
100
AcDbEntity
  8
0
100
AcDbLine
 62
7
  6
CONTINUOUS
 10
-8.9295104423
 20
16.3895672809
 11
-8.9187439151
 21
16.3999275735
  0
LINE
  5
5DA
100
AcDbEntity
  8
ASSI
100
AcDbLine
 62
7
  6
CONTINUOUS
 10
-14.6989549278
 20
28.2635597665
 11
-14.7579379978
 21
28.2148159248
  0
LINE
  5
5DB
100
AcDbEntity
  8
0
100
AcDbLine
 62
7
  6
CONTINUOUS
 10
-8.8178631056
 20
16.4580228927
 11
-8.8036103145
 21
16.4620711002
  0
LINE
  5
5DC
100
AcDbEntity
  8
ASSI
100
AcDbLine
 62
7
  6
CONTINUOUS
 10
-7.126741788
 20
27.0702419544
 11
-7.799386653
 21
26.9403714328
  0
LINE
  5
5DD
100
AcDbEntity
  8
ASSI
100
AcDbLine
 62
7
  6
CONTINUOUS
 10
-14.7575909871
 20
28.393924844
 11
-14.7883569355
 21
28.3887176755
  0
LINE
  5
5DE
100
AcDbEntity
  8
ASSI
100
AcDbLine
 62
7
  6
CONTINUOUS
 10
15.1038566657
 20
-8.1245217786
 11
15.1338391634
 21
-8.084698792
  0
LINE
  5
5DF
100
AcDbEntity
  8
ASSI
100
AcDbLine
 62
7
  6
CONTINUOUS
 10
15.5639740068
 20
-7.5309566677
 11
15.5440940176
 21
-7.5551669929
  0
LINE
  5
5E0
100
AcDbEntity
  8
ASSI
100
AcDbLine
 62
7
  6
CONTINUOUS
 10
16.1823556447
 20
9.8409595453
 11
16.2136409137
 21
9.8776969332
  0
LINE
  5
5E1
100
AcDbEntity
  8
ASSI
100
AcDbLine
 62
7
  6
CONTINUOUS
 10
15.7178920478
 20
10.3513805501
 11
15.7712214714
 21
10.4122956506
  0
LINE
  5
5E2
100
AcDbEntity
  8
ASSI
100
AcDbLine
 62
7
  6
CONTINUOUS
 10
16.2136409137
 20
9.8776969332
 11
16.2461077479
 21
9.9125349243
  0
LINE
  5
5E3
100
AcDbEntity
  8
ASSI
100
AcDbLine
 62
7
  6
CONTINUOUS
 10
15.7712214714
 20
10.4122956506
 11
15.8262031996
 21
10.4697191748
  0
LINE
  5
5E4
100
AcDbEntity
  8
0
100
AcDbLine
 62
7
  6
CONTINUOUS
 10
-8.0684858356
 20
-5.6422444903
 11
-8.0783540798
 21
-5.6521047121
  0
LINE
  5
5E5
100
AcDbEntity
  8
0
100
AcDbLine
 62
7
  6
CONTINUOUS
 10
-8.9980065606
 20
-2.4287685653
 11
-8.9880367291
 21
-2.4188728148
  0
LINE
  5
5E6
100
AcDbEntity
  8
ASSI
100
AcDbLine
 62
7
  6
CONTINUOUS
 10
-15.6466789535
 20
9.6845100683
 11
-15.678795574
 21
9.6554468743
  0
LINE
  5
5E7
100
AcDbEntity
  8
ASSI
100
AcDbLine
 62
7
  6
CONTINUOUS
 10
-15.4853733206
 20
9.5944578428
 11
-15.4481442593
 21
9.6280103873
  0
LINE
  5
5E8
100
AcDbEntity
  8
0
100
AcDbLine
 62
7
  6
CONTINUOUS
 10
-8.1476301148
 20
13.0867462684
 11
-8.1587298652
 21
13.0770836845
  0
LINE
  5
5E9
100
AcDbEntity
  8
0
100
AcDbLine
 62
7
  6
CONTINUOUS
 10
-8.9187439151
 20
16.3999275735
 11
-8.9075393185
 21
16.4096225533
  0
LINE
  5
5EA
100
AcDbEntity
  8
ASSI
100
AcDbLine
 62
7
  6
CONTINUOUS
 10
-14.8774317008
 20
28.3393191697
 11
-14.9447070168
 21
28.2869304843
  0
LINE
  5
5EB
100
AcDbEntity
  8
ASSI
100
AcDbLine
 62
7
  6
CONTINUOUS
 10
-14.6391643594
 20
28.3080284574
 11
-14.6989549278
 21
28.2635597665
  0
LINE
  5
5EC
100
AcDbEntity
  8
ASSI
100
AcDbLine
 62
7
  6
CONTINUOUS
 10
-14.83872318
 20
28.3663663031
 11
-14.8774317008
 21
28.3393191697
  0
LINE
  5
5ED
100
AcDbEntity
  8
ASSI
100
AcDbLine
 62
7
  6
CONTINUOUS
 10
15.1338391634
 20
-8.084698792
 11
15.1650286842
 21
-8.0476573783
  0
LINE
  5
5EE
100
AcDbEntity
  8
ASSI
100
AcDbLine
 62
7
  6
CONTINUOUS
 10
16.2461077479
 20
9.9125349243
 11
16.2797232635
 21
9.9454920353
  0
LINE
  5
5EF
100
AcDbEntity
  8
ASSI
100
AcDbLine
 62
7
  6
CONTINUOUS
 10
15.8262031996
 20
10.4697191748
 11
15.8825401904
 21
10.5233879166
  0
LINE
  5
5F0
100
AcDbEntity
  8
0
100
AcDbLine
 62
7
  6
CONTINUOUS
 10
-8.0783540798
 20
-5.6521047121
 11
-8.0886817465
 21
-5.6613151111
  0
LINE
  5
5F1
100
AcDbEntity
  8
0
100
AcDbLine
 62
7
  6
CONTINUOUS
 10
-8.9880367291
 20
-2.4188728148
 11
-8.9776087644
 21
-2.4096314709
  0
LINE
  5
5F2
100
AcDbEntity
  8
0
100
AcDbLine
 62
7
  6
CONTINUOUS
 10
-8.1587298652
 20
13.0770836845
 11
-8.1702581024
 21
13.0680924063
  0
LINE
  5
5F3
100
AcDbEntity
  8
0
100
AcDbLine
 62
7
  6
CONTINUOUS
 10
-8.9075393185
 20
16.4096225533
 11
-8.8959084005
 21
16.4186415012
  0
LINE
  5
5F4
100
AcDbEntity
  8
ASSI
100
AcDbLine
 62
7
  6
CONTINUOUS
 10
-15.4481442593
 20
9.6280103873
 11
-15.4092163636
 21
9.6578403806
  0
LINE
  5
5F5
100
AcDbEntity
  8
ASSI
100
AcDbLine
 62
7
  6
CONTINUOUS
 10
-15.612249847
 20
9.7106275622
 11
-15.6466789535
 21
9.6845100683
  0
LINE
  5
5F6
100
AcDbEntity
  8
ASSI
100
AcDbLine
 62
7
  6
CONTINUOUS
 10
-12.4044733601
 20
29.9987335599
 11
-14.8388470983
 21
28.3662912519
  0
LINE
  5
5F7
100
AcDbEntity
  8
ASSI
100
AcDbLine
 62
7
  6
CONTINUOUS
 10
-12.1549338611
 20
29.9734570394
 11
-14.5788764895
 21
28.3480096248
  0
LINE
  5
5F8
100
AcDbEntity
  8
ASSI
100
AcDbLine
 62
7
  6
CONTINUOUS
 10
-14.5788764896
 20
28.3480096248
 11
-14.6391643594
 21
28.3080284574
  0
LINE
  5
5F9
100
AcDbEntity
  8
ASSI
100
AcDbLine
 62
7
  6
CONTINUOUS
 10
16.3429180886
 20
-25.3019569994
 11
16.3641713866
 21
-25.2771947947
  0
LINE
  5
5FA
100
AcDbEntity
  8
ASSI
100
AcDbLine
 62
7
  6
CONTINUOUS
 10
15.1650286842
 20
-8.0476573783
 11
15.1970399854
 21
-8.0138320376
  0
LINE
  5
5FB
100
AcDbEntity
  8
ASSI
100
AcDbLine
 62
7
  6
CONTINUOUS
 10
16.2797232635
 20
9.9454920353
 11
16.3139429818
 21
9.9760521528
  0
LINE
  5
5FC
100
AcDbEntity
  8
ASSI
100
AcDbLine
 62
7
  6
CONTINUOUS
 10
15.8825401904
 20
10.5233879166
 11
15.9399571768
 21
10.5730359961
  0
LINE
  5
5FD
100
AcDbEntity
  8
ASSI
100
AcDbLine
 62
7
  6
CONTINUOUS
 10
16.3139429818
 20
9.9760521528
 11
16.3485854098
 21
10.004043239
  0
LINE
  5
5FE
100
AcDbEntity
  8
0
100
AcDbLine
 62
7
  6
CONTINUOUS
 10
-8.0886817465
 20
-5.6613151111
 11
-8.0994581734
 21
-5.6698650682
  0
LINE
  5
5FF
100
AcDbEntity
  8
0
100
AcDbLine
 62
7
  6
CONTINUOUS
 10
-8.9776087644
 20
-2.4096314709
 11
-8.9667335622
 21
-2.4010547632
  0
LINE
  5
600
100
AcDbEntity
  8
0
100
AcDbLine
 62
7
  6
CONTINUOUS
 10
-8.1702581024
 20
13.0680924063
 11
-8.1822028934
 21
13.0597830642
  0
LINE
  5
601
100
AcDbEntity
  8
0
100
AcDbLine
 62
7
  6
CONTINUOUS
 10
-8.8959084005
 20
16.4186415012
 11
-8.883862909
 21
16.4269736978
  0
LINE
  5
602
100
AcDbEntity
  8
ASSI
100
AcDbLine
 62
7
  6
CONTINUOUS
 10
-15.4092163636
 20
9.6578403806
 11
-15.3697800935
 21
9.683883377
  0
LINE
  5
603
100
AcDbEntity
  8
ASSI
100
AcDbLine
 62
7
  6
CONTINUOUS
 10
-15.5907092725
 20
9.7247400206
 11
-15.612249847
 21
9.7106275622
  0
LINE
  5
604
100
AcDbEntity
  8
ASSI
100
AcDbLine
 62
7
  6
CONTINUOUS
 10
-14.816629302
 20
28.3787233032
 11
-14.8387268611
 21
28.3663718005
  0
LINE
  5
605
100
AcDbEntity
  8
ASSI
100
AcDbLine
 62
7
  6
CONTINUOUS
 10
15.1970399854
 20
-8.0138320376
 11
15.2300617418
 21
-7.9840835524
  0
LINE
  5
606
100
AcDbEntity
  8
ASSI
100
AcDbLine
 62
7
  6
CONTINUOUS
 10
15.5440940176
 20
-7.5551669929
 11
15.5211911752
 21
-7.5748425794
  0
LINE
  5
607
100
AcDbEntity
  8
ASSI
100
AcDbLine
 62
7
  6
CONTINUOUS
 10
15.9399571768
 20
10.5730359961
 11
15.9982013809
 21
10.6183975401
  0
LINE
  5
608
100
AcDbEntity
  8
ASSI
100
AcDbLine
 62
7
  6
CONTINUOUS
 10
16.3485854098
 20
10.004043239
 11
16.3838320405
 21
10.0296373317
  0
LINE
  5
609
100
AcDbEntity
  8
0
100
AcDbLine
 62
7
  6
CONTINUOUS
 10
-8.0994581734
 20
-5.6698650682
 11
-8.1106726981
 21
-5.6777439642
  0
LINE
  5
60A
100
AcDbEntity
  8
0
100
AcDbLine
 62
7
  6
CONTINUOUS
 10
-8.9667335622
 20
-2.4010547632
 11
-8.9554220181
 21
-2.3931529214
  0
LINE
  5
60B
100
AcDbEntity
  8
ASSI
100
AcDbLine
 62
7
  6
CONTINUOUS
 10
-15.5906589886
 20
9.7247711475
 11
-15.3060304148
 21
9.9008956065
  0
LINE
  5
60C
100
AcDbEntity
  8
ASSI
100
AcDbLine
 62
7
  6
CONTINUOUS
 10
-15.3306471005
 20
9.7060271674
 11
-15.167551567
 21
9.806948562
  0
LINE
  5
60D
100
AcDbEntity
  8
0
100
AcDbLine
 62
7
  6
CONTINUOUS
 10
-8.1822028934
 20
13.0597830642
 11
-8.1945523049
 21
13.0521662887
  0
LINE
  5
60E
100
AcDbEntity
  8
0
100
AcDbLine
 62
7
  6
CONTINUOUS
 10
-8.883862909
 20
16.4269736978
 11
-8.8714145918
 21
16.434608424
  0
LINE
  5
60F
100
AcDbEntity
  8
ASSI
100
AcDbLine
 62
7
  6
CONTINUOUS
 10
15.2300617418
 20
-7.9840835524
 11
15.2639718379
 21
-7.9589223614
  0
LINE
  5
610
100
AcDbEntity
  8
ASSI
100
AcDbLine
 62
7
  6
CONTINUOUS
 10
15.9982013809
 20
10.6183975401
 11
16.0570020313
 21
10.659237412
  0
LINE
  5
611
100
AcDbEntity
  8
ASSI
100
AcDbLine
 62
7
  6
CONTINUOUS
 10
16.3838320405
 20
10.0296373317
 11
16.4196828739
 21
10.052834431
  0
LINE
  5
612
100
AcDbEntity
  8
0
100
AcDbLine
 62
7
  6
CONTINUOUS
 10
-8.9554220181
 20
-2.3931529214
 11
-8.9436850279
 21
-2.385936175
  0
LINE
  5
613
100
AcDbEntity
  8
ASSI
100
AcDbLine
 62
7
  6
CONTINUOUS
 10
-15.3697800935
 20
9.683883377
 11
-15.3306470952
 21
9.7060271706
  0
LINE
  5
614
100
AcDbEntity
  8
0
100
AcDbLine
 62
7
  6
CONTINUOUS
 10
-8.1945523049
 20
13.0521662887
 11
-8.2072938815
 21
13.0452517733
  0
LINE
  5
615
100
AcDbEntity
  8
ASSI
100
AcDbLine
 62
7
  6
CONTINUOUS
 10
-15.5906589886
 20
9.7247711475
 11
-15.5729863024
 21
9.7343327674
  0
LINE
  5
616
100
AcDbEntity
  8
0
100
AcDbLine
 62
7
  6
CONTINUOUS
 10
-8.8714145918
 20
16.434608424
 11
-8.8585757452
 21
16.4415359708
  0
LINE
  5
617
100
AcDbEntity
  8
ASSI
100
AcDbLine
 62
7
  6
CONTINUOUS
 10
16.3187400209
 20
-25.3221800024
 11
16.3429180886
 21
-25.3019569994
  0
LINE
  5
618
100
AcDbEntity
  8
0
100
AcDbLine
 62
7
  6
CONTINUOUS
 10
-8.1106726981
 20
-5.6777439642
 11
-8.1223146585
 21
-5.6849411799
  0
LINE
  5
619
100
AcDbEntity
  8
ASSI
100
AcDbLine
 62
7
  6
CONTINUOUS
 10
16.0570020313
 20
10.6592374121
 11
18.6113045241
 21
12.2094165873
  0
LINE
  5
61A
100
AcDbEntity
  8
ASSI
100
AcDbLine
 62
7
  6
CONTINUOUS
 10
16.4196828739
 20
10.052834431
 11
18.9960916116
 21
11.6164296525
  0
LINE
  5
61B
100
AcDbEntity
  8
0
100
AcDbLine
 62
7
  6
CONTINUOUS
 10
-8.9436850279
 20
-2.385936175
 11
-8.9315340686
 21
-2.3794137626
  0
LINE
  5
61C
100
AcDbEntity
  8
0
100
AcDbLine
 62
7
  6
CONTINUOUS
 10
-8.2072938815
 20
13.0452517733
 11
-8.2204130787
 21
13.0390454654
  0
LINE
  5
61D
100
AcDbEntity
  8
0
100
AcDbLine
 62
7
  6
CONTINUOUS
 10
-8.8585757452
 20
16.4415359708
 11
-8.8453608575
 21
16.4477506699
  0
LINE
  5
61E
100
AcDbEntity
  8
ASSI
100
AcDbLine
 62
7
  6
CONTINUOUS
 10
-14.7883569355
 20
28.3887176755
 11
-14.816629302
 21
28.3787233032
  0
LINE
  5
61F
100
AcDbEntity
  8
ASSI
100
AcDbLine
 62
7
  6
CONTINUOUS
 10
15.5211911752
 20
-7.5748425794
 11
15.5040029241
 21
-7.5855382383
  0
LINE
  5
620
100
AcDbEntity
  8
0
100
AcDbLine
 62
7
  6
CONTINUOUS
 10
-8.1223146585
 20
-5.6849411799
 11
-8.1343727331
 21
-5.6914472093
  0
LINE
  5
621
100
AcDbEntity
  8
0
100
AcDbLine
 62
7
  6
CONTINUOUS
 10
-8.9315340686
 20
-2.3794137626
 11
-8.9189829421
 21
-2.3735909585
  0
LINE
  5
622
100
AcDbEntity
  8
0
100
AcDbLine
 62
7
  6
CONTINUOUS
 10
-8.2204130787
 20
13.0390454654
 11
-8.2338948297
 21
13.0335523753
  0
LINE
  5
623
100
AcDbEntity
  8
0
100
AcDbLine
 62
7
  6
CONTINUOUS
 10
-8.8453608575
 20
16.4477506699
 11
-8.8317849654
 21
16.4532478632
  0
LINE
  5
624
100
AcDbEntity
  8
ASSI
100
AcDbLine
 62
7
  6
CONTINUOUS
 10
19.1891665416
 20
-5.7696854052
 11
15.2639718327
 21
-7.9589223643
  0
LINE
  5
625
100
AcDbEntity
  8
ASSI
100
AcDbLine
 62
7
  6
CONTINUOUS
 10
19.5427603363
 20
-6.3820034557
 11
15.611234422
 21
-8.5747715795
  0
LINE
  5
626
100
AcDbEntity
  8
ASSI
100
AcDbLine
 62
7
  6
CONTINUOUS
 10
15.6112344225
 20
-7.354657675
 11
19.5427603363
 21
-5.239100495
  0
LINE
  5
627
100
AcDbEntity
  8
ASSI
100
AcDbLine
 62
7
  6
CONTINUOUS
 10
15.5039838991
 20
-7.5855484773
 11
19.4348879959
 21
-5.4703258976
  0
LINE
  5
628
100
AcDbEntity
  8
ASSI
100
AcDbLine
 62
7
  6
CONTINUOUS
 10
15.4841985818
 20
-7.5956349076
 11
15.5040029241
 21
-7.5855382383
  0
LINE
  5
629
100
AcDbEntity
  8
ASSI
100
AcDbLine
 62
7
  6
CONTINUOUS
 10
15.6112344229
 20
-8.574771579
 11
15.574380391
 21
-8.5931441248
  0
LINE
  5
62A
100
AcDbEntity
  8
ASSI
100
AcDbLine
 62
7
  6
CONTINUOUS
 10
15.5743803915
 20
-7.3729078276
 11
15.6112344234
 21
-7.3546576745
  0
LINE
  5
62B
100
AcDbEntity
  8
0
100
AcDbLine
 62
7
  6
CONTINUOUS
 10
-8.1343727331
 20
-5.6914472093
 11
-8.1468329635
 21
-5.6972569984
  0
LINE
  5
62C
100
AcDbEntity
  8
ASSI
100
AcDbLine
 62
7
  6
CONTINUOUS
 10
15.8994816707
 20
9.2250413764
 11
15.9367867523
 21
9.2418223472
  0
LINE
  5
62D
100
AcDbEntity
  8
0
100
AcDbLine
 62
7
  6
CONTINUOUS
 10
-8.9189829421
 20
-2.3735909585
 11
-8.906046032
 21
-2.368472046
  0
LINE
  5
62E
100
AcDbEntity
  8
ASSI
100
AcDbLine
 62
7
  6
CONTINUOUS
 10
-15.5729863024
 20
9.7343327674
 11
-15.5436740034
 21
9.7450395976
  0
LINE
  5
62F
100
AcDbEntity
  8
0
100
AcDbLine
 62
7
  6
CONTINUOUS
 10
-8.2338948297
 20
13.0335523753
 11
-8.2477240675
 21
13.0287775136
  0
LINE
  5
630
100
AcDbEntity
  8
0
100
AcDbLine
 62
7
  6
CONTINUOUS
 10
-8.8317849654
 20
16.4532478632
 11
-8.8178631056
 21
16.4580228927
  0
LINE
  5
631
100
AcDbEntity
  8
ASSI
100
AcDbLine
 62
7
  6
CONTINUOUS
 10
16.2951331079
 20
-25.3361033
 11
16.3187400209
 21
-25.3221800024
  0
LINE
  5
632
100
AcDbEntity
  8
ASSI
100
AcDbLine
 62
7
  6
CONTINUOUS
 10
15.899481486
 20
-24.834738205
 11
15.9367867131
 21
-24.8144981899
  0
LINE
  5
633
100
AcDbEntity
  8
ASSI
100
AcDbLine
 62
7
  6
CONTINUOUS
 10
15.4388440062
 20
-7.6148094897
 11
15.4841985818
 21
-7.5956349076
  0
LINE
  5
634
100
AcDbEntity
  8
0
100
AcDbLine
 62
7
  6
CONTINUOUS
 10
-8.1468329635
 20
-5.6972569984
 11
-8.1596807322
 21
-5.7023666065
  0
LINE
  5
635
100
AcDbEntity
  8
ASSI
100
AcDbLine
 62
7
  6
CONTINUOUS
 10
15.8592012932
 20
9.2104535369
 11
15.8994816707
 21
9.2250413764
  0
LINE
  5
636
100
AcDbEntity
  8
0
100
AcDbLine
 62
7
  6
CONTINUOUS
 10
-8.906046032
 20
-2.368472046
 11
-8.8927377215
 21
-2.3640613082
  0
LINE
  5
637
100
AcDbEntity
  8
0
100
AcDbLine
 62
7
  6
CONTINUOUS
 10
-8.2477240675
 20
13.0287775136
 11
-8.2618857254
 21
13.0247258908
  0
LINE
  5
638
100
AcDbEntity
  8
ASSI
100
AcDbLine
 62
7
  6
CONTINUOUS
 10
18.9960916116
 20
-23.8365953291
 11
16.4196828
 21
-25.0963331701
  0
LINE
  5
639
100
AcDbEntity
  8
ASSI
100
AcDbLine
 62
7
  6
CONTINUOUS
 10
18.8592010644
 20
-24.0823995332
 11
16.2951331079
 21
-25.3361033
  0
LINE
  5
63A
100
AcDbEntity
  8
ASSI
100
AcDbLine
 62
7
  6
CONTINUOUS
 10
15.574380391
 20
-8.5931441248
 11
15.5346202952
 21
-8.6093627379
  0
LINE
  5
63B
100
AcDbEntity
  8
ASSI
100
AcDbLine
 62
7
  6
CONTINUOUS
 10
15.5346202957
 20
-7.3890052052
 11
15.5743803915
 21
-7.3729078276
  0
LINE
  5
63C
100
AcDbEntity
  8
0
100
AcDbLine
 62
7
  6
CONTINUOUS
 10
-8.1596807322
 20
-5.7023666065
 11
-8.1729014218
 21
-5.706772093
  0
LINE
  5
63D
100
AcDbEntity
  8
ASSI
100
AcDbLine
 62
7
  6
CONTINUOUS
 10
15.8163361682
 20
9.1982002686
 11
15.8592012932
 21
9.2104535369
  0
LINE
  5
63E
100
AcDbEntity
  8
ASSI
100
AcDbLine
 62
7
  6
CONTINUOUS
 10
16.4196828
 20
-25.0963331701
 11
16.3838319662
 21
-25.112422866
  0
LINE
  5
63F
100
AcDbEntity
  8
ASSI
100
AcDbLine
 62
7
  6
CONTINUOUS
 10
15.8592008449
 20
-24.8527515366
 11
15.899481486
 21
-24.834738205
  0
LINE
  5
640
100
AcDbEntity
  8
ASSI
100
AcDbLine
 62
7
  6
CONTINUOUS
 10
16.2132076269
 20
-25.3720903445
 11
16.2949485705
 21
-25.3361852847
  0
LINE
  5
641
100
AcDbEntity
  8
ASSI
100
AcDbLine
 62
7
  6
CONTINUOUS
 10
15.5346202952
 20
-8.6093627379
 11
15.492330109
 21
-8.6232740541
  0
LINE
  5
642
100
AcDbEntity
  8
ASSI
100
AcDbLine
 62
7
  6
CONTINUOUS
 10
15.4923301095
 20
-7.4027975898
 11
15.5346202957
 21
-7.3890052052
  0
LINE
  5
643
100
AcDbEntity
  8
ASSI
100
AcDbLine
 62
7
  6
CONTINUOUS
 10
15.3919317099
 20
-7.6294019251
 11
15.4388440062
 21
-7.6148094897
  0
LINE
  5
644
100
AcDbEntity
  8
ASSI
100
AcDbLine
 62
7
  6
CONTINUOUS
 10
16.3838319662
 20
-25.112422866
 11
16.3485853351
 21
-25.1254534586
  0
LINE
  5
645
100
AcDbEntity
  8
ASSI
100
AcDbLine
 62
7
  6
CONTINUOUS
 10
15.8163353487
 20
-24.8683635286
 11
15.8592008449
 21
-24.8527515366
  0
LINE
  5
646
100
AcDbEntity
  8
ASSI
100
AcDbLine
 62
7
  6
CONTINUOUS
 10
16.1384524985
 20
-25.3980141372
 11
16.2132076269
 21
-25.3720903445
  0
LINE
  5
647
100
AcDbEntity
  8
ASSI
100
AcDbLine
 62
7
  6
CONTINUOUS
 10
15.7713006187
 20
-24.881422808
 11
15.8163353487
 21
-24.8683635286
  0
LINE
  5
648
100
AcDbEntity
  8
ASSI
100
AcDbLine
 62
7
  6
CONTINUOUS
 10
16.3485853351
 20
-25.1254534586
 11
16.3139429067
 21
-25.135424948
  0
ELLIPSE
  5
649
100
AcDbEntity
  8
ASSI
100
AcDbEllipse
 62
7
  6
CONTINUOUS
 10
18.6424603727
 20
-23.6318068131
 30
0.0
 11
-0.2148753492
 21
0.4514925988
 31
0.0
 40
0.626010046
 41
-3.1349764991
 42
-2.3100583745
  0
ELLIPSE
  5
64A
100
AcDbEntity
  8
ASSI
100
AcDbEllipse
 62
7
  6
CONTINUOUS
 10
19.1890857503
 20
-6.1778894406
 30
0.0
 11
-0.2501454382
 21
0.4329727255
 31
0.0
 40
0.577463496
 41
-2.3564333972
 42
-0.7858655045
  0
ELLIPSE
  5
64B
100
AcDbEntity
  8
ASSI
100
AcDbEllipse
 62
7
  6
CONTINUOUS
 10
18.6424603727
 20
11.820103185
 30
0.0
 11
-0.280860955
 21
0.4142191515
 31
0.0
 40
0.5243459323
 41
-2.3941007373
 42
-0.8246744066
  0
ELLIPSE
  5
64C
100
AcDbEntity
  8
ASSI
100
AcDbEllipse
 62
7
  6
CONTINUOUS
 10
19.1890857503
 20
-5.0347999633
 30
0.0
 11
-0.2502024655
 21
0.4330717124
 31
0.0
 40
0.5771997317
 41
-3.1590443311
 42
-2.3566615088
  0
ELLIPSE
  5
64D
100
AcDbEntity
  8
ASSI
100
AcDbEllipse
 62
7
  6
CONTINUOUS
 10
-12.1244237278
 20
29.584516465
 30
0.0
 11
-0.2806490066
 21
0.4138128862
 31
0.0
 40
0.5253010868
 41
-0.8257150379
 42
-0.0027521587
  0
ELLIPSE
  5
64E
100
AcDbEntity
  8
ASSI
100
AcDbEllipse
 62
7
  6
CONTINUOUS
 10
15.978348064
 20
13.2973392703
 30
0.0
 11
0.1999154856
 21
0.0095814127
 31
0.0
 40
0.6067642562
 41
-2.385266879
 42
-1.3380693278
  0
ELLIPSE
  5
64F
100
AcDbEntity
  8
ASSI
100
AcDbEllipse
 62
7
  6
CONTINUOUS
 10
8.0587521147
 20
17.8700147155
 30
0.0
 11
0.1999154856
 21
0.0095814127
 31
0.0
 40
0.6067642562
 41
-2.385266879
 42
-1.3380693278
  0
ELLIPSE
  5
650
100
AcDbEntity
  8
ASSI
100
AcDbEllipse
 62
7
  6
CONTINUOUS
 10
0.0684454873
 20
22.4835176201
 30
0.0
 11
0.1999154856
 21
0.0095814127
 31
0.0
 40
0.6067642562
 41
-2.385266879
 42
-1.3380693278
  0
ELLIPSE
  5
651
100
AcDbEntity
  8
ASSI
100
AcDbEllipse
 62
7
  6
CONTINUOUS
 10
-7.851150462
 20
27.0561930654
 30
0.0
 11
0.1999154856
 21
0.0095814127
 31
0.0
 40
0.6067642562
 41
-2.385266879
 42
-1.3380693278
  0
ELLIPSE
  5
652
100
AcDbEntity
  8
ASSI
100
AcDbEllipse
 62
7
  6
CONTINUOUS
 10
13.5960629679
 20
14.6728408277
 30
0.0
 11
0.1999154856
 21
0.0095814127
 31
0.0
 40
0.6067642562
 41
2.850720877
 42
3.8979184282
  0
ELLIPSE
  5
653
100
AcDbEntity
  8
ASSI
100
AcDbEllipse
 62
7
  6
CONTINUOUS
 10
5.6764670186
 20
19.245516273
 30
0.0
 11
0.1999154856
 21
0.0095814127
 31
0.0
 40
0.6067642562
 41
2.850720877
 42
3.8979184282
  0
ELLIPSE
  5
654
100
AcDbEntity
  8
ASSI
100
AcDbEllipse
 62
7
  6
CONTINUOUS
 10
-2.3138396088
 20
23.8590191776
 30
0.0
 11
0.1999154856
 21
0.0095814127
 31
0.0
 40
0.6067642562
 41
2.850720877
 42
3.8979184282
  0
ELLIPSE
  5
655
100
AcDbEntity
  8
ASSI
100
AcDbEllipse
 62
7
  6
CONTINUOUS
 10
-10.2334355581
 20
28.4316946229
 30
0.0
 11
0.1999154856
 21
0.0095814127
 31
0.0
 40
0.6067642562
 41
2.850720877
 42
3.8979184282
  0
ENDSEC
  0
SECTION
  2
OBJECTS
  0
DICTIONARY
  5
C
100
AcDbDictionary
280
0
281
1
  3
ACAD_GROUP
350
D
  3
ACAD_MLINESTYLE
350
17
  3
ACAD_LAYOUT
350
1A
  3
ACAD_PLOTSETTINGS
350
19
  3
ACAD_PLOTSTYLENAME
350
E
  0
DICTIONARY
  5
D
102
{ACAD_REACTORS
330
C
102
}
100
AcDbDictionary
280
0
281
1
  0
ACDBDICTIONARYWDFLT
  5
E
102
{ACAD_REACTORS
330
C
102
}
100
AcDbDictionary
281
1
  3
Normal
350
F
100
AcDbDictionaryWithDefault
340
F
  0
DICTIONARY
  5
17
102
{ACAD_REACTORS
330
C
102
}
100
AcDbDictionary
280
0
281
1
  3
Standard
350
18
  0
DICTIONARY
  5
19
102
{ACAD_REACTORS
330
C
102
}
100
AcDbDictionary
281
1
  0
DICTIONARY
  5
1A
102
{ACAD_REACTORS
330
C
102
}
100
AcDbDictionary
281
1
  3
Model
350
656
  3
Layout1
350
657
  0
ACDBPLACEHOLDER
  5
F
102
{ACAD_REACTORS
330
E
102
}
  0
MLINESTYLE
  5
18
102
{ACAD_REACTORS
330
17
102
}
100
AcDbMlineStyle
  2
STANDARD
 70
0
  3

 62
256
 51
90.0
 52
90.0
 71
2
 49
0.5
 62
256
  6
BYLAYER
 49
-0.5
 62
256
  6
BYLAYER
  0
LAYOUT
  5
656
102
{ACAD_REACTORS
330
1A
102
}
100
AcDbPlotSettings
  1

  2
none_device
  4
ISO_A4_(297.00_x_210.00_MM)
  6

 40
0.0
 41
0.0
 42
0.0
 43
0.0
 44
297.0
 45
210.0
 46
0.0
 47
0.0
 48
0.0
 49
0.0
140
0.0
141
0.0
142
1.0
143
1.0
 70
1024
 72
1
 73
0
 74
0
  7

 75
0
147
1.0
148
0.0
149
0.0
100
AcDbLayout
  1
Model
 70
0
 71
0
 10
0.0
 20
0.0
 11
297.0
 21
210.0
 12
0.0
 22
0.0
 32
0.0
 14
0.0
 24
0.0
 34
0.0
 15
0.0
 25
0.0
 35
0.0
146
0.0
 13
0.0
 23
0.0
 33
0.0
 16
1.0
 26
0.0
 36
0.0
 17
0.0
 27
1.0
 37
0.0
 76
0
330
21E
345
0
346
0
  0
LAYOUT
  5
657
102
{ACAD_REACTORS
330
1A
102
}
100
AcDbPlotSettings
  1

  2
none_device
  4
ISO_A4_(297.00_x_210.00_MM)
  6

 40
0.0
 41
0.0
 42
0.0
 43
0.0
 44
297.0
 45
210.0
 46
0.0
 47
0.0
 48
0.0
 49
0.0
140
0.0
141
0.0
142
1.0
143
1.0
 70
0
 72
1
 73
0
 74
0
  7

 75
0
147
1.0
148
0.0
149
0.0
100
AcDbLayout
  1
Layout1
 70
0
 71
1
 10
0.0
 20
0.0
 11
297.0
 21
210.0
 12
0.0
 22
0.0
 32
0.0
 14
0.0
 24
0.0
 34
0.0
 15
0.0
 25
0.0
 35
0.0
146
0.0
 13
0.0
 23
0.0
 33
0.0
 16
1.0
 26
0.0
 36
0.0
 17
0.0
 27
1.0
 37
0.0
 76
0
330
21F
345
0
346
0
  0
ENDSEC
  0
EOF
