  0
SECTION
  2
HEADER
  9
$ACADVER
  1
AC1024
  9
$DWGCODEPAGE
  3
ANSI_1252
  9
$EXTMAX
 10
297.0
 20
210.0
 30
0.0
  9
$EXTMIN
 10
0.0
 20
0.0
 30
0.0
  9
$LIMMIN
 10
0.0
 20
0.0
  9
$LIMMAX
 10
297.0
 20
210.0
  9
$VIEWCTR
 10
148.5
 20
105.0
  9
$VIEWSIZE
 40
210.0
  9
$CLAYER
  8
0
  9
$LTSCALE
 40
16.335
  9
$CELTYPE
  6
BYLAYER
  9
$DIMSCALE
 40
1.0
  9
$DIMASZ
 40
3.0
  9
$DIMEXO
 40
0.5
  9
$DIMDLI
 40
11.286
  9
$DIMEXE
 40
1.5
  9
$DIMCEN
 40
2.673
  9
$DIMLFAC
 40
1.0
  9
$DIMBLK
  1
_FILLED
  9
$DIMALT
 70
0
  9
$DIMALTF
 40
0.0393700787
  9
$DIMTXT
 40
3.0
  9
$DIMTOL
 70
1
  9
$DIMLIM
 70
0
  9
$DIMTFAC
 40
1.0
  9
$DIMTP
 40
0.01
  9
$DIMTM
 40
0.01
  9
$DIMGAP
 40
0.625
  9
$DIMDSEP
 70
44
  9
$AUNITS
 70
0
  9
$PDMODE
 70
3
  9
$PDSIZE
 40
3.0
  9
$HANDSEED
  5
34F
  9
$TILEMODE
 70
1
  9
$MEASUREMENT
 70
1
  9
$INSUNITS
 70
4
  0
ENDSEC
  0
SECTION
  2
CLASSES
  0
CLASS
  1
ACDBDICTIONARYWDFLT
  2
AcDbDictionaryWithDefault
  3
AutoCAD 2000
 90
0
 91
1
280
0
281
0
  0
CLASS
  1
ACDBPLACEHOLDER
  2
AcDbPlaceHolder
  3
AutoCAD 2000
 90
0
 91
1
280
0
281
0
  0
CLASS
  1
LAYOUT
  2
AcDbLayout
  3
AutoCAD 2000
 90
0
 91
0
280
0
281
0
  0
ENDSEC
  0
SECTION
  2
TABLES
  0
TABLE
  2
VPORT
  5
8
100
AcDbSymbolTable
 70
2
  0
VPORT
  5
1F4
100
AcDbSymbolTableRecord
100
AcDbViewportTableRecord
  2
*ACTIVE
 70
0
 10
0.0
 20
0.0
 11
1.0
 21
1.0
 12
148.5
 22
105.0
 13
0.0
 23
0.0
 14
1.0
 24
1.0
 15
0.0
 25
0.0
 16
0.0
 26
0.0
 36
1.0
 17
0.0
 27
0.0
 37
0.0
 40
210.0
 41
1.4142857143
 42
50.0
 43
0.0
 44
0.0
 50
0.0
 51
0.0
 71
0
 72
100
 73
1
 74
1
 75
0
 76
0
 77
0
 78
0
  0
ENDTAB
  0
TABLE
  2
LTYPE
  5
5
100
AcDbSymbolTable
 70
6
  0
LTYPE
  5
14
100
AcDbSymbolTableRecord
100
AcDbLinetypeTableRecord
  2
BYBLOCK
 70
0
  3

 72
65
 73
0
 40
0.0
  0
LTYPE
  5
15
100
AcDbSymbolTableRecord
100
AcDbLinetypeTableRecord
  2
BYLAYER
 70
0
  3

 72
65
 73
0
 40
0.0
  0
LTYPE
  5
16
100
AcDbSymbolTableRecord
100
AcDbLinetypeTableRecord
  2
CONTINUOUS
 70
64
  3
Solid line
 72
65
 73
0
 40
0.0
  0
LTYPE
  5
1F5
100
AcDbSymbolTableRecord
100
AcDbLinetypeTableRecord
  2
CENTER
 70
64
  3
____ _ ____ _ ____ _ ____ _ ____ _ ____ _ ____
 72
65
 73
4
 40
0.6
 49
0.375
 74
0
 49
-0.075
 74
0
 49
0.075
 74
0
 49
-0.075
 74
0
  0
LTYPE
  5
1F6
100
AcDbSymbolTableRecord
100
AcDbLinetypeTableRecord
  2
HIDDEN
 70
64
  3
- - - - - - - - - - - - - - - - - - - -
 72
65
 73
2
 40
0.2
 49
0.1
 74
0
 49
-0.1
 74
0
  0
LTYPE
  5
1F7
100
AcDbSymbolTableRecord
100
AcDbLinetypeTableRecord
  2
PHANTOM
 70
64
  3
_____ _ _ _____ _ _ _____ _ _ _____
 72
65
 73
6
 40
0.8
 49
0.45
 74
0
 49
-0.05
 74
0
 49
0.1
 74
0
 49
-0.05
 74
0
 49
0.1
 74
0
 49
-0.05
 74
0
  0
LTYPE
  5
1F8
100
AcDbSymbolTableRecord
100
AcDbLinetypeTableRecord
  2
DOT
 70
64
  3
. . . . . . . . . . . . . . . . . . . .
 72
65
 73
2
 40
0.2
 49
0.1
 74
0
 49
-0.1
 74
0
  0
LTYPE
  5
1F9
100
AcDbSymbolTableRecord
100
AcDbLinetypeTableRecord
  2
DASHED
 70
64
  3
- - - - - - - - - - - - - - - - - - - -
 72
65
 73
2
 40
0.2
 49
0.1
 74
0
 49
-0.1
 74
0
  0
ENDTAB
  0
TABLE
  2
LAYER
  5
2
100
AcDbSymbolTable
 70
36
  0
LAYER
  5
10
100
AcDbSymbolTableRecord
100
AcDbLayerTableRecord
  2
0
 70
0
 62
7
  6
CONTINUOUS
370
-3
390
F
  0
LAYER
  5
1FA
100
AcDbSymbolTableRecord
100
AcDbLayerTableRecord
  2
DEFAULT_1
 70
0
 62
7
  6
CENTER
370
-3
390
F
  0
LAYER
  5
1FB
100
AcDbSymbolTableRecord
100
AcDbLayerTableRecord
  2
DEFAULT_2
 70
0
 62
7
  6
HIDDEN
370
-3
390
F
  0
LAYER
  5
1FC
100
AcDbSymbolTableRecord
100
AcDbLayerTableRecord
  2
DEFAULT_3
 70
0
 62
7
  6
PHANTOM
370
-3
390
F
  0
LAYER
  5
1FD
100
AcDbSymbolTableRecord
100
AcDbLayerTableRecord
  2
ASSI
 70
0
 62
7
  6
CONTINUOUS
370
-3
390
F
  0
LAYER
  5
1FE
100
AcDbSymbolTableRecord
100
AcDbLayerTableRecord
  2
COORDINATE
 70
0
 62
7
  6
CONTINUOUS
370
-3
390
F
  0
LAYER
  5
1FF
100
AcDbSymbolTableRecord
100
AcDbLayerTableRecord
  2
COPY_PUBLISH
 70
0
 62
7
  6
CONTINUOUS
370
-3
390
F
  0
LAYER
  5
200
100
AcDbSymbolTableRecord
100
AcDbLayerTableRecord
  2
COSMETICI
 70
0
 62
7
  6
CONTINUOUS
370
-3
390
F
  0
LAYER
  5
201
100
AcDbSymbolTableRecord
100
AcDbLayerTableRecord
  2
CURVE
 70
0
 62
7
  6
CONTINUOUS
370
-3
390
F
  0
LAYER
  5
202
100
AcDbSymbolTableRecord
100
AcDbLayerTableRecord
  2
DRAFT
 70
0
 62
7
  6
CONTINUOUS
370
-3
390
F
  0
LAYER
  5
203
100
AcDbSymbolTableRecord
100
AcDbLayerTableRecord
  2
IMPORT_IGES
 70
0
 62
7
  6
CONTINUOUS
370
-3
390
F
  0
LAYER
  5
204
100
AcDbSymbolTableRecord
100
AcDbLayerTableRecord
  2
INTFCLR_1
 70
0
 62
7
  6
CONTINUOUS
370
-3
390
F
  0
LAYER
  5
205
100
AcDbSymbolTableRecord
100
AcDbLayerTableRecord
  2
INTF_1
 70
0
 62
7
  6
CONTINUOUS
370
-3
390
F
  0
LAYER
  5
206
100
AcDbSymbolTableRecord
100
AcDbLayerTableRecord
  2
INTF_2
 70
0
 62
7
  6
CONTINUOUS
370
-3
390
F
  0
LAYER
  5
207
100
AcDbSymbolTableRecord
100
AcDbLayerTableRecord
  2
INTF_5
 70
0
 62
7
  6
CONTINUOUS
370
-3
390
F
  0
LAYER
  5
208
100
AcDbSymbolTableRecord
100
AcDbLayerTableRecord
  2
INTF_9
 70
0
 62
7
  6
CONTINUOUS
370
-3
390
F
  0
LAYER
  5
209
100
AcDbSymbolTableRecord
100
AcDbLayerTableRecord
  2
NOTE
 70
0
 62
7
  6
CONTINUOUS
370
-3
390
F
  0
LAYER
  5
20A
100
AcDbSymbolTableRecord
100
AcDbLayerTableRecord
  2
PIANI
 70
0
 62
7
  6
CONTINUOUS
370
-3
390
F
  0
LAYER
  5
20B
100
AcDbSymbolTableRecord
100
AcDbLayerTableRecord
  2
PUNTI
 70
0
 62
7
  6
CONTINUOUS
370
-3
390
F
  0
LAYER
  5
20C
100
AcDbSymbolTableRecord
100
AcDbLayerTableRecord
  2
RACCORDO
 70
0
 62
7
  6
CONTINUOUS
370
-3
390
F
  0
LAYER
  5
20D
100
AcDbSymbolTableRecord
100
AcDbLayerTableRecord
  2
SIMBOLI
 70
0
 62
7
  6
CONTINUOUS
370
-3
390
F
  0
LAYER
  5
20E
100
AcDbSymbolTableRecord
100
AcDbLayerTableRecord
  2
SMUSSO
 70
0
 62
7
  6
CONTINUOUS
370
-3
390
F
  0
LAYER
  5
20F
100
AcDbSymbolTableRecord
100
AcDbLayerTableRecord
  2
SNAPLINE
 70
0
 62
7
  6
CONTINUOUS
370
-3
390
F
  0
LAYER
  5
210
100
AcDbSymbolTableRecord
100
AcDbLayerTableRecord
  2
SUPERFICI
 70
0
 62
7
  6
CONTINUOUS
370
-3
390
F
  0
LAYER
  5
211
100
AcDbSymbolTableRecord
100
AcDbLayerTableRecord
  2
TRASH
 70
0
 62
7
  6
CONTINUOUS
370
-3
390
F
  0
ENDTAB
  0
TABLE
  2
STYLE
  5
3
100
AcDbSymbolTable
 70
1
  0
STYLE
  5
11
100
AcDbSymbolTableRecord
100
AcDbTextStyleTableRecord
  2
STANDARD
 70
0
 40
0.0
 41
0.8
 50
0.0
 71
0
 42
0.2
  3
txt
  4

  0
STYLE
  5
212
100
AcDbSymbolTableRecord
100
AcDbTextStyleTableRecord
  2
TEXTSTYLE_1
 70
0
 40
0.0
 41
0.8
 50
0.0
 71
0
 42
0.2
  3
gdt
  4

  0
ENDTAB
  0
TABLE
  2
VIEW
  5
6
100
AcDbSymbolTable
 70
0
  0
ENDTAB
  0
TABLE
  2
UCS
  5
7
100
AcDbSymbolTable
 70
0
  0
ENDTAB
  0
TABLE
  2
APPID
  5
9
100
AcDbSymbolTable
 70
1
  0
APPID
  5
213
100
AcDbSymbolTableRecord
100
AcDbRegAppTableRecord
  2
ACAD
 70
0
  0
ENDTAB
  0
TABLE
  2
BLOCK_RECORD
  5
1
100
AcDbSymbolTable
 70
0
  0
BLOCK_RECORD
  5
214
100
AcDbSymbolTableRecord
100
AcDbBlockTableRecord
  2
*Model_Space
  0
BLOCK_RECORD
  5
215
100
AcDbSymbolTableRecord
100
AcDbBlockTableRecord
  2
*Paper_Space
  0
BLOCK_RECORD
  5
216
100
AcDbSymbolTableRecord
100
AcDbBlockTableRecord
  2
_FILLED
  0
ENDTAB
  0
TABLE
  2
DIMSTYLE
  5
A
100
AcDbSymbolTable
 70
1
100
AcDbDimStyleTable
 71
0
  0
DIMSTYLE
105
217
100
AcDbSymbolTableRecord
100
AcDbDimStyleTableRecord
  2
STANDARD
 70
0
  3

  4

 40
1.0
 41
3.0
 42
0.5
 43
0.38
 44
1.5
 45
0.0
 46
0.0
 47
0.01
 48
0.01
140
3.0
141
0.09
142
0.0
143
25.4
144
1.0
145
0.0
146
1.0
147
0.625
 71
1.0
 72
0.0
 73
0
 74
0
 75
0
 76
0
 77
1
 78
8
 79
2
170
0
171
1
172
0
173
0
174
0
175
0
176
0
177
0
178
0
270
2
179
2
271
2
272
2
273
2
274
2
275
0
280
0
281
0
282
0
283
1
284
8
285
0
286
0
287
3
288
0
340
11
278
44
341
216
342
216
343
216
344
216
  0
ENDTAB
  0
ENDSEC
  0
SECTION
  2
BLOCKS
  0
BLOCK
  5
20
100
AcDbEntity
  8
0
100
AcDbBlockBegin
  2
*Model_Space
 70
0
 10
0.0
 20
0.0
 30
0.0
  3
*Model_Space
  1

  0
ENDBLK
  5
21
100
AcDbEntity
  8
0
100
AcDbBlockEnd
  0
BLOCK
  5
1C
100
AcDbEntity
  8
0
100
AcDbBlockBegin
  2
*Paper_Space
 70
0
 10
0.0
 20
0.0
 30
0.0
  3
*Paper_Space
  1

  0
ENDBLK
  5
1D
100
AcDbEntity
  8
0
100
AcDbBlockEnd
  0
BLOCK
  5
218
100
AcDbEntity
  8
0
100
AcDbBlockBegin
  2
_FILLED
 70
64
 10
0.0
 20
0.0
  3
_FILLED
  1

  0
SOLID
  5
219
100
AcDbEntity
  8
0
  6
BYBLOCK
 62
0
100
AcDbTrace
 10
0.0
 20
0.0
 11
-1.0
 21
0.3166666667
 12
-1.0
 22
-0.3166666667
 13
-1.0
 23
-0.3166666667
  0
ENDBLK
  5
21A
100
AcDbEntity
  8
0
  6
BYBLOCK
 62
0
100
AcDbBlockEnd
  0
ENDSEC
  0
SECTION
  2
ENTITIES
  0
LWPOLYLINE
  5
21B
100
AcDbEntity
  8
RACCORDO
100
AcDbPolyline
 62
7
  6
CONTINUOUS
 90
16
 70
0
 10
-10.2634004738
 20
21.0342020375
 10
-10.3159431997
 20
20.9969480465
 10
-10.3956294132
 20
20.9323786418
 10
-10.4707362729
 20
20.8617055087
 10
-10.5413010537
 20
20.7854334958
 10
-10.6072351739
 20
20.7040646365
 10
-10.6681558607
 20
20.6183594367
 10
-10.7238888821
 20
20.5288359669
 10
-10.7741912313
 20
20.4359249443
 10
-10.8185960573
 20
20.3405211518
 10
-10.8568695864
 20
20.2430675933
 10
-10.8886958682
 20
20.1439710363
 10
-10.9136743724
 20
20.0439299496
 10
-10.9314308047
 20
19.9432774276
 10
-10.941554509
 20
19.8422814925
 10
-10.943068744
 20
19.8108272728
  0
LWPOLYLINE
  5
21C
100
AcDbEntity
  8
ASSI
100
AcDbPolyline
 62
7
  6
CONTINUOUS
 90
16
 70
0
 10
-10.2634004738
 20
21.0342020375
 10
-10.3159431997
 20
20.9969480465
 10
-10.3956294132
 20
20.9323786418
 10
-10.4707362729
 20
20.8617055087
 10
-10.5413010537
 20
20.7854334958
 10
-10.6072351739
 20
20.7040646365
 10
-10.6681558607
 20
20.6183594367
 10
-10.7238888821
 20
20.5288359669
 10
-10.7741912313
 20
20.4359249443
 10
-10.8185960573
 20
20.3405211518
 10
-10.8568695864
 20
20.2430675933
 10
-10.8886958682
 20
20.1439710363
 10
-10.9136743724
 20
20.0439299496
 10
-10.9314308047
 20
19.9432774276
 10
-10.941554509
 20
19.8422814925
 10
-10.943068744
 20
19.8108272728
  0
LINE
  5
21D
100
AcDbEntity
  8
RACCORDO
100
AcDbLine
 62
7
  6
CONTINUOUS
 10
-8.4850463761
 20
22.2267432353
 11
-10.2635729811
 21
21.0340988889
  0
LINE
  5
21E
100
AcDbEntity
  8
ASSI
100
AcDbLine
 62
7
  6
CONTINUOUS
 10
-8.4850463761
 20
22.2267432353
 11
-10.2635729811
 21
21.0340988889
  0
LWPOLYLINE
  5
21F
100
AcDbEntity
  8
RACCORDO
100
AcDbPolyline
 62
250
  6
CONTINUOUS
 90
19
 70
0
 10
-8.2355068772
 20
22.2014667148
 10
-10.0739197957
 20
20.9687209722
 10
-10.1434981
 20
20.9155686533
 10
-10.2118458691
 20
20.8567063555
 10
-10.2784567073
 20
20.7925067603
 10
-10.3428857056
 20
20.7234022358
 10
-10.4047517138
 20
20.649880118
 10
-10.4636246837
 20
20.5724191224
 10
-10.5190835421
 20
20.4915300804
 10
-10.5707923661
 20
20.4077875426
 10
-10.618391771
 20
20.3217474967
 10
-10.6615441741
 20
20.2339742034
 10
-10.6999909828
 20
20.1450791005
 10
-10.7334653802
 20
20.0556622056
 10
-10.7617329319
 20
19.9663043669
 10
-10.7846321111
 20
19.8775947495
 10
-10.8020106952
 20
19.7901221572
 10
-10.8137317461
 20
19.7044708953
 10
-10.8197102706
 20
19.6212133162
  0
LWPOLYLINE
  5
220
100
AcDbEntity
  8
ASSI
100
AcDbPolyline
 62
250
  6
CONTINUOUS
 90
19
 70
0
 10
-8.2355068772
 20
22.2014667148
 10
-10.0739197957
 20
20.9687209722
 10
-10.1434981
 20
20.9155686533
 10
-10.2118458691
 20
20.8567063555
 10
-10.2784567073
 20
20.7925067603
 10
-10.3428857056
 20
20.7234022358
 10
-10.4047517138
 20
20.649880118
 10
-10.4636246837
 20
20.5724191224
 10
-10.5190835421
 20
20.4915300804
 10
-10.5707923661
 20
20.4077875426
 10
-10.618391771
 20
20.3217474967
 10
-10.6615441741
 20
20.2339742034
 10
-10.6999909828
 20
20.1450791005
 10
-10.7334653802
 20
20.0556622056
 10
-10.7617329319
 20
19.9663043669
 10
-10.7846321111
 20
19.8775947495
 10
-10.8020106952
 20
19.7901221572
 10
-10.8137317461
 20
19.7044708953
 10
-10.8197102706
 20
19.6212133162
  0
LWPOLYLINE
  5
221
100
AcDbEntity
  8
RACCORDO
100
AcDbPolyline
 62
7
  6
CONTINUOUS
 90
12
 70
0
 10
4.3322839971
 20
-23.5828447355
 10
4.3889566971
 20
-23.608721242
 10
4.4522283173
 20
-23.6312759728
 10
4.5179017094
 20
-23.6483249247
 10
4.5855910461
 20
-23.6596720227
 10
4.6548262576
 20
-23.6651549425
 10
4.7256404851
 20
-23.6646781399
 10
4.7977035866
 20
-23.6581011088
 10
4.8706353282
 20
-23.6453095451
 10
4.9445611501
 20
-23.626068922
 10
5.0193553133
 20
-23.6001470581
 10
5.1013052079
 20
-23.5641673902
  0
LWPOLYLINE
  5
222
100
AcDbEntity
  8
ASSI
100
AcDbPolyline
 62
7
  6
CONTINUOUS
 90
12
 70
0
 10
4.3322839971
 20
-23.5828447355
 10
4.3889566971
 20
-23.608721242
 10
4.4522283173
 20
-23.6312759728
 10
4.5179017094
 20
-23.6483249247
 10
4.5855910461
 20
-23.6596720227
 10
4.6548262576
 20
-23.6651549425
 10
4.7256404851
 20
-23.6646781399
 10
4.7977035866
 20
-23.6581011088
 10
4.8706353282
 20
-23.6453095451
 10
4.9445611501
 20
-23.626068922
 10
5.0193553133
 20
-23.6001470581
 10
5.1013052079
 20
-23.5641673902
  0
LWPOLYLINE
  5
223
100
AcDbEntity
  8
RACCORDO
100
AcDbPolyline
 62
250
  6
CONTINUOUS
 90
13
 70
0
 10
4.0704067386
 20
-23.0677141697
 10
4.1191286625
 20
-23.0890498868
 10
4.1720837904
 20
-23.1065115247
 10
4.2284709219
 20
-23.1198348924
 10
4.2874369312
 20
-23.1288184101
 10
4.3480896745
 20
-23.1333261589
 10
4.4095114881
 20
-23.1332899374
 10
4.4707730725
 20
-23.1287102937
 10
4.5309475522
 20
-23.1196565168
 10
4.5891244996
 20
-23.1062655885
 10
4.6444237093
 20
-23.0887401108
 10
4.6960085154
 20
-23.0673452406
 10
4.7430984504
 20
-23.042404678
  0
LWPOLYLINE
  5
224
100
AcDbEntity
  8
ASSI
100
AcDbPolyline
 62
250
  6
CONTINUOUS
 90
13
 70
0
 10
4.0704067386
 20
-23.0677141697
 10
4.1191286625
 20
-23.0890498868
 10
4.1720837904
 20
-23.1065115247
 10
4.2284709219
 20
-23.1198348924
 10
4.2874369312
 20
-23.1288184101
 10
4.3480896745
 20
-23.1333261589
 10
4.4095114881
 20
-23.1332899374
 10
4.4707730725
 20
-23.1287102937
 10
4.5309475522
 20
-23.1196565168
 10
4.5891244996
 20
-23.1062655885
 10
4.6444237093
 20
-23.0887401108
 10
4.6960085154
 20
-23.0673452406
 10
4.7430984504
 20
-23.042404678
  0
LINE
  5
225
100
AcDbEntity
  8
RACCORDO
100
AcDbLine
 62
7
  6
CONTINUOUS
 10
4.3325316453
 20
-23.5829751429
 11
4.332373544
 21
-23.5828948477
  0
LINE
  5
226
100
AcDbEntity
  8
ASSI
100
AcDbLine
 62
7
  6
CONTINUOUS
 10
4.3325316453
 20
-23.5829751429
 11
4.332373544
 21
-23.5828948477
  0
LWPOLYLINE
  5
227
100
AcDbEntity
  8
RACCORDO
100
AcDbPolyline
 62
250
  6
CONTINUOUS
 90
11
 70
0
 10
4.332373544
 20
-23.5828948477
 10
4.3114062172
 20
-23.5714162299
 10
4.2651778699
 20
-23.5395511522
 10
4.223256294
 20
-23.5008985082
 10
4.1859556898
 20
-23.4557390121
 10
4.1535173636
 20
-23.4043792978
 10
4.1261340585
 20
-23.3471535664
 10
4.1040046638
 20
-23.2844428831
 10
4.0872798243
 20
-23.2166611802
 10
4.0760566594
 20
-23.144257621
 10
4.0704067196
 20
-23.0677141714
  0
LWPOLYLINE
  5
228
100
AcDbEntity
  8
ASSI
100
AcDbPolyline
 62
250
  6
CONTINUOUS
 90
11
 70
0
 10
4.332373544
 20
-23.5828948477
 10
4.3114062172
 20
-23.5714162299
 10
4.2651778699
 20
-23.5395511522
 10
4.223256294
 20
-23.5008985082
 10
4.1859556898
 20
-23.4557390121
 10
4.1535173636
 20
-23.4043792978
 10
4.1261340585
 20
-23.3471535664
 10
4.1040046638
 20
-23.2844428831
 10
4.0872798243
 20
-23.2166611802
 10
4.0760566594
 20
-23.144257621
 10
4.0704067196
 20
-23.0677141714
  0
LWPOLYLINE
  5
229
100
AcDbEntity
  8
RACCORDO
100
AcDbPolyline
 62
7
  6
CONTINUOUS
 90
10
 70
0
 10
-10.5883410805
 20
-14.9677050126
 10
-9.0982181575
 20
-15.9337481453
 10
-7.4979560266
 20
-16.9420519624
 10
-5.8713303383
 20
-17.9374985304
 10
-4.2187113875
 20
-18.9198561083
 10
-2.5404738414
 20
-19.8888990546
 10
-0.8370063433
 20
-20.8444106654
 10
0.891285673
 20
-21.7861814626
 10
2.6439871102
 20
-22.7140048985
 10
4.3325346165
 20
-23.5829766511
  0
LWPOLYLINE
  5
22A
100
AcDbEntity
  8
ASSI
100
AcDbPolyline
 62
7
  6
CONTINUOUS
 90
10
 70
0
 10
-10.5883410805
 20
-14.9677050126
 10
-9.0982181575
 20
-15.9337481453
 10
-7.4979560266
 20
-16.9420519624
 10
-5.8713303383
 20
-17.9374985304
 10
-4.2187113875
 20
-18.9198561083
 10
-2.5404738414
 20
-19.8888990546
 10
-0.8370063433
 20
-20.8444106654
 10
0.891285673
 20
-21.7861814626
 10
2.6439871102
 20
-22.7140048985
 10
4.3325346165
 20
-23.5829766511
  0
LINE
  5
22B
100
AcDbEntity
  8
RACCORDO
100
AcDbLine
 62
7
  6
CONTINUOUS
 10
-10.5883444162
 20
-14.9677028197
 11
-10.5881334693
 21
-14.9678413977
  0
LINE
  5
22C
100
AcDbEntity
  8
ASSI
100
AcDbLine
 62
7
  6
CONTINUOUS
 10
-10.5883444162
 20
-14.9677028197
 11
-10.5881334693
 21
-14.9678413977
  0
LWPOLYLINE
  5
22D
100
AcDbEntity
  8
RACCORDO
100
AcDbPolyline
 62
250
  6
CONTINUOUS
 90
31
 70
0
 10
-10.8197102487
 20
-14.4703472294
 10
-10.3690501098
 20
-14.7663988058
 10
-9.9163355598
 20
-15.0612243183
 10
-9.4615771021
 20
-15.3548197876
 10
-9.0048706034
 20
-15.64712689
 10
-8.546142034
 20
-15.9381965073
 10
-8.0851434937
 20
-16.2281866202
 10
-7.6217663997
 20
-16.5171633654
 10
-7.1561325998
 20
-16.805048674
 10
-6.6883375868
 20
-17.0917830312
 10
-6.2184344981
 20
-17.3773344506
 10
-5.7463875936
 20
-17.6617252139
 10
-5.2721596887
 20
-17.9449775531
 10
-4.7956423812
 20
-18.2271548177
 10
-4.3169589004
 20
-18.5081825216
 10
-3.8364229881
 20
-18.7878781323
 10
-3.3543234259
 20
-19.0660797231
 10
-2.8703981346
 20
-19.3429449731
 10
-2.384131872
 20
-19.6187691823
 10
-1.896599267
 20
-19.8929463842
 10
-1.4067460578
 20
-20.1660747775
 10
-0.9108093384
 20
-20.4402234684
 10
-0.4096226015
 20
-20.7148773586
 10
0.0977238038
 20
-20.9904847124
 10
0.6177363973
 20
-21.2704806257
 10
1.1510283593
 20
-21.5550336182
 10
1.6972410236
 20
-21.8437933563
 10
2.2615726422
 20
-22.1393218087
 10
2.8459178979
 20
-22.4423599683
 10
3.4487945769
 20
-22.751873786
 10
4.0704067358
 20
-23.0677141557
  0
LWPOLYLINE
  5
22E
100
AcDbEntity
  8
ASSI
100
AcDbPolyline
 62
250
  6
CONTINUOUS
 90
31
 70
0
 10
-10.8197102487
 20
-14.4703472294
 10
-10.3690501098
 20
-14.7663988058
 10
-9.9163355598
 20
-15.0612243183
 10
-9.4615771021
 20
-15.3548197876
 10
-9.0048706034
 20
-15.64712689
 10
-8.546142034
 20
-15.9381965073
 10
-8.0851434937
 20
-16.2281866202
 10
-7.6217663997
 20
-16.5171633654
 10
-7.1561325998
 20
-16.805048674
 10
-6.6883375868
 20
-17.0917830312
 10
-6.2184344981
 20
-17.3773344506
 10
-5.7463875936
 20
-17.6617252139
 10
-5.2721596887
 20
-17.9449775531
 10
-4.7956423812
 20
-18.2271548177
 10
-4.3169589004
 20
-18.5081825216
 10
-3.8364229881
 20
-18.7878781323
 10
-3.3543234259
 20
-19.0660797231
 10
-2.8703981346
 20
-19.3429449731
 10
-2.384131872
 20
-19.6187691823
 10
-1.896599267
 20
-19.8929463842
 10
-1.4067460578
 20
-20.1660747775
 10
-0.9108093384
 20
-20.4402234684
 10
-0.4096226015
 20
-20.7148773586
 10
0.0977238038
 20
-20.9904847124
 10
0.6177363973
 20
-21.2704806257
 10
1.1510283593
 20
-21.5550336182
 10
1.6972410236
 20
-21.8437933563
 10
2.2615726422
 20
-22.1393218087
 10
2.8459178979
 20
-22.4423599683
 10
3.4487945769
 20
-22.751873786
 10
4.0704067358
 20
-23.0677141557
  0
LWPOLYLINE
  5
22F
100
AcDbEntity
  8
RACCORDO
100
AcDbPolyline
 62
250
  6
CONTINUOUS
 90
7
 70
0
 10
-10.8196952147
 20
-14.4703389625
 10
-10.8572243505
 20
-14.4418748522
 10
-10.8884922044
 20
-14.410707925
 10
-10.9130257148
 20
-14.3773097153
 10
-10.9304537066
 20
-14.3421855157
 10
-10.940512506
 20
-14.305866731
 10
-10.9430192438
 20
-14.2819564275
  0
LWPOLYLINE
  5
230
100
AcDbEntity
  8
ASSI
100
AcDbPolyline
 62
250
  6
CONTINUOUS
 90
7
 70
0
 10
-10.8196952147
 20
-14.4703389625
 10
-10.8572243505
 20
-14.4418748522
 10
-10.8884922044
 20
-14.410707925
 10
-10.9130257148
 20
-14.3773097153
 10
-10.9304537066
 20
-14.3421855157
 10
-10.940512506
 20
-14.305866731
 10
-10.9430192438
 20
-14.2819564275
  0
LINE
  5
231
100
AcDbEntity
  8
DRAFT
100
AcDbLine
 62
7
  6
CONTINUOUS
 10
-6.4872939919
 20
20.5841633601
 11
-6.2758776586
 21
21.0700013639
  0
LINE
  5
232
100
AcDbEntity
  8
ASSI
100
AcDbLine
 62
7
  6
CONTINUOUS
 10
-6.4872939919
 20
20.5841633601
 11
-6.2758776586
 21
21.0700013639
  0
LWPOLYLINE
  5
233
100
AcDbEntity
  8
RACCORDO
100
AcDbPolyline
 62
250
  6
CONTINUOUS
 90
9
 70
0
 10
-10.8197102505
 20
-14.4703472228
 10
-10.8137317268
 20
-14.547080399
 10
-10.8020106755
 20
-14.6197714345
 10
-10.7846320906
 20
-14.6879306019
 10
-10.7617329107
 20
-14.7510857469
 10
-10.7334653592
 20
-14.8088220277
 10
-10.6999909623
 20
-14.8607799537
 10
-10.6615441537
 20
-14.9066012527
 10
-10.6191177447
 20
-14.9453023137
  0
LWPOLYLINE
  5
234
100
AcDbEntity
  8
ASSI
100
AcDbPolyline
 62
250
  6
CONTINUOUS
 90
9
 70
0
 10
-10.8197102505
 20
-14.4703472228
 10
-10.8137317268
 20
-14.547080399
 10
-10.8020106755
 20
-14.6197714345
 10
-10.7846320906
 20
-14.6879306019
 10
-10.7617329107
 20
-14.7510857469
 10
-10.7334653592
 20
-14.8088220277
 10
-10.6999909623
 20
-14.8607799537
 10
-10.6615441537
 20
-14.9066012527
 10
-10.6191177447
 20
-14.9453023137
  0
LWPOLYLINE
  5
235
100
AcDbEntity
  8
RACCORDO
100
AcDbPolyline
 62
7
  6
CONTINUOUS
 90
13
 70
0
 10
-10.9430192438
 20
-14.2819564275
 10
-10.9426134499
 20
-14.291672327
 10
-10.9357087772
 20
-14.3739688501
 10
-10.9229688055
 20
-14.4523307986
 10
-10.9047431831
 20
-14.5264011194
 10
-10.8813237979
 20
-14.5962714753
 10
-10.8528518692
 20
-14.6622588108
 10
-10.8196236823
 20
-14.7240886355
 10
-10.7819256477
 20
-14.78156287
 10
-10.7397907396
 20
-14.8348277537
 10
-10.6935942121
 20
-14.883534019
 10
-10.6436904889
 20
-14.9274342829
 10
-10.5880465878
 20
-14.9678956547
  0
LWPOLYLINE
  5
236
100
AcDbEntity
  8
ASSI
100
AcDbPolyline
 62
7
  6
CONTINUOUS
 90
13
 70
0
 10
-10.9430192438
 20
-14.2819564275
 10
-10.9426134499
 20
-14.291672327
 10
-10.9357087772
 20
-14.3739688501
 10
-10.9229688055
 20
-14.4523307986
 10
-10.9047431831
 20
-14.5264011194
 10
-10.8813237979
 20
-14.5962714753
 10
-10.8528518692
 20
-14.6622588108
 10
-10.8196236823
 20
-14.7240886355
 10
-10.7819256477
 20
-14.78156287
 10
-10.7397907396
 20
-14.8348277537
 10
-10.6935942121
 20
-14.883534019
 10
-10.6436904889
 20
-14.9274342829
 10
-10.5880465878
 20
-14.9678956547
  0
LWPOLYLINE
  5
237
100
AcDbEntity
  8
RACCORDO
100
AcDbPolyline
 62
7
  6
CONTINUOUS
 90
13
 70
0
 10
-11.2512860914
 20
3.0458955651
 10
-11.2507162295
 20
3.0229725887
 10
-11.247114279
 20
2.98521376
 10
-11.2401482153
 20
2.9475559998
 10
-11.2298160429
 20
2.9104001387
 10
-11.2161416263
 20
2.8740584987
 10
-11.1991280877
 20
2.8387433164
 10
-11.1788460761
 20
2.8047634589
 10
-11.1554706191
 20
2.7725003905
 10
-11.1291507573
 20
2.7422109086
 10
-11.1000401033
 20
2.7141253828
 10
-11.0683709192
 20
2.6884926739
 10
-11.0543580184
 20
2.6784952407
  0
LWPOLYLINE
  5
238
100
AcDbEntity
  8
ASSI
100
AcDbPolyline
 62
7
  6
CONTINUOUS
 90
13
 70
0
 10
-11.2512860914
 20
3.0458955651
 10
-11.2507162295
 20
3.0229725887
 10
-11.247114279
 20
2.98521376
 10
-11.2401482153
 20
2.9475559998
 10
-11.2298160429
 20
2.9104001387
 10
-11.2161416263
 20
2.8740584987
 10
-11.1991280877
 20
2.8387433164
 10
-11.1788460761
 20
2.8047634589
 10
-11.1554706191
 20
2.7725003905
 10
-11.1291507573
 20
2.7422109086
 10
-11.1000401033
 20
2.7141253828
 10
-11.0683709192
 20
2.6884926739
 10
-11.0543580184
 20
2.6784952407
  0
LWPOLYLINE
  5
239
100
AcDbEntity
  8
RACCORDO
100
AcDbPolyline
 62
250
  6
CONTINUOUS
 90
9
 70
0
 10
-11.2512901255
 20
2.1096539651
 10
-11.2512049058
 20
2.1048002474
 10
-11.2479445151
 20
2.0767392682
 10
-11.2399964787
 20
2.0490069286
 10
-11.2274366247
 20
2.0218605501
 10
-11.2103786678
 20
1.9955490913
 10
-11.1889782835
 20
1.9703192644
 10
-11.1634362107
 20
1.9464124664
 10
-11.1339911114
 20
1.9240555425
  0
LWPOLYLINE
  5
23A
100
AcDbEntity
  8
ASSI
100
AcDbPolyline
 62
250
  6
CONTINUOUS
 90
9
 70
0
 10
-11.2512901255
 20
2.1096539651
 10
-11.2512049058
 20
2.1048002474
 10
-11.2479445151
 20
2.0767392682
 10
-11.2399964787
 20
2.0490069286
 10
-11.2274366247
 20
2.0218605501
 10
-11.2103786678
 20
1.9955490913
 10
-11.1889782835
 20
1.9703192644
 10
-11.1634362107
 20
1.9464124664
 10
-11.1339911114
 20
1.9240555425
  0
LINE
  5
23B
100
AcDbEntity
  8
RACCORDO
100
AcDbLine
 62
250
  6
CONTINUOUS
 10
-11.2512049504
 20
3.040030677
 11
-11.2512908807
 21
3.0455353722
  0
LINE
  5
23C
100
AcDbEntity
  8
ASSI
100
AcDbLine
 62
250
  6
CONTINUOUS
 10
-11.2512049504
 20
3.040030677
 11
-11.2512908807
 21
3.0455353722
  0
LWPOLYLINE
  5
23D
100
AcDbEntity
  8
RACCORDO
100
AcDbPolyline
 62
7
  6
CONTINUOUS
 90
10
 70
0
 10
-11.2512908356
 20
2.1100033458
 10
-11.2461138939
 20
0.323387972
 10
-11.233562172
 20
-1.5251270597
 10
-11.2136949511
 20
-3.369292662
 10
-11.1865111239
 20
-5.20906798
 10
-11.1520106841
 20
-7.0444151419
 10
-11.1101937004
 20
-8.8752972511
 10
-11.0610607865
 20
-10.7016735927
 10
-11.0046134186
 20
-12.5234980338
 10
-10.9430407039
 20
-14.2817265214
  0
LWPOLYLINE
  5
23E
100
AcDbEntity
  8
ASSI
100
AcDbPolyline
 62
7
  6
CONTINUOUS
 90
10
 70
0
 10
-11.2512908356
 20
2.1100033458
 10
-11.2461138939
 20
0.323387972
 10
-11.233562172
 20
-1.5251270597
 10
-11.2136949511
 20
-3.369292662
 10
-11.1865111239
 20
-5.20906798
 10
-11.1520106841
 20
-7.0444151419
 10
-11.1101937004
 20
-8.8752972511
 10
-11.0610607865
 20
-10.7016735927
 10
-11.0046134186
 20
-12.5234980338
 10
-10.9430407039
 20
-14.2817265214
  0
LWPOLYLINE
  5
23F
100
AcDbEntity
  8
RACCORDO
100
AcDbPolyline
 62
250
  6
CONTINUOUS
 90
10
 70
0
 10
-11.1339911131
 20
1.9240555428
 10
-11.1291534724
 20
0.2296482514
 10
-11.1178616499
 20
-1.4875813583
 10
-11.0998162153
 20
-3.2274252431
 10
-11.0749179768
 20
-4.9768651632
 10
-11.0427555511
 20
-6.7485472824
 10
-11.0020999102
 20
-8.5804779562
 10
-10.951799729
 20
-10.4848465125
 10
-10.8912866443
 20
-12.4483284438
 10
-10.8197102487
 20
-14.4703472294
  0
LWPOLYLINE
  5
240
100
AcDbEntity
  8
ASSI
100
AcDbPolyline
 62
250
  6
CONTINUOUS
 90
10
 70
0
 10
-11.1339911131
 20
1.9240555428
 10
-11.1291534724
 20
0.2296482514
 10
-11.1178616499
 20
-1.4875813583
 10
-11.0998162153
 20
-3.2274252431
 10
-11.0749179768
 20
-4.9768651632
 10
-11.0427555511
 20
-6.7485472824
 10
-11.0020999102
 20
-8.5804779562
 10
-10.951799729
 20
-10.4848465125
 10
-10.8912866443
 20
-12.4483284438
 10
-10.8197102487
 20
-14.4703472294
  0
LWPOLYLINE
  5
241
100
AcDbEntity
  8
RACCORDO
100
AcDbPolyline
 62
7
  6
CONTINUOUS
 90
10
 70
0
 10
-10.9430695297
 20
19.8111568699
 10
-11.0044593196
 20
17.9837472233
 10
-11.0609222127
 20
16.0934109511
 10
-11.1100716993
 20
14.2074061711
 10
-11.1519062537
 20
12.3257797252
 10
-11.186425241
 20
10.4485724034
 10
-11.2136284211
 20
8.575822072
 10
-11.233515682
 20
6.70756705
 10
-11.2460880929
 20
4.8438468408
 10
-11.2512908812
 20
3.0455348863
  0
LWPOLYLINE
  5
242
100
AcDbEntity
  8
ASSI
100
AcDbPolyline
 62
7
  6
CONTINUOUS
 90
10
 70
0
 10
-10.9430695297
 20
19.8111568699
 10
-11.0044593196
 20
17.9837472233
 10
-11.0609222127
 20
16.0934109511
 10
-11.1100716993
 20
14.2074061711
 10
-11.1519062537
 20
12.3257797252
 10
-11.186425241
 20
10.4485724034
 10
-11.2136284211
 20
8.575822072
 10
-11.233515682
 20
6.70756705
 10
-11.2460880929
 20
4.8438468408
 10
-11.2512908812
 20
3.0455348863
  0
LWPOLYLINE
  5
243
100
AcDbEntity
  8
RACCORDO
100
AcDbPolyline
 62
250
  6
CONTINUOUS
 90
10
 70
0
 10
-10.8197102448
 20
19.6212133248
 10
-10.8860734075
 20
17.6784253255
 10
-10.9436881938
 20
15.771589162
 10
-10.9929339057
 20
13.9005433284
 10
-11.033754205
 20
12.0859726486
 10
-11.0671044041
 20
10.3067794657
 10
-11.0941583913
 20
8.5005215011
 10
-11.1147463796
 20
6.6467219211
 10
-11.1281486009
 20
4.7664315357
 10
-11.1339910972
 20
2.8599043258
  0
LWPOLYLINE
  5
244
100
AcDbEntity
  8
ASSI
100
AcDbPolyline
 62
250
  6
CONTINUOUS
 90
10
 70
0
 10
-10.8197102448
 20
19.6212133248
 10
-10.8860734075
 20
17.6784253255
 10
-10.9436881938
 20
15.771589162
 10
-10.9929339057
 20
13.9005433284
 10
-11.033754205
 20
12.0859726486
 10
-11.0671044041
 20
10.3067794657
 10
-11.0941583913
 20
8.5005215011
 10
-11.1147463796
 20
6.6467219211
 10
-11.1281486009
 20
4.7664315357
 10
-11.1339910972
 20
2.8599043258
  0
LWPOLYLINE
  5
245
100
AcDbEntity
  8
0
100
AcDbPolyline
 62
250
  6
CONTINUOUS
 90
16
 70
0
 10
-3.5703762877
 20
-13.0234386799
 10
-3.3871197669
 20
-12.9792878255
 10
-3.2049693111
 20
-12.9317470963
 10
-3.0238972164
 20
-12.8808074946
 10
-2.8438757791
 20
-12.826460023
 10
-2.6648772954
 20
-12.7686956839
 10
-2.4868943474
 20
-12.7075129544
 10
-2.31000066
 20
-12.6429402104
 10
-2.134290244
 20
-12.5750133022
 10
-1.9598571101
 20
-12.5037680803
 10
-1.786795269
 20
-12.4292403952
 10
-1.6151792597
 20
-12.3514581958
 10
-1.4450057343
 20
-12.2704178256
 10
-1.2762518732
 20
-12.1861077268
 10
-1.1088948568
 20
-12.0985163414
 10
-0.9429118654
 20
-12.0076321116
  0
LWPOLYLINE
  5
246
100
AcDbEntity
  8
0
100
AcDbPolyline
 62
250
  6
CONTINUOUS
 90
47
 70
0
 10
-3.8092035739
 20
-12.3856744856
 10
-3.8116113138
 20
-12.3861727772
 10
-3.8140235582
 20
-12.3865727718
 10
-3.8164432592
 20
-12.3868751755
 10
-3.8188733691
 20
-12.3870806946
 10
-3.8213168402
 20
-12.3871900352
 10
-3.8237766247
 20
-12.3872039035
 10
-3.8262556749
 20
-12.3871230057
 10
-3.828756943
 20
-12.3869480479
 10
-3.8316452331
 20
-12.3866339459
 10
-3.8345630369
 20
-12.3861996818
 10
-3.8375069927
 20
-12.3856470253
 10
-3.8404737389
 20
-12.3849777457
 10
-3.8434599138
 20
-12.3841936126
 10
-3.8464621558
 20
-12.3832963954
 10
-3.8494771033
 20
-12.3822878636
 10
-3.8525017341
 20
-12.3811697121
 10
-3.8555343849
 20
-12.3799433372
 10
-3.8585737318
 20
-12.3786100605
 10
-3.8616184508
 20
-12.3771712039
 10
-3.8646672182
 20
-12.3756280889
 10
-3.86771871
 20
-12.3739820374
 10
-3.8707716024
 20
-12.3722343711
 10
-3.8738244354
 20
-12.3703865148
 10
-3.8768752044
 20
-12.3684403067
 10
-3.8799217685
 20
-12.3663976879
 10
-3.882961987
 20
-12.3642605996
 10
-3.8859937191
 20
-12.3620309832
 10
-3.8890148241
 20
-12.3597107799
 10
-3.8920231611
 20
-12.3573019309
 10
-3.8946435019
 20
-12.3551228033
 10
-3.897252209
 20
-12.3528774315
 10
-3.8998490634
 20
-12.3505659543
 10
-3.902433846
 20
-12.3481885105
 10
-3.9050063769
 20
-12.3457450967
 10
-3.9075666328
 20
-12.3432351403
 10
-3.91011463
 20
-12.3406579263
 10
-3.9126503844
 20
-12.33801274
 10
-3.9151729356
 20
-12.3353001076
 10
-3.9176774164
 20
-12.3325255195
 10
-3.9201579833
 20
-12.3296957074
 10
-3.9226087925
 20
-12.3268174029
 10
-3.924545899
 20
-12.3244818879
 10
-3.9264680989
 20
-12.3221082094
 10
-3.9283832701
 20
-12.3196849307
 10
-3.9302992909
 20
-12.3172006152
 10
-3.9322240394
 20
-12.3146438261
  0
LWPOLYLINE
  5
247
100
AcDbEntity
  8
0
100
AcDbPolyline
 62
250
  6
CONTINUOUS
 90
49
 70
0
 10
-4.1413854021
 20
-12.6937434747
 10
-4.1306818599
 20
-12.7079751017
 10
-4.1198983229
 20
-12.721874109
 10
-4.1090203943
 20
-12.7354664666
 10
-4.0980336774
 20
-12.7487781443
 10
-4.0869237754
 20
-12.7618351121
 10
-4.0756762916
 20
-12.7746633398
 10
-4.0642793674
 20
-12.787283586
 10
-4.0527312977
 20
-12.7996957632
 10
-4.0410329154
 20
-12.811894573
 10
-4.0291850536
 20
-12.8238747165
 10
-4.0171885452
 20
-12.8356308953
 10
-4.0050442233
 20
-12.8471578105
 10
-3.9927556507
 20
-12.8584479374
 10
-3.9803373093
 20
-12.869484846
 10
-3.9678064111
 20
-12.8802498804
 10
-3.9551801679
 20
-12.8907243845
 10
-3.9424757914
 20
-12.9008897022
 10
-3.9297104934
 20
-12.9107271775
 10
-3.916900192
 20
-12.9202197449
 10
-3.9040556289
 20
-12.9293567012
 10
-3.8911862522
 20
-12.9381289338
 10
-3.8783015098
 20
-12.94652733
 10
-3.8654108499
 20
-12.9545427772
 10
-3.8525237202
 20
-12.9621661627
 10
-3.8396495156
 20
-12.9693896837
 10
-3.8267974176
 20
-12.9762107764
 10
-3.8139765545
 20
-12.982628187
 10
-3.8011960547
 20
-12.9886406615
 10
-3.7884650463
 20
-12.994246946
 10
-3.7757926578
 20
-12.9994457864
 10
-3.7631892948
 20
-13.004236009
 10
-3.7506704718
 20
-13.0086167593
 10
-3.7382529811
 20
-13.0125872631
 10
-3.7259536147
 20
-13.0161467459
 10
-3.7137891645
 20
-13.0192944336
 10
-3.7017764226
 20
-13.0220295517
 10
-3.6899294676
 20
-13.0243522344
 10
-3.6782515237
 20
-13.0262662495
 10
-3.6667431019
 20
-13.0277762732
 10
-3.6554047129
 20
-13.0288869818
 10
-3.6442368677
 20
-13.0296030514
 10
-3.6332400769
 20
-13.0299291585
 10
-3.6224125191
 20
-13.0298675728
 10
-3.6117430431
 20
-13.0294109388
 10
-3.6012181654
 20
-13.0285494945
 10
-3.5908244027
 20
-13.0272734778
 10
-3.5805482712
 20
-13.025573127
 10
-3.5703762877
 20
-13.0234386799
  0
LWPOLYLINE
  5
248
100
AcDbEntity
  8
0
100
AcDbPolyline
 62
250
  6
CONTINUOUS
 90
87
 70
0
 10
-6.8045403853
 20
7.984812707
 10
-6.8104863008
 20
7.98126849
 10
-6.8161417421
 20
7.9773824548
 10
-6.8215298259
 20
7.9731560707
 10
-6.8266736692
 20
7.9685908071
 10
-6.8315963887
 20
7.9636881333
 10
-6.8374650593
 20
7.9570872995
 10
-6.8430155511
 20
7.9499629466
 10
-6.848239071
 20
7.942316463
 10
-6.8531268261
 20
7.9341492369
 10
-6.8576685063
 20
7.9254668338
 10
-6.8618477345
 20
7.9162915272
 10
-6.8656466165
 20
7.9066497674
 10
-6.8690472581
 20
7.896568005
 10
-6.871469505
 20
7.8882032147
 10
-6.873619213
 20
7.8795851746
 10
-6.8754901695
 20
7.8707253085
 10
-6.8770761615
 20
7.86163504
 10
-6.8783709765
 20
7.8523257927
 10
-6.8793692818
 20
7.8428084213
 10
-6.880069266
 20
7.8330915038
 10
-6.8804699979
 20
7.8231830491
 10
-6.8805705462
 20
7.8130910663
 10
-6.8803699797
 20
7.8028235643
 10
-6.879867501
 20
7.7923872293
 10
-6.879062848
 20
7.7817834566
 10
-6.8779558924
 20
7.7710123187
 10
-6.8765465058
 20
7.7600738883
 10
-6.87483456
 20
7.7489682379
 10
-6.8728204812
 20
7.7377001112
 10
-6.8705069141
 20
7.7262929373
 10
-6.8678970579
 20
7.7147748161
 10
-6.8649941118
 20
7.7031738479
 10
-6.8618012749
 20
7.6915181329
 10
-6.8583233479
 20
7.6798361521
 10
-6.8545715364
 20
7.6681579104
 10
-6.8505586475
 20
7.6565137938
 10
-6.846297488
 20
7.644934188
 10
-6.8418008651
 20
7.6334494789
 10
-6.8370795541
 20
7.6220848852
 10
-6.8321362036
 20
7.6108449564
 10
-6.8269714303
 20
7.5997290752
 10
-6.8215858512
 20
7.5887366238
 10
-6.8159800832
 20
7.5778669848
 10
-6.8101544583
 20
7.5671196702
 10
-6.804108169
 20
7.5564947111
 10
-6.797840123
 20
7.5459922679
 10
-6.791349228
 20
7.5356125012
 10
-6.7846343918
 20
7.5253555717
 10
-6.7776976856
 20
7.5152262315
 10
-6.7705538353
 20
7.5052475991
 10
-6.7632207305
 20
7.4954473848
 10
-6.7557162605
 20
7.4858532986
 10
-6.748058315
 20
7.4764930508
 10
-6.7402653354
 20
7.4673927392
 10
-6.732357972
 20
7.4585720138
 10
-6.7243574269
 20
7.450048912
 10
-6.7162849022
 20
7.4418414716
 10
-6.7081616001
 20
7.4339677302
 10
-6.7000052221
 20
7.4264427095
 10
-6.6918194668
 20
7.4192693682
 10
-6.6836045318
 20
7.412447649
 10
-6.6753606151
 20
7.4059774948
 10
-6.6670879144
 20
7.3998588482
 10
-6.6587877771
 20
7.3940922812
 10
-6.6504661479
 20
7.3886808828
 10
-6.6421301212
 20
7.3836283711
 10
-6.6337867913
 20
7.378938464
 10
-6.6254432526
 20
7.3746148798
 10
-6.6171075519
 20
7.3706608628
 10
-6.608791546
 20
7.3670777629
 10
-6.600508044
 20
7.3638664563
 10
-6.5922698554
 20
7.3610278192
 10
-6.5840897893
 20
7.3585627278
 10
-6.5739670703
 20
7.3560075269
 10
-6.5639868879
 20
7.3540362504
 10
-6.5541809477
 20
7.3526477886
 10
-6.5445809553
 20
7.3518410319
 10
-6.5352143106
 20
7.3516138945
 10
-6.5260911898
 20
7.3519603877
 10
-6.5172174635
 20
7.3528735467
 10
-6.5085990021
 20
7.3543464067
 10
-6.5018895734
 20
7.3559270369
 10
-6.4953359054
 20
7.3578820786
 10
-6.488926632
 20
7.3602321921
 10
-6.4826503873
 20
7.3629980375
 10
-6.4764958053
 20
7.3662002751
  0
LWPOLYLINE
  5
249
100
AcDbEntity
  8
0
100
AcDbPolyline
 62
250
  6
CONTINUOUS
 90
16
 70
0
 10
-6.4764958053
 20
7.3662002751
 10
-6.319737814
 20
7.4519810687
 10
-6.1611187231
 20
7.5350280393
 10
-6.0006080519
 20
7.6153574823
 10
-5.8381753195
 20
7.6929856933
 10
-5.673790045
 20
7.7679289678
 10
-5.507440183
 20
7.840195947
 10
-5.3391874285
 20
7.9097646545
 10
-5.1691119121
 20
7.9766054599
 10
-4.9972937642
 20
8.0406887324
 10
-4.8238131153
 20
8.1019848415
 10
-4.648731727
 20
8.160470982
 10
-4.472037886
 20
8.2161516514
 10
-4.2937015099
 20
8.2690381724
 10
-4.1136925167
 20
8.3191418678
 10
-3.931980824
 20
8.3664740606
  0
LWPOLYLINE
  5
24A
100
AcDbEntity
  8
0
100
AcDbPolyline
 62
250
  6
CONTINUOUS
 90
16
 70
0
 10
-3.9322240394
 20
-12.3146438261
 10
-4.1141774257
 20
-12.0657903267
 10
-4.2943915775
 20
-11.8154036464
 10
-4.4728971032
 20
-11.5634439439
 10
-4.6497246109
 20
-11.3098713777
 10
-4.8249047088
 20
-11.0546461066
 10
-4.9984495945
 20
-10.7977564416
 10
-5.1702978229
 20
-10.5393033034
 10
-5.3403695385
 20
-10.279415765
 10
-5.5085848857
 20
-10.0182228996
 10
-5.6748640087
 20
-9.7558537801
 10
-5.8391455394
 20
-9.4924092865
 10
-6.0014420584
 20
-9.2278775266
 10
-6.1617846336
 20
-8.962218415
 10
-6.3202043332
 20
-8.6953918662
 10
-6.4767322252
 20
-8.4273577949
  0
LWPOLYLINE
  5
24B
100
AcDbEntity
  8
0
100
AcDbPolyline
 62
250
  6
CONTINUOUS
 90
87
 70
0
 10
-6.4767322252
 20
-8.4273577949
 10
-6.4829486575
 20
-8.4168896673
 10
-6.4892835628
 20
-8.4066973337
 10
-6.4957481796
 20
-8.3967473423
 10
-6.5023537466
 20
-8.3870062413
 10
-6.5091115022
 20
-8.377440579
 10
-6.5177849948
 20
-8.3656924826
 10
-6.5267067609
 20
-8.3541803003
 10
-6.5358697193
 20
-8.3429180918
 10
-6.5452667882
 20
-8.3319199167
 10
-6.5548869726
 20
-8.3212036491
 10
-6.5647036218
 20
-8.3108024209
 10
-6.5746861716
 20
-8.3007531785
 10
-6.5848040577
 20
-8.2910928682
 10
-6.5929757769
 20
-8.2836686913
 10
-6.6012019457
 20
-8.2765312659
 10
-6.6094699598
 20
-8.2696947815
 10
-6.6177672146
 20
-8.2631734275
 10
-6.6260811058
 20
-8.2569813932
 10
-6.6344000062
 20
-8.2511312499
 10
-6.6427161983
 20
-8.2456290968
 10
-6.6510229415
 20
-8.2404794148
 10
-6.6593134955
 20
-8.235686685
 10
-6.66758112
 20
-8.2312553886
 10
-6.6758201933
 20
-8.2271892692
 10
-6.6840295686
 20
-8.2234891216
 10
-6.6922092179
 20
-8.220155003
 10
-6.7003591132
 20
-8.2171869708
 10
-6.7084792264
 20
-8.2145850825
 10
-6.7165660529
 20
-8.2123507412
 10
-6.7246021817
 20
-8.2104907336
 10
-6.7325667249
 20
-8.2090131922
 10
-6.740438795
 20
-8.2079262496
 10
-6.7481975042
 20
-8.2072380383
 10
-6.755822542
 20
-8.2069545865
 10
-6.7632959063
 20
-8.2070735048
 10
-6.7706001723
 20
-8.2075902996
 10
-6.7777179149
 20
-8.2085004771
 10
-6.7846317094
 20
-8.2097995437
 10
-6.7913271293
 20
-8.2114835801
 10
-6.7978017422
 20
-8.2135509654
 10
-6.8040561141
 20
-8.2160006533
 10
-6.8100908111
 20
-8.2188315972
 10
-6.8159063994
 20
-8.2220427509
 10
-6.8215032648
 20
-8.2256335406
 10
-6.8268810729
 20
-8.229605284
 10
-6.8320393091
 20
-8.2339597717
 10
-6.8369774589
 20
-8.238698794
 10
-6.8416950077
 20
-8.2438241415
 10
-6.8461893702
 20
-8.2493350448
 10
-6.8504496785
 20
-8.2552204947
 10
-6.8544629941
 20
-8.2614669223
 10
-6.8582163785
 20
-8.2680607587
 10
-6.861696893
 20
-8.274988435
 10
-6.8648932301
 20
-8.2822348386
 10
-6.8678006058
 20
-8.2897786836
 10
-6.8704158672
 20
-8.2975971403
 10
-6.8727358613
 20
-8.3056673791
 10
-6.8747574351
 20
-8.3139665705
 10
-6.876477994
 20
-8.3224756166
 10
-6.8778971772
 20
-8.3311903465
 10
-6.8790151822
 20
-8.3401103208
 10
-6.8798322066
 20
-8.3492351005
 10
-6.8803484478
 20
-8.3585642461
 10
-6.8805642001
 20
-8.3680959359
 10
-6.8804801445
 20
-8.3778228171
 10
-6.8800970587
 20
-8.3877361545
 10
-6.8794157204
 20
-8.3978272128
 10
-6.8784369072
 20
-8.4080872567
 10
-6.877162279
 20
-8.4185059359
 10
-6.8755970232
 20
-8.42906644
 10
-6.8737472096
 20
-8.4397503436
 10
-6.8716189076
 20
-8.4505392216
 10
-6.8692181869
 20
-8.4614146484
 10
-6.8658444597
 20
-8.4751006875
 10
-6.862072512
 20
-8.4888458789
 10
-6.8579202938
 20
-8.5026029318
 10
-6.8534057552
 20
-8.5163245556
 10
-6.8485452828
 20
-8.5299694462
 10
-6.8433490111
 20
-8.5435202466
 10
-6.837825511
 20
-8.5569655867
 10
-6.8319833536
 20
-8.5702940963
 10
-6.8270814081
 20
-8.5808704617
 10
-6.8219581185
 20
-8.5913908566
 10
-6.8165905963
 20
-8.6018813588
 10
-6.8109559527
 20
-8.6123680462
 10
-6.8050312988
 20
-8.6228769966
  0
LWPOLYLINE
  5
24C
100
AcDbEntity
  8
0
100
AcDbPolyline
 62
250
  6
CONTINUOUS
 90
16
 70
0
 10
-6.805027372
 20
-8.6228837987
 10
-6.6412673925
 20
-8.9041765388
 10
-6.4755100289
 20
-9.184120023
 10
-6.3077219623
 20
-9.4627582323
 10
-6.1378698735
 20
-9.7401351477
 10
-5.9659204433
 20
-10.0162947501
 10
-5.7918605018
 20
-10.2912503127
 10
-5.6157574746
 20
-10.5648922777
 10
-5.4376989365
 20
-10.8370803797
 10
-5.2577724625
 20
-11.107674353
 10
-5.0760656272
 20
-11.3765339322
 10
-4.8926459594
 20
-11.6435495466
 10
-4.7075008041
 20
-11.9087344047
 10
-4.5205974602
 20
-12.1721324099
 10
-4.3319032266
 20
-12.4337874654
 10
-4.1413854021
 20
-12.6937434747
  0
LWPOLYLINE
  5
24D
100
AcDbEntity
  8
RACCORDO
100
AcDbPolyline
 62
250
  6
CONTINUOUS
 90
16
 70
0
 10
-10.826297172
 20
2.47581383
 10
-10.8327024044
 20
2.4714253304
 10
-10.8382735114
 20
2.4667895873
 10
-10.8430104928
 20
2.4619066005
 10
-10.8469443257
 20
2.4567243088
 10
-10.8500440331
 20
2.4512947735
 10
-10.8522166843
 20
2.4457741787
 10
-10.8534339393
 20
2.4401614296
 10
-10.8537241381
 20
2.4344576209
 10
-10.8530793702
 20
2.428822221
 10
-10.8514696444
 20
2.4232544985
 10
-10.8489249519
 20
2.4177551847
 10
-10.8455273555
 20
2.4124859416
 10
-10.8413042098
 20
2.4075006564
 10
-10.8362281602
 20
2.4027454418
 10
-10.8302992068
 20
2.3982202979
  0
LWPOLYLINE
  5
24E
100
AcDbEntity
  8
ASSI
100
AcDbPolyline
 62
250
  6
CONTINUOUS
 90
16
 70
0
 10
-10.826297172
 20
2.47581383
 10
-10.8327024044
 20
2.4714253304
 10
-10.8382735114
 20
2.4667895873
 10
-10.8430104928
 20
2.4619066005
 10
-10.8469443257
 20
2.4567243088
 10
-10.8500440331
 20
2.4512947735
 10
-10.8522166843
 20
2.4457741787
 10
-10.8534339393
 20
2.4401614296
 10
-10.8537241381
 20
2.4344576209
 10
-10.8530793702
 20
2.428822221
 10
-10.8514696444
 20
2.4232544985
 10
-10.8489249519
 20
2.4177551847
 10
-10.8455273555
 20
2.4124859416
 10
-10.8413042098
 20
2.4075006564
 10
-10.8362281602
 20
2.4027454418
 10
-10.8302992068
 20
2.3982202979
  0
LWPOLYLINE
  5
24F
100
AcDbEntity
  8
RACCORDO
100
AcDbPolyline
 62
7
  6
CONTINUOUS
 90
11
 70
0
 10
-11.034511994
 20
2.4906701049
 10
-11.0664269532
 20
2.4691178422
 10
-11.1048077766
 20
2.4376821784
 10
-11.1392177868
 20
2.4028306208
 10
-11.1692137241
 20
2.3651985782
 10
-11.1946866067
 20
2.3251585976
 10
-11.2156643831
 20
2.2828083902
 10
-11.2319078159
 20
2.2387194032
 10
-11.2432628716
 20
2.1935128127
 10
-11.2497159367
 20
2.1473747399
 10
-11.2512855754
 20
2.1097338616
  0
LWPOLYLINE
  5
250
100
AcDbEntity
  8
ASSI
100
AcDbPolyline
 62
7
  6
CONTINUOUS
 90
11
 70
0
 10
-11.034511994
 20
2.4906701049
 10
-11.0664269532
 20
2.4691178422
 10
-11.1048077766
 20
2.4376821784
 10
-11.1392177868
 20
2.4028306208
 10
-11.1692137241
 20
2.3651985782
 10
-11.1946866067
 20
2.3251585976
 10
-11.2156643831
 20
2.2828083902
 10
-11.2319078159
 20
2.2387194032
 10
-11.2432628716
 20
2.1935128127
 10
-11.2497159367
 20
2.1473747399
 10
-11.2512855754
 20
2.1097338616
  0
LINE
  5
251
100
AcDbEntity
  8
RACCORDO
100
AcDbLine
 62
7
  6
CONTINUOUS
 10
-10.9006211877
 20
2.5735318593
 11
-11.0343066068
 21
2.4908090609
  0
LINE
  5
252
100
AcDbEntity
  8
ASSI
100
AcDbLine
 62
7
  6
CONTINUOUS
 10
-10.9006211877
 20
2.5735318593
 11
-11.0343066068
 21
2.4908090609
  0
LINE
  5
253
100
AcDbEntity
  8
RACCORDO
100
AcDbLine
 62
250
  6
CONTINUOUS
 10
-10.7901967028
 20
2.4981523307
 11
-10.826297172
 21
2.47581383
  0
LINE
  5
254
100
AcDbEntity
  8
ASSI
100
AcDbLine
 62
250
  6
CONTINUOUS
 10
-10.7901967028
 20
2.4981523307
 11
-10.826297172
 21
2.47581383
  0
LINE
  5
255
100
AcDbEntity
  8
RACCORDO
100
AcDbLine
 62
250
  6
CONTINUOUS
 10
4.863348232
 20
12.4318263552
 11
6.7265320859
 21
13.5625729359
  0
LINE
  5
256
100
AcDbEntity
  8
ASSI
100
AcDbLine
 62
250
  6
CONTINUOUS
 10
4.863348232
 20
12.4318263552
 11
6.7265320859
 21
13.5625729359
  0
LINE
  5
257
100
AcDbEntity
  8
RACCORDO
100
AcDbLine
 62
250
  6
CONTINUOUS
 10
5.2260290746
 20
11.8254233741
 11
7.1113191734
 21
12.9695860011
  0
LINE
  5
258
100
AcDbEntity
  8
ASSI
100
AcDbLine
 62
250
  6
CONTINUOUS
 10
5.2260290746
 20
11.8254233741
 11
7.1113191734
 21
12.9695860011
  0
LWPOLYLINE
  5
259
100
AcDbEntity
  8
RACCORDO
100
AcDbPolyline
 62
250
  6
CONTINUOUS
 90
13
 70
0
 10
-10.8302992068
 20
2.3982202979
 10
-10.8700486214
 20
2.3757891821
 10
-10.9090825733
 20
2.3482278809
 10
-10.9467395541
 20
2.3160034755
 10
-10.9823813912
 20
2.2796620729
 10
-11.0154040623
 20
2.2398195508
 10
-11.0452479323
 20
2.1971511203
 10
-11.0714072373
 20
2.1523798833
 10
-11.0934386555
 20
2.1062645778
 10
-11.1109688206
 20
2.0595867197
 10
-11.1237006488
 20
2.0131373588
 10
-11.1314183739
 20
1.9677036721
 10
-11.1339912037
 20
1.9240556243
  0
LWPOLYLINE
  5
25A
100
AcDbEntity
  8
ASSI
100
AcDbPolyline
 62
250
  6
CONTINUOUS
 90
13
 70
0
 10
-10.8302992068
 20
2.3982202979
 10
-10.8700486214
 20
2.3757891821
 10
-10.9090825733
 20
2.3482278809
 10
-10.9467395541
 20
2.3160034755
 10
-10.9823813912
 20
2.2796620729
 10
-11.0154040623
 20
2.2398195508
 10
-11.0452479323
 20
2.1971511203
 10
-11.0714072373
 20
2.1523798833
 10
-11.0934386555
 20
2.1062645778
 10
-11.1109688206
 20
2.0595867197
 10
-11.1237006488
 20
2.0131373588
 10
-11.1314183739
 20
1.9677036721
 10
-11.1339912037
 20
1.9240556243
  0
LWPOLYLINE
  5
25B
100
AcDbEntity
  8
RACCORDO
100
AcDbPolyline
 62
250
  6
CONTINUOUS
 90
19
 70
0
 10
-7.5056233238
 20
-0.4595187898
 10
-7.4746054065
 20
-0.5847300635
 10
-7.4378015413
 20
-0.7098118708
 10
-7.3952063592
 20
-0.8347613401
 10
-7.3465249466
 20
-0.960258781
 10
-7.2920367053
 20
-1.0856154663
 10
-7.2325985609
 20
-1.2087754262
 10
-7.1681595581
 20
-1.3296190539
 10
-7.0987540212
 20
-1.4482568719
 10
-7.0253713144
 20
-1.5629806069
 10
-6.9479551373
 20
-1.673733329
 10
-6.8665458096
 20
-1.7805631394
 10
-6.7822835465
 20
-1.8819225795
 10
-6.6950512323
 20
-1.9777899702
 10
-6.6049531346
 20
-2.0681797792
 10
-6.5134696566
 20
-2.1516032595
 10
-6.421094654
 20
-2.2275643278
 10
-6.3273296656
 20
-2.2965563453
 10
-6.232171026
 20
-2.3585771661
  0
LWPOLYLINE
  5
25C
100
AcDbEntity
  8
ASSI
100
AcDbPolyline
 62
250
  6
CONTINUOUS
 90
19
 70
0
 10
-7.5056233238
 20
-0.4595187898
 10
-7.4746054065
 20
-0.5847300635
 10
-7.4378015413
 20
-0.7098118708
 10
-7.3952063592
 20
-0.8347613401
 10
-7.3465249466
 20
-0.960258781
 10
-7.2920367053
 20
-1.0856154663
 10
-7.2325985609
 20
-1.2087754262
 10
-7.1681595581
 20
-1.3296190539
 10
-7.0987540212
 20
-1.4482568719
 10
-7.0253713144
 20
-1.5629806069
 10
-6.9479551373
 20
-1.673733329
 10
-6.8665458096
 20
-1.7805631394
 10
-6.7822835465
 20
-1.8819225795
 10
-6.6950512323
 20
-1.9777899702
 10
-6.6049531346
 20
-2.0681797792
 10
-6.5134696566
 20
-2.1516032595
 10
-6.421094654
 20
-2.2275643278
 10
-6.3273296656
 20
-2.2965563453
 10
-6.232171026
 20
-2.3585771661
  0
LINE
  5
25D
100
AcDbEntity
  8
DRAFT
100
AcDbLine
 62
7
  6
CONTINUOUS
 10
-6.2758776586
 20
21.0700013639
 11
-6.2545432796
 21
20.4497760159
  0
LINE
  5
25E
100
AcDbEntity
  8
ASSI
100
AcDbLine
 62
7
  6
CONTINUOUS
 10
-6.2758776586
 20
21.0700013639
 11
-6.2545432796
 21
20.4497760159
  0
LWPOLYLINE
  5
25F
100
AcDbEntity
  8
RACCORDO
100
AcDbPolyline
 62
250
  6
CONTINUOUS
 90
6
 70
0
 10
-6.9436973815
 20
0.3831571759
 10
-6.9542471984
 20
0.3566505264
 10
-6.9676719206
 20
0.3332833563
 10
-6.9838214695
 20
0.3133170228
 10
-7.0025153521
 20
0.2969748151
 10
-7.015889176
 20
0.288408643
  0
LWPOLYLINE
  5
260
100
AcDbEntity
  8
ASSI
100
AcDbPolyline
 62
250
  6
CONTINUOUS
 90
6
 70
0
 10
-6.9436973815
 20
0.3831571759
 10
-6.9542471984
 20
0.3566505264
 10
-6.9676719206
 20
0.3332833563
 10
-6.9838214695
 20
0.3133170228
 10
-7.0025153521
 20
0.2969748151
 10
-7.015889176
 20
0.288408643
  0
LWPOLYLINE
  5
261
100
AcDbEntity
  8
RACCORDO
100
AcDbPolyline
 62
250
  6
CONTINUOUS
 90
19
 70
0
 10
-1.7272997034
 20
-4.9596334085
 10
-1.6270505572
 20
-5.0104541961
 10
-1.5280960422
 20
-5.0527539525
 10
-1.4304397591
 20
-5.0865347923
 10
-1.3335571007
 20
-5.1118961521
 10
-1.2379771626
 20
-5.1287412491
 10
-1.1452883449
 20
-5.1367804266
 10
-1.0556145567
 20
-5.1358625545
 10
-0.9688442242
 20
-5.1261461991
 10
-0.8862203818
 20
-5.1078109652
 10
-0.8078121947
 20
-5.0807527183
 10
-0.7335657793
 20
-5.0450848792
 10
-0.6645452848
 20
-5.0013167962
 10
-0.6008017872
 20
-4.9492882594
 10
-0.542299899
 20
-4.8891690574
 10
-0.4899784034
 20
-4.8219661089
 10
-0.444156135
 20
-4.7480186361
 10
-0.4045288629
 20
-4.6669963192
 10
-0.3711015813
 20
-4.5789022273
  0
LWPOLYLINE
  5
262
100
AcDbEntity
  8
ASSI
100
AcDbPolyline
 62
250
  6
CONTINUOUS
 90
19
 70
0
 10
-1.7272997034
 20
-4.9596334085
 10
-1.6270505572
 20
-5.0104541961
 10
-1.5280960422
 20
-5.0527539525
 10
-1.4304397591
 20
-5.0865347923
 10
-1.3335571007
 20
-5.1118961521
 10
-1.2379771626
 20
-5.1287412491
 10
-1.1452883449
 20
-5.1367804266
 10
-1.0556145567
 20
-5.1358625545
 10
-0.9688442242
 20
-5.1261461991
 10
-0.8862203818
 20
-5.1078109652
 10
-0.8078121947
 20
-5.0807527183
 10
-0.7335657793
 20
-5.0450848792
 10
-0.6645452848
 20
-5.0013167962
 10
-0.6008017872
 20
-4.9492882594
 10
-0.542299899
 20
-4.8891690574
 10
-0.4899784034
 20
-4.8219661089
 10
-0.444156135
 20
-4.7480186361
 10
-0.4045288629
 20
-4.6669963192
 10
-0.3711015813
 20
-4.5789022273
  0
LWPOLYLINE
  5
263
100
AcDbEntity
  8
RACCORDO
100
AcDbPolyline
 62
250
  6
CONTINUOUS
 90
10
 70
0
 10
-6.232171026
 20
-2.3585771661
 10
-5.743252159
 20
-2.6543937384
 10
-5.2514106383
 20
-2.9485176431
 10
-4.756655938
 20
-3.2409433534
 10
-4.2590043163
 20
-3.5316614011
 10
-3.7584585445
 20
-3.8206702521
 10
-3.2550077245
 20
-4.1079762001
 10
-2.7486545156
 20
-4.3935776464
 10
-2.2394153174
 20
-4.6774652053
 10
-1.7272997034
 20
-4.9596334085
  0
LWPOLYLINE
  5
264
100
AcDbEntity
  8
ASSI
100
AcDbPolyline
 62
250
  6
CONTINUOUS
 90
10
 70
0
 10
-6.232171026
 20
-2.3585771661
 10
-5.743252159
 20
-2.6543937384
 10
-5.2514106383
 20
-2.9485176431
 10
-4.756655938
 20
-3.2409433534
 10
-4.2590043163
 20
-3.5316614011
 10
-3.7584585445
 20
-3.8206702521
 10
-3.2550077245
 20
-4.1079762001
 10
-2.7486545156
 20
-4.3935776464
 10
-2.2394153174
 20
-4.6774652053
 10
-1.7272997034
 20
-4.9596334085
  0
LWPOLYLINE
  5
265
100
AcDbEntity
  8
RACCORDO
100
AcDbPolyline
 62
250
  6
CONTINUOUS
 90
19
 70
0
 10
-6.9436973813
 20
-0.3631517003
 10
-6.9196763295
 20
-0.4617198647
 10
-6.8908062807
 20
-0.5611862201
 10
-6.8572146691
 20
-0.6610658295
 10
-6.8190479328
 20
-0.7609368081
 10
-6.7764851079
 20
-0.8602371382
 10
-6.7297631221
 20
-0.9582732614
 10
-6.679170885
 20
-1.0544954077
 10
-6.6249384604
 20
-1.1485052089
 10
-6.5672622678
 20
-1.239852618
 10
-6.5064421054
 20
-1.3280854682
 10
-6.4427890331
 20
-1.4127743623
 10
-6.3765308413
 20
-1.4935156016
 10
-6.3079506858
 20
-1.5699595819
 10
-6.237451292
 20
-1.6416593082
 10
-6.1654627775
 20
-1.7081133369
 10
-6.0923850747
 20
-1.7689683526
 10
-6.0185763817
 20
-1.8239927525
 10
-5.9444184355
 20
-1.8729359501
  0
LWPOLYLINE
  5
266
100
AcDbEntity
  8
ASSI
100
AcDbPolyline
 62
250
  6
CONTINUOUS
 90
19
 70
0
 10
-6.9436973813
 20
-0.3631517003
 10
-6.9196763295
 20
-0.4617198647
 10
-6.8908062807
 20
-0.5611862201
 10
-6.8572146691
 20
-0.6610658295
 10
-6.8190479328
 20
-0.7609368081
 10
-6.7764851079
 20
-0.8602371382
 10
-6.7297631221
 20
-0.9582732614
 10
-6.679170885
 20
-1.0544954077
 10
-6.6249384604
 20
-1.1485052089
 10
-6.5672622678
 20
-1.239852618
 10
-6.5064421054
 20
-1.3280854682
 10
-6.4427890331
 20
-1.4127743623
 10
-6.3765308413
 20
-1.4935156016
 10
-6.3079506858
 20
-1.5699595819
 10
-6.237451292
 20
-1.6416593082
 10
-6.1654627775
 20
-1.7081133369
 10
-6.0923850747
 20
-1.7689683526
 10
-6.0185763817
 20
-1.8239927525
 10
-5.9444184355
 20
-1.8729359501
  0
LINE
  5
267
100
AcDbEntity
  8
DRAFT
100
AcDbLine
 62
7
  6
CONTINUOUS
 10
1.4323019574
 20
16.0114879148
 11
1.6437182907
 21
16.4973259186
  0
LINE
  5
268
100
AcDbEntity
  8
ASSI
100
AcDbLine
 62
7
  6
CONTINUOUS
 10
1.4323019574
 20
16.0114879148
 11
1.6437182907
 21
16.4973259186
  0
LWPOLYLINE
  5
269
100
AcDbEntity
  8
RACCORDO
100
AcDbPolyline
 62
250
  6
CONTINUOUS
 90
8
 70
0
 10
-6.6845248311
 20
0.7374603591
 10
-6.7296346646
 20
0.7080383347
 10
-6.776369854
 20
0.6688981258
 10
-6.8189498836
 20
0.6233585637
 10
-6.8571392767
 20
0.5717077317
 10
-6.8907572075
 20
0.51425453
 10
-6.919653354
 20
0.4512924565
 10
-6.9436973813
 20
0.3831571767
  0
LWPOLYLINE
  5
26A
100
AcDbEntity
  8
ASSI
100
AcDbPolyline
 62
250
  6
CONTINUOUS
 90
8
 70
0
 10
-6.6845248311
 20
0.7374603591
 10
-6.7296346646
 20
0.7080383347
 10
-6.776369854
 20
0.6688981258
 10
-6.8189498836
 20
0.6233585637
 10
-6.8571392767
 20
0.5717077317
 10
-6.8907572075
 20
0.51425453
 10
-6.919653354
 20
0.4512924565
 10
-6.9436973813
 20
0.3831571767
  0
LWPOLYLINE
  5
26B
100
AcDbEntity
  8
RACCORDO
100
AcDbPolyline
 62
250
  6
CONTINUOUS
 90
13
 70
0
 10
-7.213798861
 20
0.0225017096
 10
-7.252385648
 20
-0.0017129844
 10
-7.289816224
 20
-0.0301763234
 10
-7.325735903
 20
-0.0627026071
 10
-7.3596851094
 20
-0.0996352622
 10
-7.3913754643
 20
-0.1406069429
 10
-7.4204120727
 20
-0.184099991
 10
-7.4456132806
 20
-0.2293549483
 10
-7.4665130664
 20
-0.2761811212
 10
-7.4835474304
 20
-0.323374252
 10
-7.4963563166
 20
-0.3700023862
 10
-7.5038797109
 20
-0.4155973794
 10
-7.5056233238
 20
-0.4595187898
  0
LWPOLYLINE
  5
26C
100
AcDbEntity
  8
ASSI
100
AcDbPolyline
 62
250
  6
CONTINUOUS
 90
13
 70
0
 10
-7.213798861
 20
0.0225017096
 10
-7.252385648
 20
-0.0017129844
 10
-7.289816224
 20
-0.0301763234
 10
-7.325735903
 20
-0.0627026071
 10
-7.3596851094
 20
-0.0996352622
 10
-7.3913754643
 20
-0.1406069429
 10
-7.4204120727
 20
-0.184099991
 10
-7.4456132806
 20
-0.2293549483
 10
-7.4665130664
 20
-0.2761811212
 10
-7.4835474304
 20
-0.323374252
 10
-7.4963563166
 20
-0.3700023862
 10
-7.5038797109
 20
-0.4155973794
 10
-7.5056233238
 20
-0.4595187898
  0
LINE
  5
26D
100
AcDbEntity
  8
RACCORDO
100
AcDbLine
 62
250
  6
CONTINUOUS
 10
-6.6812549865
 20
0.7393192763
 11
-6.6845248311
 21
0.7374603591
  0
LINE
  5
26E
100
AcDbEntity
  8
ASSI
100
AcDbLine
 62
250
  6
CONTINUOUS
 10
-6.6812549865
 20
0.7393192763
 11
-6.6845248311
 21
0.7374603591
  0
LINE
  5
26F
100
AcDbEntity
  8
RACCORDO
100
AcDbLine
 62
250
  6
CONTINUOUS
 10
-6.3372953432
 20
0.7233503434
 11
-6.9436973813
 21
0.3831571767
  0
LINE
  5
270
100
AcDbEntity
  8
ASSI
100
AcDbLine
 62
250
  6
CONTINUOUS
 10
-6.3372953432
 20
0.7233503434
 11
-6.9436973813
 21
0.3831571767
  0
LINE
  5
271
100
AcDbEntity
  8
RACCORDO
100
AcDbLine
 62
7
  6
CONTINUOUS
 10
-7.0158891761
 20
0.288408643
 11
-6.281363554
 21
0.6997336846
  0
LINE
  5
272
100
AcDbEntity
  8
ASSI
100
AcDbLine
 62
7
  6
CONTINUOUS
 10
-7.0158891761
 20
0.288408643
 11
-6.281363554
 21
0.6997336846
  0
LWPOLYLINE
  5
273
100
AcDbEntity
  8
RACCORDO
100
AcDbPolyline
 62
7
  6
CONTINUOUS
 90
12
 70
0
 10
-6.684570069
 20
0.7374205041
 10
-6.6607714145
 20
0.7493900975
 10
-6.6245335169
 20
0.7612022461
 10
-6.5851156769
 20
0.7675525135
 10
-6.5424856833
 20
0.7688662962
 10
-6.4956185892
 20
0.7651587402
 10
-6.4453783569
 20
0.7563105539
 10
-6.3925902769
 20
0.7424188422
 10
-6.3352671031
 20
0.7226509033
 10
-6.2727451173
 20
0.6960695362
 10
-6.2065023549
 20
0.6626554231
 10
-6.1499029565
 20
0.6300662311
  0
LWPOLYLINE
  5
274
100
AcDbEntity
  8
ASSI
100
AcDbPolyline
 62
7
  6
CONTINUOUS
 90
12
 70
0
 10
-6.684570069
 20
0.7374205041
 10
-6.6607714145
 20
0.7493900975
 10
-6.6245335169
 20
0.7612022461
 10
-6.5851156769
 20
0.7675525135
 10
-6.5424856833
 20
0.7688662962
 10
-6.4956185892
 20
0.7651587402
 10
-6.4453783569
 20
0.7563105539
 10
-6.3925902769
 20
0.7424188422
 10
-6.3352671031
 20
0.7226509033
 10
-6.2727451173
 20
0.6960695362
 10
-6.2065023549
 20
0.6626554231
 10
-6.1499029565
 20
0.6300662311
  0
LWPOLYLINE
  5
275
100
AcDbEntity
  8
RACCORDO
100
AcDbPolyline
 62
250
  6
CONTINUOUS
 90
16
 70
0
 10
4.0076301846
 20
-6.1690141967
 10
4.0154509415
 20
-6.172427975
 10
4.023659344
 20
-6.1753430454
 10
4.0322553922
 20
-6.1777594081
 10
4.0413318457
 20
-6.1796925269
 10
4.0507959448
 20
-6.1811269379
 10
4.0603694107
 20
-6.1820162492
 10
4.0700507277
 20
-6.1823430013
 10
4.0798414116
 20
-6.1821246537
 10
4.0894677307
 20
-6.1813671928
 10
4.0989275601
 20
-6.1800541233
 10
4.1082230248
 20
-6.1782019405
 10
4.1170867671
 20
-6.1758661168
 10
4.1254296681
 20
-6.1730651427
 10
4.1333408468
 20
-6.1697805275
 10
4.1408203033
 20
-6.1660122714
  0
LWPOLYLINE
  5
276
100
AcDbEntity
  8
ASSI
100
AcDbPolyline
 62
250
  6
CONTINUOUS
 90
16
 70
0
 10
4.0076301846
 20
-6.1690141967
 10
4.0154509415
 20
-6.172427975
 10
4.023659344
 20
-6.1753430454
 10
4.0322553922
 20
-6.1777594081
 10
4.0413318457
 20
-6.1796925269
 10
4.0507959448
 20
-6.1811269379
 10
4.0603694107
 20
-6.1820162492
 10
4.0700507277
 20
-6.1823430013
 10
4.0798414116
 20
-6.1821246537
 10
4.0894677307
 20
-6.1813671928
 10
4.0989275601
 20
-6.1800541233
 10
4.1082230248
 20
-6.1782019405
 10
4.1170867671
 20
-6.1758661168
 10
4.1254296681
 20
-6.1730651427
 10
4.1333408468
 20
-6.1697805275
 10
4.1408203033
 20
-6.1660122714
  0
LWPOLYLINE
  5
277
100
AcDbEntity
  8
RACCORDO
100
AcDbPolyline
 62
250
  6
CONTINUOUS
 90
16
 70
0
 10
3.752677045
 20
-6.6713201261
 10
3.7913707983
 20
-6.6883057209
 10
3.8327318069
 20
-6.7030279224
 10
3.8763673908
 20
-6.7153490473
 10
3.9218592414
 20
-6.7251530631
 10
3.9687809074
 20
-6.7323505695
 10
4.0167031004
 20
-6.7368770009
 10
4.0651804412
 20
-6.7386887401
 10
4.1137485894
 20
-6.7377670371
 10
4.1619430158
 20
-6.7341213987
 10
4.2093034449
 20
-6.7277869918
 10
4.2553884334
 20
-6.7188234368
 10
4.2997726266
 20
-6.7073140174
 10
4.3420389878
 20
-6.6933650903
 10
4.3817838617
 20
-6.6771069685
 10
4.4186303706
 20
-6.6586916458
  0
LWPOLYLINE
  5
278
100
AcDbEntity
  8
ASSI
100
AcDbPolyline
 62
250
  6
CONTINUOUS
 90
16
 70
0
 10
3.752677045
 20
-6.6713201261
 10
3.7913707983
 20
-6.6883057209
 10
3.8327318069
 20
-6.7030279224
 10
3.8763673908
 20
-6.7153490473
 10
3.9218592414
 20
-6.7251530631
 10
3.9687809074
 20
-6.7323505695
 10
4.0167031004
 20
-6.7368770009
 10
4.0651804412
 20
-6.7386887401
 10
4.1137485894
 20
-6.7377670371
 10
4.1619430158
 20
-6.7341213987
 10
4.2093034449
 20
-6.7277869918
 10
4.2553884334
 20
-6.7188234368
 10
4.2997726266
 20
-6.7073140174
 10
4.3420389878
 20
-6.6933650903
 10
4.3817838617
 20
-6.6771069685
 10
4.4186303706
 20
-6.6586916458
  0
LWPOLYLINE
  5
279
100
AcDbEntity
  8
RACCORDO
100
AcDbPolyline
 62
7
  6
CONTINUOUS
 90
13
 70
0
 10
3.835147838
 20
-5.9187794314
 10
3.8425495859
 20
-5.9223068451
 10
3.8860964411
 20
-5.9402679218
 10
3.9304967096
 20
-5.9541158509
 10
3.9764593284
 20
-5.9642319529
 10
4.0236534866
 20
-5.9704992209
 10
4.0705155226
 20
-5.9728123042
 10
4.1174291576
 20
-5.9712856349
 10
4.1647744373
 20
-5.9657962985
 10
4.2109601151
 20
-5.9564396128
 10
4.255637701
 20
-5.9433112762
 10
4.2995579761
 20
-5.9260519028
 10
4.3328705548
 20
-5.9096702162
  0
LWPOLYLINE
  5
27A
100
AcDbEntity
  8
ASSI
100
AcDbPolyline
 62
7
  6
CONTINUOUS
 90
13
 70
0
 10
3.835147838
 20
-5.9187794314
 10
3.8425495859
 20
-5.9223068451
 10
3.8860964411
 20
-5.9402679218
 10
3.9304967096
 20
-5.9541158509
 10
3.9764593284
 20
-5.9642319529
 10
4.0236534866
 20
-5.9704992209
 10
4.0705155226
 20
-5.9728123042
 10
4.1174291576
 20
-5.9712856349
 10
4.1647744373
 20
-5.9657962985
 10
4.2109601151
 20
-5.9564396128
 10
4.255637701
 20
-5.9433112762
 10
4.2995579761
 20
-5.9260519028
 10
4.3328705548
 20
-5.9096702162
  0
LWPOLYLINE
  5
27B
100
AcDbEntity
  8
RACCORDO
100
AcDbPolyline
 62
250
  6
CONTINUOUS
 90
6
 70
0
 10
3.752677104
 20
-5.7354713155
 10
3.0537933212
 20
-5.3930489195
 10
2.3595150163
 20
-5.0477455809
 10
1.6698643858
 20
-4.6995721423
 10
0.9848636068
 20
-4.3485394624
 10
0.3045344627
 20
-3.9946586517
  0
LWPOLYLINE
  5
27C
100
AcDbEntity
  8
ASSI
100
AcDbPolyline
 62
250
  6
CONTINUOUS
 90
6
 70
0
 10
3.752677104
 20
-5.7354713155
 10
3.0537933212
 20
-5.3930489195
 10
2.3595150163
 20
-5.0477455809
 10
1.6698643858
 20
-4.6995721423
 10
0.9848636068
 20
-4.3485394624
 10
0.3045344627
 20
-3.9946586517
  0
LWPOLYLINE
  5
27D
100
AcDbEntity
  8
RACCORDO
100
AcDbPolyline
 62
250
  6
CONTINUOUS
 90
13
 70
0
 10
-1.4545110214
 20
-4.4653522806
 10
-1.3752480909
 20
-4.505000015
 10
-1.2962534878
 20
-4.5382175862
 10
-1.2179084703
 20
-4.5648120917
 10
-1.140530563
 20
-4.5846215049
 10
-1.0645605404
 20
-4.5975110711
 10
-0.990550551
 20
-4.6034144454
 10
-0.918901686
 20
-4.6023111925
 10
-0.8499001645
 20
-4.5942217296
 10
-0.7839015444
 20
-4.5792204018
 10
-0.7212228707
 20
-4.5573815243
 10
-0.6621560275
 20
-4.5288110119
 10
-0.6523298655
 20
-4.5231981506
  0
LWPOLYLINE
  5
27E
100
AcDbEntity
  8
ASSI
100
AcDbPolyline
 62
250
  6
CONTINUOUS
 90
13
 70
0
 10
-1.4545110214
 20
-4.4653522806
 10
-1.3752480909
 20
-4.505000015
 10
-1.2962534878
 20
-4.5382175862
 10
-1.2179084703
 20
-4.5648120917
 10
-1.140530563
 20
-4.5846215049
 10
-1.0645605404
 20
-4.5975110711
 10
-0.990550551
 20
-4.6034144454
 10
-0.918901686
 20
-4.6023111925
 10
-0.8499001645
 20
-4.5942217296
 10
-0.7839015444
 20
-4.5792204018
 10
-0.7212228707
 20
-4.5573815243
 10
-0.6621560275
 20
-4.5288110119
 10
-0.6523298655
 20
-4.5231981506
  0
LWPOLYLINE
  5
27F
100
AcDbEntity
  8
RACCORDO
100
AcDbPolyline
 62
250
  6
CONTINUOUS
 90
7
 70
0
 10
-0.3711015813
 20
-4.5789022273
 10
0.3045326042
 20
-4.9350166032
 10
0.9848606114
 20
-5.2881946326
 10
1.6698609905
 20
-5.6384250019
 10
2.3595119736
 20
-5.985696603
 10
3.053791399
 20
-6.3299985815
 10
3.7526770852
 20
-6.6713201002
  0
LWPOLYLINE
  5
280
100
AcDbEntity
  8
ASSI
100
AcDbPolyline
 62
250
  6
CONTINUOUS
 90
7
 70
0
 10
-0.3711015813
 20
-4.5789022273
 10
0.3045326042
 20
-4.9350166032
 10
0.9848606114
 20
-5.2881946326
 10
1.6698609905
 20
-5.6384250019
 10
2.3595119736
 20
-5.985696603
 10
3.053791399
 20
-6.3299985815
 10
3.7526770852
 20
-6.6713201002
  0
LWPOLYLINE
  5
281
100
AcDbEntity
  8
RACCORDO
100
AcDbPolyline
 62
250
  6
CONTINUOUS
 90
7
 70
0
 10
-0.1026611545
 20
-4.0833800785
 10
0.5705205205
 20
-4.4382117043
 10
1.248448948
 20
-4.7901529544
 10
1.9311241282
 20
-5.1392038287
 10
2.6185460611
 20
-5.4853643271
 10
3.3107147465
 20
-5.8286344498
 10
4.0076301846
 20
-6.1690141967
  0
LWPOLYLINE
  5
282
100
AcDbEntity
  8
ASSI
100
AcDbPolyline
 62
250
  6
CONTINUOUS
 90
7
 70
0
 10
-0.1026611545
 20
-4.0833800785
 10
0.5705205205
 20
-4.4382117043
 10
1.248448948
 20
-4.7901529544
 10
1.9311241282
 20
-5.1392038287
 10
2.6185460611
 20
-5.4853643271
 10
3.3107147465
 20
-5.8286344498
 10
4.0076301846
 20
-6.1690141967
  0
LINE
  5
283
100
AcDbEntity
  8
RACCORDO
100
AcDbLine
 62
250
  6
CONTINUOUS
 10
0.3045344627
 20
-3.9946586517
 11
-0.3711015813
 21
-3.6379410253
  0
LINE
  5
284
100
AcDbEntity
  8
ASSI
100
AcDbLine
 62
250
  6
CONTINUOUS
 10
0.3045344627
 20
-3.9946586517
 11
-0.3711015813
 21
-3.6379410253
  0
LWPOLYLINE
  5
285
100
AcDbEntity
  8
RACCORDO
100
AcDbPolyline
 62
7
  6
CONTINUOUS
 90
10
 70
0
 10
-0.2880368782
 20
-3.8216205931
 10
0.1197282327
 20
-4.037540089
 10
0.5841624969
 20
-4.2811142263
 10
1.0508266849
 20
-4.5233689255
 10
1.5197054643
 20
-4.7642961858
 10
1.9907867378
 20
-5.0038896767
 10
2.4640617133
 20
-5.2421446885
 10
2.9395183629
 20
-5.4790548053
 10
3.4171413543
 20
-5.7146119558
 10
3.8351741031
 20
-5.9188047852
  0
LWPOLYLINE
  5
286
100
AcDbEntity
  8
ASSI
100
AcDbPolyline
 62
7
  6
CONTINUOUS
 90
10
 70
0
 10
-0.2880368782
 20
-3.8216205931
 10
0.1197282327
 20
-4.037540089
 10
0.5841624969
 20
-4.2811142263
 10
1.0508266849
 20
-4.5233689255
 10
1.5197054643
 20
-4.7642961858
 10
1.9907867378
 20
-5.0038896767
 10
2.4640617133
 20
-5.2421446885
 10
2.9395183629
 20
-5.4790548053
 10
3.4171413543
 20
-5.7146119558
 10
3.8351741031
 20
-5.9188047852
  0
LWPOLYLINE
  5
287
100
AcDbEntity
  8
RACCORDO
100
AcDbPolyline
 62
250
  6
CONTINUOUS
 90
8
 70
0
 10
3.8351428863
 20
-5.9187895992
 10
3.8270162692
 20
-5.9144051904
 10
3.8050599574
 20
-5.8974153075
 10
3.7865784326
 20
-5.8746916675
 10
3.7718849014
 20
-5.8466193678
 10
3.7612283749
 20
-5.8136741497
 10
3.7547894493
 20
-5.7764143358
 10
3.7526772451
 20
-5.7354713679
  0
LWPOLYLINE
  5
288
100
AcDbEntity
  8
ASSI
100
AcDbPolyline
 62
250
  6
CONTINUOUS
 90
8
 70
0
 10
3.8351428863
 20
-5.9187895992
 10
3.8270162692
 20
-5.9144051904
 10
3.8050599574
 20
-5.8974153075
 10
3.7865784326
 20
-5.8746916675
 10
3.7718849014
 20
-5.8466193678
 10
3.7612283749
 20
-5.8136741497
 10
3.7547894493
 20
-5.7764143358
 10
3.7526772451
 20
-5.7354713679
  0
LINE
  5
289
100
AcDbEntity
  8
RACCORDO
100
AcDbLine
 62
250
  6
CONTINUOUS
 10
-0.2881393757
 20
-3.821565861
 11
-0.2928369866
 21
-3.8189203944
  0
LINE
  5
28A
100
AcDbEntity
  8
ASSI
100
AcDbLine
 62
250
  6
CONTINUOUS
 10
-0.2881393757
 20
-3.821565861
 11
-0.2928369866
 21
-3.8189203944
  0
LWPOLYLINE
  5
28B
100
AcDbEntity
  8
RACCORDO
100
AcDbPolyline
 62
250
  6
CONTINUOUS
 90
10
 70
0
 10
-5.9444166089
 20
-1.8729348832
 10
-5.4571317607
 20
-2.1677526338
 10
-4.9669399021
 20
-2.4608824589
 10
-4.473841033
 20
-2.7523243585
 10
-3.977823725
 20
-3.0420849297
 10
-3.4788994065
 20
-3.3301575754
 10
-2.9771023631
 20
-3.6165225043
 10
-2.4724440233
 20
-3.9011731193
 10
-1.9649129584
 20
-4.1841160175
 10
-1.4545091687
 20
-4.4653511988
  0
LWPOLYLINE
  5
28C
100
AcDbEntity
  8
ASSI
100
AcDbPolyline
 62
250
  6
CONTINUOUS
 90
10
 70
0
 10
-5.9444166089
 20
-1.8729348832
 10
-5.4571317607
 20
-2.1677526338
 10
-4.9669399021
 20
-2.4608824589
 10
-4.473841033
 20
-2.7523243585
 10
-3.977823725
 20
-3.0420849297
 10
-3.4788994065
 20
-3.3301575754
 10
-2.9771023631
 20
-3.6165225043
 10
-2.4724440233
 20
-3.9011731193
 10
-1.9649129584
 20
-4.1841160175
 10
-1.4545091687
 20
-4.4653511988
  0
LWPOLYLINE
  5
28D
100
AcDbEntity
  8
RACCORDO
100
AcDbPolyline
 62
7
  6
CONTINUOUS
 90
19
 70
0
 10
-4.6311384708
 20
-1.1013038571
 10
-4.7074942141
 20
-1.054091671
 10
-4.7834659371
 20
-1.0008663088
 10
-4.8586722713
 20
-0.94189513
 10
-4.9327350584
 20
-0.8774749187
 10
-5.0052832241
 20
-0.807928702
 10
-5.0759544937
 20
-0.7336036853
 10
-5.144395034
 20
-0.6548714893
 10
-5.2102600297
 20
-0.5721282579
 10
-5.2732174648
 20
-0.4857909259
 10
-5.3329509064
 20
-0.3962935657
 10
-5.3891609276
 20
-0.3040849382
 10
-5.4415653784
 20
-0.2096279477
 10
-5.4899010461
 20
-0.1133971278
 10
-5.5339254857
 20
-0.0158752711
 10
-5.5734180981
 20
0.0824490562
 10
-5.6081806184
 20
0.1810825948
 10
-5.6380382642
 20
0.2795298339
 10
-5.6504122689
 20
0.328305286
  0
LWPOLYLINE
  5
28E
100
AcDbEntity
  8
ASSI
100
AcDbPolyline
 62
7
  6
CONTINUOUS
 90
19
 70
0
 10
-4.6311384708
 20
-1.1013038571
 10
-4.7074942141
 20
-1.054091671
 10
-4.7834659371
 20
-1.0008663088
 10
-4.8586722713
 20
-0.94189513
 10
-4.9327350584
 20
-0.8774749187
 10
-5.0052832241
 20
-0.807928702
 10
-5.0759544937
 20
-0.7336036853
 10
-5.144395034
 20
-0.6548714893
 10
-5.2102600297
 20
-0.5721282579
 10
-5.2732174648
 20
-0.4857909259
 10
-5.3329509064
 20
-0.3962935657
 10
-5.3891609276
 20
-0.3040849382
 10
-5.4415653784
 20
-0.2096279477
 10
-5.4899010461
 20
-0.1133971278
 10
-5.5339254857
 20
-0.0158752711
 10
-5.5734180981
 20
0.0824490562
 10
-5.6081806184
 20
0.1810825948
 10
-5.6380382642
 20
0.2795298339
 10
-5.6504122689
 20
0.328305286
  0
LINE
  5
28F
100
AcDbEntity
  8
RACCORDO
100
AcDbLine
 62
7
  6
CONTINUOUS
 10
-7.7931024233
 20
0.5310147931
 11
-7.4237666175
 21
0.298484602
  0
LINE
  5
290
100
AcDbEntity
  8
ASSI
100
AcDbLine
 62
7
  6
CONTINUOUS
 10
-7.7931024233
 20
0.5310147931
 11
-7.4237666175
 21
0.298484602
  0
LWPOLYLINE
  5
291
100
AcDbEntity
  8
RACCORDO
100
AcDbPolyline
 62
250
  6
CONTINUOUS
 90
6
 70
0
 10
-7.5056233238
 20
0.4814424122
 10
-8.1229133312
 20
0.8712439853
 10
-8.7352043038
 20
1.2637057457
 10
-9.3424766376
 20
1.6588153142
 10
-9.9447110838
 20
2.0565601282
 10
-10.5418888311
 20
2.4569273986
  0
LWPOLYLINE
  5
292
100
AcDbEntity
  8
ASSI
100
AcDbPolyline
 62
250
  6
CONTINUOUS
 90
6
 70
0
 10
-7.5056233238
 20
0.4814424122
 10
-8.1229133312
 20
0.8712439853
 10
-8.7352043038
 20
1.2637057457
 10
-9.3424766376
 20
1.6588153142
 10
-9.9447110838
 20
2.0565601282
 10
-10.5418888311
 20
2.4569273986
  0
LINE
  5
293
100
AcDbEntity
  8
RACCORDO
100
AcDbLine
 62
250
  6
CONTINUOUS
 10
-7.8288516827
 20
0.4114804398
 11
-7.2137988643
 21
0.0225017117
  0
LINE
  5
294
100
AcDbEntity
  8
ASSI
100
AcDbLine
 62
250
  6
CONTINUOUS
 10
-7.8288516827
 20
0.4114804398
 11
-7.2137988643
 21
0.0225017117
  0
LWPOLYLINE
  5
295
100
AcDbEntity
  8
RACCORDO
100
AcDbPolyline
 62
250
  6
CONTINUOUS
 90
13
 70
0
 10
-7.213798861
 20
0.0225017096
 10
-7.1841099951
 20
0.0033261504
 10
-7.154725361
 20
-0.019271013
 10
-7.1259735548
 20
-0.0450371445
 10
-7.0981760913
 20
-0.0736841784
 10
-7.0716438496
 20
-0.1048917987
 10
-7.0466735893
 20
-0.1383110078
 10
-7.0235445103
 20
-0.1735682019
 10
-7.0025153521
 20
-0.2102690385
 10
-6.9838214695
 20
-0.248002757
 10
-6.9676719206
 20
-0.2863472548
 10
-6.9542471984
 20
-0.3248738443
 10
-6.9436973815
 20
-0.3631516991
  0
LWPOLYLINE
  5
296
100
AcDbEntity
  8
ASSI
100
AcDbPolyline
 62
250
  6
CONTINUOUS
 90
13
 70
0
 10
-7.213798861
 20
0.0225017096
 10
-7.1841099951
 20
0.0033261504
 10
-7.154725361
 20
-0.019271013
 10
-7.1259735548
 20
-0.0450371445
 10
-7.0981760913
 20
-0.0736841784
 10
-7.0716438496
 20
-0.1048917987
 10
-7.0466735893
 20
-0.1383110078
 10
-7.0235445103
 20
-0.1735682019
 10
-7.0025153521
 20
-0.2102690385
 10
-6.9838214695
 20
-0.248002757
 10
-6.9676719206
 20
-0.2863472548
 10
-6.9542471984
 20
-0.3248738443
 10
-6.9436973815
 20
-0.3631516991
  0
LINE
  5
297
100
AcDbEntity
  8
RACCORDO
100
AcDbLine
 62
250
  6
CONTINUOUS
 10
-10.5418888311
 20
2.4569273986
 11
-11.1339910972
 21
2.8599043258
  0
LINE
  5
298
100
AcDbEntity
  8
ASSI
100
AcDbLine
 62
250
  6
CONTINUOUS
 10
-10.5418888311
 20
2.4569273986
 11
-11.1339910972
 21
2.8599043258
  0
LWPOLYLINE
  5
299
100
AcDbEntity
  8
RACCORDO
100
AcDbPolyline
 62
250
  6
CONTINUOUS
 90
7
 70
0
 10
-11.1339911131
 20
1.9240555428
 10
-10.541890472
 20
1.5199778991
 10
-9.9447137208
 20
1.1186093403
 10
-9.342479625
 20
0.7199626902
 10
-8.7352069795
 20
0.3240507601
 10
-8.1229150165
 20
-0.0691138662
 10
-7.5056233238
 20
-0.4595187898
  0
LWPOLYLINE
  5
29A
100
AcDbEntity
  8
ASSI
100
AcDbPolyline
 62
250
  6
CONTINUOUS
 90
7
 70
0
 10
-11.1339911131
 20
1.9240555428
 10
-10.541890472
 20
1.5199778991
 10
-9.9447137208
 20
1.1186093403
 10
-9.342479625
 20
0.7199626902
 10
-8.7352069795
 20
0.3240507601
 10
-8.1229150165
 20
-0.0691138662
 10
-7.5056233238
 20
-0.4595187898
  0
LWPOLYLINE
  5
29B
100
AcDbEntity
  8
RACCORDO
100
AcDbPolyline
 62
250
  6
CONTINUOUS
 90
6
 70
0
 10
-10.8302992068
 20
2.3982202979
 10
-10.2398519111
 20
1.9952928306
 10
-9.6444835108
 20
1.5951551112
 10
-9.0441940059
 20
1.1978071396
 10
-8.4389833966
 20
0.8032489158
 10
-7.8288516827
 20
0.4114804398
  0
LWPOLYLINE
  5
29C
100
AcDbEntity
  8
ASSI
100
AcDbPolyline
 62
250
  6
CONTINUOUS
 90
6
 70
0
 10
-10.8302992068
 20
2.3982202979
 10
-10.2398519111
 20
1.9952928306
 10
-9.6444835108
 20
1.5951551112
 10
-9.0441940059
 20
1.1978071396
 10
-8.4389833966
 20
0.8032489158
 10
-7.8288516827
 20
0.4114804398
  0
LWPOLYLINE
  5
29D
100
AcDbEntity
  8
RACCORDO
100
AcDbPolyline
 62
7
  6
CONTINUOUS
 90
9
 70
0
 10
-11.0540506947
 20
2.6782680862
 10
-10.6963407773
 20
2.4340830673
 10
-10.2886218714
 20
2.1584493912
 10
-9.8785396232
 20
1.8840590332
 10
-9.4661082589
 20
1.6109207289
 10
-9.0513390967
 20
1.3390412789
 10
-8.6342404665
 20
1.0684255947
 10
-8.2148235423
 20
0.7990805214
 10
-7.7931024233
 20
0.5310147931
  0
LWPOLYLINE
  5
29E
100
AcDbEntity
  8
ASSI
100
AcDbPolyline
 62
7
  6
CONTINUOUS
 90
9
 70
0
 10
-11.0540506947
 20
2.6782680862
 10
-10.6963407773
 20
2.4340830673
 10
-10.2886218714
 20
2.1584493912
 10
-9.8785396232
 20
1.8840590332
 10
-9.4661082589
 20
1.6109207289
 10
-9.0513390967
 20
1.3390412789
 10
-8.6342404665
 20
1.0684255947
 10
-8.2148235423
 20
0.7990805214
 10
-7.7931024233
 20
0.5310147931
  0
LWPOLYLINE
  5
29F
100
AcDbEntity
  8
RACCORDO
100
AcDbPolyline
 62
250
  6
CONTINUOUS
 90
8
 70
0
 10
-11.1339911449
 20
2.859904301
 10
-11.1634362499
 20
2.8822299493
 10
-11.1889783263
 20
2.9060858041
 10
-11.2103787125
 20
2.9312452535
 10
-11.2274366697
 20
2.9574666429
 10
-11.2399965235
 20
2.984504229
 10
-11.2479445597
 20
3.0121112376
 10
-11.2511228037
 20
3.039327237
  0
LWPOLYLINE
  5
2A0
100
AcDbEntity
  8
ASSI
100
AcDbPolyline
 62
250
  6
CONTINUOUS
 90
8
 70
0
 10
-11.1339911449
 20
2.859904301
 10
-11.1634362499
 20
2.8822299493
 10
-11.1889783263
 20
2.9060858041
 10
-11.2103787125
 20
2.9312452535
 10
-11.2274366697
 20
2.9574666429
 10
-11.2399965235
 20
2.984504229
 10
-11.2479445597
 20
3.0121112376
 10
-11.2511228037
 20
3.039327237
  0
LWPOLYLINE
  5
2A1
100
AcDbEntity
  8
RACCORDO
100
AcDbPolyline
 62
250
  6
CONTINUOUS
 90
7
 70
0
 10
-7.4239562508
 20
0.2986037814
 10
-7.4456085705
 20
0.315218032
 10
-7.4665096361
 20
0.3392380646
 10
-7.4835453037
 20
0.368674056
 10
-7.4963552803
 20
0.4029848712
 10
-7.5038794511
 20
0.4409324391
 10
-7.5056233238
 20
0.4814424122
  0
LWPOLYLINE
  5
2A2
100
AcDbEntity
  8
ASSI
100
AcDbPolyline
 62
250
  6
CONTINUOUS
 90
7
 70
0
 10
-7.4239562508
 20
0.2986037814
 10
-7.4456085705
 20
0.315218032
 10
-7.4665096361
 20
0.3392380646
 10
-7.4835453037
 20
0.368674056
 10
-7.4963552803
 20
0.4029848712
 10
-7.5038794511
 20
0.4409324391
 10
-7.5056233238
 20
0.4814424122
  0
LWPOLYLINE
  5
2A3
100
AcDbEntity
  8
RACCORDO
100
AcDbPolyline
 62
250
  6
CONTINUOUS
 90
7
 70
0
 10
-11.0543580184
 20
2.6784952407
 10
-11.0713938828
 20
2.6920781798
 10
-11.0934240033
 20
2.7168519448
 10
-11.1109531267
 20
2.7465623554
 10
-11.1236841915
 20
2.7807059175
 10
-11.1314014476
 20
2.8187040094
 10
-11.1339741123
 20
2.8599126879
  0
LWPOLYLINE
  5
2A4
100
AcDbEntity
  8
ASSI
100
AcDbPolyline
 62
250
  6
CONTINUOUS
 90
7
 70
0
 10
-11.0543580184
 20
2.6784952407
 10
-11.0713938828
 20
2.6920781798
 10
-11.0934240033
 20
2.7168519448
 10
-11.1109531267
 20
2.7465623554
 10
-11.1236841915
 20
2.7807059175
 10
-11.1314014476
 20
2.8187040094
 10
-11.1339741123
 20
2.8599126879
  0
LINE
  5
2A5
100
AcDbEntity
  8
RACCORDO
100
AcDbLine
 62
250
  6
CONTINUOUS
 10
-7.2137988643
 20
0.0225017117
 11
-6.1581233466
 21
0.634799424
  0
LINE
  5
2A6
100
AcDbEntity
  8
ASSI
100
AcDbLine
 62
250
  6
CONTINUOUS
 10
-7.2137988643
 20
0.0225017117
 11
-6.1581233466
 21
0.634799424
  0
LINE
  5
2A7
100
AcDbEntity
  8
RACCORDO
100
AcDbLine
 62
250
  6
CONTINUOUS
 10
-6.9436973813
 20
-0.3631517003
 11
-5.6981742703
 21
0.3568718687
  0
LINE
  5
2A8
100
AcDbEntity
  8
ASSI
100
AcDbLine
 62
250
  6
CONTINUOUS
 10
-6.9436973813
 20
-0.3631517003
 11
-5.6981742703
 21
0.3568718687
  0
LWPOLYLINE
  5
2A9
100
AcDbEntity
  8
RACCORDO
100
AcDbPolyline
 62
250
  6
CONTINUOUS
 90
16
 70
0
 10
-6.9436973815
 20
-0.3631516991
 10
-6.9762293728
 20
-0.379667724
 10
-7.0108460866
 20
-0.3953826772
 10
-7.0474161536
 20
-0.4100948309
 10
-7.0860635395
 20
-0.4234438558
 10
-7.1265029855
 20
-0.4353907802
 10
-7.1678176783
 20
-0.4461029937
 10
-7.2094597912
 20
-0.4550654307
 10
-7.2512753705
 20
-0.4620409044
 10
-7.2926488706
 20
-0.4675113379
 10
-7.333010072
 20
-0.4710897045
 10
-7.3720056786
 20
-0.4724384119
 10
-7.4092051952
 20
-0.4721405501
 10
-7.4441415123
 20
-0.4702026809
 10
-7.4763980251
 20
-0.4660660087
 10
-7.5056233238
 20
-0.4595187898
  0
LWPOLYLINE
  5
2AA
100
AcDbEntity
  8
ASSI
100
AcDbPolyline
 62
250
  6
CONTINUOUS
 90
16
 70
0
 10
-6.9436973815
 20
-0.3631516991
 10
-6.9762293728
 20
-0.379667724
 10
-7.0108460866
 20
-0.3953826772
 10
-7.0474161536
 20
-0.4100948309
 10
-7.0860635395
 20
-0.4234438558
 10
-7.1265029855
 20
-0.4353907802
 10
-7.1678176783
 20
-0.4461029937
 10
-7.2094597912
 20
-0.4550654307
 10
-7.2512753705
 20
-0.4620409044
 10
-7.2926488706
 20
-0.4675113379
 10
-7.333010072
 20
-0.4710897045
 10
-7.3720056786
 20
-0.4724384119
 10
-7.4092051952
 20
-0.4721405501
 10
-7.4441415123
 20
-0.4702026809
 10
-7.4763980251
 20
-0.4660660087
 10
-7.5056233238
 20
-0.4595187898
  0
LWPOLYLINE
  5
2AB
100
AcDbEntity
  8
RACCORDO
100
AcDbPolyline
 62
250
  6
CONTINUOUS
 90
16
 70
0
 10
-6.9436973815
 20
0.3831571759
 10
-6.9762321499
 20
0.3667250929
 10
-7.0108516496
 20
0.3538979385
 10
-7.0474244035
 20
0.3444530252
 10
-7.0860743833
 20
0.3380893383
 10
-7.1265161871
 20
0.3349893161
 10
-7.1678326117
 20
0.335568287
 10
-7.2094756077
 20
0.3395261846
 10
-7.2512912733
 20
0.3466875739
 10
-7.2926640476
 20
0.357404999
 10
-7.3330236805
 20
0.3712937694
 10
-7.3720170209
 20
0.387967433
 10
-7.4092138648
 20
0.4077376809
 10
-7.4441473057
 20
0.4303960988
 10
-7.4764008643
 20
0.4551567984
 10
-7.5056233238
 20
0.4814424122
  0
LWPOLYLINE
  5
2AC
100
AcDbEntity
  8
ASSI
100
AcDbPolyline
 62
250
  6
CONTINUOUS
 90
16
 70
0
 10
-6.9436973815
 20
0.3831571759
 10
-6.9762321499
 20
0.3667250929
 10
-7.0108516496
 20
0.3538979385
 10
-7.0474244035
 20
0.3444530252
 10
-7.0860743833
 20
0.3380893383
 10
-7.1265161871
 20
0.3349893161
 10
-7.1678326117
 20
0.335568287
 10
-7.2094756077
 20
0.3395261846
 10
-7.2512912733
 20
0.3466875739
 10
-7.2926640476
 20
0.357404999
 10
-7.3330236805
 20
0.3712937694
 10
-7.3720170209
 20
0.387967433
 10
-7.4092138648
 20
0.4077376809
 10
-7.4441473057
 20
0.4303960988
 10
-7.4764008643
 20
0.4551567984
 10
-7.5056233238
 20
0.4814424122
  0
LINE
  5
2AD
100
AcDbEntity
  8
DRAFT
100
AcDbLine
 62
250
  6
CONTINUOUS
 10
-4.6311384708
 20
-1.1013038571
 11
-3.9240319101
 21
-1.1829113025
  0
LINE
  5
2AE
100
AcDbEntity
  8
ASSI
100
AcDbLine
 62
250
  6
CONTINUOUS
 10
-4.6311384708
 20
-1.1013038571
 11
-3.9240319101
 21
-1.1829113025
  0
LWPOLYLINE
  5
2AF
100
AcDbEntity
  8
RACCORDO
100
AcDbPolyline
 62
250
  6
CONTINUOUS
 90
8
 70
0
 10
-10.826297172
 20
2.47581383
 10
-10.8641410629
 20
2.4937705394
 10
-10.9012957238
 20
2.5058588424
 10
-10.937125635
 20
2.5118718531
 10
-10.9710178904
 20
2.5117065951
 10
-11.0023927556
 20
2.505365771
 10
-11.0307135661
 20
2.4929576773
 10
-11.0343066068
 20
2.4908090609
  0
LWPOLYLINE
  5
2B0
100
AcDbEntity
  8
ASSI
100
AcDbPolyline
 62
250
  6
CONTINUOUS
 90
8
 70
0
 10
-10.826297172
 20
2.47581383
 10
-10.8641410629
 20
2.4937705394
 10
-10.9012957238
 20
2.5058588424
 10
-10.937125635
 20
2.5118718531
 10
-10.9710178904
 20
2.5117065951
 10
-11.0023927556
 20
2.505365771
 10
-11.0307135661
 20
2.4929576773
 10
-11.0343066068
 20
2.4908090609
  0
LWPOLYLINE
  5
2B1
100
AcDbEntity
  8
RACCORDO
100
AcDbPolyline
 62
250
  6
CONTINUOUS
 90
9
 70
0
 10
-1.7272997034
 20
-1.7866590509
 10
-2.2394158392
 20
-1.504236291
 10
-2.7486554236
 20
-1.2201578101
 10
-3.2550088853
 20
-0.9344290793
 10
-3.7584598269
 20
-0.6470594862
 10
-4.2590055912
 20
-0.3580506309
 10
-4.7566570788
 20
-0.067396221
 10
-5.2514115204
 20
0.2249022081
 10
-5.7432526601
 20
0.518835188
  0
LWPOLYLINE
  5
2B2
100
AcDbEntity
  8
ASSI
100
AcDbPolyline
 62
250
  6
CONTINUOUS
 90
9
 70
0
 10
-1.7272997034
 20
-1.7866590509
 10
-2.2394158392
 20
-1.504236291
 10
-2.7486554236
 20
-1.2201578101
 10
-3.2550088853
 20
-0.9344290793
 10
-3.7584598269
 20
-0.6470594862
 10
-4.2590055912
 20
-0.3580506309
 10
-4.7566570788
 20
-0.067396221
 10
-5.2514115204
 20
0.2249022081
 10
-5.7432526601
 20
0.518835188
  0
LWPOLYLINE
  5
2B3
100
AcDbEntity
  8
RACCORDO
100
AcDbPolyline
 62
7
  6
CONTINUOUS
 90
19
 70
0
 10
-1.6441424262
 20
-1.9715087678
 10
-1.6108158583
 20
-1.9903449904
 10
-1.5262853769
 20
-2.0430437347
 10
-1.4402061296
 20
-2.1039269343
 10
-1.3533145062
 20
-2.1728759454
 10
-1.2664922527
 20
-2.2495257508
 10
-1.1807217262
 20
-2.3332845091
 10
-1.0967295474
 20
-2.4236765142
 10
-1.0152317254
 20
-2.5201249725
 10
-0.9370784815
 20
-2.6217813453
 10
-0.8629060339
 20
-2.727935055
 10
-0.7932905242
 20
-2.8378215478
 10
-0.7288810205
 20
-2.950430335
 10
-0.6701435177
 20
-3.064909924
 10
-0.617448026
 20
-3.1804298453
 10
-0.5711905125
 20
-3.2959442681
 10
-0.5316360952
 20
-3.4105018929
 10
-0.4989106584
 20
-3.5232446106
 10
-0.4889375743
 20
-3.5627205082
  0
LWPOLYLINE
  5
2B4
100
AcDbEntity
  8
ASSI
100
AcDbPolyline
 62
7
  6
CONTINUOUS
 90
19
 70
0
 10
-1.6441424262
 20
-1.9715087678
 10
-1.6108158583
 20
-1.9903449904
 10
-1.5262853769
 20
-2.0430437347
 10
-1.4402061296
 20
-2.1039269343
 10
-1.3533145062
 20
-2.1728759454
 10
-1.2664922527
 20
-2.2495257508
 10
-1.1807217262
 20
-2.3332845091
 10
-1.0967295474
 20
-2.4236765142
 10
-1.0152317254
 20
-2.5201249725
 10
-0.9370784815
 20
-2.6217813453
 10
-0.8629060339
 20
-2.727935055
 10
-0.7932905242
 20
-2.8378215478
 10
-0.7288810205
 20
-2.950430335
 10
-0.6701435177
 20
-3.064909924
 10
-0.617448026
 20
-3.1804298453
 10
-0.5711905125
 20
-3.2959442681
 10
-0.5316360952
 20
-3.4105018929
 10
-0.4989106584
 20
-3.5232446106
 10
-0.4889375743
 20
-3.5627205082
  0
LWPOLYLINE
  5
2B5
100
AcDbEntity
  8
RACCORDO
100
AcDbPolyline
 62
250
  6
CONTINUOUS
 90
19
 70
0
 10
-6.232171026
 20
0.8143971915
 10
-6.3272507984
 20
0.8682027107
 10
-6.4209537894
 20
0.9135346312
 10
-6.513283604
 20
0.9503909072
 10
-6.6047412086
 20
0.9788846251
 10
-6.694830123
 20
0.9989001704
 10
-6.7820622155
 20
1.0100899925
 10
-6.8663348975
 20
1.0122906515
 10
-6.947763543
 20
1.0056585192
 10
-7.0251951463
 20
0.9903212191
 10
-7.0985817399
 20
0.9661623773
 10
-7.1679873197
 20
0.9332895761
 10
-7.2324327535
 20
0.8921630758
 10
-7.2918880713
 20
0.8426104802
 10
-7.3463998302
 20
0.7847951288
 10
-7.3951081736
 20
0.7196783692
 10
-7.4377327108
 20
0.6475772263
 10
-7.47456931
 20
0.568166209
 10
-7.5056233238
 20
0.4814424122
  0
LWPOLYLINE
  5
2B6
100
AcDbEntity
  8
ASSI
100
AcDbPolyline
 62
250
  6
CONTINUOUS
 90
19
 70
0
 10
-6.232171026
 20
0.8143971915
 10
-6.3272507984
 20
0.8682027107
 10
-6.4209537894
 20
0.9135346312
 10
-6.513283604
 20
0.9503909072
 10
-6.6047412086
 20
0.9788846251
 10
-6.694830123
 20
0.9989001704
 10
-6.7820622155
 20
1.0100899925
 10
-6.8663348975
 20
1.0122906515
 10
-6.947763543
 20
1.0056585192
 10
-7.0251951463
 20
0.9903212191
 10
-7.0985817399
 20
0.9661623773
 10
-7.1679873197
 20
0.9332895761
 10
-7.2324327535
 20
0.8921630758
 10
-7.2918880713
 20
0.8426104802
 10
-7.3463998302
 20
0.7847951288
 10
-7.3951081736
 20
0.7196783692
 10
-7.4377327108
 20
0.6475772263
 10
-7.47456931
 20
0.568166209
 10
-7.5056233238
 20
0.4814424122
  0
LWPOLYLINE
  5
2B7
100
AcDbEntity
  8
RACCORDO
100
AcDbPolyline
 62
250
  6
CONTINUOUS
 90
8
 70
0
 10
-1.6442381825
 20
-1.9714475976
 10
-1.6480038713
 20
-1.9692980059
 10
-1.6715095151
 20
-1.9513818403
 10
-1.6912768895
 20
-1.9278361505
 10
-1.7069694647
 20
-1.8990617905
 10
-1.7183200823
 20
-1.8655486295
 10
-1.7251355035
 20
-1.8278672129
 10
-1.7272996991
 20
-1.7866590483
  0
LWPOLYLINE
  5
2B8
100
AcDbEntity
  8
ASSI
100
AcDbPolyline
 62
250
  6
CONTINUOUS
 90
8
 70
0
 10
-1.6442381825
 20
-1.9714475976
 10
-1.6480038713
 20
-1.9692980059
 10
-1.6715095151
 20
-1.9513818403
 10
-1.6912768895
 20
-1.9278361505
 10
-1.7069694647
 20
-1.8990617905
 10
-1.7183200823
 20
-1.8655486295
 10
-1.7251355035
 20
-1.8278672129
 10
-1.7272996991
 20
-1.7866590483
  0
LINE
  5
2B9
100
AcDbEntity
  8
DRAFT
100
AcDbLine
 62
7
  6
CONTINUOUS
 10
-0.5114795899
 20
-3.4799432635
 11
-4.6311384708
 21
-1.1013038571
  0
LINE
  5
2BA
100
AcDbEntity
  8
ASSI
100
AcDbLine
 62
7
  6
CONTINUOUS
 10
-0.5114795899
 20
-3.4799432635
 11
-4.6311384708
 21
-1.1013038571
  0
LINE
  5
2BB
100
AcDbEntity
  8
SMUSSO
100
AcDbLine
 62
7
  6
CONTINUOUS
 10
-0.6725087897
 20
-3.0603000011
 11
-3.9240319101
 21
-1.1829113025
  0
LINE
  5
2BC
100
AcDbEntity
  8
ASSI
100
AcDbLine
 62
7
  6
CONTINUOUS
 10
-0.6725087897
 20
-3.0603000011
 11
-3.9240319101
 21
-1.1829113025
  0
LINE
  5
2BD
100
AcDbEntity
  8
RACCORDO
100
AcDbLine
 62
250
  6
CONTINUOUS
 10
-5.7432526601
 20
0.518835188
 11
-6.232171026
 21
0.8143971915
  0
LINE
  5
2BE
100
AcDbEntity
  8
ASSI
100
AcDbLine
 62
250
  6
CONTINUOUS
 10
-5.7432526601
 20
0.518835188
 11
-6.232171026
 21
0.8143971915
  0
LWPOLYLINE
  5
2BF
100
AcDbEntity
  8
RACCORDO
100
AcDbPolyline
 62
7
  6
CONTINUOUS
 90
10
 70
0
 10
-6.1498685973
 20
0.6300530163
 10
-5.7002300869
 20
0.3581014582
 10
-5.1965542754
 20
0.0568515878
 10
-4.6898025798
 20
-0.2426916126
 10
-4.179994646
 20
-0.5405160432
 10
-3.6671473439
 20
-0.8366119299
 10
-3.1512763208
 20
-1.1309703655
 10
-2.6323987258
 20
-1.4235817354
 10
-2.1105357421
 20
-1.7144348177
 10
-1.6442381825
 20
-1.9714475976
  0
LWPOLYLINE
  5
2C0
100
AcDbEntity
  8
ASSI
100
AcDbPolyline
 62
7
  6
CONTINUOUS
 90
10
 70
0
 10
-6.1498685973
 20
0.6300530163
 10
-5.7002300869
 20
0.3581014582
 10
-5.1965542754
 20
0.0568515878
 10
-4.6898025798
 20
-0.2426916126
 10
-4.179994646
 20
-0.5405160432
 10
-3.6671473439
 20
-0.8366119299
 10
-3.1512763208
 20
-1.1309703655
 10
-2.6323987258
 20
-1.4235817354
 10
-2.1105357421
 20
-1.7144348177
 10
-1.6442381825
 20
-1.9714475976
  0
LWPOLYLINE
  5
2C1
100
AcDbEntity
  8
RACCORDO
100
AcDbPolyline
 62
7
  6
CONTINUOUS
 90
14
 70
0
 10
-3.9240319101
 20
-1.1829113025
 10
-4.0161755888
 20
-1.1264800004
 10
-4.1075563564
 20
-1.0640111756
 10
-4.198174213
 20
-0.9955048281
 10
-4.2884674289
 20
-0.920592186
 10
-4.3779977338
 20
-0.8396420213
 10
-4.4654503167
 20
-0.7537606498
 10
-4.5507009286
 20
-0.6629484803
 10
-4.6338738185
 20
-0.5672051041
 10
-4.7140269228
 20
-0.4676356116
 10
-4.7911147159
 20
-0.3642154637
 10
-4.8651827234
 20
-0.2569691994
 10
-4.9354254582
 20
-0.1470755265
 10
-4.9802865369
 20
-0.0709852426
  0
LWPOLYLINE
  5
2C2
100
AcDbEntity
  8
ASSI
100
AcDbPolyline
 62
7
  6
CONTINUOUS
 90
14
 70
0
 10
-3.9240319101
 20
-1.1829113025
 10
-4.0161755888
 20
-1.1264800004
 10
-4.1075563564
 20
-1.0640111756
 10
-4.198174213
 20
-0.9955048281
 10
-4.2884674289
 20
-0.920592186
 10
-4.3779977338
 20
-0.8396420213
 10
-4.4654503167
 20
-0.7537606498
 10
-4.5507009286
 20
-0.6629484803
 10
-4.6338738185
 20
-0.5672051041
 10
-4.7140269228
 20
-0.4676356116
 10
-4.7911147159
 20
-0.3642154637
 10
-4.8651827234
 20
-0.2569691994
 10
-4.9354254582
 20
-0.1470755265
 10
-4.9802865369
 20
-0.0709852426
  0
LWPOLYLINE
  5
2C3
100
AcDbEntity
  8
RACCORDO
100
AcDbPolyline
 62
250
  6
CONTINUOUS
 90
13
 70
0
 10
4.1408203033
 20
-6.1660122714
 10
4.1767756118
 20
-6.1906666038
 10
4.2121581135
 20
-6.2204610166
 10
4.2463625797
 20
-6.2548858672
 10
4.2788039324
 20
-6.293352308
 10
4.3089272524
 20
-6.3352023585
 10
4.3362172712
 20
-6.3797201608
 10
4.3602071841
 20
-6.4261442244
 10
4.3804866367
 20
-6.4736804511
 10
4.3967087436
 20
-6.5215157188
 10
4.408596021
 20
-6.5688317901
 10
4.4159451329
 20
-6.6148193094
 10
4.4186303706
 20
-6.6586916458
  0
LWPOLYLINE
  5
2C4
100
AcDbEntity
  8
ASSI
100
AcDbPolyline
 62
250
  6
CONTINUOUS
 90
13
 70
0
 10
4.1408203033
 20
-6.1660122714
 10
4.1767756118
 20
-6.1906666038
 10
4.2121581135
 20
-6.2204610166
 10
4.2463625797
 20
-6.2548858672
 10
4.2788039324
 20
-6.293352308
 10
4.3089272524
 20
-6.3352023585
 10
4.3362172712
 20
-6.3797201608
 10
4.3602071841
 20
-6.4261442244
 10
4.3804866367
 20
-6.4736804511
 10
4.3967087436
 20
-6.5215157188
 10
4.408596021
 20
-6.5688317901
 10
4.4159451329
 20
-6.6148193094
 10
4.4186303706
 20
-6.6586916458
  0
LWPOLYLINE
  5
2C5
100
AcDbEntity
  8
RACCORDO
100
AcDbPolyline
 62
250
  6
CONTINUOUS
 90
7
 70
0
 10
-6.1499029565
 20
0.6300662311
 10
-6.1733144701
 20
0.6478977332
 10
-6.1941539708
 20
0.6720642571
 10
-6.2107014117
 20
0.7013342381
 10
-6.222675067
 20
0.7352093448
 10
-6.2298710811
 20
0.7731128416
 10
-6.2321669393
 20
0.8143994087
  0
LWPOLYLINE
  5
2C6
100
AcDbEntity
  8
ASSI
100
AcDbPolyline
 62
250
  6
CONTINUOUS
 90
7
 70
0
 10
-6.1499029565
 20
0.6300662311
 10
-6.1733144701
 20
0.6478977332
 10
-6.1941539708
 20
0.6720642571
 10
-6.2107014117
 20
0.7013342381
 10
-6.222675067
 20
0.7352093448
 10
-6.2298710811
 20
0.7731128416
 10
-6.2321669393
 20
0.8143994087
  0
LWPOLYLINE
  5
2C7
100
AcDbEntity
  8
RACCORDO
100
AcDbPolyline
 62
250
  6
CONTINUOUS
 90
7
 70
0
 10
-0.2928369866
 20
-3.8189203944
 10
-0.3157281923
 20
-3.8014839192
 10
-0.3354772362
 20
-3.7781278712
 10
-0.3508545248
 20
-3.7496488223
 10
-0.3615216288
 20
-3.7165754306
 10
-0.3681454036
 20
-3.6791488356
 10
-0.3711015813
 20
-3.6379410253
  0
LWPOLYLINE
  5
2C8
100
AcDbEntity
  8
ASSI
100
AcDbPolyline
 62
250
  6
CONTINUOUS
 90
7
 70
0
 10
-0.2928369866
 20
-3.8189203944
 10
-0.3157281923
 20
-3.8014839192
 10
-0.3354772362
 20
-3.7781278712
 10
-0.3508545248
 20
-3.7496488223
 10
-0.3615216288
 20
-3.7165754306
 10
-0.3681454036
 20
-3.6791488356
 10
-0.3711015813
 20
-3.6379410253
  0
LWPOLYLINE
  5
2C9
100
AcDbEntity
  8
RACCORDO
100
AcDbPolyline
 62
250
  6
CONTINUOUS
 90
13
 70
0
 10
-5.9445242252
 20
-1.8728705297
 10
-5.982275233
 20
-1.8967099803
 10
-6.0193415278
 20
-1.9256791052
 10
-6.0550920739
 20
-1.959284719
 10
-6.0889182358
 20
-1.9969547026
 10
-6.1202441396
 20
-2.038047743
 10
-6.1485364771
 20
-2.0818642512
 10
-6.173313585
 20
-2.1276582725
 10
-6.1941536453
 20
-2.1746501861
 10
-6.210701866
 20
-2.2220399777
 10
-6.2226765219
 20
-2.2690208592
 10
-6.2298737501
 20
-2.3147930039
 10
-6.2321710215
 20
-2.3585771636
  0
LWPOLYLINE
  5
2CA
100
AcDbEntity
  8
ASSI
100
AcDbPolyline
 62
250
  6
CONTINUOUS
 90
13
 70
0
 10
-5.9445242252
 20
-1.8728705297
 10
-5.982275233
 20
-1.8967099803
 10
-6.0193415278
 20
-1.9256791052
 10
-6.0550920739
 20
-1.959284719
 10
-6.0889182358
 20
-1.9969547026
 10
-6.1202441396
 20
-2.038047743
 10
-6.1485364771
 20
-2.0818642512
 10
-6.173313585
 20
-2.1276582725
 10
-6.1941536453
 20
-2.1746501861
 10
-6.210701866
 20
-2.2220399777
 10
-6.2226765219
 20
-2.2690208592
 10
-6.2298737501
 20
-2.3147930039
 10
-6.2321710215
 20
-2.3585771636
  0
LINE
  5
2CB
100
AcDbEntity
  8
RACCORDO
100
AcDbLine
 62
250
  6
CONTINUOUS
 10
-4.6311384708
 20
-1.1013038571
 11
-5.9444166089
 21
-1.8729348832
  0
LINE
  5
2CC
100
AcDbEntity
  8
ASSI
100
AcDbLine
 62
250
  6
CONTINUOUS
 10
-4.6311384708
 20
-1.1013038571
 11
-5.9444166089
 21
-1.8729348832
  0
LINE
  5
2CD
100
AcDbEntity
  8
RACCORDO
100
AcDbLine
 62
7
  6
CONTINUOUS
 10
7.2917032088
 20
-4.3175306008
 11
7.371966596
 21
-4.3638736747
  0
LINE
  5
2CE
100
AcDbEntity
  8
ASSI
100
AcDbLine
 62
7
  6
CONTINUOUS
 10
7.2917032088
 20
-4.3175306008
 11
7.371966596
 21
-4.3638736747
  0
LWPOLYLINE
  5
2CF
100
AcDbEntity
  8
RACCORDO
100
AcDbPolyline
 62
250
  6
CONTINUOUS
 90
8
 70
0
 10
-0.4888693412
 20
-3.5629727824
 10
-0.4854394283
 20
-3.572996937
 10
-0.4765115913
 20
-3.5875678011
 10
-0.4632407996
 20
-3.6010722794
 10
-0.4458620605
 20
-3.6128144097
 10
-0.424561528
 20
-3.62262541
 10
-0.3995358161
 20
-3.6309370561
 10
-0.3711015813
 20
-3.6379410253
  0
LWPOLYLINE
  5
2D0
100
AcDbEntity
  8
ASSI
100
AcDbPolyline
 62
250
  6
CONTINUOUS
 90
8
 70
0
 10
-0.4888693412
 20
-3.5629727824
 10
-0.4854394283
 20
-3.572996937
 10
-0.4765115913
 20
-3.5875678011
 10
-0.4632407996
 20
-3.6010722794
 10
-0.4458620605
 20
-3.6128144097
 10
-0.424561528
 20
-3.62262541
 10
-0.3995358161
 20
-3.6309370561
 10
-0.3711015813
 20
-3.6379410253
  0
LWPOLYLINE
  5
2D1
100
AcDbEntity
  8
RACCORDO
100
AcDbPolyline
 62
250
  6
CONTINUOUS
 90
18
 70
0
 10
-0.4044899587
 20
-3.5140984256
 10
-0.4440820651
 20
-3.3906265138
 10
-0.4898728898
 20
-3.2675221684
 10
-0.5421655779
 20
-3.1441098329
 10
-0.6006423464
 20
-3.0210560732
 10
-0.6643676024
 20
-2.9003714378
 10
-0.7333814362
 20
-2.7821692601
 10
-0.8076280265
 20
-2.6663266056
 10
-0.8860322757
 20
-2.5545022463
 10
-0.9686398988
 20
-2.4467470001
 10
-1.0553899453
 20
-2.3430008537
 10
-1.1450530011
 20
-2.2447597638
 10
-1.2377424001
 20
-2.1520432254
 10
-1.3333324125
 20
-2.0648243791
 10
-1.4302428207
 20
-1.9845343404
 10
-1.5279472098
 20
-1.9116503929
 10
-1.6269673903
 20
-1.8456926575
 10
-1.7272997034
 20
-1.7866590509
  0
LWPOLYLINE
  5
2D2
100
AcDbEntity
  8
ASSI
100
AcDbPolyline
 62
250
  6
CONTINUOUS
 90
18
 70
0
 10
-0.4044899587
 20
-3.5140984256
 10
-0.4440820651
 20
-3.3906265138
 10
-0.4898728898
 20
-3.2675221684
 10
-0.5421655779
 20
-3.1441098329
 10
-0.6006423464
 20
-3.0210560732
 10
-0.6643676024
 20
-2.9003714378
 10
-0.7333814362
 20
-2.7821692601
 10
-0.8076280265
 20
-2.6663266056
 10
-0.8860322757
 20
-2.5545022463
 10
-0.9686398988
 20
-2.4467470001
 10
-1.0553899453
 20
-2.3430008537
 10
-1.1450530011
 20
-2.2447597638
 10
-1.2377424001
 20
-2.1520432254
 10
-1.3333324125
 20
-2.0648243791
 10
-1.4302428207
 20
-1.9845343404
 10
-1.5279472098
 20
-1.9116503929
 10
-1.6269673903
 20
-1.8456926575
 10
-1.7272997034
 20
-1.7866590509
  0
LINE
  5
2D3
100
AcDbEntity
  8
RACCORDO
100
AcDbLine
 62
250
  6
CONTINUOUS
 10
-0.3711015813
 20
-3.6379410253
 11
-0.4044899587
 21
-3.5140984256
  0
LINE
  5
2D4
100
AcDbEntity
  8
ASSI
100
AcDbLine
 62
250
  6
CONTINUOUS
 10
-0.3711015813
 20
-3.6379410253
 11
-0.4044899587
 21
-3.5140984256
  0
LINE
  5
2D5
100
AcDbEntity
  8
RACCORDO
100
AcDbLine
 62
7
  6
CONTINUOUS
 10
-0.4889037511
 20
-3.5628309197
 11
-0.4888693412
 21
-3.5629727824
  0
LINE
  5
2D6
100
AcDbEntity
  8
ASSI
100
AcDbLine
 62
7
  6
CONTINUOUS
 10
-0.4889037511
 20
-3.5628309197
 11
-0.4888693412
 21
-3.5629727824
  0
LWPOLYLINE
  5
2D7
100
AcDbEntity
  8
RACCORDO
100
AcDbPolyline
 62
250
  6
CONTINUOUS
 90
11
 70
0
 10
-0.4802987084
 20
-4.283953313
 10
-0.4858094753
 20
-4.3042228788
 10
-0.4901429272
 20
-4.3347270012
 10
-0.4899813134
 20
-4.3659389181
 10
-0.4854369116
 20
-4.3979205838
 10
-0.4765077916
 20
-4.4299569385
 10
-0.4632362452
 20
-4.4614820436
 10
-0.4458574041
 20
-4.4926949579
 10
-0.424557524
 20
-4.5232252229
 10
-0.3995333436
 20
-4.5521600749
 10
-0.3711015813
 20
-4.5789022273
  0
LWPOLYLINE
  5
2D8
100
AcDbEntity
  8
ASSI
100
AcDbPolyline
 62
250
  6
CONTINUOUS
 90
11
 70
0
 10
-0.4802987084
 20
-4.283953313
 10
-0.4858094753
 20
-4.3042228788
 10
-0.4901429272
 20
-4.3347270012
 10
-0.4899813134
 20
-4.3659389181
 10
-0.4854369116
 20
-4.3979205838
 10
-0.4765077916
 20
-4.4299569385
 10
-0.4632362452
 20
-4.4614820436
 10
-0.4458574041
 20
-4.4926949579
 10
-0.424557524
 20
-4.5232252229
 10
-0.3995333436
 20
-4.5521600749
 10
-0.3711015813
 20
-4.5789022273
  0
LINE
  5
2D9
100
AcDbEntity
  8
RACCORDO
100
AcDbLine
 62
7
  6
CONTINUOUS
 10
-0.4802280616
 20
-4.2837376558
 11
-0.4802987084
 21
-4.283953313
  0
LINE
  5
2DA
100
AcDbEntity
  8
ASSI
100
AcDbLine
 62
7
  6
CONTINUOUS
 10
-0.4802280616
 20
-4.2837376558
 11
-0.4802987084
 21
-4.283953313
  0
LWPOLYLINE
  5
2DB
100
AcDbEntity
  8
RACCORDO
100
AcDbPolyline
 62
7
  6
CONTINUOUS
 90
9
 70
0
 10
-0.4803558214
 20
-4.2840878908
 10
-0.4852264603
 20
-4.2983876203
 10
-0.5046267415
 20
-4.3469276407
 10
-0.5269131145
 20
-4.390909477
 10
-0.5515956859
 20
-4.4295675849
 10
-0.5785211807
 20
-4.4630151917
 10
-0.608281343
 20
-4.4919804848
 10
-0.6414400616
 20
-4.5165646356
 10
-0.6522905144
 20
-4.5231608503
  0
LWPOLYLINE
  5
2DC
100
AcDbEntity
  8
ASSI
100
AcDbPolyline
 62
7
  6
CONTINUOUS
 90
9
 70
0
 10
-0.4803558214
 20
-4.2840878908
 10
-0.4852264603
 20
-4.2983876203
 10
-0.5046267415
 20
-4.3469276407
 10
-0.5269131145
 20
-4.390909477
 10
-0.5515956859
 20
-4.4295675849
 10
-0.5785211807
 20
-4.4630151917
 10
-0.608281343
 20
-4.4919804848
 10
-0.6414400616
 20
-4.5165646356
 10
-0.6522905144
 20
-4.5231608503
  0
LWPOLYLINE
  5
2DD
100
AcDbEntity
  8
0
100
AcDbPolyline
 62
250
  6
CONTINUOUS
 90
16
 70
0
 10
-3.8089600388
 20
8.2954435856
 10
-3.6345023407
 20
8.0422621699
 10
-3.4611108874
 20
7.7879361489
 10
-3.2887606338
 20
7.5324224694
 10
-3.1174265348
 20
7.2756780779
 10
-2.9470835452
 20
7.0176599211
 10
-2.7777250785
 20
6.7583530703
 10
-2.6094183825
 20
6.4978550956
 10
-2.4422491635
 20
6.2362916921
 10
-2.2763031277
 20
5.9737885547
 10
-2.1116659816
 20
5.7104713783
 10
-1.948405659
 20
5.446437252
 10
-1.7865190045
 20
5.1816688415
 10
-1.6259850902
 20
4.9161202066
 10
-1.4667829883
 20
4.6497454071
 10
-1.3088917709
 20
4.3824985028
  0
LWPOLYLINE
  5
2DE
100
AcDbEntity
  8
0
100
AcDbPolyline
 62
250
  6
CONTINUOUS
 90
87
 70
0
 10
-1.3088917709
 20
4.3824985028
 10
-1.302597317
 20
4.3720754239
 10
-1.2961611202
 20
4.3619415747
 10
-1.2895723869
 20
4.3520632467
 10
-1.2828203233
 20
4.342406731
 10
-1.2758941359
 20
4.3329383191
 10
-1.2669797691
 20
4.3213293004
 10
-1.2577834236
 20
4.3099756569
 10
-1.248312054
 20
4.2988915212
 10
-1.2385726153
 20
4.2880910261
 10
-1.2285761626
 20
4.2775920111
 10
-1.2183501525
 20
4.2674271427
 10
-1.2079261421
 20
4.2576327941
 10
-1.1973356883
 20
4.2482453385
 10
-1.188764183
 20
4.241051993
 10
-1.1801194513
 20
4.2341562407
 10
-1.171414594
 20
4.2275719841
 10
-1.1626627118
 20
4.2213131262
 10
-1.1538769058
 20
4.2153935696
 10
-1.1450692872
 20
4.2098256061
 10
-1.1362480098
 20
4.2046150828
 10
-1.1274202382
 20
4.1997662361
 10
-1.1185931367
 20
4.1952833022
 10
-1.1097738696
 20
4.1911705172
 10
-1.1009684134
 20
4.1874314203
 10
-1.0921779913
 20
4.1840667617
 10
-1.083402639
 20
4.1810765946
 10
-1.0746423918
 20
4.1784609721
 10
-1.0658972849
 20
4.1762199472
 10
-1.0571710935
 20
4.1743547671
 10
-1.0484825509
 20
4.1728714552
 10
-1.0398541299
 20
4.1717772285
 10
-1.0313083035
 20
4.1710793043
 10
-1.0228675447
 20
4.1707848999
 10
-1.0145537985
 20
4.1708990997
 10
-1.0063868989
 20
4.1714184566
 10
-0.9983861519
 20
4.1723373908
 10
-0.9905708636
 20
4.1736503224
 10
-0.9829603401
 20
4.1753516715
 10
-0.9755705877
 20
4.1774366069
 10
-0.9684044133
 20
4.1799032912
 10
-0.961461324
 20
4.1827506359
 10
-0.9547408268
 20
4.1859775522
 10
-0.948242429
 20
4.1895829515
 10
-0.9419658088
 20
4.1935662231
 10
-0.93591133
 20
4.1979286678
 10
-0.9300795273
 20
4.2026720642
 10
-0.9244709359
 20
4.2077981912
 10
-0.9190860904
 20
4.2133088274
 10
-0.9139279031
 20
4.2192030148
 10
-0.909008795
 20
4.2254688475
 10
-0.9043435642
 20
4.2320916828
 10
-0.8999470089
 20
4.239056878
 10
-0.8958339272
 20
4.2463497905
 10
-0.8920174006
 20
4.2539542839
 10
-0.8885036426
 20
4.2618482464
 10
-0.8852971498
 20
4.2700080727
 10
-0.882402419
 20
4.2784101573
 10
-0.8798239468
 20
4.2870308949
 10
-0.8775654509
 20
4.295850539
 10
-0.8756275327
 20
4.30486478
 10
-0.8740100146
 20
4.3140731669
 10
-0.8727127191
 20
4.3234752491
 10
-0.8717354684
 20
4.3330705759
 10
-0.8710780348
 20
4.3428572868
 10
-0.8707399899
 20
4.3528278836
 10
-0.8707208549
 20
4.3629734583
 10
-0.8710201512
 20
4.3732851029
 10
-0.8716374001
 20
4.3837539094
 10
-0.8725712253
 20
4.3943693639
 10
-0.87381666
 20
4.4051145287
 10
-0.8753678395
 20
4.41597086
 10
-0.8772188995
 20
4.426919814
 10
-0.8793639754
 20
4.437942847
 10
-0.8824488176
 20
4.4517956846
 10
-0.8859662725
 20
4.465687817
 10
-0.8898987163
 20
4.4795717649
 10
-0.8942285252
 20
4.4934000493
 10
-0.8989395219
 20
4.5071312452
 10
-0.9040213154
 20
4.5207481439
 10
-0.9094649613
 20
4.5342395908
 10
-0.9152615152
 20
4.5475944313
 10
-0.9201515718
 20
4.5581776613
 10
-0.9252855679
 20
4.5686918744
 10
-0.9306873064
 20
4.5791626205
 10
-0.9363805903
 20
4.5896154497
 10
-0.9423892224
 20
4.6000759121
  0
LWPOLYLINE
  5
2DF
100
AcDbEntity
  8
0
100
AcDbPolyline
 62
250
  6
CONTINUOUS
 90
16
 70
0
 10
-0.9423932119
 20
4.6000826781
 10
-1.1084382155
 20
4.8800560739
 10
-1.2758485404
 20
5.1590451589
 10
-1.4446468985
 20
5.4371000386
 10
-1.6148560015
 20
5.7142708185
 10
-1.7864985612
 20
5.990607604
 10
-1.9595778897
 20
6.2661293604
 10
-2.1340196998
 20
6.5407304913
 10
-2.309730305
 20
6.8142742602
 10
-2.4866160184
 20
7.0866239307
 10
-2.6645831533
 20
7.357642766
 10
-2.8435582368
 20
7.6272246276
 10
-3.023548651
 20
7.8953857687
 10
-3.2045819917
 20
8.1621730401
 10
-3.3866858547
 20
8.427633293
 10
-3.5698878361
 20
8.6918133785
  0
LWPOLYLINE
  5
2E0
100
AcDbEntity
  8
RACCORDO
100
AcDbPolyline
 62
250
  6
CONTINUOUS
 90
10
 70
0
 10
4.0704067358
 20
-23.0677141557
 10
4.0033266692
 20
-21.2019746046
 10
3.9450812539
 20
-19.3620346694
 10
3.8952911878
 20
-17.5481708528
 10
3.8540166078
 20
-15.7810007275
 10
3.8202984029
 20
-14.0405320004
 10
3.7929512893
 20
-12.2656845497
 10
3.7721412555
 20
-10.4357876688
 10
3.7585918681
 20
-8.5710588045
 10
3.7526770852
 20
-6.6713201002
  0
LWPOLYLINE
  5
2E1
100
AcDbEntity
  8
ASSI
100
AcDbPolyline
 62
250
  6
CONTINUOUS
 90
10
 70
0
 10
4.0704067358
 20
-23.0677141557
 10
4.0033266692
 20
-21.2019746046
 10
3.9450812539
 20
-19.3620346694
 10
3.8952911878
 20
-17.5481708528
 10
3.8540166078
 20
-15.7810007275
 10
3.8202984029
 20
-14.0405320004
 10
3.7929512893
 20
-12.2656845497
 10
3.7721412555
 20
-10.4357876688
 10
3.7585918681
 20
-8.5710588045
 10
3.7526770852
 20
-6.6713201002
  0
LINE
  5
2E2
100
AcDbEntity
  8
DRAFT
100
AcDbLine
 62
7
  6
CONTINUOUS
 10
1.6437182907
 20
16.4973259186
 11
1.6650526697
 21
15.8771005706
  0
LINE
  5
2E3
100
AcDbEntity
  8
ASSI
100
AcDbLine
 62
7
  6
CONTINUOUS
 10
1.6437182907
 20
16.4973259186
 11
1.6650526697
 21
15.8771005706
  0
LWPOLYLINE
  5
2E4
100
AcDbEntity
  8
RACCORDO
100
AcDbPolyline
 62
250
  6
CONTINUOUS
 90
19
 70
0
 10
4.0704067512
 20
11.0238463975
 10
4.0760566939
 20
11.1072937044
 10
4.0872798616
 20
11.1932324444
 10
4.1040047034
 20
11.281082503
 10
4.1261340987
 20
11.3702365829
 10
4.1535174027
 20
11.4601049702
 10
4.1859557276
 20
11.5501200757
 10
4.2232563308
 20
11.639676981
 10
4.2651779058
 20
11.7281609372
 10
4.3114062521
 20
11.8149926133
 10
4.3616567449
 20
11.8995771712
 10
4.4156081532
 20
11.981336594
 10
4.472852423
 20
12.0597379782
 10
4.5330280339
 20
12.1342361061
 10
4.5957554264
 20
12.2043231121
 10
4.660571949
 20
12.2695587213
 10
4.7270465377
 20
12.3295025723
 10
4.7947814286
 20
12.3837192594
 10
4.8633482319
 20
12.4318263551
  0
LWPOLYLINE
  5
2E5
100
AcDbEntity
  8
ASSI
100
AcDbPolyline
 62
250
  6
CONTINUOUS
 90
19
 70
0
 10
4.0704067512
 20
11.0238463975
 10
4.0760566939
 20
11.1072937044
 10
4.0872798616
 20
11.1932324444
 10
4.1040047034
 20
11.281082503
 10
4.1261340987
 20
11.3702365829
 10
4.1535174027
 20
11.4601049702
 10
4.1859557276
 20
11.5501200757
 10
4.2232563308
 20
11.639676981
 10
4.2651779058
 20
11.7281609372
 10
4.3114062521
 20
11.8149926133
 10
4.3616567449
 20
11.8995771712
 10
4.4156081532
 20
11.981336594
 10
4.472852423
 20
12.0597379782
 10
4.5330280339
 20
12.1342361061
 10
4.5957554264
 20
12.2043231121
 10
4.660571949
 20
12.2695587213
 10
4.7270465377
 20
12.3295025723
 10
4.7947814286
 20
12.3837192594
 10
4.8633482319
 20
12.4318263551
  0
LWPOLYLINE
  5
2E6
100
AcDbEntity
  8
RACCORDO
100
AcDbPolyline
 62
250
  6
CONTINUOUS
 90
13
 70
0
 10
-0.1026611581
 20
-4.0833800766
 10
-0.1389550142
 20
-4.108915846
 10
-0.1732196777
 20
-4.13920435
 10
-0.2056837712
 20
-4.1737233297
 10
-0.2369651284
 20
-4.2121942707
 10
-0.2665235367
 20
-4.2543953877
 10
-0.2927941407
 20
-4.2994848462
 10
-0.3157240343
 20
-4.3460517791
 10
-0.3354741893
 20
-4.3935433171
 10
-0.3508525776
 20
-4.4416947781
 10
-0.3615206545
 20
-4.4895615271
 10
-0.3681451145
 20
-4.5356783372
 10
-0.3711015813
 20
-4.5789022273
  0
LWPOLYLINE
  5
2E7
100
AcDbEntity
  8
ASSI
100
AcDbPolyline
 62
250
  6
CONTINUOUS
 90
13
 70
0
 10
-0.1026611581
 20
-4.0833800766
 10
-0.1389550142
 20
-4.108915846
 10
-0.1732196777
 20
-4.13920435
 10
-0.2056837712
 20
-4.1737233297
 10
-0.2369651284
 20
-4.2121942707
 10
-0.2665235367
 20
-4.2543953877
 10
-0.2927941407
 20
-4.2994848462
 10
-0.3157240343
 20
-4.3460517791
 10
-0.3354741893
 20
-4.3935433171
 10
-0.3508525776
 20
-4.4416947781
 10
-0.3615206545
 20
-4.4895615271
 10
-0.3681451145
 20
-4.5356783372
 10
-0.3711015813
 20
-4.5789022273
  0
LWPOLYLINE
  5
2E8
100
AcDbEntity
  8
RACCORDO
100
AcDbPolyline
 62
250
  6
CONTINUOUS
 90
13
 70
0
 10
-1.4543962443
 20
-4.4654039611
 10
-1.4902280696
 20
-4.4903521762
 10
-1.5254078172
 20
-4.5204113905
 10
-1.5593365396
 20
-4.5550698356
 10
-1.5914365887
 20
-4.5937374396
 10
-1.6211614501
 20
-4.6357558732
 10
-1.6480050481
 20
-4.6804097577
 10
-1.6715103612
 20
-4.7269388455
 10
-1.6912772034
 20
-4.7745509629
 10
-1.7069690373
 20
-4.8224354972
 10
-1.7183187041
 20
-4.8697771977
 10
-1.7251329717
 20
-4.9157700556
 10
-1.7272958249
 20
-4.9596310267
  0
LWPOLYLINE
  5
2E9
100
AcDbEntity
  8
ASSI
100
AcDbPolyline
 62
250
  6
CONTINUOUS
 90
13
 70
0
 10
-1.4543962443
 20
-4.4654039611
 10
-1.4902280696
 20
-4.4903521762
 10
-1.5254078172
 20
-4.5204113905
 10
-1.5593365396
 20
-4.5550698356
 10
-1.5914365887
 20
-4.5937374396
 10
-1.6211614501
 20
-4.6357558732
 10
-1.6480050481
 20
-4.6804097577
 10
-1.6715103612
 20
-4.7269388455
 10
-1.6912772034
 20
-4.7745509629
 10
-1.7069690373
 20
-4.8224354972
 10
-1.7183187041
 20
-4.8697771977
 10
-1.7251329717
 20
-4.9157700556
 10
-1.7272958249
 20
-4.9596310267
  0
LINE
  5
2EA
100
AcDbEntity
  8
RACCORDO
100
AcDbLine
 62
7
  6
CONTINUOUS
 10
-0.0806362908
 20
-3.9314432068
 11
-0.3047258969
 21
-4.0647774278
  0
LINE
  5
2EB
100
AcDbEntity
  8
ASSI
100
AcDbLine
 62
7
  6
CONTINUOUS
 10
-0.0806362908
 20
-3.9314432068
 11
-0.3047258969
 21
-4.0647774278
  0
LINE
  5
2EC
100
AcDbEntity
  8
RACCORDO
100
AcDbLine
 62
250
  6
CONTINUOUS
 10
0.0428223943
 20
-3.9968169633
 11
-0.1026611545
 21
-4.0833800785
  0
LINE
  5
2ED
100
AcDbEntity
  8
ASSI
100
AcDbLine
 62
250
  6
CONTINUOUS
 10
0.0428223943
 20
-3.9968169633
 11
-0.1026611545
 21
-4.0833800785
  0
LINE
  5
2EE
100
AcDbEntity
  8
RACCORDO
100
AcDbLine
 62
7
  6
CONTINUOUS
 10
-0.6523298655
 20
-4.5231981506
 11
-0.6498236718
 21
-4.5217239616
  0
LINE
  5
2EF
100
AcDbEntity
  8
ASSI
100
AcDbLine
 62
7
  6
CONTINUOUS
 10
-0.6523298655
 20
-4.5231981506
 11
-0.6498236718
 21
-4.5217239616
  0
LINE
  5
2F0
100
AcDbEntity
  8
RACCORDO
100
AcDbLine
 62
250
  6
CONTINUOUS
 10
-0.3223878817
 20
-3.8003821476
 11
-1.4545091687
 21
-4.4653511988
  0
LINE
  5
2F1
100
AcDbEntity
  8
ASSI
100
AcDbLine
 62
250
  6
CONTINUOUS
 10
-0.3223878817
 20
-3.8003821476
 11
-1.4545091687
 21
-4.4653511988
  0
LWPOLYLINE
  5
2F2
100
AcDbEntity
  8
RACCORDO
100
AcDbPolyline
 62
250
  6
CONTINUOUS
 90
9
 70
0
 10
-0.3047258969
 20
-4.0647774278
 10
-0.2940755005
 20
-4.0590792681
 10
-0.2709806989
 20
-4.0505111633
 10
-0.2459761568
 20
-4.0459467788
 10
-0.2193414585
 20
-4.0454370833
 10
-0.1913745104
 20
-4.0489877218
 10
-0.162388088
 20
-4.0565589199
 10
-0.1327063308
 20
-4.0680659505
 10
-0.1026611581
 20
-4.0833800766
  0
LWPOLYLINE
  5
2F3
100
AcDbEntity
  8
ASSI
100
AcDbPolyline
 62
250
  6
CONTINUOUS
 90
9
 70
0
 10
-0.3047258969
 20
-4.0647774278
 10
-0.2940755005
 20
-4.0590792681
 10
-0.2709806989
 20
-4.0505111633
 10
-0.2459761568
 20
-4.0459467788
 10
-0.2193414585
 20
-4.0454370833
 10
-0.1913745104
 20
-4.0489877218
 10
-0.162388088
 20
-4.0565589199
 10
-0.1327063308
 20
-4.0680659505
 10
-0.1026611581
 20
-4.0833800766
  0
LWPOLYLINE
  5
2F4
100
AcDbEntity
  8
0
100
AcDbPolyline
 62
250
  6
CONTINUOUS
 90
49
 70
0
 10
-3.5698878361
 20
8.6918133785
 10
-3.5801758858
 20
8.7062849055
 10
-3.5905642694
 20
8.7204120695
 10
-3.6010663628
 20
8.7342214296
 10
-3.6116955421
 20
8.7477395451
 10
-3.6224651835
 20
8.7609929751
 10
-3.6333886631
 20
8.7740082788
 10
-3.6444770193
 20
8.7868066882
 10
-3.6557319403
 20
8.7993881258
 10
-3.6671527767
 20
8.8117471871
 10
-3.6787388791
 20
8.8238784673
 10
-3.690489598
 20
8.8357765618
 10
-3.7024042841
 20
8.8474360659
 10
-3.7144795967
 20
8.8588493264
 10
-3.7267014311
 20
8.8699996957
 10
-3.7390529912
 20
8.8808682776
 10
-3.751517481
 20
8.8914361761
 10
-3.7640781045
 20
8.901684495
 10
-3.7767180658
 20
8.9115943381
 10
-3.7894218276
 20
8.9211484203
 10
-3.8021788874
 20
8.9303358999
 10
-3.8149800016
 20
8.9391475464
 10
-3.8278159265
 20
8.9475741291
 10
-3.8406774184
 20
8.9556064175
 10
-3.8535552338
 20
8.963235181
 10
-3.8664401111
 20
8.9704525397
 10
-3.8793227186
 20
8.9772560167
 10
-3.8921937067
 20
8.9836444857
 10
-3.9050437259
 20
8.9896168206
 10
-3.9178634265
 20
8.9951718952
 10
-3.9306434591
 20
9.0003085834
 10
-3.9433731631
 20
9.0050258583
 10
-3.9560366337
 20
9.0093230908
 10
-3.9686166553
 20
9.0131997512
 10
-3.9810960122
 20
9.0166553099
 10
-3.9934574885
 20
9.0196892372
 10
-4.0056838686
 20
9.0223010032
 10
-4.0177606893
 20
9.0244909644
 10
-4.0296844971
 20
9.0262630207
 10
-4.0414545911
 20
9.0276219581
 10
-4.0530702705
 20
9.0285725627
 10
-4.0645308342
 20
9.0291196205
 10
-4.0758355814
 20
9.0292679173
 10
-4.0869863446
 20
9.0290197169
 10
-4.0979950902
 20
9.0283671929
 10
-4.108876318
 20
9.0272999964
 10
-4.1196445279
 20
9.0258077787
 10
-4.1303142196
 20
9.0238801911
 10
-4.1408998929
 20
9.0215068847
  0
LWPOLYLINE
  5
2F5
100
AcDbEntity
  8
RACCORDO
100
AcDbPolyline
 62
250
  6
CONTINUOUS
 90
10
 70
0
 10
4.7430984504
 20
-23.042404678
 10
4.6752346213
 20
-21.1773352091
 10
4.6156270489
 20
-19.3386689454
 10
4.564275733
 20
-17.5264058869
 10
4.5215850759
 20
-15.7608646703
 10
4.4871506755
 20
-14.0217266589
 10
4.4597593251
 20
-12.2480359419
 10
4.4390066226
 20
-10.4194738826
 10
4.4252969702
 20
-8.5563591177
 10
4.4186303679
 20
-6.6586916473
  0
LWPOLYLINE
  5
2F6
100
AcDbEntity
  8
ASSI
100
AcDbPolyline
 62
250
  6
CONTINUOUS
 90
10
 70
0
 10
4.7430984504
 20
-23.042404678
 10
4.6752346213
 20
-21.1773352091
 10
4.6156270489
 20
-19.3386689454
 10
4.564275733
 20
-17.5264058869
 10
4.5215850759
 20
-15.7608646703
 10
4.4871506755
 20
-14.0217266589
 10
4.4597593251
 20
-12.2480359419
 10
4.4390066226
 20
-10.4194738826
 10
4.4252969702
 20
-8.5563591177
 10
4.4186303679
 20
-6.6586916473
  0
LWPOLYLINE
  5
2F7
100
AcDbEntity
  8
RACCORDO
100
AcDbPolyline
 62
250
  6
CONTINUOUS
 90
10
 70
0
 10
4.4186304149
 20
-5.724989957
 10
4.4231029306
 20
-4.0268846433
 10
4.4348652326
 20
-2.2983052908
 10
4.4539173208
 20
-0.5392518997
 10
4.4794524137
 20
1.2369694167
 10
4.5122772929
 20
3.0436647718
 10
4.5548123031
 20
4.9207525059
 10
4.6078642256
 20
6.8815387323
 10
4.6706262791
 20
8.9127173376
 10
4.7430984635
 20
11.0142883218
  0
LWPOLYLINE
  5
2F8
100
AcDbEntity
  8
ASSI
100
AcDbPolyline
 62
250
  6
CONTINUOUS
 90
10
 70
0
 10
4.4186304149
 20
-5.724989957
 10
4.4231029306
 20
-4.0268846433
 10
4.4348652326
 20
-2.2983052908
 10
4.4539173208
 20
-0.5392518997
 10
4.4794524137
 20
1.2369694167
 10
4.5122772929
 20
3.0436647718
 10
4.5548123031
 20
4.9207525059
 10
4.6078642256
 20
6.8815387323
 10
4.6706262791
 20
8.9127173376
 10
4.7430984635
 20
11.0142883218
  0
LWPOLYLINE
  5
2F9
100
AcDbEntity
  8
RACCORDO
100
AcDbPolyline
 62
250
  6
CONTINUOUS
 90
10
 70
0
 10
3.752677104
 20
-5.7354713155
 10
3.7575634327
 20
-4.0354495261
 10
3.7689815468
 20
-2.3051074837
 10
3.7872308769
 20
-0.5443074566
 10
3.8124025832
 20
1.2340422221
 10
3.8449160805
 20
3.0430674087
 10
3.8860244907
 20
4.9222076208
 10
3.9368871703
 20
6.8849863451
 10
3.9980644512
 20
8.9187307685
 10
4.0704067406
 20
11.023846399
  0
LWPOLYLINE
  5
2FA
100
AcDbEntity
  8
ASSI
100
AcDbPolyline
 62
250
  6
CONTINUOUS
 90
10
 70
0
 10
3.752677104
 20
-5.7354713155
 10
3.7575634327
 20
-4.0354495261
 10
3.7689815468
 20
-2.3051074837
 10
3.7872308769
 20
-0.5443074566
 10
3.8124025832
 20
1.2340422221
 10
3.8449160805
 20
3.0430674087
 10
3.8860244907
 20
4.9222076208
 10
3.9368871703
 20
6.8849863451
 10
3.9980644512
 20
8.9187307685
 10
4.0704067406
 20
11.023846399
  0
LWPOLYLINE
  5
2FB
100
AcDbEntity
  8
RACCORDO
100
AcDbPolyline
 62
250
  6
CONTINUOUS
 90
19
 70
0
 10
4.7430984635
 20
11.0142883218
 10
4.7466375702
 20
11.0631033505
 10
4.7534590136
 20
11.1127251727
 10
4.7635627939
 20
11.1631537886
 10
4.7770594499
 20
11.2147654544
 10
4.7938384427
 20
11.2671839138
 10
4.8135681551
 20
11.3192803979
 10
4.8363079226
 20
11.371023363
 10
4.8619984097
 20
11.4224443528
 10
4.8901299926
 20
11.4725092294
 10
4.9207551781
 20
11.5211925765
 10
4.9538214594
 20
11.5685198104
 10
4.9886616914
 20
11.6135330419
 10
5.025334703
 20
11.6561973906
 10
5.0637816652
 20
11.6965477368
 10
5.1031589466
 20
11.7337308331
 10
5.1431853367
 20
11.7674622634
 10
5.184142046
 20
11.7980264438
 10
5.2260290746
 20
11.8254233741
  0
LWPOLYLINE
  5
2FC
100
AcDbEntity
  8
ASSI
100
AcDbPolyline
 62
250
  6
CONTINUOUS
 90
19
 70
0
 10
4.7430984635
 20
11.0142883218
 10
4.7466375702
 20
11.0631033505
 10
4.7534590136
 20
11.1127251727
 10
4.7635627939
 20
11.1631537886
 10
4.7770594499
 20
11.2147654544
 10
4.7938384427
 20
11.2671839138
 10
4.8135681551
 20
11.3192803979
 10
4.8363079226
 20
11.371023363
 10
4.8619984097
 20
11.4224443528
 10
4.8901299926
 20
11.4725092294
 10
4.9207551781
 20
11.5211925765
 10
4.9538214594
 20
11.5685198104
 10
4.9886616914
 20
11.6135330419
 10
5.025334703
 20
11.6561973906
 10
5.0637816652
 20
11.6965477368
 10
5.1031589466
 20
11.7337308331
 10
5.1431853367
 20
11.7674622634
 10
5.184142046
 20
11.7980264438
 10
5.2260290746
 20
11.8254233741
  0
LINE
  5
2FD
100
AcDbEntity
  8
RACCORDO
100
AcDbLine
 62
250
  6
CONTINUOUS
 10
7.6548416318
 20
-3.9835821611
 11
4.4186304149
 21
-5.724989957
  0
LINE
  5
2FE
100
AcDbEntity
  8
ASSI
100
AcDbLine
 62
250
  6
CONTINUOUS
 10
7.6548416318
 20
-3.9835821611
 11
4.4186304149
 21
-5.724989957
  0
LWPOLYLINE
  5
2FF
100
AcDbEntity
  8
RACCORDO
100
AcDbPolyline
 62
250
  6
CONTINUOUS
 90
16
 70
0
 10
4.4186304174
 20
-5.7249899557
 10
4.3817839085
 20
-5.7431905551
 10
4.3420390347
 20
-5.7592385324
 10
4.2997726736
 20
-5.7729827679
 10
4.2553884803
 20
-5.7842928062
 10
4.2093034919
 20
-5.7930641219
 10
4.1619430629
 20
-5.7992172307
 10
4.1137486365
 20
-5.8026935011
 10
4.0651804883
 20
-5.8034582575
 10
4.0167031476
 20
-5.8015049786
 10
3.9687809539
 20
-5.7968532164
 10
3.9218592874
 20
-5.7895469178
 10
3.876367438
 20
-5.7796528321
 10
3.8327318574
 20
-5.7672613289
 10
3.7913708533
 20
-5.7524881836
 10
3.7526771054
 20
-5.7354713134
  0
LWPOLYLINE
  5
300
100
AcDbEntity
  8
ASSI
100
AcDbPolyline
 62
250
  6
CONTINUOUS
 90
16
 70
0
 10
4.4186304174
 20
-5.7249899557
 10
4.3817839085
 20
-5.7431905551
 10
4.3420390347
 20
-5.7592385324
 10
4.2997726736
 20
-5.7729827679
 10
4.2553884803
 20
-5.7842928062
 10
4.2093034919
 20
-5.7930641219
 10
4.1619430629
 20
-5.7992172307
 10
4.1137486365
 20
-5.8026935011
 10
4.0651804883
 20
-5.8034582575
 10
4.0167031476
 20
-5.8015049786
 10
3.9687809539
 20
-5.7968532164
 10
3.9218592874
 20
-5.7895469178
 10
3.876367438
 20
-5.7796528321
 10
3.8327318574
 20
-5.7672613289
 10
3.7913708533
 20
-5.7524881836
 10
3.7526771054
 20
-5.7354713134
  0
LINE
  5
301
100
AcDbEntity
  8
RACCORDO
100
AcDbLine
 62
7
  6
CONTINUOUS
 10
7.1113191734
 20
12.9695860011
 11
7.6548416318
 21
6.2771054879
  0
LINE
  5
302
100
AcDbEntity
  8
ASSI
100
AcDbLine
 62
7
  6
CONTINUOUS
 10
7.1113191734
 20
12.9695860011
 11
7.6548416318
 21
6.2771054879
  0
LINE
  5
303
100
AcDbEntity
  8
RACCORDO
100
AcDbLine
 62
7
  6
CONTINUOUS
 10
7.6548416318
 20
6.2771054879
 11
7.6548416318
 21
-3.9835821611
  0
LINE
  5
304
100
AcDbEntity
  8
ASSI
100
AcDbLine
 62
7
  6
CONTINUOUS
 10
7.6548416318
 20
6.2771054879
 11
7.6548416318
 21
-3.9835821611
  0
LINE
  5
305
100
AcDbEntity
  8
RACCORDO
100
AcDbLine
 62
7
  6
CONTINUOUS
 10
7.6548416318
 20
-4.8537281151
 11
7.6548416318
 21
-15.1144157641
  0
LINE
  5
306
100
AcDbEntity
  8
ASSI
100
AcDbLine
 62
7
  6
CONTINUOUS
 10
7.6548416318
 20
-4.8537281151
 11
7.6548416318
 21
-15.1144157641
  0
LINE
  5
307
100
AcDbEntity
  8
RACCORDO
100
AcDbLine
 62
7
  6
CONTINUOUS
 10
7.1113191734
 20
-22.4025101972
 11
7.6548416318
 21
-15.1144157641
  0
LINE
  5
308
100
AcDbEntity
  8
ASSI
100
AcDbLine
 62
7
  6
CONTINUOUS
 10
7.1113191734
 20
-22.4025101972
 11
7.6548416318
 21
-15.1144157641
  0
LWPOLYLINE
  5
309
100
AcDbEntity
  8
RACCORDO
100
AcDbPolyline
 62
250
  6
CONTINUOUS
 90
13
 70
0
 10
4.0076301846
 20
-6.1690141967
 10
3.9742140773
 20
-6.1951003994
 10
3.9414061547
 20
-6.2262547227
 10
3.9097624034
 20
-6.2619492031
 10
3.8798190809
 20
-6.3015789363
 10
3.8520836282
 20
-6.3444723282
 10
3.8270260698
 20
-6.3899024765
 10
3.8050710489
 20
-6.4370994891
 10
3.7865906307
 20
-6.4852635314
 10
3.7718979971
 20
-6.5335783807
 10
3.7612421396
 20
-6.5812252587
 10
3.7548036396
 20
-6.6273967067
 10
3.752691608
 20
-6.6713102702
  0
LWPOLYLINE
  5
30A
100
AcDbEntity
  8
ASSI
100
AcDbPolyline
 62
250
  6
CONTINUOUS
 90
13
 70
0
 10
4.0076301846
 20
-6.1690141967
 10
3.9742140773
 20
-6.1951003994
 10
3.9414061547
 20
-6.2262547227
 10
3.9097624034
 20
-6.2619492031
 10
3.8798190809
 20
-6.3015789363
 10
3.8520836282
 20
-6.3444723282
 10
3.8270260698
 20
-6.3899024765
 10
3.8050710489
 20
-6.4370994891
 10
3.7865906307
 20
-6.4852635314
 10
3.7718979971
 20
-6.5335783807
 10
3.7612421396
 20
-6.5812252587
 10
3.7548036396
 20
-6.6273967067
 10
3.752691608
 20
-6.6713102702
  0
LWPOLYLINE
  5
30B
100
AcDbEntity
  8
RACCORDO
100
AcDbPolyline
 62
250
  6
CONTINUOUS
 90
8
 70
0
 10
4.3328749585
 20
-5.9096783931
 10
4.336213715
 20
-5.9078155631
 10
4.3602042633
 20
-5.8900093735
 10
4.3804845219
 20
-5.8665145348
 10
4.3967074346
 20
-5.8377328826
 10
4.4085954029
 20
-5.8041566948
 10
4.4159450002
 20
-5.7663602235
 10
4.418630413
 20
-5.724989958
  0
LWPOLYLINE
  5
30C
100
AcDbEntity
  8
ASSI
100
AcDbPolyline
 62
250
  6
CONTINUOUS
 90
8
 70
0
 10
4.3328749585
 20
-5.9096783931
 10
4.336213715
 20
-5.9078155631
 10
4.3602042633
 20
-5.8900093735
 10
4.3804845219
 20
-5.8665145348
 10
4.3967074346
 20
-5.8377328826
 10
4.4085954029
 20
-5.8041566948
 10
4.4159450002
 20
-5.7663602235
 10
4.418630413
 20
-5.724989958
  0
LINE
  5
30D
100
AcDbEntity
  8
RACCORDO
100
AcDbLine
 62
250
  6
CONTINUOUS
 10
4.1408203033
 20
-6.1660122714
 11
7.371966596
 21
-4.3638736747
  0
LINE
  5
30E
100
AcDbEntity
  8
ASSI
100
AcDbLine
 62
250
  6
CONTINUOUS
 10
4.1408203033
 20
-6.1660122714
 11
7.371966596
 21
-4.3638736747
  0
LINE
  5
30F
100
AcDbEntity
  8
RACCORDO
100
AcDbLine
 62
250
  6
CONTINUOUS
 10
4.4186303679
 20
-6.6586916473
 11
7.6548416318
 21
-4.8537281151
  0
LINE
  5
310
100
AcDbEntity
  8
ASSI
100
AcDbLine
 62
250
  6
CONTINUOUS
 10
4.4186303679
 20
-6.6586916473
 11
7.6548416318
 21
-4.8537281151
  0
LINE
  5
311
100
AcDbEntity
  8
RACCORDO
100
AcDbLine
 62
7
  6
CONTINUOUS
 10
7.5685437595
 20
-4.1685624832
 11
4.3328300835
 21
-5.9097025519
  0
LINE
  5
312
100
AcDbEntity
  8
ASSI
100
AcDbLine
 62
7
  6
CONTINUOUS
 10
7.5685437595
 20
-4.1685624832
 11
4.3328300835
 21
-5.9097025519
  0
LWPOLYLINE
  5
313
100
AcDbEntity
  8
0
100
AcDbPolyline
 62
250
  6
CONTINUOUS
 90
47
 70
0
 10
-3.931980824
 20
8.3664740606
 10
-3.9294693216
 20
8.3670322634
 10
-3.9269585906
 20
8.3674891229
 10
-3.9244455455
 20
8.3678454224
 10
-3.9219271006
 20
8.368101945
 10
-3.9194001704
 20
8.3682594738
 10
-3.9168616691
 20
8.3683187922
 10
-3.9143085113
 20
8.3682806831
 10
-3.9117376114
 20
8.3681459299
 10
-3.9087750854
 20
8.3678746907
 10
-3.9057887226
 20
8.3674800118
 10
-3.9027818899
 20
8.3669636596
 10
-3.8997579541
 20
8.3663274006
 10
-3.896720282
 20
8.3655730013
 10
-3.8936722406
 20
8.3647022281
 10
-3.8906171966
 20
8.3637168475
 10
-3.8875581713
 20
8.362618555
 10
-3.8844968027
 20
8.3614087613
 10
-3.8814343833
 20
8.3600888065
 10
-3.8783722054
 20
8.3586600303
 10
-3.8753115616
 20
8.3571237727
 10
-3.8722537441
 20
8.3554813736
 10
-3.8692000456
 20
8.3537341727
 10
-3.8661518932
 20
8.3518836139
 10
-3.8631112547
 20
8.3499315566
 10
-3.8600802323
 20
8.3478799641
 10
-3.8570609287
 20
8.3457307999
 10
-3.8540554464
 20
8.3434860272
 10
-3.8510658878
 20
8.3411476094
 10
-3.8480943554
 20
8.3387175099
 10
-3.8455105065
 20
8.3365173123
 10
-3.8429422892
 20
8.3342485622
 10
-3.8403899237
 20
8.3319113976
 10
-3.8378536306
 20
8.3295059566
 10
-3.8353335975
 20
8.3270322312
 10
-3.8328298815
 20
8.3244896293
 10
-3.830342507
 20
8.3218774127
 10
-3.8278714982
 20
8.3191948431
 10
-3.8254178191
 20
8.3164424447
 10
-3.8229861925
 20
8.3136257915
 10
-3.8205822809
 20
8.3107517196
 10
-3.8182117466
 20
8.3078270654
 10
-3.8163414234
 20
8.3054529906
 10
-3.8144885884
 20
8.3030392617
 10
-3.8126457442
 20
8.3005742222
 10
-3.8108053935
 20
8.2980462157
 10
-3.8089600388
 20
8.2954435856
  0
LWPOLYLINE
  5
314
100
AcDbEntity
  8
0
100
AcDbPolyline
 62
250
  6
CONTINUOUS
 90
87
 70
0
 10
-0.9429118654
 20
-12.0076321116
 10
-0.9368800611
 20
-12.0040383036
 10
-0.9311640766
 20
-12.0001173115
 10
-0.9257398698
 20
-11.9958700704
 10
-0.9205833984
 20
-11.9912975154
 10
-0.9156706203
 20
-11.9864005817
 10
-0.9098450676
 20
-11.9798246437
 10
-0.9043718809
 20
-11.9727449258
 10
-0.8992602217
 20
-11.9651630291
 10
-0.8945192512
 20
-11.9570805546
 10
-0.8901595351
 20
-11.9485032154
 10
-0.8861972564
 20
-11.9394531726
 10
-0.8826500025
 20
-11.9299566998
 10
-0.8795353609
 20
-11.9200400701
 10
-0.8773664503
 20
-11.911821553
 10
-0.8754916912
 20
-11.9033622651
 10
-0.8739171075
 20
-11.8946735209
 10
-0.872648723
 20
-11.8857666349
 10
-0.8716925614
 20
-11.8766529219
 10
-0.8710537503
 20
-11.8673431179
 10
-0.8707338323
 20
-11.8578456459
 10
-0.8707334538
 20
-11.8481683502
 10
-0.8710532609
 20
-11.8383190754
 10
-0.8716939002
 20
-11.8283056658
 10
-0.8726559288
 20
-11.8181346692
 10
-0.8739395479
 20
-11.8078074455
 10
-0.8755448695
 20
-11.797324058
 10
-0.8774720057
 20
-11.7866845697
 10
-0.8797210686
 20
-11.7758890439
 10
-0.8822913934
 20
-11.7649420868
 10
-0.8851792084
 20
-11.7538664763
 10
-0.8883799651
 20
-11.7426895337
 10
-0.8918891148
 20
-11.7314385799
 10
-0.8957021092
 20
-11.7201409361
 10
-0.8998127161
 20
-11.7088242566
 10
-0.9042079684
 20
-11.6975175297
 10
-0.9088732157
 20
-11.6862500765
 10
-0.9137938073
 20
-11.6750512186
 10
-0.9189550927
 20
-11.6639502773
 10
-0.9243447522
 20
-11.6529715797
 10
-0.92995979
 20
-11.6421194747
 10
-0.9357995411
 20
-11.6313933172
 10
-0.9418633407
 20
-11.6207924618
 10
-0.9481505237
 20
-11.6103162633
 10
-0.9546607115
 20
-11.5999642068
 10
-0.9613946705
 20
-11.5897362995
 10
-0.9683534534
 20
-11.5796326791
 10
-0.9755381129
 20
-11.5696534834
 10
-0.9829497016
 20
-11.55979885
 10
-0.9905857919
 20
-11.5500733254
 10
-0.9984300351
 20
-11.5404990912
 10
-1.0064626022
 20
-11.5311027376
 10
-1.0146636643
 20
-11.521910855
 10
-1.0230133924
 20
-11.5129500336
 10
-1.0314914608
 20
-11.5042452839
 10
-1.0400755572
 20
-11.4958152956
 10
-1.0487428728
 20
-11.4876771788
 10
-1.0574705986
 20
-11.4798480432
 10
-1.0662359256
 20
-11.4723449989
 10
-1.0750198114
 20
-11.4651822934
 10
-1.0838182797
 20
-11.4583627249
 10
-1.0926311207
 20
-11.4518862292
 10
-1.1014581246
 20
-11.4457527422
 10
-1.1102990816
 20
-11.4399621996
 10
-1.1191525623
 20
-11.4345151262
 10
-1.1280122587
 20
-11.429414401
 10
-1.1368706432
 20
-11.4246634921
 10
-1.1457201882
 20
-11.4202658673
 10
-1.1545533661
 20
-11.4162249946
 10
-1.1633616858
 20
-11.412543862
 10
-1.1721328022
 20
-11.4092235372
 10
-1.1808534067
 20
-11.4062646081
 10
-1.1895101907
 20
-11.4036676627
 10
-1.1980898455
 20
-11.4014332888
 10
-1.2086845571
 20
-11.3991506105
 10
-1.2191052518
 20
-11.3974336803
 10
-1.2293192218
 20
-11.3962808098
 10
-1.2392937593
 20
-11.3956903107
 10
-1.2490006646
 20
-11.3956596356
 10
-1.258429772
 20
-11.3961828016
 10
-1.2675754239
 20
-11.3972529669
 10
-1.2764319626
 20
-11.3988632899
 10
-1.2833075364
 20
-11.4005398502
 10
-1.2900053971
 20
-11.4025781469
 10
-1.2965364848
 20
-11.4049985945
 10
-1.3029117396
 20
-11.4078216071
 10
-1.3091421016
 20
-11.4110675991
  0
LWPOLYLINE
  5
315
100
AcDbEntity
  8
0
100
AcDbPolyline
 62
250
  6
CONTINUOUS
 90
16
 70
0
 10
-1.3091421016
 20
-11.4110675991
 10
-1.4672661102
 20
-11.4976371139
 10
-1.6266679526
 20
-11.5811360354
 10
-1.7873683857
 20
-11.6615750446
 10
-1.9493881661
 20
-11.7389648223
 10
-2.1127480507
 20
-11.8133160495
 10
-2.2774510783
 20
-11.8846321672
 10
-2.4434294178
 20
-11.952887656
 10
-2.6105975202
 20
-12.0180497569
 10
-2.7788698364
 20
-12.0800857107
 10
-2.9481608175
 20
-12.138962758
 10
-3.1184033312
 20
-12.1946549931
 10
-3.2896039123
 20
-12.247163923
 10
-3.4617875122
 20
-12.2964979082
 10
-3.6349790823
 20
-12.3426653089
 10
-3.8092035739
 20
-12.3856744856
  0
LWPOLYLINE
  5
316
100
AcDbEntity
  8
0
100
AcDbPolyline
 62
250
  6
CONTINUOUS
 90
16
 70
0
 10
-4.1408998929
 20
9.0215068847
 10
-4.3314741294
 20
8.973130873
 10
-4.5202164319
 20
8.9217840941
 10
-4.7071597022
 20
8.8674545492
 10
-4.8923368421
 20
8.8101302395
 10
-5.0757807531
 20
8.7497991664
 10
-5.257504219
 20
8.6864567088
 10
-5.437439551
 20
8.6201277572
 10
-5.6154989425
 20
8.5508445801
 10
-5.7915945866
 20
8.4786394457
 10
-5.9656386766
 20
8.4035446223
 10
-6.1375636282
 20
8.3255840435
 10
-6.3073827469
 20
8.2447483033
 10
-6.4751295607
 20
8.161019661
 10
-6.6408375975
 20
8.0743803758
 10
-6.8045403853
 20
7.984812707
  0
LWPOLYLINE
  5
317
100
AcDbEntity
  8
RACCORDO
100
AcDbPolyline
 62
250
  6
CONTINUOUS
 90
7
 70
0
 10
-10.8197102417
 20
19.6212133421
 10
-10.8572396546
 20
19.6490114748
 10
-10.8885074974
 20
19.6789950794
 10
-10.913040694
 20
19.7107105099
 10
-10.9304680621
 20
19.7436779184
 10
-10.9405259292
 20
19.7773985146
 10
-10.943080831
 20
19.810827695
  0
LWPOLYLINE
  5
318
100
AcDbEntity
  8
ASSI
100
AcDbPolyline
 62
250
  6
CONTINUOUS
 90
7
 70
0
 10
-10.8197102417
 20
19.6212133421
 10
-10.8572396546
 20
19.6490114748
 10
-10.8885074974
 20
19.6789950794
 10
-10.913040694
 20
19.7107105099
 10
-10.9304680621
 20
19.7436779184
 10
-10.9405259292
 20
19.7773985146
 10
-10.943080831
 20
19.810827695
  0
LWPOLYLINE
  5
319
100
AcDbEntity
  8
RACCORDO
100
AcDbPolyline
 62
250
  6
CONTINUOUS
 90
13
 70
0
 10
4.070419877
 20
11.0238543973
 10
4.1191407659
 20
11.0018522649
 10
4.1720946907
 20
10.9832066033
 10
4.2284804945
 20
10.9681995087
 10
4.2874450984
 20
10.9570580283
 10
4.3480964081
 20
10.9499507249
 10
4.4095168104
 20
10.9469851266
 10
4.4707770564
 20
10.9482061007
 10
4.5309503203
 20
10.9535951748
 10
4.5891262216
 20
10.9630708158
 10
4.6444245983
 20
10.9764896638
 10
4.6960088236
 20
10.9936487007
 10
4.7430984634
 20
11.0142883219
  0
LWPOLYLINE
  5
31A
100
AcDbEntity
  8
ASSI
100
AcDbPolyline
 62
250
  6
CONTINUOUS
 90
13
 70
0
 10
4.070419877
 20
11.0238543973
 10
4.1191407659
 20
11.0018522649
 10
4.1720946907
 20
10.9832066033
 10
4.2284804945
 20
10.9681995087
 10
4.2874450984
 20
10.9570580283
 10
4.3480964081
 20
10.9499507249
 10
4.4095168104
 20
10.9469851266
 10
4.4707770564
 20
10.9482061007
 10
4.5309503203
 20
10.9535951748
 10
4.5891262216
 20
10.9630708158
 10
4.6444245983
 20
10.9764896638
 10
4.6960088236
 20
10.9936487007
 10
4.7430984634
 20
11.0142883219
  0
LWPOLYLINE
  5
31B
100
AcDbEntity
  8
RACCORDO
100
AcDbPolyline
 62
250
  6
CONTINUOUS
 90
31
 70
0
 10
4.0704067406
 20
11.023846399
 10
3.5563785494
 20
11.2833100562
 10
3.0445603894
 20
11.544009885
 10
2.5349591417
 20
11.8059398147
 10
2.0276760441
 20
12.0690446227
 10
1.5226227321
 20
12.3333669143
 10
1.019524878
 20
12.599049411
 10
0.5182676448
 20
12.8661546385
 10
0.0189865039
 20
13.1346123942
 10
-0.4782153582
 20
13.4043676053
 10
-0.9732824969
 20
13.6753896176
 10
-1.4662535624
 20
13.9476990325
 10
-1.9571671057
 20
14.2213172933
 10
-2.4461328272
 20
14.4963069996
 10
-2.9330217514
 20
14.7725969834
 10
-3.4175178475
 20
15.0500060336
 10
-3.8993407134
 20
15.3283673853
 10
-4.3787633701
 20
15.6078324001
 10
-4.8562971966
 20
15.8886986085
 10
-5.3308947642
 20
16.1703443389
 10
-5.8035900341
 20
16.4533795113
 10
-6.2779604257
 20
16.7399803296
 10
-6.7531187093
 20
17.0296627225
 10
-7.2298366
 20
17.3229545967
 10
-7.7140433609
 20
17.623624349
 10
-8.2060352959
 20
17.9320234595
 10
-8.705201928
 20
18.247946987
 10
-9.2159484811
 20
18.5744147846
 10
-9.7395481093
 20
18.9125267082
 10
-10.274221254
 20
19.2614203918
 10
-10.8197102448
 20
19.6212133248
  0
LWPOLYLINE
  5
31C
100
AcDbEntity
  8
ASSI
100
AcDbPolyline
 62
250
  6
CONTINUOUS
 90
31
 70
0
 10
4.0704067406
 20
11.023846399
 10
3.5563785494
 20
11.2833100562
 10
3.0445603894
 20
11.544009885
 10
2.5349591417
 20
11.8059398147
 10
2.0276760441
 20
12.0690446227
 10
1.5226227321
 20
12.3333669143
 10
1.019524878
 20
12.599049411
 10
0.5182676448
 20
12.8661546385
 10
0.0189865039
 20
13.1346123942
 10
-0.4782153582
 20
13.4043676053
 10
-0.9732824969
 20
13.6753896176
 10
-1.4662535624
 20
13.9476990325
 10
-1.9571671057
 20
14.2213172933
 10
-2.4461328272
 20
14.4963069996
 10
-2.9330217514
 20
14.7725969834
 10
-3.4175178475
 20
15.0500060336
 10
-3.8993407134
 20
15.3283673853
 10
-4.3787633701
 20
15.6078324001
 10
-4.8562971966
 20
15.8886986085
 10
-5.3308947642
 20
16.1703443389
 10
-5.8035900341
 20
16.4533795113
 10
-6.2779604257
 20
16.7399803296
 10
-6.7531187093
 20
17.0296627225
 10
-7.2298366
 20
17.3229545967
 10
-7.7140433609
 20
17.623624349
 10
-8.2060352959
 20
17.9320234595
 10
-8.705201928
 20
18.247946987
 10
-9.2159484811
 20
18.5744147846
 10
-9.7395481093
 20
18.9125267082
 10
-10.274221254
 20
19.2614203918
 10
-10.8197102448
 20
19.6212133248
  0
LINE
  5
31D
100
AcDbEntity
  8
RACCORDO
100
AcDbLine
 62
250
  6
CONTINUOUS
 10
-4.5216650499
 20
17.5581510658
 11
-4.9934519631
 21
17.8410012686
  0
LINE
  5
31E
100
AcDbEntity
  8
ASSI
100
AcDbLine
 62
250
  6
CONTINUOUS
 10
-4.5216650499
 20
17.5581510658
 11
-4.9934519631
 21
17.8410012686
  0
LWPOLYLINE
  5
31F
100
AcDbEntity
  8
RACCORDO
100
AcDbPolyline
 62
250
  6
CONTINUOUS
 90
11
 70
0
 10
-4.9934519631
 20
17.8410012686
 10
-5.4668439128
 20
18.1275495094
 10
-5.9410694053
 20
18.4172113388
 10
-6.4168999342
 20
18.7105712063
 10
-6.9001677591
 20
19.0115946142
 10
-7.3914843787
 20
19.3205212905
 10
-7.8902382944
 20
19.6371115073
 10
-8.4004272704
 20
19.9646115841
 10
-8.9233838946
 20
20.3041036275
 10
-9.457775579
 20
20.6545055309
 10
-10.0036023237
 20
21.0158172944
  0
LWPOLYLINE
  5
320
100
AcDbEntity
  8
ASSI
100
AcDbPolyline
 62
250
  6
CONTINUOUS
 90
11
 70
0
 10
-4.9934519631
 20
17.8410012686
 10
-5.4668439128
 20
18.1275495094
 10
-5.9410694053
 20
18.4172113388
 10
-6.4168999342
 20
18.7105712063
 10
-6.9001677591
 20
19.0115946142
 10
-7.3914843787
 20
19.3205212905
 10
-7.8902382944
 20
19.6371115073
 10
-8.4004272704
 20
19.9646115841
 10
-8.9233838946
 20
20.3041036275
 10
-9.457775579
 20
20.6545055309
 10
-10.0036023237
 20
21.0158172944
  0
LINE
  5
321
100
AcDbEntity
  8
DRAFT
100
AcDbLine
 62
7
  6
CONTINUOUS
 10
3.9778863696
 20
14.5416993789
 11
4.7669028673
 21
14.6940382868
  0
LINE
  5
322
100
AcDbEntity
  8
ASSI
100
AcDbLine
 62
7
  6
CONTINUOUS
 10
3.9778863696
 20
14.5416993789
 11
4.7669028673
 21
14.6940382868
  0
LWPOLYLINE
  5
323
100
AcDbEntity
  8
RACCORDO
100
AcDbPolyline
 62
250
  6
CONTINUOUS
 90
9
 70
0
 10
-10.0036023611
 20
21.0158172693
 10
-10.0413774771
 20
21.0343440501
 10
-10.078536972
 20
21.0483260543
 10
-10.1146744184
 20
21.0576103803
 10
-10.1493945876
 20
21.0620955092
 10
-10.1823177221
 20
21.0617324078
 10
-10.2130836984
 20
21.0565250862
 10
-10.2413560346
 20
21.0465305503
 10
-10.2634061929
 20
21.0342105797
  0
LWPOLYLINE
  5
324
100
AcDbEntity
  8
ASSI
100
AcDbPolyline
 62
250
  6
CONTINUOUS
 90
9
 70
0
 10
-10.0036023611
 20
21.0158172693
 10
-10.0413774771
 20
21.0343440501
 10
-10.078536972
 20
21.0483260543
 10
-10.1146744184
 20
21.0576103803
 10
-10.1493945876
 20
21.0620955092
 10
-10.1823177221
 20
21.0617324078
 10
-10.2130836984
 20
21.0565250862
 10
-10.2413560346
 20
21.0465305503
 10
-10.2634061929
 20
21.0342105797
  0
LWPOLYLINE
  5
325
100
AcDbEntity
  8
RACCORDO
100
AcDbPolyline
 62
250
  6
CONTINUOUS
 90
20
 70
0
 10
4.863348232
 20
12.4318263552
 10
4.3499037233
 20
12.6895521077
 10
3.8387636327
 20
12.9485513386
 10
3.3299279603
 20
13.2088240478
 10
2.8235191253
 20
13.4703072483
 10
2.3194147085
 20
13.7330639271
 10
1.8172474518
 20
13.9972830456
 10
1.3168387835
 20
14.2630568354
 10
0.8183672754
 20
14.5302930649
 10
0.3220013846
 20
14.798904
 10
-0.1721941027
 20
15.0688554342
 10
-0.6642839727
 20
15.340181574
 10
-1.1542941263
 20
15.6128973057
 10
-1.6423356942
 20
15.8870674484
 10
-2.1282975457
 20
16.162627183
 10
-2.6118721905
 20
16.4393969373
 10
-3.092798977
 20
16.7172248994
 10
-3.5713385569
 20
16.9962628812
 10
-4.0479653939
 20
17.2767867467
 10
-4.5216650499
 20
17.5581510658
  0
LWPOLYLINE
  5
326
100
AcDbEntity
  8
ASSI
100
AcDbPolyline
 62
250
  6
CONTINUOUS
 90
20
 70
0
 10
4.863348232
 20
12.4318263552
 10
4.3499037233
 20
12.6895521077
 10
3.8387636327
 20
12.9485513386
 10
3.3299279603
 20
13.2088240478
 10
2.8235191253
 20
13.4703072483
 10
2.3194147085
 20
13.7330639271
 10
1.8172474518
 20
13.9972830456
 10
1.3168387835
 20
14.2630568354
 10
0.8183672754
 20
14.5302930649
 10
0.3220013846
 20
14.798904
 10
-0.1721941027
 20
15.0688554342
 10
-0.6642839727
 20
15.340181574
 10
-1.1542941263
 20
15.6128973057
 10
-1.6423356942
 20
15.8870674484
 10
-2.1282975457
 20
16.162627183
 10
-2.6118721905
 20
16.4393969373
 10
-3.092798977
 20
16.7172248994
 10
-3.5713385569
 20
16.9962628812
 10
-4.0479653939
 20
17.2767867467
 10
-4.5216650499
 20
17.5581510658
  0
LINE
  5
327
100
AcDbEntity
  8
DRAFT
100
AcDbLine
 62
7
  6
CONTINUOUS
 10
-6.4872939919
 20
20.5841633601
 11
-3.9417095796
 21
19.1143748241
  0
LINE
  5
328
100
AcDbEntity
  8
ASSI
100
AcDbLine
 62
7
  6
CONTINUOUS
 10
-6.4872939919
 20
20.5841633601
 11
-3.9417095796
 21
19.1143748241
  0
LINE
  5
329
100
AcDbEntity
  8
DRAFT
100
AcDbLine
 62
7
  6
CONTINUOUS
 10
1.4323019574
 20
16.0114879148
 11
3.9778863696
 21
14.5416993789
  0
LINE
  5
32A
100
AcDbEntity
  8
ASSI
100
AcDbLine
 62
7
  6
CONTINUOUS
 10
1.4323019574
 20
16.0114879148
 11
3.9778863696
 21
14.5416993789
  0
LWPOLYLINE
  5
32B
100
AcDbEntity
  8
RACCORDO
100
AcDbPolyline
 62
250
  6
CONTINUOUS
 90
16
 70
0
 10
4.8633482319
 20
12.4318263551
 10
4.8993971636
 20
12.4077281673
 10
4.9352541986
 20
12.379551594
 10
4.9705271642
 20
12.3476048057
 10
5.0048302753
 20
12.3122372084
 10
5.0377883549
 20
12.273835622
 10
5.0690409369
 20
12.2328200497
 10
5.0982462082
 20
12.1896390842
 10
5.1250847469
 20
12.1447650008
 10
5.1492630167
 20
12.098688593
 10
5.1705165769
 20
12.0519138041
 10
5.1886129746
 20
12.0049522158
 10
5.2033542873
 20
11.9583174528
 10
5.2145792875
 20
11.9125195654
 10
5.222165206
 20
11.8680594505
 10
5.2260290746
 20
11.8254233741
  0
LWPOLYLINE
  5
32C
100
AcDbEntity
  8
ASSI
100
AcDbPolyline
 62
250
  6
CONTINUOUS
 90
16
 70
0
 10
4.8633482319
 20
12.4318263551
 10
4.8993971636
 20
12.4077281673
 10
4.9352541986
 20
12.379551594
 10
4.9705271642
 20
12.3476048057
 10
5.0048302753
 20
12.3122372084
 10
5.0377883549
 20
12.273835622
 10
5.0690409369
 20
12.2328200497
 10
5.0982462082
 20
12.1896390842
 10
5.1250847469
 20
12.1447650008
 10
5.1492630167
 20
12.098688593
 10
5.1705165769
 20
12.0519138041
 10
5.1886129746
 20
12.0049522158
 10
5.2033542873
 20
11.9583174528
 10
5.2145792875
 20
11.9125195654
 10
5.222165206
 20
11.8680594505
 10
5.2260290746
 20
11.8254233741
  0
LINE
  5
32D
100
AcDbEntity
  8
RACCORDO
100
AcDbLine
 62
7
  6
CONTINUOUS
 10
-8.2355068772
 20
22.2014667148
 11
-6.2758776586
 21
21.0700013639
  0
LINE
  5
32E
100
AcDbEntity
  8
ASSI
100
AcDbLine
 62
7
  6
CONTINUOUS
 10
-8.2355068772
 20
22.2014667148
 11
-6.2758776586
 21
21.0700013639
  0
LINE
  5
32F
100
AcDbEntity
  8
DRAFT
100
AcDbLine
 62
7
  6
CONTINUOUS
 10
-3.152693082
 20
19.2667137321
 11
1.6437182907
 21
16.4973259186
  0
LINE
  5
330
100
AcDbEntity
  8
ASSI
100
AcDbLine
 62
7
  6
CONTINUOUS
 10
-3.152693082
 20
19.2667137321
 11
1.6437182907
 21
16.4973259186
  0
LINE
  5
331
100
AcDbEntity
  8
RACCORDO
100
AcDbLine
 62
7
  6
CONTINUOUS
 10
4.7669028673
 20
14.6940382868
 11
6.7265320859
 21
13.5625729359
  0
LINE
  5
332
100
AcDbEntity
  8
ASSI
100
AcDbLine
 62
7
  6
CONTINUOUS
 10
4.7669028673
 20
14.6940382868
 11
6.7265320859
 21
13.5625729359
  0
LINE
  5
333
100
AcDbEntity
  8
DRAFT
100
AcDbLine
 62
7
  6
CONTINUOUS
 10
-3.9417095796
 20
19.1143748241
 11
-3.152693082
 21
19.2667137321
  0
LINE
  5
334
100
AcDbEntity
  8
ASSI
100
AcDbLine
 62
7
  6
CONTINUOUS
 10
-3.9417095796
 20
19.1143748241
 11
-3.152693082
 21
19.2667137321
  0
LWPOLYLINE
  5
335
100
AcDbEntity
  8
RACCORDO
100
AcDbPolyline
 62
250
  6
CONTINUOUS
 90
9
 70
0
 10
5.1014793441
 20
-23.5640949539
 10
5.1250870803
 20
-23.5501710804
 10
5.1492650425
 20
-23.5299479426
 10
5.1705182035
 20
-23.5051856555
 10
5.1886141607
 20
-23.4761550893
 10
5.2033550425
 20
-23.4431737833
 10
5.2145796676
 20
-23.406602483
 10
5.2221653105
 20
-23.3668411989
 10
5.2260290479
 20
-23.3243248183
  0
LWPOLYLINE
  5
336
100
AcDbEntity
  8
ASSI
100
AcDbPolyline
 62
250
  6
CONTINUOUS
 90
9
 70
0
 10
5.1014793441
 20
-23.5640949539
 10
5.1250870803
 20
-23.5501710804
 10
5.1492650425
 20
-23.5299479426
 10
5.1705182035
 20
-23.5051856555
 10
5.1886141607
 20
-23.4761550893
 10
5.2033550425
 20
-23.4431737833
 10
5.2145796676
 20
-23.406602483
 10
5.2221653105
 20
-23.3668411989
 10
5.2260290479
 20
-23.3243248183
  0
LINE
  5
337
100
AcDbEntity
  8
RACCORDO
100
AcDbLine
 62
250
  6
CONTINUOUS
 10
7.1113191734
 20
-22.4025101972
 11
5.2260290479
 21
-23.3243248183
  0
LINE
  5
338
100
AcDbEntity
  8
ASSI
100
AcDbLine
 62
250
  6
CONTINUOUS
 10
7.1113191734
 20
-22.4025101972
 11
5.2260290479
 21
-23.3243248183
  0
LINE
  5
339
100
AcDbEntity
  8
RACCORDO
100
AcDbLine
 62
7
  6
CONTINUOUS
 10
6.9744286261
 20
-22.6483144014
 11
5.1014793441
 21
-23.5640949539
  0
LINE
  5
33A
100
AcDbEntity
  8
ASSI
100
AcDbLine
 62
7
  6
CONTINUOUS
 10
6.9744286261
 20
-22.6483144014
 11
5.1014793441
 21
-23.5640949539
  0
LWPOLYLINE
  5
33B
100
AcDbEntity
  8
RACCORDO
100
AcDbPolyline
 62
250
  6
CONTINUOUS
 90
19
 70
0
 10
5.2260290479
 20
-23.3243248183
 10
5.1841420194
 20
-23.3428293899
 10
5.1431853102
 20
-23.3571472301
 10
5.1031589201
 20
-23.3672783388
 10
5.0637816387
 20
-23.3732464622
 10
5.0253346764
 20
-23.3750278542
 10
4.9886616649
 20
-23.3725512767
 10
4.9538214329
 20
-23.3657173823
 10
4.9207551517
 20
-23.3546255183
 10
4.8901299662
 20
-23.3395024897
 10
4.8619983833
 20
-23.3202653408
 10
4.8363078962
 20
-23.2969970271
 10
4.8135681287
 20
-23.2701732201
 10
4.793838416
 20
-23.239697354
 10
4.7770594229
 20
-23.2056659944
 10
4.763562768
 20
-23.1688445102
 10
4.7534589907
 20
-23.1294880242
 10
4.7466375515
 20
-23.0873414134
 10
4.7430984504
 20
-23.042404678
  0
LWPOLYLINE
  5
33C
100
AcDbEntity
  8
ASSI
100
AcDbPolyline
 62
250
  6
CONTINUOUS
 90
19
 70
0
 10
5.2260290479
 20
-23.3243248183
 10
5.1841420194
 20
-23.3428293899
 10
5.1431853102
 20
-23.3571472301
 10
5.1031589201
 20
-23.3672783388
 10
5.0637816387
 20
-23.3732464622
 10
5.0253346764
 20
-23.3750278542
 10
4.9886616649
 20
-23.3725512767
 10
4.9538214329
 20
-23.3657173823
 10
4.9207551517
 20
-23.3546255183
 10
4.8901299662
 20
-23.3395024897
 10
4.8619983833
 20
-23.3202653408
 10
4.8363078962
 20
-23.2969970271
 10
4.8135681287
 20
-23.2701732201
 10
4.793838416
 20
-23.239697354
 10
4.7770594229
 20
-23.2056659944
 10
4.763562768
 20
-23.1688445102
 10
4.7534589907
 20
-23.1294880242
 10
4.7466375515
 20
-23.0873414134
 10
4.7430984504
 20
-23.042404678
  0
ARC
  5
33D
100
AcDbEntity
  8
RACCORDO
100
AcDbCircle
 62
7
  6
CONTINUOUS
 10
-0.1001929175
 20
-4.4085306246
 40
0.4
100
AcDbArc
 50
120.752624298
 51
161.8212586125
  0
ARC
  5
33E
100
AcDbEntity
  8
ASSI
100
AcDbCircle
 62
7
  6
CONTINUOUS
 10
-0.1001929175
 20
-4.4085306246
 40
0.4
100
AcDbArc
 50
120.752624298
 51
161.8212586125
  0
ARC
  5
33F
100
AcDbEntity
  8
RACCORDO
100
AcDbCircle
 62
7
  6
CONTINUOUS
 10
-0.1001929175
 20
-3.4684707989
 40
0.4
100
AcDbArc
 50
193.665610402
 51
241.9958407611
  0
ARC
  5
340
100
AcDbEntity
  8
RACCORDO
100
AcDbCircle
 62
7
  6
CONTINUOUS
 10
-7.2113306273
 20
0.6374109913
 40
0.4
100
AcDbArc
 50
237.8888048846
 51
299.2488433792
  0
ARC
  5
341
100
AcDbEntity
  8
ASSI
100
AcDbCircle
 62
7
  6
CONTINUOUS
 10
-0.1001929175
 20
-3.4684707989
 40
0.4
100
AcDbArc
 50
193.665610402
 51
241.9958407611
  0
ARC
  5
342
100
AcDbEntity
  8
ASSI
100
AcDbCircle
 62
7
  6
CONTINUOUS
 10
-7.2113306273
 20
0.6374109913
 40
0.4
100
AcDbArc
 50
237.8888048846
 51
299.2488433792
  0
ELLIPSE
  5
343
100
AcDbEntity
  8
RACCORDO
100
AcDbEllipse
 62
7
  6
CONTINUOUS
 10
6.7576879345
 20
-22.1977216813
 30
0.0
 11
-0.2148753492
 21
0.4514925988
 31
0.0
 40
0.626010046
 41
-3.1349764991
 42
-2.3100583745
  0
ELLIPSE
  5
344
100
AcDbEntity
  8
RACCORDO
100
AcDbEllipse
 62
7
  6
CONTINUOUS
 10
7.371901963
 20
-4.690436903
 30
0.0
 11
-0.2001163506
 21
0.3463781804
 31
0.0
 40
0.577463496
 41
-2.3564333972
 42
-0.7858655045
  0
ELLIPSE
  5
345
100
AcDbEntity
  8
ASSI
100
AcDbEllipse
 62
7
  6
CONTINUOUS
 10
6.7576879345
 20
-22.1977216813
 30
0.0
 11
-0.2148753492
 21
0.4514925988
 31
0.0
 40
0.626010046
 41
-3.1349764991
 42
-2.3100583745
  0
ELLIPSE
  5
346
100
AcDbEntity
  8
ASSI
100
AcDbEllipse
 62
7
  6
CONTINUOUS
 10
7.371901963
 20
-4.690436903
 30
0.0
 11
-0.2001163506
 21
0.3463781804
 31
0.0
 40
0.577463496
 41
-2.3564333972
 42
-0.7858655045
  0
ELLIPSE
  5
347
100
AcDbEntity
  8
RACCORDO
100
AcDbEllipse
 62
7
  6
CONTINUOUS
 10
6.7576879345
 20
13.1732595336
 30
0.0
 11
-0.280860955
 21
0.4142191515
 31
0.0
 40
0.5243459323
 41
-2.3941007373
 42
-0.8246744066
  0
ELLIPSE
  5
348
100
AcDbEntity
  8
RACCORDO
100
AcDbEllipse
 62
7
  6
CONTINUOUS
 10
7.371901963
 20
-3.8201417357
 30
0.0
 11
-0.2001619724
 21
0.3464573699
 31
0.0
 40
0.5771997317
 41
-3.1590443312
 42
-2.3566615088
  0
ELLIPSE
  5
349
100
AcDbEntity
  8
RACCORDO
100
AcDbEllipse
 62
7
  6
CONTINUOUS
 10
-8.2049967438
 20
21.8125261404
 30
0.0
 11
-0.2806490066
 21
0.4138128862
 31
0.0
 40
0.5253010868
 41
-0.8257150379
 42
-0.0027521587
  0
ELLIPSE
  5
34A
100
AcDbEntity
  8
ASSI
100
AcDbEllipse
 62
7
  6
CONTINUOUS
 10
6.7576879345
 20
13.1732595336
 30
0.0
 11
-0.280860955
 21
0.4142191515
 31
0.0
 40
0.5243459323
 41
-2.3941007373
 42
-0.8246744066
  0
ELLIPSE
  5
34B
100
AcDbEntity
  8
ASSI
100
AcDbEllipse
 62
7
  6
CONTINUOUS
 10
7.371901963
 20
-3.8201417357
 30
0.0
 11
-0.2001619724
 21
0.3464573699
 31
0.0
 40
0.5771997317
 41
-3.1590443312
 42
-2.3566615088
  0
ELLIPSE
  5
34C
100
AcDbEntity
  8
ASSI
100
AcDbEllipse
 62
7
  6
CONTINUOUS
 10
-8.2049967438
 20
21.8125261404
 30
0.0
 11
-0.2806490066
 21
0.4138128862
 31
0.0
 40
0.5253010868
 41
-0.8257150379
 42
-0.0027521587
  0
ENDSEC
  0
SECTION
  2
OBJECTS
  0
DICTIONARY
  5
C
100
AcDbDictionary
280
0
281
1
  3
ACAD_GROUP
350
D
  3
ACAD_MLINESTYLE
350
17
  3
ACAD_LAYOUT
350
1A
  3
ACAD_PLOTSETTINGS
350
19
  3
ACAD_PLOTSTYLENAME
350
E
  0
DICTIONARY
  5
D
102
{ACAD_REACTORS
330
C
102
}
100
AcDbDictionary
280
0
281
1
  0
ACDBDICTIONARYWDFLT
  5
E
102
{ACAD_REACTORS
330
C
102
}
100
AcDbDictionary
281
1
  3
Normal
350
F
100
AcDbDictionaryWithDefault
340
F
  0
DICTIONARY
  5
17
102
{ACAD_REACTORS
330
C
102
}
100
AcDbDictionary
280
0
281
1
  3
Standard
350
18
  0
DICTIONARY
  5
19
102
{ACAD_REACTORS
330
C
102
}
100
AcDbDictionary
281
1
  0
DICTIONARY
  5
1A
102
{ACAD_REACTORS
330
C
102
}
100
AcDbDictionary
281
1
  3
Model
350
34D
  3
Layout1
350
34E
  0
ACDBPLACEHOLDER
  5
F
102
{ACAD_REACTORS
330
E
102
}
  0
MLINESTYLE
  5
18
102
{ACAD_REACTORS
330
17
102
}
100
AcDbMlineStyle
  2
STANDARD
 70
0
  3

 62
256
 51
90.0
 52
90.0
 71
2
 49
0.5
 62
256
  6
BYLAYER
 49
-0.5
 62
256
  6
BYLAYER
  0
LAYOUT
  5
34D
102
{ACAD_REACTORS
330
1A
102
}
100
AcDbPlotSettings
  1

  2
none_device
  4
ISO_A4_(297.00_x_210.00_MM)
  6

 40
0.0
 41
0.0
 42
0.0
 43
0.0
 44
297.0
 45
210.0
 46
0.0
 47
0.0
 48
0.0
 49
0.0
140
0.0
141
0.0
142
1.0
143
1.0
 70
1024
 72
1
 73
0
 74
0
  7

 75
0
147
1.0
148
0.0
149
0.0
100
AcDbLayout
  1
Model
 70
0
 71
0
 10
0.0
 20
0.0
 11
297.0
 21
210.0
 12
0.0
 22
0.0
 32
0.0
 14
0.0
 24
0.0
 34
0.0
 15
0.0
 25
0.0
 35
0.0
146
0.0
 13
0.0
 23
0.0
 33
0.0
 16
1.0
 26
0.0
 36
0.0
 17
0.0
 27
1.0
 37
0.0
 76
0
330
214
345
0
346
0
  0
LAYOUT
  5
34E
102
{ACAD_REACTORS
330
1A
102
}
100
AcDbPlotSettings
  1

  2
none_device
  4
ISO_A4_(297.00_x_210.00_MM)
  6

 40
0.0
 41
0.0
 42
0.0
 43
0.0
 44
297.0
 45
210.0
 46
0.0
 47
0.0
 48
0.0
 49
0.0
140
0.0
141
0.0
142
1.0
143
1.0
 70
0
 72
1
 73
0
 74
0
  7

 75
0
147
1.0
148
0.0
149
0.0
100
AcDbLayout
  1
Layout1
 70
0
 71
1
 10
0.0
 20
0.0
 11
297.0
 21
210.0
 12
0.0
 22
0.0
 32
0.0
 14
0.0
 24
0.0
 34
0.0
 15
0.0
 25
0.0
 35
0.0
146
0.0
 13
0.0
 23
0.0
 33
0.0
 16
1.0
 26
0.0
 36
0.0
 17
0.0
 27
1.0
 37
0.0
 76
0
330
215
345
0
346
0
  0
ENDSEC
  0
EOF
