  0
SECTION
  2
HEADER
  9
$ACADVER
  1
AC1024
  9
$DWGCODEPAGE
  3
ANSI_1252
  9
$EXTMAX
 10
210.0
 20
297.0
 30
0.0
  9
$EXTMIN
 10
0.0
 20
0.0
 30
0.0
  9
$LIMMIN
 10
0.0
 20
0.0
  9
$LIMMAX
 10
210.0
 20
297.0
  9
$VIEWCTR
 10
105.0
 20
148.5
  9
$VIEWSIZE
 40
297.0
  9
$CLAYER
  8
0
  9
$LTSCALE
 40
19.36
  9
$CELTYPE
  6
BYLAYER
  9
$DIMSCALE
 40
1.0
  9
$DIMASZ
 40
3.0
  9
$DIMEXO
 40
0.5
  9
$DIMDLI
 40
13.376
  9
$DIMEXE
 40
1.5
  9
$DIMCEN
 40
3.168
  9
$DIMLFAC
 40
1.0
  9
$DIMBLK
  1
_FILLED
  9
$DIMALT
 70
0
  9
$DIMALTF
 40
0.0393700787
  9
$DIMTXT
 40
3.0
  9
$DIMTOL
 70
1
  9
$DIMLIM
 70
0
  9
$DIMTFAC
 40
1.0
  9
$DIMTP
 40
0.01
  9
$DIMTM
 40
0.01
  9
$DIMGAP
 40
0.625
  9
$DIMDSEP
 70
44
  9
$AUNITS
 70
0
  9
$PDMODE
 70
3
  9
$PDSIZE
 40
3.0
  9
$HANDSEED
  5
2F0
  9
$TILEMODE
 70
1
  9
$MEASUREMENT
 70
1
  9
$INSUNITS
 70
4
  0
ENDSEC
  0
SECTION
  2
CLASSES
  0
CLASS
  1
ACDBDICTIONARYWDFLT
  2
AcDbDictionaryWithDefault
  3
AutoCAD 2000
 90
0
 91
1
280
0
281
0
  0
CLASS
  1
ACDBPLACEHOLDER
  2
AcDbPlaceHolder
  3
AutoCAD 2000
 90
0
 91
1
280
0
281
0
  0
CLASS
  1
LAYOUT
  2
AcDbLayout
  3
AutoCAD 2000
 90
0
 91
0
280
0
281
0
  0
ENDSEC
  0
SECTION
  2
TABLES
  0
TABLE
  2
VPORT
  5
8
100
AcDbSymbolTable
 70
2
  0
VPORT
  5
1F4
100
AcDbSymbolTableRecord
100
AcDbViewportTableRecord
  2
*ACTIVE
 70
0
 10
0.0
 20
0.0
 11
1.0
 21
1.0
 12
105.0
 22
148.5
 13
0.0
 23
0.0
 14
1.0
 24
1.0
 15
0.0
 25
0.0
 16
0.0
 26
0.0
 36
1.0
 17
0.0
 27
0.0
 37
0.0
 40
297.0
 41
0.7070707071
 42
50.0
 43
0.0
 44
0.0
 50
0.0
 51
0.0
 71
0
 72
100
 73
1
 74
1
 75
0
 76
0
 77
0
 78
0
  0
ENDTAB
  0
TABLE
  2
LTYPE
  5
5
100
AcDbSymbolTable
 70
6
  0
LTYPE
  5
14
100
AcDbSymbolTableRecord
100
AcDbLinetypeTableRecord
  2
BYBLOCK
 70
0
  3

 72
65
 73
0
 40
0.0
  0
LTYPE
  5
15
100
AcDbSymbolTableRecord
100
AcDbLinetypeTableRecord
  2
BYLAYER
 70
0
  3

 72
65
 73
0
 40
0.0
  0
LTYPE
  5
16
100
AcDbSymbolTableRecord
100
AcDbLinetypeTableRecord
  2
CONTINUOUS
 70
64
  3
Solid line
 72
65
 73
0
 40
0.0
  0
LTYPE
  5
1F5
100
AcDbSymbolTableRecord
100
AcDbLinetypeTableRecord
  2
CENTER
 70
64
  3
____ _ ____ _ ____ _ ____ _ ____ _ ____ _ ____
 72
65
 73
4
 40
0.6
 49
0.375
 74
0
 49
-0.075
 74
0
 49
0.075
 74
0
 49
-0.075
 74
0
  0
LTYPE
  5
1F6
100
AcDbSymbolTableRecord
100
AcDbLinetypeTableRecord
  2
HIDDEN
 70
64
  3
- - - - - - - - - - - - - - - - - - - -
 72
65
 73
2
 40
0.2
 49
0.1
 74
0
 49
-0.1
 74
0
  0
LTYPE
  5
1F7
100
AcDbSymbolTableRecord
100
AcDbLinetypeTableRecord
  2
PHANTOM
 70
64
  3
_____ _ _ _____ _ _ _____ _ _ _____
 72
65
 73
6
 40
0.8
 49
0.45
 74
0
 49
-0.05
 74
0
 49
0.1
 74
0
 49
-0.05
 74
0
 49
0.1
 74
0
 49
-0.05
 74
0
  0
LTYPE
  5
1F8
100
AcDbSymbolTableRecord
100
AcDbLinetypeTableRecord
  2
DOT
 70
64
  3
. . . . . . . . . . . . . . . . . . . .
 72
65
 73
2
 40
0.2
 49
0.1
 74
0
 49
-0.1
 74
0
  0
LTYPE
  5
1F9
100
AcDbSymbolTableRecord
100
AcDbLinetypeTableRecord
  2
DASHED
 70
64
  3
- - - - - - - - - - - - - - - - - - - -
 72
65
 73
2
 40
0.2
 49
0.1
 74
0
 49
-0.1
 74
0
  0
ENDTAB
  0
TABLE
  2
LAYER
  5
2
100
AcDbSymbolTable
 70
36
  0
LAYER
  5
10
100
AcDbSymbolTableRecord
100
AcDbLayerTableRecord
  2
0
 70
0
 62
7
  6
CONTINUOUS
370
-3
390
F
  0
LAYER
  5
1FA
100
AcDbSymbolTableRecord
100
AcDbLayerTableRecord
  2
DEFAULT_1
 70
0
 62
7
  6
CENTER
370
-3
390
F
  0
LAYER
  5
1FB
100
AcDbSymbolTableRecord
100
AcDbLayerTableRecord
  2
DEFAULT_2
 70
0
 62
7
  6
HIDDEN
370
-3
390
F
  0
LAYER
  5
1FC
100
AcDbSymbolTableRecord
100
AcDbLayerTableRecord
  2
DEFAULT_3
 70
0
 62
7
  6
PHANTOM
370
-3
390
F
  0
LAYER
  5
1FD
100
AcDbSymbolTableRecord
100
AcDbLayerTableRecord
  2
ASSI
 70
0
 62
7
  6
CONTINUOUS
370
-3
390
F
  0
LAYER
  5
1FE
100
AcDbSymbolTableRecord
100
AcDbLayerTableRecord
  2
COORDINATE
 70
0
 62
7
  6
CONTINUOUS
370
-3
390
F
  0
LAYER
  5
1FF
100
AcDbSymbolTableRecord
100
AcDbLayerTableRecord
  2
COPY_PUBLISH
 70
0
 62
7
  6
CONTINUOUS
370
-3
390
F
  0
LAYER
  5
200
100
AcDbSymbolTableRecord
100
AcDbLayerTableRecord
  2
COSMETICI
 70
0
 62
7
  6
CONTINUOUS
370
-3
390
F
  0
LAYER
  5
201
100
AcDbSymbolTableRecord
100
AcDbLayerTableRecord
  2
CURVE
 70
0
 62
7
  6
CONTINUOUS
370
-3
390
F
  0
LAYER
  5
202
100
AcDbSymbolTableRecord
100
AcDbLayerTableRecord
  2
DRAFT
 70
0
 62
7
  6
CONTINUOUS
370
-3
390
F
  0
LAYER
  5
203
100
AcDbSymbolTableRecord
100
AcDbLayerTableRecord
  2
IMPORT_IGES
 70
0
 62
7
  6
CONTINUOUS
370
-3
390
F
  0
LAYER
  5
204
100
AcDbSymbolTableRecord
100
AcDbLayerTableRecord
  2
INTFCLR_1
 70
0
 62
7
  6
CONTINUOUS
370
-3
390
F
  0
LAYER
  5
205
100
AcDbSymbolTableRecord
100
AcDbLayerTableRecord
  2
INTF_2
 70
0
 62
7
  6
CONTINUOUS
370
-3
390
F
  0
LAYER
  5
206
100
AcDbSymbolTableRecord
100
AcDbLayerTableRecord
  2
INTF_5
 70
0
 62
7
  6
CONTINUOUS
370
-3
390
F
  0
LAYER
  5
207
100
AcDbSymbolTableRecord
100
AcDbLayerTableRecord
  2
INTF_9
 70
0
 62
7
  6
CONTINUOUS
370
-3
390
F
  0
LAYER
  5
208
100
AcDbSymbolTableRecord
100
AcDbLayerTableRecord
  2
INTF_YELLOW
 70
0
 62
7
  6
CONTINUOUS
370
-3
390
F
  0
LAYER
  5
209
100
AcDbSymbolTableRecord
100
AcDbLayerTableRecord
  2
NOTE
 70
0
 62
7
  6
CONTINUOUS
370
-3
390
F
  0
LAYER
  5
20A
100
AcDbSymbolTableRecord
100
AcDbLayerTableRecord
  2
PIANI
 70
0
 62
7
  6
CONTINUOUS
370
-3
390
F
  0
LAYER
  5
20B
100
AcDbSymbolTableRecord
100
AcDbLayerTableRecord
  2
PUNTI
 70
0
 62
7
  6
CONTINUOUS
370
-3
390
F
  0
LAYER
  5
20C
100
AcDbSymbolTableRecord
100
AcDbLayerTableRecord
  2
RACCORDO
 70
0
 62
7
  6
CONTINUOUS
370
-3
390
F
  0
LAYER
  5
20D
100
AcDbSymbolTableRecord
100
AcDbLayerTableRecord
  2
SIMBOLI
 70
0
 62
7
  6
CONTINUOUS
370
-3
390
F
  0
LAYER
  5
20E
100
AcDbSymbolTableRecord
100
AcDbLayerTableRecord
  2
SMUSSO
 70
0
 62
7
  6
CONTINUOUS
370
-3
390
F
  0
LAYER
  5
20F
100
AcDbSymbolTableRecord
100
AcDbLayerTableRecord
  2
SNAPLINE
 70
0
 62
7
  6
CONTINUOUS
370
-3
390
F
  0
LAYER
  5
210
100
AcDbSymbolTableRecord
100
AcDbLayerTableRecord
  2
SUPERFICI
 70
0
 62
7
  6
CONTINUOUS
370
-3
390
F
  0
LAYER
  5
211
100
AcDbSymbolTableRecord
100
AcDbLayerTableRecord
  2
TRASH
 70
0
 62
7
  6
CONTINUOUS
370
-3
390
F
  0
ENDTAB
  0
TABLE
  2
STYLE
  5
3
100
AcDbSymbolTable
 70
1
  0
STYLE
  5
11
100
AcDbSymbolTableRecord
100
AcDbTextStyleTableRecord
  2
STANDARD
 70
0
 40
0.0
 41
0.8
 50
0.0
 71
0
 42
0.2
  3
txt
  4

  0
STYLE
  5
212
100
AcDbSymbolTableRecord
100
AcDbTextStyleTableRecord
  2
TEXTSTYLE_1
 70
0
 40
0.0
 41
0.8
 50
0.0
 71
0
 42
0.2
  3
gdt
  4

  0
ENDTAB
  0
TABLE
  2
VIEW
  5
6
100
AcDbSymbolTable
 70
0
  0
ENDTAB
  0
TABLE
  2
UCS
  5
7
100
AcDbSymbolTable
 70
0
  0
ENDTAB
  0
TABLE
  2
APPID
  5
9
100
AcDbSymbolTable
 70
1
  0
APPID
  5
213
100
AcDbSymbolTableRecord
100
AcDbRegAppTableRecord
  2
ACAD
 70
0
  0
ENDTAB
  0
TABLE
  2
BLOCK_RECORD
  5
1
100
AcDbSymbolTable
 70
0
  0
BLOCK_RECORD
  5
214
100
AcDbSymbolTableRecord
100
AcDbBlockTableRecord
  2
*Model_Space
  0
BLOCK_RECORD
  5
215
100
AcDbSymbolTableRecord
100
AcDbBlockTableRecord
  2
*Paper_Space
  0
BLOCK_RECORD
  5
216
100
AcDbSymbolTableRecord
100
AcDbBlockTableRecord
  2
_FILLED
  0
ENDTAB
  0
TABLE
  2
DIMSTYLE
  5
A
100
AcDbSymbolTable
 70
1
100
AcDbDimStyleTable
 71
0
  0
DIMSTYLE
105
217
100
AcDbSymbolTableRecord
100
AcDbDimStyleTableRecord
  2
STANDARD
 70
0
  3

  4

 40
1.0
 41
3.0
 42
0.5
 43
0.38
 44
1.5
 45
0.0
 46
0.0
 47
0.01
 48
0.01
140
3.0
141
0.09
142
0.0
143
25.4
144
1.0
145
0.0
146
1.0
147
0.625
 71
1
 72
0
 73
0
 74
0
 75
0
 76
0
 77
1
 78
8
 79
2
170
0
171
1
172
0
173
0
174
0
175
0
176
0
177
0
178
0
270
2
179
2
271
2
272
2
273
2
274
2
275
0
280
0
281
0
282
0
283
1
284
8
285
0
286
0
287
3
288
0
340
11
278
44
341
216
342
216
343
216
344
216
  0
ENDTAB
  0
ENDSEC
  0
SECTION
  2
BLOCKS
  0
BLOCK
  5
20
100
AcDbEntity
  8
0
100
AcDbBlockBegin
  2
*Model_Space
 70
0
 10
0.0
 20
0.0
 30
0.0
  3
*Model_Space
  1

  0
ENDBLK
  5
21
100
AcDbEntity
  8
0
100
AcDbBlockEnd
  0
BLOCK
  5
1C
100
AcDbEntity
  8
0
100
AcDbBlockBegin
  2
*Paper_Space
 70
0
 10
0.0
 20
0.0
 30
0.0
  3
*Paper_Space
  1

  0
ENDBLK
  5
1D
100
AcDbEntity
  8
0
100
AcDbBlockEnd
  0
BLOCK
  5
218
100
AcDbEntity
  8
0
100
AcDbBlockBegin
  2
_FILLED
 70
64
 10
0.0
 20
0.0
  3
_FILLED
  1

  0
SOLID
  5
219
100
AcDbEntity
  8
0
  6
BYBLOCK
 62
0
100
AcDbTrace
 10
0.0
 20
0.0
 11
-1.0
 21
0.3166666667
 12
-1.0
 22
-0.3166666667
 13
-1.0
 23
-0.3166666667
  0
ENDBLK
  5
21A
100
AcDbEntity
  8
0
  6
BYBLOCK
 62
0
100
AcDbBlockEnd
  0
ENDSEC
  0
SECTION
  2
ENTITIES
  0
LWPOLYLINE
  5
21B
100
AcDbEntity
  8
ASSI
100
AcDbPolyline
 62
7
  6
CONTINUOUS
 90
19
 70
0
 10
-10.233702745
 20
21.0903203546
 10
-10.2724634305
 20
21.0632301106
 10
-10.3397844519
 20
21.0107951243
 10
-10.4039710368
 20
20.9539563222
 10
-10.4650170764
 20
20.8930267081
 10
-10.5229005525
 20
20.8283248292
 10
-10.5774454935
 20
20.7602688306
 10
-10.6285719995
 20
20.6891251672
 10
-10.6761855505
 20
20.6151676637
 10
-10.7199995846
 20
20.5389045443
 10
-10.7598751408
 20
20.4605951908
 10
-10.7956803957
 20
20.3805078145
 10
-10.8271418111
 20
20.299154048
 10
-10.854094735
 20
20.2167573314
 10
-10.8763766619
 20
20.1335188864
 10
-10.8937348749
 20
20.0497869322
 10
-10.9059282802
 20
19.965749436
 10
-10.912712746
 20
19.8815989379
 10
-10.9133131361
 20
19.8670853819
  0
LINE
  5
21C
100
AcDbEntity
  8
ASSI
100
AcDbLine
 62
7
  6
CONTINUOUS
 10
-8.4552942348
 20
22.2828979524
 11
-10.2338208398
 21
21.090253606
  0
LWPOLYLINE
  5
21D
100
AcDbEntity
  8
ASSI
100
AcDbPolyline
 62
250
  6
CONTINUOUS
 90
19
 70
0
 10
-8.2057547359
 20
22.2576214319
 10
-10.0441676544
 20
21.0248756893
 10
-10.1137459587
 20
20.9717233704
 10
-10.1820937278
 20
20.9128610726
 10
-10.248704566
 20
20.8486614774
 10
-10.3131335643
 20
20.779556953
 10
-10.3749995725
 20
20.7060348352
 10
-10.4338725424
 20
20.6285738395
 10
-10.4893314008
 20
20.5476847975
 10
-10.5410402248
 20
20.4639422597
 10
-10.5886396297
 20
20.3779022138
 10
-10.6317920328
 20
20.2901289206
 10
-10.6702388414
 20
20.2012338176
 10
-10.7037132389
 20
20.1118169228
 10
-10.7319807906
 20
20.0224590841
 10
-10.7548799698
 20
19.9337494666
 10
-10.7722585539
 20
19.8462768743
 10
-10.7839796048
 20
19.7606256125
 10
-10.7899581293
 20
19.6773680333
  0
LWPOLYLINE
  5
21E
100
AcDbEntity
  8
ASSI
100
AcDbPolyline
 62
7
  6
CONTINUOUS
 90
12
 70
0
 10
4.3620361384
 20
-23.5266900183
 10
4.4187088384
 20
-23.5525665249
 10
4.4819804586
 20
-23.5751212557
 10
4.5476538507
 20
-23.5921702075
 10
4.6153431874
 20
-23.6035173055
 10
4.6845783989
 20
-23.6090002254
 10
4.7553926264
 20
-23.6085234227
 10
4.827455728
 20
-23.6019463917
 10
4.9003874695
 20
-23.589154828
 10
4.9743132914
 20
-23.5699142049
 10
5.0491074546
 20
-23.543992341
 10
5.1310573493
 20
-23.508012673
  0
LWPOLYLINE
  5
21F
100
AcDbEntity
  8
ASSI
100
AcDbPolyline
 62
250
  6
CONTINUOUS
 90
13
 70
0
 10
4.1001588799
 20
-23.0115594526
 10
4.1488808038
 20
-23.0328951697
 10
4.2018359317
 20
-23.0503568076
 10
4.2582230632
 20
-23.0636801753
 10
4.3171890725
 20
-23.072663693
 10
4.3778418158
 20
-23.0771714418
 10
4.4392636294
 20
-23.0771352203
 10
4.5005252138
 20
-23.0725555766
 10
4.5606996935
 20
-23.0635017997
 10
4.6188766409
 20
-23.0501108714
 10
4.6741758506
 20
-23.0325853936
 10
4.7257606567
 20
-23.0111905234
 10
4.7728505917
 20
-22.9862499608
  0
LINE
  5
220
100
AcDbEntity
  8
ASSI
100
AcDbLine
 62
7
  6
CONTINUOUS
 10
4.3622837866
 20
-23.5268204258
 11
4.3621256853
 21
-23.5267401306
  0
LWPOLYLINE
  5
221
100
AcDbEntity
  8
ASSI
100
AcDbPolyline
 62
250
  6
CONTINUOUS
 90
11
 70
0
 10
4.3621256853
 20
-23.5267401306
 10
4.3411583586
 20
-23.5152615128
 10
4.2949300112
 20
-23.4833964351
 10
4.2530084353
 20
-23.4447437911
 10
4.2157078312
 20
-23.3995842949
 10
4.1832695049
 20
-23.3482245807
 10
4.1558861998
 20
-23.2909988492
 10
4.1337568051
 20
-23.228288166
 10
4.1170319656
 20
-23.1605064631
 10
4.1058088007
 20
-23.0881029039
 10
4.1001588609
 20
-23.0115594542
  0
LWPOLYLINE
  5
222
100
AcDbEntity
  8
ASSI
100
AcDbPolyline
 62
7
  6
CONTINUOUS
 90
10
 70
0
 10
-10.5585889392
 20
-14.9115502954
 10
-9.0684660162
 20
-15.8775934281
 10
-7.4682038853
 20
-16.8858972452
 10
-5.841578197
 20
-17.8813438133
 10
-4.1889592462
 20
-18.8637013912
 10
-2.5107217001
 20
-19.8327443374
 10
-0.807254202
 20
-20.7882559483
 10
0.9210378143
 20
-21.7300267454
 10
2.6737392515
 20
-22.6578501814
 10
4.3622867578
 20
-23.526821934
  0
LINE
  5
223
100
AcDbEntity
  8
ASSI
100
AcDbLine
 62
7
  6
CONTINUOUS
 10
-10.5585922749
 20
-14.9115481026
 11
-10.558381328
 21
-14.9116866806
  0
LWPOLYLINE
  5
224
100
AcDbEntity
  8
ASSI
100
AcDbPolyline
 62
250
  6
CONTINUOUS
 90
31
 70
0
 10
-10.7899581074
 20
-14.4141925123
 10
-10.3392979685
 20
-14.7102440887
 10
-9.8865834185
 20
-15.0050696011
 10
-9.4318249608
 20
-15.2986650704
 10
-8.9751184621
 20
-15.5909721728
 10
-8.5163898927
 20
-15.8820417902
 10
-8.0553913524
 20
-16.1720319031
 10
-7.5920142584
 20
-16.4610086482
 10
-7.1263804585
 20
-16.7488939569
 10
-6.6585854454
 20
-17.0356283141
 10
-6.1886823568
 20
-17.3211797335
 10
-5.7166354522
 20
-17.6055704967
 10
-5.2424075474
 20
-17.888822836
 10
-4.7658902399
 20
-18.1710001006
 10
-4.2872067591
 20
-18.4520278045
 10
-3.8066708468
 20
-18.7317234152
 10
-3.3245712846
 20
-19.009925006
 10
-2.8406459933
 20
-19.286790256
 10
-2.3543797307
 20
-19.5626144652
 10
-1.8668471257
 20
-19.8367916671
 10
-1.3769939164
 20
-20.1099200604
 10
-0.8810571971
 20
-20.3840687513
 10
-0.3798704602
 20
-20.6587226415
 10
0.1274759451
 20
-20.9343299953
 10
0.6474885386
 20
-21.2143259086
 10
1.1807805006
 20
-21.498878901
 10
1.7269931649
 20
-21.7876386392
 10
2.2913247835
 20
-22.0831670916
 10
2.8756700392
 20
-22.3862052511
 10
3.4785467182
 20
-22.6957190688
 10
4.1001588771
 20
-23.0115594386
  0
LWPOLYLINE
  5
225
100
AcDbEntity
  8
ASSI
100
AcDbPolyline
 62
250
  6
CONTINUOUS
 90
7
 70
0
 10
-10.7899430734
 20
-14.4141842454
 10
-10.8274722092
 20
-14.385720135
 10
-10.8587400631
 20
-14.3545532078
 10
-10.8832735735
 20
-14.3211549982
 10
-10.9007015653
 20
-14.2860307985
 10
-10.9107603647
 20
-14.2497120138
 10
-10.9132798889
 20
-14.2258021909
  0
LINE
  5
226
100
AcDbEntity
  8
ASSI
100
AcDbLine
 62
7
  6
CONTINUOUS
 10
-6.4575418506
 20
20.6403180773
 11
-6.2461255173
 21
21.126156081
  0
LWPOLYLINE
  5
227
100
AcDbEntity
  8
CURVE
100
AcDbPolyline
 62
250
  6
CONTINUOUS
 90
87
 70
0
 10
-2.0749956192
 20
-14.753651012
 10
-2.0690760476
 20
-14.7568308368
 10
-2.0632361523
 20
-14.7597322052
 10
-2.0574577946
 20
-14.7623711658
 10
-2.0517228356
 20
-14.7647637671
 10
-2.0460131364
 20
-14.7669260576
 10
-2.0388913639
 20
-14.7693231064
 10
-2.0317900708
 20
-14.7713783814
 10
-2.0247186098
 20
-14.7730848931
 10
-2.0176863339
 20
-14.7744356522
 10
-2.0107048936
 20
-14.7754239442
 10
-2.0037951309
 20
-14.7760441544
 10
-1.9969801852
 20
-14.7762909428
 10
-1.9902831963
 20
-14.7761589694
 10
-1.9850251424
 20
-14.7757766841
 10
-1.9798635893
 20
-14.7751433816
 10
-1.9748047358
 20
-14.7742538699
 10
-1.969854781
 20
-14.7731029569
 10
-1.9650199239
 20
-14.7716854506
 10
-1.9603073586
 20
-14.7699968733
 10
-1.9557282594
 20
-14.7680356053
 10
-1.9512947953
 20
-14.7658007412
 10
-1.9470191359
 20
-14.7632913757
 10
-1.9429134502
 20
-14.7605066035
 10
-1.9389883072
 20
-14.7574466374
 10
-1.9352478739
 20
-14.7541161636
 10
-1.9316947165
 20
-14.7505209862
 10
-1.9283314018
 20
-14.7466669096
 10
-1.9251604961
 20
-14.7425597379
 10
-1.9221846894
 20
-14.7382053713
 10
-1.919407165
 20
-14.7336100924
 10
-1.9168312299
 20
-14.72878028
 10
-1.9144601908
 20
-14.7237223126
 10
-1.9122973547
 20
-14.7184425688
 10
-1.9103459779
 20
-14.7129482019
 10
-1.908609116
 20
-14.7072494645
 10
-1.9070897741
 20
-14.7013573842
 10
-1.9057909571
 20
-14.6952829882
 10
-1.9047156704
 20
-14.689037304
 10
-1.9037861725
 20
-14.6819088964
 10
-1.9031371406
 20
-14.6745900989
 10
-1.9027693679
 20
-14.6670883743
 10
-1.9026836472
 20
-14.6594111856
 10
-1.9028807714
 20
-14.6515659955
 10
-1.9033615336
 20
-14.6435602671
 10
-1.9041267267
 20
-14.6354014631
 10
-1.9051771436
 20
-14.6270970466
 10
-1.9065135774
 20
-14.6186544802
 10
-1.9081357366
 20
-14.6100833926
 10
-1.9100389933
 20
-14.6014020742
 10
-1.912217635
 20
-14.5926309811
 10
-1.9146659495
 20
-14.5837905693
 10
-1.9173782243
 20
-14.5749012951
 10
-1.920348747
 20
-14.5659836144
 10
-1.9235718054
 20
-14.5570579834
 10
-1.9270416871
 20
-14.548144858
 10
-1.9307526797
 20
-14.5392646945
 10
-1.9342943353
 20
-14.531316107
 10
-1.9380245014
 20
-14.523416523
 10
-1.9419410156
 20
-14.5155716776
 10
-1.9460417155
 20
-14.5077873057
 10
-1.9503244388
 20
-14.5000691424
 10
-1.9547849284
 20
-14.4924248313
 10
-1.959410549
 20
-14.4848696508
 10
-1.9641865704
 20
-14.4774207878
 10
-1.9690982624
 20
-14.4700954293
 10
-1.974130895
 20
-14.4629107622
 10
-1.978409156
 20
-14.4570393958
 10
-1.9827685046
 20
-14.4512635177
 10
-1.9872162711
 20
-14.4455689782
 10
-1.9917555533
 20
-14.4399474984
 10
-1.9963725196
 20
-14.4344142814
 10
-2.0010491061
 20
-14.4289904009
 10
-2.0067174428
 20
-14.4226508578
 10
-2.0124334162
 20
-14.4165062251
 10
-2.0181848221
 20
-14.4105636228
 10
-2.0239594565
 20
-14.4048301707
 10
-2.029745115
 20
-14.3993129886
 10
-2.036976808
 20
-14.3927290216
 10
-2.0441990762
 20
-14.3864932126
 10
-2.0514043385
 20
-14.3806046729
 10
-2.058585014
 20
-14.375062514
 10
-2.0643105304
 20
-14.3708766298
 10
-2.070034217
 20
-14.3669056811
 10
-2.0757748311
 20
-14.3631434888
 10
-2.0815511304
 20
-14.3595838734
 10
-2.0873818725
 20
-14.3562206556
  0
LWPOLYLINE
  5
228
100
AcDbEntity
  8
CURVE
100
AcDbPolyline
 62
250
  6
CONTINUOUS
 90
36
 70
0
 10
-2.3863435643
 20
-13.6421810492
 10
-2.3823579559
 20
-13.6443578953
 10
-2.3783901378
 20
-13.6464144202
 10
-2.3744391522
 20
-13.6483532751
 10
-2.370504041
 20
-13.6501771112
 10
-2.3665838463
 20
-13.6518885799
 10
-2.3626776101
 20
-13.6534903323
 10
-2.3587843743
 20
-13.6549850196
 10
-2.3549037774
 20
-13.6563748646
 10
-2.3510378439
 20
-13.6576603752
 10
-2.3471891946
 20
-13.6588416309
 10
-2.3433604502
 20
-13.6599187109
 10
-2.3395542317
 20
-13.6608916948
 10
-2.3357731599
 20
-13.6617606619
 10
-2.3320198557
 20
-13.6625256916
 10
-2.3282966828
 20
-13.6631868479
 10
-2.3246049764
 20
-13.6637441331
 10
-2.3209458147
 20
-13.6641975339
 10
-2.3173202758
 20
-13.6645470372
 10
-2.3137294381
 20
-13.6647926297
 10
-2.3101743795
 20
-13.6649342984
 10
-2.3066561783
 20
-13.66497203
 10
-2.3031760793
 20
-13.6649056544
 10
-2.2997359946
 20
-13.6647343742
 10
-2.2963380029
 20
-13.6644572348
 10
-2.2929841829
 20
-13.6640732818
 10
-2.2896766134
 20
-13.6635815609
 10
-2.286417373
 20
-13.6629811175
 10
-2.2832085405
 20
-13.6622709972
 10
-2.2800520885
 20
-13.6614498798
 10
-2.276949565
 20
-13.6605149819
 10
-2.2739024117
 20
-13.6594631541
 10
-2.2709120707
 20
-13.6582912472
 10
-2.2679799837
 20
-13.6569961119
 10
-2.2651075925
 20
-13.6555745991
 10
-2.262296339
 20
-13.6540235593
  0
LWPOLYLINE
  5
229
100
AcDbEntity
  8
CURVE
100
AcDbPolyline
 62
250
  6
CONTINUOUS
 90
10
 70
0
 10
-2.0873834164
 20
-14.3561702255
 10
-2.520610538
 20
-14.1137557697
 10
-2.9519507916
 20
-13.8702236992
 10
-3.3813981421
 20
-13.6255773339
 10
-3.8089465537
 20
-13.3798199936
 10
-4.2545584559
 20
-13.1213192671
 10
-4.6980754134
 20
-12.8616082634
 10
-5.1394908266
 20
-12.6006909826
 10
-5.5787980958
 20
-12.3385714245
 10
-6.0159906216
 20
-12.0752535889
  0
LWPOLYLINE
  5
22A
100
AcDbEntity
  8
CURVE
100
AcDbPolyline
 62
250
  6
CONTINUOUS
 90
10
 70
0
 10
-6.1746600998
 20
-12.3691248789
 10
-5.7038863386
 20
-12.6535091973
 10
-5.2306693803
 20
-12.9365122786
 10
-4.7550175032
 20
-13.2181291054
 10
-4.2769389854
 20
-13.4983546606
 10
-3.796442105
 20
-13.777183927
 10
-3.3689010789
 20
-14.0229455803
 10
-2.9394758852
 20
-14.2676048847
 10
-2.5081725593
 20
-14.5111585202
 10
-2.0749971367
 20
-14.7536031672
  0
LWPOLYLINE
  5
22B
100
AcDbEntity
  8
ASSI
100
AcDbPolyline
 62
250
  6
CONTINUOUS
 90
9
 70
0
 10
-10.7899581092
 20
-14.4141925057
 10
-10.7839795855
 20
-14.4909256819
 10
-10.7722585342
 20
-14.5636167173
 10
-10.7548799493
 20
-14.6317758848
 10
-10.7319807694
 20
-14.6949310297
 10
-10.7037132179
 20
-14.7526673105
 10
-10.6702388209
 20
-14.8046252366
 10
-10.6317920124
 20
-14.8504465356
 10
-10.5893656034
 20
-14.8891475966
  0
LWPOLYLINE
  5
22C
100
AcDbEntity
  8
ASSI
100
AcDbPolyline
 62
7
  6
CONTINUOUS
 90
13
 70
0
 10
-10.9132671025
 20
-14.2258017104
 10
-10.9128613086
 20
-14.2355176098
 10
-10.9059566359
 20
-14.3178141329
 10
-10.8932166642
 20
-14.3961760815
 10
-10.8749910418
 20
-14.4702464023
 10
-10.8515716566
 20
-14.5401167582
 10
-10.8230997279
 20
-14.6061040937
 10
-10.789871541
 20
-14.6679339184
 10
-10.7521735064
 20
-14.7254081528
 10
-10.7100385983
 20
-14.7786730365
 10
-10.6638420708
 20
-14.8273793019
 10
-10.6139383476
 20
-14.8712795657
 10
-10.5582944465
 20
-14.9117409376
  0
LWPOLYLINE
  5
22D
100
AcDbEntity
  8
ASSI
100
AcDbPolyline
 62
7
  6
CONTINUOUS
 90
13
 70
0
 10
-11.2215339501
 20
3.1020502822
 10
-11.2209640881
 20
3.0791273058
 10
-11.2173621377
 20
3.0413684771
 10
-11.210396074
 20
3.003710717
 10
-11.2000639016
 20
2.9665548558
 10
-11.186389485
 20
2.9302132158
 10
-11.1693759463
 20
2.8948980335
 10
-11.1490939348
 20
2.860918176
 10
-11.1257184777
 20
2.8286551076
 10
-11.0993986159
 20
2.7983656258
 10
-11.0702879619
 20
2.7702800999
 10
-11.0386187779
 20
2.7446473911
 10
-11.0246058771
 20
2.7346499578
  0
LWPOLYLINE
  5
22E
100
AcDbEntity
  8
ASSI
100
AcDbPolyline
 62
250
  6
CONTINUOUS
 90
9
 70
0
 10
-11.2215379842
 20
2.1658086822
 10
-11.2214527645
 20
2.1609549645
 10
-11.2181923738
 20
2.1328939854
 10
-11.2102443374
 20
2.1051616457
 10
-11.1976844834
 20
2.0780152672
 10
-11.1806265265
 20
2.0517038084
 10
-11.1592261422
 20
2.0264739815
 10
-11.1336840694
 20
2.0025671836
 10
-11.1042389701
 20
1.9802102596
  0
LINE
  5
22F
100
AcDbEntity
  8
ASSI
100
AcDbLine
 62
250
  6
CONTINUOUS
 10
-11.2214528091
 20
3.0961853941
 11
-11.2215387394
 21
3.1016900894
  0
LWPOLYLINE
  5
230
100
AcDbEntity
  8
ASSI
100
AcDbPolyline
 62
7
  6
CONTINUOUS
 90
10
 70
0
 10
-11.2215386943
 20
2.166158063
 10
-11.2163617526
 20
0.3795426891
 10
-11.2038100307
 20
-1.4689723425
 10
-11.1839428098
 20
-3.3131379449
 10
-11.1567589826
 20
-5.1529132629
 10
-11.1222585428
 20
-6.9882604247
 10
-11.0804415591
 20
-8.819142534
 10
-11.0313086452
 20
-10.6455188756
 10
-10.9748612773
 20
-12.4673433166
 10
-10.9132885626
 20
-14.2255718043
  0
LWPOLYLINE
  5
231
100
AcDbEntity
  8
ASSI
100
AcDbPolyline
 62
250
  6
CONTINUOUS
 90
10
 70
0
 10
-11.1042389718
 20
1.9802102599
 10
-11.0994013311
 20
0.2858029686
 10
-11.0881095086
 20
-1.4314266412
 10
-11.070064074
 20
-3.171270526
 10
-11.0451658355
 20
-4.920710446
 10
-11.0130034098
 20
-6.6923925653
 10
-10.9723477689
 20
-8.524323239
 10
-10.9220475877
 20
-10.4286917953
 10
-10.8615345029
 20
-12.3921737267
 10
-10.7899581074
 20
-14.4141925123
  0
LWPOLYLINE
  5
232
100
AcDbEntity
  8
ASSI
100
AcDbPolyline
 62
7
  6
CONTINUOUS
 90
10
 70
0
 10
-10.9133173884
 20
19.8673115871
 10
-10.9747071783
 20
18.0399019405
 10
-11.0311700714
 20
16.1495656682
 10
-11.080319558
 20
14.2635608883
 10
-11.1221541124
 20
12.3819344423
 10
-11.1566730997
 20
10.5047271205
 10
-11.1838762798
 20
8.6319767891
 10
-11.2037635407
 20
6.7637217671
 10
-11.2163359516
 20
4.900001558
 10
-11.2215387399
 20
3.1016896035
  0
LWPOLYLINE
  5
233
100
AcDbEntity
  8
ASSI
100
AcDbPolyline
 62
250
  6
CONTINUOUS
 90
10
 70
0
 10
-10.7899581035
 20
19.6773680419
 10
-10.8563212662
 20
17.7345800427
 10
-10.9139360525
 20
15.8277438791
 10
-10.9631817644
 20
13.9566980455
 10
-11.0040020637
 20
12.1421273658
 10
-11.0373522628
 20
10.3629341828
 10
-11.06440625
 20
8.5566762183
 10
-11.0849942383
 20
6.7028766383
 10
-11.0983964596
 20
4.8225862529
 10
-11.1042389559
 20
2.9160590429
  0
LWPOLYLINE
  5
234
100
AcDbEntity
  8
CURVE
100
AcDbPolyline
 62
250
  6
CONTINUOUS
 90
40
 70
0
 10
-6.3196579796
 20
10.1806640422
 10
-6.3224605498
 20
10.1794900486
 10
-6.325197074
 20
10.1782055593
 10
-6.3278721319
 20
10.1768112771
 10
-6.3304903031
 20
10.1753079048
 10
-6.3330561673
 20
10.1736961453
 10
-6.3355734705
 20
10.1719766792
 10
-6.3380426244
 20
10.1701500981
 10
-6.3404632067
 20
10.1682169714
 10
-6.3428347955
 20
10.1661778684
 10
-6.3451569686
 20
10.1640333586
 10
-6.3474289938
 20
10.1617843683
 10
-6.3496488982
 20
10.1594332519
 10
-6.3518143988
 20
10.1569827208
 10
-6.3539232124
 20
10.1544354863
 10
-6.355973056
 20
10.1517942599
 10
-6.3579618049
 20
10.1490618048
 10
-6.3598879677
 20
10.1462410915
 10
-6.3617502115
 20
10.1433351426
 10
-6.3635472032
 20
10.1403469804
 10
-6.3652776099
 20
10.1372796274
 10
-6.3671207243
 20
10.1337817344
 10
-6.368879091
 20
10.1301908272
 10
-6.3705518118
 20
10.1265079266
 10
-6.3721379884
 20
10.1227340533
 10
-6.3736367226
 20
10.1188702282
 10
-6.3750471161
 20
10.1149174721
 10
-6.3763682706
 20
10.1108768057
 10
-6.377599288
 20
10.1067492499
 10
-6.3787392699
 20
10.1025358255
 10
-6.379686397
 20
10.0986707411
 10
-6.3805567296
 20
10.0947351028
 10
-6.3813479392
 20
10.0907270838
 10
-6.3820576977
 20
10.0866448568
 10
-6.3826836769
 20
10.082486595
 10
-6.3832235483
 20
10.0782504711
 10
-6.3836749838
 20
10.0739346582
 10
-6.3840356551
 20
10.0695373291
 10
-6.3843032338
 20
10.065056657
 10
-6.3844753918
 20
10.0604908146
  0
LINE
  5
235
100
AcDbEntity
  8
CURVE
100
AcDbLine
 62
250
  6
CONTINUOUS
 10
-3.8723712921
 20
11.1520658188
 11
-5.2560985576
 21
10.6010944215
  0
LINE
  5
236
100
AcDbEntity
  8
CURVE
100
AcDbLine
 62
250
  6
CONTINUOUS
 10
-6.045645032
 20
9.7571872112
 11
-3.7737136915
 21
10.659682539
  0
LINE
  5
237
100
AcDbEntity
  8
CURVE
100
AcDbLine
 62
250
  6
CONTINUOUS
 10
-5.2560985576
 20
10.6010944215
 11
-6.3196579796
 21
10.1806640422
  0
LWPOLYLINE
  5
238
100
AcDbEntity
  8
CURVE
100
AcDbPolyline
 62
250
  6
CONTINUOUS
 90
87
 70
0
 10
-3.6229019025
 20
-11.4509448521
 10
-3.628681977
 20
-11.4477424158
 10
-3.6343865762
 20
-11.4448141843
 10
-3.6400333329
 20
-11.4421443821
 10
-3.6456398798
 20
-11.4397172334
 10
-3.6512238497
 20
-11.4375169625
 10
-3.6581914865
 20
-11.4350679382
 10
-3.6651412031
 20
-11.432955753
 10
-3.6720628047
 20
-11.4311873993
 10
-3.6789460966
 20
-11.4297698691
 10
-3.6857792095
 20
-11.4287098634
 10
-3.6925435764
 20
-11.4280129187
 10
-3.6992189556
 20
-11.4276842802
 10
-3.7057851057
 20
-11.4277291929
 10
-3.7109465298
 20
-11.4280381241
 10
-3.7160192374
 20
-11.4285952868
 10
-3.7209973734
 20
-11.4294064823
 10
-3.7258750824
 20
-11.4304775125
 10
-3.7306465094
 20
-11.4318141788
 10
-3.7353047371
 20
-11.4334215987
 10
-3.7398386003
 20
-11.4353021527
 10
-3.7442358718
 20
-11.437457537
 10
-3.7484843244
 20
-11.4398894479
 10
-3.7525717309
 20
-11.4425995818
 10
-3.75648759
 20
-11.4455891532
 10
-3.7602283039
 20
-11.4488574503
 10
-3.7637920008
 20
-11.4524032798
 10
-3.7671768087
 20
-11.456225448
 10
-3.7703808557
 20
-11.4603227616
 10
-3.7734014258
 20
-11.4646927741
 10
-3.7762324255
 20
-11.4693280272
 10
-3.7788669172
 20
-11.4742198095
 10
-3.7812979632
 20
-11.4793594097
 10
-3.7835186259
 20
-11.4847381165
 10
-3.7855226609
 20
-11.4903471294
 10
-3.7873065974
 20
-11.4961772919
 10
-3.7888676577
 20
-11.5022193585
 10
-3.7902030641
 20
-11.5084640837
 10
-3.7913100392
 20
-11.5149022218
 10
-3.7921857639
 20
-11.5215245725
 10
-3.7928272538
 20
-11.5283221158
 10
-3.7932314832
 20
-11.5352858771
 10
-3.7933954262
 20
-11.5424068815
 10
-3.7933160572
 20
-11.5496761542
 10
-3.7929919314
 20
-11.5570826333
 10
-3.7924279285
 20
-11.5646069074
 10
-3.7916305095
 20
-11.572227478
 10
-3.7906061351
 20
-11.5799228463
 10
-3.7893612662
 20
-11.5876715138
 10
-3.7879019043
 20
-11.5954550126
 10
-3.7862322138
 20
-11.6032669978
 10
-3.7843558997
 20
-11.6111041553
 10
-3.7822766671
 20
-11.6189631709
 10
-3.7799982211
 20
-11.6268407305
 10
-3.7775235433
 20
-11.6347335273
 10
-3.7748527213
 20
-11.6426382846
 10
-3.7719851195
 20
-11.6505517328
 10
-3.7689201019
 20
-11.6584706026
 10
-3.7656570328
 20
-11.6663916246
 10
-3.7621962525
 20
-11.6743093569
 10
-3.7585420057
 20
-11.6822096675
 10
-3.7546995133
 20
-11.6900762522
 10
-3.750673996
 20
-11.6978928067
 10
-3.7464706748
 20
-11.7056430265
 10
-3.7420959212
 20
-11.7133112995
 10
-3.7375607099
 20
-11.7208847823
 10
-3.7328771662
 20
-11.7283513235
 10
-3.7280574155
 20
-11.7356987719
 10
-3.7231135834
 20
-11.7429149761
 10
-3.7180570199
 20
-11.7499891952
 10
-3.7128959747
 20
-11.7569163294
 10
-3.7076379222
 20
-11.7636926895
 10
-3.7022903368
 20
-11.7703145862
 10
-3.696860693
 20
-11.77677833
 10
-3.689972261
 20
-11.7846270125
 10
-3.6829976738
 20
-11.7921977643
 10
-3.6759673138
 20
-11.7994655331
 10
-3.6689115634
 20
-11.8064052665
 10
-3.661856687
 20
-11.812996641
 10
-3.6548124783
 20
-11.8192382475
 10
-3.6477846129
 20
-11.8251334059
 10
-3.6407787666
 20
-11.8306854358
 10
-3.6351903175
 20
-11.8348829113
 10
-3.6296018594
 20
-11.8388686478
 10
-3.623995659
 20
-11.8426483838
 10
-3.6183539827
 20
-11.8462278578
 10
-3.6126590968
 20
-11.8496128083
  0
LINE
  5
239
100
AcDbEntity
  8
CURVE
100
AcDbLine
 62
250
  6
CONTINUOUS
 10
-2.5586136854
 20
-12.4482259416
 11
-1.8494284971
 21
-12.8434487733
  0
LINE
  5
23A
100
AcDbEntity
  8
CURVE
100
AcDbLine
 62
250
  6
CONTINUOUS
 10
-1.8595421394
 20
-12.4447068328
 11
-2.5688032373
 21
-12.0495273131
  0
LWPOLYLINE
  5
23B
100
AcDbEntity
  8
CURVE
100
AcDbPolyline
 62
250
  6
CONTINUOUS
 90
3
 70
0
 10
-2.5688032373
 20
-12.0495273131
 10
-3.2728454446
 20
-11.6512590832
 10
-3.6229012395
 20
-11.450971226
  0
LWPOLYLINE
  5
23C
100
AcDbEntity
  8
CURVE
100
AcDbPolyline
 62
250
  6
CONTINUOUS
 90
3
 70
0
 10
-3.6126583976
 20
-11.8496394485
 10
-3.2626122895
 20
-12.0499328327
 10
-2.5586136854
 20
-12.4482259416
  0
LWPOLYLINE
  5
23D
100
AcDbEntity
  8
ASSI
100
AcDbPolyline
 62
250
  6
CONTINUOUS
 90
16
 70
0
 10
-10.7965450307
 20
2.5319685471
 10
-10.8029502631
 20
2.5275800476
 10
-10.8085213701
 20
2.5229443044
 10
-10.8132583515
 20
2.5180613176
 10
-10.8171921844
 20
2.5128790259
 10
-10.8202918918
 20
2.5074494906
 10
-10.822464543
 20
2.5019288958
 10
-10.823681798
 20
2.4963161467
 10
-10.8239719968
 20
2.490612338
 10
-10.8233272289
 20
2.4849769381
 10
-10.8217175031
 20
2.4794092156
 10
-10.8191728106
 20
2.4739099018
 10
-10.8157752142
 20
2.4686406587
 10
-10.8115520684
 20
2.4636553735
 10
-10.8064760189
 20
2.458900159
 10
-10.8005470655
 20
2.4543750151
  0
LWPOLYLINE
  5
23E
100
AcDbEntity
  8
ASSI
100
AcDbPolyline
 62
7
  6
CONTINUOUS
 90
11
 70
0
 10
-11.0047598527
 20
2.546824822
 10
-11.0366748119
 20
2.5252725593
 10
-11.0750556353
 20
2.4938368955
 10
-11.1094656455
 20
2.4589853379
 10
-11.1394615828
 20
2.4213532953
 10
-11.1649344654
 20
2.3813133148
 10
-11.1859122418
 20
2.3389631073
 10
-11.2021556746
 20
2.2948741203
 10
-11.2135107303
 20
2.2496675299
 10
-11.2199637954
 20
2.203529457
 10
-11.2215334341
 20
2.1658885788
  0
LINE
  5
23F
100
AcDbEntity
  8
ASSI
100
AcDbLine
 62
7
  6
CONTINUOUS
 10
-10.8708690464
 20
2.6296865764
 11
-11.0045544655
 21
2.5469637781
  0
LINE
  5
240
100
AcDbEntity
  8
ASSI
100
AcDbLine
 62
250
  6
CONTINUOUS
 10
-10.7604445614
 20
2.5543070479
 11
-10.7965450307
 21
2.5319685471
  0
LWPOLYLINE
  5
241
100
AcDbEntity
  8
CURVE
100
AcDbPolyline
 62
250
  6
CONTINUOUS
 90
86
 70
0
 10
-2.4912817939
 20
7.318227652
 10
-2.4870937228
 20
7.3208100253
 10
-2.4830910705
 20
7.3236109297
 10
-2.4792580643
 20
7.3266337831
 10
-2.4755789318
 20
7.3298820035
 10
-2.4720379003
 20
7.3333590086
 10
-2.4677885614
 20
7.3380318293
 10
-2.4637402003
 20
7.3430719143
 10
-2.4599026568
 20
7.3484837113
 10
-2.4562857703
 20
7.354271668
 10
-2.4529005386
 20
7.3604363688
 10
-2.4497625921
 20
7.366962945
 10
-2.4468887193
 20
7.3738326643
 10
-2.4442957089
 20
7.3810267948
 10
-2.4424345225
 20
7.3870051544
 10
-2.4407707424
 20
7.3931819606
 10
-2.4393112786
 20
7.3995600254
 10
-2.4380630408
 20
7.4061421606
 10
-2.437032939
 20
7.4129311784
 10
-2.436227716
 20
7.4199267917
 10
-2.435653447
 20
7.4271163176
 10
-2.43531604
 20
7.434483974
 10
-2.4352214033
 20
7.4420139791
 10
-2.4353754451
 20
7.4496905509
 10
-2.4357822972
 20
7.4574981719
 10
-2.4364389866
 20
7.4654223822
 10
-2.4373407641
 20
7.4734489866
 10
-2.4384828804
 20
7.4815637896
 10
-2.4398605863
 20
7.4897525958
 10
-2.4414694578
 20
7.4980016855
 10
-2.4433063729
 20
7.5062992413
 10
-2.4453685347
 20
7.5146339217
 10
-2.4476531466
 20
7.5229943848
 10
-2.4501574117
 20
7.531369289
 10
-2.4528770847
 20
7.5397450758
 10
-2.4558021264
 20
7.5480993194
 10
-2.4589210488
 20
7.5564073773
 10
-2.4622223639
 20
7.5646446069
 10
-2.4656945839
 20
7.5727863655
 10
-2.4693280577
 20
7.5808127059
 10
-2.4731204814
 20
7.5887224612
 10
-2.477071388
 20
7.5965191596
 10
-2.4811803104
 20
7.6042063294
 10
-2.4854467816
 20
7.611787499
 10
-2.4898707547
 20
7.6192658751
 10
-2.4944538632
 20
7.6266433784
 10
-2.4991981607
 20
7.6339216082
 10
-2.5041057009
 20
7.6411021636
 10
-2.5091785375
 20
7.6481866439
 10
-2.514415928
 20
7.6551729069
 10
-2.5198059464
 20
7.6620438448
 10
-2.5253338704
 20
7.6687786084
 10
-2.5309849779
 20
7.6753563486
 10
-2.5367445468
 20
7.6817562163
 10
-2.5425982399
 20
7.6879592306
 10
-2.5485332605
 20
7.6939538841
 10
-2.554537197
 20
7.6997305377
 10
-2.5605976378
 20
7.7052795523
 10
-2.5667021713
 20
7.7105912887
 10
-2.5728398688
 20
7.7156569949
 10
-2.5790057341
 20
7.7204714665
 10
-2.5851962539
 20
7.7250303863
 10
-2.5914079149
 20
7.7293294371
 10
-2.5976372038
 20
7.7333643016
 10
-2.6038784631
 20
7.7371308614
 10
-2.6101174581
 20
7.7406257939
 10
-2.61633781
 20
7.7438459754
 10
-2.6225231399
 20
7.7467882822
 10
-2.6286570688
 20
7.7494495907
 10
-2.6337209777
 20
7.7514521345
 10
-2.6387486347
 20
7.7532657146
 10
-2.6437508573
 20
7.7548986745
 10
-2.6512159587
 20
7.757021469
 10
-2.6585994432
 20
7.7587473991
 10
-2.6658586207
 20
7.7600700395
 10
-2.6729749556
 20
7.7609942291
 10
-2.679935951
 20
7.7615276225
 10
-2.6867291099
 20
7.7616778745
 10
-2.6933431575
 20
7.7614525371
 10
-2.6997717087
 20
7.760858751
 10
-2.7060096002
 20
7.7599035544
 10
-2.7120516692
 20
7.7585939852
 10
-2.7178968623
 20
7.7569321034
 10
-2.7235605657
 20
7.7549000568
 10
-2.7290622752
 20
7.7524750153
 10
-2.7344214867
 20
7.7496341488
  0
LWPOLYLINE
  5
242
100
AcDbEntity
  8
CURVE
100
AcDbPolyline
 62
250
  6
CONTINUOUS
 90
53
 70
0
 10
-3.7503750997
 20
7.1625873783
 10
-3.7541706506
 20
7.1602574242
 10
-3.7578148829
 20
7.1577398419
 10
-3.7613192721
 20
7.1550321209
 10
-3.7646952937
 20
7.1521317506
 10
-3.7679544232
 20
7.1490362205
 10
-3.7711056845
 20
7.1457432703
 10
-3.7741482939
 20
7.14225164
 10
-3.7770790159
 20
7.1385603202
 10
-3.7798946151
 20
7.1346683013
 10
-3.782591856
 20
7.1305745736
 10
-3.7851669974
 20
7.1262788749
 10
-3.787614275
 20
7.1217839322
 10
-3.7899274186
 20
7.1170932201
 10
-3.7921001582
 20
7.1122102128
 10
-3.7941262237
 20
7.1071383849
 10
-3.7956978042
 20
7.1027721528
 10
-3.7971580986
 20
7.0982913548
 10
-3.7985020321
 20
7.0937101375
 10
-3.7997255389
 20
7.0890384146
 10
-3.8008285895
 20
7.0842691675
 10
-3.8018121632
 20
7.0793911449
 10
-3.8028347902
 20
7.0733831118
 10
-3.8036804875
 20
7.0672129163
 10
-3.8043429612
 20
7.0608912347
 10
-3.804815918
 20
7.0544287438
 10
-3.8050930642
 20
7.0478361198
 10
-3.8051699554
 20
7.0411249305
 10
-3.8050495433
 20
7.0343103082
 10
-3.8047366291
 20
7.0274082764
 10
-3.8042360137
 20
7.0204348586
 10
-3.8035524981
 20
7.0134060782
 10
-3.8028460414
 20
7.007514443
 10
-3.8020150312
 20
7.001583236
 10
-3.8010585937
 20
6.9956002046
 10
-3.7999767514
 20
6.9895588674
 10
-3.7987731101
 20
6.9834758298
 10
-3.7974521716
 20
6.9773734685
 10
-3.7957183742
 20
6.970052225
 10
-3.7938288657
 20
6.9627475883
 10
-3.7917903607
 20
6.9554717687
 10
-3.7896095735
 20
6.9482369762
 10
-3.7872932184
 20
6.9410554211
 10
-3.784847404
 20
6.9339375586
 10
-3.7822758146
 20
6.9268868245
 10
-3.7795815286
 20
6.9199048998
 10
-3.7767676245
 20
6.9129934654
 10
-3.7738371805
 20
6.9061542022
 10
-3.7707908851
 20
6.8993859006
 10
-3.7676198659
 20
6.8926757883
 10
-3.7643128605
 20
6.8860082025
 10
-3.7608586065
 20
6.8793674803
 10
-3.7572458415
 20
6.872737959
  0
LINE
  5
243
100
AcDbEntity
  8
ASSI
100
AcDbLine
 62
250
  6
CONTINUOUS
 10
4.8931003733
 20
12.4879810723
 11
6.7562842272
 21
13.618727653
  0
LINE
  5
244
100
AcDbEntity
  8
ASSI
100
AcDbLine
 62
250
  6
CONTINUOUS
 10
5.2557812159
 20
11.8815780912
 11
7.1410713147
 21
13.0257407182
  0
LINE
  5
245
100
AcDbEntity
  8
CURVE
100
AcDbLine
 62
250
  6
CONTINUOUS
 10
-3.2000125683
 20
6.9083948134
 11
-2.4912817939
 21
7.318227652
  0
LINE
  5
246
100
AcDbEntity
  8
CURVE
100
AcDbLine
 62
250
  6
CONTINUOUS
 10
-2.7344214867
 20
7.7496341488
 11
-3.7503750997
 21
7.1625873783
  0
LWPOLYLINE
  5
247
100
AcDbEntity
  8
ASSI
100
AcDbPolyline
 62
250
  6
CONTINUOUS
 90
13
 70
0
 10
-10.8005470655
 20
2.4543750151
 10
-10.8402964801
 20
2.4319438993
 10
-10.879330432
 20
2.404382598
 10
-10.9169874128
 20
2.3721581926
 10
-10.9526292499
 20
2.33581679
 10
-10.985651921
 20
2.2959742679
 10
-11.015495791
 20
2.2533058375
 10
-11.041655096
 20
2.2085346004
 10
-11.0636865142
 20
2.1624192949
 10
-11.0812166792
 20
2.1157414369
 10
-11.0939485075
 20
2.0692920759
 10
-11.1016662326
 20
2.0238583892
 10
-11.1042390624
 20
1.9802103415
  0
LWPOLYLINE
  5
248
100
AcDbEntity
  8
CURVE
100
AcDbPolyline
 62
250
  6
CONTINUOUS
 90
89
 70
0
 10
-2.2990269419
 20
-10.4820472266
 10
-2.294282378
 20
-10.4888527297
 10
-2.2894730663
 20
-10.4954716878
 10
-2.2845858703
 20
-10.5019274511
 10
-2.2796076535
 20
-10.5082433698
 10
-2.2745252794
 20
-10.5144427939
 10
-2.2680109285
 20
-10.5220538299
 10
-2.2613182507
 20
-10.5295049561
 10
-2.2544521905
 20
-10.5367818011
 10
-2.2474176925
 20
-10.543869993
 10
-2.2402212069
 20
-10.5507535332
 10
-2.2328752074
 20
-10.5574099139
 10
-2.2253936733
 20
-10.563815
 10
-2.2177905838
 20
-10.5699446566
 10
-2.2126632763
 20
-10.5738651036
 10
-2.2075045767
 20
-10.5776389254
 10
-2.2023309045
 20
-10.5812526363
 10
-2.1971537904
 20
-10.5846954974
 10
-2.1919652111
 20
-10.5879677553
 10
-2.1867522547
 20
-10.5910724032
 10
-2.1804531411
 20
-10.5945785595
 10
-2.1741187698
 20
-10.5978384973
 10
-2.1677675795
 20
-10.6008430463
 10
-2.1614180087
 20
-10.6035830361
 10
-2.155088496
 20
-10.6060492966
 10
-2.1487956901
 20
-10.6082343713
 10
-2.1425490815
 20
-10.6101376596
 10
-2.1363563707
 20
-10.6117602748
 10
-2.1302252585
 20
-10.6131033301
 10
-2.1241634455
 20
-10.6141679388
 10
-2.1181786375
 20
-10.6149549037
 10
-2.1122785608
 20
-10.6154637856
 10
-2.1064709467
 20
-10.6156938351
 10
-2.1007635267
 20
-10.6156443023
 10
-2.0951640323
 20
-10.6153144378
 10
-2.0896810815
 20
-10.6147043485
 10
-2.0843268392
 20
-10.6138175678
 10
-2.0791143573
 20
-10.6126584857
 10
-2.0740566873
 20
-10.6112314922
 10
-2.069166881
 20
-10.6095409773
 10
-2.0644556583
 20
-10.6075906194
 10
-2.0599244122
 20
-10.6053812501
 10
-2.0555722039
 20
-10.6029129897
 10
-2.0513980948
 20
-10.6001859581
 10
-2.0474011459
 20
-10.5972002756
 10
-2.0435805425
 20
-10.5939555609
 10
-2.0399359646
 20
-10.5904494278
 10
-2.0364672164
 20
-10.5866789887
 10
-2.0331741018
 20
-10.5826413561
 10
-2.0300564249
 20
-10.5783336426
 10
-2.0271155597
 20
-10.5737546602
 10
-2.0243591607
 20
-10.5689100207
 10
-2.0217964525
 20
-10.5638070354
 10
-2.0194366596
 20
-10.5584530156
 10
-2.0172890066
 20
-10.5528552726
 10
-2.0156679755
 20
-10.5480132151
 10
-2.0142058476
 20
-10.5430329992
 10
-2.0129078011
 20
-10.5379406413
 10
-2.0117774656
 20
-10.5327562385
 10
-2.0108122767
 20
-10.5274762115
 10
-2.010008122
 20
-10.5220910613
 10
-2.009251632
 20
-10.5154811258
 10
-2.0087243288
 20
-10.5087160079
 10
-2.0084294323
 20
-10.501805581
 10
-2.0083701625
 20
-10.4947597179
 10
-2.0085497392
 20
-10.487588292
 10
-2.0089695936
 20
-10.4803031313
 10
-2.0096240017
 20
-10.4729238852
 10
-2.0105054507
 20
-10.465472158
 10
-2.011606428
 20
-10.4579695541
 10
-2.0129194208
 20
-10.4504376778
 10
-2.0141707338
 20
-10.4441501717
 10
-2.0155634114
 20
-10.4378448343
 10
-2.0170968025
 20
-10.431509159
 10
-2.0196561694
 20
-10.4219392476
 10
-2.0225096806
 20
-10.4123377827
 10
-2.0256375019
 20
-10.4027621771
 10
-2.0290244459
 20
-10.39324011
 10
-2.0326564867
 20
-10.3837918273
 10
-2.0365195985
 20
-10.3744375746
 10
-2.0406005648
 20
-10.3651958594
 10
-2.0448894073
 20
-10.3560782351
 10
-2.0493769568
 20
-10.3470945167
 10
-2.0540540444
 20
-10.338254519
 10
-2.0579294698
 20
-10.3312887335
 10
-2.0619363347
 20
-10.3244030644
 10
-2.0660906422
 20
-10.3175793649
 10
-2.0704083954
 20
-10.3107994886
 10
-2.0749055977
 20
-10.3040452888
  0
LINE
  5
249
100
AcDbEntity
  8
CURVE
100
AcDbLine
 62
250
  6
CONTINUOUS
 10
-2.0749055977
 20
-10.3040452888
 11
-2.4716040891
 21
-9.7191770244
  0
LWPOLYLINE
  5
24A
100
AcDbEntity
  8
CURVE
100
AcDbPolyline
 62
250
  6
CONTINUOUS
 90
49
 70
0
 10
-3.8286613177
 20
-7.6871945705
 10
-3.8326998605
 20
-7.6812083256
 10
-3.8367839117
 20
-7.6753735943
 10
-3.8409197811
 20
-7.6696763995
 10
-3.8451137784
 20
-7.6641027641
 10
-3.8493722135
 20
-7.6586387108
 10
-3.8537013961
 20
-7.6532702624
 10
-3.8581064835
 20
-7.6479862604
 10
-3.862588022
 20
-7.6427868205
 10
-3.8671454057
 20
-7.6376748768
 10
-3.8717780282
 20
-7.6326533637
 10
-3.8764852837
 20
-7.6277252153
 10
-3.8812665658
 20
-7.6228933661
 10
-3.8861200262
 20
-7.6181618213
 10
-3.8910388481
 20
-7.6135388713
 10
-3.896014972
 20
-7.6090338775
 10
-3.9010403388
 20
-7.6046562014
 10
-3.9061068892
 20
-7.6004152045
 10
-3.9112065641
 20
-7.5963202481
 10
-3.9163318115
 20
-7.59237998
 10
-3.9214771087
 20
-7.5886001926
 10
-3.9266374406
 20
-7.5849859647
 10
-3.9318077917
 20
-7.5815423751
 10
-3.9369831467
 20
-7.5782745023
 10
-3.9421584903
 20
-7.5751874252
 10
-3.9473289928
 20
-7.5722853785
 10
-3.9524905672
 20
-7.5695692205
 10
-3.9576393121
 20
-7.567038966
 10
-3.9627713259
 20
-7.5646946292
 10
-3.9678827074
 20
-7.5625362248
 10
-3.9729695551
 20
-7.5605637671
 10
-3.9780273789
 20
-7.5587772981
 10
-3.9830493337
 20
-7.557176969
 10
-3.9880279857
 20
-7.5557629585
 10
-3.9929559014
 20
-7.5545354451
 10
-3.9978256468
 20
-7.5534946075
 10
-4.0026297883
 20
-7.5526406244
 10
-4.0073619483
 20
-7.5519733378
 10
-4.0120199736
 20
-7.5514912433
 10
-4.0166027669
 20
-7.5511925001
 10
-4.0211092314
 20
-7.5510752671
 10
-4.0255382698
 20
-7.5511377034
 10
-4.0298887851
 20
-7.5513779681
 10
-4.0341608327
 20
-7.5517957367
 10
-4.0383590785
 20
-7.5523967504
 10
-4.0424893407
 20
-7.5531882665
 10
-4.0465574378
 20
-7.5541775429
 10
-4.0505691879
 20
-7.5553718369
 10
-4.0545304095
 20
-7.5567784062
  0
LINE
  5
24B
100
AcDbEntity
  8
CURVE
100
AcDbLine
 62
250
  6
CONTINUOUS
 10
-2.8522751596
 20
-9.663278725
 11
-2.2990269419
 21
-10.4820472266
  0
LINE
  5
24C
100
AcDbEntity
  8
CURVE
100
AcDbLine
 62
250
  6
CONTINUOUS
 10
-2.4716040891
 20
-9.7191770244
 11
-2.8643130794
 21
-9.1362099908
  0
LINE
  5
24D
100
AcDbEntity
  8
CURVE
100
AcDbLine
 62
250
  6
CONTINUOUS
 10
-2.8643130794
 20
-9.1362099908
 11
-3.2530372778
 21
-8.555154861
  0
LINE
  5
24E
100
AcDbEntity
  8
CURVE
100
AcDbLine
 62
250
  6
CONTINUOUS
 10
-3.3976660232
 20
-8.848319249
 11
-2.8522751596
 21
-9.663278725
  0
LWPOLYLINE
  5
24F
100
AcDbEntity
  8
CURVE
100
AcDbPolyline
 62
250
  6
CONTINUOUS
 90
3
 70
0
 10
-3.2530372778
 20
-8.555154861
 10
-3.6377792749
 20
-7.9760305456
 10
-3.8286613177
 20
-7.6871945705
  0
LINE
  5
250
100
AcDbEntity
  8
CURVE
100
AcDbLine
 62
250
  6
CONTINUOUS
 10
-3.9352003276
 20
-8.0372256543
 11
-3.3976660232
 21
-8.848319249
  0
LWPOLYLINE
  5
251
100
AcDbEntity
  8
CURVE
100
AcDbPolyline
 62
250
  6
CONTINUOUS
 90
87
 70
0
 10
-2.3263721901
 20
-11.1406487586
 10
-2.3307004836
 20
-11.1337149041
 10
-2.3351223693
 20
-11.1269400134
 10
-2.3396485927
 20
-11.1203008182
 10
-2.3442898997
 20
-11.1137740504
 10
-2.3490570359
 20
-11.1073364419
 10
-2.3552055629
 20
-11.0993888335
 10
-2.3615662106
 20
-11.0915555519
 10
-2.3681377014
 20
-11.0838479694
 10
-2.3749187575
 20
-11.0762774579
 10
-2.381904208
 20
-11.0688587185
 10
-2.3890733091
 20
-11.061619768
 10
-2.3964014233
 20
-11.0545919524
 10
-2.4038639134
 20
-11.0478066174
 10
-2.4099159936
 20
-11.042572691
 10
-2.4160370553
 20
-11.0375222097
 10
-2.4222258471
 20
-11.0326633699
 10
-2.4284811176
 20
-11.0280043677
 10
-2.4348016156
 20
-11.0235533993
 10
-2.4411835703
 20
-11.0193197847
 10
-2.4476131333
 20
-11.0153173379
 10
-2.4540739368
 20
-11.0115609969
 10
-2.4605496129
 20
-11.0080656995
 10
-2.4670237937
 20
-11.0048463834
 10
-2.4734812079
 20
-11.0019154779
 10
-2.4799109691
 20
-10.9992753768
 10
-2.4863032876
 20
-10.9969259656
 10
-2.4926483734
 20
-10.9948671294
 10
-2.4989364367
 20
-10.9930987535
 10
-2.5051579671
 20
-10.9916209489
 10
-2.5113045711
 20
-10.9904347291
 10
-2.5173681348
 20
-10.9895413333
 10
-2.5233405443
 20
-10.9889420005
 10
-2.5292136856
 20
-10.9886379701
 10
-2.5349782694
 20
-10.9886294782
 10
-2.540620305
 20
-10.9889127494
 10
-2.5461246266
 20
-10.9894830056
 10
-2.5514760682
 20
-10.9903354683
 10
-2.5566594639
 20
-10.9914653594
 10
-2.5616627473
 20
-10.9928683823
 10
-2.5664862506
 20
-10.9945421676
 10
-2.5711334056
 20
-10.9964848278
 10
-2.5756076442
 20
-10.9986944752
 10
-2.579912398
 20
-11.0011692221
 10
-2.5840504991
 20
-11.0039076157
 10
-2.5880223799
 20
-11.0069099414
 10
-2.5918278727
 20
-11.0101769194
 10
-2.5954668103
 20
-11.01370927
 10
-2.598939025
 20
-11.0175077132
 10
-2.602242969
 20
-11.0215719004
 10
-2.6053715732
 20
-11.025897207
 10
-2.6083163878
 20
-11.0304779396
 10
-2.6110689632
 20
-11.0353084047
 10
-2.6136208499
 20
-11.0403829089
 10
-2.6155877281
 20
-11.0447908259
 10
-2.617402717
 20
-11.0493420797
 10
-2.6190591623
 20
-11.0540144893
 10
-2.6205522457
 20
-11.0587908204
 10
-2.6218844938
 20
-11.0636736247
 10
-2.6230602693
 20
-11.0686704006
 10
-2.6242688932
 20
-11.0748240355
 10
-2.6252545842
 20
-11.0811445648
 10
-2.6260134478
 20
-11.0876239661
 10
-2.6265415895
 20
-11.0942542169
 10
-2.6268351147
 20
-11.1010272949
 10
-2.6268918132
 20
-11.1079332485
 10
-2.626716212
 20
-11.1149544108
 10
-2.6263145225
 20
-11.1220711855
 10
-2.6256929557
 20
-11.1292639766
 10
-2.6248577231
 20
-11.1365131881
 10
-2.6240026041
 20
-11.1425868039
 10
-2.6230048786
 20
-11.1486965216
 10
-2.6218660054
 20
-11.1548528705
 10
-2.6198982509
 20
-11.1641815399
 10
-2.6176332136
 20
-11.1735764328
 10
-2.6150872237
 20
-11.1829821043
 10
-2.6122738669
 20
-11.1923708842
 10
-2.6092060427
 20
-11.2017220457
 10
-2.6058966504
 20
-11.211014862
 10
-2.6023578927
 20
-11.2202303311
 10
-2.5985991853
 20
-11.2293563506
 10
-2.594629247
 20
-11.2383825426
 10
-2.5904567965
 20
-11.2472985293
 10
-2.5860842114
 20
-11.2561018705
 10
-2.5814885041
 20
-11.2648218754
 10
-2.5766403457
 20
-11.2734957906
 10
-2.5715104072
 20
-11.2821608631
  0
LINE
  5
252
100
AcDbEntity
  8
CURVE
100
AcDbLine
 62
250
  6
CONTINUOUS
 10
-1.2981268997
 20
-12.8109939825
 11
-1.8169676079
 21
-11.9717802748
  0
LINE
  5
253
100
AcDbEntity
  8
CURVE
100
AcDbLine
 62
250
  6
CONTINUOUS
 10
-1.8169676079
 20
-11.9717802748
 11
-2.3263721901
 21
-11.1406487586
  0
LWPOLYLINE
  5
254
100
AcDbEntity
  8
CURVE
100
AcDbPolyline
 62
250
  6
CONTINUOUS
 90
3
 70
0
 10
-2.5715104072
 20
-11.2821608631
 10
-2.4540777514
 20
-11.4749044511
 10
-1.859540788
 20
-12.4447612857
  0
LWPOLYLINE
  5
255
100
AcDbEntity
  8
ASSI
100
AcDbPolyline
 62
250
  6
CONTINUOUS
 90
19
 70
0
 10
-7.4758711825
 20
-0.4033640727
 10
-7.4448532652
 20
-0.5285753464
 10
-7.4080494
 20
-0.6536571537
 10
-7.3654542179
 20
-0.778606623
 10
-7.3167728053
 20
-0.9041040638
 10
-7.262284564
 20
-1.0294607491
 10
-7.2028464196
 20
-1.152620709
 10
-7.1384074168
 20
-1.2734643368
 10
-7.0690018799
 20
-1.3921021548
 10
-6.9956191731
 20
-1.5068258898
 10
-6.918202996
 20
-1.6175786118
 10
-6.8367936683
 20
-1.7244084223
 10
-6.7525314052
 20
-1.8257678623
 10
-6.665299091
 20
-1.921635253
 10
-6.5752009933
 20
-2.012025062
 10
-6.4837175153
 20
-2.0954485423
 10
-6.3913425127
 20
-2.1714096107
 10
-6.2975775243
 20
-2.2404016282
 10
-6.2024188847
 20
-2.302422449
  0
LWPOLYLINE
  5
256
100
AcDbEntity
  8
CURVE
100
AcDbPolyline
 62
250
  6
CONTINUOUS
 90
55
 70
0
 10
-6.3514786922
 20
-12.0667255865
 10
-6.3512101896
 20
-12.0727946341
 10
-6.3507784737
 20
-12.0789088215
 10
-6.3501855759
 20
-12.0850817668
 10
-6.3494335279
 20
-12.091327088
 10
-6.3485243611
 20
-12.0976584031
 10
-6.3474595017
 20
-12.1040867087
 10
-6.3462379544
 20
-12.1106125168
 10
-6.3448581185
 20
-12.1172337181
 10
-6.3433183934
 20
-12.1239482031
 10
-6.3416171784
 20
-12.1307538627
 10
-6.3397531792
 20
-12.1376473264
 10
-6.3377263274
 20
-12.1446201808
 10
-6.335536861
 20
-12.1516627511
 10
-6.3331850181
 20
-12.1587653628
 10
-6.3306710365
 20
-12.1659183414
 10
-6.3284535571
 20
-12.1719083293
 10
-6.3261309201
 20
-12.1779070419
 10
-6.3237103992
 20
-12.1838949452
 10
-6.321196921
 20
-12.1898578872
 10
-6.318586025
 20
-12.1958032422
 10
-6.3158709038
 20
-12.2017437667
 10
-6.3130463534
 20
-12.2076884164
 10
-6.3101135824
 20
-12.2136309447
 10
-6.307075403
 20
-12.2195613045
 10
-6.3039346271
 20
-12.225469449
 10
-6.3006940666
 20
-12.2313453309
 10
-6.2973565336
 20
-12.2371789033
 10
-6.2939255164
 20
-12.2429606147
 10
-6.2904072091
 20
-12.2486828965
 10
-6.2868084824
 20
-12.2543386757
 10
-6.2831362068
 20
-12.2599208792
 10
-6.2793972527
 20
-12.265422434
 10
-6.2755984909
 20
-12.2708362671
 10
-6.2717443148
 20
-12.2761584899
 10
-6.2678292097
 20
-12.2813979513
 10
-6.2638451843
 20
-12.2865666849
 10
-6.2597880542
 20
-12.2916717211
 10
-6.2556688656
 20
-12.2967000786
 10
-6.251502472
 20
-12.3016337732
 10
-6.2464586789
 20
-12.3074081554
 10
-6.2413776236
 20
-12.3130146029
 10
-6.2362686304
 20
-12.3184473928
 10
-6.2311410233
 20
-12.3237008021
 10
-6.2260041265
 20
-12.3287691081
 10
-6.2208660612
 20
-12.3336477258
 10
-6.2157301373
 20
-12.3383366211
 10
-6.2105984618
 20
-12.3428368982
 10
-6.2054731418
 20
-12.3471496608
 10
-6.2003562841
 20
-12.3512760131
 10
-6.1952474683
 20
-12.3552177158
 10
-6.1901361631
 20
-12.3589791575
 10
-6.1850093097
 20
-12.3625653838
 10
-6.1798538493
 20
-12.3659814403
 10
-6.1746567232
 20
-12.3692323725
  0
LINE
  5
257
100
AcDbEntity
  8
ASSI
100
AcDbLine
 62
7
  6
CONTINUOUS
 10
-6.2461255173
 20
21.126156081
 11
-6.2247911383
 21
20.505930733
  0
LWPOLYLINE
  5
258
100
AcDbEntity
  8
CURVE
100
AcDbPolyline
 62
250
  6
CONTINUOUS
 90
5
 70
0
 10
-6.0159877681
 20
-12.0753474454
 10
-6.0393708007
 20
-11.2774417073
 10
-6.0610352117
 20
-10.4784798605
 10
-6.0809808257
 20
-9.6784666701
 10
-6.0992074673
 20
-8.8774069012
  0
LWPOLYLINE
  5
259
100
AcDbEntity
  8
CURVE
100
AcDbPolyline
 62
250
  6
CONTINUOUS
 90
5
 70
0
 10
-6.4422943014
 20
-8.5765609327
 10
-6.4226443339
 20
-9.450967065
 10
-6.4009582601
 20
-10.3241339727
 10
-6.3772363046
 20
-11.1960555239
 10
-6.3514786922
 20
-12.0667255865
  0
LWPOLYLINE
  5
25A
100
AcDbEntity
  8
CURVE
100
AcDbPolyline
 62
250
  6
CONTINUOUS
 90
55
 70
0
 10
-6.4647282944
 20
6.4715533461
 10
-6.4647557693
 20
6.4653147476
 10
-6.4646177159
 20
6.4590323671
 10
-6.464316899
 20
6.4526921407
 10
-6.4638560836
 20
6.4462800048
 10
-6.4632380345
 20
6.4397818955
 10
-6.4624647634
 20
6.4331864596
 10
-6.4615352697
 20
6.4264931866
 10
-6.4604477995
 20
6.4197042763
 10
-6.4592005993
 20
6.4128219287
 10
-6.4577919151
 20
6.4058483438
 10
-6.4562202452
 20
6.3987870123
 10
-6.4544850958
 20
6.3916465886
 10
-6.452586225
 20
6.3844370179
 10
-6.4505233912
 20
6.3771682454
 10
-6.4482963523
 20
6.3698502163
 10
-6.4463159844
 20
6.3637237775
 10
-6.444227917
 20
6.3575900168
 10
-6.4420386499
 20
6.3514689119
 10
-6.4397525372
 20
6.3453749385
 10
-6.4373653509
 20
6.3393005653
 10
-6.4348707173
 20
6.3332327586
 10
-6.4322637238
 20
6.3271623755
 10
-6.4295453018
 20
6.3210958348
 10
-6.426717844
 20
6.3150434457
 10
-6.423783743
 20
6.3090155173
 10
-6.4207453912
 20
6.303022359
 10
-6.4176051813
 20
6.2970742797
 10
-6.4143662256
 20
6.2911810653
 10
-6.4110345153
 20
6.2853504066
 10
-6.4076167615
 20
6.2795894712
 10
-6.4041196752
 20
6.2739054264
 10
-6.4005499673
 20
6.2683054399
 10
-6.3969143489
 20
6.2627966789
 10
-6.3932171404
 20
6.2573830716
 10
-6.3894531005
 20
6.2520555889
 10
-6.385614597
 20
6.2468019625
 10
-6.3816976697
 20
6.2416150182
 10
-6.3777130452
 20
6.2365079598
 10
-6.3736751217
 20
6.2314990856
 10
-6.3687769374
 20
6.2256394908
 10
-6.3638320505
 20
6.2199533745
 10
-6.3588497755
 20
6.2144464809
 10
-6.3538394267
 20
6.2091245541
 10
-6.3488103187
 20
6.2039933383
 10
-6.3437705819
 20
6.1990574227
 10
-6.3387236106
 20
6.1943167772
 10
-6.3336716154
 20
6.189770217
 10
-6.3286168067
 20
6.1854165571
 10
-6.3235613951
 20
6.1812546127
 10
-6.318505026
 20
6.1772825663
 10
-6.3134370845
 20
6.1734960715
 10
-6.308344391
 20
6.1698901491
 10
-6.3032137658
 20
6.1664598202
 10
-6.2980320289
 20
6.1632001058
  0
LWPOLYLINE
  5
25B
100
AcDbEntity
  8
CURVE
100
AcDbPolyline
 62
250
  6
CONTINUOUS
 90
5
 70
0
 10
-6.120047667
 20
6.4682375067
 10
-6.1040251739
 20
7.2890629299
 10
-6.0862837869
 20
8.1108329992
 10
-6.0668236811
 20
8.9335427484
 10
-6.045645032
 20
9.7571872112
  0
LWPOLYLINE
  5
25C
100
AcDbEntity
  8
CURVE
100
AcDbPolyline
 62
250
  6
CONTINUOUS
 90
5
 70
0
 10
-6.3844753918
 20
10.0604908146
 10
-6.4075921764
 20
9.1615890958
 10
-6.4286734048
 20
8.263794685
 10
-6.4477188524
 20
7.3671139718
 10
-6.4647282944
 20
6.4715533461
  0
LWPOLYLINE
  5
25D
100
AcDbEntity
  8
ASSI
100
AcDbPolyline
 62
250
  6
CONTINUOUS
 90
6
 70
0
 10
-6.9139452402
 20
0.439311893
 10
-6.9244950571
 20
0.4128052435
 10
-6.9379197793
 20
0.3894380734
 10
-6.9540693282
 20
0.3694717399
 10
-6.9727632108
 20
0.3531295323
 10
-6.9861370347
 20
0.3445633601
  0
LWPOLYLINE
  5
25E
100
AcDbEntity
  8
ASSI
100
AcDbPolyline
 62
250
  6
CONTINUOUS
 90
19
 70
0
 10
-1.697547562
 20
-4.9034786914
 10
-1.5972984159
 20
-4.954299479
 10
-1.4983439009
 20
-4.9965992353
 10
-1.4006876178
 20
-5.0303800752
 10
-1.3038049594
 20
-5.055741435
 10
-1.2082250213
 20
-5.072586532
 10
-1.1155362036
 20
-5.0806257094
 10
-1.0258624154
 20
-5.0797078374
 10
-0.9390920829
 20
-5.069991482
 10
-0.8564682405
 20
-5.0516562481
 10
-0.7780600534
 20
-5.0245980012
 10
-0.703813638
 20
-4.988930162
 10
-0.6347931435
 20
-4.9451620791
 10
-0.5710496459
 20
-4.8931335423
 10
-0.5125477577
 20
-4.8330143402
 10
-0.4602262621
 20
-4.7658113918
 10
-0.4144039937
 20
-4.6918639189
 10
-0.3747767216
 20
-4.6108416021
 10
-0.34134944
 20
-4.5227475102
  0
LWPOLYLINE
  5
25F
100
AcDbEntity
  8
ASSI
100
AcDbPolyline
 62
250
  6
CONTINUOUS
 90
10
 70
0
 10
-6.2024188847
 20
-2.302422449
 10
-5.7135000177
 20
-2.5982390212
 10
-5.221658497
 20
-2.892362926
 10
-4.7269037967
 20
-3.1847886363
 10
-4.2292521749
 20
-3.475506684
 10
-3.7287064032
 20
-3.764515535
 10
-3.2252555832
 20
-4.051821483
 10
-2.7189023743
 20
-4.3374229293
 10
-2.2096631761
 20
-4.6213104882
 10
-1.697547562
 20
-4.9034786914
  0
LWPOLYLINE
  5
260
100
AcDbEntity
  8
ASSI
100
AcDbPolyline
 62
250
  6
CONTINUOUS
 90
19
 70
0
 10
-6.91394524
 20
-0.3069969832
 10
-6.8899241882
 20
-0.4055651476
 10
-6.8610541393
 20
-0.505031503
 10
-6.8274625278
 20
-0.6049111124
 10
-6.7892957915
 20
-0.704782091
 10
-6.7467329666
 20
-0.804082421
 10
-6.7000109808
 20
-0.9021185442
 10
-6.6494187437
 20
-0.9983406906
 10
-6.5951863191
 20
-1.0923504918
 10
-6.5375101265
 20
-1.1836979009
 10
-6.4766899641
 20
-1.2719307511
 10
-6.4130368918
 20
-1.3566196452
 10
-6.3467787
 20
-1.4373608844
 10
-6.2781985444
 20
-1.5138048648
 10
-6.2076991507
 20
-1.585504591
 10
-6.1357106362
 20
-1.6519586197
 10
-6.0626329334
 20
-1.7128136355
 10
-5.9888242404
 20
-1.7678380354
 10
-5.9146662942
 20
-1.8167812329
  0
LINE
  5
261
100
AcDbEntity
  8
ASSI
100
AcDbLine
 62
7
  6
CONTINUOUS
 10
1.4620540987
 20
16.067642632
 11
1.673470432
 21
16.5534806357
  0
LWPOLYLINE
  5
262
100
AcDbEntity
  8
ASSI
100
AcDbPolyline
 62
250
  6
CONTINUOUS
 90
8
 70
0
 10
-6.6547726898
 20
0.7936150762
 10
-6.6998825233
 20
0.7641930519
 10
-6.7466177127
 20
0.7250528429
 10
-6.7891977423
 20
0.6795132809
 10
-6.8273871354
 20
0.6278624489
 10
-6.8610050662
 20
0.5704092472
 10
-6.8899012127
 20
0.5074471736
 10
-6.91394524
 20
0.4393118938
  0
LWPOLYLINE
  5
263
100
AcDbEntity
  8
ASSI
100
AcDbPolyline
 62
250
  6
CONTINUOUS
 90
13
 70
0
 10
-7.1840467197
 20
0.0786564267
 10
-7.2226335066
 20
0.0544417327
 10
-7.2600640826
 20
0.0259783937
 10
-7.2959837616
 20
-0.00654789
 10
-7.3299329681
 20
-0.043480545
 10
-7.361623323
 20
-0.0844522257
 10
-7.3906599314
 20
-0.1279452738
 10
-7.4158611393
 20
-0.1732002312
 10
-7.436760925
 20
-0.220026404
 10
-7.4537952891
 20
-0.2672195349
 10
-7.4666041753
 20
-0.3138476691
 10
-7.4741275696
 20
-0.3594426622
 10
-7.4758711825
 20
-0.4033640727
  0
LINE
  5
264
100
AcDbEntity
  8
ASSI
100
AcDbLine
 62
250
  6
CONTINUOUS
 10
-6.6515028452
 20
0.7954739935
 11
-6.6547726898
 21
0.7936150762
  0
LINE
  5
265
100
AcDbEntity
  8
ASSI
100
AcDbLine
 62
250
  6
CONTINUOUS
 10
-6.3075432019
 20
0.7795050606
 11
-6.91394524
 21
0.4393118938
  0
LINE
  5
266
100
AcDbEntity
  8
ASSI
100
AcDbLine
 62
7
  6
CONTINUOUS
 10
-6.9861370347
 20
0.3445633601
 11
-6.2516114127
 21
0.7558884017
  0
LWPOLYLINE
  5
267
100
AcDbEntity
  8
ASSI
100
AcDbPolyline
 62
7
  6
CONTINUOUS
 90
12
 70
0
 10
-6.6548179277
 20
0.7935752212
 10
-6.6310192732
 20
0.8055448146
 10
-6.5947813756
 20
0.8173569633
 10
-6.5553635356
 20
0.8237072306
 10
-6.512733542
 20
0.8250210133
 10
-6.4658664479
 20
0.8213134574
 10
-6.4156262156
 20
0.812465271
 10
-6.3628381356
 20
0.7985735594
 10
-6.3055149617
 20
0.7788056205
 10
-6.242992976
 20
0.7522242533
 10
-6.1767502136
 20
0.7188101403
 10
-6.1201508152
 20
0.6862209483
  0
LWPOLYLINE
  5
268
100
AcDbEntity
  8
ASSI
100
AcDbPolyline
 62
250
  6
CONTINUOUS
 90
16
 70
0
 10
4.0373823259
 20
-6.1128594796
 10
4.0452030828
 20
-6.1162732578
 10
4.0534114853
 20
-6.1191883283
 10
4.0620075335
 20
-6.121604691
 10
4.071083987
 20
-6.1235378098
 10
4.0805480861
 20
-6.1249722208
 10
4.090121552
 20
-6.1258615321
 10
4.099802869
 20
-6.1261882842
 10
4.1095935529
 20
-6.1259699366
 10
4.119219872
 20
-6.1252124756
 10
4.1286797014
 20
-6.1238994062
 10
4.1379751661
 20
-6.1220472234
 10
4.1468389084
 20
-6.1197113996
 10
4.1551818094
 20
-6.1169104255
 10
4.1630929881
 20
-6.1136258104
 10
4.1705724446
 20
-6.1098575542
  0
LWPOLYLINE
  5
269
100
AcDbEntity
  8
ASSI
100
AcDbPolyline
 62
250
  6
CONTINUOUS
 90
16
 70
0
 10
3.7824291863
 20
-6.615165409
 10
3.8211229396
 20
-6.6321510037
 10
3.8624839482
 20
-6.6468732053
 10
3.9061195321
 20
-6.6591943302
 10
3.9516113827
 20
-6.6689983459
 10
3.9985330487
 20
-6.6761958523
 10
4.0464552418
 20
-6.6807222838
 10
4.0949325825
 20
-6.6825340229
 10
4.1435007307
 20
-6.6816123199
 10
4.1916951571
 20
-6.6779666816
 10
4.2390555862
 20
-6.6716322747
 10
4.2851405747
 20
-6.6626687196
 10
4.329524768
 20
-6.6511593003
 10
4.3717911291
 20
-6.6372103732
 10
4.411536003
 20
-6.6209522514
 10
4.4483825119
 20
-6.6025369287
  0
LWPOLYLINE
  5
26A
100
AcDbEntity
  8
ASSI
100
AcDbPolyline
 62
7
  6
CONTINUOUS
 90
13
 70
0
 10
3.8648999794
 20
-5.8626247143
 10
3.8723017272
 20
-5.866152128
 10
3.9158485824
 20
-5.8841132047
 10
3.9602488509
 20
-5.8979611338
 10
4.0062114697
 20
-5.9080772358
 10
4.0534056279
 20
-5.9143445037
 10
4.1002676639
 20
-5.9166575871
 10
4.1471812989
 20
-5.9151309178
 10
4.1945265786
 20
-5.9096415813
 10
4.2407122564
 20
-5.9002848957
 10
4.2853898423
 20
-5.8871565591
 10
4.3293101174
 20
-5.8698971857
 10
4.3626226961
 20
-5.8535154991
  0
LWPOLYLINE
  5
26B
100
AcDbEntity
  8
ASSI
100
AcDbPolyline
 62
250
  6
CONTINUOUS
 90
6
 70
0
 10
3.7824292453
 20
-5.6793165984
 10
3.0835454625
 20
-5.3368942024
 10
2.3892671576
 20
-4.9915908638
 10
1.6996165271
 20
-4.6434174252
 10
1.0146157481
 20
-4.2923847452
 10
0.3342866041
 20
-3.9385039346
  0
LWPOLYLINE
  5
26C
100
AcDbEntity
  8
ASSI
100
AcDbPolyline
 62
250
  6
CONTINUOUS
 90
13
 70
0
 10
-1.4247588801
 20
-4.4091975634
 10
-1.3454959496
 20
-4.4488452978
 10
-1.2665013465
 20
-4.482062869
 10
-1.188156329
 20
-4.5086573745
 10
-1.1107784216
 20
-4.5284667877
 10
-1.0348083991
 20
-4.541356354
 10
-0.9607984097
 20
-4.5472597283
 10
-0.8891495447
 20
-4.5461564753
 10
-0.8201480232
 20
-4.5380670125
 10
-0.7541494031
 20
-4.5230656847
 10
-0.6914707294
 20
-4.5012268072
 10
-0.6324038862
 20
-4.4726562948
 10
-0.6224596974
 20
-4.4669744013
  0
LWPOLYLINE
  5
26D
100
AcDbEntity
  8
ASSI
100
AcDbPolyline
 62
250
  6
CONTINUOUS
 90
7
 70
0
 10
-0.34134944
 20
-4.5227475102
 10
0.3342847455
 20
-4.8788618861
 10
1.0146127527
 20
-5.2320399155
 10
1.6996131318
 20
-5.5822702847
 10
2.3892641149
 20
-5.9295418859
 10
3.0835435403
 20
-6.2738438643
 10
3.7824292265
 20
-6.6151653831
  0
LWPOLYLINE
  5
26E
100
AcDbEntity
  8
ASSI
100
AcDbPolyline
 62
250
  6
CONTINUOUS
 90
7
 70
0
 10
-0.0729090132
 20
-4.0272253613
 10
0.6002726618
 20
-4.3820569872
 10
1.2782010894
 20
-4.7339982373
 10
1.9608762695
 20
-5.0830491115
 10
2.6482982024
 20
-5.42920961
 10
3.3404668878
 20
-5.7724797327
 10
4.0373823259
 20
-6.1128594796
  0
LINE
  5
26F
100
AcDbEntity
  8
ASSI
100
AcDbLine
 62
250
  6
CONTINUOUS
 10
0.3342866041
 20
-3.9385039346
 11
-0.34134944
 21
-3.5817863082
  0
LWPOLYLINE
  5
270
100
AcDbEntity
  8
ASSI
100
AcDbPolyline
 62
7
  6
CONTINUOUS
 90
10
 70
0
 10
-0.2582847369
 20
-3.765465876
 10
0.149480374
 20
-3.9813853719
 10
0.6139146382
 20
-4.2249595092
 10
1.0805788262
 20
-4.4672142084
 10
1.5494576056
 20
-4.7081414686
 10
2.0205388791
 20
-4.9477349596
 10
2.4938138546
 20
-5.1859899713
 10
2.9692705042
 20
-5.4229000882
 10
3.4468934956
 20
-5.6584572387
 10
3.8649262444
 20
-5.862650068
  0
LWPOLYLINE
  5
271
100
AcDbEntity
  8
ASSI
100
AcDbPolyline
 62
250
  6
CONTINUOUS
 90
8
 70
0
 10
3.8648950276
 20
-5.8626348821
 10
3.8567684105
 20
-5.8582504733
 10
3.8348120987
 20
-5.8412605904
 10
3.8163305739
 20
-5.8185369503
 10
3.8016370427
 20
-5.7904646507
 10
3.7909805162
 20
-5.7575194326
 10
3.7845415906
 20
-5.7202596186
 10
3.7824293864
 20
-5.6793166508
  0
LINE
  5
272
100
AcDbEntity
  8
ASSI
100
AcDbLine
 62
250
  6
CONTINUOUS
 10
-0.2583872344
 20
-3.7654111438
 11
-0.2630848367
 21
-3.7627656838
  0
LWPOLYLINE
  5
273
100
AcDbEntity
  8
ASSI
100
AcDbPolyline
 62
250
  6
CONTINUOUS
 90
10
 70
0
 10
-5.9146644676
 20
-1.816780166
 10
-5.4273796194
 20
-2.1115979167
 10
-4.9371877608
 20
-2.4047277418
 10
-4.4440888917
 20
-2.6961696414
 10
-3.9480715837
 20
-2.9859302126
 10
-3.4491472652
 20
-3.2740028583
 10
-2.9473502218
 20
-3.5603677872
 10
-2.442691882
 20
-3.8450184021
 10
-1.9351608171
 20
-4.1279613003
 10
-1.4247570274
 20
-4.4091964817
  0
LWPOLYLINE
  5
274
100
AcDbEntity
  8
ASSI
100
AcDbPolyline
 62
7
  6
CONTINUOUS
 90
19
 70
0
 10
-4.6013863295
 20
-1.04514914
 10
-4.6777420728
 20
-0.9979369538
 10
-4.7537137958
 20
-0.9447115917
 10
-4.82892013
 20
-0.8857404128
 10
-4.9029829171
 20
-0.8213202015
 10
-4.9755310828
 20
-0.7517739849
 10
-5.0462023524
 20
-0.6774489682
 10
-5.1146428927
 20
-0.5987167722
 10
-5.1805078884
 20
-0.5159735407
 10
-5.2434653235
 20
-0.4296362088
 10
-5.3031987651
 20
-0.3401388485
 10
-5.3594087863
 20
-0.2479302211
 10
-5.4118132371
 20
-0.1534732306
 10
-5.4601489048
 20
-0.0572424107
 10
-5.5041733444
 20
0.0402794461
 10
-5.5436659568
 20
0.1386037734
 10
-5.5784284771
 20
0.2372373119
 10
-5.6082861229
 20
0.335684551
 10
-5.6206601276
 20
0.3844600032
  0
LINE
  5
275
100
AcDbEntity
  8
ASSI
100
AcDbLine
 62
7
  6
CONTINUOUS
 10
-7.763350282
 20
0.5871695102
 11
-7.3940144762
 21
0.3546393191
  0
LWPOLYLINE
  5
276
100
AcDbEntity
  8
ASSI
100
AcDbPolyline
 62
250
  6
CONTINUOUS
 90
6
 70
0
 10
-7.4758711825
 20
0.5375971293
 10
-8.0931611899
 20
0.9273987024
 10
-8.7054521625
 20
1.3198604629
 10
-9.3127244963
 20
1.7149700313
 10
-9.9149589425
 20
2.1127148453
 10
-10.5121366898
 20
2.5130821157
  0
LINE
  5
277
100
AcDbEntity
  8
ASSI
100
AcDbLine
 62
250
  6
CONTINUOUS
 10
-7.7990995414
 20
0.4676351569
 11
-7.184046723
 21
0.0786564288
  0
LWPOLYLINE
  5
278
100
AcDbEntity
  8
ASSI
100
AcDbPolyline
 62
250
  6
CONTINUOUS
 90
13
 70
0
 10
-7.1840467197
 20
0.0786564267
 10
-7.1543578537
 20
0.0594808676
 10
-7.1249732197
 20
0.0368837041
 10
-7.0962214135
 20
0.0111175727
 10
-7.06842395
 20
-0.0175294612
 10
-7.0418917083
 20
-0.0487370815
 10
-7.016921448
 20
-0.0821562906
 10
-6.993792369
 20
-0.1174134847
 10
-6.9727632108
 20
-0.1541143213
 10
-6.9540693282
 20
-0.1918480398
 10
-6.9379197793
 20
-0.2301925376
 10
-6.9244950571
 20
-0.2687191271
 10
-6.9139452402
 20
-0.306996982
  0
LINE
  5
279
100
AcDbEntity
  8
ASSI
100
AcDbLine
 62
250
  6
CONTINUOUS
 10
-10.5121366898
 20
2.5130821157
 11
-11.1042389559
 21
2.9160590429
  0
LWPOLYLINE
  5
27A
100
AcDbEntity
  8
ASSI
100
AcDbPolyline
 62
250
  6
CONTINUOUS
 90
7
 70
0
 10
-11.1042389718
 20
1.9802102599
 10
-10.5121383307
 20
1.5761326162
 10
-9.9149615795
 20
1.1747640575
 10
-9.3127274837
 20
0.7761174073
 10
-8.7054548382
 20
0.3802054772
 10
-8.0931628752
 20
-0.0129591491
 10
-7.4758711825
 20
-0.4033640727
  0
LWPOLYLINE
  5
27B
100
AcDbEntity
  8
ASSI
100
AcDbPolyline
 62
250
  6
CONTINUOUS
 90
6
 70
0
 10
-10.8005470655
 20
2.4543750151
 10
-10.2100997698
 20
2.0514475478
 10
-9.6147313695
 20
1.6513098283
 10
-9.0144418646
 20
1.2539618567
 10
-8.4092312553
 20
0.8594036329
 10
-7.7990995414
 20
0.4676351569
  0
LWPOLYLINE
  5
27C
100
AcDbEntity
  8
ASSI
100
AcDbPolyline
 62
7
  6
CONTINUOUS
 90
9
 70
0
 10
-11.0242985534
 20
2.7344228033
 10
-10.666588636
 20
2.4902377844
 10
-10.2588697301
 20
2.2146041083
 10
-9.8487874819
 20
1.9402137503
 10
-9.4363561176
 20
1.667075446
 10
-9.0215869554
 20
1.3951959961
 10
-8.6044883252
 20
1.1245803118
 10
-8.185071401
 20
0.8552352385
 10
-7.763350282
 20
0.5871695102
  0
LWPOLYLINE
  5
27D
100
AcDbEntity
  8
ASSI
100
AcDbPolyline
 62
250
  6
CONTINUOUS
 90
8
 70
0
 10
-11.1042390036
 20
2.9160590181
 10
-11.1336841086
 20
2.9383846664
 10
-11.159226185
 20
2.9622405212
 10
-11.1806265712
 20
2.9873999706
 10
-11.1976845284
 20
3.01362136
 10
-11.2102443822
 20
3.0406589461
 10
-11.2181924184
 20
3.0682659547
 10
-11.2213706624
 20
3.0954819542
  0
LWPOLYLINE
  5
27E
100
AcDbEntity
  8
ASSI
100
AcDbPolyline
 62
250
  6
CONTINUOUS
 90
7
 70
0
 10
-7.3942041095
 20
0.3547584985
 10
-7.4158564292
 20
0.3713727491
 10
-7.4367574948
 20
0.3953927817
 10
-7.4537931624
 20
0.4248287731
 10
-7.466603139
 20
0.4591395884
 10
-7.4741273098
 20
0.4970871563
 10
-7.4758711825
 20
0.5375971293
  0
LWPOLYLINE
  5
27F
100
AcDbEntity
  8
ASSI
100
AcDbPolyline
 62
250
  6
CONTINUOUS
 90
7
 70
0
 10
-11.0246058771
 20
2.7346499578
 10
-11.0416417415
 20
2.7482328969
 10
-11.063671862
 20
2.7730066619
 10
-11.0812009854
 20
2.8027170725
 10
-11.0939320502
 20
2.8368606346
 10
-11.1016493063
 20
2.8748587265
 10
-11.104221971
 20
2.9160674051
  0
LINE
  5
280
100
AcDbEntity
  8
ASSI
100
AcDbLine
 62
250
  6
CONTINUOUS
 10
-7.184046723
 20
0.0786564288
 11
-6.1283712053
 21
0.6909541412
  0
LINE
  5
281
100
AcDbEntity
  8
ASSI
100
AcDbLine
 62
250
  6
CONTINUOUS
 10
-6.91394524
 20
-0.3069969832
 11
-5.668422129
 21
0.4130265859
  0
LWPOLYLINE
  5
282
100
AcDbEntity
  8
ASSI
100
AcDbPolyline
 62
250
  6
CONTINUOUS
 90
16
 70
0
 10
-6.9139452402
 20
-0.306996982
 10
-6.9464772315
 20
-0.3235130069
 10
-6.9810939453
 20
-0.3392279601
 10
-7.0176640123
 20
-0.3539401137
 10
-7.0563113982
 20
-0.3672891386
 10
-7.0967508442
 20
-0.3792360631
 10
-7.138065537
 20
-0.3899482766
 10
-7.1797076499
 20
-0.3989107135
 10
-7.2215232292
 20
-0.4058861873
 10
-7.2628967293
 20
-0.4113566208
 10
-7.3032579307
 20
-0.4149349874
 10
-7.3422535373
 20
-0.4162836948
 10
-7.3794530539
 20
-0.415985833
 10
-7.414389371
 20
-0.4140479638
 10
-7.4466458838
 20
-0.4099112916
 10
-7.4758711825
 20
-0.4033640727
  0
LWPOLYLINE
  5
283
100
AcDbEntity
  8
ASSI
100
AcDbPolyline
 62
250
  6
CONTINUOUS
 90
16
 70
0
 10
-6.9139452402
 20
0.439311893
 10
-6.9464800086
 20
0.4228798101
 10
-6.9810995083
 20
0.4100526557
 10
-7.0176722622
 20
0.4006077424
 10
-7.056322242
 20
0.3942440554
 10
-7.0967640458
 20
0.3911440332
 10
-7.1380804703
 20
0.3917230041
 10
-7.1797234664
 20
0.3956809017
 10
-7.221539132
 20
0.4028422911
 10
-7.2629119063
 20
0.4135597161
 10
-7.3032715392
 20
0.4274484866
 10
-7.3422648796
 20
0.4441221502
 10
-7.3794617235
 20
0.463892398
 10
-7.4143951644
 20
0.4865508159
 10
-7.446648723
 20
0.5113115155
 10
-7.4758711825
 20
0.5375971293
  0
LINE
  5
284
100
AcDbEntity
  8
ASSI
100
AcDbLine
 62
250
  6
CONTINUOUS
 10
-4.6013863295
 20
-1.04514914
 11
-3.8942797688
 21
-1.1267565854
  0
LWPOLYLINE
  5
285
100
AcDbEntity
  8
ASSI
100
AcDbPolyline
 62
250
  6
CONTINUOUS
 90
8
 70
0
 10
-10.7965450307
 20
2.5319685471
 10
-10.8343889216
 20
2.5499252565
 10
-10.8715435825
 20
2.5620135596
 10
-10.9073734937
 20
2.5680265702
 10
-10.9412657491
 20
2.5678613122
 10
-10.9726406142
 20
2.5615204881
 10
-11.0009614248
 20
2.5491123945
 10
-11.0045544655
 20
2.5469637781
  0
LWPOLYLINE
  5
286
100
AcDbEntity
  8
ASSI
100
AcDbPolyline
 62
250
  6
CONTINUOUS
 90
9
 70
0
 10
-1.697547562
 20
-1.7305043338
 10
-2.2096636978
 20
-1.4480815738
 10
-2.7189032823
 20
-1.164003093
 10
-3.225256744
 20
-0.8782743622
 10
-3.7287076856
 20
-0.590904769
 10
-4.2292534499
 20
-0.3018959138
 10
-4.7269049375
 20
-0.0112415039
 10
-5.2216593791
 20
0.2810569252
 10
-5.7135005188
 20
0.5749899051
  0
LWPOLYLINE
  5
287
100
AcDbEntity
  8
ASSI
100
AcDbPolyline
 62
7
  6
CONTINUOUS
 90
22
 70
0
 10
-1.6144199001
 20
-1.9153378395
 10
-1.5932940278
 20
-1.9271492204
 10
-1.5214025809
 20
-1.9706558508
 10
-1.4480692684
 20
-2.0202679447
 10
-1.3737236464
 20
-2.0759894964
 10
-1.2989751325
 20
-2.1376260996
 10
-1.2245717809
 20
-2.2047550836
 10
-1.1510085748
 20
-2.2770898098
 10
-1.0787239707
 20
-2.3543528732
 10
-1.0083184653
 20
-2.4360138133
 10
-0.9402417956
 20
-2.5216330541
 10
-0.8748831874
 20
-2.6108025217
 10
-0.81268421
 20
-2.7029698708
 10
-0.7539862923
 20
-2.7976412645
 10
-0.6991176567
 20
-2.8942963142
 10
-0.6484313698
 20
-2.9922957337
 10
-0.6021697879
 20
-3.0910905581
 10
-0.5605280445
 20
-3.190161992
 10
-0.5237145005
 20
-3.2888866469
 10
-0.4918693948
 20
-3.3866622422
 10
-0.4650636454
 20
-3.4829264787
 10
-0.4591828305
 20
-3.5065765499
  0
LWPOLYLINE
  5
288
100
AcDbEntity
  8
ASSI
100
AcDbPolyline
 62
250
  6
CONTINUOUS
 90
19
 70
0
 10
-6.2024188847
 20
0.8705519086
 10
-6.2974986571
 20
0.9243574278
 10
-6.391201648
 20
0.9696893484
 10
-6.4835314627
 20
1.0065456243
 10
-6.5749890673
 20
1.0350393422
 10
-6.6650779817
 20
1.0550548875
 10
-6.7523100742
 20
1.0662447097
 10
-6.8365827562
 20
1.0684453686
 10
-6.9180114017
 20
1.0618132364
 10
-6.995443005
 20
1.0464759362
 10
-7.0688295986
 20
1.0223170945
 10
-7.1382351784
 20
0.9894442932
 10
-7.2026806122
 20
0.9483177929
 10
-7.26213593
 20
0.8987651974
 10
-7.3166476889
 20
0.840949846
 10
-7.3653560323
 20
0.7758330863
 10
-7.4079805695
 20
0.7037319434
 10
-7.4448171687
 20
0.6243209261
 10
-7.4758711825
 20
0.5375971293
  0
LWPOLYLINE
  5
289
100
AcDbEntity
  8
ASSI
100
AcDbPolyline
 62
250
  6
CONTINUOUS
 90
8
 70
0
 10
-1.6144860412
 20
-1.9152928805
 10
-1.61825173
 20
-1.9131432887
 10
-1.6417573738
 20
-1.8952271231
 10
-1.6615247482
 20
-1.8716814334
 10
-1.6772173234
 20
-1.8429070733
 10
-1.688567941
 20
-1.8093939124
 10
-1.6953833622
 20
-1.7717124958
 10
-1.6975475578
 20
-1.7305043312
  0
LINE
  5
28A
100
AcDbEntity
  8
ASSI
100
AcDbLine
 62
7
  6
CONTINUOUS
 10
-0.4814936026
 20
-3.4239235661
 11
-4.6013863295
 21
-1.04514914
  0
LINE
  5
28B
100
AcDbEntity
  8
ASSI
100
AcDbLine
 62
7
  6
CONTINUOUS
 10
-0.6429294214
 20
-3.004045527
 11
-3.8942797688
 21
-1.1267565854
  0
LINE
  5
28C
100
AcDbEntity
  8
ASSI
100
AcDbLine
 62
250
  6
CONTINUOUS
 10
-5.7135005188
 20
0.5749899051
 11
-6.2024188847
 21
0.8705519086
  0
LWPOLYLINE
  5
28D
100
AcDbEntity
  8
ASSI
100
AcDbPolyline
 62
7
  6
CONTINUOUS
 90
10
 70
0
 10
-6.120116456
 20
0.6862077334
 10
-5.6704779456
 20
0.4142561754
 10
-5.1668021341
 20
0.1130063049
 10
-4.6600504385
 20
-0.1865368955
 10
-4.1502425047
 20
-0.484361326
 10
-3.6373952026
 20
-0.7804572128
 10
-3.1215241795
 20
-1.0748156483
 10
-2.6026465845
 20
-1.3674270183
 10
-2.0807836008
 20
-1.6582801006
 10
-1.6144860412
 20
-1.9152928805
  0
LWPOLYLINE
  5
28E
100
AcDbEntity
  8
ASSI
100
AcDbPolyline
 62
7
  6
CONTINUOUS
 90
14
 70
0
 10
-3.8942797688
 20
-1.1267565854
 10
-3.9864234475
 20
-1.0703252832
 10
-4.0778042151
 20
-1.0078564584
 10
-4.1684220717
 20
-0.939350111
 10
-4.2587152876
 20
-0.8644374689
 10
-4.3482455925
 20
-0.7834873041
 10
-4.4356981754
 20
-0.6976059327
 10
-4.5209487873
 20
-0.6067937632
 10
-4.6041216772
 20
-0.511050387
 10
-4.6842747815
 20
-0.4114808945
 10
-4.7613625746
 20
-0.3080607466
 10
-4.835430582
 20
-0.2008144823
 10
-4.9056733169
 20
-0.0909208093
 10
-4.9505343955
 20
-0.0148305254
  0
LWPOLYLINE
  5
28F
100
AcDbEntity
  8
ASSI
100
AcDbPolyline
 62
250
  6
CONTINUOUS
 90
13
 70
0
 10
4.1705724446
 20
-6.1098575542
 10
4.2065277531
 20
-6.1345118866
 10
4.2419102548
 20
-6.1643062995
 10
4.276114721
 20
-6.1987311501
 10
4.3085560737
 20
-6.2371975908
 10
4.3386793937
 20
-6.2790476414
 10
4.3659694125
 20
-6.3235654437
 10
4.3899593254
 20
-6.3699895073
 10
4.4102387781
 20
-6.417525734
 10
4.4264608849
 20
-6.4653610016
 10
4.4383481623
 20
-6.512677073
 10
4.4456972742
 20
-6.5586645923
 10
4.4483825119
 20
-6.6025369287
  0
LWPOLYLINE
  5
290
100
AcDbEntity
  8
ASSI
100
AcDbPolyline
 62
250
  6
CONTINUOUS
 90
7
 70
0
 10
-6.1201474058
 20
0.6862265572
 10
-6.1435623288
 20
0.7040524503
 10
-6.1644018295
 20
0.7282189742
 10
-6.1809492704
 20
0.7574889552
 10
-6.1929229257
 20
0.7913640619
 10
-6.2001189398
 20
0.8292675588
 10
-6.202414798
 20
0.8705541258
  0
LWPOLYLINE
  5
291
100
AcDbEntity
  8
ASSI
100
AcDbPolyline
 62
250
  6
CONTINUOUS
 90
7
 70
0
 10
-0.2630848367
 20
-3.7627656838
 10
-0.285976051
 20
-3.7453292021
 10
-0.3057250949
 20
-3.721973154
 10
-0.3211023835
 20
-3.6934941052
 10
-0.3317694875
 20
-3.6604207134
 10
-0.3383932623
 20
-3.6229941185
 10
-0.34134944
 20
-3.5817863082
  0
LWPOLYLINE
  5
292
100
AcDbEntity
  8
ASSI
100
AcDbPolyline
 62
250
  6
CONTINUOUS
 90
13
 70
0
 10
-5.9147720839
 20
-1.8167158125
 10
-5.9525230917
 20
-1.8405552632
 10
-5.9895893865
 20
-1.8695243881
 10
-6.0253399326
 20
-1.9031300019
 10
-6.0591660945
 20
-1.9407999855
 10
-6.0904919983
 20
-1.9818930259
 10
-6.1187843358
 20
-2.025709534
 10
-6.1435614437
 20
-2.0715035554
 10
-6.164401504
 20
-2.118495469
 10
-6.1809497247
 20
-2.1658852606
 10
-6.1929243806
 20
-2.212866142
 10
-6.2001216088
 20
-2.2586382868
 10
-6.2024188802
 20
-2.3024224465
  0
LINE
  5
293
100
AcDbEntity
  8
ASSI
100
AcDbLine
 62
250
  6
CONTINUOUS
 10
-4.6013863295
 20
-1.04514914
 11
-5.9146644676
 21
-1.816780166
  0
LINE
  5
294
100
AcDbEntity
  8
ASSI
100
AcDbLine
 62
7
  6
CONTINUOUS
 10
7.3214553501
 20
-4.2613758837
 11
7.4017187373
 21
-4.3077189576
  0
LWPOLYLINE
  5
295
100
AcDbEntity
  8
CURVE
100
AcDbPolyline
 62
250
  6
CONTINUOUS
 90
36
 70
0
 10
-2.7954793174
 20
5.1640087285
 10
-2.792707011
 20
5.1592043821
 10
-2.7898727982
 20
5.154458257
 10
-2.7869774246
 20
5.1497685423
 10
-2.7840216359
 20
5.145133427
 10
-2.7810061776
 20
5.1405511001
 10
-2.7779317954
 20
5.1360197506
 10
-2.7747992348
 20
5.1315375677
 10
-2.7716095646
 20
5.1271034716
 10
-2.7683651464
 20
5.1227193068
 10
-2.7650686648
 20
5.1183876492
 10
-2.7617228046
 20
5.1141110747
 10
-2.7583302505
 20
5.109892159
 10
-2.7548936873
 20
5.1057334781
 10
-2.7514157996
 20
5.1016376077
 10
-2.7478990241
 20
5.0976069083
 10
-2.7443448051
 20
5.0936428789
 10
-2.7407543387
 20
5.0897468033
 10
-2.7371288211
 20
5.0859199651
 10
-2.7334694485
 20
5.082163648
 10
-2.7297774169
 20
5.0784791357
 10
-2.7260539226
 20
5.074867712
 10
-2.7223002117
 20
5.0713308593
 10
-2.71851773
 20
5.0678708564
 10
-2.7147079734
 20
5.0644901804
 10
-2.7108724376
 20
5.061191309
 10
-2.7070126184
 20
5.0579767194
 10
-2.7031300117
 20
5.0548488892
 10
-2.6992261133
 20
5.0518102958
 10
-2.6953020722
 20
5.0488634513
 10
-2.6913576501
 20
5.0460110064
 10
-2.6873922619
 20
5.0432556466
 10
-2.6834053226
 20
5.0406000573
 10
-2.6793962472
 20
5.038046924
 10
-2.6753644505
 20
5.0355989322
 10
-2.6713093476
 20
5.0332587672
  0
LINE
  5
296
100
AcDbEntity
  8
CURVE
100
AcDbLine
 62
250
  6
CONTINUOUS
 10
-3.4365911618
 20
6.2993390089
 11
-2.7954793174
 21
5.1640087285
  0
LINE
  5
297
100
AcDbEntity
  8
CURVE
100
AcDbLine
 62
250
  6
CONTINUOUS
 10
-3.7572458415
 20
6.872737959
 11
-3.4365911618
 21
6.2993390089
  0
LWPOLYLINE
  5
298
100
AcDbEntity
  8
ASSI
100
AcDbPolyline
 62
250
  6
CONTINUOUS
 90
8
 70
0
 10
-0.4591171991
 20
-3.5068180687
 10
-0.455687287
 20
-3.5168422199
 10
-0.44675945
 20
-3.5314130839
 10
-0.4334886583
 20
-3.5449175623
 10
-0.4161099192
 20
-3.5566596926
 10
-0.3948093867
 20
-3.5664706929
 10
-0.3697836748
 20
-3.5747823389
 10
-0.34134944
 20
-3.5817863082
  0
LWPOLYLINE
  5
299
100
AcDbEntity
  8
ASSI
100
AcDbPolyline
 62
250
  6
CONTINUOUS
 90
18
 70
0
 10
-0.3747378174
 20
-3.4579437085
 10
-0.4143299238
 20
-3.3344717967
 10
-0.4601207485
 20
-3.2113674513
 10
-0.5124134366
 20
-3.0879551158
 10
-0.5708902051
 20
-2.964901356
 10
-0.6346154611
 20
-2.8442167207
 10
-0.7036292949
 20
-2.726014543
 10
-0.7778758852
 20
-2.6101718885
 10
-0.8562801344
 20
-2.4983475292
 10
-0.9388877575
 20
-2.390592283
 10
-1.025637804
 20
-2.2868461366
 10
-1.1153008598
 20
-2.1886050467
 10
-1.2079902588
 20
-2.0958885083
 10
-1.3035802712
 20
-2.008669662
 10
-1.4004906794
 20
-1.9283796232
 10
-1.4981950685
 20
-1.8554956758
 10
-1.597215249
 20
-1.7895379404
 10
-1.697547562
 20
-1.7305043338
  0
LINE
  5
29A
100
AcDbEntity
  8
ASSI
100
AcDbLine
 62
250
  6
CONTINUOUS
 10
-0.34134944
 20
-3.5817863082
 11
-0.3747378174
 21
-3.4579437085
  0
LINE
  5
29B
100
AcDbEntity
  8
ASSI
100
AcDbLine
 62
7
  6
CONTINUOUS
 10
-0.4591490081
 20
-3.5066869817
 11
-0.4591171991
 21
-3.5068180687
  0
LWPOLYLINE
  5
29C
100
AcDbEntity
  8
ASSI
100
AcDbPolyline
 62
250
  6
CONTINUOUS
 90
11
 70
0
 10
-0.450517557
 20
-4.2277099421
 10
-0.456057334
 20
-4.2480681617
 10
-0.4603907859
 20
-4.2785722841
 10
-0.4602291721
 20
-4.3097842009
 10
-0.4556847703
 20
-4.3417658666
 10
-0.4467556503
 20
-4.3738022214
 10
-0.4334841039
 20
-4.4053273265
 10
-0.4161052628
 20
-4.4365402407
 10
-0.3948053827
 20
-4.4670705058
 10
-0.3697812023
 20
-4.4960053578
 10
-0.34134944
 20
-4.5227475102
  0
LINE
  5
29D
100
AcDbEntity
  8
ASSI
100
AcDbLine
 62
7
  6
CONTINUOUS
 10
-0.4504759203
 20
-4.2275829386
 11
-0.450517557
 21
-4.2277099421
  0
LWPOLYLINE
  5
29E
100
AcDbEntity
  8
ASSI
100
AcDbPolyline
 62
7
  6
CONTINUOUS
 90
9
 70
0
 10
-0.4505748429
 20
-4.2278449932
 10
-0.4562632501
 20
-4.2444550333
 10
-0.4764782329
 20
-4.2942993018
 10
-0.4994896575
 20
-4.338799968
 10
-0.5247077783
 20
-4.3773576805
 10
-0.55188619
 20
-4.4102526231
 10
-0.5815610956
 20
-4.4383814441
 10
-0.6142451182
 20
-4.4620223487
 10
-0.6224200376
 20
-4.4669369366
  0
LWPOLYLINE
  5
29F
100
AcDbEntity
  8
CURVE
100
AcDbPolyline
 62
250
  6
CONTINUOUS
 90
10
 70
0
 10
-6.2980336608
 20
6.1631063343
 10
-5.8281122452
 20
5.878311001
 10
-5.3555582224
 20
5.5949882415
 10
-4.8803798707
 20
5.3131430731
 10
-4.4025854681
 20
5.0327805129
 10
-3.9221832928
 20
4.7539055782
 10
-3.4945679905
 20
4.508179742
 10
-3.0649199683
 20
4.2636278892
 10
-2.6332452616
 20
4.0202533394
 10
-2.1995499059
 20
3.7780594126
  0
LINE
  5
2A0
100
AcDbEntity
  8
CURVE
100
AcDbLine
 62
250
  6
CONTINUOUS
 10
-2.5385575491
 20
5.3123245077
 11
-2.9860177825
 21
6.1011469716
  0
LINE
  5
2A1
100
AcDbEntity
  8
CURVE
100
AcDbLine
 62
250
  6
CONTINUOUS
 10
-2.9860177825
 20
6.1011469716
 11
-3.2097223708
 21
6.4982064713
  0
LWPOLYLINE
  5
2A2
100
AcDbEntity
  8
ASSI
100
AcDbPolyline
 62
250
  6
CONTINUOUS
 90
10
 70
0
 10
4.1001588771
 20
-23.0115594386
 10
4.0330788106
 20
-21.1458198875
 10
3.9748333952
 20
-19.3058799523
 10
3.9250433292
 20
-17.4920161357
 10
3.8837687491
 20
-15.7248460103
 10
3.8500505442
 20
-13.9843772833
 10
3.8227034306
 20
-12.2095298326
 10
3.8018933968
 20
-10.3796329517
 10
3.7883440094
 20
-8.5149040874
 10
3.7824292265
 20
-6.6151653831
  0
LINE
  5
2A3
100
AcDbEntity
  8
ASSI
100
AcDbLine
 62
7
  6
CONTINUOUS
 10
1.673470432
 20
16.5534806357
 11
1.694804811
 21
15.9332552877
  0
LWPOLYLINE
  5
2A4
100
AcDbEntity
  8
ASSI
100
AcDbPolyline
 62
250
  6
CONTINUOUS
 90
19
 70
0
 10
4.1001588925
 20
11.0800011146
 10
4.1058088352
 20
11.1634484216
 10
4.1170320029
 20
11.2493871615
 10
4.1337568447
 20
11.3372372201
 10
4.15588624
 20
11.4263913001
 10
4.183269544
 20
11.5162596874
 10
4.2157078689
 20
11.6062747929
 10
4.2530084721
 20
11.6958316981
 10
4.2949300471
 20
11.7843156543
 10
4.3411583934
 20
11.8711473305
 10
4.3914088862
 20
11.9557318884
 10
4.4453602945
 20
12.0374913111
 10
4.5026045643
 20
12.1158926953
 10
4.5627801752
 20
12.1903908232
 10
4.6255075677
 20
12.2604778293
 10
4.6903240903
 20
12.3257134385
 10
4.756798679
 20
12.3856572894
 10
4.8245335699
 20
12.4398739765
 10
4.8931003732
 20
12.4879810723
  0
LWPOLYLINE
  5
2A5
100
AcDbEntity
  8
ASSI
100
AcDbPolyline
 62
250
  6
CONTINUOUS
 90
13
 70
0
 10
-0.0729090168
 20
-4.0272253594
 10
-0.1092028729
 20
-4.0527611288
 10
-0.1434675364
 20
-4.0830496328
 10
-0.1759316299
 20
-4.1175686125
 10
-0.2072129871
 20
-4.1560395535
 10
-0.2367713954
 20
-4.1982406706
 10
-0.2630419994
 20
-4.2433301291
 10
-0.285971893
 20
-4.289897062
 10
-0.305722048
 20
-4.3373885999
 10
-0.3211004363
 20
-4.3855400609
 10
-0.3317685131
 20
-4.43340681
 10
-0.3383929732
 20
-4.4795236201
 10
-0.34134944
 20
-4.5227475102
  0
LWPOLYLINE
  5
2A6
100
AcDbEntity
  8
ASSI
100
AcDbPolyline
 62
250
  6
CONTINUOUS
 90
13
 70
0
 10
-1.424644103
 20
-4.409249244
 10
-1.4604759283
 20
-4.434197459
 10
-1.4956556758
 20
-4.4642566734
 10
-1.5295843983
 20
-4.4989151185
 10
-1.5616844474
 20
-4.5375827225
 10
-1.5914093088
 20
-4.579601156
 10
-1.6182529068
 20
-4.6242550406
 10
-1.6417582199
 20
-4.6707841284
 10
-1.6615250621
 20
-4.7183962458
 10
-1.677216896
 20
-4.76628078
 10
-1.6885665628
 20
-4.8136224805
 10
-1.6953808304
 20
-4.8596153385
 10
-1.6975436836
 20
-4.9034763096
  0
LINE
  5
2A7
100
AcDbEntity
  8
ASSI
100
AcDbLine
 62
7
  6
CONTINUOUS
 10
-0.0508841495
 20
-3.8752884897
 11
-0.2749737555
 21
-4.0086227106
  0
LINE
  5
2A8
100
AcDbEntity
  8
ASSI
100
AcDbLine
 62
250
  6
CONTINUOUS
 10
0.0725745356
 20
-3.9406622462
 11
-0.0729090132
 21
-4.0272253613
  0
LINE
  5
2A9
100
AcDbEntity
  8
ASSI
100
AcDbLine
 62
7
  6
CONTINUOUS
 10
-0.6224596974
 20
-4.4669744013
 11
-0.6200715305
 21
-4.4655692444
  0
LINE
  5
2AA
100
AcDbEntity
  8
ASSI
100
AcDbLine
 62
250
  6
CONTINUOUS
 10
-0.2926357432
 20
-3.7442274321
 11
-1.4247570274
 21
-4.4091964817
  0
LWPOLYLINE
  5
2AB
100
AcDbEntity
  8
ASSI
100
AcDbPolyline
 62
250
  6
CONTINUOUS
 90
9
 70
0
 10
-0.2749737556
 20
-4.0086227106
 10
-0.2643233592
 20
-4.002924551
 10
-0.2412285576
 20
-3.9943564462
 10
-0.2162240155
 20
-3.9897920616
 10
-0.1895893172
 20
-3.9892823662
 10
-0.1616223691
 20
-3.9928330046
 10
-0.1326359467
 20
-4.0004042027
 10
-0.1029541895
 20
-4.0119112333
 10
-0.0729090168
 20
-4.0272253594
  0
LWPOLYLINE
  5
2AC
100
AcDbEntity
  8
CURVE
100
AcDbPolyline
 62
250
  6
CONTINUOUS
 90
87
 70
0
 10
-2.1995491726
 20
3.7781011609
 10
-2.1936193741
 20
3.7749315077
 10
-2.1877573161
 20
3.7720467019
 10
-2.1819451585
 20
3.7694305664
 10
-2.1761650608
 20
3.7670669238
 10
-2.170399183
 20
3.7649395971
 10
-2.1631920098
 20
3.7625945507
 10
-2.1559884712
 20
3.7606005016
 10
-2.1487978586
 20
3.7589644803
 10
-2.1416294637
 20
3.7576935176
 10
-2.1344949429
 20
3.7567943206
 10
-2.1274154124
 20
3.756272304
 10
-2.1204143536
 20
3.7561325588
 10
-2.1135152476
 20
3.7563801763
 10
-2.1080841564
 20
3.7568610368
 10
-2.1027394136
 20
3.7575983389
 10
-2.0974870896
 20
3.7585973538
 10
-2.0923332549
 20
3.7598633525
 10
-2.0872839801
 20
3.7614016062
 10
-2.0823464165
 20
3.7632166335
 10
-2.0775320381
 20
3.7653099432
 10
-2.0728533999
 20
3.7676822915
 10
-2.0683230568
 20
3.7703344347
 10
-2.0639535639
 20
3.773267129
 10
-2.0597558737
 20
3.7764800063
 10
-2.0557345297
 20
3.7799682009
 10
-2.0518924733
 20
3.7837257227
 10
-2.0482326456
 20
3.7877465815
 10
-2.0447579879
 20
3.7920247871
 10
-2.0414715767
 20
3.7965542427
 10
-2.0383770293
 20
3.8013284238
 10
-2.0354780984
 20
3.8063406994
 10
-2.0327785365
 20
3.8115844383
 10
-2.0302820962
 20
3.8170530092
 10
-2.0279925134
 20
3.8227389792
 10
-2.0259134567
 20
3.8286317069
 10
-2.0240485782
 20
3.8347197493
 10
-2.0224015299
 20
3.8409916631
 10
-2.0209759636
 20
3.8474360053
 10
-2.0196555652
 20
3.8547860319
 10
-2.0186142761
 20
3.8623271105
 10
-2.0178532622
 20
3.8700515463
 10
-2.0173736897
 20
3.8779516442
 10
-2.0171767244
 20
3.8860197093
 10
-2.0172635324
 20
3.8942480465
 10
-2.0176352797
 20
3.9026289609
 10
-2.0182931322
 20
3.9111547575
 10
-2.019238256
 20
3.9198177412
 10
-2.020470823
 20
3.9286080271
 10
-2.0219870289
 20
3.9375069703
 10
-2.0237820755
 20
3.9464937359
 10
-2.0258511644
 20
3.955547489
 10
-2.0281894973
 20
3.9646473947
 10
-2.0307922759
 20
3.973772618
 10
-2.0336547018
 20
3.9829023241
 10
-2.0367719768
 20
3.992015678
 10
-2.0401393025
 20
4.0010918449
 10
-2.0433799854
 20
4.0092129198
 10
-2.0468173985
 20
4.0172810464
 10
-2.0504496174
 20
4.025290274
 10
-2.0542747178
 20
4.0332346521
 10
-2.0582907753
 20
4.04110823
 10
-2.0624938159
 20
4.0489031488
 10
-2.066871667
 20
4.056603915
 10
-2.0714101062
 20
4.0641931271
 10
-2.0760949113
 20
4.0716533832
 10
-2.0809118598
 20
4.0789672817
 10
-2.0850191762
 20
4.0849419229
 10
-2.0892152144
 20
4.0908172596
 10
-2.0935068065
 20
4.0966077091
 10
-2.0978967115
 20
4.1023217009
 10
-2.1023713952
 20
4.1079437122
 10
-2.1069132504
 20
4.1134522325
 10
-2.1124303788
 20
4.1198873613
 10
-2.1180066157
 20
4.1261209141
 10
-2.1236296971
 20
4.1321457174
 10
-2.1292873591
 20
4.1379545977
 10
-2.1349673377
 20
4.1435403815
 10
-2.1420827013
 20
4.1502004716
 10
-2.1492059637
 20
4.1565018636
 10
-2.1563293166
 20
4.1624456563
 10
-2.1634449515
 20
4.1680329488
 10
-2.1691304928
 20
4.1722477534
 10
-2.1748251253
 20
4.1762411386
 10
-2.1805478771
 20
4.1800191415
 10
-2.1863177764
 20
4.1835877998
 10
-2.1921538513
 20
4.1869531506
  0
LWPOLYLINE
  5
2AD
100
AcDbEntity
  8
CURVE
100
AcDbPolyline
 62
250
  6
CONTINUOUS
 90
71
 70
0
 10
-2.6713093476
 20
5.0332587672
 10
-2.6652767008
 20
5.0299867534
 10
-2.6593241529
 20
5.0269928751
 10
-2.6534341857
 20
5.0242631774
 10
-2.647589281
 20
5.0217837054
 10
-2.6417719208
 20
5.0195405042
 10
-2.6359681575
 20
5.0175230218
 10
-2.630178326
 20
5.0157343184
 10
-2.624406332
 20
5.014180857
 10
-2.6186560809
 20
5.0128691007
 10
-2.6129314784
 20
5.0118055126
 10
-2.6072379963
 20
5.0109961211
 10
-2.6015873718
 20
5.0104452155
 10
-2.5959929086
 20
5.0101566503
 10
-2.5904679102
 20
5.0101342803
 10
-2.5850256802
 20
5.01038196
 10
-2.5796783427
 20
5.0109028561
 10
-2.5744333034
 20
5.0116973837
 10
-2.5692967887
 20
5.0127652699
 10
-2.5642750249
 20
5.0141062419
 10
-2.5593742382
 20
5.0157200268
 10
-2.5546005097
 20
5.0176059197
 10
-2.5499593388
 20
5.0197614873
 10
-2.54545608
 20
5.0221838642
 10
-2.5410960873
 20
5.0248701849
 10
-2.5368847152
 20
5.027817584
 10
-2.5328267951
 20
5.0310229734
 10
-2.5289250681
 20
5.034482374
 10
-2.5251817524
 20
5.038191584
 10
-2.5215990663
 20
5.0421464015
 10
-2.5181792281
 20
5.0463426247
 10
-2.5149252076
 20
5.0507753707
 10
-2.5118429807
 20
5.0554370319
 10
-2.5089392746
 20
5.0603193198
 10
-2.5062208167
 20
5.0654139457
 10
-2.5036943344
 20
5.070712621
 10
-2.501365945
 20
5.0762058075
 10
-2.4992393265
 20
5.0818789684
 10
-2.4973175467
 20
5.0877163174
 10
-2.4956036736
 20
5.0937020682
 10
-2.4941007752
 20
5.0998204343
 10
-2.4928113939
 20
5.1060582009
 10
-2.4917359703
 20
5.1124124385
 10
-2.4908744194
 20
5.1188827889
 10
-2.4902266563
 20
5.1254688941
 10
-2.4897925961
 20
5.1321703961
 10
-2.4895717165
 20
5.1389858332
 10
-2.4895617462
 20
5.1459093301
 10
-2.4897599767
 20
5.1529339082
 10
-2.4901636993
 20
5.1600525888
 10
-2.4907702054
 20
5.167258393
 10
-2.4915765322
 20
5.1745434935
 10
-2.4925786995
 20
5.1818966688
 10
-2.493772473
 20
5.1893058486
 10
-2.4951536183
 20
5.1967589628
 10
-2.496717901
 20
5.204243941
 10
-2.4984605786
 20
5.2117479213
 10
-2.5003748761
 20
5.2192548734
 10
-2.5024535105
 20
5.2267479755
 10
-2.5046891987
 20
5.2342104055
 10
-2.5070746576
 20
5.2416253416
 10
-2.5096032513
 20
5.2489784284
 10
-2.5122709332
 20
5.2562651776
 10
-2.5150743035
 20
5.2634835678
 10
-2.5180099627
 20
5.2706315772
 10
-2.5210745113
 20
5.2777071844
 10
-2.5242673172
 20
5.2847115363
 10
-2.5275988184
 20
5.2916584545
 10
-2.5310822205
 20
5.2985649291
 10
-2.5347307288
 20
5.3054479501
 10
-2.5385575491
 20
5.3123245077
  0
LWPOLYLINE
  5
2AE
100
AcDbEntity
  8
CURVE
100
AcDbPolyline
 62
250
  6
CONTINUOUS
 90
10
 70
0
 10
-2.1921546915
 20
4.1869079945
 10
-2.6258191731
 20
4.4291206391
 10
-3.0574718268
 20
4.6725085588
 10
-3.4871066173
 20
4.9170684336
 10
-3.9147175089
 20
5.1627969437
 10
-4.3602609169
 20
5.4213292755
 10
-4.8035723915
 20
5.6811350952
 10
-5.2446453334
 20
5.9422104027
 10
-5.6834731427
 20
6.2045511981
 10
-6.1200492201
 20
6.4681534817
  0
LWPOLYLINE
  5
2AF
100
AcDbEntity
  8
CURVE
100
AcDbPolyline
 62
250
  6
CONTINUOUS
 90
89
 70
0
 10
-2.214683748
 20
8.17031931
 10
-2.2101512162
 20
8.1633905184
 10
-2.2055428766
 20
8.156654755
 10
-2.200846396
 20
8.1500881778
 10
-2.1960494416
 20
8.1436669452
 10
-2.1911396804
 20
8.1373672153
 10
-2.1848298001
 20
8.1296373098
 10
-2.1783287678
 20
8.1220747256
 10
-2.1716409623
 20
8.1146941889
 10
-2.1647707625
 20
8.1075104259
 10
-2.1577240117
 20
8.1005398107
 10
-2.1505124114
 20
8.093805309
 10
-2.1431491274
 20
8.0873315344
 10
-2.1356473257
 20
8.0811431004
 10
-2.1305777198
 20
8.077189209
 10
-2.1254685899
 20
8.0733866911
 10
-2.1203361242
 20
8.0697491627
 10
-2.11519163
 20
8.066287491
 10
-2.1100268918
 20
8.0630015477
 10
-2.1048288135
 20
8.0598884553
 10
-2.0985355215
 20
8.0563792074
 10
-2.0921938332
 20
8.0531238543
 10
-2.085822221
 20
8.0501315287
 10
-2.0794391568
 20
8.0474113631
 10
-2.0730631128
 20
8.0449724903
 10
-2.0667108074
 20
8.0428223093
 10
-2.0603919442
 20
8.0409612849
 10
-2.0541144729
 20
8.0393881484
 10
-2.0478863433
 20
8.0381016312
 10
-2.0417155052
 20
8.0371004644
 10
-2.0356099012
 20
8.0363836996
 10
-2.0295774456
 20
8.035951669
 10
-2.0236260454
 20
8.0358050251
 10
-2.0177636077
 20
8.0359444203
 10
-2.0119980395
 20
8.036370507
 10
-2.0063381982
 20
8.0370830436
 10
-2.0007967419
 20
8.0380782127
 10
-1.9953872793
 20
8.0393513026
 10
-1.9901234187
 20
8.0408976017
 10
-1.9850187688
 20
8.0427123986
 10
-1.9800845112
 20
8.0447917491
 10
-1.9753221207
 20
8.0471347799
 10
-1.9707306453
 20
8.0497413851
 10
-1.9663091328
 20
8.0526114587
 10
-1.9620566312
 20
8.055744895
 10
-1.9579722891
 20
8.0591421024
 10
-1.9540556576
 20
8.0628055463
 10
-1.9503063883
 20
8.0667382067
 10
-1.9467241329
 20
8.0709430635
 10
-1.9433085432
 20
8.0754230964
 10
-1.9400609682
 20
8.0801795127
 10
-1.9369895471
 20
8.0852064289
 10
-1.9341041162
 20
8.090496189
 10
-1.9314145121
 20
8.0960411369
 10
-1.9289305713
 20
8.1018336164
 10
-1.9270249754
 20
8.1068405057
 10
-1.9252756507
 20
8.1119871037
 10
-1.9236892156
 20
8.117246539
 10
-1.9222704017
 20
8.1225980589
 10
-1.9210163923
 20
8.1280453878
 10
-1.9199224836
 20
8.1335983686
 10
-1.9188164905
 20
8.1404107314
 10
-1.9179380631
 20
8.1473792108
 10
-1.9172909958
 20
8.1544936106
 10
-1.9168790825
 20
8.1617437344
 10
-1.9167061175
 20
8.1691193857
 10
-1.9167741552
 20
8.1766083792
 10
-1.9170782924
 20
8.1841905739
 10
-1.9176118861
 20
8.19184384
 10
-1.9183682935
 20
8.1995460475
 10
-1.9193408716
 20
8.2072750665
 10
-1.9203121163
 20
8.2137247125
 10
-1.9214275725
 20
8.2201904917
 10
-1.9226859463
 20
8.226685286
 10
-1.9248363191
 20
8.2364917446
 10
-1.9272870111
 20
8.2463260559
 10
-1.9300205099
 20
8.2561294351
 10
-1.9330225889
 20
8.2658736207
 10
-1.9362798435
 20
8.2755379822
 10
-1.9397788687
 20
8.2851018893
 10
-1.9435070037
 20
8.2945464896
 10
-1.9474545635
 20
8.3038600439
 10
-1.9516126069
 20
8.3130325914
 10
-1.955972193
 20
8.322054171
 10
-1.9596023152
 20
8.3291599691
 10
-1.9633712307
 20
8.3361812237
 10
-1.9672944677
 20
8.3431363854
 10
-1.9713875544
 20
8.3500439051
 10
-1.9756660191
 20
8.3569222336
  0
LWPOLYLINE
  5
2B0
100
AcDbEntity
  8
CURVE
100
AcDbPolyline
 62
250
  6
CONTINUOUS
 90
49
 70
0
 10
-3.6465020031
 20
11.0216497683
 10
-3.6503656671
 20
11.0277571384
 10
-3.654283709
 20
11.033706575
 10
-3.6582618554
 20
11.0395123689
 10
-3.6623058328
 20
11.0451888113
 10
-3.6664213678
 20
11.050750193
 10
-3.6706141867
 20
11.0562108051
 10
-3.6748889746
 20
11.0615820601
 10
-3.6792462496
 20
11.0668638562
 10
-3.6836854885
 20
11.0720532134
 10
-3.6882061677
 20
11.0771471514
 10
-3.692807764
 20
11.0821426901
 10
-3.6974897539
 20
11.0870368492
 10
-3.7022504035
 20
11.0918255741
 10
-3.7070831369
 20
11.0965005118
 10
-3.7119801673
 20
11.1010522346
 10
-3.7169337083
 20
11.1054713153
 10
-3.7219359732
 20
11.1097483261
 10
-3.7269791755
 20
11.1138738396
 10
-3.7320559661
 20
11.1178391387
 10
-3.7371607456
 20
11.1216383479
 10
-3.7422883523
 20
11.1252663022
 10
-3.7474336243
 20
11.1287178364
 10
-3.7525913998
 20
11.1319877856
 10
-3.757756517
 20
11.1350709847
 10
-3.7629240662
 20
11.1379631888
 10
-3.768090146
 20
11.1406638337
 10
-3.7732511071
 20
11.1431732756
 10
-3.7784033003
 20
11.1454918706
 10
-3.7835430765
 20
11.1476199746
 10
-3.7886667862
 20
11.1495579438
 10
-3.7937701648
 20
11.1513060529
 10
-3.7988464853
 20
11.1528642517
 10
-3.8038884054
 20
11.1542324087
 10
-3.8088885825
 20
11.1554103923
 10
-3.8138396742
 20
11.1563980709
 10
-3.8187343381
 20
11.157195313
 10
-3.8235662132
 20
11.1578023012
 10
-3.8283328647
 20
11.1582204752
 10
-3.8330328389
 20
11.1584515886
 10
-3.8376646826
 20
11.1584973951
 10
-3.842226942
 20
11.1583596486
 10
-3.8467181639
 20
11.1580401027
 10
-3.8511381863
 20
11.157538949
 10
-3.8554920136
 20
11.1568501303
 10
-3.8597859418
 20
11.1559660273
 10
-3.864026267
 20
11.1548790206
 10
-3.8682192851
 20
11.1535814909
 10
-3.8723712921
 20
11.1520658188
  0
LINE
  5
2B1
100
AcDbEntity
  8
CURVE
100
AcDbLine
 62
250
  6
CONTINUOUS
 10
-1.9756660191
 20
8.3569222336
 11
-2.530092123
 21
9.2318757849
  0
LINE
  5
2B2
100
AcDbEntity
  8
CURVE
100
AcDbLine
 62
250
  6
CONTINUOUS
 10
-2.7321434201
 20
8.9884747478
 11
-2.214683748
 21
8.17031931
  0
LINE
  5
2B3
100
AcDbEntity
  8
CURVE
100
AcDbLine
 62
250
  6
CONTINUOUS
 10
-2.530092123
 20
9.2318757849
 11
-3.0870614263
 21
10.1201184975
  0
LINE
  5
2B4
100
AcDbEntity
  8
CURVE
100
AcDbLine
 62
250
  6
CONTINUOUS
 10
-3.2518433849
 20
9.818267218
 11
-2.7321434201
 21
8.9884747478
  0
LINE
  5
2B5
100
AcDbEntity
  8
CURVE
100
AcDbLine
 62
250
  6
CONTINUOUS
 10
-3.0870614263
 20
10.1201184975
 11
-3.6465020031
 21
11.0216497683
  0
LINE
  5
2B6
100
AcDbEntity
  8
CURVE
100
AcDbLine
 62
250
  6
CONTINUOUS
 10
-3.7737136915
 20
10.659682539
 11
-3.2518433849
 21
9.818267218
  0
LWPOLYLINE
  5
2B7
100
AcDbEntity
  8
ASSI
100
AcDbPolyline
 62
250
  6
CONTINUOUS
 90
10
 70
0
 10
4.7728505917
 20
-22.9862499608
 10
4.7049867626
 20
-21.121180492
 10
4.6453791902
 20
-19.2825142283
 10
4.5940278743
 20
-17.4702511697
 10
4.5513372172
 20
-15.7047099532
 10
4.5169028168
 20
-13.9655719417
 10
4.4895114664
 20
-12.1918812248
 10
4.4687587639
 20
-10.3633191654
 10
4.4550491115
 20
-8.5002044005
 10
4.4483825092
 20
-6.6025369302
  0
LWPOLYLINE
  5
2B8
100
AcDbEntity
  8
ASSI
100
AcDbPolyline
 62
250
  6
CONTINUOUS
 90
10
 70
0
 10
4.4483825562
 20
-5.6688352398
 10
4.4528550719
 20
-3.9707299261
 10
4.4646173739
 20
-2.2421505737
 10
4.4836694621
 20
-0.4830971826
 10
4.509204555
 20
1.2931241338
 10
4.5420294343
 20
3.099819489
 10
4.5845644444
 20
4.976907223
 10
4.6376163669
 20
6.9376934494
 10
4.7003784204
 20
8.9688720547
 10
4.7728506048
 20
11.070443039
  0
LWPOLYLINE
  5
2B9
100
AcDbEntity
  8
ASSI
100
AcDbPolyline
 62
250
  6
CONTINUOUS
 90
10
 70
0
 10
3.7824292453
 20
-5.6793165984
 10
3.787315574
 20
-3.979294809
 10
3.7987336881
 20
-2.2489527665
 10
3.8169830182
 20
-0.4881527394
 10
3.8421547245
 20
1.2901969393
 10
3.8746682218
 20
3.0992221259
 10
3.915776632
 20
4.978362338
 10
3.9666393117
 20
6.9411410622
 10
4.0278165925
 20
8.9748854856
 10
4.1001588819
 20
11.0800011161
  0
LWPOLYLINE
  5
2BA
100
AcDbEntity
  8
ASSI
100
AcDbPolyline
 62
250
  6
CONTINUOUS
 90
19
 70
0
 10
4.7728506048
 20
11.070443039
 10
4.7763897115
 20
11.1192580676
 10
4.7832111549
 20
11.1688798899
 10
4.7933149352
 20
11.2193085057
 10
4.8068115912
 20
11.2709201715
 10
4.823590584
 20
11.3233386309
 10
4.8433202964
 20
11.375435115
 10
4.8660600639
 20
11.4271780801
 10
4.891750551
 20
11.4785990699
 10
4.9198821339
 20
11.5286639465
 10
4.9505073194
 20
11.5773472936
 10
4.9835736008
 20
11.6246745275
 10
5.0184138328
 20
11.6696877591
 10
5.0550868443
 20
11.7123521077
 10
5.0935338065
 20
11.752702454
 10
5.1329110879
 20
11.7898855502
 10
5.172937478
 20
11.8236169806
 10
5.2138941873
 20
11.8541811609
 10
5.2557812159
 20
11.8815780912
  0
LWPOLYLINE
  5
2BB
100
AcDbEntity
  8
CURVE
100
AcDbPolyline
 62
250
  6
CONTINUOUS
 90
92
 70
0
 10
-1.4381683752
 20
5.5091205046
 10
-1.432101258
 20
5.5059274581
 10
-1.4261013865
 20
5.5030278667
 10
-1.4201496974
 20
5.5004049268
 10
-1.4142271279
 20
5.498041835
 10
-1.4083146149
 20
5.4959217878
 10
-1.402396724
 20
5.494031576
 10
-1.3964725348
 20
5.4923723672
 10
-1.3905447554
 20
5.4909489235
 10
-1.3846160938
 20
5.4897660068
 10
-1.3786892584
 20
5.4888283791
 10
-1.3727694129
 20
5.4881407224
 10
-1.3668715444
 20
5.4877073996
 10
-1.3610130956
 20
5.4875326936
 10
-1.3552115095
 20
5.4876208875
 10
-1.3494842288
 20
5.4879762642
 10
-1.3438474389
 20
5.4886028501
 10
-1.3383122954
 20
5.4895036451
 10
-1.3328886963
 20
5.4906813928
 10
-1.3275865398
 20
5.4921388364
 10
-1.3224157241
 20
5.4938787193
 10
-1.3173859359
 20
5.4959031855
 10
-1.3125060173
 20
5.498211981
 10
-1.3077845989
 20
5.5008042522
 10
-1.3032303116
 20
5.5036791458
 10
-1.2988517861
 20
5.5068358081
 10
-1.2946568354
 20
5.5102717842
 10
-1.290650002
 20
5.5139782123
 10
-1.2868350108
 20
5.5179446294
 10
-1.2832155866
 20
5.5221605722
 10
-1.2797954543
 20
5.5266155775
 10
-1.2765777746
 20
5.5313000846
 10
-1.2735634518
 20
5.5362081427
 10
-1.2707528262
 20
5.5413347036
 10
-1.268146238
 20
5.546674719
 10
-1.2657440274
 20
5.5522231405
 10
-1.2635470229
 20
5.5579739282
 10
-1.2615580065
 20
5.5639170746
 10
-1.2597802483
 20
5.5700415803
 10
-1.2582170185
 20
5.5763364463
 10
-1.2568715874
 20
5.5827906732
 10
-1.2556355087
 20
5.5901372097
 10
-1.2546733881
 20
5.5976616998
 10
-1.2539862593
 20
5.6053589347
 10
-1.2535751559
 20
5.6132237056
 10
-1.2534411114
 20
5.6212508034
 10
-1.2535851597
 20
5.6294350194
 10
-1.2540083343
 20
5.6377711446
 10
-1.2547116689
 20
5.6462539701
 10
-1.2556961971
 20
5.654878287
 10
-1.2568231839
 20
5.6627547111
 10
-1.2581773474
 20
5.6707249395
 10
-1.2597572603
 20
5.6787723878
 10
-1.2615614953
 20
5.6868804714
 10
-1.2635886249
 20
5.6950326059
 10
-1.265836179
 20
5.7032114623
 10
-1.2682975161
 20
5.7113967343
 10
-1.270964952
 20
5.7195673711
 10
-1.2738308024
 20
5.7277023218
 10
-1.2768873829
 20
5.7357805358
 10
-1.2795766402
 20
5.742458654
 10
-1.2824002902
 20
5.7490993767
 10
-1.2853656103
 20
5.7557193276
 10
-1.2884774586
 20
5.7623289783
 10
-1.2917310164
 20
5.7689141914
 10
-1.2951190456
 20
5.7754546774
 10
-1.2986336469
 20
5.7819309698
 10
-1.3022642759
 20
5.7883268943
 10
-1.3059997269
 20
5.7946270997
 10
-1.3098302625
 20
5.8008195759
 10
-1.3137520175
 20
5.8069056773
 10
-1.317762595
 20
5.8128900997
 10
-1.3218605927
 20
5.8187778193
 10
-1.3260485873
 20
5.8245749352
 10
-1.3303301504
 20
5.8302878271
 10
-1.3347055837
 20
5.8359187654
 10
-1.3391621096
 20
5.8414535827
 10
-1.3436836807
 20
5.8468740023
 10
-1.3491754892
 20
5.8532058641
 10
-1.3547260724
 20
5.8593396729
 10
-1.3603236484
 20
5.8652684269
 10
-1.3659564349
 20
5.8709851243
 10
-1.3716126499
 20
5.8764827633
 10
-1.3787004216
 20
5.8830384931
 10
-1.3857984155
 20
5.8892417201
 10
-1.3928986565
 20
5.8950931607
 10
-1.3999931694
 20
5.9005935314
 10
-1.4056630813
 20
5.90474244
 10
-1.4113428497
 20
5.9086728955
 10
-1.4170511013
 20
5.912390671
 10
-1.4228064628
 20
5.9159015399
 10
-1.4286275606
 20
5.9192112751
  0
LINE
  5
2BC
100
AcDbEntity
  8
CURVE
100
AcDbLine
 62
250
  6
CONTINUOUS
 10
-2.1507240524
 20
5.9024224544
 11
-1.4381699776
 21
5.5090500754
  0
LINE
  5
2BD
100
AcDbEntity
  8
CURVE
100
AcDbLine
 62
250
  6
CONTINUOUS
 10
-1.4286292627
 20
5.9191396931
 11
-2.141092678
 21
6.3125653557
  0
LWPOLYLINE
  5
2BE
100
AcDbEntity
  8
CURVE
100
AcDbPolyline
 62
250
  6
CONTINUOUS
 90
3
 70
0
 10
-2.141092678
 20
6.3125653557
 10
-2.8483464708
 20
6.7090514346
 10
-3.200011533
 20
6.9084376055
  0
LWPOLYLINE
  5
2BF
100
AcDbEntity
  8
CURVE
100
AcDbPolyline
 62
250
  6
CONTINUOUS
 90
3
 70
0
 10
-3.2097213962
 20
6.4982485736
 10
-2.8580378378
 20
6.2988732736
 10
-2.1507240524
 20
5.9024224544
  0
LINE
  5
2C0
100
AcDbEntity
  8
ASSI
100
AcDbLine
 62
250
  6
CONTINUOUS
 10
7.6845937731
 20
-3.927427444
 11
4.4483825562
 21
-5.6688352398
  0
LWPOLYLINE
  5
2C1
100
AcDbEntity
  8
ASSI
100
AcDbPolyline
 62
250
  6
CONTINUOUS
 90
16
 70
0
 10
4.4483825587
 20
-5.6688352385
 10
4.4115360498
 20
-5.687035838
 10
4.371791176
 20
-5.7030838153
 10
4.3295248149
 20
-5.7168280507
 10
4.2851406217
 20
-5.7281380891
 10
4.2390556333
 20
-5.7369094047
 10
4.1916952042
 20
-5.7430625136
 10
4.1435007778
 20
-5.746538784
 10
4.0949326296
 20
-5.7473035403
 10
4.0464552889
 20
-5.7453502614
 10
3.9985330952
 20
-5.7406984992
 10
3.9516114287
 20
-5.7333922006
 10
3.9061195793
 20
-5.723498115
 10
3.8624839987
 20
-5.7111066117
 10
3.8211229946
 20
-5.6963334664
 10
3.7824292467
 20
-5.6793165963
  0
LWPOLYLINE
  5
2C2
100
AcDbEntity
  8
CURVE
100
AcDbPolyline
 62
250
  6
CONTINUOUS
 90
40
 70
0
 10
-6.3850133137
 20
-8.4607391422
 10
-6.3876781488
 20
-8.4618335868
 10
-6.3902737218
 20
-8.4630366896
 10
-6.3928045055
 20
-8.464347684
 10
-6.3952749731
 20
-8.4657658033
 10
-6.3976895975
 20
-8.4672902809
 10
-6.4000520433
 20
-8.4689203873
 10
-6.4023627414
 20
-8.4706555412
 10
-6.404621314
 20
-8.4724951984
 10
-6.4068273837
 20
-8.4744388149
 10
-6.4089805727
 20
-8.4764858463
 10
-6.4110802178
 20
-8.4786354057
 10
-6.4131245132
 20
-8.4808852341
 10
-6.4151113673
 20
-8.4832327297
 10
-6.4170386887
 20
-8.4856752908
 10
-6.4189043859
 20
-8.4882103153
 10
-6.4207065239
 20
-8.4908351477
 10
-6.4224437938
 20
-8.4935469157
 10
-6.424115043
 20
-8.4963426935
 10
-6.4257191191
 20
-8.499219555
 10
-6.4272548696
 20
-8.5021745742
 10
-6.428879849
 20
-8.5055465434
 10
-6.4304182326
 20
-8.5090104203
 10
-6.4318692
 20
-8.5125652339
 10
-6.4332319307
 20
-8.5162100131
 10
-6.4345056043
 20
-8.5199437869
 10
-6.4356894004
 20
-8.5237655846
 10
-6.4367824986
 20
-8.5276744349
 10
-6.4377840785
 20
-8.5316693671
 10
-6.4386933196
 20
-8.53574941
 10
-6.4394317173
 20
-8.5394938373
 10
-6.4400923085
 20
-8.5433082382
 10
-6.4406727458
 20
-8.5471944329
 10
-6.4411706815
 20
-8.5511542419
 10
-6.4415837681
 20
-8.5551894855
 10
-6.4419096582
 20
-8.5593019839
 10
-6.442146004
 20
-8.5634935575
 10
-6.4422904582
 20
-8.5677660267
 10
-6.4423406732
 20
-8.5721212116
 10
-6.4422943014
 20
-8.5765609327
  0
LINE
  5
2C3
100
AcDbEntity
  8
CURVE
100
AcDbLine
 62
250
  6
CONTINUOUS
 10
-4.0545304095
 20
-7.5567784062
 11
-5.0893877099
 21
-7.9599980015
  0
LWPOLYLINE
  5
2C4
100
AcDbEntity
  8
CURVE
100
AcDbPolyline
 62
250
  6
CONTINUOUS
 90
3
 70
0
 10
-5.0893877099
 20
-7.9599980015
 10
-6.1257319655
 20
-8.3608964752
 10
-6.3850133137
 20
-8.4607391422
  0
LWPOLYLINE
  5
2C5
100
AcDbEntity
  8
CURVE
100
AcDbPolyline
 62
250
  6
CONTINUOUS
 90
3
 70
0
 10
-6.0992074673
 20
-8.8774069012
 10
-5.8584407618
 20
-8.7845537563
 10
-3.9352003276
 20
-8.0372256543
  0
LINE
  5
2C6
100
AcDbEntity
  8
ASSI
100
AcDbLine
 62
7
  6
CONTINUOUS
 10
7.1410713147
 20
13.0257407182
 11
7.6845937731
 21
6.333260205
  0
LINE
  5
2C7
100
AcDbEntity
  8
ASSI
100
AcDbLine
 62
7
  6
CONTINUOUS
 10
7.6845937731
 20
6.333260205
 11
7.6845937731
 21
-3.927427444
  0
LINE
  5
2C8
100
AcDbEntity
  8
ASSI
100
AcDbLine
 62
7
  6
CONTINUOUS
 10
7.6845937731
 20
-4.7975733979
 11
7.6845937731
 21
-15.058261047
  0
LINE
  5
2C9
100
AcDbEntity
  8
ASSI
100
AcDbLine
 62
7
  6
CONTINUOUS
 10
7.1410713147
 20
-22.3463554801
 11
7.6845937731
 21
-15.058261047
  0
LWPOLYLINE
  5
2CA
100
AcDbEntity
  8
ASSI
100
AcDbPolyline
 62
250
  6
CONTINUOUS
 90
13
 70
0
 10
4.0373823259
 20
-6.1128594796
 10
4.0039662186
 20
-6.1389456823
 10
3.9711582961
 20
-6.1701000056
 10
3.9395145447
 20
-6.205794486
 10
3.9095712222
 20
-6.2454242192
 10
3.8818357695
 20
-6.2883176111
 10
3.8567782111
 20
-6.3337477594
 10
3.8348231902
 20
-6.380944772
 10
3.816342772
 20
-6.4291088143
 10
3.8016501384
 20
-6.4774236636
 10
3.7909942809
 20
-6.5250705415
 10
3.7845557809
 20
-6.5712419896
 10
3.7824437494
 20
-6.6151555531
  0
LWPOLYLINE
  5
2CB
100
AcDbEntity
  8
ASSI
100
AcDbPolyline
 62
250
  6
CONTINUOUS
 90
8
 70
0
 10
4.3626270998
 20
-5.853523676
 10
4.3659658563
 20
-5.8516608459
 10
4.3899564046
 20
-5.8338546564
 10
4.4102366632
 20
-5.8103598177
 10
4.4264595759
 20
-5.7815781654
 10
4.4383475442
 20
-5.7480019777
 10
4.4456971415
 20
-5.7102055064
 10
4.4483825543
 20
-5.6688352409
  0
LINE
  5
2CC
100
AcDbEntity
  8
ASSI
100
AcDbLine
 62
250
  6
CONTINUOUS
 10
4.1705724446
 20
-6.1098575542
 11
7.4017187373
 21
-4.3077189576
  0
LINE
  5
2CD
100
AcDbEntity
  8
ASSI
100
AcDbLine
 62
250
  6
CONTINUOUS
 10
4.4483825092
 20
-6.6025369302
 11
7.6845937731
 21
-4.7975733979
  0
LINE
  5
2CE
100
AcDbEntity
  8
ASSI
100
AcDbLine
 62
7
  6
CONTINUOUS
 10
7.5982959008
 20
-4.112407766
 11
4.3625822248
 21
-5.8535478347
  0
LWPOLYLINE
  5
2CF
100
AcDbEntity
  8
CURVE
100
AcDbPolyline
 62
250
  6
CONTINUOUS
 90
75
 70
0
 10
-2.5216848121
 20
-13.2319989046
 10
-2.5254921786
 20
-13.2343520505
 10
-2.5291183999
 20
-13.2369077054
 10
-2.5325771506
 20
-13.2396686235
 10
-2.5358821053
 20
-13.2426375592
 10
-2.5390469388
 20
-13.2458172666
 10
-2.5420822573
 20
-13.2492096071
 10
-2.544986394
 20
-13.2528128698
 10
-2.5477546139
 20
-13.2566244509
 10
-2.550382182
 20
-13.2606417465
 10
-2.552864363
 20
-13.2648621529
 10
-2.5548186365
 20
-13.268533168
 10
-2.5566675074
 20
-13.2723463234
 10
-2.5584098247
 20
-13.2763045185
 10
-2.5600438073
 20
-13.2804083429
 10
-2.5615651541
 20
-13.2846491461
 10
-2.5629689341
 20
-13.2890159681
 10
-2.5644920002
 20
-13.294411446
 10
-2.5658341165
 20
-13.2999799412
 10
-2.5669907303
 20
-13.3057287867
 10
-2.5679572887
 20
-13.3116653156
 10
-2.5687292389
 20
-13.3177968609
 10
-2.5693016434
 20
-13.3241271815
 10
-2.5696680251
 20
-13.3306457387
 10
-2.5698215223
 20
-13.33733842
 10
-2.5697552732
 20
-13.3441911126
 10
-2.5694624161
 20
-13.3511897037
 10
-2.5689380536
 20
-13.358319877
 10
-2.568185147
 20
-13.3655665018
 10
-2.5672086219
 20
-13.3729142437
 10
-2.566013404
 20
-13.3803477685
 10
-2.5646044189
 20
-13.3878517417
 10
-2.5629862035
 20
-13.3954123801
 10
-2.5611617391
 20
-13.4030221041
 10
-2.5591336182
 20
-13.4106748848
 10
-2.5569044334
 20
-13.4183646938
 10
-2.5544767772
 20
-13.4260855023
 10
-2.5518528732
 20
-13.4338314212
 10
-2.5490334699
 20
-13.4415971193
 10
-2.5460189467
 20
-13.449377405
 10
-2.5428096831
 20
-13.4571670867
 10
-2.5394060588
 20
-13.4649609728
 10
-2.5358088142
 20
-13.4727526334
 10
-2.5320201339
 20
-13.4805306858
 10
-2.5280425634
 20
-13.4882825089
 10
-2.5238786483
 20
-13.4959954818
 10
-2.5195309341
 20
-13.5036569834
 10
-2.5157725114
 20
-13.5099893091
 10
-2.5119091197
 20
-13.5162468103
 10
-2.5079616604
 20
-13.5223991713
 10
-2.5039482706
 20
-13.5284217859
 10
-2.4998760304
 20
-13.5343128878
 10
-2.4957492558
 20
-13.5400764201
 10
-2.491570572
 20
-13.545717498
 10
-2.487335842
 20
-13.5512459238
 10
-2.483039238
 20
-13.5566726714
 10
-2.4786773765
 20
-13.562005409
 10
-2.474256651
 20
-13.5672385823
 10
-2.4697858988
 20
-13.5723633312
 10
-2.4652738377
 20
-13.5773713201
 10
-2.4607287071
 20
-13.5822563109
 10
-2.4561586266
 20
-13.5870125898
 10
-2.4515704413
 20
-13.5916355901
 10
-2.4469658992
 20
-13.5961253324
 10
-2.4423454736
 20
-13.6004829844
 10
-2.4367816653
 20
-13.6055385412
 10
-2.431202496
 20
-13.6104021245
 10
-2.425614795
 20
-13.6150702894
 10
-2.4200253916
 20
-13.619539591
 10
-2.4144411151
 20
-13.6238065844
 10
-2.4088648581
 20
-13.6278693824
 10
-2.4032837659
 20
-13.6317323276
 10
-2.3976810471
 20
-13.6354013203
 10
-2.3920399104
 20
-13.6388822608
 10
-2.3863435643
 20
-13.6421810492
  0
LWPOLYLINE
  5
2D0
100
AcDbEntity
  8
CURVE
100
AcDbPolyline
 62
250
  6
CONTINUOUS
 90
53
 70
0
 10
-1.2910385357
 20
-13.0927835892
 10
-1.2873648412
 20
-13.0905240067
 10
-1.283850916
 20
-13.0880816998
 10
-1.2804854461
 20
-13.0854542484
 10
-1.2772571177
 20
-13.0826392326
 10
-1.2741546167
 20
-13.0796342321
 10
-1.2711690637
 20
-13.0764370675
 10
-1.2683013159
 20
-13.0730465217
 10
-1.2655546651
 20
-13.0694616183
 10
-1.262932403
 20
-13.0656813805
 10
-1.2604378212
 20
-13.0617048321
 10
-1.25807468
 20
-13.0575317223
 10
-1.2558486138
 20
-13.0531647038
 10
-1.2537657254
 20
-13.0486071553
 10
-1.2518321177
 20
-13.0438624553
 10
-1.2500538936
 20
-13.0389339825
 10
-1.2486952822
 20
-13.0346909425
 10
-1.2474532062
 20
-13.0303363749
 10
-1.2463320573
 20
-13.0258840259
 10
-1.2453354244
 20
-13.0213435285
 10
-1.2444636829
 20
-13.0167080626
 10
-1.2437164049
 20
-13.0119666949
 10
-1.2429844474
 20
-13.0061267487
 10
-1.2424368801
 20
-13.0001289451
 10
-1.2420794817
 20
-12.9939836695
 10
-1.2419180309
 20
-12.9877013073
 10
-1.2419583063
 20
-12.9812922439
 10
-1.2422041955
 20
-12.9747677292
 10
-1.2426520217
 20
-12.9681424715
 10
-1.2432962172
 20
-12.9614320437
 10
-1.244131214
 20
-12.9546520187
 10
-1.2451514444
 20
-12.9478179693
 10
-1.246139897
 20
-12.9420894065
 10
-1.2472545731
 20
-12.9363222244
 10
-1.2484969283
 20
-12.9305045063
 10
-1.2498672466
 20
-12.9246299465
 10
-1.2513611254
 20
-12.9187146847
 10
-1.2529729902
 20
-12.9127804715
 10
-1.2550555102
 20
-12.9056607384
 10
-1.2572926069
 20
-12.898556901
 10
-1.2596769841
 20
-12.8914808241
 10
-1.2622013458
 20
-12.884444372
 10
-1.2648583958
 20
-12.8774594093
 10
-1.2676415283
 20
-12.8705360936
 10
-1.2705468987
 20
-12.8636777551
 10
-1.2735713527
 20
-12.8568860169
 10
-1.2767117362
 20
-12.8501625023
 10
-1.2799648948
 20
-12.8435088346
 10
-1.2833301942
 20
-12.8369238286
 10
-1.2868170794
 20
-12.8303950666
 10
-1.2904375155
 20
-12.8239073223
 10
-1.2942034672
 20
-12.8174453696
 10
-1.2981268997
 20
-12.8109939825
  0
LINE
  5
2D1
100
AcDbEntity
  8
CURVE
100
AcDbLine
 62
250
  6
CONTINUOUS
 10
-1.8494270719
 20
-12.8435037766
 11
-2.5216848121
 21
-13.2319989046
  0
LINE
  5
2D2
100
AcDbEntity
  8
CURVE
100
AcDbLine
 62
250
  6
CONTINUOUS
 10
-2.262296339
 20
-13.6540235593
 11
-1.2910385357
 21
-13.0927835892
  0
LWPOLYLINE
  5
2D3
100
AcDbEntity
  8
ASSI
100
AcDbPolyline
 62
250
  6
CONTINUOUS
 90
7
 70
0
 10
-10.7899581004
 20
19.6773680593
 10
-10.8274875133
 20
19.705166192
 10
-10.8587553561
 20
19.7351497965
 10
-10.8832885527
 20
19.766865227
 10
-10.9007159208
 20
19.7998326355
 10
-10.9107737879
 20
19.8335532317
 10
-10.9133252168
 20
19.8670858063
  0
LWPOLYLINE
  5
2D4
100
AcDbEntity
  8
ASSI
100
AcDbPolyline
 62
250
  6
CONTINUOUS
 90
13
 70
0
 10
4.1001720183
 20
11.0800091145
 10
4.1488929072
 20
11.0580069821
 10
4.201846832
 20
11.0393613204
 10
4.2582326358
 20
11.0243542258
 10
4.3171972397
 20
11.0132127454
 10
4.3778485494
 20
11.006105442
 10
4.4392689517
 20
11.0031398437
 10
4.5005291977
 20
11.0043608178
 10
4.5607024617
 20
11.0097498919
 10
4.6188783629
 20
11.019225533
 10
4.6741767396
 20
11.0326443809
 10
4.7257609649
 20
11.0498034178
 10
4.7728506047
 20
11.070443039
  0
LWPOLYLINE
  5
2D5
100
AcDbEntity
  8
ASSI
100
AcDbPolyline
 62
250
  6
CONTINUOUS
 90
31
 70
0
 10
4.1001588819
 20
11.0800011161
 10
3.5861306907
 20
11.3394647733
 10
3.0743125307
 20
11.6001646021
 10
2.564711283
 20
11.8620945318
 10
2.0574281854
 20
12.1251993399
 10
1.5523748734
 20
12.3895216314
 10
1.0492770193
 20
12.6552041282
 10
0.5480197861
 20
12.9223093557
 10
0.0487386452
 20
13.1907671113
 10
-0.4484632169
 20
13.4605223224
 10
-0.9435303556
 20
13.7315443347
 10
-1.4365014211
 20
14.0038537497
 10
-1.9274149644
 20
14.2774720104
 10
-2.4163806859
 20
14.5524617168
 10
-2.90326961
 20
14.8287517006
 10
-3.3877657062
 20
15.1061607507
 10
-3.8695885721
 20
15.3845221024
 10
-4.3490112288
 20
15.6639871172
 10
-4.8265450553
 20
15.9448533256
 10
-5.3011426229
 20
16.226499056
 10
-5.7738378928
 20
16.5095342285
 10
-6.2482082844
 20
16.7961350467
 10
-6.7233665679
 20
17.0858174397
 10
-7.2000844587
 20
17.3791093139
 10
-7.6842912196
 20
17.6797790661
 10
-8.1762831546
 20
17.9881781766
 10
-8.6754497867
 20
18.3041017041
 10
-9.1861963398
 20
18.6305695018
 10
-9.709795968
 20
18.9686814254
 10
-10.2444691127
 20
19.3175751089
 10
-10.7899581035
 20
19.6773680419
  0
LINE
  5
2D6
100
AcDbEntity
  8
ASSI
100
AcDbLine
 62
250
  6
CONTINUOUS
 10
-4.4919129086
 20
17.614305783
 11
-4.9636998218
 21
17.8971559858
  0
LWPOLYLINE
  5
2D7
100
AcDbEntity
  8
ASSI
100
AcDbPolyline
 62
250
  6
CONTINUOUS
 90
11
 70
0
 10
-4.9636998218
 20
17.8971559858
 10
-5.4370917714
 20
18.1837042266
 10
-5.911317264
 20
18.473366056
 10
-6.3871477929
 20
18.7667259234
 10
-6.8704156178
 20
19.0677493314
 10
-7.3617322374
 20
19.3766760076
 10
-7.8604861531
 20
19.6932662244
 10
-8.3706751291
 20
20.0207663012
 10
-8.8936317533
 20
20.3602583446
 10
-9.4280234377
 20
20.7106602481
 10
-9.9738501824
 20
21.0719720115
  0
LINE
  5
2D8
100
AcDbEntity
  8
ASSI
100
AcDbLine
 62
7
  6
CONTINUOUS
 10
4.007638511
 20
14.597854096
 11
4.7966550086
 21
14.7501930039
  0
LWPOLYLINE
  5
2D9
100
AcDbEntity
  8
ASSI
100
AcDbPolyline
 62
250
  6
CONTINUOUS
 90
9
 70
0
 10
-9.9738502198
 20
21.0719719865
 10
-10.0116253358
 20
21.0904987673
 10
-10.0487848307
 20
21.1044807715
 10
-10.0849222771
 20
21.1137650975
 10
-10.1196424463
 20
21.1182502264
 10
-10.1525655808
 20
21.1178871249
 10
-10.1833315571
 20
21.1126798034
 10
-10.2116038933
 20
21.1026852674
 10
-10.2337084634
 20
21.0903288934
  0
LWPOLYLINE
  5
2DA
100
AcDbEntity
  8
ASSI
100
AcDbPolyline
 62
250
  6
CONTINUOUS
 90
20
 70
0
 10
4.8931003733
 20
12.4879810723
 10
4.3796558646
 20
12.7457068248
 10
3.868515774
 20
13.0047060557
 10
3.3596801016
 20
13.2649787649
 10
2.8532712666
 20
13.5264619654
 10
2.3491668498
 20
13.7892186443
 10
1.8469995931
 20
14.0534377627
 10
1.3465909248
 20
14.3192115526
 10
0.8481194167
 20
14.586447782
 10
0.3517535259
 20
14.8550587171
 10
-0.1424419614
 20
15.1250101513
 10
-0.6345318314
 20
15.3963362912
 10
-1.124541985
 20
15.6690520228
 10
-1.6125835529
 20
15.9432221656
 10
-2.0985454044
 20
16.2187819001
 10
-2.5821200492
 20
16.4955516545
 10
-3.0630468357
 20
16.7733796165
 10
-3.5415864156
 20
17.0524175983
 10
-4.0182132526
 20
17.3329414639
 10
-4.4919129086
 20
17.614305783
  0
LINE
  5
2DB
100
AcDbEntity
  8
ASSI
100
AcDbLine
 62
7
  6
CONTINUOUS
 10
-6.4575418506
 20
20.6403180773
 11
-3.9119574383
 21
19.1705295413
  0
LINE
  5
2DC
100
AcDbEntity
  8
ASSI
100
AcDbLine
 62
7
  6
CONTINUOUS
 10
1.4620540987
 20
16.067642632
 11
4.007638511
 21
14.597854096
  0
LWPOLYLINE
  5
2DD
100
AcDbEntity
  8
ASSI
100
AcDbPolyline
 62
250
  6
CONTINUOUS
 90
16
 70
0
 10
4.8931003732
 20
12.4879810723
 10
4.9291493049
 20
12.4638828845
 10
4.9650063399
 20
12.4357063111
 10
5.0002793055
 20
12.4037595228
 10
5.0345824166
 20
12.3683919255
 10
5.0675404962
 20
12.3299903391
 10
5.0987930782
 20
12.2889747669
 10
5.1279983495
 20
12.2457938013
 10
5.1548368882
 20
12.2009197179
 10
5.179015158
 20
12.1548433101
 10
5.2002687182
 20
12.1080685212
 10
5.2183651159
 20
12.061106933
 10
5.2331064286
 20
12.01447217
 10
5.2443314288
 20
11.9686742825
 10
5.2519173473
 20
11.9242141676
 10
5.2557812159
 20
11.8815780912
  0
LINE
  5
2DE
100
AcDbEntity
  8
ASSI
100
AcDbLine
 62
7
  6
CONTINUOUS
 10
-8.2057547359
 20
22.2576214319
 11
-6.2461255173
 21
21.126156081
  0
LINE
  5
2DF
100
AcDbEntity
  8
ASSI
100
AcDbLine
 62
7
  6
CONTINUOUS
 10
-3.1229409407
 20
19.3228684492
 11
1.673470432
 21
16.5534806357
  0
LINE
  5
2E0
100
AcDbEntity
  8
ASSI
100
AcDbLine
 62
7
  6
CONTINUOUS
 10
4.7966550086
 20
14.7501930039
 11
6.7562842272
 21
13.618727653
  0
LINE
  5
2E1
100
AcDbEntity
  8
ASSI
100
AcDbLine
 62
7
  6
CONTINUOUS
 10
-3.9119574383
 20
19.1705295413
 11
-3.1229409407
 21
19.3228684492
  0
LWPOLYLINE
  5
2E2
100
AcDbEntity
  8
ASSI
100
AcDbPolyline
 62
250
  6
CONTINUOUS
 90
9
 70
0
 10
5.1312314854
 20
-23.5079402367
 10
5.1548392216
 20
-23.4940163632
 10
5.1790171838
 20
-23.4737932255
 10
5.2002703448
 20
-23.4490309384
 10
5.218366302
 20
-23.4200003722
 10
5.2331071838
 20
-23.3870190662
 10
5.2443318089
 20
-23.3504477659
 10
5.2519174518
 20
-23.3106864818
 10
5.2557811892
 20
-23.2681701012
  0
LINE
  5
2E3
100
AcDbEntity
  8
ASSI
100
AcDbLine
 62
250
  6
CONTINUOUS
 10
7.1410713147
 20
-22.3463554801
 11
5.2557811892
 21
-23.2681701012
  0
LINE
  5
2E4
100
AcDbEntity
  8
ASSI
100
AcDbLine
 62
7
  6
CONTINUOUS
 10
7.0041807674
 20
-22.5921596842
 11
5.1312314854
 21
-23.5079402367
  0
LWPOLYLINE
  5
2E5
100
AcDbEntity
  8
ASSI
100
AcDbPolyline
 62
250
  6
CONTINUOUS
 90
19
 70
0
 10
5.2557811892
 20
-23.2681701012
 10
5.2138941608
 20
-23.2866746728
 10
5.1729374515
 20
-23.3009925129
 10
5.1329110614
 20
-23.3111236217
 10
5.09353378
 20
-23.3170917451
 10
5.0550868177
 20
-23.3188731371
 10
5.0184138062
 20
-23.3163965596
 10
4.9835735743
 20
-23.3095626651
 10
4.950507293
 20
-23.2984708012
 10
4.9198821075
 20
-23.2833477726
 10
4.8917505246
 20
-23.2641106236
 10
4.8660600375
 20
-23.24084231
 10
4.84332027
 20
-23.214018503
 10
4.8235905573
 20
-23.1835426368
 10
4.8068115642
 20
-23.1495112773
 10
4.7933149093
 20
-23.1126897931
 10
4.783211132
 20
-23.073333307
 10
4.7763896928
 20
-23.0311866963
 10
4.7728505917
 20
-22.9862499608
  0
ARC
  5
2E6
100
AcDbEntity
  8
ASSI
100
AcDbCircle
 62
7
  6
CONTINUOUS
 10
-0.0704407762
 20
-4.3523759075
 40
0.4
100
AcDbArc
 50
120.752624298
 51
161.8212586125
  0
ARC
  5
2E7
100
AcDbEntity
  8
ASSI
100
AcDbCircle
 62
7
  6
CONTINUOUS
 10
-0.0704407762
 20
-3.4123160818
 40
0.4
100
AcDbArc
 50
193.6656108984
 51
241.9958405538
  0
ARC
  5
2E8
100
AcDbEntity
  8
ASSI
100
AcDbCircle
 62
7
  6
CONTINUOUS
 10
-7.181578486
 20
0.6935657084
 40
0.4
100
AcDbArc
 50
237.8888048846
 51
299.2488433792
  0
ELLIPSE
  5
2E9
100
AcDbEntity
  8
ASSI
100
AcDbEllipse
 62
7
  6
CONTINUOUS
 10
6.7874400758
 20
-22.1415669642
 30
0.0
 11
-0.2148753492
 21
0.4514925988
 31
0.0
 40
0.626010046
 41
-3.1349764991
 42
-2.3100583745
  0
ELLIPSE
  5
2EA
100
AcDbEntity
  8
ASSI
100
AcDbEllipse
 62
7
  6
CONTINUOUS
 10
7.4016541043
 20
-4.6342821859
 30
0.0
 11
-0.2001163506
 21
0.3463781804
 31
0.0
 40
0.577463496
 41
-2.3564333972
 42
-0.7858655045
  0
ELLIPSE
  5
2EB
100
AcDbEntity
  8
ASSI
100
AcDbEllipse
 62
7
  6
CONTINUOUS
 10
6.7874400758
 20
13.2294142507
 30
0.0
 11
-0.280860955
 21
0.4142191515
 31
0.0
 40
0.5243459323
 41
-2.3941007373
 42
-0.8246744066
  0
ELLIPSE
  5
2EC
100
AcDbEntity
  8
ASSI
100
AcDbEllipse
 62
7
  6
CONTINUOUS
 10
7.4016541043
 20
-3.7639870186
 30
0.0
 11
-0.2001619724
 21
0.3464573699
 31
0.0
 40
0.5771997317
 41
-3.1590443312
 42
-2.3566615088
  0
ELLIPSE
  5
2ED
100
AcDbEntity
  8
ASSI
100
AcDbEllipse
 62
7
  6
CONTINUOUS
 10
-8.1752446025
 20
21.8686808575
 30
0.0
 11
-0.2806490066
 21
0.4138128862
 31
0.0
 40
0.5253010868
 41
-0.8257150379
 42
-0.0027521587
  0
ENDSEC
  0
SECTION
  2
OBJECTS
  0
DICTIONARY
  5
C
100
AcDbDictionary
280
0
281
1
  3
ACAD_GROUP
350
D
  3
ACAD_MLINESTYLE
350
17
  3
ACAD_LAYOUT
350
1A
  3
ACAD_PLOTSETTINGS
350
19
  3
ACAD_PLOTSTYLENAME
350
E
  0
DICTIONARY
  5
D
102
{ACAD_REACTORS
330
C
102
}
100
AcDbDictionary
280
0
281
1
  0
ACDBDICTIONARYWDFLT
  5
E
102
{ACAD_REACTORS
330
C
102
}
100
AcDbDictionary
281
1
  3
Normal
350
F
100
AcDbDictionaryWithDefault
340
F
  0
DICTIONARY
  5
17
102
{ACAD_REACTORS
330
C
102
}
100
AcDbDictionary
280
0
281
1
  3
Standard
350
18
  0
DICTIONARY
  5
19
102
{ACAD_REACTORS
330
C
102
}
100
AcDbDictionary
281
1
  0
DICTIONARY
  5
1A
102
{ACAD_REACTORS
330
C
102
}
100
AcDbDictionary
281
1
  3
Model
350
2EE
  3
Layout1
350
2EF
  0
ACDBPLACEHOLDER
  5
F
102
{ACAD_REACTORS
330
E
102
}
  0
MLINESTYLE
  5
18
102
{ACAD_REACTORS
330
17
102
}
100
AcDbMlineStyle
  2
STANDARD
 70
0
  3

 62
256
 51
90.0
 52
90.0
 71
2
 49
0.5
 62
256
  6
BYLAYER
 49
-0.5
 62
256
  6
BYLAYER
  0
LAYOUT
  5
2EE
102
{ACAD_REACTORS
330
1A
102
}
100
AcDbPlotSettings
  1

  2
none_device
  4

  6

 40
0.0
 41
0.0
 42
0.0
 43
0.0
 44
210.0
 45
297.0
 46
0.0
 47
0.0
 48
0.0
 49
0.0
140
0.0
141
0.0
142
1.0
143
1.0
 70
1024
 72
1
 73
0
 74
0
  7

 75
0
147
1.0
148
0.0
149
0.0
100
AcDbLayout
  1
Model
 70
0
 71
0
 10
0.0
 20
0.0
 11
210.0
 21
297.0
 12
0.0
 22
0.0
 32
0.0
 14
0.0
 24
0.0
 34
0.0
 15
0.0
 25
0.0
 35
0.0
146
0.0
 13
0.0
 23
0.0
 33
0.0
 16
1.0
 26
0.0
 36
0.0
 17
0.0
 27
1.0
 37
0.0
 76
0
330
214
345
0
346
0
  0
LAYOUT
  5
2EF
102
{ACAD_REACTORS
330
1A
102
}
100
AcDbPlotSettings
  1

  2
none_device
  4

  6

 40
0.0
 41
0.0
 42
0.0
 43
0.0
 44
210.0
 45
297.0
 46
0.0
 47
0.0
 48
0.0
 49
0.0
140
0.0
141
0.0
142
1.0
143
1.0
 70
0
 72
1
 73
0
 74
0
  7

 75
0
147
1.0
148
0.0
149
0.0
100
AcDbLayout
  1
Layout1
 70
0
 71
1
 10
0.0
 20
0.0
 11
210.0
 21
297.0
 12
0.0
 22
0.0
 32
0.0
 14
0.0
 24
0.0
 34
0.0
 15
0.0
 25
0.0
 35
0.0
146
0.0
 13
0.0
 23
0.0
 33
0.0
 16
1.0
 26
0.0
 36
0.0
 17
0.0
 27
1.0
 37
0.0
 76
0
330
215
345
0
346
0
  0
ENDSEC
  0
EOF
