  0
SECTION
  2
HEADER
  9
$ACADVER
  1
AC1015
  9
$DWGCODEPAGE
  3
ANSI_1252
  9
$EXTMAX
 10
297.0
 20
210.0
 30
0.0
  9
$EXTMIN
 10
0.0
 20
0.0
 30
0.0
  9
$LIMMIN
 10
0.0
 20
0.0
  9
$LIMMAX
 10
297.0
 20
210.0
  9
$VIEWCTR
 10
148.5
 20
105.0
  9
$VIEWSIZE
 40
210.0
  9
$CLAYER
  8
0
  9
$LTSCALE
 40
16.335
  9
$CELTYPE
  6
BYLAYER
  9
$DIMSCALE
 40
1.0
  9
$DIMASZ
 40
3.0
  9
$DIMEXO
 40
0.5
  9
$DIMDLI
 40
11.286
  9
$DIMEXE
 40
1.5
  9
$DIMCEN
 40
2.673
  9
$DIMLFAC
 40
1.0
  9
$DIMBLK
  1
_FILLED
  9
$DIMTXT
 40
3.0
  9
$DIMTOL
 70
1
  9
$DIMLIM
 70
0
  9
$DIMTFAC
 40
1.0
  9
$DIMTP
 40
0.01
  9
$DIMTM
 40
0.01
  9
$DIMGAP
 40
0.625
  9
$DIMDSEP
 70
44
  9
$PDMODE
 70
3
  9
$PDSIZE
 40
3.0
  9
$HANDSEED
  5
494
  9
$TILEMODE
 70
1
  9
$MEASUREMENT
 70
1
  9
$INSUNITS
 70
4
  0
ENDSEC
  0
SECTION
  2
CLASSES
  0
CLASS
  1
ACDBDICTIONARYWDFLT
  2
AcDbDictionaryWithDefault
  3
AutoCAD 2000
 90
0
280
0
281
0
  0
CLASS
  1
ACDBPLACEHOLDER
  2
AcDbPlaceHolder
  3
AutoCAD 2000
 90
0
280
0
281
0
  0
CLASS
  1
LAYOUT
  2
AcDbLayout
  3
AutoCAD 2000
 90
0
280
0
281
0
  0
ENDSEC
  0
SECTION
  2
TABLES
  0
TABLE
  2
VPORT
  5
8
100
AcDbSymbolTable
 70
2
  0
VPORT
  5
1F4
100
AcDbSymbolTableRecord
100
AcDbViewportTableRecord
  2
*ACTIVE
 70
0
 10
0.0
 20
0.0
 11
1.0
 21
1.0
 12
148.5
 22
105.0
 13
0.0
 23
0.0
 14
1.0
 24
1.0
 15
0.0
 25
0.0
 16
0.0
 26
0.0
 36
1.0
 17
0.0
 27
0.0
 37
0.0
 40
210.0
 41
1.4142857143
 42
50.0
 43
0.0
 44
0.0
 50
0.0
 51
0.0
 71
0
 72
100
 73
1
 74
1
 75
0
 76
0
 77
0
 78
0
  0
ENDTAB
  0
TABLE
  2
LTYPE
  5
5
100
AcDbSymbolTable
 70
6
  0
LTYPE
  5
14
100
AcDbSymbolTableRecord
100
AcDbLinetypeTableRecord
  2
BYBLOCK
 70
0
  3

 72
65
 73
0
 40
0.0
  0
LTYPE
  5
15
100
AcDbSymbolTableRecord
100
AcDbLinetypeTableRecord
  2
BYLAYER
 70
0
  3

 72
65
 73
0
 40
0.0
  0
LTYPE
  5
16
100
AcDbSymbolTableRecord
100
AcDbLinetypeTableRecord
  2
CONTINUOUS
 70
64
  3
Solid line
 72
65
 73
0
 40
0.0
  0
LTYPE
  5
1F5
100
AcDbSymbolTableRecord
100
AcDbLinetypeTableRecord
  2
CENTER
 70
64
  3
____ _ ____ _ ____ _ ____ _ ____ _ ____ _ ____
 72
65
 73
4
 40
0.6
 49
0.375
 74
0
 49
-0.075
 74
0
 49
0.075
 74
0
 49
-0.075
 74
0
  0
LTYPE
  5
1F6
100
AcDbSymbolTableRecord
100
AcDbLinetypeTableRecord
  2
HIDDEN
 70
64
  3
- - - - - - - - - - - - - - - - - - - -
 72
65
 73
2
 40
0.2
 49
0.1
 74
0
 49
-0.1
 74
0
  0
LTYPE
  5
1F7
100
AcDbSymbolTableRecord
100
AcDbLinetypeTableRecord
  2
PHANTOM
 70
64
  3
_____ _ _ _____ _ _ _____ _ _ _____
 72
65
 73
6
 40
0.8
 49
0.45
 74
0
 49
-0.05
 74
0
 49
0.1
 74
0
 49
-0.05
 74
0
 49
0.1
 74
0
 49
-0.05
 74
0
  0
LTYPE
  5
1F8
100
AcDbSymbolTableRecord
100
AcDbLinetypeTableRecord
  2
DOT
 70
64
  3
. . . . . . . . . . . . . . . . . . . .
 72
65
 73
2
 40
0.2
 49
0.1
 74
0
 49
-0.1
 74
0
  0
LTYPE
  5
1F9
100
AcDbSymbolTableRecord
100
AcDbLinetypeTableRecord
  2
DASHED
 70
64
  3
- - - - - - - - - - - - - - - - - - - -
 72
65
 73
2
 40
0.2
 49
0.1
 74
0
 49
-0.1
 74
0
  0
ENDTAB
  0
TABLE
  2
LAYER
  5
2
100
AcDbSymbolTable
 70
36
  0
LAYER
  5
10
100
AcDbSymbolTableRecord
100
AcDbLayerTableRecord
  2
0
 70
0
 62
7
  6
CONTINUOUS
370
-3
390
F
  0
LAYER
  5
1FA
100
AcDbSymbolTableRecord
100
AcDbLayerTableRecord
  2
DEFAULT_1
 70
0
 62
7
  6
CENTER
370
-3
390
F
  0
LAYER
  5
1FB
100
AcDbSymbolTableRecord
100
AcDbLayerTableRecord
  2
DEFAULT_2
 70
0
 62
7
  6
HIDDEN
370
-3
390
F
  0
LAYER
  5
1FC
100
AcDbSymbolTableRecord
100
AcDbLayerTableRecord
  2
DEFAULT_3
 70
0
 62
7
  6
PHANTOM
370
-3
390
F
  0
LAYER
  5
1FD
100
AcDbSymbolTableRecord
100
AcDbLayerTableRecord
  2
ASSI
 70
0
 62
7
  6
CONTINUOUS
370
-3
390
F
  0
LAYER
  5
1FE
100
AcDbSymbolTableRecord
100
AcDbLayerTableRecord
  2
COLOR3
 70
0
 62
7
  6
CONTINUOUS
370
-3
390
F
  0
LAYER
  5
1FF
100
AcDbSymbolTableRecord
100
AcDbLayerTableRecord
  2
COORDINATE
 70
0
 62
7
  6
CONTINUOUS
370
-3
390
F
  0
LAYER
  5
200
100
AcDbSymbolTableRecord
100
AcDbLayerTableRecord
  2
COPY_PUBLISH
 70
0
 62
7
  6
CONTINUOUS
370
-3
390
F
  0
LAYER
  5
201
100
AcDbSymbolTableRecord
100
AcDbLayerTableRecord
  2
COSMETIC
 70
0
 62
7
  6
CONTINUOUS
370
-3
390
F
  0
LAYER
  5
202
100
AcDbSymbolTableRecord
100
AcDbLayerTableRecord
  2
COSMETICI
 70
0
 62
7
  6
CONTINUOUS
370
-3
390
F
  0
LAYER
  5
203
100
AcDbSymbolTableRecord
100
AcDbLayerTableRecord
  2
CURVE
 70
0
 62
7
  6
CONTINUOUS
370
-3
390
F
  0
LAYER
  5
204
100
AcDbSymbolTableRecord
100
AcDbLayerTableRecord
  2
DRAFT
 70
0
 62
7
  6
CONTINUOUS
370
-3
390
F
  0
LAYER
  5
205
100
AcDbSymbolTableRecord
100
AcDbLayerTableRecord
  2
IMPORT_IGES
 70
0
 62
7
  6
CONTINUOUS
370
-3
390
F
  0
LAYER
  5
206
100
AcDbSymbolTableRecord
100
AcDbLayerTableRecord
  2
INTFCLR_1
 70
0
 62
7
  6
CONTINUOUS
370
-3
390
F
  0
LAYER
  5
207
100
AcDbSymbolTableRecord
100
AcDbLayerTableRecord
  2
INTF_1
 70
0
 62
7
  6
CONTINUOUS
370
-3
390
F
  0
LAYER
  5
208
100
AcDbSymbolTableRecord
100
AcDbLayerTableRecord
  2
INTF_10
 70
0
 62
7
  6
CONTINUOUS
370
-3
390
F
  0
LAYER
  5
209
100
AcDbSymbolTableRecord
100
AcDbLayerTableRecord
  2
INTF_13
 70
0
 62
7
  6
CONTINUOUS
370
-3
390
F
  0
LAYER
  5
20A
100
AcDbSymbolTableRecord
100
AcDbLayerTableRecord
  2
INTF_15
 70
0
 62
7
  6
CONTINUOUS
370
-3
390
F
  0
LAYER
  5
20B
100
AcDbSymbolTableRecord
100
AcDbLayerTableRecord
  2
INTF_16
 70
0
 62
7
  6
CONTINUOUS
370
-3
390
F
  0
LAYER
  5
20C
100
AcDbSymbolTableRecord
100
AcDbLayerTableRecord
  2
INTF_18
 70
0
 62
7
  6
CONTINUOUS
370
-3
390
F
  0
LAYER
  5
20D
100
AcDbSymbolTableRecord
100
AcDbLayerTableRecord
  2
INTF_20
 70
0
 62
7
  6
CONTINUOUS
370
-3
390
F
  0
LAYER
  5
20E
100
AcDbSymbolTableRecord
100
AcDbLayerTableRecord
  2
INTF_3
 70
0
 62
7
  6
CONTINUOUS
370
-3
390
F
  0
LAYER
  5
20F
100
AcDbSymbolTableRecord
100
AcDbLayerTableRecord
  2
INTF_5
 70
0
 62
7
  6
CONTINUOUS
370
-3
390
F
  0
LAYER
  5
210
100
AcDbSymbolTableRecord
100
AcDbLayerTableRecord
  2
INTF_8
 70
0
 62
7
  6
CONTINUOUS
370
-3
390
F
  0
LAYER
  5
211
100
AcDbSymbolTableRecord
100
AcDbLayerTableRecord
  2
NOTE
 70
0
 62
7
  6
CONTINUOUS
370
-3
390
F
  0
LAYER
  5
212
100
AcDbSymbolTableRecord
100
AcDbLayerTableRecord
  2
PIANI
 70
0
 62
7
  6
CONTINUOUS
370
-3
390
F
  0
LAYER
  5
213
100
AcDbSymbolTableRecord
100
AcDbLayerTableRecord
  2
PUNTI
 70
0
 62
7
  6
CONTINUOUS
370
-3
390
F
  0
LAYER
  5
214
100
AcDbSymbolTableRecord
100
AcDbLayerTableRecord
  2
RACCORDO
 70
0
 62
7
  6
CONTINUOUS
370
-3
390
F
  0
LAYER
  5
215
100
AcDbSymbolTableRecord
100
AcDbLayerTableRecord
  2
SIMBOLI
 70
0
 62
7
  6
CONTINUOUS
370
-3
390
F
  0
LAYER
  5
216
100
AcDbSymbolTableRecord
100
AcDbLayerTableRecord
  2
SMUSSO
 70
0
 62
7
  6
CONTINUOUS
370
-3
390
F
  0
LAYER
  5
217
100
AcDbSymbolTableRecord
100
AcDbLayerTableRecord
  2
SNAPLINE
 70
0
 62
7
  6
CONTINUOUS
370
-3
390
F
  0
LAYER
  5
218
100
AcDbSymbolTableRecord
100
AcDbLayerTableRecord
  2
SOLIDO
 70
0
 62
7
  6
CONTINUOUS
370
-3
390
F
  0
LAYER
  5
219
100
AcDbSymbolTableRecord
100
AcDbLayerTableRecord
  2
SUPERFICI
 70
0
 62
7
  6
CONTINUOUS
370
-3
390
F
  0
LAYER
  5
21A
100
AcDbSymbolTableRecord
100
AcDbLayerTableRecord
  2
SUPERFICI_SKEL
 70
0
 62
7
  6
CONTINUOUS
370
-3
390
F
  0
LAYER
  5
21B
100
AcDbSymbolTableRecord
100
AcDbLayerTableRecord
  2
TRASH
 70
0
 62
7
  6
CONTINUOUS
370
-3
390
F
  0
LAYER
  5
21C
100
AcDbSymbolTableRecord
100
AcDbLayerTableRecord
  2
___SHELL
 70
0
 62
7
  6
CONTINUOUS
370
-3
390
F
  0
ENDTAB
  0
TABLE
  2
STYLE
  5
3
100
AcDbSymbolTable
 70
1
  0
STYLE
  5
11
100
AcDbSymbolTableRecord
100
AcDbTextStyleTableRecord
  2
STANDARD
 70
0
 40
0.0
 41
0.8
 50
0.0
 71
0
 42
0.2
  3
txt
  4

  0
STYLE
  5
21D
100
AcDbSymbolTableRecord
100
AcDbTextStyleTableRecord
  2
TEXTSTYLE_1
 70
0
 40
0.0
 41
0.8
 50
0.0
 71
0
 42
0.2
  3
gdt
  4

  0
ENDTAB
  0
TABLE
  2
VIEW
  5
6
100
AcDbSymbolTable
 70
0
  0
ENDTAB
  0
TABLE
  2
UCS
  5
7
100
AcDbSymbolTable
 70
0
  0
ENDTAB
  0
TABLE
  2
APPID
  5
9
100
AcDbSymbolTable
 70
1
  0
APPID
  5
21E
100
AcDbSymbolTableRecord
100
AcDbRegAppTableRecord
  2
ACAD
 70
0
  0
ENDTAB
  0
TABLE
  2
BLOCK_RECORD
  5
1
100
AcDbSymbolTable
 70
0
  0
BLOCK_RECORD
  5
21F
100
AcDbSymbolTableRecord
100
AcDbBlockTableRecord
  2
*Model_Space
  0
BLOCK_RECORD
  5
220
100
AcDbSymbolTableRecord
100
AcDbBlockTableRecord
  2
*Paper_Space
  0
ENDTAB
  0
TABLE
  2
DIMSTYLE
  5
A
100
AcDbSymbolTable
 70
1
100
AcDbDimStyleTable
 71
0
  0
DIMSTYLE
105
221
100
AcDbSymbolTableRecord
100
AcDbDimStyleTableRecord
  2
STANDARD
 70
0
  3

  4

 40
1.0
 41
3.0
 42
0.5
 43
0.38
 44
1.5
 45
0.0
 46
0.0
 47
0.01
 48
0.01
140
3.0
141
0.09
142
0.0
143
25.4
144
1.0
145
0.0
146
1.0
147
0.625
 71
1.0
 72
0.0
 73
0
 74
0
 75
0
 76
0
 77
1
 78
8
170
0
171
2
172
0
173
0
174
0
175
0
176
0
177
0
178
0
270
2
271
2
272
2
273
2
274
2
275
0
280
0
281
0
282
0
283
1
284
8
285
0
286
0
287
3
288
0
340
11
278
44
  0
ENDTAB
  0
ENDSEC
  0
SECTION
  2
BLOCKS
  0
BLOCK
  5
20
100
AcDbEntity
  8
0
100
AcDbBlockBegin
  2
*Model_Space
 70
0
 10
0.0
 20
0.0
 30
0.0
  3
*Model_Space
  1

  0
ENDBLK
  5
21
100
AcDbEntity
  8
0
100
AcDbBlockEnd
  0
BLOCK
  5
1C
100
AcDbEntity
  8
0
100
AcDbBlockBegin
  2
*Paper_Space
 70
0
 10
0.0
 20
0.0
 30
0.0
  3
*Paper_Space
  1

  0
ENDBLK
  5
1D
100
AcDbEntity
  8
0
100
AcDbBlockEnd
  0
ENDSEC
  0
SECTION
  2
ENTITIES
  0
LWPOLYLINE
  5
222
100
AcDbEntity
  8
0
100
AcDbPolyline
 62
7
  6
CONTINUOUS
 90
18
 70
0
 10
129.5872175712
 20
128.7374398063
 10
129.5302909477
 20
128.6789915258
 10
129.4770830245
 20
128.6171735114
 10
129.4274465774
 20
128.5525050455
 10
129.3810635297
 20
128.4851899801
 10
129.3376948316
 20
128.4153172626
 10
129.297334067
 20
128.3432323631
 10
129.2599632963
 20
128.2691798828
 10
129.2255686289
 20
128.1932914463
 10
129.1942280643
 20
128.1158528141
 10
129.1660489745
 20
128.0371222157
 10
129.141115963
 20
127.9572421996
 10
129.1195758317
 20
127.8764383876
 10
129.1016331514
 20
127.7949930821
 10
129.087462006
 20
127.7129564378
 10
129.0773263123
 20
127.6303786615
 10
129.0715684532
 20
127.547546559
 10
129.0708994098
 20
127.5283934065
  0
LWPOLYLINE
  5
223
100
AcDbEntity
  8
ASSI
100
AcDbPolyline
 62
7
  6
CONTINUOUS
 90
18
 70
0
 10
129.5872175712
 20
128.7374398063
 10
129.5302909477
 20
128.6789915258
 10
129.4770830245
 20
128.6171735114
 10
129.4274465774
 20
128.5525050455
 10
129.3810635297
 20
128.4851899801
 10
129.3376948316
 20
128.4153172626
 10
129.297334067
 20
128.3432323631
 10
129.2599632963
 20
128.2691798828
 10
129.2255686289
 20
128.1932914463
 10
129.1942280643
 20
128.1158528141
 10
129.1660489745
 20
128.0371222157
 10
129.141115963
 20
127.9572421996
 10
129.1195758317
 20
127.8764383876
 10
129.1016331514
 20
127.7949930821
 10
129.087462006
 20
127.7129564378
 10
129.0773263123
 20
127.6303786615
 10
129.0715684532
 20
127.547546559
 10
129.0708994098
 20
127.5283934065
  0
LINE
  5
224
100
AcDbEntity
  8
0
100
AcDbLine
 62
7
  6
CONTINUOUS
 10
130.998465528
 20
130.0702032119
 11
129.5872175712
 21
128.7374398063
  0
LINE
  5
225
100
AcDbEntity
  8
ASSI
100
AcDbLine
 62
7
  6
CONTINUOUS
 10
130.998465528
 20
130.0702032119
 11
129.5872175712
 21
128.7374398063
  0
LINE
  5
226
100
AcDbEntity
  8
0
100
AcDbLine
 62
253
  6
CONTINUOUS
 10
131.3170906851
 20
130.0942778468
 11
129.9231280695
 21
128.7779124998
  0
LINE
  5
227
100
AcDbEntity
  8
ASSI
100
AcDbLine
 62
253
  6
CONTINUOUS
 10
131.3170906851
 20
130.0942778468
 11
129.9231280695
 21
128.7779124998
  0
LINE
  5
228
100
AcDbEntity
  8
0
100
AcDbLine
 62
7
  6
CONTINUOUS
 10
129.5952925525
 20
128.7451390038
 11
129.5948469717
 21
128.7447194384
  0
LINE
  5
229
100
AcDbEntity
  8
ASSI
100
AcDbLine
 62
7
  6
CONTINUOUS
 10
129.5952925525
 20
128.7451390038
 11
129.5948469717
 21
128.7447194384
  0
LWPOLYLINE
  5
22A
100
AcDbEntity
  8
0
100
AcDbPolyline
 62
253
  6
CONTINUOUS
 90
22
 70
0
 10
129.9231280694
 20
128.7779124998
 10
129.8739667479
 20
128.7326433936
 10
129.8251985445
 20
128.6829135452
 10
129.7770819243
 20
128.6289630142
 10
129.7298896705
 20
128.5710470807
 10
129.6838533363
 20
128.5094519164
 10
129.6391623924
 20
128.4444919672
 10
129.5960496693
 20
128.3764781738
 10
129.5547471282
 20
128.3057426875
 10
129.5154302362
 20
128.2326539188
 10
129.4783046407
 20
128.1575699084
 10
129.4435677187
 20
128.0808530047
 10
129.4113646142
 20
128.0028934847
 10
129.3818619019
 20
127.9240717093
 10
129.355217728
 20
127.8447710262
 10
129.3315429847
 20
127.7653928741
 10
129.3109599964
 20
127.6863319551
 10
129.2935777673
 20
127.6079667506
 10
129.2794647521
 20
127.5306729593
 10
129.2686895406
 20
127.454826966
 10
129.2613180447
 20
127.3808034187
 10
129.2573905751
 20
127.3089662325
  0
LWPOLYLINE
  5
22B
100
AcDbEntity
  8
ASSI
100
AcDbPolyline
 62
253
  6
CONTINUOUS
 90
22
 70
0
 10
129.9231280694
 20
128.7779124998
 10
129.8739667479
 20
128.7326433936
 10
129.8251985445
 20
128.6829135452
 10
129.7770819243
 20
128.6289630142
 10
129.7298896705
 20
128.5710470807
 10
129.6838533363
 20
128.5094519164
 10
129.6391623924
 20
128.4444919672
 10
129.5960496693
 20
128.3764781738
 10
129.5547471282
 20
128.3057426875
 10
129.5154302362
 20
128.2326539188
 10
129.4783046407
 20
128.1575699084
 10
129.4435677187
 20
128.0808530047
 10
129.4113646142
 20
128.0028934847
 10
129.3818619019
 20
127.9240717093
 10
129.355217728
 20
127.8447710262
 10
129.3315429847
 20
127.7653928741
 10
129.3109599964
 20
127.6863319551
 10
129.2935777673
 20
127.6079667506
 10
129.2794647521
 20
127.5306729593
 10
129.2686895406
 20
127.454826966
 10
129.2613180447
 20
127.3808034187
 10
129.2573905751
 20
127.3089662325
  0
LINE
  5
22C
100
AcDbEntity
  8
0
100
AcDbLine
 62
7
  6
CONTINUOUS
 10
137.1228358268
 20
127.7625597104
 11
136.4869309098
 21
127.5663926263
  0
LINE
  5
22D
100
AcDbEntity
  8
ASSI
100
AcDbLine
 62
7
  6
CONTINUOUS
 10
137.1228358268
 20
127.7625597104
 11
136.4869309098
 21
127.5663926263
  0
LWPOLYLINE
  5
22E
100
AcDbEntity
  8
0
100
AcDbPolyline
 62
253
  6
CONTINUOUS
 90
10
 70
0
 10
128.8229210156
 20
110.8211763195
 10
128.8252359102
 20
110.79349123
 10
128.8322565942
 20
110.7659414129
 10
128.8439168461
 20
110.7389090358
 10
128.8601063957
 20
110.7126497194
 10
128.880672158
 20
110.6874117497
 10
128.9054196762
 20
110.6634337565
 10
128.9341149502
 20
110.6409424645
 10
128.9664866437
 20
110.6201505477
 10
129.0022286604
 20
110.6012546077
  0
LWPOLYLINE
  5
22F
100
AcDbEntity
  8
ASSI
100
AcDbPolyline
 62
253
  6
CONTINUOUS
 90
10
 70
0
 10
128.8229210156
 20
110.8211763195
 10
128.8252359102
 20
110.79349123
 10
128.8322565942
 20
110.7659414129
 10
128.8439168461
 20
110.7389090358
 10
128.8601063957
 20
110.7126497194
 10
128.880672158
 20
110.6874117497
 10
128.9054196762
 20
110.6634337565
 10
128.9341149502
 20
110.6409424645
 10
128.9664866437
 20
110.6201505477
 10
129.0022286604
 20
110.6012546077
  0
LWPOLYLINE
  5
230
100
AcDbEntity
  8
ASSI
100
AcDbPolyline
 62
253
  6
CONTINUOUS
 90
12
 70
0
 10
129.2573905895
 20
93.1056535572
 10
129.2613180587
 20
93.0398606311
 10
129.2686895551
 20
92.9773571056
 10
129.2794647675
 20
92.9184517761
 10
129.2935777832
 20
92.8634428649
 10
129.3109600121
 20
92.8125957281
 10
129.3315429999
 20
92.7661444757
 10
129.3552177432
 20
92.7243218092
 10
129.3818619171
 20
92.6873419641
 10
129.4113646292
 20
92.6553806418
 10
129.4435677335
 20
92.6286036585
 10
129.4776729785
 20
92.6075389931
  0
LWPOLYLINE
  5
231
100
AcDbEntity
  8
0
100
AcDbPolyline
 62
253
  6
CONTINUOUS
 90
12
 70
0
 10
129.2573905895
 20
93.1056535572
 10
129.2613180587
 20
93.0398606311
 10
129.2686895551
 20
92.9773571056
 10
129.2794647675
 20
92.9184517761
 10
129.2935777832
 20
92.8634428649
 10
129.3109600121
 20
92.8125957281
 10
129.3315429999
 20
92.7661444757
 10
129.3552177432
 20
92.7243218092
 10
129.3818619171
 20
92.6873419641
 10
129.4113646292
 20
92.6553806418
 10
129.4435677335
 20
92.6286036585
 10
129.4776729785
 20
92.6075389931
  0
LWPOLYLINE
  5
232
100
AcDbEntity
  8
ASSI
100
AcDbPolyline
 62
7
  6
CONTINUOUS
 90
14
 70
0
 10
129.0709356113
 20
93.3313043527
 10
129.0719511486
 20
93.3059413302
 10
129.0798209899
 20
93.2163257241
 10
129.0939506192
 20
93.1322980169
 10
129.1140288923
 20
93.0537355533
 10
129.1398357806
 20
92.9803354397
 10
129.1711964975
 20
92.9119880176
 10
129.2077849368
 20
92.8489078542
 10
129.2493171003
 20
92.7911728381
 10
129.2955150018
 20
92.7389022341
 10
129.3458317389
 20
92.6924743554
 10
129.3997653341
 20
92.6520770866
 10
129.4569732389
 20
92.6177670313
 10
129.4915230999
 20
92.6006954496
  0
LWPOLYLINE
  5
233
100
AcDbEntity
  8
0
100
AcDbPolyline
 62
7
  6
CONTINUOUS
 90
14
 70
0
 10
129.0709356113
 20
93.3313043527
 10
129.0719511486
 20
93.3059413302
 10
129.0798209899
 20
93.2163257241
 10
129.0939506192
 20
93.1322980169
 10
129.1140288923
 20
93.0537355533
 10
129.1398357806
 20
92.9803354397
 10
129.1711964975
 20
92.9119880176
 10
129.2077849368
 20
92.8489078542
 10
129.2493171003
 20
92.7911728381
 10
129.2955150018
 20
92.7389022341
 10
129.3458317389
 20
92.6924743554
 10
129.3997653341
 20
92.6520770866
 10
129.4569732389
 20
92.6177670313
 10
129.4915230999
 20
92.6006954496
  0
LWPOLYLINE
  5
234
100
AcDbEntity
  8
0
100
AcDbPolyline
 62
253
  6
CONTINUOUS
 90
9
 70
0
 10
129.0022286604
 20
110.6012546077
 10
129.0036300718
 20
110.5592236767
 10
129.008943256
 20
110.5207433851
 10
129.0177207586
 20
110.4857448747
 10
129.029500794
 20
110.4542277488
 10
129.0444451049
 20
110.4264050878
 10
129.0628177563
 20
110.4027227208
 10
129.0838081084
 20
110.3837543958
 10
129.1068407639
 20
110.3697642064
  0
LWPOLYLINE
  5
235
100
AcDbEntity
  8
ASSI
100
AcDbPolyline
 62
253
  6
CONTINUOUS
 90
9
 70
0
 10
129.0022286604
 20
110.6012546077
 10
129.0036300718
 20
110.5592236767
 10
129.008943256
 20
110.5207433851
 10
129.0177207586
 20
110.4857448747
 10
129.029500794
 20
110.4542277488
 10
129.0444451049
 20
110.4264050878
 10
129.0628177563
 20
110.4027227208
 10
129.0838081084
 20
110.3837543958
 10
129.1068407639
 20
110.3697642064
  0
LWPOLYLINE
  5
236
100
AcDbEntity
  8
ASSI
100
AcDbPolyline
 62
7
  6
CONTINUOUS
 90
10
 70
0
 10
128.8229209629
 20
109.6103220753
 10
128.8274434329
 20
107.8337706231
 10
128.8378216974
 20
105.996124766
 10
128.8539930557
 20
104.1633974062
 10
128.8759581174
 20
102.3356280917
 10
128.9037170322
 20
100.5128539131
 10
128.9372699413
 20
98.6951109667
 10
128.9766163039
 20
96.8824404919
 10
129.0217549546
 20
95.0748884146
 10
129.0709238252
 20
93.3314874506
  0
LWPOLYLINE
  5
237
100
AcDbEntity
  8
0
100
AcDbPolyline
 62
7
  6
CONTINUOUS
 90
10
 70
0
 10
128.8229209629
 20
109.6103220753
 10
128.8274434329
 20
107.8337706231
 10
128.8378216974
 20
105.996124766
 10
128.8539930557
 20
104.1633974062
 10
128.8759581174
 20
102.3356280917
 10
128.9037170322
 20
100.5128539131
 10
128.9372699413
 20
98.6951109667
 10
128.9766163039
 20
96.8824404919
 10
129.0217549546
 20
95.0748884146
 10
129.0709238252
 20
93.3314874506
  0
LWPOLYLINE
  5
238
100
AcDbEntity
  8
ASSI
100
AcDbPolyline
 62
253
  6
CONTINUOUS
 90
10
 70
0
 10
129.0022288291
 20
109.3901862851
 10
129.0065227802
 20
107.7011457745
 10
129.0159928381
 20
105.9912135297
 10
129.0308677258
 20
104.2606117701
 10
129.0512077116
 20
102.5227371508
 10
129.0773353697
 20
100.764582656
 10
129.1102544729
 20
98.9470935807
 10
129.1508996589
 20
97.0577942606
 10
129.1997177431
 20
95.1104331516
 10
129.2573905835
 20
93.1056535463
  0
LWPOLYLINE
  5
239
100
AcDbEntity
  8
0
100
AcDbPolyline
 62
253
  6
CONTINUOUS
 90
10
 70
0
 10
129.0022288291
 20
109.3901862851
 10
129.0065227802
 20
107.7011457745
 10
129.0159928381
 20
105.9912135297
 10
129.0308677258
 20
104.2606117701
 10
129.0512077116
 20
102.5227371508
 10
129.0773353697
 20
100.764582656
 10
129.1102544729
 20
98.9470935807
 10
129.1508996589
 20
97.0577942606
 10
129.1997177431
 20
95.1104331516
 10
129.2573905835
 20
93.1056535463
  0
LWPOLYLINE
  5
23A
100
AcDbEntity
  8
0
100
AcDbPolyline
 62
7
  6
CONTINUOUS
 90
10
 70
0
 10
129.0709025841
 20
127.5287254318
 10
129.0218813908
 20
125.7058997006
 10
128.9767304152
 20
123.8202996479
 10
128.9373706962
 20
121.939597217
 10
128.9038034235
 20
120.0638384474
 10
128.8760291423
 20
118.1930632804
 10
128.8540481739
 20
116.3273093325
 10
128.8378606351
 20
114.4666146319
 10
128.8274656083
 20
112.6110182029
 10
128.8229210156
 20
110.8211763195
  0
LWPOLYLINE
  5
23B
100
AcDbEntity
  8
ASSI
100
AcDbPolyline
 62
7
  6
CONTINUOUS
 90
10
 70
0
 10
129.0709025841
 20
127.5287254318
 10
129.0218813908
 20
125.7058997006
 10
128.9767304152
 20
123.8202996479
 10
128.9373706962
 20
121.939597217
 10
128.9038034235
 20
120.0638384474
 10
128.8760291423
 20
118.1930632804
 10
128.8540481739
 20
116.3273093325
 10
128.8378606351
 20
114.4666146319
 10
128.8274656083
 20
112.6110182029
 10
128.8229210156
 20
110.8211763195
  0
LWPOLYLINE
  5
23C
100
AcDbEntity
  8
0
100
AcDbPolyline
 62
253
  6
CONTINUOUS
 90
10
 70
0
 10
129.2573905851
 20
127.3089662338
 10
129.203859969
 20
125.3685231165
 10
129.1573493942
 20
123.4650647319
 10
129.1175501665
 20
121.5983954663
 10
129.0845097176
 20
119.7892702063
 10
129.0574502272
 20
118.016441484
 10
129.0354089721
 20
116.2171637466
 10
129.0185166887
 20
114.370904599
 10
129.0073567092
 20
112.4988405315
 10
129.0022288201
 20
110.6012545299
  0
LWPOLYLINE
  5
23D
100
AcDbEntity
  8
ASSI
100
AcDbPolyline
 62
253
  6
CONTINUOUS
 90
10
 70
0
 10
129.2573905851
 20
127.3089662338
 10
129.203859969
 20
125.3685231165
 10
129.1573493942
 20
123.4650647319
 10
129.1175501665
 20
121.5983954663
 10
129.0845097176
 20
119.7892702063
 10
129.0574502272
 20
118.016441484
 10
129.0354089721
 20
116.2171637466
 10
129.0185166887
 20
114.370904599
 10
129.0073567092
 20
112.4988405315
 10
129.0022288201
 20
110.6012545299
  0
LWPOLYLINE
  5
23E
100
AcDbEntity
  8
ASSI
100
AcDbPolyline
 62
253
  6
CONTINUOUS
 90
16
 70
0
 10
129.0022286067
 20
109.3901863218
 10
129.0036300406
 20
109.4349642497
 10
129.0089436143
 20
109.4804456578
 10
129.0177217419
 20
109.5267544638
 10
129.0295024588
 20
109.574417642
 10
129.0444474728
 20
109.623122717
 10
129.0628208903
 20
109.6714773871
 10
129.0838118894
 20
109.718926475
 10
129.1070902375
 20
109.7654958248
 10
129.1331495057
 20
109.8103150948
 10
129.1612335046
 20
109.8528506888
 10
129.1906358962
 20
109.8928809561
 10
129.221884273
 20
109.9298008848
 10
129.2546629733
 20
109.9631434285
 10
129.2877669221
 20
109.9927226701
 10
129.3204180304
 20
110.0183469762
  0
LWPOLYLINE
  5
23F
100
AcDbEntity
  8
0
100
AcDbPolyline
 62
253
  6
CONTINUOUS
 90
16
 70
0
 10
129.0022286067
 20
109.3901863218
 10
129.0036300406
 20
109.4349642497
 10
129.0089436143
 20
109.4804456578
 10
129.0177217419
 20
109.5267544638
 10
129.0295024588
 20
109.574417642
 10
129.0444474728
 20
109.623122717
 10
129.0628208903
 20
109.6714773871
 10
129.0838118894
 20
109.718926475
 10
129.1070902375
 20
109.7654958248
 10
129.1331495057
 20
109.8103150948
 10
129.1612335046
 20
109.8528506888
 10
129.1906358962
 20
109.8928809561
 10
129.221884273
 20
109.9298008848
 10
129.2546629733
 20
109.9631434285
 10
129.2877669221
 20
109.9927226701
 10
129.3204180304
 20
110.0183469762
  0
LWPOLYLINE
  5
240
100
AcDbEntity
  8
0
100
AcDbPolyline
 62
253
  6
CONTINUOUS
 90
47
 70
0
 10
136.2045682157
 20
118.0874558484
 10
136.2385858512
 20
118.1105782384
 10
136.2736571275
 20
118.1322512228
 10
136.3097636626
 20
118.1524540389
 10
136.3468870747
 20
118.1711659236
 10
136.3850089816
 20
118.1883661142
 10
136.4241110013
 20
118.2040338478
 10
136.4641747519
 20
118.2181483615
 10
136.5051723145
 20
118.2306911344
 10
136.5470376227
 20
118.2416526131
 10
136.5896950734
 20
118.2510254861
 10
136.6330690635
 20
118.258802442
 10
136.6770839897
 20
118.2649761692
 10
136.7216642489
 20
118.2695393564
 10
136.766734238
 20
118.272484692
 10
136.8122284335
 20
118.2738078189
 10
136.8581216312
 20
118.2735161969
 10
136.9043987065
 20
118.2716202401
 10
136.9510445351
 20
118.2681303629
 10
136.9980439924
 20
118.2630569792
 10
137.0453819538
 20
118.2564105033
 10
137.093043295
 20
118.2482013493
 10
137.1410072367
 20
118.2384400037
 10
137.1892303803
 20
118.2271372416
 10
137.2376636728
 20
118.2143039107
 10
137.2862580609
 20
118.1999508585
 10
137.3349644913
 20
118.1840889324
 10
137.3837339109
 20
118.1667289802
 10
137.4325172665
 20
118.1478818492
 10
137.4812666445
 20
118.1275608758
 10
137.5299386905
 20
118.1057893516
 10
137.5784911897
 20
118.0825930569
 10
137.6268819271
 20
118.057997772
 10
137.6750686882
 20
118.0320292772
 10
137.7230092579
 20
118.0047133529
 10
137.7706614216
 20
117.9760757794
 10
137.8179869302
 20
117.9461384062
 10
137.8649633979
 20
117.9149073591
 10
137.9115724046
 20
117.8823848332
 10
137.9577955303
 20
117.8485730235
 10
138.0036143547
 20
117.8134741249
 10
138.049010458
 20
117.7770903326
 10
138.09396542
 20
117.7394238416
 10
138.1306003369
 20
117.7074821057
 10
138.1668811964
 20
117.6747131835
 10
138.2027649832
 20
117.6411565633
 10
138.2382086817
 20
117.6068517334
  0
LINE
  5
241
100
AcDbEntity
  8
0
100
AcDbLine
 62
7
  6
CONTINUOUS
 10
146.2973387228
 20
124.0778725131
 11
145.6614338058
 21
123.8817054289
  0
LINE
  5
242
100
AcDbEntity
  8
ASSI
100
AcDbLine
 62
7
  6
CONTINUOUS
 10
146.2973387228
 20
124.0778725131
 11
145.6614338058
 21
123.8817054289
  0
LWPOLYLINE
  5
243
100
AcDbEntity
  8
0
100
AcDbPolyline
 62
253
  6
CONTINUOUS
 90
16
 70
0
 10
164.5282731449
 20
78.9400719226
 10
164.571602714
 20
78.9269105922
 10
164.617018056
 20
78.9164245773
 10
164.6640788274
 20
78.9087155493
 10
164.712328731
 20
78.9038582543
 10
164.7612999399
 20
78.9018997882
 10
164.8105176333
 20
78.9028591402
 10
164.8595046008
 20
78.9067270084
 10
164.9077858687
 20
78.9134658903
 10
164.9548933061
 20
78.9230104464
 10
165.0003701632
 20
78.9352681334
 10
165.0437755002
 20
78.9501201019
 10
165.0846884628
 20
78.9674223483
 10
165.1227123622
 20
78.9870071116
 10
165.1574785221
 20
79.0086844996
 10
165.1886498526
 20
79.0322443302
  0
LWPOLYLINE
  5
244
100
AcDbEntity
  8
ASSI
100
AcDbPolyline
 62
253
  6
CONTINUOUS
 90
16
 70
0
 10
164.5282731449
 20
78.9400719226
 10
164.571602714
 20
78.9269105922
 10
164.617018056
 20
78.9164245773
 10
164.6640788274
 20
78.9087155493
 10
164.712328731
 20
78.9038582543
 10
164.7612999399
 20
78.9018997882
 10
164.8105176333
 20
78.9028591402
 10
164.8595046008
 20
78.9067270084
 10
164.9077858687
 20
78.9134658903
 10
164.9548933061
 20
78.9230104464
 10
165.0003701632
 20
78.9352681334
 10
165.0437755002
 20
78.9501201019
 10
165.0846884628
 20
78.9674223483
 10
165.1227123622
 20
78.9870071116
 10
165.1574785221
 20
79.0086844996
 10
165.1886498526
 20
79.0322443302
  0
LWPOLYLINE
  5
245
100
AcDbEntity
  8
0
100
AcDbPolyline
 62
7
  6
CONTINUOUS
 90
12
 70
0
 10
164.7732974656
 20
78.4306607653
 10
164.8056126277
 20
78.4202176151
 10
164.8733005623
 20
78.4039939408
 10
164.9430753748
 20
78.3947431536
 10
165.0144126154
 20
78.3926775691
 10
165.0871433005
 20
78.3980131677
 10
165.1608271014
 20
78.410998359
 10
165.2347837416
 20
78.4317545727
 10
165.3088024577
 20
78.4604755145
 10
165.3827208865
 20
78.4974382741
 10
165.4561430955
 20
78.5427805959
 10
165.4698054755
 20
78.5522111908
  0
LWPOLYLINE
  5
246
100
AcDbEntity
  8
ASSI
100
AcDbPolyline
 62
7
  6
CONTINUOUS
 90
12
 70
0
 10
164.7732974656
 20
78.4306607653
 10
164.8056126277
 20
78.4202176151
 10
164.8733005623
 20
78.4039939408
 10
164.9430753748
 20
78.3947431536
 10
165.0144126154
 20
78.3926775691
 10
165.0871433005
 20
78.3980131677
 10
165.1608271014
 20
78.410998359
 10
165.2347837416
 20
78.4317545727
 10
165.3088024577
 20
78.4604755145
 10
165.3827208865
 20
78.4974382741
 10
165.4561430955
 20
78.5427805959
 10
165.4698054755
 20
78.5522111908
  0
LINE
  5
247
100
AcDbEntity
  8
0
100
AcDbLine
 62
7
  6
CONTINUOUS
 10
133.4427271072
 20
128.7778395858
 11
133.4433960197
 21
128.788744853
  0
LINE
  5
248
100
AcDbEntity
  8
ASSI
100
AcDbLine
 62
7
  6
CONTINUOUS
 10
133.4427271072
 20
128.7778395858
 11
133.4433960197
 21
128.788744853
  0
LINE
  5
249
100
AcDbEntity
  8
0
100
AcDbLine
 62
7
  6
CONTINUOUS
 10
133.5045482752
 20
129.2157455635
 11
133.4433960197
 21
128.788744853
  0
LINE
  5
24A
100
AcDbEntity
  8
ASSI
100
AcDbLine
 62
7
  6
CONTINUOUS
 10
133.5045482752
 20
129.2157455635
 11
133.4433960197
 21
128.788744853
  0
LWPOLYLINE
  5
24B
100
AcDbEntity
  8
ASSI
100
AcDbPolyline
 62
7
  6
CONTINUOUS
 90
10
 70
0
 10
128.9926475354
 20
109.9862292497
 10
128.9686142658
 20
109.9636353496
 10
128.9358639307
 20
109.9273599853
 10
128.9068354471
 20
109.8880965357
 10
128.8818719908
 20
109.8463701055
 10
128.861081542
 20
109.8024210243
 10
128.844571929
 20
109.7563785507
 10
128.8325755652
 20
109.7086194836
 10
128.8253195257
 20
109.6597530298
 10
128.8229209627
 20
109.6103220731
  0
LWPOLYLINE
  5
24C
100
AcDbEntity
  8
0
100
AcDbPolyline
 62
7
  6
CONTINUOUS
 90
10
 70
0
 10
128.9926475354
 20
109.9862292497
 10
128.9686142658
 20
109.9636353496
 10
128.9358639307
 20
109.9273599853
 10
128.9068354471
 20
109.8880965357
 10
128.8818719908
 20
109.8463701055
 10
128.861081542
 20
109.8024210243
 10
128.844571929
 20
109.7563785507
 10
128.8325755652
 20
109.7086194836
 10
128.8253195257
 20
109.6597530298
 10
128.8229209627
 20
109.6103220731
  0
LINE
  5
24D
100
AcDbEntity
  8
ASSI
100
AcDbLine
 62
7
  6
CONTINUOUS
 10
128.9927068599
 20
109.9862814452
 11
129.3162815801
 21
110.2708741243
  0
LINE
  5
24E
100
AcDbEntity
  8
0
100
AcDbLine
 62
7
  6
CONTINUOUS
 10
128.9927068599
 20
109.9862814452
 11
129.3162815801
 21
110.2708741243
  0
LINE
  5
24F
100
AcDbEntity
  8
ASSI
100
AcDbLine
 62
253
  6
CONTINUOUS
 10
129.3204180574
 20
110.0183469995
 11
129.5057973255
 21
110.1813930573
  0
LINE
  5
250
100
AcDbEntity
  8
0
100
AcDbLine
 62
253
  6
CONTINUOUS
 10
129.3204180574
 20
110.0183469995
 11
129.5057973255
 21
110.1813930573
  0
LWPOLYLINE
  5
251
100
AcDbEntity
  8
ASSI
100
AcDbPolyline
 62
253
  6
CONTINUOUS
 90
10
 70
0
 10
128.9927062237
 20
109.9862808857
 10
129.0108919266
 20
110.0007163518
 10
129.0415569151
 20
110.0192695624
 10
129.0753232041
 20
110.0333379577
 10
129.1118284452
 20
110.0427643665
 10
129.1506674026
 20
110.0474384068
 10
129.1914029767
 20
110.0473054116
 10
129.2335828323
 20
110.0423674723
 10
129.2767462334
 20
110.03267912
 10
129.3204180308
 20
110.0183469761
  0
LWPOLYLINE
  5
252
100
AcDbEntity
  8
0
100
AcDbPolyline
 62
253
  6
CONTINUOUS
 90
10
 70
0
 10
128.9927062237
 20
109.9862808857
 10
129.0108919266
 20
110.0007163518
 10
129.0415569151
 20
110.0192695624
 10
129.0753232041
 20
110.0333379577
 10
129.1118284452
 20
110.0427643665
 10
129.1506674026
 20
110.0474384068
 10
129.1914029767
 20
110.0473054116
 10
129.2335828323
 20
110.0423674723
 10
129.2767462334
 20
110.03267912
 10
129.3204180308
 20
110.0183469761
  0
LWPOLYLINE
  5
253
100
AcDbEntity
  8
0
100
AcDbPolyline
 62
253
  6
CONTINUOUS
 90
35
 70
0
 10
136.5598563239
 20
117.603716677
 10
136.5491413194
 20
117.5958505452
 10
136.5386751309
 20
117.5876934942
 10
136.5284529171
 20
117.5792491847
 10
136.518469837
 20
117.5705212774
 10
136.5087210494
 20
117.561513433
 10
136.499202784
 20
117.5522297492
 10
136.4899155532
 20
117.5426760716
 10
136.4808609402
 20
117.5328586827
 10
136.4720405284
 20
117.5227838651
 10
136.4634559008
 20
117.5124579014
 10
136.4551085187
 20
117.5018867025
 10
136.4469993555
 20
117.491074693
 10
136.4391292626
 20
117.4800259259
 10
136.4314990914
 20
117.4687444541
 10
136.4241096934
 20
117.4572343308
 10
136.4152132563
 20
117.4425312471
 10
136.4066985782
 20
117.4274847679
 10
136.3985698796
 20
117.4121024333
 10
136.3908313811
 20
117.3963917832
 10
136.3849244623
 20
117.3835916121
 10
136.3792727322
 20
117.3705880206
 10
136.3738789501
 20
117.3573828849
 10
136.3687458755
 20
117.3439780809
 10
136.3638762679
 20
117.3303754846
 10
136.359273188
 20
117.3165775616
 10
136.3549409029
 20
117.3025891359
 10
136.3508839808
 20
117.288415621
 10
136.3471069901
 20
117.2740624304
 10
136.3436144991
 20
117.2595349775
 10
136.3404110269
 20
117.2448369773
 10
136.3375008955
 20
117.2299653501
 10
136.3348883772
 20
117.2149153176
 10
136.3325777448
 20
117.1996821016
 10
136.3305732708
 20
117.1842609237
  0
LWPOLYLINE
  5
254
100
AcDbEntity
  8
0
100
AcDbPolyline
 62
253
  6
CONTINUOUS
 90
55
 70
0
 10
136.5598563239
 20
117.603716677
 10
136.5837625134
 20
117.6199693328
 10
136.6084041559
 20
117.6351994842
 10
136.6337671346
 20
117.6493932113
 10
136.6598373328
 20
117.6625365943
 10
136.6866006338
 20
117.6746157131
 10
136.7140429207
 20
117.685616648
 10
136.742150077
 20
117.6955254789
 10
136.7709017236
 20
117.7043298696
 10
136.8002524325
 20
117.712023818
 10
136.8301505133
 20
117.7186029058
 10
136.8605442757
 20
117.7240627145
 10
136.8913820294
 20
117.7283988257
 10
136.922612084
 20
117.7316068212
 10
136.9541827493
 20
117.7336822823
 10
136.986049238
 20
117.7346226658
 10
137.0181943751
 20
117.7344329285
 10
137.0506078891
 20
117.733119902
 10
137.083279508
 20
117.7306904182
 10
137.1161989601
 20
117.7271513089
 10
137.1493559737
 20
117.7225094058
 10
137.1827402769
 20
117.7167715408
 10
137.2219555592
 20
117.7087015978
 10
137.2614100959
 20
117.6991618334
 10
137.301047756
 20
117.6881648531
 10
137.3408124083
 20
117.6757232626
 10
137.3806479218
 20
117.6618496676
 10
137.4204981654
 20
117.6465566738
 10
137.4603087345
 20
117.6298595302
 10
137.5000321296
 20
117.6117840584
 10
137.5396225776
 20
117.5923587234
 10
137.5790343056
 20
117.5716119903
 10
137.6182215404
 20
117.549572324
 10
137.657138509
 20
117.5262681895
 10
137.6902488245
 20
117.5053055648
 10
137.723114445
 20
117.4834358869
 10
137.755722868
 20
117.4606601866
 10
137.7880615905
 20
117.4369794947
 10
137.8201181098
 20
117.412394842
 10
137.8518799232
 20
117.3869072592
 10
137.8833345279
 20
117.3605177772
 10
137.9144624532
 20
117.3332355462
 10
137.9452163573
 20
117.3051021936
 10
137.9755419304
 20
117.2761674664
 10
138.0053848626
 20
117.2464811117
 10
138.0346908442
 20
117.2160928764
 10
138.0634055653
 20
117.1850525073
 10
138.0914747163
 20
117.1534097516
 10
138.1188510857
 20
117.1212101679
 10
138.1455158564
 20
117.0884825624
 10
138.1714573094
 20
117.055251553
 10
138.1966637261
 20
117.0215417578
 10
138.2211233877
 20
116.9873777945
 10
138.2448245753
 20
116.9527842813
 10
138.2677555701
 20
116.917785836
  0
LINE
  5
255
100
AcDbEntity
  8
ASSI
100
AcDbLine
 62
253
  6
CONTINUOUS
 10
147.2560566513
 20
86.0294200052
 11
147.2305011295
 21
86.0260293694
  0
LINE
  5
256
100
AcDbEntity
  8
0
100
AcDbLine
 62
253
  6
CONTINUOUS
 10
147.2560566513
 20
86.0294200052
 11
147.2305011295
 21
86.0260293694
  0
LWPOLYLINE
  5
257
100
AcDbEntity
  8
ASSI
100
AcDbPolyline
 62
253
  6
CONTINUOUS
 90
4
 70
0
 10
147.2305011295
 20
86.0260293694
 10
147.204846552
 20
86.025803239
 10
147.1801339142
 20
86.0288257516
 10
147.1567288029
 20
86.0350518298
  0
LWPOLYLINE
  5
258
100
AcDbEntity
  8
0
100
AcDbPolyline
 62
253
  6
CONTINUOUS
 90
4
 70
0
 10
147.2305011295
 20
86.0260293694
 10
147.204846552
 20
86.025803239
 10
147.1801339142
 20
86.0288257516
 10
147.1567288029
 20
86.0350518298
  0
LWPOLYLINE
  5
259
100
AcDbEntity
  8
ASSI
100
AcDbPolyline
 62
253
  6
CONTINUOUS
 90
16
 70
0
 10
146.3430977617
 20
86.2436483316
 10
146.3864273308
 20
86.2304870013
 10
146.4318426728
 20
86.2200009864
 10
146.4789034442
 20
86.2122919584
 10
146.5271533478
 20
86.2074346634
 10
146.5761245567
 20
86.2054761973
 10
146.6253422501
 20
86.2064355493
 10
146.6743292176
 20
86.2103034175
 10
146.7226104855
 20
86.2170422994
 10
146.7697179229
 20
86.2265868555
 10
146.81519478
 20
86.2388445425
 10
146.858600117
 20
86.2536965109
 10
146.8995130796
 20
86.2709987574
 10
146.937536979
 20
86.2905835207
 10
146.9723031389
 20
86.3122609087
 10
147.0034744694
 20
86.3358207393
  0
LWPOLYLINE
  5
25A
100
AcDbEntity
  8
0
100
AcDbPolyline
 62
253
  6
CONTINUOUS
 90
16
 70
0
 10
146.3430977617
 20
86.2436483316
 10
146.3864273308
 20
86.2304870013
 10
146.4318426728
 20
86.2200009864
 10
146.4789034442
 20
86.2122919584
 10
146.5271533478
 20
86.2074346634
 10
146.5761245567
 20
86.2054761973
 10
146.6253422501
 20
86.2064355493
 10
146.6743292176
 20
86.2103034175
 10
146.7226104855
 20
86.2170422994
 10
146.7697179229
 20
86.2265868555
 10
146.81519478
 20
86.2388445425
 10
146.858600117
 20
86.2536965109
 10
146.8995130796
 20
86.2709987574
 10
146.937536979
 20
86.2905835207
 10
146.9723031389
 20
86.3122609087
 10
147.0034744694
 20
86.3358207393
  0
LWPOLYLINE
  5
25B
100
AcDbEntity
  8
ASSI
100
AcDbPolyline
 62
7
  6
CONTINUOUS
 90
12
 70
0
 10
146.5881220824
 20
85.7342371744
 10
146.6204372445
 20
85.7237940242
 10
146.6881251791
 20
85.7075703499
 10
146.7578999915
 20
85.6983195627
 10
146.8292372322
 20
85.6962539782
 10
146.9019679173
 20
85.7015895768
 10
146.9756517182
 20
85.7145747681
 10
147.0496083584
 20
85.7353309818
 10
147.1236270745
 20
85.7640519236
 10
147.1975455033
 20
85.8010146832
 10
147.2709677123
 20
85.846357005
 10
147.2756204842
 20
85.8495686274
  0
LWPOLYLINE
  5
25C
100
AcDbEntity
  8
0
100
AcDbPolyline
 62
7
  6
CONTINUOUS
 90
12
 70
0
 10
146.5881220824
 20
85.7342371744
 10
146.6204372445
 20
85.7237940242
 10
146.6881251791
 20
85.7075703499
 10
146.7578999915
 20
85.6983195627
 10
146.8292372322
 20
85.6962539782
 10
146.9019679173
 20
85.7015895768
 10
146.9756517182
 20
85.7145747681
 10
147.0496083584
 20
85.7353309818
 10
147.1236270745
 20
85.7640519236
 10
147.1975455033
 20
85.8010146832
 10
147.2709677123
 20
85.846357005
 10
147.2756204842
 20
85.8495686274
  0
LWPOLYLINE
  5
25D
100
AcDbEntity
  8
ASSI
100
AcDbPolyline
 62
253
  6
CONTINUOUS
 90
13
 70
0
 10
147.1567288029
 20
86.0350518298
 10
147.1346506632
 20
86.0445306619
 10
147.1138800498
 20
86.0572130597
 10
147.0947242138
 20
86.0729063799
 10
147.077208922
 20
86.0916549063
 10
147.0613084076
 20
86.1134143553
 10
147.0472526199
 20
86.1378592321
 10
147.0350679345
 20
86.1650458812
 10
147.0247279759
 20
86.1949179582
 10
147.0163835677
 20
86.2269809353
 10
147.0100849845
 20
86.2610699699
 10
147.0057819517
 20
86.2973499046
 10
147.0034744694
 20
86.3358207393
  0
LWPOLYLINE
  5
25E
100
AcDbEntity
  8
0
100
AcDbPolyline
 62
253
  6
CONTINUOUS
 90
13
 70
0
 10
147.1567288029
 20
86.0350518298
 10
147.1346506632
 20
86.0445306619
 10
147.1138800498
 20
86.0572130597
 10
147.0947242138
 20
86.0729063799
 10
147.077208922
 20
86.0916549063
 10
147.0613084076
 20
86.1134143553
 10
147.0472526199
 20
86.1378592321
 10
147.0350679345
 20
86.1650458812
 10
147.0247279759
 20
86.1949179582
 10
147.0163835677
 20
86.2269809353
 10
147.0100849845
 20
86.2610699699
 10
147.0057819517
 20
86.2973499046
 10
147.0034744694
 20
86.3358207393
  0
LWPOLYLINE
  5
25F
100
AcDbEntity
  8
ASSI
100
AcDbPolyline
 62
253
  6
CONTINUOUS
 90
13
 70
0
 10
146.5881152616
 20
85.7342396063
 10
146.5543249973
 20
85.7490340905
 10
146.5209376694
 20
85.7699468757
 10
146.4900255006
 20
85.7962053905
 10
146.4617301869
 20
85.8276817948
 10
146.4361758306
 20
85.864223945
 10
146.4135094175
 20
85.9056416441
 10
146.3938369405
 20
85.9517272165
 10
146.3772405336
 20
86.0022587519
 10
146.363812764
 20
86.056992453
 10
146.3536211207
 20
86.1156634043
 10
146.3467056652
 20
86.1779837661
 10
146.3430977614
 20
86.2436483359
  0
LWPOLYLINE
  5
260
100
AcDbEntity
  8
0
100
AcDbPolyline
 62
253
  6
CONTINUOUS
 90
13
 70
0
 10
146.5881152616
 20
85.7342396063
 10
146.5543249973
 20
85.7490340905
 10
146.5209376694
 20
85.7699468757
 10
146.4900255006
 20
85.7962053905
 10
146.4617301869
 20
85.8276817948
 10
146.4361758306
 20
85.864223945
 10
146.4135094175
 20
85.9056416441
 10
146.3938369405
 20
85.9517272165
 10
146.3772405336
 20
86.0022587519
 10
146.363812764
 20
86.056992453
 10
146.3536211207
 20
86.1156634043
 10
146.3467056652
 20
86.1779837661
 10
146.3430977614
 20
86.2436483359
  0
LWPOLYLINE
  5
261
100
AcDbEntity
  8
0
100
AcDbPolyline
 62
253
  6
CONTINUOUS
 90
13
 70
0
 10
164.7732906448
 20
78.4306631972
 10
164.7395003805
 20
78.4454576814
 10
164.7061130527
 20
78.4663704666
 10
164.6752008839
 20
78.4926289814
 10
164.6469055701
 20
78.5241053857
 10
164.6213512138
 20
78.5606475359
 10
164.5986848007
 20
78.602065235
 10
164.5790123237
 20
78.6481508074
 10
164.5624159168
 20
78.6986823428
 10
164.5489881472
 20
78.7534160439
 10
164.5387965039
 20
78.8120869952
 10
164.5318810484
 20
78.8744073571
 10
164.5282731446
 20
78.9400719268
  0
LWPOLYLINE
  5
262
100
AcDbEntity
  8
ASSI
100
AcDbPolyline
 62
253
  6
CONTINUOUS
 90
13
 70
0
 10
164.7732906448
 20
78.4306631972
 10
164.7395003805
 20
78.4454576814
 10
164.7061130527
 20
78.4663704666
 10
164.6752008839
 20
78.4926289814
 10
164.6469055701
 20
78.5241053857
 10
164.6213512138
 20
78.5606475359
 10
164.5986848007
 20
78.602065235
 10
164.5790123237
 20
78.6481508074
 10
164.5624159168
 20
78.6986823428
 10
164.5489881472
 20
78.7534160439
 10
164.5387965039
 20
78.8120869952
 10
164.5318810484
 20
78.8744073571
 10
164.5282731446
 20
78.9400719268
  0
LWPOLYLINE
  5
263
100
AcDbEntity
  8
ASSI
100
AcDbPolyline
 62
7
  6
CONTINUOUS
 90
10
 70
0
 10
129.4910014915
 20
92.600930844
 10
131.2343657279
 20
91.8126958419
 10
133.0943883789
 20
90.9955094803
 10
134.9756749203
 20
90.1931439675
 10
136.8778032251
 20
89.4057849835
 10
138.8003463861
 20
88.6336133409
 10
140.7428646856
 20
87.8768003616
 10
142.7049069457
 20
87.1355083106
 10
144.6860166179
 20
86.4098947277
 10
146.5890187724
 20
85.7339215605
  0
LWPOLYLINE
  5
264
100
AcDbEntity
  8
0
100
AcDbPolyline
 62
7
  6
CONTINUOUS
 90
10
 70
0
 10
129.4910014915
 20
92.600930844
 10
131.2343657279
 20
91.8126958419
 10
133.0943883789
 20
90.9955094803
 10
134.9756749203
 20
90.1931439675
 10
136.8778032251
 20
89.4057849835
 10
138.8003463861
 20
88.6336133409
 10
140.7428646856
 20
87.8768003616
 10
142.7049069457
 20
87.1355083106
 10
144.6860166179
 20
86.4098947277
 10
146.5890187724
 20
85.7339215605
  0
LWPOLYLINE
  5
265
100
AcDbEntity
  8
0
100
AcDbPolyline
 62
7
  6
CONTINUOUS
 90
10
 70
0
 10
147.6761768747
 20
85.2973544349
 10
149.4195411111
 20
84.5091194328
 10
151.2795637621
 20
83.6919330712
 10
153.1608503035
 20
82.8895675584
 10
155.0629786083
 20
82.1022085744
 10
156.9855217693
 20
81.3300369318
 10
158.9280400688
 20
80.5732239525
 10
160.8900823289
 20
79.8319319015
 10
162.8711920011
 20
79.1063183187
 10
164.7741941557
 20
78.4303451515
  0
LWPOLYLINE
  5
266
100
AcDbEntity
  8
ASSI
100
AcDbPolyline
 62
7
  6
CONTINUOUS
 90
10
 70
0
 10
147.6761768747
 20
85.2973544349
 10
149.4195411111
 20
84.5091194328
 10
151.2795637621
 20
83.6919330712
 10
153.1608503035
 20
82.8895675584
 10
155.0629786083
 20
82.1022085744
 10
156.9855217693
 20
81.3300369318
 10
158.9280400688
 20
80.5732239525
 10
160.8900823289
 20
79.8319319015
 10
162.8711920011
 20
79.1063183187
 10
164.7741941557
 20
78.4303451515
  0
LWPOLYLINE
  5
267
100
AcDbEntity
  8
ASSI
100
AcDbPolyline
 62
253
  6
CONTINUOUS
 90
31
 70
0
 10
129.2573905835
 20
93.1056535463
 10
129.7855728058
 20
92.8634769331
 10
130.3153479953
 20
92.6226828674
 10
130.8467048048
 20
92.3832740093
 10
131.3795069441
 20
92.1453085386
 10
131.9138671899
 20
91.9087328888
 10
132.4501514411
 20
91.6733847849
 10
132.9885264039
 20
91.4391938828
 10
133.5288107696
 20
91.2062417764
 10
134.070850585
 20
90.9745957208
 10
134.6145996759
 20
90.7442752804
 10
135.1600852313
 20
90.5152688344
 10
135.7072615524
 20
90.2875954748
 10
136.2561944231
 20
90.0612279013
 10
136.806799004
 20
89.8362012837
 10
137.3588008512
 20
89.6126261474
 10
137.9118303593
 20
89.3906470627
 10
138.4662303742
 20
89.1701209333
 10
139.0227999342
 20
88.9507307587
 10
139.5804755612
 20
88.7328962224
 10
140.1403039264
 20
88.5162072568
 10
140.7062916697
 20
88.2991381957
 10
141.2775126017
 20
88.0820901975
 10
141.8549463806
 20
87.8647331487
 10
142.4455538532
 20
87.6445278545
 10
143.0496262344
 20
87.4214966326
 10
143.6670547875
 20
87.1958073524
 10
144.3043192741
 20
86.9652467598
 10
144.9637067714
 20
86.7292046947
 10
145.6432477914
 20
86.4886170035
 10
146.3430977604
 20
86.2436483419
  0
LWPOLYLINE
  5
268
100
AcDbEntity
  8
0
100
AcDbPolyline
 62
253
  6
CONTINUOUS
 90
31
 70
0
 10
129.2573905835
 20
93.1056535463
 10
129.7855728058
 20
92.8634769331
 10
130.3153479953
 20
92.6226828674
 10
130.8467048048
 20
92.3832740093
 10
131.3795069441
 20
92.1453085386
 10
131.9138671899
 20
91.9087328888
 10
132.4501514411
 20
91.6733847849
 10
132.9885264039
 20
91.4391938828
 10
133.5288107696
 20
91.2062417764
 10
134.070850585
 20
90.9745957208
 10
134.6145996759
 20
90.7442752804
 10
135.1600852313
 20
90.5152688344
 10
135.7072615524
 20
90.2875954748
 10
136.2561944231
 20
90.0612279013
 10
136.806799004
 20
89.8362012837
 10
137.3588008512
 20
89.6126261474
 10
137.9118303593
 20
89.3906470627
 10
138.4662303742
 20
89.1701209333
 10
139.0227999342
 20
88.9507307587
 10
139.5804755612
 20
88.7328962224
 10
140.1403039264
 20
88.5162072568
 10
140.7062916697
 20
88.2991381957
 10
141.2775126017
 20
88.0820901975
 10
141.8549463806
 20
87.8647331487
 10
142.4455538532
 20
87.6445278545
 10
143.0496262344
 20
87.4214966326
 10
143.6670547875
 20
87.1958073524
 10
144.3043192741
 20
86.9652467598
 10
144.9637067714
 20
86.7292046947
 10
145.6432477914
 20
86.4886170035
 10
146.3430977604
 20
86.2436483419
  0
LWPOLYLINE
  5
269
100
AcDbEntity
  8
0
100
AcDbPolyline
 62
253
  6
CONTINUOUS
 90
31
 70
0
 10
147.4425659667
 20
85.8020771372
 10
147.970748189
 20
85.559900524
 10
148.5005233785
 20
85.3191064583
 10
149.0318801881
 20
85.0796976002
 10
149.5646823273
 20
84.8417321295
 10
150.0990425732
 20
84.6051564797
 10
150.6353268243
 20
84.3698083758
 10
151.1737017871
 20
84.1356174737
 10
151.7139861528
 20
83.9026653673
 10
152.2560259682
 20
83.6710193117
 10
152.7997750591
 20
83.4406988713
 10
153.3452606145
 20
83.2116924253
 10
153.8924369357
 20
82.9840190658
 10
154.4413698063
 20
82.7576514923
 10
154.9919743872
 20
82.5326248746
 10
155.5439762344
 20
82.3090497383
 10
156.0970057426
 20
82.0870706536
 10
156.6514057574
 20
81.8665445242
 10
157.2079753174
 20
81.6471543497
 10
157.7656509444
 20
81.4293198133
 10
158.3254793096
 20
81.2126308478
 10
158.8914670529
 20
80.9955617866
 10
159.462687985
 20
80.7785137884
 10
160.0401217638
 20
80.5611567396
 10
160.6307292365
 20
80.3409514454
 10
161.2348016176
 20
80.1179202235
 10
161.8522301707
 20
79.8922309433
 10
162.4894946573
 20
79.6616703508
 10
163.1488821546
 20
79.4256282856
 10
163.8284231746
 20
79.1850405944
 10
164.5282731436
 20
78.9400719328
  0
LWPOLYLINE
  5
26A
100
AcDbEntity
  8
ASSI
100
AcDbPolyline
 62
253
  6
CONTINUOUS
 90
31
 70
0
 10
147.4425659667
 20
85.8020771372
 10
147.970748189
 20
85.559900524
 10
148.5005233785
 20
85.3191064583
 10
149.0318801881
 20
85.0796976002
 10
149.5646823273
 20
84.8417321295
 10
150.0990425732
 20
84.6051564797
 10
150.6353268243
 20
84.3698083758
 10
151.1737017871
 20
84.1356174737
 10
151.7139861528
 20
83.9026653673
 10
152.2560259682
 20
83.6710193117
 10
152.7997750591
 20
83.4406988713
 10
153.3452606145
 20
83.2116924253
 10
153.8924369357
 20
82.9840190658
 10
154.4413698063
 20
82.7576514923
 10
154.9919743872
 20
82.5326248746
 10
155.5439762344
 20
82.3090497383
 10
156.0970057426
 20
82.0870706536
 10
156.6514057574
 20
81.8665445242
 10
157.2079753174
 20
81.6471543497
 10
157.7656509444
 20
81.4293198133
 10
158.3254793096
 20
81.2126308478
 10
158.8914670529
 20
80.9955617866
 10
159.462687985
 20
80.7785137884
 10
160.0401217638
 20
80.5611567396
 10
160.6307292365
 20
80.3409514454
 10
161.2348016176
 20
80.1179202235
 10
161.8522301707
 20
79.8922309433
 10
162.4894946573
 20
79.6616703508
 10
163.1488821546
 20
79.4256282856
 10
163.8284231746
 20
79.1850405944
 10
164.5282731436
 20
78.9400719328
  0
LWPOLYLINE
  5
26B
100
AcDbEntity
  8
ASSI
100
AcDbPolyline
 62
253
  6
CONTINUOUS
 90
10
 70
0
 10
129.2573986063
 20
93.1056596887
 10
129.2206130188
 20
93.1246742232
 10
129.1872218425
 20
93.145838396
 10
129.1575488291
 20
93.1689470051
 10
129.13188168
 20
93.1937759957
 10
129.1104692567
 20
93.2200846331
 10
129.0935191681
 20
93.247617836
 10
129.0811957575
 20
93.2761086504
 10
129.0736185094
 20
93.3052808369
 10
129.0709356113
 20
93.3313043527
  0
LWPOLYLINE
  5
26C
100
AcDbEntity
  8
0
100
AcDbPolyline
 62
253
  6
CONTINUOUS
 90
10
 70
0
 10
129.2573986063
 20
93.1056596887
 10
129.2206130188
 20
93.1246742232
 10
129.1872218425
 20
93.145838396
 10
129.1575488291
 20
93.1689470051
 10
129.13188168
 20
93.1937759957
 10
129.1104692567
 20
93.2200846331
 10
129.0935191681
 20
93.247617836
 10
129.0811957575
 20
93.2761086504
 10
129.0736185094
 20
93.3052808369
 10
129.0709356113
 20
93.3313043527
  0
LWPOLYLINE
  5
26D
100
AcDbEntity
  8
0
100
AcDbPolyline
 62
253
  6
CONTINUOUS
 90
10
 70
0
 10
147.4425739896
 20
85.8020832796
 10
147.405788402
 20
85.8210978141
 10
147.3723972257
 20
85.8422619869
 10
147.3427242124
 20
85.865370596
 10
147.3170570632
 20
85.8901995867
 10
147.2956446399
 20
85.916508224
 10
147.2786945513
 20
85.944041427
 10
147.2663711407
 20
85.9725322413
 10
147.2587938926
 20
86.0017044278
 10
147.2561109945
 20
86.0277279436
  0
LWPOLYLINE
  5
26E
100
AcDbEntity
  8
ASSI
100
AcDbPolyline
 62
253
  6
CONTINUOUS
 90
10
 70
0
 10
147.4425739896
 20
85.8020832796
 10
147.405788402
 20
85.8210978141
 10
147.3723972257
 20
85.8422619869
 10
147.3427242124
 20
85.865370596
 10
147.3170570632
 20
85.8901995867
 10
147.2956446399
 20
85.916508224
 10
147.2786945513
 20
85.944041427
 10
147.2663711407
 20
85.9725322413
 10
147.2587938926
 20
86.0017044278
 10
147.2561109945
 20
86.0277279436
  0
LINE
  5
26F
100
AcDbEntity
  8
0
100
AcDbLine
 62
7
  6
CONTINUOUS
 10
133.5045482752
 20
129.2157455635
 11
133.5106455409
 21
128.6884588695
  0
LINE
  5
270
100
AcDbEntity
  8
ASSI
100
AcDbLine
 62
7
  6
CONTINUOUS
 10
133.5045482752
 20
129.2157455635
 11
133.5106455409
 21
128.6884588695
  0
LINE
  5
271
100
AcDbEntity
  8
0
100
AcDbLine
 62
253
  6
CONTINUOUS
 10
133.4433960197
 20
128.788744853
 11
133.4433960208
 21
128.7778395858
  0
LINE
  5
272
100
AcDbEntity
  8
ASSI
100
AcDbLine
 62
253
  6
CONTINUOUS
 10
133.4433960197
 20
128.788744853
 11
133.4433960208
 21
128.7778395858
  0
LWPOLYLINE
  5
273
100
AcDbEntity
  8
0
100
AcDbPolyline
 62
253
  6
CONTINUOUS
 90
35
 70
0
 10
135.8464980023
 20
117.4317233104
 10
135.8496192228
 20
117.455783387
 10
135.8532165072
 20
117.4795533793
 10
135.857283371
 20
117.5030404753
 10
135.8618133296
 20
117.5262518629
 10
135.8667998987
 20
117.54919473
 10
135.8722365584
 20
117.5718737378
 10
135.8781166477
 20
117.5942834405
 10
135.8844334699
 20
117.6164158654
 10
135.8911803288
 20
117.6382630398
 10
135.8983505278
 20
117.6598169911
 10
135.9059377998
 20
117.6810705101
 10
135.9139375949
 20
117.702019442
 10
135.9223457925
 20
117.7226603951
 10
135.9311582722
 20
117.7429899782
 10
135.9403709134
 20
117.7630047997
 10
135.9524434185
 20
117.7875745781
 10
135.9651282126
 20
117.8116349282
 10
135.9784187709
 20
117.8351735355
 10
135.9923085683
 20
117.8581780857
 10
136.0038479343
 20
117.8761889783
 10
136.0157660596
 20
117.8938441802
 10
136.0280623662
 20
117.9111376787
 10
136.0407362763
 20
117.9280634608
 10
136.0537872121
 20
117.9446155137
 10
136.0672140067
 20
117.9607868798
 10
136.0810131378
 20
117.976566823
 10
136.0951804944
 20
117.9919436624
 10
136.1097119651
 20
118.0069057173
 10
136.1246034389
 20
118.0214413068
 10
136.1398528145
 20
118.0355398893
 10
136.1554660311
 20
118.0491954802
 10
136.1714510375
 20
118.0624032339
 10
136.1878157827
 20
118.0751583052
 10
136.2045682157
 20
118.0874558484
  0
LINE
  5
274
100
AcDbEntity
  8
ASSI
100
AcDbLine
 62
7
  6
CONTINUOUS
 10
149.1836409113
 20
122.7666268029
 11
147.7800223647
 21
121.4411430385
  0
LINE
  5
275
100
AcDbEntity
  8
0
100
AcDbLine
 62
7
  6
CONTINUOUS
 10
149.1836409113
 20
122.7666268029
 11
147.7800223647
 21
121.4411430385
  0
LWPOLYLINE
  5
276
100
AcDbEntity
  8
SUPERFICI
100
AcDbPolyline
 62
7
  6
CONTINUOUS
 90
34
 70
0
 10
134.8538939333
 20
111.5677178654
 10
134.8503589862
 20
111.5646438517
 10
134.8172570912
 20
111.532397357
 10
134.7875282218
 20
111.4968482681
 10
134.7612837877
 20
111.4580390088
 10
134.7384092979
 20
111.4159247174
 10
134.7191535349
 20
111.3709519449
 10
134.7035243075
 20
111.3229529809
 10
134.6915119063
 20
111.2720940307
 10
134.6833385531
 20
111.2193222858
 10
134.679077796
 20
111.1647528788
 10
134.6786551369
 20
111.1082699131
 10
134.6820705848
 20
111.050473916
 10
134.6893902277
 20
110.9912016309
 10
134.7005486547
 20
110.9306168336
 10
134.7153485152
 20
110.8698105052
 10
134.7338131998
 20
110.8089088746
 10
134.7559210553
 20
110.7477870672
 10
134.7814069131
 20
110.6871592053
 10
134.8103614904
 20
110.6269322893
 10
134.842696993
 20
110.5672016183
 10
134.8778799855
 20
110.508963366
 10
134.9159150728
 20
110.4523099479
 10
134.9568008215
 20
110.3971514569
 10
134.9999938763
 20
110.344209903
 10
135.0455528272
 20
110.2934826838
 10
135.093422301
 20
110.2449749631
 10
135.1428868369
 20
110.1994194834
 10
135.1939967158
 20
110.1568555291
 10
135.2467041509
 20
110.1172458205
 10
135.3001449337
 20
110.0812069471
 10
135.3540309124
 20
110.0489443837
 10
135.4086511263
 20
110.0202533933
 10
135.464006284
 20
109.9951345584
  0
LINE
  5
277
100
AcDbEntity
  8
0
100
AcDbLine
 62
253
  6
CONTINUOUS
 10
146.9825220643
 20
121.9264752939
 11
148.4847963129
 21
123.1993402298
  0
LINE
  5
278
100
AcDbEntity
  8
ASSI
100
AcDbLine
 62
253
  6
CONTINUOUS
 10
146.9825220643
 20
121.9264752939
 11
148.4847963129
 21
123.1993402298
  0
LINE
  5
279
100
AcDbEntity
  8
0
100
AcDbLine
 62
253
  6
CONTINUOUS
 10
147.3994598302
 20
121.3591673423
 11
148.9198616813
 21
122.6473916504
  0
LINE
  5
27A
100
AcDbEntity
  8
ASSI
100
AcDbLine
 62
253
  6
CONTINUOUS
 10
147.3994598302
 20
121.3591673423
 11
148.9198616813
 21
122.6473916504
  0
LWPOLYLINE
  5
27B
100
AcDbEntity
  8
0
100
AcDbPolyline
 62
7
  6
CONTINUOUS
 90
12
 70
0
 10
134.8538788863
 20
111.5677365888
 10
134.8691581294
 20
111.5802724475
 10
134.9162211207
 20
111.6124317535
 10
134.9677035341
 20
111.6383587104
 10
135.0234245334
 20
111.6581623561
 10
135.0819296923
 20
111.671425918
 10
135.1431666014
 20
111.6779893518
 10
135.2071923427
 20
111.6780164109
 10
135.2727132989
 20
111.6715732936
 10
135.3392983471
 20
111.6586821359
 10
135.4073809516
 20
111.639322678
 10
135.4769628859
 20
111.6134963436
  0
LWPOLYLINE
  5
27C
100
AcDbEntity
  8
ASSI
100
AcDbPolyline
 62
7
  6
CONTINUOUS
 90
12
 70
0
 10
134.8538788863
 20
111.5677365888
 10
134.8691581294
 20
111.5802724475
 10
134.9162211207
 20
111.6124317535
 10
134.9677035341
 20
111.6383587104
 10
135.0234245334
 20
111.6581623561
 10
135.0819296923
 20
111.671425918
 10
135.1431666014
 20
111.6779893518
 10
135.2071923427
 20
111.6780164109
 10
135.2727132989
 20
111.6715732936
 10
135.3392983471
 20
111.6586821359
 10
135.4073809516
 20
111.639322678
 10
135.4769628859
 20
111.6134963436
  0
LINE
  5
27D
100
AcDbEntity
  8
SUPERFICI
100
AcDbLine
 62
7
  6
CONTINUOUS
 10
134.8862456949
 20
111.5930098095
 11
134.8538939333
 21
111.5677178654
  0
LWPOLYLINE
  5
27E
100
AcDbEntity
  8
0
100
AcDbPolyline
 62
253
  6
CONTINUOUS
 90
35
 70
0
 10
138.5746441261
 20
113.6329048585
 10
138.5915023726
 20
113.6452905886
 10
138.6079706068
 20
113.6581299128
 10
138.6240565122
 20
113.6714176877
 10
138.6397677724
 20
113.6851487699
 10
138.6551120707
 20
113.6993180161
 10
138.6700952186
 20
113.713919332
 10
138.6847155392
 20
113.7289428193
 10
138.6989694834
 20
113.7443776285
 10
138.7128535022
 20
113.7602129106
 10
138.7263640466
 20
113.7764378161
 10
138.7394979791
 20
113.7930422769
 10
138.7522538084
 20
113.8100193498
 10
138.7646304549
 20
113.8273628726
 10
138.7766268389
 20
113.8450666832
 10
138.7882418808
 20
113.8631246195
 10
138.8022219701
 20
113.8861855948
 10
138.8155975812
 20
113.9097779471
 10
138.8283617703
 20
113.9338893606
 10
138.8405075932
 20
113.9585075193
 10
138.8497742286
 20
113.9785591818
 10
138.8586363122
 20
113.9989243054
 10
138.8670894908
 20
114.0195999162
 10
138.875129411
 20
114.0405830407
 10
138.8827517197
 20
114.0618707051
 10
138.8899515719
 20
114.0834589067
 10
138.8967221566
 20
114.1053395265
 10
138.9030561713
 20
114.1275034166
 10
138.9089463132
 20
114.1499414289
 10
138.9143852797
 20
114.1726444154
 10
138.9193658855
 20
114.1956059891
 10
138.9238814134
 20
114.2188308058
 10
138.9279252636
 20
114.2423262825
 10
138.9314908362
 20
114.2660998358
 10
138.9345715313
 20
114.2901588827
  0
LWPOLYLINE
  5
27F
100
AcDbEntity
  8
0
100
AcDbPolyline
 62
253
  6
CONTINUOUS
 90
55
 70
0
 10
138.5746436716
 20
113.6329054563
 10
138.5403620375
 20
113.6095675586
 10
138.5050234193
 20
113.5876767994
 10
138.4686474069
 20
113.5672547884
 10
138.4312535899
 20
113.5483231353
 10
138.3928615581
 20
113.5309034496
 10
138.3534909012
 20
113.515017341
 10
138.313161209
 20
113.5006864191
 10
138.2719015879
 20
113.4879300772
 10
138.2297792114
 20
113.4767588421
 10
138.1868707698
 20
113.4671810245
 10
138.1432529534
 20
113.4592049348
 10
138.0990024523
 20
113.4528388836
 10
138.0541959568
 20
113.4480911814
 10
138.0089101572
 20
113.4449701386
 10
137.9632116362
 20
113.4434809834
 10
137.9171265469
 20
113.4436166137
 10
137.8706709351
 20
113.4453668451
 10
137.8238608462
 20
113.4487214932
 10
137.776712326
 20
113.4536703735
 10
137.7292414201
 20
113.4602033015
 10
137.6814641741
 20
113.4683100929
 10
137.6253668323
 20
113.4797436123
 10
137.5689511575
 20
113.4932892689
 10
137.5122939401
 20
113.5089308592
 10
137.4554719699
 20
113.5266521798
 10
137.3985620371
 20
113.5464370271
 10
137.3416409318
 20
113.5682691977
 10
137.2847840055
 20
113.5921282009
 10
137.2280608559
 20
113.6179763973
 10
137.1715396421
 20
113.6457718603
 10
137.1152885231
 20
113.6754726633
 10
137.0593756581
 20
113.7070368797
 10
137.0038692061
 20
113.7404225829
 10
136.9566631353
 20
113.7704608695
 10
136.9098231566
 20
113.8018041596
 10
136.8633666966
 20
113.8344500252
 10
136.8173111821
 20
113.8683960378
 10
136.7716740398
 20
113.9036397692
 10
136.7264726966
 20
113.9401787909
 10
136.6817245791
 20
113.9780106748
 10
136.637456887
 20
114.0171214183
 10
136.5937359115
 20
114.0574507224
 10
136.550637717
 20
114.0989267139
 10
136.5082383675
 20
114.1414775194
 10
136.4666139272
 20
114.1850312659
 10
136.4258404604
 20
114.22951608
 10
136.3859940311
 20
114.2748600886
 10
136.3471406176
 20
114.3209973927
 10
136.3093058537
 20
114.3678859905
 10
136.2725052871
 20
114.4154898546
 10
136.2367544657
 20
114.4637729575
 10
136.2020689372
 20
114.5126992717
 10
136.1684642495
 20
114.5622327697
 10
136.1359559504
 20
114.6123374241
  0
LWPOLYLINE
  5
280
100
AcDbEntity
  8
0
100
AcDbPolyline
 62
253
  6
CONTINUOUS
 90
55
 70
0
 10
138.2122350945
 20
114.110811881
 10
138.1882196407
 20
114.0944699961
 10
138.1634664937
 20
114.0791489629
 10
138.137990352
 20
114.0648631095
 10
138.1118059142
 20
114.0516267639
 10
138.0849278786
 20
114.0394542542
 10
138.0573709439
 20
114.0283599085
 10
138.0291498083
 20
114.0183580548
 10
138.0002854172
 20
114.009461453
 10
137.9708237023
 20
114.0016765897
 10
137.9408168421
 20
113.9950083836
 10
137.9103170151
 20
113.9894617531
 10
137.8793763998
 20
113.9850416167
 10
137.8480471748
 20
113.981752893
 10
137.8163815184
 20
113.9796005004
 10
137.7844247336
 20
113.9785874025
 10
137.7521946198
 20
113.978708742
 10
137.719702101
 20
113.9799577069
 10
137.686958101
 20
113.982327485
 10
137.6539735439
 20
113.9858112641
 10
137.6207593534
 20
113.9904022322
 10
137.5873264535
 20
113.9960935769
 10
137.5480657991
 20
114.0041149842
 10
137.50857715
 20
114.0136130727
 10
137.4689153307
 20
114.0245760609
 10
137.4291351658
 20
114.0369921669
 10
137.3892914797
 20
114.0508496093
 10
137.3494390971
 20
114.0661366063
 10
137.3096315569
 20
114.0828384646
 10
137.2699172561
 20
114.1009288441
 10
137.2303433064
 20
114.120378493
 10
137.1909568193
 20
114.1411581593
 10
137.1518049065
 20
114.1632385914
 10
137.1129346793
 20
114.1865905373
 10
137.0798742742
 20
114.2075992297
 10
137.0470672353
 20
114.2295195285
 10
137.0145253635
 20
114.252350358
 10
136.9822604598
 20
114.2760906424
 10
136.9502843249
 20
114.3007393057
 10
136.9186087598
 20
114.3262952723
 10
136.8872455654
 20
114.3527574662
 10
136.8562135416
 20
114.3801166202
 10
136.8255594849
 20
114.4083307018
 10
136.795337191
 20
114.437349487
 10
136.7656004555
 20
114.4671227518
 10
136.7364030739
 20
114.4976002723
 10
136.7077988419
 20
114.5287318244
 10
136.679841555
 20
114.5604671841
 10
136.6525779012
 20
114.5927603265
 10
136.6260261365
 20
114.6255820219
 10
136.6001974096
 20
114.6589072397
 10
136.5751028689
 20
114.6927109492
 10
136.5507536628
 20
114.7269681199
 10
136.5271609397
 20
114.761653721
 10
136.5043358482
 20
114.796742722
  0
LINE
  5
281
100
AcDbEntity
  8
ASSI
100
AcDbLine
 62
7
  6
CONTINUOUS
 10
155.30801121
 20
120.4589833014
 11
154.672106293
 21
120.2628162172
  0
LINE
  5
282
100
AcDbEntity
  8
0
100
AcDbLine
 62
7
  6
CONTINUOUS
 10
155.30801121
 20
120.4589833014
 11
154.672106293
 21
120.2628162172
  0
LWPOLYLINE
  5
283
100
AcDbEntity
  8
0
100
AcDbPolyline
 62
253
  6
CONTINUOUS
 90
35
 70
0
 10
136.2045677715
 20
95.8280440659
 10
136.1878372662
 20
95.8530002195
 10
136.1714933719
 20
95.8780839554
 10
136.1555283807
 20
95.9032964098
 10
136.1399345851
 20
95.928638719
 10
136.1247042772
 20
95.9541120192
 10
136.1098316055
 20
95.9797150811
 10
136.095318143
 20
96.0054372141
 10
136.0811673188
 20
96.031265362
 10
136.0673825622
 20
96.0571864688
 10
136.0539673021
 20
96.0831874782
 10
136.0409245587
 20
96.1092563995
 10
136.0282557154
 20
96.1353855022
 10
136.0159617464
 20
96.1615681214
 10
136.0040436262
 20
96.1877975918
 10
135.9925023291
 20
96.2140672483
 10
135.9786078992
 20
96.2469499992
 10
135.9653104791
 20
96.2798680429
 10
135.9526167702
 20
96.3128042956
 10
135.9405334741
 20
96.3457416734
 10
135.9313109676
 20
96.3720813293
 10
135.9224876252
 20
96.3984045671
 10
135.9140676577
 20
96.4247051823
 10
135.9060552761
 20
96.4509769703
 10
135.8984546914
 20
96.4772137266
 10
135.8912706035
 20
96.5034078822
 10
135.8845096678
 20
96.5295464108
 10
135.8781790286
 20
96.5556149216
 10
135.8722858303
 20
96.5815990238
 10
135.8668372171
 20
96.6074843268
 10
135.8618402088
 20
96.6332591634
 10
135.8573013262
 20
96.6589227607
 10
135.8532269659
 20
96.6844770694
 10
135.8496235241
 20
96.7099240403
 10
135.8464973971
 20
96.7352656241
  0
LWPOLYLINE
  5
284
100
AcDbEntity
  8
0
100
AcDbPolyline
 62
253
  6
CONTINUOUS
 90
35
 70
0
 10
135.8093383444
 20
115.5453230393
 10
135.8114706765
 20
115.5192060927
 10
135.8140826392
 20
115.4929865614
 10
135.8171675445
 20
115.4666627924
 10
135.8207187046
 20
115.4402331326
 10
135.8247294316
 20
115.4136959288
 10
135.8291931046
 20
115.3870520261
 10
135.8341033702
 20
115.3603122622
 10
135.8394539415
 20
115.333489973
 10
135.8452385322
 20
115.3065984943
 10
135.8514508554
 20
115.2796511619
 10
135.8580850194
 20
115.2526602168
 10
135.8651367105
 20
115.2256335196
 10
135.87260201
 20
115.198577836
 10
135.8804769992
 20
115.1714999316
 10
135.8887577591
 20
115.1444065721
 10
135.8996736428
 20
115.1105291732
 10
135.9112114985
 20
115.0766557736
 10
135.9233654043
 20
115.0428039499
 10
135.9361294385
 20
115.0089912788
 10
135.94677643
 20
114.9819807247
 10
135.9578097885
 20
114.9550129658
 10
135.969229189
 20
114.9280944906
 10
135.9810343063
 20
114.9012317878
 10
135.9932248153
 20
114.8744313457
 10
136.0057998507
 20
114.847701054
 10
136.0187563856
 20
114.8210544055
 10
136.0320908533
 20
114.794506294
 10
136.0457996866
 20
114.7680716134
 10
136.0598793187
 20
114.7417652574
 10
136.0743281133
 20
114.7155993823
 10
136.0891521567
 20
114.6895751935
 10
136.104359466
 20
114.6636911589
 10
136.1199580582
 20
114.6379457465
 10
136.1359559504
 20
114.6123374241
  0
LWPOLYLINE
  5
285
100
AcDbEntity
  8
0
100
AcDbPolyline
 62
253
  6
CONTINUOUS
 90
13
 70
0
 10
136.2951734714
 20
115.392721386
 10
136.2898480875
 20
115.4697892144
 10
136.2851130356
 20
115.5466826621
 10
136.2809685952
 20
115.6233968952
 10
136.2774150456
 20
115.6999270798
 10
136.2744526449
 20
115.7762683603
 10
136.2720815655
 20
115.8524157934
 10
136.2703019585
 20
115.9283644143
 10
136.269113975
 20
116.0041092579
 10
136.2685177428
 20
116.079645403
 10
136.2685132966
 20
116.1549681033
 10
136.2691006478
 20
116.2300726565
 10
136.2702798078
 20
116.3049543599
  0
LWPOLYLINE
  5
286
100
AcDbEntity
  8
0
100
AcDbPolyline
 62
253
  6
CONTINUOUS
 90
13
 70
0
 10
135.8093375941
 20
115.5453232764
 10
135.8037410281
 20
115.6264871864
 10
135.7987647123
 20
115.7074657586
 10
135.7944089306
 20
115.7882537861
 10
135.7906739671
 20
115.8688460621
 10
135.7875600835
 20
115.9492374391
 10
135.7850674524
 20
116.0294230065
 10
135.783196224
 20
116.109397913
 10
135.7819465486
 20
116.1891573072
 10
135.7813185567
 20
116.2686963008
 10
135.7813122996
 20
116.3480098572
 10
135.7819278089
 20
116.427092903
 10
135.7831651161
 20
116.5059403644
  0
LWPOLYLINE
  5
287
100
AcDbEntity
  8
0
100
AcDbPolyline
 62
253
  6
CONTINUOUS
 90
13
 70
0
 10
135.7831652594
 20
97.6654432864
 10
135.7819279475
 20
97.7415072029
 10
135.7813124324
 20
97.8173229717
 10
135.7813186935
 20
97.8928858691
 10
135.78194671
 20
97.9681911716
 10
135.7831964373
 20
98.0432341374
 10
135.7850677334
 20
98.1180099526
 10
135.7875604322
 20
98.1925137849
 10
135.7906743678
 20
98.2667408021
 10
135.7944093518
 20
98.3406862207
 10
135.7987651073
 20
98.4143454519
 10
135.8037413354
 20
98.4877139554
 10
135.809337737
 20
98.5607871908
  0
LWPOLYLINE
  5
288
100
AcDbEntity
  8
0
100
AcDbPolyline
 62
253
  6
CONTINUOUS
 90
13
 70
0
 10
136.2702799247
 20
97.4644572933
 10
136.2691007608
 20
97.5366886675
 10
136.2685134012
 20
97.608685739
 10
136.2685178496
 20
97.6804441722
 10
136.2691141093
 20
97.7519596318
 10
136.2703021549
 20
97.8232276661
 10
136.2720818446
 20
97.8942433588
 10
136.2744530077
 20
97.9650016773
 10
136.2774154734
 20
98.0354975891
 10
136.2809690497
 20
98.1057262088
 10
136.2851134596
 20
98.1756832393
 10
136.2898484051
 20
98.2453645309
 10
136.295173588
 20
98.3147659335
  0
LWPOLYLINE
  5
289
100
AcDbEntity
  8
0
100
AcDbPolyline
 62
253
  6
CONTINUOUS
 90
13
 70
0
 10
135.7831652594
 20
116.505940305
 10
135.7850283074
 20
116.584537109
 10
135.7875128755
 20
116.6628865682
 10
135.7906187879
 20
116.7409835573
 10
135.7943458694
 20
116.818822951
 10
135.7986939359
 20
116.8963997856
 10
135.8036627701
 20
116.9737097442
 10
135.8092521463
 20
117.0507486715
 10
135.8154618387
 20
117.1275124123
 10
135.8222915925
 20
117.2039966741
 10
135.8297410368
 20
117.2801966154
 10
135.8378097716
 20
117.3561072573
 10
135.8464973971
 20
117.431723621
  0
LWPOLYLINE
  5
28A
100
AcDbEntity
  8
0
100
AcDbPolyline
 62
253
  6
CONTINUOUS
 90
13
 70
0
 10
136.2702799247
 20
116.3049543119
 10
136.2720546385
 20
116.3795993009
 10
136.2744208882
 20
116.454010482
 10
136.2773784991
 20
116.5281829793
 10
136.280927296
 20
116.602111917
 10
136.2850670962
 20
116.6757925736
 10
136.2897976841
 20
116.7492208457
 10
136.2951188365
 20
116.8223927843
 10
136.3010303297
 20
116.8953044404
 10
136.3075319126
 20
116.9679517333
 10
136.3146232222
 20
117.0403300552
 10
136.3223038676
 20
117.1124346667
 10
136.3305734583
 20
117.1842608282
  0
LWPOLYLINE
  5
28B
100
AcDbEntity
  8
0
100
AcDbPolyline
 62
253
  6
CONTINUOUS
 90
35
 70
0
 10
136.295173588
 20
98.3147659335
 10
136.2965394463
 20
98.3296367068
 10
136.2982126871
 20
98.3443222246
 10
136.3001887827
 20
98.3588267568
 10
136.3024632057
 20
98.3731545736
 10
136.3050314285
 20
98.3873099449
 10
136.3078890362
 20
98.4012957701
 10
136.3110320646
 20
98.4151094664
 10
136.3144566623
 20
98.4287470801
 10
136.3181589777
 20
98.4422046578
 10
136.3221351595
 20
98.4554782459
 10
136.326381573
 20
98.4685641562
 10
136.3308954519
 20
98.4814597624
 10
136.3356742466
 20
98.4941627033
 10
136.3407154077
 20
98.5066706178
 10
136.3460163856
 20
98.5189811448
 10
136.3530043065
 20
98.5340876681
 10
136.3603905192
 20
98.548874698
 10
136.3681713351
 20
98.5633348481
 10
136.3763430657
 20
98.577460732
 10
136.3831597073
 20
98.5885158022
 10
136.3902239493
 20
98.599348423
 10
136.3975355673
 20
98.6099548026
 10
136.4050943369
 20
98.6203311492
 10
136.4129000337
 20
98.630473671
 10
136.4209521308
 20
98.640378033
 10
136.4292488918
 20
98.6500377271
 10
136.4377882776
 20
98.6594457022
 10
136.4465682492
 20
98.6685949069
 10
136.4555867676
 20
98.6774782899
 10
136.464842992
 20
98.6860894296
 10
136.4743408754
 20
98.6944244216
 10
136.4840855689
 20
98.7024799913
 10
136.4940822237
 20
98.7102528639
 10
136.5043359909
 20
98.7177397645
  0
LWPOLYLINE
  5
28C
100
AcDbEntity
  8
0
100
AcDbPolyline
 62
253
  6
CONTINUOUS
 90
35
 70
0
 10
138.4418729247
 20
114.5305584998
 10
138.4399092224
 20
114.5151980013
 10
138.4376370732
 20
114.5000218865
 10
138.4350609938
 20
114.4850258763
 10
138.4321855008
 20
114.4702056918
 10
138.429015111
 20
114.4555570542
 10
138.425554278
 20
114.4410770957
 10
138.4218072031
 20
114.4267685935
 10
138.4177780244
 20
114.4126357361
 10
138.4134708804
 20
114.3986827118
 10
138.408889909
 20
114.3849137091
 10
138.4040390165
 20
114.3713326385
 10
138.3989211802
 20
114.3579422994
 10
138.3935391451
 20
114.344745213
 10
138.3878956566
 20
114.3317439007
 10
138.3819934598
 20
114.3189408839
 10
138.3742558847
 20
114.3032202799
 10
138.3661225135
 20
114.2878212136
 10
138.3575974923
 20
114.2727514463
 10
138.3486849675
 20
114.2580187392
 10
138.3412784474
 20
114.2464804688
 10
138.3336269983
 20
114.2351668362
 10
138.3257310402
 20
114.2240817932
 10
138.3175909929
 20
114.2132292917
 10
138.3092072762
 20
114.2026132837
 10
138.3005806407
 20
114.1922382874
 10
138.2917131592
 20
114.1821110865
 10
138.2826072355
 20
114.1722390308
 10
138.2732652732
 20
114.1626294703
 10
138.263689676
 20
114.1532897548
 10
138.2538815967
 20
114.1442265622
 10
138.2438371855
 20
114.1354438808
 10
138.2335513418
 20
114.1269450268
 10
138.223018965
 20
114.1187333165
 10
138.2122349546
 20
114.110812066
  0
LWPOLYLINE
  5
28D
100
AcDbEntity
  8
ASSI
100
AcDbPolyline
 62
7
  6
CONTINUOUS
 90
19
 70
0
 10
147.7804718181
 20
121.4415584736
 10
147.7723929544
 20
121.4338633972
 10
147.7154663309
 20
121.3754151167
 10
147.6622584077
 20
121.3135971023
 10
147.6126219606
 20
121.2489286364
 10
147.5662389129
 20
121.181613571
 10
147.5228702148
 20
121.1117408535
 10
147.4825094502
 20
121.039655954
 10
147.4451386795
 20
120.9656034737
 10
147.4107440121
 20
120.8897150372
 10
147.3794034476
 20
120.812276405
 10
147.3512243577
 20
120.7335458067
 10
147.3262913462
 20
120.6536657906
 10
147.3047512149
 20
120.5728619785
 10
147.2868085346
 20
120.4914166731
 10
147.2726373892
 20
120.4093800288
 10
147.2625016955
 20
120.3268022525
 10
147.2567438364
 20
120.2439701499
 10
147.256074793
 20
120.2248169974
  0
LWPOLYLINE
  5
28E
100
AcDbEntity
  8
0
100
AcDbPolyline
 62
7
  6
CONTINUOUS
 90
19
 70
0
 10
147.7804718181
 20
121.4415584736
 10
147.7723929544
 20
121.4338633972
 10
147.7154663309
 20
121.3754151167
 10
147.6622584077
 20
121.3135971023
 10
147.6126219606
 20
121.2489286364
 10
147.5662389129
 20
121.181613571
 10
147.5228702148
 20
121.1117408535
 10
147.4825094502
 20
121.039655954
 10
147.4451386795
 20
120.9656034737
 10
147.4107440121
 20
120.8897150372
 10
147.3794034476
 20
120.812276405
 10
147.3512243577
 20
120.7335458067
 10
147.3262913462
 20
120.6536657906
 10
147.3047512149
 20
120.5728619785
 10
147.2868085346
 20
120.4914166731
 10
147.2726373892
 20
120.4093800288
 10
147.2625016955
 20
120.3268022525
 10
147.2567438364
 20
120.2439701499
 10
147.256074793
 20
120.2248169974
  0
LINE
  5
28F
100
AcDbEntity
  8
ASSI
100
AcDbLine
 62
253
  6
CONTINUOUS
 10
149.5022660683
 20
122.7907014377
 11
148.1083034527
 21
121.4743360907
  0
LINE
  5
290
100
AcDbEntity
  8
0
100
AcDbLine
 62
253
  6
CONTINUOUS
 10
149.5022660683
 20
122.7907014377
 11
148.1083034527
 21
121.4743360907
  0
LWPOLYLINE
  5
291
100
AcDbEntity
  8
ASSI
100
AcDbPolyline
 62
253
  6
CONTINUOUS
 90
22
 70
0
 10
148.1083034526
 20
121.4743360907
 10
148.0591421311
 20
121.4290669845
 10
148.0103739277
 20
121.3793371362
 10
147.9622573075
 20
121.3253866051
 10
147.9150650537
 20
121.2674706716
 10
147.8690287195
 20
121.2058755073
 10
147.8243377757
 20
121.1409155581
 10
147.7812250525
 20
121.0729017647
 10
147.7399225114
 20
121.0021662784
 10
147.7006056195
 20
120.9290775097
 10
147.663480024
 20
120.8539934994
 10
147.6287431019
 20
120.7772765956
 10
147.5965399974
 20
120.6993170756
 10
147.5670372852
 20
120.6204953002
 10
147.5403931112
 20
120.5411946171
 10
147.5167183679
 20
120.461816465
 10
147.4961353797
 20
120.3827555461
 10
147.4787531505
 20
120.3043903415
 10
147.4646401354
 20
120.2270965502
 10
147.4538649239
 20
120.151250557
 10
147.446493428
 20
120.0772270096
 10
147.4425659583
 20
120.0053898234
  0
LWPOLYLINE
  5
292
100
AcDbEntity
  8
0
100
AcDbPolyline
 62
253
  6
CONTINUOUS
 90
22
 70
0
 10
148.1083034526
 20
121.4743360907
 10
148.0591421311
 20
121.4290669845
 10
148.0103739277
 20
121.3793371362
 10
147.9622573075
 20
121.3253866051
 10
147.9150650537
 20
121.2674706716
 10
147.8690287195
 20
121.2058755073
 10
147.8243377757
 20
121.1409155581
 10
147.7812250525
 20
121.0729017647
 10
147.7399225114
 20
121.0021662784
 10
147.7006056195
 20
120.9290775097
 10
147.663480024
 20
120.8539934994
 10
147.6287431019
 20
120.7772765956
 10
147.5965399974
 20
120.6993170756
 10
147.5670372852
 20
120.6204953002
 10
147.5403931112
 20
120.5411946171
 10
147.5167183679
 20
120.461816465
 10
147.4961353797
 20
120.3827555461
 10
147.4787531505
 20
120.3043903415
 10
147.4646401354
 20
120.2270965502
 10
147.4538649239
 20
120.151250557
 10
147.446493428
 20
120.0772270096
 10
147.4425659583
 20
120.0053898234
  0
LWPOLYLINE
  5
293
100
AcDbEntity
  8
0
100
AcDbPolyline
 62
7
  6
CONTINUOUS
 90
8
 70
0
 10
128.9248315486
 20
110.518131728
 10
128.8988740556
 20
110.5557393012
 10
128.8763483425
 20
110.5957780978
 10
128.8575262143
 20
110.6378843601
 10
128.8425609192
 20
110.6819023481
 10
128.8316794927
 20
110.7274859425
 10
128.8250957873
 20
110.7740781927
 10
128.8229210156
 20
110.8211763222
  0
LWPOLYLINE
  5
294
100
AcDbEntity
  8
ASSI
100
AcDbPolyline
 62
7
  6
CONTINUOUS
 90
8
 70
0
 10
128.9248315486
 20
110.518131728
 10
128.8988740556
 20
110.5557393012
 10
128.8763483425
 20
110.5957780978
 10
128.8575262143
 20
110.6378843601
 10
128.8425609192
 20
110.6819023481
 10
128.8316794927
 20
110.7274859425
 10
128.8250957873
 20
110.7740781927
 10
128.8229210156
 20
110.8211763222
  0
LWPOLYLINE
  5
295
100
AcDbEntity
  8
0
100
AcDbPolyline
 62
253
  6
CONTINUOUS
 90
35
 70
0
 10
138.2122350945
 20
98.0318091063
 10
138.2229978304
 20
98.0159047522
 10
138.2335098811
 20
97.9999190672
 10
138.2437760841
 20
97.9838517391
 10
138.253801277
 20
97.9677024558
 10
138.2635902972
 20
97.9514709053
 10
138.2731469054
 20
97.9351580341
 10
138.2824705552
 20
97.9187698233
 10
138.291559623
 20
97.9023135126
 10
138.3004124857
 20
97.8857963418
 10
138.3090275196
 20
97.8692255504
 10
138.3174032236
 20
97.8526079292
 10
138.3255385844
 20
97.835948472
 10
138.3334327107
 20
97.8192517235
 10
138.3410847114
 20
97.8025222284
 10
138.3484936952
 20
97.7857645315
 10
138.3574113964
 20
97.7647849493
 10
138.3659436797
 20
97.7437789237
 10
138.3740862335
 20
97.7227569756
 10
138.3818347463
 20
97.7017296259
 10
138.3877468482
 20
97.6849106905
 10
138.3934011878
 20
97.6680989991
 10
138.3987949486
 20
97.6512985196
 10
138.4039253138
 20
97.6345132197
 10
138.4087894668
 20
97.6177470672
 10
138.413384289
 20
97.601004828
 10
138.4177054533
 20
97.5842944609
 10
138.4217483309
 20
97.5676247228
 10
138.4255082926
 20
97.5510043706
 10
138.4289807096
 20
97.5344421614
 10
138.4321609968
 20
97.5179451982
 10
138.4350447456
 20
97.501513969
 10
138.4376275913
 20
97.4851473079
 10
138.4399051693
 20
97.468844049
 10
138.4418731149
 20
97.4526030265
  0
LWPOLYLINE
  5
296
100
AcDbEntity
  8
0
100
AcDbPolyline
 62
253
  6
CONTINUOUS
 90
35
 70
0
 10
136.3305734583
 20
96.5812222071
 10
136.33257353
 20
96.5650451816
 10
136.3348785783
 20
96.5488031194
 10
136.3374841857
 20
96.5324954503
 10
136.3403859348
 20
96.5161216045
 10
136.3435794081
 20
96.4996810119
 10
136.3470602451
 20
96.4831744023
 10
136.3508243121
 20
96.4666077034
 10
136.3548675323
 20
96.4499881427
 10
136.359185829
 20
96.4333229478
 10
136.3637751254
 20
96.4166193461
 10
136.3686315755
 20
96.3998841181
 10
136.3737522564
 20
96.383122256
 10
136.3791344758
 20
96.3663383052
 10
136.3847755414
 20
96.3495368108
 10
136.3906727612
 20
96.3327223181
 10
136.3984006004
 20
96.3116931383
 10
136.4065204111
 20
96.2906613713
 10
136.4150281307
 20
96.2696376378
 10
136.4239196964
 20
96.2486325584
 10
136.43130687
 20
96.2318488369
 10
136.4389367171
 20
96.2150879324
 10
136.4468088496
 20
96.1983539258
 10
136.4549228794
 20
96.1816508983
 10
136.4632784186
 20
96.164982931
 10
136.4718747484
 20
96.1483549034
 10
136.4807098274
 20
96.1317748897
 10
136.4897812834
 20
96.1152517627
 10
136.4990867443
 20
96.0987943952
 10
136.5086238378
 20
96.0824116599
 10
136.5183914373
 20
96.0661108093
 10
136.5283933983
 20
96.049892615
 10
136.538634822
 20
96.0337562281
 10
136.5491208094
 20
96.0177008
 10
136.5598564614
 20
96.0017254818
  0
LWPOLYLINE
  5
297
100
AcDbEntity
  8
0
100
AcDbPolyline
 62
253
  6
CONTINUOUS
 90
13
 70
0
 10
136.3305733421
 20
96.5812222438
 10
136.3223037999
 20
96.6558904264
 10
136.3146231875
 20
96.7303803676
 10
136.3075318977
 20
96.8046871168
 10
136.3010303231
 20
96.8788057235
 10
136.2951188287
 20
96.9527313906
 10
136.2897976676
 20
97.0264599344
 10
136.2850670654
 20
97.0999873246
 10
136.2809272474
 20
97.173309531
 10
136.2773784309
 20
97.2464223893
 10
136.2744208009
 20
97.3193211997
 10
136.2720545342
 20
97.3920011282
 10
136.2702798078
 20
97.4644573413
  0
LWPOLYLINE
  5
298
100
AcDbEntity
  8
0
100
AcDbPolyline
 62
253
  6
CONTINUOUS
 90
13
 70
0
 10
135.8464972547
 20
96.7352656697
 10
135.837809682
 20
96.8139078637
 10
135.8297409832
 20
96.8923613751
 10
135.8222915603
 20
96.9706209817
 10
135.8154618155
 20
97.0486814614
 10
135.8092521219
 20
97.1265377527
 10
135.8036627362
 20
97.2041854362
 10
135.7986938864
 20
97.281620253
 10
135.7943458004
 20
97.3588379443
 10
135.7906186977
 20
97.4358341116
 10
135.7875127643
 20
97.5126037984
 10
135.7850281779
 20
97.5891419085
 10
135.7831651161
 20
97.6654433458
  0
LWPOLYLINE
  5
299
100
AcDbEntity
  8
0
100
AcDbPolyline
 62
253
  6
CONTINUOUS
 90
13
 70
0
 10
138.9345716767
 20
97.3056227992
 10
138.9431113944
 20
97.2268697779
 10
138.9510457305
 20
97.1483142741
 10
138.9583741451
 20
97.069961285
 10
138.9650960982
 20
96.9918158076
 10
138.9712110809
 20
96.913882787
 10
138.9767187089
 20
96.8361669605
 10
138.9816186292
 20
96.7586730131
 10
138.9859104884
 20
96.68140563
 10
138.9895939584
 20
96.6043695375
 10
138.9926688102
 20
96.5275696267
 10
138.9951348395
 20
96.4510108296
 10
138.9969918423
 20
96.3746980785
  0
LWPOLYLINE
  5
29A
100
AcDbEntity
  8
0
100
AcDbPolyline
 62
253
  6
CONTINUOUS
 90
13
 70
0
 10
138.4418730425
 20
97.4526030483
 10
138.4499720612
 20
97.3778072484
 10
138.4574976112
 20
97.303199643
 10
138.4644491698
 20
97.2287848664
 10
138.4708262139
 20
97.1545675532
 10
138.4766282469
 20
97.0805523633
 10
138.4818548763
 20
97.0067440598
 10
138.486505736
 20
96.9331474314
 10
138.4905804598
 20
96.859767267
 10
138.4940787117
 20
96.7866083173
 10
138.4970002773
 20
96.7136751813
 10
138.4993449723
 20
96.6409724199
 10
138.5011126127
 20
96.5685045939
  0
LWPOLYLINE
  5
29B
100
AcDbEntity
  8
0
100
AcDbPolyline
 62
253
  6
CONTINUOUS
 90
35
 70
0
 10
138.477272795
 20
116.3220979784
 10
138.4759435459
 20
116.3388245096
 10
138.4743034877
 20
116.3556112999
 10
138.4723572277
 20
116.3724590746
 10
138.4701093729
 20
116.3893685594
 10
138.4675645308
 20
116.4063404795
 10
138.4647271921
 20
116.423374212
 10
138.4616013818
 20
116.4404637402
 10
138.4581910085
 20
116.4576016988
 10
138.454499981
 20
116.4747807225
 10
138.4505322078
 20
116.4919934462
 10
138.4462913807
 20
116.509232963
 10
138.4417803232
 20
116.5264941993
 10
138.4370016422
 20
116.5437725399
 10
138.4319579443
 20
116.5610633693
 10
138.4266518364
 20
116.5783620725
 10
138.4196539408
 20
116.5999891871
 10
138.4122538867
 20
116.6216105442
 10
138.4044554585
 20
116.6432152952
 10
138.3962624403
 20
116.6647925911
 10
138.3894261846
 20
116.6820275982
 10
138.3823400741
 20
116.6992339057
 10
138.3750043695
 20
116.7164073282
 10
138.3674193318
 20
116.7335436807
 10
138.3595852216
 20
116.7506387777
 10
138.3515026036
 20
116.7676876134
 10
138.3431732564
 20
116.7846818983
 10
138.3345992627
 20
116.8016125226
 10
138.325782705
 20
116.818470376
 10
138.3167256656
 20
116.8352463487
 10
138.3074290215
 20
116.8519329833
 10
138.2978888269
 20
116.8685294346
 10
138.2880999303
 20
116.88503651
 10
138.2780571802
 20
116.9014550168
 10
138.2677554251
 20
116.9177857626
  0
LWPOLYLINE
  5
29C
100
AcDbEntity
  8
0
100
AcDbPolyline
 62
253
  6
CONTINUOUS
 90
13
 70
0
 10
138.9717313373
 20
116.1765592298
 10
138.977181668
 20
116.0952652423
 10
138.9820246446
 20
116.014169374
 10
138.9862599292
 20
115.9332768996
 10
138.9898871844
 20
115.852593094
 10
138.9929061014
 20
115.7721230714
 10
138.9953164877
 20
115.691871304
 10
138.9971181795
 20
115.6118421033
 10
138.9983110134
 20
115.5320397808
 10
138.9988948467
 20
115.452468798
 10
138.998869621
 20
115.3731342158
 10
138.9982352986
 20
115.2940412452
 10
138.9969918423
 20
115.2151950972
  0
LWPOLYLINE
  5
29D
100
AcDbEntity
  8
0
100
AcDbPolyline
 62
253
  6
CONTINUOUS
 90
13
 70
0
 10
138.4772729133
 20
116.3220979434
 10
138.4824296687
 20
116.2448799151
 10
138.4870108358
 20
116.1678510571
 10
138.4910161067
 20
116.0910163891
 10
138.4944451734
 20
116.0143809313
 10
138.4972977552
 20
115.9379495497
 10
138.4995736804
 20
115.8617264947
 10
138.5012728046
 20
115.785715863
 10
138.5023949834
 20
115.7099217513
 10
138.502940092
 20
115.6343483996
 10
138.5029080842
 20
115.5590006213
 10
138.5022989333
 20
115.4838833733
 10
138.5011126127
 20
115.4090016125
  0
LWPOLYLINE
  5
29E
100
AcDbEntity
  8
0
100
AcDbPolyline
 62
253
  6
CONTINUOUS
 90
13
 70
0
 10
138.5011124941
 20
96.5685046405
 10
138.5022988092
 20
96.4962851844
 10
138.502907962
 20
96.4243113104
 10
138.5029399772
 20
96.3525877713
 10
138.5023948796
 20
96.2811193201
 10
138.5012727133
 20
96.2099105645
 10
138.4995736014
 20
96.1389655322
 10
138.4972976863
 20
96.0682881059
 10
138.4944451105
 20
95.9978821683
 10
138.4910160438
 20
95.9277517333
 10
138.4870107649
 20
95.8579013397
 10
138.48242958
 20
95.7883356576
 10
138.477272795
 20
95.7190593572
  0
LWPOLYLINE
  5
29F
100
AcDbEntity
  8
0
100
AcDbPolyline
 62
253
  6
CONTINUOUS
 90
13
 70
0
 10
138.9969916959
 20
96.3746981354
 10
138.9982351464
 20
96.298646026
 10
138.9988694708
 20
96.222851414
 10
138.9988947047
 20
96.1473193098
 10
138.9983108834
 20
96.0720547241
 10
138.9971180633
 20
95.9970625161
 10
138.9953163849
 20
95.9223469396
 10
138.9929060097
 20
95.8479120975
 10
138.9898870992
 20
95.7737620922
 10
138.986259844
 20
95.6999011636
 10
138.9820245506
 20
95.6263341006
 10
138.9771815545
 20
95.5530658292
 10
138.9717311914
 20
95.4801012756
  0
LWPOLYLINE
  5
2A0
100
AcDbEntity
  8
0
100
AcDbPolyline
 62
253
  6
CONTINUOUS
 90
13
 70
0
 10
138.5011124941
 20
115.4090016591
 10
138.4993448619
 20
115.3343564109
 10
138.4970001711
 20
115.2599575444
 10
138.4940785851
 20
115.1858095319
 10
138.4905802674
 20
115.1119168456
 10
138.4865054214
 20
115.0382840828
 10
138.4818544112
 20
114.9649163421
 10
138.4766276408
 20
114.891818847
 10
138.4708255144
 20
114.8189968213
 10
138.4644484578
 20
114.7464553419
 10
138.457496984
 20
114.6741988993
 10
138.449971628
 20
114.6022318373
 10
138.4418729247
 20
114.5305584998
  0
LWPOLYLINE
  5
2A1
100
AcDbEntity
  8
0
100
AcDbPolyline
 62
253
  6
CONTINUOUS
 90
13
 70
0
 10
138.9969916959
 20
115.2151951541
 10
138.9951346958
 20
115.1365965255
 10
138.9926686648
 20
115.058256502
 10
138.9895937917
 20
114.9801799448
 10
138.9859102651
 20
114.902371715
 10
138.9816183059
 20
114.8248366986
 10
138.976718265
 20
114.7475798809
 10
138.9712105253
 20
114.6706062717
 10
138.9650954698
 20
114.593920881
 10
138.9583735095
 20
114.5175286746
 10
138.9510451664
 20
114.4414344423
 10
138.9431109904
 20
114.3656429298
 10
138.9345715313
 20
114.2901588827
  0
LWPOLYLINE
  5
2A2
100
AcDbEntity
  8
0
100
AcDbPolyline
 62
253
  6
CONTINUOUS
 90
35
 70
0
 10
138.9717305713
 20
95.480101574
 10
138.9696439712
 20
95.4568890088
 10
138.9670702789
 20
95.4339574941
 10
138.9640163575
 20
95.4113001519
 10
138.9604890701
 20
95.3889101045
 10
138.9564952797
 20
95.3667804741
 10
138.9520417779
 20
95.344906822
 10
138.9471350702
 20
95.3232944669
 10
138.9417815908
 20
95.3019511663
 10
138.9359877737
 20
95.280884678
 10
138.929760053
 20
95.2601027597
 10
138.9231044677
 20
95.2396124337
 10
138.9160254768
 20
95.2194177805
 10
138.9085271442
 20
95.1995221451
 10
138.9006135337
 20
95.1799288726
 10
138.8922887092
 20
95.160641308
 10
138.8813103066
 20
95.1369677659
 10
138.8697019091
 20
95.1137891482
 10
138.8574696934
 20
95.0911174844
 10
138.8446198365
 20
95.0689648037
 10
138.8338989442
 20
95.0516243655
 10
138.8227871408
 20
95.0346296637
 10
138.8112848521
 20
95.0179865867
 10
138.7993925042
 20
95.0017010229
 10
138.7871105231
 20
94.9857788607
 10
138.7744398796
 20
94.9702268973
 10
138.7613837249
 20
94.9550555648
 10
138.7479457552
 20
94.9402762041
 10
138.7341296666
 20
94.925900156
 10
138.7199391554
 20
94.9119387614
 10
138.705375968
 20
94.8984022715
 10
138.6904340533
 20
94.8852965789
 10
138.6751054104
 20
94.8726264866
 10
138.6593820386
 20
94.8603967977
 10
138.643255937
 20
94.8486123151
  0
LINE
  5
2A3
100
AcDbEntity
  8
0
100
AcDbLine
 62
7
  6
CONTINUOUS
 10
142.6790511712
 20
125.5310583662
 11
142.6178989157
 21
125.1040576557
  0
LINE
  5
2A4
100
AcDbEntity
  8
ASSI
100
AcDbLine
 62
7
  6
CONTINUOUS
 10
142.6790511712
 20
125.5310583662
 11
142.6178989157
 21
125.1040576557
  0
LWPOLYLINE
  5
2A5
100
AcDbEntity
  8
SUPERFICI
100
AcDbPolyline
 62
7
  6
CONTINUOUS
 90
34
 70
0
 10
134.8462810068
 20
104.1891261699
 10
134.8426563297
 20
104.1859717815
 10
134.8102717604
 20
104.1543118812
 10
134.7812876205
 20
104.1193729027
 10
134.7558138234
 20
104.0811962224
 10
134.7337374758
 20
104.0397381252
 10
134.7152989816
 20
103.9954375753
 10
134.7005085797
 20
103.9481292361
 10
134.6893543229
 20
103.8979771127
 10
134.6820430948
 20
103.84591397
 10
134.678646158
 20
103.792052817
 10
134.679091562
 20
103.7362800961
 10
134.6833712474
 20
103.6791886002
 10
134.6915537243
 20
103.6206163398
 10
134.7035714212
 20
103.5607260369
 10
134.7192120262
 20
103.5005974269
 10
134.7384972275
 20
103.4403551209
 10
134.7614072682
 20
103.3798760053
 10
134.7876673719
 20
103.3198679728
 10
134.8173693994
 20
103.2602388091
 10
134.8504245117
 20
103.2010830918
 10
134.8862863207
 20
103.143388442
 10
134.9249579555
 20
103.0872464335
 10
134.9664394252
 20
103.0325679498
 10
135.010178734
 20
102.9800688309
 10
135.0562340033
 20
102.9297463661
 10
135.1045501935
 20
102.8816056954
 10
135.154404358
 20
102.8363734697
 10
135.2058323523
 20
102.7940952512
 10
135.2588005994
 20
102.754727288
 10
135.3124803764
 20
102.7188609611
 10
135.3665953372
 20
102.6866933164
 10
135.4214226017
 20
102.6580279381
 10
135.476962822
 20
102.6328653602
  0
LWPOLYLINE
  5
2A6
100
AcDbEntity
  8
SUPERFICI
100
AcDbPolyline
 62
7
  6
CONTINUOUS
 90
32
 70
0
 10
139.7748800078
 20
108.5612669988
 10
139.7953118552
 20
108.578192437
 10
139.8294692638
 20
108.6113045623
 10
139.8601543275
 20
108.6476368559
 10
139.8872486701
 20
108.6871410094
 10
139.9108678507
 20
108.7298629214
 10
139.9307524934
 20
108.7753480868
 10
139.9468923633
 20
108.8237618455
 10
139.9592960985
 20
108.8749374816
 10
139.9677323834
 20
108.927922217
 10
139.9721240404
 20
108.982598197
 10
139.9725476005
 20
109.0390827316
 10
139.9690021672
 20
109.0967756917
 10
139.9614194521
 20
109.1558392482
 10
139.949868641
 20
109.2161120015
 10
139.9345549005
 20
109.2765083632
 10
139.9154550957
 20
109.3369025371
 10
139.8925941807
 20
109.3974218942
 10
139.8662491491
 20
109.4573603579
 10
139.8363285526
 20
109.5168104803
 10
139.8029266999
 20
109.5756821645
 10
139.7665986661
 20
109.6329949052
 10
139.7273424424
 20
109.6886580465
 10
139.6851630098
 20
109.7427647925
 10
139.6406250292
 20
109.7946096778
 10
139.5936709996
 20
109.8441959213
 10
139.5443613592
 20
109.8915228052
 10
139.4934365131
 20
109.9358779799
 10
139.4408605115
 20
109.9772158058
 10
139.3866714935
 20
110.015583772
 10
139.3317194313
 20
110.050407904
 10
139.276287552
 20
110.0814967921
  0
LWPOLYLINE
  5
2A7
100
AcDbEntity
  8
ASSI
100
AcDbPolyline
 62
7
  6
CONTINUOUS
 90
12
 70
0
 10
134.8462660919
 20
104.1891443595
 10
134.8610481144
 20
104.2012690689
 10
134.9073062138
 20
104.2327798806
 10
134.9580516239
 20
104.2581115271
 10
135.0131029843
 20
104.2773730249
 10
135.071021293
 20
104.290160398
 10
135.1317576383
 20
104.2963169502
 10
135.1953659525
 20
104.296003328
 10
135.2605581561
 20
104.2892888963
 10
135.3269051136
 20
104.276196949
 10
135.3948387091
 20
104.2567063751
 10
135.4643609149
 20
104.23081876
  0
LWPOLYLINE
  5
2A8
100
AcDbEntity
  8
0
100
AcDbPolyline
 62
7
  6
CONTINUOUS
 90
12
 70
0
 10
134.8462660919
 20
104.1891443595
 10
134.8610481144
 20
104.2012690689
 10
134.9073062138
 20
104.2327798806
 10
134.9580516239
 20
104.2581115271
 10
135.0131029843
 20
104.2773730249
 10
135.071021293
 20
104.290160398
 10
135.1317576383
 20
104.2963169502
 10
135.1953659525
 20
104.296003328
 10
135.2605581561
 20
104.2892888963
 10
135.3269051136
 20
104.276196949
 10
135.3948387091
 20
104.2567063751
 10
135.4643609149
 20
104.23081876
  0
LINE
  5
2A9
100
AcDbEntity
  8
SUPERFICI
100
AcDbLine
 62
7
  6
CONTINUOUS
 10
134.8778661992
 20
104.2137855782
 11
134.8462810068
 21
104.1891261699
  0
LWPOLYLINE
  5
2AA
100
AcDbEntity
  8
0
100
AcDbPolyline
 62
7
  6
CONTINUOUS
 90
10
 70
0
 10
139.7748818275
 20
108.5612647716
 10
139.727415765
 20
108.5287252015
 10
139.6743330569
 20
108.5014789527
 10
139.6169069149
 20
108.4802721476
 10
139.5566431006
 20
108.4655634488
 10
139.4935990391
 20
108.4575165262
 10
139.4277221152
 20
108.455971812
 10
139.3603498146
 20
108.4609004129
 10
139.2919281924
 20
108.4722928944
 10
139.2220138799
 20
108.4901609599
  0
LWPOLYLINE
  5
2AB
100
AcDbEntity
  8
ASSI
100
AcDbPolyline
 62
7
  6
CONTINUOUS
 90
10
 70
0
 10
139.7748818275
 20
108.5612647716
 10
139.727415765
 20
108.5287252015
 10
139.6743330569
 20
108.5014789527
 10
139.6169069149
 20
108.4802721476
 10
139.5566431006
 20
108.4655634488
 10
139.4935990391
 20
108.4575165262
 10
139.4277221152
 20
108.455971812
 10
139.3603498146
 20
108.4609004129
 10
139.2919281924
 20
108.4722928944
 10
139.2220138799
 20
108.4901609599
  0
LWPOLYLINE
  5
2AC
100
AcDbEntity
  8
0
100
AcDbPolyline
 62
253
  6
CONTINUOUS
 90
35
 70
0
 10
138.9345709134
 20
97.3056230255
 10
138.9314948664
 20
97.3309669262
 10
138.9279351905
 20
97.3564101363
 10
138.92389859
 20
97.3819543222
 10
138.9193917688
 20
97.4076011503
 10
138.9144214309
 20
97.4333522869
 10
138.9089943057
 20
97.4592069758
 10
138.9031172229
 20
97.4851547694
 10
138.8967970376
 20
97.5111827974
 10
138.8900406047
 20
97.5372781895
 10
138.8828547792
 20
97.5634280755
 10
138.8752459832
 20
97.5896206487
 10
138.8672189066
 20
97.6158483569
 10
138.8587778067
 20
97.6421047117
 10
138.8499269406
 20
97.6683832244
 10
138.8406705653
 20
97.6946774066
 10
138.8285360739
 20
97.7275565806
 10
138.8157813769
 20
97.7604332021
 10
138.802413225
 20
97.7932903737
 10
138.788438369
 20
97.8261111976
 10
138.7768257288
 20
97.8523307386
 10
138.7648297868
 20
97.8785099952
 10
138.7524512113
 20
97.9046427602
 10
138.7396906705
 20
97.930722826
 10
138.726548833
 20
97.9567439854
 10
138.7130269575
 20
97.982698671
 10
138.6991286648
 20
98.0085738768
 10
138.684858166
 20
98.0343552364
 10
138.6702196723
 20
98.0600283839
 10
138.6552173949
 20
98.085578953
 10
138.6398535212
 20
98.1109952392
 10
138.6241221434
 20
98.1362761833
 10
138.6080153303
 20
98.1614233874
 10
138.5915251501
 20
98.1864384537
 10
138.5746436716
 20
98.2113229846
  0
LINE
  5
2AD
100
AcDbEntity
  8
0
100
AcDbLine
 62
253
  6
CONTINUOUS
 10
142.6178989157
 20
125.1040576557
 11
142.6178989038
 21
125.0931523877
  0
LINE
  5
2AE
100
AcDbEntity
  8
ASSI
100
AcDbLine
 62
253
  6
CONTINUOUS
 10
142.6178989157
 20
125.1040576557
 11
142.6178989038
 21
125.0931523877
  0
LINE
  5
2AF
100
AcDbEntity
  8
0
100
AcDbLine
 62
7
  6
CONTINUOUS
 10
142.6172300033
 20
125.0931523884
 11
142.6178989157
 21
125.1040576557
  0
LINE
  5
2B0
100
AcDbEntity
  8
ASSI
100
AcDbLine
 62
7
  6
CONTINUOUS
 10
142.6172300033
 20
125.0931523884
 11
142.6178989157
 21
125.1040576557
  0
LINE
  5
2B1
100
AcDbEntity
  8
ASSI
100
AcDbLine
 62
7
  6
CONTINUOUS
 10
164.482514106
 20
116.774296104
 11
163.846609189
 21
116.5781290198
  0
LINE
  5
2B2
100
AcDbEntity
  8
0
100
AcDbLine
 62
7
  6
CONTINUOUS
 10
164.482514106
 20
116.774296104
 11
163.846609189
 21
116.5781290198
  0
LINE
  5
2B3
100
AcDbEntity
  8
0
100
AcDbLine
 62
7
  6
CONTINUOUS
 10
157.4196618095
 20
93.8244591633
 11
157.3483129111
 21
93.8488380853
  0
LINE
  5
2B4
100
AcDbEntity
  8
ASSI
100
AcDbLine
 62
7
  6
CONTINUOUS
 10
157.4196618095
 20
93.8244591633
 11
157.3483129111
 21
93.8488380853
  0
LINE
  5
2B5
100
AcDbEntity
  8
ASSI
100
AcDbLine
 62
7
  6
CONTINUOUS
 10
139.2344864263
 20
101.1280355724
 11
139.1631375278
 21
101.1524144944
  0
LINE
  5
2B6
100
AcDbEntity
  8
0
100
AcDbLine
 62
7
  6
CONTINUOUS
 10
139.2344864263
 20
101.1280355724
 11
139.1631375278
 21
101.1524144944
  0
LWPOLYLINE
  5
2B7
100
AcDbEntity
  8
SUPERFICI
100
AcDbPolyline
 62
7
  6
CONTINUOUS
 90
14
 70
0
 10
157.3483129319
 20
93.8488380773
 10
157.4052756635
 20
93.8288194505
 10
157.4614715664
 20
93.8128958339
 10
157.5168999897
 20
93.8010666855
 10
157.5718335196
 20
93.7933018271
 10
157.625998788
 20
93.7896307859
 10
157.6785754568
 20
93.7901419389
 10
157.7295537851
 20
93.7949140267
 10
157.7789414008
 20
93.8038665268
 10
157.8259424238
 20
93.8168475739
 10
157.8704601414
 20
93.8338851335
 10
157.9125882357
 20
93.8549486741
 10
157.9518152513
 20
93.8797976007
 10
157.9682853216
 20
93.8920644042
  0
LWPOLYLINE
  5
2B8
100
AcDbEntity
  8
SUPERFICI
100
AcDbPolyline
 62
7
  6
CONTINUOUS
 90
14
 70
0
 10
139.1631375487
 20
101.1524144864
 10
139.2201002803
 20
101.1323958596
 10
139.2762961831
 20
101.116472243
 10
139.3317246065
 20
101.1046430946
 10
139.3866581364
 20
101.0968782362
 10
139.4408234048
 20
101.093207195
 10
139.4934000736
 20
101.093718348
 10
139.5443784019
 20
101.0984904358
 10
139.5937660176
 20
101.1074429358
 10
139.6407670406
 20
101.120423983
 10
139.6852847582
 20
101.1374615426
 10
139.7274128525
 20
101.1585250832
 10
139.7666398681
 20
101.1833740098
 10
139.7831099384
 20
101.1956408133
  0
LINE
  5
2B9
100
AcDbEntity
  8
SUPERFICI
100
AcDbLine
 62
7
  6
CONTINUOUS
 10
156.5210911855
 20
94.1711697995
 11
157.3483129319
 21
93.8488380773
  0
LINE
  5
2BA
100
AcDbEntity
  8
0
100
AcDbLine
 62
7
  6
CONTINUOUS
 10
157.3483129111
 20
93.8488380853
 11
156.521062776
 21
94.1711809657
  0
LINE
  5
2BB
100
AcDbEntity
  8
ASSI
100
AcDbLine
 62
7
  6
CONTINUOUS
 10
157.3483129111
 20
93.8488380853
 11
156.521062776
 21
94.1711809657
  0
LINE
  5
2BC
100
AcDbEntity
  8
ASSI
100
AcDbLine
 62
7
  6
CONTINUOUS
 10
139.1631375278
 20
101.1524144944
 11
138.3358873928
 21
101.4747573747
  0
LINE
  5
2BD
100
AcDbEntity
  8
0
100
AcDbLine
 62
7
  6
CONTINUOUS
 10
139.1631375278
 20
101.1524144944
 11
138.3358873928
 21
101.4747573747
  0
LINE
  5
2BE
100
AcDbEntity
  8
SUPERFICI
100
AcDbLine
 62
7
  6
CONTINUOUS
 10
138.3359158023
 20
101.4747462086
 11
139.1631375487
 21
101.1524144864
  0
LINE
  5
2BF
100
AcDbEntity
  8
SUPERFICI
100
AcDbLine
 62
7
  6
CONTINUOUS
 10
155.698441802
 20
94.4973214521
 11
156.5210911855
 21
94.1711697995
  0
LINE
  5
2C0
100
AcDbEntity
  8
0
100
AcDbLine
 62
7
  6
CONTINUOUS
 10
156.521062776
 20
94.1711809657
 11
155.698430283
 21
94.4973260588
  0
LINE
  5
2C1
100
AcDbEntity
  8
ASSI
100
AcDbLine
 62
7
  6
CONTINUOUS
 10
156.521062776
 20
94.1711809657
 11
155.698430283
 21
94.4973260588
  0
LINE
  5
2C2
100
AcDbEntity
  8
ASSI
100
AcDbLine
 62
7
  6
CONTINUOUS
 10
138.3358873928
 20
101.4747573747
 11
137.5132548997
 21
101.8009024679
  0
LINE
  5
2C3
100
AcDbEntity
  8
0
100
AcDbLine
 62
7
  6
CONTINUOUS
 10
138.3358873928
 20
101.4747573747
 11
137.5132548997
 21
101.8009024679
  0
LINE
  5
2C4
100
AcDbEntity
  8
SUPERFICI
100
AcDbLine
 62
7
  6
CONTINUOUS
 10
137.5132664188
 20
101.8008978612
 11
138.3359158023
 21
101.4747462086
  0
LINE
  5
2C5
100
AcDbEntity
  8
SUPERFICI
100
AcDbLine
 62
7
  6
CONTINUOUS
 10
136.695230667
 20
102.1308538194
 11
137.5132664188
 21
101.8008978612
  0
LINE
  5
2C6
100
AcDbEntity
  8
ASSI
100
AcDbLine
 62
7
  6
CONTINUOUS
 10
137.5132548997
 20
101.8009024679
 11
136.6952611459
 21
102.1308414199
  0
LINE
  5
2C7
100
AcDbEntity
  8
0
100
AcDbLine
 62
7
  6
CONTINUOUS
 10
137.5132548997
 20
101.8009024679
 11
136.6952611459
 21
102.1308414199
  0
LINE
  5
2C8
100
AcDbEntity
  8
0
100
AcDbLine
 62
7
  6
CONTINUOUS
 10
155.698430283
 20
94.4973260588
 11
154.8804365291
 21
94.8272650108
  0
LINE
  5
2C9
100
AcDbEntity
  8
ASSI
100
AcDbLine
 62
7
  6
CONTINUOUS
 10
155.698430283
 20
94.4973260588
 11
154.8804365291
 21
94.8272650108
  0
LINE
  5
2CA
100
AcDbEntity
  8
SUPERFICI
100
AcDbLine
 62
7
  6
CONTINUOUS
 10
154.8804060502
 20
94.8272774104
 11
155.698441802
 21
94.4973214521
  0
LINE
  5
2CB
100
AcDbEntity
  8
ASSI
100
AcDbLine
 62
7
  6
CONTINUOUS
 10
136.6952611459
 20
102.1308414199
 11
135.8818968279
 21
102.4645779411
  0
LINE
  5
2CC
100
AcDbEntity
  8
0
100
AcDbLine
 62
7
  6
CONTINUOUS
 10
136.6952611459
 20
102.1308414199
 11
135.8818968279
 21
102.4645779411
  0
LINE
  5
2CD
100
AcDbEntity
  8
0
100
AcDbLine
 62
7
  6
CONTINUOUS
 10
154.8804365291
 20
94.8272650108
 11
154.0670722111
 21
95.1610015321
  0
LINE
  5
2CE
100
AcDbEntity
  8
ASSI
100
AcDbLine
 62
7
  6
CONTINUOUS
 10
154.8804365291
 20
94.8272650108
 11
154.0670722111
 21
95.1610015321
  0
LWPOLYLINE
  5
2CF
100
AcDbEntity
  8
SUPERFICI
100
AcDbPolyline
 62
7
  6
CONTINUOUS
 90
3
 70
0
 10
135.476962822
 20
102.6328653602
 10
135.8818768827
 20
102.4645861954
 10
136.695230667
 20
102.1308538194
  0
LINE
  5
2D0
100
AcDbEntity
  8
ASSI
100
AcDbLine
 62
7
  6
CONTINUOUS
 10
135.8818867664
 20
102.4645821226
 11
135.476962893
 21
102.6328653305
  0
LINE
  5
2D1
100
AcDbEntity
  8
0
100
AcDbLine
 62
7
  6
CONTINUOUS
 10
135.8818867664
 20
102.4645821226
 11
135.476962893
 21
102.6328653305
  0
LINE
  5
2D2
100
AcDbEntity
  8
0
100
AcDbLine
 62
7
  6
CONTINUOUS
 10
154.0670621496
 20
95.1610057135
 11
153.6621382762
 21
95.3292889214
  0
LINE
  5
2D3
100
AcDbEntity
  8
ASSI
100
AcDbLine
 62
7
  6
CONTINUOUS
 10
154.0670621496
 20
95.1610057135
 11
153.6621382762
 21
95.3292889214
  0
LWPOLYLINE
  5
2D4
100
AcDbEntity
  8
SUPERFICI
100
AcDbPolyline
 62
7
  6
CONTINUOUS
 90
3
 70
0
 10
153.6621382052
 20
95.3292889511
 10
154.0670522659
 20
95.1610097863
 10
154.8804060502
 20
94.8272774104
  0
LWPOLYLINE
  5
2D5
100
AcDbEntity
  8
ASSI
100
AcDbPolyline
 62
7
  6
CONTINUOUS
 90
27
 70
0
 10
135.476962893
 20
102.6328653305
 10
135.4073215608
 20
102.6651318211
 10
135.3392025048
 20
102.7025408115
 10
135.2726039164
 20
102.7450908328
 10
135.2070954326
 20
102.7931193838
 10
135.1431050049
 20
102.8462870251
 10
135.0819168206
 20
102.9035757118
 10
135.0234782276
 20
102.9651845773
 10
134.9678371634
 20
103.0309107653
 10
134.9164253143
 20
103.0991305449
 10
134.8694209937
 20
103.1697812505
 10
134.8266394111
 20
103.2429204612
 10
134.7889650862
 20
103.3171028015
 10
134.7564479579
 20
103.3924809316
 10
134.7290326711
 20
103.4688979715
 10
134.7074444039
 20
103.5444430913
 10
134.6918389498
 20
103.6190344225
 10
134.6820569625
 20
103.6927510697
 10
134.6783501769
 20
103.7639230304
 10
134.6808722081
 20
103.8324912375
 10
134.6894691841
 20
103.8985145696
 10
134.703931337
 20
103.9604996722
 10
134.7244206525
 20
104.0183906011
 10
134.7507782793
 20
104.0722457581
 10
134.7823125594
 20
104.1207427476
 10
134.8190893632
 20
104.1636829237
 10
134.8462660919
 20
104.1891443595
  0
LWPOLYLINE
  5
2D6
100
AcDbEntity
  8
0
100
AcDbPolyline
 62
7
  6
CONTINUOUS
 90
27
 70
0
 10
135.476962893
 20
102.6328653305
 10
135.4073215608
 20
102.6651318211
 10
135.3392025048
 20
102.7025408115
 10
135.2726039164
 20
102.7450908328
 10
135.2070954326
 20
102.7931193838
 10
135.1431050049
 20
102.8462870251
 10
135.0819168206
 20
102.9035757118
 10
135.0234782276
 20
102.9651845773
 10
134.9678371634
 20
103.0309107653
 10
134.9164253143
 20
103.0991305449
 10
134.8694209937
 20
103.1697812505
 10
134.8266394111
 20
103.2429204612
 10
134.7889650862
 20
103.3171028015
 10
134.7564479579
 20
103.3924809316
 10
134.7290326711
 20
103.4688979715
 10
134.7074444039
 20
103.5444430913
 10
134.6918389498
 20
103.6190344225
 10
134.6820569625
 20
103.6927510697
 10
134.6783501769
 20
103.7639230304
 10
134.6808722081
 20
103.8324912375
 10
134.6894691841
 20
103.8985145696
 10
134.703931337
 20
103.9604996722
 10
134.7244206525
 20
104.0183906011
 10
134.7507782793
 20
104.0722457581
 10
134.7823125594
 20
104.1207427476
 10
134.8190893632
 20
104.1636829237
 10
134.8462660919
 20
104.1891443595
  0
LWPOLYLINE
  5
2D7
100
AcDbEntity
  8
0
100
AcDbPolyline
 62
7
  6
CONTINUOUS
 90
27
 70
0
 10
153.6621382762
 20
95.3292889214
 10
153.592496944
 20
95.361555412
 10
153.524377888
 20
95.3989644025
 10
153.4577792996
 20
95.4415144237
 10
153.3922708159
 20
95.4895429747
 10
153.3282803881
 20
95.542710616
 10
153.2670922038
 20
95.5999993028
 10
153.2086536108
 20
95.6616081683
 10
153.1530125467
 20
95.7273343562
 10
153.1016006975
 20
95.7955541358
 10
153.0545963769
 20
95.8662048414
 10
153.0118147944
 20
95.9393440521
 10
152.9741404695
 20
96.0135263924
 10
152.9416233411
 20
96.0889045225
 10
152.9142080543
 20
96.1653215624
 10
152.8926197871
 20
96.2408666823
 10
152.877014333
 20
96.3154580134
 10
152.8672323457
 20
96.3891746606
 10
152.8635255601
 20
96.4603466213
 10
152.8660475914
 20
96.5289148284
 10
152.8746445673
 20
96.5949381606
 10
152.8891067202
 20
96.6569232631
 10
152.9095960357
 20
96.7148141921
 10
152.9359536625
 20
96.768669349
 10
152.9674879427
 20
96.8171663385
 10
153.0042647465
 20
96.8601065146
 10
153.0314414751
 20
96.8855679504
  0
LWPOLYLINE
  5
2D8
100
AcDbEntity
  8
ASSI
100
AcDbPolyline
 62
7
  6
CONTINUOUS
 90
27
 70
0
 10
153.6621382762
 20
95.3292889214
 10
153.592496944
 20
95.361555412
 10
153.524377888
 20
95.3989644025
 10
153.4577792996
 20
95.4415144237
 10
153.3922708159
 20
95.4895429747
 10
153.3282803881
 20
95.542710616
 10
153.2670922038
 20
95.5999993028
 10
153.2086536108
 20
95.6616081683
 10
153.1530125467
 20
95.7273343562
 10
153.1016006975
 20
95.7955541358
 10
153.0545963769
 20
95.8662048414
 10
153.0118147944
 20
95.9393440521
 10
152.9741404695
 20
96.0135263924
 10
152.9416233411
 20
96.0889045225
 10
152.9142080543
 20
96.1653215624
 10
152.8926197871
 20
96.2408666823
 10
152.877014333
 20
96.3154580134
 10
152.8672323457
 20
96.3891746606
 10
152.8635255601
 20
96.4603466213
 10
152.8660475914
 20
96.5289148284
 10
152.8746445673
 20
96.5949381606
 10
152.8891067202
 20
96.6569232631
 10
152.9095960357
 20
96.7148141921
 10
152.9359536625
 20
96.768669349
 10
152.9674879427
 20
96.8171663385
 10
153.0042647465
 20
96.8601065146
 10
153.0314414751
 20
96.8855679504
  0
LINE
  5
2D9
100
AcDbEntity
  8
0
100
AcDbLine
 62
7
  6
CONTINUOUS
 10
142.6790511712
 20
125.5310583662
 11
142.6851484369
 21
125.0037716721
  0
LINE
  5
2DA
100
AcDbEntity
  8
ASSI
100
AcDbLine
 62
7
  6
CONTINUOUS
 10
142.6790511712
 20
125.5310583662
 11
142.6851484369
 21
125.0037716721
  0
LWPOLYLINE
  5
2DB
100
AcDbEntity
  8
SUPERFICI
100
AcDbPolyline
 62
7
  6
CONTINUOUS
 90
32
 70
0
 10
139.7831099384
 20
101.1956408133
 10
139.8029926923
 20
101.212121787
 10
139.8364415392
 20
101.244652488
 10
139.8663890526
 20
101.2803806796
 10
139.8927180966
 20
101.3192592474
 10
139.9155428887
 20
101.3613328287
 10
139.9346125344
 20
101.4061531429
 10
139.9499140414
 20
101.453883654
 10
139.9614586131
 20
101.5043593807
 10
139.969031355
 20
101.5566391336
 10
139.9725570477
 20
101.6106064112
 10
139.972110002
 20
101.6663769564
 10
139.9676994568
 20
101.7233578175
 10
139.9592551238
 20
101.7817088104
 10
139.946847927
 20
101.8412706754
 10
139.9306987937
 20
101.9009717443
 10
139.9107868494
 20
101.960687849
 10
139.8871345939
 20
102.020544558
 10
139.8600277549
 20
102.0798445899
 10
139.8293741852
 20
102.1386797727
 10
139.7952687938
 20
102.1969606358
 10
139.7582774016
 20
102.2537175338
 10
139.7183994013
 20
102.308861326
 10
139.6756384059
 20
102.3624837047
 10
139.6305657329
 20
102.4138855655
 10
139.58312415
 20
102.4630706229
 10
139.5333739618
 20
102.5100377525
 10
139.4820616753
 20
102.5540796436
 10
139.4291385584
 20
102.5951582802
 10
139.3746557475
 20
102.6333136861
 10
139.3195079687
 20
102.6679542703
 10
139.2639933913
 20
102.6988827637
  0
LWPOLYLINE
  5
2DC
100
AcDbEntity
  8
0
100
AcDbPolyline
 62
253
  6
CONTINUOUS
 90
35
 70
0
 10
136.1359554898
 20
99.1907555452
 10
136.1199795973
 20
99.1790925972
 10
136.1044017107
 20
99.1669826031
 10
136.089214045
 20
99.1544306231
 10
136.0744088153
 20
99.1414417175
 10
136.0599782365
 20
99.1280209465
 10
136.045916314
 20
99.1141742543
 10
136.0322242137
 20
99.0999111206
 10
136.018904892
 20
99.0852419092
 10
136.0059613051
 20
99.070176984
 10
135.9933964094
 20
99.0547267085
 10
135.9812127889
 20
99.0389006976
 10
135.9694115392
 20
99.0227055706
 10
135.9579933838
 20
99.0061471977
 10
135.9469590462
 20
98.9892314494
 10
135.9363092496
 20
98.9719641958
 10
135.923539651
 20
98.9498947964
 10
135.9113781446
 20
98.9272969805
 10
135.8998308466
 20
98.9041823858
 10
135.8889038733
 20
98.8805626503
 10
135.8806131885
 20
98.8613104396
 10
135.8727274563
 20
98.8417450963
 10
135.8652507072
 20
98.8218693297
 10
135.8581869716
 20
98.8016858489
 10
135.85154028
 20
98.7811973631
 10
135.8453151047
 20
98.7604075702
 10
135.8395176861
 20
98.7393241214
 10
135.8341547064
 20
98.7179556566
 10
135.829232848
 20
98.6963108157
 10
135.8247587931
 20
98.6743982384
 10
135.8207392102
 20
98.6522238887
 10
135.8171807131
 20
98.6297830257
 10
135.8140899019
 20
98.6070682329
 10
135.8114733765
 20
98.5840720935
 10
135.809337737
 20
98.5607871908
  0
LWPOLYLINE
  5
2DD
100
AcDbEntity
  8
ASSI
100
AcDbPolyline
 62
7
  6
CONTINUOUS
 90
10
 70
0
 10
139.7831119404
 20
101.1956384162
 10
139.7362184516
 20
101.1635867316
 10
139.6838748925
 20
101.1369543654
 10
139.6271234995
 20
101.1163066705
 10
139.5674530643
 20
101.1020885702
 10
139.5049185068
 20
101.0944621651
 10
139.4394693693
 20
101.0932691281
 10
139.3724330768
 20
101.0984709545
 10
139.3042521894
 20
101.1100548773
 10
139.2344864263
 20
101.1280355724
  0
LWPOLYLINE
  5
2DE
100
AcDbEntity
  8
0
100
AcDbPolyline
 62
7
  6
CONTINUOUS
 90
10
 70
0
 10
139.7831119404
 20
101.1956384162
 10
139.7362184516
 20
101.1635867316
 10
139.6838748925
 20
101.1369543654
 10
139.6271234995
 20
101.1163066705
 10
139.5674530643
 20
101.1020885702
 10
139.5049185068
 20
101.0944621651
 10
139.4394693693
 20
101.0932691281
 10
139.3724330768
 20
101.0984709545
 10
139.3042521894
 20
101.1100548773
 10
139.2344864263
 20
101.1280355724
  0
LWPOLYLINE
  5
2DF
100
AcDbEntity
  8
0
100
AcDbPolyline
 62
253
  6
CONTINUOUS
 90
55
 70
0
 10
136.1359559504
 20
99.1907549523
 10
136.1685169013
 20
99.2126833489
 10
136.2021707413
 20
99.2331940186
 10
136.2369002383
 20
99.2522672831
 10
136.2726881603
 20
99.2698834641
 10
136.3095172753
 20
99.2860228833
 10
136.3473703515
 20
99.3006658625
 10
136.3862301568
 20
99.3137927235
 10
136.4260700213
 20
99.3253860689
 10
136.4668255231
 20
99.3354376259
 10
136.5084228026
 20
99.3439414023
 10
136.5507879998
 20
99.3508914064
 10
136.5938472551
 20
99.3562816462
 10
136.6375267085
 20
99.3601061296
 10
136.6817525004
 20
99.3623588649
 10
136.7264604769
 20
99.3630366136
 10
136.7716253079
 20
99.3621471519
 10
136.8172313694
 20
99.3597010095
 10
136.8632630373
 20
99.3557087163
 10
136.9097046874
 20
99.3501808019
 10
136.9565406957
 20
99.3431277962
 10
137.0037554381
 20
99.3345602288
 10
137.0592886512
 20
99.3226646023
 10
137.1152403673
 20
99.308738893
 10
137.1715348561
 20
99.2928001727
 10
137.2280963875
 20
99.2748655132
 10
137.2848492314
 20
99.2549519862
 10
137.3417176576
 20
99.2330766634
 10
137.398627022
 20
99.209260615
 10
137.4555070247
 20
99.1835409052
 10
137.5122884517
 20
99.1559585963
 10
137.5689020892
 20
99.1265547511
 10
137.6252787233
 20
99.095370432
 10
137.68134914
 20
99.0624467017
 10
137.7291176041
 20
99.0328691008
 10
137.7765924323
 20
99.0020458488
 10
137.8237558155
 20
98.9699790609
 10
137.8705899449
 20
98.9366708523
 10
137.9170770115
 20
98.9021233382
 10
137.9631992065
 20
98.866338634
 10
138.0089387209
 20
98.8293188549
 10
138.0542675466
 20
98.7910773411
 10
138.0991168792
 20
98.7516723331
 10
138.1434077151
 20
98.7111732963
 10
138.1870610506
 20
98.669649696
 10
138.2299978823
 20
98.6271709976
 10
138.2721392065
 20
98.5838066666
 10
138.3134060196
 20
98.5396261684
 10
138.3537295005
 20
98.4946930731
 10
138.3930815577
 20
98.4490473691
 10
138.4314442822
 20
98.4027231498
 10
138.4687997649
 20
98.3557545085
 10
138.5051300967
 20
98.3081755383
 10
138.5404173686
 20
98.2600203326
 10
138.5746436716
 20
98.2113229846
  0
LWPOLYLINE
  5
2E0
100
AcDbEntity
  8
ASSI
100
AcDbPolyline
 62
7
  6
CONTINUOUS
 90
11
 70
0
 10
164.3617889831
 20
96.2104342254
 10
164.4031732889
 20
96.1986126784
 10
164.4512749172
 20
96.1895500215
 10
164.5002061499
 20
96.1852273053
 10
164.5495066478
 20
96.1857376255
 10
164.5986610694
 20
96.1911238793
 10
164.6472170996
 20
96.2013849513
 10
164.6946838788
 20
96.2164714798
 10
164.7405490313
 20
96.2362720002
 10
164.784329736
 20
96.2606254956
 10
164.8233109495
 20
96.2875913506
  0
LWPOLYLINE
  5
2E1
100
AcDbEntity
  8
0
100
AcDbPolyline
 62
7
  6
CONTINUOUS
 90
11
 70
0
 10
164.3617889831
 20
96.2104342254
 10
164.4031732889
 20
96.1986126784
 10
164.4512749172
 20
96.1895500215
 10
164.5002061499
 20
96.1852273053
 10
164.5495066478
 20
96.1857376255
 10
164.5986610694
 20
96.1911238793
 10
164.6472170996
 20
96.2013849513
 10
164.6946838788
 20
96.2164714798
 10
164.7405490313
 20
96.2362720002
 10
164.784329736
 20
96.2606254956
 10
164.8233109495
 20
96.2875913506
  0
LWPOLYLINE
  5
2E2
100
AcDbEntity
  8
ASSI
100
AcDbPolyline
 62
253
  6
CONTINUOUS
 90
16
 70
0
 10
164.2688958257
 20
96.4373659283
 10
164.3120934983
 20
96.4245579079
 10
164.3572541107
 20
96.4142111015
 10
164.403950639
 20
96.4064233454
 10
164.4517415291
 20
96.4012682787
 10
164.5001748932
 20
96.3987946446
 10
164.5487927825
 20
96.3990258336
 10
164.597135504
 20
96.4019596649
 10
164.6447459208
 20
96.4075684013
 10
164.6911737997
 20
96.4157990031
 10
164.7359801145
 20
96.426573635
 10
164.7787412158
 20
96.4397904152
 10
164.8190527906
 20
96.4553243748
 10
164.8565336718
 20
96.4730286328
 10
164.890829446
 20
96.4927357814
 10
164.9216158236
 20
96.5142594761
  0
LWPOLYLINE
  5
2E3
100
AcDbEntity
  8
0
100
AcDbPolyline
 62
253
  6
CONTINUOUS
 90
16
 70
0
 10
164.2688958257
 20
96.4373659283
 10
164.3120934983
 20
96.4245579079
 10
164.3572541107
 20
96.4142111015
 10
164.403950639
 20
96.4064233454
 10
164.4517415291
 20
96.4012682787
 10
164.5001748932
 20
96.3987946446
 10
164.5487927825
 20
96.3990258336
 10
164.597135504
 20
96.4019596649
 10
164.6447459208
 20
96.4075684013
 10
164.6911737997
 20
96.4157990031
 10
164.7359801145
 20
96.426573635
 10
164.7787412158
 20
96.4397904152
 10
164.8190527906
 20
96.4553243748
 10
164.8565336718
 20
96.4730286328
 10
164.890829446
 20
96.4927357814
 10
164.9216158236
 20
96.5142594761
  0
LWPOLYLINE
  5
2E4
100
AcDbEntity
  8
SUPERFICI
100
AcDbPolyline
 62
7
  6
CONTINUOUS
 90
12
 70
0
 10
153.5938232066
 20
96.9485495814
 10
153.5392048374
 20
96.9656341348
 10
153.4853259325
 20
96.9786434484
 10
153.4319073114
 20
96.9876166271
 10
153.3792272467
 20
96.9925138432
 10
153.3281203692
 20
96.9932154582
 10
153.2786068585
 20
96.9896364663
 10
153.2306641197
 20
96.981859965
 10
153.1850609482
 20
96.9700171324
 10
153.1418875211
 20
96.9540749955
 10
153.1010503529
 20
96.9340639217
 10
153.0630415824
 20
96.9102091691
  0
LWPOLYLINE
  5
2E5
100
AcDbEntity
  8
SUPERFICI
100
AcDbPolyline
 62
7
  6
CONTINUOUS
 90
12
 70
0
 10
135.4086478234
 20
104.2521259905
 10
135.3540294542
 20
104.2692105439
 10
135.3001505493
 20
104.2822198575
 10
135.2467319282
 20
104.2911930362
 10
135.1940518635
 20
104.2960902522
 10
135.142944986
 20
104.2967918672
 10
135.0934314753
 20
104.2932128754
 10
135.0454887365
 20
104.285436374
 10
134.999885565
 20
104.2735935415
 10
134.9567121379
 20
104.2576514046
 10
134.9158749697
 20
104.2376403308
 10
134.8778661992
 20
104.2137855782
  0
LWPOLYLINE
  5
2E6
100
AcDbEntity
  8
0
100
AcDbPolyline
 62
253
  6
CONTINUOUS
 90
10
 70
0
 10
164.2688957044
 20
95.2262977958
 10
162.2713532564
 20
95.9038774625
 10
160.2978923045
 20
96.6029532238
 10
158.348903712
 20
97.323372092
 10
156.4248921914
 20
98.0649318343
 10
154.5261239196
 20
98.8275199553
 10
152.6526360847
 20
99.611121527
 10
150.8047040824
 20
100.4156315516
 10
148.9828319634
 20
101.2408471331
 10
147.1874042123
 20
102.086609876
  0
LWPOLYLINE
  5
2E7
100
AcDbEntity
  8
ASSI
100
AcDbPolyline
 62
253
  6
CONTINUOUS
 90
10
 70
0
 10
164.2688957044
 20
95.2262977958
 10
162.2713532564
 20
95.9038774625
 10
160.2978923045
 20
96.6029532238
 10
158.348903712
 20
97.323372092
 10
156.4248921914
 20
98.0649318343
 10
154.5261239196
 20
98.8275199553
 10
152.6526360847
 20
99.611121527
 10
150.8047040824
 20
100.4156315516
 10
148.9828319634
 20
101.2408471331
 10
147.1874042123
 20
102.086609876
  0
LINE
  5
2E8
100
AcDbEntity
  8
SUPERFICI
100
AcDbLine
 62
7
  6
CONTINUOUS
 10
153.6491817552
 20
96.9273903644
 11
153.5938232066
 21
96.9485495814
  0
LINE
  5
2E9
100
AcDbEntity
  8
SUPERFICI
100
AcDbLine
 62
7
  6
CONTINUOUS
 10
135.464006372
 20
104.2309667735
 11
135.4086478234
 21
104.2521259905
  0
LINE
  5
2EA
100
AcDbEntity
  8
SUPERFICI
100
AcDbLine
 62
7
  6
CONTINUOUS
 10
157.3361480567
 20
95.4466215784
 11
156.5085540422
 21
95.7690422179
  0
LINE
  5
2EB
100
AcDbEntity
  8
0
100
AcDbLine
 62
7
  6
CONTINUOUS
 10
156.5084452571
 20
95.7690849708
 11
157.3357842492
 21
95.44676207
  0
LINE
  5
2EC
100
AcDbEntity
  8
ASSI
100
AcDbLine
 62
7
  6
CONTINUOUS
 10
156.5084452571
 20
95.7690849708
 11
157.3357842492
 21
95.44676207
  0
LINE
  5
2ED
100
AcDbEntity
  8
ASSI
100
AcDbLine
 62
7
  6
CONTINUOUS
 10
138.3232698738
 20
103.0726613799
 11
139.150608866
 21
102.7503384791
  0
LINE
  5
2EE
100
AcDbEntity
  8
0
100
AcDbLine
 62
7
  6
CONTINUOUS
 10
138.3232698738
 20
103.0726613799
 11
139.150608866
 21
102.7503384791
  0
LINE
  5
2EF
100
AcDbEntity
  8
SUPERFICI
100
AcDbLine
 62
7
  6
CONTINUOUS
 10
139.1509726735
 20
102.7501979875
 11
138.3233786589
 21
103.072618627
  0
LINE
  5
2F0
100
AcDbEntity
  8
SUPERFICI
100
AcDbLine
 62
7
  6
CONTINUOUS
 10
156.5085540422
 20
95.7690422179
 11
155.6857657509
 21
96.095225093
  0
LINE
  5
2F1
100
AcDbEntity
  8
0
100
AcDbLine
 62
7
  6
CONTINUOUS
 10
155.6857655435
 20
96.0952251748
 11
156.5084452571
 21
95.7690849708
  0
LINE
  5
2F2
100
AcDbEntity
  8
ASSI
100
AcDbLine
 62
7
  6
CONTINUOUS
 10
155.6857655435
 20
96.0952251748
 11
156.5084452571
 21
95.7690849708
  0
LINE
  5
2F3
100
AcDbEntity
  8
ASSI
100
AcDbLine
 62
7
  6
CONTINUOUS
 10
137.5005901603
 20
103.3988015838
 11
138.3232698738
 21
103.0726613799
  0
LINE
  5
2F4
100
AcDbEntity
  8
0
100
AcDbLine
 62
7
  6
CONTINUOUS
 10
137.5005901603
 20
103.3988015838
 11
138.3232698738
 21
103.0726613799
  0
LINE
  5
2F5
100
AcDbEntity
  8
SUPERFICI
100
AcDbLine
 62
7
  6
CONTINUOUS
 10
138.3233786589
 20
103.072618627
 11
137.5005903677
 21
103.3988015021
  0
LINE
  5
2F6
100
AcDbEntity
  8
SUPERFICI
100
AcDbLine
 62
7
  6
CONTINUOUS
 10
137.5005903677
 20
103.3988015021
 11
136.6825649124
 21
103.7287612701
  0
LINE
  5
2F7
100
AcDbEntity
  8
ASSI
100
AcDbLine
 62
7
  6
CONTINUOUS
 10
136.6825907027
 20
103.7287507772
 11
137.5005901603
 21
103.3988015838
  0
LINE
  5
2F8
100
AcDbEntity
  8
0
100
AcDbLine
 62
7
  6
CONTINUOUS
 10
136.6825907027
 20
103.7287507772
 11
137.5005901603
 21
103.3988015838
  0
LINE
  5
2F9
100
AcDbEntity
  8
0
100
AcDbLine
 62
7
  6
CONTINUOUS
 10
154.8677660859
 20
96.4251743682
 11
155.6857655435
 21
96.0952251748
  0
LINE
  5
2FA
100
AcDbEntity
  8
ASSI
100
AcDbLine
 62
7
  6
CONTINUOUS
 10
154.8677660859
 20
96.4251743682
 11
155.6857655435
 21
96.0952251748
  0
LINE
  5
2FB
100
AcDbEntity
  8
SUPERFICI
100
AcDbLine
 62
7
  6
CONTINUOUS
 10
155.6857657509
 20
96.095225093
 11
154.8677402956
 21
96.425184861
  0
LINE
  5
2FC
100
AcDbEntity
  8
SUPERFICI
100
AcDbLine
 62
7
  6
CONTINUOUS
 10
136.6825649124
 20
103.7287612701
 11
135.8690468195
 21
104.0626018158
  0
LINE
  5
2FD
100
AcDbEntity
  8
SUPERFICI
100
AcDbLine
 62
7
  6
CONTINUOUS
 10
154.8677402956
 20
96.425184861
 11
154.0542222027
 21
96.7590254068
  0
LINE
  5
2FE
100
AcDbEntity
  8
SUPERFICI
100
AcDbLine
 62
7
  6
CONTINUOUS
 10
135.8690468195
 20
104.0626018158
 11
135.464006372
 21
104.2309667735
  0
LWPOLYLINE
  5
2FF
100
AcDbEntity
  8
ASSI
100
AcDbPolyline
 62
7
  6
CONTINUOUS
 90
3
 70
0
 10
135.4643609149
 20
104.23081876
 10
135.8692617419
 20
104.0625128574
 10
136.6825907027
 20
103.7287507772
  0
LWPOLYLINE
  5
300
100
AcDbEntity
  8
0
100
AcDbPolyline
 62
7
  6
CONTINUOUS
 90
3
 70
0
 10
135.4643609149
 20
104.23081876
 10
135.8692617419
 20
104.0625128574
 10
136.6825907027
 20
103.7287507772
  0
LWPOLYLINE
  5
301
100
AcDbEntity
  8
0
100
AcDbPolyline
 62
7
  6
CONTINUOUS
 90
3
 70
0
 10
153.6495362982
 20
96.9272423509
 10
154.0544371251
 20
96.7589364483
 10
154.8677660859
 20
96.4251743682
  0
LWPOLYLINE
  5
302
100
AcDbEntity
  8
ASSI
100
AcDbPolyline
 62
7
  6
CONTINUOUS
 90
3
 70
0
 10
153.6495362982
 20
96.9272423509
 10
154.0544371251
 20
96.7589364483
 10
154.8677660859
 20
96.4251743682
  0
LINE
  5
303
100
AcDbEntity
  8
SUPERFICI
100
AcDbLine
 62
7
  6
CONTINUOUS
 10
154.0542222027
 20
96.7590254068
 11
153.6491817552
 21
96.9273903644
  0
LWPOLYLINE
  5
304
100
AcDbEntity
  8
ASSI
100
AcDbPolyline
 62
7
  6
CONTINUOUS
 90
27
 70
0
 10
139.150608866
 20
102.7503384791
 10
139.2220753063
 20
102.7195830338
 10
139.2920273459
 20
102.6836847815
 10
139.3604630111
 20
102.6426420945
 10
139.4278223338
 20
102.596123174
 10
139.4936625271
 20
102.5444575534
 10
139.5566559926
 20
102.4886344174
 10
139.6168507538
 20
102.4284526157
 10
139.6741939381
 20
102.3641092304
 10
139.7272034286
 20
102.2971881048
 10
139.7756876616
 20
102.2277410605
 10
139.8198319389
 20
102.1557109697
 10
139.8587171578
 20
102.0825163107
 10
139.8922849416
 20
102.0079983355
 10
139.92058872
 20
101.9323115652
 10
139.9428758689
 20
101.8573433383
 10
139.958980831
 20
101.7831672229
 10
139.9690662344
 20
101.7097071255
 10
139.9728710758
 20
101.6386253468
 10
139.9702351205
 20
101.5699759296
 10
139.9613188761
 20
101.5037050332
 10
139.946342134
 20
101.4413128806
 10
139.9251393449
 20
101.3828524669
 10
139.8978794318
 20
101.3282736507
 10
139.8652831339
 20
101.2789213267
 10
139.8272870605
 20
101.234996067
 10
139.7831119404
 20
101.1956384162
  0
LWPOLYLINE
  5
305
100
AcDbEntity
  8
0
100
AcDbPolyline
 62
7
  6
CONTINUOUS
 90
27
 70
0
 10
139.150608866
 20
102.7503384791
 10
139.2220753063
 20
102.7195830338
 10
139.2920273459
 20
102.6836847815
 10
139.3604630111
 20
102.6426420945
 10
139.4278223338
 20
102.596123174
 10
139.4936625271
 20
102.5444575534
 10
139.5566559926
 20
102.4886344174
 10
139.6168507538
 20
102.4284526157
 10
139.6741939381
 20
102.3641092304
 10
139.7272034286
 20
102.2971881048
 10
139.7756876616
 20
102.2277410605
 10
139.8198319389
 20
102.1557109697
 10
139.8587171578
 20
102.0825163107
 10
139.8922849416
 20
102.0079983355
 10
139.92058872
 20
101.9323115652
 10
139.9428758689
 20
101.8573433383
 10
139.958980831
 20
101.7831672229
 10
139.9690662344
 20
101.7097071255
 10
139.9728710758
 20
101.6386253468
 10
139.9702351205
 20
101.5699759296
 10
139.9613188761
 20
101.5037050332
 10
139.946342134
 20
101.4413128806
 10
139.9251393449
 20
101.3828524669
 10
139.8978794318
 20
101.3282736507
 10
139.8652831339
 20
101.2789213267
 10
139.8272870605
 20
101.234996067
 10
139.7831119404
 20
101.1956384162
  0
LWPOLYLINE
  5
306
100
AcDbEntity
  8
0
100
AcDbPolyline
 62
7
  6
CONTINUOUS
 90
27
 70
0
 10
157.3357842492
 20
95.44676207
 10
157.4072506895
 20
95.4160066248
 10
157.4772027291
 20
95.3801083724
 10
157.5456383944
 20
95.3390656854
 10
157.612997717
 20
95.2925467649
 10
157.6788379103
 20
95.2408811443
 10
157.7418313758
 20
95.1850580083
 10
157.802026137
 20
95.1248762066
 10
157.8593693213
 20
95.0605328213
 10
157.9123788118
 20
94.9936116958
 10
157.9608630448
 20
94.9241646514
 10
158.0050073221
 20
94.8521345606
 10
158.043892541
 20
94.7789399016
 10
158.0774603248
 20
94.7044219265
 10
158.1057641033
 20
94.6287351561
 10
158.1280512521
 20
94.5537669292
 10
158.1441562142
 20
94.4795908138
 10
158.1542416176
 20
94.4061307164
 10
158.158046459
 20
94.3350489377
 10
158.1554105037
 20
94.2663995206
 10
158.1464942593
 20
94.2001286241
 10
158.1315175172
 20
94.1377364715
 10
158.1103147281
 20
94.0792760578
 10
158.083054815
 20
94.0246972416
 10
158.0504585171
 20
93.9753449176
 10
158.0124624437
 20
93.9314196579
 10
157.9682873237
 20
93.8920620071
  0
LWPOLYLINE
  5
307
100
AcDbEntity
  8
ASSI
100
AcDbPolyline
 62
7
  6
CONTINUOUS
 90
27
 70
0
 10
157.3357842492
 20
95.44676207
 10
157.4072506895
 20
95.4160066248
 10
157.4772027291
 20
95.3801083724
 10
157.5456383944
 20
95.3390656854
 10
157.612997717
 20
95.2925467649
 10
157.6788379103
 20
95.2408811443
 10
157.7418313758
 20
95.1850580083
 10
157.802026137
 20
95.1248762066
 10
157.8593693213
 20
95.0605328213
 10
157.9123788118
 20
94.9936116958
 10
157.9608630448
 20
94.9241646514
 10
158.0050073221
 20
94.8521345606
 10
158.043892541
 20
94.7789399016
 10
158.0774603248
 20
94.7044219265
 10
158.1057641033
 20
94.6287351561
 10
158.1280512521
 20
94.5537669292
 10
158.1441562142
 20
94.4795908138
 10
158.1542416176
 20
94.4061307164
 10
158.158046459
 20
94.3350489377
 10
158.1554105037
 20
94.2663995206
 10
158.1464942593
 20
94.2001286241
 10
158.1315175172
 20
94.1377364715
 10
158.1103147281
 20
94.0792760578
 10
158.083054815
 20
94.0246972416
 10
158.0504585171
 20
93.9753449176
 10
158.0124624437
 20
93.9314196579
 10
157.9682873237
 20
93.8920620071
  0
LWPOLYLINE
  5
308
100
AcDbEntity
  8
SUPERFICI
100
AcDbPolyline
 62
7
  6
CONTINUOUS
 90
3
 70
0
 10
139.2639933913
 20
102.6988827637
 10
139.2078147253
 20
102.7262971449
 10
139.1509726735
 20
102.7501979875
  0
LWPOLYLINE
  5
309
100
AcDbEntity
  8
SUPERFICI
100
AcDbPolyline
 62
7
  6
CONTINUOUS
 90
3
 70
0
 10
157.4491687745
 20
95.3953063547
 10
157.3929901085
 20
95.4227207358
 10
157.3361480567
 20
95.4466215784
  0
LWPOLYLINE
  5
30A
100
AcDbEntity
  8
ASSI
100
AcDbPolyline
 62
253
  6
CONTINUOUS
 90
10
 70
0
 10
129.0022286067
 20
109.3901863218
 10
128.9664865899
 20
109.409101658
 10
128.9341148964
 20
109.4299245334
 10
128.9054196223
 20
109.4524580537
 10
128.8806721042
 20
109.4764891458
 10
128.8601063418
 20
109.5017905826
 10
128.8439167923
 20
109.5281231345
 10
128.8322565404
 20
109.5552378231
 10
128.8252358563
 20
109.5828782493
 10
128.8229209627
 20
109.610322073
  0
LWPOLYLINE
  5
30B
100
AcDbEntity
  8
0
100
AcDbPolyline
 62
253
  6
CONTINUOUS
 90
10
 70
0
 10
129.0022286067
 20
109.3901863218
 10
128.9664865899
 20
109.409101658
 10
128.9341148964
 20
109.4299245334
 10
128.9054196223
 20
109.4524580537
 10
128.8806721042
 20
109.4764891458
 10
128.8601063418
 20
109.5017905826
 10
128.8439167923
 20
109.5281231345
 10
128.8322565404
 20
109.5552378231
 10
128.8252358563
 20
109.5828782493
 10
128.8229209627
 20
109.610322073
  0
LWPOLYLINE
  5
30C
100
AcDbEntity
  8
0
100
AcDbPolyline
 62
253
  6
CONTINUOUS
 90
35
 70
0
 10
154.3897431547
 20
88.5244676569
 10
154.3730126495
 20
88.5494238104
 10
154.3566687551
 20
88.5745075463
 10
154.340703764
 20
88.5997200007
 10
154.3251099683
 20
88.6250623099
 10
154.3098796604
 20
88.6505356101
 10
154.2950069887
 20
88.676138672
 10
154.2804935262
 20
88.701860805
 10
154.2663427021
 20
88.7276889529
 10
154.2525579454
 20
88.7536100597
 10
154.2391426853
 20
88.7796110692
 10
154.2260999419
 20
88.8056799904
 10
154.2134310986
 20
88.8318090932
 10
154.2011371296
 20
88.8579917123
 10
154.1892190095
 20
88.8842211827
 10
154.1776777123
 20
88.9104908392
 10
154.1637832824
 20
88.9433735901
 10
154.1504858623
 20
88.9762916338
 10
154.1377921535
 20
89.0092278865
 10
154.1257088573
 20
89.0421652644
 10
154.1164863508
 20
89.0685049202
 10
154.1076630084
 20
89.094828158
 10
154.0992430409
 20
89.1211287732
 10
154.0912306593
 20
89.1474005612
 10
154.0836300746
 20
89.1736373175
 10
154.0764459867
 20
89.1998314731
 10
154.069685051
 20
89.2259700017
 10
154.0633544118
 20
89.2520385125
 10
154.0574612135
 20
89.2780226148
 10
154.0520126003
 20
89.3039079178
 10
154.047015592
 20
89.3296827543
 10
154.0424767094
 20
89.3553463516
 10
154.0384023491
 20
89.3809006603
 10
154.0347989073
 20
89.4063476312
 10
154.0316727803
 20
89.431689215
  0
LWPOLYLINE
  5
30D
100
AcDbEntity
  8
0
100
AcDbPolyline
 62
253
  6
CONTINUOUS
 90
35
 70
0
 10
136.5043358482
 20
114.796742722
 10
136.4941022955
 20
114.8130805575
 10
136.4841248858
 20
114.8295041948
 10
136.4743987128
 20
114.8460138896
 10
136.4649188702
 20
114.8626098976
 10
136.4556804515
 20
114.8792924745
 10
136.4466795874
 20
114.8960605847
 10
136.4379165557
 20
114.9129080269
 10
136.4293926709
 20
114.9298273084
 10
136.4211092478
 20
114.9468109368
 10
136.4130676009
 20
114.9638514193
 10
136.4052689392
 20
114.980941726
 10
136.3977140488
 20
114.9980766767
 10
136.3904036101
 20
115.0152515541
 10
136.3833383033
 20
115.0324616406
 10
136.3765188088
 20
115.0497022189
 10
136.3683415718
 20
115.0712883539
 10
136.360553335
 20
115.0929038667
 10
136.3531579537
 20
115.1145378627
 10
136.3461592833
 20
115.1361794474
 10
136.3408486808
 20
115.1534911022
 10
136.3357970815
 20
115.1707965295
 10
136.3310071262
 20
115.1880916175
 10
136.3264814559
 20
115.2053722544
 10
136.3222227111
 20
115.2226343284
 10
136.3182338069
 20
115.2398729065
 10
136.3145187537
 20
115.2570797708
 10
136.3110818361
 20
115.2742458823
 10
136.3079273387
 20
115.2913622017
 10
136.305059546
 20
115.3084196902
 10
136.3024827608
 20
115.3254110133
 10
136.3002013592
 20
115.3423356564
 10
136.2982197356
 20
115.3591948099
 10
136.2965422844
 20
115.3759896638
 10
136.2951733998
 20
115.3927214084
  0
LWPOLYLINE
  5
30E
100
AcDbEntity
  8
ASSI
100
AcDbPolyline
 62
253
  6
CONTINUOUS
 90
10
 70
0
 10
147.0080963988
 20
103.5175999104
 10
147.0104112934
 20
103.4899148209
 10
147.0174319775
 20
103.4623650038
 10
147.0290922294
 20
103.4353326267
 10
147.0452817789
 20
103.4090733103
 10
147.0658475412
 20
103.3838353406
 10
147.0905950594
 20
103.3598573474
 10
147.1192903334
 20
103.3373660554
 10
147.1516620269
 20
103.3165741386
 10
147.1874040436
 20
103.2976781986
  0
LWPOLYLINE
  5
30F
100
AcDbEntity
  8
0
100
AcDbPolyline
 62
253
  6
CONTINUOUS
 90
10
 70
0
 10
147.0080963988
 20
103.5175999104
 10
147.0104112934
 20
103.4899148209
 10
147.0174319775
 20
103.4623650038
 10
147.0290922294
 20
103.4353326267
 10
147.0452817789
 20
103.4090733103
 10
147.0658475412
 20
103.3838353406
 10
147.0905950594
 20
103.3598573474
 10
147.1192903334
 20
103.3373660554
 10
147.1516620269
 20
103.3165741386
 10
147.1874040436
 20
103.2976781986
  0
LWPOLYLINE
  5
310
100
AcDbEntity
  8
0
100
AcDbPolyline
 62
253
  6
CONTINUOUS
 90
12
 70
0
 10
147.4425659727
 20
85.8020771481
 10
147.446493442
 20
85.736284222
 10
147.4538649384
 20
85.6737806965
 10
147.4646401508
 20
85.614875367
 10
147.4787531664
 20
85.5598664558
 10
147.4961353953
 20
85.509019319
 10
147.5167183831
 20
85.4625680667
 10
147.5403931264
 20
85.4207454001
 10
147.5670373003
 20
85.383765555
 10
147.5965400124
 20
85.3518042327
 10
147.6287431167
 20
85.3250272494
 10
147.6628483617
 20
85.3039625841
  0
LWPOLYLINE
  5
311
100
AcDbEntity
  8
ASSI
100
AcDbPolyline
 62
253
  6
CONTINUOUS
 90
12
 70
0
 10
147.4425659727
 20
85.8020771481
 10
147.446493442
 20
85.736284222
 10
147.4538649384
 20
85.6737806965
 10
147.4646401508
 20
85.614875367
 10
147.4787531664
 20
85.5598664558
 10
147.4961353953
 20
85.509019319
 10
147.5167183831
 20
85.4625680667
 10
147.5403931264
 20
85.4207454001
 10
147.5670373003
 20
85.383765555
 10
147.5965400124
 20
85.3518042327
 10
147.6287431167
 20
85.3250272494
 10
147.6628483617
 20
85.3039625841
  0
LWPOLYLINE
  5
312
100
AcDbEntity
  8
ASSI
100
AcDbPolyline
 62
253
  6
CONTINUOUS
 90
16
 70
0
 10
146.7364404972
 20
102.6080099049
 10
146.7340224544
 20
102.651020575
 10
146.7273004891
 20
102.6955474384
 10
146.7163040973
 20
102.7411223042
 10
146.7010914074
 20
102.7873085169
 10
146.6817978429
 20
102.8335522842
 10
146.6586790928
 20
102.8791918869
 10
146.6320230632
 20
102.9236728267
 10
146.6020972946
 20
102.9665606683
 10
146.5692218903
 20
103.0073938845
 10
146.5337497167
 20
103.0457280562
 10
146.4960746093
 20
103.0811318786
 10
146.4566205926
 20
103.1132048385
 10
146.4158257632
 20
103.1415914095
 10
146.3741357218
 20
103.1659821168
 10
146.3320093993
 20
103.1861084336
  0
LWPOLYLINE
  5
313
100
AcDbEntity
  8
0
100
AcDbPolyline
 62
253
  6
CONTINUOUS
 90
16
 70
0
 10
146.7364404972
 20
102.6080099049
 10
146.7340224544
 20
102.651020575
 10
146.7273004891
 20
102.6955474384
 10
146.7163040973
 20
102.7411223042
 10
146.7010914074
 20
102.7873085169
 10
146.6817978429
 20
102.8335522842
 10
146.6586790928
 20
102.8791918869
 10
146.6320230632
 20
102.9236728267
 10
146.6020972946
 20
102.9665606683
 10
146.5692218903
 20
103.0073938845
 10
146.5337497167
 20
103.0457280562
 10
146.4960746093
 20
103.0811318786
 10
146.4566205926
 20
103.1132048385
 10
146.4158257632
 20
103.1415914095
 10
146.3741357218
 20
103.1659821168
 10
146.3320093993
 20
103.1861084336
  0
LWPOLYLINE
  5
314
100
AcDbEntity
  8
0
100
AcDbPolyline
 62
253
  6
CONTINUOUS
 90
10
 70
0
 10
146.0837204425
 20
103.7409423374
 10
146.0854901124
 20
103.6987620257
 10
146.0894068137
 20
103.6608416163
 10
146.0956687405
 20
103.6268529016
 10
146.1048652622
 20
103.5963732713
 10
146.1168596356
 20
103.5697356505
 10
146.1307861795
 20
103.5478395599
 10
146.1469374139
 20
103.5308156084
 10
146.1655676537
 20
103.5185757641
 10
146.1765739323
 20
103.5140238574
  0
LWPOLYLINE
  5
315
100
AcDbEntity
  8
ASSI
100
AcDbPolyline
 62
253
  6
CONTINUOUS
 90
10
 70
0
 10
146.0837204425
 20
103.7409423374
 10
146.0854901124
 20
103.6987620257
 10
146.0894068137
 20
103.6608416163
 10
146.0956687405
 20
103.6268529016
 10
146.1048652622
 20
103.5963732713
 10
146.1168596356
 20
103.5697356505
 10
146.1307861795
 20
103.5478395599
 10
146.1469374139
 20
103.5308156084
 10
146.1655676537
 20
103.5185757641
 10
146.1765739323
 20
103.5140238574
  0
LWPOLYLINE
  5
316
100
AcDbEntity
  8
0
100
AcDbPolyline
 62
7
  6
CONTINUOUS
 90
14
 70
0
 10
147.2561109945
 20
86.0277279436
 10
147.2571265318
 20
86.0023649211
 10
147.2649963731
 20
85.912749315
 10
147.2791260024
 20
85.8287216078
 10
147.2992042755
 20
85.7501591442
 10
147.3250111638
 20
85.6767590306
 10
147.3563718807
 20
85.6084116085
 10
147.3929603201
 20
85.5453314452
 10
147.4344924836
 20
85.4875964291
 10
147.480690385
 20
85.435325825
 10
147.5310071221
 20
85.3888979464
 10
147.5849407173
 20
85.3485006775
 10
147.6421486222
 20
85.3141906222
 10
147.6766984831
 20
85.2971190405
  0
LWPOLYLINE
  5
317
100
AcDbEntity
  8
ASSI
100
AcDbPolyline
 62
7
  6
CONTINUOUS
 90
14
 70
0
 10
147.2561109945
 20
86.0277279436
 10
147.2571265318
 20
86.0023649211
 10
147.2649963731
 20
85.912749315
 10
147.2791260024
 20
85.8287216078
 10
147.2992042755
 20
85.7501591442
 10
147.3250111638
 20
85.6767590306
 10
147.3563718807
 20
85.6084116085
 10
147.3929603201
 20
85.5453314452
 10
147.4344924836
 20
85.4875964291
 10
147.480690385
 20
85.435325825
 10
147.5310071221
 20
85.3888979464
 10
147.5849407173
 20
85.3485006775
 10
147.6421486222
 20
85.3141906222
 10
147.6766984831
 20
85.2971190405
  0
LWPOLYLINE
  5
318
100
AcDbEntity
  8
ASSI
100
AcDbPolyline
 62
253
  6
CONTINUOUS
 90
9
 70
0
 10
147.1874040436
 20
103.2976781986
 10
147.1888054551
 20
103.2556472676
 10
147.1941186392
 20
103.2171669761
 10
147.2028961418
 20
103.1821684656
 10
147.2146761772
 20
103.1506513397
 10
147.2296204881
 20
103.1228286788
 10
147.2479931396
 20
103.0991463117
 10
147.2689834916
 20
103.0801779867
 10
147.2920161471
 20
103.0661877973
  0
LWPOLYLINE
  5
319
100
AcDbEntity
  8
0
100
AcDbPolyline
 62
253
  6
CONTINUOUS
 90
9
 70
0
 10
147.1874040436
 20
103.2976781986
 10
147.1888054551
 20
103.2556472676
 10
147.1941186392
 20
103.2171669761
 10
147.2028961418
 20
103.1821684656
 10
147.2146761772
 20
103.1506513397
 10
147.2296204881
 20
103.1228286788
 10
147.2479931396
 20
103.0991463117
 10
147.2689834916
 20
103.0801779867
 10
147.2920161471
 20
103.0661877973
  0
LWPOLYLINE
  5
31A
100
AcDbEntity
  8
ASSI
100
AcDbPolyline
 62
253
  6
CONTINUOUS
 90
10
 70
0
 10
147.0034744694
 20
86.3358207393
 10
146.9479919545
 20
88.1870043693
 10
146.8992156845
 20
90.0121429204
 10
146.8571456595
 20
91.8112363924
 10
146.8221195149
 20
93.5639455508
 10
146.7937996153
 20
95.2906096301
 10
146.7711730543
 20
97.0522463348
 10
146.7539021966
 20
98.8691948995
 10
146.7423246775
 20
100.7211160896
 10
146.7364404972
 20
102.6080099049
  0
LWPOLYLINE
  5
31B
100
AcDbEntity
  8
0
100
AcDbPolyline
 62
253
  6
CONTINUOUS
 90
10
 70
0
 10
147.0034744694
 20
86.3358207393
 10
146.9479919545
 20
88.1870043693
 10
146.8992156845
 20
90.0121429204
 10
146.8571456595
 20
91.8112363924
 10
146.8221195149
 20
93.5639455508
 10
146.7937996153
 20
95.2906096301
 10
146.7711730543
 20
97.0522463348
 10
146.7539021966
 20
98.8691948995
 10
146.7423246775
 20
100.7211160896
 10
146.7364404972
 20
102.6080099049
  0
LWPOLYLINE
  5
31C
100
AcDbEntity
  8
ASSI
100
AcDbPolyline
 62
253
  6
CONTINUOUS
 90
10
 70
0
 10
146.3430977604
 20
86.2436483419
 10
146.288696239
 20
88.0956786281
 10
146.2414189629
 20
89.9223105029
 10
146.2009572378
 20
91.7232338451
 10
146.1673632684
 20
93.4777753851
 10
146.1398544617
 20
95.2059043751
 10
146.1174537752
 20
96.9687774053
 10
146.1002871728
 20
98.7871371469
 10
146.0889427591
 20
100.6407666947
 10
146.0837203212
 20
102.5298742049
  0
LWPOLYLINE
  5
31D
100
AcDbEntity
  8
0
100
AcDbPolyline
 62
253
  6
CONTINUOUS
 90
10
 70
0
 10
146.3430977604
 20
86.2436483419
 10
146.288696239
 20
88.0956786281
 10
146.2414189629
 20
89.9223105029
 10
146.2009572378
 20
91.7232338451
 10
146.1673632684
 20
93.4777753851
 10
146.1398544617
 20
95.2059043751
 10
146.1174537752
 20
96.9687774053
 10
146.1002871728
 20
98.7871371469
 10
146.0889427591
 20
100.6407666947
 10
146.0837203212
 20
102.5298742049
  0
LWPOLYLINE
  5
31E
100
AcDbEntity
  8
0
100
AcDbPolyline
 62
7
  6
CONTINUOUS
 90
10
 70
0
 10
147.0080963461
 20
102.3067456663
 10
147.0126188161
 20
100.530194214
 10
147.0229970806
 20
98.6925483569
 10
147.0391684389
 20
96.8598209972
 10
147.0611335006
 20
95.0320516826
 10
147.0888924154
 20
93.209277504
 10
147.1224453245
 20
91.3915345576
 10
147.1617916871
 20
89.5788640828
 10
147.2069303378
 20
87.7713120055
 10
147.2560992084
 20
86.0279110415
  0
LWPOLYLINE
  5
31F
100
AcDbEntity
  8
ASSI
100
AcDbPolyline
 62
7
  6
CONTINUOUS
 90
10
 70
0
 10
147.0080963461
 20
102.3067456663
 10
147.0126188161
 20
100.530194214
 10
147.0229970806
 20
98.6925483569
 10
147.0391684389
 20
96.8598209972
 10
147.0611335006
 20
95.0320516826
 10
147.0888924154
 20
93.209277504
 10
147.1224453245
 20
91.3915345576
 10
147.1617916871
 20
89.5788640828
 10
147.2069303378
 20
87.7713120055
 10
147.2560992084
 20
86.0279110415
  0
LWPOLYLINE
  5
320
100
AcDbEntity
  8
0
100
AcDbPolyline
 62
253
  6
CONTINUOUS
 90
10
 70
0
 10
147.1874042123
 20
102.086609876
 10
147.1916981634
 20
100.3975693654
 10
147.2011682213
 20
98.6876371206
 10
147.216043109
 20
96.957035361
 10
147.2363830949
 20
95.2191607417
 10
147.2625107529
 20
93.4610062469
 10
147.2954298561
 20
91.6435171716
 10
147.3360750421
 20
89.7542178515
 10
147.3848931263
 20
87.8068567425
 10
147.4425659667
 20
85.8020771372
  0
LWPOLYLINE
  5
321
100
AcDbEntity
  8
ASSI
100
AcDbPolyline
 62
253
  6
CONTINUOUS
 90
10
 70
0
 10
147.1874042123
 20
102.086609876
 10
147.1916981634
 20
100.3975693654
 10
147.2011682213
 20
98.6876371206
 10
147.216043109
 20
96.957035361
 10
147.2363830949
 20
95.2191607417
 10
147.2625107529
 20
93.4610062469
 10
147.2954298561
 20
91.6435171716
 10
147.3360750421
 20
89.7542178515
 10
147.3848931263
 20
87.8068567425
 10
147.4425659667
 20
85.8020771372
  0
LWPOLYLINE
  5
322
100
AcDbEntity
  8
0
100
AcDbPolyline
 62
253
  6
CONTINUOUS
 90
10
 70
0
 10
146.7364404394
 20
103.8178358845
 10
146.7405323984
 20
105.5119572663
 10
146.7505255462
 20
107.2357315322
 10
146.7664198827
 20
108.9891586824
 10
146.7875574964
 20
110.7584767705
 10
146.8145962988
 20
112.5574477429
 10
146.8495100246
 20
114.4273574381
 10
146.8929565853
 20
116.3819678025
 10
146.9442780695
 20
118.4075168897
 10
147.0034744771
 20
120.5040046999
  0
LWPOLYLINE
  5
323
100
AcDbEntity
  8
ASSI
100
AcDbPolyline
 62
253
  6
CONTINUOUS
 90
10
 70
0
 10
146.7364404394
 20
103.8178358845
 10
146.7405323984
 20
105.5119572663
 10
146.7505255462
 20
107.2357315322
 10
146.7664198827
 20
108.9891586824
 10
146.7875574964
 20
110.7584767705
 10
146.8145962988
 20
112.5574477429
 10
146.8495100246
 20
114.4273574381
 10
146.8929565853
 20
116.3819678025
 10
146.9442780695
 20
118.4075168897
 10
147.0034744771
 20
120.5040046999
  0
LWPOLYLINE
  5
324
100
AcDbEntity
  8
0
100
AcDbPolyline
 62
253
  6
CONTINUOUS
 90
5
 70
0
 10
146.0837203112
 20
103.7409424487
 10
146.0880802598
 20
105.437071819
 10
146.0977095791
 20
107.1626493577
 10
146.1128369921
 20
108.9178275633
 10
146.133512981
 20
110.6893005022
  0
LWPOLYLINE
  5
325
100
AcDbEntity
  8
ASSI
100
AcDbPolyline
 62
253
  6
CONTINUOUS
 90
5
 70
0
 10
146.0837203112
 20
103.7409424487
 10
146.0880802598
 20
105.437071819
 10
146.0977095791
 20
107.1626493577
 10
146.1128369921
 20
108.9178275633
 10
146.133512981
 20
110.6893005022
  0
LINE
  5
326
100
AcDbEntity
  8
0
100
AcDbLine
 62
253
  6
CONTINUOUS
 10
146.133512981
 20
110.6893005022
 11
146.1600699059
 21
112.4906116808
  0
LINE
  5
327
100
AcDbEntity
  8
ASSI
100
AcDbLine
 62
253
  6
CONTINUOUS
 10
146.133512981
 20
110.6893005022
 11
146.1600699059
 21
112.4906116808
  0
LWPOLYLINE
  5
328
100
AcDbEntity
  8
0
100
AcDbPolyline
 62
253
  6
CONTINUOUS
 90
5
 70
0
 10
146.1600699059
 20
112.4906116808
 10
146.1935408976
 20
114.362484338
 10
146.2348703798
 20
116.3189333751
 10
146.2844953816
 20
118.3469343393
 10
146.3430977612
 20
120.4469610287
  0
LWPOLYLINE
  5
329
100
AcDbEntity
  8
ASSI
100
AcDbPolyline
 62
253
  6
CONTINUOUS
 90
5
 70
0
 10
146.1600699059
 20
112.4906116808
 10
146.1935408976
 20
114.362484338
 10
146.2348703798
 20
116.3189333751
 10
146.2844953816
 20
118.3469343393
 10
146.3430977612
 20
120.4469610287
  0
LWPOLYLINE
  5
32A
100
AcDbEntity
  8
ASSI
100
AcDbPolyline
 62
7
  6
CONTINUOUS
 90
10
 70
0
 10
147.2560779673
 20
120.2251490227
 10
147.2070567741
 20
118.4023232915
 10
147.1619057984
 20
116.5167232388
 10
147.1225460794
 20
114.6360208079
 10
147.0889788067
 20
112.7602620383
 10
147.0612045255
 20
110.8894868713
 10
147.0392235571
 20
109.0237329234
 10
147.0230360184
 20
107.1630382229
 10
147.0126409915
 20
105.3074417939
 10
147.0080963988
 20
103.5175999104
  0
LWPOLYLINE
  5
32B
100
AcDbEntity
  8
0
100
AcDbPolyline
 62
7
  6
CONTINUOUS
 90
10
 70
0
 10
147.2560779673
 20
120.2251490227
 10
147.2070567741
 20
118.4023232915
 10
147.1619057984
 20
116.5167232388
 10
147.1225460794
 20
114.6360208079
 10
147.0889788067
 20
112.7602620383
 10
147.0612045255
 20
110.8894868713
 10
147.0392235571
 20
109.0237329234
 10
147.0230360184
 20
107.1630382229
 10
147.0126409915
 20
105.3074417939
 10
147.0080963988
 20
103.5175999104
  0
LWPOLYLINE
  5
32C
100
AcDbEntity
  8
ASSI
100
AcDbPolyline
 62
253
  6
CONTINUOUS
 90
10
 70
0
 10
147.4425659683
 20
120.0053898247
 10
147.3890353522
 20
118.0649467074
 10
147.3425247774
 20
116.1614883228
 10
147.3027255498
 20
114.2948190572
 10
147.2696851008
 20
112.4856937972
 10
147.2426256104
 20
110.7128650749
 10
147.2205843553
 20
108.9135873375
 10
147.203692072
 20
107.06732819
 10
147.1925320924
 20
105.1952641225
 10
147.1874042034
 20
103.2976781208
  0
LWPOLYLINE
  5
32D
100
AcDbEntity
  8
0
100
AcDbPolyline
 62
253
  6
CONTINUOUS
 90
10
 70
0
 10
147.4425659683
 20
120.0053898247
 10
147.3890353522
 20
118.0649467074
 10
147.3425247774
 20
116.1614883228
 10
147.3027255498
 20
114.2948190572
 10
147.2696851008
 20
112.4856937972
 10
147.2426256104
 20
110.7128650749
 10
147.2205843553
 20
108.9135873375
 10
147.203692072
 20
107.06732819
 10
147.1925320924
 20
105.1952641225
 10
147.1874042034
 20
103.2976781208
  0
LWPOLYLINE
  5
32E
100
AcDbEntity
  8
0
100
AcDbPolyline
 62
253
  6
CONTINUOUS
 90
16
 70
0
 10
147.1874039899
 20
102.0866099127
 10
147.1888054238
 20
102.1313878406
 10
147.1941189975
 20
102.1768692487
 10
147.2028971251
 20
102.2231780547
 10
147.2146778421
 20
102.2708412329
 10
147.229622856
 20
102.319546308
 10
147.2479962736
 20
102.367900978
 10
147.2689872726
 20
102.4153500659
 10
147.2922656208
 20
102.4619194157
 10
147.3183248889
 20
102.5067386857
 10
147.3464088878
 20
102.5492742797
 10
147.3758112794
 20
102.589304547
 10
147.4070596562
 20
102.6262244757
 10
147.4398383565
 20
102.6595670194
 10
147.4729423053
 20
102.6891462611
 10
147.5055934137
 20
102.7147705671
  0
LWPOLYLINE
  5
32F
100
AcDbEntity
  8
ASSI
100
AcDbPolyline
 62
253
  6
CONTINUOUS
 90
16
 70
0
 10
147.1874039899
 20
102.0866099127
 10
147.1888054238
 20
102.1313878406
 10
147.1941189975
 20
102.1768692487
 10
147.2028971251
 20
102.2231780547
 10
147.2146778421
 20
102.2708412329
 10
147.229622856
 20
102.319546308
 10
147.2479962736
 20
102.367900978
 10
147.2689872726
 20
102.4153500659
 10
147.2922656208
 20
102.4619194157
 10
147.3183248889
 20
102.5067386857
 10
147.3464088878
 20
102.5492742797
 10
147.3758112794
 20
102.589304547
 10
147.4070596562
 20
102.6262244757
 10
147.4398383565
 20
102.6595670194
 10
147.4729423053
 20
102.6891462611
 10
147.5055934137
 20
102.7147705671
  0
LWPOLYLINE
  5
330
100
AcDbEntity
  8
ASSI
100
AcDbPolyline
 62
253
  6
CONTINUOUS
 90
16
 70
0
 10
146.0837205006
 20
102.5298741432
 10
146.0854899372
 20
102.5745024808
 10
146.0894063821
 20
102.6205432419
 10
146.0956679923
 20
102.6678610723
 10
146.1048640121
 20
102.7165607767
 10
146.116857747
 20
102.766449793
 10
146.1307837505
 20
102.8165896693
 10
146.1469345656
 20
102.8659822572
 10
146.1655644447
 20
102.9144186308
 10
146.1856614888
 20
102.9616330173
 10
146.2073054413
 20
103.0067561044
 10
146.2307286628
 20
103.0491891641
 10
146.2549779761
 20
103.0889216744
 10
146.2797414811
 20
103.1254849492
 10
146.3054117176
 20
103.1580513863
 10
146.3320093993
 20
103.1861084336
  0
LWPOLYLINE
  5
331
100
AcDbEntity
  8
0
100
AcDbPolyline
 62
253
  6
CONTINUOUS
 90
16
 70
0
 10
146.0837205006
 20
102.5298741432
 10
146.0854899372
 20
102.5745024808
 10
146.0894063821
 20
102.6205432419
 10
146.0956679923
 20
102.6678610723
 10
146.1048640121
 20
102.7165607767
 10
146.116857747
 20
102.766449793
 10
146.1307837505
 20
102.8165896693
 10
146.1469345656
 20
102.8659822572
 10
146.1655644447
 20
102.9144186308
 10
146.1856614888
 20
102.9616330173
 10
146.2073054413
 20
103.0067561044
 10
146.2307286628
 20
103.0491891641
 10
146.2549779761
 20
103.0889216744
 10
146.2797414811
 20
103.1254849492
 10
146.3054117176
 20
103.1580513863
 10
146.3320093993
 20
103.1861084336
  0
LWPOLYLINE
  5
332
100
AcDbEntity
  8
0
100
AcDbPolyline
 62
253
  6
CONTINUOUS
 90
22
 70
0
 10
146.3430977757
 20
120.4469610347
 10
146.3467056802
 20
120.5189265776
 10
146.353621137
 20
120.59313329
 10
146.3638127816
 20
120.6692136632
 10
146.3772405517
 20
120.7467826654
 10
146.3938369583
 20
120.825463471
 10
146.4135094347
 20
120.9048900691
 10
146.4361758477
 20
120.9846731885
 10
146.461730204
 20
121.0644115663
 10
146.4900255175
 20
121.1437182595
 10
146.520937686
 20
121.2221962475
 10
146.5543250133
 20
121.2994551778
 10
146.5899962638
 20
121.3751232848
 10
146.6277945167
 20
121.4488219723
 10
146.6675458166
 20
121.5201804711
 10
146.7090186499
 20
121.5888528802
 10
146.7520246632
 20
121.6544895336
 10
146.7963700512
 20
121.7167638182
 10
146.8418047891
 20
121.775385609
 10
146.8881070508
 20
121.8300648281
 10
146.9350837394
 20
121.8805141909
 10
146.9825220642
 20
121.9264752939
  0
LWPOLYLINE
  5
333
100
AcDbEntity
  8
ASSI
100
AcDbPolyline
 62
253
  6
CONTINUOUS
 90
22
 70
0
 10
146.3430977757
 20
120.4469610347
 10
146.3467056802
 20
120.5189265776
 10
146.353621137
 20
120.59313329
 10
146.3638127816
 20
120.6692136632
 10
146.3772405517
 20
120.7467826654
 10
146.3938369583
 20
120.825463471
 10
146.4135094347
 20
120.9048900691
 10
146.4361758477
 20
120.9846731885
 10
146.461730204
 20
121.0644115663
 10
146.4900255175
 20
121.1437182595
 10
146.520937686
 20
121.2221962475
 10
146.5543250133
 20
121.2994551778
 10
146.5899962638
 20
121.3751232848
 10
146.6277945167
 20
121.4488219723
 10
146.6675458166
 20
121.5201804711
 10
146.7090186499
 20
121.5888528802
 10
146.7520246632
 20
121.6544895336
 10
146.7963700512
 20
121.7167638182
 10
146.8418047891
 20
121.775385609
 10
146.8881070508
 20
121.8300648281
 10
146.9350837394
 20
121.8805141909
 10
146.9825220642
 20
121.9264752939
  0
LWPOLYLINE
  5
334
100
AcDbEntity
  8
0
100
AcDbPolyline
 62
253
  6
CONTINUOUS
 90
22
 70
0
 10
147.0034744771
 20
120.5040046999
 10
147.0057819628
 20
120.5460527997
 10
147.0100849981
 20
120.5890036769
 10
147.016383583
 20
120.6328573316
 10
147.0247279918
 20
120.6778565461
 10
147.0350679502
 20
120.7237585381
 10
147.0472526355
 20
120.7698349603
 10
147.0613084231
 20
120.8160703579
 10
147.0772089375
 20
120.8624801857
 10
147.0947242292
 20
120.9083824611
 10
147.1138800652
 20
120.9537728465
 10
147.1346506785
 20
120.9986556795
 10
147.1567288182
 20
121.0423619896
 10
147.1801339295
 20
121.0848727339
 10
147.2048465671
 20
121.1262069552
 10
147.2305011445
 20
121.1657528118
 10
147.2571246272
 20
121.2034945513
 10
147.2846900497
 20
121.2394479259
 10
147.3127509295
 20
121.2730483508
 10
147.3411584391
 20
121.304107631
 10
147.370061406
 20
121.3328139615
 10
147.3994598302
 20
121.3591673423
  0
LWPOLYLINE
  5
335
100
AcDbEntity
  8
ASSI
100
AcDbPolyline
 62
253
  6
CONTINUOUS
 90
22
 70
0
 10
147.0034744771
 20
120.5040046999
 10
147.0057819628
 20
120.5460527997
 10
147.0100849981
 20
120.5890036769
 10
147.016383583
 20
120.6328573316
 10
147.0247279918
 20
120.6778565461
 10
147.0350679502
 20
120.7237585381
 10
147.0472526355
 20
120.7698349603
 10
147.0613084231
 20
120.8160703579
 10
147.0772089375
 20
120.8624801857
 10
147.0947242292
 20
120.9083824611
 10
147.1138800652
 20
120.9537728465
 10
147.1346506785
 20
120.9986556795
 10
147.1567288182
 20
121.0423619896
 10
147.1801339295
 20
121.0848727339
 10
147.2048465671
 20
121.1262069552
 10
147.2305011445
 20
121.1657528118
 10
147.2571246272
 20
121.2034945513
 10
147.2846900497
 20
121.2394479259
 10
147.3127509295
 20
121.2730483508
 10
147.3411584391
 20
121.304107631
 10
147.370061406
 20
121.3328139615
 10
147.3994598302
 20
121.3591673423
  0
LWPOLYLINE
  5
336
100
AcDbEntity
  8
0
100
AcDbPolyline
 62
253
  6
CONTINUOUS
 90
8
 70
0
 10
146.7364404396
 20
103.8178358847
 10
146.7340223924
 20
103.7762347623
 10
146.7273004167
 20
103.7367755922
 10
146.7163040112
 20
103.6999085057
 10
146.7010913078
 20
103.6660271248
 10
146.6817977327
 20
103.6355778857
 10
146.6586789751
 20
103.6090139339
 10
146.6381355663
 20
103.5911677597
  0
LWPOLYLINE
  5
337
100
AcDbEntity
  8
ASSI
100
AcDbPolyline
 62
253
  6
CONTINUOUS
 90
8
 70
0
 10
146.7364404396
 20
103.8178358847
 10
146.7340223924
 20
103.7762347623
 10
146.7273004167
 20
103.7367755922
 10
146.7163040112
 20
103.6999085057
 10
146.7010913078
 20
103.6660271248
 10
146.6817977327
 20
103.6355778857
 10
146.6586789751
 20
103.6090139339
 10
146.6381355663
 20
103.5911677597
  0
LINE
  5
338
100
AcDbEntity
  8
ASSI
100
AcDbLine
 62
253
  6
CONTINUOUS
 10
147.0086070067
 20
103.718697676
 11
146.3320093995
 21
103.1861084337
  0
LINE
  5
339
100
AcDbEntity
  8
0
100
AcDbLine
 62
253
  6
CONTINUOUS
 10
147.0086070067
 20
103.718697676
 11
146.3320093995
 21
103.1861084337
  0
LINE
  5
33A
100
AcDbEntity
  8
0
100
AcDbLine
 62
253
  6
CONTINUOUS
 10
146.6381355663
 20
103.5911677597
 11
146.6378438307
 21
103.5909447365
  0
LINE
  5
33B
100
AcDbEntity
  8
ASSI
100
AcDbLine
 62
253
  6
CONTINUOUS
 10
146.6381355663
 20
103.5911677597
 11
146.6378438307
 21
103.5909447365
  0
LINE
  5
33C
100
AcDbEntity
  8
0
100
AcDbLine
 62
253
  6
CONTINUOUS
 10
146.7364404394
 20
103.8178358845
 11
147.0093876093
 21
104.026130085
  0
LINE
  5
33D
100
AcDbEntity
  8
ASSI
100
AcDbLine
 62
253
  6
CONTINUOUS
 10
146.7364404394
 20
103.8178358845
 11
147.0093876093
 21
104.026130085
  0
LINE
  5
33E
100
AcDbEntity
  8
0
100
AcDbLine
 62
7
  6
CONTINUOUS
 10
146.6378416863
 20
103.5909431
 11
147.009001809
 21
103.8741865608
  0
LINE
  5
33F
100
AcDbEntity
  8
ASSI
100
AcDbLine
 62
7
  6
CONTINUOUS
 10
146.6378416863
 20
103.5909431
 11
147.009001809
 21
103.8741865608
  0
LWPOLYLINE
  5
340
100
AcDbEntity
  8
0
100
AcDbPolyline
 62
253
  6
CONTINUOUS
 90
35
 70
0
 10
154.7450317071
 20
110.3001402679
 10
154.7343167027
 20
110.2922741361
 10
154.7238505141
 20
110.2841170851
 10
154.7136283003
 20
110.2756727756
 10
154.7036452202
 20
110.2669448683
 10
154.6938964326
 20
110.2579370239
 10
154.6843781672
 20
110.2486533401
 10
154.6750909364
 20
110.2390996625
 10
154.6660363234
 20
110.2292822736
 10
154.6572159116
 20
110.219207456
 10
154.648631284
 20
110.2088814923
 10
154.6402839019
 20
110.1983102934
 10
154.6321747387
 20
110.1874982839
 10
154.6243046458
 20
110.1764495168
 10
154.6166744746
 20
110.1651680451
 10
154.6092850766
 20
110.1536579217
 10
154.6003886396
 20
110.138954838
 10
154.5918739615
 20
110.1239083588
 10
154.5837452628
 20
110.1085260242
 10
154.5760067643
 20
110.0928153741
 10
154.5700998455
 20
110.080015203
 10
154.5644481154
 20
110.0670116116
 10
154.5590543333
 20
110.0538064758
 10
154.5539212587
 20
110.0404016718
 10
154.5490516511
 20
110.0267990755
 10
154.5444485712
 20
110.0130011525
 10
154.5401162861
 20
109.9990127269
 10
154.536059364
 20
109.9848392119
 10
154.5322823733
 20
109.9704860213
 10
154.5287898823
 20
109.9559585684
 10
154.5255864102
 20
109.9412605682
 10
154.5226762787
 20
109.926388941
 10
154.5200637605
 20
109.9113389085
 10
154.517753128
 20
109.8961056925
 10
154.515748654
 20
109.8806845146
  0
LWPOLYLINE
  5
341
100
AcDbEntity
  8
0
100
AcDbPolyline
 62
253
  6
CONTINUOUS
 90
55
 70
0
 10
154.7450317071
 20
110.3001402679
 10
154.7689378966
 20
110.3163929237
 10
154.7935795391
 20
110.3316230751
 10
154.8189425179
 20
110.3458168022
 10
154.845012716
 20
110.3589601852
 10
154.871776017
 20
110.3710393041
 10
154.899218304
 20
110.3820402389
 10
154.9273254602
 20
110.3919490698
 10
154.9560771068
 20
110.4007534605
 10
154.9854278157
 20
110.4084474089
 10
155.0153258965
 20
110.4150264967
 10
155.0457196589
 20
110.4204863054
 10
155.0765574126
 20
110.4248224167
 10
155.1077874672
 20
110.4280304121
 10
155.1393581325
 20
110.4301058732
 10
155.1712246212
 20
110.4310462568
 10
155.2033697584
 20
110.4308565194
 10
155.2357832723
 20
110.4295434929
 10
155.2684548912
 20
110.4271140091
 10
155.3013743433
 20
110.4235748998
 10
155.3345313569
 20
110.4189329967
 10
155.3679156601
 20
110.4131951317
 10
155.4071309424
 20
110.4051251887
 10
155.4465854791
 20
110.3955854243
 10
155.4862231392
 20
110.384588444
 10
155.5259877915
 20
110.3721468535
 10
155.565823305
 20
110.3582732585
 10
155.6056735486
 20
110.3429802648
 10
155.6454841177
 20
110.3262831211
 10
155.6852075128
 20
110.3082076493
 10
155.7247979608
 20
110.2887823143
 10
155.7642096888
 20
110.2680355812
 10
155.8033969236
 20
110.2459959149
 10
155.8423138923
 20
110.2226917804
 10
155.8754242077
 20
110.2017291557
 10
155.9082898283
 20
110.1798594778
 10
155.9408982512
 20
110.1570837775
 10
155.9732369737
 20
110.1334030856
 10
156.005293493
 20
110.1088184329
 10
156.0370553064
 20
110.0833308502
 10
156.0685099111
 20
110.0569413682
 10
156.0996378365
 20
110.0296591371
 10
156.1303917406
 20
110.0015257845
 10
156.1607173136
 20
109.9725910574
 10
156.1905602458
 20
109.9429047026
 10
156.2198662274
 20
109.9125164673
 10
156.2485809485
 20
109.8814760983
 10
156.2766500995
 20
109.8498333425
 10
156.3040264689
 20
109.8176337588
 10
156.3306912396
 20
109.7849061533
 10
156.3566326927
 20
109.7516751439
 10
156.3818391094
 20
109.7179653487
 10
156.4062987709
 20
109.6838013854
 10
156.4299999585
 20
109.6492078722
 10
156.4529309533
 20
109.6142094269
  0
LWPOLYLINE
  5
342
100
AcDbEntity
  8
0
100
AcDbPolyline
 62
253
  6
CONTINUOUS
 90
47
 70
0
 10
154.389743599
 20
110.7838794393
 10
154.4237612344
 20
110.8070018293
 10
154.4588325107
 20
110.8286748137
 10
154.4949390458
 20
110.8488776298
 10
154.5320624579
 20
110.8675895145
 10
154.5701843648
 20
110.8847897051
 10
154.6092863845
 20
110.9004574387
 10
154.6493501351
 20
110.9145719524
 10
154.6903476977
 20
110.9271147253
 10
154.7322130059
 20
110.938076204
 10
154.7748704566
 20
110.947449077
 10
154.8182444467
 20
110.9552260329
 10
154.8622593729
 20
110.9613997601
 10
154.9068396321
 20
110.9659629473
 10
154.9519096212
 20
110.9689082829
 10
154.9974038167
 20
110.9702314098
 10
155.0432970144
 20
110.9699397878
 10
155.0895740897
 20
110.9680438311
 10
155.1362199183
 20
110.9645539538
 10
155.1832193756
 20
110.9594805701
 10
155.230557337
 20
110.9528340942
 10
155.2782186782
 20
110.9446249402
 10
155.3261826199
 20
110.9348635946
 10
155.3744057635
 20
110.9235608325
 10
155.422839056
 20
110.9107275016
 10
155.4714334441
 20
110.8963744494
 10
155.5201398745
 20
110.8805125234
 10
155.5689092941
 20
110.8631525711
 10
155.6176926497
 20
110.8443054401
 10
155.6664420277
 20
110.8239844668
 10
155.7151140737
 20
110.8022129426
 10
155.7636665729
 20
110.7790166478
 10
155.8120573103
 20
110.7544213629
 10
155.8602440714
 20
110.7284528681
 10
155.9081846411
 20
110.7011369438
 10
155.9558368048
 20
110.6724993703
 10
156.0031623135
 20
110.6425619971
 10
156.0501387812
 20
110.61133095
 10
156.0967477879
 20
110.5788084241
 10
156.1429709135
 20
110.5449966144
 10
156.1887897379
 20
110.5098977159
 10
156.2341858412
 20
110.4735139236
 10
156.2791408032
 20
110.4358474325
 10
156.3157757201
 20
110.4039056967
 10
156.3520565797
 20
110.3711367744
 10
156.3879403664
 20
110.3375801542
 10
156.4233840649
 20
110.3032753243
  0
LWPOLYLINE
  5
343
100
AcDbEntity
  8
0
100
AcDbPolyline
 62
253
  6
CONTINUOUS
 90
55
 70
0
 10
136.5043358482
 20
98.7177399473
 10
136.5272208628
 20
98.7331558305
 10
136.5508695081
 20
98.747572109
 10
136.575268451
 20
98.7609755728
 10
136.6004043579
 20
98.7733530121
 10
136.6262638955
 20
98.784691217
 10
136.6528337304
 20
98.7949769779
 10
136.6801005293
 20
98.8041970847
 10
136.7080447536
 20
98.81233993
 10
136.736622044
 20
98.8194003152
 10
136.7657818363
 20
98.8253746439
 10
136.7954735658
 20
98.8302593197
 10
136.8256466683
 20
98.8340507464
 10
136.8562505792
 20
98.8367453276
 10
136.8872347343
 20
98.838339467
 10
136.9185552058
 20
98.8388313276
 10
136.9501946139
 20
98.8382261103
 10
136.9821422154
 20
98.8365307753
 10
137.0143872672
 20
98.8337522828
 10
137.0469190261
 20
98.8298975931
 10
137.0797267491
 20
98.8249736664
 10
137.112799693
 20
98.8189874629
 10
137.1516994822
 20
98.8106704521
 10
137.1908914485
 20
98.8009293353
 10
137.2303213964
 20
98.7897764092
 10
137.2699351305
 20
98.777223971
 10
137.3096784553
 20
98.7632843176
 10
137.3494971754
 20
98.7479697458
 10
137.3893381705
 20
98.7312952921
 10
137.4291526213
 20
98.7132869507
 10
137.4688927833
 20
98.693973455
 10
137.5085109125
 20
98.6733835388
 10
137.5479592645
 20
98.6515459354
 10
137.5871900952
 20
98.6284893786
 10
137.6206102246
 20
98.6077753551
 10
137.6538235387
 20
98.5861878574
 10
137.6868181111
 20
98.5637278586
 10
137.7195820156
 20
98.5403963317
 10
137.752103326
 20
98.51619425
 10
137.7843701158
 20
98.4911225864
 10
137.8163704588
 20
98.465182314
 10
137.8480851606
 20
98.4383823771
 10
137.8794659546
 20
98.4107636038
 10
137.9104573059
 20
98.3823747936
 10
137.9410036799
 20
98.3532647458
 10
137.9710495419
 20
98.3234822598
 10
138.0005393569
 20
98.2930761349
 10
138.0294175904
 20
98.2620951705
 10
138.0576358769
 20
98.2305840173
 10
138.0851745281
 20
98.1985707321
 10
138.1120210252
 20
98.1660792228
 10
138.1381628492
 20
98.1331333975
 10
138.1635874814
 20
98.0997571643
 10
138.1882824028
 20
98.0659744312
 10
138.2122350945
 20
98.0318091063
  0
LWPOLYLINE
  5
344
100
AcDbEntity
  8
0
100
AcDbPolyline
 62
7
  6
CONTINUOUS
 90
11
 70
0
 10
146.1766135999
 20
103.5140106345
 10
146.2179979057
 20
103.5021890875
 10
146.266099534
 20
103.4931264306
 10
146.3150307667
 20
103.4888037144
 10
146.3643312646
 20
103.4893140346
 10
146.4134856862
 20
103.4947002884
 10
146.4620417164
 20
103.5049613604
 10
146.5095084955
 20
103.5200478889
 10
146.555373648
 20
103.5398484093
 10
146.5991543527
 20
103.5642019047
 10
146.6381355663
 20
103.5911677597
  0
LWPOLYLINE
  5
345
100
AcDbEntity
  8
ASSI
100
AcDbPolyline
 62
7
  6
CONTINUOUS
 90
11
 70
0
 10
146.1766135999
 20
103.5140106345
 10
146.2179979057
 20
103.5021890875
 10
146.266099534
 20
103.4931264306
 10
146.3150307667
 20
103.4888037144
 10
146.3643312646
 20
103.4893140346
 10
146.4134856862
 20
103.4947002884
 10
146.4620417164
 20
103.5049613604
 10
146.5095084955
 20
103.5200478889
 10
146.555373648
 20
103.5398484093
 10
146.5991543527
 20
103.5642019047
 10
146.6381355663
 20
103.5911677597
  0
LWPOLYLINE
  5
346
100
AcDbEntity
  8
0
100
AcDbPolyline
 62
253
  6
CONTINUOUS
 90
16
 70
0
 10
146.0837204425
 20
103.7409423374
 10
146.1269181151
 20
103.728134317
 10
146.1720787275
 20
103.7177875106
 10
146.2187752557
 20
103.7099997544
 10
146.2665661459
 20
103.7048446877
 10
146.3149995099
 20
103.7023710537
 10
146.3636173993
 20
103.7026022427
 10
146.4119601208
 20
103.705536074
 10
146.4595705375
 20
103.7111448104
 10
146.5059984164
 20
103.7193754122
 10
146.5508047313
 20
103.7301500441
 10
146.5935658326
 20
103.7433668243
 10
146.6338774074
 20
103.7589007839
 10
146.6713582886
 20
103.7766050419
 10
146.7056540628
 20
103.7963121904
 10
146.7364404404
 20
103.8178358852
  0
LWPOLYLINE
  5
347
100
AcDbEntity
  8
ASSI
100
AcDbPolyline
 62
253
  6
CONTINUOUS
 90
16
 70
0
 10
146.0837204425
 20
103.7409423374
 10
146.1269181151
 20
103.728134317
 10
146.1720787275
 20
103.7177875106
 10
146.2187752557
 20
103.7099997544
 10
146.2665661459
 20
103.7048446877
 10
146.3149995099
 20
103.7023710537
 10
146.3636173993
 20
103.7026022427
 10
146.4119601208
 20
103.705536074
 10
146.4595705375
 20
103.7111448104
 10
146.5059984164
 20
103.7193754122
 10
146.5508047313
 20
103.7301500441
 10
146.5935658326
 20
103.7433668243
 10
146.6338774074
 20
103.7589007839
 10
146.6713582886
 20
103.7766050419
 10
146.7056540628
 20
103.7963121904
 10
146.7364404404
 20
103.8178358852
  0
LINE
  5
348
100
AcDbEntity
  8
ASSI
100
AcDbLine
 62
7
  6
CONTINUOUS
 10
164.3617493155
 20
96.2104474484
 11
164.3617889831
 21
96.2104342254
  0
LINE
  5
349
100
AcDbEntity
  8
0
100
AcDbLine
 62
7
  6
CONTINUOUS
 10
164.3617493155
 20
96.2104474484
 11
164.3617889831
 21
96.2104342254
  0
LINE
  5
34A
100
AcDbEntity
  8
0
100
AcDbLine
 62
7
  6
CONTINUOUS
 10
146.1765739323
 20
103.5140238574
 11
146.1766135999
 21
103.5140106345
  0
LINE
  5
34B
100
AcDbEntity
  8
ASSI
100
AcDbLine
 62
7
  6
CONTINUOUS
 10
146.1765739323
 20
103.5140238574
 11
146.1766135999
 21
103.5140106345
  0
LWPOLYLINE
  5
34C
100
AcDbEntity
  8
0
100
AcDbPolyline
 62
253
  6
CONTINUOUS
 90
10
 70
0
 10
164.5171847827
 20
95.8825320246
 10
162.5271745358
 20
96.557645628
 10
160.5619196103
 20
97.2538467841
 10
158.6214200061
 20
97.971135493
 10
156.7054050079
 20
98.7096204865
 10
154.8141453311
 20
99.4691930327
 10
152.9484531214
 20
100.2495269358
 10
151.108599094
 20
101.0505134638
 10
149.2943125338
 20
101.8722613487
 10
147.5055934406
 20
102.7147705904
  0
LWPOLYLINE
  5
34D
100
AcDbEntity
  8
ASSI
100
AcDbPolyline
 62
253
  6
CONTINUOUS
 90
10
 70
0
 10
164.5171847827
 20
95.8825320246
 10
162.5271745358
 20
96.557645628
 10
160.5619196103
 20
97.2538467841
 10
158.6214200061
 20
97.971135493
 10
156.7054050079
 20
98.7096204865
 10
154.8141453311
 20
99.4691930327
 10
152.9484531214
 20
100.2495269358
 10
151.108599094
 20
101.0505134638
 10
149.2943125338
 20
101.8722613487
 10
147.5055934406
 20
102.7147705904
  0
LWPOLYLINE
  5
34E
100
AcDbEntity
  8
ASSI
100
AcDbPolyline
 62
253
  6
CONTINUOUS
 90
10
 70
0
 10
146.0837203212
 20
102.5298742049
 10
144.0861778732
 20
103.2074538716
 10
142.1127169213
 20
103.9065296329
 10
140.1637283288
 20
104.6269485011
 10
138.2397168082
 20
105.3685082434
 10
136.3409485364
 20
106.1310963643
 10
134.4674607015
 20
106.9146979361
 10
132.6195286992
 20
107.7192079606
 10
130.7976565802
 20
108.5444235422
 10
129.0022288291
 20
109.3901862851
  0
LWPOLYLINE
  5
34F
100
AcDbEntity
  8
0
100
AcDbPolyline
 62
253
  6
CONTINUOUS
 90
10
 70
0
 10
146.0837203212
 20
102.5298742049
 10
144.0861778732
 20
103.2074538716
 10
142.1127169213
 20
103.9065296329
 10
140.1637283288
 20
104.6269485011
 10
138.2397168082
 20
105.3685082434
 10
136.3409485364
 20
106.1310963643
 10
134.4674607015
 20
106.9146979361
 10
132.6195286992
 20
107.7192079606
 10
130.7976565802
 20
108.5444235422
 10
129.0022288291
 20
109.3901862851
  0
LWPOLYLINE
  5
350
100
AcDbEntity
  8
ASSI
100
AcDbPolyline
 62
253
  6
CONTINUOUS
 90
10
 70
0
 10
146.3320093995
 20
103.1861084337
 10
144.3419991526
 20
103.8612220371
 10
142.3767442271
 20
104.5574231932
 10
140.4362446228
 20
105.274711902
 10
138.5202296247
 20
106.0131968956
 10
136.6289699479
 20
106.7727694418
 10
134.7632777381
 20
107.5531033449
 10
132.9234237108
 20
108.3540898729
 10
131.1091371505
 20
109.1758377578
 10
129.3204180574
 20
110.0183469995
  0
LWPOLYLINE
  5
351
100
AcDbEntity
  8
0
100
AcDbPolyline
 62
253
  6
CONTINUOUS
 90
10
 70
0
 10
146.3320093995
 20
103.1861084337
 10
144.3419991526
 20
103.8612220371
 10
142.3767442271
 20
104.5574231932
 10
140.4362446228
 20
105.274711902
 10
138.5202296247
 20
106.0131968956
 10
136.6289699479
 20
106.7727694418
 10
134.7632777381
 20
107.5531033449
 10
132.9234237108
 20
108.3540898729
 10
131.1091371505
 20
109.1758377578
 10
129.3204180574
 20
110.0183469995
  0
LWPOLYLINE
  5
352
100
AcDbEntity
  8
0
100
AcDbPolyline
 62
253
  6
CONTINUOUS
 90
10
 70
0
 10
129.0022288201
 20
110.6012545299
 10
130.7976554848
 20
109.758111306
 10
132.6195267611
 20
108.9348605522
 10
134.467458177
 20
108.1316604911
 10
136.3409456938
 20
107.3487139077
 10
138.2397139275
 20
106.5861257556
 10
140.1637257015
 20
105.8439109718
 10
142.1127148498
 20
105.1221821151
 10
144.0861766707
 20
104.4211415477
 10
146.0837203112
 20
103.7409424487
  0
LWPOLYLINE
  5
353
100
AcDbEntity
  8
ASSI
100
AcDbPolyline
 62
253
  6
CONTINUOUS
 90
10
 70
0
 10
129.0022288201
 20
110.6012545299
 10
130.7976554848
 20
109.758111306
 10
132.6195267611
 20
108.9348605522
 10
134.467458177
 20
108.1316604911
 10
136.3409456938
 20
107.3487139077
 10
138.2397139275
 20
106.5861257556
 10
140.1637257015
 20
105.8439109718
 10
142.1127148498
 20
105.1221821151
 10
144.0861766707
 20
104.4211415477
 10
146.0837203112
 20
103.7409424487
  0
LWPOLYLINE
  5
354
100
AcDbEntity
  8
ASSI
100
AcDbPolyline
 62
253
  6
CONTINUOUS
 90
10
 70
0
 10
147.1874042034
 20
103.2976781208
 10
148.982830868
 20
102.454534897
 10
150.8047021444
 20
101.6312841431
 10
152.6526335602
 20
100.828084082
 10
154.526121077
 20
100.0451374987
 10
156.4248893107
 20
99.2825493465
 10
158.3489010847
 20
98.5403345628
 10
160.297890233
 20
97.818605706
 10
162.2713520539
 20
97.1175651386
 10
164.2688956944
 20
96.4373660396
  0
LWPOLYLINE
  5
355
100
AcDbEntity
  8
0
100
AcDbPolyline
 62
253
  6
CONTINUOUS
 90
10
 70
0
 10
147.1874042034
 20
103.2976781208
 10
148.982830868
 20
102.454534897
 10
150.8047021444
 20
101.6312841431
 10
152.6526335602
 20
100.828084082
 10
154.526121077
 20
100.0451374987
 10
156.4248893107
 20
99.2825493465
 10
158.3489010847
 20
98.5403345628
 10
160.297890233
 20
97.818605706
 10
162.2713520539
 20
97.1175651386
 10
164.2688956944
 20
96.4373660396
  0
LWPOLYLINE
  5
356
100
AcDbEntity
  8
0
100
AcDbPolyline
 62
7
  6
CONTINUOUS
 90
13
 70
0
 10
129.1070296313
 20
110.3696737656
 10
130.396607971
 20
109.7607911333
 10
131.7638571818
 20
109.1332714112
 10
133.1466024634
 20
108.516904254
 10
134.5445248796
 20
107.9118486097
 10
135.9573271674
 20
107.3182487937
 10
137.3847530476
 20
106.7362107169
 10
138.8265294268
 20
106.1658422137
 10
140.2823831984
 20
105.6072512102
 10
141.7520501606
 20
105.0605373121
 10
143.2351889309
 20
104.5258091674
 10
144.7314267737
 20
104.0031820056
 10
146.176429002
 20
103.5140721951
  0
LWPOLYLINE
  5
357
100
AcDbEntity
  8
ASSI
100
AcDbPolyline
 62
7
  6
CONTINUOUS
 90
13
 70
0
 10
129.1070296313
 20
110.3696737656
 10
130.396607971
 20
109.7607911333
 10
131.7638571818
 20
109.1332714112
 10
133.1466024634
 20
108.516904254
 10
134.5445248796
 20
107.9118486097
 10
135.9573271674
 20
107.3182487937
 10
137.3847530476
 20
106.7362107169
 10
138.8265294268
 20
106.1658422137
 10
140.2823831984
 20
105.6072512102
 10
141.7520501606
 20
105.0605373121
 10
143.2351889309
 20
104.5258091674
 10
144.7314267737
 20
104.0031820056
 10
146.176429002
 20
103.5140721951
  0
LWPOLYLINE
  5
358
100
AcDbEntity
  8
ASSI
100
AcDbPolyline
 62
7
  6
CONTINUOUS
 90
13
 70
0
 10
147.2922050145
 20
103.0660973566
 10
148.5817833542
 20
102.4572147242
 10
149.949032565
 20
101.8296950021
 10
151.3317778466
 20
101.2133278449
 10
152.7297002628
 20
100.6082722006
 10
154.1425025506
 20
100.0146723846
 10
155.5699284308
 20
99.4326343078
 10
157.0117048101
 20
98.8622658046
 10
158.4675585817
 20
98.3036748012
 10
159.9372255439
 20
97.7569609031
 10
161.4203643141
 20
97.2222327583
 10
162.9166021569
 20
96.6996055965
 10
164.3616043852
 20
96.210495786
  0
LWPOLYLINE
  5
359
100
AcDbEntity
  8
0
100
AcDbPolyline
 62
7
  6
CONTINUOUS
 90
13
 70
0
 10
147.2922050145
 20
103.0660973566
 10
148.5817833542
 20
102.4572147242
 10
149.949032565
 20
101.8296950021
 10
151.3317778466
 20
101.2133278449
 10
152.7297002628
 20
100.6082722006
 10
154.1425025506
 20
100.0146723846
 10
155.5699284308
 20
99.4326343078
 10
157.0117048101
 20
98.8622658046
 10
158.4675585817
 20
98.3036748012
 10
159.9372255439
 20
97.7569609031
 10
161.4203643141
 20
97.2222327583
 10
162.9166021569
 20
96.6996055965
 10
164.3616043852
 20
96.210495786
  0
LINE
  5
35A
100
AcDbEntity
  8
0
100
AcDbLine
 62
7
  6
CONTINUOUS
 10
129.1068407639
 20
110.3697642064
 11
129.1068956072
 21
110.3697379341
  0
LINE
  5
35B
100
AcDbEntity
  8
ASSI
100
AcDbLine
 62
7
  6
CONTINUOUS
 10
129.1068407639
 20
110.3697642064
 11
129.1068956072
 21
110.3697379341
  0
LINE
  5
35C
100
AcDbEntity
  8
ASSI
100
AcDbLine
 62
7
  6
CONTINUOUS
 10
147.2920161471
 20
103.0661877973
 11
147.2920709904
 21
103.066161525
  0
LINE
  5
35D
100
AcDbEntity
  8
0
100
AcDbLine
 62
7
  6
CONTINUOUS
 10
147.2920161471
 20
103.0661877973
 11
147.2920709904
 21
103.066161525
  0
LWPOLYLINE
  5
35E
100
AcDbEntity
  8
0
100
AcDbPolyline
 62
7
  6
CONTINUOUS
 90
7
 70
0
 10
129.1068956072
 20
110.3697379341
 10
129.0963231949
 20
110.374957012
 10
129.0572719094
 20
110.3970700949
 10
129.0204486554
 20
110.422528754
 10
128.9858779421
 20
110.4513360758
 10
128.953889723
 20
110.4832962766
 10
128.9248315486
 20
110.518131728
  0
LWPOLYLINE
  5
35F
100
AcDbEntity
  8
ASSI
100
AcDbPolyline
 62
7
  6
CONTINUOUS
 90
7
 70
0
 10
129.1068956072
 20
110.3697379341
 10
129.0963231949
 20
110.374957012
 10
129.0572719094
 20
110.3970700949
 10
129.0204486554
 20
110.422528754
 10
128.9858779421
 20
110.4513360758
 10
128.953889723
 20
110.4832962766
 10
128.9248315486
 20
110.518131728
  0
LWPOLYLINE
  5
360
100
AcDbEntity
  8
ASSI
100
AcDbPolyline
 62
7
  6
CONTINUOUS
 90
7
 70
0
 10
147.2920709904
 20
103.066161525
 10
147.2814985781
 20
103.0713806029
 10
147.2424472926
 20
103.0934936858
 10
147.2056240386
 20
103.1189523449
 10
147.1710533253
 20
103.1477596667
 10
147.1390651062
 20
103.1797198675
 10
147.1100069318
 20
103.2145553189
  0
LWPOLYLINE
  5
361
100
AcDbEntity
  8
0
100
AcDbPolyline
 62
7
  6
CONTINUOUS
 90
7
 70
0
 10
147.2920709904
 20
103.066161525
 10
147.2814985781
 20
103.0713806029
 10
147.2424472926
 20
103.0934936858
 10
147.2056240386
 20
103.1189523449
 10
147.1710533253
 20
103.1477596667
 10
147.1390651062
 20
103.1797198675
 10
147.1100069318
 20
103.2145553189
  0
LWPOLYLINE
  5
362
100
AcDbEntity
  8
0
100
AcDbPolyline
 62
253
  6
CONTINUOUS
 90
10
 70
0
 10
147.1874039899
 20
102.0866099127
 10
147.1516619731
 20
102.1055252489
 10
147.1192902796
 20
102.1263481243
 10
147.0905950056
 20
102.1488816447
 10
147.0658474874
 20
102.1729127367
 10
147.045281725
 20
102.1982141735
 10
147.0290921755
 20
102.2245467254
 10
147.0174319236
 20
102.251661414
 10
147.0104112395
 20
102.2793018402
 10
147.0080963459
 20
102.306745664
  0
LWPOLYLINE
  5
363
100
AcDbEntity
  8
ASSI
100
AcDbPolyline
 62
253
  6
CONTINUOUS
 90
10
 70
0
 10
147.1874039899
 20
102.0866099127
 10
147.1516619731
 20
102.1055252489
 10
147.1192902796
 20
102.1263481243
 10
147.0905950056
 20
102.1488816447
 10
147.0658474874
 20
102.1729127367
 10
147.045281725
 20
102.1982141735
 10
147.0290921755
 20
102.2245467254
 10
147.0174319236
 20
102.251661414
 10
147.0104112395
 20
102.2793018402
 10
147.0080963459
 20
102.306745664
  0
LWPOLYLINE
  5
364
100
AcDbEntity
  8
ASSI
100
AcDbPolyline
 62
7
  6
CONTINUOUS
 90
8
 70
0
 10
147.1100069318
 20
103.2145553189
 10
147.0840494388
 20
103.2521628921
 10
147.0615237257
 20
103.2922016887
 10
147.0427015975
 20
103.3343079511
 10
147.0277363024
 20
103.378325939
 10
147.0168548759
 20
103.4239095335
 10
147.0102711705
 20
103.4705017836
 10
147.0080963988
 20
103.5175999131
  0
LWPOLYLINE
  5
365
100
AcDbEntity
  8
0
100
AcDbPolyline
 62
7
  6
CONTINUOUS
 90
8
 70
0
 10
147.1100069318
 20
103.2145553189
 10
147.0840494388
 20
103.2521628921
 10
147.0615237257
 20
103.2922016887
 10
147.0427015975
 20
103.3343079511
 10
147.0277363024
 20
103.378325939
 10
147.0168548759
 20
103.4239095335
 10
147.0102711705
 20
103.4705017836
 10
147.0080963988
 20
103.5175999131
  0
LWPOLYLINE
  5
366
100
AcDbEntity
  8
0
100
AcDbPolyline
 62
253
  6
CONTINUOUS
 90
35
 70
0
 10
156.3974104777
 20
90.7282326972
 10
156.4081732136
 20
90.7123283432
 10
156.4186852643
 20
90.6963426581
 10
156.4289514673
 20
90.68027533
 10
156.4389766602
 20
90.6641260467
 10
156.4487656804
 20
90.6478944962
 10
156.4583222887
 20
90.631581625
 10
156.4676459384
 20
90.6151934142
 10
156.4767350063
 20
90.5987371035
 10
156.4855878689
 20
90.5822199327
 10
156.4942029028
 20
90.5656491414
 10
156.5025786068
 20
90.5490315201
 10
156.5107139676
 20
90.5323720629
 10
156.5186080939
 20
90.5156753144
 10
156.5262600946
 20
90.4989458193
 10
156.5336690785
 20
90.4821881224
 10
156.5425867796
 20
90.4612085402
 10
156.5511190629
 20
90.4402025146
 10
156.5592616167
 20
90.4191805665
 10
156.5670101295
 20
90.3981532168
 10
156.5729222314
 20
90.3813342814
 10
156.5785765711
 20
90.36452259
 10
156.5839703318
 20
90.3477221105
 10
156.589100697
 20
90.3309368106
 10
156.59396485
 20
90.3141706581
 10
156.5985596722
 20
90.2974284189
 10
156.6028808366
 20
90.2807180518
 10
156.6069237141
 20
90.2640483137
 10
156.6106836759
 20
90.2474279616
 10
156.6141560928
 20
90.2308657523
 10
156.61733638
 20
90.2143687891
 10
156.6202201288
 20
90.1979375599
 10
156.6228029745
 20
90.1815708988
 10
156.6250805525
 20
90.1652676399
 10
156.6270484981
 20
90.1490266175
  0
LWPOLYLINE
  5
367
100
AcDbEntity
  8
0
100
AcDbPolyline
 62
253
  6
CONTINUOUS
 90
35
 70
0
 10
138.6432564078
 20
117.1080241194
 10
138.6593614174
 20
117.0825555898
 10
138.6750648084
 20
117.0569471843
 10
138.6903743543
 20
117.0311978205
 10
138.7052978284
 20
117.005306416
 10
138.7198430041
 20
116.9792718884
 10
138.73401585
 20
116.9530955627
 10
138.7478151147
 20
116.9267883932
 10
138.7612377418
 20
116.9003637412
 10
138.7742806751
 20
116.8738349683
 10
138.7869408583
 20
116.8472154361
 10
138.7992156083
 20
116.8205174114
 10
138.811103735
 20
116.793748783
 10
138.8226044214
 20
116.7669163449
 10
138.8337168508
 20
116.7400268913
 10
138.8444402062
 20
116.7130872161
 10
138.8572952266
 20
116.6793530307
 10
138.8695346819
 20
116.6455683531
 10
138.8811522118
 20
116.6117505462
 10
138.8921414557
 20
116.5779169731
 10
138.9004760572
 20
116.5508499881
 10
138.9084003088
 20
116.5237902582
 10
138.915910034
 20
116.4967440162
 10
138.9230010568
 20
116.4697174953
 10
138.9296692009
 20
116.4427169284
 10
138.9359098467
 20
116.4157499503
 10
138.9417166018
 20
116.3888298027
 10
138.9470826304
 20
116.3619711291
 10
138.9520010965
 20
116.335188573
 10
138.9564651646
 20
116.3084967778
 10
138.9604680059
 20
116.2819075673
 10
138.9640028213
 20
116.2554214864
 10
138.9670628187
 20
116.2290362602
 10
138.9696412061
 20
116.2027496138
 10
138.9717311914
 20
116.1765592725
  0
LINE
  5
368
100
AcDbEntity
  8
0
100
AcDbLine
 62
7
  6
CONTINUOUS
 10
148.9198616813
 20
122.6473916504
 11
148.9280266709
 21
122.5252417582
  0
LINE
  5
369
100
AcDbEntity
  8
ASSI
100
AcDbLine
 62
7
  6
CONTINUOUS
 10
148.9198616813
 20
122.6473916504
 11
148.9280266709
 21
122.5252417582
  0
LINE
  5
36A
100
AcDbEntity
  8
ASSI
100
AcDbLine
 62
7
  6
CONTINUOUS
 10
151.6897236584
 20
121.9121691545
 11
151.6285714029
 21
121.485168444
  0
LINE
  5
36B
100
AcDbEntity
  8
0
100
AcDbLine
 62
7
  6
CONTINUOUS
 10
151.6897236584
 20
121.9121691545
 11
151.6285714029
 21
121.485168444
  0
LWPOLYLINE
  5
36C
100
AcDbEntity
  8
0
100
AcDbPolyline
 62
7
  6
CONTINUOUS
 90
10
 70
0
 10
147.1778229186
 20
102.6826528407
 10
147.153789649
 20
102.6600589405
 10
147.1210393139
 20
102.6237835762
 10
147.0920108303
 20
102.5845201266
 10
147.067047374
 20
102.5427936964
 10
147.0462569252
 20
102.4988446152
 10
147.0297473122
 20
102.4528021416
 10
147.0177509484
 20
102.4050430745
 10
147.0104949089
 20
102.3561766207
 10
147.0080963459
 20
102.306745664
  0
LWPOLYLINE
  5
36D
100
AcDbEntity
  8
ASSI
100
AcDbPolyline
 62
7
  6
CONTINUOUS
 90
10
 70
0
 10
147.1778229186
 20
102.6826528407
 10
147.153789649
 20
102.6600589405
 10
147.1210393139
 20
102.6237835762
 10
147.0920108303
 20
102.5845201266
 10
147.067047374
 20
102.5427936964
 10
147.0462569252
 20
102.4988446152
 10
147.0297473122
 20
102.4528021416
 10
147.0177509484
 20
102.4050430745
 10
147.0104949089
 20
102.3561766207
 10
147.0080963459
 20
102.306745664
  0
LINE
  5
36E
100
AcDbEntity
  8
0
100
AcDbLine
 62
7
  6
CONTINUOUS
 10
147.1778822431
 20
102.6827050362
 11
147.5014569634
 21
102.9672977152
  0
LINE
  5
36F
100
AcDbEntity
  8
ASSI
100
AcDbLine
 62
7
  6
CONTINUOUS
 10
147.1778822431
 20
102.6827050362
 11
147.5014569634
 21
102.9672977152
  0
LINE
  5
370
100
AcDbEntity
  8
0
100
AcDbLine
 62
253
  6
CONTINUOUS
 10
147.5055934406
 20
102.7147705904
 11
147.6909727087
 21
102.8778166482
  0
LINE
  5
371
100
AcDbEntity
  8
ASSI
100
AcDbLine
 62
253
  6
CONTINUOUS
 10
147.5055934406
 20
102.7147705904
 11
147.6909727087
 21
102.8778166482
  0
LWPOLYLINE
  5
372
100
AcDbEntity
  8
0
100
AcDbPolyline
 62
253
  6
CONTINUOUS
 90
10
 70
0
 10
147.1778816069
 20
102.6827044766
 10
147.1960673098
 20
102.6971399427
 10
147.2267322983
 20
102.7156931533
 10
147.2604985873
 20
102.7297615486
 10
147.2970038284
 20
102.7391879574
 10
147.3358427858
 20
102.7438619977
 10
147.3765783599
 20
102.7437290025
 10
147.4187582155
 20
102.7387910632
 10
147.4619216167
 20
102.7291027109
 10
147.505593414
 20
102.714770567
  0
LWPOLYLINE
  5
373
100
AcDbEntity
  8
ASSI
100
AcDbPolyline
 62
253
  6
CONTINUOUS
 90
10
 70
0
 10
147.1778816069
 20
102.6827044766
 10
147.1960673098
 20
102.6971399427
 10
147.2267322983
 20
102.7156931533
 10
147.2604985873
 20
102.7297615486
 10
147.2970038284
 20
102.7391879574
 10
147.3358427858
 20
102.7438619977
 10
147.3765783599
 20
102.7437290025
 10
147.4187582155
 20
102.7387910632
 10
147.4619216167
 20
102.7291027109
 10
147.505593414
 20
102.714770567
  0
LINE
  5
374
100
AcDbEntity
  8
ASSI
100
AcDbLine
 62
253
  6
CONTINUOUS
 10
147.3085734025
 20
103.0583689179
 11
146.7364404972
 21
102.6080099049
  0
LINE
  5
375
100
AcDbEntity
  8
0
100
AcDbLine
 62
253
  6
CONTINUOUS
 10
147.3085734025
 20
103.0583689179
 11
146.7364404972
 21
102.6080099049
  0
LWPOLYLINE
  5
376
100
AcDbEntity
  8
0
100
AcDbPolyline
 62
253
  6
CONTINUOUS
 90
35
 70
0
 10
138.2677555701
 20
95.3157945735
 10
138.2780375266
 20
95.3233059732
 10
138.2880613646
 20
95.3311006719
 10
138.2978319929
 20
95.3391750642
 10
138.3073543204
 20
95.347525545
 10
138.3166332557
 20
95.3561485089
 10
138.3256726656
 20
95.3650399372
 10
138.334472248
 20
95.3741941567
 10
138.343030659
 20
95.3836050807
 10
138.3513465545
 20
95.3932666226
 10
138.3594185902
 20
95.4031726957
 10
138.3672455271
 20
95.4133175709
 10
138.3748265459
 20
95.4236969499
 10
138.3821609325
 20
95.434306892
 10
138.3892479724
 20
95.4451434567
 10
138.3960869514
 20
95.4562027031
 10
138.4042853261
 20
95.4703339677
 10
138.4120910422
 20
95.4847996992
 10
138.4195001525
 20
95.4995925816
 10
138.4265087097
 20
95.5147052987
 10
138.4318243916
 20
95.5270211569
 10
138.4368784938
 20
95.5395352002
 10
138.4416683169
 20
95.5522456017
 10
138.4461911617
 20
95.5651505348
 10
138.4504443286
 20
95.5782481724
 10
138.4544248444
 20
95.5915361207
 10
138.4581286398
 20
95.6050097177
 10
138.4615513714
 20
95.6186637342
 10
138.4646886961
 20
95.6324929411
 10
138.4675362706
 20
95.6464921093
 10
138.4700897284
 20
95.660657649
 10
138.4723446109
 20
95.6749925276
 10
138.4742964359
 20
95.6895013519
 10
138.4759407215
 20
95.7041887286
 10
138.4772729859
 20
95.7190592646
  0
LWPOLYLINE
  5
377
100
AcDbEntity
  8
ASSI
100
AcDbPolyline
 62
253
  6
CONTINUOUS
 90
16
 70
0
 10
146.7364404979
 20
102.6080099055
 10
146.7056541203
 20
102.5863648049
 10
146.6713583461
 20
102.5665373986
 10
146.6338774649
 20
102.5487151678
 10
146.5935658901
 20
102.5330666361
 10
146.5508047889
 20
102.5197397678
 10
146.5059984741
 20
102.5088605727
 10
146.4595705953
 20
102.5005319211
 10
146.4119601786
 20
102.4948325757
 10
146.3636174572
 20
102.491816433
 10
146.3149995679
 20
102.4915120086
 10
146.2665662039
 20
102.4939221754
 10
146.2187753138
 20
102.4990241434
 10
146.1720787855
 20
102.5067696711
 10
146.1269181732
 20
102.5170855188
 10
146.0837205006
 20
102.5298741432
  0
LWPOLYLINE
  5
378
100
AcDbEntity
  8
0
100
AcDbPolyline
 62
253
  6
CONTINUOUS
 90
16
 70
0
 10
146.7364404979
 20
102.6080099055
 10
146.7056541203
 20
102.5863648049
 10
146.6713583461
 20
102.5665373986
 10
146.6338774649
 20
102.5487151678
 10
146.5935658901
 20
102.5330666361
 10
146.5508047889
 20
102.5197397678
 10
146.5059984741
 20
102.5088605727
 10
146.4595705953
 20
102.5005319211
 10
146.4119601786
 20
102.4948325757
 10
146.3636174572
 20
102.491816433
 10
146.3149995679
 20
102.4915120086
 10
146.2665662039
 20
102.4939221754
 10
146.2187753138
 20
102.4990241434
 10
146.1720787855
 20
102.5067696711
 10
146.1269181732
 20
102.5170855188
 10
146.0837205006
 20
102.5298741432
  0
LWPOLYLINE
  5
379
100
AcDbEntity
  8
0
100
AcDbPolyline
 62
253
  6
CONTINUOUS
 90
55
 70
0
 10
156.3974104777
 20
106.8072354719
 10
156.3733950239
 20
106.790893587
 10
156.3486418769
 20
106.7755725538
 10
156.3231657353
 20
106.7612867004
 10
156.2969812974
 20
106.7480503548
 10
156.2701032619
 20
106.7358778451
 10
156.2425463271
 20
106.7247834994
 10
156.2143251915
 20
106.7147816458
 10
156.1854608004
 20
106.7058850439
 10
156.1559990855
 20
106.6981001807
 10
156.1259922253
 20
106.6914319745
 10
156.0954923983
 20
106.685885344
 10
156.064551783
 20
106.6814652076
 10
156.033222558
 20
106.6781764839
 10
156.0015569017
 20
106.6760240914
 10
155.9696001168
 20
106.6750109934
 10
155.937370003
 20
106.6751323329
 10
155.9048774842
 20
106.6763812978
 10
155.8721334843
 20
106.6787510759
 10
155.8391489271
 20
106.682234855
 10
155.8059347367
 20
106.6868258231
 10
155.7725018367
 20
106.6925171678
 10
155.7332411823
 20
106.7005385751
 10
155.6937525332
 20
106.7100366636
 10
155.6540907139
 20
106.7209996518
 10
155.614310549
 20
106.7334157578
 10
155.574466863
 20
106.7472732002
 10
155.5346144803
 20
106.7625601972
 10
155.4948069401
 20
106.7792620555
 10
155.4550926393
 20
106.797352435
 10
155.4155186896
 20
106.8168020839
 10
155.3761322026
 20
106.8375817503
 10
155.3369802897
 20
106.8596621823
 10
155.2981100625
 20
106.8830141283
 10
155.2650496574
 20
106.9040228206
 10
155.2322426185
 20
106.9259431195
 10
155.1997007467
 20
106.948773949
 10
155.167435843
 20
106.9725142333
 10
155.1354597081
 20
106.9971628966
 10
155.103784143
 20
107.0227188632
 10
155.0724209486
 20
107.0491810571
 10
155.0413889248
 20
107.0765402111
 10
155.0107348681
 20
107.1047542927
 10
154.9805125742
 20
107.1337730779
 10
154.9507758387
 20
107.1635463428
 10
154.9215784571
 20
107.1940238632
 10
154.8929742251
 20
107.2251554153
 10
154.8650169383
 20
107.256890775
 10
154.8377532844
 20
107.2891839174
 10
154.8112015198
 20
107.3220056128
 10
154.7853727928
 20
107.3553308306
 10
154.7602782521
 20
107.3891345402
 10
154.735929046
 20
107.4233917108
 10
154.7123363229
 20
107.4580773119
 10
154.6895112314
 20
107.4931663129
  0
LWPOLYLINE
  5
37A
100
AcDbEntity
  8
0
100
AcDbPolyline
 62
253
  6
CONTINUOUS
 90
55
 70
0
 10
138.643255937
 20
94.8486123151
 10
138.6104392246
 20
94.8264736637
 10
138.5765256759
 20
94.8057490342
 10
138.5415336169
 20
94.7864591436
 10
138.5054813739
 20
94.7686247091
 10
138.468387273
 20
94.752266448
 10
138.4302696406
 20
94.7374050773
 10
138.3911468029
 20
94.7240613142
 10
138.351046567
 20
94.7122535883
 10
138.3100346648
 20
94.701991179
 10
138.2681863091
 20
94.6932810778
 10
138.2255767127
 20
94.6861302765
 10
138.1822810884
 20
94.6805457669
 10
138.1383746491
 20
94.6765345407
 10
138.0939326075
 20
94.6741035896
 10
138.0490202645
 20
94.6732570883
 10
138.0036632726
 20
94.6739879444
 10
137.9578773725
 20
94.6762862484
 10
137.9116783048
 20
94.6801420907
 10
137.8650818101
 20
94.6855455619
 10
137.8181036289
 20
94.6924867526
 10
137.7707595018
 20
94.7009557532
 10
137.7150919618
 20
94.7127537458
 10
137.65902549
 20
94.7266004145
 10
137.6026378229
 20
94.7424784042
 10
137.546006697
 20
94.7603703599
 10
137.4892098487
 20
94.7802589265
 10
137.4323250145
 20
94.8021267488
 10
137.3754281736
 20
94.8259525629
 10
137.3185882765
 20
94.8516994686
 10
137.2618725163
 20
94.8793266568
 10
137.2053480861
 20
94.9087933184
 10
137.149082179
 20
94.9400586442
 10
137.0931419882
 20
94.9730818252
 10
137.0454993408
 20
95.0027594136
 10
136.9981631383
 20
95.0336957832
 10
136.9511511573
 20
95.0658882119
 10
136.9044811745
 20
95.0993339776
 10
136.8581709667
 20
95.1340303585
 10
136.8122383105
 20
95.1699746323
 10
136.7667009826
 20
95.2071640772
 10
136.7215867485
 20
95.2455846674
 10
136.6769633291
 20
95.2851771631
 10
136.6329084341
 20
95.325871021
 10
136.5894997732
 20
95.3675956977
 10
136.5468150561
 20
95.4102806498
 10
136.5049319924
 20
95.453855334
 10
136.463928292
 20
95.4982492068
 10
136.423871507
 20
95.5433976325
 10
136.3847885608
 20
95.5892596061
 10
136.3466962192
 20
95.6358000301
 10
136.309611248
 20
95.6829838072
 10
136.2735504132
 20
95.73077584
 10
136.2385304804
 20
95.779141031
 10
136.2045682157
 20
95.8280442829
  0
LWPOLYLINE
  5
37B
100
AcDbEntity
  8
0
100
AcDbPolyline
 62
253
  6
CONTINUOUS
 90
55
 70
0
 10
138.2677555701
 20
95.3157945735
 10
138.2447641495
 20
95.3002912525
 10
138.2210066434
 20
95.2857853432
 10
138.1964969118
 20
95.2722905552
 10
138.1712488148
 20
95.2598205981
 10
138.1452762123
 20
95.2483891816
 10
138.1185929644
 20
95.2380100151
 10
138.0912129311
 20
95.2286968085
 10
138.0631561996
 20
95.220461659
 10
138.0344677659
 20
95.2133102146
 10
138.0051988531
 20
95.2072465111
 10
137.9754006844
 20
95.2022745841
 10
137.945124483
 20
95.1983984696
 10
137.9144214721
 20
95.1956222031
 10
137.8833428748
 20
95.1939498204
 10
137.8519331454
 20
95.1933835922
 10
137.8202096629
 20
95.1939187289
 10
137.7881830373
 20
95.1955486757
 10
137.7558638787
 20
95.1982668781
 10
137.7232627971
 20
95.2020667813
 10
137.6903904027
 20
95.2069418307
 10
137.6572573053
 20
95.2128854715
 10
137.6182931949
 20
95.2211611624
 10
137.5790446143
 20
95.2308696363
 10
137.5395674975
 20
95.2419981259
 10
137.4999177784
 20
95.2545338642
 10
137.460151391
 20
95.2684640839
 10
137.4203242692
 20
95.283776018
 10
137.3804906872
 20
95.3004543106
 10
137.3406982802
 20
95.3184732512
 10
137.3009930239
 20
95.3378045407
 10
137.2614208936
 20
95.3584198799
 10
137.222027865
 20
95.3802909698
 10
137.1828599135
 20
95.4033895112
 10
137.1494985716
 20
95.424146507
 10
137.1163484909
 20
95.4457831688
 10
137.083421792
 20
95.4682981526
 10
137.0507305952
 20
95.4916901145
 10
137.018287021
 20
95.5159577105
 10
136.98610319
 20
95.5410995966
 10
136.9541912226
 20
95.567114429
 10
136.9225703641
 20
95.5939928729
 10
136.891288359
 20
95.6216936305
 10
136.8604000769
 20
95.6501674134
 10
136.8299603872
 20
95.6793649329
 10
136.8000241591
 20
95.7092369006
 10
136.7706462622
 20
95.7397340279
 10
136.7418815659
 20
95.7708070262
 10
136.7137777938
 20
95.8024107565
 10
136.6863540862
 20
95.8345166773
 10
136.6596224376
 20
95.8671003963
 10
136.6335948425
 20
95.9001375217
 10
136.6082832956
 20
95.9336036612
 10
136.5836997912
 20
95.9674744228
 10
136.5598563239
 20
96.0017254144
  0
LWPOLYLINE
  5
37C
100
AcDbEntity
  8
SUPERFICI
100
AcDbPolyline
 62
7
  6
CONTINUOUS
 90
12
 70
0
 10
153.6065912283
 20
104.3310982525
 10
153.5517622664
 20
104.3481416015
 10
153.4976507046
 20
104.3610494598
 10
153.4439891181
 20
104.3698562332
 10
153.391044138
 20
104.374526876
 10
153.3396154018
 20
104.3749560544
 10
153.2897086878
 20
104.3710617816
 10
153.241316018
 20
104.3629242937
 10
153.1952147389
 20
104.3506802735
 10
153.1514954182
 20
104.3342967224
 10
153.1100643099
 20
104.3138041192
 10
153.0714210782
 20
104.2894334004
  0
LINE
  5
37D
100
AcDbEntity
  8
ASSI
100
AcDbLine
 62
7
  6
CONTINUOUS
 10
157.4071892631
 20
101.1865845508
 11
157.3357842
 21
101.2109298195
  0
LINE
  5
37E
100
AcDbEntity
  8
0
100
AcDbLine
 62
7
  6
CONTINUOUS
 10
157.4071892631
 20
101.1865845508
 11
157.3357842
 21
101.2109298195
  0
LINE
  5
37F
100
AcDbEntity
  8
0
100
AcDbLine
 62
7
  6
CONTINUOUS
 10
139.2220138799
 20
108.4901609599
 11
139.1506088168
 21
108.5145062286
  0
LINE
  5
380
100
AcDbEntity
  8
ASSI
100
AcDbLine
 62
7
  6
CONTINUOUS
 10
139.2220138799
 20
108.4901609599
 11
139.1506088168
 21
108.5145062286
  0
LWPOLYLINE
  5
381
100
AcDbEntity
  8
SUPERFICI
100
AcDbPolyline
 62
7
  6
CONTINUOUS
 90
14
 70
0
 10
157.3361479664
 20
101.2107893614
 10
157.3929935285
 20
101.1908482346
 10
157.4491702968
 20
101.1750402469
 10
157.5046775627
 20
101.1633648086
 10
157.5598023847
 20
101.1557892678
 10
157.6142568048
 20
101.1523455186
 10
157.6671767907
 20
101.1531291151
 10
157.718539956
 20
101.1582232552
 10
157.7683663589
 20
101.167542764
 10
157.8158540223
 20
101.1809292819
 10
157.8609062473
 20
101.1984104399
 10
157.9036165719
 20
101.2199559136
 10
157.943467257
 20
101.2453194744
 10
157.9600553911
 20
101.2576905897
  0
LWPOLYLINE
  5
382
100
AcDbEntity
  8
SUPERFICI
100
AcDbPolyline
 62
7
  6
CONTINUOUS
 90
14
 70
0
 10
139.1509725832
 20
108.5143657705
 10
139.2078181453
 20
108.4944246436
 10
139.2639949136
 20
108.478616656
 10
139.3195021795
 20
108.4669412177
 10
139.3746270014
 20
108.4593656769
 10
139.4290814216
 20
108.4559219277
 10
139.4820014074
 20
108.4567055241
 10
139.5333645727
 20
108.4617996643
 10
139.5831909757
 20
108.471119173
 10
139.6306786391
 20
108.484505691
 10
139.675730864
 20
108.501986849
 10
139.7184411886
 20
108.5235323227
 10
139.7582918738
 20
108.5488958835
 10
139.7748800078
 20
108.5612669988
  0
LINE
  5
383
100
AcDbEntity
  8
SUPERFICI
100
AcDbLine
 62
7
  6
CONTINUOUS
 10
153.6621382487
 20
104.3099199431
 11
153.6065912283
 21
104.3310982525
  0
LINE
  5
384
100
AcDbEntity
  8
SUPERFICI
100
AcDbLine
 62
7
  6
CONTINUOUS
 10
156.5085519683
 20
101.5331487341
 11
157.3361479664
 21
101.2107893614
  0
LINE
  5
385
100
AcDbEntity
  8
ASSI
100
AcDbLine
 62
7
  6
CONTINUOUS
 10
157.3357842
 20
101.2109298195
 11
156.5084452082
 21
101.5331906854
  0
LINE
  5
386
100
AcDbEntity
  8
0
100
AcDbLine
 62
7
  6
CONTINUOUS
 10
157.3357842
 20
101.2109298195
 11
156.5084452082
 21
101.5331906854
  0
LINE
  5
387
100
AcDbEntity
  8
0
100
AcDbLine
 62
7
  6
CONTINUOUS
 10
139.1506088168
 20
108.5145062286
 11
138.3232698249
 21
108.8367670945
  0
LINE
  5
388
100
AcDbEntity
  8
ASSI
100
AcDbLine
 62
7
  6
CONTINUOUS
 10
139.1506088168
 20
108.5145062286
 11
138.3232698249
 21
108.8367670945
  0
LINE
  5
389
100
AcDbEntity
  8
SUPERFICI
100
AcDbLine
 62
7
  6
CONTINUOUS
 10
138.3233765851
 20
108.8367251432
 11
139.1509725832
 21
108.5143657705
  0
LINE
  5
38A
100
AcDbEntity
  8
SUPERFICI
100
AcDbLine
 62
7
  6
CONTINUOUS
 10
157.3483129766
 20
102.8294690702
 11
156.521093307
 21
103.1518033588
  0
LINE
  5
38B
100
AcDbEntity
  8
ASSI
100
AcDbLine
 62
7
  6
CONTINUOUS
 10
156.5210627687
 20
103.1518153623
 11
157.3483129037
 21
102.8294690983
  0
LINE
  5
38C
100
AcDbEntity
  8
0
100
AcDbLine
 62
7
  6
CONTINUOUS
 10
156.5210627687
 20
103.1518153623
 11
157.3483129037
 21
102.8294690983
  0
LINE
  5
38D
100
AcDbEntity
  8
0
100
AcDbLine
 62
7
  6
CONTINUOUS
 10
138.3358873855
 20
110.4553917714
 11
139.1631375205
 21
110.1330455074
  0
LINE
  5
38E
100
AcDbEntity
  8
ASSI
100
AcDbLine
 62
7
  6
CONTINUOUS
 10
138.3358873855
 20
110.4553917714
 11
139.1631375205
 21
110.1330455074
  0
LINE
  5
38F
100
AcDbEntity
  8
SUPERFICI
100
AcDbLine
 62
7
  6
CONTINUOUS
 10
139.1631375934
 20
110.1330454792
 11
138.3359179237
 21
110.4553797679
  0
LINE
  5
390
100
AcDbEntity
  8
SUPERFICI
100
AcDbLine
 62
7
  6
CONTINUOUS
 10
155.6857628432
 20
101.8593053614
 11
156.5085519683
 21
101.5331487341
  0
LINE
  5
391
100
AcDbEntity
  8
ASSI
100
AcDbLine
 62
7
  6
CONTINUOUS
 10
156.5084452082
 20
101.5331906854
 11
155.6857654949
 21
101.8593043023
  0
LINE
  5
392
100
AcDbEntity
  8
0
100
AcDbLine
 62
7
  6
CONTINUOUS
 10
156.5084452082
 20
101.5331906854
 11
155.6857654949
 21
101.8593043023
  0
LINE
  5
393
100
AcDbEntity
  8
0
100
AcDbLine
 62
7
  6
CONTINUOUS
 10
138.3232698249
 20
108.8367670945
 11
137.5005901117
 21
109.1628807113
  0
LINE
  5
394
100
AcDbEntity
  8
ASSI
100
AcDbLine
 62
7
  6
CONTINUOUS
 10
138.3232698249
 20
108.8367670945
 11
137.5005901117
 21
109.1628807113
  0
LINE
  5
395
100
AcDbEntity
  8
SUPERFICI
100
AcDbLine
 62
7
  6
CONTINUOUS
 10
137.5005874599
 20
109.1628817705
 11
138.3233765851
 21
108.8367251432
  0
LINE
  5
396
100
AcDbEntity
  8
SUPERFICI
100
AcDbLine
 62
7
  6
CONTINUOUS
 10
156.521093307
 20
103.1518033588
 11
155.6984447968
 21
103.4779560981
  0
LINE
  5
397
100
AcDbEntity
  8
ASSI
100
AcDbLine
 62
7
  6
CONTINUOUS
 10
155.6984302758
 20
103.4779619047
 11
156.5210627687
 21
103.1518153623
  0
LINE
  5
398
100
AcDbEntity
  8
0
100
AcDbLine
 62
7
  6
CONTINUOUS
 10
155.6984302758
 20
103.4779619047
 11
156.5210627687
 21
103.1518153623
  0
LINE
  5
399
100
AcDbEntity
  8
0
100
AcDbLine
 62
7
  6
CONTINUOUS
 10
137.5132548926
 20
110.7815383138
 11
138.3358873855
 21
110.4553917714
  0
LINE
  5
39A
100
AcDbEntity
  8
ASSI
100
AcDbLine
 62
7
  6
CONTINUOUS
 10
137.5132548926
 20
110.7815383138
 11
138.3358873855
 21
110.4553917714
  0
LINE
  5
39B
100
AcDbEntity
  8
SUPERFICI
100
AcDbLine
 62
7
  6
CONTINUOUS
 10
138.3359179237
 20
110.4553797679
 11
137.5132694135
 21
110.7815325072
  0
LINE
  5
39C
100
AcDbEntity
  8
0
100
AcDbLine
 62
7
  6
CONTINUOUS
 10
167.0479113108
 20
97.9852504512
 11
167.1409787029
 21
97.9478724884
  0
LINE
  5
39D
100
AcDbEntity
  8
ASSI
100
AcDbLine
 62
7
  6
CONTINUOUS
 10
167.0479113108
 20
97.9852504512
 11
167.1409787029
 21
97.9478724884
  0
LINE
  5
39E
100
AcDbEntity
  8
SUPERFICI
100
AcDbLine
 62
7
  6
CONTINUOUS
 10
137.5132694135
 20
110.7815325072
 11
136.6952333514
 21
111.1114880874
  0
LINE
  5
39F
100
AcDbEntity
  8
0
100
AcDbLine
 62
7
  6
CONTINUOUS
 10
136.6952611388
 20
111.1114767829
 11
137.5132548926
 21
110.7815383138
  0
LINE
  5
3A0
100
AcDbEntity
  8
ASSI
100
AcDbLine
 62
7
  6
CONTINUOUS
 10
136.6952611388
 20
111.1114767829
 11
137.5132548926
 21
110.7815383138
  0
LINE
  5
3A1
100
AcDbEntity
  8
ASSI
100
AcDbLine
 62
7
  6
CONTINUOUS
 10
154.880436522
 20
103.8079003738
 11
155.6984302758
 21
103.4779619047
  0
LINE
  5
3A2
100
AcDbEntity
  8
0
100
AcDbLine
 62
7
  6
CONTINUOUS
 10
154.880436522
 20
103.8079003738
 11
155.6984302758
 21
103.4779619047
  0
LINE
  5
3A3
100
AcDbEntity
  8
SUPERFICI
100
AcDbLine
 62
7
  6
CONTINUOUS
 10
155.6984447968
 20
103.4779560981
 11
154.8804087346
 21
103.8079116783
  0
LINE
  5
3A4
100
AcDbEntity
  8
SUPERFICI
100
AcDbLine
 62
7
  6
CONTINUOUS
 10
136.6825623015
 20
109.4928503038
 11
137.5005874599
 21
109.1628817705
  0
LINE
  5
3A5
100
AcDbEntity
  8
0
100
AcDbLine
 62
7
  6
CONTINUOUS
 10
137.5005901117
 20
109.1628807113
 11
136.6825906543
 21
109.4928387675
  0
LINE
  5
3A6
100
AcDbEntity
  8
ASSI
100
AcDbLine
 62
7
  6
CONTINUOUS
 10
137.5005901117
 20
109.1628807113
 11
136.6825906543
 21
109.4928387675
  0
LINE
  5
3A7
100
AcDbEntity
  8
ASSI
100
AcDbLine
 62
7
  6
CONTINUOUS
 10
155.6857654949
 20
101.8593043023
 11
154.8677660375
 21
102.1892623584
  0
LINE
  5
3A8
100
AcDbEntity
  8
0
100
AcDbLine
 62
7
  6
CONTINUOUS
 10
155.6857654949
 20
101.8593043023
 11
154.8677660375
 21
102.1892623584
  0
LINE
  5
3A9
100
AcDbEntity
  8
SUPERFICI
100
AcDbLine
 62
7
  6
CONTINUOUS
 10
154.8677376848
 20
102.1892738948
 11
155.6857628432
 21
101.8593053614
  0
LINE
  5
3AA
100
AcDbEntity
  8
0
100
AcDbLine
 62
7
  6
CONTINUOUS
 10
136.6825906543
 20
109.4928387675
 11
135.8692616939
 21
109.8266451594
  0
LINE
  5
3AB
100
AcDbEntity
  8
ASSI
100
AcDbLine
 62
7
  6
CONTINUOUS
 10
136.6825906543
 20
109.4928387675
 11
135.8692616939
 21
109.8266451594
  0
LINE
  5
3AC
100
AcDbEntity
  8
ASSI
100
AcDbLine
 62
7
  6
CONTINUOUS
 10
154.8677660375
 20
102.1892623584
 11
154.0544370771
 21
102.5230687503
  0
LINE
  5
3AD
100
AcDbEntity
  8
0
100
AcDbLine
 62
7
  6
CONTINUOUS
 10
154.8677660375
 20
102.1892623584
 11
154.0544370771
 21
102.5230687503
  0
LINE
  5
3AE
100
AcDbEntity
  8
SUPERFICI
100
AcDbLine
 62
7
  6
CONTINUOUS
 10
136.6952333514
 20
111.1114880874
 11
135.8818875711
 21
111.4452147321
  0
LINE
  5
3AF
100
AcDbEntity
  8
SUPERFICI
100
AcDbLine
 62
7
  6
CONTINUOUS
 10
154.8804087346
 20
103.8079116783
 11
154.0670629543
 21
104.141638323
  0
LINE
  5
3B0
100
AcDbEntity
  8
SUPERFICI
100
AcDbLine
 62
7
  6
CONTINUOUS
 10
135.8818875711
 20
111.4452147321
 11
135.4769628655
 21
111.6134963521
  0
LWPOLYLINE
  5
3B1
100
AcDbEntity
  8
0
100
AcDbPolyline
 62
7
  6
CONTINUOUS
 90
3
 70
0
 10
135.4769628859
 20
111.6134963436
 10
135.8818968207
 20
111.445210888
 10
136.6952611388
 20
111.1114767829
  0
LWPOLYLINE
  5
3B2
100
AcDbEntity
  8
ASSI
100
AcDbPolyline
 62
7
  6
CONTINUOUS
 90
3
 70
0
 10
135.4769628859
 20
111.6134963436
 10
135.8818968207
 20
111.445210888
 10
136.6952611388
 20
111.1114767829
  0
LINE
  5
3B3
100
AcDbEntity
  8
SUPERFICI
100
AcDbLine
 62
7
  6
CONTINUOUS
 10
154.0670629543
 20
104.141638323
 11
153.6621382487
 21
104.3099199431
  0
LWPOLYLINE
  5
3B4
100
AcDbEntity
  8
ASSI
100
AcDbPolyline
 62
7
  6
CONTINUOUS
 90
3
 70
0
 10
153.6621382691
 20
104.3099199346
 10
154.0670722039
 20
104.1416344789
 10
154.880436522
 20
103.8079003738
  0
LWPOLYLINE
  5
3B5
100
AcDbEntity
  8
0
100
AcDbPolyline
 62
7
  6
CONTINUOUS
 90
3
 70
0
 10
153.6621382691
 20
104.3099199346
 10
154.0670722039
 20
104.1416344789
 10
154.880436522
 20
103.8079003738
  0
LWPOLYLINE
  5
3B6
100
AcDbEntity
  8
SUPERFICI
100
AcDbPolyline
 62
7
  6
CONTINUOUS
 90
3
 70
0
 10
135.464006284
 20
109.9951345584
 10
135.8690456168
 20
109.8267346076
 10
136.6825623015
 20
109.4928503038
  0
LINE
  5
3B7
100
AcDbEntity
  8
0
100
AcDbLine
 62
7
  6
CONTINUOUS
 10
135.8692616939
 20
109.8266451594
 11
135.464360867
 21
109.9949865105
  0
LINE
  5
3B8
100
AcDbEntity
  8
ASSI
100
AcDbLine
 62
7
  6
CONTINUOUS
 10
135.8692616939
 20
109.8266451594
 11
135.464360867
 21
109.9949865105
  0
LINE
  5
3B9
100
AcDbEntity
  8
ASSI
100
AcDbLine
 62
7
  6
CONTINUOUS
 10
154.0544370771
 20
102.5230687503
 11
153.6495362503
 21
102.6914101014
  0
LINE
  5
3BA
100
AcDbEntity
  8
0
100
AcDbLine
 62
7
  6
CONTINUOUS
 10
154.0544370771
 20
102.5230687503
 11
153.6495362503
 21
102.6914101014
  0
LWPOLYLINE
  5
3BB
100
AcDbEntity
  8
SUPERFICI
100
AcDbPolyline
 62
7
  6
CONTINUOUS
 90
3
 70
0
 10
153.6491816672
 20
102.6915581493
 10
154.054221
 20
102.5231581985
 10
154.8677376848
 20
102.1892738948
  0
LWPOLYLINE
  5
3BC
100
AcDbEntity
  8
0
100
AcDbPolyline
 62
7
  6
CONTINUOUS
 90
27
 70
0
 10
139.1631375205
 20
110.1330455074
 10
139.2345470257
 20
110.1022274194
 10
139.30435009
 20
110.0661978877
 10
139.372544939
 20
110.0249554467
 10
139.4395685428
 20
109.9781680093
 10
139.504981584
 20
109.9261657047
 10
139.5674664474
 20
109.8699391953
 10
139.6270689884
 20
109.8092837802
 10
139.6837388488
 20
109.7444003327
 10
139.7360108334
 20
109.6768851348
 10
139.7836933445
 20
109.6067899704
 10
139.8269718294
 20
109.5340577983
 10
139.8649442351
 20
109.4601196314
 10
139.8975497027
 20
109.3848138647
 10
139.924843981
 20
109.3082977004
 10
139.9460985495
 20
109.2324792306
 10
139.9611477839
 20
109.157432271
 10
139.9701539492
 20
109.0830801075
 10
139.9728795994
 20
109.0111044477
 10
139.9691641717
 20
108.9415586675
 10
139.9591679724
 20
108.8743891587
 10
139.9431345403
 20
108.8111169397
 10
139.9208980156
 20
108.7517947807
 10
139.892627199
 20
108.6963724304
 10
139.85906696
 20
108.6462158725
 10
139.8201560886
 20
108.6015275706
 10
139.7748818275
 20
108.5612647716
  0
LWPOLYLINE
  5
3BD
100
AcDbEntity
  8
ASSI
100
AcDbPolyline
 62
7
  6
CONTINUOUS
 90
27
 70
0
 10
139.1631375205
 20
110.1330455074
 10
139.2345470257
 20
110.1022274194
 10
139.30435009
 20
110.0661978877
 10
139.372544939
 20
110.0249554467
 10
139.4395685428
 20
109.9781680093
 10
139.504981584
 20
109.9261657047
 10
139.5674664474
 20
109.8699391953
 10
139.6270689884
 20
109.8092837802
 10
139.6837388488
 20
109.7444003327
 10
139.7360108334
 20
109.6768851348
 10
139.7836933445
 20
109.6067899704
 10
139.8269718294
 20
109.5340577983
 10
139.8649442351
 20
109.4601196314
 10
139.8975497027
 20
109.3848138647
 10
139.924843981
 20
109.3082977004
 10
139.9460985495
 20
109.2324792306
 10
139.9611477839
 20
109.157432271
 10
139.9701539492
 20
109.0830801075
 10
139.9728795994
 20
109.0111044477
 10
139.9691641717
 20
108.9415586675
 10
139.9591679724
 20
108.8743891587
 10
139.9431345403
 20
108.8111169397
 10
139.9208980156
 20
108.7517947807
 10
139.892627199
 20
108.6963724304
 10
139.85906696
 20
108.6462158725
 10
139.8201560886
 20
108.6015275706
 10
139.7748818275
 20
108.5612647716
  0
LWPOLYLINE
  5
3BE
100
AcDbEntity
  8
0
100
AcDbPolyline
 62
7
  6
CONTINUOUS
 90
27
 70
0
 10
135.464360867
 20
109.9949865105
 10
135.3947791398
 20
110.0272858223
 10
135.326809043
 20
110.0648075871
 10
135.2604485687
 20
110.1075501711
 10
135.1952690391
 20
110.1558546735
 10
135.131696313
 20
110.2093776945
 10
135.0710087249
 20
110.2670896947
 10
135.0131567461
 20
110.3291905915
 10
134.9581848444
 20
110.3954764177
 10
134.9075090477
 20
110.4643091933
 10
134.8613079842
 20
110.5356265006
 10
134.8193964372
 20
110.609485537
 10
134.7826422983
 20
110.6844258746
 10
134.7510986946
 20
110.7606019609
 10
134.7247072458
 20
110.8378552201
 10
134.7041673308
 20
110.9142546971
 10
134.6896346662
 20
110.9897187633
 10
134.6809504128
 20
111.0643266155
 10
134.6783414826
 20
111.1363880274
 10
134.6819618975
 20
111.2058438666
 10
134.6916579082
 20
111.2727535102
 10
134.7071944996
 20
111.3356042645
 10
134.7287341676
 20
111.3943406332
 10
134.7561179837
 20
111.4490209448
 10
134.7886280612
 20
111.4983026412
 10
134.826327235
 20
111.541984695
 10
134.8538788863
 20
111.5677365888
  0
LWPOLYLINE
  5
3BF
100
AcDbEntity
  8
ASSI
100
AcDbPolyline
 62
7
  6
CONTINUOUS
 90
27
 70
0
 10
135.464360867
 20
109.9949865105
 10
135.3947791398
 20
110.0272858223
 10
135.326809043
 20
110.0648075871
 10
135.2604485687
 20
110.1075501711
 10
135.1952690391
 20
110.1558546735
 10
135.131696313
 20
110.2093776945
 10
135.0710087249
 20
110.2670896947
 10
135.0131567461
 20
110.3291905915
 10
134.9581848444
 20
110.3954764177
 10
134.9075090477
 20
110.4643091933
 10
134.8613079842
 20
110.5356265006
 10
134.8193964372
 20
110.609485537
 10
134.7826422983
 20
110.6844258746
 10
134.7510986946
 20
110.7606019609
 10
134.7247072458
 20
110.8378552201
 10
134.7041673308
 20
110.9142546971
 10
134.6896346662
 20
110.9897187633
 10
134.6809504128
 20
111.0643266155
 10
134.6783414826
 20
111.1363880274
 10
134.6819618975
 20
111.2058438666
 10
134.6916579082
 20
111.2727535102
 10
134.7071944996
 20
111.3356042645
 10
134.7287341676
 20
111.3943406332
 10
134.7561179837
 20
111.4490209448
 10
134.7886280612
 20
111.4983026412
 10
134.826327235
 20
111.541984695
 10
134.8538788863
 20
111.5677365888
  0
LWPOLYLINE
  5
3C0
100
AcDbEntity
  8
ASSI
100
AcDbPolyline
 62
7
  6
CONTINUOUS
 90
27
 70
0
 10
153.6495362503
 20
102.6914101014
 10
153.579954523
 20
102.7237094132
 10
153.5119844262
 20
102.7612311781
 10
153.445623952
 20
102.803973762
 10
153.3804444224
 20
102.8522782644
 10
153.3168716962
 20
102.9058012854
 10
153.2561841081
 20
102.9635132856
 10
153.1983321294
 20
103.0256141824
 10
153.1433602276
 20
103.0919000086
 10
153.0926844309
 20
103.1607327842
 10
153.0464833674
 20
103.2320500915
 10
153.0045718204
 20
103.3059091279
 10
152.9678176816
 20
103.3808494655
 10
152.9362740778
 20
103.4570255519
 10
152.909882629
 20
103.534278811
 10
152.889342714
 20
103.610678288
 10
152.8748100495
 20
103.6861423542
 10
152.866125796
 20
103.7607502064
 10
152.8635168659
 20
103.8328116183
 10
152.8671372807
 20
103.9022674575
 10
152.8768332914
 20
103.9691771012
 10
152.8923698828
 20
104.0320278554
 10
152.9139095508
 20
104.0907642241
 10
152.941293367
 20
104.1454445357
 10
152.9738034445
 20
104.1947262321
 10
153.0115026182
 20
104.2384082859
 10
153.0390542695
 20
104.2641601798
  0
LWPOLYLINE
  5
3C1
100
AcDbEntity
  8
0
100
AcDbPolyline
 62
7
  6
CONTINUOUS
 90
27
 70
0
 10
153.6495362503
 20
102.6914101014
 10
153.579954523
 20
102.7237094132
 10
153.5119844262
 20
102.7612311781
 10
153.445623952
 20
102.803973762
 10
153.3804444224
 20
102.8522782644
 10
153.3168716962
 20
102.9058012854
 10
153.2561841081
 20
102.9635132856
 10
153.1983321294
 20
103.0256141824
 10
153.1433602276
 20
103.0919000086
 10
153.0926844309
 20
103.1607327842
 10
153.0464833674
 20
103.2320500915
 10
153.0045718204
 20
103.3059091279
 10
152.9678176816
 20
103.3808494655
 10
152.9362740778
 20
103.4570255519
 10
152.909882629
 20
103.534278811
 10
152.889342714
 20
103.610678288
 10
152.8748100495
 20
103.6861423542
 10
152.866125796
 20
103.7607502064
 10
152.8635168659
 20
103.8328116183
 10
152.8671372807
 20
103.9022674575
 10
152.8768332914
 20
103.9691771012
 10
152.8923698828
 20
104.0320278554
 10
152.9139095508
 20
104.0907642241
 10
152.941293367
 20
104.1454445357
 10
152.9738034445
 20
104.1947262321
 10
153.0115026182
 20
104.2384082859
 10
153.0390542695
 20
104.2641601798
  0
LWPOLYLINE
  5
3C2
100
AcDbEntity
  8
SUPERFICI
100
AcDbPolyline
 62
7
  6
CONTINUOUS
 90
3
 70
0
 10
139.276287552
 20
110.0814967921
 10
139.220093391
 20
110.1090424744
 10
139.1631375934
 20
110.1330454792
  0
LINE
  5
3C3
100
AcDbEntity
  8
ASSI
100
AcDbLine
 62
7
  6
CONTINUOUS
 10
151.6897236584
 20
121.9121691545
 11
151.6958209241
 21
121.3848824604
  0
LINE
  5
3C4
100
AcDbEntity
  8
0
100
AcDbLine
 62
7
  6
CONTINUOUS
 10
151.6897236584
 20
121.9121691545
 11
151.6958209241
 21
121.3848824604
  0
LINE
  5
3C5
100
AcDbEntity
  8
ASSI
100
AcDbLine
 62
253
  6
CONTINUOUS
 10
151.6285714029
 20
121.485168444
 11
151.628571404
 21
121.4742631768
  0
LINE
  5
3C6
100
AcDbEntity
  8
0
100
AcDbLine
 62
253
  6
CONTINUOUS
 10
151.6285714029
 20
121.485168444
 11
151.628571404
 21
121.4742631768
  0
LINE
  5
3C7
100
AcDbEntity
  8
ASSI
100
AcDbLine
 62
7
  6
CONTINUOUS
 10
151.6279024904
 20
121.4742631767
 11
151.6285714029
 21
121.485168444
  0
LINE
  5
3C8
100
AcDbEntity
  8
0
100
AcDbLine
 62
7
  6
CONTINUOUS
 10
151.6279024904
 20
121.4742631767
 11
151.6285714029
 21
121.485168444
  0
LWPOLYLINE
  5
3C9
100
AcDbEntity
  8
SUPERFICI
100
AcDbPolyline
 62
7
  6
CONTINUOUS
 90
34
 70
0
 10
153.0390693166
 20
104.2641414563
 10
153.0355343694
 20
104.2610674426
 10
153.0024324744
 20
104.228820948
 10
152.972703605
 20
104.193271859
 10
152.946459171
 20
104.1544625997
 10
152.9235846811
 20
104.1123483084
 10
152.9043289181
 20
104.0673755358
 10
152.8886996907
 20
104.0193765719
 10
152.8766872895
 20
103.9685176217
 10
152.8685139363
 20
103.9157458768
 10
152.8642531792
 20
103.8611764697
 10
152.8638305201
 20
103.804693504
 10
152.867245968
 20
103.7468975069
 10
152.8745656109
 20
103.6876252219
 10
152.8857240379
 20
103.6270404245
 10
152.9005238984
 20
103.5662340961
 10
152.918988583
 20
103.5053324655
 10
152.9410964385
 20
103.4442106581
 10
152.9665822963
 20
103.3835827962
 10
152.9955368736
 20
103.3233558803
 10
153.0278723762
 20
103.2636252092
 10
153.0630553687
 20
103.205386957
 10
153.101090456
 20
103.1487335388
 10
153.1419762047
 20
103.0935750478
 10
153.1851692595
 20
103.0406334939
 10
153.2307282104
 20
102.9899062747
 10
153.2785976842
 20
102.9413985541
 10
153.3280622201
 20
102.8958430743
 10
153.379172099
 20
102.85327912
 10
153.4318795341
 20
102.8136694114
 10
153.4853203169
 20
102.777630538
 10
153.5392062956
 20
102.7453679746
 10
153.5938265095
 20
102.7166769842
 10
153.6491816672
 20
102.6915581493
  0
LINE
  5
3CA
100
AcDbEntity
  8
ASSI
100
AcDbLine
 62
253
  6
CONTINUOUS
 10
165.1676974475
 20
114.6228988848
 11
166.6699716962
 21
115.8957638207
  0
LINE
  5
3CB
100
AcDbEntity
  8
0
100
AcDbLine
 62
253
  6
CONTINUOUS
 10
165.1676974475
 20
114.6228988848
 11
166.6699716962
 21
115.8957638207
  0
LINE
  5
3CC
100
AcDbEntity
  8
ASSI
100
AcDbLine
 62
253
  6
CONTINUOUS
 10
165.5846352134
 20
114.0555909332
 11
167.1050370645
 21
115.3438152414
  0
LINE
  5
3CD
100
AcDbEntity
  8
0
100
AcDbLine
 62
253
  6
CONTINUOUS
 10
165.5846352134
 20
114.0555909332
 11
167.1050370645
 21
115.3438152414
  0
LWPOLYLINE
  5
3CE
100
AcDbEntity
  8
ASSI
100
AcDbPolyline
 62
7
  6
CONTINUOUS
 90
12
 70
0
 10
153.0390542695
 20
104.2641601798
 10
153.0543335126
 20
104.2766960384
 10
153.1013965039
 20
104.3088553444
 10
153.1528789173
 20
104.3347823013
 10
153.2085999166
 20
104.354585947
 10
153.2671050755
 20
104.3678495089
 10
153.3283419846
 20
104.3744129427
 10
153.3923677259
 20
104.3744400018
 10
153.4578886821
 20
104.3679968845
 10
153.5244737303
 20
104.3551057268
 10
153.5925563348
 20
104.3357462689
 10
153.6621382691
 20
104.3099199346
  0
LWPOLYLINE
  5
3CF
100
AcDbEntity
  8
0
100
AcDbPolyline
 62
7
  6
CONTINUOUS
 90
12
 70
0
 10
153.0390542695
 20
104.2641601798
 10
153.0543335126
 20
104.2766960384
 10
153.1013965039
 20
104.3088553444
 10
153.1528789173
 20
104.3347823013
 10
153.2085999166
 20
104.354585947
 10
153.2671050755
 20
104.3678495089
 10
153.3283419846
 20
104.3744129427
 10
153.3923677259
 20
104.3744400018
 10
153.4578886821
 20
104.3679968845
 10
153.5244737303
 20
104.3551057268
 10
153.5925563348
 20
104.3357462689
 10
153.6621382691
 20
104.3099199346
  0
LINE
  5
3D0
100
AcDbEntity
  8
SUPERFICI
100
AcDbLine
 62
7
  6
CONTINUOUS
 10
153.0714210782
 20
104.2894334004
 11
153.0390693166
 21
104.2641414563
  0
LWPOLYLINE
  5
3D1
100
AcDbEntity
  8
0
100
AcDbPolyline
 62
253
  6
CONTINUOUS
 90
35
 70
0
 10
156.7598195093
 20
106.3293284494
 10
156.7766777558
 20
106.3417141795
 10
156.79314599
 20
106.3545535037
 10
156.8092318955
 20
106.3678412786
 10
156.8249431556
 20
106.3815723608
 10
156.8402874539
 20
106.395741607
 10
156.8552706018
 20
106.4103429229
 10
156.8698909224
 20
106.4253664102
 10
156.8841448666
 20
106.4408012195
 10
156.8980288854
 20
106.4566365015
 10
156.9115394298
 20
106.472861407
 10
156.9246733623
 20
106.4894658678
 10
156.9374291916
 20
106.5064429407
 10
156.9498058381
 20
106.5237864635
 10
156.9618022221
 20
106.5414902742
 10
156.973417264
 20
106.5595482104
 10
156.9873973533
 20
106.5826091857
 10
157.0007729644
 20
106.606201538
 10
157.0135371535
 20
106.6303129515
 10
157.0256829764
 20
106.6549311102
 10
157.0349496118
 20
106.6749827727
 10
157.0438116954
 20
106.6953478963
 10
157.052264874
 20
106.7160235072
 10
157.0603047943
 20
106.7370066316
 10
157.0679271029
 20
106.758294296
 10
157.0751269551
 20
106.7798824976
 10
157.0818975398
 20
106.8017631174
 10
157.0882315545
 20
106.8239270075
 10
157.0941216964
 20
106.8463650198
 10
157.099560663
 20
106.8690680064
 10
157.1045412687
 20
106.89202958
 10
157.1090567966
 20
106.9152543967
 10
157.1131006468
 20
106.9387498734
 10
157.1166662194
 20
106.9625234267
 10
157.1197469145
 20
106.9865824736
  0
LWPOLYLINE
  5
3D2
100
AcDbEntity
  8
0
100
AcDbPolyline
 62
253
  6
CONTINUOUS
 90
55
 70
0
 10
156.7598190548
 20
106.3293290472
 10
156.7255374207
 20
106.3059911495
 10
156.6901988025
 20
106.2841003903
 10
156.6538227901
 20
106.2636783794
 10
156.6164289731
 20
106.2447467262
 10
156.5780369413
 20
106.2273270405
 10
156.5386662844
 20
106.2114409319
 10
156.4983365922
 20
106.1971100101
 10
156.4570769711
 20
106.1843536681
 10
156.4149545946
 20
106.1731824331
 10
156.3720461531
 20
106.1636046154
 10
156.3284283366
 20
106.1556285258
 10
156.2841778355
 20
106.1492624745
 10
156.23937134
 20
106.1445147723
 10
156.1940855404
 20
106.1413937295
 10
156.1483870194
 20
106.1399045743
 10
156.1023019302
 20
106.1400402046
 10
156.0558463183
 20
106.141790436
 10
156.0090362294
 20
106.1451450841
 10
155.9618877092
 20
106.1500939644
 10
155.9144168033
 20
106.1566268924
 10
155.8666395573
 20
106.1647336838
 10
155.8105422155
 20
106.1761672032
 10
155.7541265408
 20
106.1897128598
 10
155.6974693233
 20
106.2053544501
 10
155.6406473531
 20
106.2230757707
 10
155.5837374203
 20
106.242860618
 10
155.526816315
 20
106.2646927886
 10
155.4699593887
 20
106.2885517918
 10
155.4132362391
 20
106.3143999882
 10
155.3567150253
 20
106.3421954512
 10
155.3004639063
 20
106.3718962542
 10
155.2445510413
 20
106.4034604706
 10
155.1890445893
 20
106.4368461739
 10
155.1418385185
 20
106.4668844604
 10
155.0949985398
 20
106.4982277506
 10
155.0485420798
 20
106.5308736161
 10
155.0024865653
 20
106.5648196287
 10
154.9568494231
 20
106.6000633601
 10
154.9116480798
 20
106.6366023818
 10
154.8668999623
 20
106.6744342657
 10
154.8226322702
 20
106.7135450092
 10
154.7789112948
 20
106.7538743133
 10
154.7358131002
 20
106.7953503048
 10
154.6934137507
 20
106.8379011103
 10
154.6517893104
 20
106.8814548568
 10
154.6110158436
 20
106.9259396709
 10
154.5711694143
 20
106.9712836795
 10
154.5323160008
 20
107.0174209836
 10
154.4944812369
 20
107.0643095814
 10
154.4576806703
 20
107.1119134455
 10
154.4219298489
 20
107.1601965484
 10
154.3872443205
 20
107.2091228626
 10
154.3536396327
 20
107.2586563606
 10
154.3211313336
 20
107.308761015
  0
LWPOLYLINE
  5
3D3
100
AcDbEntity
  8
SUPERFICI
100
AcDbPolyline
 62
7
  6
CONTINUOUS
 90
12
 70
0
 10
135.421415845
 20
111.6346746616
 10
135.3665868831
 20
111.6517180106
 10
135.3124753214
 20
111.6646258689
 10
135.2588137349
 20
111.6734326423
 10
135.2058687547
 20
111.6781032851
 10
135.1544400186
 20
111.6785324635
 10
135.1045333045
 20
111.6746381907
 10
135.0561406348
 20
111.6665007027
 10
135.0100393557
 20
111.6542566826
 10
134.966320035
 20
111.6378731315
 10
134.9248889267
 20
111.6173805283
 10
134.8862456949
 20
111.5930098095
  0
LINE
  5
3D4
100
AcDbEntity
  8
SUPERFICI
100
AcDbLine
 62
7
  6
CONTINUOUS
 10
135.4769628655
 20
111.6134963521
 11
135.421415845
 21
111.6346746616
  0
LWPOLYLINE
  5
3D5
100
AcDbEntity
  8
ASSI
100
AcDbPolyline
 62
7
  6
CONTINUOUS
 90
27
 70
0
 10
157.3483129037
 20
102.8294690983
 10
157.4197224089
 20
102.7986510103
 10
157.4895254732
 20
102.7626214786
 10
157.5577203222
 20
102.7213790376
 10
157.624743926
 20
102.6745916002
 10
157.6901569672
 20
102.6225892956
 10
157.7526418307
 20
102.5663627863
 10
157.8122443717
 20
102.5057073712
 10
157.868914232
 20
102.4408239237
 10
157.9211862166
 20
102.3733087258
 10
157.9688687277
 20
102.3032135613
 10
158.0121472126
 20
102.2304813892
 10
158.0501196183
 20
102.1565432224
 10
158.0827250859
 20
102.0812374556
 10
158.1100193643
 20
102.0047212913
 10
158.1312739327
 20
101.9289028215
 10
158.1463231672
 20
101.8538558619
 10
158.1553293324
 20
101.7795036984
 10
158.1580549826
 20
101.7075280386
 10
158.1543395549
 20
101.6379822584
 10
158.1443433556
 20
101.5708127496
 10
158.1283099236
 20
101.5075405306
 10
158.1060733988
 20
101.4482183716
 10
158.0778025822
 20
101.3927960213
 10
158.0442423432
 20
101.3426394634
 10
158.0053314718
 20
101.2979511615
 10
157.9600572107
 20
101.2576883626
  0
LWPOLYLINE
  5
3D6
100
AcDbEntity
  8
0
100
AcDbPolyline
 62
7
  6
CONTINUOUS
 90
27
 70
0
 10
157.3483129037
 20
102.8294690983
 10
157.4197224089
 20
102.7986510103
 10
157.4895254732
 20
102.7626214786
 10
157.5577203222
 20
102.7213790376
 10
157.624743926
 20
102.6745916002
 10
157.6901569672
 20
102.6225892956
 10
157.7526418307
 20
102.5663627863
 10
157.8122443717
 20
102.5057073712
 10
157.868914232
 20
102.4408239237
 10
157.9211862166
 20
102.3733087258
 10
157.9688687277
 20
102.3032135613
 10
158.0121472126
 20
102.2304813892
 10
158.0501196183
 20
102.1565432224
 10
158.0827250859
 20
102.0812374556
 10
158.1100193643
 20
102.0047212913
 10
158.1312739327
 20
101.9289028215
 10
158.1463231672
 20
101.8538558619
 10
158.1553293324
 20
101.7795036984
 10
158.1580549826
 20
101.7075280386
 10
158.1543395549
 20
101.6379822584
 10
158.1443433556
 20
101.5708127496
 10
158.1283099236
 20
101.5075405306
 10
158.1060733988
 20
101.4482183716
 10
158.0778025822
 20
101.3927960213
 10
158.0442423432
 20
101.3426394634
 10
158.0053314718
 20
101.2979511615
 10
157.9600572107
 20
101.2576883626
  0
LWPOLYLINE
  5
3D7
100
AcDbEntity
  8
SUPERFICI
100
AcDbPolyline
 62
7
  6
CONTINUOUS
 90
3
 70
0
 10
157.4614629352
 20
102.7779203831
 10
157.4052687743
 20
102.8054660654
 10
157.3483129766
 20
102.8294690702
  0
LWPOLYLINE
  5
3D8
100
AcDbEntity
  8
0
100
AcDbPolyline
 62
253
  6
CONTINUOUS
 90
23
 70
0
 10
138.2382086817
 20
117.6068517334
 10
138.2579739622
 20
117.5872034029
 10
138.2775780977
 20
117.5673370349
 10
138.2970133883
 20
117.547259698
 10
138.3162721339
 20
117.5269784609
 10
138.3353466344
 20
117.5065003923
 10
138.3542291899
 20
117.4858325608
 10
138.3729121002
 20
117.4649820351
 10
138.3913876654
 20
117.4439558839
 10
138.4110715961
 20
117.4210920346
 10
138.4305033584
 20
117.3980365608
 10
138.449680866
 20
117.3747938572
 10
138.4686020325
 20
117.3513683187
 10
138.4872647716
 20
117.3277643401
 10
138.5056669968
 20
117.3039863164
 10
138.5238066218
 20
117.2800386423
 10
138.5416815603
 20
117.2559257127
 10
138.5592897259
 20
117.2316519224
 10
138.5766290322
 20
117.2072216663
 10
138.5936973928
 20
117.1826393392
 10
138.6104927214
 20
117.157909336
 10
138.6270129315
 20
117.1330360516
 10
138.643255937
 20
117.1080238807
  0
LWPOLYLINE
  5
3D9
100
AcDbEntity
  8
0
100
AcDbPolyline
 62
253
  6
CONTINUOUS
 90
35
 70
0
 10
154.5157488415
 20
89.277645798
 10
154.5177489132
 20
89.2614687725
 10
154.5200539615
 20
89.2452267103
 10
154.5226595689
 20
89.2289190412
 10
154.525561318
 20
89.2125451954
 10
154.5287547914
 20
89.1961046029
 10
154.5322356283
 20
89.1795979932
 10
154.5359996953
 20
89.1630312943
 10
154.5400429155
 20
89.1464117336
 10
154.5443612122
 20
89.1297465387
 10
154.5489505086
 20
89.113042937
 10
154.5538069588
 20
89.096307709
 10
154.5589276396
 20
89.079545847
 10
154.564309859
 20
89.0627618961
 10
154.5699509246
 20
89.0459604017
 10
154.5758481444
 20
89.029145909
 10
154.5835759836
 20
89.0081167292
 10
154.5916957943
 20
88.9870849622
 10
154.6002035139
 20
88.9660612287
 10
154.6090950796
 20
88.9450561494
 10
154.6164822532
 20
88.9282724279
 10
154.6241121003
 20
88.9115115233
 10
154.6319842328
 20
88.8947775167
 10
154.6400982626
 20
88.8780744893
 10
154.6484538018
 20
88.8614065219
 10
154.6570501316
 20
88.8447784943
 10
154.6658852106
 20
88.8281984806
 10
154.6749566666
 20
88.8116753537
 10
154.6842621275
 20
88.7952179861
 10
154.693799221
 20
88.7788352508
 10
154.7035668205
 20
88.7625344003
 10
154.7135687815
 20
88.7463162059
 10
154.7238102052
 20
88.730179819
 10
154.7342961926
 20
88.7141243909
 10
154.7450318447
 20
88.6981490727
  0
LWPOLYLINE
  5
3DA
100
AcDbEntity
  8
0
100
AcDbPolyline
 62
253
  6
CONTINUOUS
 90
13
 70
0
 10
154.5157487253
 20
89.2776458347
 10
154.5074791831
 20
89.3523140173
 10
154.4997985708
 20
89.4268039585
 10
154.4927072809
 20
89.5011107077
 10
154.4862057063
 20
89.5752293144
 10
154.4802942119
 20
89.6491549815
 10
154.4749730508
 20
89.7228835253
 10
154.4702424486
 20
89.7964109155
 10
154.4661026306
 20
89.8697331219
 10
154.4625538141
 20
89.9428459802
 10
154.4595961841
 20
90.0157447906
 10
154.4572299174
 20
90.0884247192
 10
154.455455191
 20
90.1608809322
  0
LWPOLYLINE
  5
3DB
100
AcDbEntity
  8
0
100
AcDbPolyline
 62
253
  6
CONTINUOUS
 90
13
 70
0
 10
154.0316726379
 20
89.4316892606
 10
154.0229850652
 20
89.5103314546
 10
154.0149163664
 20
89.588784966
 10
154.0074669435
 20
89.6670445726
 10
154.0006371988
 20
89.7451050523
 10
153.9944275051
 20
89.8229613436
 10
153.9888381194
 20
89.9006090271
 10
153.9838692696
 20
89.9780438439
 10
153.9795211836
 20
90.0552615352
 10
153.9757940809
 20
90.1322577025
 10
153.9726881475
 20
90.2090273893
 10
153.9702035611
 20
90.2855654994
 10
153.9683404993
 20
90.3618669367
  0
LWPOLYLINE
  5
3DC
100
AcDbEntity
  8
0
100
AcDbPolyline
 62
253
  6
CONTINUOUS
 90
13
 70
0
 10
157.1197470599
 20
90.0020463901
 10
157.1282867776
 20
89.9232933688
 10
157.1362211137
 20
89.844737865
 10
157.1435495283
 20
89.7663848759
 10
157.1502714814
 20
89.6882393985
 10
157.1563864641
 20
89.610306378
 10
157.1618940922
 20
89.5325905514
 10
157.1667940124
 20
89.455096604
 10
157.1710858717
 20
89.3778292209
 10
157.1747693416
 20
89.3007931285
 10
157.1778441934
 20
89.2239932176
 10
157.1803102227
 20
89.1474344205
 10
157.1821672255
 20
89.0711216694
  0
LWPOLYLINE
  5
3DD
100
AcDbEntity
  8
0
100
AcDbPolyline
 62
253
  6
CONTINUOUS
 90
13
 70
0
 10
156.6270484258
 20
90.1490266392
 10
156.6351474444
 20
90.0742308393
 10
156.6426729944
 20
89.9996232339
 10
156.649624553
 20
89.9252084574
 10
156.6560015971
 20
89.8509911441
 10
156.6618036301
 20
89.7769759542
 10
156.6670302595
 20
89.7031676507
 10
156.6716811193
 20
89.6295710223
 10
156.675755843
 20
89.5561908579
 10
156.6792540949
 20
89.4830319083
 10
156.6821756605
 20
89.4100987722
 10
156.6845203556
 20
89.3373960108
 10
156.6862879959
 20
89.2649281848
  0
LWPOLYLINE
  5
3DE
100
AcDbEntity
  8
0
100
AcDbPolyline
 62
253
  6
CONTINUOUS
 90
35
 70
0
 10
153.9945137276
 20
108.2417466302
 10
153.9966460598
 20
108.2156296836
 10
153.9992580224
 20
108.1894101523
 10
154.0023429277
 20
108.1630863833
 10
154.0058940878
 20
108.1366567235
 10
154.0099048148
 20
108.1101195197
 10
154.0143684879
 20
108.083475617
 10
154.0192787534
 20
108.0567358531
 10
154.0246293248
 20
108.0299135639
 10
154.0304139154
 20
108.0030220852
 10
154.0366262387
 20
107.9760747529
 10
154.0432604026
 20
107.9490838077
 10
154.0503120937
 20
107.9220571105
 10
154.0577773932
 20
107.8950014269
 10
154.0656523824
 20
107.8679235225
 10
154.0739331423
 20
107.840830163
 10
154.084849026
 20
107.8069527641
 10
154.0963868817
 20
107.7730793645
 10
154.1085407876
 20
107.7392275408
 10
154.1213048217
 20
107.7054148697
 10
154.1319518132
 20
107.6784043156
 10
154.1429851717
 20
107.6514365567
 10
154.1544045722
 20
107.6245180816
 10
154.1662096895
 20
107.5976553787
 10
154.1784001985
 20
107.5708549367
 10
154.1909752339
 20
107.5441246449
 10
154.2039317688
 20
107.5174779964
 10
154.2172662365
 20
107.4909298849
 10
154.2309750698
 20
107.4644952043
 10
154.245054702
 20
107.4381888483
 10
154.2595034965
 20
107.4120229732
 10
154.2743275399
 20
107.3859987844
 10
154.2895348492
 20
107.3601147499
 10
154.3051334414
 20
107.3343693374
 10
154.3211313336
 20
107.308761015
  0
LWPOLYLINE
  5
3DF
100
AcDbEntity
  8
0
100
AcDbPolyline
 62
253
  6
CONTINUOUS
 90
13
 70
0
 10
154.4803488546
 20
108.0891449769
 10
154.4750234707
 20
108.1662128054
 10
154.4702884188
 20
108.243106253
 10
154.4661439784
 20
108.3198204861
 10
154.4625904288
 20
108.3963506707
 10
154.4596280281
 20
108.4726919512
 10
154.4572569487
 20
108.5488393844
 10
154.4554773417
 20
108.6247880052
 10
154.4542893582
 20
108.7005328488
 10
154.453693126
 20
108.7760689939
 10
154.4536886799
 20
108.8513916943
 10
154.454276031
 20
108.9264962474
 10
154.455455191
 20
109.0013779508
  0
LWPOLYLINE
  5
3E0
100
AcDbEntity
  8
0
100
AcDbPolyline
 62
253
  6
CONTINUOUS
 90
13
 70
0
 10
153.9945129773
 20
108.2417468673
 10
153.9889164113
 20
108.3229107773
 10
153.9839400955
 20
108.4038893495
 10
153.9795843138
 20
108.484677377
 10
153.9758493504
 20
108.565269653
 10
153.9727354668
 20
108.64566103
 10
153.9702428356
 20
108.7258465974
 10
153.9683716072
 20
108.8058215039
 10
153.9671219318
 20
108.8855808981
 10
153.9664939399
 20
108.9651198917
 10
153.9664876828
 20
109.0444334482
 10
153.9671031921
 20
109.1235164939
 10
153.9683404993
 20
109.2023639553
  0
LWPOLYLINE
  5
3E1
100
AcDbEntity
  8
0
100
AcDbPolyline
 62
253
  6
CONTINUOUS
 90
13
 70
0
 10
153.9683406426
 20
90.3618668773
 10
153.9671033307
 20
90.4379307938
 10
153.9664878157
 20
90.5137465626
 10
153.9664940767
 20
90.58930946
 10
153.9671220933
 20
90.6646147625
 10
153.9683718205
 20
90.7396577283
 10
153.9702431166
 20
90.8144335435
 10
153.9727358154
 20
90.8889373758
 10
153.975849751
 20
90.963164393
 10
153.979584735
 20
91.0371098117
 10
153.9839404906
 20
91.1107690428
 10
153.9889167187
 20
91.1841375463
 10
153.9945131202
 20
91.2572107818
  0
LWPOLYLINE
  5
3E2
100
AcDbEntity
  8
0
100
AcDbPolyline
 62
253
  6
CONTINUOUS
 90
13
 70
0
 10
154.4554553079
 20
90.1608808842
 10
154.454276144
 20
90.2331122584
 10
154.4536887844
 20
90.3051093299
 10
154.4536932328
 20
90.3768677631
 10
154.4542894925
 20
90.4483832227
 10
154.4554775381
 20
90.519651257
 10
154.4572572278
 20
90.5906669497
 10
154.4596283909
 20
90.6614252682
 10
154.4625908566
 20
90.73192118
 10
154.4661444329
 20
90.8021497997
 10
154.4702888428
 20
90.8721068303
 10
154.4750237883
 20
90.9417881218
 10
154.4803489712
 20
91.0111895244
  0
LWPOLYLINE
  5
3E3
100
AcDbEntity
  8
0
100
AcDbPolyline
 62
253
  6
CONTINUOUS
 90
13
 70
0
 10
153.9683406426
 20
109.2023638959
 10
153.9702036907
 20
109.2809606999
 10
153.9726882587
 20
109.3593101591
 10
153.9757941711
 20
109.4374071482
 10
153.9795212526
 20
109.5152465419
 10
153.9838693191
 20
109.5928233765
 10
153.9888381533
 20
109.6701333351
 10
153.9944275295
 20
109.7471722624
 10
154.0006372219
 20
109.8239360032
 10
154.0074669757
 20
109.900420265
 10
154.01491642
 20
109.9766202063
 10
154.0229851548
 20
110.0525308482
 10
154.0316727803
 20
110.1281472119
  0
LWPOLYLINE
  5
3E4
100
AcDbEntity
  8
0
100
AcDbPolyline
 62
253
  6
CONTINUOUS
 90
13
 70
0
 10
154.4554553079
 20
109.0013779028
 10
154.4572300217
 20
109.0760228918
 10
154.4595962715
 20
109.1504340729
 10
154.4625538823
 20
109.2246065703
 10
154.4661026792
 20
109.2985355079
 10
154.4702424794
 20
109.3722161645
 10
154.4749730673
 20
109.4456444366
 10
154.4802942197
 20
109.5188163752
 10
154.486205713
 20
109.5917280313
 10
154.4927072958
 20
109.6643753242
 10
154.4997986054
 20
109.7367536462
 10
154.5074792509
 20
109.8088582576
 10
154.5157488415
 20
109.8806844192
  0
LWPOLYLINE
  5
3E5
100
AcDbEntity
  8
0
100
AcDbPolyline
 62
253
  6
CONTINUOUS
 90
35
 70
0
 10
154.4803489712
 20
91.0111895244
 10
154.4817148295
 20
91.0260602977
 10
154.4833880703
 20
91.0407458155
 10
154.485364166
 20
91.0552503478
 10
154.4876385889
 20
91.0695781645
 10
154.4902068117
 20
91.0837335358
 10
154.4930644194
 20
91.097719361
 10
154.4962074478
 20
91.1115330573
 10
154.4996320455
 20
91.125170671
 10
154.5033343609
 20
91.1386282487
 10
154.5073105427
 20
91.1519018368
 10
154.5115569563
 20
91.1649877471
 10
154.5160708351
 20
91.1778833533
 10
154.5208496298
 20
91.1905862942
 10
154.5258907909
 20
91.2030942087
 10
154.5311917688
 20
91.2154047357
 10
154.5381796898
 20
91.230511259
 10
154.5455659025
 20
91.2452982889
 10
154.5533467184
 20
91.259758439
 10
154.5615184489
 20
91.2738843229
 10
154.5683350906
 20
91.2849393931
 10
154.5753993326
 20
91.2957720139
 10
154.5827109505
 20
91.3063783935
 10
154.5902697201
 20
91.3167547401
 10
154.5980754169
 20
91.3268972619
 10
154.6061275141
 20
91.3368016239
 10
154.6144242751
 20
91.346461318
 10
154.6229636609
 20
91.3558692931
 10
154.6317436325
 20
91.3650184978
 10
154.6407621508
 20
91.3739018809
 10
154.6500183752
 20
91.3825130205
 10
154.6595162586
 20
91.3908480126
 10
154.6692609521
 20
91.3989035822
 10
154.6792576069
 20
91.4066764548
 10
154.6895113741
 20
91.4141633554
  0
LWPOLYLINE
  5
3E6
100
AcDbEntity
  8
0
100
AcDbPolyline
 62
253
  6
CONTINUOUS
 90
35
 70
0
 10
154.0316733855
 20
110.1281469013
 10
154.0347946061
 20
110.1522069779
 10
154.0383918904
 20
110.1759769702
 10
154.0424587542
 20
110.1994640662
 10
154.0469887128
 20
110.2226754538
 10
154.0519752819
 20
110.2456183209
 10
154.0574119416
 20
110.2682973288
 10
154.0632920309
 20
110.2907070314
 10
154.0696088531
 20
110.3128394563
 10
154.076355712
 20
110.3346866307
 10
154.083525911
 20
110.356240582
 10
154.091113183
 20
110.377494101
 10
154.0991129781
 20
110.3984430329
 10
154.1075211757
 20
110.419083986
 10
154.1163336554
 20
110.4394135691
 10
154.1255462966
 20
110.4594283906
 10
154.1376188017
 20
110.4839981691
 10
154.1503035958
 20
110.5080585191
 10
154.1635941541
 20
110.5315971264
 10
154.1774839516
 20
110.5546016766
 10
154.1890233175
 20
110.5726125692
 10
154.2009414428
 20
110.5902677711
 10
154.2132377494
 20
110.6075612696
 10
154.2259116595
 20
110.6244870517
 10
154.2389625953
 20
110.6410391046
 10
154.2523893899
 20
110.6572104707
 10
154.266188521
 20
110.6729904139
 10
154.2803558776
 20
110.6883672534
 10
154.2948873483
 20
110.7033293082
 10
154.3097788221
 20
110.7178648977
 10
154.3250281978
 20
110.7319634802
 10
154.3406414143
 20
110.7456190711
 10
154.3566264207
 20
110.7588268248
 10
154.3729911659
 20
110.7715818961
 10
154.389743599
 20
110.7838794393
  0
LWPOLYLINE
  5
3E7
100
AcDbEntity
  8
ASSI
100
AcDbPolyline
 62
7
  6
CONTINUOUS
 90
10
 70
0
 10
157.9600572107
 20
101.2576883626
 10
157.9125911482
 20
101.2251487924
 10
157.8595084401
 20
101.1979025436
 10
157.8020822982
 20
101.1766957385
 10
157.7418184838
 20
101.1619870397
 10
157.6787744223
 20
101.1539401171
 10
157.6128974984
 20
101.1523954029
 10
157.5455251978
 20
101.1573240039
 10
157.4771035756
 20
101.1687164853
 10
157.4071892631
 20
101.1865845508
  0
LWPOLYLINE
  5
3E8
100
AcDbEntity
  8
0
100
AcDbPolyline
 62
7
  6
CONTINUOUS
 90
10
 70
0
 10
157.9600572107
 20
101.2576883626
 10
157.9125911482
 20
101.2251487924
 10
157.8595084401
 20
101.1979025436
 10
157.8020822982
 20
101.1766957385
 10
157.7418184838
 20
101.1619870397
 10
157.6787744223
 20
101.1539401171
 10
157.6128974984
 20
101.1523954029
 10
157.5455251978
 20
101.1573240039
 10
157.4771035756
 20
101.1687164853
 10
157.4071892631
 20
101.1865845508
  0
LWPOLYLINE
  5
3E9
100
AcDbEntity
  8
0
100
AcDbPolyline
 62
253
  6
CONTINUOUS
 90
35
 70
0
 10
154.6895112314
 20
107.4931663129
 10
154.6792776787
 20
107.5095041484
 10
154.669300269
 20
107.5259277857
 10
154.659574096
 20
107.5424374805
 10
154.6500942534
 20
107.5590334885
 10
154.6408558347
 20
107.5757160655
 10
154.6318549706
 20
107.5924841756
 10
154.6230919389
 20
107.6093316178
 10
154.6145680541
 20
107.6262508994
 10
154.606284631
 20
107.6432345277
 10
154.5982429841
 20
107.6602750102
 10
154.5904443225
 20
107.6773653169
 10
154.5828894321
 20
107.6945002676
 10
154.5755789933
 20
107.711675145
 10
154.5685136865
 20
107.7288852315
 10
154.561694192
 20
107.7461258098
 10
154.553516955
 20
107.7677119448
 10
154.5457287182
 20
107.7893274576
 10
154.538333337
 20
107.8109614536
 10
154.5313346666
 20
107.8326030383
 10
154.526024064
 20
107.8499146932
 10
154.5209724647
 20
107.8672201205
 10
154.5161825095
 20
107.8845152085
 10
154.5116568391
 20
107.9017958453
 10
154.5073980944
 20
107.9190579193
 10
154.5034091901
 20
107.9362964974
 10
154.4996941369
 20
107.9535033617
 10
154.4962572193
 20
107.9706694732
 10
154.4931027219
 20
107.9877857927
 10
154.4902349292
 20
108.0048432811
 10
154.487658144
 20
108.0218346042
 10
154.4853767424
 20
108.0387592474
 10
154.4833951188
 20
108.0556184008
 10
154.4817176676
 20
108.0724132547
 10
154.480348783
 20
108.0891449993
  0
LWPOLYLINE
  5
3EA
100
AcDbEntity
  8
0
100
AcDbPolyline
 62
253
  6
CONTINUOUS
 90
35
 70
0
 10
157.1197462966
 20
90.0020466165
 10
157.1166702496
 20
90.0273905172
 10
157.1131105738
 20
90.0528337273
 10
157.1090739732
 20
90.0783779131
 10
157.104567152
 20
90.1040247412
 10
157.0995968141
 20
90.1297758779
 10
157.0941696889
 20
90.1556305667
 10
157.0882926062
 20
90.1815783603
 10
157.0819724208
 20
90.2076063883
 10
157.0752159879
 20
90.2337017804
 10
157.0680301624
 20
90.2598516664
 10
157.0604213664
 20
90.2860442396
 10
157.0523942898
 20
90.3122719478
 10
157.0439531899
 20
90.3385283026
 10
157.0351023238
 20
90.3648068153
 10
157.0258459485
 20
90.3911009976
 10
157.0137114571
 20
90.4239801715
 10
157.0009567601
 20
90.4568567931
 10
156.9875886083
 20
90.4897139646
 10
156.9736137522
 20
90.5225347885
 10
156.9620011121
 20
90.5487543295
 10
156.95000517
 20
90.5749335861
 10
156.9376265945
 20
90.6010663511
 10
156.9248660538
 20
90.6271464169
 10
156.9117242162
 20
90.6531675763
 10
156.8982023407
 20
90.679122262
 10
156.884304048
 20
90.7049974677
 10
156.8700335492
 20
90.7307788273
 10
156.8553950555
 20
90.7564519748
 10
156.8403927781
 20
90.782002544
 10
156.8250289044
 20
90.8074188302
 10
156.8092975267
 20
90.8326997742
 10
156.7931907135
 20
90.8578469783
 10
156.7767005333
 20
90.8828620446
 10
156.7598190548
 20
90.9077465755
  0
LWPOLYLINE
  5
3EB
100
AcDbEntity
  8
0
100
AcDbPolyline
 62
253
  6
CONTINUOUS
 90
35
 70
0
 10
156.6624481782
 20
109.0185215693
 10
156.6611189291
 20
109.0352481005
 10
156.659478871
 20
109.0520348908
 10
156.6575326109
 20
109.0688826655
 10
156.6552847562
 20
109.0857921503
 10
156.652739914
 20
109.1027640704
 10
156.6499025753
 20
109.119797803
 10
156.646776765
 20
109.1368873311
 10
156.6433663917
 20
109.1540252897
 10
156.6396753642
 20
109.1712043134
 10
156.6357075911
 20
109.1884170371
 10
156.6314667639
 20
109.2056565539
 10
156.6269557064
 20
109.2229177902
 10
156.6221770254
 20
109.2401961308
 10
156.6171333275
 20
109.2574869603
 10
156.6118272197
 20
109.2747856635
 10
156.604829324
 20
109.296412778
 10
156.59742927
 20
109.3180341352
 10
156.5896308417
 20
109.3396388861
 10
156.5814378235
 20
109.3612161821
 10
156.5746015678
 20
109.3784511891
 10
156.5675154573
 20
109.3956574966
 10
156.5601797527
 20
109.4128309191
 10
156.552594715
 20
109.4299672716
 10
156.5447606049
 20
109.4470623686
 10
156.5366779868
 20
109.4641112043
 10
156.5283486397
 20
109.4811054892
 10
156.5197746459
 20
109.4980361135
 10
156.5109580882
 20
109.5148939669
 10
156.5019010488
 20
109.5316699396
 10
156.4926044048
 20
109.5483565743
 10
156.4830642101
 20
109.5649530255
 10
156.4732753135
 20
109.5814601009
 10
156.4632325634
 20
109.5978786077
 10
156.4529308083
 20
109.6142093535
  0
LWPOLYLINE
  5
3EC
100
AcDbEntity
  8
0
100
AcDbPolyline
 62
253
  6
CONTINUOUS
 90
13
 70
0
 10
157.1569067205
 20
108.8729828207
 10
157.1623570512
 20
108.7916888333
 10
157.1672000278
 20
108.7105929649
 10
157.1714353125
 20
108.6297004905
 10
157.1750625676
 20
108.5490166849
 10
157.1780814847
 20
108.4685466623
 10
157.1804918709
 20
108.3882948949
 10
157.1822935628
 20
108.3082656942
 10
157.1834863966
 20
108.2284633717
 10
157.18407023
 20
108.1488923889
 10
157.1840450042
 20
108.0695578067
 10
157.1834106819
 20
107.9904648361
 10
157.1821672255
 20
107.9116186881
  0
LWPOLYLINE
  5
3ED
100
AcDbEntity
  8
0
100
AcDbPolyline
 62
253
  6
CONTINUOUS
 90
13
 70
0
 10
156.6624482965
 20
109.0185215343
 10
156.6676050519
 20
108.9413035061
 10
156.672186219
 20
108.864274648
 10
156.6761914899
 20
108.7874399801
 10
156.6796205566
 20
108.7108045222
 10
156.6824731384
 20
108.6343731406
 10
156.6847490636
 20
108.5581500856
 10
156.6864481878
 20
108.4821394539
 10
156.6875703666
 20
108.4063453422
 10
156.6881154752
 20
108.3307719905
 10
156.6880834674
 20
108.2554242122
 10
156.6874743165
 20
108.1803069642
 10
156.6862879959
 20
108.1054252034
  0
LWPOLYLINE
  5
3EE
100
AcDbEntity
  8
0
100
AcDbPolyline
 62
253
  6
CONTINUOUS
 90
13
 70
0
 10
156.6862878773
 20
89.2649282314
 10
156.6874741924
 20
89.1927087753
 10
156.6880833452
 20
89.1207349013
 10
156.6881153604
 20
89.0490113623
 10
156.6875702628
 20
88.977542911
 10
156.6864480966
 20
88.9063341554
 10
156.6847489846
 20
88.8353891231
 10
156.6824730695
 20
88.7647116968
 10
156.6796204937
 20
88.6943057592
 10
156.676191427
 20
88.6241753242
 10
156.6721861481
 20
88.5543249306
 10
156.6676049632
 20
88.4847592486
 10
156.6624481782
 20
88.4154829481
  0
LWPOLYLINE
  5
3EF
100
AcDbEntity
  8
0
100
AcDbPolyline
 62
253
  6
CONTINUOUS
 90
13
 70
0
 10
157.1821670791
 20
89.0711217263
 10
157.1834105296
 20
88.9950696169
 10
157.184044854
 20
88.9192750049
 10
157.1840700879
 20
88.8437429007
 10
157.1834862666
 20
88.768478315
 10
157.1822934465
 20
88.693486107
 10
157.1804917681
 20
88.6187705306
 10
157.1780813929
 20
88.5443356884
 10
157.1750624824
 20
88.4701856831
 10
157.1714352272
 20
88.3963247545
 10
157.1671999338
 20
88.3227576915
 10
157.1623569377
 20
88.2494894201
 10
157.1569065746
 20
88.1765248665
  0
LWPOLYLINE
  5
3F0
100
AcDbEntity
  8
0
100
AcDbPolyline
 62
253
  6
CONTINUOUS
 90
13
 70
0
 10
156.6862878773
 20
108.10542525
 10
156.6845202451
 20
108.0307800018
 10
156.6821755543
 20
107.9563811353
 10
156.6792539684
 20
107.8822331228
 10
156.6757556506
 20
107.8083404365
 10
156.6716808046
 20
107.7347076737
 10
156.6670297944
 20
107.661339933
 10
156.6618030241
 20
107.5882424379
 10
156.6560008976
 20
107.5154204122
 10
156.649623841
 20
107.4428789328
 10
156.6426723672
 20
107.3706224902
 10
156.6351470113
 20
107.2986554282
 10
156.6270483079
 20
107.2269820907
  0
LWPOLYLINE
  5
3F1
100
AcDbEntity
  8
0
100
AcDbPolyline
 62
253
  6
CONTINUOUS
 90
13
 70
0
 10
157.1821670791
 20
107.911618745
 10
157.180310079
 20
107.8330201164
 10
157.177844048
 20
107.7546800929
 10
157.1747691749
 20
107.6766035357
 10
157.1710856483
 20
107.5987953059
 10
157.1667936891
 20
107.5212602895
 10
157.1618936482
 20
107.4440034718
 10
157.1563859085
 20
107.3670298626
 10
157.150270853
 20
107.2903444719
 10
157.1435488927
 20
107.2139522655
 10
157.1362205496
 20
107.1378580332
 10
157.1282863736
 20
107.0620665207
 10
157.1197469145
 20
106.9865824736
  0
LWPOLYLINE
  5
3F2
100
AcDbEntity
  8
0
100
AcDbPolyline
 62
253
  6
CONTINUOUS
 90
35
 70
0
 10
156.6270483079
 20
107.2269820907
 10
156.6250846056
 20
107.2116215922
 10
156.6228124564
 20
107.1964454774
 10
156.620236377
 20
107.1814494672
 10
156.617360884
 20
107.1666292827
 10
156.6141904942
 20
107.1519806451
 10
156.6107296612
 20
107.1375006866
 10
156.6069825863
 20
107.1231921844
 10
156.6029534077
 20
107.109059327
 10
156.5986462636
 20
107.0951063027
 10
156.5940652922
 20
107.0813373
 10
156.5892143997
 20
107.0677562294
 10
156.5840965634
 20
107.0543658903
 10
156.5787145284
 20
107.0411688039
 10
156.5730710398
 20
107.0281674916
 10
156.567168843
 20
107.0153644748
 10
156.5594312679
 20
106.9996438708
 10
156.5512978967
 20
106.9842448045
 10
156.5427728755
 20
106.9691750372
 10
156.5338603507
 20
106.9544423301
 10
156.5264538306
 20
106.9429040597
 10
156.5188023815
 20
106.9315904271
 10
156.5109064234
 20
106.9205053841
 10
156.5027663761
 20
106.9096528826
 10
156.4943826594
 20
106.8990368746
 10
156.4857560239
 20
106.8886618783
 10
156.4768885424
 20
106.8785346774
 10
156.4677826187
 20
106.8686626217
 10
156.4584406564
 20
106.8590530612
 10
156.4488650592
 20
106.8497133458
 10
156.4390569799
 20
106.8406501531
 10
156.4290125687
 20
106.8318674717
 10
156.418726725
 20
106.8233686177
 10
156.4081943483
 20
106.8151569074
 10
156.3974103378
 20
106.8072356569
  0
LWPOLYLINE
  5
3F3
100
AcDbEntity
  8
SUPERFICI
100
AcDbPolyline
 62
7
  6
CONTINUOUS
 90
34
 70
0
 10
153.03145639
 20
96.8855497608
 10
153.0278317129
 20
96.8823953724
 10
152.9954471436
 20
96.8507354721
 10
152.9664630038
 20
96.8157964937
 10
152.9409892066
 20
96.7776198133
 10
152.918912859
 20
96.7361617161
 10
152.9004743648
 20
96.6918611662
 10
152.8856839629
 20
96.644552827
 10
152.8745297061
 20
96.5944007036
 10
152.8672184781
 20
96.5423375609
 10
152.8638215412
 20
96.4884764079
 10
152.8642669452
 20
96.432703687
 10
152.8685466306
 20
96.3756121911
 10
152.8767291075
 20
96.3170399307
 10
152.8887468044
 20
96.2571496278
 10
152.9043874095
 20
96.1970210178
 10
152.9236726107
 20
96.1367787119
 10
152.9465826514
 20
96.0762995962
 10
152.9728427552
 20
96.0162915637
 10
153.0025447826
 20
95.9566624
 10
153.0355998949
 20
95.8975066827
 10
153.0714617039
 20
95.839812033
 10
153.1101333387
 20
95.7836700244
 10
153.1516148084
 20
95.7289915407
 10
153.1953541172
 20
95.6764924219
 10
153.2414093865
 20
95.626169957
 10
153.2897255767
 20
95.5780292863
 10
153.3395797412
 20
95.5327970606
 10
153.3910077355
 20
95.4905188422
 10
153.4439759826
 20
95.4511508789
 10
153.4976557597
 20
95.415284552
 10
153.5517707204
 20
95.3831169073
 10
153.6065979849
 20
95.354451529
 10
153.6621382052
 20
95.3292889511
  0
LWPOLYLINE
  5
3F4
100
AcDbEntity
  8
SUPERFICI
100
AcDbPolyline
 62
7
  6
CONTINUOUS
 90
32
 70
0
 10
157.9600553911
 20
101.2576905897
 10
157.9804872385
 20
101.2746160279
 10
158.0146446471
 20
101.3077281532
 10
158.0453297107
 20
101.3440604468
 10
158.0724240533
 20
101.3835646003
 10
158.0960432339
 20
101.4262865123
 10
158.1159278766
 20
101.4717716777
 10
158.1320677465
 20
101.5201854364
 10
158.1444714818
 20
101.5713610726
 10
158.1529077666
 20
101.6243458079
 10
158.1572994237
 20
101.6790217879
 10
158.1577229837
 20
101.7355063226
 10
158.1541775504
 20
101.7931992826
 10
158.1465948354
 20
101.8522628391
 10
158.1350440242
 20
101.9125355924
 10
158.1197302837
 20
101.9729319541
 10
158.1006304789
 20
102.033326128
 10
158.077769564
 20
102.0938454851
 10
158.0514245323
 20
102.1537839488
 10
158.0215039359
 20
102.2132340713
 10
157.9881020831
 20
102.2721057554
 10
157.9517740493
 20
102.3294184962
 10
157.9125178256
 20
102.3850816375
 10
157.870338393
 20
102.4391883834
 10
157.8258004125
 20
102.4910332687
 10
157.7788463828
 20
102.5406195122
 10
157.7295367424
 20
102.5879463961
 10
157.6786118964
 20
102.6323015708
 10
157.6260358947
 20
102.6736393968
 10
157.5718468767
 20
102.712007363
 10
157.5168948145
 20
102.7468314949
 10
157.4614629352
 20
102.7779203831
  0
LWPOLYLINE
  5
3F5
100
AcDbEntity
  8
0
100
AcDbPolyline
 62
7
  6
CONTINUOUS
 90
12
 70
0
 10
153.0314414751
 20
96.8855679504
 10
153.0462234976
 20
96.8976926598
 10
153.092481597
 20
96.9292034715
 10
153.1432270072
 20
96.954535118
 10
153.1982783675
 20
96.9737966158
 10
153.2561966762
 20
96.9865839889
 10
153.3169330215
 20
96.9927405411
 10
153.3805413357
 20
96.9924269189
 10
153.4457335393
 20
96.9857124872
 10
153.5120804969
 20
96.9726205399
 10
153.5800140923
 20
96.953129966
 10
153.6495362982
 20
96.9272423509
  0
LWPOLYLINE
  5
3F6
100
AcDbEntity
  8
ASSI
100
AcDbPolyline
 62
7
  6
CONTINUOUS
 90
12
 70
0
 10
153.0314414751
 20
96.8855679504
 10
153.0462234976
 20
96.8976926598
 10
153.092481597
 20
96.9292034715
 10
153.1432270072
 20
96.954535118
 10
153.1982783675
 20
96.9737966158
 10
153.2561966762
 20
96.9865839889
 10
153.3169330215
 20
96.9927405411
 10
153.3805413357
 20
96.9924269189
 10
153.4457335393
 20
96.9857124872
 10
153.5120804969
 20
96.9726205399
 10
153.5800140923
 20
96.953129966
 10
153.6495362982
 20
96.9272423509
  0
LINE
  5
3F7
100
AcDbEntity
  8
SUPERFICI
100
AcDbLine
 62
7
  6
CONTINUOUS
 10
153.0630415824
 20
96.9102091691
 11
153.03145639
 21
96.8855497608
  0
LINE
  5
3F8
100
AcDbEntity
  8
ASSI
100
AcDbLine
 62
253
  6
CONTINUOUS
 10
160.8030742989
 20
117.8004812466
 11
160.803074287
 21
117.7895759786
  0
LINE
  5
3F9
100
AcDbEntity
  8
0
100
AcDbLine
 62
253
  6
CONTINUOUS
 10
160.8030742989
 20
117.8004812466
 11
160.803074287
 21
117.7895759786
  0
LINE
  5
3FA
100
AcDbEntity
  8
ASSI
100
AcDbLine
 62
7
  6
CONTINUOUS
 10
160.8024053865
 20
117.7895759793
 11
160.8030742989
 21
117.8004812466
  0
LINE
  5
3FB
100
AcDbEntity
  8
0
100
AcDbLine
 62
7
  6
CONTINUOUS
 10
160.8024053865
 20
117.7895759793
 11
160.8030742989
 21
117.8004812466
  0
LWPOLYLINE
  5
3FC
100
AcDbEntity
  8
0
100
AcDbPolyline
 62
253
  6
CONTINUOUS
 90
35
 70
0
 10
157.1569059545
 20
88.1765251649
 10
157.1548193544
 20
88.1533125998
 10
157.1522456621
 20
88.130381085
 10
157.1491917407
 20
88.1077237428
 10
157.1456644533
 20
88.0853336954
 10
157.1416706629
 20
88.063204065
 10
157.1372171611
 20
88.041330413
 10
157.1323104534
 20
88.0197180578
 10
157.126956974
 20
87.9983747572
 10
157.1211631569
 20
87.9773082689
 10
157.1149354362
 20
87.9565263506
 10
157.1082798509
 20
87.9360360246
 10
157.10120086
 20
87.9158413714
 10
157.0937025274
 20
87.895945736
 10
157.0857889169
 20
87.8763524635
 10
157.0774640924
 20
87.8570648989
 10
157.0664856899
 20
87.8333913568
 10
157.0548772923
 20
87.8102127391
 10
157.0426450766
 20
87.7875410753
 10
157.0297952197
 20
87.7653883946
 10
157.0190743274
 20
87.7480479564
 10
157.007962524
 20
87.7310532547
 10
156.9964602353
 20
87.7144101776
 10
156.9845678874
 20
87.6981246138
 10
156.9722859063
 20
87.6822024516
 10
156.9596152628
 20
87.6666504882
 10
156.9465591081
 20
87.6514791557
 10
156.9331211384
 20
87.636699795
 10
156.9193050499
 20
87.6223237469
 10
156.9051145386
 20
87.6083623523
 10
156.8905513512
 20
87.5948258624
 10
156.8756094365
 20
87.5817201698
 10
156.8602807937
 20
87.5690500775
 10
156.8445574218
 20
87.5568203886
 10
156.8284313202
 20
87.545035906
  0
LINE
  5
3FD
100
AcDbEntity
  8
ASSI
100
AcDbLine
 62
7
  6
CONTINUOUS
 10
160.8642265544
 20
118.2274819571
 11
160.8030742989
 21
117.8004812466
  0
LINE
  5
3FE
100
AcDbEntity
  8
0
100
AcDbLine
 62
7
  6
CONTINUOUS
 10
160.8642265544
 20
118.2274819571
 11
160.8030742989
 21
117.8004812466
  0
LWPOLYLINE
  5
3FF
100
AcDbEntity
  8
0
100
AcDbPolyline
 62
253
  6
CONTINUOUS
 90
11
 70
0
 10
129.2573905866
 20
127.3089662463
 10
129.2206047616
 20
127.3274878981
 10
129.1872134498
 20
127.3478234218
 10
129.1575404103
 20
127.369775646
 10
129.1318733504
 20
127.3931317236
 10
129.1104611358
 20
127.4176651962
 10
129.0935113776
 20
127.4431381894
 10
129.081188419
 20
127.469303719
 10
129.0736117426
 20
127.4959080863
 10
129.070854811
 20
127.5226933377
 10
129.0708935539
 20
127.5283935691
  0
LWPOLYLINE
  5
400
100
AcDbEntity
  8
ASSI
100
AcDbPolyline
 62
253
  6
CONTINUOUS
 90
11
 70
0
 10
129.2573905866
 20
127.3089662463
 10
129.2206047616
 20
127.3274878981
 10
129.1872134498
 20
127.3478234218
 10
129.1575404103
 20
127.369775646
 10
129.1318733504
 20
127.3931317236
 10
129.1104611358
 20
127.4176651962
 10
129.0935113776
 20
127.4431381894
 10
129.081188419
 20
127.469303719
 10
129.0736117426
 20
127.4959080863
 10
129.070854811
 20
127.5226933377
 10
129.0708935539
 20
127.5283935691
  0
LWPOLYLINE
  5
401
100
AcDbEntity
  8
0
100
AcDbPolyline
 62
253
  6
CONTINUOUS
 90
23
 70
0
 10
156.4233840649
 20
110.3032753243
 10
156.4431493454
 20
110.2836269938
 10
156.4627534809
 20
110.2637606258
 10
156.4821887715
 20
110.2436832889
 10
156.5014475171
 20
110.2234020519
 10
156.5205220177
 20
110.2029239832
 10
156.5394045731
 20
110.1822561517
 10
156.5580874835
 20
110.161405626
 10
156.5765630486
 20
110.1403794748
 10
156.5962469793
 20
110.1175156255
 10
156.6156787416
 20
110.0944601517
 10
156.6348562492
 20
110.0712174481
 10
156.6537774157
 20
110.0477919096
 10
156.6724401548
 20
110.024187931
 10
156.69084238
 20
110.0004099073
 10
156.7089820051
 20
109.9764622332
 10
156.7268569435
 20
109.9523493036
 10
156.7444651091
 20
109.9280755133
 10
156.7618044154
 20
109.9036452572
 10
156.778872776
 20
109.8790629301
 10
156.7956681046
 20
109.8543329269
 10
156.8121883148
 20
109.8294596425
 10
156.8284313202
 20
109.8044474716
  0
LWPOLYLINE
  5
402
100
AcDbEntity
  8
0
100
AcDbPolyline
 62
253
  6
CONTINUOUS
 90
35
 70
0
 10
156.828431791
 20
109.8044477103
 10
156.8445368006
 20
109.7789791807
 10
156.8602401916
 20
109.7533707752
 10
156.8755497375
 20
109.7276214114
 10
156.8904732116
 20
109.7017300069
 10
156.9050183873
 20
109.6756954793
 10
156.9191912332
 20
109.6495191537
 10
156.9329904979
 20
109.6232119841
 10
156.946413125
 20
109.5967873321
 10
156.9594560584
 20
109.5702585592
 10
156.9721162415
 20
109.543639027
 10
156.9843909915
 20
109.5169410023
 10
156.9962791182
 20
109.4901723739
 10
157.0077798046
 20
109.4633399359
 10
157.018892234
 20
109.4364504822
 10
157.0296155894
 20
109.409510807
 10
157.0424706098
 20
109.3757766217
 10
157.0547100652
 20
109.341991944
 10
157.066327595
 20
109.3081741371
 10
157.0773168389
 20
109.274340564
 10
157.0856514404
 20
109.2472735791
 10
157.093575692
 20
109.2202138491
 10
157.1010854173
 20
109.1931676071
 10
157.1081764401
 20
109.1661410862
 10
157.1148445841
 20
109.1391405193
 10
157.12108523
 20
109.1121735412
 10
157.1268919851
 20
109.0852533936
 10
157.1322580136
 20
109.05839472
 10
157.1371764798
 20
109.0316121639
 10
157.1416405478
 20
109.0049203687
 10
157.1456433891
 20
108.9783311582
 10
157.1491782045
 20
108.9518450773
 10
157.1522382019
 20
108.9254598511
 10
157.1548165893
 20
108.8991732047
 10
157.1569065746
 20
108.8729828634
  0
LINE
  5
403
100
AcDbEntity
  8
ASSI
100
AcDbLine
 62
7
  6
CONTINUOUS
 10
160.8642265544
 20
118.2274819571
 11
160.8703238202
 21
117.7001952631
  0
LINE
  5
404
100
AcDbEntity
  8
0
100
AcDbLine
 62
7
  6
CONTINUOUS
 10
160.8642265544
 20
118.2274819571
 11
160.8703238202
 21
117.7001952631
  0
LWPOLYLINE
  5
405
100
AcDbEntity
  8
SUPERFICI
100
AcDbPolyline
 62
7
  6
CONTINUOUS
 90
32
 70
0
 10
157.9682853216
 20
93.8920644042
 10
157.9881680755
 20
93.9085453779
 10
158.0216169224
 20
93.941076079
 10
158.0515644358
 20
93.9768042705
 10
158.0778934799
 20
94.0156828383
 10
158.1007182719
 20
94.0577564196
 10
158.1197879176
 20
94.1025767338
 10
158.1350894246
 20
94.1503072449
 10
158.1466339963
 20
94.2007829716
 10
158.1542067382
 20
94.2530627245
 10
158.157732431
 20
94.3070300021
 10
158.1572853852
 20
94.3628005473
 10
158.15287484
 20
94.4197814084
 10
158.144430507
 20
94.4781324013
 10
158.1320233102
 20
94.5376942663
 10
158.115874177
 20
94.5973953352
 10
158.0959622326
 20
94.6571114399
 10
158.0723099771
 20
94.7169681489
 10
158.0452031381
 20
94.7762681808
 10
158.0145495684
 20
94.8351033636
 10
157.980444177
 20
94.8933842267
 10
157.9434527849
 20
94.9501411247
 10
157.9035747846
 20
95.0052849169
 10
157.8608137891
 20
95.0589072956
 10
157.8157411161
 20
95.1103091564
 10
157.7682995332
 20
95.1594942138
 10
157.718549345
 20
95.2064613434
 10
157.6672370585
 20
95.2505032345
 10
157.6143139416
 20
95.2915818711
 10
157.5598311307
 20
95.3297372771
 10
157.5046833519
 20
95.3643778612
 10
157.4491687745
 20
95.3953063547
  0
LWPOLYLINE
  5
406
100
AcDbEntity
  8
0
100
AcDbPolyline
 62
253
  6
CONTINUOUS
 90
35
 70
0
 10
154.321130873
 20
91.8871791361
 10
154.3051549805
 20
91.8755161881
 10
154.2895770939
 20
91.863406194
 10
154.2743894283
 20
91.850854214
 10
154.2595841985
 20
91.8378653084
 10
154.2451536198
 20
91.8244445374
 10
154.2310916972
 20
91.8105978452
 10
154.2173995969
 20
91.7963347115
 10
154.2040802752
 20
91.7816655002
 10
154.1911366883
 20
91.7666005749
 10
154.1785717926
 20
91.7511502994
 10
154.1663881721
 20
91.7353242885
 10
154.1545869224
 20
91.7191291615
 10
154.143168767
 20
91.7025707887
 10
154.1321344294
 20
91.6856550403
 10
154.1214846329
 20
91.6683877867
 10
154.1087150342
 20
91.6463183874
 10
154.0965535278
 20
91.6237205714
 10
154.0850062298
 20
91.6006059767
 10
154.0740792566
 20
91.5769862412
 10
154.0657885717
 20
91.5577340305
 10
154.0579028395
 20
91.5381686873
 10
154.0504260904
 20
91.5182929206
 10
154.0433623548
 20
91.4981094398
 10
154.0367156632
 20
91.477620954
 10
154.0304904879
 20
91.4568311611
 10
154.0246930693
 20
91.4357477123
 10
154.0193300896
 20
91.4143792475
 10
154.0144082312
 20
91.3927344066
 10
154.0099341763
 20
91.3708218294
 10
154.0059145934
 20
91.3486474796
 10
154.0023560964
 20
91.3262066166
 10
153.9992652851
 20
91.3034918238
 10
153.9966487597
 20
91.2804956844
 10
153.9945131202
 20
91.2572107818
  0
LWPOLYLINE
  5
407
100
AcDbEntity
  8
0
100
AcDbPolyline
 62
7
  6
CONTINUOUS
 90
10
 70
0
 10
157.9682873237
 20
93.8920620071
 10
157.9213938348
 20
93.8600103225
 10
157.8690502757
 20
93.8333779563
 10
157.8122988827
 20
93.8127302615
 10
157.7526284475
 20
93.7985121612
 10
157.69009389
 20
93.790885756
 10
157.6246447525
 20
93.789692719
 10
157.55760846
 20
93.7948945454
 10
157.4894275726
 20
93.8064784682
 10
157.4196618095
 20
93.8244591633
  0
LWPOLYLINE
  5
408
100
AcDbEntity
  8
ASSI
100
AcDbPolyline
 62
7
  6
CONTINUOUS
 90
10
 70
0
 10
157.9682873237
 20
93.8920620071
 10
157.9213938348
 20
93.8600103225
 10
157.8690502757
 20
93.8333779563
 10
157.8122988827
 20
93.8127302615
 10
157.7526284475
 20
93.7985121612
 10
157.69009389
 20
93.790885756
 10
157.6246447525
 20
93.789692719
 10
157.55760846
 20
93.7948945454
 10
157.4894275726
 20
93.8064784682
 10
157.4196618095
 20
93.8244591633
  0
LWPOLYLINE
  5
409
100
AcDbEntity
  8
0
100
AcDbPolyline
 62
253
  6
CONTINUOUS
 90
55
 70
0
 10
154.3211313336
 20
91.8871785432
 10
154.3536922846
 20
91.9091069398
 10
154.3873461245
 20
91.9296176095
 10
154.4220756215
 20
91.948690874
 10
154.4578635435
 20
91.966307055
 10
154.4946926585
 20
91.9824464742
 10
154.5325457347
 20
91.9970894535
 10
154.57140554
 20
92.0102163144
 10
154.6112454045
 20
92.0218096598
 10
154.6520009063
 20
92.0318612168
 10
154.6935981858
 20
92.0403649932
 10
154.735963383
 20
92.0473149973
 10
154.7790226383
 20
92.0527052371
 10
154.8227020917
 20
92.0565297206
 10
154.8669278836
 20
92.0587824558
 10
154.9116358601
 20
92.0594602045
 10
154.9568006912
 20
92.0585707428
 10
155.0024067526
 20
92.0561246004
 10
155.0484384205
 20
92.0521323072
 10
155.0948800706
 20
92.0466043928
 10
155.1417160789
 20
92.0395513871
 10
155.1889308213
 20
92.0309838197
 10
155.2444640344
 20
92.0190881932
 10
155.3004157505
 20
92.0051624839
 10
155.3567102393
 20
91.9892237637
 10
155.4132717707
 20
91.9712891042
 10
155.4700246146
 20
91.9513755771
 10
155.5268930408
 20
91.9295002543
 10
155.5838024052
 20
91.9056842059
 10
155.6406824079
 20
91.8799644961
 10
155.6974638349
 20
91.8523821873
 10
155.7540774725
 20
91.822978342
 10
155.8104541065
 20
91.791794023
 10
155.8665245232
 20
91.7588702926
 10
155.9142929873
 20
91.7292926917
 10
155.9617678155
 20
91.6984694397
 10
156.0089311987
 20
91.6664026518
 10
156.0557653281
 20
91.6330944432
 10
156.1022523948
 20
91.5985469291
 10
156.1483745897
 20
91.5627622249
 10
156.1941141041
 20
91.5257424458
 10
156.2394429298
 20
91.4875009321
 10
156.2842922624
 20
91.448095924
 10
156.3285830983
 20
91.4075968872
 10
156.3722364338
 20
91.3660732869
 10
156.4151732655
 20
91.3235945885
 10
156.4573145897
 20
91.2802302576
 10
156.4985814029
 20
91.2360497594
 10
156.5389048838
 20
91.191116664
 10
156.578256941
 20
91.14547096
 10
156.6166196654
 20
91.0991467407
 10
156.6539751481
 20
91.0521780994
 10
156.6903054799
 20
91.0045991292
 10
156.7255927518
 20
90.9564439235
 10
156.7598190548
 20
90.9077465755
  0
LWPOLYLINE
  5
40A
100
AcDbEntity
  8
0
100
AcDbPolyline
 62
253
  6
CONTINUOUS
 90
55
 70
0
 10
154.6895112314
 20
91.4141635382
 10
154.712396246
 20
91.4295794214
 10
154.7360448914
 20
91.4439956999
 10
154.7604438342
 20
91.4573991637
 10
154.7855797411
 20
91.469776603
 10
154.8114392787
 20
91.481114808
 10
154.8380091136
 20
91.4914005688
 10
154.8652759125
 20
91.5006206757
 10
154.8932201368
 20
91.508763521
 10
154.9217974273
 20
91.5158239061
 10
154.9509572195
 20
91.5217982348
 10
154.980648949
 20
91.5266829106
 10
155.0108220515
 20
91.5304743373
 10
155.0414259624
 20
91.5331689185
 10
155.0724101175
 20
91.5347630579
 10
155.103730589
 20
91.5352549185
 10
155.1353699971
 20
91.5346497012
 10
155.1673175986
 20
91.5329543662
 10
155.1995626504
 20
91.5301758737
 10
155.2320944094
 20
91.526321184
 10
155.2649021323
 20
91.5213972573
 10
155.2979750762
 20
91.5154110538
 10
155.3368748654
 20
91.507094043
 10
155.3760668317
 20
91.4973529262
 10
155.4154967796
 20
91.4862000002
 10
155.4551105137
 20
91.4736475619
 10
155.4948538385
 20
91.4597079085
 10
155.5346725586
 20
91.4443933367
 10
155.5745135538
 20
91.427718883
 10
155.6143280045
 20
91.4097105416
 10
155.6540681665
 20
91.3903970459
 10
155.6936862957
 20
91.3698071297
 10
155.7331346478
 20
91.3479695263
 10
155.7723654784
 20
91.3249129695
 10
155.8057856078
 20
91.304198946
 10
155.8389989219
 20
91.2826114483
 10
155.8719934943
 20
91.2601514495
 10
155.9047573989
 20
91.2368199227
 10
155.9372787092
 20
91.2126178409
 10
155.969545499
 20
91.1875461773
 10
156.001545842
 20
91.161605905
 10
156.0332605438
 20
91.134805968
 10
156.0646413378
 20
91.1071871947
 10
156.0956326891
 20
91.0787983845
 10
156.1261790632
 20
91.0496883367
 10
156.1562249251
 20
91.0199058507
 10
156.1857147402
 20
90.9894997258
 10
156.2145929736
 20
90.9585187614
 10
156.2428112601
 20
90.9270076082
 10
156.2703499113
 20
90.894994323
 10
156.2971964084
 20
90.8625028137
 10
156.3233382325
 20
90.8295569884
 10
156.3487628646
 20
90.7961807552
 10
156.373457786
 20
90.7623980221
 10
156.3974104777
 20
90.7282326972
  0
LWPOLYLINE
  5
40B
100
AcDbEntity
  8
ASSI
100
AcDbPolyline
 62
253
  6
CONTINUOUS
 90
16
 70
0
 10
164.5282797724
 20
113.1433904785
 10
164.5716088089
 20
113.1297360236
 10
164.6170235669
 20
113.1184209924
 10
164.6640837175
 20
113.1095550923
 10
164.7123329786
 20
113.1032242848
 10
164.7613035385
 20
113.0994899514
 10
164.8105205924
 20
113.098388299
 10
164.8595069453
 20
113.0999300088
 10
164.9077876391
 20
113.1041001331
 10
164.9548945577
 20
113.1108582392
 10
165.0003709653
 20
113.1201388026
 10
165.0437759353
 20
113.1318518414
 10
165.0846886252
 20
113.1458837893
 10
165.1227123569
 20
113.1620985963
 10
165.1574784628
 20
113.1803390483
 10
165.1886498603
 20
113.2004282908
  0
LWPOLYLINE
  5
40C
100
AcDbEntity
  8
0
100
AcDbPolyline
 62
253
  6
CONTINUOUS
 90
16
 70
0
 10
164.5282797724
 20
113.1433904785
 10
164.5716088089
 20
113.1297360236
 10
164.6170235669
 20
113.1184209924
 10
164.6640837175
 20
113.1095550923
 10
164.7123329786
 20
113.1032242848
 10
164.7613035385
 20
113.0994899514
 10
164.8105205924
 20
113.098388299
 10
164.8595069453
 20
113.0999300088
 10
164.9077876391
 20
113.1041001331
 10
164.9548945577
 20
113.1108582392
 10
165.0003709653
 20
113.1201388026
 10
165.0437759353
 20
113.1318518414
 10
165.0846886252
 20
113.1458837893
 10
165.1227123569
 20
113.1620985963
 10
165.1574784628
 20
113.1803390483
 10
165.1886498603
 20
113.2004282908
  0
LWPOLYLINE
  5
40D
100
AcDbEntity
  8
0
100
AcDbPolyline
 62
253
  6
CONTINUOUS
 90
16
 70
0
 10
146.3431043892
 20
120.4469668876
 10
146.3864334257
 20
120.4333124327
 10
146.4318481837
 20
120.4219974015
 10
146.4789083343
 20
120.4131315014
 10
146.5271575953
 20
120.4068006939
 10
146.5761281553
 20
120.4030663605
 10
146.6253452092
 20
120.4019647081
 10
146.6743315621
 20
120.4035064179
 10
146.7226122559
 20
120.4076765421
 10
146.7697191745
 20
120.4144346483
 10
146.8151955821
 20
120.4237152117
 10
146.8586005521
 20
120.4354282505
 10
146.899513242
 20
120.4494601984
 10
146.9375369737
 20
120.4656750054
 10
146.9723030795
 20
120.4839154574
 10
147.0034744771
 20
120.5040046999
  0
LWPOLYLINE
  5
40E
100
AcDbEntity
  8
ASSI
100
AcDbPolyline
 62
253
  6
CONTINUOUS
 90
16
 70
0
 10
146.3431043892
 20
120.4469668876
 10
146.3864334257
 20
120.4333124327
 10
146.4318481837
 20
120.4219974015
 10
146.4789083343
 20
120.4131315014
 10
146.5271575953
 20
120.4068006939
 10
146.5761281553
 20
120.4030663605
 10
146.6253452092
 20
120.4019647081
 10
146.6743315621
 20
120.4035064179
 10
146.7226122559
 20
120.4076765421
 10
146.7697191745
 20
120.4144346483
 10
146.8151955821
 20
120.4237152117
 10
146.8586005521
 20
120.4354282505
 10
146.899513242
 20
120.4494601984
 10
146.9375369737
 20
120.4656750054
 10
146.9723030795
 20
120.4839154574
 10
147.0034744771
 20
120.5040046999
  0
LINE
  5
40F
100
AcDbEntity
  8
ASSI
100
AcDbLine
 62
253
  6
CONTINUOUS
 10
164.5282731444
 20
113.1433846197
 11
163.9496691827
 21
113.3442581619
  0
LINE
  5
410
100
AcDbEntity
  8
0
100
AcDbLine
 62
253
  6
CONTINUOUS
 10
164.5282731444
 20
113.1433846197
 11
163.9496691827
 21
113.3442581619
  0
LINE
  5
411
100
AcDbEntity
  8
0
100
AcDbLine
 62
253
  6
CONTINUOUS
 10
146.3430977612
 20
120.4469610287
 11
145.7644937995
 21
120.647834571
  0
LINE
  5
412
100
AcDbEntity
  8
ASSI
100
AcDbLine
 62
253
  6
CONTINUOUS
 10
146.3430977612
 20
120.4469610287
 11
145.7644937995
 21
120.647834571
  0
LINE
  5
413
100
AcDbEntity
  8
ASSI
100
AcDbLine
 62
253
  6
CONTINUOUS
 10
163.9496691827
 20
113.3442581619
 11
163.0203869924
 21
113.6713773969
  0
LINE
  5
414
100
AcDbEntity
  8
0
100
AcDbLine
 62
253
  6
CONTINUOUS
 10
163.9496691827
 20
113.3442581619
 11
163.0203869924
 21
113.6713773969
  0
LINE
  5
415
100
AcDbEntity
  8
0
100
AcDbLine
 62
253
  6
CONTINUOUS
 10
145.7644937995
 20
120.647834571
 11
144.8352116092
 21
120.974953806
  0
LINE
  5
416
100
AcDbEntity
  8
ASSI
100
AcDbLine
 62
253
  6
CONTINUOUS
 10
145.7644937995
 20
120.647834571
 11
144.8352116092
 21
120.974953806
  0
LWPOLYLINE
  5
417
100
AcDbEntity
  8
ASSI
100
AcDbPolyline
 62
253
  6
CONTINUOUS
 90
28
 70
0
 10
163.0203869924
 20
113.6713773969
 10
162.2248288426
 20
113.9551944736
 10
161.6536104503
 20
114.1615776974
 10
161.0838249097
 20
114.3694831516
 10
160.515299621
 20
114.5789763526
 10
159.948230576
 20
114.7899877341
 10
159.3827808266
 20
115.0024574945
 10
158.818998288
 20
115.2163674952
 10
158.2568545386
 20
115.4317283475
 10
157.6963964749
 20
115.6485219406
 10
157.1375569146
 20
115.866774429
 10
156.5804224429
 20
116.0864520733
 10
156.0252678578
 20
116.3074446378
 10
155.4724563007
 20
116.5296022576
 10
154.9216362199
 20
116.7530608973
 10
154.3720152265
 20
116.9781430044
 10
153.8246427597
 20
117.2044173954
 10
153.2784908797
 20
117.4323094818
 10
152.7296954185
 20
117.663461636
 10
152.1792260621
 20
117.8975083298
 10
151.6262110104
 20
118.1348680289
 10
151.0641275264
 20
118.3784388067
 10
150.4929079581
 20
118.6283814774
 10
149.9128684947
 20
118.8846981069
 10
149.3181974358
 20
119.1501491928
 10
148.7071226597
 20
119.4257667223
 10
148.0818401514
 20
119.7108003843
 10
147.4425659683
 20
120.0053898247
  0
LWPOLYLINE
  5
418
100
AcDbEntity
  8
0
100
AcDbPolyline
 62
253
  6
CONTINUOUS
 90
28
 70
0
 10
163.0203869924
 20
113.6713773969
 10
162.2248288426
 20
113.9551944736
 10
161.6536104503
 20
114.1615776974
 10
161.0838249097
 20
114.3694831516
 10
160.515299621
 20
114.5789763526
 10
159.948230576
 20
114.7899877341
 10
159.3827808266
 20
115.0024574945
 10
158.818998288
 20
115.2163674952
 10
158.2568545386
 20
115.4317283475
 10
157.6963964749
 20
115.6485219406
 10
157.1375569146
 20
115.866774429
 10
156.5804224429
 20
116.0864520733
 10
156.0252678578
 20
116.3074446378
 10
155.4724563007
 20
116.5296022576
 10
154.9216362199
 20
116.7530608973
 10
154.3720152265
 20
116.9781430044
 10
153.8246427597
 20
117.2044173954
 10
153.2784908797
 20
117.4323094818
 10
152.7296954185
 20
117.663461636
 10
152.1792260621
 20
117.8975083298
 10
151.6262110104
 20
118.1348680289
 10
151.0641275264
 20
118.3784388067
 10
150.4929079581
 20
118.6283814774
 10
149.9128684947
 20
118.8846981069
 10
149.3181974358
 20
119.1501491928
 10
148.7071226597
 20
119.4257667223
 10
148.0818401514
 20
119.7108003843
 10
147.4425659683
 20
120.0053898247
  0
LWPOLYLINE
  5
419
100
AcDbEntity
  8
0
100
AcDbPolyline
 62
253
  6
CONTINUOUS
 90
28
 70
0
 10
144.8352116092
 20
120.974953806
 10
144.0396534594
 20
121.2587708827
 10
143.4684350671
 20
121.4651541065
 10
142.8986495265
 20
121.6730595607
 10
142.3301242378
 20
121.8825527616
 10
141.7630551927
 20
122.0935641432
 10
141.1976054434
 20
122.3060339036
 10
140.6338229048
 20
122.5199439043
 10
140.0716791553
 20
122.7353047566
 10
139.5112210917
 20
122.9520983497
 10
138.9523815314
 20
123.1703508381
 10
138.3952470597
 20
123.3900284824
 10
137.8400924746
 20
123.6110210469
 10
137.2872809175
 20
123.8331786667
 10
136.7364608367
 20
124.0566373064
 10
136.1868398433
 20
124.2817194135
 10
135.6394673764
 20
124.5079938045
 10
135.0933154964
 20
124.7358858909
 10
134.5445200353
 20
124.9670380451
 10
133.9940506789
 20
125.2010847389
 10
133.4410356272
 20
125.438444438
 10
132.8789521432
 20
125.6820152158
 10
132.3077325749
 20
125.9319578865
 10
131.7276931115
 20
126.188274516
 10
131.1330220526
 20
126.4537256019
 10
130.5219472765
 20
126.7293431314
 10
129.8966647682
 20
127.0143767934
 10
129.2573905851
 20
127.3089662338
  0
LWPOLYLINE
  5
41A
100
AcDbEntity
  8
ASSI
100
AcDbPolyline
 62
253
  6
CONTINUOUS
 90
28
 70
0
 10
144.8352116092
 20
120.974953806
 10
144.0396534594
 20
121.2587708827
 10
143.4684350671
 20
121.4651541065
 10
142.8986495265
 20
121.6730595607
 10
142.3301242378
 20
121.8825527616
 10
141.7630551927
 20
122.0935641432
 10
141.1976054434
 20
122.3060339036
 10
140.6338229048
 20
122.5199439043
 10
140.0716791553
 20
122.7353047566
 10
139.5112210917
 20
122.9520983497
 10
138.9523815314
 20
123.1703508381
 10
138.3952470597
 20
123.3900284824
 10
137.8400924746
 20
123.6110210469
 10
137.2872809175
 20
123.8331786667
 10
136.7364608367
 20
124.0566373064
 10
136.1868398433
 20
124.2817194135
 10
135.6394673764
 20
124.5079938045
 10
135.0933154964
 20
124.7358858909
 10
134.5445200353
 20
124.9670380451
 10
133.9940506789
 20
125.2010847389
 10
133.4410356272
 20
125.438444438
 10
132.8789521432
 20
125.6820152158
 10
132.3077325749
 20
125.9319578865
 10
131.7276931115
 20
126.188274516
 10
131.1330220526
 20
126.4537256019
 10
130.5219472765
 20
126.7293431314
 10
129.8966647682
 20
127.0143767934
 10
129.2573905851
 20
127.3089662338
  0
LWPOLYLINE
  5
41B
100
AcDbEntity
  8
ASSI
100
AcDbPolyline
 62
253
  6
CONTINUOUS
 90
11
 70
0
 10
147.4425659698
 20
120.0053898372
 10
147.4057801449
 20
120.023911489
 10
147.372388833
 20
120.0442470127
 10
147.3427157935
 20
120.0661992369
 10
147.3170487336
 20
120.0895553145
 10
147.2956365191
 20
120.1140887872
 10
147.2786867608
 20
120.1395617803
 10
147.2663638022
 20
120.1657273099
 10
147.2587871258
 20
120.1923316772
 10
147.2560301942
 20
120.2191169286
 10
147.2560689371
 20
120.22481716
  0
LWPOLYLINE
  5
41C
100
AcDbEntity
  8
0
100
AcDbPolyline
 62
253
  6
CONTINUOUS
 90
11
 70
0
 10
147.4425659698
 20
120.0053898372
 10
147.4057801449
 20
120.023911489
 10
147.372388833
 20
120.0442470127
 10
147.3427157935
 20
120.0661992369
 10
147.3170487336
 20
120.0895553145
 10
147.2956365191
 20
120.1140887872
 10
147.2786867608
 20
120.1395617803
 10
147.2663638022
 20
120.1657273099
 10
147.2587871258
 20
120.1923316772
 10
147.2560301942
 20
120.2191169286
 10
147.2560689371
 20
120.22481716
  0
LWPOLYLINE
  5
41D
100
AcDbEntity
  8
0
100
AcDbPolyline
 62
253
  6
CONTINUOUS
 90
16
 70
0
 10
164.9216158804
 20
95.3044334959
 10
164.9191978376
 20
95.3474441659
 10
164.9124758724
 20
95.3919710293
 10
164.9014794805
 20
95.4375458951
 10
164.8862667906
 20
95.4837321079
 10
164.8669732261
 20
95.5299758751
 10
164.843854476
 20
95.5756154779
 10
164.8171984465
 20
95.6200964176
 10
164.7872726778
 20
95.6629842592
 10
164.7543972736
 20
95.7038174754
 10
164.7189250999
 20
95.7421516471
 10
164.6812499925
 20
95.7775554695
 10
164.6417959758
 20
95.8096284294
 10
164.6010011465
 20
95.8380150004
 10
164.559311105
 20
95.8624057077
 10
164.5171847825
 20
95.8825320245
  0
LWPOLYLINE
  5
41E
100
AcDbEntity
  8
ASSI
100
AcDbPolyline
 62
253
  6
CONTINUOUS
 90
16
 70
0
 10
164.9216158804
 20
95.3044334959
 10
164.9191978376
 20
95.3474441659
 10
164.9124758724
 20
95.3919710293
 10
164.9014794805
 20
95.4375458951
 10
164.8862667906
 20
95.4837321079
 10
164.8669732261
 20
95.5299758751
 10
164.843854476
 20
95.5756154779
 10
164.8171984465
 20
95.6200964176
 10
164.7872726778
 20
95.6629842592
 10
164.7543972736
 20
95.7038174754
 10
164.7189250999
 20
95.7421516471
 10
164.6812499925
 20
95.7775554695
 10
164.6417959758
 20
95.8096284294
 10
164.6010011465
 20
95.8380150004
 10
164.559311105
 20
95.8624057077
 10
164.5171847825
 20
95.8825320245
  0
LWPOLYLINE
  5
41F
100
AcDbEntity
  8
ASSI
100
AcDbPolyline
 62
253
  6
CONTINUOUS
 90
10
 70
0
 10
164.2688958257
 20
96.4373659283
 10
164.2706654956
 20
96.3951856167
 10
164.274582197
 20
96.3572652073
 10
164.2808441237
 20
96.3232764925
 10
164.2900406454
 20
96.2927968622
 10
164.3020350189
 20
96.2661592414
 10
164.3159615627
 20
96.2442631508
 10
164.3321127971
 20
96.2272391993
 10
164.3507430369
 20
96.214999355
 10
164.3617493155
 20
96.2104474484
  0
LWPOLYLINE
  5
420
100
AcDbEntity
  8
0
100
AcDbPolyline
 62
253
  6
CONTINUOUS
 90
10
 70
0
 10
164.2688958257
 20
96.4373659283
 10
164.2706654956
 20
96.3951856167
 10
164.274582197
 20
96.3572652073
 10
164.2808441237
 20
96.3232764925
 10
164.2900406454
 20
96.2927968622
 10
164.3020350189
 20
96.2661592414
 10
164.3159615627
 20
96.2442631508
 10
164.3321127971
 20
96.2272391993
 10
164.3507430369
 20
96.214999355
 10
164.3617493155
 20
96.2104474484
  0
LWPOLYLINE
  5
421
100
AcDbEntity
  8
0
100
AcDbPolyline
 62
253
  6
CONTINUOUS
 90
10
 70
0
 10
165.1886498526
 20
79.0322443302
 10
165.1331673377
 20
80.8834279602
 10
165.0843910677
 20
82.7085665113
 10
165.0423210427
 20
84.5076599833
 10
165.0072948981
 20
86.2603691417
 10
164.9789749985
 20
87.987033221
 10
164.9563484375
 20
89.7486699257
 10
164.9390775798
 20
91.5656184904
 10
164.9275000608
 20
93.4175396805
 10
164.9216158804
 20
95.3044334959
  0
LWPOLYLINE
  5
422
100
AcDbEntity
  8
ASSI
100
AcDbPolyline
 62
253
  6
CONTINUOUS
 90
10
 70
0
 10
165.1886498526
 20
79.0322443302
 10
165.1331673377
 20
80.8834279602
 10
165.0843910677
 20
82.7085665113
 10
165.0423210427
 20
84.5076599833
 10
165.0072948981
 20
86.2603691417
 10
164.9789749985
 20
87.987033221
 10
164.9563484375
 20
89.7486699257
 10
164.9390775798
 20
91.5656184904
 10
164.9275000608
 20
93.4175396805
 10
164.9216158804
 20
95.3044334959
  0
LWPOLYLINE
  5
423
100
AcDbEntity
  8
0
100
AcDbPolyline
 62
253
  6
CONTINUOUS
 90
10
 70
0
 10
164.5282731436
 20
78.9400719328
 10
164.4738716222
 20
80.7921022191
 10
164.4265943461
 20
82.6187340938
 10
164.3861326211
 20
84.419657436
 10
164.3525386517
 20
86.174198976
 10
164.3250298449
 20
87.9023279661
 10
164.3026291585
 20
89.6652009962
 10
164.285462556
 20
91.4835607378
 10
164.2741181424
 20
93.3371902856
 10
164.2688957044
 20
95.2262977958
  0
LWPOLYLINE
  5
424
100
AcDbEntity
  8
ASSI
100
AcDbPolyline
 62
253
  6
CONTINUOUS
 90
10
 70
0
 10
164.5282731436
 20
78.9400719328
 10
164.4738716222
 20
80.7921022191
 10
164.4265943461
 20
82.6187340938
 10
164.3861326211
 20
84.419657436
 10
164.3525386517
 20
86.174198976
 10
164.3250298449
 20
87.9023279661
 10
164.3026291585
 20
89.6652009962
 10
164.285462556
 20
91.4835607378
 10
164.2741181424
 20
93.3371902856
 10
164.2688957044
 20
95.2262977958
  0
LWPOLYLINE
  5
425
100
AcDbEntity
  8
ASSI
100
AcDbPolyline
 62
253
  6
CONTINUOUS
 90
10
 70
0
 10
164.9216158226
 20
96.5142594754
 10
164.9257077817
 20
98.2083808572
 10
164.9357009294
 20
99.9321551231
 10
164.9515952659
 20
101.6855822733
 10
164.9727328796
 20
103.4549003614
 10
164.999771682
 20
105.2538713338
 10
165.0346854078
 20
107.123781029
 10
165.0781319686
 20
109.0783913934
 10
165.1294534527
 20
111.1039404807
 10
165.1886498603
 20
113.2004282908
  0
LWPOLYLINE
  5
426
100
AcDbEntity
  8
0
100
AcDbPolyline
 62
253
  6
CONTINUOUS
 90
10
 70
0
 10
164.9216158226
 20
96.5142594754
 10
164.9257077817
 20
98.2083808572
 10
164.9357009294
 20
99.9321551231
 10
164.9515952659
 20
101.6855822733
 10
164.9727328796
 20
103.4549003614
 10
164.999771682
 20
105.2538713338
 10
165.0346854078
 20
107.123781029
 10
165.0781319686
 20
109.0783913934
 10
165.1294534527
 20
111.1039404807
 10
165.1886498603
 20
113.2004282908
  0
LWPOLYLINE
  5
427
100
AcDbEntity
  8
ASSI
100
AcDbPolyline
 62
253
  6
CONTINUOUS
 90
5
 70
0
 10
164.2688956944
 20
96.4373660396
 10
164.273255643
 20
98.13349541
 10
164.2828849623
 20
99.8590729486
 10
164.2980123753
 20
101.6142511542
 10
164.3186883642
 20
103.3857240931
  0
LWPOLYLINE
  5
428
100
AcDbEntity
  8
0
100
AcDbPolyline
 62
253
  6
CONTINUOUS
 90
5
 70
0
 10
164.2688956944
 20
96.4373660396
 10
164.273255643
 20
98.13349541
 10
164.2828849623
 20
99.8590729486
 10
164.2980123753
 20
101.6142511542
 10
164.3186883642
 20
103.3857240931
  0
LINE
  5
429
100
AcDbEntity
  8
ASSI
100
AcDbLine
 62
253
  6
CONTINUOUS
 10
164.3186883642
 20
103.3857240931
 11
164.3452452891
 21
105.1870352717
  0
LINE
  5
42A
100
AcDbEntity
  8
0
100
AcDbLine
 62
253
  6
CONTINUOUS
 10
164.3186883642
 20
103.3857240931
 11
164.3452452891
 21
105.1870352717
  0
LWPOLYLINE
  5
42B
100
AcDbEntity
  8
ASSI
100
AcDbPolyline
 62
253
  6
CONTINUOUS
 90
5
 70
0
 10
164.3452452891
 20
105.1870352717
 10
164.3787162808
 20
107.0589079289
 10
164.420045763
 20
109.015356966
 10
164.4696707649
 20
111.0433579302
 10
164.5282731444
 20
113.1433846197
  0
LWPOLYLINE
  5
42C
100
AcDbEntity
  8
0
100
AcDbPolyline
 62
253
  6
CONTINUOUS
 90
5
 70
0
 10
164.3452452891
 20
105.1870352717
 10
164.3787162808
 20
107.0589079289
 10
164.420045763
 20
109.015356966
 10
164.4696707649
 20
111.0433579302
 10
164.5282731444
 20
113.1433846197
  0
LWPOLYLINE
  5
42D
100
AcDbEntity
  8
0
100
AcDbPolyline
 62
253
  6
CONTINUOUS
 90
16
 70
0
 10
164.2688958838
 20
95.2262977341
 10
164.2706653204
 20
95.2709260717
 10
164.2745817653
 20
95.3169668328
 10
164.2808433755
 20
95.3642846632
 10
164.2900393953
 20
95.4129843676
 10
164.3020331302
 20
95.4628733839
 10
164.3159591337
 20
95.5130132602
 10
164.3321099488
 20
95.5624058481
 10
164.3507398279
 20
95.6108422218
 10
164.370836872
 20
95.6580566082
 10
164.3924808245
 20
95.7031796953
 10
164.415904046
 20
95.745612755
 10
164.4401533594
 20
95.7853452653
 10
164.4649168643
 20
95.8219085401
 10
164.4905871009
 20
95.8544749772
 10
164.5171847825
 20
95.8825320245
  0
LWPOLYLINE
  5
42E
100
AcDbEntity
  8
ASSI
100
AcDbPolyline
 62
253
  6
CONTINUOUS
 90
16
 70
0
 10
164.2688958838
 20
95.2262977341
 10
164.2706653204
 20
95.2709260717
 10
164.2745817653
 20
95.3169668328
 10
164.2808433755
 20
95.3642846632
 10
164.2900393953
 20
95.4129843676
 10
164.3020331302
 20
95.4628733839
 10
164.3159591337
 20
95.5130132602
 10
164.3321099488
 20
95.5624058481
 10
164.3507398279
 20
95.6108422218
 10
164.370836872
 20
95.6580566082
 10
164.3924808245
 20
95.7031796953
 10
164.415904046
 20
95.745612755
 10
164.4401533594
 20
95.7853452653
 10
164.4649168643
 20
95.8219085401
 10
164.4905871009
 20
95.8544749772
 10
164.5171847825
 20
95.8825320245
  0
LWPOLYLINE
  5
42F
100
AcDbEntity
  8
ASSI
100
AcDbPolyline
 62
253
  6
CONTINUOUS
 90
22
 70
0
 10
164.528273159
 20
113.1433846256
 10
164.5318810634
 20
113.2153501685
 10
164.5387965202
 20
113.2895568809
 10
164.5489881648
 20
113.3656372541
 10
164.5624159349
 20
113.4432062563
 10
164.5790123415
 20
113.5218870619
 10
164.5986848179
 20
113.60131366
 10
164.6213512309
 20
113.6810967794
 10
164.6469055872
 20
113.7608351572
 10
164.6752009007
 20
113.8401418504
 10
164.7061130692
 20
113.9186198385
 10
164.7395003965
 20
113.9958787687
 10
164.775171647
 20
114.0715468758
 10
164.8129699
 20
114.1452455632
 10
164.8527211999
 20
114.216604062
 10
164.8941940332
 20
114.2852764711
 10
164.9372000464
 20
114.3509131245
 10
164.9815454344
 20
114.4131874091
 10
165.0269801723
 20
114.4718091999
 10
165.073282434
 20
114.526488419
 10
165.1202591226
 20
114.5769377818
 10
165.1676974474
 20
114.6228988848
  0
LWPOLYLINE
  5
430
100
AcDbEntity
  8
0
100
AcDbPolyline
 62
253
  6
CONTINUOUS
 90
22
 70
0
 10
164.528273159
 20
113.1433846256
 10
164.5318810634
 20
113.2153501685
 10
164.5387965202
 20
113.2895568809
 10
164.5489881648
 20
113.3656372541
 10
164.5624159349
 20
113.4432062563
 10
164.5790123415
 20
113.5218870619
 10
164.5986848179
 20
113.60131366
 10
164.6213512309
 20
113.6810967794
 10
164.6469055872
 20
113.7608351572
 10
164.6752009007
 20
113.8401418504
 10
164.7061130692
 20
113.9186198385
 10
164.7395003965
 20
113.9958787687
 10
164.775171647
 20
114.0715468758
 10
164.8129699
 20
114.1452455632
 10
164.8527211999
 20
114.216604062
 10
164.8941940332
 20
114.2852764711
 10
164.9372000464
 20
114.3509131245
 10
164.9815454344
 20
114.4131874091
 10
165.0269801723
 20
114.4718091999
 10
165.073282434
 20
114.526488419
 10
165.1202591226
 20
114.5769377818
 10
165.1676974474
 20
114.6228988848
  0
LWPOLYLINE
  5
431
100
AcDbEntity
  8
ASSI
100
AcDbPolyline
 62
253
  6
CONTINUOUS
 90
22
 70
0
 10
165.1886498603
 20
113.2004282908
 10
165.190957346
 20
113.2424763906
 10
165.1952603813
 20
113.2854272678
 10
165.2015589662
 20
113.3292809225
 10
165.209903375
 20
113.374280137
 10
165.2202433335
 20
113.420182129
 10
165.2324280187
 20
113.4662585513
 10
165.2464838063
 20
113.5124939489
 10
165.2623843207
 20
113.5589037767
 10
165.2798996124
 20
113.604806052
 10
165.2990554485
 20
113.6501964374
 10
165.3198260618
 20
113.6950792704
 10
165.3419042014
 20
113.7387855805
 10
165.3653093127
 20
113.7812963248
 10
165.3900219503
 20
113.8226305462
 10
165.4156765278
 20
113.8621764027
 10
165.4423000104
 20
113.8999181422
 10
165.4698654329
 20
113.9358715168
 10
165.4979263127
 20
113.9694719417
 10
165.5263338223
 20
114.0005312219
 10
165.5552367892
 20
114.0292375524
 10
165.5846352134
 20
114.0555909332
  0
LWPOLYLINE
  5
432
100
AcDbEntity
  8
0
100
AcDbPolyline
 62
253
  6
CONTINUOUS
 90
22
 70
0
 10
165.1886498603
 20
113.2004282908
 10
165.190957346
 20
113.2424763906
 10
165.1952603813
 20
113.2854272678
 10
165.2015589662
 20
113.3292809225
 10
165.209903375
 20
113.374280137
 10
165.2202433335
 20
113.420182129
 10
165.2324280187
 20
113.4662585513
 10
165.2464838063
 20
113.5124939489
 10
165.2623843207
 20
113.5589037767
 10
165.2798996124
 20
113.604806052
 10
165.2990554485
 20
113.6501964374
 10
165.3198260618
 20
113.6950792704
 10
165.3419042014
 20
113.7387855805
 10
165.3653093127
 20
113.7812963248
 10
165.3900219503
 20
113.8226305462
 10
165.4156765278
 20
113.8621764027
 10
165.4423000104
 20
113.8999181422
 10
165.4698654329
 20
113.9358715168
 10
165.4979263127
 20
113.9694719417
 10
165.5263338223
 20
114.0005312219
 10
165.5552367892
 20
114.0292375524
 10
165.5846352134
 20
114.0555909332
  0
LWPOLYLINE
  5
433
100
AcDbEntity
  8
ASSI
100
AcDbPolyline
 62
253
  6
CONTINUOUS
 90
8
 70
0
 10
164.9216158228
 20
96.5142594756
 10
164.9191977756
 20
96.4726583532
 10
164.9124757999
 20
96.4331991831
 10
164.9014793944
 20
96.3963320966
 10
164.886266691
 20
96.3624507157
 10
164.8669731159
 20
96.3320014766
 10
164.8438543583
 20
96.3054375248
 10
164.8233109495
 20
96.2875913506
  0
LWPOLYLINE
  5
434
100
AcDbEntity
  8
0
100
AcDbPolyline
 62
253
  6
CONTINUOUS
 90
8
 70
0
 10
164.9216158228
 20
96.5142594756
 10
164.9191977756
 20
96.4726583532
 10
164.9124757999
 20
96.4331991831
 10
164.9014793944
 20
96.3963320966
 10
164.886266691
 20
96.3624507157
 10
164.8669731159
 20
96.3320014766
 10
164.8438543583
 20
96.3054375248
 10
164.8233109495
 20
96.2875913506
  0
LINE
  5
435
100
AcDbEntity
  8
0
100
AcDbLine
 62
253
  6
CONTINUOUS
 10
167.1409787029
 20
97.9478724884
 11
164.5171847827
 21
95.8825320246
  0
LINE
  5
436
100
AcDbEntity
  8
ASSI
100
AcDbLine
 62
253
  6
CONTINUOUS
 10
167.1409787029
 20
97.9478724884
 11
164.5171847827
 21
95.8825320246
  0
LINE
  5
437
100
AcDbEntity
  8
0
100
AcDbLine
 62
253
  6
CONTINUOUS
 10
167.5506015314
 20
97.3738606722
 11
164.9216158804
 21
95.3044334959
  0
LINE
  5
438
100
AcDbEntity
  8
ASSI
100
AcDbLine
 62
253
  6
CONTINUOUS
 10
167.5506015314
 20
97.3738606722
 11
164.9216158804
 21
95.3044334959
  0
LINE
  5
439
100
AcDbEntity
  8
ASSI
100
AcDbLine
 62
253
  6
CONTINUOUS
 10
164.8233109495
 20
96.2875913506
 11
164.8230192139
 21
96.2873683274
  0
LINE
  5
43A
100
AcDbEntity
  8
0
100
AcDbLine
 62
253
  6
CONTINUOUS
 10
164.8233109495
 20
96.2875913506
 11
164.8230192139
 21
96.2873683274
  0
LINE
  5
43B
100
AcDbEntity
  8
ASSI
100
AcDbLine
 62
253
  6
CONTINUOUS
 10
164.9216158226
 20
96.5142594754
 11
167.5506015314
 21
98.5205175969
  0
LINE
  5
43C
100
AcDbEntity
  8
0
100
AcDbLine
 62
253
  6
CONTINUOUS
 10
164.9216158226
 20
96.5142594754
 11
167.5506015314
 21
98.5205175969
  0
LINE
  5
43D
100
AcDbEntity
  8
ASSI
100
AcDbLine
 62
7
  6
CONTINUOUS
 10
164.8230170695
 20
96.2873666909
 11
167.4517445506
 21
98.293427751
  0
LINE
  5
43E
100
AcDbEntity
  8
0
100
AcDbLine
 62
7
  6
CONTINUOUS
 10
164.8230170695
 20
96.2873666909
 11
167.4517445506
 21
98.293427751
  0
LWPOLYLINE
  5
43F
100
AcDbEntity
  8
0
100
AcDbPolyline
 62
253
  6
CONTINUOUS
 90
35
 70
0
 10
156.4529309533
 20
88.0122181644
 10
156.4632129098
 20
88.0197295641
 10
156.4732367478
 20
88.0275242628
 10
156.4830073762
 20
88.0355986551
 10
156.4925297036
 20
88.0439491359
 10
156.5018086389
 20
88.0525720998
 10
156.5108480488
 20
88.0614635281
 10
156.5196476313
 20
88.0706177476
 10
156.5282060423
 20
88.0800286716
 10
156.5365219377
 20
88.0896902135
 10
156.5445939734
 20
88.0995962866
 10
156.5524209103
 20
88.1097411618
 10
156.5600019292
 20
88.1201205408
 10
156.5673363157
 20
88.1307304829
 10
156.5744233556
 20
88.1415670476
 10
156.5812623346
 20
88.1526262941
 10
156.5894607093
 20
88.1667575586
 10
156.5972664254
 20
88.1812232901
 10
156.6046755358
 20
88.1960161725
 10
156.611684093
 20
88.2111288896
 10
156.6169997748
 20
88.2234447478
 10
156.622053877
 20
88.2359587911
 10
156.6268437002
 20
88.2486691927
 10
156.6313665449
 20
88.2615741257
 10
156.6356197118
 20
88.2746717633
 10
156.6396002276
 20
88.2879597116
 10
156.643304023
 20
88.3014333086
 10
156.6467267547
 20
88.3150873251
 10
156.6498640793
 20
88.3289165321
 10
156.6527116538
 20
88.3429157003
 10
156.6552651117
 20
88.3570812399
 10
156.6575199941
 20
88.3714161185
 10
156.6594718191
 20
88.3859249428
 10
156.6611161047
 20
88.4006123195
 10
156.6624483691
 20
88.4154828555
  0
LWPOLYLINE
  5
440
100
AcDbEntity
  8
0
100
AcDbPolyline
 62
253
  6
CONTINUOUS
 90
16
 70
0
 10
164.9216158811
 20
95.3044334964
 10
164.8908295035
 20
95.2827883958
 10
164.8565337293
 20
95.2629609895
 10
164.8190528481
 20
95.2451387587
 10
164.7787412733
 20
95.2294902271
 10
164.7359801721
 20
95.2161633587
 10
164.6911738573
 20
95.2052841636
 10
164.6447459785
 20
95.196955512
 10
164.5971355618
 20
95.1912561666
 10
164.5487928404
 20
95.1882400239
 10
164.5001749511
 20
95.1879355995
 10
164.4517415871
 20
95.1903457664
 10
164.403950697
 20
95.1954477343
 10
164.3572541687
 20
95.203193262
 10
164.3120935564
 20
95.2135091098
 10
164.2688958838
 20
95.2262977341
  0
LWPOLYLINE
  5
441
100
AcDbEntity
  8
ASSI
100
AcDbPolyline
 62
253
  6
CONTINUOUS
 90
16
 70
0
 10
164.9216158811
 20
95.3044334964
 10
164.8908295035
 20
95.2827883958
 10
164.8565337293
 20
95.2629609895
 10
164.8190528481
 20
95.2451387587
 10
164.7787412733
 20
95.2294902271
 10
164.7359801721
 20
95.2161633587
 10
164.6911738573
 20
95.2052841636
 10
164.6447459785
 20
95.196955512
 10
164.5971355618
 20
95.1912561666
 10
164.5487928404
 20
95.1882400239
 10
164.5001749511
 20
95.1879355995
 10
164.4517415871
 20
95.1903457664
 10
164.403950697
 20
95.1954477343
 10
164.3572541687
 20
95.203193262
 10
164.3120935564
 20
95.2135091098
 10
164.2688958838
 20
95.2262977341
  0
LWPOLYLINE
  5
442
100
AcDbEntity
  8
0
100
AcDbPolyline
 62
253
  6
CONTINUOUS
 90
55
 70
0
 10
156.4529309533
 20
88.0122181644
 10
156.4299395327
 20
87.9967148434
 10
156.4061820266
 20
87.9822089342
 10
156.381672295
 20
87.9687141461
 10
156.356424198
 20
87.956244189
 10
156.3304515955
 20
87.9448127725
 10
156.3037683476
 20
87.9344336061
 10
156.2763883144
 20
87.9251203994
 10
156.2483315828
 20
87.9168852499
 10
156.2196431491
 20
87.9097338055
 10
156.1903742363
 20
87.903670102
 10
156.1605760676
 20
87.8986981751
 10
156.1302998662
 20
87.8948220605
 10
156.0995968553
 20
87.892045794
 10
156.068518258
 20
87.8903734113
 10
156.0371085286
 20
87.8898071831
 10
156.0053850461
 20
87.8903423198
 10
155.9733584205
 20
87.8919722666
 10
155.9410392619
 20
87.894690469
 10
155.9084381804
 20
87.8984903722
 10
155.8755657859
 20
87.9033654216
 10
155.8424326886
 20
87.9093090625
 10
155.8034685781
 20
87.9175847533
 10
155.7642199975
 20
87.9272932272
 10
155.7247428807
 20
87.9384217168
 10
155.6850931616
 20
87.9509574551
 10
155.6453267742
 20
87.9648876748
 10
155.6054996524
 20
87.9801996089
 10
155.5656660704
 20
87.9968779015
 10
155.5258736634
 20
88.0148968421
 10
155.4861684071
 20
88.0342281316
 10
155.4465962768
 20
88.0548434708
 10
155.4072032482
 20
88.0767145607
 10
155.3680352967
 20
88.0998131021
 10
155.3346739548
 20
88.1205700979
 10
155.3015238742
 20
88.1422067597
 10
155.2685971752
 20
88.1647217435
 10
155.2359059784
 20
88.1881137054
 10
155.2034624042
 20
88.2123813014
 10
155.1712785732
 20
88.2375231875
 10
155.1393666058
 20
88.2635380199
 10
155.1077457473
 20
88.2904164638
 10
155.0764637423
 20
88.3181172215
 10
155.0455754602
 20
88.3465910043
 10
155.0151357704
 20
88.3757885239
 10
154.9851995423
 20
88.4056604915
 10
154.9558216455
 20
88.4361576188
 10
154.9270569492
 20
88.4672306172
 10
154.898953177
 20
88.4988343474
 10
154.8715294694
 20
88.5309402682
 10
154.8447978208
 20
88.5635239873
 10
154.8187702258
 20
88.5965611126
 10
154.7934586788
 20
88.6300272521
 10
154.7688751744
 20
88.6638980137
 10
154.7450317071
 20
88.6981490054
  0
LWPOLYLINE
  5
443
100
AcDbEntity
  8
ASSI
100
AcDbPolyline
 62
253
  6
CONTINUOUS
 90
10
 70
0
 10
148.1083034526
 20
121.4743360907
 10
148.0648425619
 20
121.4886413385
 10
148.0220212372
 20
121.498451032
 10
147.9803078279
 20
121.5036578959
 10
147.9401585508
 20
121.504204998
 10
147.9020125377
 20
121.50008637
 10
147.8662870263
 20
121.4913470863
 10
147.8333727441
 20
121.4780827636
 10
147.8036296544
 20
121.4604385042
 10
147.7804679357
 20
121.4415625947
  0
LWPOLYLINE
  5
444
100
AcDbEntity
  8
0
100
AcDbPolyline
 62
253
  6
CONTINUOUS
 90
10
 70
0
 10
148.1083034526
 20
121.4743360907
 10
148.0648425619
 20
121.4886413385
 10
148.0220212372
 20
121.498451032
 10
147.9803078279
 20
121.5036578959
 10
147.9401585508
 20
121.504204998
 10
147.9020125377
 20
121.50008637
 10
147.8662870263
 20
121.4913470863
 10
147.8333727441
 20
121.4780827636
 10
147.8036296544
 20
121.4604385042
 10
147.7804679357
 20
121.4415625947
  0
LWPOLYLINE
  5
445
100
AcDbEntity
  8
0
100
AcDbPolyline
 62
253
  6
CONTINUOUS
 90
10
 70
0
 10
129.9231280694
 20
128.7779124998
 10
129.8796671787
 20
128.7922177476
 10
129.836845854
 20
128.802027441
 10
129.7951324447
 20
128.807234305
 10
129.7549831676
 20
128.8077814071
 10
129.7168371545
 20
128.8036627791
 10
129.681111643
 20
128.7949234954
 10
129.6481973608
 20
128.7816591727
 10
129.6184542712
 20
128.7640149133
 10
129.5952925525
 20
128.7451390038
  0
LWPOLYLINE
  5
446
100
AcDbEntity
  8
ASSI
100
AcDbPolyline
 62
253
  6
CONTINUOUS
 90
10
 70
0
 10
129.9231280694
 20
128.7779124998
 10
129.8796671787
 20
128.7922177476
 10
129.836845854
 20
128.802027441
 10
129.7951324447
 20
128.807234305
 10
129.7549831676
 20
128.8077814071
 10
129.7168371545
 20
128.8036627791
 10
129.681111643
 20
128.7949234954
 10
129.6481973608
 20
128.7816591727
 10
129.6184542712
 20
128.7640149133
 10
129.5952925525
 20
128.7451390038
  0
LWPOLYLINE
  5
447
100
AcDbEntity
  8
ASSI
100
AcDbPolyline
 62
253
  6
CONTINUOUS
 90
31
 70
0
 10
165.1676974475
 20
114.6228988848
 10
164.5898892088
 20
114.8221072305
 10
164.0139622813
 20
115.022767897
 10
163.439916665
 20
115.2248808846
 10
162.8679076625
 20
115.42839066
 10
162.2977799711
 20
115.6333527564
 10
161.7290676829
 20
115.8399337727
 10
161.161537006
 20
116.0482171651
 10
160.5954217321
 20
116.2581194774
 10
160.030957329
 20
116.4695569404
 10
159.4682073458
 20
116.6825074128
 10
158.9071082333
 20
116.8969930359
 10
158.3477048115
 20
117.1129964649
 10
157.7899139426
 20
117.3305523539
 10
157.2338187644
 20
117.5496260488
 10
156.6797135092
 20
117.7700962423
 10
156.1279445883
 20
117.9918207461
 10
155.5781655904
 20
118.2149417486
 10
155.0296315146
 20
118.4397645071
 10
154.4833936488
 20
118.6658173017
 10
153.9384007051
 20
118.8935718524
 10
153.3907538188
 20
119.1247485765
 10
152.8413012686
 20
119.3588957547
 10
152.2891947757
 20
119.5964651062
 10
151.7279906393
 20
119.8405322065
 10
151.157338161
 20
120.0911297504
 10
150.5775880392
 20
120.3482250431
 10
149.983348668
 20
120.6147955744
 10
149.3728228456
 20
120.8918338411
 10
148.7478077738
 20
121.1783473466
 10
148.1083034527
 20
121.4743360907
  0
LWPOLYLINE
  5
448
100
AcDbEntity
  8
0
100
AcDbPolyline
 62
253
  6
CONTINUOUS
 90
31
 70
0
 10
165.1676974475
 20
114.6228988848
 10
164.5898892088
 20
114.8221072305
 10
164.0139622813
 20
115.022767897
 10
163.439916665
 20
115.2248808846
 10
162.8679076625
 20
115.42839066
 10
162.2977799711
 20
115.6333527564
 10
161.7290676829
 20
115.8399337727
 10
161.161537006
 20
116.0482171651
 10
160.5954217321
 20
116.2581194774
 10
160.030957329
 20
116.4695569404
 10
159.4682073458
 20
116.6825074128
 10
158.9071082333
 20
116.8969930359
 10
158.3477048115
 20
117.1129964649
 10
157.7899139426
 20
117.3305523539
 10
157.2338187644
 20
117.5496260488
 10
156.6797135092
 20
117.7700962423
 10
156.1279445883
 20
117.9918207461
 10
155.5781655904
 20
118.2149417486
 10
155.0296315146
 20
118.4397645071
 10
154.4833936488
 20
118.6658173017
 10
153.9384007051
 20
118.8935718524
 10
153.3907538188
 20
119.1247485765
 10
152.8413012686
 20
119.3588957547
 10
152.2891947757
 20
119.5964651062
 10
151.7279906393
 20
119.8405322065
 10
151.157338161
 20
120.0911297504
 10
150.5775880392
 20
120.3482250431
 10
149.983348668
 20
120.6147955744
 10
149.3728228456
 20
120.8918338411
 10
148.7478077738
 20
121.1783473466
 10
148.1083034527
 20
121.4743360907
  0
LWPOLYLINE
  5
449
100
AcDbEntity
  8
0
100
AcDbPolyline
 62
253
  6
CONTINUOUS
 90
31
 70
0
 10
146.9825220643
 20
121.9264752939
 10
146.4047138256
 20
122.1256836396
 10
145.8287868981
 20
122.3263443061
 10
145.2547412818
 20
122.5284572936
 10
144.6827322793
 20
122.7319670691
 10
144.1126045879
 20
122.9369291655
 10
143.5438922997
 20
123.1435101818
 10
142.9763616227
 20
123.3517935742
 10
142.4102463489
 20
123.5616958865
 10
141.8457819458
 20
123.7731333495
 10
141.2830319626
 20
123.9860838219
 10
140.7219328501
 20
124.200569445
 10
140.1625294282
 20
124.416572874
 10
139.6047385594
 20
124.634128763
 10
139.0486433812
 20
124.8532024579
 10
138.494538126
 20
125.0736726514
 10
137.9427692051
 20
125.2953971552
 10
137.3929902071
 20
125.5185181576
 10
136.8444561313
 20
125.7433409162
 10
136.2982182656
 20
125.9693937108
 10
135.7532253219
 20
126.1971482615
 10
135.2055784356
 20
126.4283249856
 10
134.6561258854
 20
126.6624721638
 10
134.1040193925
 20
126.9000415153
 10
133.5428152561
 20
127.1441086155
 10
132.9721627778
 20
127.3947061595
 10
132.392412656
 20
127.6518014521
 10
131.7981732848
 20
127.9183719835
 10
131.1876474624
 20
128.1954102502
 10
130.5626323906
 20
128.4819237557
 10
129.9231280695
 20
128.7779124998
  0
LWPOLYLINE
  5
44A
100
AcDbEntity
  8
ASSI
100
AcDbPolyline
 62
253
  6
CONTINUOUS
 90
31
 70
0
 10
146.9825220643
 20
121.9264752939
 10
146.4047138256
 20
122.1256836396
 10
145.8287868981
 20
122.3263443061
 10
145.2547412818
 20
122.5284572936
 10
144.6827322793
 20
122.7319670691
 10
144.1126045879
 20
122.9369291655
 10
143.5438922997
 20
123.1435101818
 10
142.9763616227
 20
123.3517935742
 10
142.4102463489
 20
123.5616958865
 10
141.8457819458
 20
123.7731333495
 10
141.2830319626
 20
123.9860838219
 10
140.7219328501
 20
124.200569445
 10
140.1625294282
 20
124.416572874
 10
139.6047385594
 20
124.634128763
 10
139.0486433812
 20
124.8532024579
 10
138.494538126
 20
125.0736726514
 10
137.9427692051
 20
125.2953971552
 10
137.3929902071
 20
125.5185181576
 10
136.8444561313
 20
125.7433409162
 10
136.2982182656
 20
125.9693937108
 10
135.7532253219
 20
126.1971482615
 10
135.2055784356
 20
126.4283249856
 10
134.6561258854
 20
126.6624721638
 10
134.1040193925
 20
126.9000415153
 10
133.5428152561
 20
127.1441086155
 10
132.9721627778
 20
127.3947061595
 10
132.392412656
 20
127.6518014521
 10
131.7981732848
 20
127.9183719835
 10
131.1876474624
 20
128.1954102502
 10
130.5626323906
 20
128.4819237557
 10
129.9231280695
 20
128.7779124998
  0
LINE
  5
44B
100
AcDbEntity
  8
ASSI
100
AcDbLine
 62
7
  6
CONTINUOUS
 10
163.6473702494
 20
116.5838341219
 11
160.8875979513
 21
117.6922208945
  0
LINE
  5
44C
100
AcDbEntity
  8
0
100
AcDbLine
 62
7
  6
CONTINUOUS
 10
163.6473702494
 20
116.5838341219
 11
160.8875979513
 21
117.6922208945
  0
LINE
  5
44D
100
AcDbEntity
  8
ASSI
100
AcDbLine
 62
7
  6
CONTINUOUS
 10
154.4728673534
 20
120.2685213193
 11
151.7130950552
 21
121.3769080919
  0
LINE
  5
44E
100
AcDbEntity
  8
0
100
AcDbLine
 62
7
  6
CONTINUOUS
 10
154.4728673534
 20
120.2685213193
 11
151.7130950552
 21
121.3769080919
  0
LINE
  5
44F
100
AcDbEntity
  8
0
100
AcDbLine
 62
7
  6
CONTINUOUS
 10
145.4621948662
 20
123.887410531
 11
142.7024225681
 21
124.9957973036
  0
LINE
  5
450
100
AcDbEntity
  8
ASSI
100
AcDbLine
 62
7
  6
CONTINUOUS
 10
145.4621948662
 20
123.887410531
 11
142.7024225681
 21
124.9957973036
  0
LINE
  5
451
100
AcDbEntity
  8
0
100
AcDbLine
 62
7
  6
CONTINUOUS
 10
136.2876919702
 20
127.5720977284
 11
133.527919672
 21
128.6804845009
  0
LINE
  5
452
100
AcDbEntity
  8
ASSI
100
AcDbLine
 62
7
  6
CONTINUOUS
 10
136.2876919702
 20
127.5720977284
 11
133.527919672
 21
128.6804845009
  0
LINE
  5
453
100
AcDbEntity
  8
ASSI
100
AcDbLine
 62
7
  6
CONTINUOUS
 10
166.6699716962
 20
115.8957638207
 11
164.482514106
 21
116.774296104
  0
LINE
  5
454
100
AcDbEntity
  8
0
100
AcDbLine
 62
7
  6
CONTINUOUS
 10
166.6699716962
 20
115.8957638207
 11
164.482514106
 21
116.774296104
  0
LINE
  5
455
100
AcDbEntity
  8
ASSI
100
AcDbLine
 62
7
  6
CONTINUOUS
 10
160.8642265544
 20
118.2274819571
 11
155.30801121
 21
120.4589833014
  0
LINE
  5
456
100
AcDbEntity
  8
0
100
AcDbLine
 62
7
  6
CONTINUOUS
 10
160.8642265544
 20
118.2274819571
 11
155.30801121
 21
120.4589833014
  0
LINE
  5
457
100
AcDbEntity
  8
ASSI
100
AcDbLine
 62
7
  6
CONTINUOUS
 10
151.6897236584
 20
121.9121691545
 11
149.5022660683
 21
122.7907014377
  0
LINE
  5
458
100
AcDbEntity
  8
0
100
AcDbLine
 62
7
  6
CONTINUOUS
 10
151.6897236584
 20
121.9121691545
 11
149.5022660683
 21
122.7907014377
  0
LINE
  5
459
100
AcDbEntity
  8
0
100
AcDbLine
 62
7
  6
CONTINUOUS
 10
148.4847963129
 20
123.1993402298
 11
146.2973387228
 21
124.0778725131
  0
LINE
  5
45A
100
AcDbEntity
  8
ASSI
100
AcDbLine
 62
7
  6
CONTINUOUS
 10
148.4847963129
 20
123.1993402298
 11
146.2973387228
 21
124.0778725131
  0
LINE
  5
45B
100
AcDbEntity
  8
0
100
AcDbLine
 62
7
  6
CONTINUOUS
 10
142.6790511712
 20
125.5310583662
 11
137.1228358268
 21
127.7625597104
  0
LINE
  5
45C
100
AcDbEntity
  8
ASSI
100
AcDbLine
 62
7
  6
CONTINUOUS
 10
142.6790511712
 20
125.5310583662
 11
137.1228358268
 21
127.7625597104
  0
LINE
  5
45D
100
AcDbEntity
  8
0
100
AcDbLine
 62
7
  6
CONTINUOUS
 10
133.5045482752
 20
129.2157455635
 11
131.3170906851
 21
130.0942778468
  0
LINE
  5
45E
100
AcDbEntity
  8
ASSI
100
AcDbLine
 62
7
  6
CONTINUOUS
 10
133.5045482752
 20
129.2157455635
 11
131.3170906851
 21
130.0942778468
  0
LWPOLYLINE
  5
45F
100
AcDbEntity
  8
0
100
AcDbPolyline
 62
253
  6
CONTINUOUS
 90
16
 70
0
 10
146.9825220642
 20
121.9264752939
 10
147.0245827841
 20
121.9064332048
 10
147.0663476394
 20
121.882271345
 10
147.1073598428
 20
121.8542539756
 10
147.1471708387
 20
121.8226875262
 10
147.1853452092
 20
121.7879172429
 10
147.2214654369
 20
121.7503234128
 10
147.2551364704
 20
121.7103172042
 10
147.2859900454
 20
121.6683361701
 10
147.3136887124
 20
121.6248394622
 10
147.3379295279
 20
121.5803028093
 10
147.3584473669
 20
121.5352133144
 10
147.3750178233
 20
121.4900641269
 10
147.3874596641
 20
121.4453490489
 10
147.3956368112
 20
121.4015571348
 10
147.3994598302
 20
121.3591673423
  0
LWPOLYLINE
  5
460
100
AcDbEntity
  8
ASSI
100
AcDbPolyline
 62
253
  6
CONTINUOUS
 90
16
 70
0
 10
146.9825220642
 20
121.9264752939
 10
147.0245827841
 20
121.9064332048
 10
147.0663476394
 20
121.882271345
 10
147.1073598428
 20
121.8542539756
 10
147.1471708387
 20
121.8226875262
 10
147.1853452092
 20
121.7879172429
 10
147.2214654369
 20
121.7503234128
 10
147.2551364704
 20
121.7103172042
 10
147.2859900454
 20
121.6683361701
 10
147.3136887124
 20
121.6248394622
 10
147.3379295279
 20
121.5803028093
 10
147.3584473669
 20
121.5352133144
 10
147.3750178233
 20
121.4900641269
 10
147.3874596641
 20
121.4453490489
 10
147.3956368112
 20
121.4015571348
 10
147.3994598302
 20
121.3591673423
  0
LWPOLYLINE
  5
461
100
AcDbEntity
  8
ASSI
100
AcDbPolyline
 62
253
  6
CONTINUOUS
 90
16
 70
0
 10
165.1676974474
 20
114.6228988848
 10
165.2097581673
 20
114.6028567957
 10
165.2515230227
 20
114.5786949359
 10
165.292535226
 20
114.5506775666
 10
165.3323462219
 20
114.5191111171
 10
165.3705205925
 20
114.4843408338
 10
165.4066408202
 20
114.4467470037
 10
165.4403118536
 20
114.4067407951
 10
165.4711654286
 20
114.364759761
 10
165.4988640956
 20
114.3212630531
 10
165.5231049111
 20
114.2767264003
 10
165.5436227501
 20
114.2316369053
 10
165.5601932065
 20
114.1864877178
 10
165.5726350473
 20
114.1417726398
 10
165.5808121944
 20
114.0979807257
 10
165.5846352134
 20
114.0555909332
  0
LWPOLYLINE
  5
462
100
AcDbEntity
  8
0
100
AcDbPolyline
 62
253
  6
CONTINUOUS
 90
16
 70
0
 10
165.1676974474
 20
114.6228988848
 10
165.2097581673
 20
114.6028567957
 10
165.2515230227
 20
114.5786949359
 10
165.292535226
 20
114.5506775666
 10
165.3323462219
 20
114.5191111171
 10
165.3705205925
 20
114.4843408338
 10
165.4066408202
 20
114.4467470037
 10
165.4403118536
 20
114.4067407951
 10
165.4711654286
 20
114.364759761
 10
165.4988640956
 20
114.3212630531
 10
165.5231049111
 20
114.2767264003
 10
165.5436227501
 20
114.2316369053
 10
165.5601932065
 20
114.1864877178
 10
165.5726350473
 20
114.1417726398
 10
165.5808121944
 20
114.0979807257
 10
165.5846352134
 20
114.0555909332
  0
LINE
  5
463
100
AcDbEntity
  8
ASSI
100
AcDbLine
 62
7
  6
CONTINUOUS
 10
167.1050370645
 20
115.3438152414
 11
167.5506015314
 21
108.6780809148
  0
LINE
  5
464
100
AcDbEntity
  8
0
100
AcDbLine
 62
7
  6
CONTINUOUS
 10
167.1050370645
 20
115.3438152414
 11
167.5506015314
 21
108.6780809148
  0
LINE
  5
465
100
AcDbEntity
  8
ASSI
100
AcDbLine
 62
7
  6
CONTINUOUS
 10
167.5506015314
 20
108.6780809148
 11
167.5506015314
 21
98.5205175969
  0
LINE
  5
466
100
AcDbEntity
  8
0
100
AcDbLine
 62
7
  6
CONTINUOUS
 10
167.5506015314
 20
108.6780809148
 11
167.5506015314
 21
98.5205175969
  0
LINE
  5
467
100
AcDbEntity
  8
0
100
AcDbLine
 62
7
  6
CONTINUOUS
 10
167.5506015314
 20
87.2162973544
 11
167.5506015314
 21
97.3738606722
  0
LINE
  5
468
100
AcDbEntity
  8
ASSI
100
AcDbLine
 62
7
  6
CONTINUOUS
 10
167.5506015314
 20
87.2162973544
 11
167.5506015314
 21
97.3738606722
  0
LINE
  5
469
100
AcDbEntity
  8
0
100
AcDbLine
 62
7
  6
CONTINUOUS
 10
167.1050370645
 20
79.8598097227
 11
167.5506015314
 21
87.2162973544
  0
LINE
  5
46A
100
AcDbEntity
  8
ASSI
100
AcDbLine
 62
7
  6
CONTINUOUS
 10
167.1050370645
 20
79.8598097227
 11
167.5506015314
 21
87.2162973544
  0
LWPOLYLINE
  5
46B
100
AcDbEntity
  8
0
100
AcDbPolyline
 62
253
  6
CONTINUOUS
 90
55
 70
0
 10
156.8284313202
 20
87.545035906
 10
156.7956146079
 20
87.5228972546
 10
156.7617010591
 20
87.5021726251
 10
156.7267090001
 20
87.4828827345
 10
156.6906567571
 20
87.4650483001
 10
156.6535626563
 20
87.4486900389
 10
156.6154450239
 20
87.4338286682
 10
156.5763221861
 20
87.4204849051
 10
156.5362219502
 20
87.4086771793
 10
156.495210048
 20
87.3984147699
 10
156.4533616923
 20
87.3897046687
 10
156.4107520959
 20
87.3825538675
 10
156.3674564717
 20
87.3769693579
 10
156.3235500323
 20
87.3729581316
 10
156.2791079907
 20
87.3705271805
 10
156.2341956477
 20
87.3696806792
 10
156.1888386558
 20
87.3704115354
 10
156.1430527557
 20
87.3727098393
 10
156.096853688
 20
87.3765656816
 10
156.0502571933
 20
87.3819691529
 10
156.0032790121
 20
87.3889103435
 10
155.955934885
 20
87.3973793441
 10
155.900267345
 20
87.4091773367
 10
155.8442008732
 20
87.4230240054
 10
155.7878132061
 20
87.4389019951
 10
155.7311820802
 20
87.4567939508
 10
155.6743852319
 20
87.4766825174
 10
155.6175003977
 20
87.4985503398
 10
155.5606035568
 20
87.5223761538
 10
155.5037636597
 20
87.5481230595
 10
155.4470478995
 20
87.5757502477
 10
155.3905234693
 20
87.6052169093
 10
155.3342575622
 20
87.6364822351
 10
155.2783173714
 20
87.6695054161
 10
155.230674724
 20
87.6991830045
 10
155.1833385215
 20
87.7301193741
 10
155.1363265405
 20
87.7623118028
 10
155.0896565578
 20
87.7957575686
 10
155.0433463499
 20
87.8304539494
 10
154.9974136937
 20
87.8663982232
 10
154.9518763658
 20
87.9035876681
 10
154.9067621317
 20
87.9420082583
 10
154.8621387123
 20
87.981600754
 10
154.8180838173
 20
88.0222946119
 10
154.7746751564
 20
88.0640192886
 10
154.7319904393
 20
88.1067042408
 10
154.6901073757
 20
88.1502789249
 10
154.6491036752
 20
88.1946727977
 10
154.6090468902
 20
88.2398212234
 10
154.569963944
 20
88.285683197
 10
154.5318716024
 20
88.332223621
 10
154.4947866312
 20
88.3794073981
 10
154.4587257964
 20
88.4271994309
 10
154.4237058637
 20
88.4755646219
 10
154.389743599
 20
88.5244678738
  0
LWPOLYLINE
  5
46C
100
AcDbEntity
  8
0
100
AcDbPolyline
 62
253
  6
CONTINUOUS
 90
8
 70
0
 10
165.4702599356
 20
78.5525219091
 10
165.4988656262
 20
78.5761833474
 10
165.523106135
 20
78.6034186272
 10
165.5436236379
 20
78.6345708418
 10
165.5601937682
 20
78.6692992611
 10
165.5726353278
 20
78.7072240435
 10
165.5808122718
 20
78.7479303869
 10
165.5846351994
 20
78.7909730756
  0
LWPOLYLINE
  5
46D
100
AcDbEntity
  8
ASSI
100
AcDbPolyline
 62
253
  6
CONTINUOUS
 90
8
 70
0
 10
165.4702599356
 20
78.5525219091
 10
165.4988656262
 20
78.5761833474
 10
165.523106135
 20
78.6034186272
 10
165.5436236379
 20
78.6345708418
 10
165.5601937682
 20
78.6692992611
 10
165.5726353278
 20
78.7072240435
 10
165.5808122718
 20
78.7479303869
 10
165.5846351994
 20
78.7909730756
  0
LINE
  5
46E
100
AcDbEntity
  8
0
100
AcDbLine
 62
253
  6
CONTINUOUS
 10
167.1050370645
 20
79.8598097227
 11
165.5846351994
 21
78.7909730756
  0
LINE
  5
46F
100
AcDbEntity
  8
ASSI
100
AcDbLine
 62
253
  6
CONTINUOUS
 10
167.1050370645
 20
79.8598097227
 11
165.5846351994
 21
78.7909730756
  0
LINE
  5
470
100
AcDbEntity
  8
0
100
AcDbLine
 62
7
  6
CONTINUOUS
 10
166.9817058934
 20
79.615062588
 11
165.4702598641
 21
78.5525218588
  0
LINE
  5
471
100
AcDbEntity
  8
ASSI
100
AcDbLine
 62
7
  6
CONTINUOUS
 10
166.9817058934
 20
79.615062588
 11
165.4702598641
 21
78.5525218588
  0
LWPOLYLINE
  5
472
100
AcDbEntity
  8
0
100
AcDbPolyline
 62
253
  6
CONTINUOUS
 90
22
 70
0
 10
165.5846351994
 20
78.7909730756
 10
165.555236775
 20
78.7717504282
 10
165.526333808
 20
78.755648832
 10
165.4979262982
 20
78.7426682872
 10
165.4698654182
 20
78.7327662631
 10
165.4422999956
 20
78.7259852902
 10
165.4156765128
 20
78.7224529603
 10
165.3900219352
 20
78.7222268299
 10
165.3653092975
 20
78.7252493425
 10
165.3419041861
 20
78.7314754207
 10
165.3198260464
 20
78.7409542529
 10
165.2990554331
 20
78.7536366506
 10
165.279899597
 20
78.7693299708
 10
165.2623843052
 20
78.7880784972
 10
165.2464837908
 20
78.8098379462
 10
165.2324280031
 20
78.834282823
 10
165.2202433177
 20
78.8614694721
 10
165.2099033591
 20
78.8913415492
 10
165.2015589509
 20
78.9234045263
 10
165.1952603677
 20
78.9574935608
 10
165.1909573349
 20
78.9937734955
 10
165.1886498526
 20
79.0322443302
  0
LWPOLYLINE
  5
473
100
AcDbEntity
  8
ASSI
100
AcDbPolyline
 62
253
  6
CONTINUOUS
 90
22
 70
0
 10
165.5846351994
 20
78.7909730756
 10
165.555236775
 20
78.7717504282
 10
165.526333808
 20
78.755648832
 10
165.4979262982
 20
78.7426682872
 10
165.4698654182
 20
78.7327662631
 10
165.4422999956
 20
78.7259852902
 10
165.4156765128
 20
78.7224529603
 10
165.3900219352
 20
78.7222268299
 10
165.3653092975
 20
78.7252493425
 10
165.3419041861
 20
78.7314754207
 10
165.3198260464
 20
78.7409542529
 10
165.2990554331
 20
78.7536366506
 10
165.279899597
 20
78.7693299708
 10
165.2623843052
 20
78.7880784972
 10
165.2464837908
 20
78.8098379462
 10
165.2324280031
 20
78.834282823
 10
165.2202433177
 20
78.8614694721
 10
165.2099033591
 20
78.8913415492
 10
165.2015589509
 20
78.9234045263
 10
165.1952603677
 20
78.9574935608
 10
165.1909573349
 20
78.9937734955
 10
165.1886498526
 20
79.0322443302
  0
ELLIPSE
  5
474
100
AcDbEntity
  8
0
100
AcDbEllipse
 62
7
  6
CONTINUOUS
 10
166.6953561884
 20
80.0249479504
 30
0.0
 11
-0.2850203122
 21
0.4108138748
 31
0.0
 40
0.7191175512
 41
-3.136779368
 42
-2.401520857
  0
ELLIPSE
  5
475
100
AcDbEntity
  8
0
100
AcDbEllipse
 62
7
  6
CONTINUOUS
 10
167.1408851097
 20
97.5383184594
 30
0.0
 11
0.3170403205
 21
-0.3867036085
 31
0.0
 40
0.6711200097
 41
0.6859711218
 42
2.2565390145
  0
ELLIPSE
  5
476
100
AcDbEntity
  8
ASSI
100
AcDbEllipse
 62
7
  6
CONTINUOUS
 10
166.6953561884
 20
80.0249479504
 30
0.0
 11
-0.2850203122
 21
0.4108138748
 31
0.0
 40
0.7191175512
 41
-3.136779368
 42
-2.401520857
  0
ELLIPSE
  5
477
100
AcDbEntity
  8
ASSI
100
AcDbEllipse
 62
7
  6
CONTINUOUS
 10
167.1408851097
 20
97.5383184594
 30
0.0
 11
0.3170403205
 21
-0.3867036085
 31
0.0
 40
0.6711200097
 41
0.6859711218
 42
2.2565390145
  0
ELLIPSE
  5
478
100
AcDbEntity
  8
0
100
AcDbEllipse
 62
7
  6
CONTINUOUS
 10
131.3417271446
 20
129.7066492762
 30
0.0
 11
-0.3432468395
 21
0.3635678883
 31
0.0
 40
0.6190547263
 41
-0.930363261
 42
0.000238127
  0
ELLIPSE
  5
479
100
AcDbEntity
  8
0
100
AcDbEllipse
 62
7
  6
CONTINUOUS
 10
148.5101808052
 20
122.8114112324
 30
0.0
 11
-0.3433580121
 21
0.3640648834
 31
0.0
 40
0.6179721343
 41
-2.4982952834
 42
-0.9288689526
  0
ELLIPSE
  5
47A
100
AcDbEntity
  8
0
100
AcDbEllipse
 62
7
  6
CONTINUOUS
 10
133.6426349593
 20
128.7830397509
 30
0.0
 11
0.1999434854
 21
0.0078174272
 31
0.0
 40
0.6081570881
 41
3.1201007963
 42
4.077750384
  0
ELLIPSE
  5
47B
100
AcDbEntity
  8
0
100
AcDbEllipse
 62
7
  6
CONTINUOUS
 10
136.4024072574
 20
127.6746529784
 30
0.0
 11
0.1999434854
 21
0.0078174272
 31
0.0
 40
0.6081570881
 41
-2.2054349231
 42
-1.1582373719
  0
ELLIPSE
  5
47C
100
AcDbEntity
  8
0
100
AcDbEllipse
 62
7
  6
CONTINUOUS
 10
145.5769101535
 20
123.989965781
 30
0.0
 11
0.1999434854
 21
0.0078174272
 31
0.0
 40
0.6081570881
 41
-2.2054349231
 42
-1.1582373719
  0
ELLIPSE
  5
47D
100
AcDbEntity
  8
0
100
AcDbEllipse
 62
7
  6
CONTINUOUS
 10
142.8171378553
 20
125.0983525536
 30
0.0
 11
0.1999434854
 21
0.0078174272
 31
0.0
 40
0.6081570881
 41
3.1201007963
 42
4.077750384
  0
ELLIPSE
  5
47E
100
AcDbEntity
  8
ASSI
100
AcDbEllipse
 62
7
  6
CONTINUOUS
 10
148.5101808052
 20
122.8114112324
 30
0.0
 11
-0.3433580121
 21
0.3640648834
 31
0.0
 40
0.6179721343
 41
-2.4982952834
 42
-0.9288689526
  0
ELLIPSE
  5
47F
100
AcDbEntity
  8
ASSI
100
AcDbEllipse
 62
7
  6
CONTINUOUS
 10
133.6426349593
 20
128.7830397509
 30
0.0
 11
0.1999434854
 21
0.0078174272
 31
0.0
 40
0.6081570881
 41
3.1201007963
 42
4.077750384
  0
ELLIPSE
  5
480
100
AcDbEntity
  8
ASSI
100
AcDbEllipse
 62
7
  6
CONTINUOUS
 10
136.4024072574
 20
127.6746529784
 30
0.0
 11
0.1999434854
 21
0.0078174272
 31
0.0
 40
0.6081570881
 41
-2.2054349231
 42
-1.1582373719
  0
ELLIPSE
  5
481
100
AcDbEntity
  8
ASSI
100
AcDbEllipse
 62
7
  6
CONTINUOUS
 10
145.5769101535
 20
123.989965781
 30
0.0
 11
0.1999434854
 21
0.0078174272
 31
0.0
 40
0.6081570881
 41
-2.2054349231
 42
-1.1582373719
  0
ELLIPSE
  5
482
100
AcDbEntity
  8
ASSI
100
AcDbEllipse
 62
7
  6
CONTINUOUS
 10
142.8171378553
 20
125.0983525536
 30
0.0
 11
0.1999434854
 21
0.0078174272
 31
0.0
 40
0.6081570881
 41
3.1201007963
 42
4.077750384
  0
ELLIPSE
  5
483
100
AcDbEntity
  8
ASSI
100
AcDbEllipse
 62
7
  6
CONTINUOUS
 10
131.3417271446
 20
129.7066492762
 30
0.0
 11
-0.3432468395
 21
0.3635678883
 31
0.0
 40
0.6190547263
 41
-0.930363261
 42
0.000238127
  0
ELLIPSE
  5
484
100
AcDbEntity
  8
ASSI
100
AcDbEllipse
 62
7
  6
CONTINUOUS
 10
166.6953561884
 20
115.5078348233
 30
0.0
 11
-0.3433580121
 21
0.3640648834
 31
0.0
 40
0.6179721343
 41
-2.4982952834
 42
-0.9288689526
  0
ELLIPSE
  5
485
100
AcDbEntity
  8
ASSI
100
AcDbEllipse
 62
7
  6
CONTINUOUS
 10
167.1408851097
 20
98.6851625134
 30
0.0
 11
-0.3170686951
 21
0.3868251561
 31
0.0
 40
0.6708195125
 41
-3.1644370718
 42
-2.4557308722
  0
ELLIPSE
  5
486
100
AcDbEntity
  8
ASSI
100
AcDbEllipse
 62
7
  6
CONTINUOUS
 10
151.8278103425
 20
121.4794633418
 30
0.0
 11
0.1999434854
 21
0.0078174272
 31
0.0
 40
0.6081570881
 41
3.1201007963
 42
4.077750384
  0
ELLIPSE
  5
487
100
AcDbEntity
  8
ASSI
100
AcDbEllipse
 62
7
  6
CONTINUOUS
 10
154.5875826406
 20
120.3710765693
 30
0.0
 11
0.1999434854
 21
0.0078174272
 31
0.0
 40
0.6081570881
 41
-2.2054349231
 42
-1.1582373719
  0
ELLIPSE
  5
488
100
AcDbEntity
  8
ASSI
100
AcDbEllipse
 62
7
  6
CONTINUOUS
 10
163.7620855367
 20
116.6863893719
 30
0.0
 11
0.1999434854
 21
0.0078174272
 31
0.0
 40
0.6081570881
 41
-2.2054349231
 42
-1.1582373719
  0
ELLIPSE
  5
489
100
AcDbEntity
  8
ASSI
100
AcDbEllipse
 62
7
  6
CONTINUOUS
 10
161.0023132386
 20
117.7947761445
 30
0.0
 11
0.1999434854
 21
0.0078174272
 31
0.0
 40
0.6081570881
 41
3.1201007963
 42
4.077750384
  0
ELLIPSE
  5
48A
100
AcDbEntity
  8
ASSI
100
AcDbEllipse
 62
7
  6
CONTINUOUS
 10
149.5269025278
 20
122.4030728671
 30
0.0
 11
-0.3432468395
 21
0.3635678883
 31
0.0
 40
0.6190547263
 41
-0.930363261
 42
0.000238127
  0
ELLIPSE
  5
48B
100
AcDbEntity
  8
0
100
AcDbEllipse
 62
7
  6
CONTINUOUS
 10
149.5269025278
 20
122.4030728671
 30
0.0
 11
-0.3432468395
 21
0.3635678883
 31
0.0
 40
0.6190547263
 41
-0.930363261
 42
0.000238127
  0
ELLIPSE
  5
48C
100
AcDbEntity
  8
0
100
AcDbEllipse
 62
7
  6
CONTINUOUS
 10
166.6953561884
 20
115.5078348233
 30
0.0
 11
-0.3433580121
 21
0.3640648834
 31
0.0
 40
0.6179721343
 41
-2.4982952834
 42
-0.9288689526
  0
ELLIPSE
  5
48D
100
AcDbEntity
  8
0
100
AcDbEllipse
 62
7
  6
CONTINUOUS
 10
167.1408851097
 20
98.6851625134
 30
0.0
 11
-0.3170686951
 21
0.3868251561
 31
0.0
 40
0.6708195125
 41
-3.1644370718
 42
-2.4557308722
  0
ELLIPSE
  5
48E
100
AcDbEntity
  8
0
100
AcDbEllipse
 62
7
  6
CONTINUOUS
 10
151.8278103425
 20
121.4794633418
 30
0.0
 11
0.1999434854
 21
0.0078174272
 31
0.0
 40
0.6081570881
 41
3.1201007963
 42
4.077750384
  0
ELLIPSE
  5
48F
100
AcDbEntity
  8
0
100
AcDbEllipse
 62
7
  6
CONTINUOUS
 10
154.5875826406
 20
120.3710765693
 30
0.0
 11
0.1999434854
 21
0.0078174272
 31
0.0
 40
0.6081570881
 41
-2.2054349231
 42
-1.1582373719
  0
ELLIPSE
  5
490
100
AcDbEntity
  8
0
100
AcDbEllipse
 62
7
  6
CONTINUOUS
 10
163.7620855367
 20
116.6863893719
 30
0.0
 11
0.1999434854
 21
0.0078174272
 31
0.0
 40
0.6081570881
 41
-2.2054349231
 42
-1.1582373719
  0
ELLIPSE
  5
491
100
AcDbEntity
  8
0
100
AcDbEllipse
 62
7
  6
CONTINUOUS
 10
161.0023132386
 20
117.7947761445
 30
0.0
 11
0.1999434854
 21
0.0078174272
 31
0.0
 40
0.6081570881
 41
3.1201007963
 42
4.077750384
  0
ENDSEC
  0
SECTION
  2
OBJECTS
  0
DICTIONARY
  5
C
100
AcDbDictionary
280
0
281
1
  3
ACAD_GROUP
350
D
  3
ACAD_MLINESTYLE
350
17
  3
ACAD_LAYOUT
350
1A
  3
ACAD_PLOTSETTINGS
350
19
  3
ACAD_PLOTSTYLENAME
350
E
  0
DICTIONARY
  5
D
102
{ACAD_REACTORS
330
C
102
}
100
AcDbDictionary
280
0
281
1
  0
ACDBDICTIONARYWDFLT
  5
E
102
{ACAD_REACTORS
330
C
102
}
100
AcDbDictionary
281
1
  3
Normal
350
F
100
AcDbDictionaryWithDefault
340
F
  0
DICTIONARY
  5
17
102
{ACAD_REACTORS
330
C
102
}
100
AcDbDictionary
280
0
281
1
  3
Standard
350
18
  0
DICTIONARY
  5
19
102
{ACAD_REACTORS
330
C
102
}
100
AcDbDictionary
281
1
  0
DICTIONARY
  5
1A
102
{ACAD_REACTORS
330
C
102
}
100
AcDbDictionary
281
1
  3
Model
350
492
  3
Layout1
350
493
  0
ACDBPLACEHOLDER
  5
F
102
{ACAD_REACTORS
330
E
102
}
  0
MLINESTYLE
  5
18
102
{ACAD_REACTORS
330
17
102
}
100
AcDbMlineStyle
  2
STANDARD
 70
0
  3

 62
256
 51
90.0
 52
90.0
 71
2
 49
0.5
 62
256
  6
BYLAYER
 49
-0.5
 62
256
  6
BYLAYER
  0
LAYOUT
  5
492
102
{ACAD_REACTORS
330
1A
102
}
100
AcDbPlotSettings
  1

  2
none_device
  4
ISO_A4_(297.00_x_210.00_MM)
  6

 40
0.0
 41
0.0
 42
0.0
 43
0.0
 44
297.0
 45
210.0
 46
0.0
 47
0.0
 48
0.0
 49
0.0
140
0.0
141
0.0
142
1.0
143
1.0
 70
1024
 72
1
 73
0
 74
0
  7

 75
0
147
1.0
148
0.0
149
0.0
100
AcDbLayout
  1
Model
 70
0
 71
0
 10
0.0
 20
0.0
 11
297.0
 21
210.0
 12
0.0
 22
0.0
 32
0.0
 14
0.0
 24
0.0
 34
0.0
 15
0.0
 25
0.0
 35
0.0
146
0.0
 13
0.0
 23
0.0
 33
0.0
 16
1.0
 26
0.0
 36
0.0
 17
0.0
 27
1.0
 37
0.0
 76
0
330
21F
345
0
346
0
  0
LAYOUT
  5
493
102
{ACAD_REACTORS
330
1A
102
}
100
AcDbPlotSettings
  1

  2
none_device
  4
ISO_A4_(297.00_x_210.00_MM)
  6

 40
0.0
 41
0.0
 42
0.0
 43
0.0
 44
297.0
 45
210.0
 46
0.0
 47
0.0
 48
0.0
 49
0.0
140
0.0
141
0.0
142
1.0
143
1.0
 70
0
 72
1
 73
0
 74
0
  7

 75
0
147
1.0
148
0.0
149
0.0
100
AcDbLayout
  1
Layout1
 70
0
 71
1
 10
0.0
 20
0.0
 11
297.0
 21
210.0
 12
0.0
 22
0.0
 32
0.0
 14
0.0
 24
0.0
 34
0.0
 15
0.0
 25
0.0
 35
0.0
146
0.0
 13
0.0
 23
0.0
 33
0.0
 16
1.0
 26
0.0
 36
0.0
 17
0.0
 27
1.0
 37
0.0
 76
0
330
220
345
0
346
0
  0
ENDSEC
  0
EOF
