  0
SECTION
  2
HEADER
  9
$ACADVER
  1
AC1015
  9
$DWGCODEPAGE
  3
ANSI_1252
  9
$EXTMAX
 10
297.0
 20
210.0
 30
0.0
  9
$EXTMIN
 10
0.0
 20
0.0
 30
0.0
  9
$LIMMIN
 10
0.0
 20
0.0
  9
$LIMMAX
 10
297.0
 20
210.0
  9
$VIEWCTR
 10
148.5
 20
105.0
  9
$VIEWSIZE
 40
210.0
  9
$CLAYER
  8
0
  9
$LTSCALE
 40
16.335
  9
$CELTYPE
  6
BYLAYER
  9
$DIMSCALE
 40
1.0
  9
$DIMASZ
 40
3.0
  9
$DIMEXO
 40
0.5
  9
$DIMDLI
 40
11.286
  9
$DIMEXE
 40
1.5
  9
$DIMCEN
 40
2.673
  9
$DIMLFAC
 40
1.0
  9
$DIMBLK
  1
_FILLED
  9
$DIMTXT
 40
3.0
  9
$DIMTOL
 70
1
  9
$DIMLIM
 70
0
  9
$DIMTFAC
 40
1.0
  9
$DIMTP
 40
0.01
  9
$DIMTM
 40
0.01
  9
$DIMGAP
 40
0.625
  9
$DIMDSEP
 70
44
  9
$PDMODE
 70
3
  9
$PDSIZE
 40
3.0
  9
$HANDSEED
  5
46A
  9
$TILEMODE
 70
1
  9
$MEASUREMENT
 70
1
  9
$INSUNITS
 70
4
  0
ENDSEC
  0
SECTION
  2
CLASSES
  0
CLASS
  1
ACDBDICTIONARYWDFLT
  2
AcDbDictionaryWithDefault
  3
AutoCAD 2000
 90
0
280
0
281
0
  0
CLASS
  1
ACDBPLACEHOLDER
  2
AcDbPlaceHolder
  3
AutoCAD 2000
 90
0
280
0
281
0
  0
CLASS
  1
LAYOUT
  2
AcDbLayout
  3
AutoCAD 2000
 90
0
280
0
281
0
  0
ENDSEC
  0
SECTION
  2
TABLES
  0
TABLE
  2
VPORT
  5
8
100
AcDbSymbolTable
 70
2
  0
VPORT
  5
1F4
100
AcDbSymbolTableRecord
100
AcDbViewportTableRecord
  2
*ACTIVE
 70
0
 10
0.0
 20
0.0
 11
1.0
 21
1.0
 12
148.5
 22
105.0
 13
0.0
 23
0.0
 14
1.0
 24
1.0
 15
0.0
 25
0.0
 16
0.0
 26
0.0
 36
1.0
 17
0.0
 27
0.0
 37
0.0
 40
210.0
 41
1.4142857143
 42
50.0
 43
0.0
 44
0.0
 50
0.0
 51
0.0
 71
0
 72
100
 73
1
 74
1
 75
0
 76
0
 77
0
 78
0
  0
ENDTAB
  0
TABLE
  2
LTYPE
  5
5
100
AcDbSymbolTable
 70
6
  0
LTYPE
  5
14
100
AcDbSymbolTableRecord
100
AcDbLinetypeTableRecord
  2
BYBLOCK
 70
0
  3

 72
65
 73
0
 40
0.0
  0
LTYPE
  5
15
100
AcDbSymbolTableRecord
100
AcDbLinetypeTableRecord
  2
BYLAYER
 70
0
  3

 72
65
 73
0
 40
0.0
  0
LTYPE
  5
16
100
AcDbSymbolTableRecord
100
AcDbLinetypeTableRecord
  2
CONTINUOUS
 70
64
  3
Solid line
 72
65
 73
0
 40
0.0
  0
LTYPE
  5
1F5
100
AcDbSymbolTableRecord
100
AcDbLinetypeTableRecord
  2
CENTER
 70
64
  3
____ _ ____ _ ____ _ ____ _ ____ _ ____ _ ____
 72
65
 73
4
 40
0.6
 49
0.375
 74
0
 49
-0.075
 74
0
 49
0.075
 74
0
 49
-0.075
 74
0
  0
LTYPE
  5
1F6
100
AcDbSymbolTableRecord
100
AcDbLinetypeTableRecord
  2
HIDDEN
 70
64
  3
- - - - - - - - - - - - - - - - - - - -
 72
65
 73
2
 40
0.2
 49
0.1
 74
0
 49
-0.1
 74
0
  0
LTYPE
  5
1F7
100
AcDbSymbolTableRecord
100
AcDbLinetypeTableRecord
  2
PHANTOM
 70
64
  3
_____ _ _ _____ _ _ _____ _ _ _____
 72
65
 73
6
 40
0.8
 49
0.45
 74
0
 49
-0.05
 74
0
 49
0.1
 74
0
 49
-0.05
 74
0
 49
0.1
 74
0
 49
-0.05
 74
0
  0
LTYPE
  5
1F8
100
AcDbSymbolTableRecord
100
AcDbLinetypeTableRecord
  2
DOT
 70
64
  3
. . . . . . . . . . . . . . . . . . . .
 72
65
 73
2
 40
0.2
 49
0.1
 74
0
 49
-0.1
 74
0
  0
LTYPE
  5
1F9
100
AcDbSymbolTableRecord
100
AcDbLinetypeTableRecord
  2
DASHED
 70
64
  3
- - - - - - - - - - - - - - - - - - - -
 72
65
 73
2
 40
0.2
 49
0.1
 74
0
 49
-0.1
 74
0
  0
ENDTAB
  0
TABLE
  2
LAYER
  5
2
100
AcDbSymbolTable
 70
36
  0
LAYER
  5
10
100
AcDbSymbolTableRecord
100
AcDbLayerTableRecord
  2
0
 70
0
 62
7
  6
CONTINUOUS
370
-3
390
F
  0
LAYER
  5
1FA
100
AcDbSymbolTableRecord
100
AcDbLayerTableRecord
  2
DEFAULT_1
 70
0
 62
7
  6
CENTER
370
-3
390
F
  0
LAYER
  5
1FB
100
AcDbSymbolTableRecord
100
AcDbLayerTableRecord
  2
DEFAULT_2
 70
0
 62
7
  6
HIDDEN
370
-3
390
F
  0
LAYER
  5
1FC
100
AcDbSymbolTableRecord
100
AcDbLayerTableRecord
  2
DEFAULT_3
 70
0
 62
7
  6
PHANTOM
370
-3
390
F
  0
LAYER
  5
1FD
100
AcDbSymbolTableRecord
100
AcDbLayerTableRecord
  2
ASSI
 70
0
 62
7
  6
CONTINUOUS
370
-3
390
F
  0
LAYER
  5
1FE
100
AcDbSymbolTableRecord
100
AcDbLayerTableRecord
  2
COLOR3
 70
0
 62
7
  6
CONTINUOUS
370
-3
390
F
  0
LAYER
  5
1FF
100
AcDbSymbolTableRecord
100
AcDbLayerTableRecord
  2
COORDINATE
 70
0
 62
7
  6
CONTINUOUS
370
-3
390
F
  0
LAYER
  5
200
100
AcDbSymbolTableRecord
100
AcDbLayerTableRecord
  2
COPY_PUBLISH
 70
0
 62
7
  6
CONTINUOUS
370
-3
390
F
  0
LAYER
  5
201
100
AcDbSymbolTableRecord
100
AcDbLayerTableRecord
  2
COSMETIC
 70
0
 62
7
  6
CONTINUOUS
370
-3
390
F
  0
LAYER
  5
202
100
AcDbSymbolTableRecord
100
AcDbLayerTableRecord
  2
COSMETICI
 70
0
 62
7
  6
CONTINUOUS
370
-3
390
F
  0
LAYER
  5
203
100
AcDbSymbolTableRecord
100
AcDbLayerTableRecord
  2
CURVE
 70
0
 62
7
  6
CONTINUOUS
370
-3
390
F
  0
LAYER
  5
204
100
AcDbSymbolTableRecord
100
AcDbLayerTableRecord
  2
DRAFT
 70
0
 62
7
  6
CONTINUOUS
370
-3
390
F
  0
LAYER
  5
205
100
AcDbSymbolTableRecord
100
AcDbLayerTableRecord
  2
IMPORT_IGES
 70
0
 62
7
  6
CONTINUOUS
370
-3
390
F
  0
LAYER
  5
206
100
AcDbSymbolTableRecord
100
AcDbLayerTableRecord
  2
INTFCLR_1
 70
0
 62
7
  6
CONTINUOUS
370
-3
390
F
  0
LAYER
  5
207
100
AcDbSymbolTableRecord
100
AcDbLayerTableRecord
  2
INTF_1
 70
0
 62
7
  6
CONTINUOUS
370
-3
390
F
  0
LAYER
  5
208
100
AcDbSymbolTableRecord
100
AcDbLayerTableRecord
  2
INTF_10
 70
0
 62
7
  6
CONTINUOUS
370
-3
390
F
  0
LAYER
  5
209
100
AcDbSymbolTableRecord
100
AcDbLayerTableRecord
  2
INTF_13
 70
0
 62
7
  6
CONTINUOUS
370
-3
390
F
  0
LAYER
  5
20A
100
AcDbSymbolTableRecord
100
AcDbLayerTableRecord
  2
INTF_15
 70
0
 62
7
  6
CONTINUOUS
370
-3
390
F
  0
LAYER
  5
20B
100
AcDbSymbolTableRecord
100
AcDbLayerTableRecord
  2
INTF_16
 70
0
 62
7
  6
CONTINUOUS
370
-3
390
F
  0
LAYER
  5
20C
100
AcDbSymbolTableRecord
100
AcDbLayerTableRecord
  2
INTF_18
 70
0
 62
7
  6
CONTINUOUS
370
-3
390
F
  0
LAYER
  5
20D
100
AcDbSymbolTableRecord
100
AcDbLayerTableRecord
  2
INTF_20
 70
0
 62
7
  6
CONTINUOUS
370
-3
390
F
  0
LAYER
  5
20E
100
AcDbSymbolTableRecord
100
AcDbLayerTableRecord
  2
INTF_3
 70
0
 62
7
  6
CONTINUOUS
370
-3
390
F
  0
LAYER
  5
20F
100
AcDbSymbolTableRecord
100
AcDbLayerTableRecord
  2
INTF_5
 70
0
 62
7
  6
CONTINUOUS
370
-3
390
F
  0
LAYER
  5
210
100
AcDbSymbolTableRecord
100
AcDbLayerTableRecord
  2
INTF_8
 70
0
 62
7
  6
CONTINUOUS
370
-3
390
F
  0
LAYER
  5
211
100
AcDbSymbolTableRecord
100
AcDbLayerTableRecord
  2
NOTE
 70
0
 62
7
  6
CONTINUOUS
370
-3
390
F
  0
LAYER
  5
212
100
AcDbSymbolTableRecord
100
AcDbLayerTableRecord
  2
PIANI
 70
0
 62
7
  6
CONTINUOUS
370
-3
390
F
  0
LAYER
  5
213
100
AcDbSymbolTableRecord
100
AcDbLayerTableRecord
  2
PUNTI
 70
0
 62
7
  6
CONTINUOUS
370
-3
390
F
  0
LAYER
  5
214
100
AcDbSymbolTableRecord
100
AcDbLayerTableRecord
  2
RACCORDO
 70
0
 62
7
  6
CONTINUOUS
370
-3
390
F
  0
LAYER
  5
215
100
AcDbSymbolTableRecord
100
AcDbLayerTableRecord
  2
SIMBOLI
 70
0
 62
7
  6
CONTINUOUS
370
-3
390
F
  0
LAYER
  5
216
100
AcDbSymbolTableRecord
100
AcDbLayerTableRecord
  2
SMUSSO
 70
0
 62
7
  6
CONTINUOUS
370
-3
390
F
  0
LAYER
  5
217
100
AcDbSymbolTableRecord
100
AcDbLayerTableRecord
  2
SNAPLINE
 70
0
 62
7
  6
CONTINUOUS
370
-3
390
F
  0
LAYER
  5
218
100
AcDbSymbolTableRecord
100
AcDbLayerTableRecord
  2
SOLIDO
 70
0
 62
7
  6
CONTINUOUS
370
-3
390
F
  0
LAYER
  5
219
100
AcDbSymbolTableRecord
100
AcDbLayerTableRecord
  2
SUPERFICI
 70
0
 62
7
  6
CONTINUOUS
370
-3
390
F
  0
LAYER
  5
21A
100
AcDbSymbolTableRecord
100
AcDbLayerTableRecord
  2
SUPERFICI_SKEL
 70
0
 62
7
  6
CONTINUOUS
370
-3
390
F
  0
LAYER
  5
21B
100
AcDbSymbolTableRecord
100
AcDbLayerTableRecord
  2
TRASH
 70
0
 62
7
  6
CONTINUOUS
370
-3
390
F
  0
LAYER
  5
21C
100
AcDbSymbolTableRecord
100
AcDbLayerTableRecord
  2
___SHELL
 70
0
 62
7
  6
CONTINUOUS
370
-3
390
F
  0
ENDTAB
  0
TABLE
  2
STYLE
  5
3
100
AcDbSymbolTable
 70
1
  0
STYLE
  5
11
100
AcDbSymbolTableRecord
100
AcDbTextStyleTableRecord
  2
STANDARD
 70
0
 40
0.0
 41
0.8
 50
0.0
 71
0
 42
0.2
  3
txt
  4

  0
STYLE
  5
21D
100
AcDbSymbolTableRecord
100
AcDbTextStyleTableRecord
  2
TEXTSTYLE_1
 70
0
 40
0.0
 41
0.8
 50
0.0
 71
0
 42
0.2
  3
gdt
  4

  0
ENDTAB
  0
TABLE
  2
VIEW
  5
6
100
AcDbSymbolTable
 70
0
  0
ENDTAB
  0
TABLE
  2
UCS
  5
7
100
AcDbSymbolTable
 70
0
  0
ENDTAB
  0
TABLE
  2
APPID
  5
9
100
AcDbSymbolTable
 70
1
  0
APPID
  5
21E
100
AcDbSymbolTableRecord
100
AcDbRegAppTableRecord
  2
ACAD
 70
0
  0
ENDTAB
  0
TABLE
  2
BLOCK_RECORD
  5
1
100
AcDbSymbolTable
 70
0
  0
BLOCK_RECORD
  5
21F
100
AcDbSymbolTableRecord
100
AcDbBlockTableRecord
  2
*Model_Space
  0
BLOCK_RECORD
  5
220
100
AcDbSymbolTableRecord
100
AcDbBlockTableRecord
  2
*Paper_Space
  0
ENDTAB
  0
TABLE
  2
DIMSTYLE
  5
A
100
AcDbSymbolTable
 70
1
100
AcDbDimStyleTable
 71
0
  0
DIMSTYLE
105
221
100
AcDbSymbolTableRecord
100
AcDbDimStyleTableRecord
  2
STANDARD
 70
0
  3

  4

 40
1.0
 41
3.0
 42
0.5
 43
0.38
 44
1.5
 45
0.0
 46
0.0
 47
0.01
 48
0.01
140
3.0
141
0.09
142
0.0
143
25.4
144
1.0
145
0.0
146
1.0
147
0.625
 71
1.0
 72
0.0
 73
0
 74
0
 75
0
 76
0
 77
1
 78
8
170
0
171
2
172
0
173
0
174
0
175
0
176
0
177
0
178
0
270
2
271
2
272
2
273
2
274
2
275
0
280
0
281
0
282
0
283
1
284
8
285
0
286
0
287
3
288
0
340
11
278
44
  0
ENDTAB
  0
ENDSEC
  0
SECTION
  2
BLOCKS
  0
BLOCK
  5
20
100
AcDbEntity
  8
0
100
AcDbBlockBegin
  2
*Model_Space
 70
0
 10
0.0
 20
0.0
 30
0.0
  3
*Model_Space
  1

  0
ENDBLK
  5
21
100
AcDbEntity
  8
0
100
AcDbBlockEnd
  0
BLOCK
  5
1C
100
AcDbEntity
  8
0
100
AcDbBlockBegin
  2
*Paper_Space
 70
0
 10
0.0
 20
0.0
 30
0.0
  3
*Paper_Space
  1

  0
ENDBLK
  5
1D
100
AcDbEntity
  8
0
100
AcDbBlockEnd
  0
ENDSEC
  0
SECTION
  2
ENTITIES
  0
LWPOLYLINE
  5
222
100
AcDbEntity
  8
ASSI
100
AcDbPolyline
 62
7
  6
CONTINUOUS
 90
18
 70
0
 10
123.7213132053
 20
131.6703919893
 10
123.6643865818
 20
131.6119437087
 10
123.6111786586
 20
131.5501256944
 10
123.5615422115
 20
131.4854572284
 10
123.5151591638
 20
131.418142163
 10
123.4717904657
 20
131.3482694456
 10
123.4314297011
 20
131.276184546
 10
123.3940589304
 20
131.2021320657
 10
123.359664263
 20
131.1262436292
 10
123.3283236984
 20
131.0488049971
 10
123.3001446086
 20
130.9700743987
 10
123.2752115971
 20
130.8901943826
 10
123.2536714658
 20
130.8093905706
 10
123.2357287855
 20
130.7279452651
 10
123.2215576401
 20
130.6459086208
 10
123.2114219464
 20
130.5633308445
 10
123.2056640873
 20
130.4804987419
 10
123.2049950439
 20
130.4613455895
  0
LWPOLYLINE
  5
223
100
AcDbEntity
  8
0
100
AcDbPolyline
 62
7
  6
CONTINUOUS
 90
18
 70
0
 10
123.7213132053
 20
131.6703919893
 10
123.6643865818
 20
131.6119437087
 10
123.6111786586
 20
131.5501256944
 10
123.5615422115
 20
131.4854572284
 10
123.5151591638
 20
131.418142163
 10
123.4717904657
 20
131.3482694456
 10
123.4314297011
 20
131.276184546
 10
123.3940589304
 20
131.2021320657
 10
123.359664263
 20
131.1262436292
 10
123.3283236984
 20
131.0488049971
 10
123.3001446086
 20
130.9700743987
 10
123.2752115971
 20
130.8901943826
 10
123.2536714658
 20
130.8093905706
 10
123.2357287855
 20
130.7279452651
 10
123.2215576401
 20
130.6459086208
 10
123.2114219464
 20
130.5633308445
 10
123.2056640873
 20
130.4804987419
 10
123.2049950439
 20
130.4613455895
  0
LINE
  5
224
100
AcDbEntity
  8
ASSI
100
AcDbLine
 62
7
  6
CONTINUOUS
 10
125.1325611621
 20
133.0031553949
 11
123.7213132053
 21
131.6703919893
  0
LINE
  5
225
100
AcDbEntity
  8
0
100
AcDbLine
 62
7
  6
CONTINUOUS
 10
125.1325611621
 20
133.0031553949
 11
123.7213132053
 21
131.6703919893
  0
LINE
  5
226
100
AcDbEntity
  8
ASSI
100
AcDbLine
 62
253
  6
CONTINUOUS
 10
125.4511863192
 20
133.0272300298
 11
124.0572237035
 21
131.7108646828
  0
LINE
  5
227
100
AcDbEntity
  8
0
100
AcDbLine
 62
253
  6
CONTINUOUS
 10
125.4511863192
 20
133.0272300298
 11
124.0572237035
 21
131.7108646828
  0
LINE
  5
228
100
AcDbEntity
  8
ASSI
100
AcDbLine
 62
7
  6
CONTINUOUS
 10
123.7293881866
 20
131.6780911867
 11
123.7289426058
 21
131.6776716213
  0
LINE
  5
229
100
AcDbEntity
  8
0
100
AcDbLine
 62
7
  6
CONTINUOUS
 10
123.7293881866
 20
131.6780911867
 11
123.7289426058
 21
131.6776716213
  0
LWPOLYLINE
  5
22A
100
AcDbEntity
  8
ASSI
100
AcDbPolyline
 62
253
  6
CONTINUOUS
 90
22
 70
0
 10
124.0572237035
 20
131.7108646827
 10
124.008062382
 20
131.6655955765
 10
123.9592941786
 20
131.6158657282
 10
123.9111775584
 20
131.5619151972
 10
123.8639853046
 20
131.5039992637
 10
123.8179489704
 20
131.4424040993
 10
123.7732580265
 20
131.3774441502
 10
123.7301453034
 20
131.3094303567
 10
123.6888427623
 20
131.2386948705
 10
123.6495258703
 20
131.1656061017
 10
123.6124002748
 20
131.0905220914
 10
123.5776633528
 20
131.0138051876
 10
123.5454602483
 20
130.9358456676
 10
123.515957536
 20
130.8570238923
 10
123.4893133621
 20
130.7777232092
 10
123.4656386187
 20
130.6983450571
 10
123.4450556305
 20
130.6192841381
 10
123.4276734014
 20
130.5409189335
 10
123.4135603862
 20
130.4636251423
 10
123.4027851747
 20
130.387779149
 10
123.3954136788
 20
130.3137556017
 10
123.3914862092
 20
130.2419184154
  0
LWPOLYLINE
  5
22B
100
AcDbEntity
  8
0
100
AcDbPolyline
 62
253
  6
CONTINUOUS
 90
22
 70
0
 10
124.0572237035
 20
131.7108646827
 10
124.008062382
 20
131.6655955765
 10
123.9592941786
 20
131.6158657282
 10
123.9111775584
 20
131.5619151972
 10
123.8639853046
 20
131.5039992637
 10
123.8179489704
 20
131.4424040993
 10
123.7732580265
 20
131.3774441502
 10
123.7301453034
 20
131.3094303567
 10
123.6888427623
 20
131.2386948705
 10
123.6495258703
 20
131.1656061017
 10
123.6124002748
 20
131.0905220914
 10
123.5776633528
 20
131.0138051876
 10
123.5454602483
 20
130.9358456676
 10
123.515957536
 20
130.8570238923
 10
123.4893133621
 20
130.7777232092
 10
123.4656386187
 20
130.6983450571
 10
123.4450556305
 20
130.6192841381
 10
123.4276734014
 20
130.5409189335
 10
123.4135603862
 20
130.4636251423
 10
123.4027851747
 20
130.387779149
 10
123.3954136788
 20
130.3137556017
 10
123.3914862092
 20
130.2419184154
  0
LINE
  5
22C
100
AcDbEntity
  8
ASSI
100
AcDbLine
 62
7
  6
CONTINUOUS
 10
131.2569314609
 20
130.6955118934
 11
130.6210265439
 21
130.4993448092
  0
LINE
  5
22D
100
AcDbEntity
  8
0
100
AcDbLine
 62
7
  6
CONTINUOUS
 10
131.2569314609
 20
130.6955118934
 11
130.6210265439
 21
130.4993448092
  0
LWPOLYLINE
  5
22E
100
AcDbEntity
  8
ASSI
100
AcDbPolyline
 62
253
  6
CONTINUOUS
 90
10
 70
0
 10
122.9570166497
 20
113.7541285025
 10
122.9593315443
 20
113.7264434129
 10
122.9663522283
 20
113.6988935959
 10
122.9780124802
 20
113.6718612188
 10
122.9942020298
 20
113.6456019024
 10
123.0147677921
 20
113.6203639326
 10
123.0395153103
 20
113.5963859394
 10
123.0682105843
 20
113.5738946475
 10
123.1005822778
 20
113.5531027307
 10
123.1363242945
 20
113.5342067906
  0
LWPOLYLINE
  5
22F
100
AcDbEntity
  8
0
100
AcDbPolyline
 62
253
  6
CONTINUOUS
 90
10
 70
0
 10
122.9570166497
 20
113.7541285025
 10
122.9593315443
 20
113.7264434129
 10
122.9663522283
 20
113.6988935959
 10
122.9780124802
 20
113.6718612188
 10
122.9942020298
 20
113.6456019024
 10
123.0147677921
 20
113.6203639326
 10
123.0395153103
 20
113.5963859394
 10
123.0682105843
 20
113.5738946475
 10
123.1005822778
 20
113.5531027307
 10
123.1363242945
 20
113.5342067906
  0
LWPOLYLINE
  5
230
100
AcDbEntity
  8
ASSI
100
AcDbPolyline
 62
253
  6
CONTINUOUS
 90
12
 70
0
 10
123.3914862236
 20
96.0386057402
 10
123.3954136928
 20
95.972812814
 10
123.4027851892
 20
95.9103092885
 10
123.4135604016
 20
95.8514039591
 10
123.4276734173
 20
95.7963950479
 10
123.4450556462
 20
95.745547911
 10
123.465638634
 20
95.6990966587
 10
123.4893133772
 20
95.6572739922
 10
123.5159575512
 20
95.620294147
 10
123.5454602633
 20
95.5883328247
 10
123.5776633676
 20
95.5615558414
 10
123.6117686126
 20
95.5404911761
  0
LWPOLYLINE
  5
231
100
AcDbEntity
  8
0
100
AcDbPolyline
 62
253
  6
CONTINUOUS
 90
12
 70
0
 10
123.3914862236
 20
96.0386057402
 10
123.3954136928
 20
95.972812814
 10
123.4027851892
 20
95.9103092885
 10
123.4135604016
 20
95.8514039591
 10
123.4276734173
 20
95.7963950479
 10
123.4450556462
 20
95.745547911
 10
123.465638634
 20
95.6990966587
 10
123.4893133772
 20
95.6572739922
 10
123.5159575512
 20
95.620294147
 10
123.5454602633
 20
95.5883328247
 10
123.5776633676
 20
95.5615558414
 10
123.6117686126
 20
95.5404911761
  0
LWPOLYLINE
  5
232
100
AcDbEntity
  8
ASSI
100
AcDbPolyline
 62
7
  6
CONTINUOUS
 90
14
 70
0
 10
123.2050312454
 20
96.2642565356
 10
123.2060467827
 20
96.2388935132
 10
123.213916624
 20
96.149277907
 10
123.2280462533
 20
96.0652501998
 10
123.2481245264
 20
95.9866877362
 10
123.2739314147
 20
95.9132876226
 10
123.3052921316
 20
95.8449402005
 10
123.3418805709
 20
95.7818600372
 10
123.3834127344
 20
95.7241250211
 10
123.4296106359
 20
95.6718544171
 10
123.479927373
 20
95.6254265384
 10
123.5338609682
 20
95.5850292695
 10
123.591068873
 20
95.5507192142
 10
123.625618734
 20
95.5336476325
  0
LWPOLYLINE
  5
233
100
AcDbEntity
  8
0
100
AcDbPolyline
 62
7
  6
CONTINUOUS
 90
14
 70
0
 10
123.2050312454
 20
96.2642565356
 10
123.2060467827
 20
96.2388935132
 10
123.213916624
 20
96.149277907
 10
123.2280462533
 20
96.0652501998
 10
123.2481245264
 20
95.9866877362
 10
123.2739314147
 20
95.9132876226
 10
123.3052921316
 20
95.8449402005
 10
123.3418805709
 20
95.7818600372
 10
123.3834127344
 20
95.7241250211
 10
123.4296106359
 20
95.6718544171
 10
123.479927373
 20
95.6254265384
 10
123.5338609682
 20
95.5850292695
 10
123.591068873
 20
95.5507192142
 10
123.625618734
 20
95.5336476325
  0
LWPOLYLINE
  5
234
100
AcDbEntity
  8
ASSI
100
AcDbPolyline
 62
253
  6
CONTINUOUS
 90
9
 70
0
 10
123.1363242945
 20
113.5342067906
 10
123.1377257059
 20
113.4921758597
 10
123.1430388901
 20
113.4536955681
 10
123.1518163927
 20
113.4186970576
 10
123.1635964281
 20
113.3871799318
 10
123.178540739
 20
113.3593572708
 10
123.1969133904
 20
113.3356749037
 10
123.2179037425
 20
113.3167065787
 10
123.2409363979
 20
113.3027163893
  0
LWPOLYLINE
  5
235
100
AcDbEntity
  8
0
100
AcDbPolyline
 62
253
  6
CONTINUOUS
 90
9
 70
0
 10
123.1363242945
 20
113.5342067906
 10
123.1377257059
 20
113.4921758597
 10
123.1430388901
 20
113.4536955681
 10
123.1518163927
 20
113.4186970576
 10
123.1635964281
 20
113.3871799318
 10
123.178540739
 20
113.3593572708
 10
123.1969133904
 20
113.3356749037
 10
123.2179037425
 20
113.3167065787
 10
123.2409363979
 20
113.3027163893
  0
LWPOLYLINE
  5
236
100
AcDbEntity
  8
ASSI
100
AcDbPolyline
 62
7
  6
CONTINUOUS
 90
10
 70
0
 10
122.957016597
 20
112.5432742583
 10
122.961539067
 20
110.766722806
 10
122.9719173315
 20
108.929076949
 10
122.9880886898
 20
107.0963495892
 10
123.0100537515
 20
105.2685802746
 10
123.0378126663
 20
103.445806096
 10
123.0713655754
 20
101.6280631496
 10
123.110711938
 20
99.8153926748
 10
123.1558505887
 20
98.0078405976
 10
123.2050194593
 20
96.2644396335
  0
LWPOLYLINE
  5
237
100
AcDbEntity
  8
0
100
AcDbPolyline
 62
7
  6
CONTINUOUS
 90
10
 70
0
 10
122.957016597
 20
112.5432742583
 10
122.961539067
 20
110.766722806
 10
122.9719173315
 20
108.929076949
 10
122.9880886898
 20
107.0963495892
 10
123.0100537515
 20
105.2685802746
 10
123.0378126663
 20
103.445806096
 10
123.0713655754
 20
101.6280631496
 10
123.110711938
 20
99.8153926748
 10
123.1558505887
 20
98.0078405976
 10
123.2050194593
 20
96.2644396335
  0
LWPOLYLINE
  5
238
100
AcDbEntity
  8
ASSI
100
AcDbPolyline
 62
253
  6
CONTINUOUS
 90
10
 70
0
 10
123.1363244631
 20
112.3231384681
 10
123.1406184143
 20
110.6340979574
 10
123.1500884722
 20
108.9241657126
 10
123.1649633599
 20
107.193563953
 10
123.1853033457
 20
105.4556893337
 10
123.2114310038
 20
103.6975348389
 10
123.2443501069
 20
101.8800457636
 10
123.284995293
 20
99.9907464436
 10
123.3338133772
 20
98.0433853346
 10
123.3914862176
 20
96.0386057292
  0
LWPOLYLINE
  5
239
100
AcDbEntity
  8
0
100
AcDbPolyline
 62
253
  6
CONTINUOUS
 90
10
 70
0
 10
123.1363244631
 20
112.3231384681
 10
123.1406184143
 20
110.6340979574
 10
123.1500884722
 20
108.9241657126
 10
123.1649633599
 20
107.193563953
 10
123.1853033457
 20
105.4556893337
 10
123.2114310038
 20
103.6975348389
 10
123.2443501069
 20
101.8800457636
 10
123.284995293
 20
99.9907464436
 10
123.3338133772
 20
98.0433853346
 10
123.3914862176
 20
96.0386057292
  0
LWPOLYLINE
  5
23A
100
AcDbEntity
  8
ASSI
100
AcDbPolyline
 62
7
  6
CONTINUOUS
 90
10
 70
0
 10
123.2049982182
 20
130.4616776147
 10
123.1559770249
 20
128.6388518836
 10
123.1108260493
 20
126.7532518309
 10
123.0714663303
 20
124.8725494
 10
123.0378990576
 20
122.9967906304
 10
123.0101247764
 20
121.1260154633
 10
122.988143808
 20
119.2602615155
 10
122.9719562692
 20
117.3995668149
 10
122.9615612424
 20
115.5439703859
 10
122.9570166497
 20
113.7541285025
  0
LWPOLYLINE
  5
23B
100
AcDbEntity
  8
0
100
AcDbPolyline
 62
7
  6
CONTINUOUS
 90
10
 70
0
 10
123.2049982182
 20
130.4616776147
 10
123.1559770249
 20
128.6388518836
 10
123.1108260493
 20
126.7532518309
 10
123.0714663303
 20
124.8725494
 10
123.0378990576
 20
122.9967906304
 10
123.0101247764
 20
121.1260154633
 10
122.988143808
 20
119.2602615155
 10
122.9719562692
 20
117.3995668149
 10
122.9615612424
 20
115.5439703859
 10
122.9570166497
 20
113.7541285025
  0
LWPOLYLINE
  5
23C
100
AcDbEntity
  8
ASSI
100
AcDbPolyline
 62
253
  6
CONTINUOUS
 90
10
 70
0
 10
123.3914862192
 20
130.2419184167
 10
123.3379556031
 20
128.3014752994
 10
123.2914450283
 20
126.3980169149
 10
123.2516458006
 20
124.5313476492
 10
123.2186053517
 20
122.7222223892
 10
123.1915458613
 20
120.949393667
 10
123.1695046062
 20
119.1501159295
 10
123.1526123228
 20
117.303856782
 10
123.1414523433
 20
115.4317927145
 10
123.1363244542
 20
113.5342067128
  0
LWPOLYLINE
  5
23D
100
AcDbEntity
  8
0
100
AcDbPolyline
 62
253
  6
CONTINUOUS
 90
10
 70
0
 10
123.3914862192
 20
130.2419184167
 10
123.3379556031
 20
128.3014752994
 10
123.2914450283
 20
126.3980169149
 10
123.2516458006
 20
124.5313476492
 10
123.2186053517
 20
122.7222223892
 10
123.1915458613
 20
120.949393667
 10
123.1695046062
 20
119.1501159295
 10
123.1526123228
 20
117.303856782
 10
123.1414523433
 20
115.4317927145
 10
123.1363244542
 20
113.5342067128
  0
LWPOLYLINE
  5
23E
100
AcDbEntity
  8
ASSI
100
AcDbPolyline
 62
253
  6
CONTINUOUS
 90
16
 70
0
 10
123.1363242408
 20
112.3231385048
 10
123.1377256747
 20
112.3679164326
 10
123.1430392484
 20
112.4133978407
 10
123.151817376
 20
112.4597066467
 10
123.1635980929
 20
112.507369825
 10
123.1785431069
 20
112.5560749
 10
123.1969165244
 20
112.60442957
 10
123.2179075235
 20
112.651878658
 10
123.2411858716
 20
112.6984480077
 10
123.2672451398
 20
112.7432672778
 10
123.2953291387
 20
112.7858028718
 10
123.3247315303
 20
112.8258331391
 10
123.3559799071
 20
112.8627530677
 10
123.3887586074
 20
112.8960956114
 10
123.4218625562
 20
112.9256748531
 10
123.4545136645
 20
112.9512991592
  0
LWPOLYLINE
  5
23F
100
AcDbEntity
  8
0
100
AcDbPolyline
 62
253
  6
CONTINUOUS
 90
16
 70
0
 10
123.1363242408
 20
112.3231385048
 10
123.1377256747
 20
112.3679164326
 10
123.1430392484
 20
112.4133978407
 10
123.151817376
 20
112.4597066467
 10
123.1635980929
 20
112.507369825
 10
123.1785431069
 20
112.5560749
 10
123.1969165244
 20
112.60442957
 10
123.2179075235
 20
112.651878658
 10
123.2411858716
 20
112.6984480077
 10
123.2672451398
 20
112.7432672778
 10
123.2953291387
 20
112.7858028718
 10
123.3247315303
 20
112.8258331391
 10
123.3559799071
 20
112.8627530677
 10
123.3887586074
 20
112.8960956114
 10
123.4218625562
 20
112.9256748531
 10
123.4545136645
 20
112.9512991592
  0
LINE
  5
240
100
AcDbEntity
  8
ASSI
100
AcDbLine
 62
7
  6
CONTINUOUS
 10
140.4314343569
 20
127.010824696
 11
139.7955294399
 21
126.8146576119
  0
LINE
  5
241
100
AcDbEntity
  8
0
100
AcDbLine
 62
7
  6
CONTINUOUS
 10
140.4314343569
 20
127.010824696
 11
139.7955294399
 21
126.8146576119
  0
LWPOLYLINE
  5
242
100
AcDbEntity
  8
0
100
AcDbPolyline
 62
253
  6
CONTINUOUS
 90
16
 70
0
 10
158.662368779
 20
81.8730241055
 10
158.7056983481
 20
81.8598627752
 10
158.7511136901
 20
81.8493767603
 10
158.7981744615
 20
81.8416677323
 10
158.8464243651
 20
81.8368104372
 10
158.895395574
 20
81.8348519712
 10
158.9446132674
 20
81.8358113231
 10
158.9936002349
 20
81.8396791913
 10
159.0418815028
 20
81.8464180733
 10
159.0889889402
 20
81.8559626294
 10
159.1344657973
 20
81.8682203164
 10
159.1778711343
 20
81.8830722848
 10
159.2187840969
 20
81.9003745312
 10
159.2568079963
 20
81.9199592946
 10
159.2915741562
 20
81.9416366826
 10
159.3227454867
 20
81.9651965132
  0
LWPOLYLINE
  5
243
100
AcDbEntity
  8
ASSI
100
AcDbPolyline
 62
253
  6
CONTINUOUS
 90
16
 70
0
 10
158.662368779
 20
81.8730241055
 10
158.7056983481
 20
81.8598627752
 10
158.7511136901
 20
81.8493767603
 10
158.7981744615
 20
81.8416677323
 10
158.8464243651
 20
81.8368104372
 10
158.895395574
 20
81.8348519712
 10
158.9446132674
 20
81.8358113231
 10
158.9936002349
 20
81.8396791913
 10
159.0418815028
 20
81.8464180733
 10
159.0889889402
 20
81.8559626294
 10
159.1344657973
 20
81.8682203164
 10
159.1778711343
 20
81.8830722848
 10
159.2187840969
 20
81.9003745312
 10
159.2568079963
 20
81.9199592946
 10
159.2915741562
 20
81.9416366826
 10
159.3227454867
 20
81.9651965132
  0
LWPOLYLINE
  5
244
100
AcDbEntity
  8
0
100
AcDbPolyline
 62
7
  6
CONTINUOUS
 90
12
 70
0
 10
158.9073930997
 20
81.3636129482
 10
158.9397082618
 20
81.3531697981
 10
159.0073961964
 20
81.3369461238
 10
159.0771710089
 20
81.3276953366
 10
159.1485082495
 20
81.3256297521
 10
159.2212389346
 20
81.3309653506
 10
159.2949227355
 20
81.343950542
 10
159.3688793757
 20
81.3647067557
 10
159.4428980918
 20
81.3934276974
 10
159.5168165206
 20
81.4303904571
 10
159.5902387296
 20
81.4757327789
 10
159.6039011096
 20
81.4851633738
  0
LWPOLYLINE
  5
245
100
AcDbEntity
  8
ASSI
100
AcDbPolyline
 62
7
  6
CONTINUOUS
 90
12
 70
0
 10
158.9073930997
 20
81.3636129482
 10
158.9397082618
 20
81.3531697981
 10
159.0073961964
 20
81.3369461238
 10
159.0771710089
 20
81.3276953366
 10
159.1485082495
 20
81.3256297521
 10
159.2212389346
 20
81.3309653506
 10
159.2949227355
 20
81.343950542
 10
159.3688793757
 20
81.3647067557
 10
159.4428980918
 20
81.3934276974
 10
159.5168165206
 20
81.4303904571
 10
159.5902387296
 20
81.4757327789
 10
159.6039011096
 20
81.4851633738
  0
LINE
  5
246
100
AcDbEntity
  8
ASSI
100
AcDbLine
 62
7
  6
CONTINUOUS
 10
127.5768227413
 20
131.7107917687
 11
127.5774916538
 21
131.721697036
  0
LINE
  5
247
100
AcDbEntity
  8
0
100
AcDbLine
 62
7
  6
CONTINUOUS
 10
127.5768227413
 20
131.7107917687
 11
127.5774916538
 21
131.721697036
  0
LINE
  5
248
100
AcDbEntity
  8
ASSI
100
AcDbLine
 62
7
  6
CONTINUOUS
 10
127.6386439093
 20
132.1486977465
 11
127.5774916538
 21
131.721697036
  0
LINE
  5
249
100
AcDbEntity
  8
0
100
AcDbLine
 62
7
  6
CONTINUOUS
 10
127.6386439093
 20
132.1486977465
 11
127.5774916538
 21
131.721697036
  0
LWPOLYLINE
  5
24A
100
AcDbEntity
  8
ASSI
100
AcDbPolyline
 62
7
  6
CONTINUOUS
 90
10
 70
0
 10
123.1267431695
 20
112.9191814327
 10
123.1027098999
 20
112.8965875325
 10
123.0699595648
 20
112.8603121682
 10
123.0409310812
 20
112.8210487186
 10
123.0159676249
 20
112.7793222884
 10
122.9951771761
 20
112.7353732072
 10
122.9786675631
 20
112.6893307336
 10
122.9666711993
 20
112.6415716665
 10
122.9594151598
 20
112.5927052127
 10
122.9570165968
 20
112.5432742561
  0
LWPOLYLINE
  5
24B
100
AcDbEntity
  8
0
100
AcDbPolyline
 62
7
  6
CONTINUOUS
 90
10
 70
0
 10
123.1267431695
 20
112.9191814327
 10
123.1027098999
 20
112.8965875325
 10
123.0699595648
 20
112.8603121682
 10
123.0409310812
 20
112.8210487186
 10
123.0159676249
 20
112.7793222884
 10
122.9951771761
 20
112.7353732072
 10
122.9786675631
 20
112.6893307336
 10
122.9666711993
 20
112.6415716665
 10
122.9594151598
 20
112.5927052127
 10
122.9570165968
 20
112.5432742561
  0
LINE
  5
24C
100
AcDbEntity
  8
ASSI
100
AcDbLine
 62
7
  6
CONTINUOUS
 10
123.126802494
 20
112.9192336282
 11
123.4503772142
 21
113.2038263073
  0
LINE
  5
24D
100
AcDbEntity
  8
0
100
AcDbLine
 62
7
  6
CONTINUOUS
 10
123.126802494
 20
112.9192336282
 11
123.4503772142
 21
113.2038263073
  0
LINE
  5
24E
100
AcDbEntity
  8
ASSI
100
AcDbLine
 62
253
  6
CONTINUOUS
 10
123.4545136915
 20
112.9512991824
 11
123.6398929596
 21
113.1143452402
  0
LINE
  5
24F
100
AcDbEntity
  8
0
100
AcDbLine
 62
253
  6
CONTINUOUS
 10
123.4545136915
 20
112.9512991824
 11
123.6398929596
 21
113.1143452402
  0
LWPOLYLINE
  5
250
100
AcDbEntity
  8
ASSI
100
AcDbPolyline
 62
253
  6
CONTINUOUS
 90
10
 70
0
 10
123.1268018578
 20
112.9192330687
 10
123.1449875607
 20
112.9336685347
 10
123.1756525492
 20
112.9522217453
 10
123.2094188382
 20
112.9662901407
 10
123.2459240793
 20
112.9757165494
 10
123.2847630367
 20
112.9803905897
 10
123.3254986108
 20
112.9802575946
 10
123.3676784664
 20
112.9753196553
 10
123.4108418675
 20
112.965631303
 10
123.4545136649
 20
112.951299159
  0
LWPOLYLINE
  5
251
100
AcDbEntity
  8
0
100
AcDbPolyline
 62
253
  6
CONTINUOUS
 90
10
 70
0
 10
123.1268018578
 20
112.9192330687
 10
123.1449875607
 20
112.9336685347
 10
123.1756525492
 20
112.9522217453
 10
123.2094188382
 20
112.9662901407
 10
123.2459240793
 20
112.9757165494
 10
123.2847630367
 20
112.9803905897
 10
123.3254986108
 20
112.9802575946
 10
123.3676784664
 20
112.9753196553
 10
123.4108418675
 20
112.965631303
 10
123.4545136649
 20
112.951299159
  0
LINE
  5
252
100
AcDbEntity
  8
ASSI
100
AcDbLine
 62
253
  6
CONTINUOUS
 10
141.3901522854
 20
88.9623721881
 11
141.3645967636
 21
88.9589815524
  0
LINE
  5
253
100
AcDbEntity
  8
0
100
AcDbLine
 62
253
  6
CONTINUOUS
 10
141.3901522854
 20
88.9623721881
 11
141.3645967636
 21
88.9589815524
  0
LWPOLYLINE
  5
254
100
AcDbEntity
  8
ASSI
100
AcDbPolyline
 62
253
  6
CONTINUOUS
 90
4
 70
0
 10
141.3645967636
 20
88.9589815524
 10
141.338942186
 20
88.958755422
 10
141.3142295483
 20
88.9617779346
 10
141.290824437
 20
88.9680040127
  0
LWPOLYLINE
  5
255
100
AcDbEntity
  8
0
100
AcDbPolyline
 62
253
  6
CONTINUOUS
 90
4
 70
0
 10
141.3645967636
 20
88.9589815524
 10
141.338942186
 20
88.958755422
 10
141.3142295483
 20
88.9617779346
 10
141.290824437
 20
88.9680040127
  0
LWPOLYLINE
  5
256
100
AcDbEntity
  8
ASSI
100
AcDbPolyline
 62
253
  6
CONTINUOUS
 90
16
 70
0
 10
140.4771933957
 20
89.1766005146
 10
140.5205229649
 20
89.1634391843
 10
140.5659383069
 20
89.1529531693
 10
140.6129990783
 20
89.1452441413
 10
140.6612489819
 20
89.1403868463
 10
140.7102201908
 20
89.1384283802
 10
140.7594378842
 20
89.1393877322
 10
140.8084248517
 20
89.1432556004
 10
140.8567061196
 20
89.1499944824
 10
140.903813557
 20
89.1595390385
 10
140.9492904141
 20
89.1717967255
 10
140.9926957511
 20
89.1866486939
 10
141.0336087137
 20
89.2039509403
 10
141.0716326131
 20
89.2235357037
 10
141.106398773
 20
89.2452130917
 10
141.1375701035
 20
89.2687729223
  0
LWPOLYLINE
  5
257
100
AcDbEntity
  8
0
100
AcDbPolyline
 62
253
  6
CONTINUOUS
 90
16
 70
0
 10
140.4771933957
 20
89.1766005146
 10
140.5205229649
 20
89.1634391843
 10
140.5659383069
 20
89.1529531693
 10
140.6129990783
 20
89.1452441413
 10
140.6612489819
 20
89.1403868463
 10
140.7102201908
 20
89.1384283802
 10
140.7594378842
 20
89.1393877322
 10
140.8084248517
 20
89.1432556004
 10
140.8567061196
 20
89.1499944824
 10
140.903813557
 20
89.1595390385
 10
140.9492904141
 20
89.1717967255
 10
140.9926957511
 20
89.1866486939
 10
141.0336087137
 20
89.2039509403
 10
141.0716326131
 20
89.2235357037
 10
141.106398773
 20
89.2452130917
 10
141.1375701035
 20
89.2687729223
  0
LWPOLYLINE
  5
258
100
AcDbEntity
  8
ASSI
100
AcDbPolyline
 62
7
  6
CONTINUOUS
 90
12
 70
0
 10
140.7222177164
 20
88.6671893573
 10
140.7545328786
 20
88.6567462072
 10
140.8222208131
 20
88.6405225328
 10
140.8919956256
 20
88.6312717456
 10
140.9633328663
 20
88.6292061612
 10
141.0360635514
 20
88.6345417597
 10
141.1097473522
 20
88.6475269511
 10
141.1837039925
 20
88.6682831648
 10
141.2577227086
 20
88.6970041065
 10
141.3316411374
 20
88.7339668661
 10
141.4050633464
 20
88.7793091879
 10
141.4097161183
 20
88.7825208104
  0
LWPOLYLINE
  5
259
100
AcDbEntity
  8
0
100
AcDbPolyline
 62
7
  6
CONTINUOUS
 90
12
 70
0
 10
140.7222177164
 20
88.6671893573
 10
140.7545328786
 20
88.6567462072
 10
140.8222208131
 20
88.6405225328
 10
140.8919956256
 20
88.6312717456
 10
140.9633328663
 20
88.6292061612
 10
141.0360635514
 20
88.6345417597
 10
141.1097473522
 20
88.6475269511
 10
141.1837039925
 20
88.6682831648
 10
141.2577227086
 20
88.6970041065
 10
141.3316411374
 20
88.7339668661
 10
141.4050633464
 20
88.7793091879
 10
141.4097161183
 20
88.7825208104
  0
LWPOLYLINE
  5
25A
100
AcDbEntity
  8
ASSI
100
AcDbPolyline
 62
253
  6
CONTINUOUS
 90
13
 70
0
 10
141.290824437
 20
88.9680040127
 10
141.2687462973
 20
88.9774828449
 10
141.2479756839
 20
88.9901652426
 10
141.2288198479
 20
89.0058585628
 10
141.2113045561
 20
89.0246070893
 10
141.1954040416
 20
89.0463665382
 10
141.181348254
 20
89.070811415
 10
141.1691635686
 20
89.0979980642
 10
141.15882361
 20
89.1278701412
 10
141.1504792018
 20
89.1599331183
 10
141.1441806186
 20
89.1940221529
 10
141.1398775858
 20
89.2303020875
 10
141.1375701035
 20
89.2687729223
  0
LWPOLYLINE
  5
25B
100
AcDbEntity
  8
0
100
AcDbPolyline
 62
253
  6
CONTINUOUS
 90
13
 70
0
 10
141.290824437
 20
88.9680040127
 10
141.2687462973
 20
88.9774828449
 10
141.2479756839
 20
88.9901652426
 10
141.2288198479
 20
89.0058585628
 10
141.2113045561
 20
89.0246070893
 10
141.1954040416
 20
89.0463665382
 10
141.181348254
 20
89.070811415
 10
141.1691635686
 20
89.0979980642
 10
141.15882361
 20
89.1278701412
 10
141.1504792018
 20
89.1599331183
 10
141.1441806186
 20
89.1940221529
 10
141.1398775858
 20
89.2303020875
 10
141.1375701035
 20
89.2687729223
  0
LWPOLYLINE
  5
25C
100
AcDbEntity
  8
ASSI
100
AcDbPolyline
 62
253
  6
CONTINUOUS
 90
13
 70
0
 10
140.7222108957
 20
88.6671917893
 10
140.6884206314
 20
88.6819862734
 10
140.6550333035
 20
88.7028990586
 10
140.6241211347
 20
88.7291575735
 10
140.595825821
 20
88.7606339777
 10
140.5702714647
 20
88.797176128
 10
140.5476050516
 20
88.838593827
 10
140.5279325746
 20
88.8846793994
 10
140.5113361677
 20
88.9352109348
 10
140.4979083981
 20
88.989944636
 10
140.4877167548
 20
89.0486155873
 10
140.4808012993
 20
89.1109359491
 10
140.4771933955
 20
89.1766005188
  0
LWPOLYLINE
  5
25D
100
AcDbEntity
  8
0
100
AcDbPolyline
 62
253
  6
CONTINUOUS
 90
13
 70
0
 10
140.7222108957
 20
88.6671917893
 10
140.6884206314
 20
88.6819862734
 10
140.6550333035
 20
88.7028990586
 10
140.6241211347
 20
88.7291575735
 10
140.595825821
 20
88.7606339777
 10
140.5702714647
 20
88.797176128
 10
140.5476050516
 20
88.838593827
 10
140.5279325746
 20
88.8846793994
 10
140.5113361677
 20
88.9352109348
 10
140.4979083981
 20
88.989944636
 10
140.4877167548
 20
89.0486155873
 10
140.4808012993
 20
89.1109359491
 10
140.4771933955
 20
89.1766005188
  0
LWPOLYLINE
  5
25E
100
AcDbEntity
  8
0
100
AcDbPolyline
 62
253
  6
CONTINUOUS
 90
13
 70
0
 10
158.9073862789
 20
81.3636153802
 10
158.8735960146
 20
81.3784098643
 10
158.8402086868
 20
81.3993226496
 10
158.809296518
 20
81.4255811644
 10
158.7810012042
 20
81.4570575686
 10
158.7554468479
 20
81.4935997189
 10
158.7327804348
 20
81.535017418
 10
158.7131079578
 20
81.5811029904
 10
158.6965115509
 20
81.6316345257
 10
158.6830837813
 20
81.6863682269
 10
158.672892138
 20
81.7450391782
 10
158.6659766825
 20
81.80735954
 10
158.6623687787
 20
81.8730241098
  0
LWPOLYLINE
  5
25F
100
AcDbEntity
  8
ASSI
100
AcDbPolyline
 62
253
  6
CONTINUOUS
 90
13
 70
0
 10
158.9073862789
 20
81.3636153802
 10
158.8735960146
 20
81.3784098643
 10
158.8402086868
 20
81.3993226496
 10
158.809296518
 20
81.4255811644
 10
158.7810012042
 20
81.4570575686
 10
158.7554468479
 20
81.4935997189
 10
158.7327804348
 20
81.535017418
 10
158.7131079578
 20
81.5811029904
 10
158.6965115509
 20
81.6316345257
 10
158.6830837813
 20
81.6863682269
 10
158.672892138
 20
81.7450391782
 10
158.6659766825
 20
81.80735954
 10
158.6623687787
 20
81.8730241098
  0
LWPOLYLINE
  5
260
100
AcDbEntity
  8
ASSI
100
AcDbPolyline
 62
7
  6
CONTINUOUS
 90
10
 70
0
 10
123.6250971256
 20
95.5338830269
 10
125.368461362
 20
94.7456480249
 10
127.228484013
 20
93.9284616632
 10
129.1097705544
 20
93.1260961504
 10
131.0118988592
 20
92.3387371664
 10
132.9344420202
 20
91.5665655238
 10
134.8769603197
 20
90.8097525446
 10
136.8390025798
 20
90.0684604936
 10
138.820112252
 20
89.3428469107
 10
140.7231144065
 20
88.6668737435
  0
LWPOLYLINE
  5
261
100
AcDbEntity
  8
0
100
AcDbPolyline
 62
7
  6
CONTINUOUS
 90
10
 70
0
 10
123.6250971256
 20
95.5338830269
 10
125.368461362
 20
94.7456480249
 10
127.228484013
 20
93.9284616632
 10
129.1097705544
 20
93.1260961504
 10
131.0118988592
 20
92.3387371664
 10
132.9344420202
 20
91.5665655238
 10
134.8769603197
 20
90.8097525446
 10
136.8390025798
 20
90.0684604936
 10
138.820112252
 20
89.3428469107
 10
140.7231144065
 20
88.6668737435
  0
LWPOLYLINE
  5
262
100
AcDbEntity
  8
0
100
AcDbPolyline
 62
7
  6
CONTINUOUS
 90
10
 70
0
 10
141.8102725088
 20
88.2303066178
 10
143.5536367452
 20
87.4420716158
 10
145.4136593962
 20
86.6248852541
 10
147.2949459376
 20
85.8225197413
 10
149.1970742424
 20
85.0351607573
 10
151.1196174034
 20
84.2629891147
 10
153.0621357029
 20
83.5061761355
 10
155.024177963
 20
82.7648840845
 10
157.0052876352
 20
82.0392705016
 10
158.9082897898
 20
81.3632973344
  0
LWPOLYLINE
  5
263
100
AcDbEntity
  8
ASSI
100
AcDbPolyline
 62
7
  6
CONTINUOUS
 90
10
 70
0
 10
141.8102725088
 20
88.2303066178
 10
143.5536367452
 20
87.4420716158
 10
145.4136593962
 20
86.6248852541
 10
147.2949459376
 20
85.8225197413
 10
149.1970742424
 20
85.0351607573
 10
151.1196174034
 20
84.2629891147
 10
153.0621357029
 20
83.5061761355
 10
155.024177963
 20
82.7648840845
 10
157.0052876352
 20
82.0392705016
 10
158.9082897898
 20
81.3632973344
  0
LWPOLYLINE
  5
264
100
AcDbEntity
  8
ASSI
100
AcDbPolyline
 62
253
  6
CONTINUOUS
 90
31
 70
0
 10
123.3914862176
 20
96.0386057292
 10
123.9196684399
 20
95.7964291161
 10
124.4494436294
 20
95.5556350503
 10
124.9808004389
 20
95.3162261923
 10
125.5136025782
 20
95.0782607216
 10
126.047962824
 20
94.8416850718
 10
126.5842470752
 20
94.6063369679
 10
127.122622038
 20
94.3721460657
 10
127.6629064037
 20
94.1391939593
 10
128.2049462191
 20
93.9075479038
 10
128.74869531
 20
93.6772274634
 10
129.2941808654
 20
93.4482210174
 10
129.8413571865
 20
93.2205476578
 10
130.3902900572
 20
92.9941800843
 10
130.9408946381
 20
92.7691534666
 10
131.4928964853
 20
92.5455783304
 10
132.0459259934
 20
92.3235992456
 10
132.6003260083
 20
92.1030731163
 10
133.1568955683
 20
91.8836829417
 10
133.7145711953
 20
91.6658484054
 10
134.2743995605
 20
91.4491594398
 10
134.8403873038
 20
91.2320903786
 10
135.4116082358
 20
91.0150423805
 10
135.9890420147
 20
90.7976853316
 10
136.5796494873
 20
90.5774800374
 10
137.1837218685
 20
90.3544488155
 10
137.8011504216
 20
90.1287595353
 10
138.4384149082
 20
89.8981989428
 10
139.0978024055
 20
89.6621568776
 10
139.7773434255
 20
89.4215691865
 10
140.4771933944
 20
89.1766005248
  0
LWPOLYLINE
  5
265
100
AcDbEntity
  8
0
100
AcDbPolyline
 62
253
  6
CONTINUOUS
 90
31
 70
0
 10
123.3914862176
 20
96.0386057292
 10
123.9196684399
 20
95.7964291161
 10
124.4494436294
 20
95.5556350503
 10
124.9808004389
 20
95.3162261923
 10
125.5136025782
 20
95.0782607216
 10
126.047962824
 20
94.8416850718
 10
126.5842470752
 20
94.6063369679
 10
127.122622038
 20
94.3721460657
 10
127.6629064037
 20
94.1391939593
 10
128.2049462191
 20
93.9075479038
 10
128.74869531
 20
93.6772274634
 10
129.2941808654
 20
93.4482210174
 10
129.8413571865
 20
93.2205476578
 10
130.3902900572
 20
92.9941800843
 10
130.9408946381
 20
92.7691534666
 10
131.4928964853
 20
92.5455783304
 10
132.0459259934
 20
92.3235992456
 10
132.6003260083
 20
92.1030731163
 10
133.1568955683
 20
91.8836829417
 10
133.7145711953
 20
91.6658484054
 10
134.2743995605
 20
91.4491594398
 10
134.8403873038
 20
91.2320903786
 10
135.4116082358
 20
91.0150423805
 10
135.9890420147
 20
90.7976853316
 10
136.5796494873
 20
90.5774800374
 10
137.1837218685
 20
90.3544488155
 10
137.8011504216
 20
90.1287595353
 10
138.4384149082
 20
89.8981989428
 10
139.0978024055
 20
89.6621568776
 10
139.7773434255
 20
89.4215691865
 10
140.4771933944
 20
89.1766005248
  0
LWPOLYLINE
  5
266
100
AcDbEntity
  8
0
100
AcDbPolyline
 62
253
  6
CONTINUOUS
 90
31
 70
0
 10
141.5766616008
 20
88.7350293202
 10
142.1048438231
 20
88.492852707
 10
142.6346190126
 20
88.2520586412
 10
143.1659758221
 20
88.0126497832
 10
143.6987779614
 20
87.7746843125
 10
144.2331382073
 20
87.5381086627
 10
144.7694224584
 20
87.3027605588
 10
145.3077974212
 20
87.0685696567
 10
145.8480817869
 20
86.8356175503
 10
146.3901216023
 20
86.6039714947
 10
146.9338706932
 20
86.3736510543
 10
147.4793562486
 20
86.1446446083
 10
148.0265325698
 20
85.9169712487
 10
148.5754654404
 20
85.6906036752
 10
149.1260700213
 20
85.4655770575
 10
149.6780718685
 20
85.2420019213
 10
150.2311013766
 20
85.0200228366
 10
150.7855013915
 20
84.7994967072
 10
151.3420709515
 20
84.5801065326
 10
151.8997465785
 20
84.3622719963
 10
152.4595749437
 20
84.1455830307
 10
153.025562687
 20
83.9285139695
 10
153.5967836191
 20
83.7114659714
 10
154.1742173979
 20
83.4941089225
 10
154.7648248705
 20
83.2739036283
 10
155.3688972517
 20
83.0508724064
 10
155.9863258048
 20
82.8251831262
 10
156.6235902914
 20
82.5946225337
 10
157.2829777887
 20
82.3585804685
 10
157.9625188087
 20
82.1179927774
 10
158.6623687777
 20
81.8730241157
  0
LWPOLYLINE
  5
267
100
AcDbEntity
  8
ASSI
100
AcDbPolyline
 62
253
  6
CONTINUOUS
 90
31
 70
0
 10
141.5766616008
 20
88.7350293202
 10
142.1048438231
 20
88.492852707
 10
142.6346190126
 20
88.2520586412
 10
143.1659758221
 20
88.0126497832
 10
143.6987779614
 20
87.7746843125
 10
144.2331382073
 20
87.5381086627
 10
144.7694224584
 20
87.3027605588
 10
145.3077974212
 20
87.0685696567
 10
145.8480817869
 20
86.8356175503
 10
146.3901216023
 20
86.6039714947
 10
146.9338706932
 20
86.3736510543
 10
147.4793562486
 20
86.1446446083
 10
148.0265325698
 20
85.9169712487
 10
148.5754654404
 20
85.6906036752
 10
149.1260700213
 20
85.4655770575
 10
149.6780718685
 20
85.2420019213
 10
150.2311013766
 20
85.0200228366
 10
150.7855013915
 20
84.7994967072
 10
151.3420709515
 20
84.5801065326
 10
151.8997465785
 20
84.3622719963
 10
152.4595749437
 20
84.1455830307
 10
153.025562687
 20
83.9285139695
 10
153.5967836191
 20
83.7114659714
 10
154.1742173979
 20
83.4941089225
 10
154.7648248705
 20
83.2739036283
 10
155.3688972517
 20
83.0508724064
 10
155.9863258048
 20
82.8251831262
 10
156.6235902914
 20
82.5946225337
 10
157.2829777887
 20
82.3585804685
 10
157.9625188087
 20
82.1179927774
 10
158.6623687777
 20
81.8730241157
  0
LWPOLYLINE
  5
268
100
AcDbEntity
  8
ASSI
100
AcDbPolyline
 62
253
  6
CONTINUOUS
 90
10
 70
0
 10
123.3914942404
 20
96.0386118717
 10
123.3547086528
 20
96.0576264062
 10
123.3213174766
 20
96.0787905789
 10
123.2916444632
 20
96.101899188
 10
123.2659773141
 20
96.1267281787
 10
123.2445648908
 20
96.153036816
 10
123.2276148022
 20
96.180570019
 10
123.2152913916
 20
96.2090608333
 10
123.2077141435
 20
96.2382330199
 10
123.2050312454
 20
96.2642565356
  0
LWPOLYLINE
  5
269
100
AcDbEntity
  8
0
100
AcDbPolyline
 62
253
  6
CONTINUOUS
 90
10
 70
0
 10
123.3914942404
 20
96.0386118717
 10
123.3547086528
 20
96.0576264062
 10
123.3213174766
 20
96.0787905789
 10
123.2916444632
 20
96.101899188
 10
123.2659773141
 20
96.1267281787
 10
123.2445648908
 20
96.153036816
 10
123.2276148022
 20
96.180570019
 10
123.2152913916
 20
96.2090608333
 10
123.2077141435
 20
96.2382330199
 10
123.2050312454
 20
96.2642565356
  0
LWPOLYLINE
  5
26A
100
AcDbEntity
  8
0
100
AcDbPolyline
 62
253
  6
CONTINUOUS
 90
10
 70
0
 10
141.5766696237
 20
88.7350354626
 10
141.5398840361
 20
88.7540499971
 10
141.5064928598
 20
88.7752141698
 10
141.4768198464
 20
88.7983227789
 10
141.4511526973
 20
88.8231517696
 10
141.429740274
 20
88.849460407
 10
141.4127901854
 20
88.8769936099
 10
141.4004667748
 20
88.9054844242
 10
141.3928895267
 20
88.9346566108
 10
141.3902066286
 20
88.9606801265
  0
LWPOLYLINE
  5
26B
100
AcDbEntity
  8
ASSI
100
AcDbPolyline
 62
253
  6
CONTINUOUS
 90
10
 70
0
 10
141.5766696237
 20
88.7350354626
 10
141.5398840361
 20
88.7540499971
 10
141.5064928598
 20
88.7752141698
 10
141.4768198464
 20
88.7983227789
 10
141.4511526973
 20
88.8231517696
 10
141.429740274
 20
88.849460407
 10
141.4127901854
 20
88.8769936099
 10
141.4004667748
 20
88.9054844242
 10
141.3928895267
 20
88.9346566108
 10
141.3902066286
 20
88.9606801265
  0
LINE
  5
26C
100
AcDbEntity
  8
ASSI
100
AcDbLine
 62
7
  6
CONTINUOUS
 10
127.6386439093
 20
132.1486977465
 11
127.644741175
 21
131.6214110525
  0
LINE
  5
26D
100
AcDbEntity
  8
0
100
AcDbLine
 62
7
  6
CONTINUOUS
 10
127.6386439093
 20
132.1486977465
 11
127.644741175
 21
131.6214110525
  0
LINE
  5
26E
100
AcDbEntity
  8
ASSI
100
AcDbLine
 62
253
  6
CONTINUOUS
 10
127.5774916538
 20
131.721697036
 11
127.5774916549
 21
131.7107917688
  0
LINE
  5
26F
100
AcDbEntity
  8
0
100
AcDbLine
 62
253
  6
CONTINUOUS
 10
127.5774916538
 20
131.721697036
 11
127.5774916549
 21
131.7107917688
  0
LINE
  5
270
100
AcDbEntity
  8
ASSI
100
AcDbLine
 62
7
  6
CONTINUOUS
 10
143.3177365453
 20
125.6995789858
 11
141.9141179988
 21
124.3740952214
  0
LINE
  5
271
100
AcDbEntity
  8
0
100
AcDbLine
 62
7
  6
CONTINUOUS
 10
143.3177365453
 20
125.6995789858
 11
141.9141179988
 21
124.3740952214
  0
LWPOLYLINE
  5
272
100
AcDbEntity
  8
SUPERFICI
100
AcDbPolyline
 62
7
  6
CONTINUOUS
 90
34
 70
0
 10
128.9879895674
 20
114.5006700483
 10
128.9844546203
 20
114.4975960346
 10
128.9513527253
 20
114.46534954
 10
128.9216238559
 20
114.429800451
 10
128.8953794218
 20
114.3909911918
 10
128.872504932
 20
114.3488769004
 10
128.853249169
 20
114.3039041278
 10
128.8376199416
 20
114.2559051639
 10
128.8256075404
 20
114.2050462137
 10
128.8174341872
 20
114.1522744688
 10
128.8131734301
 20
114.0977050617
 10
128.812750771
 20
114.0412220961
 10
128.8161662189
 20
113.9834260989
 10
128.8234858618
 20
113.9241538139
 10
128.8346442888
 20
113.8635690165
 10
128.8494441493
 20
113.8027626881
 10
128.8679088339
 20
113.7418610576
 10
128.8900166894
 20
113.6807392502
 10
128.9155025472
 20
113.6201113882
 10
128.9444571245
 20
113.5598844723
 10
128.9767926271
 20
113.5001538012
 10
129.0119756196
 20
113.441915549
 10
129.0500107069
 20
113.3852621309
 10
129.0908964556
 20
113.3301036399
 10
129.1340895104
 20
113.277162086
 10
129.1796484613
 20
113.2264348668
 10
129.2275179351
 20
113.1779271461
 10
129.276982471
 20
113.1323716663
 10
129.3280923499
 20
113.0898077121
 10
129.380799785
 20
113.0501980035
 10
129.4342405678
 20
113.0141591301
 10
129.4881265465
 20
112.9818965666
 10
129.5427467604
 20
112.9532055762
 10
129.5981019181
 20
112.9280867413
  0
LINE
  5
273
100
AcDbEntity
  8
ASSI
100
AcDbLine
 62
253
  6
CONTINUOUS
 10
141.1166176984
 20
124.8594274769
 11
142.618891947
 21
126.1322924127
  0
LINE
  5
274
100
AcDbEntity
  8
0
100
AcDbLine
 62
253
  6
CONTINUOUS
 10
141.1166176984
 20
124.8594274769
 11
142.618891947
 21
126.1322924127
  0
LINE
  5
275
100
AcDbEntity
  8
ASSI
100
AcDbLine
 62
253
  6
CONTINUOUS
 10
141.5335554643
 20
124.2921195252
 11
143.0539573154
 21
125.5803438334
  0
LINE
  5
276
100
AcDbEntity
  8
0
100
AcDbLine
 62
253
  6
CONTINUOUS
 10
141.5335554643
 20
124.2921195252
 11
143.0539573154
 21
125.5803438334
  0
LWPOLYLINE
  5
277
100
AcDbEntity
  8
ASSI
100
AcDbPolyline
 62
7
  6
CONTINUOUS
 90
12
 70
0
 10
128.9879745204
 20
114.5006887718
 10
129.0032537635
 20
114.5132246305
 10
129.0503167548
 20
114.5453839364
 10
129.1017991682
 20
114.5713108934
 10
129.1575201675
 20
114.5911145391
 10
129.2160253264
 20
114.6043781009
 10
129.2772622355
 20
114.6109415348
 10
129.3412879768
 20
114.6109685938
 10
129.406808933
 20
114.6045254766
 10
129.4733939812
 20
114.5916343189
 10
129.5414765857
 20
114.5722748609
 10
129.61105852
 20
114.5464485266
  0
LWPOLYLINE
  5
278
100
AcDbEntity
  8
0
100
AcDbPolyline
 62
7
  6
CONTINUOUS
 90
12
 70
0
 10
128.9879745204
 20
114.5006887718
 10
129.0032537635
 20
114.5132246305
 10
129.0503167548
 20
114.5453839364
 10
129.1017991682
 20
114.5713108934
 10
129.1575201675
 20
114.5911145391
 10
129.2160253264
 20
114.6043781009
 10
129.2772622355
 20
114.6109415348
 10
129.3412879768
 20
114.6109685938
 10
129.406808933
 20
114.6045254766
 10
129.4733939812
 20
114.5916343189
 10
129.5414765857
 20
114.5722748609
 10
129.61105852
 20
114.5464485266
  0
LINE
  5
279
100
AcDbEntity
  8
SUPERFICI
100
AcDbLine
 62
7
  6
CONTINUOUS
 10
129.020341329
 20
114.5259619925
 11
128.9879895674
 21
114.5006700483
  0
LINE
  5
27A
100
AcDbEntity
  8
ASSI
100
AcDbLine
 62
7
  6
CONTINUOUS
 10
149.4421068441
 20
123.3919354843
 11
148.8062019271
 21
123.1957684002
  0
LINE
  5
27B
100
AcDbEntity
  8
0
100
AcDbLine
 62
7
  6
CONTINUOUS
 10
149.4421068441
 20
123.3919354843
 11
148.8062019271
 21
123.1957684002
  0
LWPOLYLINE
  5
27C
100
AcDbEntity
  8
0
100
AcDbPolyline
 62
253
  6
CONTINUOUS
 90
5
 70
0
 10
131.1731761643
 20
102.0199487183
 10
131.189964859
 20
101.0438534819
 10
131.2088475042
 20
100.0695504733
 10
131.2298238343
 20
99.0970485035
 10
131.2528935833
 20
98.1263563837
  0
LWPOLYLINE
  5
27D
100
AcDbEntity
  8
0
100
AcDbPolyline
 62
253
  6
CONTINUOUS
 90
51
 70
0
 10
131.1731761643
 20
102.0199487183
 10
131.1731746069
 20
102.0262393341
 10
131.1733737824
 20
102.0324443015
 10
131.1737734123
 20
102.03855797
 10
131.1743732185
 20
102.044574689
 10
131.1751729225
 20
102.0504888079
 10
131.176172246
 20
102.0562946761
 10
131.1773709106
 20
102.0619866432
 10
131.1787686381
 20
102.0675590586
 10
131.1803651501
 20
102.0730062718
 10
131.1821601682
 20
102.0783226321
 10
131.1841528437
 20
102.0835025195
 10
131.1863400457
 20
102.0885404357
 10
131.1887180729
 20
102.0934309131
 10
131.1912832241
 20
102.0981684837
 10
131.194031798
 20
102.1027476799
 10
131.1969600933
 20
102.107163034
 10
131.2000644086
 20
102.111409078
 10
131.2033410428
 20
102.1154803443
 10
131.2067862946
 20
102.1193713651
 10
131.2103964626
 20
102.1230766726
 10
131.214167832
 20
102.1265915591
 10
131.2180966341
 20
102.1299143563
 10
131.2221790867
 20
102.1330441561
 10
131.2264114074
 20
102.1359800504
 10
131.230789814
 20
102.138721131
 10
131.2353108678
 20
102.1412662899
 10
131.239972505
 20
102.1436136201
 10
131.2447730053
 20
102.1457610151
 10
131.2497106483
 20
102.1477063679
 10
131.254783714
 20
102.1494475721
 10
131.2599894769
 20
102.1509824698
 10
131.2653211916
 20
102.1523087002
 10
131.2707711078
 20
102.1534238514
 10
131.276331475
 20
102.1543255114
 10
131.2819945427
 20
102.1550112684
 10
131.2877526216
 20
102.1554791977
 10
131.293598267
 20
102.1557293236
 10
131.2995240949
 20
102.1557621576
 10
131.3055227219
 20
102.1555782111
 10
131.311586764
 20
102.1551779957
 10
131.3177091067
 20
102.1545622559
 10
131.3238837122
 20
102.1537326696
 10
131.3301048118
 20
102.1526911474
 10
131.3363666369
 20
102.1514396002
 10
131.3426634186
 20
102.1499799389
 10
131.3489893883
 20
102.1483140744
 10
131.3553387773
 20
102.1464439175
 10
131.3617058169
 20
102.1443713789
 10
131.3680847385
 20
102.1420983697
 10
131.3744697732
 20
102.1396268006
  0
LINE
  5
27E
100
AcDbEntity
  8
0
100
AcDbLine
 62
253
  6
CONTINUOUS
 10
131.7875401975
 20
116.6548102694
 11
131.808338417
 21
117.8813443102
  0
LINE
  5
27F
100
AcDbEntity
  8
0
100
AcDbLine
 62
253
  6
CONTINUOUS
 10
131.808338417
 20
117.8813443102
 11
131.8322629632
 21
119.1103213839
  0
LWPOLYLINE
  5
280
100
AcDbEntity
  8
0
100
AcDbPolyline
 62
253
  6
CONTINUOUS
 90
5
 70
0
 10
131.2528935833
 20
120.9257464236
 10
131.2298238343
 20
119.9172590397
 10
131.2088475042
 20
118.9103914627
 10
131.189964859
 20
117.9051529392
 10
131.1731761643
 20
116.9015527157
  0
LINE
  5
281
100
AcDbEntity
  8
0
100
AcDbLine
 62
253
  6
CONTINUOUS
 10
131.8322629632
 20
119.1103213839
 11
131.8672576165
 21
120.6790039774
  0
LWPOLYLINE
  5
282
100
AcDbEntity
  8
0
100
AcDbPolyline
 62
253
  6
CONTINUOUS
 90
51
 70
0
 10
131.7875401975
 20
116.6548102694
 10
131.7873374028
 20
116.6483522582
 10
131.7869333668
 20
116.6419794788
 10
131.7863285617
 20
116.6356977407
 10
131.7855234595
 20
116.6295128531
 10
131.7845185327
 20
116.6234306255
 10
131.7833142533
 20
116.6174568671
 10
131.7819110935
 20
116.6115973874
 10
131.7803095256
 20
116.6058579957
 10
131.7785100217
 20
116.6002445013
 10
131.776513054
 20
116.5947627137
 10
131.7743196751
 20
116.5894184196
 10
131.7719332583
 20
116.5842173162
 10
131.7693577574
 20
116.5791650778
 10
131.766597126
 20
116.5742673792
 10
131.7636553179
 20
116.5695298948
 10
131.7605362868
 20
116.5649582991
 10
131.7572439864
 20
116.5605582668
 10
131.7537823705
 20
116.5563354723
 10
131.7501553926
 20
116.5522955901
 10
131.7463670065
 20
116.5484442949
 10
131.7424211554
 20
116.5447864814
 10
131.7383217395
 20
116.5413239256
 10
131.7340726486
 20
116.5380576237
 10
131.7296777726
 20
116.5349885718
 10
131.725141001
 20
116.5321177663
 10
131.7204658812
 20
116.529446404
 10
131.7156545904
 20
116.5269764846
 10
131.7107089632
 20
116.5247102086
 10
131.7056308342
 20
116.5226497764
 10
131.7004220382
 20
116.5207973885
 10
131.6950854317
 20
116.5191553099
 10
131.6896279588
 20
116.5177260645
 10
131.6840575857
 20
116.5165122408
 10
131.6783822784
 20
116.5155164273
 10
131.6726100029
 20
116.5147412126
 10
131.6667486465
 20
116.5141886833
 10
131.6608057809
 20
116.5138589192
 10
131.654788899
 20
116.5137514982
 10
131.6487054937
 20
116.5138659983
 10
131.6425630579
 20
116.5142019974
 10
131.6363688018
 20
116.5147588292
 10
131.630128805
 20
116.5155348501
 10
131.6238488642
 20
116.5165281725
 10
131.6175347764
 20
116.5177369084
 10
131.6111923383
 20
116.5191591702
 10
131.6048273469
 20
116.52079307
 10
131.598445599
 20
116.5226367201
 10
131.5920528913
 20
116.5246882326
 10
131.5856550208
 20
116.5269457197
 10
131.5792577843
 20
116.5294072938
  0
LWPOLYLINE
  5
283
100
AcDbEntity
  8
0
100
AcDbPolyline
 62
253
  6
CONTINUOUS
 90
51
 70
0
 10
131.2528935833
 20
120.9257464236
 10
131.2531509062
 20
120.932249683
 10
131.2536095775
 20
120.9386668938
 10
131.2542687699
 20
120.9449922887
 10
131.255127656
 20
120.9512201005
 10
131.2561854083
 20
120.9573445618
 10
131.2574411996
 20
120.9633599055
 10
131.2588942023
 20
120.9692603641
 10
131.2605435891
 20
120.9750401705
 10
131.2623885327
 20
120.9806935574
 10
131.2644282056
 20
120.9862147575
 10
131.2666614634
 20
120.9915979651
 10
131.2690858936
 20
120.9968372208
 10
131.2716987667
 20
121.0019265267
 10
131.274497353
 20
121.006859885
 10
131.2774789231
 20
121.0116312978
 10
131.2806403011
 20
121.0162348694
 10
131.2839765263
 20
121.0206651118
 10
131.2874821918
 20
121.0249166392
 10
131.2911518906
 20
121.0289840657
 10
131.2949802157
 20
121.0328620055
 10
131.2989621314
 20
121.0365457807
 10
131.3030940874
 20
121.0400335448
 10
131.3073729043
 20
121.0433241597
 10
131.311795403
 20
121.046416487
 10
131.3163584042
 20
121.0493093883
 10
131.3210589196
 20
121.0520015557
 10
131.3258947238
 20
121.0544910026
 10
131.3308637823
 20
121.0567755728
 10
131.3359640604
 20
121.0588531101
 10
131.3411935237
 20
121.0607214584
 10
131.3465491562
 20
121.0623783872
 10
131.3520240158
 20
121.063821369
 10
131.3576101792
 20
121.0650478021
 10
131.3632997228
 20
121.0660550846
 10
131.3690847234
 20
121.0668406149
 10
131.3749573288
 20
121.0674022969
 10
131.3809099723
 20
121.0677400575
 10
131.3869351586
 20
121.0678543291
 10
131.3930253925
 20
121.0677455444
 10
131.3991731785
 20
121.0674141359
 10
131.4053713066
 20
121.0668607804
 10
131.4116137077
 20
121.0660871318
 10
131.4178945976
 20
121.0650950885
 10
131.4242081926
 20
121.0638865487
 10
131.4305487086
 20
121.0624634106
 10
131.4369103615
 20
121.0608275724
 10
131.4432873676
 20
121.0589809325
 10
131.4496739427
 20
121.056925389
 10
131.456064303
 20
121.0546628403
 10
131.4624526644
 20
121.0521951845
  0
LWPOLYLINE
  5
284
100
AcDbEntity
  8
ASSI
100
AcDbPolyline
 62
7
  6
CONTINUOUS
 90
19
 70
0
 10
141.9145674522
 20
124.3745106565
 10
141.9064885885
 20
124.3668155802
 10
141.849561965
 20
124.3083672997
 10
141.7963540418
 20
124.2465492853
 10
141.7467175947
 20
124.1818808193
 10
141.700334547
 20
124.1145657539
 10
141.6569658489
 20
124.0446930365
 10
141.6166050843
 20
123.9726081369
 10
141.5792343136
 20
123.8985556567
 10
141.5448396462
 20
123.8226672201
 10
141.5134990817
 20
123.745228588
 10
141.4853199918
 20
123.6664979896
 10
141.4603869803
 20
123.5866179735
 10
141.438846849
 20
123.5058141615
 10
141.4209041687
 20
123.424368856
 10
141.4067330233
 20
123.3423322117
 10
141.3965973296
 20
123.2597544354
 10
141.3908394705
 20
123.1769223329
 10
141.3901704271
 20
123.1577691804
  0
LWPOLYLINE
  5
285
100
AcDbEntity
  8
0
100
AcDbPolyline
 62
7
  6
CONTINUOUS
 90
19
 70
0
 10
141.9145674522
 20
124.3745106565
 10
141.9064885885
 20
124.3668155802
 10
141.849561965
 20
124.3083672997
 10
141.7963540418
 20
124.2465492853
 10
141.7467175947
 20
124.1818808193
 10
141.700334547
 20
124.1145657539
 10
141.6569658489
 20
124.0446930365
 10
141.6166050843
 20
123.9726081369
 10
141.5792343136
 20
123.8985556567
 10
141.5448396462
 20
123.8226672201
 10
141.5134990817
 20
123.745228588
 10
141.4853199918
 20
123.6664979896
 10
141.4603869803
 20
123.5866179735
 10
141.438846849
 20
123.5058141615
 10
141.4209041687
 20
123.424368856
 10
141.4067330233
 20
123.3423322117
 10
141.3965973296
 20
123.2597544354
 10
141.3908394705
 20
123.1769223329
 10
141.3901704271
 20
123.1577691804
  0
LINE
  5
286
100
AcDbEntity
  8
ASSI
100
AcDbLine
 62
253
  6
CONTINUOUS
 10
143.6363617024
 20
125.7236536207
 11
142.2423990868
 21
124.4072882737
  0
LINE
  5
287
100
AcDbEntity
  8
0
100
AcDbLine
 62
253
  6
CONTINUOUS
 10
143.6363617024
 20
125.7236536207
 11
142.2423990868
 21
124.4072882737
  0
LWPOLYLINE
  5
288
100
AcDbEntity
  8
ASSI
100
AcDbPolyline
 62
253
  6
CONTINUOUS
 90
22
 70
0
 10
142.2423990867
 20
124.4072882736
 10
142.1932377652
 20
124.3620191674
 10
142.1444695618
 20
124.3122893191
 10
142.0963529416
 20
124.2583387881
 10
142.0491606878
 20
124.2004228546
 10
142.0031243536
 20
124.1388276902
 10
141.9584334098
 20
124.0738677411
 10
141.9153206866
 20
124.0058539476
 10
141.8740181455
 20
123.9351184614
 10
141.8347012536
 20
123.8620296927
 10
141.7975756581
 20
123.7869456823
 10
141.762838736
 20
123.7102287785
 10
141.7306356315
 20
123.6322692585
 10
141.7011329193
 20
123.5534474832
 10
141.6744887453
 20
123.4741468001
 10
141.650814002
 20
123.394768648
 10
141.6302310138
 20
123.315707729
 10
141.6128487846
 20
123.2373425244
 10
141.5987357695
 20
123.1600487332
 10
141.587960558
 20
123.0842027399
 10
141.5805890621
 20
123.0101791926
 10
141.5766615924
 20
122.9383420063
  0
LWPOLYLINE
  5
289
100
AcDbEntity
  8
0
100
AcDbPolyline
 62
253
  6
CONTINUOUS
 90
22
 70
0
 10
142.2423990867
 20
124.4072882736
 10
142.1932377652
 20
124.3620191674
 10
142.1444695618
 20
124.3122893191
 10
142.0963529416
 20
124.2583387881
 10
142.0491606878
 20
124.2004228546
 10
142.0031243536
 20
124.1388276902
 10
141.9584334098
 20
124.0738677411
 10
141.9153206866
 20
124.0058539476
 10
141.8740181455
 20
123.9351184614
 10
141.8347012536
 20
123.8620296927
 10
141.7975756581
 20
123.7869456823
 10
141.762838736
 20
123.7102287785
 10
141.7306356315
 20
123.6322692585
 10
141.7011329193
 20
123.5534474832
 10
141.6744887453
 20
123.4741468001
 10
141.650814002
 20
123.394768648
 10
141.6302310138
 20
123.315707729
 10
141.6128487846
 20
123.2373425244
 10
141.5987357695
 20
123.1600487332
 10
141.587960558
 20
123.0842027399
 10
141.5805890621
 20
123.0101791926
 10
141.5766615924
 20
122.9383420063
  0
LINE
  5
28A
100
AcDbEntity
  8
0
100
AcDbLine
 62
253
  6
CONTINUOUS
 10
131.4624526603
 20
97.8432292853
 11
131.6672406714
 21
97.7609818032
  0
LINE
  5
28B
100
AcDbEntity
  8
0
100
AcDbLine
 62
253
  6
CONTINUOUS
 10
149.6476280435
 20
90.5396528762
 11
149.8524160546
 21
90.4574053941
  0
LWPOLYLINE
  5
28C
100
AcDbEntity
  8
0
100
AcDbPolyline
 62
253
  6
CONTINUOUS
 90
51
 70
0
 10
131.4624526644
 20
97.8432291224
 10
131.456042443
 20
97.8459063286
 10
131.4496320847
 20
97.8487786571
 10
131.443227477
 20
97.8518433754
 10
131.4368345071
 20
97.8550977508
 10
131.4304590623
 20
97.8585390507
 10
131.4241070299
 20
97.8621645424
 10
131.4177842974
 20
97.8659714933
 10
131.4114967519
 20
97.8699571708
 10
131.4052502808
 20
97.8741188422
 10
131.3990507714
 20
97.8784537749
 10
131.392904325
 20
97.8829585934
 10
131.3868178986
 20
97.8876273512
 10
131.3807986631
 20
97.8924534587
 10
131.3748537896
 20
97.8974303266
 10
131.368990449
 20
97.9025513655
 10
131.3632158122
 20
97.9078099857
 10
131.3575370502
 20
97.913199598
 10
131.3519613341
 20
97.9187136129
 10
131.3464958347
 20
97.9243454409
 10
131.341147723
 20
97.9300884927
 10
131.3359234091
 20
97.93593648
 10
131.3308262595
 20
97.9418843201
 10
131.3258588796
 20
97.9479272313
 10
131.321023875
 20
97.9540604322
 10
131.3163238511
 20
97.9602791412
 10
131.3117614624
 20
97.9665788935
 10
131.3073395581
 20
97.9729564909
 10
131.3030610365
 20
97.9794090522
 10
131.2989287958
 20
97.9859336958
 10
131.294945734
 20
97.9925275404
 10
131.2911152433
 20
97.9991865167
 10
131.2874426917
 20
98.0059018034
 10
131.2839339411
 20
98.0126633912
 10
131.2805948534
 20
98.0194612709
 10
131.2774312904
 20
98.0262854333
 10
131.2744485874
 20
98.0331261491
 10
131.2716499728
 20
98.0399748092
 10
131.269038148
 20
98.0468230842
 10
131.2666158149
 20
98.053662645
 10
131.264385675
 20
98.0604851624
 10
131.2623500742
 20
98.067282723
 10
131.2605099359
 20
98.074049077
 10
131.2588658275
 20
98.0807783902
 10
131.2574183167
 20
98.0874648287
 10
131.256167971
 20
98.0941025584
 10
131.2551153579
 20
98.1006857453
 10
131.254261045
 20
98.1072085553
 10
131.2536055999
 20
98.1136651544
 10
131.2531495901
 20
98.1200497086
 10
131.2528935833
 20
98.1263563837
  0
LWPOLYLINE
  5
28D
100
AcDbEntity
  8
0
100
AcDbPolyline
 62
253
  6
CONTINUOUS
 90
51
 70
0
 10
149.6476280477
 20
90.5396527133
 10
149.6412178262
 20
90.5423299195
 10
149.6348074679
 20
90.5452022481
 10
149.6284028602
 20
90.5482669664
 10
149.6220098903
 20
90.5515213418
 10
149.6156344455
 20
90.5549626416
 10
149.6092824132
 20
90.5585881333
 10
149.6029596806
 20
90.5623950842
 10
149.5966721351
 20
90.5663807617
 10
149.590425664
 20
90.5705424331
 10
149.5842261547
 20
90.5748773658
 10
149.5780797082
 20
90.5793821843
 10
149.5719932818
 20
90.5840509421
 10
149.5659740464
 20
90.5888770497
 10
149.5600291728
 20
90.5938539176
 10
149.5541658322
 20
90.5989749564
 10
149.5483911954
 20
90.6042335766
 10
149.5427124334
 20
90.6096231889
 10
149.5371367173
 20
90.6151372038
 10
149.5316712179
 20
90.6207690319
 10
149.5263231062
 20
90.6265120836
 10
149.5210987923
 20
90.6323600709
 10
149.5160016427
 20
90.638307911
 10
149.5110342628
 20
90.6443508223
 10
149.5061992582
 20
90.6504840232
 10
149.5014992343
 20
90.6567027322
 10
149.4969368456
 20
90.6630024844
 10
149.4925149413
 20
90.6693800819
 10
149.4882364197
 20
90.6758326431
 10
149.484104179
 20
90.6823572867
 10
149.4801211172
 20
90.6889511314
 10
149.4762906265
 20
90.6956101076
 10
149.472618075
 20
90.7023253943
 10
149.4691093243
 20
90.7090869821
 10
149.4657702366
 20
90.7158848619
 10
149.4626066736
 20
90.7227090242
 10
149.4596239706
 20
90.7295497401
 10
149.456825356
 20
90.7363984001
 10
149.4542135312
 20
90.7432466751
 10
149.4517911981
 20
90.7500862359
 10
149.4495610582
 20
90.7569087533
 10
149.4475254574
 20
90.7637063139
 10
149.4456853191
 20
90.7704726679
 10
149.4440412107
 20
90.7772019811
 10
149.4425936999
 20
90.7838884196
 10
149.4413433542
 20
90.7905261493
 10
149.4402907411
 20
90.7971093362
 10
149.4394364282
 20
90.8036321462
 10
149.4387809831
 20
90.8100887453
 10
149.4383249733
 20
90.8164732995
 10
149.4380689665
 20
90.8227799746
  0
LWPOLYLINE
  5
28E
100
AcDbEntity
  8
ASSI
100
AcDbPolyline
 62
7
  6
CONTINUOUS
 90
8
 70
0
 10
123.0589271827
 20
113.4510839109
 10
123.0329696897
 20
113.4886914842
 10
123.0104439766
 20
113.5287302807
 10
122.9916218484
 20
113.5708365431
 10
122.9766565532
 20
113.614854531
 10
122.9657751268
 20
113.6604381255
 10
122.9591914214
 20
113.7070303756
 10
122.9570166497
 20
113.7541285052
  0
LWPOLYLINE
  5
28F
100
AcDbEntity
  8
0
100
AcDbPolyline
 62
7
  6
CONTINUOUS
 90
8
 70
0
 10
123.0589271827
 20
113.4510839109
 10
123.0329696897
 20
113.4886914842
 10
123.0104439766
 20
113.5287302807
 10
122.9916218484
 20
113.5708365431
 10
122.9766565532
 20
113.614854531
 10
122.9657751268
 20
113.6604381255
 10
122.9591914214
 20
113.7070303756
 10
122.9570166497
 20
113.7541285052
  0
LINE
  5
290
100
AcDbEntity
  8
0
100
AcDbLine
 62
253
  6
CONTINUOUS
 10
131.8672576165
 20
97.8796139375
 11
131.8369638445
 21
99.174240704
  0
LINE
  5
291
100
AcDbEntity
  8
0
100
AcDbLine
 62
253
  6
CONTINUOUS
 10
131.8369638445
 20
99.174240704
 11
131.81039168
 21
100.4720796019
  0
LINE
  5
292
100
AcDbEntity
  8
0
100
AcDbLine
 62
253
  6
CONTINUOUS
 10
131.81039168
 20
100.4720796019
 11
131.7875401975
 21
101.773206272
  0
LWPOLYLINE
  5
293
100
AcDbEntity
  8
0
100
AcDbPolyline
 62
253
  6
CONTINUOUS
 90
51
 70
0
 10
131.8672576165
 20
97.8796139375
 10
131.8673127131
 20
97.8733665972
 10
131.8671656212
 20
97.8672046173
 10
131.8668168869
 20
97.8611335348
 10
131.8662670563
 20
97.8551588865
 10
131.8655166755
 20
97.8492862092
 10
131.8645662906
 20
97.8435210398
 10
131.8634164478
 20
97.8378689152
 10
131.8620676931
 20
97.8323353722
 10
131.8605205726
 20
97.8269259476
 10
131.8587756324
 20
97.8216461785
 10
131.8568337299
 20
97.8165016352
 10
131.8546969674
 20
97.8114980231
 10
131.8523677586
 20
97.8066410814
 10
131.8498485171
 20
97.801936549
 10
131.8471416565
 20
97.797390165
 10
131.8442500344
 20
97.7930075645
 10
131.841178284
 20
97.7887939671
 10
131.8379314823
 20
97.7847544885
 10
131.8345147064
 20
97.7808942443
 10
131.8309330336
 20
97.7772183502
 10
131.8271912093
 20
97.7737312465
 10
131.8232926528
 20
97.770434672
 10
131.8192404518
 20
97.76732969
 10
131.8150376941
 20
97.764417364
 10
131.8106874674
 20
97.7616987574
 10
131.8061926639
 20
97.7591750993
 10
131.8015553939
 20
97.7568482821
 10
131.7967775721
 20
97.7547203638
 10
131.7918611134
 20
97.7527934026
 10
131.7868079326
 20
97.7510694564
 10
131.7816209055
 20
97.749550641
 10
131.776306752
 20
97.748239302
 10
131.7708731532
 20
97.7471378425
 10
131.76532779
 20
97.7462486657
 10
131.7596783435
 20
97.7455741748
 10
131.7539324477
 20
97.7451162872
 10
131.7480975484
 20
97.7448749771
 10
131.7421810445
 20
97.7448497329
 10
131.7361903349
 20
97.745040043
 10
131.7301328183
 20
97.7454453959
 10
131.7240156233
 20
97.746065048
 10
131.717844797
 20
97.7468973271
 10
131.7116261162
 20
97.7479403292
 10
131.7053653577
 20
97.7491921501
 10
131.6990682983
 20
97.7506508858
 10
131.6927407148
 20
97.752314632
 10
131.686388384
 20
97.7541814847
 10
131.6800170826
 20
97.7562495397
 10
131.6736325875
 20
97.758516893
 10
131.6672406755
 20
97.7609816403
  0
LINE
  5
294
100
AcDbEntity
  8
ASSI
100
AcDbLine
 62
7
  6
CONTINUOUS
 10
136.8131468053
 20
128.4640105491
 11
136.7519945498
 21
128.0370098386
  0
LINE
  5
295
100
AcDbEntity
  8
0
100
AcDbLine
 62
7
  6
CONTINUOUS
 10
136.8131468053
 20
128.4640105491
 11
136.7519945498
 21
128.0370098386
  0
LWPOLYLINE
  5
296
100
AcDbEntity
  8
SUPERFICI
100
AcDbPolyline
 62
7
  6
CONTINUOUS
 90
34
 70
0
 10
128.9803766409
 20
107.1220783528
 10
128.9767519638
 20
107.1189239645
 10
128.9443673945
 20
107.0872640641
 10
128.9153832546
 20
107.0523250857
 10
128.8899094575
 20
107.0141484053
 10
128.8678331099
 20
106.9726903082
 10
128.8493946157
 20
106.9283897583
 10
128.8346042138
 20
106.881081419
 10
128.8234499569
 20
106.8309292957
 10
128.8161387289
 20
106.7788661529
 10
128.8127417921
 20
106.725005
 10
128.8131871961
 20
106.6692322791
 10
128.8174668815
 20
106.6121407831
 10
128.8256493584
 20
106.5535685227
 10
128.8376670553
 20
106.4936782199
 10
128.8533076603
 20
106.4335496099
 10
128.8725928616
 20
106.3733073039
 10
128.8955029023
 20
106.3128281883
 10
128.921763006
 20
106.2528201557
 10
128.9514650335
 20
106.193190992
 10
128.9845201458
 20
106.1340352747
 10
129.0203819548
 20
106.076340625
 10
129.0590535896
 20
106.0201986165
 10
129.1005350593
 20
105.9655201328
 10
129.1442743681
 20
105.9130210139
 10
129.1903296374
 20
105.862698549
 10
129.2386458276
 20
105.8145578784
 10
129.2884999921
 20
105.7693256527
 10
129.3399279864
 20
105.7270474342
 10
129.3928962335
 20
105.687679471
 10
129.4465760105
 20
105.6518131441
 10
129.5006909713
 20
105.6196454994
 10
129.5555182358
 20
105.590980121
 10
129.6110584561
 20
105.5658175431
  0
LWPOLYLINE
  5
297
100
AcDbEntity
  8
SUPERFICI
100
AcDbPolyline
 62
7
  6
CONTINUOUS
 90
32
 70
0
 10
133.9089756419
 20
111.4942191818
 10
133.9294074893
 20
111.5111446199
 10
133.9635648979
 20
111.5442567452
 10
133.9942499616
 20
111.5805890388
 10
134.0213443042
 20
111.6200931924
 10
134.0449634848
 20
111.6628151044
 10
134.0648481275
 20
111.7083002697
 10
134.0809879973
 20
111.7567140284
 10
134.0933917326
 20
111.8078896646
 10
134.1018280175
 20
111.8608743999
 10
134.1062196745
 20
111.91555038
 10
134.1066432346
 20
111.9720349146
 10
134.1030978013
 20
112.0297278747
 10
134.0955150862
 20
112.0887914311
 10
134.0839642751
 20
112.1490641844
 10
134.0686505346
 20
112.2094605462
 10
134.0495507298
 20
112.2698547201
 10
134.0266898148
 20
112.3303740772
 10
134.0003447832
 20
112.3903125408
 10
133.9704241867
 20
112.4497626633
 10
133.937022334
 20
112.5086343474
 10
133.9006943002
 20
112.5659470882
 10
133.8614380765
 20
112.6216102295
 10
133.8192586439
 20
112.6757169755
 10
133.7747206633
 20
112.7275618608
 10
133.7277666337
 20
112.7771481042
 10
133.6784569933
 20
112.8244749881
 10
133.6275321472
 20
112.8688301628
 10
133.5749561456
 20
112.9101679888
 10
133.5207671276
 20
112.948535955
 10
133.4658150654
 20
112.9833600869
 10
133.4103831861
 20
113.0144489751
  0
LWPOLYLINE
  5
298
100
AcDbEntity
  8
ASSI
100
AcDbPolyline
 62
7
  6
CONTINUOUS
 90
12
 70
0
 10
128.980361726
 20
107.1220965424
 10
128.9951437485
 20
107.1342212519
 10
129.0414018478
 20
107.1657320636
 10
129.092147258
 20
107.19106371
 10
129.1471986184
 20
107.2103252078
 10
129.2051169271
 20
107.223112581
 10
129.2658532724
 20
107.2292691331
 10
129.3294615866
 20
107.228955511
 10
129.3946537902
 20
107.2222410792
 10
129.4610007477
 20
107.2091491319
 10
129.5289343432
 20
107.189658558
 10
129.598456549
 20
107.163770943
  0
LWPOLYLINE
  5
299
100
AcDbEntity
  8
0
100
AcDbPolyline
 62
7
  6
CONTINUOUS
 90
12
 70
0
 10
128.980361726
 20
107.1220965424
 10
128.9951437485
 20
107.1342212519
 10
129.0414018478
 20
107.1657320636
 10
129.092147258
 20
107.19106371
 10
129.1471986184
 20
107.2103252078
 10
129.2051169271
 20
107.223112581
 10
129.2658532724
 20
107.2292691331
 10
129.3294615866
 20
107.228955511
 10
129.3946537902
 20
107.2222410792
 10
129.4610007477
 20
107.2091491319
 10
129.5289343432
 20
107.189658558
 10
129.598456549
 20
107.163770943
  0
LINE
  5
29A
100
AcDbEntity
  8
SUPERFICI
100
AcDbLine
 62
7
  6
CONTINUOUS
 10
129.0119618333
 20
107.1467377611
 11
128.9803766409
 21
107.1220783528
  0
LWPOLYLINE
  5
29B
100
AcDbEntity
  8
ASSI
100
AcDbPolyline
 62
7
  6
CONTINUOUS
 90
10
 70
0
 10
133.9089774616
 20
111.4942169546
 10
133.8615113991
 20
111.4616773844
 10
133.808428691
 20
111.4344311356
 10
133.751002549
 20
111.4132243306
 10
133.6907387347
 20
111.3985156317
 10
133.6276946732
 20
111.3904687091
 10
133.5618177493
 20
111.388923995
 10
133.4944454487
 20
111.3938525959
 10
133.4260238264
 20
111.4052450773
 10
133.356109514
 20
111.4231131428
  0
LWPOLYLINE
  5
29C
100
AcDbEntity
  8
0
100
AcDbPolyline
 62
7
  6
CONTINUOUS
 90
10
 70
0
 10
133.9089774616
 20
111.4942169546
 10
133.8615113991
 20
111.4616773844
 10
133.808428691
 20
111.4344311356
 10
133.751002549
 20
111.4132243306
 10
133.6907387347
 20
111.3985156317
 10
133.6276946732
 20
111.3904687091
 10
133.5618177493
 20
111.388923995
 10
133.4944454487
 20
111.3938525959
 10
133.4260238264
 20
111.4052450773
 10
133.356109514
 20
111.4231131428
  0
LINE
  5
29D
100
AcDbEntity
  8
0
100
AcDbLine
 62
253
  6
CONTINUOUS
 10
131.5792577821
 20
102.0573794626
 11
131.374469771
 21
102.1396269447
  0
LINE
  5
29E
100
AcDbEntity
  8
0
100
AcDbLine
 62
253
  6
CONTINUOUS
 10
149.7644331653
 20
94.7538030535
 11
149.5596451542
 21
94.8360505356
  0
LWPOLYLINE
  5
29F
100
AcDbEntity
  8
0
100
AcDbPolyline
 62
253
  6
CONTINUOUS
 90
51
 70
0
 10
131.5792577843
 20
102.0573793185
 10
131.5856769304
 20
102.054708146
 10
131.5920948337
 20
102.0518407087
 10
131.5985055958
 20
102.0487797321
 10
131.6049033183
 20
102.0455279416
 10
131.6112821026
 20
102.0420880627
 10
131.6176360503
 20
102.0384628208
 10
131.623959263
 20
102.0346549415
 10
131.6302458421
 20
102.0306671502
 10
131.6364898893
 20
102.0265021723
 10
131.6426855061
 20
102.0221627333
 10
131.6488265814
 20
102.0176522048
 10
131.6549061537
 20
102.012976543
 10
131.6609170489
 20
102.00814235
 10
131.6668520929
 20
102.0031562282
 10
131.6727041116
 20
101.9980247798
 10
131.6784659309
 20
101.992754607
 10
131.6841303767
 20
101.9873523122
 10
131.6896902749
 20
101.9818244975
 10
131.6951384514
 20
101.9761777653
 10
131.7004677321
 20
101.9704187178
 10
131.7056717074
 20
101.964553654
 10
131.7107470264
 20
101.9585876607
 10
131.7156911023
 20
101.9525255209
 10
131.7205013488
 20
101.9463720183
 10
131.7251751793
 20
101.940131936
 10
131.7297099537
 20
101.9338097407
 10
131.7341028183
 20
101.9274086319
 10
131.7383508658
 20
101.9209314922
 10
131.7424511888
 20
101.9143812044
 10
131.74640088
 20
101.9077606511
 10
131.7501965475
 20
101.9010739061
 10
131.7538328607
 20
101.8943298073
 10
131.7573040046
 20
101.8875383834
 10
131.760604164
 20
101.8807096635
 10
131.7637275238
 20
101.8738536764
 10
131.7666687953
 20
101.866980172
 10
131.7694247961
 20
101.8600977846
 10
131.7719928701
 20
101.8532148697
 10
131.7743703613
 20
101.8463397824
 10
131.7765546137
 20
101.8394808783
 10
131.7785433269
 20
101.8326460988
 10
131.7803356224
 20
101.8258417302
 10
131.7819309773
 20
101.819073645
 10
131.7833288687
 20
101.8123477157
 10
131.7845287735
 20
101.8056698148
 10
131.7855301689
 20
101.7990458147
 10
131.7863325319
 20
101.7924815878
 10
131.7869353396
 20
101.7859830068
 10
131.7873380692
 20
101.7795559441
 10
131.7875401975
 20
101.773206272
  0
LWPOLYLINE
  5
2A0
100
AcDbEntity
  8
0
100
AcDbPolyline
 62
253
  6
CONTINUOUS
 90
51
 70
0
 10
149.7644331675
 20
94.7538029095
 10
149.7708523136
 20
94.7511317369
 10
149.7772702169
 20
94.7482642996
 10
149.783680979
 20
94.745203323
 10
149.7900787015
 20
94.7419515325
 10
149.7964574858
 20
94.7385116536
 10
149.8028114335
 20
94.7348864118
 10
149.8091346462
 20
94.7310785324
 10
149.8154212253
 20
94.7270907411
 10
149.8216652725
 20
94.7229257632
 10
149.8278608893
 20
94.7185863242
 10
149.8340019646
 20
94.7140757958
 10
149.8400815369
 20
94.7094001339
 10
149.8460924321
 20
94.7045659409
 10
149.8520274761
 20
94.6995798191
 10
149.8578794948
 20
94.6944483707
 10
149.8636413141
 20
94.6891781979
 10
149.8693057599
 20
94.6837759031
 10
149.8748656581
 20
94.6782480884
 10
149.8803138346
 20
94.6726013562
 10
149.8856431153
 20
94.6668423087
 10
149.8908470906
 20
94.660977245
 10
149.8959224096
 20
94.6550112516
 10
149.9008664855
 20
94.6489491119
 10
149.905676732
 20
94.6427956092
 10
149.9103505625
 20
94.6365555269
 10
149.9148853369
 20
94.6302333316
 10
149.9192782015
 20
94.6238322228
 10
149.923526249
 20
94.6173550831
 10
149.927626572
 20
94.6108047953
 10
149.9315762632
 20
94.604184242
 10
149.9353719307
 20
94.597497497
 10
149.9390082439
 20
94.5907533982
 10
149.9424793878
 20
94.5839619743
 10
149.9457795472
 20
94.5771332544
 10
149.948902907
 20
94.5702772673
 10
149.9518441785
 20
94.5634037629
 10
149.9546001793
 20
94.5565213755
 10
149.9571682533
 20
94.5496384606
 10
149.9595457445
 20
94.5427633733
 10
149.9617299969
 20
94.5359044692
 10
149.9637187102
 20
94.5290696897
 10
149.9655110057
 20
94.5222653211
 10
149.9671063605
 20
94.5154972359
 10
149.9685042519
 20
94.5087713066
 10
149.9697041567
 20
94.5020934057
 10
149.9707055521
 20
94.4954694056
 10
149.9715079151
 20
94.4889051788
 10
149.9721107229
 20
94.4824065977
 10
149.9725134524
 20
94.475979535
 10
149.9727155807
 20
94.4696298629
  0
LINE
  5
2A1
100
AcDbEntity
  8
ASSI
100
AcDbLine
 62
253
  6
CONTINUOUS
 10
136.7519945498
 20
128.0370098386
 11
136.7519945379
 21
128.0261045706
  0
LINE
  5
2A2
100
AcDbEntity
  8
0
100
AcDbLine
 62
253
  6
CONTINUOUS
 10
136.7519945498
 20
128.0370098386
 11
136.7519945379
 21
128.0261045706
  0
LINE
  5
2A3
100
AcDbEntity
  8
ASSI
100
AcDbLine
 62
7
  6
CONTINUOUS
 10
136.7513256374
 20
128.0261045714
 11
136.7519945498
 21
128.0370098386
  0
LINE
  5
2A4
100
AcDbEntity
  8
0
100
AcDbLine
 62
7
  6
CONTINUOUS
 10
136.7513256374
 20
128.0261045714
 11
136.7519945498
 21
128.0370098386
  0
LINE
  5
2A5
100
AcDbEntity
  8
ASSI
100
AcDbLine
 62
7
  6
CONTINUOUS
 10
158.6166097401
 20
119.7072482869
 11
157.9807048231
 21
119.5110812028
  0
LINE
  5
2A6
100
AcDbEntity
  8
0
100
AcDbLine
 62
7
  6
CONTINUOUS
 10
158.6166097401
 20
119.7072482869
 11
157.9807048231
 21
119.5110812028
  0
LINE
  5
2A7
100
AcDbEntity
  8
0
100
AcDbLine
 62
7
  6
CONTINUOUS
 10
151.5537574436
 20
96.7574113463
 11
151.4824085452
 21
96.7817902683
  0
LINE
  5
2A8
100
AcDbEntity
  8
ASSI
100
AcDbLine
 62
7
  6
CONTINUOUS
 10
151.5537574436
 20
96.7574113463
 11
151.4824085452
 21
96.7817902683
  0
LINE
  5
2A9
100
AcDbEntity
  8
ASSI
100
AcDbLine
 62
7
  6
CONTINUOUS
 10
133.3685820604
 20
104.0609877554
 11
133.2972331619
 21
104.0853666774
  0
LINE
  5
2AA
100
AcDbEntity
  8
0
100
AcDbLine
 62
7
  6
CONTINUOUS
 10
133.3685820604
 20
104.0609877554
 11
133.2972331619
 21
104.0853666774
  0
LWPOLYLINE
  5
2AB
100
AcDbEntity
  8
SUPERFICI
100
AcDbPolyline
 62
7
  6
CONTINUOUS
 90
14
 70
0
 10
151.482408566
 20
96.7817902602
 10
151.5393712976
 20
96.7617716335
 10
151.5955672005
 20
96.7458480169
 10
151.6509956238
 20
96.7340188684
 10
151.7059291537
 20
96.72625401
 10
151.7600944221
 20
96.7225829689
 10
151.8126710909
 20
96.7230941219
 10
151.8636494192
 20
96.7278662097
 10
151.9130370349
 20
96.7368187097
 10
151.9600380579
 20
96.7497997569
 10
152.0045557755
 20
96.7668373164
 10
152.0466838698
 20
96.7879008571
 10
152.0859108854
 20
96.8127497836
 10
152.1023809557
 20
96.8250165872
  0
LWPOLYLINE
  5
2AC
100
AcDbEntity
  8
SUPERFICI
100
AcDbPolyline
 62
7
  6
CONTINUOUS
 90
14
 70
0
 10
133.2972331828
 20
104.0853666693
 10
133.3541959144
 20
104.0653480426
 10
133.4103918172
 20
104.049424426
 10
133.4658202406
 20
104.0375952775
 10
133.5207537705
 20
104.0298304191
 10
133.5749190389
 20
104.026159378
 10
133.6274957077
 20
104.026670531
 10
133.678474036
 20
104.0314426188
 10
133.7278616517
 20
104.0403951188
 10
133.7748626747
 20
104.053376166
 10
133.8193803923
 20
104.0704137255
 10
133.8615084866
 20
104.0914772662
 10
133.9007355022
 20
104.1163261927
 10
133.9172055725
 20
104.1285929962
  0
LINE
  5
2AD
100
AcDbEntity
  8
SUPERFICI
100
AcDbLine
 62
7
  6
CONTINUOUS
 10
150.6551868196
 20
97.1041219825
 11
151.482408566
 21
96.7817902602
  0
LINE
  5
2AE
100
AcDbEntity
  8
0
100
AcDbLine
 62
7
  6
CONTINUOUS
 10
151.4824085452
 20
96.7817902683
 11
150.6551584101
 21
97.1041331486
  0
LINE
  5
2AF
100
AcDbEntity
  8
ASSI
100
AcDbLine
 62
7
  6
CONTINUOUS
 10
151.4824085452
 20
96.7817902683
 11
150.6551584101
 21
97.1041331486
  0
LINE
  5
2B0
100
AcDbEntity
  8
ASSI
100
AcDbLine
 62
7
  6
CONTINUOUS
 10
133.2972331619
 20
104.0853666774
 11
132.4699830269
 21
104.4077095577
  0
LINE
  5
2B1
100
AcDbEntity
  8
0
100
AcDbLine
 62
7
  6
CONTINUOUS
 10
133.2972331619
 20
104.0853666774
 11
132.4699830269
 21
104.4077095577
  0
LINE
  5
2B2
100
AcDbEntity
  8
SUPERFICI
100
AcDbLine
 62
7
  6
CONTINUOUS
 10
132.4700114364
 20
104.4076983916
 11
133.2972331828
 21
104.0853666693
  0
LINE
  5
2B3
100
AcDbEntity
  8
SUPERFICI
100
AcDbLine
 62
7
  6
CONTINUOUS
 10
149.8325374361
 20
97.430273635
 11
150.6551868196
 21
97.1041219825
  0
LINE
  5
2B4
100
AcDbEntity
  8
0
100
AcDbLine
 62
7
  6
CONTINUOUS
 10
150.6551584101
 20
97.1041331486
 11
149.8325259171
 21
97.4302782418
  0
LINE
  5
2B5
100
AcDbEntity
  8
ASSI
100
AcDbLine
 62
7
  6
CONTINUOUS
 10
150.6551584101
 20
97.1041331486
 11
149.8325259171
 21
97.4302782418
  0
LINE
  5
2B6
100
AcDbEntity
  8
ASSI
100
AcDbLine
 62
7
  6
CONTINUOUS
 10
132.4699830269
 20
104.4077095577
 11
131.6473505338
 21
104.7338546509
  0
LINE
  5
2B7
100
AcDbEntity
  8
0
100
AcDbLine
 62
7
  6
CONTINUOUS
 10
132.4699830269
 20
104.4077095577
 11
131.6473505338
 21
104.7338546509
  0
LINE
  5
2B8
100
AcDbEntity
  8
SUPERFICI
100
AcDbLine
 62
7
  6
CONTINUOUS
 10
131.6473620529
 20
104.7338500441
 11
132.4700114364
 21
104.4076983916
  0
LINE
  5
2B9
100
AcDbEntity
  8
SUPERFICI
100
AcDbLine
 62
7
  6
CONTINUOUS
 10
130.8293263011
 20
105.0638060024
 11
131.6473620529
 21
104.7338500441
  0
LINE
  5
2BA
100
AcDbEntity
  8
ASSI
100
AcDbLine
 62
7
  6
CONTINUOUS
 10
131.6473505338
 20
104.7338546509
 11
130.82935678
 21
105.0637936028
  0
LINE
  5
2BB
100
AcDbEntity
  8
0
100
AcDbLine
 62
7
  6
CONTINUOUS
 10
131.6473505338
 20
104.7338546509
 11
130.82935678
 21
105.0637936028
  0
LINE
  5
2BC
100
AcDbEntity
  8
0
100
AcDbLine
 62
7
  6
CONTINUOUS
 10
149.8325259171
 20
97.4302782418
 11
149.0145321632
 21
97.7602171937
  0
LINE
  5
2BD
100
AcDbEntity
  8
ASSI
100
AcDbLine
 62
7
  6
CONTINUOUS
 10
149.8325259171
 20
97.4302782418
 11
149.0145321632
 21
97.7602171937
  0
LINE
  5
2BE
100
AcDbEntity
  8
SUPERFICI
100
AcDbLine
 62
7
  6
CONTINUOUS
 10
149.0145016843
 20
97.7602295933
 11
149.8325374361
 21
97.430273635
  0
LINE
  5
2BF
100
AcDbEntity
  8
ASSI
100
AcDbLine
 62
7
  6
CONTINUOUS
 10
130.82935678
 20
105.0637936028
 11
130.015992462
 21
105.3975301241
  0
LINE
  5
2C0
100
AcDbEntity
  8
0
100
AcDbLine
 62
7
  6
CONTINUOUS
 10
130.82935678
 20
105.0637936028
 11
130.015992462
 21
105.3975301241
  0
LINE
  5
2C1
100
AcDbEntity
  8
0
100
AcDbLine
 62
7
  6
CONTINUOUS
 10
149.0145321632
 20
97.7602171937
 11
148.2011678452
 21
98.093953715
  0
LINE
  5
2C2
100
AcDbEntity
  8
ASSI
100
AcDbLine
 62
7
  6
CONTINUOUS
 10
149.0145321632
 20
97.7602171937
 11
148.2011678452
 21
98.093953715
  0
LWPOLYLINE
  5
2C3
100
AcDbEntity
  8
SUPERFICI
100
AcDbPolyline
 62
7
  6
CONTINUOUS
 90
3
 70
0
 10
129.6110584561
 20
105.5658175431
 10
130.0159725168
 20
105.3975383783
 10
130.8293263011
 20
105.0638060024
  0
LINE
  5
2C4
100
AcDbEntity
  8
ASSI
100
AcDbLine
 62
7
  6
CONTINUOUS
 10
130.0159824005
 20
105.3975343056
 11
129.6110585271
 21
105.5658175135
  0
LINE
  5
2C5
100
AcDbEntity
  8
0
100
AcDbLine
 62
7
  6
CONTINUOUS
 10
130.0159824005
 20
105.3975343056
 11
129.6110585271
 21
105.5658175135
  0
LINE
  5
2C6
100
AcDbEntity
  8
0
100
AcDbLine
 62
7
  6
CONTINUOUS
 10
148.2011577837
 20
98.0939578965
 11
147.7962339103
 21
98.2622411044
  0
LINE
  5
2C7
100
AcDbEntity
  8
ASSI
100
AcDbLine
 62
7
  6
CONTINUOUS
 10
148.2011577837
 20
98.0939578965
 11
147.7962339103
 21
98.2622411044
  0
LWPOLYLINE
  5
2C8
100
AcDbEntity
  8
SUPERFICI
100
AcDbPolyline
 62
7
  6
CONTINUOUS
 90
3
 70
0
 10
147.7962338393
 20
98.262241134
 10
148.2011479
 20
98.0939619692
 10
149.0145016843
 20
97.7602295933
  0
LWPOLYLINE
  5
2C9
100
AcDbEntity
  8
ASSI
100
AcDbPolyline
 62
7
  6
CONTINUOUS
 90
27
 70
0
 10
129.6110585271
 20
105.5658175135
 10
129.5414171949
 20
105.598084004
 10
129.4732981389
 20
105.6354929945
 10
129.4066995505
 20
105.6780430157
 10
129.3411910667
 20
105.7260715667
 10
129.2772006389
 20
105.779239208
 10
129.2160124547
 20
105.8365278948
 10
129.1575738617
 20
105.8981367603
 10
129.1019327975
 20
105.9638629482
 10
129.0505209484
 20
106.0320827279
 10
129.0035166278
 20
106.1027334334
 10
128.9607350452
 20
106.1758726441
 10
128.9230607203
 20
106.2500549845
 10
128.890543592
 20
106.3254331145
 10
128.8631283052
 20
106.4018501545
 10
128.841540038
 20
106.4773952743
 10
128.8259345839
 20
106.5519866055
 10
128.8161525966
 20
106.6257032527
 10
128.812445811
 20
106.6968752134
 10
128.8149678422
 20
106.7654434205
 10
128.8235648182
 20
106.8314667526
 10
128.8380269711
 20
106.8934518551
 10
128.8585162866
 20
106.9513427841
 10
128.8848739134
 20
107.005197941
 10
128.9164081935
 20
107.0536949306
 10
128.9531849973
 20
107.0966351066
 10
128.980361726
 20
107.1220965424
  0
LWPOLYLINE
  5
2CA
100
AcDbEntity
  8
0
100
AcDbPolyline
 62
7
  6
CONTINUOUS
 90
27
 70
0
 10
129.6110585271
 20
105.5658175135
 10
129.5414171949
 20
105.598084004
 10
129.4732981389
 20
105.6354929945
 10
129.4066995505
 20
105.6780430157
 10
129.3411910667
 20
105.7260715667
 10
129.2772006389
 20
105.779239208
 10
129.2160124547
 20
105.8365278948
 10
129.1575738617
 20
105.8981367603
 10
129.1019327975
 20
105.9638629482
 10
129.0505209484
 20
106.0320827279
 10
129.0035166278
 20
106.1027334334
 10
128.9607350452
 20
106.1758726441
 10
128.9230607203
 20
106.2500549845
 10
128.890543592
 20
106.3254331145
 10
128.8631283052
 20
106.4018501545
 10
128.841540038
 20
106.4773952743
 10
128.8259345839
 20
106.5519866055
 10
128.8161525966
 20
106.6257032527
 10
128.812445811
 20
106.6968752134
 10
128.8149678422
 20
106.7654434205
 10
128.8235648182
 20
106.8314667526
 10
128.8380269711
 20
106.8934518551
 10
128.8585162866
 20
106.9513427841
 10
128.8848739134
 20
107.005197941
 10
128.9164081935
 20
107.0536949306
 10
128.9531849973
 20
107.0966351066
 10
128.980361726
 20
107.1220965424
  0
LWPOLYLINE
  5
2CB
100
AcDbEntity
  8
0
100
AcDbPolyline
 62
7
  6
CONTINUOUS
 90
27
 70
0
 10
147.7962339103
 20
98.2622411044
 10
147.7265925781
 20
98.2945075949
 10
147.6584735221
 20
98.3319165854
 10
147.5918749337
 20
98.3744666066
 10
147.5263664499
 20
98.4224951577
 10
147.4623760222
 20
98.4756627989
 10
147.4011878379
 20
98.5329514857
 10
147.3427492449
 20
98.5945603512
 10
147.2871081807
 20
98.6602865392
 10
147.2356963316
 20
98.7285063188
 10
147.188692011
 20
98.7991570244
 10
147.1459104285
 20
98.872296235
 10
147.1082361035
 20
98.9464785754
 10
147.0757189752
 20
99.0218567054
 10
147.0483036884
 20
99.0982737454
 10
147.0267154212
 20
99.1738188652
 10
147.0111099671
 20
99.2484101964
 10
147.0013279798
 20
99.3221268436
 10
146.9976211942
 20
99.3932988043
 10
147.0001432255
 20
99.4618670114
 10
147.0087402014
 20
99.5278903435
 10
147.0232023543
 20
99.589875446
 10
147.0436916698
 20
99.647766375
 10
147.0700492966
 20
99.701621532
 10
147.1015835767
 20
99.7501185215
 10
147.1383603806
 20
99.7930586976
 10
147.1655371092
 20
99.8185201333
  0
LWPOLYLINE
  5
2CC
100
AcDbEntity
  8
ASSI
100
AcDbPolyline
 62
7
  6
CONTINUOUS
 90
27
 70
0
 10
147.7962339103
 20
98.2622411044
 10
147.7265925781
 20
98.2945075949
 10
147.6584735221
 20
98.3319165854
 10
147.5918749337
 20
98.3744666066
 10
147.5263664499
 20
98.4224951577
 10
147.4623760222
 20
98.4756627989
 10
147.4011878379
 20
98.5329514857
 10
147.3427492449
 20
98.5945603512
 10
147.2871081807
 20
98.6602865392
 10
147.2356963316
 20
98.7285063188
 10
147.188692011
 20
98.7991570244
 10
147.1459104285
 20
98.872296235
 10
147.1082361035
 20
98.9464785754
 10
147.0757189752
 20
99.0218567054
 10
147.0483036884
 20
99.0982737454
 10
147.0267154212
 20
99.1738188652
 10
147.0111099671
 20
99.2484101964
 10
147.0013279798
 20
99.3221268436
 10
146.9976211942
 20
99.3932988043
 10
147.0001432255
 20
99.4618670114
 10
147.0087402014
 20
99.5278903435
 10
147.0232023543
 20
99.589875446
 10
147.0436916698
 20
99.647766375
 10
147.0700492966
 20
99.701621532
 10
147.1015835767
 20
99.7501185215
 10
147.1383603806
 20
99.7930586976
 10
147.1655371092
 20
99.8185201333
  0
LINE
  5
2CD
100
AcDbEntity
  8
ASSI
100
AcDbLine
 62
7
  6
CONTINUOUS
 10
136.8131468053
 20
128.4640105491
 11
136.819244071
 21
127.9367238551
  0
LINE
  5
2CE
100
AcDbEntity
  8
0
100
AcDbLine
 62
7
  6
CONTINUOUS
 10
136.8131468053
 20
128.4640105491
 11
136.819244071
 21
127.9367238551
  0
LWPOLYLINE
  5
2CF
100
AcDbEntity
  8
SUPERFICI
100
AcDbPolyline
 62
7
  6
CONTINUOUS
 90
32
 70
0
 10
133.9172055725
 20
104.1285929962
 10
133.9370883264
 20
104.14507397
 10
133.9705371733
 20
104.177604671
 10
134.0004846867
 20
104.2133328626
 10
134.0268137307
 20
104.2522114303
 10
134.0496385228
 20
104.2942850117
 10
134.0687081685
 20
104.3391053259
 10
134.0840096755
 20
104.386835837
 10
134.0955542472
 20
104.4373115637
 10
134.1031269891
 20
104.4895913166
 10
134.1066526818
 20
104.5435585942
 10
134.1062056361
 20
104.5993291393
 10
134.1017950908
 20
104.6563100004
 10
134.0933507579
 20
104.7146609934
 10
134.0809435611
 20
104.7742228584
 10
134.0647944278
 20
104.8339239273
 10
134.0448824835
 20
104.893640032
 10
134.021230228
 20
104.953496741
 10
133.994123389
 20
105.0127967729
 10
133.9634698193
 20
105.0716319557
 10
133.9293644279
 20
105.1299128188
 10
133.8923730357
 20
105.1866697167
 10
133.8524950354
 20
105.2418135089
 10
133.8097340399
 20
105.2954358877
 10
133.764661367
 20
105.3468377484
 10
133.7172197841
 20
105.3960228059
 10
133.6674695959
 20
105.4429899354
 10
133.6161573094
 20
105.4870318266
 10
133.5632341925
 20
105.5281104632
 10
133.5087513816
 20
105.5662658691
 10
133.4536036028
 20
105.6009064532
 10
133.3980890254
 20
105.6318349467
  0
LWPOLYLINE
  5
2D0
100
AcDbEntity
  8
ASSI
100
AcDbPolyline
 62
7
  6
CONTINUOUS
 90
10
 70
0
 10
133.9172075745
 20
104.1285905991
 10
133.8703140857
 20
104.0965389145
 10
133.8179705266
 20
104.0699065484
 10
133.7612191336
 20
104.0492588535
 10
133.7015486984
 20
104.0350407532
 10
133.6390141409
 20
104.027414348
 10
133.5735650034
 20
104.0262213111
 10
133.5065287109
 20
104.0314231375
 10
133.4383478235
 20
104.0430070602
 10
133.3685820604
 20
104.0609877554
  0
LWPOLYLINE
  5
2D1
100
AcDbEntity
  8
0
100
AcDbPolyline
 62
7
  6
CONTINUOUS
 90
10
 70
0
 10
133.9172075745
 20
104.1285905991
 10
133.8703140857
 20
104.0965389145
 10
133.8179705266
 20
104.0699065484
 10
133.7612191336
 20
104.0492588535
 10
133.7015486984
 20
104.0350407532
 10
133.6390141409
 20
104.027414348
 10
133.5735650034
 20
104.0262213111
 10
133.5065287109
 20
104.0314231375
 10
133.4383478235
 20
104.0430070602
 10
133.3685820604
 20
104.0609877554
  0
LWPOLYLINE
  5
2D2
100
AcDbEntity
  8
ASSI
100
AcDbPolyline
 62
7
  6
CONTINUOUS
 90
11
 70
0
 10
158.4958846172
 20
99.1433864084
 10
158.537268923
 20
99.1315648613
 10
158.5853705513
 20
99.1225022044
 10
158.634301784
 20
99.1181794883
 10
158.6836022819
 20
99.1186898085
 10
158.7327567035
 20
99.1240760622
 10
158.7813127337
 20
99.1343371342
 10
158.8287795129
 20
99.1494236628
 10
158.8746446654
 20
99.1692241832
 10
158.9184253701
 20
99.1935776785
 10
158.9574065836
 20
99.2205435336
  0
LWPOLYLINE
  5
2D3
100
AcDbEntity
  8
0
100
AcDbPolyline
 62
7
  6
CONTINUOUS
 90
11
 70
0
 10
158.4958846172
 20
99.1433864084
 10
158.537268923
 20
99.1315648613
 10
158.5853705513
 20
99.1225022044
 10
158.634301784
 20
99.1181794883
 10
158.6836022819
 20
99.1186898085
 10
158.7327567035
 20
99.1240760622
 10
158.7813127337
 20
99.1343371342
 10
158.8287795129
 20
99.1494236628
 10
158.8746446654
 20
99.1692241832
 10
158.9184253701
 20
99.1935776785
 10
158.9574065836
 20
99.2205435336
  0
LWPOLYLINE
  5
2D4
100
AcDbEntity
  8
ASSI
100
AcDbPolyline
 62
253
  6
CONTINUOUS
 90
16
 70
0
 10
158.4029914598
 20
99.3703181113
 10
158.4461891324
 20
99.3575100908
 10
158.4913497448
 20
99.3471632845
 10
158.5380462731
 20
99.3393755283
 10
158.5858371632
 20
99.3342204616
 10
158.6342705273
 20
99.3317468276
 10
158.6828884166
 20
99.3319780166
 10
158.7312311381
 20
99.3349118479
 10
158.7788415549
 20
99.3405205843
 10
158.8252694338
 20
99.3487511861
 10
158.8700757486
 20
99.359525818
 10
158.9128368499
 20
99.3727425982
 10
158.9531484247
 20
99.3882765577
 10
158.9906293059
 20
99.4059808158
 10
159.0249250801
 20
99.4256879643
 10
159.0557114577
 20
99.4472116591
  0
LWPOLYLINE
  5
2D5
100
AcDbEntity
  8
0
100
AcDbPolyline
 62
253
  6
CONTINUOUS
 90
16
 70
0
 10
158.4029914598
 20
99.3703181113
 10
158.4461891324
 20
99.3575100908
 10
158.4913497448
 20
99.3471632845
 10
158.5380462731
 20
99.3393755283
 10
158.5858371632
 20
99.3342204616
 10
158.6342705273
 20
99.3317468276
 10
158.6828884166
 20
99.3319780166
 10
158.7312311381
 20
99.3349118479
 10
158.7788415549
 20
99.3405205843
 10
158.8252694338
 20
99.3487511861
 10
158.8700757486
 20
99.359525818
 10
158.9128368499
 20
99.3727425982
 10
158.9531484247
 20
99.3882765577
 10
158.9906293059
 20
99.4059808158
 10
159.0249250801
 20
99.4256879643
 10
159.0557114577
 20
99.4472116591
  0
LWPOLYLINE
  5
2D6
100
AcDbEntity
  8
SUPERFICI
100
AcDbPolyline
 62
7
  6
CONTINUOUS
 90
12
 70
0
 10
147.7279188407
 20
99.8815017643
 10
147.6733004715
 20
99.8985863178
 10
147.6194215666
 20
99.9115956313
 10
147.5660029455
 20
99.9205688101
 10
147.5133228808
 20
99.9254660261
 10
147.4622160033
 20
99.9261676411
 10
147.4127024926
 20
99.9225886492
 10
147.3647597538
 20
99.9148121479
 10
147.3191565823
 20
99.9029693154
 10
147.2759831552
 20
99.8870271785
 10
147.235145987
 20
99.8670161047
 10
147.1971372165
 20
99.843161352
  0
LWPOLYLINE
  5
2D7
100
AcDbEntity
  8
SUPERFICI
100
AcDbPolyline
 62
7
  6
CONTINUOUS
 90
12
 70
0
 10
129.5427434575
 20
107.1850781734
 10
129.4881250883
 20
107.2021627269
 10
129.4342461834
 20
107.2151720404
 10
129.3808275623
 20
107.2241452192
 10
129.3281474976
 20
107.2290424352
 10
129.2770406201
 20
107.2297440502
 10
129.2275271094
 20
107.2261650583
 10
129.1795843706
 20
107.218388557
 10
129.1339811991
 20
107.2065457245
 10
129.090807772
 20
107.1906035876
 10
129.0499706038
 20
107.1705925137
 10
129.0119618333
 20
107.1467377611
  0
LWPOLYLINE
  5
2D8
100
AcDbEntity
  8
0
100
AcDbPolyline
 62
253
  6
CONTINUOUS
 90
10
 70
0
 10
158.4029913385
 20
98.1592499788
 10
156.4054488905
 20
98.8368296455
 10
154.4319879386
 20
99.5359054067
 10
152.4829993461
 20
100.256324275
 10
150.5589878255
 20
100.9978840173
 10
148.6602195537
 20
101.7604721382
 10
146.7867317188
 20
102.54407371
 10
144.9387997165
 20
103.3485837345
 10
143.1169275975
 20
104.173799316
 10
141.3214998464
 20
105.019562059
  0
LWPOLYLINE
  5
2D9
100
AcDbEntity
  8
ASSI
100
AcDbPolyline
 62
253
  6
CONTINUOUS
 90
10
 70
0
 10
158.4029913385
 20
98.1592499788
 10
156.4054488905
 20
98.8368296455
 10
154.4319879386
 20
99.5359054067
 10
152.4829993461
 20
100.256324275
 10
150.5589878255
 20
100.9978840173
 10
148.6602195537
 20
101.7604721382
 10
146.7867317188
 20
102.54407371
 10
144.9387997165
 20
103.3485837345
 10
143.1169275975
 20
104.173799316
 10
141.3214998464
 20
105.019562059
  0
LINE
  5
2DA
100
AcDbEntity
  8
SUPERFICI
100
AcDbLine
 62
7
  6
CONTINUOUS
 10
147.7832773893
 20
99.8603425474
 11
147.7279188407
 21
99.8815017643
  0
LINE
  5
2DB
100
AcDbEntity
  8
SUPERFICI
100
AcDbLine
 62
7
  6
CONTINUOUS
 10
129.5981020061
 20
107.1639189565
 11
129.5427434575
 21
107.1850781734
  0
LINE
  5
2DC
100
AcDbEntity
  8
SUPERFICI
100
AcDbLine
 62
7
  6
CONTINUOUS
 10
151.4702436908
 20
98.3795737614
 11
150.6426496762
 21
98.7019944008
  0
LINE
  5
2DD
100
AcDbEntity
  8
0
100
AcDbLine
 62
7
  6
CONTINUOUS
 10
150.6425408911
 20
98.7020371538
 11
151.4698798833
 21
98.379714253
  0
LINE
  5
2DE
100
AcDbEntity
  8
ASSI
100
AcDbLine
 62
7
  6
CONTINUOUS
 10
150.6425408911
 20
98.7020371538
 11
151.4698798833
 21
98.379714253
  0
LINE
  5
2DF
100
AcDbEntity
  8
ASSI
100
AcDbLine
 62
7
  6
CONTINUOUS
 10
132.4573655079
 20
106.0056135628
 11
133.2847045001
 21
105.6832906621
  0
LINE
  5
2E0
100
AcDbEntity
  8
0
100
AcDbLine
 62
7
  6
CONTINUOUS
 10
132.4573655079
 20
106.0056135628
 11
133.2847045001
 21
105.6832906621
  0
LINE
  5
2E1
100
AcDbEntity
  8
SUPERFICI
100
AcDbLine
 62
7
  6
CONTINUOUS
 10
133.2850683076
 20
105.6831501705
 11
132.457474293
 21
106.0055708099
  0
LINE
  5
2E2
100
AcDbEntity
  8
SUPERFICI
100
AcDbLine
 62
7
  6
CONTINUOUS
 10
150.6426496762
 20
98.7019944008
 11
149.819861385
 21
99.028177276
  0
LINE
  5
2E3
100
AcDbEntity
  8
0
100
AcDbLine
 62
7
  6
CONTINUOUS
 10
149.8198611776
 20
99.0281773577
 11
150.6425408911
 21
98.7020371538
  0
LINE
  5
2E4
100
AcDbEntity
  8
ASSI
100
AcDbLine
 62
7
  6
CONTINUOUS
 10
149.8198611776
 20
99.0281773577
 11
150.6425408911
 21
98.7020371538
  0
LINE
  5
2E5
100
AcDbEntity
  8
ASSI
100
AcDbLine
 62
7
  6
CONTINUOUS
 10
131.6346857944
 20
106.3317537668
 11
132.4573655079
 21
106.0056135628
  0
LINE
  5
2E6
100
AcDbEntity
  8
0
100
AcDbLine
 62
7
  6
CONTINUOUS
 10
131.6346857944
 20
106.3317537668
 11
132.4573655079
 21
106.0056135628
  0
LINE
  5
2E7
100
AcDbEntity
  8
SUPERFICI
100
AcDbLine
 62
7
  6
CONTINUOUS
 10
132.457474293
 20
106.0055708099
 11
131.6346860018
 21
106.331753685
  0
LINE
  5
2E8
100
AcDbEntity
  8
SUPERFICI
100
AcDbLine
 62
7
  6
CONTINUOUS
 10
131.6346860018
 20
106.331753685
 11
130.8166605465
 21
106.661713453
  0
LINE
  5
2E9
100
AcDbEntity
  8
ASSI
100
AcDbLine
 62
7
  6
CONTINUOUS
 10
130.8166863367
 20
106.6617029602
 11
131.6346857944
 21
106.3317537668
  0
LINE
  5
2EA
100
AcDbEntity
  8
0
100
AcDbLine
 62
7
  6
CONTINUOUS
 10
130.8166863367
 20
106.6617029602
 11
131.6346857944
 21
106.3317537668
  0
LINE
  5
2EB
100
AcDbEntity
  8
0
100
AcDbLine
 62
7
  6
CONTINUOUS
 10
149.00186172
 20
99.3581265511
 11
149.8198611776
 21
99.0281773577
  0
LINE
  5
2EC
100
AcDbEntity
  8
ASSI
100
AcDbLine
 62
7
  6
CONTINUOUS
 10
149.00186172
 20
99.3581265511
 11
149.8198611776
 21
99.0281773577
  0
LINE
  5
2ED
100
AcDbEntity
  8
SUPERFICI
100
AcDbLine
 62
7
  6
CONTINUOUS
 10
149.819861385
 20
99.028177276
 11
149.0018359297
 21
99.3581370439
  0
LINE
  5
2EE
100
AcDbEntity
  8
SUPERFICI
100
AcDbLine
 62
7
  6
CONTINUOUS
 10
130.8166605465
 20
106.661713453
 11
130.0031424536
 21
106.9955539988
  0
LINE
  5
2EF
100
AcDbEntity
  8
SUPERFICI
100
AcDbLine
 62
7
  6
CONTINUOUS
 10
149.0018359297
 20
99.3581370439
 11
148.1883178368
 21
99.6919775897
  0
LINE
  5
2F0
100
AcDbEntity
  8
SUPERFICI
100
AcDbLine
 62
7
  6
CONTINUOUS
 10
130.0031424536
 20
106.9955539988
 11
129.5981020061
 21
107.1639189565
  0
LWPOLYLINE
  5
2F1
100
AcDbEntity
  8
ASSI
100
AcDbPolyline
 62
7
  6
CONTINUOUS
 90
3
 70
0
 10
129.598456549
 20
107.163770943
 10
130.003357376
 20
106.9954650403
 10
130.8166863367
 20
106.6617029602
  0
LWPOLYLINE
  5
2F2
100
AcDbEntity
  8
0
100
AcDbPolyline
 62
7
  6
CONTINUOUS
 90
3
 70
0
 10
129.598456549
 20
107.163770943
 10
130.003357376
 20
106.9954650403
 10
130.8166863367
 20
106.6617029602
  0
LWPOLYLINE
  5
2F3
100
AcDbEntity
  8
0
100
AcDbPolyline
 62
7
  6
CONTINUOUS
 90
3
 70
0
 10
147.7836319323
 20
99.8601945339
 10
148.1885327592
 20
99.6918886313
 10
149.00186172
 20
99.3581265511
  0
LWPOLYLINE
  5
2F4
100
AcDbEntity
  8
ASSI
100
AcDbPolyline
 62
7
  6
CONTINUOUS
 90
3
 70
0
 10
147.7836319323
 20
99.8601945339
 10
148.1885327592
 20
99.6918886313
 10
149.00186172
 20
99.3581265511
  0
LINE
  5
2F5
100
AcDbEntity
  8
SUPERFICI
100
AcDbLine
 62
7
  6
CONTINUOUS
 10
148.1883178368
 20
99.6919775897
 11
147.7832773893
 21
99.8603425474
  0
LWPOLYLINE
  5
2F6
100
AcDbEntity
  8
ASSI
100
AcDbPolyline
 62
7
  6
CONTINUOUS
 90
27
 70
0
 10
133.2847045001
 20
105.6832906621
 10
133.3561709403
 20
105.6525352168
 10
133.42612298
 20
105.6166369644
 10
133.4945586452
 20
105.5755942775
 10
133.5619179679
 20
105.529075357
 10
133.6277581612
 20
105.4774097364
 10
133.6907516267
 20
105.4215866004
 10
133.7509463879
 20
105.3614047986
 10
133.8082895722
 20
105.2970614134
 10
133.8612990627
 20
105.2301402878
 10
133.9097832957
 20
105.1606932435
 10
133.953927573
 20
105.0886631526
 10
133.9928127919
 20
105.0154684936
 10
134.0263805757
 20
104.9409505185
 10
134.0546843541
 20
104.8652637481
 10
134.076971503
 20
104.7902955213
 10
134.0930764651
 20
104.7161194058
 10
134.1031618685
 20
104.6426593085
 10
134.1069667099
 20
104.5715775297
 10
134.1043307546
 20
104.5029281126
 10
134.0954145102
 20
104.4366572161
 10
134.0804377681
 20
104.3742650636
 10
134.059234979
 20
104.3158046498
 10
134.0319750659
 20
104.2612258337
 10
133.999378768
 20
104.2118735097
 10
133.9613826946
 20
104.16794825
 10
133.9172075745
 20
104.1285905991
  0
LWPOLYLINE
  5
2F7
100
AcDbEntity
  8
0
100
AcDbPolyline
 62
7
  6
CONTINUOUS
 90
27
 70
0
 10
133.2847045001
 20
105.6832906621
 10
133.3561709403
 20
105.6525352168
 10
133.42612298
 20
105.6166369644
 10
133.4945586452
 20
105.5755942775
 10
133.5619179679
 20
105.529075357
 10
133.6277581612
 20
105.4774097364
 10
133.6907516267
 20
105.4215866004
 10
133.7509463879
 20
105.3614047986
 10
133.8082895722
 20
105.2970614134
 10
133.8612990627
 20
105.2301402878
 10
133.9097832957
 20
105.1606932435
 10
133.953927573
 20
105.0886631526
 10
133.9928127919
 20
105.0154684936
 10
134.0263805757
 20
104.9409505185
 10
134.0546843541
 20
104.8652637481
 10
134.076971503
 20
104.7902955213
 10
134.0930764651
 20
104.7161194058
 10
134.1031618685
 20
104.6426593085
 10
134.1069667099
 20
104.5715775297
 10
134.1043307546
 20
104.5029281126
 10
134.0954145102
 20
104.4366572161
 10
134.0804377681
 20
104.3742650636
 10
134.059234979
 20
104.3158046498
 10
134.0319750659
 20
104.2612258337
 10
133.999378768
 20
104.2118735097
 10
133.9613826946
 20
104.16794825
 10
133.9172075745
 20
104.1285905991
  0
LWPOLYLINE
  5
2F8
100
AcDbEntity
  8
0
100
AcDbPolyline
 62
7
  6
CONTINUOUS
 90
27
 70
0
 10
151.4698798833
 20
98.379714253
 10
151.5413463236
 20
98.3489588077
 10
151.6112983632
 20
98.3130605554
 10
151.6797340285
 20
98.2720178684
 10
151.7470933511
 20
98.2254989479
 10
151.8129335444
 20
98.1738333273
 10
151.8759270099
 20
98.1180101913
 10
151.9361217711
 20
98.0578283895
 10
151.9934649554
 20
97.9934850043
 10
152.0464744459
 20
97.9265638787
 10
152.0949586789
 20
97.8571168344
 10
152.1391029562
 20
97.7850867436
 10
152.1779881751
 20
97.7118920845
 10
152.2115559589
 20
97.6373741094
 10
152.2398597374
 20
97.561687339
 10
152.2621468862
 20
97.4867191122
 10
152.2782518483
 20
97.4125429967
 10
152.2883372517
 20
97.3390828994
 10
152.2921420931
 20
97.2680011206
 10
152.2895061378
 20
97.1993517035
 10
152.2805898934
 20
97.133080807
 10
152.2656131513
 20
97.0706886545
 10
152.2444103622
 20
97.0122282408
 10
152.2171504491
 20
96.9576494246
 10
152.1845541512
 20
96.9082971006
 10
152.1465580778
 20
96.8643718409
 10
152.1023829578
 20
96.82501419
  0
LWPOLYLINE
  5
2F9
100
AcDbEntity
  8
ASSI
100
AcDbPolyline
 62
7
  6
CONTINUOUS
 90
27
 70
0
 10
151.4698798833
 20
98.379714253
 10
151.5413463236
 20
98.3489588077
 10
151.6112983632
 20
98.3130605554
 10
151.6797340285
 20
98.2720178684
 10
151.7470933511
 20
98.2254989479
 10
151.8129335444
 20
98.1738333273
 10
151.8759270099
 20
98.1180101913
 10
151.9361217711
 20
98.0578283895
 10
151.9934649554
 20
97.9934850043
 10
152.0464744459
 20
97.9265638787
 10
152.0949586789
 20
97.8571168344
 10
152.1391029562
 20
97.7850867436
 10
152.1779881751
 20
97.7118920845
 10
152.2115559589
 20
97.6373741094
 10
152.2398597374
 20
97.561687339
 10
152.2621468862
 20
97.4867191122
 10
152.2782518483
 20
97.4125429967
 10
152.2883372517
 20
97.3390828994
 10
152.2921420931
 20
97.2680011206
 10
152.2895061378
 20
97.1993517035
 10
152.2805898934
 20
97.133080807
 10
152.2656131513
 20
97.0706886545
 10
152.2444103622
 20
97.0122282408
 10
152.2171504491
 20
96.9576494246
 10
152.1845541512
 20
96.9082971006
 10
152.1465580778
 20
96.8643718409
 10
152.1023829578
 20
96.82501419
  0
LWPOLYLINE
  5
2FA
100
AcDbEntity
  8
SUPERFICI
100
AcDbPolyline
 62
7
  6
CONTINUOUS
 90
3
 70
0
 10
133.3980890254
 20
105.6318349467
 10
133.3419103594
 20
105.6592493279
 10
133.2850683076
 20
105.6831501705
  0
LWPOLYLINE
  5
2FB
100
AcDbEntity
  8
SUPERFICI
100
AcDbPolyline
 62
7
  6
CONTINUOUS
 90
3
 70
0
 10
151.5832644086
 20
98.3282585376
 10
151.5270857426
 20
98.3556729188
 10
151.4702436908
 20
98.3795737614
  0
LWPOLYLINE
  5
2FC
100
AcDbEntity
  8
ASSI
100
AcDbPolyline
 62
253
  6
CONTINUOUS
 90
10
 70
0
 10
123.1363242408
 20
112.3231385048
 10
123.100582224
 20
112.3420538409
 10
123.0682105305
 20
112.3628767163
 10
123.0395152564
 20
112.3854102367
 10
123.0147677383
 20
112.4094413287
 10
122.9942019759
 20
112.4347427656
 10
122.9780124264
 20
112.4610753175
 10
122.9663521745
 20
112.4881900061
 10
122.9593314904
 20
112.5158304322
 10
122.9570165968
 20
112.543274256
  0
LWPOLYLINE
  5
2FD
100
AcDbEntity
  8
0
100
AcDbPolyline
 62
253
  6
CONTINUOUS
 90
10
 70
0
 10
123.1363242408
 20
112.3231385048
 10
123.100582224
 20
112.3420538409
 10
123.0682105305
 20
112.3628767163
 10
123.0395152564
 20
112.3854102367
 10
123.0147677383
 20
112.4094413287
 10
122.9942019759
 20
112.4347427656
 10
122.9780124264
 20
112.4610753175
 10
122.9663521745
 20
112.4881900061
 10
122.9593314904
 20
112.5158304322
 10
122.9570165968
 20
112.543274256
  0
LWPOLYLINE
  5
2FE
100
AcDbEntity
  8
ASSI
100
AcDbPolyline
 62
253
  6
CONTINUOUS
 90
10
 70
0
 10
141.1421920329
 20
106.4505520934
 10
141.1445069275
 20
106.4228670039
 10
141.1515276116
 20
106.3953171868
 10
141.1631878635
 20
106.3682848097
 10
141.179377413
 20
106.3420254933
 10
141.1999431753
 20
106.3167875235
 10
141.2246906935
 20
106.2928095303
 10
141.2533859675
 20
106.2703182384
 10
141.285757661
 20
106.2495263216
 10
141.3214996777
 20
106.2306303816
  0
LWPOLYLINE
  5
2FF
100
AcDbEntity
  8
0
100
AcDbPolyline
 62
253
  6
CONTINUOUS
 90
10
 70
0
 10
141.1421920329
 20
106.4505520934
 10
141.1445069275
 20
106.4228670039
 10
141.1515276116
 20
106.3953171868
 10
141.1631878635
 20
106.3682848097
 10
141.179377413
 20
106.3420254933
 10
141.1999431753
 20
106.3167875235
 10
141.2246906935
 20
106.2928095303
 10
141.2533859675
 20
106.2703182384
 10
141.285757661
 20
106.2495263216
 10
141.3214996777
 20
106.2306303816
  0
LWPOLYLINE
  5
300
100
AcDbEntity
  8
0
100
AcDbPolyline
 62
253
  6
CONTINUOUS
 90
12
 70
0
 10
141.5766616068
 20
88.7350293311
 10
141.5805890761
 20
88.6692364049
 10
141.5879605725
 20
88.6067328794
 10
141.5987357849
 20
88.54782755
 10
141.6128488005
 20
88.4928186388
 10
141.6302310294
 20
88.4419715019
 10
141.6508140172
 20
88.3955202496
 10
141.6744887605
 20
88.3536975831
 10
141.7011329344
 20
88.316717738
 10
141.7306356465
 20
88.2847564157
 10
141.7628387508
 20
88.2579794324
 10
141.7969439958
 20
88.236914767
  0
LWPOLYLINE
  5
301
100
AcDbEntity
  8
ASSI
100
AcDbPolyline
 62
253
  6
CONTINUOUS
 90
12
 70
0
 10
141.5766616068
 20
88.7350293311
 10
141.5805890761
 20
88.6692364049
 10
141.5879605725
 20
88.6067328794
 10
141.5987357849
 20
88.54782755
 10
141.6128488005
 20
88.4928186388
 10
141.6302310294
 20
88.4419715019
 10
141.6508140172
 20
88.3955202496
 10
141.6744887605
 20
88.3536975831
 10
141.7011329344
 20
88.316717738
 10
141.7306356465
 20
88.2847564157
 10
141.7628387508
 20
88.2579794324
 10
141.7969439958
 20
88.236914767
  0
LWPOLYLINE
  5
302
100
AcDbEntity
  8
ASSI
100
AcDbPolyline
 62
253
  6
CONTINUOUS
 90
16
 70
0
 10
140.8705361313
 20
105.5409620879
 10
140.8681180885
 20
105.5839727579
 10
140.8613961232
 20
105.6284996214
 10
140.8503997314
 20
105.6740744871
 10
140.8351870415
 20
105.7202606999
 10
140.815893477
 20
105.7665044671
 10
140.7927747269
 20
105.8121440699
 10
140.7661186973
 20
105.8566250097
 10
140.7361929287
 20
105.8995128512
 10
140.7033175244
 20
105.9403460675
 10
140.6678453508
 20
105.9786802392
 10
140.6301702434
 20
106.0140840615
 10
140.5907162267
 20
106.0461570214
 10
140.5499213973
 20
106.0745435924
 10
140.5082313559
 20
106.0989342998
 10
140.4661050334
 20
106.1190606165
  0
LWPOLYLINE
  5
303
100
AcDbEntity
  8
0
100
AcDbPolyline
 62
253
  6
CONTINUOUS
 90
16
 70
0
 10
140.8705361313
 20
105.5409620879
 10
140.8681180885
 20
105.5839727579
 10
140.8613961232
 20
105.6284996214
 10
140.8503997314
 20
105.6740744871
 10
140.8351870415
 20
105.7202606999
 10
140.815893477
 20
105.7665044671
 10
140.7927747269
 20
105.8121440699
 10
140.7661186973
 20
105.8566250097
 10
140.7361929287
 20
105.8995128512
 10
140.7033175244
 20
105.9403460675
 10
140.6678453508
 20
105.9786802392
 10
140.6301702434
 20
106.0140840615
 10
140.5907162267
 20
106.0461570214
 10
140.5499213973
 20
106.0745435924
 10
140.5082313559
 20
106.0989342998
 10
140.4661050334
 20
106.1190606165
  0
LWPOLYLINE
  5
304
100
AcDbEntity
  8
ASSI
100
AcDbPolyline
 62
253
  6
CONTINUOUS
 90
10
 70
0
 10
140.2178160766
 20
106.6738945204
 10
140.2195857465
 20
106.6317142087
 10
140.2235024478
 20
106.5937937993
 10
140.2297643746
 20
106.5598050845
 10
140.2389608963
 20
106.5293254542
 10
140.2509552697
 20
106.5026878334
 10
140.2648818136
 20
106.4807917428
 10
140.281033048
 20
106.4637677914
 10
140.2996632878
 20
106.4515279471
 10
140.3106695664
 20
106.4469760404
  0
LWPOLYLINE
  5
305
100
AcDbEntity
  8
0
100
AcDbPolyline
 62
253
  6
CONTINUOUS
 90
10
 70
0
 10
140.2178160766
 20
106.6738945204
 10
140.2195857465
 20
106.6317142087
 10
140.2235024478
 20
106.5937937993
 10
140.2297643746
 20
106.5598050845
 10
140.2389608963
 20
106.5293254542
 10
140.2509552697
 20
106.5026878334
 10
140.2648818136
 20
106.4807917428
 10
140.281033048
 20
106.4637677914
 10
140.2996632878
 20
106.4515279471
 10
140.3106695664
 20
106.4469760404
  0
LWPOLYLINE
  5
306
100
AcDbEntity
  8
0
100
AcDbPolyline
 62
7
  6
CONTINUOUS
 90
14
 70
0
 10
141.3902066286
 20
88.9606801265
 10
141.3912221659
 20
88.9353171041
 10
141.3990920072
 20
88.845701498
 10
141.4132216365
 20
88.7616737907
 10
141.4332999096
 20
88.6831113272
 10
141.4591067979
 20
88.6097112136
 10
141.4904675148
 20
88.5413637914
 10
141.5270559542
 20
88.4782836281
 10
141.5685881177
 20
88.420548612
 10
141.6147860191
 20
88.368278008
 10
141.6651027562
 20
88.3218501293
 10
141.7190363514
 20
88.2814528605
 10
141.7762442563
 20
88.2471428051
 10
141.8107941172
 20
88.2300712234
  0
LWPOLYLINE
  5
307
100
AcDbEntity
  8
ASSI
100
AcDbPolyline
 62
7
  6
CONTINUOUS
 90
14
 70
0
 10
141.3902066286
 20
88.9606801265
 10
141.3912221659
 20
88.9353171041
 10
141.3990920072
 20
88.845701498
 10
141.4132216365
 20
88.7616737907
 10
141.4332999096
 20
88.6831113272
 10
141.4591067979
 20
88.6097112136
 10
141.4904675148
 20
88.5413637914
 10
141.5270559542
 20
88.4782836281
 10
141.5685881177
 20
88.420548612
 10
141.6147860191
 20
88.368278008
 10
141.6651027562
 20
88.3218501293
 10
141.7190363514
 20
88.2814528605
 10
141.7762442563
 20
88.2471428051
 10
141.8107941172
 20
88.2300712234
  0
LWPOLYLINE
  5
308
100
AcDbEntity
  8
ASSI
100
AcDbPolyline
 62
253
  6
CONTINUOUS
 90
9
 70
0
 10
141.3214996777
 20
106.2306303816
 10
141.3229010892
 20
106.1885994506
 10
141.3282142733
 20
106.150119159
 10
141.3369917759
 20
106.1151206485
 10
141.3487718113
 20
106.0836035227
 10
141.3637161222
 20
106.0557808617
 10
141.3820887736
 20
106.0320984946
 10
141.4030791257
 20
106.0131301697
 10
141.4261117812
 20
105.9991399803
  0
LWPOLYLINE
  5
309
100
AcDbEntity
  8
0
100
AcDbPolyline
 62
253
  6
CONTINUOUS
 90
9
 70
0
 10
141.3214996777
 20
106.2306303816
 10
141.3229010892
 20
106.1885994506
 10
141.3282142733
 20
106.150119159
 10
141.3369917759
 20
106.1151206485
 10
141.3487718113
 20
106.0836035227
 10
141.3637161222
 20
106.0557808617
 10
141.3820887736
 20
106.0320984946
 10
141.4030791257
 20
106.0131301697
 10
141.4261117812
 20
105.9991399803
  0
LWPOLYLINE
  5
30A
100
AcDbEntity
  8
ASSI
100
AcDbPolyline
 62
253
  6
CONTINUOUS
 90
10
 70
0
 10
141.1375701035
 20
89.2687729223
 10
141.0820875886
 20
91.1199565523
 10
141.0333113186
 20
92.9450951033
 10
140.9912412936
 20
94.7441885754
 10
140.956215149
 20
96.4968977337
 10
140.9278952494
 20
98.2235618131
 10
140.9052686884
 20
99.9851985177
 10
140.8879978307
 20
101.8021470825
 10
140.8764203116
 20
103.6540682725
 10
140.8705361313
 20
105.5409620879
  0
LWPOLYLINE
  5
30B
100
AcDbEntity
  8
0
100
AcDbPolyline
 62
253
  6
CONTINUOUS
 90
10
 70
0
 10
141.1375701035
 20
89.2687729223
 10
141.0820875886
 20
91.1199565523
 10
141.0333113186
 20
92.9450951033
 10
140.9912412936
 20
94.7441885754
 10
140.956215149
 20
96.4968977337
 10
140.9278952494
 20
98.2235618131
 10
140.9052686884
 20
99.9851985177
 10
140.8879978307
 20
101.8021470825
 10
140.8764203116
 20
103.6540682725
 10
140.8705361313
 20
105.5409620879
  0
LWPOLYLINE
  5
30C
100
AcDbEntity
  8
ASSI
100
AcDbPolyline
 62
253
  6
CONTINUOUS
 90
10
 70
0
 10
140.4771933944
 20
89.1766005248
 10
140.4227918731
 20
91.0286308111
 10
140.375514597
 20
92.8552626859
 10
140.3350528719
 20
94.656186028
 10
140.3014589025
 20
96.410727568
 10
140.2739500958
 20
98.1388565581
 10
140.2515494093
 20
99.9017295883
 10
140.2343828069
 20
101.7200893299
 10
140.2230383932
 20
103.5737188777
 10
140.2178159553
 20
105.4628263878
  0
LWPOLYLINE
  5
30D
100
AcDbEntity
  8
0
100
AcDbPolyline
 62
253
  6
CONTINUOUS
 90
10
 70
0
 10
140.4771933944
 20
89.1766005248
 10
140.4227918731
 20
91.0286308111
 10
140.375514597
 20
92.8552626859
 10
140.3350528719
 20
94.656186028
 10
140.3014589025
 20
96.410727568
 10
140.2739500958
 20
98.1388565581
 10
140.2515494093
 20
99.9017295883
 10
140.2343828069
 20
101.7200893299
 10
140.2230383932
 20
103.5737188777
 10
140.2178159553
 20
105.4628263878
  0
LWPOLYLINE
  5
30E
100
AcDbEntity
  8
0
100
AcDbPolyline
 62
7
  6
CONTINUOUS
 90
10
 70
0
 10
141.1421919802
 20
105.2396978492
 10
141.1467144502
 20
103.4631463969
 10
141.1570927147
 20
101.6255005399
 10
141.173264073
 20
99.7927731801
 10
141.1952291347
 20
97.9650038656
 10
141.2229880495
 20
96.142229687
 10
141.2565409586
 20
94.3244867405
 10
141.2958873212
 20
92.5118162657
 10
141.3410259719
 20
90.7042641885
 10
141.3901948425
 20
88.9608632244
  0
LWPOLYLINE
  5
30F
100
AcDbEntity
  8
ASSI
100
AcDbPolyline
 62
7
  6
CONTINUOUS
 90
10
 70
0
 10
141.1421919802
 20
105.2396978492
 10
141.1467144502
 20
103.4631463969
 10
141.1570927147
 20
101.6255005399
 10
141.173264073
 20
99.7927731801
 10
141.1952291347
 20
97.9650038656
 10
141.2229880495
 20
96.142229687
 10
141.2565409586
 20
94.3244867405
 10
141.2958873212
 20
92.5118162657
 10
141.3410259719
 20
90.7042641885
 10
141.3901948425
 20
88.9608632244
  0
LWPOLYLINE
  5
310
100
AcDbEntity
  8
0
100
AcDbPolyline
 62
253
  6
CONTINUOUS
 90
10
 70
0
 10
141.3214998464
 20
105.019562059
 10
141.3257937975
 20
103.3305215483
 10
141.3352638554
 20
101.6205893035
 10
141.3501387431
 20
99.889987544
 10
141.370478729
 20
98.1521129246
 10
141.396606387
 20
96.3939584298
 10
141.4295254902
 20
94.5764693545
 10
141.4701706762
 20
92.6871700345
 10
141.5189887604
 20
90.7398089255
 10
141.5766616008
 20
88.7350293202
  0
LWPOLYLINE
  5
311
100
AcDbEntity
  8
ASSI
100
AcDbPolyline
 62
253
  6
CONTINUOUS
 90
10
 70
0
 10
141.3214998464
 20
105.019562059
 10
141.3257937975
 20
103.3305215483
 10
141.3352638554
 20
101.6205893035
 10
141.3501387431
 20
99.889987544
 10
141.370478729
 20
98.1521129246
 10
141.396606387
 20
96.3939584298
 10
141.4295254902
 20
94.5764693545
 10
141.4701706762
 20
92.6871700345
 10
141.5189887604
 20
90.7398089255
 10
141.5766616008
 20
88.7350293202
  0
LWPOLYLINE
  5
312
100
AcDbEntity
  8
ASSI
100
AcDbPolyline
 62
253
  6
CONTINUOUS
 90
10
 70
0
 10
140.8705360735
 20
106.7507880675
 10
140.8746280325
 20
108.4449094492
 10
140.8846211803
 20
110.1686837152
 10
140.9005155168
 20
111.9221108653
 10
140.9216531305
 20
113.6914289535
 10
140.9486919329
 20
115.4903999258
 10
140.9836056587
 20
117.3603096211
 10
141.0270522194
 20
119.3149199854
 10
141.0783737036
 20
121.3404690727
 10
141.1375701112
 20
123.4369568828
  0
LWPOLYLINE
  5
313
100
AcDbEntity
  8
0
100
AcDbPolyline
 62
253
  6
CONTINUOUS
 90
10
 70
0
 10
140.8705360735
 20
106.7507880675
 10
140.8746280325
 20
108.4449094492
 10
140.8846211803
 20
110.1686837152
 10
140.9005155168
 20
111.9221108653
 10
140.9216531305
 20
113.6914289535
 10
140.9486919329
 20
115.4903999258
 10
140.9836056587
 20
117.3603096211
 10
141.0270522194
 20
119.3149199854
 10
141.0783737036
 20
121.3404690727
 10
141.1375701112
 20
123.4369568828
  0
LWPOLYLINE
  5
314
100
AcDbEntity
  8
ASSI
100
AcDbPolyline
 62
253
  6
CONTINUOUS
 90
5
 70
0
 10
140.2178159452
 20
106.6738946317
 10
140.2221758939
 20
108.370024002
 10
140.2318052132
 20
110.0956015407
 10
140.2469326262
 20
111.8507797462
 10
140.2676086151
 20
113.6222526851
  0
LWPOLYLINE
  5
315
100
AcDbEntity
  8
0
100
AcDbPolyline
 62
253
  6
CONTINUOUS
 90
5
 70
0
 10
140.2178159452
 20
106.6738946317
 10
140.2221758939
 20
108.370024002
 10
140.2318052132
 20
110.0956015407
 10
140.2469326262
 20
111.8507797462
 10
140.2676086151
 20
113.6222526851
  0
LINE
  5
316
100
AcDbEntity
  8
ASSI
100
AcDbLine
 62
253
  6
CONTINUOUS
 10
140.2676086151
 20
113.6222526851
 11
140.29416554
 21
115.4235638637
  0
LINE
  5
317
100
AcDbEntity
  8
0
100
AcDbLine
 62
253
  6
CONTINUOUS
 10
140.2676086151
 20
113.6222526851
 11
140.29416554
 21
115.4235638637
  0
LWPOLYLINE
  5
318
100
AcDbEntity
  8
ASSI
100
AcDbPolyline
 62
253
  6
CONTINUOUS
 90
5
 70
0
 10
140.29416554
 20
115.4235638637
 10
140.3276365317
 20
117.295436521
 10
140.3689660139
 20
119.2518855581
 10
140.4185910157
 20
121.2798865223
 10
140.4771933953
 20
123.3799132117
  0
LWPOLYLINE
  5
319
100
AcDbEntity
  8
0
100
AcDbPolyline
 62
253
  6
CONTINUOUS
 90
5
 70
0
 10
140.29416554
 20
115.4235638637
 10
140.3276365317
 20
117.295436521
 10
140.3689660139
 20
119.2518855581
 10
140.4185910157
 20
121.2798865223
 10
140.4771933953
 20
123.3799132117
  0
LWPOLYLINE
  5
31A
100
AcDbEntity
  8
ASSI
100
AcDbPolyline
 62
7
  6
CONTINUOUS
 90
10
 70
0
 10
141.3901736014
 20
123.1581012056
 10
141.3411524082
 20
121.3352754745
 10
141.2960014325
 20
119.4496754218
 10
141.2566417135
 20
117.5689729909
 10
141.2230744408
 20
115.6932142213
 10
141.1953001596
 20
113.8224390542
 10
141.1733191912
 20
111.9566851064
 10
141.1571316525
 20
110.0959904058
 10
141.1467366256
 20
108.2403939768
 10
141.1421920329
 20
106.4505520934
  0
LWPOLYLINE
  5
31B
100
AcDbEntity
  8
0
100
AcDbPolyline
 62
7
  6
CONTINUOUS
 90
10
 70
0
 10
141.3901736014
 20
123.1581012056
 10
141.3411524082
 20
121.3352754745
 10
141.2960014325
 20
119.4496754218
 10
141.2566417135
 20
117.5689729909
 10
141.2230744408
 20
115.6932142213
 10
141.1953001596
 20
113.8224390542
 10
141.1733191912
 20
111.9566851064
 10
141.1571316525
 20
110.0959904058
 10
141.1467366256
 20
108.2403939768
 10
141.1421920329
 20
106.4505520934
  0
LWPOLYLINE
  5
31C
100
AcDbEntity
  8
ASSI
100
AcDbPolyline
 62
253
  6
CONTINUOUS
 90
10
 70
0
 10
141.5766616024
 20
122.9383420076
 10
141.5231309863
 20
120.9978988904
 10
141.4766204115
 20
119.0944405058
 10
141.4368211839
 20
117.2277712402
 10
141.4037807349
 20
115.4186459801
 10
141.3767212445
 20
113.6458172579
 10
141.3546799894
 20
111.8465395204
 10
141.3377877061
 20
110.0002803729
 10
141.3266277265
 20
108.1282163054
 10
141.3214998375
 20
106.2306303037
  0
LWPOLYLINE
  5
31D
100
AcDbEntity
  8
0
100
AcDbPolyline
 62
253
  6
CONTINUOUS
 90
10
 70
0
 10
141.5766616024
 20
122.9383420076
 10
141.5231309863
 20
120.9978988904
 10
141.4766204115
 20
119.0944405058
 10
141.4368211839
 20
117.2277712402
 10
141.4037807349
 20
115.4186459801
 10
141.3767212445
 20
113.6458172579
 10
141.3546799894
 20
111.8465395204
 10
141.3377877061
 20
110.0002803729
 10
141.3266277265
 20
108.1282163054
 10
141.3214998375
 20
106.2306303037
  0
LWPOLYLINE
  5
31E
100
AcDbEntity
  8
0
100
AcDbPolyline
 62
253
  6
CONTINUOUS
 90
16
 70
0
 10
141.321499624
 20
105.0195620957
 10
141.3229010579
 20
105.0643400236
 10
141.3282146316
 20
105.1098214316
 10
141.3369927592
 20
105.1561302376
 10
141.3487734762
 20
105.2037934159
 10
141.3637184901
 20
105.2524984909
 10
141.3820919076
 20
105.3008531609
 10
141.4030829067
 20
105.3483022489
 10
141.4263612548
 20
105.3948715987
 10
141.452420523
 20
105.4396908687
 10
141.4805045219
 20
105.4822264627
 10
141.5099069135
 20
105.52225673
 10
141.5411552903
 20
105.5591766587
 10
141.5739339906
 20
105.5925192023
 10
141.6070379394
 20
105.622098444
 10
141.6396890477
 20
105.6477227501
  0
LWPOLYLINE
  5
31F
100
AcDbEntity
  8
ASSI
100
AcDbPolyline
 62
253
  6
CONTINUOUS
 90
16
 70
0
 10
141.321499624
 20
105.0195620957
 10
141.3229010579
 20
105.0643400236
 10
141.3282146316
 20
105.1098214316
 10
141.3369927592
 20
105.1561302376
 10
141.3487734762
 20
105.2037934159
 10
141.3637184901
 20
105.2524984909
 10
141.3820919076
 20
105.3008531609
 10
141.4030829067
 20
105.3483022489
 10
141.4263612548
 20
105.3948715987
 10
141.452420523
 20
105.4396908687
 10
141.4805045219
 20
105.4822264627
 10
141.5099069135
 20
105.52225673
 10
141.5411552903
 20
105.5591766587
 10
141.5739339906
 20
105.5925192023
 10
141.6070379394
 20
105.622098444
 10
141.6396890477
 20
105.6477227501
  0
LWPOLYLINE
  5
320
100
AcDbEntity
  8
ASSI
100
AcDbPolyline
 62
253
  6
CONTINUOUS
 90
16
 70
0
 10
140.2178161347
 20
105.4628263261
 10
140.2195855713
 20
105.5074546638
 10
140.2235020162
 20
105.5534954249
 10
140.2297636263
 20
105.6008132553
 10
140.2389596462
 20
105.6495129597
 10
140.2509533811
 20
105.6994019759
 10
140.2648793846
 20
105.7495418522
 10
140.2810301997
 20
105.7989344402
 10
140.2996600788
 20
105.8473708138
 10
140.3197571229
 20
105.8945852003
 10
140.3414010754
 20
105.9397082874
 10
140.3648242969
 20
105.9821413471
 10
140.3890736102
 20
106.0218738574
 10
140.4138371151
 20
106.0584371321
 10
140.4395073517
 20
106.0910035692
 10
140.4661050334
 20
106.1190606165
  0
LWPOLYLINE
  5
321
100
AcDbEntity
  8
0
100
AcDbPolyline
 62
253
  6
CONTINUOUS
 90
16
 70
0
 10
140.2178161347
 20
105.4628263261
 10
140.2195855713
 20
105.5074546638
 10
140.2235020162
 20
105.5534954249
 10
140.2297636263
 20
105.6008132553
 10
140.2389596462
 20
105.6495129597
 10
140.2509533811
 20
105.6994019759
 10
140.2648793846
 20
105.7495418522
 10
140.2810301997
 20
105.7989344402
 10
140.2996600788
 20
105.8473708138
 10
140.3197571229
 20
105.8945852003
 10
140.3414010754
 20
105.9397082874
 10
140.3648242969
 20
105.9821413471
 10
140.3890736102
 20
106.0218738574
 10
140.4138371151
 20
106.0584371321
 10
140.4395073517
 20
106.0910035692
 10
140.4661050334
 20
106.1190606165
  0
LWPOLYLINE
  5
322
100
AcDbEntity
  8
ASSI
100
AcDbPolyline
 62
253
  6
CONTINUOUS
 90
22
 70
0
 10
140.4771934098
 20
123.3799132176
 10
140.4808013143
 20
123.4518787605
 10
140.4877167711
 20
123.5260854729
 10
140.4979084156
 20
123.6021658461
 10
140.5113361858
 20
123.6797348484
 10
140.5279325924
 20
123.7584156539
 10
140.5476050688
 20
123.8378422521
 10
140.5702714818
 20
123.9176253714
 10
140.5958258381
 20
123.9973637493
 10
140.6241211516
 20
124.0766704425
 10
140.6550333201
 20
124.1551484305
 10
140.6884206474
 20
124.2324073608
 10
140.7240918979
 20
124.3080754678
 10
140.7618901508
 20
124.3817741553
 10
140.8016414507
 20
124.4531326541
 10
140.843114284
 20
124.5218050632
 10
140.8861202973
 20
124.5874417166
 10
140.9304656853
 20
124.6497160011
 10
140.9759004232
 20
124.7083377919
 10
141.0222026849
 20
124.7630170111
 10
141.0691793735
 20
124.8134663739
 10
141.1166176983
 20
124.8594274768
  0
LWPOLYLINE
  5
323
100
AcDbEntity
  8
0
100
AcDbPolyline
 62
253
  6
CONTINUOUS
 90
22
 70
0
 10
140.4771934098
 20
123.3799132176
 10
140.4808013143
 20
123.4518787605
 10
140.4877167711
 20
123.5260854729
 10
140.4979084156
 20
123.6021658461
 10
140.5113361858
 20
123.6797348484
 10
140.5279325924
 20
123.7584156539
 10
140.5476050688
 20
123.8378422521
 10
140.5702714818
 20
123.9176253714
 10
140.5958258381
 20
123.9973637493
 10
140.6241211516
 20
124.0766704425
 10
140.6550333201
 20
124.1551484305
 10
140.6884206474
 20
124.2324073608
 10
140.7240918979
 20
124.3080754678
 10
140.7618901508
 20
124.3817741553
 10
140.8016414507
 20
124.4531326541
 10
140.843114284
 20
124.5218050632
 10
140.8861202973
 20
124.5874417166
 10
140.9304656853
 20
124.6497160011
 10
140.9759004232
 20
124.7083377919
 10
141.0222026849
 20
124.7630170111
 10
141.0691793735
 20
124.8134663739
 10
141.1166176983
 20
124.8594274768
  0
LWPOLYLINE
  5
324
100
AcDbEntity
  8
ASSI
100
AcDbPolyline
 62
253
  6
CONTINUOUS
 90
22
 70
0
 10
141.1375701112
 20
123.4369568828
 10
141.1398775969
 20
123.4790049826
 10
141.1441806322
 20
123.5219558598
 10
141.1504792171
 20
123.5658095145
 10
141.1588236259
 20
123.6108087291
 10
141.1691635843
 20
123.6567107211
 10
141.1813482696
 20
123.7027871433
 10
141.1954040572
 20
123.7490225409
 10
141.2113045716
 20
123.7954323687
 10
141.2288198633
 20
123.841334644
 10
141.2479756993
 20
123.8867250295
 10
141.2687463126
 20
123.9316078625
 10
141.2908244523
 20
123.9753141725
 10
141.3142295635
 20
124.0178249168
 10
141.3389422012
 20
124.0591591382
 10
141.3645967786
 20
124.0987049948
 10
141.3912202613
 20
124.1364467342
 10
141.4187856838
 20
124.1724001088
 10
141.4468465636
 20
124.2060005338
 10
141.4752540732
 20
124.237059814
 10
141.5041570401
 20
124.2657661445
 10
141.5335554643
 20
124.2921195252
  0
LWPOLYLINE
  5
325
100
AcDbEntity
  8
0
100
AcDbPolyline
 62
253
  6
CONTINUOUS
 90
22
 70
0
 10
141.1375701112
 20
123.4369568828
 10
141.1398775969
 20
123.4790049826
 10
141.1441806322
 20
123.5219558598
 10
141.1504792171
 20
123.5658095145
 10
141.1588236259
 20
123.6108087291
 10
141.1691635843
 20
123.6567107211
 10
141.1813482696
 20
123.7027871433
 10
141.1954040572
 20
123.7490225409
 10
141.2113045716
 20
123.7954323687
 10
141.2288198633
 20
123.841334644
 10
141.2479756993
 20
123.8867250295
 10
141.2687463126
 20
123.9316078625
 10
141.2908244523
 20
123.9753141725
 10
141.3142295635
 20
124.0178249168
 10
141.3389422012
 20
124.0591591382
 10
141.3645967786
 20
124.0987049948
 10
141.3912202613
 20
124.1364467342
 10
141.4187856838
 20
124.1724001088
 10
141.4468465636
 20
124.2060005338
 10
141.4752540732
 20
124.237059814
 10
141.5041570401
 20
124.2657661445
 10
141.5335554643
 20
124.2921195252
  0
LWPOLYLINE
  5
326
100
AcDbEntity
  8
ASSI
100
AcDbPolyline
 62
253
  6
CONTINUOUS
 90
8
 70
0
 10
140.8705360737
 20
106.7507880676
 10
140.8681180265
 20
106.7091869452
 10
140.8613960508
 20
106.6697277751
 10
140.8503996453
 20
106.6328606887
 10
140.8351869419
 20
106.5989793077
 10
140.8158933668
 20
106.5685300686
 10
140.7927746092
 20
106.5419661168
 10
140.7722312004
 20
106.5241199427
  0
LWPOLYLINE
  5
327
100
AcDbEntity
  8
0
100
AcDbPolyline
 62
253
  6
CONTINUOUS
 90
8
 70
0
 10
140.8705360737
 20
106.7507880676
 10
140.8681180265
 20
106.7091869452
 10
140.8613960508
 20
106.6697277751
 10
140.8503996453
 20
106.6328606887
 10
140.8351869419
 20
106.5989793077
 10
140.8158933668
 20
106.5685300686
 10
140.7927746092
 20
106.5419661168
 10
140.7722312004
 20
106.5241199427
  0
LINE
  5
328
100
AcDbEntity
  8
ASSI
100
AcDbLine
 62
253
  6
CONTINUOUS
 10
141.1427026408
 20
106.651649859
 11
140.4661050336
 21
106.1190606167
  0
LINE
  5
329
100
AcDbEntity
  8
0
100
AcDbLine
 62
253
  6
CONTINUOUS
 10
141.1427026408
 20
106.651649859
 11
140.4661050336
 21
106.1190606167
  0
LINE
  5
32A
100
AcDbEntity
  8
ASSI
100
AcDbLine
 62
253
  6
CONTINUOUS
 10
140.7722312004
 20
106.5241199427
 11
140.7719394648
 21
106.5238969194
  0
LINE
  5
32B
100
AcDbEntity
  8
0
100
AcDbLine
 62
253
  6
CONTINUOUS
 10
140.7722312004
 20
106.5241199427
 11
140.7719394648
 21
106.5238969194
  0
LINE
  5
32C
100
AcDbEntity
  8
ASSI
100
AcDbLine
 62
253
  6
CONTINUOUS
 10
140.8705360735
 20
106.7507880675
 11
141.1434832434
 21
106.9590822679
  0
LINE
  5
32D
100
AcDbEntity
  8
0
100
AcDbLine
 62
253
  6
CONTINUOUS
 10
140.8705360735
 20
106.7507880675
 11
141.1434832434
 21
106.9590822679
  0
LINE
  5
32E
100
AcDbEntity
  8
ASSI
100
AcDbLine
 62
7
  6
CONTINUOUS
 10
140.7719373204
 20
106.523895283
 11
141.1430974431
 21
106.8071387438
  0
LINE
  5
32F
100
AcDbEntity
  8
0
100
AcDbLine
 62
7
  6
CONTINUOUS
 10
140.7719373204
 20
106.523895283
 11
141.1430974431
 21
106.8071387438
  0
LWPOLYLINE
  5
330
100
AcDbEntity
  8
ASSI
100
AcDbPolyline
 62
7
  6
CONTINUOUS
 90
11
 70
0
 10
140.310709234
 20
106.4469628175
 10
140.3520935398
 20
106.4351412704
 10
140.4001951681
 20
106.4260786135
 10
140.4491264008
 20
106.4217558974
 10
140.4984268987
 20
106.4222662175
 10
140.5475813203
 20
106.4276524713
 10
140.5961373505
 20
106.4379135433
 10
140.6436041296
 20
106.4530000719
 10
140.6894692821
 20
106.4728005922
 10
140.7332499868
 20
106.4971540876
 10
140.7722312004
 20
106.5241199427
  0
LWPOLYLINE
  5
331
100
AcDbEntity
  8
0
100
AcDbPolyline
 62
7
  6
CONTINUOUS
 90
11
 70
0
 10
140.310709234
 20
106.4469628175
 10
140.3520935398
 20
106.4351412704
 10
140.4001951681
 20
106.4260786135
 10
140.4491264008
 20
106.4217558974
 10
140.4984268987
 20
106.4222662175
 10
140.5475813203
 20
106.4276524713
 10
140.5961373505
 20
106.4379135433
 10
140.6436041296
 20
106.4530000719
 10
140.6894692821
 20
106.4728005922
 10
140.7332499868
 20
106.4971540876
 10
140.7722312004
 20
106.5241199427
  0
LWPOLYLINE
  5
332
100
AcDbEntity
  8
ASSI
100
AcDbPolyline
 62
253
  6
CONTINUOUS
 90
16
 70
0
 10
140.2178160766
 20
106.6738945204
 10
140.2610137492
 20
106.6610864999
 10
140.3061743615
 20
106.6507396936
 10
140.3528708898
 20
106.6429519374
 10
140.40066178
 20
106.6377968707
 10
140.449095144
 20
106.6353232367
 10
140.4977130334
 20
106.6355544256
 10
140.5460557548
 20
106.6384882569
 10
140.5936661716
 20
106.6440969934
 10
140.6400940505
 20
106.6523275952
 10
140.6849003654
 20
106.663102227
 10
140.7276614667
 20
106.6763190072
 10
140.7679730415
 20
106.6918529668
 10
140.8054539227
 20
106.7095572249
 10
140.8397496969
 20
106.7292643734
 10
140.8705360745
 20
106.7507880682
  0
LWPOLYLINE
  5
333
100
AcDbEntity
  8
0
100
AcDbPolyline
 62
253
  6
CONTINUOUS
 90
16
 70
0
 10
140.2178160766
 20
106.6738945204
 10
140.2610137492
 20
106.6610864999
 10
140.3061743615
 20
106.6507396936
 10
140.3528708898
 20
106.6429519374
 10
140.40066178
 20
106.6377968707
 10
140.449095144
 20
106.6353232367
 10
140.4977130334
 20
106.6355544256
 10
140.5460557548
 20
106.6384882569
 10
140.5936661716
 20
106.6440969934
 10
140.6400940505
 20
106.6523275952
 10
140.6849003654
 20
106.663102227
 10
140.7276614667
 20
106.6763190072
 10
140.7679730415
 20
106.6918529668
 10
140.8054539227
 20
106.7095572249
 10
140.8397496969
 20
106.7292643734
 10
140.8705360745
 20
106.7507880682
  0
LINE
  5
334
100
AcDbEntity
  8
ASSI
100
AcDbLine
 62
7
  6
CONTINUOUS
 10
158.4958449496
 20
99.1433996313
 11
158.4958846172
 21
99.1433864084
  0
LINE
  5
335
100
AcDbEntity
  8
0
100
AcDbLine
 62
7
  6
CONTINUOUS
 10
158.4958449496
 20
99.1433996313
 11
158.4958846172
 21
99.1433864084
  0
LINE
  5
336
100
AcDbEntity
  8
ASSI
100
AcDbLine
 62
7
  6
CONTINUOUS
 10
140.3106695664
 20
106.4469760404
 11
140.310709234
 21
106.4469628175
  0
LINE
  5
337
100
AcDbEntity
  8
0
100
AcDbLine
 62
7
  6
CONTINUOUS
 10
140.3106695664
 20
106.4469760404
 11
140.310709234
 21
106.4469628175
  0
LWPOLYLINE
  5
338
100
AcDbEntity
  8
0
100
AcDbPolyline
 62
253
  6
CONTINUOUS
 90
10
 70
0
 10
158.6512804168
 20
98.8154842076
 10
156.6612701699
 20
99.490597811
 10
154.6960152444
 20
100.1867989671
 10
152.7555156402
 20
100.9040876759
 10
150.839500642
 20
101.6425726694
 10
148.9482409652
 20
102.4021452157
 10
147.0825487554
 20
103.1824791188
 10
145.2426947281
 20
103.9834656468
 10
143.4284081679
 20
104.8052135316
 10
141.6396890747
 20
105.6477227733
  0
LWPOLYLINE
  5
339
100
AcDbEntity
  8
ASSI
100
AcDbPolyline
 62
253
  6
CONTINUOUS
 90
10
 70
0
 10
158.6512804168
 20
98.8154842076
 10
156.6612701699
 20
99.490597811
 10
154.6960152444
 20
100.1867989671
 10
152.7555156402
 20
100.9040876759
 10
150.839500642
 20
101.6425726694
 10
148.9482409652
 20
102.4021452157
 10
147.0825487554
 20
103.1824791188
 10
145.2426947281
 20
103.9834656468
 10
143.4284081679
 20
104.8052135316
 10
141.6396890747
 20
105.6477227733
  0
LWPOLYLINE
  5
33A
100
AcDbEntity
  8
ASSI
100
AcDbPolyline
 62
253
  6
CONTINUOUS
 90
10
 70
0
 10
140.2178159553
 20
105.4628263878
 10
138.2202735073
 20
106.1404060546
 10
136.2468125554
 20
106.8394818158
 10
134.2978239629
 20
107.5599006841
 10
132.3738124423
 20
108.3014604263
 10
130.4750441705
 20
109.0640485473
 10
128.6015563356
 20
109.8476501191
 10
126.7536243333
 20
110.6521601436
 10
124.9317522143
 20
111.4773757251
 10
123.1363244631
 20
112.3231384681
  0
LWPOLYLINE
  5
33B
100
AcDbEntity
  8
0
100
AcDbPolyline
 62
253
  6
CONTINUOUS
 90
10
 70
0
 10
140.2178159553
 20
105.4628263878
 10
138.2202735073
 20
106.1404060546
 10
136.2468125554
 20
106.8394818158
 10
134.2978239629
 20
107.5599006841
 10
132.3738124423
 20
108.3014604263
 10
130.4750441705
 20
109.0640485473
 10
128.6015563356
 20
109.8476501191
 10
126.7536243333
 20
110.6521601436
 10
124.9317522143
 20
111.4773757251
 10
123.1363244631
 20
112.3231384681
  0
LWPOLYLINE
  5
33C
100
AcDbEntity
  8
ASSI
100
AcDbPolyline
 62
253
  6
CONTINUOUS
 90
10
 70
0
 10
140.4661050336
 20
106.1190606167
 10
138.4760947867
 20
106.79417422
 10
136.5108398612
 20
107.4903753762
 10
134.5703402569
 20
108.207664085
 10
132.6543252588
 20
108.9461490785
 10
130.763065582
 20
109.7057216248
 10
128.8973733722
 20
110.4860555279
 10
127.0575193449
 20
111.2870420559
 10
125.2432327846
 20
112.1087899407
 10
123.4545136915
 20
112.9512991824
  0
LWPOLYLINE
  5
33D
100
AcDbEntity
  8
0
100
AcDbPolyline
 62
253
  6
CONTINUOUS
 90
10
 70
0
 10
140.4661050336
 20
106.1190606167
 10
138.4760947867
 20
106.79417422
 10
136.5108398612
 20
107.4903753762
 10
134.5703402569
 20
108.207664085
 10
132.6543252588
 20
108.9461490785
 10
130.763065582
 20
109.7057216248
 10
128.8973733722
 20
110.4860555279
 10
127.0575193449
 20
111.2870420559
 10
125.2432327846
 20
112.1087899407
 10
123.4545136915
 20
112.9512991824
  0
LWPOLYLINE
  5
33E
100
AcDbEntity
  8
ASSI
100
AcDbPolyline
 62
253
  6
CONTINUOUS
 90
10
 70
0
 10
123.1363244542
 20
113.5342067128
 10
124.9317511189
 20
112.691063489
 10
126.7536223952
 20
111.8678127351
 10
128.6015538111
 20
111.064612674
 10
130.4750413278
 20
110.2816660907
 10
132.3738095615
 20
109.5190779385
 10
134.2978213356
 20
108.7768631548
 10
136.2468104839
 20
108.0551342981
 10
138.2202723048
 20
107.3540937307
 10
140.2178159452
 20
106.6738946317
  0
LWPOLYLINE
  5
33F
100
AcDbEntity
  8
0
100
AcDbPolyline
 62
253
  6
CONTINUOUS
 90
10
 70
0
 10
123.1363244542
 20
113.5342067128
 10
124.9317511189
 20
112.691063489
 10
126.7536223952
 20
111.8678127351
 10
128.6015538111
 20
111.064612674
 10
130.4750413278
 20
110.2816660907
 10
132.3738095615
 20
109.5190779385
 10
134.2978213356
 20
108.7768631548
 10
136.2468104839
 20
108.0551342981
 10
138.2202723048
 20
107.3540937307
 10
140.2178159452
 20
106.6738946317
  0
LWPOLYLINE
  5
340
100
AcDbEntity
  8
ASSI
100
AcDbPolyline
 62
253
  6
CONTINUOUS
 90
10
 70
0
 10
141.3214998375
 20
106.2306303037
 10
143.1169265021
 20
105.3874870799
 10
144.9387977784
 20
104.564236326
 10
146.7867291943
 20
103.7610362649
 10
148.6602167111
 20
102.9780896816
 10
150.5589849448
 20
102.2155015295
 10
152.4829967188
 20
101.4732867457
 10
154.4319858671
 20
100.751557889
 10
156.405447688
 20
100.0505173216
 10
158.4029913285
 20
99.3703182226
  0
LWPOLYLINE
  5
341
100
AcDbEntity
  8
0
100
AcDbPolyline
 62
253
  6
CONTINUOUS
 90
10
 70
0
 10
141.3214998375
 20
106.2306303037
 10
143.1169265021
 20
105.3874870799
 10
144.9387977784
 20
104.564236326
 10
146.7867291943
 20
103.7610362649
 10
148.6602167111
 20
102.9780896816
 10
150.5589849448
 20
102.2155015295
 10
152.4829967188
 20
101.4732867457
 10
154.4319858671
 20
100.751557889
 10
156.405447688
 20
100.0505173216
 10
158.4029913285
 20
99.3703182226
  0
LWPOLYLINE
  5
342
100
AcDbEntity
  8
ASSI
100
AcDbPolyline
 62
7
  6
CONTINUOUS
 90
13
 70
0
 10
123.2411252654
 20
113.3026259486
 10
124.5307036051
 20
112.6937433162
 10
125.8979528159
 20
112.0662235941
 10
127.2806980975
 20
111.4498564369
 10
128.6786205137
 20
110.8448007927
 10
130.0914228015
 20
110.2512009767
 10
131.5188486817
 20
109.6691628999
 10
132.9606250609
 20
109.0987943966
 10
134.4164788325
 20
108.5402033932
 10
135.8861457947
 20
107.9934894951
 10
137.369284565
 20
107.4587613503
 10
138.8655224078
 20
106.9361341886
 10
140.3105246361
 20
106.447024378
  0
LWPOLYLINE
  5
343
100
AcDbEntity
  8
0
100
AcDbPolyline
 62
7
  6
CONTINUOUS
 90
13
 70
0
 10
123.2411252654
 20
113.3026259486
 10
124.5307036051
 20
112.6937433162
 10
125.8979528159
 20
112.0662235941
 10
127.2806980975
 20
111.4498564369
 10
128.6786205137
 20
110.8448007927
 10
130.0914228015
 20
110.2512009767
 10
131.5188486817
 20
109.6691628999
 10
132.9606250609
 20
109.0987943966
 10
134.4164788325
 20
108.5402033932
 10
135.8861457947
 20
107.9934894951
 10
137.369284565
 20
107.4587613503
 10
138.8655224078
 20
106.9361341886
 10
140.3105246361
 20
106.447024378
  0
LWPOLYLINE
  5
344
100
AcDbEntity
  8
ASSI
100
AcDbPolyline
 62
7
  6
CONTINUOUS
 90
13
 70
0
 10
141.4263006486
 20
105.9990495395
 10
142.7158789883
 20
105.3901669071
 10
144.0831281991
 20
104.762647185
 10
145.4658734807
 20
104.1462800279
 10
146.8637958969
 20
103.5412243836
 10
148.2765981847
 20
102.9476245676
 10
149.7040240649
 20
102.3655864908
 10
151.1458004442
 20
101.7952179876
 10
152.6016542158
 20
101.2366269841
 10
154.0713211779
 20
100.689913086
 10
155.5544599482
 20
100.1551849412
 10
157.050697791
 20
99.6325577795
 10
158.4957000193
 20
99.1434479689
  0
LWPOLYLINE
  5
345
100
AcDbEntity
  8
0
100
AcDbPolyline
 62
7
  6
CONTINUOUS
 90
13
 70
0
 10
141.4263006486
 20
105.9990495395
 10
142.7158789883
 20
105.3901669071
 10
144.0831281991
 20
104.762647185
 10
145.4658734807
 20
104.1462800279
 10
146.8637958969
 20
103.5412243836
 10
148.2765981847
 20
102.9476245676
 10
149.7040240649
 20
102.3655864908
 10
151.1458004442
 20
101.7952179876
 10
152.6016542158
 20
101.2366269841
 10
154.0713211779
 20
100.689913086
 10
155.5544599482
 20
100.1551849412
 10
157.050697791
 20
99.6325577795
 10
158.4957000193
 20
99.1434479689
  0
LINE
  5
346
100
AcDbEntity
  8
ASSI
100
AcDbLine
 62
7
  6
CONTINUOUS
 10
123.2409363979
 20
113.3027163893
 11
123.2409912413
 21
113.302690117
  0
LINE
  5
347
100
AcDbEntity
  8
0
100
AcDbLine
 62
7
  6
CONTINUOUS
 10
123.2409363979
 20
113.3027163893
 11
123.2409912413
 21
113.302690117
  0
LINE
  5
348
100
AcDbEntity
  8
ASSI
100
AcDbLine
 62
7
  6
CONTINUOUS
 10
141.4261117812
 20
105.9991399803
 11
141.4261666245
 21
105.9991137079
  0
LINE
  5
349
100
AcDbEntity
  8
0
100
AcDbLine
 62
7
  6
CONTINUOUS
 10
141.4261117812
 20
105.9991399803
 11
141.4261666245
 21
105.9991137079
  0
LWPOLYLINE
  5
34A
100
AcDbEntity
  8
ASSI
100
AcDbPolyline
 62
7
  6
CONTINUOUS
 90
7
 70
0
 10
123.2409912413
 20
113.302690117
 10
123.230418829
 20
113.3079091949
 10
123.1913675435
 20
113.3300222779
 10
123.1545442895
 20
113.3554809369
 10
123.1199735762
 20
113.3842882588
 10
123.0879853571
 20
113.4162484596
 10
123.0589271827
 20
113.4510839109
  0
LWPOLYLINE
  5
34B
100
AcDbEntity
  8
0
100
AcDbPolyline
 62
7
  6
CONTINUOUS
 90
7
 70
0
 10
123.2409912413
 20
113.302690117
 10
123.230418829
 20
113.3079091949
 10
123.1913675435
 20
113.3300222779
 10
123.1545442895
 20
113.3554809369
 10
123.1199735762
 20
113.3842882588
 10
123.0879853571
 20
113.4162484596
 10
123.0589271827
 20
113.4510839109
  0
LWPOLYLINE
  5
34C
100
AcDbEntity
  8
ASSI
100
AcDbPolyline
 62
7
  6
CONTINUOUS
 90
7
 70
0
 10
141.4261666245
 20
105.9991137079
 10
141.4155942122
 20
106.0043327858
 10
141.3765429267
 20
106.0264458688
 10
141.3397196727
 20
106.0519045279
 10
141.3051489594
 20
106.0807118497
 10
141.2731607403
 20
106.1126720505
 10
141.2441025659
 20
106.1475075019
  0
LWPOLYLINE
  5
34D
100
AcDbEntity
  8
0
100
AcDbPolyline
 62
7
  6
CONTINUOUS
 90
7
 70
0
 10
141.4261666245
 20
105.9991137079
 10
141.4155942122
 20
106.0043327858
 10
141.3765429267
 20
106.0264458688
 10
141.3397196727
 20
106.0519045279
 10
141.3051489594
 20
106.0807118497
 10
141.2731607403
 20
106.1126720505
 10
141.2441025659
 20
106.1475075019
  0
LWPOLYLINE
  5
34E
100
AcDbEntity
  8
0
100
AcDbPolyline
 62
253
  6
CONTINUOUS
 90
10
 70
0
 10
141.321499624
 20
105.0195620957
 10
141.2857576072
 20
105.0384774318
 10
141.2533859137
 20
105.0593003073
 10
141.2246906397
 20
105.0818338276
 10
141.1999431215
 20
105.1058649196
 10
141.1793773591
 20
105.1311663565
 10
141.1631878096
 20
105.1574989084
 10
141.1515275577
 20
105.184613597
 10
141.1445068736
 20
105.2122540231
 10
141.14219198
 20
105.2396978469
  0
LWPOLYLINE
  5
34F
100
AcDbEntity
  8
ASSI
100
AcDbPolyline
 62
253
  6
CONTINUOUS
 90
10
 70
0
 10
141.321499624
 20
105.0195620957
 10
141.2857576072
 20
105.0384774318
 10
141.2533859137
 20
105.0593003073
 10
141.2246906397
 20
105.0818338276
 10
141.1999431215
 20
105.1058649196
 10
141.1793773591
 20
105.1311663565
 10
141.1631878096
 20
105.1574989084
 10
141.1515275577
 20
105.184613597
 10
141.1445068736
 20
105.2122540231
 10
141.14219198
 20
105.2396978469
  0
LWPOLYLINE
  5
350
100
AcDbEntity
  8
ASSI
100
AcDbPolyline
 62
7
  6
CONTINUOUS
 90
8
 70
0
 10
141.2441025659
 20
106.1475075019
 10
141.2181450729
 20
106.1851150751
 10
141.1956193598
 20
106.2251538716
 10
141.1767972316
 20
106.267260134
 10
141.1618319365
 20
106.3112781219
 10
141.15095051
 20
106.3568617164
 10
141.1443668046
 20
106.4034539666
 10
141.1421920329
 20
106.4505520961
  0
LWPOLYLINE
  5
351
100
AcDbEntity
  8
0
100
AcDbPolyline
 62
7
  6
CONTINUOUS
 90
8
 70
0
 10
141.2441025659
 20
106.1475075019
 10
141.2181450729
 20
106.1851150751
 10
141.1956193598
 20
106.2251538716
 10
141.1767972316
 20
106.267260134
 10
141.1618319365
 20
106.3112781219
 10
141.15095051
 20
106.3568617164
 10
141.1443668046
 20
106.4034539666
 10
141.1421920329
 20
106.4505520961
  0
LINE
  5
352
100
AcDbEntity
  8
ASSI
100
AcDbLine
 62
7
  6
CONTINUOUS
 10
143.0539573154
 20
125.5803438334
 11
143.062122305
 21
125.4581939412
  0
LINE
  5
353
100
AcDbEntity
  8
0
100
AcDbLine
 62
7
  6
CONTINUOUS
 10
143.0539573154
 20
125.5803438334
 11
143.062122305
 21
125.4581939412
  0
LINE
  5
354
100
AcDbEntity
  8
ASSI
100
AcDbLine
 62
7
  6
CONTINUOUS
 10
145.8238192925
 20
124.8451213374
 11
145.762667037
 21
124.4181206269
  0
LINE
  5
355
100
AcDbEntity
  8
0
100
AcDbLine
 62
7
  6
CONTINUOUS
 10
145.8238192925
 20
124.8451213374
 11
145.762667037
 21
124.4181206269
  0
LWPOLYLINE
  5
356
100
AcDbEntity
  8
0
100
AcDbPolyline
 62
7
  6
CONTINUOUS
 90
10
 70
0
 10
141.3119185527
 20
105.6156050236
 10
141.2878852831
 20
105.5930111234
 10
141.255134948
 20
105.5567357591
 10
141.2261064644
 20
105.5174723096
 10
141.2011430081
 20
105.4757458794
 10
141.1803525593
 20
105.4317967981
 10
141.1638429463
 20
105.3857543246
 10
141.1518465825
 20
105.3379952575
 10
141.144590543
 20
105.2891288036
 10
141.14219198
 20
105.239697847
  0
LWPOLYLINE
  5
357
100
AcDbEntity
  8
ASSI
100
AcDbPolyline
 62
7
  6
CONTINUOUS
 90
10
 70
0
 10
141.3119185527
 20
105.6156050236
 10
141.2878852831
 20
105.5930111234
 10
141.255134948
 20
105.5567357591
 10
141.2261064644
 20
105.5174723096
 10
141.2011430081
 20
105.4757458794
 10
141.1803525593
 20
105.4317967981
 10
141.1638429463
 20
105.3857543246
 10
141.1518465825
 20
105.3379952575
 10
141.144590543
 20
105.2891288036
 10
141.14219198
 20
105.239697847
  0
LINE
  5
358
100
AcDbEntity
  8
0
100
AcDbLine
 62
7
  6
CONTINUOUS
 10
141.3119778772
 20
105.6156572191
 11
141.6355525975
 21
105.9002498982
  0
LINE
  5
359
100
AcDbEntity
  8
ASSI
100
AcDbLine
 62
7
  6
CONTINUOUS
 10
141.3119778772
 20
105.6156572191
 11
141.6355525975
 21
105.9002498982
  0
LINE
  5
35A
100
AcDbEntity
  8
0
100
AcDbLine
 62
253
  6
CONTINUOUS
 10
141.6396890747
 20
105.6477227733
 11
141.8250683428
 21
105.8107688311
  0
LINE
  5
35B
100
AcDbEntity
  8
ASSI
100
AcDbLine
 62
253
  6
CONTINUOUS
 10
141.6396890747
 20
105.6477227733
 11
141.8250683428
 21
105.8107688311
  0
LWPOLYLINE
  5
35C
100
AcDbEntity
  8
0
100
AcDbPolyline
 62
253
  6
CONTINUOUS
 90
10
 70
0
 10
141.311977241
 20
105.6156566596
 10
141.3301629439
 20
105.6300921257
 10
141.3608279324
 20
105.6486453362
 10
141.3945942214
 20
105.6627137316
 10
141.4310994625
 20
105.6721401403
 10
141.4699384199
 20
105.6768141807
 10
141.510673994
 20
105.6766811855
 10
141.5528538496
 20
105.6717432462
 10
141.5960172508
 20
105.6620548939
 10
141.6396890481
 20
105.6477227499
  0
LWPOLYLINE
  5
35D
100
AcDbEntity
  8
ASSI
100
AcDbPolyline
 62
253
  6
CONTINUOUS
 90
10
 70
0
 10
141.311977241
 20
105.6156566596
 10
141.3301629439
 20
105.6300921257
 10
141.3608279324
 20
105.6486453362
 10
141.3945942214
 20
105.6627137316
 10
141.4310994625
 20
105.6721401403
 10
141.4699384199
 20
105.6768141807
 10
141.510673994
 20
105.6766811855
 10
141.5528538496
 20
105.6717432462
 10
141.5960172508
 20
105.6620548939
 10
141.6396890481
 20
105.6477227499
  0
LINE
  5
35E
100
AcDbEntity
  8
ASSI
100
AcDbLine
 62
253
  6
CONTINUOUS
 10
141.4426690366
 20
105.9913211008
 11
140.8705361313
 21
105.5409620879
  0
LINE
  5
35F
100
AcDbEntity
  8
0
100
AcDbLine
 62
253
  6
CONTINUOUS
 10
141.4426690366
 20
105.9913211008
 11
140.8705361313
 21
105.5409620879
  0
LWPOLYLINE
  5
360
100
AcDbEntity
  8
ASSI
100
AcDbPolyline
 62
253
  6
CONTINUOUS
 90
16
 70
0
 10
140.870536132
 20
105.5409620885
 10
140.8397497544
 20
105.5193169879
 10
140.8054539802
 20
105.4994895815
 10
140.767973099
 20
105.4816673508
 10
140.7276615242
 20
105.4660188191
 10
140.684900423
 20
105.4526919508
 10
140.6400941082
 20
105.4418127556
 10
140.5936662294
 20
105.4334841041
 10
140.5460558127
 20
105.4277847586
 10
140.4977130913
 20
105.4247686159
 10
140.449095202
 20
105.4244641915
 10
140.400661838
 20
105.4268743584
 10
140.3528709479
 20
105.4319763263
 10
140.3061744196
 20
105.4397218541
 10
140.2610138073
 20
105.4500377018
 10
140.2178161347
 20
105.4628263261
  0
LWPOLYLINE
  5
361
100
AcDbEntity
  8
0
100
AcDbPolyline
 62
253
  6
CONTINUOUS
 90
16
 70
0
 10
140.870536132
 20
105.5409620885
 10
140.8397497544
 20
105.5193169879
 10
140.8054539802
 20
105.4994895815
 10
140.767973099
 20
105.4816673508
 10
140.7276615242
 20
105.4660188191
 10
140.684900423
 20
105.4526919508
 10
140.6400941082
 20
105.4418127556
 10
140.5936662294
 20
105.4334841041
 10
140.5460558127
 20
105.4277847586
 10
140.4977130913
 20
105.4247686159
 10
140.449095202
 20
105.4244641915
 10
140.400661838
 20
105.4268743584
 10
140.3528709479
 20
105.4319763263
 10
140.3061744196
 20
105.4397218541
 10
140.2610138073
 20
105.4500377018
 10
140.2178161347
 20
105.4628263261
  0
LWPOLYLINE
  5
362
100
AcDbEntity
  8
SUPERFICI
100
AcDbPolyline
 62
7
  6
CONTINUOUS
 90
12
 70
0
 10
147.7406868624
 20
107.2640504354
 10
147.6858579004
 20
107.2810937845
 10
147.6317463387
 20
107.2940016428
 10
147.5780847522
 20
107.3028084162
 10
147.525139772
 20
107.307479059
 10
147.4737110359
 20
107.3079082374
 10
147.4238043219
 20
107.3040139646
 10
147.3754116521
 20
107.2958764766
 10
147.329310373
 20
107.2836324564
 10
147.2855910523
 20
107.2672489053
 10
147.244159944
 20
107.2467563022
 10
147.2055167123
 20
107.2223855834
  0
LINE
  5
363
100
AcDbEntity
  8
ASSI
100
AcDbLine
 62
7
  6
CONTINUOUS
 10
151.5412848972
 20
104.1195367338
 11
151.4698798341
 21
104.1438820024
  0
LINE
  5
364
100
AcDbEntity
  8
0
100
AcDbLine
 62
7
  6
CONTINUOUS
 10
151.5412848972
 20
104.1195367338
 11
151.4698798341
 21
104.1438820024
  0
LINE
  5
365
100
AcDbEntity
  8
ASSI
100
AcDbLine
 62
7
  6
CONTINUOUS
 10
133.356109514
 20
111.4231131428
 11
133.2847044509
 21
111.4474584115
  0
LINE
  5
366
100
AcDbEntity
  8
0
100
AcDbLine
 62
7
  6
CONTINUOUS
 10
133.356109514
 20
111.4231131428
 11
133.2847044509
 21
111.4474584115
  0
LWPOLYLINE
  5
367
100
AcDbEntity
  8
SUPERFICI
100
AcDbPolyline
 62
7
  6
CONTINUOUS
 90
14
 70
0
 10
151.4702436005
 20
104.1437415443
 10
151.5270891626
 20
104.1238004175
 10
151.5832659309
 20
104.1079924299
 10
151.6387731968
 20
104.0963169916
 10
151.6938980187
 20
104.0887414508
 10
151.7483524389
 20
104.0852977016
 10
151.8012724247
 20
104.086081298
 10
151.8526355901
 20
104.0911754382
 10
151.902461993
 20
104.1004949469
 10
151.9499496564
 20
104.1138814649
 10
151.9950018814
 20
104.1313626228
 10
152.0377122059
 20
104.1529080965
 10
152.0775628911
 20
104.1782716573
 10
152.0941510252
 20
104.1906427727
  0
LWPOLYLINE
  5
368
100
AcDbEntity
  8
SUPERFICI
100
AcDbPolyline
 62
7
  6
CONTINUOUS
 90
14
 70
0
 10
133.2850682173
 20
111.4473179534
 10
133.3419137794
 20
111.4273768266
 10
133.3980905477
 20
111.411568839
 10
133.4535978136
 20
111.3998934006
 10
133.5087226355
 20
111.3923178599
 10
133.5631770557
 20
111.3888741107
 10
133.6160970415
 20
111.3896577071
 10
133.6674602068
 20
111.3947518473
 10
133.7172866098
 20
111.404071356
 10
133.7647742732
 20
111.4174578739
 10
133.8098264981
 20
111.4349390319
 10
133.8525368227
 20
111.4564845056
 10
133.8923875079
 20
111.4818480664
 10
133.9089756419
 20
111.4942191818
  0
LINE
  5
369
100
AcDbEntity
  8
SUPERFICI
100
AcDbLine
 62
7
  6
CONTINUOUS
 10
147.7962338828
 20
107.242872126
 11
147.7406868624
 21
107.2640504354
  0
LINE
  5
36A
100
AcDbEntity
  8
SUPERFICI
100
AcDbLine
 62
7
  6
CONTINUOUS
 10
150.6426476024
 20
104.4661009171
 11
151.4702436005
 21
104.1437415443
  0
LINE
  5
36B
100
AcDbEntity
  8
ASSI
100
AcDbLine
 62
7
  6
CONTINUOUS
 10
151.4698798341
 20
104.1438820024
 11
150.6425408422
 21
104.4661428683
  0
LINE
  5
36C
100
AcDbEntity
  8
0
100
AcDbLine
 62
7
  6
CONTINUOUS
 10
151.4698798341
 20
104.1438820024
 11
150.6425408422
 21
104.4661428683
  0
LINE
  5
36D
100
AcDbEntity
  8
ASSI
100
AcDbLine
 62
7
  6
CONTINUOUS
 10
133.2847044509
 20
111.4474584115
 11
132.457365459
 21
111.7697192774
  0
LINE
  5
36E
100
AcDbEntity
  8
0
100
AcDbLine
 62
7
  6
CONTINUOUS
 10
133.2847044509
 20
111.4474584115
 11
132.457365459
 21
111.7697192774
  0
LINE
  5
36F
100
AcDbEntity
  8
SUPERFICI
100
AcDbLine
 62
7
  6
CONTINUOUS
 10
132.4574722192
 20
111.7696773262
 11
133.2850682173
 21
111.4473179534
  0
LINE
  5
370
100
AcDbEntity
  8
SUPERFICI
100
AcDbLine
 62
7
  6
CONTINUOUS
 10
151.4824086107
 20
105.7624212531
 11
150.6551889411
 21
106.0847555418
  0
LINE
  5
371
100
AcDbEntity
  8
ASSI
100
AcDbLine
 62
7
  6
CONTINUOUS
 10
150.6551584028
 20
106.0847675453
 11
151.4824085378
 21
105.7624212813
  0
LINE
  5
372
100
AcDbEntity
  8
0
100
AcDbLine
 62
7
  6
CONTINUOUS
 10
150.6551584028
 20
106.0847675453
 11
151.4824085378
 21
105.7624212813
  0
LINE
  5
373
100
AcDbEntity
  8
ASSI
100
AcDbLine
 62
7
  6
CONTINUOUS
 10
132.4699830196
 20
113.3883439543
 11
133.2972331546
 21
113.0659976904
  0
LINE
  5
374
100
AcDbEntity
  8
0
100
AcDbLine
 62
7
  6
CONTINUOUS
 10
132.4699830196
 20
113.3883439543
 11
133.2972331546
 21
113.0659976904
  0
LINE
  5
375
100
AcDbEntity
  8
SUPERFICI
100
AcDbLine
 62
7
  6
CONTINUOUS
 10
133.2972332275
 20
113.0659976622
 11
132.4700135578
 21
113.3883319509
  0
LINE
  5
376
100
AcDbEntity
  8
SUPERFICI
100
AcDbLine
 62
7
  6
CONTINUOUS
 10
149.8198584773
 20
104.7922575444
 11
150.6426476024
 21
104.4661009171
  0
LINE
  5
377
100
AcDbEntity
  8
ASSI
100
AcDbLine
 62
7
  6
CONTINUOUS
 10
150.6425408422
 20
104.4661428683
 11
149.819861129
 21
104.7922564852
  0
LINE
  5
378
100
AcDbEntity
  8
0
100
AcDbLine
 62
7
  6
CONTINUOUS
 10
150.6425408422
 20
104.4661428683
 11
149.819861129
 21
104.7922564852
  0
LINE
  5
379
100
AcDbEntity
  8
ASSI
100
AcDbLine
 62
7
  6
CONTINUOUS
 10
132.457365459
 20
111.7697192774
 11
131.6346857458
 21
112.0958328943
  0
LINE
  5
37A
100
AcDbEntity
  8
0
100
AcDbLine
 62
7
  6
CONTINUOUS
 10
132.457365459
 20
111.7697192774
 11
131.6346857458
 21
112.0958328943
  0
LINE
  5
37B
100
AcDbEntity
  8
SUPERFICI
100
AcDbLine
 62
7
  6
CONTINUOUS
 10
131.634683094
 20
112.0958339535
 11
132.4574722192
 21
111.7696773262
  0
LINE
  5
37C
100
AcDbEntity
  8
SUPERFICI
100
AcDbLine
 62
7
  6
CONTINUOUS
 10
150.6551889411
 20
106.0847555418
 11
149.8325404309
 21
106.410908281
  0
LINE
  5
37D
100
AcDbEntity
  8
ASSI
100
AcDbLine
 62
7
  6
CONTINUOUS
 10
149.8325259099
 20
106.4109140877
 11
150.6551584028
 21
106.0847675453
  0
LINE
  5
37E
100
AcDbEntity
  8
0
100
AcDbLine
 62
7
  6
CONTINUOUS
 10
149.8325259099
 20
106.4109140877
 11
150.6551584028
 21
106.0847675453
  0
LINE
  5
37F
100
AcDbEntity
  8
ASSI
100
AcDbLine
 62
7
  6
CONTINUOUS
 10
131.6473505266
 20
113.7144904967
 11
132.4699830196
 21
113.3883439543
  0
LINE
  5
380
100
AcDbEntity
  8
0
100
AcDbLine
 62
7
  6
CONTINUOUS
 10
131.6473505266
 20
113.7144904967
 11
132.4699830196
 21
113.3883439543
  0
LINE
  5
381
100
AcDbEntity
  8
SUPERFICI
100
AcDbLine
 62
7
  6
CONTINUOUS
 10
132.4700135578
 20
113.3883319509
 11
131.6473650476
 21
113.7144846901
  0
LINE
  5
382
100
AcDbEntity
  8
0
100
AcDbLine
 62
7
  6
CONTINUOUS
 10
161.1820069449
 20
100.9182026341
 11
161.275074337
 21
100.8808246713
  0
LINE
  5
383
100
AcDbEntity
  8
ASSI
100
AcDbLine
 62
7
  6
CONTINUOUS
 10
161.1820069449
 20
100.9182026341
 11
161.275074337
 21
100.8808246713
  0
LINE
  5
384
100
AcDbEntity
  8
SUPERFICI
100
AcDbLine
 62
7
  6
CONTINUOUS
 10
131.6473650476
 20
113.7144846901
 11
130.8293289855
 21
114.0444402703
  0
LINE
  5
385
100
AcDbEntity
  8
ASSI
100
AcDbLine
 62
7
  6
CONTINUOUS
 10
130.8293567729
 20
114.0444289658
 11
131.6473505266
 21
113.7144904967
  0
LINE
  5
386
100
AcDbEntity
  8
0
100
AcDbLine
 62
7
  6
CONTINUOUS
 10
130.8293567729
 20
114.0444289658
 11
131.6473505266
 21
113.7144904967
  0
LINE
  5
387
100
AcDbEntity
  8
ASSI
100
AcDbLine
 62
7
  6
CONTINUOUS
 10
149.0145321561
 20
106.7408525567
 11
149.8325259099
 21
106.4109140877
  0
LINE
  5
388
100
AcDbEntity
  8
0
100
AcDbLine
 62
7
  6
CONTINUOUS
 10
149.0145321561
 20
106.7408525567
 11
149.8325259099
 21
106.4109140877
  0
LINE
  5
389
100
AcDbEntity
  8
SUPERFICI
100
AcDbLine
 62
7
  6
CONTINUOUS
 10
149.8325404309
 20
106.410908281
 11
149.0145043687
 21
106.7408638612
  0
LINE
  5
38A
100
AcDbEntity
  8
SUPERFICI
100
AcDbLine
 62
7
  6
CONTINUOUS
 10
130.8166579356
 20
112.4258024868
 11
131.634683094
 21
112.0958339535
  0
LINE
  5
38B
100
AcDbEntity
  8
ASSI
100
AcDbLine
 62
7
  6
CONTINUOUS
 10
131.6346857458
 20
112.0958328943
 11
130.8166862884
 21
112.4257909505
  0
LINE
  5
38C
100
AcDbEntity
  8
0
100
AcDbLine
 62
7
  6
CONTINUOUS
 10
131.6346857458
 20
112.0958328943
 11
130.8166862884
 21
112.4257909505
  0
LINE
  5
38D
100
AcDbEntity
  8
ASSI
100
AcDbLine
 62
7
  6
CONTINUOUS
 10
149.819861129
 20
104.7922564852
 11
149.0018616716
 21
105.1222145414
  0
LINE
  5
38E
100
AcDbEntity
  8
0
100
AcDbLine
 62
7
  6
CONTINUOUS
 10
149.819861129
 20
104.7922564852
 11
149.0018616716
 21
105.1222145414
  0
LINE
  5
38F
100
AcDbEntity
  8
SUPERFICI
100
AcDbLine
 62
7
  6
CONTINUOUS
 10
149.0018333189
 20
105.1222260777
 11
149.8198584773
 21
104.7922575444
  0
LINE
  5
390
100
AcDbEntity
  8
ASSI
100
AcDbLine
 62
7
  6
CONTINUOUS
 10
130.8166862884
 20
112.4257909505
 11
130.0033573279
 21
112.7595973423
  0
LINE
  5
391
100
AcDbEntity
  8
0
100
AcDbLine
 62
7
  6
CONTINUOUS
 10
130.8166862884
 20
112.4257909505
 11
130.0033573279
 21
112.7595973423
  0
LINE
  5
392
100
AcDbEntity
  8
ASSI
100
AcDbLine
 62
7
  6
CONTINUOUS
 10
149.0018616716
 20
105.1222145414
 11
148.1885327112
 21
105.4560209332
  0
LINE
  5
393
100
AcDbEntity
  8
0
100
AcDbLine
 62
7
  6
CONTINUOUS
 10
149.0018616716
 20
105.1222145414
 11
148.1885327112
 21
105.4560209332
  0
LINE
  5
394
100
AcDbEntity
  8
SUPERFICI
100
AcDbLine
 62
7
  6
CONTINUOUS
 10
130.8293289855
 20
114.0444402703
 11
130.0159832052
 21
114.378166915
  0
LINE
  5
395
100
AcDbEntity
  8
SUPERFICI
100
AcDbLine
 62
7
  6
CONTINUOUS
 10
149.0145043687
 20
106.7408638612
 11
148.2011585884
 21
107.0745905059
  0
LINE
  5
396
100
AcDbEntity
  8
SUPERFICI
100
AcDbLine
 62
7
  6
CONTINUOUS
 10
130.0159832052
 20
114.378166915
 11
129.6110584996
 21
114.5464485351
  0
LWPOLYLINE
  5
397
100
AcDbEntity
  8
ASSI
100
AcDbPolyline
 62
7
  6
CONTINUOUS
 90
3
 70
0
 10
129.61105852
 20
114.5464485266
 10
130.0159924548
 20
114.378163071
 10
130.8293567729
 20
114.0444289658
  0
LWPOLYLINE
  5
398
100
AcDbEntity
  8
0
100
AcDbPolyline
 62
7
  6
CONTINUOUS
 90
3
 70
0
 10
129.61105852
 20
114.5464485266
 10
130.0159924548
 20
114.378163071
 10
130.8293567729
 20
114.0444289658
  0
LINE
  5
399
100
AcDbEntity
  8
SUPERFICI
100
AcDbLine
 62
7
  6
CONTINUOUS
 10
148.2011585884
 20
107.0745905059
 11
147.7962338828
 21
107.242872126
  0
LWPOLYLINE
  5
39A
100
AcDbEntity
  8
ASSI
100
AcDbPolyline
 62
7
  6
CONTINUOUS
 90
3
 70
0
 10
147.7962339032
 20
107.2428721175
 10
148.201167838
 20
107.0745866619
 10
149.0145321561
 20
106.7408525567
  0
LWPOLYLINE
  5
39B
100
AcDbEntity
  8
0
100
AcDbPolyline
 62
7
  6
CONTINUOUS
 90
3
 70
0
 10
147.7962339032
 20
107.2428721175
 10
148.201167838
 20
107.0745866619
 10
149.0145321561
 20
106.7408525567
  0
LWPOLYLINE
  5
39C
100
AcDbEntity
  8
SUPERFICI
100
AcDbPolyline
 62
7
  6
CONTINUOUS
 90
3
 70
0
 10
129.5981019181
 20
112.9280867413
 10
130.0031412509
 20
112.7596867905
 10
130.8166579356
 20
112.4258024868
  0
LINE
  5
39D
100
AcDbEntity
  8
ASSI
100
AcDbLine
 62
7
  6
CONTINUOUS
 10
130.0033573279
 20
112.7595973423
 11
129.5984565011
 21
112.9279386934
  0
LINE
  5
39E
100
AcDbEntity
  8
0
100
AcDbLine
 62
7
  6
CONTINUOUS
 10
130.0033573279
 20
112.7595973423
 11
129.5984565011
 21
112.9279386934
  0
LINE
  5
39F
100
AcDbEntity
  8
ASSI
100
AcDbLine
 62
7
  6
CONTINUOUS
 10
148.1885327112
 20
105.4560209332
 11
147.7836318843
 21
105.6243622843
  0
LINE
  5
3A0
100
AcDbEntity
  8
0
100
AcDbLine
 62
7
  6
CONTINUOUS
 10
148.1885327112
 20
105.4560209332
 11
147.7836318843
 21
105.6243622843
  0
LWPOLYLINE
  5
3A1
100
AcDbEntity
  8
SUPERFICI
100
AcDbPolyline
 62
7
  6
CONTINUOUS
 90
3
 70
0
 10
147.7832773013
 20
105.6245103322
 10
148.1883166341
 20
105.4561103815
 10
149.0018333189
 20
105.1222260777
  0
LWPOLYLINE
  5
3A2
100
AcDbEntity
  8
ASSI
100
AcDbPolyline
 62
7
  6
CONTINUOUS
 90
27
 70
0
 10
133.2972331546
 20
113.0659976904
 10
133.3686426598
 20
113.0351796024
 10
133.4384457241
 20
112.9991500706
 10
133.5066405731
 20
112.9579076296
 10
133.5736641769
 20
112.9111201922
 10
133.639077218
 20
112.8591178876
 10
133.7015620815
 20
112.8028913783
 10
133.7611646225
 20
112.7422359632
 10
133.8178344829
 20
112.6773525157
 10
133.8701064675
 20
112.6098373178
 10
133.9177889785
 20
112.5397421534
 10
133.9610674635
 20
112.4670099813
 10
133.9990398692
 20
112.3930718144
 10
134.0316453368
 20
112.3177660476
 10
134.0589396151
 20
112.2412498834
 10
134.0801941836
 20
112.1654314136
 10
134.095243418
 20
112.0903844539
 10
134.1042495833
 20
112.0160322905
 10
134.1069752335
 20
111.9440566307
 10
134.1032598058
 20
111.8745108505
 10
134.0932636065
 20
111.8073413417
 10
134.0772301744
 20
111.7440691226
 10
134.0549936497
 20
111.6847469636
 10
134.0267228331
 20
111.6293246133
 10
133.9931625941
 20
111.5791680555
 10
133.9542517227
 20
111.5344797535
 10
133.9089774616
 20
111.4942169546
  0
LWPOLYLINE
  5
3A3
100
AcDbEntity
  8
0
100
AcDbPolyline
 62
7
  6
CONTINUOUS
 90
27
 70
0
 10
133.2972331546
 20
113.0659976904
 10
133.3686426598
 20
113.0351796024
 10
133.4384457241
 20
112.9991500706
 10
133.5066405731
 20
112.9579076296
 10
133.5736641769
 20
112.9111201922
 10
133.639077218
 20
112.8591178876
 10
133.7015620815
 20
112.8028913783
 10
133.7611646225
 20
112.7422359632
 10
133.8178344829
 20
112.6773525157
 10
133.8701064675
 20
112.6098373178
 10
133.9177889785
 20
112.5397421534
 10
133.9610674635
 20
112.4670099813
 10
133.9990398692
 20
112.3930718144
 10
134.0316453368
 20
112.3177660476
 10
134.0589396151
 20
112.2412498834
 10
134.0801941836
 20
112.1654314136
 10
134.095243418
 20
112.0903844539
 10
134.1042495833
 20
112.0160322905
 10
134.1069752335
 20
111.9440566307
 10
134.1032598058
 20
111.8745108505
 10
134.0932636065
 20
111.8073413417
 10
134.0772301744
 20
111.7440691226
 10
134.0549936497
 20
111.6847469636
 10
134.0267228331
 20
111.6293246133
 10
133.9931625941
 20
111.5791680555
 10
133.9542517227
 20
111.5344797535
 10
133.9089774616
 20
111.4942169546
  0
LWPOLYLINE
  5
3A4
100
AcDbEntity
  8
ASSI
100
AcDbPolyline
 62
7
  6
CONTINUOUS
 90
27
 70
0
 10
129.5984565011
 20
112.9279386934
 10
129.5288747739
 20
112.9602380052
 10
129.460904677
 20
112.9977597701
 10
129.3945442028
 20
113.040502354
 10
129.3293646732
 20
113.0888068565
 10
129.2657919471
 20
113.1423298774
 10
129.205104359
 20
113.2000418776
 10
129.1472523802
 20
113.2621427744
 10
129.0922804785
 20
113.3284286006
 10
129.0416046818
 20
113.3972613763
 10
128.9954036183
 20
113.4685786835
 10
128.9534920713
 20
113.5424377199
 10
128.9167379324
 20
113.6173780575
 10
128.8851943287
 20
113.6935541439
 10
128.8588028799
 20
113.770807403
 10
128.8382629649
 20
113.8472068801
 10
128.8237303003
 20
113.9226709462
 10
128.8150460469
 20
113.9972787984
 10
128.8124371167
 20
114.0693402103
 10
128.8160575316
 20
114.1387960496
 10
128.8257535423
 20
114.2057056932
 10
128.8412901337
 20
114.2685564475
 10
128.8628298017
 20
114.3272928161
 10
128.8902136178
 20
114.3819731278
 10
128.9227236953
 20
114.4312548241
 10
128.9604228691
 20
114.4749368779
 10
128.9879745204
 20
114.5006887718
  0
LWPOLYLINE
  5
3A5
100
AcDbEntity
  8
0
100
AcDbPolyline
 62
7
  6
CONTINUOUS
 90
27
 70
0
 10
129.5984565011
 20
112.9279386934
 10
129.5288747739
 20
112.9602380052
 10
129.460904677
 20
112.9977597701
 10
129.3945442028
 20
113.040502354
 10
129.3293646732
 20
113.0888068565
 10
129.2657919471
 20
113.1423298774
 10
129.205104359
 20
113.2000418776
 10
129.1472523802
 20
113.2621427744
 10
129.0922804785
 20
113.3284286006
 10
129.0416046818
 20
113.3972613763
 10
128.9954036183
 20
113.4685786835
 10
128.9534920713
 20
113.5424377199
 10
128.9167379324
 20
113.6173780575
 10
128.8851943287
 20
113.6935541439
 10
128.8588028799
 20
113.770807403
 10
128.8382629649
 20
113.8472068801
 10
128.8237303003
 20
113.9226709462
 10
128.8150460469
 20
113.9972787984
 10
128.8124371167
 20
114.0693402103
 10
128.8160575316
 20
114.1387960496
 10
128.8257535423
 20
114.2057056932
 10
128.8412901337
 20
114.2685564475
 10
128.8628298017
 20
114.3272928161
 10
128.8902136178
 20
114.3819731278
 10
128.9227236953
 20
114.4312548241
 10
128.9604228691
 20
114.4749368779
 10
128.9879745204
 20
114.5006887718
  0
LWPOLYLINE
  5
3A6
100
AcDbEntity
  8
ASSI
100
AcDbPolyline
 62
7
  6
CONTINUOUS
 90
27
 70
0
 10
147.7836318843
 20
105.6243622843
 10
147.7140501571
 20
105.6566615961
 10
147.6460800603
 20
105.694183361
 10
147.579719586
 20
105.736925945
 10
147.5145400564
 20
105.7852304474
 10
147.4509673303
 20
105.8387534684
 10
147.3902797422
 20
105.8964654685
 10
147.3324277634
 20
105.9585663653
 10
147.2774558617
 20
106.0248521915
 10
147.226780065
 20
106.0936849672
 10
147.1805790015
 20
106.1650022744
 10
147.1386674545
 20
106.2388613108
 10
147.1019133157
 20
106.3138016484
 10
147.0703697119
 20
106.3899777348
 10
147.0439782631
 20
106.4672309939
 10
147.0234383481
 20
106.543630471
 10
147.0089056836
 20
106.6190945372
 10
147.0002214301
 20
106.6937023894
 10
146.9976125
 20
106.7657638012
 10
147.0012329148
 20
106.8352196405
 10
147.0109289255
 20
106.9021292841
 10
147.0264655169
 20
106.9649800384
 10
147.0480051849
 20
107.0237164071
 10
147.0753890011
 20
107.0783967187
 10
147.1078990785
 20
107.127678415
 10
147.1455982523
 20
107.1713604689
 10
147.1731499036
 20
107.1971123627
  0
LWPOLYLINE
  5
3A7
100
AcDbEntity
  8
0
100
AcDbPolyline
 62
7
  6
CONTINUOUS
 90
27
 70
0
 10
147.7836318843
 20
105.6243622843
 10
147.7140501571
 20
105.6566615961
 10
147.6460800603
 20
105.694183361
 10
147.579719586
 20
105.736925945
 10
147.5145400564
 20
105.7852304474
 10
147.4509673303
 20
105.8387534684
 10
147.3902797422
 20
105.8964654685
 10
147.3324277634
 20
105.9585663653
 10
147.2774558617
 20
106.0248521915
 10
147.226780065
 20
106.0936849672
 10
147.1805790015
 20
106.1650022744
 10
147.1386674545
 20
106.2388613108
 10
147.1019133157
 20
106.3138016484
 10
147.0703697119
 20
106.3899777348
 10
147.0439782631
 20
106.4672309939
 10
147.0234383481
 20
106.543630471
 10
147.0089056836
 20
106.6190945372
 10
147.0002214301
 20
106.6937023894
 10
146.9976125
 20
106.7657638012
 10
147.0012329148
 20
106.8352196405
 10
147.0109289255
 20
106.9021292841
 10
147.0264655169
 20
106.9649800384
 10
147.0480051849
 20
107.0237164071
 10
147.0753890011
 20
107.0783967187
 10
147.1078990785
 20
107.127678415
 10
147.1455982523
 20
107.1713604689
 10
147.1731499036
 20
107.1971123627
  0
LWPOLYLINE
  5
3A8
100
AcDbEntity
  8
SUPERFICI
100
AcDbPolyline
 62
7
  6
CONTINUOUS
 90
3
 70
0
 10
133.4103831861
 20
113.0144489751
 10
133.3541890251
 20
113.0419946574
 10
133.2972332275
 20
113.0659976622
  0
LINE
  5
3A9
100
AcDbEntity
  8
ASSI
100
AcDbLine
 62
7
  6
CONTINUOUS
 10
145.8238192925
 20
124.8451213374
 11
145.8299165582
 21
124.3178346434
  0
LINE
  5
3AA
100
AcDbEntity
  8
0
100
AcDbLine
 62
7
  6
CONTINUOUS
 10
145.8238192925
 20
124.8451213374
 11
145.8299165582
 21
124.3178346434
  0
LINE
  5
3AB
100
AcDbEntity
  8
ASSI
100
AcDbLine
 62
253
  6
CONTINUOUS
 10
145.762667037
 20
124.4181206269
 11
145.7626670381
 21
124.4072153597
  0
LINE
  5
3AC
100
AcDbEntity
  8
0
100
AcDbLine
 62
253
  6
CONTINUOUS
 10
145.762667037
 20
124.4181206269
 11
145.7626670381
 21
124.4072153597
  0
LINE
  5
3AD
100
AcDbEntity
  8
ASSI
100
AcDbLine
 62
7
  6
CONTINUOUS
 10
145.7619981245
 20
124.4072153596
 11
145.762667037
 21
124.4181206269
  0
LINE
  5
3AE
100
AcDbEntity
  8
0
100
AcDbLine
 62
7
  6
CONTINUOUS
 10
145.7619981245
 20
124.4072153596
 11
145.762667037
 21
124.4181206269
  0
LWPOLYLINE
  5
3AF
100
AcDbEntity
  8
SUPERFICI
100
AcDbPolyline
 62
7
  6
CONTINUOUS
 90
34
 70
0
 10
147.1731649507
 20
107.1970936392
 10
147.1696300035
 20
107.1940196256
 10
147.1365281085
 20
107.1617731309
 10
147.1067992391
 20
107.126224042
 10
147.080554805
 20
107.0874147827
 10
147.0576803152
 20
107.0453004913
 10
147.0384245522
 20
107.0003277187
 10
147.0227953248
 20
106.9523287548
 10
147.0107829236
 20
106.9014698046
 10
147.0026095704
 20
106.8486980597
 10
146.9983488133
 20
106.7941286526
 10
146.9979261542
 20
106.737645687
 10
147.0013416021
 20
106.6798496899
 10
147.008661245
 20
106.6205774048
 10
147.019819672
 20
106.5599926075
 10
147.0346195325
 20
106.499186279
 10
147.0530842171
 20
106.4382846485
 10
147.0751920726
 20
106.3771628411
 10
147.1006779304
 20
106.3165349791
 10
147.1296325077
 20
106.2563080632
 10
147.1619680103
 20
106.1965773921
 10
147.1971510028
 20
106.1383391399
 10
147.2351860901
 20
106.0816857218
 10
147.2760718388
 20
106.0265272308
 10
147.3192648936
 20
105.9735856769
 10
147.3648238445
 20
105.9228584577
 10
147.4126933183
 20
105.874350737
 10
147.4621578542
 20
105.8287952572
 10
147.5132677331
 20
105.786231303
 10
147.5659751682
 20
105.7466215944
 10
147.619415951
 20
105.710582721
 10
147.6733019297
 20
105.6783201575
 10
147.7279221436
 20
105.6496291671
 10
147.7832773013
 20
105.6245103322
  0
LINE
  5
3B0
100
AcDbEntity
  8
ASSI
100
AcDbLine
 62
253
  6
CONTINUOUS
 10
159.3017930816
 20
117.5558510678
 11
160.8040673303
 21
118.8287160037
  0
LINE
  5
3B1
100
AcDbEntity
  8
0
100
AcDbLine
 62
253
  6
CONTINUOUS
 10
159.3017930816
 20
117.5558510678
 11
160.8040673303
 21
118.8287160037
  0
LINE
  5
3B2
100
AcDbEntity
  8
ASSI
100
AcDbLine
 62
253
  6
CONTINUOUS
 10
159.7187308475
 20
116.9885431161
 11
161.2391326986
 21
118.2767674243
  0
LINE
  5
3B3
100
AcDbEntity
  8
0
100
AcDbLine
 62
253
  6
CONTINUOUS
 10
159.7187308475
 20
116.9885431161
 11
161.2391326986
 21
118.2767674243
  0
LWPOLYLINE
  5
3B4
100
AcDbEntity
  8
ASSI
100
AcDbPolyline
 62
7
  6
CONTINUOUS
 90
12
 70
0
 10
147.1731499036
 20
107.1971123627
 10
147.1884291467
 20
107.2096482214
 10
147.235492138
 20
107.2418075273
 10
147.2869745514
 20
107.2677344843
 10
147.3426955507
 20
107.28753813
 10
147.4012007096
 20
107.3008016918
 10
147.4624376187
 20
107.3073651257
 10
147.52646336
 20
107.3073921847
 10
147.5919843162
 20
107.3009490675
 10
147.6585693644
 20
107.2880579098
 10
147.7266519689
 20
107.2686984518
 10
147.7962339032
 20
107.2428721175
  0
LWPOLYLINE
  5
3B5
100
AcDbEntity
  8
0
100
AcDbPolyline
 62
7
  6
CONTINUOUS
 90
12
 70
0
 10
147.1731499036
 20
107.1971123627
 10
147.1884291467
 20
107.2096482214
 10
147.235492138
 20
107.2418075273
 10
147.2869745514
 20
107.2677344843
 10
147.3426955507
 20
107.28753813
 10
147.4012007096
 20
107.3008016918
 10
147.4624376187
 20
107.3073651257
 10
147.52646336
 20
107.3073921847
 10
147.5919843162
 20
107.3009490675
 10
147.6585693644
 20
107.2880579098
 10
147.7266519689
 20
107.2686984518
 10
147.7962339032
 20
107.2428721175
  0
LINE
  5
3B6
100
AcDbEntity
  8
SUPERFICI
100
AcDbLine
 62
7
  6
CONTINUOUS
 10
147.2055167123
 20
107.2223855834
 11
147.1731649507
 21
107.1970936392
  0
LWPOLYLINE
  5
3B7
100
AcDbEntity
  8
SUPERFICI
100
AcDbPolyline
 62
7
  6
CONTINUOUS
 90
12
 70
0
 10
129.5555114791
 20
114.5676268445
 10
129.5006825172
 20
114.5846701935
 10
129.4465709555
 20
114.5975780519
 10
129.392909369
 20
114.6063848253
 10
129.3399643888
 20
114.6110554681
 10
129.2885356527
 20
114.6114846465
 10
129.2386289386
 20
114.6075903737
 10
129.1902362689
 20
114.5994528857
 10
129.1441349898
 20
114.5872088655
 10
129.1004156691
 20
114.5708253144
 10
129.0589845608
 20
114.5503327113
 10
129.020341329
 20
114.5259619925
  0
LINE
  5
3B8
100
AcDbEntity
  8
SUPERFICI
100
AcDbLine
 62
7
  6
CONTINUOUS
 10
129.6110584996
 20
114.5464485351
 11
129.5555114791
 21
114.5676268445
  0
LINE
  5
3B9
100
AcDbEntity
  8
0
100
AcDbLine
 62
253
  6
CONTINUOUS
 10
131.374469771
 20
116.6116546281
 11
131.5792577821
 21
116.529407146
  0
LINE
  5
3BA
100
AcDbEntity
  8
0
100
AcDbLine
 62
253
  6
CONTINUOUS
 10
149.5596451542
 20
109.308078219
 11
149.7644331653
 21
109.2258307369
  0
LWPOLYLINE
  5
3BB
100
AcDbEntity
  8
0
100
AcDbPolyline
 62
253
  6
CONTINUOUS
 90
51
 70
0
 10
131.3744697732
 20
116.6116547759
 10
131.3680628698
 20
116.6143359769
 10
131.3616639761
 20
116.6172189861
 10
131.3552789643
 20
116.6203010561
 10
131.3489137061
 20
116.6235794398
 10
131.3425740734
 20
116.6270513898
 10
131.3362659382
 20
116.630714159
 10
131.3299951723
 20
116.6345650002
 10
131.3237676476
 20
116.6386011661
 10
131.317589236
 20
116.6428199096
 10
131.3114658094
 20
116.6472184833
 10
131.3054034313
 20
116.6517934767
 10
131.2994089319
 20
116.6565388262
 10
131.2934893328
 20
116.6614478046
 10
131.2876516558
 20
116.6665136848
 10
131.2819029227
 20
116.6717297398
 10
131.2762501552
 20
116.6770892426
 10
131.270700375
 20
116.682585466
 10
131.2652606039
 20
116.688211683
 10
131.2599378637
 20
116.6939611666
 10
131.2547391759
 20
116.6998271896
 10
131.2496707986
 20
116.7058033287
 10
131.2447359337
 20
116.7118843753
 10
131.2399370195
 20
116.7180654245
 10
131.235276494
 20
116.7243415714
 10
131.2307567954
 20
116.7307079112
 10
131.2263804265
 20
116.7371598647
 10
131.2221501493
 20
116.7436941574
 10
131.2180687902
 20
116.7503078402
 10
131.2141391758
 20
116.7569979642
 10
131.2103641325
 20
116.7637615807
 10
131.206746938
 20
116.7705945222
 10
131.2032926735
 20
116.7774877467
 10
131.2000068716
 20
116.7844309938
 10
131.1968950646
 20
116.791414003
 10
131.193962785
 20
116.7984265138
 10
131.1912150425
 20
116.8054585479
 10
131.1886547569
 20
116.8125012558
 10
131.1862843255
 20
116.81954607
 10
131.1841061453
 20
116.8265844233
 10
131.1821226137
 20
116.8336077483
 10
131.1803357835
 20
116.8406079007
 10
131.1787463311
 20
116.8475784287
 10
131.1773545886
 20
116.8545133033
 10
131.1761608881
 20
116.861406496
 10
131.1751655617
 20
116.8682519777
 10
131.1743689415
 20
116.8750437198
 10
131.1737713595
 20
116.8817756935
 10
131.1733731479
 20
116.8884418699
 10
131.1731746388
 20
116.8950362202
 10
131.1731761643
 20
116.9015527157
  0
LWPOLYLINE
  5
3BC
100
AcDbEntity
  8
0
100
AcDbPolyline
 62
253
  6
CONTINUOUS
 90
51
 70
0
 10
149.5596451565
 20
109.3080783668
 10
149.553238253
 20
109.3107595678
 10
149.5468393594
 20
109.313642577
 10
149.5404543475
 20
109.316724647
 10
149.5340890893
 20
109.3200030307
 10
149.5277494566
 20
109.3234749807
 10
149.5214413214
 20
109.32713775
 10
149.5151705555
 20
109.3309885911
 10
149.5089430308
 20
109.3350247571
 10
149.5027646192
 20
109.3392435005
 10
149.4966411926
 20
109.3436420742
 10
149.4905788146
 20
109.3482170677
 10
149.4845843151
 20
109.3529624171
 10
149.478664716
 20
109.3578713955
 10
149.4728270391
 20
109.3629372757
 10
149.4670783059
 20
109.3681533307
 10
149.4614255384
 20
109.3735128335
 10
149.4558757582
 20
109.3790090569
 10
149.4504359871
 20
109.3846352739
 10
149.4451132469
 20
109.3903847575
 10
149.4399145592
 20
109.3962507805
 10
149.4348461818
 20
109.4022269196
 10
149.429911317
 20
109.4083079662
 10
149.4251124027
 20
109.4144890155
 10
149.4204518772
 20
109.4207651624
 10
149.4159321786
 20
109.4271315021
 10
149.4115558098
 20
109.4335834557
 10
149.4073255325
 20
109.4401177483
 10
149.4032441734
 20
109.4467314311
 10
149.399314559
 20
109.4534215551
 10
149.3955395157
 20
109.4601851716
 10
149.3919223212
 20
109.4670181131
 10
149.3884680568
 20
109.4739113376
 10
149.3851822548
 20
109.4808545847
 10
149.3820704479
 20
109.4878375939
 10
149.3791381682
 20
109.4948501047
 10
149.3763904257
 20
109.5018821388
 10
149.3738301402
 20
109.5089248467
 10
149.3714597087
 20
109.5159696609
 10
149.3692815285
 20
109.5230080142
 10
149.3672979969
 20
109.5300313392
 10
149.3655111667
 20
109.5370314916
 10
149.3639217143
 20
109.5440020196
 10
149.3625299719
 20
109.5509368943
 10
149.3613362714
 20
109.5578300869
 10
149.3603409449
 20
109.5646755686
 10
149.3595443247
 20
109.5714673107
 10
149.3589467427
 20
109.5781992844
 10
149.3585485311
 20
109.5848654608
 10
149.358350022
 20
109.5914598111
 10
149.3583515475
 20
109.5979763066
  0
LWPOLYLINE
  5
3BD
100
AcDbEntity
  8
ASSI
100
AcDbPolyline
 62
7
  6
CONTINUOUS
 90
27
 70
0
 10
151.4824085378
 20
105.7624212813
 10
151.553818043
 20
105.7316031933
 10
151.6236211073
 20
105.6955736615
 10
151.6918159563
 20
105.6543312205
 10
151.7588395601
 20
105.6075437831
 10
151.8242526013
 20
105.5555414785
 10
151.8867374648
 20
105.4993149692
 10
151.9463400058
 20
105.4386595541
 10
152.0030098661
 20
105.3737761066
 10
152.0552818507
 20
105.3062609087
 10
152.1029643618
 20
105.2361657443
 10
152.1462428467
 20
105.1634335722
 10
152.1842152524
 20
105.0894954053
 10
152.21682072
 20
105.0141896386
 10
152.2441149984
 20
104.9376734743
 10
152.2653695668
 20
104.8618550045
 10
152.2804188013
 20
104.7868080449
 10
152.2894249665
 20
104.7124558814
 10
152.2921506167
 20
104.6404802216
 10
152.288435189
 20
104.5709344414
 10
152.2784389897
 20
104.5037649326
 10
152.2624055577
 20
104.4404927135
 10
152.2401690329
 20
104.3811705545
 10
152.2118982163
 20
104.3257482042
 10
152.1783379773
 20
104.2755916464
 10
152.1394271059
 20
104.2309033445
 10
152.0941528448
 20
104.1906405455
  0
LWPOLYLINE
  5
3BE
100
AcDbEntity
  8
0
100
AcDbPolyline
 62
7
  6
CONTINUOUS
 90
27
 70
0
 10
151.4824085378
 20
105.7624212813
 10
151.553818043
 20
105.7316031933
 10
151.6236211073
 20
105.6955736615
 10
151.6918159563
 20
105.6543312205
 10
151.7588395601
 20
105.6075437831
 10
151.8242526013
 20
105.5555414785
 10
151.8867374648
 20
105.4993149692
 10
151.9463400058
 20
105.4386595541
 10
152.0030098661
 20
105.3737761066
 10
152.0552818507
 20
105.3062609087
 10
152.1029643618
 20
105.2361657443
 10
152.1462428467
 20
105.1634335722
 10
152.1842152524
 20
105.0894954053
 10
152.21682072
 20
105.0141896386
 10
152.2441149984
 20
104.9376734743
 10
152.2653695668
 20
104.8618550045
 10
152.2804188013
 20
104.7868080449
 10
152.2894249665
 20
104.7124558814
 10
152.2921506167
 20
104.6404802216
 10
152.288435189
 20
104.5709344414
 10
152.2784389897
 20
104.5037649326
 10
152.2624055577
 20
104.4404927135
 10
152.2401690329
 20
104.3811705545
 10
152.2118982163
 20
104.3257482042
 10
152.1783379773
 20
104.2755916464
 10
152.1394271059
 20
104.2309033445
 10
152.0941528448
 20
104.1906405455
  0
LWPOLYLINE
  5
3BF
100
AcDbEntity
  8
SUPERFICI
100
AcDbPolyline
 62
7
  6
CONTINUOUS
 90
3
 70
0
 10
151.5955585693
 20
105.710872566
 10
151.5393644084
 20
105.7384182483
 10
151.4824086107
 20
105.7624212531
  0
LINE
  5
3C0
100
AcDbEntity
  8
0
100
AcDbLine
 62
253
  6
CONTINUOUS
 10
150.0524329997
 20
90.5760375284
 11
150.0221392277
 21
91.8706642949
  0
LINE
  5
3C1
100
AcDbEntity
  8
0
100
AcDbLine
 62
253
  6
CONTINUOUS
 10
150.0221392277
 20
91.8706642949
 11
149.9955670632
 21
93.1685031928
  0
LWPOLYLINE
  5
3C2
100
AcDbEntity
  8
0
100
AcDbPolyline
 62
253
  6
CONTINUOUS
 90
5
 70
0
 10
149.3583515475
 20
94.7163723092
 10
149.3751402422
 20
93.7402770728
 10
149.3940228874
 20
92.7659740642
 10
149.4149992175
 20
91.7934720945
 10
149.4380689665
 20
90.8227799746
  0
LINE
  5
3C3
100
AcDbEntity
  8
0
100
AcDbLine
 62
253
  6
CONTINUOUS
 10
149.9955670632
 20
93.1685031928
 11
149.9727155807
 21
94.4696298629
  0
LWPOLYLINE
  5
3C4
100
AcDbEntity
  8
0
100
AcDbPolyline
 62
253
  6
CONTINUOUS
 90
51
 70
0
 10
149.3583515475
 20
94.7163723092
 10
149.3583499901
 20
94.722662925
 10
149.3585491656
 20
94.7288678924
 10
149.3589487956
 20
94.7349815609
 10
149.3595486017
 20
94.7409982799
 10
149.3603483057
 20
94.7469123988
 10
149.3613476292
 20
94.752718267
 10
149.3625462938
 20
94.7584102342
 10
149.3639440213
 20
94.7639826496
 10
149.3655405333
 20
94.7694298627
 10
149.3673355514
 20
94.774746223
 10
149.3693282269
 20
94.7799261104
 10
149.3715154289
 20
94.7849640266
 10
149.3738934561
 20
94.789854504
 10
149.3764586073
 20
94.7945920746
 10
149.3792071812
 20
94.7991712709
 10
149.3821354765
 20
94.8035866249
 10
149.3852397919
 20
94.8078326689
 10
149.3885164261
 20
94.8119039352
 10
149.3919616778
 20
94.815794956
 10
149.3955718458
 20
94.8195002636
 10
149.3993432152
 20
94.82301515
 10
149.4032720174
 20
94.8263379472
 10
149.4073544699
 20
94.8294677471
 10
149.4115867906
 20
94.8324036413
 10
149.4159651972
 20
94.8351447219
 10
149.420486251
 20
94.8376898808
 10
149.4251478882
 20
94.840037211
 10
149.4299483885
 20
94.842184606
 10
149.4348860316
 20
94.8441299589
 10
149.4399590972
 20
94.845871163
 10
149.4451648601
 20
94.8474060607
 10
149.4504965749
 20
94.8487322911
 10
149.455946491
 20
94.8498474423
 10
149.4615068582
 20
94.8507491023
 10
149.4671699259
 20
94.8514348593
 10
149.4729280049
 20
94.8519027886
 10
149.4787736502
 20
94.8521529145
 10
149.4846994782
 20
94.8521857485
 10
149.4906981051
 20
94.8520018021
 10
149.4967621472
 20
94.8516015866
 10
149.5028844899
 20
94.8509858469
 10
149.5090590955
 20
94.8501562605
 10
149.5152801951
 20
94.8491147383
 10
149.5215420201
 20
94.8478631911
 10
149.5278388018
 20
94.8464035298
 10
149.5341647715
 20
94.8447376653
 10
149.5405141605
 20
94.8428675084
 10
149.5468812001
 20
94.8407949699
 10
149.5532601217
 20
94.8385219606
 10
149.5596451565
 20
94.8360503915
  0
LWPOLYLINE
  5
3C5
100
AcDbEntity
  8
0
100
AcDbPolyline
 62
253
  6
CONTINUOUS
 90
5
 70
0
 10
149.4380689665
 20
113.6221700146
 10
149.4149992175
 20
112.6136826306
 10
149.3940228874
 20
111.6068150536
 10
149.3751402422
 20
110.6015765301
 10
149.3583515475
 20
109.5979763066
  0
LWPOLYLINE
  5
3C6
100
AcDbEntity
  8
0
100
AcDbPolyline
 62
253
  6
CONTINUOUS
 90
51
 70
0
 10
149.4380689665
 20
113.6221700146
 10
149.4383262894
 20
113.6286732739
 10
149.4387849607
 20
113.6350904847
 10
149.4394441531
 20
113.6414158796
 10
149.4403030392
 20
113.6476436914
 10
149.4413607915
 20
113.6537681527
 10
149.4426165828
 20
113.6597834964
 10
149.4440695855
 20
113.665683955
 10
149.4457189724
 20
113.6714637615
 10
149.4475639159
 20
113.6771171483
 10
149.4496035888
 20
113.6826383484
 10
149.4518368467
 20
113.688021556
 10
149.4542612769
 20
113.6932608117
 10
149.4568741499
 20
113.6983501176
 10
149.4596727362
 20
113.7032834759
 10
149.4626543063
 20
113.7080548887
 10
149.4658156843
 20
113.7126584603
 10
149.4691519095
 20
113.7170887027
 10
149.472657575
 20
113.7213402301
 10
149.4763272738
 20
113.7254076567
 10
149.4801555989
 20
113.7292855965
 10
149.4841375147
 20
113.7329693716
 10
149.4882694706
 20
113.7364571358
 10
149.4925482875
 20
113.7397477507
 10
149.4969707862
 20
113.7428400779
 10
149.5015337874
 20
113.7457329792
 10
149.5062343028
 20
113.7484251466
 10
149.511070107
 20
113.7509145935
 10
149.5160391655
 20
113.7531991637
 10
149.5211394436
 20
113.7552767011
 10
149.5263689069
 20
113.7571450493
 10
149.5317245394
 20
113.7588019781
 10
149.537199399
 20
113.7602449599
 10
149.5427855624
 20
113.761471393
 10
149.5484751061
 20
113.7624786755
 10
149.5542601066
 20
113.7632642058
 10
149.560132712
 20
113.7638258879
 10
149.5660853555
 20
113.7641636484
 10
149.5721105418
 20
113.7642779201
 10
149.5782007757
 20
113.7641691353
 10
149.5843485617
 20
113.7638377268
 10
149.5905466898
 20
113.7632843713
 10
149.5967890909
 20
113.7625107228
 10
149.6030699809
 20
113.7615186795
 10
149.6093835758
 20
113.7603101396
 10
149.6157240918
 20
113.7588870015
 10
149.6220857448
 20
113.7572511634
 10
149.6284627508
 20
113.7554045234
 10
149.634849326
 20
113.75334898
 10
149.6412396862
 20
113.7510864312
 10
149.6476280477
 20
113.7486187754
  0
LWPOLYLINE
  5
3C7
100
AcDbEntity
  8
ASSI
100
AcDbPolyline
 62
7
  6
CONTINUOUS
 90
10
 70
0
 10
152.0941528448
 20
104.1906405455
 10
152.0466867823
 20
104.1581009753
 10
151.9936040742
 20
104.1308547265
 10
151.9361779323
 20
104.1096479215
 10
151.8759141179
 20
104.0949392226
 10
151.8128700564
 20
104.0868923
 10
151.7469931325
 20
104.0853475859
 10
151.6796208319
 20
104.0902761868
 10
151.6111992097
 20
104.1016686682
 10
151.5412848972
 20
104.1195367338
  0
LWPOLYLINE
  5
3C8
100
AcDbEntity
  8
0
100
AcDbPolyline
 62
7
  6
CONTINUOUS
 90
10
 70
0
 10
152.0941528448
 20
104.1906405455
 10
152.0466867823
 20
104.1581009753
 10
151.9936040742
 20
104.1308547265
 10
151.9361779323
 20
104.1096479215
 10
151.8759141179
 20
104.0949392226
 10
151.8128700564
 20
104.0868923
 10
151.7469931325
 20
104.0853475859
 10
151.6796208319
 20
104.0902761868
 10
151.6111992097
 20
104.1016686682
 10
151.5412848972
 20
104.1195367338
  0
LWPOLYLINE
  5
3C9
100
AcDbEntity
  8
0
100
AcDbPolyline
 62
253
  6
CONTINUOUS
 90
51
 70
0
 10
150.0524329997
 20
90.5760375284
 10
150.0524880963
 20
90.5697901881
 10
150.0523410044
 20
90.5636282082
 10
150.0519922701
 20
90.5575571257
 10
150.0514424395
 20
90.5515824774
 10
150.0506920587
 20
90.5457098001
 10
150.0497416739
 20
90.5399446307
 10
150.048591831
 20
90.5342925061
 10
150.0472430763
 20
90.5287589631
 10
150.0456959558
 20
90.5233495386
 10
150.0439510156
 20
90.5180697694
 10
150.0420091131
 20
90.5129252261
 10
150.0398723506
 20
90.5079216141
 10
150.0375431418
 20
90.5030646723
 10
150.0350239003
 20
90.4983601399
 10
150.0323170398
 20
90.4938137559
 10
150.0294254176
 20
90.4894311554
 10
150.0263536672
 20
90.485217558
 10
150.0231068655
 20
90.4811780794
 10
150.0196900896
 20
90.4773178352
 10
150.0161084168
 20
90.4736419411
 10
150.0123665925
 20
90.4701548374
 10
150.008468036
 20
90.4668582629
 10
150.0044158351
 20
90.4637532809
 10
150.0002130774
 20
90.4608409549
 10
149.9958628506
 20
90.4581223483
 10
149.9913680471
 20
90.4555986902
 10
149.9867307771
 20
90.453271873
 10
149.9819529553
 20
90.4511439547
 10
149.9770364967
 20
90.4492169935
 10
149.9719833158
 20
90.4474930474
 10
149.9667962887
 20
90.4459742319
 10
149.9614821352
 20
90.4446628929
 10
149.9560485364
 20
90.4435614334
 10
149.9505031732
 20
90.4426722566
 10
149.9448537268
 20
90.4419977657
 10
149.9391078309
 20
90.4415398781
 10
149.9332729317
 20
90.441298568
 10
149.9273564278
 20
90.4412733238
 10
149.9213657181
 20
90.4414636339
 10
149.9153082015
 20
90.4418689869
 10
149.9091910065
 20
90.4424886389
 10
149.9030201802
 20
90.443320918
 10
149.8968014994
 20
90.4443639201
 10
149.8905407409
 20
90.445615741
 10
149.8842436815
 20
90.4470744767
 10
149.877916098
 20
90.4487382229
 10
149.8715637672
 20
90.4506050756
 10
149.8651924658
 20
90.4526731306
 10
149.8588079707
 20
90.4549404839
 10
149.8524160587
 20
90.4574052312
  0
LINE
  5
3CA
100
AcDbEntity
  8
0
100
AcDbLine
 62
253
  6
CONTINUOUS
 10
149.9727155807
 20
109.3512338603
 11
149.9935138002
 21
110.5777679011
  0
LINE
  5
3CB
100
AcDbEntity
  8
0
100
AcDbLine
 62
253
  6
CONTINUOUS
 10
149.9935138002
 20
110.5777679011
 11
150.0174383464
 21
111.8067449748
  0
LINE
  5
3CC
100
AcDbEntity
  8
0
100
AcDbLine
 62
253
  6
CONTINUOUS
 10
150.0174383464
 20
111.8067449748
 11
150.0524329997
 21
113.3754275683
  0
LWPOLYLINE
  5
3CD
100
AcDbEntity
  8
0
100
AcDbPolyline
 62
253
  6
CONTINUOUS
 90
51
 70
0
 10
149.9727155807
 20
109.3512338603
 10
149.9725127861
 20
109.3447758491
 10
149.97210875
 20
109.3384030697
 10
149.9715039449
 20
109.3321213316
 10
149.9706988428
 20
109.325936444
 10
149.9696939159
 20
109.3198542164
 10
149.9684896365
 20
109.313880458
 10
149.9670864767
 20
109.3080209783
 10
149.9654849088
 20
109.3022815866
 10
149.9636854049
 20
109.2966680922
 10
149.9616884372
 20
109.2911863046
 10
149.9594950583
 20
109.2858420105
 10
149.9571086415
 20
109.2806409071
 10
149.9545331406
 20
109.2755886688
 10
149.9517725092
 20
109.2706909701
 10
149.9488307011
 20
109.2659534857
 10
149.94571167
 20
109.2613818901
 10
149.9424193697
 20
109.2569818577
 10
149.9389577537
 20
109.2527590632
 10
149.9353307758
 20
109.248719181
 10
149.9315423898
 20
109.2448678858
 10
149.9275965386
 20
109.2412100723
 10
149.9234971227
 20
109.2377475165
 10
149.9192480319
 20
109.2344812146
 10
149.9148531558
 20
109.2314121627
 10
149.9103163842
 20
109.2285413572
 10
149.9056412645
 20
109.2258699949
 10
149.9008299736
 20
109.2234000755
 10
149.8958843464
 20
109.2211337995
 10
149.8908062174
 20
109.2190733673
 10
149.8855974214
 20
109.2172209794
 10
149.8802608149
 20
109.2155789008
 10
149.874803342
 20
109.2141496554
 10
149.8692329689
 20
109.2129358317
 10
149.8635576616
 20
109.2119400183
 10
149.8577853861
 20
109.2111648035
 10
149.8519240297
 20
109.2106122742
 10
149.8459811641
 20
109.2102825101
 10
149.8399642822
 20
109.2101750891
 10
149.8338808769
 20
109.2102895892
 10
149.8277384411
 20
109.2106255883
 10
149.821544185
 20
109.2111824201
 10
149.8153041882
 20
109.211958441
 10
149.8090242474
 20
109.2129517634
 10
149.8027101596
 20
109.2141604994
 10
149.7963677216
 20
109.2155827611
 10
149.7900027301
 20
109.217216661
 10
149.7836209822
 20
109.219060311
 10
149.7772282745
 20
109.2211118235
 10
149.770830404
 20
109.2233693107
 10
149.7644331675
 20
109.2258308847
  0
LWPOLYLINE
  5
3CE
100
AcDbEntity
  8
SUPERFICI
100
AcDbPolyline
 62
7
  6
CONTINUOUS
 90
34
 70
0
 10
147.1655520241
 20
99.8185019438
 10
147.161927347
 20
99.8153475554
 10
147.1295427777
 20
99.783687655
 10
147.1005586378
 20
99.7487486766
 10
147.0750848407
 20
99.7105719962
 10
147.0530084931
 20
99.6691138991
 10
147.0345699989
 20
99.6248133492
 10
147.019779597
 20
99.57750501
 10
147.0086253402
 20
99.5273528866
 10
147.0013141122
 20
99.4752897438
 10
146.9979171753
 20
99.4214285909
 10
146.9983625793
 20
99.36565587
 10
147.0026422647
 20
99.308564374
 10
147.0108247416
 20
99.2499921137
 10
147.0228424385
 20
99.1901018108
 10
147.0384830436
 20
99.1299732008
 10
147.0577682448
 20
99.0697308948
 10
147.0806782855
 20
99.0092517792
 10
147.1069383893
 20
98.9492437467
 10
147.1366404167
 20
98.8896145829
 10
147.169695529
 20
98.8304588656
 10
147.205557338
 20
98.7727642159
 10
147.2442289728
 20
98.7166222074
 10
147.2857104425
 20
98.6619437237
 10
147.3294497513
 20
98.6094446048
 10
147.3755050206
 20
98.5591221399
 10
147.4238212108
 20
98.5109814693
 10
147.4736753753
 20
98.4657492436
 10
147.5251033696
 20
98.4234710251
 10
147.5780716167
 20
98.3841030619
 10
147.6317513938
 20
98.348236735
 10
147.6858663545
 20
98.3160690903
 10
147.740693619
 20
98.2874037119
 10
147.7962338393
 20
98.262241134
  0
LWPOLYLINE
  5
3CF
100
AcDbEntity
  8
SUPERFICI
100
AcDbPolyline
 62
7
  6
CONTINUOUS
 90
32
 70
0
 10
152.0941510252
 20
104.1906427727
 10
152.1145828726
 20
104.2075682108
 10
152.1487402812
 20
104.2406803362
 10
152.1794253448
 20
104.2770126298
 10
152.2065196874
 20
104.3165167833
 10
152.230138868
 20
104.3592386953
 10
152.2500235107
 20
104.4047238606
 10
152.2661633806
 20
104.4531376193
 10
152.2785671159
 20
104.5043132555
 10
152.2870034007
 20
104.5572979909
 10
152.2913950578
 20
104.6119739709
 10
152.2918186178
 20
104.6684585055
 10
152.2882731845
 20
104.7261514656
 10
152.2806904695
 20
104.785215022
 10
152.2691396583
 20
104.8454877753
 10
152.2538259178
 20
104.9058841371
 10
152.234726113
 20
104.966278311
 10
152.2118651981
 20
105.0267976681
 10
152.1855201664
 20
105.0867361317
 10
152.15559957
 20
105.1461862542
 10
152.1221977172
 20
105.2050579384
 10
152.0858696834
 20
105.2623706791
 10
152.0466134597
 20
105.3180338204
 10
152.0044340271
 20
105.3721405664
 10
151.9598960466
 20
105.4239854517
 10
151.9129420169
 20
105.4735716951
 10
151.8636323765
 20
105.520898579
 10
151.8127075305
 20
105.5652537537
 10
151.7601315288
 20
105.6065915797
 10
151.7059425108
 20
105.6449595459
 10
151.6509904486
 20
105.6797836778
 10
151.5955585693
 20
105.710872566
  0
LWPOLYLINE
  5
3D0
100
AcDbEntity
  8
0
100
AcDbPolyline
 62
7
  6
CONTINUOUS
 90
12
 70
0
 10
147.1655371092
 20
99.8185201333
 10
147.1803191317
 20
99.8306448428
 10
147.2265772311
 20
99.8621556545
 10
147.2773226413
 20
99.8874873009
 10
147.3323740016
 20
99.9067487988
 10
147.3902923103
 20
99.9195361719
 10
147.4510286556
 20
99.925692724
 10
147.5146369698
 20
99.9253791019
 10
147.5798291734
 20
99.9186646701
 10
147.646176131
 20
99.9055727228
 10
147.7141097264
 20
99.8860821489
 10
147.7836319323
 20
99.8601945339
  0
LWPOLYLINE
  5
3D1
100
AcDbEntity
  8
ASSI
100
AcDbPolyline
 62
7
  6
CONTINUOUS
 90
12
 70
0
 10
147.1655371092
 20
99.8185201333
 10
147.1803191317
 20
99.8306448428
 10
147.2265772311
 20
99.8621556545
 10
147.2773226413
 20
99.8874873009
 10
147.3323740016
 20
99.9067487988
 10
147.3902923103
 20
99.9195361719
 10
147.4510286556
 20
99.925692724
 10
147.5146369698
 20
99.9253791019
 10
147.5798291734
 20
99.9186646701
 10
147.646176131
 20
99.9055727228
 10
147.7141097264
 20
99.8860821489
 10
147.7836319323
 20
99.8601945339
  0
LINE
  5
3D2
100
AcDbEntity
  8
SUPERFICI
100
AcDbLine
 62
7
  6
CONTINUOUS
 10
147.1971372165
 20
99.843161352
 11
147.1655520241
 21
99.8185019438
  0
LINE
  5
3D3
100
AcDbEntity
  8
0
100
AcDbLine
 62
253
  6
CONTINUOUS
 10
131.6672406714
 20
120.9699475327
 11
131.4624526603
 21
121.0521950148
  0
LINE
  5
3D4
100
AcDbEntity
  8
0
100
AcDbLine
 62
253
  6
CONTINUOUS
 10
149.8524160546
 20
113.6663711236
 11
149.6476280435
 21
113.7486186057
  0
LWPOLYLINE
  5
3D5
100
AcDbEntity
  8
0
100
AcDbPolyline
 62
253
  6
CONTINUOUS
 90
51
 70
0
 10
131.6672406755
 20
120.9699477024
 10
131.6736544607
 20
120.9672734154
 10
131.6800589327
 20
120.9643962651
 10
131.6864482089
 20
120.9613189879
 10
131.6928164067
 20
120.9580443205
 10
131.6991576437
 20
120.9545749992
 10
131.7054660372
 20
120.9509137607
 10
131.7117357048
 20
120.9470633415
 10
131.7179607637
 20
120.943026478
 10
131.7241353316
 20
120.9388059069
 10
131.7302535257
 20
120.9344043647
 10
131.7363092751
 20
120.9298252515
 10
131.7422957546
 20
120.925074622
 10
131.7482059507
 20
120.9201591946
 10
131.7540328495
 20
120.9150856875
 10
131.7597694377
 20
120.9098608191
 10
131.7654087014
 20
120.9044913078
 10
131.7709436272
 20
120.8989838717
 10
131.7763672012
 20
120.8933452294
 10
131.7816724101
 20
120.887582099
 10
131.78685224
 20
120.8817011989
 10
131.7919004392
 20
120.8757089469
 10
131.7968138033
 20
120.8696105585
 10
131.8015898898
 20
120.8634109488
 10
131.8062262559
 20
120.8571150328
 10
131.8107204593
 20
120.8507277256
 10
131.8150699918
 20
120.8442536117
 10
131.8192720839
 20
120.8376959546
 10
131.8233239004
 20
120.8310576875
 10
131.8272226063
 20
120.8243417433
 10
131.8309653665
 20
120.8175510551
 10
131.8345489005
 20
120.8106897838
 10
131.8379681454
 20
120.8037670005
 10
131.8412175932
 20
120.7967930042
 10
131.8442917354
 20
120.7897780938
 10
131.8471850639
 20
120.7827325683
 10
131.8498925952
 20
120.775666445
 10
131.8524114458
 20
120.7685886157
 10
131.8547392569
 20
120.7615076903
 10
131.8568736697
 20
120.754432279
 10
131.8588123255
 20
120.7473709918
 10
131.8605532099
 20
120.7403320137
 10
131.8620956856
 20
120.7333218287
 10
131.8634394595
 20
120.7263464959
 10
131.8645842387
 20
120.7194120742
 10
131.8655297302
 20
120.7125246225
 10
131.8662756409
 20
120.7056901997
 10
131.8668216779
 20
120.6989148649
 10
131.8671675482
 20
120.6922046769
 10
131.8673129587
 20
120.6855656948
 10
131.8672576165
 20
120.6790039774
  0
LWPOLYLINE
  5
3D6
100
AcDbEntity
  8
0
100
AcDbPolyline
 62
253
  6
CONTINUOUS
 90
51
 70
0
 10
149.8524160587
 20
113.6663712933
 10
149.8588298439
 20
113.6636970063
 10
149.8652343159
 20
113.660819856
 10
149.8716235921
 20
113.6577425788
 10
149.8779917899
 20
113.6544679114
 10
149.8843330269
 20
113.6509985901
 10
149.8906414205
 20
113.6473373516
 10
149.896911088
 20
113.6434869324
 10
149.9031361469
 20
113.6394500689
 10
149.9093107148
 20
113.6352294979
 10
149.9154289089
 20
113.6308279556
 10
149.9214846583
 20
113.6262488424
 10
149.9274711379
 20
113.621498213
 10
149.9333813339
 20
113.6165827855
 10
149.9392082328
 20
113.6115092784
 10
149.9449448209
 20
113.6062844101
 10
149.9505840846
 20
113.6009148987
 10
149.9561190104
 20
113.5954074627
 10
149.9615425845
 20
113.5897688203
 10
149.9668477933
 20
113.5840056899
 10
149.9720276232
 20
113.5781247898
 10
149.9770758224
 20
113.5721325378
 10
149.9819891865
 20
113.5660341494
 10
149.986765273
 20
113.5598345398
 10
149.9914016392
 20
113.5535386238
 10
149.9958958425
 20
113.5471513165
 10
150.000245375
 20
113.5406772026
 10
150.0044474671
 20
113.5341195456
 10
150.0084992836
 20
113.5274812784
 10
150.0123979895
 20
113.5207653342
 10
150.0161407497
 20
113.5139746461
 10
150.0197242837
 20
113.5071133747
 10
150.0231435287
 20
113.5001905914
 10
150.0263929764
 20
113.4932165951
 10
150.0294671186
 20
113.4862016847
 10
150.0323604471
 20
113.4791561592
 10
150.0350679784
 20
113.4720900359
 10
150.037586829
 20
113.4650122066
 10
150.0399146401
 20
113.4579312812
 10
150.0420490529
 20
113.4508558699
 10
150.0439877087
 20
113.4437945827
 10
150.0457285931
 20
113.4367556046
 10
150.0472710688
 20
113.4297454196
 10
150.0486148427
 20
113.4227700868
 10
150.0497596219
 20
113.4158356651
 10
150.0507051134
 20
113.4089482134
 10
150.0514510241
 20
113.4021137906
 10
150.0519970611
 20
113.3953384558
 10
150.0523429314
 20
113.3886282679
 10
150.0524883419
 20
113.3819892857
 10
150.0524329997
 20
113.3754275683
  0
LINE
  5
3D7
100
AcDbEntity
  8
ASSI
100
AcDbLine
 62
253
  6
CONTINUOUS
 10
154.937169933
 20
120.7334334295
 11
154.9371699211
 21
120.7225281615
  0
LINE
  5
3D8
100
AcDbEntity
  8
0
100
AcDbLine
 62
253
  6
CONTINUOUS
 10
154.937169933
 20
120.7334334295
 11
154.9371699211
 21
120.7225281615
  0
LINE
  5
3D9
100
AcDbEntity
  8
ASSI
100
AcDbLine
 62
7
  6
CONTINUOUS
 10
154.9365010206
 20
120.7225281623
 11
154.937169933
 21
120.7334334295
  0
LINE
  5
3DA
100
AcDbEntity
  8
0
100
AcDbLine
 62
7
  6
CONTINUOUS
 10
154.9365010206
 20
120.7225281623
 11
154.937169933
 21
120.7334334295
  0
LINE
  5
3DB
100
AcDbEntity
  8
ASSI
100
AcDbLine
 62
7
  6
CONTINUOUS
 10
154.9983221885
 20
121.16043414
 11
154.937169933
 21
120.7334334295
  0
LINE
  5
3DC
100
AcDbEntity
  8
0
100
AcDbLine
 62
7
  6
CONTINUOUS
 10
154.9983221885
 20
121.16043414
 11
154.937169933
 21
120.7334334295
  0
LWPOLYLINE
  5
3DD
100
AcDbEntity
  8
ASSI
100
AcDbPolyline
 62
253
  6
CONTINUOUS
 90
11
 70
0
 10
123.3914862207
 20
130.2419184293
 10
123.3547003957
 20
130.2604400811
 10
123.3213090839
 20
130.2807756048
 10
123.2916360444
 20
130.3027278289
 10
123.2659689845
 20
130.3260839066
 10
123.2445567699
 20
130.3506173792
 10
123.2276070117
 20
130.3760903723
 10
123.2152840531
 20
130.4022559019
 10
123.2077073767
 20
130.4288602693
 10
123.2049504451
 20
130.4556455207
 10
123.204989188
 20
130.461345752
  0
LWPOLYLINE
  5
3DE
100
AcDbEntity
  8
0
100
AcDbPolyline
 62
253
  6
CONTINUOUS
 90
11
 70
0
 10
123.3914862207
 20
130.2419184293
 10
123.3547003957
 20
130.2604400811
 10
123.3213090839
 20
130.2807756048
 10
123.2916360444
 20
130.3027278289
 10
123.2659689845
 20
130.3260839066
 10
123.2445567699
 20
130.3506173792
 10
123.2276070117
 20
130.3760903723
 10
123.2152840531
 20
130.4022559019
 10
123.2077073767
 20
130.4288602693
 10
123.2049504451
 20
130.4556455207
 10
123.204989188
 20
130.461345752
  0
LINE
  5
3DF
100
AcDbEntity
  8
ASSI
100
AcDbLine
 62
7
  6
CONTINUOUS
 10
154.9983221885
 20
121.16043414
 11
155.0044194543
 21
120.633147446
  0
LINE
  5
3E0
100
AcDbEntity
  8
0
100
AcDbLine
 62
7
  6
CONTINUOUS
 10
154.9983221885
 20
121.16043414
 11
155.0044194543
 21
120.633147446
  0
LWPOLYLINE
  5
3E1
100
AcDbEntity
  8
SUPERFICI
100
AcDbPolyline
 62
7
  6
CONTINUOUS
 90
32
 70
0
 10
152.1023809557
 20
96.8250165872
 10
152.1222637096
 20
96.8414975609
 10
152.1557125565
 20
96.8740282619
 10
152.1856600699
 20
96.9097564535
 10
152.211989114
 20
96.9486350213
 10
152.234813906
 20
96.9907086026
 10
152.2538835517
 20
97.0355289168
 10
152.2691850587
 20
97.0832594279
 10
152.2807296304
 20
97.1337351546
 10
152.2883023723
 20
97.1860149075
 10
152.2918280651
 20
97.2399821851
 10
152.2913810193
 20
97.2957527302
 10
152.2869704741
 20
97.3527335914
 10
152.2785261411
 20
97.4110845843
 10
152.2661189443
 20
97.4706464493
 10
152.2499698111
 20
97.5303475182
 10
152.2300578667
 20
97.5900636229
 10
152.2064056112
 20
97.6499203319
 10
152.1792987722
 20
97.7092203638
 10
152.1486452025
 20
97.7680555466
 10
152.1145398111
 20
97.8263364097
 10
152.0775484189
 20
97.8830933076
 10
152.0376704187
 20
97.9382370998
 10
151.9949094232
 20
97.9918594786
 10
151.9498367502
 20
98.0432613393
 10
151.9023951673
 20
98.0924463968
 10
151.8526449791
 20
98.1394135264
 10
151.8013326926
 20
98.1834554175
 10
151.7484095757
 20
98.2245340541
 10
151.6939267648
 20
98.26268946
 10
151.638778986
 20
98.2973300441
 10
151.5832644086
 20
98.3282585376
  0
LWPOLYLINE
  5
3E2
100
AcDbEntity
  8
0
100
AcDbPolyline
 62
7
  6
CONTINUOUS
 90
10
 70
0
 10
152.1023829578
 20
96.82501419
 10
152.0554894689
 20
96.7929625054
 10
152.0031459098
 20
96.7663301393
 10
151.9463945168
 20
96.7456824444
 10
151.8867240816
 20
96.7314643441
 10
151.8241895241
 20
96.7238379389
 10
151.7587403866
 20
96.722644902
 10
151.6917040941
 20
96.7278467284
 10
151.6235232067
 20
96.7394306511
 10
151.5537574436
 20
96.7574113463
  0
LWPOLYLINE
  5
3E3
100
AcDbEntity
  8
ASSI
100
AcDbPolyline
 62
7
  6
CONTINUOUS
 90
10
 70
0
 10
152.1023829578
 20
96.82501419
 10
152.0554894689
 20
96.7929625054
 10
152.0031459098
 20
96.7663301393
 10
151.9463945168
 20
96.7456824444
 10
151.8867240816
 20
96.7314643441
 10
151.8241895241
 20
96.7238379389
 10
151.7587403866
 20
96.722644902
 10
151.6917040941
 20
96.7278467284
 10
151.6235232067
 20
96.7394306511
 10
151.5537574436
 20
96.7574113463
  0
LWPOLYLINE
  5
3E4
100
AcDbEntity
  8
ASSI
100
AcDbPolyline
 62
253
  6
CONTINUOUS
 90
16
 70
0
 10
158.6623754065
 20
116.0763426614
 10
158.705704443
 20
116.0626882065
 10
158.751119201
 20
116.0513731754
 10
158.7981793516
 20
116.0425072753
 10
158.8464286126
 20
116.0361764677
 10
158.8953991726
 20
116.0324421343
 10
158.9446162265
 20
116.0313404819
 10
158.9936025794
 20
116.0328821918
 10
159.0418832732
 20
116.037052316
 10
159.0889901918
 20
116.0438104222
 10
159.1344665994
 20
116.0530909855
 10
159.1778715694
 20
116.0648040243
 10
159.2187842593
 20
116.0788359722
 10
159.256807991
 20
116.0950507793
 10
159.2915740969
 20
116.1132912313
 10
159.3227454944
 20
116.1333804738
  0
LWPOLYLINE
  5
3E5
100
AcDbEntity
  8
0
100
AcDbPolyline
 62
253
  6
CONTINUOUS
 90
16
 70
0
 10
158.6623754065
 20
116.0763426614
 10
158.705704443
 20
116.0626882065
 10
158.751119201
 20
116.0513731754
 10
158.7981793516
 20
116.0425072753
 10
158.8464286126
 20
116.0361764677
 10
158.8953991726
 20
116.0324421343
 10
158.9446162265
 20
116.0313404819
 10
158.9936025794
 20
116.0328821918
 10
159.0418832732
 20
116.037052316
 10
159.0889901918
 20
116.0438104222
 10
159.1344665994
 20
116.0530909855
 10
159.1778715694
 20
116.0648040243
 10
159.2187842593
 20
116.0788359722
 10
159.256807991
 20
116.0950507793
 10
159.2915740969
 20
116.1132912313
 10
159.3227454944
 20
116.1333804738
  0
LWPOLYLINE
  5
3E6
100
AcDbEntity
  8
ASSI
100
AcDbPolyline
 62
253
  6
CONTINUOUS
 90
16
 70
0
 10
140.4772000233
 20
123.3799190705
 10
140.5205290598
 20
123.3662646156
 10
140.5659438178
 20
123.3549495844
 10
140.6130039684
 20
123.3460836844
 10
140.6612532294
 20
123.3397528768
 10
140.7102237894
 20
123.3360185434
 10
140.7594408433
 20
123.334916891
 10
140.8084271962
 20
123.3364586009
 10
140.85670789
 20
123.3406287251
 10
140.9038148086
 20
123.3473868312
 10
140.9492912162
 20
123.3566673946
 10
140.9926961862
 20
123.3683804334
 10
141.0336088761
 20
123.3824123813
 10
141.0716326078
 20
123.3986271884
 10
141.1063987136
 20
123.4168676403
 10
141.1375701112
 20
123.4369568829
  0
LWPOLYLINE
  5
3E7
100
AcDbEntity
  8
0
100
AcDbPolyline
 62
253
  6
CONTINUOUS
 90
16
 70
0
 10
140.4772000233
 20
123.3799190705
 10
140.5205290598
 20
123.3662646156
 10
140.5659438178
 20
123.3549495844
 10
140.6130039684
 20
123.3460836844
 10
140.6612532294
 20
123.3397528768
 10
140.7102237894
 20
123.3360185434
 10
140.7594408433
 20
123.334916891
 10
140.8084271962
 20
123.3364586009
 10
140.85670789
 20
123.3406287251
 10
140.9038148086
 20
123.3473868312
 10
140.9492912162
 20
123.3566673946
 10
140.9926961862
 20
123.3683804334
 10
141.0336088761
 20
123.3824123813
 10
141.0716326078
 20
123.3986271884
 10
141.1063987136
 20
123.4168676403
 10
141.1375701112
 20
123.4369568829
  0
LINE
  5
3E8
100
AcDbEntity
  8
ASSI
100
AcDbLine
 62
253
  6
CONTINUOUS
 10
158.6623687785
 20
116.0763368026
 11
158.0837648168
 21
116.2772103449
  0
LINE
  5
3E9
100
AcDbEntity
  8
0
100
AcDbLine
 62
253
  6
CONTINUOUS
 10
158.6623687785
 20
116.0763368026
 11
158.0837648168
 21
116.2772103449
  0
LINE
  5
3EA
100
AcDbEntity
  8
ASSI
100
AcDbLine
 62
253
  6
CONTINUOUS
 10
140.4771933953
 20
123.3799132117
 11
139.8985894335
 21
123.580786754
  0
LINE
  5
3EB
100
AcDbEntity
  8
0
100
AcDbLine
 62
253
  6
CONTINUOUS
 10
140.4771933953
 20
123.3799132117
 11
139.8985894335
 21
123.580786754
  0
LINE
  5
3EC
100
AcDbEntity
  8
ASSI
100
AcDbLine
 62
253
  6
CONTINUOUS
 10
158.0837648168
 20
116.2772103449
 11
157.1544826265
 21
116.6043295798
  0
LINE
  5
3ED
100
AcDbEntity
  8
0
100
AcDbLine
 62
253
  6
CONTINUOUS
 10
158.0837648168
 20
116.2772103449
 11
157.1544826265
 21
116.6043295798
  0
LINE
  5
3EE
100
AcDbEntity
  8
ASSI
100
AcDbLine
 62
253
  6
CONTINUOUS
 10
139.8985894335
 20
123.580786754
 11
138.9693072433
 21
123.9079059889
  0
LINE
  5
3EF
100
AcDbEntity
  8
0
100
AcDbLine
 62
253
  6
CONTINUOUS
 10
139.8985894335
 20
123.580786754
 11
138.9693072433
 21
123.9079059889
  0
LWPOLYLINE
  5
3F0
100
AcDbEntity
  8
ASSI
100
AcDbPolyline
 62
253
  6
CONTINUOUS
 90
28
 70
0
 10
157.1544826265
 20
116.6043295798
 10
156.3589244767
 20
116.8881466566
 10
155.7877060844
 20
117.0945298804
 10
155.2179205438
 20
117.3024353345
 10
154.6493952551
 20
117.5119285355
 10
154.0823262101
 20
117.7229399171
 10
153.5168764607
 20
117.9354096774
 10
152.9530939221
 20
118.1493196782
 10
152.3909501726
 20
118.3646805305
 10
151.830492109
 20
118.5814741235
 10
151.2716525487
 20
118.799726612
 10
150.714518077
 20
119.0194042563
 10
150.1593634919
 20
119.2403968208
 10
149.6065519348
 20
119.4625544405
 10
149.055731854
 20
119.6860130803
 10
148.5061108606
 20
119.9110951874
 10
147.9587383938
 20
120.1373695784
 10
147.4125865137
 20
120.3652616647
 10
146.8637910526
 20
120.596413819
 10
146.3133216962
 20
120.8304605127
 10
145.7603066445
 20
121.0678202119
 10
145.1982231605
 20
121.3113909897
 10
144.6270035922
 20
121.5613336604
 10
144.0469641288
 20
121.8176502898
 10
143.4522930699
 20
122.0831013757
 10
142.8412182938
 20
122.3587189052
 10
142.2159357855
 20
122.6437525672
 10
141.5766616024
 20
122.9383420076
  0
LWPOLYLINE
  5
3F1
100
AcDbEntity
  8
0
100
AcDbPolyline
 62
253
  6
CONTINUOUS
 90
28
 70
0
 10
157.1544826265
 20
116.6043295798
 10
156.3589244767
 20
116.8881466566
 10
155.7877060844
 20
117.0945298804
 10
155.2179205438
 20
117.3024353345
 10
154.6493952551
 20
117.5119285355
 10
154.0823262101
 20
117.7229399171
 10
153.5168764607
 20
117.9354096774
 10
152.9530939221
 20
118.1493196782
 10
152.3909501726
 20
118.3646805305
 10
151.830492109
 20
118.5814741235
 10
151.2716525487
 20
118.799726612
 10
150.714518077
 20
119.0194042563
 10
150.1593634919
 20
119.2403968208
 10
149.6065519348
 20
119.4625544405
 10
149.055731854
 20
119.6860130803
 10
148.5061108606
 20
119.9110951874
 10
147.9587383938
 20
120.1373695784
 10
147.4125865137
 20
120.3652616647
 10
146.8637910526
 20
120.596413819
 10
146.3133216962
 20
120.8304605127
 10
145.7603066445
 20
121.0678202119
 10
145.1982231605
 20
121.3113909897
 10
144.6270035922
 20
121.5613336604
 10
144.0469641288
 20
121.8176502898
 10
143.4522930699
 20
122.0831013757
 10
142.8412182938
 20
122.3587189052
 10
142.2159357855
 20
122.6437525672
 10
141.5766616024
 20
122.9383420076
  0
LWPOLYLINE
  5
3F2
100
AcDbEntity
  8
ASSI
100
AcDbPolyline
 62
253
  6
CONTINUOUS
 90
28
 70
0
 10
138.9693072433
 20
123.9079059889
 10
138.1737490935
 20
124.1917230657
 10
137.6025307012
 20
124.3981062895
 10
137.0327451606
 20
124.6060117436
 10
136.4642198719
 20
124.8155049446
 10
135.8971508268
 20
125.0265163262
 10
135.3317010775
 20
125.2389860865
 10
134.7679185389
 20
125.4528960873
 10
134.2057747894
 20
125.6682569396
 10
133.6453167258
 20
125.8850505326
 10
133.0864771655
 20
126.1033030211
 10
132.5293426938
 20
126.3229806653
 10
131.9741881087
 20
126.5439732299
 10
131.4213765516
 20
126.7661308496
 10
130.8705564708
 20
126.9895894893
 10
130.3209354774
 20
127.2146715965
 10
129.7735630105
 20
127.4409459874
 10
129.2274111305
 20
127.6688380738
 10
128.6786156694
 20
127.8999902281
 10
128.128146313
 20
128.1340369218
 10
127.5751312613
 20
128.371396621
 10
127.0130477773
 20
128.6149673988
 10
126.4418282089
 20
128.8649100695
 10
125.8617887456
 20
129.1212266989
 10
125.2671176866
 20
129.3866777848
 10
124.6560429106
 20
129.6622953143
 10
124.0307604023
 20
129.9473289763
 10
123.3914862192
 20
130.2419184167
  0
LWPOLYLINE
  5
3F3
100
AcDbEntity
  8
0
100
AcDbPolyline
 62
253
  6
CONTINUOUS
 90
28
 70
0
 10
138.9693072433
 20
123.9079059889
 10
138.1737490935
 20
124.1917230657
 10
137.6025307012
 20
124.3981062895
 10
137.0327451606
 20
124.6060117436
 10
136.4642198719
 20
124.8155049446
 10
135.8971508268
 20
125.0265163262
 10
135.3317010775
 20
125.2389860865
 10
134.7679185389
 20
125.4528960873
 10
134.2057747894
 20
125.6682569396
 10
133.6453167258
 20
125.8850505326
 10
133.0864771655
 20
126.1033030211
 10
132.5293426938
 20
126.3229806653
 10
131.9741881087
 20
126.5439732299
 10
131.4213765516
 20
126.7661308496
 10
130.8705564708
 20
126.9895894893
 10
130.3209354774
 20
127.2146715965
 10
129.7735630105
 20
127.4409459874
 10
129.2274111305
 20
127.6688380738
 10
128.6786156694
 20
127.8999902281
 10
128.128146313
 20
128.1340369218
 10
127.5751312613
 20
128.371396621
 10
127.0130477773
 20
128.6149673988
 10
126.4418282089
 20
128.8649100695
 10
125.8617887456
 20
129.1212266989
 10
125.2671176866
 20
129.3866777848
 10
124.6560429106
 20
129.6622953143
 10
124.0307604023
 20
129.9473289763
 10
123.3914862192
 20
130.2419184167
  0
LWPOLYLINE
  5
3F4
100
AcDbEntity
  8
ASSI
100
AcDbPolyline
 62
253
  6
CONTINUOUS
 90
11
 70
0
 10
141.5766616039
 20
122.9383420202
 10
141.5398757789
 20
122.956863672
 10
141.5064844671
 20
122.9771991957
 10
141.4768114276
 20
122.9991514198
 10
141.4511443677
 20
123.0225074975
 10
141.4297321532
 20
123.0470409701
 10
141.4127823949
 20
123.0725139632
 10
141.4004594363
 20
123.0986794928
 10
141.3928827599
 20
123.1252838602
 10
141.3901258283
 20
123.1520691116
 10
141.3901645712
 20
123.1577693429
  0
LWPOLYLINE
  5
3F5
100
AcDbEntity
  8
0
100
AcDbPolyline
 62
253
  6
CONTINUOUS
 90
11
 70
0
 10
141.5766616039
 20
122.9383420202
 10
141.5398757789
 20
122.956863672
 10
141.5064844671
 20
122.9771991957
 10
141.4768114276
 20
122.9991514198
 10
141.4511443677
 20
123.0225074975
 10
141.4297321532
 20
123.0470409701
 10
141.4127823949
 20
123.0725139632
 10
141.4004594363
 20
123.0986794928
 10
141.3928827599
 20
123.1252838602
 10
141.3901258283
 20
123.1520691116
 10
141.3901645712
 20
123.1577693429
  0
LWPOLYLINE
  5
3F6
100
AcDbEntity
  8
0
100
AcDbPolyline
 62
253
  6
CONTINUOUS
 90
16
 70
0
 10
159.0557115145
 20
98.2373856788
 10
159.0532934717
 20
98.2803963488
 10
159.0465715065
 20
98.3249232123
 10
159.0355751146
 20
98.370498078
 10
159.0203624247
 20
98.4166842908
 10
159.0010688602
 20
98.462928058
 10
158.9779501101
 20
98.5085676608
 10
158.9512940806
 20
98.5530486006
 10
158.9213683119
 20
98.5959364421
 10
158.8884929076
 20
98.6367696584
 10
158.853020734
 20
98.6751038301
 10
158.8153456266
 20
98.7105076524
 10
158.7758916099
 20
98.7425806123
 10
158.7350967805
 20
98.7709671833
 10
158.6934067391
 20
98.7953578907
 10
158.6512804166
 20
98.8154842074
  0
LWPOLYLINE
  5
3F7
100
AcDbEntity
  8
ASSI
100
AcDbPolyline
 62
253
  6
CONTINUOUS
 90
16
 70
0
 10
159.0557115145
 20
98.2373856788
 10
159.0532934717
 20
98.2803963488
 10
159.0465715065
 20
98.3249232123
 10
159.0355751146
 20
98.370498078
 10
159.0203624247
 20
98.4166842908
 10
159.0010688602
 20
98.462928058
 10
158.9779501101
 20
98.5085676608
 10
158.9512940806
 20
98.5530486006
 10
158.9213683119
 20
98.5959364421
 10
158.8884929076
 20
98.6367696584
 10
158.853020734
 20
98.6751038301
 10
158.8153456266
 20
98.7105076524
 10
158.7758916099
 20
98.7425806123
 10
158.7350967805
 20
98.7709671833
 10
158.6934067391
 20
98.7953578907
 10
158.6512804166
 20
98.8154842074
  0
LWPOLYLINE
  5
3F8
100
AcDbEntity
  8
ASSI
100
AcDbPolyline
 62
253
  6
CONTINUOUS
 90
10
 70
0
 10
158.4029914598
 20
99.3703181113
 10
158.4047611297
 20
99.3281377996
 10
158.4086778311
 20
99.2902173902
 10
158.4149397578
 20
99.2562286754
 10
158.4241362795
 20
99.2257490451
 10
158.4361306529
 20
99.1991114244
 10
158.4500571968
 20
99.1772153337
 10
158.4662084312
 20
99.1601913823
 10
158.484838671
 20
99.147951538
 10
158.4958449496
 20
99.1433996313
  0
LWPOLYLINE
  5
3F9
100
AcDbEntity
  8
0
100
AcDbPolyline
 62
253
  6
CONTINUOUS
 90
10
 70
0
 10
158.4029914598
 20
99.3703181113
 10
158.4047611297
 20
99.3281377996
 10
158.4086778311
 20
99.2902173902
 10
158.4149397578
 20
99.2562286754
 10
158.4241362795
 20
99.2257490451
 10
158.4361306529
 20
99.1991114244
 10
158.4500571968
 20
99.1772153337
 10
158.4662084312
 20
99.1601913823
 10
158.484838671
 20
99.147951538
 10
158.4958449496
 20
99.1433996313
  0
LWPOLYLINE
  5
3FA
100
AcDbEntity
  8
0
100
AcDbPolyline
 62
253
  6
CONTINUOUS
 90
10
 70
0
 10
159.3227454867
 20
81.9651965132
 10
159.2672629718
 20
83.8163801432
 10
159.2184867018
 20
85.6415186942
 10
159.1764166768
 20
87.4406121663
 10
159.1413905322
 20
89.1933213246
 10
159.1130706326
 20
90.919985404
 10
159.0904440716
 20
92.6816221087
 10
159.0731732139
 20
94.4985706734
 10
159.0615956949
 20
96.3504918635
 10
159.0557115145
 20
98.2373856788
  0
LWPOLYLINE
  5
3FB
100
AcDbEntity
  8
ASSI
100
AcDbPolyline
 62
253
  6
CONTINUOUS
 90
10
 70
0
 10
159.3227454867
 20
81.9651965132
 10
159.2672629718
 20
83.8163801432
 10
159.2184867018
 20
85.6415186942
 10
159.1764166768
 20
87.4406121663
 10
159.1413905322
 20
89.1933213246
 10
159.1130706326
 20
90.919985404
 10
159.0904440716
 20
92.6816221087
 10
159.0731732139
 20
94.4985706734
 10
159.0615956949
 20
96.3504918635
 10
159.0557115145
 20
98.2373856788
  0
LWPOLYLINE
  5
3FC
100
AcDbEntity
  8
0
100
AcDbPolyline
 62
253
  6
CONTINUOUS
 90
10
 70
0
 10
158.6623687777
 20
81.8730241157
 10
158.6079672563
 20
83.725054402
 10
158.5606899802
 20
85.5516862768
 10
158.5202282551
 20
87.3526096189
 10
158.4866342857
 20
89.1071511589
 10
158.459125479
 20
90.835280149
 10
158.4367247926
 20
92.5981531792
 10
158.4195581901
 20
94.4165129208
 10
158.4082137765
 20
96.2701424686
 10
158.4029913385
 20
98.1592499788
  0
LWPOLYLINE
  5
3FD
100
AcDbEntity
  8
ASSI
100
AcDbPolyline
 62
253
  6
CONTINUOUS
 90
10
 70
0
 10
158.6623687777
 20
81.8730241157
 10
158.6079672563
 20
83.725054402
 10
158.5606899802
 20
85.5516862768
 10
158.5202282551
 20
87.3526096189
 10
158.4866342857
 20
89.1071511589
 10
158.459125479
 20
90.835280149
 10
158.4367247926
 20
92.5981531792
 10
158.4195581901
 20
94.4165129208
 10
158.4082137765
 20
96.2701424686
 10
158.4029913385
 20
98.1592499788
  0
LWPOLYLINE
  5
3FE
100
AcDbEntity
  8
ASSI
100
AcDbPolyline
 62
253
  6
CONTINUOUS
 90
10
 70
0
 10
159.0557114567
 20
99.4472116584
 10
159.0598034158
 20
101.1413330401
 10
159.0697965635
 20
102.8651073061
 10
159.0856909
 20
104.6185344562
 10
159.1068285137
 20
106.3878525444
 10
159.1338673161
 20
108.1868235167
 10
159.1687810419
 20
110.056733212
 10
159.2122276027
 20
112.0113435763
 10
159.2635490868
 20
114.0368926636
 10
159.3227454944
 20
116.1333804737
  0
LWPOLYLINE
  5
3FF
100
AcDbEntity
  8
0
100
AcDbPolyline
 62
253
  6
CONTINUOUS
 90
10
 70
0
 10
159.0557114567
 20
99.4472116584
 10
159.0598034158
 20
101.1413330401
 10
159.0697965635
 20
102.8651073061
 10
159.0856909
 20
104.6185344562
 10
159.1068285137
 20
106.3878525444
 10
159.1338673161
 20
108.1868235167
 10
159.1687810419
 20
110.056733212
 10
159.2122276027
 20
112.0113435763
 10
159.2635490868
 20
114.0368926636
 10
159.3227454944
 20
116.1333804737
  0
LWPOLYLINE
  5
400
100
AcDbEntity
  8
ASSI
100
AcDbPolyline
 62
253
  6
CONTINUOUS
 90
5
 70
0
 10
158.4029913285
 20
99.3703182226
 10
158.4073512771
 20
101.0664475929
 10
158.4169805964
 20
102.7920251316
 10
158.4321080094
 20
104.5472033372
 10
158.4527839983
 20
106.318676276
  0
LWPOLYLINE
  5
401
100
AcDbEntity
  8
0
100
AcDbPolyline
 62
253
  6
CONTINUOUS
 90
5
 70
0
 10
158.4029913285
 20
99.3703182226
 10
158.4073512771
 20
101.0664475929
 10
158.4169805964
 20
102.7920251316
 10
158.4321080094
 20
104.5472033372
 10
158.4527839983
 20
106.318676276
  0
LINE
  5
402
100
AcDbEntity
  8
ASSI
100
AcDbLine
 62
253
  6
CONTINUOUS
 10
158.4527839983
 20
106.318676276
 11
158.4793409232
 21
108.1199874546
  0
LINE
  5
403
100
AcDbEntity
  8
0
100
AcDbLine
 62
253
  6
CONTINUOUS
 10
158.4527839983
 20
106.318676276
 11
158.4793409232
 21
108.1199874546
  0
LWPOLYLINE
  5
404
100
AcDbEntity
  8
ASSI
100
AcDbPolyline
 62
253
  6
CONTINUOUS
 90
5
 70
0
 10
158.4793409232
 20
108.1199874546
 10
158.5128119149
 20
109.9918601119
 10
158.5541413971
 20
111.948309149
 10
158.603766399
 20
113.9763101132
 10
158.6623687785
 20
116.0763368026
  0
LWPOLYLINE
  5
405
100
AcDbEntity
  8
0
100
AcDbPolyline
 62
253
  6
CONTINUOUS
 90
5
 70
0
 10
158.4793409232
 20
108.1199874546
 10
158.5128119149
 20
109.9918601119
 10
158.5541413971
 20
111.948309149
 10
158.603766399
 20
113.9763101132
 10
158.6623687785
 20
116.0763368026
  0
LWPOLYLINE
  5
406
100
AcDbEntity
  8
0
100
AcDbPolyline
 62
253
  6
CONTINUOUS
 90
16
 70
0
 10
158.4029915179
 20
98.159249917
 10
158.4047609545
 20
98.2038782547
 10
158.4086773994
 20
98.2499190158
 10
158.4149390096
 20
98.2972368462
 10
158.4241350294
 20
98.3459365506
 10
158.4361287643
 20
98.3958255668
 10
158.4500547678
 20
98.4459654431
 10
158.4662055829
 20
98.4953580311
 10
158.484835462
 20
98.5437944047
 10
158.5049325061
 20
98.5910087912
 10
158.5265764586
 20
98.6361318783
 10
158.5499996801
 20
98.678564938
 10
158.5742489934
 20
98.7182974483
 10
158.5990124984
 20
98.754860723
 10
158.624682735
 20
98.7874271601
 10
158.6512804166
 20
98.8154842074
  0
LWPOLYLINE
  5
407
100
AcDbEntity
  8
ASSI
100
AcDbPolyline
 62
253
  6
CONTINUOUS
 90
16
 70
0
 10
158.4029915179
 20
98.159249917
 10
158.4047609545
 20
98.2038782547
 10
158.4086773994
 20
98.2499190158
 10
158.4149390096
 20
98.2972368462
 10
158.4241350294
 20
98.3459365506
 10
158.4361287643
 20
98.3958255668
 10
158.4500547678
 20
98.4459654431
 10
158.4662055829
 20
98.4953580311
 10
158.484835462
 20
98.5437944047
 10
158.5049325061
 20
98.5910087912
 10
158.5265764586
 20
98.6361318783
 10
158.5499996801
 20
98.678564938
 10
158.5742489934
 20
98.7182974483
 10
158.5990124984
 20
98.754860723
 10
158.624682735
 20
98.7874271601
 10
158.6512804166
 20
98.8154842074
  0
LWPOLYLINE
  5
408
100
AcDbEntity
  8
ASSI
100
AcDbPolyline
 62
253
  6
CONTINUOUS
 90
22
 70
0
 10
158.662368793
 20
116.0763368086
 10
158.6659766975
 20
116.1483023515
 10
158.6728921543
 20
116.2225090639
 10
158.6830837989
 20
116.2985894371
 10
158.696511569
 20
116.3761584393
 10
158.7131079756
 20
116.4548392448
 10
158.732780452
 20
116.534265843
 10
158.755446865
 20
116.6140489624
 10
158.7810012213
 20
116.6937873402
 10
158.8092965348
 20
116.7730940334
 10
158.8402087033
 20
116.8515720214
 10
158.8735960306
 20
116.9288309517
 10
158.9092672811
 20
117.0044990587
 10
158.947065534
 20
117.0781977462
 10
158.986816834
 20
117.149556245
 10
159.0282896672
 20
117.2182286541
 10
159.0712956805
 20
117.2838653075
 10
159.1156410685
 20
117.346139592
 10
159.1610758064
 20
117.4047613828
 10
159.2073780681
 20
117.459440602
 10
159.2543547567
 20
117.5098899648
 10
159.3017930815
 20
117.5558510677
  0
LWPOLYLINE
  5
409
100
AcDbEntity
  8
0
100
AcDbPolyline
 62
253
  6
CONTINUOUS
 90
22
 70
0
 10
158.662368793
 20
116.0763368086
 10
158.6659766975
 20
116.1483023515
 10
158.6728921543
 20
116.2225090639
 10
158.6830837989
 20
116.2985894371
 10
158.696511569
 20
116.3761584393
 10
158.7131079756
 20
116.4548392448
 10
158.732780452
 20
116.534265843
 10
158.755446865
 20
116.6140489624
 10
158.7810012213
 20
116.6937873402
 10
158.8092965348
 20
116.7730940334
 10
158.8402087033
 20
116.8515720214
 10
158.8735960306
 20
116.9288309517
 10
158.9092672811
 20
117.0044990587
 10
158.947065534
 20
117.0781977462
 10
158.986816834
 20
117.149556245
 10
159.0282896672
 20
117.2182286541
 10
159.0712956805
 20
117.2838653075
 10
159.1156410685
 20
117.346139592
 10
159.1610758064
 20
117.4047613828
 10
159.2073780681
 20
117.459440602
 10
159.2543547567
 20
117.5098899648
 10
159.3017930815
 20
117.5558510677
  0
LWPOLYLINE
  5
40A
100
AcDbEntity
  8
ASSI
100
AcDbPolyline
 62
253
  6
CONTINUOUS
 90
22
 70
0
 10
159.3227454944
 20
116.1333804737
 10
159.3250529801
 20
116.1754285735
 10
159.3293560154
 20
116.2183794507
 10
159.3356546003
 20
116.2622331054
 10
159.3439990091
 20
116.30723232
 10
159.3543389676
 20
116.353134312
 10
159.3665236528
 20
116.3992107342
 10
159.3805794404
 20
116.4454461318
 10
159.3964799548
 20
116.4918559596
 10
159.4139952465
 20
116.5377582349
 10
159.4331510826
 20
116.5831486204
 10
159.4539216959
 20
116.6280314534
 10
159.4759998355
 20
116.6717377634
 10
159.4994049468
 20
116.7142485077
 10
159.5241175844
 20
116.7555827291
 10
159.5497721619
 20
116.7951285857
 10
159.5763956445
 20
116.8328703251
 10
159.603961067
 20
116.8688236998
 10
159.6320219468
 20
116.9024241247
 10
159.6604294564
 20
116.9334834049
 10
159.6893324233
 20
116.9621897354
 10
159.7187308475
 20
116.9885431161
  0
LWPOLYLINE
  5
40B
100
AcDbEntity
  8
0
100
AcDbPolyline
 62
253
  6
CONTINUOUS
 90
22
 70
0
 10
159.3227454944
 20
116.1333804737
 10
159.3250529801
 20
116.1754285735
 10
159.3293560154
 20
116.2183794507
 10
159.3356546003
 20
116.2622331054
 10
159.3439990091
 20
116.30723232
 10
159.3543389676
 20
116.353134312
 10
159.3665236528
 20
116.3992107342
 10
159.3805794404
 20
116.4454461318
 10
159.3964799548
 20
116.4918559596
 10
159.4139952465
 20
116.5377582349
 10
159.4331510826
 20
116.5831486204
 10
159.4539216959
 20
116.6280314534
 10
159.4759998355
 20
116.6717377634
 10
159.4994049468
 20
116.7142485077
 10
159.5241175844
 20
116.7555827291
 10
159.5497721619
 20
116.7951285857
 10
159.5763956445
 20
116.8328703251
 10
159.603961067
 20
116.8688236998
 10
159.6320219468
 20
116.9024241247
 10
159.6604294564
 20
116.9334834049
 10
159.6893324233
 20
116.9621897354
 10
159.7187308475
 20
116.9885431161
  0
LWPOLYLINE
  5
40C
100
AcDbEntity
  8
ASSI
100
AcDbPolyline
 62
253
  6
CONTINUOUS
 90
8
 70
0
 10
159.0557114569
 20
99.4472116585
 10
159.0532934097
 20
99.4056105362
 10
159.046571434
 20
99.366151366
 10
159.0355750285
 20
99.3292842796
 10
159.0203623251
 20
99.2954028986
 10
159.00106875
 20
99.2649536596
 10
158.9779499924
 20
99.2383897077
 10
158.9574065836
 20
99.2205435336
  0
LWPOLYLINE
  5
40D
100
AcDbEntity
  8
0
100
AcDbPolyline
 62
253
  6
CONTINUOUS
 90
8
 70
0
 10
159.0557114569
 20
99.4472116585
 10
159.0532934097
 20
99.4056105362
 10
159.046571434
 20
99.366151366
 10
159.0355750285
 20
99.3292842796
 10
159.0203623251
 20
99.2954028986
 10
159.00106875
 20
99.2649536596
 10
158.9779499924
 20
99.2383897077
 10
158.9574065836
 20
99.2205435336
  0
LINE
  5
40E
100
AcDbEntity
  8
0
100
AcDbLine
 62
253
  6
CONTINUOUS
 10
161.275074337
 20
100.8808246713
 11
158.6512804168
 21
98.8154842076
  0
LINE
  5
40F
100
AcDbEntity
  8
ASSI
100
AcDbLine
 62
253
  6
CONTINUOUS
 10
161.275074337
 20
100.8808246713
 11
158.6512804168
 21
98.8154842076
  0
LINE
  5
410
100
AcDbEntity
  8
0
100
AcDbLine
 62
253
  6
CONTINUOUS
 10
161.6846971655
 20
100.3068128552
 11
159.0557115145
 21
98.2373856788
  0
LINE
  5
411
100
AcDbEntity
  8
ASSI
100
AcDbLine
 62
253
  6
CONTINUOUS
 10
161.6846971655
 20
100.3068128552
 11
159.0557115145
 21
98.2373856788
  0
LINE
  5
412
100
AcDbEntity
  8
ASSI
100
AcDbLine
 62
253
  6
CONTINUOUS
 10
158.9574065836
 20
99.2205435336
 11
158.957114848
 21
99.2203205103
  0
LINE
  5
413
100
AcDbEntity
  8
0
100
AcDbLine
 62
253
  6
CONTINUOUS
 10
158.9574065836
 20
99.2205435336
 11
158.957114848
 21
99.2203205103
  0
LINE
  5
414
100
AcDbEntity
  8
ASSI
100
AcDbLine
 62
253
  6
CONTINUOUS
 10
159.0557114567
 20
99.4472116584
 11
161.6846971655
 21
101.4534697798
  0
LINE
  5
415
100
AcDbEntity
  8
0
100
AcDbLine
 62
253
  6
CONTINUOUS
 10
159.0557114567
 20
99.4472116584
 11
161.6846971655
 21
101.4534697798
  0
LINE
  5
416
100
AcDbEntity
  8
ASSI
100
AcDbLine
 62
7
  6
CONTINUOUS
 10
158.9571127036
 20
99.2203188739
 11
161.5858401847
 21
101.226379934
  0
LINE
  5
417
100
AcDbEntity
  8
0
100
AcDbLine
 62
7
  6
CONTINUOUS
 10
158.9571127036
 20
99.2203188739
 11
161.5858401847
 21
101.226379934
  0
LWPOLYLINE
  5
418
100
AcDbEntity
  8
0
100
AcDbPolyline
 62
253
  6
CONTINUOUS
 90
16
 70
0
 10
159.0557115152
 20
98.2373856794
 10
159.0249251376
 20
98.2157405788
 10
158.9906293634
 20
98.1959131724
 10
158.9531484822
 20
98.1780909417
 10
158.9128369074
 20
98.16244241
 10
158.8700758062
 20
98.1491155417
 10
158.8252694914
 20
98.1382363465
 10
158.7788416126
 20
98.129907695
 10
158.7312311959
 20
98.1242083496
 10
158.6828884745
 20
98.1211922069
 10
158.6342705852
 20
98.1208877824
 10
158.5858372212
 20
98.1232979493
 10
158.5380463311
 20
98.1283999172
 10
158.4913498028
 20
98.136145445
 10
158.4461891905
 20
98.1464612927
 10
158.4029915179
 20
98.159249917
  0
LWPOLYLINE
  5
419
100
AcDbEntity
  8
ASSI
100
AcDbPolyline
 62
253
  6
CONTINUOUS
 90
16
 70
0
 10
159.0557115152
 20
98.2373856794
 10
159.0249251376
 20
98.2157405788
 10
158.9906293634
 20
98.1959131724
 10
158.9531484822
 20
98.1780909417
 10
158.9128369074
 20
98.16244241
 10
158.8700758062
 20
98.1491155417
 10
158.8252694914
 20
98.1382363465
 10
158.7788416126
 20
98.129907695
 10
158.7312311959
 20
98.1242083496
 10
158.6828884745
 20
98.1211922069
 10
158.6342705852
 20
98.1208877824
 10
158.5858372212
 20
98.1232979493
 10
158.5380463311
 20
98.1283999172
 10
158.4913498028
 20
98.136145445
 10
158.4461891905
 20
98.1464612927
 10
158.4029915179
 20
98.159249917
  0
LWPOLYLINE
  5
41A
100
AcDbEntity
  8
ASSI
100
AcDbPolyline
 62
253
  6
CONTINUOUS
 90
10
 70
0
 10
142.2423990867
 20
124.4072882736
 10
142.198938196
 20
124.4215935215
 10
142.1561168713
 20
124.4314032149
 10
142.114403462
 20
124.4366100788
 10
142.0742541849
 20
124.437157181
 10
142.0361081718
 20
124.4330385529
 10
142.0003826604
 20
124.4242992692
 10
141.9674683781
 20
124.4110349466
 10
141.9377252885
 20
124.3933906872
 10
141.9145635698
 20
124.3745147776
  0
LWPOLYLINE
  5
41B
100
AcDbEntity
  8
0
100
AcDbPolyline
 62
253
  6
CONTINUOUS
 90
10
 70
0
 10
142.2423990867
 20
124.4072882736
 10
142.198938196
 20
124.4215935215
 10
142.1561168713
 20
124.4314032149
 10
142.114403462
 20
124.4366100788
 10
142.0742541849
 20
124.437157181
 10
142.0361081718
 20
124.4330385529
 10
142.0003826604
 20
124.4242992692
 10
141.9674683781
 20
124.4110349466
 10
141.9377252885
 20
124.3933906872
 10
141.9145635698
 20
124.3745147776
  0
LWPOLYLINE
  5
41C
100
AcDbEntity
  8
ASSI
100
AcDbPolyline
 62
253
  6
CONTINUOUS
 90
10
 70
0
 10
124.0572237035
 20
131.7108646827
 10
124.0137628128
 20
131.7251699306
 10
123.9709414881
 20
131.734979624
 10
123.9292280788
 20
131.7401864879
 10
123.8890788017
 20
131.7407335901
 10
123.8509327886
 20
131.736614962
 10
123.8152072771
 20
131.7278756783
 10
123.7822929949
 20
131.7146113556
 10
123.7525499053
 20
131.6969670962
 10
123.7293881866
 20
131.6780911867
  0
LWPOLYLINE
  5
41D
100
AcDbEntity
  8
0
100
AcDbPolyline
 62
253
  6
CONTINUOUS
 90
10
 70
0
 10
124.0572237035
 20
131.7108646827
 10
124.0137628128
 20
131.7251699306
 10
123.9709414881
 20
131.734979624
 10
123.9292280788
 20
131.7401864879
 10
123.8890788017
 20
131.7407335901
 10
123.8509327886
 20
131.736614962
 10
123.8152072771
 20
131.7278756783
 10
123.7822929949
 20
131.7146113556
 10
123.7525499053
 20
131.6969670962
 10
123.7293881866
 20
131.6780911867
  0
LWPOLYLINE
  5
41E
100
AcDbEntity
  8
ASSI
100
AcDbPolyline
 62
253
  6
CONTINUOUS
 90
31
 70
0
 10
159.3017930816
 20
117.5558510678
 10
158.7239848429
 20
117.7550594134
 10
158.1480579154
 20
117.95572008
 10
157.5740122991
 20
118.1578330675
 10
157.0020032966
 20
118.361342843
 10
156.4318756052
 20
118.5663049393
 10
155.863163317
 20
118.7728859557
 10
155.2956326401
 20
118.981169348
 10
154.7295173662
 20
119.1910716603
 10
154.1650529631
 20
119.4025091234
 10
153.6023029799
 20
119.6154595957
 10
153.0412038674
 20
119.8299452189
 10
152.4818004456
 20
120.0459486479
 10
151.9240095767
 20
120.2635045369
 10
151.3679143985
 20
120.4825782317
 10
150.8138091433
 20
120.7030484252
 10
150.2620402224
 20
120.9247729291
 10
149.7122612245
 20
121.1478939315
 10
149.1637271486
 20
121.37271669
 10
148.6174892829
 20
121.5987694847
 10
148.0724963392
 20
121.8265240354
 10
147.5248494529
 20
122.0577007595
 10
146.9753969027
 20
122.2918479376
 10
146.4232904098
 20
122.5294172892
 10
145.8620862734
 20
122.7734843894
 10
145.2914337951
 20
123.0240819334
 10
144.7116836733
 20
123.281177226
 10
144.1174443021
 20
123.5477477574
 10
143.5069184797
 20
123.8247860241
 10
142.8819034079
 20
124.1112995295
 10
142.2423990868
 20
124.4072882737
  0
LWPOLYLINE
  5
41F
100
AcDbEntity
  8
0
100
AcDbPolyline
 62
253
  6
CONTINUOUS
 90
31
 70
0
 10
159.3017930816
 20
117.5558510678
 10
158.7239848429
 20
117.7550594134
 10
158.1480579154
 20
117.95572008
 10
157.5740122991
 20
118.1578330675
 10
157.0020032966
 20
118.361342843
 10
156.4318756052
 20
118.5663049393
 10
155.863163317
 20
118.7728859557
 10
155.2956326401
 20
118.981169348
 10
154.7295173662
 20
119.1910716603
 10
154.1650529631
 20
119.4025091234
 10
153.6023029799
 20
119.6154595957
 10
153.0412038674
 20
119.8299452189
 10
152.4818004456
 20
120.0459486479
 10
151.9240095767
 20
120.2635045369
 10
151.3679143985
 20
120.4825782317
 10
150.8138091433
 20
120.7030484252
 10
150.2620402224
 20
120.9247729291
 10
149.7122612245
 20
121.1478939315
 10
149.1637271486
 20
121.37271669
 10
148.6174892829
 20
121.5987694847
 10
148.0724963392
 20
121.8265240354
 10
147.5248494529
 20
122.0577007595
 10
146.9753969027
 20
122.2918479376
 10
146.4232904098
 20
122.5294172892
 10
145.8620862734
 20
122.7734843894
 10
145.2914337951
 20
123.0240819334
 10
144.7116836733
 20
123.281177226
 10
144.1174443021
 20
123.5477477574
 10
143.5069184797
 20
123.8247860241
 10
142.8819034079
 20
124.1112995295
 10
142.2423990868
 20
124.4072882737
  0
LWPOLYLINE
  5
420
100
AcDbEntity
  8
ASSI
100
AcDbPolyline
 62
253
  6
CONTINUOUS
 90
31
 70
0
 10
141.1166176984
 20
124.8594274769
 10
140.5388094597
 20
125.0586358225
 10
139.9628825322
 20
125.2592964891
 10
139.3888369159
 20
125.4614094766
 10
138.8168279134
 20
125.664919252
 10
138.246700222
 20
125.8698813484
 10
137.6779879338
 20
126.0764623648
 10
137.1104572568
 20
126.2847457571
 10
136.544341983
 20
126.4946480694
 10
135.9798775799
 20
126.7060855325
 10
135.4171275967
 20
126.9190360048
 10
134.8560284842
 20
127.133521628
 10
134.2966250623
 20
127.349525057
 10
133.7388341935
 20
127.567080946
 10
133.1827390153
 20
127.7861546408
 10
132.6286337601
 20
128.0066248343
 10
132.0768648392
 20
128.2283493381
 10
131.5270858412
 20
128.4514703406
 10
130.9785517654
 20
128.6762930991
 10
130.4323138997
 20
128.9023458937
 10
129.887320956
 20
129.1301004445
 10
129.3396740697
 20
129.3612771686
 10
128.7902215195
 20
129.5954243467
 10
128.2381150266
 20
129.8329936983
 10
127.6769108902
 20
130.0770607985
 10
127.1062584119
 20
130.3276583425
 10
126.5265082901
 20
130.5847536351
 10
125.9322689189
 20
130.8513241664
 10
125.3217430965
 20
131.1283624332
 10
124.6967280247
 20
131.4148759386
 10
124.0572237035
 20
131.7108646828
  0
LWPOLYLINE
  5
421
100
AcDbEntity
  8
0
100
AcDbPolyline
 62
253
  6
CONTINUOUS
 90
31
 70
0
 10
141.1166176984
 20
124.8594274769
 10
140.5388094597
 20
125.0586358225
 10
139.9628825322
 20
125.2592964891
 10
139.3888369159
 20
125.4614094766
 10
138.8168279134
 20
125.664919252
 10
138.246700222
 20
125.8698813484
 10
137.6779879338
 20
126.0764623648
 10
137.1104572568
 20
126.2847457571
 10
136.544341983
 20
126.4946480694
 10
135.9798775799
 20
126.7060855325
 10
135.4171275967
 20
126.9190360048
 10
134.8560284842
 20
127.133521628
 10
134.2966250623
 20
127.349525057
 10
133.7388341935
 20
127.567080946
 10
133.1827390153
 20
127.7861546408
 10
132.6286337601
 20
128.0066248343
 10
132.0768648392
 20
128.2283493381
 10
131.5270858412
 20
128.4514703406
 10
130.9785517654
 20
128.6762930991
 10
130.4323138997
 20
128.9023458937
 10
129.887320956
 20
129.1301004445
 10
129.3396740697
 20
129.3612771686
 10
128.7902215195
 20
129.5954243467
 10
128.2381150266
 20
129.8329936983
 10
127.6769108902
 20
130.0770607985
 10
127.1062584119
 20
130.3276583425
 10
126.5265082901
 20
130.5847536351
 10
125.9322689189
 20
130.8513241664
 10
125.3217430965
 20
131.1283624332
 10
124.6967280247
 20
131.4148759386
 10
124.0572237035
 20
131.7108646828
  0
LINE
  5
422
100
AcDbEntity
  8
ASSI
100
AcDbLine
 62
7
  6
CONTINUOUS
 10
157.7814658835
 20
119.5167863049
 11
155.0216935854
 21
120.6251730774
  0
LINE
  5
423
100
AcDbEntity
  8
0
100
AcDbLine
 62
7
  6
CONTINUOUS
 10
157.7814658835
 20
119.5167863049
 11
155.0216935854
 21
120.6251730774
  0
LINE
  5
424
100
AcDbEntity
  8
ASSI
100
AcDbLine
 62
7
  6
CONTINUOUS
 10
148.6069629875
 20
123.2014735023
 11
145.8471906893
 21
124.3098602748
  0
LINE
  5
425
100
AcDbEntity
  8
0
100
AcDbLine
 62
7
  6
CONTINUOUS
 10
148.6069629875
 20
123.2014735023
 11
145.8471906893
 21
124.3098602748
  0
LINE
  5
426
100
AcDbEntity
  8
ASSI
100
AcDbLine
 62
7
  6
CONTINUOUS
 10
139.5962905003
 20
126.820362714
 11
136.8365182022
 21
127.9287494865
  0
LINE
  5
427
100
AcDbEntity
  8
0
100
AcDbLine
 62
7
  6
CONTINUOUS
 10
139.5962905003
 20
126.820362714
 11
136.8365182022
 21
127.9287494865
  0
LINE
  5
428
100
AcDbEntity
  8
ASSI
100
AcDbLine
 62
7
  6
CONTINUOUS
 10
130.4217876043
 20
130.5050499114
 11
127.6620153061
 21
131.6134366839
  0
LINE
  5
429
100
AcDbEntity
  8
0
100
AcDbLine
 62
7
  6
CONTINUOUS
 10
130.4217876043
 20
130.5050499114
 11
127.6620153061
 21
131.6134366839
  0
LINE
  5
42A
100
AcDbEntity
  8
ASSI
100
AcDbLine
 62
7
  6
CONTINUOUS
 10
160.8040673303
 20
118.8287160037
 11
158.6166097401
 21
119.7072482869
  0
LINE
  5
42B
100
AcDbEntity
  8
0
100
AcDbLine
 62
7
  6
CONTINUOUS
 10
160.8040673303
 20
118.8287160037
 11
158.6166097401
 21
119.7072482869
  0
LINE
  5
42C
100
AcDbEntity
  8
ASSI
100
AcDbLine
 62
7
  6
CONTINUOUS
 10
154.9983221885
 20
121.16043414
 11
149.4421068441
 21
123.3919354843
  0
LINE
  5
42D
100
AcDbEntity
  8
0
100
AcDbLine
 62
7
  6
CONTINUOUS
 10
154.9983221885
 20
121.16043414
 11
149.4421068441
 21
123.3919354843
  0
LINE
  5
42E
100
AcDbEntity
  8
ASSI
100
AcDbLine
 62
7
  6
CONTINUOUS
 10
145.8238192925
 20
124.8451213374
 11
143.6363617024
 21
125.7236536207
  0
LINE
  5
42F
100
AcDbEntity
  8
0
100
AcDbLine
 62
7
  6
CONTINUOUS
 10
145.8238192925
 20
124.8451213374
 11
143.6363617024
 21
125.7236536207
  0
LINE
  5
430
100
AcDbEntity
  8
ASSI
100
AcDbLine
 62
7
  6
CONTINUOUS
 10
142.618891947
 20
126.1322924127
 11
140.4314343569
 21
127.010824696
  0
LINE
  5
431
100
AcDbEntity
  8
0
100
AcDbLine
 62
7
  6
CONTINUOUS
 10
142.618891947
 20
126.1322924127
 11
140.4314343569
 21
127.010824696
  0
LINE
  5
432
100
AcDbEntity
  8
ASSI
100
AcDbLine
 62
7
  6
CONTINUOUS
 10
136.8131468053
 20
128.4640105491
 11
131.2569314609
 21
130.6955118934
  0
LINE
  5
433
100
AcDbEntity
  8
0
100
AcDbLine
 62
7
  6
CONTINUOUS
 10
136.8131468053
 20
128.4640105491
 11
131.2569314609
 21
130.6955118934
  0
LINE
  5
434
100
AcDbEntity
  8
ASSI
100
AcDbLine
 62
7
  6
CONTINUOUS
 10
127.6386439093
 20
132.1486977465
 11
125.4511863192
 21
133.0272300298
  0
LINE
  5
435
100
AcDbEntity
  8
0
100
AcDbLine
 62
7
  6
CONTINUOUS
 10
127.6386439093
 20
132.1486977465
 11
125.4511863192
 21
133.0272300298
  0
LWPOLYLINE
  5
436
100
AcDbEntity
  8
ASSI
100
AcDbPolyline
 62
253
  6
CONTINUOUS
 90
16
 70
0
 10
141.1166176983
 20
124.8594274768
 10
141.1586784182
 20
124.8393853877
 10
141.2004432735
 20
124.8152235279
 10
141.2414554769
 20
124.7872061586
 10
141.2812664728
 20
124.7556397092
 10
141.3194408433
 20
124.7208694258
 10
141.355561071
 20
124.6832755957
 10
141.3892321045
 20
124.6432693872
 10
141.4200856795
 20
124.6012883531
 10
141.4477843465
 20
124.5577916451
 10
141.472025162
 20
124.5132549923
 10
141.492543001
 20
124.4681654974
 10
141.5091134574
 20
124.4230163098
 10
141.5215552982
 20
124.3783012318
 10
141.5297324453
 20
124.3345093178
 10
141.5335554643
 20
124.2921195252
  0
LWPOLYLINE
  5
437
100
AcDbEntity
  8
0
100
AcDbPolyline
 62
253
  6
CONTINUOUS
 90
16
 70
0
 10
141.1166176983
 20
124.8594274768
 10
141.1586784182
 20
124.8393853877
 10
141.2004432735
 20
124.8152235279
 10
141.2414554769
 20
124.7872061586
 10
141.2812664728
 20
124.7556397092
 10
141.3194408433
 20
124.7208694258
 10
141.355561071
 20
124.6832755957
 10
141.3892321045
 20
124.6432693872
 10
141.4200856795
 20
124.6012883531
 10
141.4477843465
 20
124.5577916451
 10
141.472025162
 20
124.5132549923
 10
141.492543001
 20
124.4681654974
 10
141.5091134574
 20
124.4230163098
 10
141.5215552982
 20
124.3783012318
 10
141.5297324453
 20
124.3345093178
 10
141.5335554643
 20
124.2921195252
  0
LWPOLYLINE
  5
438
100
AcDbEntity
  8
ASSI
100
AcDbPolyline
 62
253
  6
CONTINUOUS
 90
16
 70
0
 10
159.3017930815
 20
117.5558510677
 10
159.3438538014
 20
117.5358089787
 10
159.3856186568
 20
117.5116471188
 10
159.4266308601
 20
117.4836297495
 10
159.466441856
 20
117.4520633001
 10
159.5046162266
 20
117.4172930168
 10
159.5407364543
 20
117.3796991866
 10
159.5744074877
 20
117.3396929781
 10
159.6052610627
 20
117.297711944
 10
159.6329597297
 20
117.2542152361
 10
159.6572005452
 20
117.2096785832
 10
159.6777183842
 20
117.1645890883
 10
159.6942888406
 20
117.1194399007
 10
159.7067306814
 20
117.0747248227
 10
159.7149078285
 20
117.0309329087
 10
159.7187308475
 20
116.9885431161
  0
LWPOLYLINE
  5
439
100
AcDbEntity
  8
0
100
AcDbPolyline
 62
253
  6
CONTINUOUS
 90
16
 70
0
 10
159.3017930815
 20
117.5558510677
 10
159.3438538014
 20
117.5358089787
 10
159.3856186568
 20
117.5116471188
 10
159.4266308601
 20
117.4836297495
 10
159.466441856
 20
117.4520633001
 10
159.5046162266
 20
117.4172930168
 10
159.5407364543
 20
117.3796991866
 10
159.5744074877
 20
117.3396929781
 10
159.6052610627
 20
117.297711944
 10
159.6329597297
 20
117.2542152361
 10
159.6572005452
 20
117.2096785832
 10
159.6777183842
 20
117.1645890883
 10
159.6942888406
 20
117.1194399007
 10
159.7067306814
 20
117.0747248227
 10
159.7149078285
 20
117.0309329087
 10
159.7187308475
 20
116.9885431161
  0
LINE
  5
43A
100
AcDbEntity
  8
ASSI
100
AcDbLine
 62
7
  6
CONTINUOUS
 10
161.2391326986
 20
118.2767674243
 11
161.6846971655
 21
111.6110330977
  0
LINE
  5
43B
100
AcDbEntity
  8
0
100
AcDbLine
 62
7
  6
CONTINUOUS
 10
161.2391326986
 20
118.2767674243
 11
161.6846971655
 21
111.6110330977
  0
LINE
  5
43C
100
AcDbEntity
  8
ASSI
100
AcDbLine
 62
7
  6
CONTINUOUS
 10
161.6846971655
 20
111.6110330977
 11
161.6846971655
 21
101.4534697798
  0
LINE
  5
43D
100
AcDbEntity
  8
0
100
AcDbLine
 62
7
  6
CONTINUOUS
 10
161.6846971655
 20
111.6110330977
 11
161.6846971655
 21
101.4534697798
  0
LINE
  5
43E
100
AcDbEntity
  8
0
100
AcDbLine
 62
7
  6
CONTINUOUS
 10
161.6846971655
 20
90.1492495373
 11
161.6846971655
 21
100.3068128552
  0
LINE
  5
43F
100
AcDbEntity
  8
ASSI
100
AcDbLine
 62
7
  6
CONTINUOUS
 10
161.6846971655
 20
90.1492495373
 11
161.6846971655
 21
100.3068128552
  0
LINE
  5
440
100
AcDbEntity
  8
0
100
AcDbLine
 62
7
  6
CONTINUOUS
 10
161.2391326986
 20
82.7927619057
 11
161.6846971655
 21
90.1492495373
  0
LINE
  5
441
100
AcDbEntity
  8
ASSI
100
AcDbLine
 62
7
  6
CONTINUOUS
 10
161.2391326986
 20
82.7927619057
 11
161.6846971655
 21
90.1492495373
  0
LWPOLYLINE
  5
442
100
AcDbEntity
  8
0
100
AcDbPolyline
 62
253
  6
CONTINUOUS
 90
8
 70
0
 10
159.6043555697
 20
81.485474092
 10
159.6329612603
 20
81.5091355303
 10
159.6572017691
 20
81.5363708102
 10
159.677719272
 20
81.5675230247
 10
159.6942894023
 20
81.6022514441
 10
159.7067309619
 20
81.6401762264
 10
159.7149079059
 20
81.6808825698
 10
159.7187308335
 20
81.7239252585
  0
LWPOLYLINE
  5
443
100
AcDbEntity
  8
ASSI
100
AcDbPolyline
 62
253
  6
CONTINUOUS
 90
8
 70
0
 10
159.6043555697
 20
81.485474092
 10
159.6329612603
 20
81.5091355303
 10
159.6572017691
 20
81.5363708102
 10
159.677719272
 20
81.5675230247
 10
159.6942894023
 20
81.6022514441
 10
159.7067309619
 20
81.6401762264
 10
159.7149079059
 20
81.6808825698
 10
159.7187308335
 20
81.7239252585
  0
LINE
  5
444
100
AcDbEntity
  8
0
100
AcDbLine
 62
253
  6
CONTINUOUS
 10
161.2391326986
 20
82.7927619057
 11
159.7187308335
 21
81.7239252585
  0
LINE
  5
445
100
AcDbEntity
  8
ASSI
100
AcDbLine
 62
253
  6
CONTINUOUS
 10
161.2391326986
 20
82.7927619057
 11
159.7187308335
 21
81.7239252585
  0
LINE
  5
446
100
AcDbEntity
  8
0
100
AcDbLine
 62
7
  6
CONTINUOUS
 10
161.1158015275
 20
82.548014771
 11
159.6043554982
 21
81.4854740418
  0
LINE
  5
447
100
AcDbEntity
  8
ASSI
100
AcDbLine
 62
7
  6
CONTINUOUS
 10
161.1158015275
 20
82.548014771
 11
159.6043554982
 21
81.4854740418
  0
LWPOLYLINE
  5
448
100
AcDbEntity
  8
0
100
AcDbPolyline
 62
253
  6
CONTINUOUS
 90
22
 70
0
 10
159.7187308335
 20
81.7239252585
 10
159.6893324091
 20
81.7047026111
 10
159.6604294421
 20
81.688601015
 10
159.6320219323
 20
81.6756204702
 10
159.6039610523
 20
81.665718446
 10
159.5763956297
 20
81.6589374731
 10
159.5497721468
 20
81.6554051433
 10
159.5241175693
 20
81.6551790129
 10
159.4994049315
 20
81.6582015255
 10
159.4759998202
 20
81.6644276036
 10
159.4539216805
 20
81.6739064358
 10
159.4331510672
 20
81.6865888335
 10
159.4139952311
 20
81.7022821537
 10
159.3964799393
 20
81.7210306802
 10
159.3805794249
 20
81.7427901291
 10
159.3665236372
 20
81.767235006
 10
159.3543389518
 20
81.7944216551
 10
159.3439989932
 20
81.8242937321
 10
159.335654585
 20
81.8563567092
 10
159.3293560018
 20
81.8904457438
 10
159.325052969
 20
81.9267256785
 10
159.3227454867
 20
81.9651965132
  0
LWPOLYLINE
  5
449
100
AcDbEntity
  8
ASSI
100
AcDbPolyline
 62
253
  6
CONTINUOUS
 90
22
 70
0
 10
159.7187308335
 20
81.7239252585
 10
159.6893324091
 20
81.7047026111
 10
159.6604294421
 20
81.688601015
 10
159.6320219323
 20
81.6756204702
 10
159.6039610523
 20
81.665718446
 10
159.5763956297
 20
81.6589374731
 10
159.5497721468
 20
81.6554051433
 10
159.5241175693
 20
81.6551790129
 10
159.4994049315
 20
81.6582015255
 10
159.4759998202
 20
81.6644276036
 10
159.4539216805
 20
81.6739064358
 10
159.4331510672
 20
81.6865888335
 10
159.4139952311
 20
81.7022821537
 10
159.3964799393
 20
81.7210306802
 10
159.3805794249
 20
81.7427901291
 10
159.3665236372
 20
81.767235006
 10
159.3543389518
 20
81.7944216551
 10
159.3439989932
 20
81.8242937321
 10
159.335654585
 20
81.8563567092
 10
159.3293560018
 20
81.8904457438
 10
159.325052969
 20
81.9267256785
 10
159.3227454867
 20
81.9651965132
  0
ELLIPSE
  5
44A
100
AcDbEntity
  8
0
100
AcDbEllipse
 62
7
  6
CONTINUOUS
 10
160.8294518225
 20
82.9579001333
 30
0.0
 11
-0.2850203122
 21
0.4108138748
 31
0.0
 40
0.7191175512
 41
-3.136779368
 42
-2.401520857
  0
ELLIPSE
  5
44B
100
AcDbEntity
  8
0
100
AcDbEllipse
 62
7
  6
CONTINUOUS
 10
161.2749807438
 20
100.4712706423
 30
0.0
 11
0.3170403205
 21
-0.3867036085
 31
0.0
 40
0.6711200097
 41
0.6859711218
 42
2.2565390145
  0
ELLIPSE
  5
44C
100
AcDbEntity
  8
ASSI
100
AcDbEllipse
 62
7
  6
CONTINUOUS
 10
160.8294518225
 20
82.9579001333
 30
0.0
 11
-0.2850203122
 21
0.4108138748
 31
0.0
 40
0.7191175512
 41
-3.136779368
 42
-2.401520857
  0
ELLIPSE
  5
44D
100
AcDbEntity
  8
ASSI
100
AcDbEllipse
 62
7
  6
CONTINUOUS
 10
161.2749807438
 20
100.4712706423
 30
0.0
 11
0.3170403205
 21
-0.3867036085
 31
0.0
 40
0.6711200097
 41
0.6859711218
 42
2.2565390145
  0
ELLIPSE
  5
44E
100
AcDbEntity
  8
ASSI
100
AcDbEllipse
 62
7
  6
CONTINUOUS
 10
142.6442764393
 20
125.7443634153
 30
0.0
 11
-0.3433580121
 21
0.3640648834
 31
0.0
 40
0.6179721343
 41
-2.4982952834
 42
-0.9288689526
  0
ELLIPSE
  5
44F
100
AcDbEntity
  8
ASSI
100
AcDbEllipse
 62
7
  6
CONTINUOUS
 10
127.7767305934
 20
131.7159919339
 30
0.0
 11
0.1999434854
 21
0.0078174272
 31
0.0
 40
0.6081570881
 41
3.1201007963
 42
4.077750384
  0
ELLIPSE
  5
450
100
AcDbEntity
  8
ASSI
100
AcDbEllipse
 62
7
  6
CONTINUOUS
 10
130.5365028915
 20
130.6076051613
 30
0.0
 11
0.1999434854
 21
0.0078174272
 31
0.0
 40
0.6081570881
 41
-2.2054349231
 42
-1.1582373719
  0
ELLIPSE
  5
451
100
AcDbEntity
  8
ASSI
100
AcDbEllipse
 62
7
  6
CONTINUOUS
 10
139.7110057876
 20
126.922917964
 30
0.0
 11
0.1999434854
 21
0.0078174272
 31
0.0
 40
0.6081570881
 41
-2.2054349231
 42
-1.1582373719
  0
ELLIPSE
  5
452
100
AcDbEntity
  8
ASSI
100
AcDbEllipse
 62
7
  6
CONTINUOUS
 10
136.9512334894
 20
128.0313047365
 30
0.0
 11
0.1999434854
 21
0.0078174272
 31
0.0
 40
0.6081570881
 41
3.1201007963
 42
4.077750384
  0
ELLIPSE
  5
453
100
AcDbEntity
  8
ASSI
100
AcDbEllipse
 62
7
  6
CONTINUOUS
 10
125.4758227787
 20
132.6396014592
 30
0.0
 11
-0.3432468395
 21
0.3635678883
 31
0.0
 40
0.6190547263
 41
-0.930363261
 42
0.000238127
  0
ELLIPSE
  5
454
100
AcDbEntity
  8
0
100
AcDbEllipse
 62
7
  6
CONTINUOUS
 10
142.6442764393
 20
125.7443634153
 30
0.0
 11
-0.3433580121
 21
0.3640648834
 31
0.0
 40
0.6179721343
 41
-2.4982952834
 42
-0.9288689526
  0
ELLIPSE
  5
455
100
AcDbEntity
  8
0
100
AcDbEllipse
 62
7
  6
CONTINUOUS
 10
127.7767305934
 20
131.7159919339
 30
0.0
 11
0.1999434854
 21
0.0078174272
 31
0.0
 40
0.6081570881
 41
3.1201007963
 42
4.077750384
  0
ELLIPSE
  5
456
100
AcDbEntity
  8
0
100
AcDbEllipse
 62
7
  6
CONTINUOUS
 10
130.5365028915
 20
130.6076051613
 30
0.0
 11
0.1999434854
 21
0.0078174272
 31
0.0
 40
0.6081570881
 41
-2.2054349231
 42
-1.1582373719
  0
ELLIPSE
  5
457
100
AcDbEntity
  8
0
100
AcDbEllipse
 62
7
  6
CONTINUOUS
 10
139.7110057876
 20
126.922917964
 30
0.0
 11
0.1999434854
 21
0.0078174272
 31
0.0
 40
0.6081570881
 41
-2.2054349231
 42
-1.1582373719
  0
ELLIPSE
  5
458
100
AcDbEntity
  8
0
100
AcDbEllipse
 62
7
  6
CONTINUOUS
 10
136.9512334894
 20
128.0313047365
 30
0.0
 11
0.1999434854
 21
0.0078174272
 31
0.0
 40
0.6081570881
 41
3.1201007963
 42
4.077750384
  0
ELLIPSE
  5
459
100
AcDbEntity
  8
0
100
AcDbEllipse
 62
7
  6
CONTINUOUS
 10
125.4758227787
 20
132.6396014592
 30
0.0
 11
-0.3432468395
 21
0.3635678883
 31
0.0
 40
0.6190547263
 41
-0.930363261
 42
0.000238127
  0
ELLIPSE
  5
45A
100
AcDbEntity
  8
ASSI
100
AcDbEllipse
 62
7
  6
CONTINUOUS
 10
160.8294518225
 20
118.4407870062
 30
0.0
 11
-0.3433580121
 21
0.3640648834
 31
0.0
 40
0.6179721343
 41
-2.4982952834
 42
-0.9288689526
  0
ELLIPSE
  5
45B
100
AcDbEntity
  8
ASSI
100
AcDbEllipse
 62
7
  6
CONTINUOUS
 10
161.2749807438
 20
101.6181146963
 30
0.0
 11
-0.3170686951
 21
0.3868251561
 31
0.0
 40
0.6708195125
 41
-3.1644370718
 42
-2.4557308722
  0
ELLIPSE
  5
45C
100
AcDbEntity
  8
ASSI
100
AcDbEllipse
 62
7
  6
CONTINUOUS
 10
145.9619059766
 20
124.4124155248
 30
0.0
 11
0.1999434854
 21
0.0078174272
 31
0.0
 40
0.6081570881
 41
3.1201007963
 42
4.077750384
  0
ELLIPSE
  5
45D
100
AcDbEntity
  8
ASSI
100
AcDbEllipse
 62
7
  6
CONTINUOUS
 10
148.7216782747
 20
123.3040287523
 30
0.0
 11
0.1999434854
 21
0.0078174272
 31
0.0
 40
0.6081570881
 41
-2.2054349231
 42
-1.1582373719
  0
ELLIPSE
  5
45E
100
AcDbEntity
  8
ASSI
100
AcDbEllipse
 62
7
  6
CONTINUOUS
 10
157.8961811708
 20
119.6193415549
 30
0.0
 11
0.1999434854
 21
0.0078174272
 31
0.0
 40
0.6081570881
 41
-2.2054349231
 42
-1.1582373719
  0
ELLIPSE
  5
45F
100
AcDbEntity
  8
ASSI
100
AcDbEllipse
 62
7
  6
CONTINUOUS
 10
155.1364088726
 20
120.7277283274
 30
0.0
 11
0.1999434854
 21
0.0078174272
 31
0.0
 40
0.6081570881
 41
3.1201007963
 42
4.077750384
  0
ELLIPSE
  5
460
100
AcDbEntity
  8
ASSI
100
AcDbEllipse
 62
7
  6
CONTINUOUS
 10
143.6609981619
 20
125.3360250501
 30
0.0
 11
-0.3432468395
 21
0.3635678883
 31
0.0
 40
0.6190547263
 41
-0.930363261
 42
0.000238127
  0
ELLIPSE
  5
461
100
AcDbEntity
  8
0
100
AcDbEllipse
 62
7
  6
CONTINUOUS
 10
160.8294518225
 20
118.4407870062
 30
0.0
 11
-0.3433580121
 21
0.3640648834
 31
0.0
 40
0.6179721343
 41
-2.4982952834
 42
-0.9288689526
  0
ELLIPSE
  5
462
100
AcDbEntity
  8
0
100
AcDbEllipse
 62
7
  6
CONTINUOUS
 10
161.2749807438
 20
101.6181146963
 30
0.0
 11
-0.3170686951
 21
0.3868251561
 31
0.0
 40
0.6708195125
 41
-3.1644370718
 42
-2.4557308722
  0
ELLIPSE
  5
463
100
AcDbEntity
  8
0
100
AcDbEllipse
 62
7
  6
CONTINUOUS
 10
145.9619059766
 20
124.4124155248
 30
0.0
 11
0.1999434854
 21
0.0078174272
 31
0.0
 40
0.6081570881
 41
3.1201007963
 42
4.077750384
  0
ELLIPSE
  5
464
100
AcDbEntity
  8
0
100
AcDbEllipse
 62
7
  6
CONTINUOUS
 10
148.7216782747
 20
123.3040287523
 30
0.0
 11
0.1999434854
 21
0.0078174272
 31
0.0
 40
0.6081570881
 41
-2.2054349231
 42
-1.1582373719
  0
ELLIPSE
  5
465
100
AcDbEntity
  8
0
100
AcDbEllipse
 62
7
  6
CONTINUOUS
 10
157.8961811708
 20
119.6193415549
 30
0.0
 11
0.1999434854
 21
0.0078174272
 31
0.0
 40
0.6081570881
 41
-2.2054349231
 42
-1.1582373719
  0
ELLIPSE
  5
466
100
AcDbEntity
  8
0
100
AcDbEllipse
 62
7
  6
CONTINUOUS
 10
155.1364088726
 20
120.7277283274
 30
0.0
 11
0.1999434854
 21
0.0078174272
 31
0.0
 40
0.6081570881
 41
3.1201007963
 42
4.077750384
  0
ELLIPSE
  5
467
100
AcDbEntity
  8
0
100
AcDbEllipse
 62
7
  6
CONTINUOUS
 10
143.6609981619
 20
125.3360250501
 30
0.0
 11
-0.3432468395
 21
0.3635678883
 31
0.0
 40
0.6190547263
 41
-0.930363261
 42
0.000238127
  0
ENDSEC
  0
SECTION
  2
OBJECTS
  0
DICTIONARY
  5
C
100
AcDbDictionary
280
0
281
1
  3
ACAD_GROUP
350
D
  3
ACAD_MLINESTYLE
350
17
  3
ACAD_LAYOUT
350
1A
  3
ACAD_PLOTSETTINGS
350
19
  3
ACAD_PLOTSTYLENAME
350
E
  0
DICTIONARY
  5
D
102
{ACAD_REACTORS
330
C
102
}
100
AcDbDictionary
280
0
281
1
  0
ACDBDICTIONARYWDFLT
  5
E
102
{ACAD_REACTORS
330
C
102
}
100
AcDbDictionary
281
1
  3
Normal
350
F
100
AcDbDictionaryWithDefault
340
F
  0
DICTIONARY
  5
17
102
{ACAD_REACTORS
330
C
102
}
100
AcDbDictionary
280
0
281
1
  3
Standard
350
18
  0
DICTIONARY
  5
19
102
{ACAD_REACTORS
330
C
102
}
100
AcDbDictionary
281
1
  0
DICTIONARY
  5
1A
102
{ACAD_REACTORS
330
C
102
}
100
AcDbDictionary
281
1
  3
Model
350
468
  3
Layout1
350
469
  0
ACDBPLACEHOLDER
  5
F
102
{ACAD_REACTORS
330
E
102
}
  0
MLINESTYLE
  5
18
102
{ACAD_REACTORS
330
17
102
}
100
AcDbMlineStyle
  2
STANDARD
 70
0
  3

 62
256
 51
90.0
 52
90.0
 71
2
 49
0.5
 62
256
  6
BYLAYER
 49
-0.5
 62
256
  6
BYLAYER
  0
LAYOUT
  5
468
102
{ACAD_REACTORS
330
1A
102
}
100
AcDbPlotSettings
  1

  2
none_device
  4
ISO_A4_(297.00_x_210.00_MM)
  6

 40
0.0
 41
0.0
 42
0.0
 43
0.0
 44
297.0
 45
210.0
 46
0.0
 47
0.0
 48
0.0
 49
0.0
140
0.0
141
0.0
142
1.0
143
1.0
 70
1024
 72
1
 73
0
 74
0
  7

 75
0
147
1.0
148
0.0
149
0.0
100
AcDbLayout
  1
Model
 70
0
 71
0
 10
0.0
 20
0.0
 11
297.0
 21
210.0
 12
0.0
 22
0.0
 32
0.0
 14
0.0
 24
0.0
 34
0.0
 15
0.0
 25
0.0
 35
0.0
146
0.0
 13
0.0
 23
0.0
 33
0.0
 16
1.0
 26
0.0
 36
0.0
 17
0.0
 27
1.0
 37
0.0
 76
0
330
21F
345
0
346
0
  0
LAYOUT
  5
469
102
{ACAD_REACTORS
330
1A
102
}
100
AcDbPlotSettings
  1

  2
none_device
  4
ISO_A4_(297.00_x_210.00_MM)
  6

 40
0.0
 41
0.0
 42
0.0
 43
0.0
 44
297.0
 45
210.0
 46
0.0
 47
0.0
 48
0.0
 49
0.0
140
0.0
141
0.0
142
1.0
143
1.0
 70
0
 72
1
 73
0
 74
0
  7

 75
0
147
1.0
148
0.0
149
0.0
100
AcDbLayout
  1
Layout1
 70
0
 71
1
 10
0.0
 20
0.0
 11
297.0
 21
210.0
 12
0.0
 22
0.0
 32
0.0
 14
0.0
 24
0.0
 34
0.0
 15
0.0
 25
0.0
 35
0.0
146
0.0
 13
0.0
 23
0.0
 33
0.0
 16
1.0
 26
0.0
 36
0.0
 17
0.0
 27
1.0
 37
0.0
 76
0
330
220
345
0
346
0
  0
ENDSEC
  0
EOF
