  0
SECTION
  2
HEADER
  9
$ACADVER
  1
AC1015
  9
$DWGCODEPAGE
  3
ANSI_1252
  9
$EXTMAX
 10
297.0
 20
210.0
 30
0.0
  9
$EXTMIN
 10
0.0
 20
0.0
 30
0.0
  9
$LIMMIN
 10
0.0
 20
0.0
  9
$LIMMAX
 10
297.0
 20
210.0
  9
$VIEWCTR
 10
148.5
 20
105.0
  9
$VIEWSIZE
 40
210.0
  9
$CLAYER
  8
0
  9
$LTSCALE
 40
16.335
  9
$CELTYPE
  6
BYLAYER
  9
$DIMSCALE
 40
1.0
  9
$DIMASZ
 40
3.0
  9
$DIMEXO
 40
0.5
  9
$DIMDLI
 40
11.286
  9
$DIMEXE
 40
1.5
  9
$DIMCEN
 40
2.673
  9
$DIMLFAC
 40
1.0
  9
$DIMBLK
  1
_FILLED
  9
$DIMTXT
 40
3.0
  9
$DIMTOL
 70
1
  9
$DIMLIM
 70
0
  9
$DIMTFAC
 40
1.0
  9
$DIMTP
 40
0.01
  9
$DIMTM
 40
0.01
  9
$DIMGAP
 40
0.625
  9
$DIMDSEP
 70
44
  9
$PDMODE
 70
3
  9
$PDSIZE
 40
3.0
  9
$HANDSEED
  5
4A5
  9
$TILEMODE
 70
1
  9
$MEASUREMENT
 70
1
  9
$INSUNITS
 70
4
  0
ENDSEC
  0
SECTION
  2
CLASSES
  0
CLASS
  1
ACDBDICTIONARYWDFLT
  2
AcDbDictionaryWithDefault
  3
AutoCAD 2000
 90
0
280
0
281
0
  0
CLASS
  1
ACDBPLACEHOLDER
  2
AcDbPlaceHolder
  3
AutoCAD 2000
 90
0
280
0
281
0
  0
CLASS
  1
LAYOUT
  2
AcDbLayout
  3
AutoCAD 2000
 90
0
280
0
281
0
  0
ENDSEC
  0
SECTION
  2
TABLES
  0
TABLE
  2
VPORT
  5
8
100
AcDbSymbolTable
 70
2
  0
VPORT
  5
1F4
100
AcDbSymbolTableRecord
100
AcDbViewportTableRecord
  2
*ACTIVE
 70
0
 10
0.0
 20
0.0
 11
1.0
 21
1.0
 12
148.5
 22
105.0
 13
0.0
 23
0.0
 14
1.0
 24
1.0
 15
0.0
 25
0.0
 16
0.0
 26
0.0
 36
1.0
 17
0.0
 27
0.0
 37
0.0
 40
210.0
 41
1.4142857143
 42
50.0
 43
0.0
 44
0.0
 50
0.0
 51
0.0
 71
0
 72
100
 73
1
 74
1
 75
0
 76
0
 77
0
 78
0
  0
ENDTAB
  0
TABLE
  2
LTYPE
  5
5
100
AcDbSymbolTable
 70
6
  0
LTYPE
  5
14
100
AcDbSymbolTableRecord
100
AcDbLinetypeTableRecord
  2
BYBLOCK
 70
0
  3

 72
65
 73
0
 40
0.0
  0
LTYPE
  5
15
100
AcDbSymbolTableRecord
100
AcDbLinetypeTableRecord
  2
BYLAYER
 70
0
  3

 72
65
 73
0
 40
0.0
  0
LTYPE
  5
16
100
AcDbSymbolTableRecord
100
AcDbLinetypeTableRecord
  2
CONTINUOUS
 70
64
  3
Solid line
 72
65
 73
0
 40
0.0
  0
LTYPE
  5
1F5
100
AcDbSymbolTableRecord
100
AcDbLinetypeTableRecord
  2
CENTER
 70
64
  3
____ _ ____ _ ____ _ ____ _ ____ _ ____ _ ____
 72
65
 73
4
 40
0.6
 49
0.375
 74
0
 49
-0.075
 74
0
 49
0.075
 74
0
 49
-0.075
 74
0
  0
LTYPE
  5
1F6
100
AcDbSymbolTableRecord
100
AcDbLinetypeTableRecord
  2
HIDDEN
 70
64
  3
- - - - - - - - - - - - - - - - - - - -
 72
65
 73
2
 40
0.2
 49
0.1
 74
0
 49
-0.1
 74
0
  0
LTYPE
  5
1F7
100
AcDbSymbolTableRecord
100
AcDbLinetypeTableRecord
  2
PHANTOM
 70
64
  3
_____ _ _ _____ _ _ _____ _ _ _____
 72
65
 73
6
 40
0.8
 49
0.45
 74
0
 49
-0.05
 74
0
 49
0.1
 74
0
 49
-0.05
 74
0
 49
0.1
 74
0
 49
-0.05
 74
0
  0
LTYPE
  5
1F8
100
AcDbSymbolTableRecord
100
AcDbLinetypeTableRecord
  2
DOT
 70
64
  3
. . . . . . . . . . . . . . . . . . . .
 72
65
 73
2
 40
0.2
 49
0.1
 74
0
 49
-0.1
 74
0
  0
LTYPE
  5
1F9
100
AcDbSymbolTableRecord
100
AcDbLinetypeTableRecord
  2
DASHED
 70
64
  3
- - - - - - - - - - - - - - - - - - - -
 72
65
 73
2
 40
0.2
 49
0.1
 74
0
 49
-0.1
 74
0
  0
ENDTAB
  0
TABLE
  2
LAYER
  5
2
100
AcDbSymbolTable
 70
36
  0
LAYER
  5
10
100
AcDbSymbolTableRecord
100
AcDbLayerTableRecord
  2
0
 70
0
 62
7
  6
CONTINUOUS
370
-3
390
F
  0
LAYER
  5
1FA
100
AcDbSymbolTableRecord
100
AcDbLayerTableRecord
  2
DEFAULT_1
 70
0
 62
7
  6
CENTER
370
-3
390
F
  0
LAYER
  5
1FB
100
AcDbSymbolTableRecord
100
AcDbLayerTableRecord
  2
DEFAULT_2
 70
0
 62
7
  6
HIDDEN
370
-3
390
F
  0
LAYER
  5
1FC
100
AcDbSymbolTableRecord
100
AcDbLayerTableRecord
  2
DEFAULT_3
 70
0
 62
7
  6
PHANTOM
370
-3
390
F
  0
LAYER
  5
1FD
100
AcDbSymbolTableRecord
100
AcDbLayerTableRecord
  2
ASSI
 70
0
 62
7
  6
CONTINUOUS
370
-3
390
F
  0
LAYER
  5
1FE
100
AcDbSymbolTableRecord
100
AcDbLayerTableRecord
  2
COLOR3
 70
0
 62
7
  6
CONTINUOUS
370
-3
390
F
  0
LAYER
  5
1FF
100
AcDbSymbolTableRecord
100
AcDbLayerTableRecord
  2
COORDINATE
 70
0
 62
7
  6
CONTINUOUS
370
-3
390
F
  0
LAYER
  5
200
100
AcDbSymbolTableRecord
100
AcDbLayerTableRecord
  2
COPY_PUBLISH
 70
0
 62
7
  6
CONTINUOUS
370
-3
390
F
  0
LAYER
  5
201
100
AcDbSymbolTableRecord
100
AcDbLayerTableRecord
  2
COSMETIC
 70
0
 62
7
  6
CONTINUOUS
370
-3
390
F
  0
LAYER
  5
202
100
AcDbSymbolTableRecord
100
AcDbLayerTableRecord
  2
COSMETICI
 70
0
 62
7
  6
CONTINUOUS
370
-3
390
F
  0
LAYER
  5
203
100
AcDbSymbolTableRecord
100
AcDbLayerTableRecord
  2
CURVE
 70
0
 62
7
  6
CONTINUOUS
370
-3
390
F
  0
LAYER
  5
204
100
AcDbSymbolTableRecord
100
AcDbLayerTableRecord
  2
DRAFT
 70
0
 62
7
  6
CONTINUOUS
370
-3
390
F
  0
LAYER
  5
205
100
AcDbSymbolTableRecord
100
AcDbLayerTableRecord
  2
IMPORT_IGES
 70
0
 62
7
  6
CONTINUOUS
370
-3
390
F
  0
LAYER
  5
206
100
AcDbSymbolTableRecord
100
AcDbLayerTableRecord
  2
INTFCLR_1
 70
0
 62
7
  6
CONTINUOUS
370
-3
390
F
  0
LAYER
  5
207
100
AcDbSymbolTableRecord
100
AcDbLayerTableRecord
  2
INTF_1
 70
0
 62
7
  6
CONTINUOUS
370
-3
390
F
  0
LAYER
  5
208
100
AcDbSymbolTableRecord
100
AcDbLayerTableRecord
  2
INTF_10
 70
0
 62
7
  6
CONTINUOUS
370
-3
390
F
  0
LAYER
  5
209
100
AcDbSymbolTableRecord
100
AcDbLayerTableRecord
  2
INTF_13
 70
0
 62
7
  6
CONTINUOUS
370
-3
390
F
  0
LAYER
  5
20A
100
AcDbSymbolTableRecord
100
AcDbLayerTableRecord
  2
INTF_15
 70
0
 62
7
  6
CONTINUOUS
370
-3
390
F
  0
LAYER
  5
20B
100
AcDbSymbolTableRecord
100
AcDbLayerTableRecord
  2
INTF_16
 70
0
 62
7
  6
CONTINUOUS
370
-3
390
F
  0
LAYER
  5
20C
100
AcDbSymbolTableRecord
100
AcDbLayerTableRecord
  2
INTF_18
 70
0
 62
7
  6
CONTINUOUS
370
-3
390
F
  0
LAYER
  5
20D
100
AcDbSymbolTableRecord
100
AcDbLayerTableRecord
  2
INTF_20
 70
0
 62
7
  6
CONTINUOUS
370
-3
390
F
  0
LAYER
  5
20E
100
AcDbSymbolTableRecord
100
AcDbLayerTableRecord
  2
INTF_3
 70
0
 62
7
  6
CONTINUOUS
370
-3
390
F
  0
LAYER
  5
20F
100
AcDbSymbolTableRecord
100
AcDbLayerTableRecord
  2
INTF_5
 70
0
 62
7
  6
CONTINUOUS
370
-3
390
F
  0
LAYER
  5
210
100
AcDbSymbolTableRecord
100
AcDbLayerTableRecord
  2
INTF_8
 70
0
 62
7
  6
CONTINUOUS
370
-3
390
F
  0
LAYER
  5
211
100
AcDbSymbolTableRecord
100
AcDbLayerTableRecord
  2
NOTE
 70
0
 62
7
  6
CONTINUOUS
370
-3
390
F
  0
LAYER
  5
212
100
AcDbSymbolTableRecord
100
AcDbLayerTableRecord
  2
PIANI
 70
0
 62
7
  6
CONTINUOUS
370
-3
390
F
  0
LAYER
  5
213
100
AcDbSymbolTableRecord
100
AcDbLayerTableRecord
  2
PUNTI
 70
0
 62
7
  6
CONTINUOUS
370
-3
390
F
  0
LAYER
  5
214
100
AcDbSymbolTableRecord
100
AcDbLayerTableRecord
  2
RACCORDO
 70
0
 62
7
  6
CONTINUOUS
370
-3
390
F
  0
LAYER
  5
215
100
AcDbSymbolTableRecord
100
AcDbLayerTableRecord
  2
SIMBOLI
 70
0
 62
7
  6
CONTINUOUS
370
-3
390
F
  0
LAYER
  5
216
100
AcDbSymbolTableRecord
100
AcDbLayerTableRecord
  2
SMUSSO
 70
0
 62
7
  6
CONTINUOUS
370
-3
390
F
  0
LAYER
  5
217
100
AcDbSymbolTableRecord
100
AcDbLayerTableRecord
  2
SNAPLINE
 70
0
 62
7
  6
CONTINUOUS
370
-3
390
F
  0
LAYER
  5
218
100
AcDbSymbolTableRecord
100
AcDbLayerTableRecord
  2
SOLIDO
 70
0
 62
7
  6
CONTINUOUS
370
-3
390
F
  0
LAYER
  5
219
100
AcDbSymbolTableRecord
100
AcDbLayerTableRecord
  2
SUPERFICI
 70
0
 62
7
  6
CONTINUOUS
370
-3
390
F
  0
LAYER
  5
21A
100
AcDbSymbolTableRecord
100
AcDbLayerTableRecord
  2
SUPERFICI_SKEL
 70
0
 62
7
  6
CONTINUOUS
370
-3
390
F
  0
LAYER
  5
21B
100
AcDbSymbolTableRecord
100
AcDbLayerTableRecord
  2
TRASH
 70
0
 62
7
  6
CONTINUOUS
370
-3
390
F
  0
LAYER
  5
21C
100
AcDbSymbolTableRecord
100
AcDbLayerTableRecord
  2
___SHELL
 70
0
 62
7
  6
CONTINUOUS
370
-3
390
F
  0
ENDTAB
  0
TABLE
  2
STYLE
  5
3
100
AcDbSymbolTable
 70
1
  0
STYLE
  5
11
100
AcDbSymbolTableRecord
100
AcDbTextStyleTableRecord
  2
STANDARD
 70
0
 40
0.0
 41
0.8
 50
0.0
 71
0
 42
0.2
  3
txt
  4

  0
STYLE
  5
21D
100
AcDbSymbolTableRecord
100
AcDbTextStyleTableRecord
  2
TEXTSTYLE_1
 70
0
 40
0.0
 41
0.8
 50
0.0
 71
0
 42
0.2
  3
gdt
  4

  0
ENDTAB
  0
TABLE
  2
VIEW
  5
6
100
AcDbSymbolTable
 70
0
  0
ENDTAB
  0
TABLE
  2
UCS
  5
7
100
AcDbSymbolTable
 70
0
  0
ENDTAB
  0
TABLE
  2
APPID
  5
9
100
AcDbSymbolTable
 70
1
  0
APPID
  5
21E
100
AcDbSymbolTableRecord
100
AcDbRegAppTableRecord
  2
ACAD
 70
0
  0
ENDTAB
  0
TABLE
  2
BLOCK_RECORD
  5
1
100
AcDbSymbolTable
 70
0
  0
BLOCK_RECORD
  5
21F
100
AcDbSymbolTableRecord
100
AcDbBlockTableRecord
  2
*Model_Space
  0
BLOCK_RECORD
  5
220
100
AcDbSymbolTableRecord
100
AcDbBlockTableRecord
  2
*Paper_Space
  0
ENDTAB
  0
TABLE
  2
DIMSTYLE
  5
A
100
AcDbSymbolTable
 70
1
100
AcDbDimStyleTable
 71
0
  0
DIMSTYLE
105
221
100
AcDbSymbolTableRecord
100
AcDbDimStyleTableRecord
  2
STANDARD
 70
0
  3

  4

 40
1.0
 41
3.0
 42
0.5
 43
0.38
 44
1.5
 45
0.0
 46
0.0
 47
0.01
 48
0.01
140
3.0
141
0.09
142
0.0
143
25.4
144
1.0
145
0.0
146
1.0
147
0.625
 71
1.0
 72
0.0
 73
0
 74
0
 75
0
 76
0
 77
1
 78
8
170
0
171
2
172
0
173
0
174
0
175
0
176
0
177
0
178
0
270
2
271
2
272
2
273
2
274
2
275
0
280
0
281
0
282
0
283
1
284
8
285
0
286
0
287
3
288
0
340
11
278
44
  0
ENDTAB
  0
ENDSEC
  0
SECTION
  2
BLOCKS
  0
BLOCK
  5
20
100
AcDbEntity
  8
0
100
AcDbBlockBegin
  2
*Model_Space
 70
0
 10
0.0
 20
0.0
 30
0.0
  3
*Model_Space
  1

  0
ENDBLK
  5
21
100
AcDbEntity
  8
0
100
AcDbBlockEnd
  0
BLOCK
  5
1C
100
AcDbEntity
  8
0
100
AcDbBlockBegin
  2
*Paper_Space
 70
0
 10
0.0
 20
0.0
 30
0.0
  3
*Paper_Space
  1

  0
ENDBLK
  5
1D
100
AcDbEntity
  8
0
100
AcDbBlockEnd
  0
ENDSEC
  0
SECTION
  2
ENTITIES
  0
LWPOLYLINE
  5
222
100
AcDbEntity
  8
ASSI
100
AcDbPolyline
 62
7
  6
CONTINUOUS
 90
18
 70
0
 10
130.5883610012
 20
130.0535366467
 10
130.5314343776
 20
129.9950883662
 10
130.4782264544
 20
129.9332703518
 10
130.4285900074
 20
129.8686018859
 10
130.3822069597
 20
129.8012868205
 10
130.3388382615
 20
129.731414103
 10
130.298477497
 20
129.6593292035
 10
130.2611067262
 20
129.5852767232
 10
130.2267120588
 20
129.5093882867
 10
130.1953714943
 20
129.4319496545
 10
130.1671924045
 20
129.3532190561
 10
130.1422593929
 20
129.27333904
 10
130.1207192616
 20
129.192535228
 10
130.1027765814
 20
129.1110899225
 10
130.088605436
 20
129.0290532782
 10
130.0784697422
 20
128.9464755019
 10
130.0727118831
 20
128.8636433994
 10
130.0720428397
 20
128.8444902469
  0
LWPOLYLINE
  5
223
100
AcDbEntity
  8
0
100
AcDbPolyline
 62
7
  6
CONTINUOUS
 90
18
 70
0
 10
130.5883610012
 20
130.0535366467
 10
130.5314343776
 20
129.9950883662
 10
130.4782264544
 20
129.9332703518
 10
130.4285900074
 20
129.8686018859
 10
130.3822069597
 20
129.8012868205
 10
130.3388382615
 20
129.731414103
 10
130.298477497
 20
129.6593292035
 10
130.2611067262
 20
129.5852767232
 10
130.2267120588
 20
129.5093882867
 10
130.1953714943
 20
129.4319496545
 10
130.1671924045
 20
129.3532190561
 10
130.1422593929
 20
129.27333904
 10
130.1207192616
 20
129.192535228
 10
130.1027765814
 20
129.1110899225
 10
130.088605436
 20
129.0290532782
 10
130.0784697422
 20
128.9464755019
 10
130.0727118831
 20
128.8636433994
 10
130.0720428397
 20
128.8444902469
  0
LINE
  5
224
100
AcDbEntity
  8
ASSI
100
AcDbLine
 62
7
  6
CONTINUOUS
 10
131.999608958
 20
131.3863000523
 11
130.5883610012
 21
130.0535366467
  0
LINE
  5
225
100
AcDbEntity
  8
0
100
AcDbLine
 62
7
  6
CONTINUOUS
 10
131.999608958
 20
131.3863000523
 11
130.5883610012
 21
130.0535366467
  0
LINE
  5
226
100
AcDbEntity
  8
ASSI
100
AcDbLine
 62
253
  6
CONTINUOUS
 10
132.318234115
 20
131.4103746872
 11
130.9242714994
 21
130.0940093402
  0
LINE
  5
227
100
AcDbEntity
  8
0
100
AcDbLine
 62
253
  6
CONTINUOUS
 10
132.318234115
 20
131.4103746872
 11
130.9242714994
 21
130.0940093402
  0
LINE
  5
228
100
AcDbEntity
  8
ASSI
100
AcDbLine
 62
7
  6
CONTINUOUS
 10
130.5964359824
 20
130.0612358442
 11
130.5959904017
 21
130.0608162788
  0
LINE
  5
229
100
AcDbEntity
  8
0
100
AcDbLine
 62
7
  6
CONTINUOUS
 10
130.5964359824
 20
130.0612358442
 11
130.5959904017
 21
130.0608162788
  0
LWPOLYLINE
  5
22A
100
AcDbEntity
  8
ASSI
100
AcDbPolyline
 62
253
  6
CONTINUOUS
 90
22
 70
0
 10
130.9242714993
 20
130.0940093402
 10
130.8751101778
 20
130.048740234
 10
130.8263419744
 20
129.9990103856
 10
130.7782253542
 20
129.9450598546
 10
130.7310331005
 20
129.8871439211
 10
130.6849967662
 20
129.8255487568
 10
130.6403058224
 20
129.7605888076
 10
130.5971930992
 20
129.6925750142
 10
130.5558905581
 20
129.6218395279
 10
130.5165736662
 20
129.5487507592
 10
130.4794480707
 20
129.4736667488
 10
130.4447111486
 20
129.3969498451
 10
130.4125080441
 20
129.3189903251
 10
130.3830053319
 20
129.2401685497
 10
130.3563611579
 20
129.1608678666
 10
130.3326864146
 20
129.0814897145
 10
130.3121034264
 20
129.0024287955
 10
130.2947211972
 20
128.924063591
 10
130.2806081821
 20
128.8467697997
 10
130.2698329706
 20
128.7709238064
 10
130.2624614747
 20
128.6969002591
 10
130.258534005
 20
128.6250630728
  0
LWPOLYLINE
  5
22B
100
AcDbEntity
  8
0
100
AcDbPolyline
 62
253
  6
CONTINUOUS
 90
22
 70
0
 10
130.9242714993
 20
130.0940093402
 10
130.8751101778
 20
130.048740234
 10
130.8263419744
 20
129.9990103856
 10
130.7782253542
 20
129.9450598546
 10
130.7310331005
 20
129.8871439211
 10
130.6849967662
 20
129.8255487568
 10
130.6403058224
 20
129.7605888076
 10
130.5971930992
 20
129.6925750142
 10
130.5558905581
 20
129.6218395279
 10
130.5165736662
 20
129.5487507592
 10
130.4794480707
 20
129.4736667488
 10
130.4447111486
 20
129.3969498451
 10
130.4125080441
 20
129.3189903251
 10
130.3830053319
 20
129.2401685497
 10
130.3563611579
 20
129.1608678666
 10
130.3326864146
 20
129.0814897145
 10
130.3121034264
 20
129.0024287955
 10
130.2947211972
 20
128.924063591
 10
130.2806081821
 20
128.8467697997
 10
130.2698329706
 20
128.7709238064
 10
130.2624614747
 20
128.6969002591
 10
130.258534005
 20
128.6250630728
  0
LINE
  5
22C
100
AcDbEntity
  8
ASSI
100
AcDbLine
 62
7
  6
CONTINUOUS
 10
138.1239792567
 20
129.0786565508
 11
137.4880743397
 21
128.8824894667
  0
LINE
  5
22D
100
AcDbEntity
  8
0
100
AcDbLine
 62
7
  6
CONTINUOUS
 10
138.1239792567
 20
129.0786565508
 11
137.4880743397
 21
128.8824894667
  0
LWPOLYLINE
  5
22E
100
AcDbEntity
  8
ASSI
100
AcDbPolyline
 62
253
  6
CONTINUOUS
 90
10
 70
0
 10
129.8240644456
 20
112.1372731599
 10
129.8263793401
 20
112.1095880704
 10
129.8334000242
 20
112.0820382533
 10
129.8450602761
 20
112.0550058762
 10
129.8612498256
 20
112.0287465598
 10
129.881815588
 20
112.0035085901
 10
129.9065631061
 20
111.9795305969
 10
129.9352583801
 20
111.9570393049
 10
129.9676300736
 20
111.9362473881
 10
130.0033720903
 20
111.9173514481
  0
LWPOLYLINE
  5
22F
100
AcDbEntity
  8
0
100
AcDbPolyline
 62
253
  6
CONTINUOUS
 90
10
 70
0
 10
129.8240644456
 20
112.1372731599
 10
129.8263793401
 20
112.1095880704
 10
129.8334000242
 20
112.0820382533
 10
129.8450602761
 20
112.0550058762
 10
129.8612498256
 20
112.0287465598
 10
129.881815588
 20
112.0035085901
 10
129.9065631061
 20
111.9795305969
 10
129.9352583801
 20
111.9570393049
 10
129.9676300736
 20
111.9362473881
 10
130.0033720903
 20
111.9173514481
  0
LWPOLYLINE
  5
230
100
AcDbEntity
  8
ASSI
100
AcDbPolyline
 62
253
  6
CONTINUOUS
 90
12
 70
0
 10
130.2585340194
 20
94.4217503976
 10
130.2624614887
 20
94.3559574715
 10
130.2698329851
 20
94.293453946
 10
130.2806081975
 20
94.2345486165
 10
130.2947212132
 20
94.1795397053
 10
130.3121034421
 20
94.1286925685
 10
130.3326864298
 20
94.0822413161
 10
130.3563611731
 20
94.0404186496
 10
130.383005347
 20
94.0034388045
 10
130.4125080591
 20
93.9714774822
 10
130.4447111635
 20
93.9447004989
 10
130.4788164084
 20
93.9236358335
  0
LWPOLYLINE
  5
231
100
AcDbEntity
  8
0
100
AcDbPolyline
 62
253
  6
CONTINUOUS
 90
12
 70
0
 10
130.2585340194
 20
94.4217503976
 10
130.2624614887
 20
94.3559574715
 10
130.2698329851
 20
94.293453946
 10
130.2806081975
 20
94.2345486165
 10
130.2947212132
 20
94.1795397053
 10
130.3121034421
 20
94.1286925685
 10
130.3326864298
 20
94.0822413161
 10
130.3563611731
 20
94.0404186496
 10
130.383005347
 20
94.0034388045
 10
130.4125080591
 20
93.9714774822
 10
130.4447111635
 20
93.9447004989
 10
130.4788164084
 20
93.9236358335
  0
LWPOLYLINE
  5
232
100
AcDbEntity
  8
ASSI
100
AcDbPolyline
 62
7
  6
CONTINUOUS
 90
14
 70
0
 10
130.0720790412
 20
94.6474011931
 10
130.0730945785
 20
94.6220381706
 10
130.0809644199
 20
94.5324225645
 10
130.0950940491
 20
94.4483948573
 10
130.1151723222
 20
94.3698323937
 10
130.1409792106
 20
94.2964322801
 10
130.1723399275
 20
94.228084858
 10
130.2089283668
 20
94.1650046946
 10
130.2504605303
 20
94.1072696785
 10
130.2966584318
 20
94.0549990745
 10
130.3469751688
 20
94.0085711958
 10
130.4009087641
 20
93.968173927
 10
130.4581166689
 20
93.9338638717
 10
130.4926665298
 20
93.91679229
  0
LWPOLYLINE
  5
233
100
AcDbEntity
  8
0
100
AcDbPolyline
 62
7
  6
CONTINUOUS
 90
14
 70
0
 10
130.0720790412
 20
94.6474011931
 10
130.0730945785
 20
94.6220381706
 10
130.0809644199
 20
94.5324225645
 10
130.0950940491
 20
94.4483948573
 10
130.1151723222
 20
94.3698323937
 10
130.1409792106
 20
94.2964322801
 10
130.1723399275
 20
94.228084858
 10
130.2089283668
 20
94.1650046946
 10
130.2504605303
 20
94.1072696785
 10
130.2966584318
 20
94.0549990745
 10
130.3469751688
 20
94.0085711958
 10
130.4009087641
 20
93.968173927
 10
130.4581166689
 20
93.9338638717
 10
130.4926665298
 20
93.91679229
  0
LWPOLYLINE
  5
234
100
AcDbEntity
  8
ASSI
100
AcDbPolyline
 62
253
  6
CONTINUOUS
 90
9
 70
0
 10
130.0033720903
 20
111.9173514481
 10
130.0047735018
 20
111.8753205171
 10
130.010086686
 20
111.8368402255
 10
130.0188641885
 20
111.8018417151
 10
130.0306442239
 20
111.7703245892
 10
130.0455885348
 20
111.7425019282
 10
130.0639611863
 20
111.7188195612
 10
130.0849515383
 20
111.6998512362
 10
130.1079841938
 20
111.6858610468
  0
LWPOLYLINE
  5
235
100
AcDbEntity
  8
0
100
AcDbPolyline
 62
253
  6
CONTINUOUS
 90
9
 70
0
 10
130.0033720903
 20
111.9173514481
 10
130.0047735018
 20
111.8753205171
 10
130.010086686
 20
111.8368402255
 10
130.0188641885
 20
111.8018417151
 10
130.0306442239
 20
111.7703245892
 10
130.0455885348
 20
111.7425019282
 10
130.0639611863
 20
111.7188195612
 10
130.0849515383
 20
111.6998512362
 10
130.1079841938
 20
111.6858610468
  0
LWPOLYLINE
  5
236
100
AcDbEntity
  8
ASSI
100
AcDbPolyline
 62
7
  6
CONTINUOUS
 90
10
 70
0
 10
129.8240643928
 20
110.9264189157
 10
129.8285868628
 20
109.1498674635
 10
129.8389651273
 20
107.3122216064
 10
129.8551364856
 20
105.4794942466
 10
129.8771015473
 20
103.6517249321
 10
129.9048604621
 20
101.8289507535
 10
129.9384133712
 20
100.011207807
 10
129.9777597338
 20
98.1985373323
 10
130.0228983846
 20
96.390985255
 10
130.0720672551
 20
94.647584291
  0
LWPOLYLINE
  5
237
100
AcDbEntity
  8
0
100
AcDbPolyline
 62
7
  6
CONTINUOUS
 90
10
 70
0
 10
129.8240643928
 20
110.9264189157
 10
129.8285868628
 20
109.1498674635
 10
129.8389651273
 20
107.3122216064
 10
129.8551364856
 20
105.4794942466
 10
129.8771015473
 20
103.6517249321
 10
129.9048604621
 20
101.8289507535
 10
129.9384133712
 20
100.011207807
 10
129.9777597338
 20
98.1985373323
 10
130.0228983846
 20
96.390985255
 10
130.0720672551
 20
94.647584291
  0
LWPOLYLINE
  5
238
100
AcDbEntity
  8
ASSI
100
AcDbPolyline
 62
253
  6
CONTINUOUS
 90
10
 70
0
 10
130.003372259
 20
110.7062831255
 10
130.0076662101
 20
109.0172426149
 10
130.017136268
 20
107.3073103701
 10
130.0320111558
 20
105.5767086105
 10
130.0523511416
 20
103.8388339912
 10
130.0784787996
 20
102.0806794964
 10
130.1113979028
 20
100.2631904211
 10
130.1520430888
 20
98.373891101
 10
130.200861173
 20
96.426529992
 10
130.2585340134
 20
94.4217503867
  0
LWPOLYLINE
  5
239
100
AcDbEntity
  8
0
100
AcDbPolyline
 62
253
  6
CONTINUOUS
 90
10
 70
0
 10
130.003372259
 20
110.7062831255
 10
130.0076662101
 20
109.0172426149
 10
130.017136268
 20
107.3073103701
 10
130.0320111558
 20
105.5767086105
 10
130.0523511416
 20
103.8388339912
 10
130.0784787996
 20
102.0806794964
 10
130.1113979028
 20
100.2631904211
 10
130.1520430888
 20
98.373891101
 10
130.200861173
 20
96.426529992
 10
130.2585340134
 20
94.4217503867
  0
LWPOLYLINE
  5
23A
100
AcDbEntity
  8
ASSI
100
AcDbPolyline
 62
7
  6
CONTINUOUS
 90
10
 70
0
 10
130.072046014
 20
128.8448222722
 10
130.0230248208
 20
127.021996541
 10
129.9778738452
 20
125.1363964883
 10
129.9385141262
 20
123.2556940574
 10
129.9049468535
 20
121.3799352878
 10
129.8771725723
 20
119.5091601208
 10
129.8551916039
 20
117.6434061729
 10
129.8390040651
 20
115.7827114723
 10
129.8286090382
 20
113.9271150433
 10
129.8240644455
 20
112.1372731599
  0
LWPOLYLINE
  5
23B
100
AcDbEntity
  8
0
100
AcDbPolyline
 62
7
  6
CONTINUOUS
 90
10
 70
0
 10
130.072046014
 20
128.8448222722
 10
130.0230248208
 20
127.021996541
 10
129.9778738452
 20
125.1363964883
 10
129.9385141262
 20
123.2556940574
 10
129.9049468535
 20
121.3799352878
 10
129.8771725723
 20
119.5091601208
 10
129.8551916039
 20
117.6434061729
 10
129.8390040651
 20
115.7827114723
 10
129.8286090382
 20
113.9271150433
 10
129.8240644455
 20
112.1372731599
  0
LWPOLYLINE
  5
23C
100
AcDbEntity
  8
ASSI
100
AcDbPolyline
 62
253
  6
CONTINUOUS
 90
10
 70
0
 10
130.258534015
 20
128.6250630742
 10
130.2050033989
 20
126.6846199569
 10
130.1584928241
 20
124.7811615723
 10
130.1186935965
 20
122.9144923067
 10
130.0856531475
 20
121.1053670467
 10
130.0585936571
 20
119.3325383244
 10
130.036552402
 20
117.533260587
 10
130.0196601187
 20
115.6870014394
 10
130.0085001391
 20
113.8149373719
 10
130.0033722501
 20
111.9173513703
  0
LWPOLYLINE
  5
23D
100
AcDbEntity
  8
0
100
AcDbPolyline
 62
253
  6
CONTINUOUS
 90
10
 70
0
 10
130.258534015
 20
128.6250630742
 10
130.2050033989
 20
126.6846199569
 10
130.1584928241
 20
124.7811615723
 10
130.1186935965
 20
122.9144923067
 10
130.0856531475
 20
121.1053670467
 10
130.0585936571
 20
119.3325383244
 10
130.036552402
 20
117.533260587
 10
130.0196601187
 20
115.6870014394
 10
130.0085001391
 20
113.8149373719
 10
130.0033722501
 20
111.9173513703
  0
LWPOLYLINE
  5
23E
100
AcDbEntity
  8
ASSI
100
AcDbPolyline
 62
253
  6
CONTINUOUS
 90
16
 70
0
 10
130.0033720366
 20
110.7062831622
 10
130.0047734705
 20
110.7510610901
 10
130.0100870442
 20
110.7965424982
 10
130.0188651718
 20
110.8428513042
 10
130.0306458888
 20
110.8905144824
 10
130.0455909027
 20
110.9392195574
 10
130.0639643203
 20
110.9875742275
 10
130.0849553193
 20
111.0350233154
 10
130.1082336675
 20
111.0815926652
 10
130.1342929356
 20
111.1264119352
 10
130.1623769345
 20
111.1689475292
 10
130.1917793261
 20
111.2089777965
 10
130.2230277029
 20
111.2458977252
 10
130.2558064032
 20
111.2792402689
 10
130.288910352
 20
111.3088195105
 10
130.3215614604
 20
111.3344438166
  0
LWPOLYLINE
  5
23F
100
AcDbEntity
  8
0
100
AcDbPolyline
 62
253
  6
CONTINUOUS
 90
16
 70
0
 10
130.0033720366
 20
110.7062831622
 10
130.0047734705
 20
110.7510610901
 10
130.0100870442
 20
110.7965424982
 10
130.0188651718
 20
110.8428513042
 10
130.0306458888
 20
110.8905144824
 10
130.0455909027
 20
110.9392195574
 10
130.0639643203
 20
110.9875742275
 10
130.0849553193
 20
111.0350233154
 10
130.1082336675
 20
111.0815926652
 10
130.1342929356
 20
111.1264119352
 10
130.1623769345
 20
111.1689475292
 10
130.1917793261
 20
111.2089777965
 10
130.2230277029
 20
111.2458977252
 10
130.2558064032
 20
111.2792402689
 10
130.288910352
 20
111.3088195105
 10
130.3215614604
 20
111.3344438166
  0
LINE
  5
240
100
AcDbEntity
  8
ASSI
100
AcDbLine
 62
7
  6
CONTINUOUS
 10
147.2984821528
 20
125.3939693535
 11
146.6625772357
 21
125.1978022693
  0
LINE
  5
241
100
AcDbEntity
  8
0
100
AcDbLine
 62
7
  6
CONTINUOUS
 10
147.2984821528
 20
125.3939693535
 11
146.6625772357
 21
125.1978022693
  0
LWPOLYLINE
  5
242
100
AcDbEntity
  8
0
100
AcDbPolyline
 62
253
  6
CONTINUOUS
 90
16
 70
0
 10
165.5294165748
 20
80.256168763
 10
165.572746144
 20
80.2430074326
 10
165.6181614859
 20
80.2325214177
 10
165.6652222573
 20
80.2248123897
 10
165.7134721609
 20
80.2199550947
 10
165.7624433698
 20
80.2179966286
 10
165.8116610633
 20
80.2189559806
 10
165.8606480307
 20
80.2228238488
 10
165.9089292986
 20
80.2295627307
 10
165.956036736
 20
80.2391072868
 10
166.0015135931
 20
80.2513649738
 10
166.0449189302
 20
80.2662169423
 10
166.0858318927
 20
80.2835191887
 10
166.1238557922
 20
80.303103952
 10
166.158621952
 20
80.32478134
 10
166.1897932825
 20
80.3483411706
  0
LWPOLYLINE
  5
243
100
AcDbEntity
  8
ASSI
100
AcDbPolyline
 62
253
  6
CONTINUOUS
 90
16
 70
0
 10
165.5294165748
 20
80.256168763
 10
165.572746144
 20
80.2430074326
 10
165.6181614859
 20
80.2325214177
 10
165.6652222573
 20
80.2248123897
 10
165.7134721609
 20
80.2199550947
 10
165.7624433698
 20
80.2179966286
 10
165.8116610633
 20
80.2189559806
 10
165.8606480307
 20
80.2228238488
 10
165.9089292986
 20
80.2295627307
 10
165.956036736
 20
80.2391072868
 10
166.0015135931
 20
80.2513649738
 10
166.0449189302
 20
80.2662169423
 10
166.0858318927
 20
80.2835191887
 10
166.1238557922
 20
80.303103952
 10
166.158621952
 20
80.32478134
 10
166.1897932825
 20
80.3483411706
  0
LWPOLYLINE
  5
244
100
AcDbEntity
  8
0
100
AcDbPolyline
 62
7
  6
CONTINUOUS
 90
12
 70
0
 10
165.7744408955
 20
79.7467576057
 10
165.8067560577
 20
79.7363144555
 10
165.8744439922
 20
79.7200907812
 10
165.9442188047
 20
79.710839994
 10
166.0155560453
 20
79.7087744095
 10
166.0882867304
 20
79.7141100081
 10
166.1619705313
 20
79.7270951994
 10
166.2359271715
 20
79.7478514131
 10
166.3099458877
 20
79.7765723549
 10
166.3838643164
 20
79.8135351145
 10
166.4572865255
 20
79.8588774363
 10
166.4709489055
 20
79.8683080312
  0
LWPOLYLINE
  5
245
100
AcDbEntity
  8
ASSI
100
AcDbPolyline
 62
7
  6
CONTINUOUS
 90
12
 70
0
 10
165.7744408955
 20
79.7467576057
 10
165.8067560577
 20
79.7363144555
 10
165.8744439922
 20
79.7200907812
 10
165.9442188047
 20
79.710839994
 10
166.0155560453
 20
79.7087744095
 10
166.0882867304
 20
79.7141100081
 10
166.1619705313
 20
79.7270951994
 10
166.2359271715
 20
79.7478514131
 10
166.3099458877
 20
79.7765723549
 10
166.3838643164
 20
79.8135351145
 10
166.4572865255
 20
79.8588774363
 10
166.4709489055
 20
79.8683080312
  0
LINE
  5
246
100
AcDbEntity
  8
ASSI
100
AcDbLine
 62
7
  6
CONTINUOUS
 10
134.4438705372
 20
130.0939364262
 11
134.4445394496
 21
130.1048416934
  0
LINE
  5
247
100
AcDbEntity
  8
0
100
AcDbLine
 62
7
  6
CONTINUOUS
 10
134.4438705372
 20
130.0939364262
 11
134.4445394496
 21
130.1048416934
  0
LINE
  5
248
100
AcDbEntity
  8
ASSI
100
AcDbLine
 62
7
  6
CONTINUOUS
 10
134.5056917051
 20
130.5318424039
 11
134.4445394496
 21
130.1048416934
  0
LINE
  5
249
100
AcDbEntity
  8
0
100
AcDbLine
 62
7
  6
CONTINUOUS
 10
134.5056917051
 20
130.5318424039
 11
134.4445394496
 21
130.1048416934
  0
LWPOLYLINE
  5
24A
100
AcDbEntity
  8
ASSI
100
AcDbPolyline
 62
7
  6
CONTINUOUS
 90
10
 70
0
 10
129.9937909653
 20
111.3023260901
 10
129.9697576957
 20
111.27973219
 10
129.9370073607
 20
111.2434568257
 10
129.907978877
 20
111.2041933761
 10
129.8830154207
 20
111.1624669459
 10
129.862224972
 20
111.1185178647
 10
129.8457153589
 20
111.0724753911
 10
129.8337189952
 20
111.024716324
 10
129.8264629556
 20
110.9758498702
 10
129.8240643926
 20
110.9264189135
  0
LWPOLYLINE
  5
24B
100
AcDbEntity
  8
0
100
AcDbPolyline
 62
7
  6
CONTINUOUS
 90
10
 70
0
 10
129.9937909653
 20
111.3023260901
 10
129.9697576957
 20
111.27973219
 10
129.9370073607
 20
111.2434568257
 10
129.907978877
 20
111.2041933761
 10
129.8830154207
 20
111.1624669459
 10
129.862224972
 20
111.1185178647
 10
129.8457153589
 20
111.0724753911
 10
129.8337189952
 20
111.024716324
 10
129.8264629556
 20
110.9758498702
 10
129.8240643926
 20
110.9264189135
  0
LINE
  5
24C
100
AcDbEntity
  8
ASSI
100
AcDbLine
 62
7
  6
CONTINUOUS
 10
129.9938502898
 20
111.3023782856
 11
130.3174250101
 21
111.5869709647
  0
LINE
  5
24D
100
AcDbEntity
  8
0
100
AcDbLine
 62
7
  6
CONTINUOUS
 10
129.9938502898
 20
111.3023782856
 11
130.3174250101
 21
111.5869709647
  0
LINE
  5
24E
100
AcDbEntity
  8
ASSI
100
AcDbLine
 62
253
  6
CONTINUOUS
 10
130.3215614873
 20
111.3344438399
 11
130.5069407554
 21
111.4974898977
  0
LINE
  5
24F
100
AcDbEntity
  8
0
100
AcDbLine
 62
253
  6
CONTINUOUS
 10
130.3215614873
 20
111.3344438399
 11
130.5069407554
 21
111.4974898977
  0
LWPOLYLINE
  5
250
100
AcDbEntity
  8
ASSI
100
AcDbPolyline
 62
253
  6
CONTINUOUS
 90
10
 70
0
 10
129.9938496537
 20
111.3023777261
 10
130.0120353565
 20
111.3168131922
 10
130.042700345
 20
111.3353664028
 10
130.076466634
 20
111.3494347981
 10
130.1129718751
 20
111.3588612069
 10
130.1518108326
 20
111.3635352472
 10
130.1925464067
 20
111.363402252
 10
130.2347262622
 20
111.3584643127
 10
130.2778896634
 20
111.3487759604
 10
130.3215614607
 20
111.3344438165
  0
LWPOLYLINE
  5
251
100
AcDbEntity
  8
0
100
AcDbPolyline
 62
253
  6
CONTINUOUS
 90
10
 70
0
 10
129.9938496537
 20
111.3023777261
 10
130.0120353565
 20
111.3168131922
 10
130.042700345
 20
111.3353664028
 10
130.076466634
 20
111.3494347981
 10
130.1129718751
 20
111.3588612069
 10
130.1518108326
 20
111.3635352472
 10
130.1925464067
 20
111.363402252
 10
130.2347262622
 20
111.3584643127
 10
130.2778896634
 20
111.3487759604
 10
130.3215614607
 20
111.3344438165
  0
LINE
  5
252
100
AcDbEntity
  8
ASSI
100
AcDbLine
 62
253
  6
CONTINUOUS
 10
148.2572000813
 20
87.3455168456
 11
148.2316445595
 21
87.3421262098
  0
LINE
  5
253
100
AcDbEntity
  8
0
100
AcDbLine
 62
253
  6
CONTINUOUS
 10
148.2572000813
 20
87.3455168456
 11
148.2316445595
 21
87.3421262098
  0
LWPOLYLINE
  5
254
100
AcDbEntity
  8
ASSI
100
AcDbPolyline
 62
253
  6
CONTINUOUS
 90
4
 70
0
 10
148.2316445595
 20
87.3421262098
 10
148.2059899819
 20
87.3419000794
 10
148.1812773442
 20
87.344922592
 10
148.1578722328
 20
87.3511486702
  0
LWPOLYLINE
  5
255
100
AcDbEntity
  8
0
100
AcDbPolyline
 62
253
  6
CONTINUOUS
 90
4
 70
0
 10
148.2316445595
 20
87.3421262098
 10
148.2059899819
 20
87.3419000794
 10
148.1812773442
 20
87.344922592
 10
148.1578722328
 20
87.3511486702
  0
LWPOLYLINE
  5
256
100
AcDbEntity
  8
ASSI
100
AcDbPolyline
 62
253
  6
CONTINUOUS
 90
16
 70
0
 10
147.3442411916
 20
87.559745172
 10
147.3875707607
 20
87.5465838417
 10
147.4329861027
 20
87.5360978268
 10
147.4800468741
 20
87.5283887988
 10
147.5282967777
 20
87.5235315038
 10
147.5772679866
 20
87.5215730377
 10
147.6264856801
 20
87.5225323896
 10
147.6754726475
 20
87.5264002579
 10
147.7237539154
 20
87.5331391398
 10
147.7708613528
 20
87.5426836959
 10
147.8163382099
 20
87.5549413829
 10
147.8597435469
 20
87.5697933513
 10
147.9006565095
 20
87.5870955978
 10
147.938680409
 20
87.6066803611
 10
147.9734465688
 20
87.6283577491
 10
148.0046178993
 20
87.6519175797
  0
LWPOLYLINE
  5
257
100
AcDbEntity
  8
0
100
AcDbPolyline
 62
253
  6
CONTINUOUS
 90
16
 70
0
 10
147.3442411916
 20
87.559745172
 10
147.3875707607
 20
87.5465838417
 10
147.4329861027
 20
87.5360978268
 10
147.4800468741
 20
87.5283887988
 10
147.5282967777
 20
87.5235315038
 10
147.5772679866
 20
87.5215730377
 10
147.6264856801
 20
87.5225323896
 10
147.6754726475
 20
87.5264002579
 10
147.7237539154
 20
87.5331391398
 10
147.7708613528
 20
87.5426836959
 10
147.8163382099
 20
87.5549413829
 10
147.8597435469
 20
87.5697933513
 10
147.9006565095
 20
87.5870955978
 10
147.938680409
 20
87.6066803611
 10
147.9734465688
 20
87.6283577491
 10
148.0046178993
 20
87.6519175797
  0
LWPOLYLINE
  5
258
100
AcDbEntity
  8
ASSI
100
AcDbPolyline
 62
7
  6
CONTINUOUS
 90
12
 70
0
 10
147.5892655123
 20
87.0503340148
 10
147.6215806745
 20
87.0398908646
 10
147.689268609
 20
87.0236671903
 10
147.7590434215
 20
87.0144164031
 10
147.8303806621
 20
87.0123508186
 10
147.9031113472
 20
87.0176864172
 10
147.9767951481
 20
87.0306716085
 10
148.0507517883
 20
87.0514278222
 10
148.1247705045
 20
87.080148764
 10
148.1986889332
 20
87.1171115236
 10
148.2721111423
 20
87.1624538454
 10
148.2767639141
 20
87.1656654678
  0
LWPOLYLINE
  5
259
100
AcDbEntity
  8
0
100
AcDbPolyline
 62
7
  6
CONTINUOUS
 90
12
 70
0
 10
147.5892655123
 20
87.0503340148
 10
147.6215806745
 20
87.0398908646
 10
147.689268609
 20
87.0236671903
 10
147.7590434215
 20
87.0144164031
 10
147.8303806621
 20
87.0123508186
 10
147.9031113472
 20
87.0176864172
 10
147.9767951481
 20
87.0306716085
 10
148.0507517883
 20
87.0514278222
 10
148.1247705045
 20
87.080148764
 10
148.1986889332
 20
87.1171115236
 10
148.2721111423
 20
87.1624538454
 10
148.2767639141
 20
87.1656654678
  0
LWPOLYLINE
  5
25A
100
AcDbEntity
  8
ASSI
100
AcDbPolyline
 62
253
  6
CONTINUOUS
 90
13
 70
0
 10
148.1578722328
 20
87.3511486702
 10
148.1357940931
 20
87.3606275023
 10
148.1150234798
 20
87.3733099001
 10
148.0958676437
 20
87.3890032203
 10
148.078352352
 20
87.4077517467
 10
148.0624518375
 20
87.4295111957
 10
148.0483960499
 20
87.4539560725
 10
148.0362113644
 20
87.4811427216
 10
148.0258714058
 20
87.5110147986
 10
148.0175269976
 20
87.5430777757
 10
148.0112284144
 20
87.5771668103
 10
148.0069253816
 20
87.613446745
 10
148.0046178993
 20
87.6519175797
  0
LWPOLYLINE
  5
25B
100
AcDbEntity
  8
0
100
AcDbPolyline
 62
253
  6
CONTINUOUS
 90
13
 70
0
 10
148.1578722328
 20
87.3511486702
 10
148.1357940931
 20
87.3606275023
 10
148.1150234798
 20
87.3733099001
 10
148.0958676437
 20
87.3890032203
 10
148.078352352
 20
87.4077517467
 10
148.0624518375
 20
87.4295111957
 10
148.0483960499
 20
87.4539560725
 10
148.0362113644
 20
87.4811427216
 10
148.0258714058
 20
87.5110147986
 10
148.0175269976
 20
87.5430777757
 10
148.0112284144
 20
87.5771668103
 10
148.0069253816
 20
87.613446745
 10
148.0046178993
 20
87.6519175797
  0
LWPOLYLINE
  5
25C
100
AcDbEntity
  8
ASSI
100
AcDbPolyline
 62
253
  6
CONTINUOUS
 90
13
 70
0
 10
147.5892586915
 20
87.0503364467
 10
147.5554684272
 20
87.0651309309
 10
147.5220810994
 20
87.0860437161
 10
147.4911689306
 20
87.1123022309
 10
147.4628736169
 20
87.1437786352
 10
147.4373192605
 20
87.1803207854
 10
147.4146528474
 20
87.2217384845
 10
147.3949803704
 20
87.2678240569
 10
147.3783839635
 20
87.3183555923
 10
147.3649561939
 20
87.3730892934
 10
147.3547645506
 20
87.4317602447
 10
147.3478490951
 20
87.4940806065
 10
147.3442411914
 20
87.5597451763
  0
LWPOLYLINE
  5
25D
100
AcDbEntity
  8
0
100
AcDbPolyline
 62
253
  6
CONTINUOUS
 90
13
 70
0
 10
147.5892586915
 20
87.0503364467
 10
147.5554684272
 20
87.0651309309
 10
147.5220810994
 20
87.0860437161
 10
147.4911689306
 20
87.1123022309
 10
147.4628736169
 20
87.1437786352
 10
147.4373192605
 20
87.1803207854
 10
147.4146528474
 20
87.2217384845
 10
147.3949803704
 20
87.2678240569
 10
147.3783839635
 20
87.3183555923
 10
147.3649561939
 20
87.3730892934
 10
147.3547645506
 20
87.4317602447
 10
147.3478490951
 20
87.4940806065
 10
147.3442411914
 20
87.5597451763
  0
LWPOLYLINE
  5
25E
100
AcDbEntity
  8
0
100
AcDbPolyline
 62
253
  6
CONTINUOUS
 90
13
 70
0
 10
165.7744340747
 20
79.7467600376
 10
165.7406438104
 20
79.7615545218
 10
165.7072564826
 20
79.782467307
 10
165.6763443138
 20
79.8087258218
 10
165.6480490001
 20
79.8402022261
 10
165.6224946437
 20
79.8767443763
 10
165.5998282306
 20
79.9181620754
 10
165.5801557537
 20
79.9642476478
 10
165.5635593467
 20
80.0147791832
 10
165.5501315771
 20
80.0695128843
 10
165.5399399339
 20
80.1281838356
 10
165.5330244783
 20
80.1905041974
 10
165.5294165746
 20
80.2561687672
  0
LWPOLYLINE
  5
25F
100
AcDbEntity
  8
ASSI
100
AcDbPolyline
 62
253
  6
CONTINUOUS
 90
13
 70
0
 10
165.7744340747
 20
79.7467600376
 10
165.7406438104
 20
79.7615545218
 10
165.7072564826
 20
79.782467307
 10
165.6763443138
 20
79.8087258218
 10
165.6480490001
 20
79.8402022261
 10
165.6224946437
 20
79.8767443763
 10
165.5998282306
 20
79.9181620754
 10
165.5801557537
 20
79.9642476478
 10
165.5635593467
 20
80.0147791832
 10
165.5501315771
 20
80.0695128843
 10
165.5399399339
 20
80.1281838356
 10
165.5330244783
 20
80.1905041974
 10
165.5294165746
 20
80.2561687672
  0
LWPOLYLINE
  5
260
100
AcDbEntity
  8
ASSI
100
AcDbPolyline
 62
7
  6
CONTINUOUS
 90
10
 70
0
 10
130.4921449214
 20
93.9170276844
 10
132.2355091578
 20
93.1287926823
 10
134.0955318089
 20
92.3116063207
 10
135.9768183502
 20
91.5092408079
 10
137.878946655
 20
90.7218818239
 10
139.801489816
 20
89.9497101813
 10
141.7440081155
 20
89.192897202
 10
143.7060503756
 20
88.451605151
 10
145.6871600478
 20
87.7259915681
 10
147.5901622024
 20
87.0500184009
  0
LWPOLYLINE
  5
261
100
AcDbEntity
  8
0
100
AcDbPolyline
 62
7
  6
CONTINUOUS
 90
10
 70
0
 10
130.4921449214
 20
93.9170276844
 10
132.2355091578
 20
93.1287926823
 10
134.0955318089
 20
92.3116063207
 10
135.9768183502
 20
91.5092408079
 10
137.878946655
 20
90.7218818239
 10
139.801489816
 20
89.9497101813
 10
141.7440081155
 20
89.192897202
 10
143.7060503756
 20
88.451605151
 10
145.6871600478
 20
87.7259915681
 10
147.5901622024
 20
87.0500184009
  0
LWPOLYLINE
  5
262
100
AcDbEntity
  8
0
100
AcDbPolyline
 62
7
  6
CONTINUOUS
 90
10
 70
0
 10
148.6773203046
 20
86.6134512753
 10
150.420684541
 20
85.8252162732
 10
152.2807071921
 20
85.0080299116
 10
154.1619937335
 20
84.2056643988
 10
156.0641220383
 20
83.4183054148
 10
157.9866651992
 20
82.6461337722
 10
159.9291834987
 20
81.8893207929
 10
161.8912257588
 20
81.1480287419
 10
163.8723354311
 20
80.4224151591
 10
165.7753375856
 20
79.7464419919
  0
LWPOLYLINE
  5
263
100
AcDbEntity
  8
ASSI
100
AcDbPolyline
 62
7
  6
CONTINUOUS
 90
10
 70
0
 10
148.6773203046
 20
86.6134512753
 10
150.420684541
 20
85.8252162732
 10
152.2807071921
 20
85.0080299116
 10
154.1619937335
 20
84.2056643988
 10
156.0641220383
 20
83.4183054148
 10
157.9866651992
 20
82.6461337722
 10
159.9291834987
 20
81.8893207929
 10
161.8912257588
 20
81.1480287419
 10
163.8723354311
 20
80.4224151591
 10
165.7753375856
 20
79.7464419919
  0
LWPOLYLINE
  5
264
100
AcDbEntity
  8
ASSI
100
AcDbPolyline
 62
253
  6
CONTINUOUS
 90
31
 70
0
 10
130.2585340134
 20
94.4217503867
 10
130.7867162357
 20
94.1795737735
 10
131.3164914252
 20
93.9387797078
 10
131.8478482348
 20
93.6993708497
 10
132.380650374
 20
93.461405379
 10
132.9150106199
 20
93.2248297292
 10
133.451294871
 20
92.9894816253
 10
133.9896698338
 20
92.7552907232
 10
134.5299541995
 20
92.5223386168
 10
135.0719940149
 20
92.2906925612
 10
135.6157431058
 20
92.0603721208
 10
136.1612286612
 20
91.8313656748
 10
136.7084049824
 20
91.6036923152
 10
137.2573378531
 20
91.3773247417
 10
137.807942434
 20
91.1522981241
 10
138.3599442811
 20
90.9287229878
 10
138.9129737893
 20
90.7067439031
 10
139.4673738041
 20
90.4862177737
 10
140.0239433641
 20
90.2668275991
 10
140.5816189911
 20
90.0489930628
 10
141.1414473563
 20
89.8323040972
 10
141.7074350996
 20
89.6152350361
 10
142.2786560317
 20
89.3981870379
 10
142.8560898105
 20
89.180829989
 10
143.4466972832
 20
88.9606246949
 10
144.0507696644
 20
88.737593473
 10
144.6681982174
 20
88.5119041928
 10
145.305462704
 20
88.2813436002
 10
145.9648502013
 20
88.0453015351
 10
146.6443912213
 20
87.8047138439
 10
147.3442411903
 20
87.5597451823
  0
LWPOLYLINE
  5
265
100
AcDbEntity
  8
0
100
AcDbPolyline
 62
253
  6
CONTINUOUS
 90
31
 70
0
 10
130.2585340134
 20
94.4217503867
 10
130.7867162357
 20
94.1795737735
 10
131.3164914252
 20
93.9387797078
 10
131.8478482348
 20
93.6993708497
 10
132.380650374
 20
93.461405379
 10
132.9150106199
 20
93.2248297292
 10
133.451294871
 20
92.9894816253
 10
133.9896698338
 20
92.7552907232
 10
134.5299541995
 20
92.5223386168
 10
135.0719940149
 20
92.2906925612
 10
135.6157431058
 20
92.0603721208
 10
136.1612286612
 20
91.8313656748
 10
136.7084049824
 20
91.6036923152
 10
137.2573378531
 20
91.3773247417
 10
137.807942434
 20
91.1522981241
 10
138.3599442811
 20
90.9287229878
 10
138.9129737893
 20
90.7067439031
 10
139.4673738041
 20
90.4862177737
 10
140.0239433641
 20
90.2668275991
 10
140.5816189911
 20
90.0489930628
 10
141.1414473563
 20
89.8323040972
 10
141.7074350996
 20
89.6152350361
 10
142.2786560317
 20
89.3981870379
 10
142.8560898105
 20
89.180829989
 10
143.4466972832
 20
88.9606246949
 10
144.0507696644
 20
88.737593473
 10
144.6681982174
 20
88.5119041928
 10
145.305462704
 20
88.2813436002
 10
145.9648502013
 20
88.0453015351
 10
146.6443912213
 20
87.8047138439
 10
147.3442411903
 20
87.5597451823
  0
LWPOLYLINE
  5
266
100
AcDbEntity
  8
0
100
AcDbPolyline
 62
253
  6
CONTINUOUS
 90
31
 70
0
 10
148.4437093966
 20
87.1181739776
 10
148.971891619
 20
86.8759973644
 10
149.5016668084
 20
86.6352032987
 10
150.033023618
 20
86.3957944406
 10
150.5658257572
 20
86.1578289699
 10
151.1001860031
 20
85.9212533201
 10
151.6364702543
 20
85.6859052162
 10
152.174845217
 20
85.4517143141
 10
152.7151295827
 20
85.2187622077
 10
153.2571693981
 20
84.9871161521
 10
153.800918489
 20
84.7567957117
 10
154.3464040445
 20
84.5277892657
 10
154.8935803656
 20
84.3001159062
 10
155.4425132363
 20
84.0737483327
 10
155.9931178172
 20
83.848721715
 10
156.5451196643
 20
83.6251465787
 10
157.0981491725
 20
83.403167494
 10
157.6525491873
 20
83.1826413646
 10
158.2091187474
 20
82.9632511901
 10
158.7667943743
 20
82.7454166537
 10
159.3266227395
 20
82.5287276882
 10
159.8926104828
 20
82.311658627
 10
160.4638314149
 20
82.0946106288
 10
161.0412651937
 20
81.87725358
 10
161.6318726664
 20
81.6570482858
 10
162.2359450476
 20
81.4340170639
 10
162.8533736006
 20
81.2083277837
 10
163.4906380873
 20
80.9777671912
 10
164.1500255845
 20
80.741725126
 10
164.8295666045
 20
80.5011374348
 10
165.5294165735
 20
80.2561687732
  0
LWPOLYLINE
  5
267
100
AcDbEntity
  8
ASSI
100
AcDbPolyline
 62
253
  6
CONTINUOUS
 90
31
 70
0
 10
148.4437093966
 20
87.1181739776
 10
148.971891619
 20
86.8759973644
 10
149.5016668084
 20
86.6352032987
 10
150.033023618
 20
86.3957944406
 10
150.5658257572
 20
86.1578289699
 10
151.1001860031
 20
85.9212533201
 10
151.6364702543
 20
85.6859052162
 10
152.174845217
 20
85.4517143141
 10
152.7151295827
 20
85.2187622077
 10
153.2571693981
 20
84.9871161521
 10
153.800918489
 20
84.7567957117
 10
154.3464040445
 20
84.5277892657
 10
154.8935803656
 20
84.3001159062
 10
155.4425132363
 20
84.0737483327
 10
155.9931178172
 20
83.848721715
 10
156.5451196643
 20
83.6251465787
 10
157.0981491725
 20
83.403167494
 10
157.6525491873
 20
83.1826413646
 10
158.2091187474
 20
82.9632511901
 10
158.7667943743
 20
82.7454166537
 10
159.3266227395
 20
82.5287276882
 10
159.8926104828
 20
82.311658627
 10
160.4638314149
 20
82.0946106288
 10
161.0412651937
 20
81.87725358
 10
161.6318726664
 20
81.6570482858
 10
162.2359450476
 20
81.4340170639
 10
162.8533736006
 20
81.2083277837
 10
163.4906380873
 20
80.9777671912
 10
164.1500255845
 20
80.741725126
 10
164.8295666045
 20
80.5011374348
 10
165.5294165735
 20
80.2561687732
  0
LWPOLYLINE
  5
268
100
AcDbEntity
  8
ASSI
100
AcDbPolyline
 62
253
  6
CONTINUOUS
 90
10
 70
0
 10
130.2585420363
 20
94.4217565291
 10
130.2217564487
 20
94.4407710636
 10
130.1883652724
 20
94.4619352364
 10
130.1586922591
 20
94.4850438455
 10
130.1330251099
 20
94.5098728361
 10
130.1116126866
 20
94.5361814735
 10
130.094662598
 20
94.5637146764
 10
130.0823391874
 20
94.5922054908
 10
130.0747619393
 20
94.6213776773
 10
130.0720790412
 20
94.6474011931
  0
LWPOLYLINE
  5
269
100
AcDbEntity
  8
0
100
AcDbPolyline
 62
253
  6
CONTINUOUS
 90
10
 70
0
 10
130.2585420363
 20
94.4217565291
 10
130.2217564487
 20
94.4407710636
 10
130.1883652724
 20
94.4619352364
 10
130.1586922591
 20
94.4850438455
 10
130.1330251099
 20
94.5098728361
 10
130.1116126866
 20
94.5361814735
 10
130.094662598
 20
94.5637146764
 10
130.0823391874
 20
94.5922054908
 10
130.0747619393
 20
94.6213776773
 10
130.0720790412
 20
94.6474011931
  0
LWPOLYLINE
  5
26A
100
AcDbEntity
  8
0
100
AcDbPolyline
 62
253
  6
CONTINUOUS
 90
10
 70
0
 10
148.4437174195
 20
87.11818012
 10
148.4069318319
 20
87.1371946545
 10
148.3735406556
 20
87.1583588273
 10
148.3438676423
 20
87.1814674364
 10
148.3182004932
 20
87.2062964271
 10
148.2967880698
 20
87.2326050644
 10
148.2798379812
 20
87.2601382674
 10
148.2675145707
 20
87.2886290817
 10
148.2599373225
 20
87.3178012682
 10
148.2572544244
 20
87.343824784
  0
LWPOLYLINE
  5
26B
100
AcDbEntity
  8
ASSI
100
AcDbPolyline
 62
253
  6
CONTINUOUS
 90
10
 70
0
 10
148.4437174195
 20
87.11818012
 10
148.4069318319
 20
87.1371946545
 10
148.3735406556
 20
87.1583588273
 10
148.3438676423
 20
87.1814674364
 10
148.3182004932
 20
87.2062964271
 10
148.2967880698
 20
87.2326050644
 10
148.2798379812
 20
87.2601382674
 10
148.2675145707
 20
87.2886290817
 10
148.2599373225
 20
87.3178012682
 10
148.2572544244
 20
87.343824784
  0
LINE
  5
26C
100
AcDbEntity
  8
ASSI
100
AcDbLine
 62
7
  6
CONTINUOUS
 10
134.5056917051
 20
130.5318424039
 11
134.5117889708
 21
130.0045557099
  0
LINE
  5
26D
100
AcDbEntity
  8
0
100
AcDbLine
 62
7
  6
CONTINUOUS
 10
134.5056917051
 20
130.5318424039
 11
134.5117889708
 21
130.0045557099
  0
LWPOLYLINE
  5
26E
100
AcDbEntity
  8
0
100
AcDbPolyline
 62
253
  6
CONTINUOUS
 90
55
 70
0
 10
135.0648501514
 20
99.7082297826
 10
135.0643139093
 20
99.8036092561
 10
135.0665526462
 20
99.8977805094
 10
135.0715657287
 20
99.9906675541
 10
135.0793525234
 20
100.0821944021
 10
135.0899123967
 20
100.1722850652
 10
135.1032447153
 20
100.2608635553
 10
135.1193458892
 20
100.347853347
 10
135.1382005035
 20
100.4331757665
 10
135.1597901869
 20
100.5167516027
 10
135.184096568
 20
100.5985016444
 10
135.2111012755
 20
100.6783466808
 10
135.2407859381
 20
100.7562075006
 10
135.2731302584
 20
100.8320095885
 10
135.3081062347
 20
100.9056972113
 10
135.3456839393
 20
100.9772193317
 10
135.3858334446
 20
101.046524912
 10
135.4285248227
 20
101.1135629148
 10
135.4737281461
 20
101.1782823025
 10
135.5214169248
 20
101.2406336323
 10
135.5715784209
 20
101.3005738386
 10
135.6242033345
 20
101.3580614506
 10
135.6792823653
 20
101.4130549973
 10
135.7368062133
 20
101.465513008
 10
135.7967655786
 20
101.5153940116
 10
135.8591333483
 20
101.5626519939
 10
135.9238111591
 20
101.6072227672
 10
135.9906828346
 20
101.6490376006
 10
136.0596321989
 20
101.688027763
 10
136.1305430757
 20
101.7241245234
 10
136.203299289
 20
101.7572591509
 10
136.2777968134
 20
101.7873764656
 10
136.3539802277
 20
101.814475493
 10
136.4318062613
 20
101.8385688096
 10
136.5112316439
 20
101.8596689919
 10
136.592213105
 20
101.8777886165
 10
136.6747073742
 20
101.8929402601
 10
136.7586740455
 20
101.9051313279
 10
136.8440841712
 20
101.9143485402
 10
136.9309116677
 20
101.9205734459
 10
137.0191304517
 20
101.9237875939
 10
137.10871444
 20
101.9239725333
 10
137.199637549
 20
101.9211098129
 10
137.2918515296
 20
101.9151879635
 10
137.3852194697
 20
101.9062234433
 10
137.4795822912
 20
101.8942396921
 10
137.5747809161
 20
101.87926015
 10
137.6706562665
 20
101.8613082568
 10
137.7670492642
 20
101.8404074525
 10
137.8638176327
 20
101.8165838553
 10
137.9608863001
 20
101.7898742959
 10
138.0581969958
 20
101.7603182837
 10
138.1556914494
 20
101.7279553276
 10
138.2533113903
 20
101.6928249368
 10
138.350998548
 20
101.6549666205
  0
LWPOLYLINE
  5
26F
100
AcDbEntity
  8
0
100
AcDbPolyline
 62
253
  6
CONTINUOUS
 90
54
 70
0
 10
135.5458873062
 20
99.5028233697
 10
135.5454284768
 20
99.5844394772
 10
135.547353873
 20
99.6650015459
 10
135.551659326
 20
99.7444429278
 10
135.558340667
 20
99.8226969752
 10
135.567393727
 20
99.8996970402
 10
135.5788143374
 20
99.9753764751
 10
135.5925967141
 20
100.0496700964
 10
135.6087286128
 20
100.1225185779
 10
135.6271961739
 20
100.1938640578
 10
135.647985538
 20
100.2636486742
 10
135.6710828456
 20
100.3318145653
 10
135.6964742371
 20
100.3983038693
 10
135.7241440276
 20
100.4630605081
 10
135.7540692301
 20
100.5260355387
 10
135.7862250321
 20
100.5871818019
 10
135.820586621
 20
100.6464521385
 10
135.8571291845
 20
100.7037993893
 10
135.8958279099
 20
100.7591763951
 10
135.9366605745
 20
100.812537699
 10
135.9796153143
 20
100.8638446539
 10
136.024682855
 20
100.9130603149
 10
136.0718539222
 20
100.9601477374
 10
136.1211192416
 20
101.0050699764
 10
136.172469539
 20
101.0477900873
 10
136.2258804474
 20
101.0882674597
 10
136.2812672297
 20
101.1264468208
 10
136.3385300562
 20
101.1622692326
 10
136.3975690972
 20
101.1956757569
 10
136.4582845228
 20
101.2266074555
 10
136.5205765035
 20
101.2550053902
 10
136.5843556075
 20
101.2808222123
 10
136.6495739956
 20
101.3040569318
 10
136.7161942267
 20
101.3247201479
 10
136.7841788595
 20
101.34282246
 10
136.8534904529
 20
101.3583744674
 10
136.9240915657
 20
101.3713867696
 10
136.9959472257
 20
101.3818655616
 10
137.0690323366
 20
101.3897994217
 10
137.143324271
 20
101.3951725236
 10
137.2188004016
 20
101.3979690414
 10
137.2954381011
 20
101.398173149
 10
137.3732147421
 20
101.3957690202
 10
137.4520888176
 20
101.3907467763
 10
137.5319433016
 20
101.3831203276
 10
137.6126422885
 20
101.3729095319
 10
137.6940498727
 20
101.3601342469
 10
137.7760301486
 20
101.3448143302
 10
137.8584472105
 20
101.3269696394
 10
137.941179483
 20
101.3066223489
 10
138.0241627112
 20
101.2838038988
 10
138.1073469704
 20
101.2585480456
 10
138.1906823361
 20
101.230888546
 10
138.2741188835
 20
101.2008591566
  0
LINE
  5
270
100
AcDbEntity
  8
ASSI
100
AcDbLine
 62
253
  6
CONTINUOUS
 10
134.4445394496
 20
130.1048416934
 11
134.4445394507
 21
130.0939364262
  0
LINE
  5
271
100
AcDbEntity
  8
0
100
AcDbLine
 62
253
  6
CONTINUOUS
 10
134.4445394496
 20
130.1048416934
 11
134.4445394507
 21
130.0939364262
  0
LWPOLYLINE
  5
272
100
AcDbEntity
  8
0
100
AcDbPolyline
 62
253
  6
CONTINUOUS
 90
55
 70
0
 10
135.0177126451
 20
118.5660120873
 10
135.0209468733
 20
118.6634242613
 10
135.0268959439
 20
118.7596928693
 10
135.0355604961
 20
118.8547418215
 10
135.0469411691
 20
118.9484950286
 10
135.0610386021
 20
119.040876401
 10
135.0778512855
 20
119.1318076466
 10
135.0973691161
 20
119.2212016636
 10
135.1195798419
 20
119.3089691476
 10
135.1444712109
 20
119.3950207943
 10
135.1720309711
 20
119.4792672993
 10
135.20223833
 20
119.5616171191
 10
135.2350383324
 20
119.6419697533
 10
135.2703674828
 20
119.7202224625
 10
135.3081622854
 20
119.7962725071
 10
135.3483592444
 20
119.8700171475
 10
135.3909071594
 20
119.9413757387
 10
135.4358040102
 20
120.0103560129
 10
135.4830600718
 20
120.0769877967
 10
135.5326856192
 20
120.1413009166
 10
135.5846909273
 20
120.2033251992
 10
135.6390971931
 20
120.2630819046
 10
135.6959693006
 20
120.320558026
 10
135.7553830557
 20
120.3757319904
 10
135.8174142643
 20
120.4285822244
 10
135.8821387323
 20
120.4790871549
 10
135.9496265272
 20
120.5272108391
 10
136.0199247635
 20
120.572859856
 10
136.0930748172
 20
120.615926415
 10
136.1691180641
 20
120.6563027257
 10
136.2480958805
 20
120.6938809974
 10
136.3161912049
 20
120.7229776242
 10
136.3864307522
 20
120.7499732759
 10
136.4588921167
 20
120.7747849143
 10
136.5336528928
 20
120.7973295016
 10
136.6107906745
 20
120.8175239997
 10
136.6903830562
 20
120.8352853705
 10
136.7724890339
 20
120.8505185018
 10
136.8570932108
 20
120.8630799845
 10
136.9441615919
 20
120.8728143351
 10
137.0336601822
 20
120.8795660702
 10
137.1255549868
 20
120.8831797064
 10
137.2198120106
 20
120.8834997603
 10
137.3163411154
 20
120.8803982093
 10
137.4148275899
 20
120.873856874
 10
137.5149005796
 20
120.8638850359
 10
137.61618923
 20
120.8504919763
 10
137.7183226865
 20
120.8336869766
 10
137.8209300946
 20
120.8134793184
 10
137.9237014044
 20
120.7898839234
 10
138.0265697846
 20
120.7629382753
 10
138.1295292084
 20
120.7326854984
 10
138.2325736493
 20
120.6991687169
 10
138.3356970806
 20
120.6624310548
 10
138.4388934755
 20
120.6225156365
  0
LWPOLYLINE
  5
273
100
AcDbEntity
  8
0
100
AcDbPolyline
 62
253
  6
CONTINUOUS
 90
50
 70
0
 10
135.4985931028
 20
118.36048091
 10
135.5013373166
 20
118.4425234936
 10
135.5063377421
 20
118.5235980924
 10
135.5135920347
 20
118.603641297
 10
135.5230978494
 20
118.6825896981
 10
135.5348528416
 20
118.7603798863
 10
135.5488534156
 20
118.8369482292
 10
135.5650909729
 20
118.9122302018
 10
135.5835556642
 20
118.9861610563
 10
135.6042376402
 20
119.0586760445
 10
135.6271270516
 20
119.1297104186
 10
135.6522082425
 20
119.1991971088
 10
135.6794423311
 20
119.2670597587
 10
135.7087846289
 20
119.3332196901
 10
135.7401904476
 20
119.3975982249
 10
135.7736150986
 20
119.4601166849
 10
135.8090230608
 20
119.5207127545
 10
135.8464154815
 20
119.579389568
 10
135.8858026752
 20
119.636166622
 10
135.9271949563
 20
119.6910634135
 10
135.9706026394
 20
119.7440994392
 10
136.0160475994
 20
119.795288758
 10
136.0635979527
 20
119.8446236769
 10
136.1133333763
 20
119.8920910649
 10
136.1653335471
 20
119.9376777914
 10
136.219678142
 20
119.9813707252
 10
136.2764419055
 20
120.0231423887
 10
136.3356798518
 20
120.0629079164
 10
136.3974420627
 20
120.1005680959
 10
136.4617786201
 20
120.1360237148
 10
136.5287396057
 20
120.1691755608
 10
136.5865887042
 20
120.1949662761
 10
136.6463683285
 20
120.21900432
 10
136.7081517057
 20
120.2412057608
 10
136.7720120628
 20
120.2614866667
 10
136.8380226269
 20
120.2797631061
 10
136.9062566253
 20
120.2959511473
 10
136.976770254
 20
120.3099587689
 10
137.0495515864
 20
120.3216615902
 10
137.1245716647
 20
120.3309271409
 10
137.2018015312
 20
120.3376229504
 10
137.2812122282
 20
120.3416165485
 10
137.3627747981
 20
120.3427754647
 10
137.4464223869
 20
120.340974858
 10
137.5319365555
 20
120.3361204048
 10
137.6190609688
 20
120.328125411
 10
137.7074896206
 20
120.3169373299
 10
137.7967178212
 20
120.3026402037
 10
137.8861912101
 20
120.2853522221
 10
137.9755029529
 20
120.2651617629
  0
LINE
  5
274
100
AcDbEntity
  8
ASSI
100
AcDbLine
 62
7
  6
CONTINUOUS
 10
150.1847843412
 20
124.0827236433
 11
148.7811657946
 21
122.7572398789
  0
LINE
  5
275
100
AcDbEntity
  8
0
100
AcDbLine
 62
7
  6
CONTINUOUS
 10
150.1847843412
 20
124.0827236433
 11
148.7811657946
 21
122.7572398789
  0
LWPOLYLINE
  5
276
100
AcDbEntity
  8
SUPERFICI
100
AcDbPolyline
 62
7
  6
CONTINUOUS
 90
34
 70
0
 10
135.8550373633
 20
112.8838147058
 10
135.8515024161
 20
112.8807406921
 10
135.8184005212
 20
112.8484941974
 10
135.7886716517
 20
112.8129451085
 10
135.7624272177
 20
112.7741358492
 10
135.7395527278
 20
112.7320215578
 10
135.7202969648
 20
112.6870487853
 10
135.7046677374
 20
112.6390498213
 10
135.6926553362
 20
112.5881908711
 10
135.684481983
 20
112.5354191262
 10
135.6802212259
 20
112.4808497192
 10
135.6797985668
 20
112.4243667535
 10
135.6832140147
 20
112.3665707564
 10
135.6905336576
 20
112.3072984713
 10
135.7016920846
 20
112.246713674
 10
135.7164919451
 20
112.1859073456
 10
135.7349566297
 20
112.125005715
 10
135.7570644852
 20
112.0638839076
 10
135.782550343
 20
112.0032560457
 10
135.8115049203
 20
111.9430291297
 10
135.843840423
 20
111.8832984587
 10
135.8790234155
 20
111.8250602064
 10
135.9170585028
 20
111.7684067883
 10
135.9579442514
 20
111.7132482973
 10
136.0011373062
 20
111.6603067434
 10
136.0466962571
 20
111.6095795242
 10
136.0945657309
 20
111.5610718035
 10
136.1440302668
 20
111.5155163238
 10
136.1951401457
 20
111.4729523695
 10
136.2478475808
 20
111.4333426609
 10
136.3012883636
 20
111.3973037875
 10
136.3551743423
 20
111.3650412241
 10
136.4097945562
 20
111.3363502337
 10
136.4651497139
 20
111.3112313987
  0
LINE
  5
277
100
AcDbEntity
  8
ASSI
100
AcDbLine
 62
253
  6
CONTINUOUS
 10
147.9836654942
 20
123.2425721343
 11
149.4859397429
 21
124.5154370702
  0
LINE
  5
278
100
AcDbEntity
  8
0
100
AcDbLine
 62
253
  6
CONTINUOUS
 10
147.9836654942
 20
123.2425721343
 11
149.4859397429
 21
124.5154370702
  0
LINE
  5
279
100
AcDbEntity
  8
ASSI
100
AcDbLine
 62
253
  6
CONTINUOUS
 10
148.4006032601
 20
122.6752641827
 11
149.9210051112
 21
123.9634884908
  0
LINE
  5
27A
100
AcDbEntity
  8
0
100
AcDbLine
 62
253
  6
CONTINUOUS
 10
148.4006032601
 20
122.6752641827
 11
149.9210051112
 21
123.9634884908
  0
LWPOLYLINE
  5
27B
100
AcDbEntity
  8
ASSI
100
AcDbPolyline
 62
7
  6
CONTINUOUS
 90
12
 70
0
 10
135.8550223162
 20
112.8838334292
 10
135.8703015593
 20
112.8963692879
 10
135.9173645506
 20
112.9285285939
 10
135.9688469641
 20
112.9544555508
 10
136.0245679633
 20
112.9742591965
 10
136.0830731222
 20
112.9875227584
 10
136.1443100313
 20
112.9940861922
 10
136.2083357726
 20
112.9941132513
 10
136.2738567288
 20
112.987670134
 10
136.340441777
 20
112.9747789763
 10
136.4085243815
 20
112.9554195184
 10
136.4781063158
 20
112.929593184
  0
LWPOLYLINE
  5
27C
100
AcDbEntity
  8
0
100
AcDbPolyline
 62
7
  6
CONTINUOUS
 90
12
 70
0
 10
135.8550223162
 20
112.8838334292
 10
135.8703015593
 20
112.8963692879
 10
135.9173645506
 20
112.9285285939
 10
135.9688469641
 20
112.9544555508
 10
136.0245679633
 20
112.9742591965
 10
136.0830731222
 20
112.9875227584
 10
136.1443100313
 20
112.9940861922
 10
136.2083357726
 20
112.9941132513
 10
136.2738567288
 20
112.987670134
 10
136.340441777
 20
112.9747789763
 10
136.4085243815
 20
112.9554195184
 10
136.4781063158
 20
112.929593184
  0
LINE
  5
27D
100
AcDbEntity
  8
SUPERFICI
100
AcDbLine
 62
7
  6
CONTINUOUS
 10
135.8873891249
 20
112.9091066499
 11
135.8550373633
 21
112.8838147058
  0
LINE
  5
27E
100
AcDbEntity
  8
ASSI
100
AcDbLine
 62
7
  6
CONTINUOUS
 10
156.3091546399
 20
121.7750801418
 11
155.6732497229
 21
121.5789130576
  0
LINE
  5
27F
100
AcDbEntity
  8
0
100
AcDbLine
 62
7
  6
CONTINUOUS
 10
156.3091546399
 20
121.7750801418
 11
155.6732497229
 21
121.5789130576
  0
LWPOLYLINE
  5
280
100
AcDbEntity
  8
0
100
AcDbPolyline
 62
253
  6
CONTINUOUS
 90
55
 70
0
 10
138.487098116
 20
95.0079029392
 10
138.3840165805
 20
95.0508268011
 10
138.281000077
 20
95.0968137096
 10
138.1780531378
 20
95.145902531
 10
138.0751802949
 20
95.1981321312
 10
137.9723860805
 20
95.2535413764
 10
137.8696750267
 20
95.3121691328
 10
137.7671133299
 20
95.3739993993
 10
137.6650138438
 20
95.4387967065
 10
137.5637510867
 20
95.5062707181
 10
137.4636995765
 20
95.5761310975
 10
137.3652338313
 20
95.6480875084
 10
137.2687283694
 20
95.7218496142
 10
137.1745008509
 20
95.7971451215
 10
137.0826415056
 20
95.8737739083
 10
136.9931837052
 20
95.9515538955
 10
136.9061608215
 20
96.030303004
 10
136.8216062265
 20
96.1098391548
 10
136.7395532919
 20
96.1899802688
 10
136.660016573
 20
96.2705714043
 10
136.5829353586
 20
96.3515661686
 10
136.5082301209
 20
96.4329453064
 10
136.435821332
 20
96.5146895624
 10
136.3656294641
 20
96.5967796813
 10
136.2975749895
 20
96.6791964077
 10
136.2186349081
 20
96.7784938759
 10
136.1426161546
 20
96.8781609743
 10
136.0694767305
 20
96.9781247462
 10
135.9991746376
 20
97.0783122345
 10
135.9316678775
 20
97.1786504824
 10
135.8669087229
 20
97.279085464
 10
135.8048265305
 20
97.3796388773
 10
135.7453449282
 20
97.4803513517
 10
135.6883875438
 20
97.5812635162
 10
135.633878005
 20
97.6824160001
 10
135.5817516167
 20
97.7838476418
 10
135.5319903919
 20
97.8855901177
 10
135.4845880205
 20
97.9876733133
 10
135.4395381924
 20
98.0901271145
 10
135.3968345977
 20
98.1929814067
 10
135.3564830168
 20
98.2962342525
 10
135.3185375921
 20
98.3997564215
 10
135.2830645563
 20
98.5033868599
 10
135.2501301423
 20
98.6069645141
 10
135.2198005829
 20
98.7103283305
 10
135.1921328568
 20
98.8133282805
 10
135.1671469264
 20
98.9158584358
 10
135.1448534999
 20
99.0178238933
 10
135.1252632856
 20
99.1191297498
 10
135.1083869919
 20
99.2196811023
 10
135.0942334216
 20
99.3193864808
 10
135.0828037572
 20
99.4181681475
 10
135.0740972758
 20
99.5159517981
 10
135.0681132544
 20
99.6126631282
 10
135.0648509701
 20
99.7082278332
  0
LWPOLYLINE
  5
281
100
AcDbEntity
  8
0
100
AcDbPolyline
 62
253
  6
CONTINUOUS
 90
55
 70
0
 10
156.6722734992
 20
87.7043265302
 10
156.5691919637
 20
87.747250392
 10
156.4661754603
 20
87.7932373005
 10
156.363228521
 20
87.8423261219
 10
156.2603556782
 20
87.8945557221
 10
156.1575614637
 20
87.9499649674
 10
156.0548504099
 20
88.0085927237
 10
155.9522887131
 20
88.0704229902
 10
155.850189227
 20
88.1352202974
 10
155.7489264699
 20
88.202694309
 10
155.6488749597
 20
88.2725546884
 10
155.5504092146
 20
88.3445110993
 10
155.4539037526
 20
88.4182732052
 10
155.3596762342
 20
88.4935687124
 10
155.2678168888
 20
88.5701974992
 10
155.1783590884
 20
88.6479774864
 10
155.0913362047
 20
88.7267265949
 10
155.0067816097
 20
88.8062627457
 10
154.9247286751
 20
88.8864038597
 10
154.8451919563
 20
88.9669949952
 10
154.7681107418
 20
89.0479897595
 10
154.6934055041
 20
89.1293688973
 10
154.6209967152
 20
89.2111131533
 10
154.5508048474
 20
89.2932032722
 10
154.4827503727
 20
89.3756199986
 10
154.4038102913
 20
89.4749174668
 10
154.3277915378
 20
89.5745845653
 10
154.2546521137
 20
89.6745483371
 10
154.1843500208
 20
89.7747358254
 10
154.1168432607
 20
89.8750740733
 10
154.0520841061
 20
89.9755090549
 10
153.9900019137
 20
90.0760624682
 10
153.9305203114
 20
90.1767749426
 10
153.873562927
 20
90.2776871071
 10
153.8190533882
 20
90.378839591
 10
153.766927
 20
90.4802712327
 10
153.7171657751
 20
90.5820137086
 10
153.6697634037
 20
90.6840969042
 10
153.6247135756
 20
90.7865507054
 10
153.5820099809
 20
90.8894049976
 10
153.5416584
 20
90.9926578435
 10
153.5037129753
 20
91.0961800124
 10
153.4682399395
 20
91.1998104508
 10
153.4353055255
 20
91.3033881051
 10
153.4049759661
 20
91.4067519214
 10
153.37730824
 20
91.5097518714
 10
153.3523223096
 20
91.6122820267
 10
153.3300288831
 20
91.7142474842
 10
153.3104386689
 20
91.8155533407
 10
153.2935623751
 20
91.9161046933
 10
153.2794088048
 20
92.0158100717
 10
153.2679791404
 20
92.1145917384
 10
153.259272659
 20
92.2123753891
 10
153.2532886376
 20
92.3090867191
 10
153.2500263533
 20
92.4046514241
  0
LWPOLYLINE
  5
282
100
AcDbEntity
  8
0
100
AcDbPolyline
 62
253
  6
CONTINUOUS
 90
55
 70
0
 10
138.473893443
 20
95.4889723767
 10
138.3835928788
 20
95.5266393839
 10
138.2931583376
 20
95.5671579581
 10
138.2029952145
 20
95.610324822
 10
138.1133857325
 20
95.656004777
 10
138.0241194269
 20
95.7043349399
 10
137.9348626608
 20
95.7555205059
 10
137.8454305847
 20
95.809677704
 10
137.7562334976
 20
95.8665668968
 10
137.6678304856
 20
95.9258594802
 10
137.580730544
 20
95.9872329103
 10
137.4952423045
 20
96.0503888821
 10
137.4116243077
 20
96.1150351507
 10
137.3300968199
 20
96.1809023649
 10
137.2507270098
 20
96.2478127475
 10
137.1735437718
 20
96.3156114152
 10
137.098576
 20
96.3841434845
 10
137.0258525889
 20
96.453254072
 10
136.9554024328
 20
96.5227882943
 10
136.887236981
 20
96.5926133516
 10
136.8212979033
 20
96.6626847789
 10
136.7575094246
 20
96.7329801947
 10
136.6957957696
 20
96.8034772178
 10
136.6360811634
 20
96.8741534666
 10
136.5782898306
 20
96.9449865599
 10
136.5113856126
 20
97.03015893
 10
136.4470909626
 20
97.1154690711
 10
136.3853550512
 20
97.2008611275
 10
136.3261270487
 20
97.2862792434
 10
136.2693561257
 20
97.3716675631
 10
136.214986562
 20
97.4569883955
 10
136.1629430758
 20
97.5422767087
 10
136.1131454949
 20
97.6275856352
 10
136.065513647
 20
97.7129683077
 10
136.0199673598
 20
97.7984778589
 10
135.9764388231
 20
97.884162005
 10
135.9349096748
 20
97.9700467954
 10
135.8953739151
 20
98.0561528634
 10
135.8578255439
 20
98.1425008418
 10
135.8222585614
 20
98.2291113639
 10
135.7886758708
 20
98.3159814288
 10
135.7571159882
 20
98.4030135006
 10
135.7276263328
 20
98.4900864094
 10
135.700254324
 20
98.5770789856
 10
135.6750473811
 20
98.6638700593
 10
135.6520464503
 20
98.7503471414
 10
135.6312665864
 20
98.8364324658
 10
135.6127163711
 20
98.9220569468
 10
135.5964043861
 20
99.0071514988
 10
135.5823392132
 20
99.0916470364
 10
135.5705283926
 20
99.1754752942
 10
135.5609752983
 20
99.2585712884
 10
135.5536822628
 20
99.3408708553
 10
135.5486516188
 20
99.4223098313
 10
135.5458856986
 20
99.5028240527
  0
LWPOLYLINE
  5
283
100
AcDbEntity
  8
0
100
AcDbPolyline
 62
253
  6
CONTINUOUS
 90
85
 70
0
 10
138.6258024538
 20
99.6905117443
 10
138.6254656804
 20
99.6998451207
 10
138.6247812271
 20
99.7092407672
 10
138.6237583635
 20
99.7186984824
 10
138.622406359
 20
99.7282180646
 10
138.620734483
 20
99.7377993125
 10
138.618752005
 20
99.7474420244
 10
138.6164667286
 20
99.7571442752
 10
138.6138805941
 20
99.7668972445
 10
138.6109940762
 20
99.7766903886
 10
138.6078076495
 20
99.7865131635
 10
138.6043217885
 20
99.7963550252
 10
138.6005369677
 20
99.8062054299
 10
138.5964538676
 20
99.816052612
 10
138.5920739916
 20
99.82587992
 10
138.587399049
 20
99.8356694806
 10
138.5824287593
 20
99.8454060753
 10
138.577154884
 20
99.8550851048
 10
138.5715671946
 20
99.8647046244
 10
138.565658408
 20
99.8742566786
 10
138.5594330207
 20
99.8837092671
 10
138.552898474
 20
99.893024379
 10
138.5460619535
 20
99.9021688576
 10
138.5389296211
 20
99.9111289655
 10
138.5315073826
 20
99.9198958199
 10
138.5238045953
 20
99.9284591904
 10
138.5158444223
 20
99.9368034559
 10
138.5076534779
 20
99.9449116482
 10
138.4992561214
 20
99.9527686828
 10
138.4906676913
 20
99.9603670129
 10
138.4819012705
 20
99.9677009758
 10
138.4729734968
 20
99.9747638276
 10
138.4639152251
 20
99.9815444987
 10
138.4547608649
 20
99.9880308385
 10
138.4455448257
 20
99.9942106963
 10
138.4363015169
 20
100.0000719213
 10
138.427065348
 20
100.0056023629
 10
138.4178636397
 20
100.010794628
 10
138.4086953576
 20
100.0156603548
 10
138.3995523789
 20
100.0202159392
 10
138.3904344572
 20
100.0244735423
 10
138.381372853
 20
100.0284283874
 10
138.3724067036
 20
100.0320714629
 10
138.3635638681
 20
100.0353980686
 10
138.3548270921
 20
100.0384207495
 10
138.3461678434
 20
100.041156362
 10
138.337556832
 20
100.0436186522
 10
138.3289617382
 20
100.0458089264
 10
138.3203494846
 20
100.0477253806
 10
138.3117007081
 20
100.0493632634
 10
138.3030509013
 20
100.0507060331
 10
138.2944492708
 20
100.0517342002
 10
138.2859371997
 20
100.0524299807
 10
138.2775247769
 20
100.0527824116
 10
138.269214268
 20
100.0527822355
 10
138.261012229
 20
100.0524199169
 10
138.2529423789
 20
100.0516848091
 10
138.245032727
 20
100.0505659877
 10
138.2373107068
 20
100.0490537365
 10
138.2298014469
 20
100.0471431722
 10
138.2225295
 20
100.0448306198
 10
138.2155159362
 20
100.0421126317
 10
138.2087678966
 20
100.0389866688
 10
138.2022890398
 20
100.0354504192
 10
138.1960827834
 20
100.031504734
 10
138.1901515797
 20
100.0271631155
 10
138.1844976399
 20
100.0224422291
 10
138.1791231936
 20
100.0173583198
 10
138.1740305448
 20
100.0119259521
 10
138.1692220158
 20
100.0061592703
 10
138.1647000468
 20
100.0000713299
 10
138.1604675491
 20
99.9936708308
 10
138.1565275517
 20
99.9869653842
 10
138.1528834169
 20
99.979964696
 10
138.1495398395
 20
99.9726868507
 10
138.1465018477
 20
99.9651520281
 10
138.1437744697
 20
99.9573804074
 10
138.1413627334
 20
99.9493921683
 10
138.1392716671
 20
99.9412074902
 10
138.1375067435
 20
99.9328414299
 10
138.1360752139
 20
99.9242885531
 10
138.1349847744
 20
99.9155383027
 10
138.1342431209
 20
99.9065801218
 10
138.1338579494
 20
99.8974034533
 10
138.133836956
 20
99.8879977402
  0
LINE
  5
284
100
AcDbEntity
  8
0
100
AcDbLine
 62
253
  6
CONTINUOUS
 10
138.6858194807
 20
96.7587320117
 11
138.6691342866
 21
97.4856538909
  0
LINE
  5
285
100
AcDbEntity
  8
0
100
AcDbLine
 62
253
  6
CONTINUOUS
 10
138.1614715238
 20
98.4200672927
 11
138.1938554656
 21
96.956221683
  0
LINE
  5
286
100
AcDbEntity
  8
0
100
AcDbLine
 62
253
  6
CONTINUOUS
 10
138.1338362934
 20
99.8879978362
 11
138.1614715238
 21
98.4200672927
  0
LWPOLYLINE
  5
287
100
AcDbEntity
  8
0
100
AcDbPolyline
 62
253
  6
CONTINUOUS
 90
85
 70
0
 10
138.0848666316
 20
115.7635259604
 10
138.0848846292
 20
115.7539314581
 10
138.0852520752
 20
115.7442761344
 10
138.085959618
 20
115.7345601236
 10
138.0869979063
 20
115.7247835601
 10
138.0883575887
 20
115.7149465781
 10
138.0900293137
 20
115.7050493122
 10
138.092005273
 20
115.6950936837
 10
138.0942838303
 20
115.6850887619
 10
138.0968648927
 20
115.6750454034
 10
138.0997483671
 20
115.6649744644
 10
138.1029341602
 20
115.6548868015
 10
138.1064221792
 20
115.644793271
 10
138.1102121657
 20
115.6347059843
 10
138.1143032013
 20
115.6246420721
 10
138.1186942022
 20
115.61461992
 10
138.1233860069
 20
115.6046552038
 10
138.1283871425
 20
115.594752759
 10
138.133708058
 20
115.5849147111
 10
138.1393564313
 20
115.5751493388
 10
138.1453288543
 20
115.5654895339
 10
138.1516191476
 20
115.5559743415
 10
138.1582212271
 20
115.5466378201
 10
138.1651293889
 20
115.5374940823
 10
138.1723380243
 20
115.5285522545
 10
138.1798380781
 20
115.5198228145
 10
138.1876067095
 20
115.5113216472
 10
138.1956176312
 20
115.503065989
 10
138.2038467734
 20
115.4950711614
 10
138.2122789362
 20
115.4873448245
 10
138.220901137
 20
115.4798927235
 10
138.2296968228
 20
115.4727216717
 10
138.2386351598
 20
115.4658427558
 10
138.2476817435
 20
115.4592681307
 10
138.2568021695
 20
115.4530099512
 10
138.2659620337
 20
115.4470803723
 10
138.2751269316
 20
115.4414915489
 10
138.2842694679
 20
115.4362508129
 10
138.2933902841
 20
115.4313462043
 10
138.3024970304
 20
115.4267609402
 10
138.3115895212
 20
115.4224825052
 10
138.3206362255
 20
115.4185154549
 10
138.3295977763
 20
115.4148686125
 10
138.338446086
 20
115.4115464909
 10
138.3471981841
 20
115.4085363611
 10
138.3558823796
 20
115.4058211839
 10
138.3645278646
 20
115.4033871328
 10
138.373167363
 20
115.4012332327
 10
138.3818344818
 20
115.3993617215
 10
138.39054902
 20
115.3977777074
 10
138.399275544
 20
115.3964977808
 10
138.4079648123
 20
115.3955414024
 10
138.4165754551
 20
115.3949263671
 10
138.4250975897
 20
115.3946638068
 10
138.433529205
 20
115.3947631875
 10
138.4418639448
 20
115.3952342083
 10
138.4500780714
 20
115.3960875004
 10
138.4581435016
 20
115.397333928
 10
138.4660326912
 20
115.3989831163
 10
138.4737202499
 20
115.4010397345
 10
138.4811813263
 20
115.4035072126
 10
138.4883945961
 20
115.4063887904
 10
138.495352844
 20
115.4096869458
 10
138.5020523818
 20
115.4134039668
 10
138.5084896609
 20
115.4175388947
 10
138.5146616896
 20
115.4220777854
 10
138.5205656156
 20
115.4270034485
 10
138.5261985823
 20
115.4322991254
 10
138.5315577161
 20
115.4379497847
 10
138.5366401388
 20
115.4439408271
 10
138.541442891
 20
115.4502587717
 10
138.5459626878
 20
115.4568946123
 10
138.5501961625
 20
115.4638404615
 10
138.5541395382
 20
115.4710862735
 10
138.5577873956
 20
115.4786133704
 10
138.5611339048
 20
115.4864009157
 10
138.564173236
 20
115.4944280734
 10
138.5668995594
 20
115.5026740073
 10
138.5693070452
 20
115.5111178809
 10
138.57138959
 20
115.5197441214
 10
138.5731399975
 20
115.5285582077
 10
138.5745507978
 20
115.5375708822
 10
138.5756145209
 20
115.5467928871
 10
138.576323697
 20
115.5562349647
 10
138.5766708563
 20
115.5659078572
  0
LINE
  5
288
100
AcDbEntity
  8
0
100
AcDbLine
 62
253
  6
CONTINUOUS
 10
138.1124989068
 20
117.2767308059
 11
138.0848652878
 21
115.7635266816
  0
LINE
  5
289
100
AcDbEntity
  8
0
100
AcDbLine
 62
253
  6
CONTINUOUS
 10
138.5766715268
 20
115.5659077677
 11
138.6042380851
 21
117.0756456506
  0
LINE
  5
28A
100
AcDbEntity
  8
0
100
AcDbLine
 62
253
  6
CONTINUOUS
 10
138.1448809601
 20
118.7936296231
 11
138.1124989068
 21
117.2767308059
  0
LINE
  5
28B
100
AcDbEntity
  8
0
100
AcDbLine
 62
253
  6
CONTINUOUS
 10
138.6042380851
 20
117.0756456506
 11
138.6366906991
 21
118.5960135762
  0
LWPOLYLINE
  5
28C
100
AcDbEntity
  8
0
100
AcDbPolyline
 62
253
  6
CONTINUOUS
 90
81
 70
0
 10
138.1448825956
 20
118.7936289628
 10
138.1453020487
 20
118.8033200304
 10
138.1460957781
 20
118.8128513573
 10
138.1472624447
 20
118.8222096653
 10
138.1488007097
 20
118.8313816757
 10
138.1507092341
 20
118.8403541103
 10
138.152986679
 20
118.8491136907
 10
138.1556317055
 20
118.8576471383
 10
138.1586429748
 20
118.8659411748
 10
138.1620183777
 20
118.8739821851
 10
138.1657527251
 20
118.8817552072
 10
138.1698400578
 20
118.8892449424
 10
138.1742744165
 20
118.8964360921
 10
138.1790481673
 20
118.9033134226
 10
138.1841469782
 20
118.9098619606
 10
138.1895548425
 20
118.9160667978
 10
138.1952557537
 20
118.9219130259
 10
138.2012355694
 20
118.9273884379
 10
138.2074876057
 20
118.9324916319
 10
138.214007043
 20
118.9372239077
 10
138.2207890616
 20
118.9415865646
 10
138.2278301178
 20
118.9455797866
 10
138.2351317711
 20
118.9491992944
 10
138.2426968566
 20
118.9524396935
 10
138.2505282097
 20
118.9552955888
 10
138.258624147
 20
118.9577608114
 10
138.2669649115
 20
118.9598260953
 10
138.2755262275
 20
118.9614814005
 10
138.2842838193
 20
118.9627166867
 10
138.2932146203
 20
118.9635235784
 10
138.3023003997
 20
118.9639003574
 10
138.3115241357
 20
118.9638469703
 10
138.3208688065
 20
118.9633633635
 10
138.3303173711
 20
118.9624504941
 10
138.3398527116
 20
118.9611133623
 10
138.3494576911
 20
118.9593579785
 10
138.3591151724
 20
118.9571903537
 10
138.3688080184
 20
118.9546164984
 10
138.3785190922
 20
118.9516424233
 10
138.3882312567
 20
118.9482741392
 10
138.3979273747
 20
118.9445176568
 10
138.4075911107
 20
118.9403795264
 10
138.4172093344
 20
118.9358684567
 10
138.4267697169
 20
118.9309936961
 10
138.4362599293
 20
118.9257644931
 10
138.4456676428
 20
118.920190096
 10
138.4549805285
 20
118.9142797531
 10
138.4641862575
 20
118.908042713
 10
138.4732725009
 20
118.9014882238
 10
138.4822272009
 20
118.8946254974
 10
138.4910393844
 20
118.8874635979
 10
138.499698349
 20
118.8800115528
 10
138.5081933925
 20
118.8722783898
 10
138.5165138129
 20
118.8642731364
 10
138.5246489079
 20
118.8560048199
 10
138.5325879752
 20
118.8474824681
 10
138.5403203128
 20
118.8387151083
 10
138.547834915
 20
118.8297130413
 10
138.5551195633
 20
118.8204916597
 10
138.5621617356
 20
118.8110676296
 10
138.5689489099
 20
118.8014576169
 10
138.5754685641
 20
118.7916782874
 10
138.5817081764
 20
118.781746307
 10
138.5876552247
 20
118.7716783418
 10
138.5932971869
 20
118.7614910576
 10
138.5986226182
 20
118.7512011973
 10
138.6036243818
 20
118.7408258126
 10
138.6082964179
 20
118.730382032
 10
138.612632667
 20
118.719886984
 10
138.6166270694
 20
118.7093577972
 10
138.6202735652
 20
118.6988116003
 10
138.6235660949
 20
118.6882655219
 10
138.6264985988
 20
118.6777366904
 10
138.6290658362
 20
118.6672419055
 10
138.6312658425
 20
118.6567966507
 10
138.6330974723
 20
118.6464160804
 10
138.6345595799
 20
118.6361153492
 10
138.6356510199
 20
118.6259096114
 10
138.6363706468
 20
118.6158140217
 10
138.6367173149
 20
118.6058437345
 10
138.6366898788
 20
118.5960139042
  0
LWPOLYLINE
  5
28D
100
AcDbEntity
  8
0
100
AcDbPolyline
 62
253
  6
CONTINUOUS
 90
10
 70
0
 10
141.1356633442
 20
115.2501705802
 10
141.1298941925
 20
115.2341963736
 10
141.1240099192
 20
115.2183016732
 10
141.1180107221
 20
115.2024871513
 10
141.111896799
 20
115.1867534805
 10
141.1056683478
 20
115.171101333
 10
141.0993255661
 20
115.1555313814
 10
141.0928686519
 20
115.140044298
 10
141.086297803
 20
115.1246407554
 10
141.0796132171
 20
115.1093214258
  0
LWPOLYLINE
  5
28E
100
AcDbEntity
  8
0
100
AcDbPolyline
 62
253
  6
CONTINUOUS
 90
8
 70
0
 10
141.0796132171
 20
115.1093214258
 10
141.075256021
 20
115.0995180631
 10
141.0708519902
 20
115.0897499301
 10
141.0664012117
 20
115.0800171764
 10
141.0619037726
 20
115.0703199515
 10
141.0573597598
 20
115.060658405
 10
141.0527692604
 20
115.0510326864
 10
141.0481323615
 20
115.0414429452
  0
LWPOLYLINE
  5
28F
100
AcDbEntity
  8
0
100
AcDbPolyline
 62
253
  6
CONTINUOUS
 90
42
 70
0
 10
141.0481323615
 20
115.0414429452
 10
141.0143821924
 20
114.9753346854
 10
140.9783925635
 20
114.9110479351
 10
140.9401933285
 20
114.8486339828
 10
140.8998143408
 20
114.7881441173
 10
140.8572854541
 20
114.7296296271
 10
140.8126338981
 20
114.6731400705
 10
140.7658764065
 20
114.6187180837
 10
140.7170270894
 20
114.5664045728
 10
140.6661000566
 20
114.5162404434
 10
140.6131094181
 20
114.4682666016
 10
140.5580692837
 20
114.4225239533
 10
140.5010095767
 20
114.3790576601
 10
140.442023473
 20
114.3379299075
 10
140.381219962
 20
114.2992071366
 10
140.3187080328
 20
114.2629557888
 10
140.2545966747
 20
114.2292423053
 10
140.1889948771
 20
114.1981331272
 10
140.1220002763
 20
114.1696823244
 10
140.0536650981
 20
114.14389448
 10
139.9840302154
 20
114.1207618058
 10
139.9131365011
 20
114.1002765137
 10
139.8410248281
 20
114.0824308153
 10
139.7677360693
 20
114.0672169225
 10
139.6933087297
 20
114.0546315338
 10
139.6177718421
 20
114.0446892958
 10
139.541152071
 20
114.0374093417
 10
139.4634760813
 20
114.0328108048
 10
139.3847705377
 20
114.0309128186
 10
139.305062105
 20
114.0317345162
 10
139.2243963214
 20
114.0352890787
 10
139.1428942193
 20
114.0415658777
 10
139.0606957047
 20
114.0505483322
 10
138.9779406835
 20
114.0622198615
 10
138.8947690616
 20
114.0765638847
 10
138.8113207451
 20
114.0935638211
 10
138.7277205761
 20
114.1132001723
 10
138.644033142
 20
114.1354417708
 10
138.5603079665
 20
114.1602545314
 10
138.4765945733
 20
114.187604369
 10
138.3929424861
 20
114.2174571985
 10
138.3094012285
 20
114.2497789348
  0
LWPOLYLINE
  5
290
100
AcDbEntity
  8
ASSI
100
AcDbPolyline
 62
7
  6
CONTINUOUS
 90
19
 70
0
 10
148.7816152481
 20
122.757655314
 10
148.7735363844
 20
122.7499602376
 10
148.7166097608
 20
122.6915119571
 10
148.6634018376
 20
122.6296939427
 10
148.6137653906
 20
122.5650254768
 10
148.5673823429
 20
122.4977104114
 10
148.5240136447
 20
122.4278376939
 10
148.4836528802
 20
122.3557527944
 10
148.4462821094
 20
122.2817003141
 10
148.411887442
 20
122.2058118776
 10
148.3805468775
 20
122.1283732454
 10
148.3523677877
 20
122.0496426471
 10
148.3274347761
 20
121.969762631
 10
148.3058946448
 20
121.8889588189
 10
148.2879519646
 20
121.8075135135
 10
148.2737808192
 20
121.7254768692
 10
148.2636451254
 20
121.6428990929
 10
148.2578872663
 20
121.5600669903
 10
148.257218223
 20
121.5409138378
  0
LWPOLYLINE
  5
291
100
AcDbEntity
  8
0
100
AcDbPolyline
 62
7
  6
CONTINUOUS
 90
19
 70
0
 10
148.7816152481
 20
122.757655314
 10
148.7735363844
 20
122.7499602376
 10
148.7166097608
 20
122.6915119571
 10
148.6634018376
 20
122.6296939427
 10
148.6137653906
 20
122.5650254768
 10
148.5673823429
 20
122.4977104114
 10
148.5240136447
 20
122.4278376939
 10
148.4836528802
 20
122.3557527944
 10
148.4462821094
 20
122.2817003141
 10
148.411887442
 20
122.2058118776
 10
148.3805468775
 20
122.1283732454
 10
148.3523677877
 20
122.0496426471
 10
148.3274347761
 20
121.969762631
 10
148.3058946448
 20
121.8889588189
 10
148.2879519646
 20
121.8075135135
 10
148.2737808192
 20
121.7254768692
 10
148.2636451254
 20
121.6428990929
 10
148.2578872663
 20
121.5600669903
 10
148.257218223
 20
121.5409138378
  0
LINE
  5
292
100
AcDbEntity
  8
ASSI
100
AcDbLine
 62
253
  6
CONTINUOUS
 10
150.5034094982
 20
124.1067982781
 11
149.1094468826
 21
122.7904329311
  0
LINE
  5
293
100
AcDbEntity
  8
0
100
AcDbLine
 62
253
  6
CONTINUOUS
 10
150.5034094982
 20
124.1067982781
 11
149.1094468826
 21
122.7904329311
  0
LWPOLYLINE
  5
294
100
AcDbEntity
  8
ASSI
100
AcDbPolyline
 62
253
  6
CONTINUOUS
 90
22
 70
0
 10
149.1094468826
 20
122.7904329311
 10
149.060285561
 20
122.7451638249
 10
149.0115173576
 20
122.6954339766
 10
148.9634007374
 20
122.6414834455
 10
148.9162084837
 20
122.583567512
 10
148.8701721494
 20
122.5219723477
 10
148.8254812056
 20
122.4570123985
 10
148.7823684825
 20
122.3889986051
 10
148.7410659414
 20
122.3182631188
 10
148.7017490494
 20
122.2451743501
 10
148.6646234539
 20
122.1700903398
 10
148.6298865319
 20
122.093373436
 10
148.5976834273
 20
122.015413916
 10
148.5681807151
 20
121.9365921406
 10
148.5415365411
 20
121.8572914575
 10
148.5178617978
 20
121.7779133054
 10
148.4972788096
 20
121.6988523865
 10
148.4798965804
 20
121.6204871819
 10
148.4657835653
 20
121.5431933906
 10
148.4550083538
 20
121.4673473974
 10
148.4476368579
 20
121.39332385
 10
148.4437093882
 20
121.3214866638
  0
LWPOLYLINE
  5
295
100
AcDbEntity
  8
0
100
AcDbPolyline
 62
253
  6
CONTINUOUS
 90
22
 70
0
 10
149.1094468826
 20
122.7904329311
 10
149.060285561
 20
122.7451638249
 10
149.0115173576
 20
122.6954339766
 10
148.9634007374
 20
122.6414834455
 10
148.9162084837
 20
122.583567512
 10
148.8701721494
 20
122.5219723477
 10
148.8254812056
 20
122.4570123985
 10
148.7823684825
 20
122.3889986051
 10
148.7410659414
 20
122.3182631188
 10
148.7017490494
 20
122.2451743501
 10
148.6646234539
 20
122.1700903398
 10
148.6298865319
 20
122.093373436
 10
148.5976834273
 20
122.015413916
 10
148.5681807151
 20
121.9365921406
 10
148.5415365411
 20
121.8572914575
 10
148.5178617978
 20
121.7779133054
 10
148.4972788096
 20
121.6988523865
 10
148.4798965804
 20
121.6204871819
 10
148.4657835653
 20
121.5431933906
 10
148.4550083538
 20
121.4673473974
 10
148.4476368579
 20
121.39332385
 10
148.4437093882
 20
121.3214866638
  0
LWPOLYLINE
  5
296
100
AcDbEntity
  8
0
100
AcDbPolyline
 62
253
  6
CONTINUOUS
 90
55
 70
0
 10
156.6590688262
 20
88.1853959676
 10
156.568768262
 20
88.2230629748
 10
156.4783337208
 20
88.263581549
 10
156.3881705977
 20
88.3067484129
 10
156.2985611157
 20
88.352428368
 10
156.2092948101
 20
88.4007585308
 10
156.120038044
 20
88.4519440968
 10
156.0306059679
 20
88.5061012949
 10
155.9414088808
 20
88.5629904877
 10
155.8530058688
 20
88.6222830711
 10
155.7659059272
 20
88.6836565012
 10
155.6804176877
 20
88.746812473
 10
155.5967996909
 20
88.8114587417
 10
155.5152722031
 20
88.8773259558
 10
155.435902393
 20
88.9442363384
 10
155.358719155
 20
89.0120350061
 10
155.2837513832
 20
89.0805670754
 10
155.2110279722
 20
89.1496776629
 10
155.140577816
 20
89.2192118852
 10
155.0724123642
 20
89.2890369425
 10
155.0064732865
 20
89.3591083698
 10
154.9426848078
 20
89.4294037857
 10
154.8809711529
 20
89.4999008087
 10
154.8212565466
 20
89.5705770575
 10
154.7634652138
 20
89.6414101508
 10
154.6965609958
 20
89.7265825209
 10
154.6322663459
 20
89.811892662
 10
154.5705304344
 20
89.8972847184
 10
154.511302432
 20
89.9827028343
 10
154.4545315089
 20
90.068091154
 10
154.4001619452
 20
90.1534119865
 10
154.348118459
 20
90.2387002996
 10
154.2983208781
 20
90.3240092261
 10
154.2506890302
 20
90.4093918986
 10
154.205142743
 20
90.4949014499
 10
154.1616142063
 20
90.5805855959
 10
154.120085058
 20
90.6664703863
 10
154.0805492983
 20
90.7525764543
 10
154.0430009271
 20
90.8389244327
 10
154.0074339446
 20
90.9255349548
 10
153.973851254
 20
91.0124050197
 10
153.9422913714
 20
91.0994370915
 10
153.9128017161
 20
91.1865100004
 10
153.8854297073
 20
91.2735025765
 10
153.8602227643
 20
91.3602936502
 10
153.8372218335
 20
91.4467707324
 10
153.8164419696
 20
91.5328560567
 10
153.7978917543
 20
91.6184805377
 10
153.7815797693
 20
91.7035750897
 10
153.7675145964
 20
91.7880706273
 10
153.7557037758
 20
91.8718988852
 10
153.7461506815
 20
91.9549948794
 10
153.738857646
 20
92.0372944463
 10
153.733827002
 20
92.1187334222
 10
153.7310610818
 20
92.1992476436
  0
LWPOLYLINE
  5
297
100
AcDbEntity
  8
ASSI
100
AcDbPolyline
 62
7
  6
CONTINUOUS
 90
8
 70
0
 10
129.9259749785
 20
111.8342285684
 10
129.9000174855
 20
111.8718361416
 10
129.8774917724
 20
111.9118749382
 10
129.8586696442
 20
111.9539812005
 10
129.8437043491
 20
111.9979991885
 10
129.8328229226
 20
112.0435827829
 10
129.8262392172
 20
112.0901750331
 10
129.8240644456
 20
112.1372731626
  0
LWPOLYLINE
  5
298
100
AcDbEntity
  8
0
100
AcDbPolyline
 62
7
  6
CONTINUOUS
 90
8
 70
0
 10
129.9259749785
 20
111.8342285684
 10
129.9000174855
 20
111.8718361416
 10
129.8774917724
 20
111.9118749382
 10
129.8586696442
 20
111.9539812005
 10
129.8437043491
 20
111.9979991885
 10
129.8328229226
 20
112.0435827829
 10
129.8262392172
 20
112.0901750331
 10
129.8240644456
 20
112.1372731626
  0
LINE
  5
299
100
AcDbEntity
  8
0
100
AcDbLine
 62
253
  6
CONTINUOUS
 10
138.6691342866
 20
97.4856538909
 11
138.6392814443
 21
98.9425312223
  0
LINE
  5
29A
100
AcDbEntity
  8
0
100
AcDbLine
 62
253
  6
CONTINUOUS
 10
138.6392814443
 20
98.9425312223
 11
138.6258038084
 21
99.6905110319
  0
LWPOLYLINE
  5
29B
100
AcDbEntity
  8
0
100
AcDbPolyline
 62
253
  6
CONTINUOUS
 90
81
 70
0
 10
138.6858178395
 20
96.7587326673
 10
138.6858450683
 20
96.7494075002
 10
138.6854967112
 20
96.7402410008
 10
138.6847734983
 20
96.7312459489
 10
138.6836761595
 20
96.722435124
 10
138.682205425
 20
96.7138213059
 10
138.6803620248
 20
96.7054172741
 10
138.6781466889
 20
96.6972358085
 10
138.6755601474
 20
96.6892896886
 10
138.6726038762
 20
96.6815920109
 10
138.669282335
 20
96.6741571399
 10
138.665600729
 20
96.6669997565
 10
138.6615642638
 20
96.6601345421
 10
138.6571797955
 20
96.6535760932
 10
138.652460783
 20
96.6473386678
 10
138.647422336
 20
96.6414364395
 10
138.642079564
 20
96.6358835818
 10
138.636445865
 20
96.6306916921
 10
138.6305277911
 20
96.6258620641
 10
138.6243301828
 20
96.6213934151
 10
138.6178578803
 20
96.6172844628
 10
138.6111144203
 20
96.6135350174
 10
138.6040981237
 20
96.61014926
 10
138.5968060076
 20
96.6071324644
 10
138.589235089
 20
96.6044899045
 10
138.5813867917
 20
96.6022275368
 10
138.5732801659
 20
96.600354048
 10
138.5649386687
 20
96.5988788078
 10
138.5563857569
 20
96.5978111856
 10
138.547643772
 20
96.5971589632
 10
138.5387305937
 20
96.5969235706
 10
138.5296629859
 20
96.5971048505
 10
138.5204577127
 20
96.5977026451
 10
138.5111315973
 20
96.598715819
 10
138.5017016993
 20
96.6001393243
 10
138.4921851372
 20
96.6019671353
 10
138.4825990299
 20
96.6041932263
 10
138.4729604959
 20
96.6068115714
 10
138.4632866539
 20
96.609816145
 10
138.4535946226
 20
96.6132009212
 10
138.4439015207
 20
96.6169598743
 10
138.4342236978
 20
96.6210864654
 10
138.4245744278
 20
96.6255721035
 10
138.4149662155
 20
96.6304076841
 10
138.4054115658
 20
96.6355841033
 10
138.3959229836
 20
96.6410922566
 10
138.3865129736
 20
96.6469230399
 10
138.3771940409
 20
96.653067349
 10
138.3679786901
 20
96.6595160795
 10
138.3588791547
 20
96.6662601638
 10
138.3499065813
 20
96.6732906796
 10
138.3410718452
 20
96.680598741
 10
138.3323858216
 20
96.6881754623
 10
138.3238593857
 20
96.6960119577
 10
138.3155034126
 20
96.7040993414
 10
138.3073287776
 20
96.7124287275
 10
138.2993463559
 20
96.7209912303
 10
138.2915673752
 20
96.7297767313
 10
138.2840044738
 20
96.7387701812
 10
138.2766706425
 20
96.7479552982
 10
138.2695788722
 20
96.7573158005
 10
138.2627421535
 20
96.766835406
 10
138.2561734774
 20
96.776497833
 10
138.2498858346
 20
96.7862867996
 10
138.2438922161
 20
96.7961860239
 10
138.2382045605
 20
96.8061791673
 10
138.2328305985
 20
96.8162496649
 10
138.2277770089
 20
96.8263808953
 10
138.2230504702
 20
96.8365562368
 10
138.2186576612
 20
96.8467590678
 10
138.2146052604
 20
96.8569727669
 10
138.2108999467
 20
96.8671807125
 10
138.2075483986
 20
96.8773662831
 10
138.2045564808
 20
96.8875131902
 10
138.2019268024
 20
96.8976064782
 10
138.1996611585
 20
96.9076315249
 10
138.1977613441
 20
96.9175737078
 10
138.1962291543
 20
96.9274184044
 10
138.1950663843
 20
96.9371509924
 10
138.194274829
 20
96.9467568495
 10
138.1938562836
 20
96.9562213531
  0
LWPOLYLINE
  5
29C
100
AcDbEntity
  8
0
100
AcDbPolyline
 62
253
  6
CONTINUOUS
 90
21
 70
0
 10
141.2733050165
 20
116.0401113667
 10
141.2721775575
 20
115.9978198938
 10
141.2704383131
 20
115.955771142
 10
141.2680881882
 20
115.9139737569
 10
141.2651280878
 20
115.8724363837
 10
141.261558917
 20
115.8311676681
 10
141.2573815806
 20
115.7901762553
 10
141.2525969839
 20
115.7494707909
 10
141.2472060316
 20
115.7090599202
 10
141.2412096288
 20
115.6689522888
 10
141.2346086806
 20
115.629156542
 10
141.2274040918
 20
115.5896813254
 10
141.2195967676
 20
115.5505352843
 10
141.2111878375
 20
115.5117268998
 10
141.2021793302
 20
115.4732639956
 10
141.1925734988
 20
115.4351542311
 10
141.1823725966
 20
115.3974052656
 10
141.1715788768
 20
115.3600247584
 10
141.1601945926
 20
115.3230203688
 10
141.1482219974
 20
115.2863997563
 10
141.1356633442
 20
115.2501705802
  0
LINE
  5
29D
100
AcDbEntity
  8
ASSI
100
AcDbLine
 62
7
  6
CONTINUOUS
 10
143.6801946012
 20
126.8471552066
 11
143.6190423456
 21
126.4201544961
  0
LINE
  5
29E
100
AcDbEntity
  8
0
100
AcDbLine
 62
7
  6
CONTINUOUS
 10
143.6801946012
 20
126.8471552066
 11
143.6190423456
 21
126.4201544961
  0
LWPOLYLINE
  5
29F
100
AcDbEntity
  8
SUPERFICI
100
AcDbPolyline
 62
7
  6
CONTINUOUS
 90
34
 70
0
 10
135.8474244367
 20
105.5052230103
 10
135.8437997596
 20
105.5020686219
 10
135.8114151903
 20
105.4704087216
 10
135.7824310505
 20
105.4354697431
 10
135.7569572533
 20
105.3972930628
 10
135.7348809057
 20
105.3558349656
 10
135.7164424115
 20
105.3115344157
 10
135.7016520096
 20
105.2642260765
 10
135.6904977528
 20
105.2140739531
 10
135.6831865248
 20
105.1620108104
 10
135.6797895879
 20
105.1081496574
 10
135.6802349919
 20
105.0523769365
 10
135.6845146774
 20
104.9952854406
 10
135.6926971542
 20
104.9367131802
 10
135.7047148511
 20
104.8768228773
 10
135.7203554562
 20
104.8166942673
 10
135.7396406574
 20
104.7564519613
 10
135.7625506982
 20
104.6959728457
 10
135.7888108019
 20
104.6359648132
 10
135.8185128294
 20
104.5763356495
 10
135.8515679417
 20
104.5171799322
 10
135.8874297507
 20
104.4594852824
 10
135.9261013854
 20
104.4033432739
 10
135.9675828552
 20
104.3486647902
 10
136.011322164
 20
104.2961656713
 10
136.0573774332
 20
104.2458432065
 10
136.1056936234
 20
104.1977025358
 10
136.1555477879
 20
104.1524703101
 10
136.2069757822
 20
104.1101920916
 10
136.2599440293
 20
104.0708241284
 10
136.3136238064
 20
104.0349578015
 10
136.3677387672
 20
104.0027901568
 10
136.4225660316
 20
103.9741247785
 10
136.4781062519
 20
103.9489622006
  0
LWPOLYLINE
  5
2A0
100
AcDbEntity
  8
SUPERFICI
100
AcDbPolyline
 62
7
  6
CONTINUOUS
 90
32
 70
0
 10
140.7760234378
 20
109.8773638392
 10
140.7964552852
 20
109.8942892774
 10
140.8306126938
 20
109.9274014027
 10
140.8612977574
 20
109.9637336963
 10
140.8883921
 20
110.0032378498
 10
140.9120112806
 20
110.0459597618
 10
140.9318959233
 20
110.0914449272
 10
140.9480357932
 20
110.1398586859
 10
140.9604395285
 20
110.191034322
 10
140.9688758133
 20
110.2440190574
 10
140.9732674704
 20
110.2986950374
 10
140.9736910304
 20
110.355179572
 10
140.9701455972
 20
110.4128725321
 10
140.9625628821
 20
110.4719360886
 10
140.9510120709
 20
110.5322088419
 10
140.9356983304
 20
110.5926052036
 10
140.9165985256
 20
110.6529993775
 10
140.8937376107
 20
110.7135187346
 10
140.867392579
 20
110.7734571983
 10
140.8374719826
 20
110.8329073207
 10
140.8040701298
 20
110.8917790049
 10
140.767742096
 20
110.9490917456
 10
140.7284858723
 20
111.0047548869
 10
140.6863064397
 20
111.0588616329
 10
140.6417684592
 20
111.1107065182
 10
140.5948144295
 20
111.1602927617
 10
140.5455047891
 20
111.2076196456
 10
140.4945799431
 20
111.2519748203
 10
140.4420039415
 20
111.2933126462
 10
140.3878149234
 20
111.3316806124
 10
140.3328628613
 20
111.3665047444
 10
140.2774309819
 20
111.3975936325
  0
LWPOLYLINE
  5
2A1
100
AcDbEntity
  8
ASSI
100
AcDbPolyline
 62
7
  6
CONTINUOUS
 90
12
 70
0
 10
135.8474095218
 20
105.5052411999
 10
135.8621915443
 20
105.5173659093
 10
135.9084496437
 20
105.548876721
 10
135.9591950539
 20
105.5742083675
 10
136.0142464142
 20
105.5934698653
 10
136.0721647229
 20
105.6062572384
 10
136.1329010682
 20
105.6124137906
 10
136.1965093824
 20
105.6121001684
 10
136.261701586
 20
105.6053857366
 10
136.3280485436
 20
105.5922937894
 10
136.395982139
 20
105.5728032155
 10
136.4655043449
 20
105.5469156004
  0
LWPOLYLINE
  5
2A2
100
AcDbEntity
  8
0
100
AcDbPolyline
 62
7
  6
CONTINUOUS
 90
12
 70
0
 10
135.8474095218
 20
105.5052411999
 10
135.8621915443
 20
105.5173659093
 10
135.9084496437
 20
105.548876721
 10
135.9591950539
 20
105.5742083675
 10
136.0142464142
 20
105.5934698653
 10
136.0721647229
 20
105.6062572384
 10
136.1329010682
 20
105.6124137906
 10
136.1965093824
 20
105.6121001684
 10
136.261701586
 20
105.6053857366
 10
136.3280485436
 20
105.5922937894
 10
136.395982139
 20
105.5728032155
 10
136.4655043449
 20
105.5469156004
  0
LINE
  5
2A3
100
AcDbEntity
  8
SUPERFICI
100
AcDbLine
 62
7
  6
CONTINUOUS
 10
135.8790096291
 20
105.5298824186
 11
135.8474244367
 21
105.5052230103
  0
LWPOLYLINE
  5
2A4
100
AcDbEntity
  8
ASSI
100
AcDbPolyline
 62
7
  6
CONTINUOUS
 90
10
 70
0
 10
140.7760252574
 20
109.877361612
 10
140.7285591949
 20
109.8448220419
 10
140.6754764868
 20
109.8175757931
 10
140.6180503449
 20
109.796368988
 10
140.5577865306
 20
109.7816602892
 10
140.494742469
 20
109.7736133666
 10
140.4288655451
 20
109.7720686524
 10
140.3614932446
 20
109.7769972533
 10
140.2930716223
 20
109.7883897348
 10
140.2231573099
 20
109.8062578003
  0
LWPOLYLINE
  5
2A5
100
AcDbEntity
  8
0
100
AcDbPolyline
 62
7
  6
CONTINUOUS
 90
10
 70
0
 10
140.7760252574
 20
109.877361612
 10
140.7285591949
 20
109.8448220419
 10
140.6754764868
 20
109.8175757931
 10
140.6180503449
 20
109.796368988
 10
140.5577865306
 20
109.7816602892
 10
140.494742469
 20
109.7736133666
 10
140.4288655451
 20
109.7720686524
 10
140.3614932446
 20
109.7769972533
 10
140.2930716223
 20
109.7883897348
 10
140.2231573099
 20
109.8062578003
  0
LINE
  5
2A6
100
AcDbEntity
  8
0
100
AcDbLine
 62
253
  6
CONTINUOUS
 10
156.4592942668
 20
93.8972827475
 11
156.4831448782
 21
93.88827236
  0
LINE
  5
2A7
100
AcDbEntity
  8
0
100
AcDbLine
 62
253
  6
CONTINUOUS
 10
156.4831448782
 20
93.88827236
 11
156.5069985094
 21
93.8790720552
  0
LWPOLYLINE
  5
2A8
100
AcDbEntity
  8
0
100
AcDbPolyline
 62
253
  6
CONTINUOUS
 90
3
 70
0
 10
156.5069985094
 20
93.8790720552
 10
156.530853996
 20
93.8696826202
 10
156.5427820712
 20
93.864917225
  0
LWPOLYLINE
  5
2A9
100
AcDbEntity
  8
0
100
AcDbPolyline
 62
253
  6
CONTINUOUS
 90
55
 70
0
 10
138.3576058573
 20
101.1684947727
 10
138.4413070725
 20
101.1337430368
 10
138.5251058173
 20
101.0966298574
 10
138.6089518622
 20
101.0571629791
 10
138.6927949775
 20
101.0153501464
 10
138.7765849338
 20
100.9711991037
 10
138.8602715013
 20
100.9247175955
 10
138.9437897865
 20
100.8759272257
 10
139.0270162386
 20
100.8249050355
 10
139.1098126429
 20
100.7717419256
 10
139.1920407845
 20
100.7165287968
 10
139.2735624488
 20
100.6593565497
 10
139.3542394209
 20
100.600316085
 10
139.4339524746
 20
100.539488701
 10
139.5126583381
 20
100.4769172857
 10
139.5903327282
 20
100.4126351251
 10
139.6669513617
 20
100.3466755047
 10
139.7424899555
 20
100.2790717104
 10
139.8169242263
 20
100.2098570279
 10
139.8902267208
 20
100.139063043
 10
139.9623573057
 20
100.066714542
 10
140.0332726775
 20
99.9928346113
 10
140.1029295328
 20
99.9174463373
 10
140.1712845681
 20
99.8405728063
 10
140.2382944799
 20
99.7622371047
 10
140.3039050842
 20
99.6824824003
 10
140.3680186742
 20
99.6014321863
 10
140.4305266625
 20
99.5192300373
 10
140.4913204618
 20
99.4360195278
 10
140.5502914847
 20
99.3519442325
 10
140.6073311437
 20
99.267147726
 10
140.6623469281
 20
99.1817567825
 10
140.7153106327
 20
99.0958309751
 10
140.7662101291
 20
99.0094130765
 10
140.8150332886
 20
98.9225458595
 10
140.8617679827
 20
98.8352720968
 10
140.9064020829
 20
98.7476345612
 10
140.9489203026
 20
98.6596805263
 10
140.9892947232
 20
98.5714752693
 10
141.0274942684
 20
98.4830885685
 10
141.0634878614
 20
98.394590202
 10
141.0972444258
 20
98.3060499479
 10
141.1287328851
 20
98.2175375846
 10
141.1579242519
 20
98.1291235379
 10
141.1847978949
 20
98.0408808255
 10
141.2093352723
 20
97.9528831128
 10
141.2315178419
 20
97.8652040653
 10
141.2513270618
 20
97.7779173484
 10
141.26874439
 20
97.6910966275
 10
141.2837533355
 20
97.6048149486
 10
141.2963456118
 20
97.519142879
 10
141.3065149836
 20
97.4341503667
 10
141.3142552153
 20
97.3499073595
 10
141.3195600717
 20
97.2664838053
 10
141.3224233172
 20
97.1839496519
  0
LWPOLYLINE
  5
2AA
100
AcDbEntity
  8
0
100
AcDbPolyline
 62
253
  6
CONTINUOUS
 90
32
 70
0
 10
141.3224233278
 20
97.183948048
 10
141.3229661671
 20
97.1271118588
 10
141.3223270964
 20
97.0707353612
 10
141.3205063193
 20
97.0148411306
 10
141.3175040397
 20
96.9594517422
 10
141.3133204612
 20
96.9045897712
 10
141.3079557876
 20
96.850277793
 10
141.3014102226
 20
96.7965383828
 10
141.2936844672
 20
96.7433942311
 10
141.2847812113
 20
96.6908684895
 10
141.2747036422
 20
96.6389844247
 10
141.2634549473
 20
96.5877653035
 10
141.2510383136
 20
96.5372343928
 10
141.2374569286
 20
96.4874149592
 10
141.2227139794
 20
96.4383302697
 10
141.2068147791
 20
96.3900044451
 10
141.1897731443
 20
96.3424650227
 10
141.1716050174
 20
96.2957403939
 10
141.1523263408
 20
96.2498589503
 10
141.1319530569
 20
96.2048490832
 10
141.110501108
 20
96.1607391841
 10
141.0879864365
 20
96.1175576444
 10
141.0644218694
 20
96.0753270771
 10
141.0398077709
 20
96.034046981
 10
141.0141413901
 20
95.9937110764
 10
140.9874199759
 20
95.9543130835
 10
140.9596407771
 20
95.9158467229
 10
140.9308010426
 20
95.8783057146
 10
140.9008980214
 20
95.8416837792
 10
140.8720233255
 20
95.8083285558
 10
140.842196987
 20
95.775772861
 10
140.8113960004
 20
95.744021079
  0
LWPOLYLINE
  5
2AB
100
AcDbEntity
  8
0
100
AcDbPolyline
 62
253
  6
CONTINUOUS
 90
55
 70
0
 10
141.8236193836
 20
96.9950584344
 10
141.8241185778
 20
96.900704501
 10
141.8218192759
 20
96.8074256085
 10
141.8167189219
 20
96.7152962765
 10
141.8088149596
 20
96.6243910241
 10
141.798104833
 20
96.5347843707
 10
141.784588244
 20
96.4465531276
 10
141.7682739267
 20
96.359783275
 10
141.7491728728
 20
96.2745630851
 10
141.7272960744
 20
96.1909808301
 10
141.7026545234
 20
96.1091247821
 10
141.6752678607
 20
96.0290855414
 10
141.6451903232
 20
95.9509630199
 10
141.6124847965
 20
95.8748594574
 10
141.5772141664
 20
95.8008770939
 10
141.5394413187
 20
95.7291181692
 10
141.4992176182
 20
95.659663463
 10
141.4565483465
 20
95.5925079147
 10
141.4114272638
 20
95.5276250034
 10
141.3638481308
 20
95.464988208
 10
141.313804708
 20
95.4045710078
 10
141.2612795929
 20
95.3463552509
 10
141.2062107314
 20
95.290356262
 10
141.1485249062
 20
95.236597735
 10
141.0881489004
 20
95.1851033636
 10
141.0250094966
 20
95.1358968418
 10
140.9590389056
 20
95.0890159783
 10
140.8901910486
 20
95.0445550425
 10
140.8184252743
 20
95.0026224187
 10
140.7437009317
 20
94.9633264913
 10
140.6659773697
 20
94.9267756446
 10
140.5988784271
 20
94.898495206
 10
140.5295914821
 20
94.8722798805
 10
140.4580395535
 20
94.8482132083
 10
140.3841456599
 20
94.8263787296
 10
140.3078328203
 20
94.8068599845
 10
140.2290240533
 20
94.7897405133
 10
140.1476607375
 20
94.775115735
 10
140.0637576909
 20
94.7631285846
 10
139.9773480912
 20
94.7539338762
 10
139.888465116
 20
94.7476864235
 10
139.7971419431
 20
94.7445410405
 10
139.7034117503
 20
94.7446525412
 10
139.6073639687
 20
94.7481483691
 10
139.5093130441
 20
94.755046486
 10
139.4096296757
 20
94.7653374833
 10
139.3086845628
 20
94.7790119523
 10
139.2068484047
 20
94.7960604846
 10
139.1044919006
 20
94.8164736714
 10
139.0019251597
 20
94.8402366393
 10
138.8992159304
 20
94.8673126561
 10
138.796371371
 20
94.8976595245
 10
138.6933986401
 20
94.9312350474
 10
138.5903048959
 20
94.9679970277
 10
138.4870972967
 20
95.0079032681
  0
LINE
  5
2AC
100
AcDbEntity
  8
ASSI
100
AcDbLine
 62
253
  6
CONTINUOUS
 10
143.6190423456
 20
126.4201544961
 11
143.6190423337
 21
126.4092492281
  0
LINE
  5
2AD
100
AcDbEntity
  8
0
100
AcDbLine
 62
253
  6
CONTINUOUS
 10
143.6190423456
 20
126.4201544961
 11
143.6190423337
 21
126.4092492281
  0
LWPOLYLINE
  5
2AE
100
AcDbEntity
  8
0
100
AcDbPolyline
 62
253
  6
CONTINUOUS
 90
55
 70
0
 10
141.7743475796
 20
115.8510924249
 10
141.7710211656
 20
115.7525488486
 10
141.7648367239
 20
115.6551454633
 10
141.7557981668
 20
115.5589609428
 10
141.7439094065
 20
115.4640739613
 10
141.7291743553
 20
115.3705631927
 10
141.7115969255
 20
115.278507311
 10
141.6911843936
 20
115.1879858616
 10
141.6679574938
 20
115.0990818755
 10
141.6419403246
 20
115.0118792553
 10
141.6131569845
 20
114.9264619034
 10
141.5816315719
 20
114.8429137223
 10
141.5473881854
 20
114.7613186144
 10
141.510452948
 20
114.6817558674
 10
141.4708600817
 20
114.6042863097
 10
141.4286458329
 20
114.5289661547
 10
141.3838464482
 20
114.4558516161
 10
141.336498174
 20
114.3849989074
 10
141.2866372568
 20
114.3164642421
 10
141.2342964837
 20
114.2503022217
 10
141.1794948038
 20
114.1865609994
 10
141.1222477069
 20
114.1252871164
 10
141.0625706825
 20
114.0665271138
 10
141.0004792204
 20
114.0103275328
 10
140.9359888104
 20
113.9567349146
 10
140.8691336864
 20
113.905801107
 10
140.8000230607
 20
113.8575991842
 10
140.7287848898
 20
113.8122075272
 10
140.6555471303
 20
113.7697045171
 10
140.5804377388
 20
113.7301685348
 10
140.5035846718
 20
113.6936779612
 10
140.4251025562
 20
113.6602966604
 10
140.3450526999
 20
113.6300304291
 10
140.2634830812
 20
113.6028705472
 10
140.1804416783
 20
113.5788082945
 10
140.0959764694
 20
113.5578349507
 10
140.0101354328
 20
113.5399417957
 10
139.9229637923
 20
113.5251253709
 10
139.8344957543
 20
113.5134032634
 10
139.744762771
 20
113.5047983223
 10
139.6537962943
 20
113.4993333963
 10
139.5616277764
 20
113.4970313342
 10
139.4682886694
 20
113.4979149849
 10
139.3738325689
 20
113.5020001971
 10
139.2784016449
 20
113.5092748199
 10
139.1821602112
 20
113.519719702
 10
139.0852725814
 20
113.5333156923
 10
138.9879030692
 20
113.5500436398
 10
138.8902159882
 20
113.5698843931
 10
138.7923579066
 20
113.5928153497
 10
138.6944044103
 20
113.6188000996
 10
138.5964133399
 20
113.6477987816
 10
138.4984425358
 20
113.6797715342
 10
138.4005498385
 20
113.714678496
 10
138.3027930885
 20
113.7524798055
  0
LINE
  5
2AF
100
AcDbEntity
  8
ASSI
100
AcDbLine
 62
7
  6
CONTINUOUS
 10
143.6183734332
 20
126.4092492288
 11
143.6190423456
 21
126.4201544961
  0
LINE
  5
2B0
100
AcDbEntity
  8
0
100
AcDbLine
 62
7
  6
CONTINUOUS
 10
143.6183734332
 20
126.4092492288
 11
143.6190423456
 21
126.4201544961
  0
LINE
  5
2B1
100
AcDbEntity
  8
ASSI
100
AcDbLine
 62
7
  6
CONTINUOUS
 10
165.483657536
 20
118.0903929444
 11
164.847752619
 21
117.8942258602
  0
LINE
  5
2B2
100
AcDbEntity
  8
0
100
AcDbLine
 62
7
  6
CONTINUOUS
 10
165.483657536
 20
118.0903929444
 11
164.847752619
 21
117.8942258602
  0
LINE
  5
2B3
100
AcDbEntity
  8
0
100
AcDbLine
 62
7
  6
CONTINUOUS
 10
158.4208052394
 20
95.1405560037
 11
158.349456341
 21
95.1649349257
  0
LINE
  5
2B4
100
AcDbEntity
  8
ASSI
100
AcDbLine
 62
7
  6
CONTINUOUS
 10
158.4208052394
 20
95.1405560037
 11
158.349456341
 21
95.1649349257
  0
LINE
  5
2B5
100
AcDbEntity
  8
ASSI
100
AcDbLine
 62
7
  6
CONTINUOUS
 10
140.2356298562
 20
102.4441324128
 11
140.1642809578
 21
102.4685113348
  0
LINE
  5
2B6
100
AcDbEntity
  8
0
100
AcDbLine
 62
7
  6
CONTINUOUS
 10
140.2356298562
 20
102.4441324128
 11
140.1642809578
 21
102.4685113348
  0
LWPOLYLINE
  5
2B7
100
AcDbEntity
  8
SUPERFICI
100
AcDbPolyline
 62
7
  6
CONTINUOUS
 90
14
 70
0
 10
158.3494563619
 20
95.1649349177
 10
158.4064190934
 20
95.1449162909
 10
158.4626149963
 20
95.1289926743
 10
158.5180434196
 20
95.1171635259
 10
158.5729769495
 20
95.1093986675
 10
158.627142218
 20
95.1057276263
 10
158.6797188868
 20
95.1062387793
 10
158.730697215
 20
95.1110108671
 10
158.7800848308
 20
95.1199633672
 10
158.8270858537
 20
95.1329444143
 10
158.8716035713
 20
95.1499819739
 10
158.9137316656
 20
95.1710455145
 10
158.9529586812
 20
95.1958944411
 10
158.9694287515
 20
95.2081612446
  0
LWPOLYLINE
  5
2B8
100
AcDbEntity
  8
SUPERFICI
100
AcDbPolyline
 62
7
  6
CONTINUOUS
 90
14
 70
0
 10
140.1642809787
 20
102.4685113268
 10
140.2212437102
 20
102.4484927
 10
140.2774396131
 20
102.4325690834
 10
140.3328680364
 20
102.420739935
 10
140.3878015663
 20
102.4129750766
 10
140.4419668347
 20
102.4093040354
 10
140.4945435036
 20
102.4098151884
 10
140.5455218318
 20
102.4145872762
 10
140.5949094476
 20
102.4235397762
 10
140.6419104705
 20
102.4365208234
 10
140.6864281881
 20
102.453558383
 10
140.7285562824
 20
102.4746219236
 10
140.767783298
 20
102.4994708502
 10
140.7842533683
 20
102.5117376537
  0
LINE
  5
2B9
100
AcDbEntity
  8
0
100
AcDbLine
 62
253
  6
CONTINUOUS
 10
138.2741188835
 20
101.2008591566
 11
138.2979694949
 21
101.1918487691
  0
LINE
  5
2BA
100
AcDbEntity
  8
0
100
AcDbLine
 62
253
  6
CONTINUOUS
 10
138.2979694949
 20
101.1918487691
 11
138.3218231262
 21
101.1826484643
  0
LINE
  5
2BB
100
AcDbEntity
  8
SUPERFICI
100
AcDbLine
 62
7
  6
CONTINUOUS
 10
157.5222346154
 20
95.4872666399
 11
158.3494563619
 21
95.1649349177
  0
LINE
  5
2BC
100
AcDbEntity
  8
0
100
AcDbLine
 62
7
  6
CONTINUOUS
 10
158.349456341
 20
95.1649349257
 11
157.5222062059
 21
95.4872778061
  0
LINE
  5
2BD
100
AcDbEntity
  8
ASSI
100
AcDbLine
 62
7
  6
CONTINUOUS
 10
158.349456341
 20
95.1649349257
 11
157.5222062059
 21
95.4872778061
  0
LINE
  5
2BE
100
AcDbEntity
  8
ASSI
100
AcDbLine
 62
7
  6
CONTINUOUS
 10
140.1642809578
 20
102.4685113348
 11
139.3370308227
 21
102.7908542151
  0
LINE
  5
2BF
100
AcDbEntity
  8
0
100
AcDbLine
 62
7
  6
CONTINUOUS
 10
140.1642809578
 20
102.4685113348
 11
139.3370308227
 21
102.7908542151
  0
LINE
  5
2C0
100
AcDbEntity
  8
SUPERFICI
100
AcDbLine
 62
7
  6
CONTINUOUS
 10
139.3370592322
 20
102.790843049
 11
140.1642809787
 21
102.4685113268
  0
LWPOLYLINE
  5
2C1
100
AcDbEntity
  8
0
100
AcDbPolyline
 62
253
  6
CONTINUOUS
 90
3
 70
0
 10
138.3218231262
 20
101.1826484643
 10
138.3456786128
 20
101.1732590293
 10
138.357606688
 20
101.1684936341
  0
LINE
  5
2C2
100
AcDbEntity
  8
SUPERFICI
100
AcDbLine
 62
7
  6
CONTINUOUS
 10
156.6995852319
 20
95.8134182925
 11
157.5222346154
 21
95.4872666399
  0
LINE
  5
2C3
100
AcDbEntity
  8
0
100
AcDbLine
 62
7
  6
CONTINUOUS
 10
157.5222062059
 20
95.4872778061
 11
156.6995737129
 21
95.8134228992
  0
LINE
  5
2C4
100
AcDbEntity
  8
ASSI
100
AcDbLine
 62
7
  6
CONTINUOUS
 10
157.5222062059
 20
95.4872778061
 11
156.6995737129
 21
95.8134228992
  0
LINE
  5
2C5
100
AcDbEntity
  8
ASSI
100
AcDbLine
 62
7
  6
CONTINUOUS
 10
139.3370308227
 20
102.7908542151
 11
138.5143983297
 21
103.1169993083
  0
LINE
  5
2C6
100
AcDbEntity
  8
0
100
AcDbLine
 62
7
  6
CONTINUOUS
 10
139.3370308227
 20
102.7908542151
 11
138.5143983297
 21
103.1169993083
  0
LINE
  5
2C7
100
AcDbEntity
  8
SUPERFICI
100
AcDbLine
 62
7
  6
CONTINUOUS
 10
138.5144098487
 20
103.1169947015
 11
139.3370592322
 21
102.790843049
  0
LINE
  5
2C8
100
AcDbEntity
  8
SUPERFICI
100
AcDbLine
 62
7
  6
CONTINUOUS
 10
137.6963740969
 20
103.4469506598
 11
138.5144098487
 21
103.1169947015
  0
LINE
  5
2C9
100
AcDbEntity
  8
ASSI
100
AcDbLine
 62
7
  6
CONTINUOUS
 10
138.5143983297
 20
103.1169993083
 11
137.6964045759
 21
103.4469382603
  0
LINE
  5
2CA
100
AcDbEntity
  8
0
100
AcDbLine
 62
7
  6
CONTINUOUS
 10
138.5143983297
 20
103.1169993083
 11
137.6964045759
 21
103.4469382603
  0
LINE
  5
2CB
100
AcDbEntity
  8
0
100
AcDbLine
 62
7
  6
CONTINUOUS
 10
156.6995737129
 20
95.8134228992
 11
155.8815799591
 21
96.1433618512
  0
LINE
  5
2CC
100
AcDbEntity
  8
ASSI
100
AcDbLine
 62
7
  6
CONTINUOUS
 10
156.6995737129
 20
95.8134228992
 11
155.8815799591
 21
96.1433618512
  0
LINE
  5
2CD
100
AcDbEntity
  8
SUPERFICI
100
AcDbLine
 62
7
  6
CONTINUOUS
 10
155.8815494801
 20
96.1433742508
 11
156.6995852319
 21
95.8134182925
  0
LINE
  5
2CE
100
AcDbEntity
  8
ASSI
100
AcDbLine
 62
7
  6
CONTINUOUS
 10
137.6964045759
 20
103.4469382603
 11
136.8830402578
 21
103.7806747815
  0
LINE
  5
2CF
100
AcDbEntity
  8
0
100
AcDbLine
 62
7
  6
CONTINUOUS
 10
137.6964045759
 20
103.4469382603
 11
136.8830402578
 21
103.7806747815
  0
LINE
  5
2D0
100
AcDbEntity
  8
0
100
AcDbLine
 62
7
  6
CONTINUOUS
 10
155.8815799591
 20
96.1433618512
 11
155.068215641
 21
96.4770983725
  0
LINE
  5
2D1
100
AcDbEntity
  8
ASSI
100
AcDbLine
 62
7
  6
CONTINUOUS
 10
155.8815799591
 20
96.1433618512
 11
155.068215641
 21
96.4770983725
  0
LWPOLYLINE
  5
2D2
100
AcDbEntity
  8
0
100
AcDbPolyline
 62
253
  6
CONTINUOUS
 90
55
 70
0
 10
156.5427812405
 20
93.8649183636
 10
156.6264824557
 20
93.8301666277
 10
156.7102812005
 20
93.7930534483
 10
156.7941272454
 20
93.7535865701
 10
156.8779703608
 20
93.7117737373
 10
156.961760317
 20
93.6676226946
 10
157.0454468846
 20
93.6211411864
 10
157.1289651697
 20
93.5723508166
 10
157.2121916218
 20
93.5213286264
 10
157.2949880261
 20
93.4681655165
 10
157.3772161678
 20
93.4129523877
 10
157.458737832
 20
93.3557801406
 10
157.5394148041
 20
93.2967396759
 10
157.6191278578
 20
93.2359122919
 10
157.6978337213
 20
93.1733408766
 10
157.7755081114
 20
93.109058716
 10
157.852126745
 20
93.0430990956
 10
157.9276653387
 20
92.9754953013
 10
158.0020996095
 20
92.9062806188
 10
158.075402104
 20
92.8354866339
 10
158.1475326889
 20
92.763138133
 10
158.2184480607
 20
92.6892582023
 10
158.288104916
 20
92.6138699282
 10
158.3564599513
 20
92.5369963972
 10
158.4234698631
 20
92.4586606956
 10
158.4890804674
 20
92.3789059912
 10
158.5531940574
 20
92.2978557772
 10
158.6157020457
 20
92.2156536282
 10
158.676495845
 20
92.1324431187
 10
158.7354668679
 20
92.0483678234
 10
158.7925065269
 20
91.9635713169
 10
158.8475223113
 20
91.8781803734
 10
158.900486016
 20
91.792254566
 10
158.9513855123
 20
91.7058366674
 10
159.0002086718
 20
91.6189694504
 10
159.0469433659
 20
91.5316956877
 10
159.0915774661
 20
91.4440581521
 10
159.1340956858
 20
91.3561041172
 10
159.1744701065
 20
91.2678988602
 10
159.2126696516
 20
91.1795121594
 10
159.2486632446
 20
91.0910137929
 10
159.282419809
 20
91.0024735388
 10
159.3139082683
 20
90.9139611755
 10
159.3430996351
 20
90.8255471288
 10
159.3699732781
 20
90.7373044164
 10
159.3945106555
 20
90.6493067037
 10
159.4166932251
 20
90.5616276562
 10
159.436502445
 20
90.4743409393
 10
159.4539197732
 20
90.3875202184
 10
159.4689287187
 20
90.3012385395
 10
159.481520995
 20
90.21556647
 10
159.4916903668
 20
90.1305739576
 10
159.4994305985
 20
90.0463309504
 10
159.5047354549
 20
89.9629073962
 10
159.5075987004
 20
89.8803732428
  0
LWPOLYLINE
  5
2D3
100
AcDbEntity
  8
0
100
AcDbPolyline
 62
253
  6
CONTINUOUS
 90
55
 70
0
 10
138.350997748
 20
101.6549654774
 10
138.4489204362
 20
101.6143131697
 10
138.5469664498
 20
101.5709032078
 10
138.6450772859
 20
101.5247441796
 10
138.7431944418
 20
101.475844673
 10
138.8412594143
 20
101.424213276
 10
138.9392137008
 20
101.3698585764
 10
139.036981395
 20
101.3128054992
 10
139.1344169775
 20
101.2531443172
 10
139.2313575256
 20
101.1909816404
 10
139.3276401166
 20
101.1264240786
 10
139.4231018278
 20
101.0595782417
 10
139.5175797365
 20
100.9905507396
 10
139.6109332544
 20
100.9194369363
 10
139.7031111313
 20
100.8462872123
 10
139.7940844514
 20
100.7711407022
 10
139.883824299
 20
100.6940365407
 10
139.9723017582
 20
100.6150138624
 10
140.0594879133
 20
100.534111802
 10
140.1453502605
 20
100.4513673567
 10
140.2298419439
 20
100.3668089743
 10
140.31291252
 20
100.2804629653
 10
140.3945115447
 20
100.1923556401
 10
140.4745885744
 20
100.1025133091
 10
140.5530931652
 20
100.0109622829
 10
140.6299620193
 20
99.9177523926
 10
140.7050804224
 20
99.823027553
 10
140.7783208063
 20
99.7269551994
 10
140.8495556026
 20
99.6297027672
 10
140.918657243
 20
99.5314376921
 10
140.9854981592
 20
99.4323274093
 10
141.0499697677
 20
99.3325195014
 10
141.1120394238
 20
99.2320821392
 10
141.1716934677
 20
99.1310636408
 10
141.2289182397
 20
99.0295123239
 10
141.2837000797
 20
98.9274765065
 10
141.3360253282
 20
98.8250045065
 10
141.3858764012
 20
98.7221494163
 10
141.4332200201
 20
98.6189834262
 10
141.4780189819
 20
98.5155835007
 10
141.520236084
 20
98.4120266047
 10
141.5598341236
 20
98.3083897026
 10
141.5967758979
 20
98.2047497593
 10
141.6310261946
 20
98.1011878796
 10
141.6625577624
 20
97.9978017297
 10
141.6913453403
 20
97.894693116
 10
141.7173636674
 20
97.791963845
 10
141.7405874827
 20
97.6897157229
 10
141.7609915254
 20
97.5880505562
 10
141.7785543891
 20
97.4870657808
 10
141.7932700861
 20
97.3868413505
 10
141.8051364834
 20
97.2874528488
 10
141.8141514479
 20
97.1889758589
 10
141.8203128465
 20
97.0914859643
 10
141.8236185462
 20
96.9950587483
  0
LWPOLYLINE
  5
2D4
100
AcDbEntity
  8
0
100
AcDbPolyline
 62
253
  6
CONTINUOUS
 90
55
 70
0
 10
156.5361731312
 20
94.3513890683
 10
156.6340958194
 20
94.3107367606
 10
156.732141833
 20
94.2673267987
 10
156.8302526692
 20
94.2211677705
 10
156.928369825
 20
94.1722682639
 10
157.0264347976
 20
94.1206368669
 10
157.124389084
 20
94.0662821673
 10
157.2221567782
 20
94.0092290901
 10
157.3195923607
 20
93.9495679081
 10
157.4165329089
 20
93.8874052313
 10
157.5128154999
 20
93.8228476695
 10
157.608277211
 20
93.7560018326
 10
157.7027551197
 20
93.6869743305
 10
157.7961086376
 20
93.6158605272
 10
157.8882865145
 20
93.5427108032
 10
157.9792598346
 20
93.4675642931
 10
158.0689996822
 20
93.3904601316
 10
158.1574771414
 20
93.3114374534
 10
158.2446632965
 20
93.2305353929
 10
158.3305256437
 20
93.1477909476
 10
158.4150173272
 20
93.0632325652
 10
158.4980879032
 20
92.9768865562
 10
158.5796869279
 20
92.888779231
 10
158.6597639576
 20
92.7989369
 10
158.7382685484
 20
92.7073858738
 10
158.8151374025
 20
92.6141759835
 10
158.8902558056
 20
92.5194511439
 10
158.9634961895
 20
92.4233787903
 10
159.0347309858
 20
92.3261263582
 10
159.1038326262
 20
92.227861283
 10
159.1706735424
 20
92.1287510002
 10
159.2351451509
 20
92.0289430923
 10
159.297214807
 20
91.9285057301
 10
159.3568688509
 20
91.8274872317
 10
159.4140936229
 20
91.7259359148
 10
159.468875463
 20
91.6239000974
 10
159.5212007114
 20
91.5214280974
 10
159.5710517845
 20
91.4185730072
 10
159.6183954033
 20
91.3154070171
 10
159.6631943651
 20
91.2120070917
 10
159.7054114672
 20
91.1084501956
 10
159.7450095068
 20
91.0048132935
 10
159.7819512812
 20
90.9011733502
 10
159.8162015778
 20
90.7976114705
 10
159.8477331456
 20
90.6942253206
 10
159.8765207235
 20
90.591116707
 10
159.9025390506
 20
90.4883874359
 10
159.9257628659
 20
90.3861393138
 10
159.9461669086
 20
90.2844741471
 10
159.9637297723
 20
90.1834893717
 10
159.9784454694
 20
90.0832649414
 10
159.9903118667
 20
89.9838764397
 10
159.9993268311
 20
89.8853994499
 10
160.0054882298
 20
89.7879095553
 10
160.0087939294
 20
89.6914823392
  0
LWPOLYLINE
  5
2D5
100
AcDbEntity
  8
SUPERFICI
100
AcDbPolyline
 62
7
  6
CONTINUOUS
 90
3
 70
0
 10
136.4781062519
 20
103.9489622006
 10
136.8830203126
 20
103.7806830358
 10
137.6963740969
 20
103.4469506598
  0
LINE
  5
2D6
100
AcDbEntity
  8
ASSI
100
AcDbLine
 62
7
  6
CONTINUOUS
 10
136.8830301963
 20
103.780678963
 11
136.4781063229
 21
103.9489621709
  0
LINE
  5
2D7
100
AcDbEntity
  8
0
100
AcDbLine
 62
7
  6
CONTINUOUS
 10
136.8830301963
 20
103.780678963
 11
136.4781063229
 21
103.9489621709
  0
LINE
  5
2D8
100
AcDbEntity
  8
0
100
AcDbLine
 62
7
  6
CONTINUOUS
 10
155.0682055795
 20
96.4771025539
 11
154.6632817061
 21
96.6453857618
  0
LINE
  5
2D9
100
AcDbEntity
  8
ASSI
100
AcDbLine
 62
7
  6
CONTINUOUS
 10
155.0682055795
 20
96.4771025539
 11
154.6632817061
 21
96.6453857618
  0
LWPOLYLINE
  5
2DA
100
AcDbEntity
  8
SUPERFICI
100
AcDbPolyline
 62
7
  6
CONTINUOUS
 90
3
 70
0
 10
154.6632816351
 20
96.6453857915
 10
155.0681956959
 20
96.4771066267
 10
155.8815494801
 20
96.1433742508
  0
LWPOLYLINE
  5
2DB
100
AcDbEntity
  8
ASSI
100
AcDbPolyline
 62
7
  6
CONTINUOUS
 90
27
 70
0
 10
136.4781063229
 20
103.9489621709
 10
136.4084649908
 20
103.9812286615
 10
136.3403459347
 20
104.0186376519
 10
136.2737473463
 20
104.0611876732
 10
136.2082388626
 20
104.1092162242
 10
136.1442484348
 20
104.1623838655
 10
136.0830602505
 20
104.2196725522
 10
136.0246216575
 20
104.2812814177
 10
135.9689805934
 20
104.3470076057
 10
135.9175687442
 20
104.4152273853
 10
135.8705644236
 20
104.4858780909
 10
135.8277828411
 20
104.5590173016
 10
135.7901085162
 20
104.6331996419
 10
135.7575913878
 20
104.708577772
 10
135.730176101
 20
104.7849948119
 10
135.7085878338
 20
104.8605399317
 10
135.6929823798
 20
104.9351312629
 10
135.6832003924
 20
105.0088479101
 10
135.6794936068
 20
105.0800198708
 10
135.6820156381
 20
105.1485880779
 10
135.690612614
 20
105.21461141
 10
135.7050747669
 20
105.2765965126
 10
135.7255640824
 20
105.3344874415
 10
135.7519217092
 20
105.3883425985
 10
135.7834559894
 20
105.436839588
 10
135.8202327932
 20
105.4797797641
 10
135.8474095218
 20
105.5052411999
  0
LWPOLYLINE
  5
2DC
100
AcDbEntity
  8
0
100
AcDbPolyline
 62
7
  6
CONTINUOUS
 90
27
 70
0
 10
136.4781063229
 20
103.9489621709
 10
136.4084649908
 20
103.9812286615
 10
136.3403459347
 20
104.0186376519
 10
136.2737473463
 20
104.0611876732
 10
136.2082388626
 20
104.1092162242
 10
136.1442484348
 20
104.1623838655
 10
136.0830602505
 20
104.2196725522
 10
136.0246216575
 20
104.2812814177
 10
135.9689805934
 20
104.3470076057
 10
135.9175687442
 20
104.4152273853
 10
135.8705644236
 20
104.4858780909
 10
135.8277828411
 20
104.5590173016
 10
135.7901085162
 20
104.6331996419
 10
135.7575913878
 20
104.708577772
 10
135.730176101
 20
104.7849948119
 10
135.7085878338
 20
104.8605399317
 10
135.6929823798
 20
104.9351312629
 10
135.6832003924
 20
105.0088479101
 10
135.6794936068
 20
105.0800198708
 10
135.6820156381
 20
105.1485880779
 10
135.690612614
 20
105.21461141
 10
135.7050747669
 20
105.2765965126
 10
135.7255640824
 20
105.3344874415
 10
135.7519217092
 20
105.3883425985
 10
135.7834559894
 20
105.436839588
 10
135.8202327932
 20
105.4797797641
 10
135.8474095218
 20
105.5052411999
  0
LWPOLYLINE
  5
2DD
100
AcDbEntity
  8
0
100
AcDbPolyline
 62
7
  6
CONTINUOUS
 90
27
 70
0
 10
154.6632817061
 20
96.6453857618
 10
154.593640374
 20
96.6776522524
 10
154.5255213179
 20
96.7150612429
 10
154.4589227296
 20
96.7576112641
 10
154.3934142458
 20
96.8056398151
 10
154.329423818
 20
96.8588074564
 10
154.2682356338
 20
96.9160961432
 10
154.2097970408
 20
96.9777050086
 10
154.1541559766
 20
97.0434311966
 10
154.1027441274
 20
97.1116509762
 10
154.0557398068
 20
97.1823016818
 10
154.0129582243
 20
97.2554408925
 10
153.9752838994
 20
97.3296232328
 10
153.9427667711
 20
97.4050013629
 10
153.9153514842
 20
97.4814184028
 10
153.8937632171
 20
97.5569635227
 10
153.878157763
 20
97.6315548538
 10
153.8683757756
 20
97.705271501
 10
153.86466899
 20
97.7764434617
 10
153.8671910213
 20
97.8450116688
 10
153.8757879973
 20
97.911035001
 10
153.8902501501
 20
97.9730201035
 10
153.9107394656
 20
98.0309110325
 10
153.9370970924
 20
98.0847661894
 10
153.9686313726
 20
98.1332631789
 10
154.0054081764
 20
98.176203355
 10
154.0325849051
 20
98.2016647908
  0
LWPOLYLINE
  5
2DE
100
AcDbEntity
  8
ASSI
100
AcDbPolyline
 62
7
  6
CONTINUOUS
 90
27
 70
0
 10
154.6632817061
 20
96.6453857618
 10
154.593640374
 20
96.6776522524
 10
154.5255213179
 20
96.7150612429
 10
154.4589227296
 20
96.7576112641
 10
154.3934142458
 20
96.8056398151
 10
154.329423818
 20
96.8588074564
 10
154.2682356338
 20
96.9160961432
 10
154.2097970408
 20
96.9777050086
 10
154.1541559766
 20
97.0434311966
 10
154.1027441274
 20
97.1116509762
 10
154.0557398068
 20
97.1823016818
 10
154.0129582243
 20
97.2554408925
 10
153.9752838994
 20
97.3296232328
 10
153.9427667711
 20
97.4050013629
 10
153.9153514842
 20
97.4814184028
 10
153.8937632171
 20
97.5569635227
 10
153.878157763
 20
97.6315548538
 10
153.8683757756
 20
97.705271501
 10
153.86466899
 20
97.7764434617
 10
153.8671910213
 20
97.8450116688
 10
153.8757879973
 20
97.911035001
 10
153.8902501501
 20
97.9730201035
 10
153.9107394656
 20
98.0309110325
 10
153.9370970924
 20
98.0847661894
 10
153.9686313726
 20
98.1332631789
 10
154.0054081764
 20
98.176203355
 10
154.0325849051
 20
98.2016647908
  0
LINE
  5
2DF
100
AcDbEntity
  8
ASSI
100
AcDbLine
 62
7
  6
CONTINUOUS
 10
143.6801946012
 20
126.8471552066
 11
143.6862918669
 21
126.3198685125
  0
LINE
  5
2E0
100
AcDbEntity
  8
0
100
AcDbLine
 62
7
  6
CONTINUOUS
 10
143.6801946012
 20
126.8471552066
 11
143.6862918669
 21
126.3198685125
  0
LWPOLYLINE
  5
2E1
100
AcDbEntity
  8
SUPERFICI
100
AcDbPolyline
 62
7
  6
CONTINUOUS
 90
32
 70
0
 10
140.7842533683
 20
102.5117376537
 10
140.8041361222
 20
102.5282186274
 10
140.8375849691
 20
102.5607493284
 10
140.8675324825
 20
102.59647752
 10
140.8938615266
 20
102.6353560878
 10
140.9166863187
 20
102.6774296691
 10
140.9357559643
 20
102.7222499833
 10
140.9510574714
 20
102.7699804944
 10
140.9626020431
 20
102.8204562211
 10
140.9701747849
 20
102.872735974
 10
140.9737004777
 20
102.9267032516
 10
140.9732534319
 20
102.9824737967
 10
140.9688428867
 20
103.0394546579
 10
140.9603985537
 20
103.0978056508
 10
140.9479913569
 20
103.1573675158
 10
140.9318422237
 20
103.2170685847
 10
140.9119302793
 20
103.2767846894
 10
140.8882780238
 20
103.3366413984
 10
140.8611711848
 20
103.3959414303
 10
140.8305176151
 20
103.4547766131
 10
140.7964122237
 20
103.5130574762
 10
140.7594208316
 20
103.5698143742
 10
140.7195428313
 20
103.6249581664
 10
140.6767818358
 20
103.6785805451
 10
140.6317091628
 20
103.7299824059
 10
140.5842675799
 20
103.7791674633
 10
140.5345173917
 20
103.8261345929
 10
140.4832051053
 20
103.870176484
 10
140.4302819883
 20
103.9112551206
 10
140.3757991774
 20
103.9494105265
 10
140.3206513986
 20
103.9840511107
 10
140.2651368212
 20
104.0149796041
  0
LWPOLYLINE
  5
2E2
100
AcDbEntity
  8
ASSI
100
AcDbPolyline
 62
7
  6
CONTINUOUS
 90
10
 70
0
 10
140.7842553704
 20
102.5117352566
 10
140.7373618815
 20
102.479683572
 10
140.6850183224
 20
102.4530512058
 10
140.6282669294
 20
102.4324035109
 10
140.5685964942
 20
102.4181854106
 10
140.5060619367
 20
102.4105590055
 10
140.4406127992
 20
102.4093659685
 10
140.3735765067
 20
102.4145677949
 10
140.3053956193
 20
102.4261517177
 10
140.2356298562
 20
102.4441324128
  0
LWPOLYLINE
  5
2E3
100
AcDbEntity
  8
0
100
AcDbPolyline
 62
7
  6
CONTINUOUS
 90
10
 70
0
 10
140.7842553704
 20
102.5117352566
 10
140.7373618815
 20
102.479683572
 10
140.6850183224
 20
102.4530512058
 10
140.6282669294
 20
102.4324035109
 10
140.5685964942
 20
102.4181854106
 10
140.5060619367
 20
102.4105590055
 10
140.4406127992
 20
102.4093659685
 10
140.3735765067
 20
102.4145677949
 10
140.3053956193
 20
102.4261517177
 10
140.2356298562
 20
102.4441324128
  0
LWPOLYLINE
  5
2E4
100
AcDbEntity
  8
ASSI
100
AcDbPolyline
 62
7
  6
CONTINUOUS
 90
11
 70
0
 10
165.3629324131
 20
97.5265310658
 10
165.4043167188
 20
97.5147095188
 10
165.4524183472
 20
97.5056468619
 10
165.5013495799
 20
97.5013241457
 10
165.5506500778
 20
97.5018344659
 10
165.5998044993
 20
97.5072207197
 10
165.6483605296
 20
97.5174817917
 10
165.6958273087
 20
97.5325683202
 10
165.7416924612
 20
97.5523688406
 10
165.7854731659
 20
97.576722336
 10
165.8244543795
 20
97.603688191
  0
LWPOLYLINE
  5
2E5
100
AcDbEntity
  8
0
100
AcDbPolyline
 62
7
  6
CONTINUOUS
 90
11
 70
0
 10
165.3629324131
 20
97.5265310658
 10
165.4043167188
 20
97.5147095188
 10
165.4524183472
 20
97.5056468619
 10
165.5013495799
 20
97.5013241457
 10
165.5506500778
 20
97.5018344659
 10
165.5998044993
 20
97.5072207197
 10
165.6483605296
 20
97.5174817917
 10
165.6958273087
 20
97.5325683202
 10
165.7416924612
 20
97.5523688406
 10
165.7854731659
 20
97.576722336
 10
165.8244543795
 20
97.603688191
  0
LWPOLYLINE
  5
2E6
100
AcDbEntity
  8
ASSI
100
AcDbPolyline
 62
253
  6
CONTINUOUS
 90
16
 70
0
 10
165.2700392556
 20
97.7534627687
 10
165.3132369282
 20
97.7406547483
 10
165.3583975406
 20
97.7303079419
 10
165.4050940689
 20
97.7225201858
 10
165.4528849591
 20
97.717365119
 10
165.5013183231
 20
97.714891485
 10
165.5499362125
 20
97.715122674
 10
165.5982789339
 20
97.7180565053
 10
165.6458893507
 20
97.7236652417
 10
165.6923172296
 20
97.7318958435
 10
165.7371235444
 20
97.7426704754
 10
165.7798846457
 20
97.7558872556
 10
165.8201962206
 20
97.7714212152
 10
165.8576771018
 20
97.7891254732
 10
165.8919728759
 20
97.8088326218
 10
165.9227592535
 20
97.8303563165
  0
LWPOLYLINE
  5
2E7
100
AcDbEntity
  8
0
100
AcDbPolyline
 62
253
  6
CONTINUOUS
 90
16
 70
0
 10
165.2700392556
 20
97.7534627687
 10
165.3132369282
 20
97.7406547483
 10
165.3583975406
 20
97.7303079419
 10
165.4050940689
 20
97.7225201858
 10
165.4528849591
 20
97.717365119
 10
165.5013183231
 20
97.714891485
 10
165.5499362125
 20
97.715122674
 10
165.5982789339
 20
97.7180565053
 10
165.6458893507
 20
97.7236652417
 10
165.6923172296
 20
97.7318958435
 10
165.7371235444
 20
97.7426704754
 10
165.7798846457
 20
97.7558872556
 10
165.8201962206
 20
97.7714212152
 10
165.8576771018
 20
97.7891254732
 10
165.8919728759
 20
97.8088326218
 10
165.9227592535
 20
97.8303563165
  0
LWPOLYLINE
  5
2E8
100
AcDbEntity
  8
SUPERFICI
100
AcDbPolyline
 62
7
  6
CONTINUOUS
 90
12
 70
0
 10
154.5949666366
 20
98.2646464218
 10
154.5403482673
 20
98.2817309752
 10
154.4864693624
 20
98.2947402888
 10
154.4330507414
 20
98.3037134675
 10
154.3803706766
 20
98.3086106836
 10
154.3292637991
 20
98.3093122986
 10
154.2797502884
 20
98.3057333067
 10
154.2318075497
 20
98.2979568054
 10
154.1862043781
 20
98.2861139728
 10
154.1430309511
 20
98.2701718359
 10
154.1021937829
 20
98.2501607621
 10
154.0641850123
 20
98.2263060095
  0
LWPOLYLINE
  5
2E9
100
AcDbEntity
  8
SUPERFICI
100
AcDbPolyline
 62
7
  6
CONTINUOUS
 90
12
 70
0
 10
136.4097912533
 20
105.5682228309
 10
136.3551728841
 20
105.5853073843
 10
136.3012939792
 20
105.5983166979
 10
136.2478753582
 20
105.6072898766
 10
136.1951952934
 20
105.6121870926
 10
136.1440884159
 20
105.6128887076
 10
136.0945749052
 20
105.6093097158
 10
136.0466321664
 20
105.6015332144
 10
136.0010289949
 20
105.5896903819
 10
135.9578555678
 20
105.573748245
 10
135.9170183996
 20
105.5537371712
 10
135.8790096291
 20
105.5298824186
  0
LWPOLYLINE
  5
2EA
100
AcDbEntity
  8
0
100
AcDbPolyline
 62
253
  6
CONTINUOUS
 90
10
 70
0
 10
165.2700391343
 20
96.5423946362
 10
163.2724966863
 20
97.2199743029
 10
161.2990357345
 20
97.9190500642
 10
159.350047142
 20
98.6394689324
 10
157.4260356213
 20
99.3810286747
 10
155.5272673495
 20
100.1436167957
 10
153.6537795147
 20
100.9272183674
 10
151.8058475124
 20
101.731728392
 10
149.9839753934
 20
102.5569439735
 10
148.1885476422
 20
103.4027067164
  0
LWPOLYLINE
  5
2EB
100
AcDbEntity
  8
ASSI
100
AcDbPolyline
 62
253
  6
CONTINUOUS
 90
10
 70
0
 10
165.2700391343
 20
96.5423946362
 10
163.2724966863
 20
97.2199743029
 10
161.2990357345
 20
97.9190500642
 10
159.350047142
 20
98.6394689324
 10
157.4260356213
 20
99.3810286747
 10
155.5272673495
 20
100.1436167957
 10
153.6537795147
 20
100.9272183674
 10
151.8058475124
 20
101.731728392
 10
149.9839753934
 20
102.5569439735
 10
148.1885476422
 20
103.4027067164
  0
LINE
  5
2EC
100
AcDbEntity
  8
SUPERFICI
100
AcDbLine
 62
7
  6
CONTINUOUS
 10
154.6503251851
 20
98.2434872048
 11
154.5949666366
 21
98.2646464218
  0
LINE
  5
2ED
100
AcDbEntity
  8
SUPERFICI
100
AcDbLine
 62
7
  6
CONTINUOUS
 10
136.4651498019
 20
105.5470636139
 11
136.4097912533
 21
105.5682228309
  0
LINE
  5
2EE
100
AcDbEntity
  8
SUPERFICI
100
AcDbLine
 62
7
  6
CONTINUOUS
 10
158.3372914866
 20
96.7627184188
 11
157.5096974721
 21
97.0851390583
  0
LINE
  5
2EF
100
AcDbEntity
  8
0
100
AcDbLine
 62
7
  6
CONTINUOUS
 10
157.509588687
 20
97.0851818112
 11
158.3369276791
 21
96.7628589104
  0
LINE
  5
2F0
100
AcDbEntity
  8
ASSI
100
AcDbLine
 62
7
  6
CONTINUOUS
 10
157.509588687
 20
97.0851818112
 11
158.3369276791
 21
96.7628589104
  0
LINE
  5
2F1
100
AcDbEntity
  8
ASSI
100
AcDbLine
 62
7
  6
CONTINUOUS
 10
139.3244133038
 20
104.3887582203
 11
140.1517522959
 21
104.0664353195
  0
LINE
  5
2F2
100
AcDbEntity
  8
0
100
AcDbLine
 62
7
  6
CONTINUOUS
 10
139.3244133038
 20
104.3887582203
 11
140.1517522959
 21
104.0664353195
  0
LINE
  5
2F3
100
AcDbEntity
  8
SUPERFICI
100
AcDbLine
 62
7
  6
CONTINUOUS
 10
140.1521161034
 20
104.0662948279
 11
139.3245220889
 21
104.3887154674
  0
LINE
  5
2F4
100
AcDbEntity
  8
SUPERFICI
100
AcDbLine
 62
7
  6
CONTINUOUS
 10
157.5096974721
 20
97.0851390583
 11
156.6869091808
 21
97.4113219334
  0
LINE
  5
2F5
100
AcDbEntity
  8
0
100
AcDbLine
 62
7
  6
CONTINUOUS
 10
156.6869089735
 20
97.4113220152
 11
157.509588687
 21
97.0851818112
  0
LINE
  5
2F6
100
AcDbEntity
  8
ASSI
100
AcDbLine
 62
7
  6
CONTINUOUS
 10
156.6869089735
 20
97.4113220152
 11
157.509588687
 21
97.0851818112
  0
LINE
  5
2F7
100
AcDbEntity
  8
ASSI
100
AcDbLine
 62
7
  6
CONTINUOUS
 10
138.5017335902
 20
104.7148984242
 11
139.3244133038
 21
104.3887582203
  0
LINE
  5
2F8
100
AcDbEntity
  8
0
100
AcDbLine
 62
7
  6
CONTINUOUS
 10
138.5017335902
 20
104.7148984242
 11
139.3244133038
 21
104.3887582203
  0
LINE
  5
2F9
100
AcDbEntity
  8
SUPERFICI
100
AcDbLine
 62
7
  6
CONTINUOUS
 10
139.3245220889
 20
104.3887154674
 11
138.5017337976
 21
104.7148983425
  0
LINE
  5
2FA
100
AcDbEntity
  8
SUPERFICI
100
AcDbLine
 62
7
  6
CONTINUOUS
 10
138.5017337976
 20
104.7148983425
 11
137.6837083424
 21
105.0448581105
  0
LINE
  5
2FB
100
AcDbEntity
  8
ASSI
100
AcDbLine
 62
7
  6
CONTINUOUS
 10
137.6837341326
 20
105.0448476176
 11
138.5017335902
 21
104.7148984242
  0
LINE
  5
2FC
100
AcDbEntity
  8
0
100
AcDbLine
 62
7
  6
CONTINUOUS
 10
137.6837341326
 20
105.0448476176
 11
138.5017335902
 21
104.7148984242
  0
LINE
  5
2FD
100
AcDbEntity
  8
0
100
AcDbLine
 62
7
  6
CONTINUOUS
 10
155.8689095158
 20
97.7412712086
 11
156.6869089735
 21
97.4113220152
  0
LINE
  5
2FE
100
AcDbEntity
  8
ASSI
100
AcDbLine
 62
7
  6
CONTINUOUS
 10
155.8689095158
 20
97.7412712086
 11
156.6869089735
 21
97.4113220152
  0
LINE
  5
2FF
100
AcDbEntity
  8
SUPERFICI
100
AcDbLine
 62
7
  6
CONTINUOUS
 10
156.6869091808
 20
97.4113219334
 11
155.8688837256
 21
97.7412817014
  0
LINE
  5
300
100
AcDbEntity
  8
SUPERFICI
100
AcDbLine
 62
7
  6
CONTINUOUS
 10
137.6837083424
 20
105.0448581105
 11
136.8701902494
 21
105.3786986562
  0
LINE
  5
301
100
AcDbEntity
  8
SUPERFICI
100
AcDbLine
 62
7
  6
CONTINUOUS
 10
155.8688837256
 20
97.7412817014
 11
155.0553656326
 21
98.0751222472
  0
LINE
  5
302
100
AcDbEntity
  8
SUPERFICI
100
AcDbLine
 62
7
  6
CONTINUOUS
 10
136.8701902494
 20
105.3786986562
 11
136.4651498019
 21
105.5470636139
  0
LWPOLYLINE
  5
303
100
AcDbEntity
  8
ASSI
100
AcDbPolyline
 62
7
  6
CONTINUOUS
 90
3
 70
0
 10
136.4655043449
 20
105.5469156004
 10
136.8704051718
 20
105.3786096978
 10
137.6837341326
 20
105.0448476176
  0
LWPOLYLINE
  5
304
100
AcDbEntity
  8
0
100
AcDbPolyline
 62
7
  6
CONTINUOUS
 90
3
 70
0
 10
136.4655043449
 20
105.5469156004
 10
136.8704051718
 20
105.3786096978
 10
137.6837341326
 20
105.0448476176
  0
LWPOLYLINE
  5
305
100
AcDbEntity
  8
0
100
AcDbPolyline
 62
7
  6
CONTINUOUS
 90
3
 70
0
 10
154.6506797281
 20
98.2433391913
 10
155.0555805551
 20
98.0750332887
 10
155.8689095158
 20
97.7412712086
  0
LWPOLYLINE
  5
306
100
AcDbEntity
  8
ASSI
100
AcDbPolyline
 62
7
  6
CONTINUOUS
 90
3
 70
0
 10
154.6506797281
 20
98.2433391913
 10
155.0555805551
 20
98.0750332887
 10
155.8689095158
 20
97.7412712086
  0
LINE
  5
307
100
AcDbEntity
  8
SUPERFICI
100
AcDbLine
 62
7
  6
CONTINUOUS
 10
155.0553656326
 20
98.0751222472
 11
154.6503251851
 21
98.2434872048
  0
LWPOLYLINE
  5
308
100
AcDbEntity
  8
ASSI
100
AcDbPolyline
 62
7
  6
CONTINUOUS
 90
27
 70
0
 10
140.1517522959
 20
104.0664353195
 10
140.2232187362
 20
104.0356798742
 10
140.2931707758
 20
103.9997816219
 10
140.3616064411
 20
103.9587389349
 10
140.4289657637
 20
103.9122200144
 10
140.494805957
 20
103.8605543938
 10
140.5577994225
 20
103.8047312578
 10
140.6179941837
 20
103.7445494561
 10
140.675337368
 20
103.6802060708
 10
140.7283468585
 20
103.6132849452
 10
140.7768310915
 20
103.5438379009
 10
140.8209753688
 20
103.4718078101
 10
140.8598605877
 20
103.3986131511
 10
140.8934283715
 20
103.3240951759
 10
140.92173215
 20
103.2484084056
 10
140.9440192989
 20
103.1734401787
 10
140.9601242609
 20
103.0992640633
 10
140.9702096643
 20
103.0258039659
 10
140.9740145057
 20
102.9547221872
 10
140.9713785505
 20
102.88607277
 10
140.9624623061
 20
102.8198018736
 10
140.947485564
 20
102.757409721
 10
140.9262827748
 20
102.6989493073
 10
140.8990228617
 20
102.6443704911
 10
140.8664265638
 20
102.5950181671
 10
140.8284304904
 20
102.5510929074
 10
140.7842553704
 20
102.5117352566
  0
LWPOLYLINE
  5
309
100
AcDbEntity
  8
0
100
AcDbPolyline
 62
7
  6
CONTINUOUS
 90
27
 70
0
 10
140.1517522959
 20
104.0664353195
 10
140.2232187362
 20
104.0356798742
 10
140.2931707758
 20
103.9997816219
 10
140.3616064411
 20
103.9587389349
 10
140.4289657637
 20
103.9122200144
 10
140.494805957
 20
103.8605543938
 10
140.5577994225
 20
103.8047312578
 10
140.6179941837
 20
103.7445494561
 10
140.675337368
 20
103.6802060708
 10
140.7283468585
 20
103.6132849452
 10
140.7768310915
 20
103.5438379009
 10
140.8209753688
 20
103.4718078101
 10
140.8598605877
 20
103.3986131511
 10
140.8934283715
 20
103.3240951759
 10
140.92173215
 20
103.2484084056
 10
140.9440192989
 20
103.1734401787
 10
140.9601242609
 20
103.0992640633
 10
140.9702096643
 20
103.0258039659
 10
140.9740145057
 20
102.9547221872
 10
140.9713785505
 20
102.88607277
 10
140.9624623061
 20
102.8198018736
 10
140.947485564
 20
102.757409721
 10
140.9262827748
 20
102.6989493073
 10
140.8990228617
 20
102.6443704911
 10
140.8664265638
 20
102.5950181671
 10
140.8284304904
 20
102.5510929074
 10
140.7842553704
 20
102.5117352566
  0
LWPOLYLINE
  5
30A
100
AcDbEntity
  8
0
100
AcDbPolyline
 62
7
  6
CONTINUOUS
 90
27
 70
0
 10
158.3369276791
 20
96.7628589104
 10
158.4083941194
 20
96.7321034652
 10
158.478346159
 20
96.6962052128
 10
158.5467818243
 20
96.6551625258
 10
158.6141411469
 20
96.6086436053
 10
158.6799813402
 20
96.5569779847
 10
158.7429748058
 20
96.5011548487
 10
158.803169567
 20
96.440973047
 10
158.8605127512
 20
96.3766296617
 10
158.9135222417
 20
96.3097085362
 10
158.9620064747
 20
96.2402614918
 10
159.006150752
 20
96.168231401
 10
159.0450359709
 20
96.095036742
 10
159.0786037547
 20
96.0205187669
 10
159.1069075332
 20
95.9448319965
 10
159.1291946821
 20
95.8698637696
 10
159.1452996441
 20
95.7956876542
 10
159.1553850475
 20
95.7222275568
 10
159.1591898889
 20
95.6511457781
 10
159.1565539337
 20
95.5824963609
 10
159.1476376893
 20
95.5162254645
 10
159.1326609472
 20
95.4538333119
 10
159.111458158
 20
95.3953728982
 10
159.0841982449
 20
95.340794082
 10
159.051601947
 20
95.291441758
 10
159.0136058736
 20
95.2475164983
 10
158.9694307536
 20
95.2081588475
  0
LWPOLYLINE
  5
30B
100
AcDbEntity
  8
ASSI
100
AcDbPolyline
 62
7
  6
CONTINUOUS
 90
27
 70
0
 10
158.3369276791
 20
96.7628589104
 10
158.4083941194
 20
96.7321034652
 10
158.478346159
 20
96.6962052128
 10
158.5467818243
 20
96.6551625258
 10
158.6141411469
 20
96.6086436053
 10
158.6799813402
 20
96.5569779847
 10
158.7429748058
 20
96.5011548487
 10
158.803169567
 20
96.440973047
 10
158.8605127512
 20
96.3766296617
 10
158.9135222417
 20
96.3097085362
 10
158.9620064747
 20
96.2402614918
 10
159.006150752
 20
96.168231401
 10
159.0450359709
 20
96.095036742
 10
159.0786037547
 20
96.0205187669
 10
159.1069075332
 20
95.9448319965
 10
159.1291946821
 20
95.8698637696
 10
159.1452996441
 20
95.7956876542
 10
159.1553850475
 20
95.7222275568
 10
159.1591898889
 20
95.6511457781
 10
159.1565539337
 20
95.5824963609
 10
159.1476376893
 20
95.5162254645
 10
159.1326609472
 20
95.4538333119
 10
159.111458158
 20
95.3953728982
 10
159.0841982449
 20
95.340794082
 10
159.051601947
 20
95.291441758
 10
159.0136058736
 20
95.2475164983
 10
158.9694307536
 20
95.2081588475
  0
LWPOLYLINE
  5
30C
100
AcDbEntity
  8
SUPERFICI
100
AcDbPolyline
 62
7
  6
CONTINUOUS
 90
3
 70
0
 10
140.2651368212
 20
104.0149796041
 10
140.2089581552
 20
104.0423939853
 10
140.1521161034
 20
104.0662948279
  0
LWPOLYLINE
  5
30D
100
AcDbEntity
  8
SUPERFICI
100
AcDbPolyline
 62
7
  6
CONTINUOUS
 90
3
 70
0
 10
158.4503122044
 20
96.711403195
 10
158.3941335385
 20
96.7388175762
 10
158.3372914866
 20
96.7627184188
  0
LWPOLYLINE
  5
30E
100
AcDbEntity
  8
ASSI
100
AcDbPolyline
 62
253
  6
CONTINUOUS
 90
10
 70
0
 10
130.0033720366
 20
110.7062831622
 10
129.9676300198
 20
110.7251984984
 10
129.9352583263
 20
110.7460213738
 10
129.9065630523
 20
110.7685548941
 10
129.8818155341
 20
110.7925859862
 10
129.8612497718
 20
110.817887423
 10
129.8450602222
 20
110.8442199749
 10
129.8333999703
 20
110.8713346635
 10
129.8263792863
 20
110.8989750897
 10
129.8240643926
 20
110.9264189134
  0
LWPOLYLINE
  5
30F
100
AcDbEntity
  8
0
100
AcDbPolyline
 62
253
  6
CONTINUOUS
 90
10
 70
0
 10
130.0033720366
 20
110.7062831622
 10
129.9676300198
 20
110.7251984984
 10
129.9352583263
 20
110.7460213738
 10
129.9065630523
 20
110.7685548941
 10
129.8818155341
 20
110.7925859862
 10
129.8612497718
 20
110.817887423
 10
129.8450602222
 20
110.8442199749
 10
129.8333999703
 20
110.8713346635
 10
129.8263792863
 20
110.8989750897
 10
129.8240643926
 20
110.9264189134
  0
LWPOLYLINE
  5
310
100
AcDbEntity
  8
ASSI
100
AcDbPolyline
 62
253
  6
CONTINUOUS
 90
10
 70
0
 10
148.0092398288
 20
104.8336967508
 10
148.0115547234
 20
104.8060116613
 10
148.0185754074
 20
104.7784618442
 10
148.0302356593
 20
104.7514294671
 10
148.0464252088
 20
104.7251701507
 10
148.0669909712
 20
104.699932181
 10
148.0917384893
 20
104.6759541878
 10
148.1204337633
 20
104.6534628958
 10
148.1528054568
 20
104.632670979
 10
148.1885474736
 20
104.613775039
  0
LWPOLYLINE
  5
311
100
AcDbEntity
  8
0
100
AcDbPolyline
 62
253
  6
CONTINUOUS
 90
10
 70
0
 10
148.0092398288
 20
104.8336967508
 10
148.0115547234
 20
104.8060116613
 10
148.0185754074
 20
104.7784618442
 10
148.0302356593
 20
104.7514294671
 10
148.0464252088
 20
104.7251701507
 10
148.0669909712
 20
104.699932181
 10
148.0917384893
 20
104.6759541878
 10
148.1204337633
 20
104.6534628958
 10
148.1528054568
 20
104.632670979
 10
148.1885474736
 20
104.613775039
  0
LWPOLYLINE
  5
312
100
AcDbEntity
  8
0
100
AcDbPolyline
 62
253
  6
CONTINUOUS
 90
12
 70
0
 10
148.4437094027
 20
87.1181739885
 10
148.4476368719
 20
87.0523810624
 10
148.4550083683
 20
86.9898775369
 10
148.4657835807
 20
86.9309722074
 10
148.4798965964
 20
86.8759632962
 10
148.4972788253
 20
86.8251161594
 10
148.5178618131
 20
86.7786649071
 10
148.5415365563
 20
86.7368422405
 10
148.5681807302
 20
86.6998623954
 10
148.5976834424
 20
86.6679010731
 10
148.6298865467
 20
86.6411240898
 10
148.6639917916
 20
86.6200594245
  0
LWPOLYLINE
  5
313
100
AcDbEntity
  8
ASSI
100
AcDbPolyline
 62
253
  6
CONTINUOUS
 90
12
 70
0
 10
148.4437094027
 20
87.1181739885
 10
148.4476368719
 20
87.0523810624
 10
148.4550083683
 20
86.9898775369
 10
148.4657835807
 20
86.9309722074
 10
148.4798965964
 20
86.8759632962
 10
148.4972788253
 20
86.8251161594
 10
148.5178618131
 20
86.7786649071
 10
148.5415365563
 20
86.7368422405
 10
148.5681807302
 20
86.6998623954
 10
148.5976834424
 20
86.6679010731
 10
148.6298865467
 20
86.6411240898
 10
148.6639917916
 20
86.6200594245
  0
LWPOLYLINE
  5
314
100
AcDbEntity
  8
ASSI
100
AcDbPolyline
 62
253
  6
CONTINUOUS
 90
16
 70
0
 10
147.7375839271
 20
103.9241067453
 10
147.7351658843
 20
103.9671174154
 10
147.7284439191
 20
104.0116442788
 10
147.7174475272
 20
104.0572191446
 10
147.7022348373
 20
104.1034053573
 10
147.6829412729
 20
104.1496491246
 10
147.6598225227
 20
104.1952887273
 10
147.6331664932
 20
104.2397696671
 10
147.6032407245
 20
104.2826575087
 10
147.5703653203
 20
104.3234907249
 10
147.5348931466
 20
104.3618248966
 10
147.4972180392
 20
104.397228719
 10
147.4577640226
 20
104.4293016789
 10
147.4169691932
 20
104.4576882499
 10
147.3752791517
 20
104.4820789572
 10
147.3331528292
 20
104.502205274
  0
LWPOLYLINE
  5
315
100
AcDbEntity
  8
0
100
AcDbPolyline
 62
253
  6
CONTINUOUS
 90
16
 70
0
 10
147.7375839271
 20
103.9241067453
 10
147.7351658843
 20
103.9671174154
 10
147.7284439191
 20
104.0116442788
 10
147.7174475272
 20
104.0572191446
 10
147.7022348373
 20
104.1034053573
 10
147.6829412729
 20
104.1496491246
 10
147.6598225227
 20
104.1952887273
 10
147.6331664932
 20
104.2397696671
 10
147.6032407245
 20
104.2826575087
 10
147.5703653203
 20
104.3234907249
 10
147.5348931466
 20
104.3618248966
 10
147.4972180392
 20
104.397228719
 10
147.4577640226
 20
104.4293016789
 10
147.4169691932
 20
104.4576882499
 10
147.3752791517
 20
104.4820789572
 10
147.3331528292
 20
104.502205274
  0
LWPOLYLINE
  5
316
100
AcDbEntity
  8
ASSI
100
AcDbPolyline
 62
253
  6
CONTINUOUS
 90
10
 70
0
 10
147.0848638724
 20
105.0570391778
 10
147.0866335423
 20
105.0148588661
 10
147.0905502437
 20
104.9769384567
 10
147.0968121704
 20
104.942949742
 10
147.1060086921
 20
104.9124701117
 10
147.1180030656
 20
104.8858324909
 10
147.1319296094
 20
104.8639364003
 10
147.1480808439
 20
104.8469124488
 10
147.1667110836
 20
104.8346726045
 10
147.1777173622
 20
104.8301206978
  0
LWPOLYLINE
  5
317
100
AcDbEntity
  8
0
100
AcDbPolyline
 62
253
  6
CONTINUOUS
 90
10
 70
0
 10
147.0848638724
 20
105.0570391778
 10
147.0866335423
 20
105.0148588661
 10
147.0905502437
 20
104.9769384567
 10
147.0968121704
 20
104.942949742
 10
147.1060086921
 20
104.9124701117
 10
147.1180030656
 20
104.8858324909
 10
147.1319296094
 20
104.8639364003
 10
147.1480808439
 20
104.8469124488
 10
147.1667110836
 20
104.8346726045
 10
147.1777173622
 20
104.8301206978
  0
LWPOLYLINE
  5
318
100
AcDbEntity
  8
0
100
AcDbPolyline
 62
7
  6
CONTINUOUS
 90
14
 70
0
 10
148.2572544244
 20
87.343824784
 10
148.2582699617
 20
87.3184617615
 10
148.2661398031
 20
87.2288461554
 10
148.2802694323
 20
87.1448184482
 10
148.3003477055
 20
87.0662559846
 10
148.3261545938
 20
86.992855871
 10
148.3575153107
 20
86.9245084489
 10
148.39410375
 20
86.8614282856
 10
148.4356359135
 20
86.8036932695
 10
148.481833815
 20
86.7514226654
 10
148.532150552
 20
86.7049947868
 10
148.5860841473
 20
86.6645975179
 10
148.6432920521
 20
86.6302874626
 10
148.677841913
 20
86.6132158809
  0
LWPOLYLINE
  5
319
100
AcDbEntity
  8
ASSI
100
AcDbPolyline
 62
7
  6
CONTINUOUS
 90
14
 70
0
 10
148.2572544244
 20
87.343824784
 10
148.2582699617
 20
87.3184617615
 10
148.2661398031
 20
87.2288461554
 10
148.2802694323
 20
87.1448184482
 10
148.3003477055
 20
87.0662559846
 10
148.3261545938
 20
86.992855871
 10
148.3575153107
 20
86.9245084489
 10
148.39410375
 20
86.8614282856
 10
148.4356359135
 20
86.8036932695
 10
148.481833815
 20
86.7514226654
 10
148.532150552
 20
86.7049947868
 10
148.5860841473
 20
86.6645975179
 10
148.6432920521
 20
86.6302874626
 10
148.677841913
 20
86.6132158809
  0
LWPOLYLINE
  5
31A
100
AcDbEntity
  8
ASSI
100
AcDbPolyline
 62
253
  6
CONTINUOUS
 90
9
 70
0
 10
148.1885474736
 20
104.613775039
 10
148.189948885
 20
104.571744108
 10
148.1952620692
 20
104.5332638165
 10
148.2040395717
 20
104.498265306
 10
148.2158196071
 20
104.4667481801
 10
148.230763918
 20
104.4389255192
 10
148.2491365695
 20
104.4152431521
 10
148.2701269215
 20
104.3962748271
 10
148.293159577
 20
104.3822846377
  0
LWPOLYLINE
  5
31B
100
AcDbEntity
  8
0
100
AcDbPolyline
 62
253
  6
CONTINUOUS
 90
9
 70
0
 10
148.1885474736
 20
104.613775039
 10
148.189948885
 20
104.571744108
 10
148.1952620692
 20
104.5332638165
 10
148.2040395717
 20
104.498265306
 10
148.2158196071
 20
104.4667481801
 10
148.230763918
 20
104.4389255192
 10
148.2491365695
 20
104.4152431521
 10
148.2701269215
 20
104.3962748271
 10
148.293159577
 20
104.3822846377
  0
LWPOLYLINE
  5
31C
100
AcDbEntity
  8
ASSI
100
AcDbPolyline
 62
253
  6
CONTINUOUS
 90
10
 70
0
 10
148.0046178993
 20
87.6519175797
 10
147.9491353844
 20
89.5031012097
 10
147.9003591144
 20
91.3282397608
 10
147.8582890895
 20
93.1273332328
 10
147.8232629449
 20
94.8800423912
 10
147.7949430452
 20
96.6067064705
 10
147.7723164842
 20
98.3683431752
 10
147.7550456265
 20
100.1852917399
 10
147.7434681075
 20
102.03721293
 10
147.7375839271
 20
103.9241067453
  0
LWPOLYLINE
  5
31D
100
AcDbEntity
  8
0
100
AcDbPolyline
 62
253
  6
CONTINUOUS
 90
10
 70
0
 10
148.0046178993
 20
87.6519175797
 10
147.9491353844
 20
89.5031012097
 10
147.9003591144
 20
91.3282397608
 10
147.8582890895
 20
93.1273332328
 10
147.8232629449
 20
94.8800423912
 10
147.7949430452
 20
96.6067064705
 10
147.7723164842
 20
98.3683431752
 10
147.7550456265
 20
100.1852917399
 10
147.7434681075
 20
102.03721293
 10
147.7375839271
 20
103.9241067453
  0
LWPOLYLINE
  5
31E
100
AcDbEntity
  8
ASSI
100
AcDbPolyline
 62
253
  6
CONTINUOUS
 90
10
 70
0
 10
147.3442411903
 20
87.5597451823
 10
147.2898396689
 20
89.4117754685
 10
147.2425623928
 20
91.2384073433
 10
147.2021006678
 20
93.0393306855
 10
147.1685066984
 20
94.7938722255
 10
147.1409978916
 20
96.5220012155
 10
147.1185972052
 20
98.2848742457
 10
147.1014306027
 20
100.1032339873
 10
147.0900861891
 20
101.9568635351
 10
147.0848637511
 20
103.8459710453
  0
LWPOLYLINE
  5
31F
100
AcDbEntity
  8
0
100
AcDbPolyline
 62
253
  6
CONTINUOUS
 90
10
 70
0
 10
147.3442411903
 20
87.5597451823
 10
147.2898396689
 20
89.4117754685
 10
147.2425623928
 20
91.2384073433
 10
147.2021006678
 20
93.0393306855
 10
147.1685066984
 20
94.7938722255
 10
147.1409978916
 20
96.5220012155
 10
147.1185972052
 20
98.2848742457
 10
147.1014306027
 20
100.1032339873
 10
147.0900861891
 20
101.9568635351
 10
147.0848637511
 20
103.8459710453
  0
LWPOLYLINE
  5
320
100
AcDbEntity
  8
0
100
AcDbPolyline
 62
7
  6
CONTINUOUS
 90
10
 70
0
 10
148.0092397761
 20
103.6228425067
 10
148.0137622461
 20
101.8462910544
 10
148.0241405105
 20
100.0086451973
 10
148.0403118689
 20
98.1759178376
 10
148.0622769305
 20
96.348148523
 10
148.0900358453
 20
94.5253743444
 10
148.1235887544
 20
92.707631398
 10
148.162935117
 20
90.8949609232
 10
148.2080737678
 20
89.0874088459
 10
148.2572426383
 20
87.3440078819
  0
LWPOLYLINE
  5
321
100
AcDbEntity
  8
ASSI
100
AcDbPolyline
 62
7
  6
CONTINUOUS
 90
10
 70
0
 10
148.0092397761
 20
103.6228425067
 10
148.0137622461
 20
101.8462910544
 10
148.0241405105
 20
100.0086451973
 10
148.0403118689
 20
98.1759178376
 10
148.0622769305
 20
96.348148523
 10
148.0900358453
 20
94.5253743444
 10
148.1235887544
 20
92.707631398
 10
148.162935117
 20
90.8949609232
 10
148.2080737678
 20
89.0874088459
 10
148.2572426383
 20
87.3440078819
  0
LWPOLYLINE
  5
322
100
AcDbEntity
  8
0
100
AcDbPolyline
 62
253
  6
CONTINUOUS
 90
10
 70
0
 10
148.1885476422
 20
103.4027067164
 10
148.1928415933
 20
101.7136662058
 10
148.2023116512
 20
100.003733961
 10
148.217186539
 20
98.2731322014
 10
148.2375265248
 20
96.5352575821
 10
148.2636541828
 20
94.7771030873
 10
148.296573286
 20
92.959614012
 10
148.337218472
 20
91.0703146919
 10
148.3860365562
 20
89.1229535829
 10
148.4437093966
 20
87.1181739776
  0
LWPOLYLINE
  5
323
100
AcDbEntity
  8
ASSI
100
AcDbPolyline
 62
253
  6
CONTINUOUS
 90
10
 70
0
 10
148.1885476422
 20
103.4027067164
 10
148.1928415933
 20
101.7136662058
 10
148.2023116512
 20
100.003733961
 10
148.217186539
 20
98.2731322014
 10
148.2375265248
 20
96.5352575821
 10
148.2636541828
 20
94.7771030873
 10
148.296573286
 20
92.959614012
 10
148.337218472
 20
91.0703146919
 10
148.3860365562
 20
89.1229535829
 10
148.4437093966
 20
87.1181739776
  0
LWPOLYLINE
  5
324
100
AcDbEntity
  8
ASSI
100
AcDbPolyline
 62
253
  6
CONTINUOUS
 90
10
 70
0
 10
147.7375838693
 20
105.1339327249
 10
147.7416758284
 20
106.8280541067
 10
147.7516689761
 20
108.5518283726
 10
147.7675633126
 20
110.3052555228
 10
147.7887009263
 20
112.0745736109
 10
147.8157397287
 20
113.8735445833
 10
147.8506534545
 20
115.7434542785
 10
147.8941000153
 20
117.6980646429
 10
147.9454214995
 20
119.7236137301
 10
148.0046179071
 20
121.8201015403
  0
LWPOLYLINE
  5
325
100
AcDbEntity
  8
0
100
AcDbPolyline
 62
253
  6
CONTINUOUS
 90
10
 70
0
 10
147.7375838693
 20
105.1339327249
 10
147.7416758284
 20
106.8280541067
 10
147.7516689761
 20
108.5518283726
 10
147.7675633126
 20
110.3052555228
 10
147.7887009263
 20
112.0745736109
 10
147.8157397287
 20
113.8735445833
 10
147.8506534545
 20
115.7434542785
 10
147.8941000153
 20
117.6980646429
 10
147.9454214995
 20
119.7236137301
 10
148.0046179071
 20
121.8201015403
  0
LWPOLYLINE
  5
326
100
AcDbEntity
  8
ASSI
100
AcDbPolyline
 62
253
  6
CONTINUOUS
 90
5
 70
0
 10
147.0848637411
 20
105.0570392891
 10
147.0892236897
 20
106.7531686594
 10
147.098853009
 20
108.4787461981
 10
147.113980422
 20
110.2339244037
 10
147.1346564109
 20
112.0053973426
  0
LWPOLYLINE
  5
327
100
AcDbEntity
  8
0
100
AcDbPolyline
 62
253
  6
CONTINUOUS
 90
5
 70
0
 10
147.0848637411
 20
105.0570392891
 10
147.0892236897
 20
106.7531686594
 10
147.098853009
 20
108.4787461981
 10
147.113980422
 20
110.2339244037
 10
147.1346564109
 20
112.0053973426
  0
LINE
  5
328
100
AcDbEntity
  8
ASSI
100
AcDbLine
 62
253
  6
CONTINUOUS
 10
147.1346564109
 20
112.0053973426
 11
147.1612133358
 21
113.8067085212
  0
LINE
  5
329
100
AcDbEntity
  8
0
100
AcDbLine
 62
253
  6
CONTINUOUS
 10
147.1346564109
 20
112.0053973426
 11
147.1612133358
 21
113.8067085212
  0
LWPOLYLINE
  5
32A
100
AcDbEntity
  8
ASSI
100
AcDbPolyline
 62
253
  6
CONTINUOUS
 90
5
 70
0
 10
147.1612133358
 20
113.8067085212
 10
147.1946843276
 20
115.6785811784
 10
147.2360138097
 20
117.6350302155
 10
147.2856388116
 20
119.6630311797
 10
147.3442411911
 20
121.7630578691
  0
LWPOLYLINE
  5
32B
100
AcDbEntity
  8
0
100
AcDbPolyline
 62
253
  6
CONTINUOUS
 90
5
 70
0
 10
147.1612133358
 20
113.8067085212
 10
147.1946843276
 20
115.6785811784
 10
147.2360138097
 20
117.6350302155
 10
147.2856388116
 20
119.6630311797
 10
147.3442411911
 20
121.7630578691
  0
LWPOLYLINE
  5
32C
100
AcDbEntity
  8
ASSI
100
AcDbPolyline
 62
7
  6
CONTINUOUS
 90
10
 70
0
 10
148.2572213972
 20
121.5412458631
 10
148.208200204
 20
119.7184201319
 10
148.1630492284
 20
117.8328200792
 10
148.1236895094
 20
115.9521176483
 10
148.0901222367
 20
114.0763588787
 10
148.0623479555
 20
112.2055837117
 10
148.0403669871
 20
110.3398297638
 10
148.0241794483
 20
108.4791350633
 10
148.0137844215
 20
106.6235386343
 10
148.0092398287
 20
104.8336967508
  0
LWPOLYLINE
  5
32D
100
AcDbEntity
  8
0
100
AcDbPolyline
 62
7
  6
CONTINUOUS
 90
10
 70
0
 10
148.2572213972
 20
121.5412458631
 10
148.208200204
 20
119.7184201319
 10
148.1630492284
 20
117.8328200792
 10
148.1236895094
 20
115.9521176483
 10
148.0901222367
 20
114.0763588787
 10
148.0623479555
 20
112.2055837117
 10
148.0403669871
 20
110.3398297638
 10
148.0241794483
 20
108.4791350633
 10
148.0137844215
 20
106.6235386343
 10
148.0092398287
 20
104.8336967508
  0
LWPOLYLINE
  5
32E
100
AcDbEntity
  8
ASSI
100
AcDbPolyline
 62
253
  6
CONTINUOUS
 90
10
 70
0
 10
148.4437093982
 20
121.3214866651
 10
148.3901787821
 20
119.3810435478
 10
148.3436682073
 20
117.4775851632
 10
148.3038689797
 20
115.6109158976
 10
148.2708285307
 20
113.8017906376
 10
148.2437690403
 20
112.0289619153
 10
148.2217277852
 20
110.2296841779
 10
148.2048355019
 20
108.3834250304
 10
148.1936755223
 20
106.5113609629
 10
148.1885476333
 20
104.6137749612
  0
LWPOLYLINE
  5
32F
100
AcDbEntity
  8
0
100
AcDbPolyline
 62
253
  6
CONTINUOUS
 90
10
 70
0
 10
148.4437093982
 20
121.3214866651
 10
148.3901787821
 20
119.3810435478
 10
148.3436682073
 20
117.4775851632
 10
148.3038689797
 20
115.6109158976
 10
148.2708285307
 20
113.8017906376
 10
148.2437690403
 20
112.0289619153
 10
148.2217277852
 20
110.2296841779
 10
148.2048355019
 20
108.3834250304
 10
148.1936755223
 20
106.5113609629
 10
148.1885476333
 20
104.6137749612
  0
LWPOLYLINE
  5
330
100
AcDbEntity
  8
0
100
AcDbPolyline
 62
253
  6
CONTINUOUS
 90
16
 70
0
 10
148.1885474198
 20
103.4027067531
 10
148.1899488537
 20
103.447484681
 10
148.1952624274
 20
103.4929660891
 10
148.204040555
 20
103.5392748951
 10
148.215821272
 20
103.5869380733
 10
148.2307662859
 20
103.6356431484
 10
148.2491397035
 20
103.6839978184
 10
148.2701307025
 20
103.7314469063
 10
148.2934090507
 20
103.7780162561
 10
148.3194683188
 20
103.8228355261
 10
148.3475523177
 20
103.8653711201
 10
148.3769547094
 20
103.9054013874
 10
148.4082030861
 20
103.9423213161
 10
148.4409817864
 20
103.9756638598
 10
148.4740857352
 20
104.0052431015
 10
148.5067368436
 20
104.0308674075
  0
LWPOLYLINE
  5
331
100
AcDbEntity
  8
ASSI
100
AcDbPolyline
 62
253
  6
CONTINUOUS
 90
16
 70
0
 10
148.1885474198
 20
103.4027067531
 10
148.1899488537
 20
103.447484681
 10
148.1952624274
 20
103.4929660891
 10
148.204040555
 20
103.5392748951
 10
148.215821272
 20
103.5869380733
 10
148.2307662859
 20
103.6356431484
 10
148.2491397035
 20
103.6839978184
 10
148.2701307025
 20
103.7314469063
 10
148.2934090507
 20
103.7780162561
 10
148.3194683188
 20
103.8228355261
 10
148.3475523177
 20
103.8653711201
 10
148.3769547094
 20
103.9054013874
 10
148.4082030861
 20
103.9423213161
 10
148.4409817864
 20
103.9756638598
 10
148.4740857352
 20
104.0052431015
 10
148.5067368436
 20
104.0308674075
  0
LWPOLYLINE
  5
332
100
AcDbEntity
  8
ASSI
100
AcDbPolyline
 62
253
  6
CONTINUOUS
 90
16
 70
0
 10
147.0848639305
 20
103.8459709836
 10
147.0866333671
 20
103.8905993212
 10
147.0905498121
 20
103.9366400823
 10
147.0968114222
 20
103.9839579127
 10
147.1060074421
 20
104.0326576171
 10
147.1180011769
 20
104.0825466334
 10
147.1319271804
 20
104.1326865097
 10
147.1480779955
 20
104.1820790976
 10
147.1667078746
 20
104.2305154712
 10
147.1868049187
 20
104.2777298577
 10
147.2084488713
 20
104.3228529448
 10
147.2318720928
 20
104.3652860045
 10
147.2561214061
 20
104.4050185148
 10
147.280884911
 20
104.4415817896
 10
147.3065551476
 20
104.4741482267
 10
147.3331528292
 20
104.502205274
  0
LWPOLYLINE
  5
333
100
AcDbEntity
  8
0
100
AcDbPolyline
 62
253
  6
CONTINUOUS
 90
16
 70
0
 10
147.0848639305
 20
103.8459709836
 10
147.0866333671
 20
103.8905993212
 10
147.0905498121
 20
103.9366400823
 10
147.0968114222
 20
103.9839579127
 10
147.1060074421
 20
104.0326576171
 10
147.1180011769
 20
104.0825466334
 10
147.1319271804
 20
104.1326865097
 10
147.1480779955
 20
104.1820790976
 10
147.1667078746
 20
104.2305154712
 10
147.1868049187
 20
104.2777298577
 10
147.2084488713
 20
104.3228529448
 10
147.2318720928
 20
104.3652860045
 10
147.2561214061
 20
104.4050185148
 10
147.280884911
 20
104.4415817896
 10
147.3065551476
 20
104.4741482267
 10
147.3331528292
 20
104.502205274
  0
LWPOLYLINE
  5
334
100
AcDbEntity
  8
ASSI
100
AcDbPolyline
 62
253
  6
CONTINUOUS
 90
22
 70
0
 10
147.3442412057
 20
121.7630578751
 10
147.3478491101
 20
121.835023418
 10
147.3547645669
 20
121.9092301304
 10
147.3649562115
 20
121.9853105036
 10
147.3783839816
 20
122.0628795058
 10
147.3949803882
 20
122.1415603114
 10
147.4146528647
 20
122.2209869095
 10
147.4373192776
 20
122.3007700289
 10
147.4628736339
 20
122.3805084067
 10
147.4911689474
 20
122.4598150999
 10
147.5220811159
 20
122.5382930879
 10
147.5554684433
 20
122.6155520182
 10
147.5911396938
 20
122.6912201252
 10
147.6289379467
 20
122.7649188127
 10
147.6686892466
 20
122.8362773115
 10
147.7101620799
 20
122.9049497206
 10
147.7531680931
 20
122.970586374
 10
147.7975134811
 20
123.0328606586
 10
147.8429482191
 20
123.0914824494
 10
147.8892504808
 20
123.1461616685
 10
147.9362271693
 20
123.1966110313
 10
147.9836654942
 20
123.2425721343
  0
LWPOLYLINE
  5
335
100
AcDbEntity
  8
0
100
AcDbPolyline
 62
253
  6
CONTINUOUS
 90
22
 70
0
 10
147.3442412057
 20
121.7630578751
 10
147.3478491101
 20
121.835023418
 10
147.3547645669
 20
121.9092301304
 10
147.3649562115
 20
121.9853105036
 10
147.3783839816
 20
122.0628795058
 10
147.3949803882
 20
122.1415603114
 10
147.4146528647
 20
122.2209869095
 10
147.4373192776
 20
122.3007700289
 10
147.4628736339
 20
122.3805084067
 10
147.4911689474
 20
122.4598150999
 10
147.5220811159
 20
122.5382930879
 10
147.5554684433
 20
122.6155520182
 10
147.5911396938
 20
122.6912201252
 10
147.6289379467
 20
122.7649188127
 10
147.6686892466
 20
122.8362773115
 10
147.7101620799
 20
122.9049497206
 10
147.7531680931
 20
122.970586374
 10
147.7975134811
 20
123.0328606586
 10
147.8429482191
 20
123.0914824494
 10
147.8892504808
 20
123.1461616685
 10
147.9362271693
 20
123.1966110313
 10
147.9836654942
 20
123.2425721343
  0
LWPOLYLINE
  5
336
100
AcDbEntity
  8
ASSI
100
AcDbPolyline
 62
253
  6
CONTINUOUS
 90
22
 70
0
 10
148.0046179071
 20
121.8201015403
 10
148.0069253927
 20
121.8621496401
 10
148.011228428
 20
121.9051005173
 10
148.017527013
 20
121.948954172
 10
148.0258714218
 20
121.9939533865
 10
148.0362113802
 20
122.0398553785
 10
148.0483960654
 20
122.0859318007
 10
148.062451853
 20
122.1321671983
 10
148.0783523675
 20
122.1785770261
 10
148.0958676591
 20
122.2244793015
 10
148.1150234952
 20
122.2698696869
 10
148.1357941085
 20
122.3147525199
 10
148.1578722481
 20
122.35845883
 10
148.1812773594
 20
122.4009695743
 10
148.205989997
 20
122.4423037956
 10
148.2316445745
 20
122.4818496522
 10
148.2582680571
 20
122.5195913917
 10
148.2858334796
 20
122.5555447663
 10
148.3138943594
 20
122.5891451912
 10
148.342301869
 20
122.6202044714
 10
148.3712048359
 20
122.6489108019
 10
148.4006032601
 20
122.6752641827
  0
LWPOLYLINE
  5
337
100
AcDbEntity
  8
0
100
AcDbPolyline
 62
253
  6
CONTINUOUS
 90
22
 70
0
 10
148.0046179071
 20
121.8201015403
 10
148.0069253927
 20
121.8621496401
 10
148.011228428
 20
121.9051005173
 10
148.017527013
 20
121.948954172
 10
148.0258714218
 20
121.9939533865
 10
148.0362113802
 20
122.0398553785
 10
148.0483960654
 20
122.0859318007
 10
148.062451853
 20
122.1321671983
 10
148.0783523675
 20
122.1785770261
 10
148.0958676591
 20
122.2244793015
 10
148.1150234952
 20
122.2698696869
 10
148.1357941085
 20
122.3147525199
 10
148.1578722481
 20
122.35845883
 10
148.1812773594
 20
122.4009695743
 10
148.205989997
 20
122.4423037956
 10
148.2316445745
 20
122.4818496522
 10
148.2582680571
 20
122.5195913917
 10
148.2858334796
 20
122.5555447663
 10
148.3138943594
 20
122.5891451912
 10
148.342301869
 20
122.6202044714
 10
148.3712048359
 20
122.6489108019
 10
148.4006032601
 20
122.6752641827
  0
LWPOLYLINE
  5
338
100
AcDbEntity
  8
ASSI
100
AcDbPolyline
 62
253
  6
CONTINUOUS
 90
8
 70
0
 10
147.7375838695
 20
105.1339327251
 10
147.7351658223
 20
105.0923316027
 10
147.7284438466
 20
105.0528724326
 10
147.7174474411
 20
105.0160053461
 10
147.7022347378
 20
104.9821239652
 10
147.6829411626
 20
104.9516747261
 10
147.659822405
 20
104.9251107743
 10
147.6392789962
 20
104.9072646001
  0
LWPOLYLINE
  5
339
100
AcDbEntity
  8
0
100
AcDbPolyline
 62
253
  6
CONTINUOUS
 90
8
 70
0
 10
147.7375838695
 20
105.1339327251
 10
147.7351658223
 20
105.0923316027
 10
147.7284438466
 20
105.0528724326
 10
147.7174474411
 20
105.0160053461
 10
147.7022347378
 20
104.9821239652
 10
147.6829411626
 20
104.9516747261
 10
147.659822405
 20
104.9251107743
 10
147.6392789962
 20
104.9072646001
  0
LINE
  5
33A
100
AcDbEntity
  8
ASSI
100
AcDbLine
 62
253
  6
CONTINUOUS
 10
148.0097504367
 20
105.0347945164
 11
147.3331528294
 21
104.5022052741
  0
LINE
  5
33B
100
AcDbEntity
  8
0
100
AcDbLine
 62
253
  6
CONTINUOUS
 10
148.0097504367
 20
105.0347945164
 11
147.3331528294
 21
104.5022052741
  0
LINE
  5
33C
100
AcDbEntity
  8
ASSI
100
AcDbLine
 62
253
  6
CONTINUOUS
 10
147.6392789962
 20
104.9072646001
 11
147.6389872606
 21
104.9070415769
  0
LINE
  5
33D
100
AcDbEntity
  8
0
100
AcDbLine
 62
253
  6
CONTINUOUS
 10
147.6392789962
 20
104.9072646001
 11
147.6389872606
 21
104.9070415769
  0
LINE
  5
33E
100
AcDbEntity
  8
ASSI
100
AcDbLine
 62
253
  6
CONTINUOUS
 10
147.7375838693
 20
105.1339327249
 11
148.0105310392
 21
105.3422269254
  0
LINE
  5
33F
100
AcDbEntity
  8
0
100
AcDbLine
 62
253
  6
CONTINUOUS
 10
147.7375838693
 20
105.1339327249
 11
148.0105310392
 21
105.3422269254
  0
LINE
  5
340
100
AcDbEntity
  8
ASSI
100
AcDbLine
 62
7
  6
CONTINUOUS
 10
147.6389851163
 20
104.9070399404
 11
148.0101452389
 21
105.1902834012
  0
LINE
  5
341
100
AcDbEntity
  8
0
100
AcDbLine
 62
7
  6
CONTINUOUS
 10
147.6389851163
 20
104.9070399404
 11
148.0101452389
 21
105.1902834012
  0
LWPOLYLINE
  5
342
100
AcDbEntity
  8
ASSI
100
AcDbPolyline
 62
7
  6
CONTINUOUS
 90
11
 70
0
 10
147.1777570298
 20
104.8301074749
 10
147.2191413356
 20
104.8182859279
 10
147.267242964
 20
104.809223271
 10
147.3161741967
 20
104.8049005548
 10
147.3654746945
 20
104.805410875
 10
147.4146291161
 20
104.8107971287
 10
147.4631851463
 20
104.8210582008
 10
147.5106519255
 20
104.8361447293
 10
147.556517078
 20
104.8559452497
 10
147.6002977827
 20
104.8802987451
 10
147.6392789963
 20
104.9072646001
  0
LWPOLYLINE
  5
343
100
AcDbEntity
  8
0
100
AcDbPolyline
 62
7
  6
CONTINUOUS
 90
11
 70
0
 10
147.1777570298
 20
104.8301074749
 10
147.2191413356
 20
104.8182859279
 10
147.267242964
 20
104.809223271
 10
147.3161741967
 20
104.8049005548
 10
147.3654746945
 20
104.805410875
 10
147.4146291161
 20
104.8107971287
 10
147.4631851463
 20
104.8210582008
 10
147.5106519255
 20
104.8361447293
 10
147.556517078
 20
104.8559452497
 10
147.6002977827
 20
104.8802987451
 10
147.6392789963
 20
104.9072646001
  0
LWPOLYLINE
  5
344
100
AcDbEntity
  8
ASSI
100
AcDbPolyline
 62
253
  6
CONTINUOUS
 90
16
 70
0
 10
147.0848638724
 20
105.0570391778
 10
147.128061545
 20
105.0442311574
 10
147.1732221574
 20
105.033884351
 10
147.2199186857
 20
105.0260965948
 10
147.2677095759
 20
105.0209415281
 10
147.3161429399
 20
105.0184678941
 10
147.3647608293
 20
105.0186990831
 10
147.4131035507
 20
105.0216329144
 10
147.4607139675
 20
105.0272416508
 10
147.5071418464
 20
105.0354722526
 10
147.5519481612
 20
105.0462468845
 10
147.5947092625
 20
105.0594636647
 10
147.6350208373
 20
105.0749976243
 10
147.6725017185
 20
105.0927018823
 10
147.7067974927
 20
105.1124090308
 10
147.7375838703
 20
105.1339327256
  0
LWPOLYLINE
  5
345
100
AcDbEntity
  8
0
100
AcDbPolyline
 62
253
  6
CONTINUOUS
 90
16
 70
0
 10
147.0848638724
 20
105.0570391778
 10
147.128061545
 20
105.0442311574
 10
147.1732221574
 20
105.033884351
 10
147.2199186857
 20
105.0260965948
 10
147.2677095759
 20
105.0209415281
 10
147.3161429399
 20
105.0184678941
 10
147.3647608293
 20
105.0186990831
 10
147.4131035507
 20
105.0216329144
 10
147.4607139675
 20
105.0272416508
 10
147.5071418464
 20
105.0354722526
 10
147.5519481612
 20
105.0462468845
 10
147.5947092625
 20
105.0594636647
 10
147.6350208373
 20
105.0749976243
 10
147.6725017185
 20
105.0927018823
 10
147.7067974927
 20
105.1124090308
 10
147.7375838703
 20
105.1339327256
  0
LINE
  5
346
100
AcDbEntity
  8
ASSI
100
AcDbLine
 62
7
  6
CONTINUOUS
 10
165.3628927454
 20
97.5265442888
 11
165.3629324131
 21
97.5265310658
  0
LINE
  5
347
100
AcDbEntity
  8
0
100
AcDbLine
 62
7
  6
CONTINUOUS
 10
165.3628927454
 20
97.5265442888
 11
165.3629324131
 21
97.5265310658
  0
LINE
  5
348
100
AcDbEntity
  8
ASSI
100
AcDbLine
 62
7
  6
CONTINUOUS
 10
147.1777173622
 20
104.8301206978
 11
147.1777570298
 21
104.8301074749
  0
LINE
  5
349
100
AcDbEntity
  8
0
100
AcDbLine
 62
7
  6
CONTINUOUS
 10
147.1777173622
 20
104.8301206978
 11
147.1777570298
 21
104.8301074749
  0
LWPOLYLINE
  5
34A
100
AcDbEntity
  8
0
100
AcDbPolyline
 62
253
  6
CONTINUOUS
 90
10
 70
0
 10
165.5183282126
 20
97.198628865
 10
163.5283179658
 20
97.8737424684
 10
161.5630630402
 20
98.5699436245
 10
159.622563436
 20
99.2872323334
 10
157.7065484378
 20
100.0257173269
 10
155.815288761
 20
100.7852898731
 10
153.9495965513
 20
101.5656237762
 10
152.1097425239
 20
102.3666103042
 10
150.2954559637
 20
103.1883581891
 10
148.5067368706
 20
104.0308674308
  0
LWPOLYLINE
  5
34B
100
AcDbEntity
  8
ASSI
100
AcDbPolyline
 62
253
  6
CONTINUOUS
 90
10
 70
0
 10
165.5183282126
 20
97.198628865
 10
163.5283179658
 20
97.8737424684
 10
161.5630630402
 20
98.5699436245
 10
159.622563436
 20
99.2872323334
 10
157.7065484378
 20
100.0257173269
 10
155.815288761
 20
100.7852898731
 10
153.9495965513
 20
101.5656237762
 10
152.1097425239
 20
102.3666103042
 10
150.2954559637
 20
103.1883581891
 10
148.5067368706
 20
104.0308674308
  0
LWPOLYLINE
  5
34C
100
AcDbEntity
  8
ASSI
100
AcDbPolyline
 62
253
  6
CONTINUOUS
 90
10
 70
0
 10
147.0848637511
 20
103.8459710453
 10
145.0873213031
 20
104.523550712
 10
143.1138603513
 20
105.2226264733
 10
141.1648717587
 20
105.9430453415
 10
139.2408602381
 20
106.6846050838
 10
137.3420919663
 20
107.4471932047
 10
135.4686041314
 20
108.2307947765
 10
133.6206721292
 20
109.035304801
 10
131.7988000102
 20
109.8605203826
 10
130.003372259
 20
110.7062831255
  0
LWPOLYLINE
  5
34D
100
AcDbEntity
  8
0
100
AcDbPolyline
 62
253
  6
CONTINUOUS
 90
10
 70
0
 10
147.0848637511
 20
103.8459710453
 10
145.0873213031
 20
104.523550712
 10
143.1138603513
 20
105.2226264733
 10
141.1648717587
 20
105.9430453415
 10
139.2408602381
 20
106.6846050838
 10
137.3420919663
 20
107.4471932047
 10
135.4686041314
 20
108.2307947765
 10
133.6206721292
 20
109.035304801
 10
131.7988000102
 20
109.8605203826
 10
130.003372259
 20
110.7062831255
  0
LWPOLYLINE
  5
34E
100
AcDbEntity
  8
ASSI
100
AcDbPolyline
 62
253
  6
CONTINUOUS
 90
10
 70
0
 10
147.3331528294
 20
104.5022052741
 10
145.3431425825
 20
105.1773188775
 10
143.377887657
 20
105.8735200336
 10
141.4373880528
 20
106.5908087424
 10
139.5213730546
 20
107.329293736
 10
137.6301133778
 20
108.0888662822
 10
135.7644211681
 20
108.8692001853
 10
133.9245671407
 20
109.6701867133
 10
132.1102805805
 20
110.4919345982
 10
130.3215614873
 20
111.3344438399
  0
LWPOLYLINE
  5
34F
100
AcDbEntity
  8
0
100
AcDbPolyline
 62
253
  6
CONTINUOUS
 90
10
 70
0
 10
147.3331528294
 20
104.5022052741
 10
145.3431425825
 20
105.1773188775
 10
143.377887657
 20
105.8735200336
 10
141.4373880528
 20
106.5908087424
 10
139.5213730546
 20
107.329293736
 10
137.6301133778
 20
108.0888662822
 10
135.7644211681
 20
108.8692001853
 10
133.9245671407
 20
109.6701867133
 10
132.1102805805
 20
110.4919345982
 10
130.3215614873
 20
111.3344438399
  0
LWPOLYLINE
  5
350
100
AcDbEntity
  8
ASSI
100
AcDbPolyline
 62
253
  6
CONTINUOUS
 90
10
 70
0
 10
130.0033722501
 20
111.9173513703
 10
131.7987989148
 20
111.0742081464
 10
133.6206701911
 20
110.2509573926
 10
135.4686016069
 20
109.4477573315
 10
137.3420891237
 20
108.6648107481
 10
139.2408573574
 20
107.902222596
 10
141.1648691314
 20
107.1600078122
 10
143.1138582798
 20
106.4382789555
 10
145.0873201006
 20
105.7372383881
 10
147.0848637411
 20
105.0570392891
  0
LWPOLYLINE
  5
351
100
AcDbEntity
  8
0
100
AcDbPolyline
 62
253
  6
CONTINUOUS
 90
10
 70
0
 10
130.0033722501
 20
111.9173513703
 10
131.7987989148
 20
111.0742081464
 10
133.6206701911
 20
110.2509573926
 10
135.4686016069
 20
109.4477573315
 10
137.3420891237
 20
108.6648107481
 10
139.2408573574
 20
107.902222596
 10
141.1648691314
 20
107.1600078122
 10
143.1138582798
 20
106.4382789555
 10
145.0873201006
 20
105.7372383881
 10
147.0848637411
 20
105.0570392891
  0
LWPOLYLINE
  5
352
100
AcDbEntity
  8
ASSI
100
AcDbPolyline
 62
253
  6
CONTINUOUS
 90
10
 70
0
 10
148.1885476333
 20
104.6137749612
 10
149.983974298
 20
103.7706317374
 10
151.8058455743
 20
102.9473809835
 10
153.6537769901
 20
102.1441809224
 10
155.5272645069
 20
101.3612343391
 10
157.4260327406
 20
100.5986461869
 10
159.3500445146
 20
99.8564314032
 10
161.299033663
 20
99.1347025464
 10
163.2724954838
 20
98.433661979
 10
165.2700391243
 20
97.75346288
  0
LWPOLYLINE
  5
353
100
AcDbEntity
  8
0
100
AcDbPolyline
 62
253
  6
CONTINUOUS
 90
10
 70
0
 10
148.1885476333
 20
104.6137749612
 10
149.983974298
 20
103.7706317374
 10
151.8058455743
 20
102.9473809835
 10
153.6537769901
 20
102.1441809224
 10
155.5272645069
 20
101.3612343391
 10
157.4260327406
 20
100.5986461869
 10
159.3500445146
 20
99.8564314032
 10
161.299033663
 20
99.1347025464
 10
163.2724954838
 20
98.433661979
 10
165.2700391243
 20
97.75346288
  0
LWPOLYLINE
  5
354
100
AcDbEntity
  8
ASSI
100
AcDbPolyline
 62
7
  6
CONTINUOUS
 90
13
 70
0
 10
130.1081730613
 20
111.685770606
 10
131.3977514009
 20
111.0768879737
 10
132.7650006117
 20
110.4493682516
 10
134.1477458933
 20
109.8330010944
 10
135.5456683096
 20
109.2279454501
 10
136.9584705973
 20
108.6343456341
 10
138.3858964775
 20
108.0523075573
 10
139.8276728568
 20
107.4819390541
 10
141.2835266284
 20
106.9233480506
 10
142.7531935906
 20
106.3766341525
 10
144.2363323608
 20
105.8419060078
 10
145.7325702036
 20
105.319278846
 10
147.1775724319
 20
104.8301690355
  0
LWPOLYLINE
  5
355
100
AcDbEntity
  8
0
100
AcDbPolyline
 62
7
  6
CONTINUOUS
 90
13
 70
0
 10
130.1081730613
 20
111.685770606
 10
131.3977514009
 20
111.0768879737
 10
132.7650006117
 20
110.4493682516
 10
134.1477458933
 20
109.8330010944
 10
135.5456683096
 20
109.2279454501
 10
136.9584705973
 20
108.6343456341
 10
138.3858964775
 20
108.0523075573
 10
139.8276728568
 20
107.4819390541
 10
141.2835266284
 20
106.9233480506
 10
142.7531935906
 20
106.3766341525
 10
144.2363323608
 20
105.8419060078
 10
145.7325702036
 20
105.319278846
 10
147.1775724319
 20
104.8301690355
  0
LWPOLYLINE
  5
356
100
AcDbEntity
  8
ASSI
100
AcDbPolyline
 62
7
  6
CONTINUOUS
 90
13
 70
0
 10
148.2933484445
 20
104.382194197
 10
149.5829267841
 20
103.7733115646
 10
150.9501759949
 20
103.1457918425
 10
152.3329212765
 20
102.5294246853
 10
153.7308436928
 20
101.924369041
 10
155.1436459805
 20
101.330769225
 10
156.5710718607
 20
100.7487311482
 10
158.01284824
 20
100.178362645
 10
159.4687020116
 20
99.6197716416
 10
160.9383689738
 20
99.0730577435
 10
162.4215077441
 20
98.5383295987
 10
163.9177455869
 20
98.0157024369
 10
165.3627478151
 20
97.5265926264
  0
LWPOLYLINE
  5
357
100
AcDbEntity
  8
0
100
AcDbPolyline
 62
7
  6
CONTINUOUS
 90
13
 70
0
 10
148.2933484445
 20
104.382194197
 10
149.5829267841
 20
103.7733115646
 10
150.9501759949
 20
103.1457918425
 10
152.3329212765
 20
102.5294246853
 10
153.7308436928
 20
101.924369041
 10
155.1436459805
 20
101.330769225
 10
156.5710718607
 20
100.7487311482
 10
158.01284824
 20
100.178362645
 10
159.4687020116
 20
99.6197716416
 10
160.9383689738
 20
99.0730577435
 10
162.4215077441
 20
98.5383295987
 10
163.9177455869
 20
98.0157024369
 10
165.3627478151
 20
97.5265926264
  0
LINE
  5
358
100
AcDbEntity
  8
ASSI
100
AcDbLine
 62
7
  6
CONTINUOUS
 10
130.1079841938
 20
111.6858610468
 11
130.1080390371
 21
111.6858347745
  0
LINE
  5
359
100
AcDbEntity
  8
0
100
AcDbLine
 62
7
  6
CONTINUOUS
 10
130.1079841938
 20
111.6858610468
 11
130.1080390371
 21
111.6858347745
  0
LINE
  5
35A
100
AcDbEntity
  8
ASSI
100
AcDbLine
 62
7
  6
CONTINUOUS
 10
148.293159577
 20
104.3822846377
 11
148.2932144203
 21
104.3822583654
  0
LINE
  5
35B
100
AcDbEntity
  8
0
100
AcDbLine
 62
7
  6
CONTINUOUS
 10
148.293159577
 20
104.3822846377
 11
148.2932144203
 21
104.3822583654
  0
LWPOLYLINE
  5
35C
100
AcDbEntity
  8
ASSI
100
AcDbPolyline
 62
7
  6
CONTINUOUS
 90
7
 70
0
 10
130.1080390371
 20
111.6858347745
 10
130.0974666248
 20
111.6910538524
 10
130.0584153393
 20
111.7131669353
 10
130.0215920854
 20
111.7386255944
 10
129.987021372
 20
111.7674329162
 10
129.9550331529
 20
111.799393117
 10
129.9259749785
 20
111.8342285684
  0
LWPOLYLINE
  5
35D
100
AcDbEntity
  8
0
100
AcDbPolyline
 62
7
  6
CONTINUOUS
 90
7
 70
0
 10
130.1080390371
 20
111.6858347745
 10
130.0974666248
 20
111.6910538524
 10
130.0584153393
 20
111.7131669353
 10
130.0215920854
 20
111.7386255944
 10
129.987021372
 20
111.7674329162
 10
129.9550331529
 20
111.799393117
 10
129.9259749785
 20
111.8342285684
  0
LWPOLYLINE
  5
35E
100
AcDbEntity
  8
ASSI
100
AcDbPolyline
 62
7
  6
CONTINUOUS
 90
7
 70
0
 10
148.2932144203
 20
104.3822583654
 10
148.282642008
 20
104.3874774433
 10
148.2435907225
 20
104.4095905262
 10
148.2067674686
 20
104.4350491853
 10
148.1721967553
 20
104.4638565071
 10
148.1402085361
 20
104.4958167079
 10
148.1111503617
 20
104.5306521593
  0
LWPOLYLINE
  5
35F
100
AcDbEntity
  8
0
100
AcDbPolyline
 62
7
  6
CONTINUOUS
 90
7
 70
0
 10
148.2932144203
 20
104.3822583654
 10
148.282642008
 20
104.3874774433
 10
148.2435907225
 20
104.4095905262
 10
148.2067674686
 20
104.4350491853
 10
148.1721967553
 20
104.4638565071
 10
148.1402085361
 20
104.4958167079
 10
148.1111503617
 20
104.5306521593
  0
LWPOLYLINE
  5
360
100
AcDbEntity
  8
0
100
AcDbPolyline
 62
253
  6
CONTINUOUS
 90
10
 70
0
 10
148.1885474198
 20
103.4027067531
 10
148.152805403
 20
103.4216220893
 10
148.1204337095
 20
103.4424449647
 10
148.0917384355
 20
103.4649784851
 10
148.0669909173
 20
103.4890095771
 10
148.046425155
 20
103.5143110139
 10
148.0302356054
 20
103.5406435658
 10
148.0185753535
 20
103.5677582544
 10
148.0115546695
 20
103.5953986806
 10
148.0092397759
 20
103.6228425044
  0
LWPOLYLINE
  5
361
100
AcDbEntity
  8
ASSI
100
AcDbPolyline
 62
253
  6
CONTINUOUS
 90
10
 70
0
 10
148.1885474198
 20
103.4027067531
 10
148.152805403
 20
103.4216220893
 10
148.1204337095
 20
103.4424449647
 10
148.0917384355
 20
103.4649784851
 10
148.0669909173
 20
103.4890095771
 10
148.046425155
 20
103.5143110139
 10
148.0302356054
 20
103.5406435658
 10
148.0185753535
 20
103.5677582544
 10
148.0115546695
 20
103.5953986806
 10
148.0092397759
 20
103.6228425044
  0
LWPOLYLINE
  5
362
100
AcDbEntity
  8
ASSI
100
AcDbPolyline
 62
7
  6
CONTINUOUS
 90
8
 70
0
 10
148.1111503617
 20
104.5306521593
 10
148.0851928687
 20
104.5682597325
 10
148.0626671557
 20
104.6082985291
 10
148.0438450275
 20
104.6504047915
 10
148.0288797323
 20
104.6944227794
 10
148.0179983058
 20
104.7400063739
 10
148.0114146004
 20
104.786598624
 10
148.0092398288
 20
104.8336967535
  0
LWPOLYLINE
  5
363
100
AcDbEntity
  8
0
100
AcDbPolyline
 62
7
  6
CONTINUOUS
 90
8
 70
0
 10
148.1111503617
 20
104.5306521593
 10
148.0851928687
 20
104.5682597325
 10
148.0626671557
 20
104.6082985291
 10
148.0438450275
 20
104.6504047915
 10
148.0288797323
 20
104.6944227794
 10
148.0179983058
 20
104.7400063739
 10
148.0114146004
 20
104.786598624
 10
148.0092398288
 20
104.8336967535
  0
LINE
  5
364
100
AcDbEntity
  8
ASSI
100
AcDbLine
 62
7
  6
CONTINUOUS
 10
149.9210051112
 20
123.9634884908
 11
149.9291701008
 21
123.8413385986
  0
LINE
  5
365
100
AcDbEntity
  8
0
100
AcDbLine
 62
7
  6
CONTINUOUS
 10
149.9210051112
 20
123.9634884908
 11
149.9291701008
 21
123.8413385986
  0
LINE
  5
366
100
AcDbEntity
  8
ASSI
100
AcDbLine
 62
7
  6
CONTINUOUS
 10
152.6908670883
 20
123.2282659949
 11
152.6297148328
 21
122.8012652844
  0
LINE
  5
367
100
AcDbEntity
  8
0
100
AcDbLine
 62
7
  6
CONTINUOUS
 10
152.6908670883
 20
123.2282659949
 11
152.6297148328
 21
122.8012652844
  0
LWPOLYLINE
  5
368
100
AcDbEntity
  8
0
100
AcDbPolyline
 62
253
  6
CONTINUOUS
 90
7
 70
0
 10
140.8113960004
 20
95.744021079
 10
140.8046667761
 20
95.7373221375
 10
140.7978915149
 20
95.7306603547
 10
140.7910699903
 20
95.7240357739
 10
140.784201976
 20
95.7174484383
 10
140.7772872456
 20
95.7108983908
 10
140.7703255728
 20
95.7043856748
  0
LWPOLYLINE
  5
369
100
AcDbEntity
  8
0
100
AcDbPolyline
 62
7
  6
CONTINUOUS
 90
10
 70
0
 10
148.1789663486
 20
103.998749681
 10
148.154933079
 20
103.9761557809
 10
148.1221827439
 20
103.9398804166
 10
148.0931542603
 20
103.900616967
 10
148.0681908039
 20
103.8588905368
 10
148.0474003552
 20
103.8149414556
 10
148.0308907422
 20
103.768898982
 10
148.0188943784
 20
103.7211399149
 10
148.0116383388
 20
103.6722734611
 10
148.0092397759
 20
103.6228425044
  0
LWPOLYLINE
  5
36A
100
AcDbEntity
  8
ASSI
100
AcDbPolyline
 62
7
  6
CONTINUOUS
 90
10
 70
0
 10
148.1789663486
 20
103.998749681
 10
148.154933079
 20
103.9761557809
 10
148.1221827439
 20
103.9398804166
 10
148.0931542603
 20
103.900616967
 10
148.0681908039
 20
103.8588905368
 10
148.0474003552
 20
103.8149414556
 10
148.0308907422
 20
103.768898982
 10
148.0188943784
 20
103.7211399149
 10
148.0116383388
 20
103.6722734611
 10
148.0092397759
 20
103.6228425044
  0
LINE
  5
36B
100
AcDbEntity
  8
0
100
AcDbLine
 62
253
  6
CONTINUOUS
 10
140.7703255728
 20
95.7043856748
 11
140.76077324
 21
95.6955804002
  0
LWPOLYLINE
  5
36C
100
AcDbEntity
  8
0
100
AcDbPolyline
 62
253
  6
CONTINUOUS
 90
8
 70
0
 10
140.76077324
 20
95.6955804002
 10
140.7540660173
 20
95.6894866193
 10
140.7473158982
 20
95.6834265447
 10
140.7405226897
 20
95.6774002131
 10
140.7336861987
 20
95.6714076614
 10
140.726806232
 20
95.6654489263
 10
140.7198825965
 20
95.6595240446
 10
140.7129150993
 20
95.6536330532
  0
LINE
  5
36D
100
AcDbEntity
  8
0
100
AcDbLine
 62
7
  6
CONTINUOUS
 10
148.179025673
 20
103.9988018766
 11
148.5026003933
 21
104.2833945556
  0
LINE
  5
36E
100
AcDbEntity
  8
ASSI
100
AcDbLine
 62
7
  6
CONTINUOUS
 10
148.179025673
 20
103.9988018766
 11
148.5026003933
 21
104.2833945556
  0
LINE
  5
36F
100
AcDbEntity
  8
0
100
AcDbLine
 62
253
  6
CONTINUOUS
 10
148.5067368706
 20
104.0308674308
 11
148.6921161386
 21
104.1939134886
  0
LINE
  5
370
100
AcDbEntity
  8
ASSI
100
AcDbLine
 62
253
  6
CONTINUOUS
 10
148.5067368706
 20
104.0308674308
 11
148.6921161386
 21
104.1939134886
  0
LWPOLYLINE
  5
371
100
AcDbEntity
  8
0
100
AcDbPolyline
 62
253
  6
CONTINUOUS
 90
41
 70
0
 10
140.7129150993
 20
95.6536330532
 10
140.6868191338
 20
95.6321865869
 10
140.6601134615
 20
95.6112040358
 10
140.6208872716
 20
95.5820425018
 10
140.5803786769
 20
95.553867626
 10
140.538569379
 20
95.5267155262
 10
140.4954410795
 20
95.50062232
 10
140.4509754801
 20
95.4756241251
 10
140.4051542824
 20
95.451757059
 10
140.3579591881
 20
95.4290572393
 10
140.3093672607
 20
95.4075635717
 10
140.2593370119
 20
95.3873261128
 10
140.2078223155
 20
95.3683977075
 10
140.154777045
 20
95.3508312005
 10
140.1001550741
 20
95.3346794364
 10
140.0439102765
 20
95.31999526
 10
139.9859965259
 20
95.306831516
 10
139.9339237621
 20
95.2966053499
 10
139.8805495444
 20
95.2876391489
 10
139.8258855266
 20
95.2799883383
 10
139.7699433624
 20
95.2737083427
 10
139.7127347056
 20
95.2688545874
 10
139.65427121
 20
95.2654824972
 10
139.5945645293
 20
95.263647497
 10
139.5336263172
 20
95.2634050119
 10
139.4714841859
 20
95.2648072242
 10
139.4082295804
 20
95.2678933461
 10
139.343969904
 20
95.272699347
 10
139.2788125602
 20
95.2792611963
 10
139.2128860029
 20
95.2876005361
 10
139.1464028875
 20
95.2976816976
 10
139.0795969203
 20
95.3094546847
 10
139.0127018072
 20
95.3228695012
 10
138.9458891735
 20
95.3378888559
 10
138.8790823203
 20
95.3545262781
 10
138.812142468
 20
95.3728080023
 10
138.7449308368
 20
95.3927602628
 10
138.6773602488
 20
95.414396375
 10
138.6095499328
 20
95.4376779783
 10
138.5416707192
 20
95.462553793
 10
138.4738934387
 20
95.4889725395
  0
LWPOLYLINE
  5
372
100
AcDbEntity
  8
0
100
AcDbPolyline
 62
253
  6
CONTINUOUS
 90
10
 70
0
 10
148.1790250369
 20
103.998801317
 10
148.1972107397
 20
104.0132367831
 10
148.2278757282
 20
104.0317899937
 10
148.2616420172
 20
104.045858389
 10
148.2981472583
 20
104.0552847978
 10
148.3369862158
 20
104.0599588381
 10
148.3777217899
 20
104.0598258429
 10
148.4199016454
 20
104.0548879036
 10
148.4630650466
 20
104.0451995513
 10
148.506736844
 20
104.0308674074
  0
LWPOLYLINE
  5
373
100
AcDbEntity
  8
ASSI
100
AcDbPolyline
 62
253
  6
CONTINUOUS
 90
10
 70
0
 10
148.1790250369
 20
103.998801317
 10
148.1972107397
 20
104.0132367831
 10
148.2278757282
 20
104.0317899937
 10
148.2616420172
 20
104.045858389
 10
148.2981472583
 20
104.0552847978
 10
148.3369862158
 20
104.0599588381
 10
148.3777217899
 20
104.0598258429
 10
148.4199016454
 20
104.0548879036
 10
148.4630650466
 20
104.0451995513
 10
148.506736844
 20
104.0308674074
  0
LINE
  5
374
100
AcDbEntity
  8
ASSI
100
AcDbLine
 62
253
  6
CONTINUOUS
 10
148.3097168324
 20
104.3744657583
 11
147.7375839271
 21
103.9241067453
  0
LINE
  5
375
100
AcDbEntity
  8
0
100
AcDbLine
 62
253
  6
CONTINUOUS
 10
148.3097168324
 20
104.3744657583
 11
147.7375839271
 21
103.9241067453
  0
LWPOLYLINE
  5
376
100
AcDbEntity
  8
ASSI
100
AcDbPolyline
 62
253
  6
CONTINUOUS
 90
16
 70
0
 10
147.7375839278
 20
103.9241067459
 10
147.7067975502
 20
103.9024616453
 10
147.672501776
 20
103.882634239
 10
147.6350208948
 20
103.8648120082
 10
147.5947093201
 20
103.8491634765
 10
147.5519482188
 20
103.8358366082
 10
147.507141904
 20
103.8249574131
 10
147.4607140252
 20
103.8166287615
 10
147.4131036085
 20
103.8109294161
 10
147.3647608872
 20
103.8079132734
 10
147.3161429978
 20
103.807608849
 10
147.2677096339
 20
103.8100190158
 10
147.2199187437
 20
103.8151209838
 10
147.1732222155
 20
103.8228665115
 10
147.1280616031
 20
103.8331823592
 10
147.0848639305
 20
103.8459709836
  0
LWPOLYLINE
  5
377
100
AcDbEntity
  8
0
100
AcDbPolyline
 62
253
  6
CONTINUOUS
 90
16
 70
0
 10
147.7375839278
 20
103.9241067459
 10
147.7067975502
 20
103.9024616453
 10
147.672501776
 20
103.882634239
 10
147.6350208948
 20
103.8648120082
 10
147.5947093201
 20
103.8491634765
 10
147.5519482188
 20
103.8358366082
 10
147.507141904
 20
103.8249574131
 10
147.4607140252
 20
103.8166287615
 10
147.4131036085
 20
103.8109294161
 10
147.3647608872
 20
103.8079132734
 10
147.3161429978
 20
103.807608849
 10
147.2677096339
 20
103.8100190158
 10
147.2199187437
 20
103.8151209838
 10
147.1732222155
 20
103.8228665115
 10
147.1280616031
 20
103.8331823592
 10
147.0848639305
 20
103.8459709836
  0
LWPOLYLINE
  5
378
100
AcDbEntity
  8
SUPERFICI
100
AcDbPolyline
 62
7
  6
CONTINUOUS
 90
12
 70
0
 10
154.6077346582
 20
105.6471950929
 10
154.5529056963
 20
105.6642384419
 10
154.4987941346
 20
105.6771463002
 10
154.445132548
 20
105.6859530736
 10
154.3921875679
 20
105.6906237164
 10
154.3407588317
 20
105.6910528948
 10
154.2908521177
 20
105.687158622
 10
154.242459448
 20
105.6790211341
 10
154.1963581688
 20
105.6667771139
 10
154.1526388481
 20
105.6503935628
 10
154.1112077399
 20
105.6299009596
 10
154.0725645081
 20
105.6055302408
  0
LINE
  5
379
100
AcDbEntity
  8
ASSI
100
AcDbLine
 62
7
  6
CONTINUOUS
 10
158.4083326931
 20
102.5026813912
 11
158.33692763
 21
102.5270266599
  0
LINE
  5
37A
100
AcDbEntity
  8
0
100
AcDbLine
 62
7
  6
CONTINUOUS
 10
158.4083326931
 20
102.5026813912
 11
158.33692763
 21
102.5270266599
  0
LINE
  5
37B
100
AcDbEntity
  8
ASSI
100
AcDbLine
 62
7
  6
CONTINUOUS
 10
140.2231573099
 20
109.8062578003
 11
140.1517522467
 21
109.830603069
  0
LINE
  5
37C
100
AcDbEntity
  8
0
100
AcDbLine
 62
7
  6
CONTINUOUS
 10
140.2231573099
 20
109.8062578003
 11
140.1517522467
 21
109.830603069
  0
LWPOLYLINE
  5
37D
100
AcDbEntity
  8
SUPERFICI
100
AcDbPolyline
 62
7
  6
CONTINUOUS
 90
14
 70
0
 10
158.3372913964
 20
102.5268862018
 10
158.3941369584
 20
102.506945075
 10
158.4503137268
 20
102.4911370873
 10
158.5058209927
 20
102.479461649
 10
158.5609458146
 20
102.4718861082
 10
158.6154002347
 20
102.468442359
 10
158.6683202206
 20
102.4692259555
 10
158.7196833859
 20
102.4743200956
 10
158.7695097889
 20
102.4836396044
 10
158.8169974523
 20
102.4970261223
 10
158.8620496772
 20
102.5145072803
 10
158.9047600018
 20
102.536052754
 10
158.944610687
 20
102.5614163148
 10
158.961198821
 20
102.5737874301
  0
LWPOLYLINE
  5
37E
100
AcDbEntity
  8
SUPERFICI
100
AcDbPolyline
 62
7
  6
CONTINUOUS
 90
14
 70
0
 10
140.1521160132
 20
109.8304626109
 10
140.2089615752
 20
109.810521484
 10
140.2651383436
 20
109.7947134964
 10
140.3206456095
 20
109.7830380581
 10
140.3757704314
 20
109.7754625173
 10
140.4302248515
 20
109.7720187681
 10
140.4831448374
 20
109.7728023645
 10
140.5345080027
 20
109.7778965047
 10
140.5843344056
 20
109.7872160134
 10
140.6318220691
 20
109.8006025314
 10
140.676874294
 20
109.8180836894
 10
140.7195846186
 20
109.8396291631
 10
140.7594353038
 20
109.8649927239
 10
140.7760234378
 20
109.8773638392
  0
LINE
  5
37F
100
AcDbEntity
  8
SUPERFICI
100
AcDbLine
 62
7
  6
CONTINUOUS
 10
154.6632816786
 20
105.6260167835
 11
154.6077346582
 21
105.6471950929
  0
LINE
  5
380
100
AcDbEntity
  8
SUPERFICI
100
AcDbLine
 62
7
  6
CONTINUOUS
 10
157.5096953982
 20
102.8492455745
 11
158.3372913964
 21
102.5268862018
  0
LINE
  5
381
100
AcDbEntity
  8
ASSI
100
AcDbLine
 62
7
  6
CONTINUOUS
 10
158.33692763
 20
102.5270266599
 11
157.5095886381
 21
102.8492875258
  0
LINE
  5
382
100
AcDbEntity
  8
0
100
AcDbLine
 62
7
  6
CONTINUOUS
 10
158.33692763
 20
102.5270266599
 11
157.5095886381
 21
102.8492875258
  0
LINE
  5
383
100
AcDbEntity
  8
ASSI
100
AcDbLine
 62
7
  6
CONTINUOUS
 10
140.1517522467
 20
109.830603069
 11
139.3244132549
 21
110.1528639349
  0
LINE
  5
384
100
AcDbEntity
  8
0
100
AcDbLine
 62
7
  6
CONTINUOUS
 10
140.1517522467
 20
109.830603069
 11
139.3244132549
 21
110.1528639349
  0
LINE
  5
385
100
AcDbEntity
  8
SUPERFICI
100
AcDbLine
 62
7
  6
CONTINUOUS
 10
139.324520015
 20
110.1528219836
 11
140.1521160132
 21
109.8304626109
  0
LINE
  5
386
100
AcDbEntity
  8
SUPERFICI
100
AcDbLine
 62
7
  6
CONTINUOUS
 10
158.3494564065
 20
104.1455659106
 11
157.5222367369
 21
104.4679001992
  0
LINE
  5
387
100
AcDbEntity
  8
ASSI
100
AcDbLine
 62
7
  6
CONTINUOUS
 10
157.5222061987
 20
104.4679122027
 11
158.3494563337
 21
104.1455659387
  0
LINE
  5
388
100
AcDbEntity
  8
0
100
AcDbLine
 62
7
  6
CONTINUOUS
 10
157.5222061987
 20
104.4679122027
 11
158.3494563337
 21
104.1455659387
  0
LINE
  5
389
100
AcDbEntity
  8
ASSI
100
AcDbLine
 62
7
  6
CONTINUOUS
 10
139.3370308154
 20
111.7714886118
 11
140.1642809504
 21
111.4491423478
  0
LINE
  5
38A
100
AcDbEntity
  8
0
100
AcDbLine
 62
7
  6
CONTINUOUS
 10
139.3370308154
 20
111.7714886118
 11
140.1642809504
 21
111.4491423478
  0
LINE
  5
38B
100
AcDbEntity
  8
SUPERFICI
100
AcDbLine
 62
7
  6
CONTINUOUS
 10
140.1642810233
 20
111.4491423196
 11
139.3370613537
 21
111.7714766083
  0
LINE
  5
38C
100
AcDbEntity
  8
SUPERFICI
100
AcDbLine
 62
7
  6
CONTINUOUS
 10
156.6869062731
 20
103.1754022018
 11
157.5096953982
 21
102.8492455745
  0
LINE
  5
38D
100
AcDbEntity
  8
ASSI
100
AcDbLine
 62
7
  6
CONTINUOUS
 10
157.5095886381
 20
102.8492875258
 11
156.6869089248
 21
103.1754011427
  0
LINE
  5
38E
100
AcDbEntity
  8
0
100
AcDbLine
 62
7
  6
CONTINUOUS
 10
157.5095886381
 20
102.8492875258
 11
156.6869089248
 21
103.1754011427
  0
LINE
  5
38F
100
AcDbEntity
  8
ASSI
100
AcDbLine
 62
7
  6
CONTINUOUS
 10
139.3244132549
 20
110.1528639349
 11
138.5017335416
 21
110.4789775517
  0
LINE
  5
390
100
AcDbEntity
  8
0
100
AcDbLine
 62
7
  6
CONTINUOUS
 10
139.3244132549
 20
110.1528639349
 11
138.5017335416
 21
110.4789775517
  0
LINE
  5
391
100
AcDbEntity
  8
SUPERFICI
100
AcDbLine
 62
7
  6
CONTINUOUS
 10
138.5017308899
 20
110.4789786109
 11
139.324520015
 21
110.1528219836
  0
LINE
  5
392
100
AcDbEntity
  8
SUPERFICI
100
AcDbLine
 62
7
  6
CONTINUOUS
 10
157.5222367369
 20
104.4679001992
 11
156.6995882267
 21
104.7940529385
  0
LINE
  5
393
100
AcDbEntity
  8
ASSI
100
AcDbLine
 62
7
  6
CONTINUOUS
 10
156.6995737057
 20
104.7940587451
 11
157.5222061987
 21
104.4679122027
  0
LINE
  5
394
100
AcDbEntity
  8
0
100
AcDbLine
 62
7
  6
CONTINUOUS
 10
156.6995737057
 20
104.7940587451
 11
157.5222061987
 21
104.4679122027
  0
LINE
  5
395
100
AcDbEntity
  8
ASSI
100
AcDbLine
 62
7
  6
CONTINUOUS
 10
138.5143983225
 20
112.0976351542
 11
139.3370308154
 21
111.7714886118
  0
LINE
  5
396
100
AcDbEntity
  8
0
100
AcDbLine
 62
7
  6
CONTINUOUS
 10
138.5143983225
 20
112.0976351542
 11
139.3370308154
 21
111.7714886118
  0
LINE
  5
397
100
AcDbEntity
  8
SUPERFICI
100
AcDbLine
 62
7
  6
CONTINUOUS
 10
139.3370613537
 20
111.7714766083
 11
138.5144128435
 21
112.0976293476
  0
LINE
  5
398
100
AcDbEntity
  8
0
100
AcDbLine
 62
7
  6
CONTINUOUS
 10
168.0490547407
 20
99.3013472916
 11
168.1421221328
 21
99.2639693288
  0
LINE
  5
399
100
AcDbEntity
  8
ASSI
100
AcDbLine
 62
7
  6
CONTINUOUS
 10
168.0490547407
 20
99.3013472916
 11
168.1421221328
 21
99.2639693288
  0
LINE
  5
39A
100
AcDbEntity
  8
SUPERFICI
100
AcDbLine
 62
7
  6
CONTINUOUS
 10
138.5144128435
 20
112.0976293476
 11
137.6963767814
 21
112.4275849278
  0
LINE
  5
39B
100
AcDbEntity
  8
ASSI
100
AcDbLine
 62
7
  6
CONTINUOUS
 10
137.6964045687
 20
112.4275736233
 11
138.5143983225
 21
112.0976351542
  0
LINE
  5
39C
100
AcDbEntity
  8
0
100
AcDbLine
 62
7
  6
CONTINUOUS
 10
137.6964045687
 20
112.4275736233
 11
138.5143983225
 21
112.0976351542
  0
LINE
  5
39D
100
AcDbEntity
  8
ASSI
100
AcDbLine
 62
7
  6
CONTINUOUS
 10
155.8815799519
 20
105.1239972142
 11
156.6995737057
 21
104.7940587451
  0
LINE
  5
39E
100
AcDbEntity
  8
0
100
AcDbLine
 62
7
  6
CONTINUOUS
 10
155.8815799519
 20
105.1239972142
 11
156.6995737057
 21
104.7940587451
  0
LINE
  5
39F
100
AcDbEntity
  8
SUPERFICI
100
AcDbLine
 62
7
  6
CONTINUOUS
 10
156.6995882267
 20
104.7940529385
 11
155.8815521646
 21
105.1240085187
  0
LINE
  5
3A0
100
AcDbEntity
  8
SUPERFICI
100
AcDbLine
 62
7
  6
CONTINUOUS
 10
137.6837057315
 20
110.8089471442
 11
138.5017308899
 21
110.4789786109
  0
LINE
  5
3A1
100
AcDbEntity
  8
ASSI
100
AcDbLine
 62
7
  6
CONTINUOUS
 10
138.5017335416
 20
110.4789775517
 11
137.6837340842
 21
110.8089356079
  0
LINE
  5
3A2
100
AcDbEntity
  8
0
100
AcDbLine
 62
7
  6
CONTINUOUS
 10
138.5017335416
 20
110.4789775517
 11
137.6837340842
 21
110.8089356079
  0
LINE
  5
3A3
100
AcDbEntity
  8
ASSI
100
AcDbLine
 62
7
  6
CONTINUOUS
 10
156.6869089248
 20
103.1754011427
 11
155.8689094674
 21
103.5053591988
  0
LINE
  5
3A4
100
AcDbEntity
  8
0
100
AcDbLine
 62
7
  6
CONTINUOUS
 10
156.6869089248
 20
103.1754011427
 11
155.8689094674
 21
103.5053591988
  0
LINE
  5
3A5
100
AcDbEntity
  8
SUPERFICI
100
AcDbLine
 62
7
  6
CONTINUOUS
 10
155.8688811147
 20
103.5053707352
 11
156.6869062731
 21
103.1754022018
  0
LINE
  5
3A6
100
AcDbEntity
  8
ASSI
100
AcDbLine
 62
7
  6
CONTINUOUS
 10
137.6837340842
 20
110.8089356079
 11
136.8704051238
 21
111.1427419998
  0
LINE
  5
3A7
100
AcDbEntity
  8
0
100
AcDbLine
 62
7
  6
CONTINUOUS
 10
137.6837340842
 20
110.8089356079
 11
136.8704051238
 21
111.1427419998
  0
LINE
  5
3A8
100
AcDbEntity
  8
ASSI
100
AcDbLine
 62
7
  6
CONTINUOUS
 10
155.8689094674
 20
103.5053591988
 11
155.055580507
 21
103.8391655907
  0
LINE
  5
3A9
100
AcDbEntity
  8
0
100
AcDbLine
 62
7
  6
CONTINUOUS
 10
155.8689094674
 20
103.5053591988
 11
155.055580507
 21
103.8391655907
  0
LINE
  5
3AA
100
AcDbEntity
  8
SUPERFICI
100
AcDbLine
 62
7
  6
CONTINUOUS
 10
137.6963767814
 20
112.4275849278
 11
136.883031001
 21
112.7613115725
  0
LINE
  5
3AB
100
AcDbEntity
  8
SUPERFICI
100
AcDbLine
 62
7
  6
CONTINUOUS
 10
155.8815521646
 20
105.1240085187
 11
155.0682063842
 21
105.4577351634
  0
LINE
  5
3AC
100
AcDbEntity
  8
SUPERFICI
100
AcDbLine
 62
7
  6
CONTINUOUS
 10
136.883031001
 20
112.7613115725
 11
136.4781062954
 21
112.9295931925
  0
LWPOLYLINE
  5
3AD
100
AcDbEntity
  8
ASSI
100
AcDbPolyline
 62
7
  6
CONTINUOUS
 90
3
 70
0
 10
136.4781063158
 20
112.929593184
 10
136.8830402506
 20
112.7613077284
 10
137.6964045687
 20
112.4275736233
  0
LWPOLYLINE
  5
3AE
100
AcDbEntity
  8
0
100
AcDbPolyline
 62
7
  6
CONTINUOUS
 90
3
 70
0
 10
136.4781063158
 20
112.929593184
 10
136.8830402506
 20
112.7613077284
 10
137.6964045687
 20
112.4275736233
  0
LINE
  5
3AF
100
AcDbEntity
  8
SUPERFICI
100
AcDbLine
 62
7
  6
CONTINUOUS
 10
155.0682063842
 20
105.4577351634
 11
154.6632816786
 21
105.6260167835
  0
LWPOLYLINE
  5
3B0
100
AcDbEntity
  8
ASSI
100
AcDbPolyline
 62
7
  6
CONTINUOUS
 90
3
 70
0
 10
154.663281699
 20
105.626016775
 10
155.0682156339
 20
105.4577313193
 10
155.8815799519
 20
105.1239972142
  0
LWPOLYLINE
  5
3B1
100
AcDbEntity
  8
0
100
AcDbPolyline
 62
7
  6
CONTINUOUS
 90
3
 70
0
 10
154.663281699
 20
105.626016775
 10
155.0682156339
 20
105.4577313193
 10
155.8815799519
 20
105.1239972142
  0
LWPOLYLINE
  5
3B2
100
AcDbEntity
  8
SUPERFICI
100
AcDbPolyline
 62
7
  6
CONTINUOUS
 90
3
 70
0
 10
136.4651497139
 20
111.3112313987
 10
136.8701890467
 20
111.142831448
 10
137.6837057315
 20
110.8089471442
  0
LINE
  5
3B3
100
AcDbEntity
  8
ASSI
100
AcDbLine
 62
7
  6
CONTINUOUS
 10
136.8704051238
 20
111.1427419998
 11
136.465504297
 21
111.3110833509
  0
LINE
  5
3B4
100
AcDbEntity
  8
0
100
AcDbLine
 62
7
  6
CONTINUOUS
 10
136.8704051238
 20
111.1427419998
 11
136.465504297
 21
111.3110833509
  0
LINE
  5
3B5
100
AcDbEntity
  8
ASSI
100
AcDbLine
 62
7
  6
CONTINUOUS
 10
155.055580507
 20
103.8391655907
 11
154.6506796802
 21
104.0075069418
  0
LINE
  5
3B6
100
AcDbEntity
  8
0
100
AcDbLine
 62
7
  6
CONTINUOUS
 10
155.055580507
 20
103.8391655907
 11
154.6506796802
 21
104.0075069418
  0
LWPOLYLINE
  5
3B7
100
AcDbEntity
  8
SUPERFICI
100
AcDbPolyline
 62
7
  6
CONTINUOUS
 90
3
 70
0
 10
154.6503250972
 20
104.0076549897
 10
155.0553644299
 20
103.8392550389
 10
155.8688811147
 20
103.5053707352
  0
LWPOLYLINE
  5
3B8
100
AcDbEntity
  8
ASSI
100
AcDbPolyline
 62
7
  6
CONTINUOUS
 90
27
 70
0
 10
140.1642809504
 20
111.4491423478
 10
140.2356904557
 20
111.4183242598
 10
140.3054935199
 20
111.3822947281
 10
140.3736883689
 20
111.3410522871
 10
140.4407119727
 20
111.2942648497
 10
140.5061250139
 20
111.2422625451
 10
140.5686098774
 20
111.1860360357
 10
140.6282124184
 20
111.1253806206
 10
140.6848822787
 20
111.0604971731
 10
140.7371542633
 20
110.9929819752
 10
140.7848367744
 20
110.9228868108
 10
140.8281152593
 20
110.8501546387
 10
140.866087665
 20
110.7762164718
 10
140.8986931326
 20
110.7009107051
 10
140.925987411
 20
110.6243945408
 10
140.9472419794
 20
110.548576071
 10
140.9622912139
 20
110.4735291114
 10
140.9712973791
 20
110.3991769479
 10
140.9740230293
 20
110.3272012881
 10
140.9703076016
 20
110.2576555079
 10
140.9603114023
 20
110.1904859991
 10
140.9442779703
 20
110.1272137801
 10
140.9220414456
 20
110.0678916211
 10
140.8937706289
 20
110.0124692708
 10
140.8602103899
 20
109.9623127129
 10
140.8212995185
 20
109.917624411
 10
140.7760252574
 20
109.877361612
  0
LWPOLYLINE
  5
3B9
100
AcDbEntity
  8
0
100
AcDbPolyline
 62
7
  6
CONTINUOUS
 90
27
 70
0
 10
140.1642809504
 20
111.4491423478
 10
140.2356904557
 20
111.4183242598
 10
140.3054935199
 20
111.3822947281
 10
140.3736883689
 20
111.3410522871
 10
140.4407119727
 20
111.2942648497
 10
140.5061250139
 20
111.2422625451
 10
140.5686098774
 20
111.1860360357
 10
140.6282124184
 20
111.1253806206
 10
140.6848822787
 20
111.0604971731
 10
140.7371542633
 20
110.9929819752
 10
140.7848367744
 20
110.9228868108
 10
140.8281152593
 20
110.8501546387
 10
140.866087665
 20
110.7762164718
 10
140.8986931326
 20
110.7009107051
 10
140.925987411
 20
110.6243945408
 10
140.9472419794
 20
110.548576071
 10
140.9622912139
 20
110.4735291114
 10
140.9712973791
 20
110.3991769479
 10
140.9740230293
 20
110.3272012881
 10
140.9703076016
 20
110.2576555079
 10
140.9603114023
 20
110.1904859991
 10
140.9442779703
 20
110.1272137801
 10
140.9220414456
 20
110.0678916211
 10
140.8937706289
 20
110.0124692708
 10
140.8602103899
 20
109.9623127129
 10
140.8212995185
 20
109.917624411
 10
140.7760252574
 20
109.877361612
  0
LWPOLYLINE
  5
3BA
100
AcDbEntity
  8
ASSI
100
AcDbPolyline
 62
7
  6
CONTINUOUS
 90
27
 70
0
 10
136.465504297
 20
111.3110833509
 10
136.3959225697
 20
111.3433826627
 10
136.3279524729
 20
111.3809044275
 10
136.2615919987
 20
111.4236470115
 10
136.1964124691
 20
111.4719515139
 10
136.1328397429
 20
111.5254745349
 10
136.0721521548
 20
111.5831865351
 10
136.0143001761
 20
111.6452874319
 10
135.9593282743
 20
111.7115732581
 10
135.9086524777
 20
111.7804060337
 10
135.8624514142
 20
111.851723341
 10
135.8205398671
 20
111.9255823774
 10
135.7837857283
 20
112.000522715
 10
135.7522421245
 20
112.0766988013
 10
135.7258506757
 20
112.1539520605
 10
135.7053107607
 20
112.2303515375
 10
135.6907780962
 20
112.3058156037
 10
135.6820938427
 20
112.3804234559
 10
135.6794849126
 20
112.4524848678
 10
135.6831053275
 20
112.521940707
 10
135.6928013381
 20
112.5888503506
 10
135.7083379296
 20
112.6517011049
 10
135.7298775975
 20
112.7104374736
 10
135.7572614137
 20
112.7651177852
 10
135.7897714912
 20
112.8143994816
 10
135.827470665
 20
112.8580815354
 10
135.8550223162
 20
112.8838334292
  0
LWPOLYLINE
  5
3BB
100
AcDbEntity
  8
0
100
AcDbPolyline
 62
7
  6
CONTINUOUS
 90
27
 70
0
 10
136.465504297
 20
111.3110833509
 10
136.3959225697
 20
111.3433826627
 10
136.3279524729
 20
111.3809044275
 10
136.2615919987
 20
111.4236470115
 10
136.1964124691
 20
111.4719515139
 10
136.1328397429
 20
111.5254745349
 10
136.0721521548
 20
111.5831865351
 10
136.0143001761
 20
111.6452874319
 10
135.9593282743
 20
111.7115732581
 10
135.9086524777
 20
111.7804060337
 10
135.8624514142
 20
111.851723341
 10
135.8205398671
 20
111.9255823774
 10
135.7837857283
 20
112.000522715
 10
135.7522421245
 20
112.0766988013
 10
135.7258506757
 20
112.1539520605
 10
135.7053107607
 20
112.2303515375
 10
135.6907780962
 20
112.3058156037
 10
135.6820938427
 20
112.3804234559
 10
135.6794849126
 20
112.4524848678
 10
135.6831053275
 20
112.521940707
 10
135.6928013381
 20
112.5888503506
 10
135.7083379296
 20
112.6517011049
 10
135.7298775975
 20
112.7104374736
 10
135.7572614137
 20
112.7651177852
 10
135.7897714912
 20
112.8143994816
 10
135.827470665
 20
112.8580815354
 10
135.8550223162
 20
112.8838334292
  0
LWPOLYLINE
  5
3BC
100
AcDbEntity
  8
ASSI
100
AcDbPolyline
 62
7
  6
CONTINUOUS
 90
27
 70
0
 10
154.6506796802
 20
104.0075069418
 10
154.5810979529
 20
104.0398062536
 10
154.5131278561
 20
104.0773280185
 10
154.4467673819
 20
104.1200706024
 10
154.3815878523
 20
104.1683751048
 10
154.3180151261
 20
104.2218981258
 10
154.257327538
 20
104.279610126
 10
154.1994755593
 20
104.3417110228
 10
154.1445036576
 20
104.407996849
 10
154.0938278609
 20
104.4768296246
 10
154.0476267974
 20
104.5481469319
 10
154.0057152503
 20
104.6220059683
 10
153.9689611115
 20
104.6969463059
 10
153.9374175077
 20
104.7731223923
 10
153.911026059
 20
104.8503756514
 10
153.8904861439
 20
104.9267751284
 10
153.8759534794
 20
105.0022391946
 10
153.8672692259
 20
105.0768470468
 10
153.8646602958
 20
105.1489084587
 10
153.8682807107
 20
105.2183642979
 10
153.8779767214
 20
105.2852739415
 10
153.8935133128
 20
105.3481246958
 10
153.9150529807
 20
105.4068610645
 10
153.9424367969
 20
105.4615413761
 10
153.9749468744
 20
105.5108230725
 10
154.0126460482
 20
105.5545051263
 10
154.0401976994
 20
105.5802570202
  0
LWPOLYLINE
  5
3BD
100
AcDbEntity
  8
0
100
AcDbPolyline
 62
7
  6
CONTINUOUS
 90
27
 70
0
 10
154.6506796802
 20
104.0075069418
 10
154.5810979529
 20
104.0398062536
 10
154.5131278561
 20
104.0773280185
 10
154.4467673819
 20
104.1200706024
 10
154.3815878523
 20
104.1683751048
 10
154.3180151261
 20
104.2218981258
 10
154.257327538
 20
104.279610126
 10
154.1994755593
 20
104.3417110228
 10
154.1445036576
 20
104.407996849
 10
154.0938278609
 20
104.4768296246
 10
154.0476267974
 20
104.5481469319
 10
154.0057152503
 20
104.6220059683
 10
153.9689611115
 20
104.6969463059
 10
153.9374175077
 20
104.7731223923
 10
153.911026059
 20
104.8503756514
 10
153.8904861439
 20
104.9267751284
 10
153.8759534794
 20
105.0022391946
 10
153.8672692259
 20
105.0768470468
 10
153.8646602958
 20
105.1489084587
 10
153.8682807107
 20
105.2183642979
 10
153.8779767214
 20
105.2852739415
 10
153.8935133128
 20
105.3481246958
 10
153.9150529807
 20
105.4068610645
 10
153.9424367969
 20
105.4615413761
 10
153.9749468744
 20
105.5108230725
 10
154.0126460482
 20
105.5545051263
 10
154.0401976994
 20
105.5802570202
  0
LWPOLYLINE
  5
3BE
100
AcDbEntity
  8
SUPERFICI
100
AcDbPolyline
 62
7
  6
CONTINUOUS
 90
3
 70
0
 10
140.2774309819
 20
111.3975936325
 10
140.221236821
 20
111.4251393148
 10
140.1642810233
 20
111.4491423196
  0
LINE
  5
3BF
100
AcDbEntity
  8
ASSI
100
AcDbLine
 62
7
  6
CONTINUOUS
 10
152.6908670883
 20
123.2282659949
 11
152.6969643541
 21
122.7009793008
  0
LINE
  5
3C0
100
AcDbEntity
  8
0
100
AcDbLine
 62
7
  6
CONTINUOUS
 10
152.6908670883
 20
123.2282659949
 11
152.6969643541
 21
122.7009793008
  0
LWPOLYLINE
  5
3C1
100
AcDbEntity
  8
0
100
AcDbPolyline
 62
253
  6
CONTINUOUS
 90
55
 70
0
 10
153.2500255346
 20
92.4046533735
 10
153.2494892925
 20
92.5000328471
 10
153.2517280294
 20
92.5942041003
 10
153.2567411119
 20
92.687091145
 10
153.2645279066
 20
92.778617993
 10
153.2750877799
 20
92.8687086561
 10
153.2884200985
 20
92.9572871462
 10
153.3045212724
 20
93.044276938
 10
153.3233758867
 20
93.1295993574
 10
153.3449655701
 20
93.2131751936
 10
153.3692719512
 20
93.2949252353
 10
153.3962766587
 20
93.3747702717
 10
153.4259613213
 20
93.4526310915
 10
153.4583056416
 20
93.5284331794
 10
153.4932816179
 20
93.6021208023
 10
153.5308593226
 20
93.6736429226
 10
153.5710088278
 20
93.7429485029
 10
153.6137002059
 20
93.8099865057
 10
153.6589035293
 20
93.8747058935
 10
153.706592308
 20
93.9370572232
 10
153.7567538042
 20
93.9969974295
 10
153.8093787177
 20
94.0544850415
 10
153.8644577485
 20
94.1094785883
 10
153.9219815965
 20
94.1619365989
 10
153.9819409618
 20
94.2118176025
 10
154.0443087315
 20
94.2590755848
 10
154.1089865423
 20
94.3036463581
 10
154.1758582179
 20
94.3454611915
 10
154.2448075821
 20
94.3844513539
 10
154.315718459
 20
94.4205481143
 10
154.3884746722
 20
94.4536827418
 10
154.4629721966
 20
94.4838000566
 10
154.5391556109
 20
94.5108990839
 10
154.6169816445
 20
94.5349924005
 10
154.6964070271
 20
94.5560925828
 10
154.7773884882
 20
94.5742122075
 10
154.8598827574
 20
94.589363851
 10
154.9438494287
 20
94.6015549189
 10
155.0292595544
 20
94.6107721311
 10
155.1160870509
 20
94.6169970368
 10
155.204305835
 20
94.6202111848
 10
155.2938898232
 20
94.6203961242
 10
155.3848129322
 20
94.6175334038
 10
155.4770269128
 20
94.6116115544
 10
155.5703948529
 20
94.6026470342
 10
155.6647576744
 20
94.5906632831
 10
155.7599562993
 20
94.5756837409
 10
155.8558316497
 20
94.5577318478
 10
155.9522246474
 20
94.5368310435
 10
156.0489930159
 20
94.5130074462
 10
156.1460616833
 20
94.4862978868
 10
156.243372379
 20
94.4567418746
 10
156.3408668326
 20
94.4243789185
 10
156.4384867735
 20
94.3892485277
 10
156.5361739312
 20
94.3513902114
  0
LWPOLYLINE
  5
3C2
100
AcDbEntity
  8
0
100
AcDbPolyline
 62
253
  6
CONTINUOUS
 90
54
 70
0
 10
153.7310626894
 20
92.1992469606
 10
153.73060386
 20
92.2808630681
 10
153.7325292562
 20
92.3614251368
 10
153.7368347092
 20
92.4408665187
 10
153.7435160502
 20
92.5191205661
 10
153.7525691103
 20
92.5961206311
 10
153.7639897206
 20
92.671800066
 10
153.7777720974
 20
92.7460936873
 10
153.793903996
 20
92.8189421688
 10
153.8123715572
 20
92.8902876487
 10
153.8331609212
 20
92.9600722651
 10
153.8562582288
 20
93.0282381562
 10
153.8816496203
 20
93.0947274602
 10
153.9093194108
 20
93.159484099
 10
153.9392446133
 20
93.2224591296
 10
153.9714004153
 20
93.2836053928
 10
154.0057620042
 20
93.3428757294
 10
154.0423045677
 20
93.4002229802
 10
154.0810032931
 20
93.455599986
 10
154.1218359577
 20
93.5089612899
 10
154.1647906975
 20
93.5602682448
 10
154.2098582382
 20
93.6094839058
 10
154.2570293054
 20
93.6565713283
 10
154.3062946248
 20
93.7014935674
 10
154.3576449222
 20
93.7442136782
 10
154.4110558306
 20
93.7846910506
 10
154.466442613
 20
93.8228704117
 10
154.5237054394
 20
93.8586928236
 10
154.5827444804
 20
93.8920993479
 10
154.643459906
 20
93.9230310464
 10
154.7057518867
 20
93.9514289811
 10
154.7695309907
 20
93.9772458033
 10
154.8347493788
 20
94.0004805227
 10
154.9013696099
 20
94.0211437388
 10
154.9693542427
 20
94.0392460509
 10
155.0386658361
 20
94.0547980583
 10
155.1092669489
 20
94.0678103605
 10
155.1811226089
 20
94.0782891525
 10
155.2542077198
 20
94.0862230126
 10
155.3284996542
 20
94.0915961146
 10
155.4039757848
 20
94.0943926324
 10
155.4806134843
 20
94.0945967399
 10
155.5583901253
 20
94.0921926111
 10
155.6372642008
 20
94.0871703672
 10
155.7171186848
 20
94.0795439186
 10
155.7978176717
 20
94.0693331229
 10
155.8792252559
 20
94.0565578378
 10
155.9612055318
 20
94.0412379211
 10
156.0436225937
 20
94.0233932304
 10
156.1263548662
 20
94.0030459399
 10
156.2093380944
 20
93.9802274897
 10
156.2925223537
 20
93.9549716365
 10
156.3758577193
 20
93.9273121369
 10
156.4592942668
 20
93.8972827475
  0
LINE
  5
3C3
100
AcDbEntity
  8
ASSI
100
AcDbLine
 62
253
  6
CONTINUOUS
 10
152.6297148328
 20
122.8012652844
 11
152.6297148339
 21
122.7903600172
  0
LINE
  5
3C4
100
AcDbEntity
  8
0
100
AcDbLine
 62
253
  6
CONTINUOUS
 10
152.6297148328
 20
122.8012652844
 11
152.6297148339
 21
122.7903600172
  0
LWPOLYLINE
  5
3C5
100
AcDbEntity
  8
0
100
AcDbPolyline
 62
253
  6
CONTINUOUS
 90
55
 70
0
 10
153.2028880283
 20
111.2624356782
 10
153.2061222565
 20
111.3598478522
 10
153.2120713271
 20
111.4561164602
 10
153.2207358793
 20
111.5511654125
 10
153.2321165523
 20
111.6449186196
 10
153.2462139853
 20
111.7372999919
 10
153.2630266688
 20
111.8282312375
 10
153.2825444994
 20
111.9176252545
 10
153.3047552251
 20
112.0053927386
 10
153.3296465941
 20
112.0914443852
 10
153.3572063543
 20
112.1756908902
 10
153.3874137132
 20
112.25804071
 10
153.4202137157
 20
112.3383933442
 10
153.455542866
 20
112.4166460534
 10
153.4933376686
 20
112.492696098
 10
153.5335346276
 20
112.5664407384
 10
153.5760825426
 20
112.6377993297
 10
153.6209793934
 20
112.7067796038
 10
153.668235455
 20
112.7734113876
 10
153.7178610024
 20
112.8377245075
 10
153.7698663105
 20
112.8997487901
 10
153.8242725763
 20
112.9595054955
 10
153.8811446838
 20
113.016981617
 10
153.9405584389
 20
113.0721555813
 10
154.0025896475
 20
113.1250058153
 10
154.0673141155
 20
113.1755107458
 10
154.1348019105
 20
113.22363443
 10
154.2051001467
 20
113.2692834469
 10
154.2782502004
 20
113.312350006
 10
154.3542934474
 20
113.3527263166
 10
154.4332712637
 20
113.3903045883
 10
154.5013665881
 20
113.4194012151
 10
154.5716061354
 20
113.4463968668
 10
154.6440674999
 20
113.4712085053
 10
154.718828276
 20
113.4937530925
 10
154.7959660577
 20
113.5139475906
 10
154.8755584394
 20
113.5317089614
 10
154.9576644171
 20
113.5469420927
 10
155.042268594
 20
113.5595035754
 10
155.1293369751
 20
113.569237926
 10
155.2188355654
 20
113.5759896611
 10
155.31073037
 20
113.5796032973
 10
155.4049873938
 20
113.5799233512
 10
155.5015164986
 20
113.5768218002
 10
155.6000029731
 20
113.570280465
 10
155.7000759629
 20
113.5603086268
 10
155.8013646132
 20
113.5469155672
 10
155.9034980697
 20
113.5301105675
 10
156.0061054778
 20
113.5099029093
 10
156.1088767876
 20
113.4863075143
 10
156.2117451678
 20
113.4593618662
 10
156.3147045916
 20
113.4291090894
 10
156.4177490325
 20
113.3955923078
 10
156.5208724638
 20
113.3588546458
 10
156.6240688588
 20
113.3189392274
  0
LWPOLYLINE
  5
3C6
100
AcDbEntity
  8
0
100
AcDbPolyline
 62
253
  6
CONTINUOUS
 90
50
 70
0
 10
153.683768486
 20
111.0569045009
 10
153.6865126998
 20
111.1389470846
 10
153.6915131254
 20
111.2200216833
 10
153.6987674179
 20
111.3000648879
 10
153.7082732326
 20
111.379013289
 10
153.7200282248
 20
111.4568034772
 10
153.7340287988
 20
111.5333718201
 10
153.7502663561
 20
111.6086537927
 10
153.7687310474
 20
111.6825846472
 10
153.7894130234
 20
111.7550996355
 10
153.8123024348
 20
111.8261340095
 10
153.8373836257
 20
111.8956206997
 10
153.8646177143
 20
111.9634833496
 10
153.8939600121
 20
112.0296432811
 10
153.9253658308
 20
112.0940218158
 10
153.9587904819
 20
112.1565402759
 10
153.9941984441
 20
112.2171363454
 10
154.0315908647
 20
112.2758131589
 10
154.0709780584
 20
112.3325902129
 10
154.1123703396
 20
112.3874870044
 10
154.1557780226
 20
112.4405230301
 10
154.2012229826
 20
112.4917123489
 10
154.2487733359
 20
112.5410472678
 10
154.2985087595
 20
112.5885146559
 10
154.3505089303
 20
112.6341013823
 10
154.4048535253
 20
112.6777943161
 10
154.4616172887
 20
112.7195659796
 10
154.520855235
 20
112.7593315073
 10
154.5826174459
 20
112.7969916868
 10
154.6469540033
 20
112.8324473057
 10
154.7139149889
 20
112.8655991517
 10
154.7717640875
 20
112.8913898671
 10
154.8315437118
 20
112.9154279109
 10
154.8933270889
 20
112.9376293517
 10
154.957187446
 20
112.9579102576
 10
155.0231980101
 20
112.976186697
 10
155.0914320085
 20
112.9923747382
 10
155.1619456373
 20
113.0063823598
 10
155.2347269696
 20
113.0180851811
 10
155.3097470479
 20
113.0273507318
 10
155.3869769144
 20
113.0340465413
 10
155.4663876114
 20
113.0380401394
 10
155.5479501813
 20
113.0391990556
 10
155.6315977701
 20
113.0373984489
 10
155.7171119387
 20
113.0325439957
 10
155.804236352
 20
113.0245490019
 10
155.8926650038
 20
113.0133609208
 10
155.9818932044
 20
112.9990637946
 10
156.0713665933
 20
112.981775813
 10
156.1606783361
 20
112.9615853538
  0
LINE
  5
3C7
100
AcDbEntity
  8
ASSI
100
AcDbLine
 62
7
  6
CONTINUOUS
 10
152.6290459204
 20
122.7903600171
 11
152.6297148328
 21
122.8012652844
  0
LINE
  5
3C8
100
AcDbEntity
  8
0
100
AcDbLine
 62
7
  6
CONTINUOUS
 10
152.6290459204
 20
122.7903600171
 11
152.6297148328
 21
122.8012652844
  0
LWPOLYLINE
  5
3C9
100
AcDbEntity
  8
SUPERFICI
100
AcDbPolyline
 62
7
  6
CONTINUOUS
 90
34
 70
0
 10
154.0402127465
 20
105.5802382967
 10
154.0366777993
 20
105.577164283
 10
154.0035759044
 20
105.5449177884
 10
153.9738470349
 20
105.5093686994
 10
153.9476026009
 20
105.4705594401
 10
153.924728111
 20
105.4284451488
 10
153.905472348
 20
105.3834723762
 10
153.8898431206
 20
105.3354734123
 10
153.8778307194
 20
105.2846144621
 10
153.8696573662
 20
105.2318427172
 10
153.8653966091
 20
105.1772733101
 10
153.86497395
 20
105.1207903444
 10
153.8683893979
 20
105.0629943473
 10
153.8757090408
 20
105.0037220623
 10
153.8868674678
 20
104.9431372649
 10
153.9016673284
 20
104.8823309365
 10
153.9201320129
 20
104.8214293059
 10
153.9422398684
 20
104.7603074985
 10
153.9677257262
 20
104.6996796366
 10
153.9966803035
 20
104.6394527207
 10
154.0290158062
 20
104.5797220496
 10
154.0641987987
 20
104.5214837974
 10
154.102233886
 20
104.4648303792
 10
154.1431196347
 20
104.4096718882
 10
154.1863126894
 20
104.3567303343
 10
154.2318716404
 20
104.3060031151
 10
154.2797411141
 20
104.2574953945
 10
154.32920565
 20
104.2119399147
 10
154.3803155289
 20
104.1693759604
 10
154.433022964
 20
104.1297662518
 10
154.4864637469
 20
104.0937273784
 10
154.5403497255
 20
104.061464815
 10
154.5949699394
 20
104.0327738246
 10
154.6503250972
 20
104.0076549897
  0
LINE
  5
3CA
100
AcDbEntity
  8
ASSI
100
AcDbLine
 62
253
  6
CONTINUOUS
 10
166.1688408774
 20
115.9389957252
 11
167.6711151261
 21
117.2118606611
  0
LINE
  5
3CB
100
AcDbEntity
  8
0
100
AcDbLine
 62
253
  6
CONTINUOUS
 10
166.1688408774
 20
115.9389957252
 11
167.6711151261
 21
117.2118606611
  0
LINE
  5
3CC
100
AcDbEntity
  8
ASSI
100
AcDbLine
 62
253
  6
CONTINUOUS
 10
166.5857786433
 20
115.3716877736
 11
168.1061804944
 21
116.6599120818
  0
LINE
  5
3CD
100
AcDbEntity
  8
0
100
AcDbLine
 62
253
  6
CONTINUOUS
 10
166.5857786433
 20
115.3716877736
 11
168.1061804944
 21
116.6599120818
  0
LWPOLYLINE
  5
3CE
100
AcDbEntity
  8
ASSI
100
AcDbPolyline
 62
7
  6
CONTINUOUS
 90
12
 70
0
 10
154.0401976994
 20
105.5802570202
 10
154.0554769425
 20
105.5927928788
 10
154.1025399338
 20
105.6249521848
 10
154.1540223473
 20
105.6508791417
 10
154.2097433466
 20
105.6706827874
 10
154.2682485055
 20
105.6839463493
 10
154.3294854146
 20
105.6905097831
 10
154.3935111559
 20
105.6905368422
 10
154.459032112
 20
105.6840937249
 10
154.5256171603
 20
105.6712025672
 10
154.5936997648
 20
105.6518431093
 10
154.663281699
 20
105.626016775
  0
LWPOLYLINE
  5
3CF
100
AcDbEntity
  8
0
100
AcDbPolyline
 62
7
  6
CONTINUOUS
 90
12
 70
0
 10
154.0401976994
 20
105.5802570202
 10
154.0554769425
 20
105.5927928788
 10
154.1025399338
 20
105.6249521848
 10
154.1540223473
 20
105.6508791417
 10
154.2097433466
 20
105.6706827874
 10
154.2682485055
 20
105.6839463493
 10
154.3294854146
 20
105.6905097831
 10
154.3935111559
 20
105.6905368422
 10
154.459032112
 20
105.6840937249
 10
154.5256171603
 20
105.6712025672
 10
154.5936997648
 20
105.6518431093
 10
154.663281699
 20
105.626016775
  0
LINE
  5
3D0
100
AcDbEntity
  8
SUPERFICI
100
AcDbLine
 62
7
  6
CONTINUOUS
 10
154.0725645081
 20
105.6055302408
 11
154.0402127465
 21
105.5802382967
  0
LWPOLYLINE
  5
3D1
100
AcDbEntity
  8
SUPERFICI
100
AcDbPolyline
 62
7
  6
CONTINUOUS
 90
12
 70
0
 10
136.422559275
 20
112.9507715019
 10
136.3677303131
 20
112.967814851
 10
136.3136187513
 20
112.9807227093
 10
136.2599571648
 20
112.9895294827
 10
136.2070121847
 20
112.9942001255
 10
136.1555834485
 20
112.9946293039
 10
136.1056767345
 20
112.9907350311
 10
136.0572840647
 20
112.9825975431
 10
136.0111827856
 20
112.970353523
 10
135.9674634649
 20
112.9539699719
 10
135.9260323566
 20
112.9334773687
 10
135.8873891249
 20
112.9091066499
  0
LINE
  5
3D2
100
AcDbEntity
  8
SUPERFICI
100
AcDbLine
 62
7
  6
CONTINUOUS
 10
136.4781062954
 20
112.9295931925
 11
136.422559275
 21
112.9507715019
  0
LWPOLYLINE
  5
3D3
100
AcDbEntity
  8
0
100
AcDbPolyline
 62
253
  6
CONTINUOUS
 90
55
 70
0
 10
138.3027939266
 20
113.7524809799
 10
138.2050050191
 20
113.7932428743
 10
138.1072964847
 20
113.8369292831
 10
138.0097271179
 20
113.8835318569
 10
137.912355713
 20
113.9330422469
 10
137.8152410645
 20
113.9854521038
 10
137.7184419669
 20
114.0407530787
 10
137.6220336685
 20
114.0989197078
 10
137.526157234
 20
114.1598580691
 10
137.4309701818
 20
114.2234571257
 10
137.3366300305
 20
114.2896058409
 10
137.2432942986
 20
114.3581931781
 10
137.1511205047
 20
114.4291081005
 10
137.0602438514
 20
114.5022508326
 10
136.9707102784
 20
114.5775666435
 10
136.8825434095
 20
114.6550120638
 10
136.7957668684
 20
114.7345436238
 10
136.710404279
 20
114.8161178541
 10
136.6264792651
 20
114.899691285
 10
136.5440191146
 20
114.9852226467
 10
136.4630657724
 20
115.0726794685
 10
136.3836648472
 20
115.1620314795
 10
136.305861948
 20
115.2532484087
 10
136.2297026837
 20
115.3462999852
 10
136.1552326632
 20
115.441155938
 10
136.0825091723
 20
115.537761511
 10
136.0116362042
 20
115.6359640074
 10
135.942729429
 20
115.7355862454
 10
135.8759045168
 20
115.8364510431
 10
135.8112771377
 20
115.9383812185
 10
135.7489629617
 20
116.0411995899
 10
135.6890596497
 20
116.1447496271
 10
135.6315928246
 20
116.2489574077
 10
135.5765701003
 20
116.3537696611
 10
135.5239990903
 20
116.4591331167
 10
135.4738874085
 20
116.5649945038
 10
135.4262426685
 20
116.6713005518
 10
135.3810763627
 20
116.7779931786
 10
135.3384154976
 20
116.8849950561
 10
135.2982909584
 20
116.9922240444
 10
135.2607336304
 20
117.0995980039
 10
135.2257743986
 20
117.2070347948
 10
135.1934441482
 20
117.3144522775
 10
135.1637718321
 20
117.4217642193
 10
135.1367786733
 20
117.5288680161
 10
135.1124839623
 20
117.6356569709
 10
135.0909069896
 20
117.7420243866
 10
135.072067046
 20
117.8478635662
 10
135.055983422
 20
117.9530678126
 10
135.0426720229
 20
118.057535184
 10
135.032135213
 20
118.1611827582
 10
135.0243719713
 20
118.2639323682
 10
135.0193812769
 20
118.3657058471
 10
135.0171621088
 20
118.4664250278
 10
135.0177134459
 20
118.5660117435
  0
LWPOLYLINE
  5
3D4
100
AcDbEntity
  8
0
100
AcDbPolyline
 62
253
  6
CONTINUOUS
 90
55
 70
0
 10
156.4879693098
 20
106.4489045708
 10
156.3901804023
 20
106.4896664653
 10
156.2924718679
 20
106.533352874
 10
156.1949025011
 20
106.5799554478
 10
156.0975310962
 20
106.6294658378
 10
156.0004164477
 20
106.6818756948
 10
155.9036173501
 20
106.7371766696
 10
155.8072090517
 20
106.7953432987
 10
155.7113326172
 20
106.85628166
 10
155.616145565
 20
106.9198807166
 10
155.5218054137
 20
106.9860294318
 10
155.4284696818
 20
107.054616769
 10
155.3362958879
 20
107.1255316914
 10
155.2454192346
 20
107.1986744235
 10
155.1558856616
 20
107.2739902344
 10
155.0677187927
 20
107.3514356547
 10
154.9809422516
 20
107.4309672147
 10
154.8955796622
 20
107.512541445
 10
154.8116546483
 20
107.5961148759
 10
154.7291944979
 20
107.6816462376
 10
154.6482411556
 20
107.7691030594
 10
154.5688402304
 20
107.8584550704
 10
154.4910373312
 20
107.9496719996
 10
154.4148780669
 20
108.0427235761
 10
154.3404080464
 20
108.1375795289
 10
154.2676845555
 20
108.2341851019
 10
154.1968115874
 20
108.3323875983
 10
154.1279048122
 20
108.4320098363
 10
154.0610799
 20
108.532874634
 10
153.9964525209
 20
108.6348048095
 10
153.9341383449
 20
108.7376231808
 10
153.8742350329
 20
108.841173218
 10
153.8167682078
 20
108.9453809987
 10
153.7617454835
 20
109.050193252
 10
153.7091744735
 20
109.1555567076
 10
153.6590627917
 20
109.2614180947
 10
153.6114180518
 20
109.3677241427
 10
153.5662517459
 20
109.4744167696
 10
153.5235908808
 20
109.581418647
 10
153.4834663416
 20
109.6886476353
 10
153.4459090136
 20
109.7960215948
 10
153.4109497818
 20
109.9034583857
 10
153.3786195315
 20
110.0108758684
 10
153.3489472154
 20
110.1181878102
 10
153.3219540565
 20
110.225291607
 10
153.2976593455
 20
110.3320805618
 10
153.2760823729
 20
110.4384479775
 10
153.2572424292
 20
110.5442871571
 10
153.2411588052
 20
110.6494914036
 10
153.2278474061
 20
110.7539587749
 10
153.2173105962
 20
110.8576063491
 10
153.2095473545
 20
110.9603559591
 10
153.2045566601
 20
111.062129438
 10
153.202337492
 20
111.1628486188
 10
153.2028888291
 20
111.2624353344
  0
LWPOLYLINE
  5
3D5
100
AcDbEntity
  8
0
100
AcDbPolyline
 62
253
  6
CONTINUOUS
 90
55
 70
0
 10
138.3094020361
 20
114.2497777772
 10
138.2258092417
 20
114.2846183263
 10
138.1422814866
 20
114.3219534874
 10
138.0588692707
 20
114.3617757376
 10
137.9756230941
 20
114.4040775539
 10
137.8925934569
 20
114.4488514135
 10
137.8098308589
 20
114.4960897933
 10
137.727399729
 20
114.5457707086
 10
137.645420211
 20
114.5978143273
 10
137.5640263772
 20
114.6521263557
 10
137.4833523002
 20
114.7086124998
 10
137.4035320525
 20
114.7671784658
 10
137.3246997066
 20
114.8277299598
 10
137.246970376
 20
114.8901823146
 10
137.1703833384
 20
114.9544893704
 10
137.0949589123
 20
115.0206145937
 10
137.0207174164
 20
115.0885214512
 10
136.9476791694
 20
115.1581734096
 10
136.87586449
 20
115.2295339357
 10
136.8052969363
 20
115.302568253
 10
136.7360130253
 20
115.3772486128
 10
136.6680525134
 20
115.453549023
 10
136.6014551569
 20
115.5314434917
 10
136.5362607124
 20
115.6109060271
 10
136.4725089363
 20
115.6919106372
 10
136.410249512
 20
115.7744104676
 10
136.3495718311
 20
115.8582752135
 10
136.290575212
 20
115.9433537079
 10
136.2333589734
 20
116.0294947835
 10
136.1780224338
 20
116.1165472731
 10
136.1246649117
 20
116.2043600097
 10
136.0733704142
 20
116.2927992529
 10
136.0241617022
 20
116.3818009703
 10
135.9770462252
 20
116.4713185561
 10
135.9320314328
 20
116.5613054048
 10
135.8891247744
 20
116.6517149107
 10
135.8483336995
 20
116.7425004684
 10
135.8096687474
 20
116.8336109154
 10
135.7731528173
 20
116.9249768627
 10
135.7388118979
 20
117.0165243647
 10
135.7066719783
 20
117.1081794756
 10
135.6767590472
 20
117.1998682498
 10
135.6490990937
 20
117.2915167415
 10
135.6237161493
 20
117.3830504651
 10
135.6006264162
 20
117.4743927751
 10
135.5798441394
 20
117.5654664861
 10
135.5613835639
 20
117.6561944127
 10
135.5452589344
 20
117.7464993694
 10
135.531484496
 20
117.8363041708
 10
135.5200726576
 20
117.9255324274
 10
135.5110284851
 20
118.0141109335
 10
135.5043552082
 20
118.101967279
 10
135.5000560567
 20
118.1890290542
 10
135.4981342606
 20
118.2752238491
 10
135.4985930496
 20
118.3604792538
  0
LWPOLYLINE
  5
3D6
100
AcDbEntity
  8
0
100
AcDbPolyline
 62
253
  6
CONTINUOUS
 90
55
 70
0
 10
156.4945774194
 20
106.9462013681
 10
156.4109846249
 20
106.9810419172
 10
156.3274568698
 20
107.0183770783
 10
156.2440446539
 20
107.0581993285
 10
156.1607984773
 20
107.1005011448
 10
156.0777688401
 20
107.1452750044
 10
155.9950062421
 20
107.1925133842
 10
155.9125751122
 20
107.2421942995
 10
155.8305955942
 20
107.2942379182
 10
155.7492017604
 20
107.3485499466
 10
155.6685276834
 20
107.4050360907
 10
155.5887074358
 20
107.4636020567
 10
155.5098750899
 20
107.5241535507
 10
155.4321457593
 20
107.5866059056
 10
155.3555587216
 20
107.6509129613
 10
155.2801342955
 20
107.7170381846
 10
155.2058927996
 20
107.7849450421
 10
155.1328545526
 20
107.8545970006
 10
155.0610398732
 20
107.9259575266
 10
154.9904723195
 20
107.998991844
 10
154.9211884085
 20
108.0736722037
 10
154.8532278966
 20
108.1499726139
 10
154.7866305401
 20
108.2278670826
 10
154.7214360956
 20
108.307329618
 10
154.6576843195
 20
108.3883342281
 10
154.5954248952
 20
108.4708340585
 10
154.5347472143
 20
108.5546988044
 10
154.4757505952
 20
108.6397772988
 10
154.4185343566
 20
108.7259183744
 10
154.363197817
 20
108.8129708641
 10
154.3098402949
 20
108.9007836006
 10
154.2585457974
 20
108.9892228439
 10
154.2093370854
 20
109.0782245612
 10
154.1622216085
 20
109.167742147
 10
154.117206816
 20
109.2577289957
 10
154.0743001576
 20
109.3481385016
 10
154.0335090827
 20
109.4389240593
 10
153.9948441307
 20
109.5300345063
 10
153.9583282005
 20
109.6214004536
 10
153.9239872811
 20
109.7129479556
 10
153.8918473615
 20
109.8046030665
 10
153.8619344304
 20
109.8962918407
 10
153.8342744769
 20
109.9879403324
 10
153.8088915325
 20
110.079474056
 10
153.7858017994
 20
110.170816366
 10
153.7650195227
 20
110.261890077
 10
153.7465589471
 20
110.3526180036
 10
153.7304343176
 20
110.4429229603
 10
153.7166598792
 20
110.5327277617
 10
153.7052480408
 20
110.6219560183
 10
153.6962038683
 20
110.7105345244
 10
153.6895305914
 20
110.7983908699
 10
153.68523144
 20
110.8854526451
 10
153.6833096438
 20
110.97164744
 10
153.6837684328
 20
111.0569028448
  0
LWPOLYLINE
  5
3D7
100
AcDbEntity
  8
ASSI
100
AcDbPolyline
 62
7
  6
CONTINUOUS
 90
27
 70
0
 10
158.3494563337
 20
104.1455659387
 10
158.4208658389
 20
104.1147478507
 10
158.4906689031
 20
104.078718319
 10
158.5588637522
 20
104.037475878
 10
158.6258873559
 20
103.9906884406
 10
158.6913003971
 20
103.938686136
 10
158.7537852606
 20
103.8824596267
 10
158.8133878016
 20
103.8218042116
 10
158.8700576619
 20
103.7569207641
 10
158.9223296465
 20
103.6894055662
 10
158.9700121576
 20
103.6193104017
 10
159.0132906425
 20
103.5465782296
 10
159.0512630482
 20
103.4726400628
 10
159.0838685158
 20
103.397334296
 10
159.1111627942
 20
103.3208181317
 10
159.1324173627
 20
103.2449996619
 10
159.1474665971
 20
103.1699527023
 10
159.1564727623
 20
103.0956005388
 10
159.1591984125
 20
103.023624879
 10
159.1554829848
 20
102.9540790988
 10
159.1454867855
 20
102.88690959
 10
159.1294533535
 20
102.823637371
 10
159.1072168288
 20
102.764315212
 10
159.0789460121
 20
102.7088928617
 10
159.0453857731
 20
102.6587363038
 10
159.0064749017
 20
102.6140480019
 10
158.9612006406
 20
102.573785203
  0
LWPOLYLINE
  5
3D8
100
AcDbEntity
  8
0
100
AcDbPolyline
 62
7
  6
CONTINUOUS
 90
27
 70
0
 10
158.3494563337
 20
104.1455659387
 10
158.4208658389
 20
104.1147478507
 10
158.4906689031
 20
104.078718319
 10
158.5588637522
 20
104.037475878
 10
158.6258873559
 20
103.9906884406
 10
158.6913003971
 20
103.938686136
 10
158.7537852606
 20
103.8824596267
 10
158.8133878016
 20
103.8218042116
 10
158.8700576619
 20
103.7569207641
 10
158.9223296465
 20
103.6894055662
 10
158.9700121576
 20
103.6193104017
 10
159.0132906425
 20
103.5465782296
 10
159.0512630482
 20
103.4726400628
 10
159.0838685158
 20
103.397334296
 10
159.1111627942
 20
103.3208181317
 10
159.1324173627
 20
103.2449996619
 10
159.1474665971
 20
103.1699527023
 10
159.1564727623
 20
103.0956005388
 10
159.1591984125
 20
103.023624879
 10
159.1554829848
 20
102.9540790988
 10
159.1454867855
 20
102.88690959
 10
159.1294533535
 20
102.823637371
 10
159.1072168288
 20
102.764315212
 10
159.0789460121
 20
102.7088928617
 10
159.0453857731
 20
102.6587363038
 10
159.0064749017
 20
102.6140480019
 10
158.9612006406
 20
102.573785203
  0
LWPOLYLINE
  5
3D9
100
AcDbEntity
  8
SUPERFICI
100
AcDbPolyline
 62
7
  6
CONTINUOUS
 90
3
 70
0
 10
158.4626063651
 20
104.0940172235
 10
158.4064122042
 20
104.1215629057
 10
158.3494564065
 20
104.1455659106
  0
LWPOLYLINE
  5
3DA
100
AcDbEntity
  8
0
100
AcDbPolyline
 62
253
  6
CONTINUOUS
 90
85
 70
0
 10
156.810977837
 20
92.3869353352
 10
156.8106410636
 20
92.3962687116
 10
156.8099566103
 20
92.4056643581
 10
156.8089337467
 20
92.4151220733
 10
156.8075817422
 20
92.4246416556
 10
156.8059098662
 20
92.4342229034
 10
156.8039273882
 20
92.4438656154
 10
156.8016421118
 20
92.4535678661
 10
156.7990559773
 20
92.4633208355
 10
156.7961694594
 20
92.4731139795
 10
156.7929830327
 20
92.4829367544
 10
156.7894971717
 20
92.4927786161
 10
156.7857123509
 20
92.5026290208
 10
156.7816292508
 20
92.512476203
 10
156.7772493748
 20
92.5223035109
 10
156.7725744322
 20
92.5320930715
 10
156.7676041425
 20
92.5418296662
 10
156.7623302672
 20
92.5515086957
 10
156.7567425778
 20
92.5611282153
 10
156.7508337912
 20
92.5706802695
 10
156.7446084039
 20
92.5801328581
 10
156.7380738572
 20
92.5894479699
 10
156.7312373367
 20
92.5985924485
 10
156.7241050043
 20
92.6075525564
 10
156.7166827658
 20
92.6163194108
 10
156.7089799785
 20
92.6248827813
 10
156.7010198055
 20
92.6332270469
 10
156.6928288611
 20
92.6413352391
 10
156.6844315046
 20
92.6491922737
 10
156.6758430745
 20
92.6567906038
 10
156.6670766537
 20
92.6641245668
 10
156.65814888
 20
92.6711874185
 10
156.6490906083
 20
92.6779680896
 10
156.6399362481
 20
92.6844544294
 10
156.6307202089
 20
92.6906342872
 10
156.6214769001
 20
92.6964955123
 10
156.6122407312
 20
92.7020259538
 10
156.6030390229
 20
92.707218219
 10
156.5938707408
 20
92.7120839458
 10
156.5847277621
 20
92.7166395301
 10
156.5756098404
 20
92.7208971332
 10
156.5665482362
 20
92.7248519783
 10
156.5575820869
 20
92.7284950538
 10
156.5487392513
 20
92.7318216595
 10
156.5400024754
 20
92.7348443404
 10
156.5313432266
 20
92.7375799529
 10
156.5227322152
 20
92.7400422431
 10
156.5141371214
 20
92.7422325173
 10
156.5055248678
 20
92.7441489715
 10
156.4968760913
 20
92.7457868544
 10
156.4882262845
 20
92.747129624
 10
156.479624654
 20
92.7481577911
 10
156.4711125829
 20
92.7488535716
 10
156.4627001601
 20
92.7492060025
 10
156.4543896512
 20
92.7492058264
 10
156.4461876122
 20
92.7488435078
 10
156.4381177621
 20
92.7481084
 10
156.4302081102
 20
92.7469895787
 10
156.42248609
 20
92.7454773274
 10
156.4149768301
 20
92.7435667631
 10
156.4077048832
 20
92.7412542107
 10
156.4006913194
 20
92.7385362226
 10
156.3939432798
 20
92.7354102597
 10
156.3874644231
 20
92.7318740101
 10
156.3812581666
 20
92.7279283249
 10
156.3753269629
 20
92.7235867064
 10
156.3696730231
 20
92.71886582
 10
156.3642985768
 20
92.7137819107
 10
156.359205928
 20
92.708349543
 10
156.354397399
 20
92.7025828612
 10
156.34987543
 20
92.6964949208
 10
156.3456429323
 20
92.6900944217
 10
156.3417029349
 20
92.6833889752
 10
156.3380588001
 20
92.6763882869
 10
156.3347152227
 20
92.6691104417
 10
156.331677231
 20
92.661575619
 10
156.3289498529
 20
92.6538039983
 10
156.3265381166
 20
92.6458157592
 10
156.3244470503
 20
92.6376310812
 10
156.3226821267
 20
92.6292650208
 10
156.3212505971
 20
92.620712144
 10
156.3201601576
 20
92.6119618936
 10
156.3194185041
 20
92.6030037127
 10
156.3190333326
 20
92.5938270442
 10
156.3190123392
 20
92.5844213312
  0
LINE
  5
3DB
100
AcDbEntity
  8
0
100
AcDbLine
 62
253
  6
CONTINUOUS
 10
156.3466469071
 20
91.1164908836
 11
156.3790308488
 21
89.6526452739
  0
LINE
  5
3DC
100
AcDbEntity
  8
0
100
AcDbLine
 62
253
  6
CONTINUOUS
 10
156.8709948639
 20
89.4551556026
 11
156.8387969539
 21
90.910011783
  0
LINE
  5
3DD
100
AcDbEntity
  8
0
100
AcDbLine
 62
253
  6
CONTINUOUS
 10
156.3190116766
 20
92.5844214271
 11
156.3466469071
 21
91.1164908836
  0
LINE
  5
3DE
100
AcDbEntity
  8
0
100
AcDbLine
 62
253
  6
CONTINUOUS
 10
156.8387969539
 20
90.910011783
 11
156.8109791916
 21
92.3869346228
  0
LWPOLYLINE
  5
3DF
100
AcDbEntity
  8
0
100
AcDbPolyline
 62
253
  6
CONTINUOUS
 90
85
 70
0
 10
156.2700420149
 20
108.4599495513
 10
156.2700600125
 20
108.450355049
 10
156.2704274584
 20
108.4406997253
 10
156.2711350012
 20
108.4309837145
 10
156.2721732896
 20
108.421207151
 10
156.2735329719
 20
108.4113701691
 10
156.2752046969
 20
108.4014729032
 10
156.2771806562
 20
108.3915172746
 10
156.2794592136
 20
108.3815123529
 10
156.2820402759
 20
108.3714689943
 10
156.2849237503
 20
108.3613980553
 10
156.2881095434
 20
108.3513103924
 10
156.2915975624
 20
108.3412168619
 10
156.2953875489
 20
108.3311295752
 10
156.2994785845
 20
108.321065663
 10
156.3038695854
 20
108.311043511
 10
156.3085613901
 20
108.3010787948
 10
156.3135625257
 20
108.2911763499
 10
156.3188834412
 20
108.281338302
 10
156.3245318145
 20
108.2715729297
 10
156.3305042375
 20
108.2619131248
 10
156.3367945308
 20
108.2523979324
 10
156.3433966103
 20
108.243061411
 10
156.3503047721
 20
108.2339176732
 10
156.3575134075
 20
108.2249758454
 10
156.3650134613
 20
108.2162464054
 10
156.3727820927
 20
108.2077452381
 10
156.3807930144
 20
108.1994895799
 10
156.3890221567
 20
108.1914947523
 10
156.3974543194
 20
108.1837684154
 10
156.4060765202
 20
108.1763163144
 10
156.414872206
 20
108.1691452626
 10
156.423810543
 20
108.1622663467
 10
156.4328571267
 20
108.1556917216
 10
156.4419775528
 20
108.1494335421
 10
156.4511374169
 20
108.1435039632
 10
156.4603023148
 20
108.1379151398
 10
156.4694448511
 20
108.1326744038
 10
156.4785656673
 20
108.1277697952
 10
156.4876724137
 20
108.1231845311
 10
156.4967649044
 20
108.1189060961
 10
156.5058116087
 20
108.1149390458
 10
156.5147731595
 20
108.1112922034
 10
156.5236214692
 20
108.1079700818
 10
156.5323735673
 20
108.104959952
 10
156.5410577629
 20
108.1022447748
 10
156.5497032478
 20
108.0998107237
 10
156.5583427462
 20
108.0976568236
 10
156.567009865
 20
108.0957853124
 10
156.5757244032
 20
108.0942012983
 10
156.5844509272
 20
108.0929213717
 10
156.5931401955
 20
108.0919649933
 10
156.6017508383
 20
108.091349958
 10
156.6102729729
 20
108.0910873977
 10
156.6187045882
 20
108.0911867784
 10
156.627039328
 20
108.0916577992
 10
156.6352534546
 20
108.0925110913
 10
156.6433188848
 20
108.0937575189
 10
156.6512080744
 20
108.0954067072
 10
156.6588956331
 20
108.0974633254
 10
156.6663567096
 20
108.0999308036
 10
156.6735699793
 20
108.1028123813
 10
156.6805282272
 20
108.1061105367
 10
156.687227765
 20
108.1098275577
 10
156.6936650441
 20
108.1139624856
 10
156.6998370728
 20
108.1185013763
 10
156.7057409988
 20
108.1234270394
 10
156.7113739655
 20
108.1287227163
 10
156.7167330993
 20
108.1343733756
 10
156.721815522
 20
108.140364418
 10
156.7266182742
 20
108.1466823626
 10
156.731138071
 20
108.1533182033
 10
156.7353715457
 20
108.1602640524
 10
156.7393149214
 20
108.1675098645
 10
156.7429627788
 20
108.1750369613
 10
156.746309288
 20
108.1828245067
 10
156.7493486193
 20
108.1908516644
 10
156.7520749426
 20
108.1990975982
 10
156.7544824284
 20
108.2075414719
 10
156.7565649732
 20
108.2161677123
 10
156.7583153807
 20
108.2249817986
 10
156.759726181
 20
108.2339944731
 10
156.7607899041
 20
108.243216478
 10
156.7614990802
 20
108.2526585556
 10
156.7618462395
 20
108.2623314481
  0
LINE
  5
3E0
100
AcDbEntity
  8
0
100
AcDbLine
 62
253
  6
CONTINUOUS
 10
156.29767429
 20
109.9731543968
 11
156.2700406711
 21
108.4599502725
  0
LINE
  5
3E1
100
AcDbEntity
  8
0
100
AcDbLine
 62
253
  6
CONTINUOUS
 10
156.76184691
 20
108.2623313586
 11
156.7894134683
 21
109.7720692415
  0
LINE
  5
3E2
100
AcDbEntity
  8
0
100
AcDbLine
 62
253
  6
CONTINUOUS
 10
156.3300563433
 20
111.490053214
 11
156.29767429
 21
109.9731543968
  0
LINE
  5
3E3
100
AcDbEntity
  8
0
100
AcDbLine
 62
253
  6
CONTINUOUS
 10
156.7894134683
 20
109.7720692415
 11
156.8218660823
 21
111.2924371671
  0
LWPOLYLINE
  5
3E4
100
AcDbEntity
  8
0
100
AcDbPolyline
 62
253
  6
CONTINUOUS
 90
81
 70
0
 10
156.3300579788
 20
111.4900525537
 10
156.330477432
 20
111.4997436213
 10
156.3312711613
 20
111.5092749482
 10
156.3324378279
 20
111.5186332562
 10
156.3339760929
 20
111.5278052667
 10
156.3358846173
 20
111.5367777013
 10
156.3381620622
 20
111.5455372816
 10
156.3408070888
 20
111.5540707292
 10
156.343818358
 20
111.5623647657
 10
156.3471937609
 20
111.570405776
 10
156.3509281084
 20
111.5781787981
 10
156.355015441
 20
111.5856685333
 10
156.3594497997
 20
111.592859683
 10
156.3642235505
 20
111.5997370135
 10
156.3693223614
 20
111.6062855515
 10
156.3747302258
 20
111.6124903887
 10
156.3804311369
 20
111.6183366168
 10
156.3864109526
 20
111.6238120288
 10
156.3926629889
 20
111.6289152228
 10
156.3991824262
 20
111.6336474986
 10
156.4059644448
 20
111.6380101555
 10
156.413005501
 20
111.6420033775
 10
156.4203071543
 20
111.6456228854
 10
156.4278722398
 20
111.6488632844
 10
156.4357035929
 20
111.6517191797
 10
156.4437995302
 20
111.6541844023
 10
156.4521402947
 20
111.6562496862
 10
156.4607016107
 20
111.6579049914
 10
156.4694592025
 20
111.6591402777
 10
156.4783900035
 20
111.6599471693
 10
156.4874757829
 20
111.6603239483
 10
156.4966995189
 20
111.6602705612
 10
156.5060441897
 20
111.6597869544
 10
156.5154927543
 20
111.658874085
 10
156.5250280948
 20
111.6575369532
 10
156.5346330743
 20
111.6557815694
 10
156.5442905556
 20
111.6536139446
 10
156.5539834016
 20
111.6510400893
 10
156.5636944754
 20
111.6480660142
 10
156.5734066399
 20
111.6446977302
 10
156.583102758
 20
111.6409412477
 10
156.592766494
 20
111.6368031173
 10
156.6023847176
 20
111.6322920476
 10
156.6119451001
 20
111.6274172871
 10
156.6214353126
 20
111.622188084
 10
156.630843026
 20
111.6166136869
 10
156.6401559117
 20
111.610703344
 10
156.6493616407
 20
111.6044663039
 10
156.6584478841
 20
111.5979118148
 10
156.6674025842
 20
111.5910490883
 10
156.6762147676
 20
111.5838871888
 10
156.6848737322
 20
111.5764351438
 10
156.6933687758
 20
111.5687019808
 10
156.7016891961
 20
111.5606967273
 10
156.7098242911
 20
111.5524284109
 10
156.7177633584
 20
111.543906059
 10
156.725495696
 20
111.5351386992
 10
156.7330102982
 20
111.5261366322
 10
156.7402949465
 20
111.5169152506
 10
156.7473371188
 20
111.5074912205
 10
156.7541242931
 20
111.4978812078
 10
156.7606439473
 20
111.4881018783
 10
156.7668835596
 20
111.4781698979
 10
156.7728306079
 20
111.4681019327
 10
156.7784725701
 20
111.4579146485
 10
156.7837980014
 20
111.4476247882
 10
156.788799765
 20
111.4372494035
 10
156.7934718012
 20
111.4268056229
 10
156.7978080502
 20
111.4163105749
 10
156.8018024526
 20
111.4057813881
 10
156.8054489484
 20
111.3952351912
 10
156.8087414782
 20
111.3846891128
 10
156.811673982
 20
111.3741602813
 10
156.8142412194
 20
111.3636654964
 10
156.8164412258
 20
111.3532202416
 10
156.8182728555
 20
111.3428396713
 10
156.8197349632
 20
111.3325389401
 10
156.8208264031
 20
111.3223332024
 10
156.82154603
 20
111.3122376126
 10
156.8218926981
 20
111.3022673254
 10
156.821865262
 20
111.2924374951
  0
LWPOLYLINE
  5
3E5
100
AcDbEntity
  8
ASSI
100
AcDbPolyline
 62
7
  6
CONTINUOUS
 90
10
 70
0
 10
158.9612006406
 20
102.573785203
 10
158.9137345782
 20
102.5412456328
 10
158.86065187
 20
102.513999384
 10
158.8032257281
 20
102.4927925789
 10
158.7429619138
 20
102.4780838801
 10
158.6799178522
 20
102.4700369575
 10
158.6140409283
 20
102.4684922433
 10
158.5466686278
 20
102.4734208443
 10
158.4782470055
 20
102.4848133257
 10
158.4083326931
 20
102.5026813912
  0
LWPOLYLINE
  5
3E6
100
AcDbEntity
  8
0
100
AcDbPolyline
 62
7
  6
CONTINUOUS
 90
10
 70
0
 10
158.9612006406
 20
102.573785203
 10
158.9137345782
 20
102.5412456328
 10
158.86065187
 20
102.513999384
 10
158.8032257281
 20
102.4927925789
 10
158.7429619138
 20
102.4780838801
 10
158.6799178522
 20
102.4700369575
 10
158.6140409283
 20
102.4684922433
 10
158.5466686278
 20
102.4734208443
 10
158.4782470055
 20
102.4848133257
 10
158.4083326931
 20
102.5026813912
  0
LWPOLYLINE
  5
3E7
100
AcDbEntity
  8
0
100
AcDbPolyline
 62
253
  6
CONTINUOUS
 90
81
 70
0
 10
156.8709932228
 20
89.4551562583
 10
156.8710204515
 20
89.4458310911
 10
156.8706720944
 20
89.4366645917
 10
156.8699488815
 20
89.4276695398
 10
156.8688515427
 20
89.4188587149
 10
156.8673808082
 20
89.4102448968
 10
156.865537408
 20
89.4018408651
 10
156.8633220721
 20
89.3936593994
 10
156.8607355306
 20
89.3857132795
 10
156.8577792595
 20
89.3780156018
 10
156.8544577182
 20
89.3705807308
 10
156.8507761122
 20
89.3634233474
 10
156.846739647
 20
89.356558133
 10
156.8423551787
 20
89.3499996841
 10
156.8376361663
 20
89.3437622587
 10
156.8325977192
 20
89.3378600304
 10
156.8272549472
 20
89.3323071727
 10
156.8216212482
 20
89.327115283
 10
156.8157031744
 20
89.322285655
 10
156.809505566
 20
89.317817006
 10
156.8030332635
 20
89.3137080537
 10
156.7962898035
 20
89.3099586083
 10
156.7892735069
 20
89.3065728509
 10
156.7819813908
 20
89.3035560553
 10
156.7744104722
 20
89.3009134955
 10
156.7665621749
 20
89.2986511277
 10
156.7584555491
 20
89.296777639
 10
156.7501140519
 20
89.2953023987
 10
156.7415611401
 20
89.2942347766
 10
156.7328191553
 20
89.2935825541
 10
156.7239059769
 20
89.2933471615
 10
156.7148383691
 20
89.2935284414
 10
156.7056330959
 20
89.294126236
 10
156.6963069805
 20
89.2951394099
 10
156.6868770825
 20
89.2965629152
 10
156.6773605204
 20
89.2983907263
 10
156.6677744131
 20
89.3006168172
 10
156.6581358791
 20
89.3032351624
 10
156.6484620371
 20
89.3062397359
 10
156.6387700058
 20
89.3096245121
 10
156.6290769039
 20
89.3133834652
 10
156.619399081
 20
89.3175100563
 10
156.609749811
 20
89.3219956944
 10
156.6001415987
 20
89.3268312751
 10
156.590586949
 20
89.3320076942
 10
156.5810983668
 20
89.3375158475
 10
156.5716883569
 20
89.3433466308
 10
156.5623694241
 20
89.3494909399
 10
156.5531540734
 20
89.3559396705
 10
156.5440545379
 20
89.3626837547
 10
156.5350819645
 20
89.3697142705
 10
156.5262472284
 20
89.3770223319
 10
156.5175612048
 20
89.3845990532
 10
156.5090347689
 20
89.3924355486
 10
156.5006787958
 20
89.4005229323
 10
156.4925041608
 20
89.4088523184
 10
156.4845217391
 20
89.4174148212
 10
156.4767427584
 20
89.4262003222
 10
156.469179857
 20
89.4351937721
 10
156.4618460257
 20
89.4443788892
 10
156.4547542554
 20
89.4537393914
 10
156.4479175367
 20
89.463258997
 10
156.4413488606
 20
89.472921424
 10
156.4350612179
 20
89.4827103905
 10
156.4290675993
 20
89.4926096148
 10
156.4233799437
 20
89.5026027582
 10
156.4180059817
 20
89.5126732558
 10
156.4129523921
 20
89.5228044862
 10
156.4082258534
 20
89.5329798277
 10
156.4038330444
 20
89.5431826588
 10
156.3997806437
 20
89.5533963579
 10
156.3960753299
 20
89.5636043035
 10
156.3927237818
 20
89.573789874
 10
156.389731864
 20
89.5839367811
 10
156.3871021856
 20
89.5940300692
 10
156.3848365417
 20
89.6040551158
 10
156.3829367273
 20
89.6139972987
 10
156.3814045375
 20
89.6238419953
 10
156.3802417675
 20
89.6335745834
 10
156.3794502122
 20
89.6431804404
 10
156.3790316668
 20
89.652644944
  0
LWPOLYLINE
  5
3E8
100
AcDbEntity
  8
0
100
AcDbPolyline
 62
253
  6
CONTINUOUS
 90
10
 70
0
 10
159.3208387274
 20
107.9465941711
 10
159.3150695757
 20
107.9306199645
 10
159.3091853025
 20
107.9147252641
 10
159.3031861054
 20
107.8989107422
 10
159.2970721823
 20
107.8831770714
 10
159.290843731
 20
107.8675249239
 10
159.2845009493
 20
107.8519549723
 10
159.2780440351
 20
107.836467889
 10
159.2714731862
 20
107.8210643463
 10
159.2647886003
 20
107.8057450168
  0
LWPOLYLINE
  5
3E9
100
AcDbEntity
  8
0
100
AcDbPolyline
 62
253
  6
CONTINUOUS
 90
8
 70
0
 10
159.2647886003
 20
107.8057450168
 10
159.2604314043
 20
107.795941654
 10
159.2560273735
 20
107.786173521
 10
159.251576595
 20
107.7764407673
 10
159.2470791558
 20
107.7667435424
 10
159.242535143
 20
107.7570819959
 10
159.2379446436
 20
107.7474562773
 10
159.2333077447
 20
107.7378665362
  0
LWPOLYLINE
  5
3EA
100
AcDbEntity
  8
0
100
AcDbPolyline
 62
253
  6
CONTINUOUS
 90
42
 70
0
 10
159.2333077447
 20
107.7378665362
 10
159.1995575756
 20
107.6717582764
 10
159.1635679467
 20
107.607471526
 10
159.1253687117
 20
107.5450575738
 10
159.084989724
 20
107.4845677082
 10
159.0424608373
 20
107.4260532181
 10
158.9978092813
 20
107.3695636614
 10
158.9510517897
 20
107.3151416747
 10
158.9022024726
 20
107.2628281637
 10
158.8512754398
 20
107.2126640343
 10
158.7982848013
 20
107.1646901925
 10
158.7432446669
 20
107.1189475442
 10
158.6861849599
 20
107.075481251
 10
158.6271988563
 20
107.0343534984
 10
158.5663953452
 20
106.9956307276
 10
158.503883416
 20
106.9593793797
 10
158.4397720579
 20
106.9256658962
 10
158.3741702603
 20
106.8945567182
 10
158.3071756595
 20
106.8661059153
 10
158.2388404813
 20
106.8403180709
 10
158.1692055986
 20
106.8171853967
 10
158.0983118843
 20
106.7967001046
 10
158.0262002113
 20
106.7788544062
 10
157.9529114526
 20
106.7636405134
 10
157.878484113
 20
106.7510551247
 10
157.8029472253
 20
106.7411128867
 10
157.7263274542
 20
106.7338329326
 10
157.6486514645
 20
106.7292343958
 10
157.569945921
 20
106.7273364095
 10
157.4902374882
 20
106.7281581071
 10
157.4095717046
 20
106.7317126697
 10
157.3280696025
 20
106.7379894686
 10
157.2458710879
 20
106.7469719231
 10
157.1631160667
 20
106.7586434524
 10
157.0799444448
 20
106.7729874756
 10
156.9964961283
 20
106.789987412
 10
156.9128959593
 20
106.8096237633
 10
156.8292085252
 20
106.8318653617
 10
156.7454833497
 20
106.8566781223
 10
156.6617699565
 20
106.8840279599
 10
156.5781178693
 20
106.9138807894
 10
156.4945766117
 20
106.9462025257
  0
LWPOLYLINE
  5
3EB
100
AcDbEntity
  8
SUPERFICI
100
AcDbPolyline
 62
7
  6
CONTINUOUS
 90
34
 70
0
 10
154.03259982
 20
98.2016466012
 10
154.0289751428
 20
98.1984922128
 10
153.9965905736
 20
98.1668323125
 10
153.9676064337
 20
98.1318933341
 10
153.9421326365
 20
98.0937166537
 10
153.920056289
 20
98.0522585565
 10
153.9016177947
 20
98.0079580066
 10
153.8868273929
 20
97.9606496674
 10
153.875673136
 20
97.910497544
 10
153.868361908
 20
97.8584344013
 10
153.8649649711
 20
97.8045732483
 10
153.8654103752
 20
97.7488005274
 10
153.8696900606
 20
97.6917090315
 10
153.8778725374
 20
97.6331367711
 10
153.8898902343
 20
97.5732464682
 10
153.9055308394
 20
97.5131178582
 10
153.9248160406
 20
97.4528755523
 10
153.9477260814
 20
97.3923964366
 10
153.9739861851
 20
97.3323884041
 10
154.0036882126
 20
97.2727592404
 10
154.0367433249
 20
97.2136035231
 10
154.0726051339
 20
97.1559088734
 10
154.1112767687
 20
97.0997668648
 10
154.1527582384
 20
97.0450883811
 10
154.1964975472
 20
96.9925892623
 10
154.2425528165
 20
96.9422667974
 10
154.2908690067
 20
96.8941261267
 10
154.3407231711
 20
96.848893901
 10
154.3921511655
 20
96.8066156826
 10
154.4451194126
 20
96.7672477193
 10
154.4987991896
 20
96.7313813924
 10
154.5529141504
 20
96.6992137477
 10
154.6077414148
 20
96.6705483694
 10
154.6632816351
 20
96.6453857915
  0
LWPOLYLINE
  5
3EC
100
AcDbEntity
  8
SUPERFICI
100
AcDbPolyline
 62
7
  6
CONTINUOUS
 90
32
 70
0
 10
158.961198821
 20
102.5737874301
 10
158.9816306684
 20
102.5907128683
 10
159.015788077
 20
102.6238249936
 10
159.0464731406
 20
102.6601572872
 10
159.0735674832
 20
102.6996614407
 10
159.0971866639
 20
102.7423833527
 10
159.1170713065
 20
102.7878685181
 10
159.1332111764
 20
102.8362822768
 10
159.1456149117
 20
102.887457913
 10
159.1540511965
 20
102.9404426483
 10
159.1584428536
 20
102.9951186283
 10
159.1588664137
 20
103.051603163
 10
159.1553209804
 20
103.109296123
 10
159.1477382653
 20
103.1683596795
 10
159.1361874541
 20
103.2286324328
 10
159.1208737136
 20
103.2890287945
 10
159.1017739089
 20
103.3494229684
 10
159.0789129939
 20
103.4099423255
 10
159.0525679623
 20
103.4698807892
 10
159.0226473658
 20
103.5293309117
 10
158.989245513
 20
103.5882025958
 10
158.9529174792
 20
103.6455153365
 10
158.9136612555
 20
103.7011784779
 10
158.871481823
 20
103.7552852238
 10
158.8269438424
 20
103.8071301091
 10
158.7799898127
 20
103.8567163526
 10
158.7306801723
 20
103.9040432365
 10
158.6797553263
 20
103.9483984112
 10
158.6271793247
 20
103.9897362372
 10
158.5729903066
 20
104.0281042033
 10
158.5180382445
 20
104.0629283353
 10
158.4626063651
 20
104.0940172235
  0
LWPOLYLINE
  5
3ED
100
AcDbEntity
  8
0
100
AcDbPolyline
 62
7
  6
CONTINUOUS
 90
12
 70
0
 10
154.0325849051
 20
98.2016647908
 10
154.0473669276
 20
98.2137895002
 10
154.0936250269
 20
98.2453003119
 10
154.1443704371
 20
98.2706319584
 10
154.1994217974
 20
98.2898934562
 10
154.2573401061
 20
98.3026808293
 10
154.3180764514
 20
98.3088373815
 10
154.3816847656
 20
98.3085237593
 10
154.4468769693
 20
98.3018093276
 10
154.5132239268
 20
98.2887173803
 10
154.5811575222
 20
98.2692268064
 10
154.6506797281
 20
98.2433391913
  0
LWPOLYLINE
  5
3EE
100
AcDbEntity
  8
ASSI
100
AcDbPolyline
 62
7
  6
CONTINUOUS
 90
12
 70
0
 10
154.0325849051
 20
98.2016647908
 10
154.0473669276
 20
98.2137895002
 10
154.0936250269
 20
98.2453003119
 10
154.1443704371
 20
98.2706319584
 10
154.1994217974
 20
98.2898934562
 10
154.2573401061
 20
98.3026808293
 10
154.3180764514
 20
98.3088373815
 10
154.3816847656
 20
98.3085237593
 10
154.4468769693
 20
98.3018093276
 10
154.5132239268
 20
98.2887173803
 10
154.5811575222
 20
98.2692268064
 10
154.6506797281
 20
98.2433391913
  0
LINE
  5
3EF
100
AcDbEntity
  8
SUPERFICI
100
AcDbLine
 62
7
  6
CONTINUOUS
 10
154.0641850123
 20
98.2263060095
 11
154.03259982
 21
98.2016466012
  0
LWPOLYLINE
  5
3F0
100
AcDbEntity
  8
0
100
AcDbPolyline
 62
253
  6
CONTINUOUS
 90
4
 70
0
 10
156.1606783361
 20
112.9615853538
 10
156.1734312063
 20
112.9584629609
 10
156.1861854822
 20
112.9552805269
 10
156.1989421283
 20
112.9520378748
  0
LINE
  5
3F1
100
AcDbEntity
  8
0
100
AcDbLine
 62
253
  6
CONTINUOUS
 10
156.1989421283
 20
112.9520378748
 11
156.2244663885
 21
112.9453712089
  0
LINE
  5
3F2
100
AcDbEntity
  8
0
100
AcDbLine
 62
253
  6
CONTINUOUS
 10
156.2244663885
 20
112.9453712089
 11
156.2500117022
 21
112.9384615478
  0
LINE
  5
3F3
100
AcDbEntity
  8
0
100
AcDbLine
 62
253
  6
CONTINUOUS
 10
156.2500117022
 20
112.9384615478
 11
156.2755857848
 21
112.9313074763
  0
LINE
  5
3F4
100
AcDbEntity
  8
0
100
AcDbLine
 62
253
  6
CONTINUOUS
 10
156.2755857848
 20
112.9313074763
 11
156.3011963516
 21
112.923907579
  0
LINE
  5
3F5
100
AcDbEntity
  8
0
100
AcDbLine
 62
253
  6
CONTINUOUS
 10
156.3011963516
 20
112.923907579
 11
156.326851118
 21
112.9162604406
  0
LINE
  5
3F6
100
AcDbEntity
  8
0
100
AcDbLine
 62
253
  6
CONTINUOUS
 10
156.326851118
 20
112.9162604406
 11
156.3525574417
 21
112.9083647344
  0
LINE
  5
3F7
100
AcDbEntity
  8
0
100
AcDbLine
 62
253
  6
CONTINUOUS
 10
156.3525574417
 20
112.9083647344
 11
156.3783144541
 21
112.9002211667
  0
LINE
  5
3F8
100
AcDbEntity
  8
0
100
AcDbLine
 62
253
  6
CONTINUOUS
 10
156.3783144541
 20
112.9002211667
 11
156.4041130604
 21
112.8918324779
  0
LINE
  5
3F9
100
AcDbEntity
  8
0
100
AcDbLine
 62
253
  6
CONTINUOUS
 10
156.4041130604
 20
112.8918324779
 11
156.4299438083
 21
112.8832014962
  0
LWPOLYLINE
  5
3FA
100
AcDbEntity
  8
0
100
AcDbPolyline
 62
253
  6
CONTINUOUS
 90
10
 70
0
 10
156.4299438083
 20
112.8832014962
 10
156.4500505603
 20
112.8763228101
 10
156.4701665904
 20
112.8693005937
 10
156.490287451
 20
112.8621361779
 10
156.5104086948
 20
112.8548308935
 10
156.5305258743
 20
112.8473860713
 10
156.5506345421
 20
112.8398030422
 10
156.5707302507
 20
112.8320831369
 10
156.5908085527
 20
112.8242276863
 10
156.6108650007
 20
112.8162380213
  0
LWPOLYLINE
  5
3FB
100
AcDbEntity
  8
0
100
AcDbPolyline
 62
253
  6
CONTINUOUS
 90
55
 70
0
 10
138.4388926565
 20
120.6225159656
 10
138.541922942
 20
120.5795501221
 10
138.6448474997
 20
120.533487896
 10
138.7476606388
 20
120.4842894721
 10
138.8503566688
 20
120.4319150352
 10
138.952929899
 20
120.3763247703
 10
139.0553746387
 20
120.3174788622
 10
139.1576237899
 20
120.2553925733
 10
139.2593646248
 20
120.1903014763
 10
139.3602230085
 20
120.1224962213
 10
139.4598248058
 20
120.0522674587
 10
139.5577958817
 20
119.9799058385
 10
139.653762101
 20
119.9057020109
 10
139.7474062655
 20
119.829928648
 10
139.8386389233
 20
119.7527865089
 10
139.9274275594
 20
119.6744583744
 10
140.0137396588
 20
119.5951270255
 10
140.0975427063
 20
119.514975243
 10
140.1788041869
 20
119.4341858079
 10
140.2575101472
 20
119.3529141548
 10
140.3337208801
 20
119.2712063338
 10
140.4075152401
 20
119.1890810486
 10
140.4789720817
 20
119.106557003
 10
140.5481702595
 20
119.023652901
 10
140.6151886281
 20
118.9403874461
 10
140.6928285077
 20
118.840024915
 10
140.7674842234
 20
118.7392412812
 10
140.8391969861
 20
118.6381088569
 10
140.9080080068
 20
118.5366999537
 10
140.9739584965
 20
118.4350868837
 10
141.0370950662
 20
118.3333227585
 10
141.0974859285
 20
118.2313838885
 10
141.1552046957
 20
118.1292273842
 10
141.2103249804
 20
118.0268103557
 10
141.2629203953
 20
117.9240899134
 10
141.3130526592
 20
117.8210247806
 10
141.3607359165
 20
117.7175801334
 10
141.4059724178
 20
117.6137227607
 10
141.4487644137
 20
117.5094194518
 10
141.489114155
 20
117.4046369957
 10
141.52701262
 20
117.299374675
 10
141.5624056987
 20
117.1937617465
 10
141.5952280086
 20
117.0879599606
 10
141.6254141675
 20
116.9821310676
 10
141.6528987929
 20
116.8764368177
 10
141.6776258191
 20
116.7710279874
 10
141.6995764464
 20
116.6660114574
 10
141.7187411919
 20
116.5614831345
 10
141.7351105725
 20
116.4575389254
 10
141.7486751052
 20
116.354274737
 10
141.7594273361
 20
116.2517831445
 10
141.767367928
 20
116.1501433969
 10
141.7724995729
 20
116.0494314117
 10
141.7748249628
 20
115.9497231062
 10
141.7743467897
 20
115.8510943979
  0
LWPOLYLINE
  5
3FC
100
AcDbEntity
  8
0
100
AcDbPolyline
 62
253
  6
CONTINUOUS
 90
55
 70
0
 10
156.6240680397
 20
113.3189395565
 10
156.7270983252
 20
113.2759737131
 10
156.8300228829
 20
113.229911487
 10
156.932836022
 20
113.180713063
 10
157.035532052
 20
113.1283386262
 10
157.1381052822
 20
113.0727483612
 10
157.2405500219
 20
113.0139024531
 10
157.3427991731
 20
112.9518161642
 10
157.444540008
 20
112.8867250672
 10
157.5453983917
 20
112.8189198122
 10
157.645000189
 20
112.7486910496
 10
157.7429712649
 20
112.6763294294
 10
157.8389374842
 20
112.6021256018
 10
157.9325816487
 20
112.5263522389
 10
158.0238143065
 20
112.4492100998
 10
158.1126029426
 20
112.3708819653
 10
158.198915042
 20
112.2915506164
 10
158.2827180895
 20
112.2113988339
 10
158.3639795701
 20
112.1306093988
 10
158.4426855304
 20
112.0493377457
 10
158.5188962633
 20
111.9676299247
 10
158.5926906233
 20
111.8855046395
 10
158.6641474649
 20
111.802980594
 10
158.7333456428
 20
111.7200764919
 10
158.8003640113
 20
111.636811037
 10
158.8780038909
 20
111.5364485059
 10
158.9526596066
 20
111.4356648722
 10
159.0243723693
 20
111.3345324478
 10
159.09318339
 20
111.2331235446
 10
159.1591338797
 20
111.1315104746
 10
159.2222704495
 20
111.0297463494
 10
159.2826613117
 20
110.9278074794
 10
159.3403800789
 20
110.8256509751
 10
159.3955003636
 20
110.7232339466
 10
159.4480957785
 20
110.6205135043
 10
159.4982280425
 20
110.5174483715
 10
159.5459112997
 20
110.4140037243
 10
159.591147801
 20
110.3101463516
 10
159.6339397969
 20
110.2058430427
 10
159.6742895382
 20
110.1010605866
 10
159.7121880032
 20
109.9957982659
 10
159.7475810819
 20
109.8901853374
 10
159.7804033918
 20
109.7843835515
 10
159.8105895507
 20
109.6785546585
 10
159.8380741761
 20
109.5728604086
 10
159.8628012023
 20
109.4674515783
 10
159.8847518296
 20
109.3624350483
 10
159.9039165751
 20
109.2579067254
 10
159.9202859557
 20
109.1539625163
 10
159.9338504884
 20
109.050698328
 10
159.9446027193
 20
108.9482067355
 10
159.9525433112
 20
108.8465669878
 10
159.9576749561
 20
108.7458550026
 10
159.9600003461
 20
108.6461466971
 10
159.959522173
 20
108.5475179888
  0
LWPOLYLINE
  5
3FD
100
AcDbEntity
  8
0
100
AcDbPolyline
 62
253
  6
CONTINUOUS
 90
55
 70
0
 10
138.4256896218
 20
120.1198146004
 10
138.5159390793
 20
120.082105729
 10
138.6062752363
 20
120.0415065632
 10
138.6962932683
 20
119.9982208476
 10
138.7857110831
 20
119.952383888
 10
138.8747375168
 20
119.9038572335
 10
138.9637041377
 20
119.8524339946
 10
139.0527941933
 20
119.7979966296
 10
139.1415976463
 20
119.7407849906
 10
139.2295561386
 20
119.681128278
 10
139.316161602
 20
119.6193497952
 10
139.4011071277
 20
119.5557492582
 10
139.4841360965
 20
119.4906204861
 10
139.5650300734
 20
119.4242343302
 10
139.6437233582
 20
119.3567697704
 10
139.7201884344
 20
119.288382819
 10
139.7943977858
 20
119.2192294881
 10
139.8663238959
 20
119.1494657899
 10
139.9359392484
 20
119.0792477365
 10
140.0032335341
 20
119.0087090617
 10
140.0682652726
 20
118.9378943857
 10
140.1311101909
 20
118.8668260503
 10
140.1918440156
 20
118.7955263974
 10
140.2505424737
 20
118.7240177687
 10
140.307281292
 20
118.652322506
 10
140.3728744418
 20
118.5660761717
 10
140.4358056271
 20
118.4796491457
 10
140.4961257179
 20
118.393097317
 10
140.5538855845
 20
118.3064765746
 10
140.609136097
 20
118.2198428075
 10
140.6619326374
 20
118.1332334298
 10
140.7123486364
 20
118.0466119572
 10
140.7604620363
 20
117.9599234304
 10
140.8063507797
 20
117.8731128903
 10
140.850092809
 20
117.7861253775
 10
140.8917536145
 20
117.6989112756
 10
140.9313488769
 20
117.6114423386
 10
140.968881825
 20
117.5236956634
 10
141.0043556872
 20
117.4356483467
 10
141.0377736921
 20
117.3472774852
 10
141.069130822
 20
117.2585843477
 10
141.0983890734
 20
117.16966689
 10
141.1255021968
 20
117.0806472402
 10
141.1504239425
 20
116.991647526
 10
141.1731080608
 20
116.9027898753
 10
141.1935147577
 20
116.8141877212
 10
141.2116300621
 20
116.7259197174
 10
141.2274464585
 20
116.6380558232
 10
141.2409564315
 20
116.5506659973
 10
141.2521524657
 20
116.4638201989
 10
141.261028215
 20
116.3775876713
 10
141.2675820108
 20
116.2920347956
 10
141.271813354
 20
116.2072272372
 10
141.2737217453
 20
116.1232306615
 10
141.2733066856
 20
116.040110734
  0
LWPOLYLINE
  5
3FE
100
AcDbEntity
  8
0
100
AcDbPolyline
 62
253
  6
CONTINUOUS
 90
55
 70
0
 10
156.6108650051
 20
112.8162381913
 10
156.7011144626
 20
112.7785293199
 10
156.7914506195
 20
112.7379301541
 10
156.8814686516
 20
112.6946444385
 10
156.9708864663
 20
112.6488074789
 10
157.0599129
 20
112.6002808245
 10
157.148879521
 20
112.5488575855
 10
157.2379695765
 20
112.4944202205
 10
157.3267730295
 20
112.4372085815
 10
157.4147315218
 20
112.3775518689
 10
157.5013369852
 20
112.3157733861
 10
157.5862825109
 20
112.2521728491
 10
157.6693114798
 20
112.187044077
 10
157.7502054566
 20
112.1206579211
 10
157.8288987414
 20
112.0531933614
 10
157.9053638176
 20
111.98480641
 10
157.979573169
 20
111.9156530791
 10
158.0514992791
 20
111.8458893808
 10
158.1211146316
 20
111.7756713274
 10
158.1884089173
 20
111.7051326526
 10
158.2534406559
 20
111.6343179766
 10
158.3162855741
 20
111.5632496412
 10
158.3770193988
 20
111.4919499883
 10
158.4357178569
 20
111.4204413596
 10
158.4924566752
 20
111.348746097
 10
158.558049825
 20
111.2624997626
 10
158.6209810103
 20
111.1760727367
 10
158.6813011012
 20
111.089520908
 10
158.7390609677
 20
111.0029001655
 10
158.7943114802
 20
110.9162663984
 10
158.8471080206
 20
110.8296570207
 10
158.8975240196
 20
110.7430355481
 10
158.9456374195
 20
110.6563470214
 10
158.9915261629
 20
110.5695364812
 10
159.0352681922
 20
110.4825489684
 10
159.0769289977
 20
110.3953348665
 10
159.1165242601
 20
110.3078659295
 10
159.1540572082
 20
110.2201192543
 10
159.1895310704
 20
110.1320719376
 10
159.2229490753
 20
110.0437010761
 10
159.2543062052
 20
109.9550079386
 10
159.2835644566
 20
109.8660904809
 10
159.31067758
 20
109.7770708311
 10
159.3355993257
 20
109.6880711169
 10
159.358283444
 20
109.5992134662
 10
159.3786901409
 20
109.5106113121
 10
159.3968054453
 20
109.4223433084
 10
159.4126218417
 20
109.3344794141
 10
159.4261318147
 20
109.2470895882
 10
159.4373278489
 20
109.1602437898
 10
159.4462035982
 20
109.0740112622
 10
159.452757394
 20
108.9884583865
 10
159.4569887372
 20
108.9036508281
 10
159.4588971285
 20
108.8196542524
 10
159.4584820688
 20
108.7365343249
  0
LWPOLYLINE
  5
3FF
100
AcDbEntity
  8
0
100
AcDbPolyline
 62
253
  6
CONTINUOUS
 90
32
 70
0
 10
159.507598711
 20
89.8803716389
 10
159.5081415503
 20
89.8235354497
 10
159.5075024796
 20
89.7671589521
 10
159.5056817026
 20
89.7112647215
 10
159.5026794229
 20
89.6558753331
 10
159.4984958445
 20
89.6010133621
 10
159.4931311708
 20
89.5467013839
 10
159.4865856058
 20
89.4929619737
 10
159.4788598504
 20
89.439817822
 10
159.4699565945
 20
89.3872920804
 10
159.4598790255
 20
89.3354080156
 10
159.4486303305
 20
89.2841888944
 10
159.4362136969
 20
89.2336579837
 10
159.4226323118
 20
89.1838385502
 10
159.4078893626
 20
89.1347538606
 10
159.3919901623
 20
89.086428036
 10
159.3749485276
 20
89.0388886136
 10
159.3567804007
 20
88.9921639848
 10
159.337501724
 20
88.9462825412
 10
159.3171284401
 20
88.9012726741
 10
159.2956764912
 20
88.857162775
 10
159.2731618197
 20
88.8139812354
 10
159.2495972526
 20
88.771750668
 10
159.2249831541
 20
88.7304705719
 10
159.1993167734
 20
88.6901346673
 10
159.1725953591
 20
88.6507366745
 10
159.1448161603
 20
88.6122703138
 10
159.1159764258
 20
88.5747293055
 10
159.0860734046
 20
88.5381073701
 10
159.0571987088
 20
88.5047521467
 10
159.0273723702
 20
88.4721964519
 10
158.9965713836
 20
88.4404446699
  0
LWPOLYLINE
  5
400
100
AcDbEntity
  8
0
100
AcDbPolyline
 62
253
  6
CONTINUOUS
 90
55
 70
0
 10
160.0087947668
 20
89.6914820253
 10
160.009293961
 20
89.5971280919
 10
160.0069946591
 20
89.5038491995
 10
160.0018943051
 20
89.4117198674
 10
159.9939903428
 20
89.320814615
 10
159.9832802162
 20
89.2312079616
 10
159.9697636273
 20
89.1429767185
 10
159.9534493099
 20
89.0562068659
 10
159.934348256
 20
88.970986676
 10
159.9124714576
 20
88.887404421
 10
159.8878299066
 20
88.805548373
 10
159.860443244
 20
88.7255091323
 10
159.8303657064
 20
88.6473866108
 10
159.7976601797
 20
88.5712830483
 10
159.7623895496
 20
88.4973006848
 10
159.7246167019
 20
88.4255417601
 10
159.6843930015
 20
88.356087054
 10
159.6417237297
 20
88.2889315057
 10
159.596602647
 20
88.2240485943
 10
159.5490235141
 20
88.1614117989
 10
159.4989800912
 20
88.1009945987
 10
159.4464549761
 20
88.0427788418
 10
159.3913861146
 20
87.9867798529
 10
159.3337002894
 20
87.9330213259
 10
159.2733242836
 20
87.8815269545
 10
159.2101848799
 20
87.8323204327
 10
159.1442142889
 20
87.7854395692
 10
159.0753664318
 20
87.7409786334
 10
159.0036006575
 20
87.6990460096
 10
158.9288763149
 20
87.6597500822
 10
158.8511527529
 20
87.6231992355
 10
158.7840538103
 20
87.5949187969
 10
158.7147668653
 20
87.5687034714
 10
158.6432149367
 20
87.5446367992
 10
158.5693210431
 20
87.5228023205
 10
158.4930082035
 20
87.5032835754
 10
158.4141994365
 20
87.4861641042
 10
158.3328361208
 20
87.4715393259
 10
158.2489330742
 20
87.4595521756
 10
158.1625234744
 20
87.4503574671
 10
158.0736404992
 20
87.4441100144
 10
157.9823173264
 20
87.4409646314
 10
157.8885871335
 20
87.4410761321
 10
157.7925393519
 20
87.44457196
 10
157.6944884273
 20
87.4514700769
 10
157.5948050589
 20
87.4617610742
 10
157.493859946
 20
87.4754355433
 10
157.3920237879
 20
87.4924840755
 10
157.2896672838
 20
87.5128972623
 10
157.1871005429
 20
87.5366602302
 10
157.0843913136
 20
87.563736247
 10
156.9815467543
 20
87.5940831154
 10
156.8785740233
 20
87.6276586384
 10
156.7754802791
 20
87.6644206186
 10
156.67227268
 20
87.704326859
  0
LINE
  5
401
100
AcDbEntity
  8
ASSI
100
AcDbLine
 62
253
  6
CONTINUOUS
 10
161.8042177289
 20
119.116578087
 11
161.804217717
 21
119.105672819
  0
LINE
  5
402
100
AcDbEntity
  8
0
100
AcDbLine
 62
253
  6
CONTINUOUS
 10
161.8042177289
 20
119.116578087
 11
161.804217717
 21
119.105672819
  0
LWPOLYLINE
  5
403
100
AcDbEntity
  8
0
100
AcDbPolyline
 62
253
  6
CONTINUOUS
 90
21
 70
0
 10
159.4584803997
 20
108.7365349576
 10
159.4573529407
 20
108.6942434847
 10
159.4556136963
 20
108.6521947329
 10
159.4532635714
 20
108.6103973478
 10
159.450303471
 20
108.5688599746
 10
159.4467343002
 20
108.527591259
 10
159.4425569639
 20
108.4865998462
 10
159.4377723671
 20
108.4458943818
 10
159.4323814148
 20
108.4054835111
 10
159.426385012
 20
108.3653758797
 10
159.4197840638
 20
108.325580133
 10
159.412579475
 20
108.2861049163
 10
159.4047721508
 20
108.2469588752
 10
159.3963632207
 20
108.2081504907
 10
159.3873547134
 20
108.1696875865
 10
159.377748882
 20
108.131577822
 10
159.3675479798
 20
108.0938288565
 10
159.35675426
 20
108.0564483493
 10
159.3453699759
 20
108.0194439598
 10
159.3333973806
 20
107.9828233473
 10
159.3208387274
 20
107.9465941711
  0
LWPOLYLINE
  5
404
100
AcDbEntity
  8
0
100
AcDbPolyline
 62
253
  6
CONTINUOUS
 90
55
 70
0
 10
159.9595229628
 20
108.5475160158
 10
159.9561965488
 20
108.4489724395
 10
159.9500121072
 20
108.3515690542
 10
159.94097355
 20
108.2553845338
 10
159.9290847897
 20
108.1604975522
 10
159.9143497385
 20
108.0669867836
 10
159.8967723087
 20
107.9749309019
 10
159.8763597768
 20
107.8844094525
 10
159.853132877
 20
107.7955054664
 10
159.8271157078
 20
107.7083028462
 10
159.7983323677
 20
107.6228854943
 10
159.7668069551
 20
107.5393373132
 10
159.7325635686
 20
107.4577422053
 10
159.6956283312
 20
107.3781794583
 10
159.6560354649
 20
107.3007099006
 10
159.6138212161
 20
107.2253897456
 10
159.5690218314
 20
107.152275207
 10
159.5216735572
 20
107.0814224983
 10
159.47181264
 20
107.012887833
 10
159.4194718669
 20
106.9467258126
 10
159.364670187
 20
106.8829845903
 10
159.3074230901
 20
106.8217107073
 10
159.2477460657
 20
106.7629507047
 10
159.1856546037
 20
106.7067511237
 10
159.1211641936
 20
106.6531585055
 10
159.0543090696
 20
106.6022246979
 10
158.9851984439
 20
106.5540227751
 10
158.9139602731
 20
106.5086311182
 10
158.8407225136
 20
106.466128108
 10
158.765613122
 20
106.4265921257
 10
158.688760055
 20
106.3901015521
 10
158.6102779394
 20
106.3567202513
 10
158.5302280831
 20
106.3264540201
 10
158.4486584644
 20
106.2992941382
 10
158.3656170615
 20
106.2752318854
 10
158.2811518526
 20
106.2542585416
 10
158.195310816
 20
106.2363653866
 10
158.1081391755
 20
106.2215489618
 10
158.0196711375
 20
106.2098268544
 10
157.9299381542
 20
106.2012219132
 10
157.8389716775
 20
106.1957569872
 10
157.7468031597
 20
106.1934549251
 10
157.6534640526
 20
106.1943385758
 10
157.5590079521
 20
106.1984237881
 10
157.4635770282
 20
106.2056984108
 10
157.3673355944
 20
106.2161432929
 10
157.2704479646
 20
106.2297392832
 10
157.1730784524
 20
106.2464672307
 10
157.0753913714
 20
106.2663079841
 10
156.9775332898
 20
106.2892389406
 10
156.8795797936
 20
106.3152236905
 10
156.7815887231
 20
106.3442223725
 10
156.683617919
 20
106.3761951251
 10
156.5857252217
 20
106.4111020869
 10
156.4879684717
 20
106.4489033965
  0
LINE
  5
405
100
AcDbEntity
  8
ASSI
100
AcDbLine
 62
7
  6
CONTINUOUS
 10
161.8035488164
 20
119.1056728197
 11
161.8042177289
 21
119.116578087
  0
LINE
  5
406
100
AcDbEntity
  8
0
100
AcDbLine
 62
7
  6
CONTINUOUS
 10
161.8035488164
 20
119.1056728197
 11
161.8042177289
 21
119.116578087
  0
LINE
  5
407
100
AcDbEntity
  8
ASSI
100
AcDbLine
 62
7
  6
CONTINUOUS
 10
161.8653699844
 20
119.5435787975
 11
161.8042177289
 21
119.116578087
  0
LINE
  5
408
100
AcDbEntity
  8
0
100
AcDbLine
 62
7
  6
CONTINUOUS
 10
161.8653699844
 20
119.5435787975
 11
161.8042177289
 21
119.116578087
  0
LWPOLYLINE
  5
409
100
AcDbEntity
  8
0
100
AcDbPolyline
 62
253
  6
CONTINUOUS
 90
4
 70
0
 10
137.9755029529
 20
120.2651617629
 10
137.9882558231
 20
120.26203937
 10
138.001010099
 20
120.258856936
 10
138.0137667451
 20
120.2556142839
  0
LINE
  5
40A
100
AcDbEntity
  8
0
100
AcDbLine
 62
253
  6
CONTINUOUS
 10
138.0137667451
 20
120.2556142839
 11
138.0392910053
 21
120.248947618
  0
LINE
  5
40B
100
AcDbEntity
  8
0
100
AcDbLine
 62
253
  6
CONTINUOUS
 10
138.0392910053
 20
120.248947618
 11
138.064836319
 21
120.2420379569
  0
LINE
  5
40C
100
AcDbEntity
  8
0
100
AcDbLine
 62
253
  6
CONTINUOUS
 10
138.064836319
 20
120.2420379569
 11
138.0904104016
 21
120.2348838853
  0
LINE
  5
40D
100
AcDbEntity
  8
0
100
AcDbLine
 62
253
  6
CONTINUOUS
 10
138.0904104016
 20
120.2348838853
 11
138.1160209684
 21
120.2274839881
  0
LINE
  5
40E
100
AcDbEntity
  8
0
100
AcDbLine
 62
253
  6
CONTINUOUS
 10
138.1160209684
 20
120.2274839881
 11
138.1416757348
 21
120.2198368497
  0
LINE
  5
40F
100
AcDbEntity
  8
0
100
AcDbLine
 62
253
  6
CONTINUOUS
 10
138.1416757348
 20
120.2198368497
 11
138.1673820585
 21
120.2119411434
  0
LINE
  5
410
100
AcDbEntity
  8
0
100
AcDbLine
 62
253
  6
CONTINUOUS
 10
138.1673820585
 20
120.2119411434
 11
138.1931390709
 21
120.2037975758
  0
LINE
  5
411
100
AcDbEntity
  8
0
100
AcDbLine
 62
253
  6
CONTINUOUS
 10
138.1931390709
 20
120.2037975758
 11
138.2189376772
 21
120.1954088869
  0
LINE
  5
412
100
AcDbEntity
  8
0
100
AcDbLine
 62
253
  6
CONTINUOUS
 10
138.2189376772
 20
120.1954088869
 11
138.2447684251
 21
120.1867779053
  0
LWPOLYLINE
  5
413
100
AcDbEntity
  8
0
100
AcDbPolyline
 62
253
  6
CONTINUOUS
 90
10
 70
0
 10
138.2447684251
 20
120.1867779053
 10
138.2648751771
 20
120.1798992192
 10
138.2849912071
 20
120.1728770028
 10
138.3051120678
 20
120.165712587
 10
138.3252333116
 20
120.1584073026
 10
138.3453504911
 20
120.1509624804
 10
138.3654591589
 20
120.1433794512
 10
138.3855548675
 20
120.135659546
 10
138.4056331695
 20
120.1278040954
 10
138.4256896175
 20
120.1198144304
  0
LWPOLYLINE
  5
414
100
AcDbEntity
  8
ASSI
100
AcDbPolyline
 62
253
  6
CONTINUOUS
 90
11
 70
0
 10
130.2585340165
 20
128.6250630867
 10
130.2217481916
 20
128.6435847385
 10
130.1883568797
 20
128.6639202622
 10
130.1586838402
 20
128.6858724864
 10
130.1330167803
 20
128.709228564
 10
130.1116045658
 20
128.7337620366
 10
130.0946548075
 20
128.7592350298
 10
130.082331849
 20
128.7854005594
 10
130.0747551725
 20
128.8120049267
 10
130.0719982409
 20
128.8387901781
 10
130.0720369839
 20
128.8444904095
  0
LWPOLYLINE
  5
415
100
AcDbEntity
  8
0
100
AcDbPolyline
 62
253
  6
CONTINUOUS
 90
11
 70
0
 10
130.2585340165
 20
128.6250630867
 10
130.2217481916
 20
128.6435847385
 10
130.1883568797
 20
128.6639202622
 10
130.1586838402
 20
128.6858724864
 10
130.1330167803
 20
128.709228564
 10
130.1116045658
 20
128.7337620366
 10
130.0946548075
 20
128.7592350298
 10
130.082331849
 20
128.7854005594
 10
130.0747551725
 20
128.8120049267
 10
130.0719982409
 20
128.8387901781
 10
130.0720369839
 20
128.8444904095
  0
LINE
  5
416
100
AcDbEntity
  8
ASSI
100
AcDbLine
 62
7
  6
CONTINUOUS
 10
161.8653699844
 20
119.5435787975
 11
161.8714672501
 21
119.0162921035
  0
LINE
  5
417
100
AcDbEntity
  8
0
100
AcDbLine
 62
7
  6
CONTINUOUS
 10
161.8653699844
 20
119.5435787975
 11
161.8714672501
 21
119.0162921035
  0
LWPOLYLINE
  5
418
100
AcDbEntity
  8
SUPERFICI
100
AcDbPolyline
 62
7
  6
CONTINUOUS
 90
32
 70
0
 10
158.9694287515
 20
95.2081612446
 10
158.9893115055
 20
95.2246422183
 10
159.0227603523
 20
95.2571729194
 10
159.0527078657
 20
95.2929011109
 10
159.0790369098
 20
95.3317796787
 10
159.1018617019
 20
95.37385326
 10
159.1209313475
 20
95.4186735742
 10
159.1362328546
 20
95.4664040853
 10
159.1477774263
 20
95.516879812
 10
159.1553501681
 20
95.5691595649
 10
159.1588758609
 20
95.6231268425
 10
159.1584288151
 20
95.6788973877
 10
159.1540182699
 20
95.7358782488
 10
159.145573937
 20
95.7942292417
 10
159.1331667401
 20
95.8537911067
 10
159.1170176069
 20
95.9134921756
 10
159.0971056625
 20
95.9732082803
 10
159.073453407
 20
96.0330649893
 10
159.0463465681
 20
96.0923650212
 10
159.0156929983
 20
96.151200204
 10
158.9815876069
 20
96.2094810671
 10
158.9445962148
 20
96.2662379651
 10
158.9047182145
 20
96.3213817573
 10
158.861957219
 20
96.375004136
 10
158.816884546
 20
96.4264059968
 10
158.7694429631
 20
96.4755910542
 10
158.7196927749
 20
96.5225581838
 10
158.6683804885
 20
96.5666000749
 10
158.6154573715
 20
96.6076787115
 10
158.5609745607
 20
96.6458341175
 10
158.5058267818
 20
96.6804747016
 10
158.4503122044
 20
96.711403195
  0
LWPOLYLINE
  5
419
100
AcDbEntity
  8
0
100
AcDbPolyline
 62
7
  6
CONTINUOUS
 90
10
 70
0
 10
158.9694307536
 20
95.2081588475
 10
158.9225372647
 20
95.1761071629
 10
158.8701937056
 20
95.1494747967
 10
158.8134423126
 20
95.1288271019
 10
158.7537718774
 20
95.1146090016
 10
158.6912373199
 20
95.1069825964
 10
158.6257881824
 20
95.1057895594
 10
158.5587518899
 20
95.1109913858
 10
158.4905710025
 20
95.1225753086
 10
158.4208052394
 20
95.1405560037
  0
LWPOLYLINE
  5
41A
100
AcDbEntity
  8
ASSI
100
AcDbPolyline
 62
7
  6
CONTINUOUS
 90
10
 70
0
 10
158.9694307536
 20
95.2081588475
 10
158.9225372647
 20
95.1761071629
 10
158.8701937056
 20
95.1494747967
 10
158.8134423126
 20
95.1288271019
 10
158.7537718774
 20
95.1146090016
 10
158.6912373199
 20
95.1069825964
 10
158.6257881824
 20
95.1057895594
 10
158.5587518899
 20
95.1109913858
 10
158.4905710025
 20
95.1225753086
 10
158.4208052394
 20
95.1405560037
  0
LWPOLYLINE
  5
41B
100
AcDbEntity
  8
ASSI
100
AcDbPolyline
 62
253
  6
CONTINUOUS
 90
16
 70
0
 10
165.5294232023
 20
114.4594873189
 10
165.5727522388
 20
114.445832864
 10
165.6181669969
 20
114.4345178328
 10
165.6652271475
 20
114.4256519327
 10
165.7134764085
 20
114.4193211252
 10
165.7624469684
 20
114.4155867918
 10
165.8116640223
 20
114.4144851394
 10
165.8606503752
 20
114.4160268492
 10
165.9089310691
 20
114.4201969734
 10
165.9560379876
 20
114.4269550796
 10
166.0015143952
 20
114.436235643
 10
166.0449193653
 20
114.4479486818
 10
166.0858320552
 20
114.4619806297
 10
166.1238557868
 20
114.4781954367
 10
166.1586218927
 20
114.4964358887
 10
166.1897932902
 20
114.5165251312
  0
LWPOLYLINE
  5
41C
100
AcDbEntity
  8
0
100
AcDbPolyline
 62
253
  6
CONTINUOUS
 90
16
 70
0
 10
165.5294232023
 20
114.4594873189
 10
165.5727522388
 20
114.445832864
 10
165.6181669969
 20
114.4345178328
 10
165.6652271475
 20
114.4256519327
 10
165.7134764085
 20
114.4193211252
 10
165.7624469684
 20
114.4155867918
 10
165.8116640223
 20
114.4144851394
 10
165.8606503752
 20
114.4160268492
 10
165.9089310691
 20
114.4201969734
 10
165.9560379876
 20
114.4269550796
 10
166.0015143952
 20
114.436235643
 10
166.0449193653
 20
114.4479486818
 10
166.0858320552
 20
114.4619806297
 10
166.1238557868
 20
114.4781954367
 10
166.1586218927
 20
114.4964358887
 10
166.1897932902
 20
114.5165251312
  0
LWPOLYLINE
  5
41D
100
AcDbEntity
  8
ASSI
100
AcDbPolyline
 62
253
  6
CONTINUOUS
 90
16
 70
0
 10
147.3442478191
 20
121.763063728
 10
147.3875768556
 20
121.7494092731
 10
147.4329916137
 20
121.7380942419
 10
147.4800517643
 20
121.7292283418
 10
147.5283010253
 20
121.7228975343
 10
147.5772715852
 20
121.7191632009
 10
147.6264886391
 20
121.7180615485
 10
147.675474992
 20
121.7196032583
 10
147.7237556859
 20
121.7237733825
 10
147.7708626044
 20
121.7305314887
 10
147.816339012
 20
121.7398120521
 10
147.8597439821
 20
121.7515250909
 10
147.900656672
 20
121.7655570388
 10
147.9386804036
 20
121.7817718458
 10
147.9734465095
 20
121.8000122978
 10
148.004617907
 20
121.8201015403
  0
LWPOLYLINE
  5
41E
100
AcDbEntity
  8
0
100
AcDbPolyline
 62
253
  6
CONTINUOUS
 90
16
 70
0
 10
147.3442478191
 20
121.763063728
 10
147.3875768556
 20
121.7494092731
 10
147.4329916137
 20
121.7380942419
 10
147.4800517643
 20
121.7292283418
 10
147.5283010253
 20
121.7228975343
 10
147.5772715852
 20
121.7191632009
 10
147.6264886391
 20
121.7180615485
 10
147.675474992
 20
121.7196032583
 10
147.7237556859
 20
121.7237733825
 10
147.7708626044
 20
121.7305314887
 10
147.816339012
 20
121.7398120521
 10
147.8597439821
 20
121.7515250909
 10
147.900656672
 20
121.7655570388
 10
147.9386804036
 20
121.7817718458
 10
147.9734465095
 20
121.8000122978
 10
148.004617907
 20
121.8201015403
  0
LINE
  5
41F
100
AcDbEntity
  8
ASSI
100
AcDbLine
 62
253
  6
CONTINUOUS
 10
165.5294165743
 20
114.4594814601
 11
164.9508126126
 21
114.6603550023
  0
LINE
  5
420
100
AcDbEntity
  8
0
100
AcDbLine
 62
253
  6
CONTINUOUS
 10
165.5294165743
 20
114.4594814601
 11
164.9508126126
 21
114.6603550023
  0
LINE
  5
421
100
AcDbEntity
  8
ASSI
100
AcDbLine
 62
253
  6
CONTINUOUS
 10
147.3442411911
 20
121.7630578691
 11
146.7656372294
 21
121.9639314114
  0
LINE
  5
422
100
AcDbEntity
  8
0
100
AcDbLine
 62
253
  6
CONTINUOUS
 10
147.3442411911
 20
121.7630578691
 11
146.7656372294
 21
121.9639314114
  0
LINE
  5
423
100
AcDbEntity
  8
ASSI
100
AcDbLine
 62
253
  6
CONTINUOUS
 10
164.9508126126
 20
114.6603550023
 11
164.0215304224
 21
114.9874742373
  0
LINE
  5
424
100
AcDbEntity
  8
0
100
AcDbLine
 62
253
  6
CONTINUOUS
 10
164.9508126126
 20
114.6603550023
 11
164.0215304224
 21
114.9874742373
  0
LINE
  5
425
100
AcDbEntity
  8
ASSI
100
AcDbLine
 62
253
  6
CONTINUOUS
 10
146.7656372294
 20
121.9639314114
 11
145.8363550391
 21
122.2910506464
  0
LINE
  5
426
100
AcDbEntity
  8
0
100
AcDbLine
 62
253
  6
CONTINUOUS
 10
146.7656372294
 20
121.9639314114
 11
145.8363550391
 21
122.2910506464
  0
LWPOLYLINE
  5
427
100
AcDbEntity
  8
ASSI
100
AcDbPolyline
 62
253
  6
CONTINUOUS
 90
28
 70
0
 10
164.0215304224
 20
114.9874742373
 10
163.2259722726
 20
115.271291314
 10
162.6547538803
 20
115.4776745378
 10
162.0849683396
 20
115.685579992
 10
161.5164430509
 20
115.895073193
 10
160.9493740059
 20
116.1060845745
 10
160.3839242565
 20
116.3185543349
 10
159.820141718
 20
116.5324643356
 10
159.2579979685
 20
116.7478251879
 10
158.6975399048
 20
116.964618781
 10
158.1387003445
 20
117.1828712694
 10
157.5815658729
 20
117.4025489137
 10
157.0264112877
 20
117.6235414782
 10
156.4735997306
 20
117.845699098
 10
155.9227796499
 20
118.0691577377
 10
155.3731586565
 20
118.2942398448
 10
154.8257861896
 20
118.5205142358
 10
154.2796343096
 20
118.7484063222
 10
153.7308388484
 20
118.9795584764
 10
153.180369492
 20
119.2136051702
 10
152.6273544404
 20
119.4509648693
 10
152.0652709563
 20
119.6945356471
 10
151.494051388
 20
119.9444783178
 10
150.9140119246
 20
120.2007949473
 10
150.3193408657
 20
120.4662460332
 10
149.7082660896
 20
120.7418635627
 10
149.0829835814
 20
121.0268972247
 10
148.4437093982
 20
121.3214866651
  0
LWPOLYLINE
  5
428
100
AcDbEntity
  8
0
100
AcDbPolyline
 62
253
  6
CONTINUOUS
 90
28
 70
0
 10
164.0215304224
 20
114.9874742373
 10
163.2259722726
 20
115.271291314
 10
162.6547538803
 20
115.4776745378
 10
162.0849683396
 20
115.685579992
 10
161.5164430509
 20
115.895073193
 10
160.9493740059
 20
116.1060845745
 10
160.3839242565
 20
116.3185543349
 10
159.820141718
 20
116.5324643356
 10
159.2579979685
 20
116.7478251879
 10
158.6975399048
 20
116.964618781
 10
158.1387003445
 20
117.1828712694
 10
157.5815658729
 20
117.4025489137
 10
157.0264112877
 20
117.6235414782
 10
156.4735997306
 20
117.845699098
 10
155.9227796499
 20
118.0691577377
 10
155.3731586565
 20
118.2942398448
 10
154.8257861896
 20
118.5205142358
 10
154.2796343096
 20
118.7484063222
 10
153.7308388484
 20
118.9795584764
 10
153.180369492
 20
119.2136051702
 10
152.6273544404
 20
119.4509648693
 10
152.0652709563
 20
119.6945356471
 10
151.494051388
 20
119.9444783178
 10
150.9140119246
 20
120.2007949473
 10
150.3193408657
 20
120.4662460332
 10
149.7082660896
 20
120.7418635627
 10
149.0829835814
 20
121.0268972247
 10
148.4437093982
 20
121.3214866651
  0
LWPOLYLINE
  5
429
100
AcDbEntity
  8
ASSI
100
AcDbPolyline
 62
253
  6
CONTINUOUS
 90
28
 70
0
 10
145.8363550391
 20
122.2910506464
 10
145.0407968894
 20
122.5748677231
 10
144.469578497
 20
122.7812509469
 10
143.8997929564
 20
122.9891564011
 10
143.3312676677
 20
123.198649602
 10
142.7641986227
 20
123.4096609836
 10
142.1987488733
 20
123.622130744
 10
141.6349663348
 20
123.8360407447
 10
141.0728225853
 20
124.051401597
 10
140.5123645216
 20
124.2681951901
 10
139.9535249613
 20
124.4864476785
 10
139.3963904896
 20
124.7061253228
 10
138.8412359045
 20
124.9271178873
 10
138.2884243474
 20
125.1492755071
 10
137.7376042666
 20
125.3727341468
 10
137.1879832732
 20
125.5978162539
 10
136.6406108064
 20
125.8240906449
 10
136.0944589264
 20
126.0519827313
 10
135.5456634652
 20
126.2831348855
 10
134.9951941088
 20
126.5171815793
 10
134.4421790571
 20
126.7545412784
 10
133.8800955731
 20
126.9981120562
 10
133.3088760048
 20
127.2480547269
 10
132.7288365414
 20
127.5043713564
 10
132.1341654825
 20
127.7698224423
 10
131.5230907064
 20
128.0454399718
 10
130.8978081981
 20
128.3304736338
 10
130.258534015
 20
128.6250630742
  0
LWPOLYLINE
  5
42A
100
AcDbEntity
  8
0
100
AcDbPolyline
 62
253
  6
CONTINUOUS
 90
28
 70
0
 10
145.8363550391
 20
122.2910506464
 10
145.0407968894
 20
122.5748677231
 10
144.469578497
 20
122.7812509469
 10
143.8997929564
 20
122.9891564011
 10
143.3312676677
 20
123.198649602
 10
142.7641986227
 20
123.4096609836
 10
142.1987488733
 20
123.622130744
 10
141.6349663348
 20
123.8360407447
 10
141.0728225853
 20
124.051401597
 10
140.5123645216
 20
124.2681951901
 10
139.9535249613
 20
124.4864476785
 10
139.3963904896
 20
124.7061253228
 10
138.8412359045
 20
124.9271178873
 10
138.2884243474
 20
125.1492755071
 10
137.7376042666
 20
125.3727341468
 10
137.1879832732
 20
125.5978162539
 10
136.6406108064
 20
125.8240906449
 10
136.0944589264
 20
126.0519827313
 10
135.5456634652
 20
126.2831348855
 10
134.9951941088
 20
126.5171815793
 10
134.4421790571
 20
126.7545412784
 10
133.8800955731
 20
126.9981120562
 10
133.3088760048
 20
127.2480547269
 10
132.7288365414
 20
127.5043713564
 10
132.1341654825
 20
127.7698224423
 10
131.5230907064
 20
128.0454399718
 10
130.8978081981
 20
128.3304736338
 10
130.258534015
 20
128.6250630742
  0
LWPOLYLINE
  5
42B
100
AcDbEntity
  8
ASSI
100
AcDbPolyline
 62
253
  6
CONTINUOUS
 90
11
 70
0
 10
148.4437093997
 20
121.3214866776
 10
148.4069235748
 20
121.3400083294
 10
148.3735322629
 20
121.3603438531
 10
148.3438592234
 20
121.3822960773
 10
148.3181921636
 20
121.4056521549
 10
148.296779949
 20
121.4301856276
 10
148.2798301907
 20
121.4556586207
 10
148.2675072322
 20
121.4818241503
 10
148.2599305557
 20
121.5084285176
 10
148.2571736241
 20
121.535213769
 10
148.2572123671
 20
121.5409140004
  0
LWPOLYLINE
  5
42C
100
AcDbEntity
  8
0
100
AcDbPolyline
 62
253
  6
CONTINUOUS
 90
11
 70
0
 10
148.4437093997
 20
121.3214866776
 10
148.4069235748
 20
121.3400083294
 10
148.3735322629
 20
121.3603438531
 10
148.3438592234
 20
121.3822960773
 10
148.3181921636
 20
121.4056521549
 10
148.296779949
 20
121.4301856276
 10
148.2798301907
 20
121.4556586207
 10
148.2675072322
 20
121.4818241503
 10
148.2599305557
 20
121.5084285176
 10
148.2571736241
 20
121.535213769
 10
148.2572123671
 20
121.5409140004
  0
LWPOLYLINE
  5
42D
100
AcDbEntity
  8
0
100
AcDbPolyline
 62
253
  6
CONTINUOUS
 90
16
 70
0
 10
165.9227593103
 20
96.6205303363
 10
165.9203412675
 20
96.6635410063
 10
165.9136193023
 20
96.7080678697
 10
165.9026229104
 20
96.7536427355
 10
165.8874102205
 20
96.7998289483
 10
165.8681166561
 20
96.8460727155
 10
165.8449979059
 20
96.8917123183
 10
165.8183418764
 20
96.936193258
 10
165.7884161077
 20
96.9790810996
 10
165.7555407035
 20
97.0199143158
 10
165.7200685298
 20
97.0582484875
 10
165.6823934224
 20
97.0936523099
 10
165.6429394058
 20
97.1257252698
 10
165.6021445764
 20
97.1541118408
 10
165.5604545349
 20
97.1785025481
 10
165.5183282124
 20
97.1986288649
  0
LWPOLYLINE
  5
42E
100
AcDbEntity
  8
ASSI
100
AcDbPolyline
 62
253
  6
CONTINUOUS
 90
16
 70
0
 10
165.9227593103
 20
96.6205303363
 10
165.9203412675
 20
96.6635410063
 10
165.9136193023
 20
96.7080678697
 10
165.9026229104
 20
96.7536427355
 10
165.8874102205
 20
96.7998289483
 10
165.8681166561
 20
96.8460727155
 10
165.8449979059
 20
96.8917123183
 10
165.8183418764
 20
96.936193258
 10
165.7884161077
 20
96.9790810996
 10
165.7555407035
 20
97.0199143158
 10
165.7200685298
 20
97.0582484875
 10
165.6823934224
 20
97.0936523099
 10
165.6429394058
 20
97.1257252698
 10
165.6021445764
 20
97.1541118408
 10
165.5604545349
 20
97.1785025481
 10
165.5183282124
 20
97.1986288649
  0
LWPOLYLINE
  5
42F
100
AcDbEntity
  8
ASSI
100
AcDbPolyline
 62
253
  6
CONTINUOUS
 90
10
 70
0
 10
165.2700392556
 20
97.7534627687
 10
165.2718089255
 20
97.7112824571
 10
165.2757256269
 20
97.6733620476
 10
165.2819875536
 20
97.6393733329
 10
165.2911840753
 20
97.6088937026
 10
165.3031784488
 20
97.5822560818
 10
165.3171049926
 20
97.5603599912
 10
165.3332562271
 20
97.5433360397
 10
165.3518864668
 20
97.5310961954
 10
165.3628927454
 20
97.5265442888
  0
LWPOLYLINE
  5
430
100
AcDbEntity
  8
0
100
AcDbPolyline
 62
253
  6
CONTINUOUS
 90
10
 70
0
 10
165.2700392556
 20
97.7534627687
 10
165.2718089255
 20
97.7112824571
 10
165.2757256269
 20
97.6733620476
 10
165.2819875536
 20
97.6393733329
 10
165.2911840753
 20
97.6088937026
 10
165.3031784488
 20
97.5822560818
 10
165.3171049926
 20
97.5603599912
 10
165.3332562271
 20
97.5433360397
 10
165.3518864668
 20
97.5310961954
 10
165.3628927454
 20
97.5265442888
  0
LWPOLYLINE
  5
431
100
AcDbEntity
  8
0
100
AcDbPolyline
 62
253
  6
CONTINUOUS
 90
10
 70
0
 10
166.1897932825
 20
80.3483411706
 10
166.1343107676
 20
82.1995248006
 10
166.0855344977
 20
84.0246633517
 10
166.0434644727
 20
85.8237568237
 10
166.0084383281
 20
87.5764659821
 10
165.9801184284
 20
89.3031300614
 10
165.9574918674
 20
91.0647667661
 10
165.9402210097
 20
92.8817153308
 10
165.9286434907
 20
94.7336365209
 10
165.9227593103
 20
96.6205303363
  0
LWPOLYLINE
  5
432
100
AcDbEntity
  8
ASSI
100
AcDbPolyline
 62
253
  6
CONTINUOUS
 90
10
 70
0
 10
166.1897932825
 20
80.3483411706
 10
166.1343107676
 20
82.1995248006
 10
166.0855344977
 20
84.0246633517
 10
166.0434644727
 20
85.8237568237
 10
166.0084383281
 20
87.5764659821
 10
165.9801184284
 20
89.3031300614
 10
165.9574918674
 20
91.0647667661
 10
165.9402210097
 20
92.8817153308
 10
165.9286434907
 20
94.7336365209
 10
165.9227593103
 20
96.6205303363
  0
LWPOLYLINE
  5
433
100
AcDbEntity
  8
0
100
AcDbPolyline
 62
253
  6
CONTINUOUS
 90
10
 70
0
 10
165.5294165735
 20
80.2561687732
 10
165.4750150522
 20
82.1081990594
 10
165.427737776
 20
83.9348309342
 10
165.387276051
 20
85.7357542764
 10
165.3536820816
 20
87.4902958164
 10
165.3261732748
 20
89.2184248065
 10
165.3037725884
 20
90.9812978366
 10
165.2866059859
 20
92.7996575782
 10
165.2752615723
 20
94.653287126
 10
165.2700391343
 20
96.5423946362
  0
LWPOLYLINE
  5
434
100
AcDbEntity
  8
ASSI
100
AcDbPolyline
 62
253
  6
CONTINUOUS
 90
10
 70
0
 10
165.5294165735
 20
80.2561687732
 10
165.4750150522
 20
82.1081990594
 10
165.427737776
 20
83.9348309342
 10
165.387276051
 20
85.7357542764
 10
165.3536820816
 20
87.4902958164
 10
165.3261732748
 20
89.2184248065
 10
165.3037725884
 20
90.9812978366
 10
165.2866059859
 20
92.7996575782
 10
165.2752615723
 20
94.653287126
 10
165.2700391343
 20
96.5423946362
  0
LWPOLYLINE
  5
435
100
AcDbEntity
  8
ASSI
100
AcDbPolyline
 62
253
  6
CONTINUOUS
 90
10
 70
0
 10
165.9227592526
 20
97.8303563158
 10
165.9268512116
 20
99.5244776976
 10
165.9368443594
 20
101.2482519635
 10
165.9527386959
 20
103.0016791137
 10
165.9738763095
 20
104.7709972018
 10
166.0009151119
 20
106.5699681742
 10
166.0358288377
 20
108.4398778694
 10
166.0792753985
 20
110.3944882338
 10
166.1305968827
 20
112.4200373211
 10
166.1897932903
 20
114.5165251312
  0
LWPOLYLINE
  5
436
100
AcDbEntity
  8
0
100
AcDbPolyline
 62
253
  6
CONTINUOUS
 90
10
 70
0
 10
165.9227592526
 20
97.8303563158
 10
165.9268512116
 20
99.5244776976
 10
165.9368443594
 20
101.2482519635
 10
165.9527386959
 20
103.0016791137
 10
165.9738763095
 20
104.7709972018
 10
166.0009151119
 20
106.5699681742
 10
166.0358288377
 20
108.4398778694
 10
166.0792753985
 20
110.3944882338
 10
166.1305968827
 20
112.4200373211
 10
166.1897932903
 20
114.5165251312
  0
LWPOLYLINE
  5
437
100
AcDbEntity
  8
ASSI
100
AcDbPolyline
 62
253
  6
CONTINUOUS
 90
5
 70
0
 10
165.2700391243
 20
97.75346288
 10
165.274399073
 20
99.4495922504
 10
165.2840283923
 20
101.175169789
 10
165.2991558052
 20
102.9303479946
 10
165.3198317941
 20
104.7018209335
  0
LWPOLYLINE
  5
438
100
AcDbEntity
  8
0
100
AcDbPolyline
 62
253
  6
CONTINUOUS
 90
5
 70
0
 10
165.2700391243
 20
97.75346288
 10
165.274399073
 20
99.4495922504
 10
165.2840283923
 20
101.175169789
 10
165.2991558052
 20
102.9303479946
 10
165.3198317941
 20
104.7018209335
  0
LINE
  5
439
100
AcDbEntity
  8
ASSI
100
AcDbLine
 62
253
  6
CONTINUOUS
 10
165.3198317941
 20
104.7018209335
 11
165.346388719
 21
106.5031321121
  0
LINE
  5
43A
100
AcDbEntity
  8
0
100
AcDbLine
 62
253
  6
CONTINUOUS
 10
165.3198317941
 20
104.7018209335
 11
165.346388719
 21
106.5031321121
  0
LWPOLYLINE
  5
43B
100
AcDbEntity
  8
ASSI
100
AcDbPolyline
 62
253
  6
CONTINUOUS
 90
5
 70
0
 10
165.346388719
 20
106.5031321121
 10
165.3798597108
 20
108.3750047693
 10
165.4211891929
 20
110.3314538064
 10
165.4708141948
 20
112.3594547706
 10
165.5294165743
 20
114.4594814601
  0
LWPOLYLINE
  5
43C
100
AcDbEntity
  8
0
100
AcDbPolyline
 62
253
  6
CONTINUOUS
 90
5
 70
0
 10
165.346388719
 20
106.5031321121
 10
165.3798597108
 20
108.3750047693
 10
165.4211891929
 20
110.3314538064
 10
165.4708141948
 20
112.3594547706
 10
165.5294165743
 20
114.4594814601
  0
LWPOLYLINE
  5
43D
100
AcDbEntity
  8
0
100
AcDbPolyline
 62
253
  6
CONTINUOUS
 90
16
 70
0
 10
165.2700393137
 20
96.5423945745
 10
165.2718087504
 20
96.5870229121
 10
165.2757251953
 20
96.6330636732
 10
165.2819868054
 20
96.6803815036
 10
165.2911828253
 20
96.729081208
 10
165.3031765602
 20
96.7789702243
 10
165.3171025636
 20
96.8291101006
 10
165.3332533787
 20
96.8785026885
 10
165.3518832578
 20
96.9269390622
 10
165.3719803019
 20
96.9741534486
 10
165.3936242545
 20
97.0192765357
 10
165.417047476
 20
97.0617095954
 10
165.4412967893
 20
97.1014421057
 10
165.4660602942
 20
97.1380053805
 10
165.4917305308
 20
97.1705718176
 10
165.5183282124
 20
97.1986288649
  0
LWPOLYLINE
  5
43E
100
AcDbEntity
  8
ASSI
100
AcDbPolyline
 62
253
  6
CONTINUOUS
 90
16
 70
0
 10
165.2700393137
 20
96.5423945745
 10
165.2718087504
 20
96.5870229121
 10
165.2757251953
 20
96.6330636732
 10
165.2819868054
 20
96.6803815036
 10
165.2911828253
 20
96.729081208
 10
165.3031765602
 20
96.7789702243
 10
165.3171025636
 20
96.8291101006
 10
165.3332533787
 20
96.8785026885
 10
165.3518832578
 20
96.9269390622
 10
165.3719803019
 20
96.9741534486
 10
165.3936242545
 20
97.0192765357
 10
165.417047476
 20
97.0617095954
 10
165.4412967893
 20
97.1014421057
 10
165.4660602942
 20
97.1380053805
 10
165.4917305308
 20
97.1705718176
 10
165.5183282124
 20
97.1986288649
  0
LWPOLYLINE
  5
43F
100
AcDbEntity
  8
ASSI
100
AcDbPolyline
 62
253
  6
CONTINUOUS
 90
22
 70
0
 10
165.5294165889
 20
114.459481466
 10
165.5330244933
 20
114.5314470089
 10
165.5399399501
 20
114.6056537213
 10
165.5501315947
 20
114.6817340945
 10
165.5635593648
 20
114.7593030967
 10
165.5801557714
 20
114.8379839023
 10
165.5998282479
 20
114.9174105004
 10
165.6224946608
 20
114.9971936198
 10
165.6480490171
 20
115.0769319976
 10
165.6763443306
 20
115.1562386908
 10
165.7072564991
 20
115.2347166788
 10
165.7406438265
 20
115.3119756091
 10
165.776315077
 20
115.3876437162
 10
165.8141133299
 20
115.4613424036
 10
165.8538646298
 20
115.5327009024
 10
165.8953374631
 20
115.6013733115
 10
165.9383434763
 20
115.6670099649
 10
165.9826888643
 20
115.7292842495
 10
166.0281236023
 20
115.7879060403
 10
166.074425864
 20
115.8425852594
 10
166.1214025525
 20
115.8930346222
 10
166.1688408774
 20
115.9389957252
  0
LWPOLYLINE
  5
440
100
AcDbEntity
  8
0
100
AcDbPolyline
 62
253
  6
CONTINUOUS
 90
22
 70
0
 10
165.5294165889
 20
114.459481466
 10
165.5330244933
 20
114.5314470089
 10
165.5399399501
 20
114.6056537213
 10
165.5501315947
 20
114.6817340945
 10
165.5635593648
 20
114.7593030967
 10
165.5801557714
 20
114.8379839023
 10
165.5998282479
 20
114.9174105004
 10
165.6224946608
 20
114.9971936198
 10
165.6480490171
 20
115.0769319976
 10
165.6763443306
 20
115.1562386908
 10
165.7072564991
 20
115.2347166788
 10
165.7406438265
 20
115.3119756091
 10
165.776315077
 20
115.3876437162
 10
165.8141133299
 20
115.4613424036
 10
165.8538646298
 20
115.5327009024
 10
165.8953374631
 20
115.6013733115
 10
165.9383434763
 20
115.6670099649
 10
165.9826888643
 20
115.7292842495
 10
166.0281236023
 20
115.7879060403
 10
166.074425864
 20
115.8425852594
 10
166.1214025525
 20
115.8930346222
 10
166.1688408774
 20
115.9389957252
  0
LWPOLYLINE
  5
441
100
AcDbEntity
  8
ASSI
100
AcDbPolyline
 62
253
  6
CONTINUOUS
 90
22
 70
0
 10
166.1897932903
 20
114.5165251312
 10
166.192100776
 20
114.558573231
 10
166.1964038113
 20
114.6015241082
 10
166.2027023962
 20
114.6453777629
 10
166.211046805
 20
114.6903769774
 10
166.2213867634
 20
114.7362789694
 10
166.2335714486
 20
114.7823553917
 10
166.2476272362
 20
114.8285907892
 10
166.2635277507
 20
114.8750006171
 10
166.2810430424
 20
114.9209028924
 10
166.3001988784
 20
114.9662932778
 10
166.3209694917
 20
115.0111761108
 10
166.3430476313
 20
115.0548824209
 10
166.3664527426
 20
115.0973931652
 10
166.3911653802
 20
115.1387273866
 10
166.4168199577
 20
115.1782732431
 10
166.4434434403
 20
115.2160149826
 10
166.4710088628
 20
115.2519683572
 10
166.4990697426
 20
115.2855687821
 10
166.5274772522
 20
115.3166280623
 10
166.5563802191
 20
115.3453343928
 10
166.5857786433
 20
115.3716877736
  0
LWPOLYLINE
  5
442
100
AcDbEntity
  8
0
100
AcDbPolyline
 62
253
  6
CONTINUOUS
 90
22
 70
0
 10
166.1897932903
 20
114.5165251312
 10
166.192100776
 20
114.558573231
 10
166.1964038113
 20
114.6015241082
 10
166.2027023962
 20
114.6453777629
 10
166.211046805
 20
114.6903769774
 10
166.2213867634
 20
114.7362789694
 10
166.2335714486
 20
114.7823553917
 10
166.2476272362
 20
114.8285907892
 10
166.2635277507
 20
114.8750006171
 10
166.2810430424
 20
114.9209028924
 10
166.3001988784
 20
114.9662932778
 10
166.3209694917
 20
115.0111761108
 10
166.3430476313
 20
115.0548824209
 10
166.3664527426
 20
115.0973931652
 10
166.3911653802
 20
115.1387273866
 10
166.4168199577
 20
115.1782732431
 10
166.4434434403
 20
115.2160149826
 10
166.4710088628
 20
115.2519683572
 10
166.4990697426
 20
115.2855687821
 10
166.5274772522
 20
115.3166280623
 10
166.5563802191
 20
115.3453343928
 10
166.5857786433
 20
115.3716877736
  0
LWPOLYLINE
  5
443
100
AcDbEntity
  8
ASSI
100
AcDbPolyline
 62
253
  6
CONTINUOUS
 90
8
 70
0
 10
165.9227592528
 20
97.830356316
 10
165.9203412055
 20
97.7887551936
 10
165.9136192298
 20
97.7492960235
 10
165.9026228243
 20
97.712428937
 10
165.887410121
 20
97.6785475561
 10
165.8681165458
 20
97.648098317
 10
165.8449977882
 20
97.6215343652
 10
165.8244543794
 20
97.603688191
  0
LWPOLYLINE
  5
444
100
AcDbEntity
  8
0
100
AcDbPolyline
 62
253
  6
CONTINUOUS
 90
8
 70
0
 10
165.9227592528
 20
97.830356316
 10
165.9203412055
 20
97.7887551936
 10
165.9136192298
 20
97.7492960235
 10
165.9026228243
 20
97.712428937
 10
165.887410121
 20
97.6785475561
 10
165.8681165458
 20
97.648098317
 10
165.8449977882
 20
97.6215343652
 10
165.8244543794
 20
97.603688191
  0
LINE
  5
445
100
AcDbEntity
  8
0
100
AcDbLine
 62
253
  6
CONTINUOUS
 10
168.1421221328
 20
99.2639693288
 11
165.5183282126
 21
97.198628865
  0
LINE
  5
446
100
AcDbEntity
  8
ASSI
100
AcDbLine
 62
253
  6
CONTINUOUS
 10
168.1421221328
 20
99.2639693288
 11
165.5183282126
 21
97.198628865
  0
LINE
  5
447
100
AcDbEntity
  8
0
100
AcDbLine
 62
253
  6
CONTINUOUS
 10
168.5517449613
 20
98.6899575126
 11
165.9227593103
 21
96.6205303363
  0
LINE
  5
448
100
AcDbEntity
  8
ASSI
100
AcDbLine
 62
253
  6
CONTINUOUS
 10
168.5517449613
 20
98.6899575126
 11
165.9227593103
 21
96.6205303363
  0
LINE
  5
449
100
AcDbEntity
  8
ASSI
100
AcDbLine
 62
253
  6
CONTINUOUS
 10
165.8244543794
 20
97.603688191
 11
165.8241626438
 21
97.6034651678
  0
LINE
  5
44A
100
AcDbEntity
  8
0
100
AcDbLine
 62
253
  6
CONTINUOUS
 10
165.8244543794
 20
97.603688191
 11
165.8241626438
 21
97.6034651678
  0
LINE
  5
44B
100
AcDbEntity
  8
ASSI
100
AcDbLine
 62
253
  6
CONTINUOUS
 10
165.9227592526
 20
97.8303563158
 11
168.5517449613
 21
99.8366144373
  0
LINE
  5
44C
100
AcDbEntity
  8
0
100
AcDbLine
 62
253
  6
CONTINUOUS
 10
165.9227592526
 20
97.8303563158
 11
168.5517449613
 21
99.8366144373
  0
LINE
  5
44D
100
AcDbEntity
  8
ASSI
100
AcDbLine
 62
7
  6
CONTINUOUS
 10
165.8241604995
 20
97.6034635313
 11
168.4528879805
 21
99.6095245914
  0
LINE
  5
44E
100
AcDbEntity
  8
0
100
AcDbLine
 62
7
  6
CONTINUOUS
 10
165.8241604995
 20
97.6034635313
 11
168.4528879805
 21
99.6095245914
  0
LWPOLYLINE
  5
44F
100
AcDbEntity
  8
0
100
AcDbPolyline
 62
253
  6
CONTINUOUS
 90
16
 70
0
 10
165.9227593111
 20
96.6205303368
 10
165.8919729334
 20
96.5988852362
 10
165.8576771592
 20
96.5790578299
 10
165.8201962781
 20
96.5612355991
 10
165.7798847033
 20
96.5455870675
 10
165.737123602
 20
96.5322601991
 10
165.6923172872
 20
96.521381004
 10
165.6458894084
 20
96.5130523524
 10
165.5982789917
 20
96.507353007
 10
165.5499362704
 20
96.5043368643
 10
165.501318381
 20
96.5040324399
 10
165.4528850171
 20
96.5064426068
 10
165.4050941269
 20
96.5115445747
 10
165.3583975987
 20
96.5192901024
 10
165.3132369863
 20
96.5296059502
 10
165.2700393137
 20
96.5423945745
  0
LWPOLYLINE
  5
450
100
AcDbEntity
  8
ASSI
100
AcDbPolyline
 62
253
  6
CONTINUOUS
 90
16
 70
0
 10
165.9227593111
 20
96.6205303368
 10
165.8919729334
 20
96.5988852362
 10
165.8576771592
 20
96.5790578299
 10
165.8201962781
 20
96.5612355991
 10
165.7798847033
 20
96.5455870675
 10
165.737123602
 20
96.5322601991
 10
165.6923172872
 20
96.521381004
 10
165.6458894084
 20
96.5130523524
 10
165.5982789917
 20
96.507353007
 10
165.5499362704
 20
96.5043368643
 10
165.501318381
 20
96.5040324399
 10
165.4528850171
 20
96.5064426068
 10
165.4050941269
 20
96.5115445747
 10
165.3583975987
 20
96.5192901024
 10
165.3132369863
 20
96.5296059502
 10
165.2700393137
 20
96.5423945745
  0
LWPOLYLINE
  5
451
100
AcDbEntity
  8
ASSI
100
AcDbPolyline
 62
253
  6
CONTINUOUS
 90
10
 70
0
 10
149.1094468826
 20
122.7904329311
 10
149.0659859918
 20
122.8047381789
 10
149.0231646671
 20
122.8145478724
 10
148.9814512578
 20
122.8197547363
 10
148.9413019807
 20
122.8203018384
 10
148.9031559677
 20
122.8161832104
 10
148.8674304562
 20
122.8074439267
 10
148.834516174
 20
122.794179604
 10
148.8047730843
 20
122.7765353446
 10
148.7816113656
 20
122.7576594351
  0
LWPOLYLINE
  5
452
100
AcDbEntity
  8
0
100
AcDbPolyline
 62
253
  6
CONTINUOUS
 90
10
 70
0
 10
149.1094468826
 20
122.7904329311
 10
149.0659859918
 20
122.8047381789
 10
149.0231646671
 20
122.8145478724
 10
148.9814512578
 20
122.8197547363
 10
148.9413019807
 20
122.8203018384
 10
148.9031559677
 20
122.8161832104
 10
148.8674304562
 20
122.8074439267
 10
148.834516174
 20
122.794179604
 10
148.8047730843
 20
122.7765353446
 10
148.7816113656
 20
122.7576594351
  0
LWPOLYLINE
  5
453
100
AcDbEntity
  8
ASSI
100
AcDbPolyline
 62
253
  6
CONTINUOUS
 90
10
 70
0
 10
130.9242714993
 20
130.0940093402
 10
130.8808106086
 20
130.108314588
 10
130.8379892839
 20
130.1181242814
 10
130.7962758746
 20
130.1233311454
 10
130.7561265975
 20
130.1238782475
 10
130.7179805845
 20
130.1197596194
 10
130.682255073
 20
130.1110203358
 10
130.6493407908
 20
130.0977560131
 10
130.6195977011
 20
130.0801117537
 10
130.5964359824
 20
130.0612358442
  0
LWPOLYLINE
  5
454
100
AcDbEntity
  8
0
100
AcDbPolyline
 62
253
  6
CONTINUOUS
 90
10
 70
0
 10
130.9242714993
 20
130.0940093402
 10
130.8808106086
 20
130.108314588
 10
130.8379892839
 20
130.1181242814
 10
130.7962758746
 20
130.1233311454
 10
130.7561265975
 20
130.1238782475
 10
130.7179805845
 20
130.1197596194
 10
130.682255073
 20
130.1110203358
 10
130.6493407908
 20
130.0977560131
 10
130.6195977011
 20
130.0801117537
 10
130.5964359824
 20
130.0612358442
  0
LWPOLYLINE
  5
455
100
AcDbEntity
  8
ASSI
100
AcDbPolyline
 62
253
  6
CONTINUOUS
 90
31
 70
0
 10
166.1688408774
 20
115.9389957252
 10
165.5910326387
 20
116.1382040709
 10
165.0151057112
 20
116.3388647374
 10
164.4410600949
 20
116.540977725
 10
163.8690510924
 20
116.7444875004
 10
163.2989234011
 20
116.9494495968
 10
162.7302111129
 20
117.1560306131
 10
162.1626804359
 20
117.3643140055
 10
161.596565162
 20
117.5742163178
 10
161.0321007589
 20
117.7856537808
 10
160.4693507757
 20
117.9986042532
 10
159.9082516633
 20
118.2130898763
 10
159.3488482414
 20
118.4290933053
 10
158.7910573726
 20
118.6466491943
 10
158.2349621943
 20
118.8657228892
 10
157.6808569392
 20
119.0861930827
 10
157.1290880182
 20
119.3079175865
 10
156.5793090203
 20
119.531038589
 10
156.0307749445
 20
119.7558613475
 10
155.4845370787
 20
119.9819141421
 10
154.939544135
 20
120.2096686928
 10
154.3918972487
 20
120.4408454169
 10
153.8424446985
 20
120.6749925951
 10
153.2903382057
 20
120.9125619466
 10
152.7291340693
 20
121.1566290468
 10
152.158481591
 20
121.4072265908
 10
151.5787314691
 20
121.6643218835
 10
150.984492098
 20
121.9308924148
 10
150.3739662755
 20
122.2079306815
 10
149.7489512037
 20
122.494444187
 10
149.1094468826
 20
122.7904329311
  0
LWPOLYLINE
  5
456
100
AcDbEntity
  8
0
100
AcDbPolyline
 62
253
  6
CONTINUOUS
 90
31
 70
0
 10
166.1688408774
 20
115.9389957252
 10
165.5910326387
 20
116.1382040709
 10
165.0151057112
 20
116.3388647374
 10
164.4410600949
 20
116.540977725
 10
163.8690510924
 20
116.7444875004
 10
163.2989234011
 20
116.9494495968
 10
162.7302111129
 20
117.1560306131
 10
162.1626804359
 20
117.3643140055
 10
161.596565162
 20
117.5742163178
 10
161.0321007589
 20
117.7856537808
 10
160.4693507757
 20
117.9986042532
 10
159.9082516633
 20
118.2130898763
 10
159.3488482414
 20
118.4290933053
 10
158.7910573726
 20
118.6466491943
 10
158.2349621943
 20
118.8657228892
 10
157.6808569392
 20
119.0861930827
 10
157.1290880182
 20
119.3079175865
 10
156.5793090203
 20
119.531038589
 10
156.0307749445
 20
119.7558613475
 10
155.4845370787
 20
119.9819141421
 10
154.939544135
 20
120.2096686928
 10
154.3918972487
 20
120.4408454169
 10
153.8424446985
 20
120.6749925951
 10
153.2903382057
 20
120.9125619466
 10
152.7291340693
 20
121.1566290468
 10
152.158481591
 20
121.4072265908
 10
151.5787314691
 20
121.6643218835
 10
150.984492098
 20
121.9308924148
 10
150.3739662755
 20
122.2079306815
 10
149.7489512037
 20
122.494444187
 10
149.1094468826
 20
122.7904329311
  0
LWPOLYLINE
  5
457
100
AcDbEntity
  8
ASSI
100
AcDbPolyline
 62
253
  6
CONTINUOUS
 90
31
 70
0
 10
147.9836654942
 20
123.2425721343
 10
147.4058572555
 20
123.44178048
 10
146.829930328
 20
123.6424411465
 10
146.2558847117
 20
123.844554134
 10
145.6838757092
 20
124.0480639095
 10
145.1137480179
 20
124.2530260059
 10
144.5450357296
 20
124.4596070222
 10
143.9775050527
 20
124.6678904146
 10
143.4113897788
 20
124.8777927269
 10
142.8469253757
 20
125.0892301899
 10
142.2841753925
 20
125.3021806623
 10
141.7230762801
 20
125.5166662854
 10
141.1636728582
 20
125.7326697144
 10
140.6058819894
 20
125.9502256034
 10
140.0497868111
 20
126.1692992983
 10
139.495681556
 20
126.3897694918
 10
138.943912635
 20
126.6114939956
 10
138.3941336371
 20
126.834614998
 10
137.8455995613
 20
127.0594377566
 10
137.2993616955
 20
127.2854905512
 10
136.7543687518
 20
127.5132451019
 10
136.2067218655
 20
127.744421826
 10
135.6572693153
 20
127.9785690042
 10
135.1051628224
 20
128.2161383557
 10
134.543958686
 20
128.4602054559
 10
133.9733062078
 20
128.7108029999
 10
133.3935560859
 20
128.9678982925
 10
132.7993167148
 20
129.2344688239
 10
132.1887908923
 20
129.5115070906
 10
131.5637758205
 20
129.7980205961
 10
130.9242714994
 20
130.0940093402
  0
LWPOLYLINE
  5
458
100
AcDbEntity
  8
0
100
AcDbPolyline
 62
253
  6
CONTINUOUS
 90
31
 70
0
 10
147.9836654942
 20
123.2425721343
 10
147.4058572555
 20
123.44178048
 10
146.829930328
 20
123.6424411465
 10
146.2558847117
 20
123.844554134
 10
145.6838757092
 20
124.0480639095
 10
145.1137480179
 20
124.2530260059
 10
144.5450357296
 20
124.4596070222
 10
143.9775050527
 20
124.6678904146
 10
143.4113897788
 20
124.8777927269
 10
142.8469253757
 20
125.0892301899
 10
142.2841753925
 20
125.3021806623
 10
141.7230762801
 20
125.5166662854
 10
141.1636728582
 20
125.7326697144
 10
140.6058819894
 20
125.9502256034
 10
140.0497868111
 20
126.1692992983
 10
139.495681556
 20
126.3897694918
 10
138.943912635
 20
126.6114939956
 10
138.3941336371
 20
126.834614998
 10
137.8455995613
 20
127.0594377566
 10
137.2993616955
 20
127.2854905512
 10
136.7543687518
 20
127.5132451019
 10
136.2067218655
 20
127.744421826
 10
135.6572693153
 20
127.9785690042
 10
135.1051628224
 20
128.2161383557
 10
134.543958686
 20
128.4602054559
 10
133.9733062078
 20
128.7108029999
 10
133.3935560859
 20
128.9678982925
 10
132.7993167148
 20
129.2344688239
 10
132.1887908923
 20
129.5115070906
 10
131.5637758205
 20
129.7980205961
 10
130.9242714994
 20
130.0940093402
  0
LINE
  5
459
100
AcDbEntity
  8
ASSI
100
AcDbLine
 62
7
  6
CONTINUOUS
 10
164.6485136793
 20
117.8999309623
 11
161.8887413812
 21
119.0083177349
  0
LINE
  5
45A
100
AcDbEntity
  8
0
100
AcDbLine
 62
7
  6
CONTINUOUS
 10
164.6485136793
 20
117.8999309623
 11
161.8887413812
 21
119.0083177349
  0
LINE
  5
45B
100
AcDbEntity
  8
ASSI
100
AcDbLine
 62
7
  6
CONTINUOUS
 10
155.4740107833
 20
121.5846181597
 11
152.7142384852
 21
122.6930049323
  0
LINE
  5
45C
100
AcDbEntity
  8
0
100
AcDbLine
 62
7
  6
CONTINUOUS
 10
155.4740107833
 20
121.5846181597
 11
152.7142384852
 21
122.6930049323
  0
LINE
  5
45D
100
AcDbEntity
  8
ASSI
100
AcDbLine
 62
7
  6
CONTINUOUS
 10
146.4633382961
 20
125.2035073714
 11
143.703565998
 21
126.311894144
  0
LINE
  5
45E
100
AcDbEntity
  8
0
100
AcDbLine
 62
7
  6
CONTINUOUS
 10
146.4633382961
 20
125.2035073714
 11
143.703565998
 21
126.311894144
  0
LINE
  5
45F
100
AcDbEntity
  8
ASSI
100
AcDbLine
 62
7
  6
CONTINUOUS
 10
137.2888354001
 20
128.8881945688
 11
134.529063102
 21
129.9965813413
  0
LINE
  5
460
100
AcDbEntity
  8
0
100
AcDbLine
 62
7
  6
CONTINUOUS
 10
137.2888354001
 20
128.8881945688
 11
134.529063102
 21
129.9965813413
  0
LINE
  5
461
100
AcDbEntity
  8
ASSI
100
AcDbLine
 62
7
  6
CONTINUOUS
 10
167.6711151261
 20
117.2118606611
 11
165.483657536
 21
118.0903929444
  0
LINE
  5
462
100
AcDbEntity
  8
0
100
AcDbLine
 62
7
  6
CONTINUOUS
 10
167.6711151261
 20
117.2118606611
 11
165.483657536
 21
118.0903929444
  0
LINE
  5
463
100
AcDbEntity
  8
ASSI
100
AcDbLine
 62
7
  6
CONTINUOUS
 10
161.8653699844
 20
119.5435787975
 11
156.3091546399
 21
121.7750801418
  0
LINE
  5
464
100
AcDbEntity
  8
0
100
AcDbLine
 62
7
  6
CONTINUOUS
 10
161.8653699844
 20
119.5435787975
 11
156.3091546399
 21
121.7750801418
  0
LINE
  5
465
100
AcDbEntity
  8
ASSI
100
AcDbLine
 62
7
  6
CONTINUOUS
 10
152.6908670883
 20
123.2282659949
 11
150.5034094982
 21
124.1067982781
  0
LINE
  5
466
100
AcDbEntity
  8
0
100
AcDbLine
 62
7
  6
CONTINUOUS
 10
152.6908670883
 20
123.2282659949
 11
150.5034094982
 21
124.1067982781
  0
LINE
  5
467
100
AcDbEntity
  8
ASSI
100
AcDbLine
 62
7
  6
CONTINUOUS
 10
149.4859397429
 20
124.5154370702
 11
147.2984821528
 21
125.3939693535
  0
LINE
  5
468
100
AcDbEntity
  8
0
100
AcDbLine
 62
7
  6
CONTINUOUS
 10
149.4859397429
 20
124.5154370702
 11
147.2984821528
 21
125.3939693535
  0
LINE
  5
469
100
AcDbEntity
  8
ASSI
100
AcDbLine
 62
7
  6
CONTINUOUS
 10
143.6801946012
 20
126.8471552066
 11
138.1239792567
 21
129.0786565508
  0
LINE
  5
46A
100
AcDbEntity
  8
0
100
AcDbLine
 62
7
  6
CONTINUOUS
 10
143.6801946012
 20
126.8471552066
 11
138.1239792567
 21
129.0786565508
  0
LINE
  5
46B
100
AcDbEntity
  8
ASSI
100
AcDbLine
 62
7
  6
CONTINUOUS
 10
134.5056917051
 20
130.5318424039
 11
132.318234115
 21
131.4103746872
  0
LINE
  5
46C
100
AcDbEntity
  8
0
100
AcDbLine
 62
7
  6
CONTINUOUS
 10
134.5056917051
 20
130.5318424039
 11
132.318234115
 21
131.4103746872
  0
LWPOLYLINE
  5
46D
100
AcDbEntity
  8
ASSI
100
AcDbPolyline
 62
253
  6
CONTINUOUS
 90
16
 70
0
 10
147.9836654942
 20
123.2425721343
 10
148.025726214
 20
123.2225300452
 10
148.0674910694
 20
123.1983681854
 10
148.1085032728
 20
123.170350816
 10
148.1483142686
 20
123.1387843666
 10
148.1864886392
 20
123.1040140833
 10
148.2226088669
 20
123.0664202532
 10
148.2562799004
 20
123.0264140446
 10
148.2871334753
 20
122.9844330105
 10
148.3148321424
 20
122.9409363026
 10
148.3390729578
 20
122.8963996497
 10
148.3595907968
 20
122.8513101548
 10
148.3761612532
 20
122.8061609673
 10
148.388603094
 20
122.7614458893
 10
148.3967802411
 20
122.7176539752
 10
148.4006032601
 20
122.6752641827
  0
LWPOLYLINE
  5
46E
100
AcDbEntity
  8
0
100
AcDbPolyline
 62
253
  6
CONTINUOUS
 90
16
 70
0
 10
147.9836654942
 20
123.2425721343
 10
148.025726214
 20
123.2225300452
 10
148.0674910694
 20
123.1983681854
 10
148.1085032728
 20
123.170350816
 10
148.1483142686
 20
123.1387843666
 10
148.1864886392
 20
123.1040140833
 10
148.2226088669
 20
123.0664202532
 10
148.2562799004
 20
123.0264140446
 10
148.2871334753
 20
122.9844330105
 10
148.3148321424
 20
122.9409363026
 10
148.3390729578
 20
122.8963996497
 10
148.3595907968
 20
122.8513101548
 10
148.3761612532
 20
122.8061609673
 10
148.388603094
 20
122.7614458893
 10
148.3967802411
 20
122.7176539752
 10
148.4006032601
 20
122.6752641827
  0
LWPOLYLINE
  5
46F
100
AcDbEntity
  8
ASSI
100
AcDbPolyline
 62
253
  6
CONTINUOUS
 90
16
 70
0
 10
166.1688408774
 20
115.9389957252
 10
166.2109015973
 20
115.9189536361
 10
166.2526664526
 20
115.8947917763
 10
166.293678656
 20
115.866774407
 10
166.3334896518
 20
115.8352079575
 10
166.3716640224
 20
115.8004376742
 10
166.4077842501
 20
115.7628438441
 10
166.4414552836
 20
115.7228376355
 10
166.4723088585
 20
115.6808566014
 10
166.5000075256
 20
115.6373598935
 10
166.524248341
 20
115.5928232406
 10
166.54476618
 20
115.5477337457
 10
166.5613366365
 20
115.5025845582
 10
166.5737784772
 20
115.4578694802
 10
166.5819556243
 20
115.4140775661
 10
166.5857786433
 20
115.3716877736
  0
LWPOLYLINE
  5
470
100
AcDbEntity
  8
0
100
AcDbPolyline
 62
253
  6
CONTINUOUS
 90
16
 70
0
 10
166.1688408774
 20
115.9389957252
 10
166.2109015973
 20
115.9189536361
 10
166.2526664526
 20
115.8947917763
 10
166.293678656
 20
115.866774407
 10
166.3334896518
 20
115.8352079575
 10
166.3716640224
 20
115.8004376742
 10
166.4077842501
 20
115.7628438441
 10
166.4414552836
 20
115.7228376355
 10
166.4723088585
 20
115.6808566014
 10
166.5000075256
 20
115.6373598935
 10
166.524248341
 20
115.5928232406
 10
166.54476618
 20
115.5477337457
 10
166.5613366365
 20
115.5025845582
 10
166.5737784772
 20
115.4578694802
 10
166.5819556243
 20
115.4140775661
 10
166.5857786433
 20
115.3716877736
  0
LINE
  5
471
100
AcDbEntity
  8
ASSI
100
AcDbLine
 62
7
  6
CONTINUOUS
 10
168.1061804944
 20
116.6599120818
 11
168.5517449613
 21
109.9941777551
  0
LINE
  5
472
100
AcDbEntity
  8
0
100
AcDbLine
 62
7
  6
CONTINUOUS
 10
168.1061804944
 20
116.6599120818
 11
168.5517449613
 21
109.9941777551
  0
LINE
  5
473
100
AcDbEntity
  8
ASSI
100
AcDbLine
 62
7
  6
CONTINUOUS
 10
168.5517449613
 20
109.9941777551
 11
168.5517449613
 21
99.8366144373
  0
LINE
  5
474
100
AcDbEntity
  8
0
100
AcDbLine
 62
7
  6
CONTINUOUS
 10
168.5517449613
 20
109.9941777551
 11
168.5517449613
 21
99.8366144373
  0
LINE
  5
475
100
AcDbEntity
  8
0
100
AcDbLine
 62
7
  6
CONTINUOUS
 10
168.5517449613
 20
88.5323941948
 11
168.5517449613
 21
98.6899575126
  0
LINE
  5
476
100
AcDbEntity
  8
ASSI
100
AcDbLine
 62
7
  6
CONTINUOUS
 10
168.5517449613
 20
88.5323941948
 11
168.5517449613
 21
98.6899575126
  0
LINE
  5
477
100
AcDbEntity
  8
0
100
AcDbLine
 62
7
  6
CONTINUOUS
 10
168.1061804944
 20
81.1759065631
 11
168.5517449613
 21
88.5323941948
  0
LINE
  5
478
100
AcDbEntity
  8
ASSI
100
AcDbLine
 62
7
  6
CONTINUOUS
 10
168.1061804944
 20
81.1759065631
 11
168.5517449613
 21
88.5323941948
  0
LWPOLYLINE
  5
479
100
AcDbEntity
  8
0
100
AcDbPolyline
 62
253
  6
CONTINUOUS
 90
7
 70
0
 10
158.9965713836
 20
88.4404446699
 10
158.9898421593
 20
88.4337457284
 10
158.9830668981
 20
88.4270839456
 10
158.9762453735
 20
88.4204593649
 10
158.9693773592
 20
88.4138720292
 10
158.9624626289
 20
88.4073219818
 10
158.9555009561
 20
88.4008092657
  0
LINE
  5
47A
100
AcDbEntity
  8
0
100
AcDbLine
 62
253
  6
CONTINUOUS
 10
158.9555009561
 20
88.4008092657
 11
158.9459486233
 21
88.3920039911
  0
LWPOLYLINE
  5
47B
100
AcDbEntity
  8
0
100
AcDbPolyline
 62
253
  6
CONTINUOUS
 90
8
 70
0
 10
158.9459486233
 20
88.3920039911
 10
158.9392414005
 20
88.3859102102
 10
158.9324912815
 20
88.3798501356
 10
158.9256980729
 20
88.3738238041
 10
158.9188615819
 20
88.3678312523
 10
158.9119816152
 20
88.3618725172
 10
158.9050579797
 20
88.3559476356
 10
158.8980904825
 20
88.3500566441
  0
LWPOLYLINE
  5
47C
100
AcDbEntity
  8
0
100
AcDbPolyline
 62
253
  6
CONTINUOUS
 90
41
 70
0
 10
158.8980904825
 20
88.3500566441
 10
158.871994517
 20
88.3286101778
 10
158.8452888447
 20
88.3076276268
 10
158.8060626548
 20
88.2784660927
 10
158.7655540601
 20
88.2502912169
 10
158.7237447622
 20
88.2231391171
 10
158.6806164628
 20
88.1970459109
 10
158.6361508634
 20
88.172047716
 10
158.5903296657
 20
88.1481806499
 10
158.5431345713
 20
88.1254808302
 10
158.4945426439
 20
88.1039871626
 10
158.4445123951
 20
88.0837497037
 10
158.3929976987
 20
88.0648212984
 10
158.3399524282
 20
88.0472547914
 10
158.2853304573
 20
88.0311030273
 10
158.2290856597
 20
88.0164188509
 10
158.1711719091
 20
88.0032551069
 10
158.1190991453
 20
87.9930289408
 10
158.0657249276
 20
87.9840627399
 10
158.0110609098
 20
87.9764119292
 10
157.9551187456
 20
87.9701319337
 10
157.8979100888
 20
87.9652781783
 10
157.8394465932
 20
87.9619060881
 10
157.7797399125
 20
87.9600710879
 10
157.7188017004
 20
87.9598286028
 10
157.6566595691
 20
87.9612308152
 10
157.5934049636
 20
87.964316937
 10
157.5291452872
 20
87.9691229379
 10
157.4639879435
 20
87.9756847872
 10
157.3980613861
 20
87.984024127
 10
157.3315782707
 20
87.9941052885
 10
157.2647723035
 20
88.0058782756
 10
157.1978771904
 20
88.0192930921
 10
157.1310645567
 20
88.0343124468
 10
157.0642577035
 20
88.050949869
 10
156.9973178512
 20
88.0692315932
 10
156.9301062201
 20
88.0891838537
 10
156.862535632
 20
88.1108199659
 10
156.794725316
 20
88.1341015692
 10
156.7268461024
 20
88.1589773839
 10
156.6590688219
 20
88.1853961304
  0
LWPOLYLINE
  5
47D
100
AcDbEntity
  8
0
100
AcDbPolyline
 62
253
  6
CONTINUOUS
 90
8
 70
0
 10
166.4714033655
 20
79.8686187495
 10
166.5000090561
 20
79.8922801878
 10
166.5242495649
 20
79.9195154676
 10
166.5447670678
 20
79.9506676822
 10
166.5613371981
 20
79.9853961015
 10
166.5737787577
 20
80.0233208839
 10
166.5819557017
 20
80.0640272273
 10
166.5857786293
 20
80.107069916
  0
LWPOLYLINE
  5
47E
100
AcDbEntity
  8
ASSI
100
AcDbPolyline
 62
253
  6
CONTINUOUS
 90
8
 70
0
 10
166.4714033655
 20
79.8686187495
 10
166.5000090561
 20
79.8922801878
 10
166.5242495649
 20
79.9195154676
 10
166.5447670678
 20
79.9506676822
 10
166.5613371981
 20
79.9853961015
 10
166.5737787577
 20
80.0233208839
 10
166.5819557017
 20
80.0640272273
 10
166.5857786293
 20
80.107069916
  0
LINE
  5
47F
100
AcDbEntity
  8
0
100
AcDbLine
 62
253
  6
CONTINUOUS
 10
168.1061804944
 20
81.1759065631
 11
166.5857786293
 21
80.107069916
  0
LINE
  5
480
100
AcDbEntity
  8
ASSI
100
AcDbLine
 62
253
  6
CONTINUOUS
 10
168.1061804944
 20
81.1759065631
 11
166.5857786293
 21
80.107069916
  0
LINE
  5
481
100
AcDbEntity
  8
0
100
AcDbLine
 62
7
  6
CONTINUOUS
 10
167.9828493234
 20
80.9311594284
 11
166.471403294
 21
79.8686186992
  0
LINE
  5
482
100
AcDbEntity
  8
ASSI
100
AcDbLine
 62
7
  6
CONTINUOUS
 10
167.9828493234
 20
80.9311594284
 11
166.471403294
 21
79.8686186992
  0
LWPOLYLINE
  5
483
100
AcDbEntity
  8
0
100
AcDbPolyline
 62
253
  6
CONTINUOUS
 90
22
 70
0
 10
166.5857786293
 20
80.107069916
 10
166.556380205
 20
80.0878472686
 10
166.5274772379
 20
80.0717456724
 10
166.4990697281
 20
80.0587651276
 10
166.4710088482
 20
80.0488631035
 10
166.4434434255
 20
80.0420821306
 10
166.4168199427
 20
80.0385498007
 10
166.3911653651
 20
80.0383236703
 10
166.3664527274
 20
80.0413461829
 10
166.3430476161
 20
80.0475722611
 10
166.3209694763
 20
80.0570510933
 10
166.300198863
 20
80.069733491
 10
166.2810430269
 20
80.0854268112
 10
166.2635277352
 20
80.1041753376
 10
166.2476272207
 20
80.1259347866
 10
166.2335714331
 20
80.1503796634
 10
166.2213867476
 20
80.1775663125
 10
166.211046789
 20
80.2074383895
 10
166.2027023808
 20
80.2395013667
 10
166.1964037976
 20
80.2735904012
 10
166.1921007649
 20
80.3098703359
 10
166.1897932825
 20
80.3483411706
  0
LWPOLYLINE
  5
484
100
AcDbEntity
  8
ASSI
100
AcDbPolyline
 62
253
  6
CONTINUOUS
 90
22
 70
0
 10
166.5857786293
 20
80.107069916
 10
166.556380205
 20
80.0878472686
 10
166.5274772379
 20
80.0717456724
 10
166.4990697281
 20
80.0587651276
 10
166.4710088482
 20
80.0488631035
 10
166.4434434255
 20
80.0420821306
 10
166.4168199427
 20
80.0385498007
 10
166.3911653651
 20
80.0383236703
 10
166.3664527274
 20
80.0413461829
 10
166.3430476161
 20
80.0475722611
 10
166.3209694763
 20
80.0570510933
 10
166.300198863
 20
80.069733491
 10
166.2810430269
 20
80.0854268112
 10
166.2635277352
 20
80.1041753376
 10
166.2476272207
 20
80.1259347866
 10
166.2335714331
 20
80.1503796634
 10
166.2213867476
 20
80.1775663125
 10
166.211046789
 20
80.2074383895
 10
166.2027023808
 20
80.2395013667
 10
166.1964037976
 20
80.2735904012
 10
166.1921007649
 20
80.3098703359
 10
166.1897932825
 20
80.3483411706
  0
ELLIPSE
  5
485
100
AcDbEntity
  8
0
100
AcDbEllipse
 62
7
  6
CONTINUOUS
 10
167.6964996183
 20
81.3410447908
 30
0.0
 11
-0.2850203122
 21
0.4108138748
 31
0.0
 40
0.7191175512
 41
-3.136779368
 42
-2.401520857
  0
ELLIPSE
  5
486
100
AcDbEntity
  8
0
100
AcDbEllipse
 62
7
  6
CONTINUOUS
 10
168.1420285396
 20
98.8544152998
 30
0.0
 11
0.3170403205
 21
-0.3867036085
 31
0.0
 40
0.6711200097
 41
0.6859711218
 42
2.2565390145
  0
ELLIPSE
  5
487
100
AcDbEntity
  8
ASSI
100
AcDbEllipse
 62
7
  6
CONTINUOUS
 10
167.6964996183
 20
81.3410447908
 30
0.0
 11
-0.2850203122
 21
0.4108138748
 31
0.0
 40
0.7191175512
 41
-3.136779368
 42
-2.401520857
  0
ELLIPSE
  5
488
100
AcDbEntity
  8
ASSI
100
AcDbEllipse
 62
7
  6
CONTINUOUS
 10
168.1420285396
 20
98.8544152998
 30
0.0
 11
0.3170403205
 21
-0.3867036085
 31
0.0
 40
0.6711200097
 41
0.6859711218
 42
2.2565390145
  0
ELLIPSE
  5
489
100
AcDbEntity
  8
ASSI
100
AcDbEllipse
 62
7
  6
CONTINUOUS
 10
149.5113242351
 20
124.1275080728
 30
0.0
 11
-0.3433580121
 21
0.3640648834
 31
0.0
 40
0.6179721343
 41
-2.4982952834
 42
-0.9288689526
  0
ELLIPSE
  5
48A
100
AcDbEntity
  8
ASSI
100
AcDbEllipse
 62
7
  6
CONTINUOUS
 10
134.6437783892
 20
130.0991365913
 30
0.0
 11
0.1999434854
 21
0.0078174272
 31
0.0
 40
0.6081570881
 41
3.1201007963
 42
4.077750384
  0
ELLIPSE
  5
48B
100
AcDbEntity
  8
ASSI
100
AcDbEllipse
 62
7
  6
CONTINUOUS
 10
137.4035506874
 20
128.9907498188
 30
0.0
 11
0.1999434854
 21
0.0078174272
 31
0.0
 40
0.6081570881
 41
-2.2054349231
 42
-1.1582373719
  0
ELLIPSE
  5
48C
100
AcDbEntity
  8
ASSI
100
AcDbEllipse
 62
7
  6
CONTINUOUS
 10
146.5780535834
 20
125.3060626214
 30
0.0
 11
0.1999434854
 21
0.0078174272
 31
0.0
 40
0.6081570881
 41
-2.2054349231
 42
-1.1582373719
  0
ELLIPSE
  5
48D
100
AcDbEntity
  8
ASSI
100
AcDbEllipse
 62
7
  6
CONTINUOUS
 10
143.8182812853
 20
126.4144493939
 30
0.0
 11
0.1999434854
 21
0.0078174272
 31
0.0
 40
0.6081570881
 41
3.1201007963
 42
4.077750384
  0
ELLIPSE
  5
48E
100
AcDbEntity
  8
ASSI
100
AcDbEllipse
 62
7
  6
CONTINUOUS
 10
132.3428705745
 20
131.0227461166
 30
0.0
 11
-0.3432468395
 21
0.3635678883
 31
0.0
 40
0.6190547263
 41
-0.930363261
 42
0.000238127
  0
ELLIPSE
  5
48F
100
AcDbEntity
  8
0
100
AcDbEllipse
 62
7
  6
CONTINUOUS
 10
149.5113242351
 20
124.1275080728
 30
0.0
 11
-0.3433580121
 21
0.3640648834
 31
0.0
 40
0.6179721343
 41
-2.4982952834
 42
-0.9288689526
  0
ELLIPSE
  5
490
100
AcDbEntity
  8
0
100
AcDbEllipse
 62
7
  6
CONTINUOUS
 10
134.6437783892
 20
130.0991365913
 30
0.0
 11
0.1999434854
 21
0.0078174272
 31
0.0
 40
0.6081570881
 41
3.1201007963
 42
4.077750384
  0
ELLIPSE
  5
491
100
AcDbEntity
  8
0
100
AcDbEllipse
 62
7
  6
CONTINUOUS
 10
137.4035506874
 20
128.9907498188
 30
0.0
 11
0.1999434854
 21
0.0078174272
 31
0.0
 40
0.6081570881
 41
-2.2054349231
 42
-1.1582373719
  0
ELLIPSE
  5
492
100
AcDbEntity
  8
0
100
AcDbEllipse
 62
7
  6
CONTINUOUS
 10
146.5780535834
 20
125.3060626214
 30
0.0
 11
0.1999434854
 21
0.0078174272
 31
0.0
 40
0.6081570881
 41
-2.2054349231
 42
-1.1582373719
  0
ELLIPSE
  5
493
100
AcDbEntity
  8
0
100
AcDbEllipse
 62
7
  6
CONTINUOUS
 10
143.8182812853
 20
126.4144493939
 30
0.0
 11
0.1999434854
 21
0.0078174272
 31
0.0
 40
0.6081570881
 41
3.1201007963
 42
4.077750384
  0
ELLIPSE
  5
494
100
AcDbEntity
  8
0
100
AcDbEllipse
 62
7
  6
CONTINUOUS
 10
132.3428705745
 20
131.0227461166
 30
0.0
 11
-0.3432468395
 21
0.3635678883
 31
0.0
 40
0.6190547263
 41
-0.930363261
 42
0.000238127
  0
ELLIPSE
  5
495
100
AcDbEntity
  8
ASSI
100
AcDbEllipse
 62
7
  6
CONTINUOUS
 10
167.6964996183
 20
116.8239316637
 30
0.0
 11
-0.3433580121
 21
0.3640648834
 31
0.0
 40
0.6179721343
 41
-2.4982952834
 42
-0.9288689526
  0
ELLIPSE
  5
496
100
AcDbEntity
  8
ASSI
100
AcDbEllipse
 62
7
  6
CONTINUOUS
 10
168.1420285396
 20
100.0012593538
 30
0.0
 11
-0.3170686951
 21
0.3868251561
 31
0.0
 40
0.6708195125
 41
-3.1644370718
 42
-2.4557308722
  0
ELLIPSE
  5
497
100
AcDbEntity
  8
ASSI
100
AcDbEllipse
 62
7
  6
CONTINUOUS
 10
152.8289537724
 20
122.7955601822
 30
0.0
 11
0.1999434854
 21
0.0078174272
 31
0.0
 40
0.6081570881
 41
3.1201007963
 42
4.077750384
  0
ELLIPSE
  5
498
100
AcDbEntity
  8
ASSI
100
AcDbEllipse
 62
7
  6
CONTINUOUS
 10
155.5887260706
 20
121.6871734097
 30
0.0
 11
0.1999434854
 21
0.0078174272
 31
0.0
 40
0.6081570881
 41
-2.2054349231
 42
-1.1582373719
  0
ELLIPSE
  5
499
100
AcDbEntity
  8
ASSI
100
AcDbEllipse
 62
7
  6
CONTINUOUS
 10
164.7632289666
 20
118.0024862123
 30
0.0
 11
0.1999434854
 21
0.0078174272
 31
0.0
 40
0.6081570881
 41
-2.2054349231
 42
-1.1582373719
  0
ELLIPSE
  5
49A
100
AcDbEntity
  8
ASSI
100
AcDbEllipse
 62
7
  6
CONTINUOUS
 10
162.0034566685
 20
119.1108729849
 30
0.0
 11
0.1999434854
 21
0.0078174272
 31
0.0
 40
0.6081570881
 41
3.1201007963
 42
4.077750384
  0
ELLIPSE
  5
49B
100
AcDbEntity
  8
ASSI
100
AcDbEllipse
 62
7
  6
CONTINUOUS
 10
150.5280459577
 20
123.7191697075
 30
0.0
 11
-0.3432468395
 21
0.3635678883
 31
0.0
 40
0.6190547263
 41
-0.930363261
 42
0.000238127
  0
ELLIPSE
  5
49C
100
AcDbEntity
  8
0
100
AcDbEllipse
 62
7
  6
CONTINUOUS
 10
167.6964996183
 20
116.8239316637
 30
0.0
 11
-0.3433580121
 21
0.3640648834
 31
0.0
 40
0.6179721343
 41
-2.4982952834
 42
-0.9288689526
  0
ELLIPSE
  5
49D
100
AcDbEntity
  8
0
100
AcDbEllipse
 62
7
  6
CONTINUOUS
 10
168.1420285396
 20
100.0012593538
 30
0.0
 11
-0.3170686951
 21
0.3868251561
 31
0.0
 40
0.6708195125
 41
-3.1644370718
 42
-2.4557308722
  0
ELLIPSE
  5
49E
100
AcDbEntity
  8
0
100
AcDbEllipse
 62
7
  6
CONTINUOUS
 10
152.8289537724
 20
122.7955601822
 30
0.0
 11
0.1999434854
 21
0.0078174272
 31
0.0
 40
0.6081570881
 41
3.1201007963
 42
4.077750384
  0
ELLIPSE
  5
49F
100
AcDbEntity
  8
0
100
AcDbEllipse
 62
7
  6
CONTINUOUS
 10
155.5887260706
 20
121.6871734097
 30
0.0
 11
0.1999434854
 21
0.0078174272
 31
0.0
 40
0.6081570881
 41
-2.2054349231
 42
-1.1582373719
  0
ELLIPSE
  5
4A0
100
AcDbEntity
  8
0
100
AcDbEllipse
 62
7
  6
CONTINUOUS
 10
164.7632289666
 20
118.0024862123
 30
0.0
 11
0.1999434854
 21
0.0078174272
 31
0.0
 40
0.6081570881
 41
-2.2054349231
 42
-1.1582373719
  0
ELLIPSE
  5
4A1
100
AcDbEntity
  8
0
100
AcDbEllipse
 62
7
  6
CONTINUOUS
 10
162.0034566685
 20
119.1108729849
 30
0.0
 11
0.1999434854
 21
0.0078174272
 31
0.0
 40
0.6081570881
 41
3.1201007963
 42
4.077750384
  0
ELLIPSE
  5
4A2
100
AcDbEntity
  8
0
100
AcDbEllipse
 62
7
  6
CONTINUOUS
 10
150.5280459577
 20
123.7191697075
 30
0.0
 11
-0.3432468395
 21
0.3635678883
 31
0.0
 40
0.6190547263
 41
-0.930363261
 42
0.000238127
  0
ENDSEC
  0
SECTION
  2
OBJECTS
  0
DICTIONARY
  5
C
100
AcDbDictionary
280
0
281
1
  3
ACAD_GROUP
350
D
  3
ACAD_MLINESTYLE
350
17
  3
ACAD_LAYOUT
350
1A
  3
ACAD_PLOTSETTINGS
350
19
  3
ACAD_PLOTSTYLENAME
350
E
  0
DICTIONARY
  5
D
102
{ACAD_REACTORS
330
C
102
}
100
AcDbDictionary
280
0
281
1
  0
ACDBDICTIONARYWDFLT
  5
E
102
{ACAD_REACTORS
330
C
102
}
100
AcDbDictionary
281
1
  3
Normal
350
F
100
AcDbDictionaryWithDefault
340
F
  0
DICTIONARY
  5
17
102
{ACAD_REACTORS
330
C
102
}
100
AcDbDictionary
280
0
281
1
  3
Standard
350
18
  0
DICTIONARY
  5
19
102
{ACAD_REACTORS
330
C
102
}
100
AcDbDictionary
281
1
  0
DICTIONARY
  5
1A
102
{ACAD_REACTORS
330
C
102
}
100
AcDbDictionary
281
1
  3
Model
350
4A3
  3
Layout1
350
4A4
  0
ACDBPLACEHOLDER
  5
F
102
{ACAD_REACTORS
330
E
102
}
  0
MLINESTYLE
  5
18
102
{ACAD_REACTORS
330
17
102
}
100
AcDbMlineStyle
  2
STANDARD
 70
0
  3

 62
256
 51
90.0
 52
90.0
 71
2
 49
0.5
 62
256
  6
BYLAYER
 49
-0.5
 62
256
  6
BYLAYER
  0
LAYOUT
  5
4A3
102
{ACAD_REACTORS
330
1A
102
}
100
AcDbPlotSettings
  1

  2
none_device
  4
ISO_A4_(297.00_x_210.00_MM)
  6

 40
0.0
 41
0.0
 42
0.0
 43
0.0
 44
297.0
 45
210.0
 46
0.0
 47
0.0
 48
0.0
 49
0.0
140
0.0
141
0.0
142
1.0
143
1.0
 70
1024
 72
1
 73
0
 74
0
  7

 75
0
147
1.0
148
0.0
149
0.0
100
AcDbLayout
  1
Model
 70
0
 71
0
 10
0.0
 20
0.0
 11
297.0
 21
210.0
 12
0.0
 22
0.0
 32
0.0
 14
0.0
 24
0.0
 34
0.0
 15
0.0
 25
0.0
 35
0.0
146
0.0
 13
0.0
 23
0.0
 33
0.0
 16
1.0
 26
0.0
 36
0.0
 17
0.0
 27
1.0
 37
0.0
 76
0
330
21F
345
0
346
0
  0
LAYOUT
  5
4A4
102
{ACAD_REACTORS
330
1A
102
}
100
AcDbPlotSettings
  1

  2
none_device
  4
ISO_A4_(297.00_x_210.00_MM)
  6

 40
0.0
 41
0.0
 42
0.0
 43
0.0
 44
297.0
 45
210.0
 46
0.0
 47
0.0
 48
0.0
 49
0.0
140
0.0
141
0.0
142
1.0
143
1.0
 70
0
 72
1
 73
0
 74
0
  7

 75
0
147
1.0
148
0.0
149
0.0
100
AcDbLayout
  1
Layout1
 70
0
 71
1
 10
0.0
 20
0.0
 11
297.0
 21
210.0
 12
0.0
 22
0.0
 32
0.0
 14
0.0
 24
0.0
 34
0.0
 15
0.0
 25
0.0
 35
0.0
146
0.0
 13
0.0
 23
0.0
 33
0.0
 16
1.0
 26
0.0
 36
0.0
 17
0.0
 27
1.0
 37
0.0
 76
0
330
220
345
0
346
0
  0
ENDSEC
  0
EOF
