  0
SECTION
  2
HEADER
  9
$ACADVER
  1
AC1021
  9
$DWGCODEPAGE
  3
ANSI_1252
  9
$EXTMAX
 10
297.0
 20
210.0
 30
0.0
  9
$EXTMIN
 10
0.0
 20
0.0
 30
0.0
  9
$LIMMIN
 10
0.0
 20
0.0
  9
$LIMMAX
 10
297.0
 20
210.0
  9
$VIEWCTR
 10
148.5
 20
105.0
  9
$VIEWSIZE
 40
210.0
  9
$CLAYER
  8
0
  9
$LTSCALE
 40
16.335
  9
$CELTYPE
  6
BYLAYER
  9
$DIMSCALE
 40
1.0
  9
$DIMASZ
 40
3.0
  9
$DIMEXO
 40
1.85625
  9
$DIMDLI
 40
11.286
  9
$DIMEXE
 40
5.346
  9
$DIMCEN
 40
2.673
  9
$DIMLFAC
 40
1.0
  9
$DIMBLK
  1
_FILLED
  9
$DIMTXT
 40
3.0
  9
$DIMTOL
 70
1
  9
$DIMLIM
 70
0
  9
$DIMTFAC
 40
1.0
  9
$DIMTP
 40
0.01
  9
$DIMTM
 40
0.01
  9
$PDMODE
 70
3
  9
$PDSIZE
 40
3.0
  9
$HANDSEED
  5
3B2
  9
$TILEMODE
 70
1
  9
$MEASUREMENT
 70
1
  9
$INSUNITS
 70
4
  0
ENDSEC
  0
SECTION
  2
CLASSES
  0
CLASS
  1
ACDBDICTIONARYWDFLT
  2
AcDbDictionaryWithDefault
  3
AutoCAD 2000
 90
0
 91
1
280
0
281
0
  0
CLASS
  1
ACDBPLACEHOLDER
  2
AcDbPlaceHolder
  3
AutoCAD 2000
 90
0
 91
1
280
0
281
0
  0
CLASS
  1
LAYOUT
  2
AcDbLayout
  3
AutoCAD 2000
 90
0
 91
0
280
0
281
0
  0
ENDSEC
  0
SECTION
  2
TABLES
  0
TABLE
  2
VPORT
  5
8
100
AcDbSymbolTable
 70
2
  0
VPORT
  5
1F4
100
AcDbSymbolTableRecord
100
AcDbViewportTableRecord
  2
*ACTIVE
 70
0
 10
0.0
 20
0.0
 11
1.0
 21
1.0
 12
148.5
 22
105.0
 13
0.0
 23
0.0
 14
1.0
 24
1.0
 15
0.0
 25
0.0
 16
0.0
 26
0.0
 36
1.0
 17
0.0
 27
0.0
 37
0.0
 40
210.0
 41
1.4142857143
 42
50.0
 43
0.0
 44
0.0
 50
0.0
 51
0.0
 71
0
 72
100
 73
1
 74
1
 75
0
 76
0
 77
0
 78
0
  0
ENDTAB
  0
TABLE
  2
LTYPE
  5
5
100
AcDbSymbolTable
 70
6
  0
LTYPE
  5
14
100
AcDbSymbolTableRecord
100
AcDbLinetypeTableRecord
  2
BYBLOCK
 70
0
  3

 72
65
 73
0
 40
0.0
  0
LTYPE
  5
15
100
AcDbSymbolTableRecord
100
AcDbLinetypeTableRecord
  2
BYLAYER
 70
0
  3

 72
65
 73
0
 40
0.0
  0
LTYPE
  5
16
100
AcDbSymbolTableRecord
100
AcDbLinetypeTableRecord
  2
CONTINUOUS
 70
64
  3
Solid line
 72
65
 73
0
 40
0.0
  0
LTYPE
  5
1F5
100
AcDbSymbolTableRecord
100
AcDbLinetypeTableRecord
  2
CENTER
 70
64
  3
____ _ ____ _ ____ _ ____ _ ____ _ ____ _ ____
 72
65
 73
4
 40
0.6
 49
0.375
 74
0
 49
-0.075
 74
0
 49
0.075
 74
0
 49
-0.075
 74
0
  0
LTYPE
  5
1F6
100
AcDbSymbolTableRecord
100
AcDbLinetypeTableRecord
  2
HIDDEN
 70
64
  3
- - - - - - - - - - - - - - - - - - - -
 72
65
 73
2
 40
0.2
 49
0.1
 74
0
 49
-0.1
 74
0
  0
LTYPE
  5
1F7
100
AcDbSymbolTableRecord
100
AcDbLinetypeTableRecord
  2
PHANTOM
 70
64
  3
_____ _ _ _____ _ _ _____ _ _ _____
 72
65
 73
6
 40
0.8
 49
0.45
 74
0
 49
-0.05
 74
0
 49
0.1
 74
0
 49
-0.05
 74
0
 49
0.1
 74
0
 49
-0.05
 74
0
  0
LTYPE
  5
1F8
100
AcDbSymbolTableRecord
100
AcDbLinetypeTableRecord
  2
DOT
 70
64
  3
. . . . . . . . . . . . . . . . . . . .
 72
65
 73
2
 40
0.2
 49
0.1
 74
0
 49
-0.1
 74
0
  0
LTYPE
  5
1F9
100
AcDbSymbolTableRecord
100
AcDbLinetypeTableRecord
  2
DASHED
 70
64
  3
- - - - - - - - - - - - - - - - - - - -
 72
65
 73
2
 40
0.2
 49
0.1
 74
0
 49
-0.1
 74
0
  0
ENDTAB
  0
TABLE
  2
LAYER
  5
2
100
AcDbSymbolTable
 70
36
  0
LAYER
  5
10
100
AcDbSymbolTableRecord
100
AcDbLayerTableRecord
  2
0
 70
0
 62
7
  6
CONTINUOUS
370
-3
390
F
  0
LAYER
  5
1FA
100
AcDbSymbolTableRecord
100
AcDbLayerTableRecord
  2
DEFAULT_1
 70
0
 62
7
  6
CENTER
370
-3
390
F
  0
LAYER
  5
1FB
100
AcDbSymbolTableRecord
100
AcDbLayerTableRecord
  2
DEFAULT_2
 70
0
 62
7
  6
HIDDEN
370
-3
390
F
  0
LAYER
  5
1FC
100
AcDbSymbolTableRecord
100
AcDbLayerTableRecord
  2
DEFAULT_3
 70
0
 62
7
  6
PHANTOM
370
-3
390
F
  0
LAYER
  5
1FD
100
AcDbSymbolTableRecord
100
AcDbLayerTableRecord
  2
ASSI
 70
0
 62
7
  6
CONTINUOUS
370
-3
390
F
  0
LAYER
  5
1FE
100
AcDbSymbolTableRecord
100
AcDbLayerTableRecord
  2
COLOR3
 70
0
 62
7
  6
CONTINUOUS
370
-3
390
F
  0
LAYER
  5
1FF
100
AcDbSymbolTableRecord
100
AcDbLayerTableRecord
  2
COORDINATE
 70
0
 62
7
  6
CONTINUOUS
370
-3
390
F
  0
LAYER
  5
200
100
AcDbSymbolTableRecord
100
AcDbLayerTableRecord
  2
COPY_PUBLISH
 70
0
 62
7
  6
CONTINUOUS
370
-3
390
F
  0
LAYER
  5
201
100
AcDbSymbolTableRecord
100
AcDbLayerTableRecord
  2
COSMETIC
 70
0
 62
7
  6
CONTINUOUS
370
-3
390
F
  0
LAYER
  5
202
100
AcDbSymbolTableRecord
100
AcDbLayerTableRecord
  2
COSMETICI
 70
0
 62
7
  6
CONTINUOUS
370
-3
390
F
  0
LAYER
  5
203
100
AcDbSymbolTableRecord
100
AcDbLayerTableRecord
  2
CURVE
 70
0
 62
7
  6
CONTINUOUS
370
-3
390
F
  0
LAYER
  5
204
100
AcDbSymbolTableRecord
100
AcDbLayerTableRecord
  2
DRAFT
 70
0
 62
7
  6
CONTINUOUS
370
-3
390
F
  0
LAYER
  5
205
100
AcDbSymbolTableRecord
100
AcDbLayerTableRecord
  2
IMPORT_IGES
 70
0
 62
7
  6
CONTINUOUS
370
-3
390
F
  0
LAYER
  5
206
100
AcDbSymbolTableRecord
100
AcDbLayerTableRecord
  2
INTFCLR_1
 70
0
 62
7
  6
CONTINUOUS
370
-3
390
F
  0
LAYER
  5
207
100
AcDbSymbolTableRecord
100
AcDbLayerTableRecord
  2
INTF_1
 70
0
 62
7
  6
CONTINUOUS
370
-3
390
F
  0
LAYER
  5
208
100
AcDbSymbolTableRecord
100
AcDbLayerTableRecord
  2
INTF_10
 70
0
 62
7
  6
CONTINUOUS
370
-3
390
F
  0
LAYER
  5
209
100
AcDbSymbolTableRecord
100
AcDbLayerTableRecord
  2
INTF_13
 70
0
 62
7
  6
CONTINUOUS
370
-3
390
F
  0
LAYER
  5
20A
100
AcDbSymbolTableRecord
100
AcDbLayerTableRecord
  2
INTF_15
 70
0
 62
7
  6
CONTINUOUS
370
-3
390
F
  0
LAYER
  5
20B
100
AcDbSymbolTableRecord
100
AcDbLayerTableRecord
  2
INTF_16
 70
0
 62
7
  6
CONTINUOUS
370
-3
390
F
  0
LAYER
  5
20C
100
AcDbSymbolTableRecord
100
AcDbLayerTableRecord
  2
INTF_18
 70
0
 62
7
  6
CONTINUOUS
370
-3
390
F
  0
LAYER
  5
20D
100
AcDbSymbolTableRecord
100
AcDbLayerTableRecord
  2
INTF_20
 70
0
 62
7
  6
CONTINUOUS
370
-3
390
F
  0
LAYER
  5
20E
100
AcDbSymbolTableRecord
100
AcDbLayerTableRecord
  2
INTF_3
 70
0
 62
7
  6
CONTINUOUS
370
-3
390
F
  0
LAYER
  5
20F
100
AcDbSymbolTableRecord
100
AcDbLayerTableRecord
  2
INTF_5
 70
0
 62
7
  6
CONTINUOUS
370
-3
390
F
  0
LAYER
  5
210
100
AcDbSymbolTableRecord
100
AcDbLayerTableRecord
  2
INTF_8
 70
0
 62
7
  6
CONTINUOUS
370
-3
390
F
  0
LAYER
  5
211
100
AcDbSymbolTableRecord
100
AcDbLayerTableRecord
  2
NOTE
 70
0
 62
7
  6
CONTINUOUS
370
-3
390
F
  0
LAYER
  5
212
100
AcDbSymbolTableRecord
100
AcDbLayerTableRecord
  2
PIANI
 70
0
 62
7
  6
CONTINUOUS
370
-3
390
F
  0
LAYER
  5
213
100
AcDbSymbolTableRecord
100
AcDbLayerTableRecord
  2
PUNTI
 70
0
 62
7
  6
CONTINUOUS
370
-3
390
F
  0
LAYER
  5
214
100
AcDbSymbolTableRecord
100
AcDbLayerTableRecord
  2
RACCORDO
 70
0
 62
7
  6
CONTINUOUS
370
-3
390
F
  0
LAYER
  5
215
100
AcDbSymbolTableRecord
100
AcDbLayerTableRecord
  2
SIMBOLI
 70
0
 62
7
  6
CONTINUOUS
370
-3
390
F
  0
LAYER
  5
216
100
AcDbSymbolTableRecord
100
AcDbLayerTableRecord
  2
SMUSSO
 70
0
 62
7
  6
CONTINUOUS
370
-3
390
F
  0
LAYER
  5
217
100
AcDbSymbolTableRecord
100
AcDbLayerTableRecord
  2
SNAPLINE
 70
0
 62
7
  6
CONTINUOUS
370
-3
390
F
  0
LAYER
  5
218
100
AcDbSymbolTableRecord
100
AcDbLayerTableRecord
  2
SOLIDO
 70
0
 62
7
  6
CONTINUOUS
370
-3
390
F
  0
LAYER
  5
219
100
AcDbSymbolTableRecord
100
AcDbLayerTableRecord
  2
SUPERFICI
 70
0
 62
7
  6
CONTINUOUS
370
-3
390
F
  0
LAYER
  5
21A
100
AcDbSymbolTableRecord
100
AcDbLayerTableRecord
  2
SUPERFICI_SKEL
 70
0
 62
7
  6
CONTINUOUS
370
-3
390
F
  0
LAYER
  5
21B
100
AcDbSymbolTableRecord
100
AcDbLayerTableRecord
  2
TRASH
 70
0
 62
7
  6
CONTINUOUS
370
-3
390
F
  0
LAYER
  5
21C
100
AcDbSymbolTableRecord
100
AcDbLayerTableRecord
  2
___SHELL
 70
0
 62
7
  6
CONTINUOUS
370
-3
390
F
  0
ENDTAB
  0
TABLE
  2
STYLE
  5
3
100
AcDbSymbolTable
 70
1
  0
STYLE
  5
11
100
AcDbSymbolTableRecord
100
AcDbTextStyleTableRecord
  2
STANDARD
 70
0
 40
0.0
 41
0.8
 50
0.0
 71
0
 42
0.2
  3
txt
  4

  0
STYLE
  5
21D
100
AcDbSymbolTableRecord
100
AcDbTextStyleTableRecord
  2
TEXTSTYLE_1
 70
0
 40
0.0
 41
0.8
 50
0.0
 71
0
 42
0.2
  3
gdt
  4

  0
ENDTAB
  0
TABLE
  2
VIEW
  5
6
100
AcDbSymbolTable
 70
0
  0
ENDTAB
  0
TABLE
  2
UCS
  5
7
100
AcDbSymbolTable
 70
0
  0
ENDTAB
  0
TABLE
  2
APPID
  5
9
100
AcDbSymbolTable
 70
1
  0
APPID
  5
21E
100
AcDbSymbolTableRecord
100
AcDbRegAppTableRecord
  2
ACAD
 70
0
  0
ENDTAB
  0
TABLE
  2
BLOCK_RECORD
  5
1
100
AcDbSymbolTable
 70
0
  0
BLOCK_RECORD
  5
21F
100
AcDbSymbolTableRecord
100
AcDbBlockTableRecord
  2
*Model_Space
  0
BLOCK_RECORD
  5
220
100
AcDbSymbolTableRecord
100
AcDbBlockTableRecord
  2
*Paper_Space
  0
ENDTAB
  0
TABLE
  2
DIMSTYLE
  5
A
100
AcDbSymbolTable
 70
1
100
AcDbDimStyleTable
 71
0
  0
DIMSTYLE
105
221
100
AcDbSymbolTableRecord
100
AcDbDimStyleTableRecord
  2
STANDARD
 70
0
  3

  4

 40
1.0
 41
3.0
 42
0.0625
 43
0.38
 44
0.18
 45
0.0
 46
0.0
 47
0.01
 48
0.01
140
3.0
141
0.09
142
0.0
143
25.4
144
1.0
145
0.0
146
1.0
147
0.09
 71
1.0
 72
0.0
 73
0
 74
0
 75
0
 76
0
 77
1
 78
8
170
0
171
2
172
0
173
0
174
0
175
0
176
0
177
0
178
0
270
2
271
2
272
2
273
2
274
2
275
0
280
0
281
0
282
0
283
1
284
8
285
0
286
0
287
3
288
0
340
11
  0
ENDTAB
  0
ENDSEC
  0
SECTION
  2
BLOCKS
  0
BLOCK
  5
20
100
AcDbEntity
  8
0
100
AcDbBlockBegin
  2
*Model_Space
 70
0
 10
0.0
 20
0.0
 30
0.0
  3
*Model_Space
  1

  0
ENDBLK
  5
21
100
AcDbEntity
  8
0
100
AcDbBlockEnd
  0
BLOCK
  5
1C
100
AcDbEntity
  8
0
100
AcDbBlockBegin
  2
*Paper_Space
 70
0
 10
0.0
 20
0.0
 30
0.0
  3
*Paper_Space
  1

  0
ENDBLK
  5
1D
100
AcDbEntity
  8
0
100
AcDbBlockEnd
  0
ENDSEC
  0
SECTION
  2
ENTITIES
  0
LWPOLYLINE
  5
222
100
AcDbEntity
  8
0
100
AcDbPolyline
 62
7
  6
CONTINUOUS
 90
18
 70
0
 10
120.8170467529
 20
130.9487556466
 10
120.7601198597
 20
130.8903070216
 10
120.7069117058
 20
130.8284885931
 10
120.6572750625
 20
130.7638196459
 10
120.6108918505
 20
130.6965040341
 10
120.5675230255
 20
130.6266307139
 10
120.5271621739
 20
130.5545451629
 10
120.4897913583
 20
130.4804919853
 10
120.455396696
 20
130.4046028195
 10
120.4240561897
 20
130.327163432
 10
120.3958772169
 20
130.2484320592
 10
120.3709443881
 20
130.1685512643
 10
120.3494045118
 20
130.0877466739
 10
120.3314621648
 20
130.0063005957
 10
120.3172914401
 20
129.9242631865
 10
120.3071562681
 20
129.8416846518
 10
120.3013990442
 20
129.758851806
 10
120.3007301483
 20
129.7396978511
  0
LWPOLYLINE
  5
223
100
AcDbEntity
  8
ASSI
100
AcDbPolyline
 62
7
  6
CONTINUOUS
 90
18
 70
0
 10
120.8170467529
 20
130.9487556466
 10
120.7601198597
 20
130.8903070216
 10
120.7069117058
 20
130.8284885931
 10
120.6572750625
 20
130.7638196459
 10
120.6108918505
 20
130.6965040341
 10
120.5675230255
 20
130.6266307139
 10
120.5271621739
 20
130.5545451629
 10
120.4897913583
 20
130.4804919853
 10
120.455396696
 20
130.4046028195
 10
120.4240561897
 20
130.327163432
 10
120.3958772169
 20
130.2484320592
 10
120.3709443881
 20
130.1685512643
 10
120.3494045118
 20
130.0877466739
 10
120.3314621648
 20
130.0063005957
 10
120.3172914401
 20
129.9242631865
 10
120.3071562681
 20
129.8416846518
 10
120.3013990442
 20
129.758851806
 10
120.3007301483
 20
129.7396978511
  0
LINE
  5
224
100
AcDbEntity
  8
0
100
AcDbLine
 62
7
  6
CONTINUOUS
 10
122.2282832329
 20
132.281508218
 11
120.8170467529
 21
130.9487556466
  0
LINE
  5
225
100
AcDbEntity
  8
ASSI
100
AcDbLine
 62
7
  6
CONTINUOUS
 10
122.2282832329
 20
132.281508218
 11
120.8170467529
 21
130.9487556466
  0
LINE
  5
226
100
AcDbEntity
  8
0
100
AcDbLine
 62
253
  6
CONTINUOUS
 10
122.5469095262
 20
132.3055839259
 11
121.1529574307
 21
130.9892285134
  0
LINE
  5
227
100
AcDbEntity
  8
ASSI
100
AcDbLine
 62
253
  6
CONTINUOUS
 10
122.5469095262
 20
132.3055839259
 11
121.1529574307
 21
130.9892285134
  0
LINE
  5
228
100
AcDbEntity
  8
0
100
AcDbLine
 62
7
  6
CONTINUOUS
 10
120.8251219203
 20
130.9564550235
 11
120.824676333
 21
130.956035452
  0
LINE
  5
229
100
AcDbEntity
  8
ASSI
100
AcDbLine
 62
7
  6
CONTINUOUS
 10
120.8251219203
 20
130.9564550235
 11
120.824676333
 21
130.956035452
  0
LWPOLYLINE
  5
22A
100
AcDbEntity
  8
0
100
AcDbPolyline
 62
253
  6
CONTINUOUS
 90
22
 70
0
 10
121.1529574306
 20
130.9892285133
 10
121.1037970769
 20
130.9439585014
 10
121.0550298735
 20
130.8942276547
 10
121.0069142757
 20
130.8402760468
 10
120.9597230491
 20
130.7823589788
 10
120.9136877444
 20
130.7207626318
 10
120.8689978453
 20
130.6558014495
 10
120.8258861708
 20
130.5877863878
 10
120.7845846723
 20
130.5170496162
 10
120.7452688308
 20
130.443959546
 10
120.7081442836
 20
130.3688742348
 10
120.6734083968
 20
130.2921560496
 10
120.6412063273
 20
130.2141952723
 10
120.6117046409
 20
130.1353722805
 10
120.5850614734
 20
130.0560704408
 10
120.5613877276
 20
129.9766912006
 10
120.5408057209
 20
129.8976292772
 10
120.5234244476
 20
129.8192631701
 10
120.5093123699
 20
129.7419685907
 10
120.4985380745
 20
129.6661219371
 10
120.4911674617
 20
129.5920978717
 10
120.4872408362
 20
129.520260322
  0
LWPOLYLINE
  5
22B
100
AcDbEntity
  8
ASSI
100
AcDbPolyline
 62
253
  6
CONTINUOUS
 90
22
 70
0
 10
121.1529574306
 20
130.9892285133
 10
121.1037970769
 20
130.9439585014
 10
121.0550298735
 20
130.8942276547
 10
121.0069142757
 20
130.8402760468
 10
120.9597230491
 20
130.7823589788
 10
120.9136877444
 20
130.7207626318
 10
120.8689978453
 20
130.6558014495
 10
120.8258861708
 20
130.5877863878
 10
120.7845846723
 20
130.5170496162
 10
120.7452688308
 20
130.443959546
 10
120.7081442836
 20
130.3688742348
 10
120.6734083968
 20
130.2921560496
 10
120.6412063273
 20
130.2141952723
 10
120.6117046409
 20
130.1353722805
 10
120.5850614734
 20
130.0560704408
 10
120.5613877276
 20
129.9766912006
 10
120.5408057209
 20
129.8976292772
 10
120.5234244476
 20
129.8192631701
 10
120.5093123699
 20
129.7419685907
 10
120.4985380745
 20
129.6661219371
 10
120.4911674617
 20
129.5920978717
 10
120.4872408362
 20
129.520260322
  0
LINE
  5
22C
100
AcDbEntity
  8
0
100
AcDbLine
 62
7
  6
CONTINUOUS
 10
128.3526546679
 20
129.9738657895
 11
127.7167497509
 21
129.7776987054
  0
LINE
  5
22D
100
AcDbEntity
  8
ASSI
100
AcDbLine
 62
7
  6
CONTINUOUS
 10
128.3526546679
 20
129.9738657895
 11
127.7167497509
 21
129.7776987054
  0
LWPOLYLINE
  5
22E
100
AcDbEntity
  8
0
100
AcDbPolyline
 62
253
  6
CONTINUOUS
 90
10
 70
0
 10
120.0528820179
 20
113.0326034144
 10
120.0552055936
 20
113.0048669772
 10
120.0622374416
 20
112.9773106064
 10
120.0739111272
 20
112.9502725007
 10
120.0901161948
 20
112.9240084705
 10
120.1106993316
 20
112.8987669776
 10
120.1354658132
 20
112.8747868116
 10
120.1641813363
 20
112.8522948377
 10
120.1965742292
 20
112.8315038491
 10
120.2323380331
 20
112.8126105426
  0
LWPOLYLINE
  5
22F
100
AcDbEntity
  8
ASSI
100
AcDbPolyline
 62
253
  6
CONTINUOUS
 90
10
 70
0
 10
120.0528820179
 20
113.0326034144
 10
120.0552055936
 20
113.0048669772
 10
120.0622374416
 20
112.9773106064
 10
120.0739111272
 20
112.9502725007
 10
120.0901161948
 20
112.9240084705
 10
120.1106993316
 20
112.8987669776
 10
120.1354658132
 20
112.8747868116
 10
120.1641813363
 20
112.8522948377
 10
120.1965742292
 20
112.8315038491
 10
120.2323380331
 20
112.8126105426
  0
LWPOLYLINE
  5
230
100
AcDbEntity
  8
0
100
AcDbPolyline
 62
253
  6
CONTINUOUS
 90
12
 70
0
 10
120.4872409431
 20
95.3169740963
 10
120.491167579
 20
95.2511799179
 10
120.4985381995
 20
95.1886751953
 10
120.5093124997
 20
95.1297687342
 10
120.5234245779
 20
95.0747587629
 10
120.5408058479
 20
95.0239106489
 10
120.5613878509
 20
94.9774585179
 10
120.5850615937
 20
94.9356350749
 10
120.611704758
 20
94.8986545589
 10
120.6412064405
 20
94.8666926834
 10
120.6734085058
 20
94.8399152638
 10
120.7075133224
 20
94.8188499176
  0
LWPOLYLINE
  5
231
100
AcDbEntity
  8
ASSI
100
AcDbPolyline
 62
253
  6
CONTINUOUS
 90
12
 70
0
 10
120.4872409431
 20
95.3169740963
 10
120.491167579
 20
95.2511799179
 10
120.4985381995
 20
95.1886751953
 10
120.5093124997
 20
95.1297687342
 10
120.5234245779
 20
95.0747587629
 10
120.5408058479
 20
95.0239106489
 10
120.5613878509
 20
94.9774585179
 10
120.5850615937
 20
94.9356350749
 10
120.611704758
 20
94.8986545589
 10
120.6412064405
 20
94.8666926834
 10
120.6734085058
 20
94.8399152638
 10
120.7075133224
 20
94.8188499176
  0
LWPOLYLINE
  5
232
100
AcDbEntity
  8
0
100
AcDbPolyline
 62
7
  6
CONTINUOUS
 90
14
 70
0
 10
120.3007663565
 20
95.5426334703
 10
120.3017816874
 20
95.5172691207
 10
120.3096507121
 20
95.4276524047
 10
120.323779622
 20
95.3436235445
 10
120.3438573014
 20
95.265059877
 10
120.3696637412
 20
95.1916585251
 10
120.4010241632
 20
95.123309873
 10
120.43761249
 20
95.0602284856
 10
120.4791447403
 20
95.0024922719
 10
120.5253428907
 20
94.9502205735
 10
120.5756600351
 20
94.9037917183
 10
120.6295941788
 20
94.8633936108
 10
120.6868026707
 20
94.8290829142
 10
120.7213757655
 20
94.8120005758
  0
LWPOLYLINE
  5
233
100
AcDbEntity
  8
ASSI
100
AcDbPolyline
 62
7
  6
CONTINUOUS
 90
14
 70
0
 10
120.3007663565
 20
95.5426334703
 10
120.3017816874
 20
95.5172691207
 10
120.3096507121
 20
95.4276524047
 10
120.323779622
 20
95.3436235445
 10
120.3438573014
 20
95.265059877
 10
120.3696637412
 20
95.1916585251
 10
120.4010241632
 20
95.123309873
 10
120.43761249
 20
95.0602284856
 10
120.4791447403
 20
95.0024922719
 10
120.5253428907
 20
94.9502205735
 10
120.5756600351
 20
94.9037917183
 10
120.6295941788
 20
94.8633936108
 10
120.6868026707
 20
94.8290829142
 10
120.7213757655
 20
94.8120005758
  0
LWPOLYLINE
  5
234
100
AcDbEntity
  8
0
100
AcDbPolyline
 62
253
  6
CONTINUOUS
 90
9
 70
0
 10
120.2323380331
 20
112.8126105426
 10
120.2337381466
 20
112.7705797857
 10
120.2390489606
 20
112.7321008707
 10
120.2478227033
 20
112.6971045957
 10
120.2595971129
 20
112.6655903428
 10
120.2745341468
 20
112.637771102
 10
120.2928985548
 20
112.6140927461
 10
120.3138793123
 20
112.5951291007
 10
120.3369383393
 20
112.5811262159
  0
LWPOLYLINE
  5
235
100
AcDbEntity
  8
ASSI
100
AcDbPolyline
 62
253
  6
CONTINUOUS
 90
9
 70
0
 10
120.2323380331
 20
112.8126105426
 10
120.2337381466
 20
112.7705797857
 10
120.2390489606
 20
112.7321008707
 10
120.2478227033
 20
112.6971045957
 10
120.2595971129
 20
112.6655903428
 10
120.2745341468
 20
112.637771102
 10
120.2928985548
 20
112.6140927461
 10
120.3138793123
 20
112.5951291007
 10
120.3369383393
 20
112.5811262159
  0
LWPOLYLINE
  5
236
100
AcDbEntity
  8
0
100
AcDbPolyline
 62
7
  6
CONTINUOUS
 90
10
 70
0
 10
120.0528820558
 20
111.8217535895
 10
120.0574032395
 20
110.0447908135
 10
120.0677780625
 20
108.2068347584
 10
120.0839428905
 20
106.3738974432
 10
120.1058978481
 20
104.5460179334
 10
120.1336428682
 20
102.7232330605
 10
120.1671778859
 20
100.9055786591
 10
120.206502292
 20
99.0930958823
 10
120.251614977
 20
97.2858307086
 10
120.3007545353
 20
95.5428164741
  0
LWPOLYLINE
  5
237
100
AcDbEntity
  8
ASSI
100
AcDbPolyline
 62
7
  6
CONTINUOUS
 90
10
 70
0
 10
120.0528820558
 20
111.8217535895
 10
120.0574032395
 20
110.0447908135
 10
120.0677780625
 20
108.2068347584
 10
120.0839428905
 20
106.3738974432
 10
120.1058978481
 20
104.5460179334
 10
120.1336428682
 20
102.7232330605
 10
120.1671778859
 20
100.9055786591
 10
120.206502292
 20
99.0930958823
 10
120.251614977
 20
97.2858307086
 10
120.3007545353
 20
95.5428164741
  0
LWPOLYLINE
  5
238
100
AcDbEntity
  8
0
100
AcDbPolyline
 62
253
  6
CONTINUOUS
 90
10
 70
0
 10
120.2323380845
 20
111.6015467099
 10
120.2366250268
 20
109.91308087
 10
120.2460796658
 20
108.2035379652
 10
120.260932167
 20
106.4731413525
 10
120.28124542
 20
104.7352389333
 10
120.3073434466
 20
102.9768757835
 10
120.3402283032
 20
101.1591484359
 10
120.3808341978
 20
99.2696317321
 10
120.4296105578
 20
97.3220253989
 10
120.487240864
 20
95.316974065
  0
LWPOLYLINE
  5
239
100
AcDbEntity
  8
ASSI
100
AcDbPolyline
 62
253
  6
CONTINUOUS
 90
10
 70
0
 10
120.2323380845
 20
111.6015467099
 10
120.2366250268
 20
109.91308087
 10
120.2460796658
 20
108.2035379652
 10
120.260932167
 20
106.4731413525
 10
120.28124542
 20
104.7352389333
 10
120.3073434466
 20
102.9768757835
 10
120.3402283032
 20
101.1591484359
 10
120.3808341978
 20
99.2696317321
 10
120.4296105578
 20
97.3220253989
 10
120.487240864
 20
95.316974065
  0
LWPOLYLINE
  5
23A
100
AcDbEntity
  8
0
100
AcDbPolyline
 62
7
  6
CONTINUOUS
 90
10
 70
0
 10
120.3007333169
 20
129.7400299028
 10
120.2517414205
 20
127.917643361
 10
120.2066164002
 20
126.0323764192
 10
120.1672786411
 20
124.151900517
 10
120.1337293402
 20
122.2762617108
 10
120.1059690705
 20
120.4054999249
 10
120.0839981871
 20
118.5396527408
 10
120.0678169702
 20
116.6787582693
 10
120.0574252924
 20
114.8228561543
 10
120.0528820179
 20
113.0326034144
  0
LWPOLYLINE
  5
23B
100
AcDbEntity
  8
ASSI
100
AcDbPolyline
 62
7
  6
CONTINUOUS
 90
10
 70
0
 10
120.3007333169
 20
129.7400299028
 10
120.2517414205
 20
127.917643361
 10
120.2066164002
 20
126.0323764192
 10
120.1672786411
 20
124.151900517
 10
120.1337293402
 20
122.2762617108
 10
120.1059690705
 20
120.4054999249
 10
120.0839981871
 20
118.5396527408
 10
120.0678169702
 20
116.6787582693
 10
120.0574252924
 20
114.8228561543
 10
120.0528820179
 20
113.0326034144
  0
LWPOLYLINE
  5
23C
100
AcDbEntity
  8
0
100
AcDbPolyline
 62
253
  6
CONTINUOUS
 90
10
 70
0
 10
120.4872408397
 20
129.5202603211
 10
120.4337323515
 20
127.5788957156
 10
120.3872526399
 20
125.67475535
 10
120.3474896453
 20
123.8076410013
 10
120.3144872261
 20
121.9983072194
 10
120.2874649531
 20
120.2255019998
 10
120.2654582567
 20
118.4264709102
 10
120.2485951263
 20
116.5806768734
 10
120.2374559654
 20
114.7092964393
 10
120.2323380862
 20
112.8126105091
  0
LWPOLYLINE
  5
23D
100
AcDbEntity
  8
ASSI
100
AcDbPolyline
 62
253
  6
CONTINUOUS
 90
10
 70
0
 10
120.4872408397
 20
129.5202603211
 10
120.4337323515
 20
127.5788957156
 10
120.3872526399
 20
125.67475535
 10
120.3474896453
 20
123.8076410013
 10
120.3144872261
 20
121.9983072194
 10
120.2874649531
 20
120.2255019998
 10
120.2654582567
 20
118.4264709102
 10
120.2485951263
 20
116.5806768734
 10
120.2374559654
 20
114.7092964393
 10
120.2323380862
 20
112.8126105091
  0
LWPOLYLINE
  5
23E
100
AcDbEntity
  8
0
100
AcDbPolyline
 62
253
  6
CONTINUOUS
 90
16
 70
0
 10
120.2323380702
 20
111.6015467647
 10
120.2337382046
 20
111.6463256444
 10
120.2390494065
 20
111.6918081329
 10
120.2478237723
 20
111.7381184589
 10
120.2595988612
 20
111.7857840259
 10
120.2745365957
 20
111.8344925637
 10
120.2929017669
 20
111.8828514372
 10
120.3138831683
 20
111.9303051362
 10
120.3371503043
 20
111.9768796716
 10
120.3631975655
 20
112.021704749
 10
120.3912687278
 20
112.064246556
 10
120.4206571414
 20
112.1042833453
 10
120.451891047
 20
112.1412102022
 10
120.4846550246
 20
112.1745599928
 10
120.5177437406
 20
112.2041465738
 10
120.5503791242
 20
112.2297781694
  0
LWPOLYLINE
  5
23F
100
AcDbEntity
  8
ASSI
100
AcDbPolyline
 62
253
  6
CONTINUOUS
 90
16
 70
0
 10
120.2323380702
 20
111.6015467647
 10
120.2337382046
 20
111.6463256444
 10
120.2390494065
 20
111.6918081329
 10
120.2478237723
 20
111.7381184589
 10
120.2595988612
 20
111.7857840259
 10
120.2745365957
 20
111.8344925637
 10
120.2929017669
 20
111.8828514372
 10
120.3138831683
 20
111.9303051362
 10
120.3371503043
 20
111.9768796716
 10
120.3631975655
 20
112.021704749
 10
120.3912687278
 20
112.064246556
 10
120.4206571414
 20
112.1042833453
 10
120.451891047
 20
112.1412102022
 10
120.4846550246
 20
112.1745599928
 10
120.5177437406
 20
112.2041465738
 10
120.5503791242
 20
112.2297781694
  0
LINE
  5
240
100
AcDbEntity
  8
0
100
AcDbLine
 62
7
  6
CONTINUOUS
 10
137.5271575639
 20
126.2891785921
 11
136.8912526469
 21
126.093011508
  0
LINE
  5
241
100
AcDbEntity
  8
ASSI
100
AcDbLine
 62
7
  6
CONTINUOUS
 10
137.5271575639
 20
126.2891785921
 11
136.8912526469
 21
126.093011508
  0
LWPOLYLINE
  5
242
100
AcDbEntity
  8
0
100
AcDbPolyline
 62
253
  6
CONTINUOUS
 90
16
 70
0
 10
156.0038288834
 20
81.0527116093
 10
156.0471587937
 20
81.03954846
 10
156.0925748252
 20
81.0290606969
 10
156.1396365982
 20
81.0213500154
 10
156.1878877748
 20
81.0164911827
 10
156.2368604837
 20
81.0145313128
 10
156.2860798575
 20
81.0154894097
 10
156.3350686369
 20
81.0193561832
 10
156.3833517987
 20
81.0260941388
 10
156.4304611614
 20
81.0356379415
 10
156.4759399259
 20
81.0478950491
 10
156.5193471037
 20
81.0627466096
 10
156.5602617941
 20
81.0800486138
 10
156.5982872647
 20
81.0996332915
 10
156.6330547987
 20
81.1213107385
 10
156.6642272702
 20
81.1448707577
  0
LWPOLYLINE
  5
243
100
AcDbEntity
  8
ASSI
100
AcDbPolyline
 62
253
  6
CONTINUOUS
 90
16
 70
0
 10
156.0038288834
 20
81.0527116093
 10
156.0471587937
 20
81.03954846
 10
156.0925748252
 20
81.0290606969
 10
156.1396365982
 20
81.0213500154
 10
156.1878877748
 20
81.0164911827
 10
156.2368604837
 20
81.0145313128
 10
156.2860798575
 20
81.0154894097
 10
156.3350686369
 20
81.0193561832
 10
156.3833517987
 20
81.0260941388
 10
156.4304611614
 20
81.0356379415
 10
156.4759399259
 20
81.0478950491
 10
156.5193471037
 20
81.0627466096
 10
156.5602617941
 20
81.0800486138
 10
156.5982872647
 20
81.0996332915
 10
156.6330547987
 20
81.1213107385
 10
156.6642272702
 20
81.1448707577
  0
LWPOLYLINE
  5
244
100
AcDbEntity
  8
0
100
AcDbPolyline
 62
7
  6
CONTINUOUS
 90
14
 70
0
 10
156.2493422952
 20
80.5431133907
 10
156.2550595858
 20
80.541137529
 10
156.3081238141
 20
80.525488379
 10
156.3626736673
 20
80.5141977556
 10
156.4184723443
 20
80.5073753726
 10
156.4755004782
 20
80.5051243896
 10
156.5335257603
 20
80.5075946784
 10
156.5921468096
 20
80.5149018555
 10
156.6511837909
 20
80.5271410523
 10
156.7104054118
 20
80.5443871141
 10
156.7695709809
 20
80.5666962379
 10
156.8286539954
 20
80.5942122874
 10
156.8875964212
 20
80.6270893498
 10
156.9456263467
 20
80.6649999221
  0
LWPOLYLINE
  5
245
100
AcDbEntity
  8
ASSI
100
AcDbPolyline
 62
7
  6
CONTINUOUS
 90
14
 70
0
 10
156.2493422952
 20
80.5431133907
 10
156.2550595858
 20
80.541137529
 10
156.3081238141
 20
80.525488379
 10
156.3626736673
 20
80.5141977556
 10
156.4184723443
 20
80.5073753726
 10
156.4755004782
 20
80.5051243896
 10
156.5335257603
 20
80.5075946784
 10
156.5921468096
 20
80.5149018555
 10
156.6511837909
 20
80.5271410523
 10
156.7104054118
 20
80.5443871141
 10
156.7695709809
 20
80.5666962379
 10
156.8286539954
 20
80.5942122874
 10
156.8875964212
 20
80.6270893498
 10
156.9456263467
 20
80.6649999221
  0
LINE
  5
246
100
AcDbEntity
  8
0
100
AcDbLine
 62
7
  6
CONTINUOUS
 10
124.6725459483
 20
130.9891456648
 11
124.6732148608
 21
131.0000509321
  0
LINE
  5
247
100
AcDbEntity
  8
ASSI
100
AcDbLine
 62
7
  6
CONTINUOUS
 10
124.6725459483
 20
130.9891456648
 11
124.6732148608
 21
131.0000509321
  0
LINE
  5
248
100
AcDbEntity
  8
0
100
AcDbLine
 62
7
  6
CONTINUOUS
 10
124.7343671163
 20
131.4270516426
 11
124.6732148608
 21
131.0000509321
  0
LINE
  5
249
100
AcDbEntity
  8
ASSI
100
AcDbLine
 62
7
  6
CONTINUOUS
 10
124.7343671163
 20
131.4270516426
 11
124.6732148608
 21
131.0000509321
  0
LWPOLYLINE
  5
24A
100
AcDbEntity
  8
0
100
AcDbPolyline
 62
7
  6
CONTINUOUS
 90
12
 70
0
 10
120.2226823672
 20
112.1977253153
 10
120.210228194
 20
112.186394858
 10
120.1817244769
 20
112.1572935501
 10
120.15572701
 20
112.1260244169
 10
120.132336742
 20
112.0927153205
 10
120.1117132575
 20
112.0575768062
 10
120.0940322939
 20
112.0209060087
 10
120.0793867762
 20
111.9828992725
 10
120.0678494177
 20
111.9436910201
 10
120.059530091
 20
111.9035330672
 10
120.0545258715
 20
111.8627806017
 10
120.0528820559
 20
111.8217535846
  0
LWPOLYLINE
  5
24B
100
AcDbEntity
  8
ASSI
100
AcDbPolyline
 62
7
  6
CONTINUOUS
 90
12
 70
0
 10
120.2226823672
 20
112.1977253153
 10
120.210228194
 20
112.186394858
 10
120.1817244769
 20
112.1572935501
 10
120.15572701
 20
112.1260244169
 10
120.132336742
 20
112.0927153205
 10
120.1117132575
 20
112.0575768062
 10
120.0940322939
 20
112.0209060087
 10
120.0793867762
 20
111.9828992725
 10
120.0678494177
 20
111.9436910201
 10
120.059530091
 20
111.9035330672
 10
120.0545258715
 20
111.8627806017
 10
120.0528820559
 20
111.8217535846
  0
LINE
  5
24C
100
AcDbEntity
  8
0
100
AcDbLine
 62
7
  6
CONTINUOUS
 10
120.2226679533
 20
112.1977126391
 11
120.5459479686
 21
112.4820461172
  0
LINE
  5
24D
100
AcDbEntity
  8
ASSI
100
AcDbLine
 62
7
  6
CONTINUOUS
 10
120.2226679533
 20
112.1977126391
 11
120.5459479686
 21
112.4820461172
  0
LINE
  5
24E
100
AcDbEntity
  8
0
100
AcDbLine
 62
253
  6
CONTINUOUS
 10
120.5503791037
 20
112.2297781518
 11
120.73519977
 21
112.3923329043
  0
LINE
  5
24F
100
AcDbEntity
  8
ASSI
100
AcDbLine
 62
253
  6
CONTINUOUS
 10
120.5503791037
 20
112.2297781518
 11
120.73519977
 21
112.3923329043
  0
LWPOLYLINE
  5
250
100
AcDbEntity
  8
0
100
AcDbPolyline
 62
253
  6
CONTINUOUS
 90
12
 70
0
 10
120.2226823672
 20
112.1977253153
 10
120.2313642407
 20
112.2049889534
 10
120.2557953262
 20
112.2219845413
 10
120.2824683129
 20
112.2359071534
 10
120.3111947728
 20
112.2466680613
 10
120.3417774182
 20
112.2541932915
 10
120.3739988539
 20
112.2584226716
 10
120.4076016689
 20
112.2593160654
 10
120.4423118948
 20
112.2568648771
 10
120.4778573567
 20
112.2510904362
 10
120.5139718582
 20
112.2420380454
 10
120.5503791238
 20
112.2297781695
  0
LWPOLYLINE
  5
251
100
AcDbEntity
  8
ASSI
100
AcDbPolyline
 62
253
  6
CONTINUOUS
 90
12
 70
0
 10
120.2226823672
 20
112.1977253153
 10
120.2313642407
 20
112.2049889534
 10
120.2557953262
 20
112.2219845413
 10
120.2824683129
 20
112.2359071534
 10
120.3111947728
 20
112.2466680613
 10
120.3417774182
 20
112.2541932915
 10
120.3739988539
 20
112.2584226716
 10
120.4076016689
 20
112.2593160654
 10
120.4423118948
 20
112.2568648771
 10
120.4778573567
 20
112.2510904362
 10
120.5139718582
 20
112.2420380454
 10
120.5503791238
 20
112.2297781695
  0
LWPOLYLINE
  5
252
100
AcDbEntity
  8
0
100
AcDbPolyline
 62
7
  6
CONTINUOUS
 90
10
 70
0
 10
147.5000774518
 20
83.8257046795
 10
148.4105773565
 20
83.4628611277
 10
149.3907321835
 20
83.0779278616
 10
150.3743965773
 20
82.6974545595
 10
151.3615012125
 20
82.321459589
 10
152.3519832272
 20
81.9499578472
 10
153.3457819859
 20
81.582963045
 10
154.3428356284
 20
81.2204889468
 10
155.3430785281
 20
80.8625497335
 10
156.2497513074
 20
80.5429699221
  0
LWPOLYLINE
  5
253
100
AcDbEntity
  8
ASSI
100
AcDbPolyline
 62
7
  6
CONTINUOUS
 90
10
 70
0
 10
147.5000774518
 20
83.8257046795
 10
148.4105773565
 20
83.4628611277
 10
149.3907321835
 20
83.0779278616
 10
150.3743965773
 20
82.6974545595
 10
151.3615012125
 20
82.321459589
 10
152.3519832272
 20
81.9499578472
 10
153.3457819859
 20
81.582963045
 10
154.3428356284
 20
81.2204889468
 10
155.3430785281
 20
80.8625497335
 10
156.2497513074
 20
80.5429699221
  0
LWPOLYLINE
  5
254
100
AcDbEntity
  8
0
100
AcDbPolyline
 62
253
  6
CONTINUOUS
 90
13
 70
0
 10
147.2600286899
 20
84.3248889146
 10
148.0059381914
 20
84.0274744057
 10
148.7430507404
 20
83.73701248
 10
149.4712138769
 20
83.4534035909
 10
150.1867239969
 20
83.1779006921
 10
150.8929648798
 20
82.909030876
 10
151.6005356422
 20
82.64270595
 10
152.3090186322
 20
82.3790782155
 10
153.0187768754
 20
82.1179952695
 10
153.7418209435
 20
81.8551226728
 10
154.4822765992
 20
81.5891431108
 10
155.2362457694
 20
81.3216324614
 10
156.0038288823
 20
81.0527116181
  0
LWPOLYLINE
  5
255
100
AcDbEntity
  8
ASSI
100
AcDbPolyline
 62
253
  6
CONTINUOUS
 90
13
 70
0
 10
147.2600286899
 20
84.3248889146
 10
148.0059381914
 20
84.0274744057
 10
148.7430507404
 20
83.73701248
 10
149.4712138769
 20
83.4534035909
 10
150.1867239969
 20
83.1779006921
 10
150.8929648798
 20
82.909030876
 10
151.6005356422
 20
82.64270595
 10
152.3090186322
 20
82.3790782155
 10
153.0187768754
 20
82.1179952695
 10
153.7418209435
 20
81.8551226728
 10
154.4822765992
 20
81.5891431108
 10
155.2362457694
 20
81.3216324614
 10
156.0038288823
 20
81.0527116181
  0
LINE
  5
256
100
AcDbEntity
  8
0
100
AcDbLine
 62
253
  6
CONTINUOUS
 10
128.8291076934
 20
91.7271623022
 11
147.2600286899
 21
84.3248889146
  0
LINE
  5
257
100
AcDbEntity
  8
ASSI
100
AcDbLine
 62
253
  6
CONTINUOUS
 10
128.8291076934
 20
91.7271623022
 11
147.2600286899
 21
84.3248889146
  0
LINE
  5
258
100
AcDbEntity
  8
0
100
AcDbLine
 62
7
  6
CONTINUOUS
 10
129.0693123473
 20
91.2279148105
 11
147.50007935
 21
83.8257033204
  0
LINE
  5
259
100
AcDbEntity
  8
ASSI
100
AcDbLine
 62
7
  6
CONTINUOUS
 10
129.0693123473
 20
91.2279148105
 11
147.50007935
 21
83.8257033204
  0
LWPOLYLINE
  5
25A
100
AcDbEntity
  8
0
100
AcDbPolyline
 62
253
  6
CONTINUOUS
 90
13
 70
0
 10
156.2493369687
 20
80.5431153156
 10
156.2150605493
 20
80.5580820639
 10
156.1816720819
 20
80.578996045
 10
156.1507588879
 20
80.6052558252
 10
156.1224626811
 20
80.6367335548
 10
156.0969075837
 20
80.673277079
 10
156.0742405751
 20
80.7146961955
 10
156.0545676603
 20
80.7607832176
 10
156.0379709883
 20
80.8113162214
 10
156.0245431212
 20
80.8660513987
 10
156.0143515507
 20
80.9247238204
 10
156.0074363495
 20
80.987045632
 10
156.0038288853
 20
81.0527116167
  0
LWPOLYLINE
  5
25B
100
AcDbEntity
  8
ASSI
100
AcDbPolyline
 62
253
  6
CONTINUOUS
 90
13
 70
0
 10
156.2493369687
 20
80.5431153156
 10
156.2150605493
 20
80.5580820639
 10
156.1816720819
 20
80.578996045
 10
156.1507588879
 20
80.6052558252
 10
156.1224626811
 20
80.6367335548
 10
156.0969075837
 20
80.673277079
 10
156.0742405751
 20
80.7146961955
 10
156.0545676603
 20
80.7607832176
 10
156.0379709883
 20
80.8113162214
 10
156.0245431212
 20
80.8660513987
 10
156.0143515507
 20
80.9247238204
 10
156.0074363495
 20
80.987045632
 10
156.0038288853
 20
81.0527116167
  0
LWPOLYLINE
  5
25C
100
AcDbEntity
  8
0
100
AcDbPolyline
 62
7
  6
CONTINUOUS
 90
10
 70
0
 10
120.7208540217
 20
94.8122360111
 10
121.5436306753
 20
94.437548868
 10
122.4682713703
 20
94.0223384177
 10
123.3997568632
 20
93.6102054029
 10
124.3380424232
 20
93.2011780889
 10
125.2830859569
 20
92.7952827831
 10
126.2348464014
 20
92.3925452377
 10
127.1932755073
 20
91.9929934937
 10
128.1583166766
 20
91.5966581538
 10
129.0693156201
 20
91.227914144
  0
LWPOLYLINE
  5
25D
100
AcDbEntity
  8
ASSI
100
AcDbPolyline
 62
7
  6
CONTINUOUS
 90
10
 70
0
 10
120.7208540217
 20
94.8122360111
 10
121.5436306753
 20
94.437548868
 10
122.4682713703
 20
94.0223384177
 10
123.3997568632
 20
93.6102054029
 10
124.3380424232
 20
93.2011780889
 10
125.2830859569
 20
92.7952827831
 10
126.2348464014
 20
92.3925452377
 10
127.1932755073
 20
91.9929934937
 10
128.1583166766
 20
91.5966581538
 10
129.0693156201
 20
91.227914144
  0
LWPOLYLINE
  5
25E
100
AcDbEntity
  8
0
100
AcDbPolyline
 62
253
  6
CONTINUOUS
 90
10
 70
0
 10
120.487240864
 20
95.316974065
 10
121.3218771107
 20
94.9353850232
 10
122.1745957921
 20
94.5509318688
 10
123.04556789
 20
94.1637843626
 10
123.9290165405
 20
93.7767297326
 10
124.8309905352
 20
93.3872795531
 10
125.7696888291
 20
92.987918613
 10
126.7516183185
 20
92.5765254618
 10
127.7712679679
 20
92.1561236784
 10
128.8291076934
 20
91.7271623022
  0
LWPOLYLINE
  5
25F
100
AcDbEntity
  8
ASSI
100
AcDbPolyline
 62
253
  6
CONTINUOUS
 90
10
 70
0
 10
120.487240864
 20
95.316974065
 10
121.3218771107
 20
94.9353850232
 10
122.1745957921
 20
94.5509318688
 10
123.04556789
 20
94.1637843626
 10
123.9290165405
 20
93.7767297326
 10
124.8309905352
 20
93.3872795531
 10
125.7696888291
 20
92.987918613
 10
126.7516183185
 20
92.5765254618
 10
127.7712679679
 20
92.1561236784
 10
128.8291076934
 20
91.7271623022
  0
LWPOLYLINE
  5
260
100
AcDbEntity
  8
0
100
AcDbPolyline
 62
253
  6
CONTINUOUS
 90
10
 70
0
 10
120.4872489576
 20
95.3169802398
 10
120.4504605284
 20
95.3359942284
 10
120.4170665806
 20
95.3571580385
 10
120.3873909145
 20
95.3802664576
 10
120.3617212768
 20
95.4050954176
 10
120.3403065702
 20
95.4314041675
 10
120.3233544397
 20
95.4589376078
 10
120.3110292598
 20
95.4874287637
 10
120.3034505401
 20
95.5166013741
 10
120.3007663565
 20
95.5426334703
  0
LWPOLYLINE
  5
261
100
AcDbEntity
  8
ASSI
100
AcDbPolyline
 62
253
  6
CONTINUOUS
 90
10
 70
0
 10
120.4872489576
 20
95.3169802398
 10
120.4504605284
 20
95.3359942284
 10
120.4170665806
 20
95.3571580385
 10
120.3873909145
 20
95.3802664576
 10
120.3617212768
 20
95.4050954176
 10
120.3403065702
 20
95.4314041675
 10
120.3233544397
 20
95.4589376078
 10
120.3110292598
 20
95.4874287637
 10
120.3034505401
 20
95.5166013741
 10
120.3007663565
 20
95.5426334703
  0
LINE
  5
262
100
AcDbEntity
  8
0
100
AcDbLine
 62
7
  6
CONTINUOUS
 10
124.7343671163
 20
131.4270516426
 11
124.740464382
 21
130.8997649486
  0
LINE
  5
263
100
AcDbEntity
  8
ASSI
100
AcDbLine
 62
7
  6
CONTINUOUS
 10
124.7343671163
 20
131.4270516426
 11
124.740464382
 21
130.8997649486
  0
LINE
  5
264
100
AcDbEntity
  8
0
100
AcDbLine
 62
253
  6
CONTINUOUS
 10
124.6732148608
 20
131.0000509321
 11
124.6732148608
 21
130.9891456648
  0
LINE
  5
265
100
AcDbEntity
  8
ASSI
100
AcDbLine
 62
253
  6
CONTINUOUS
 10
124.6732148608
 20
131.0000509321
 11
124.6732148608
 21
130.9891456648
  0
LINE
  5
266
100
AcDbEntity
  8
0
100
AcDbLine
 62
7
  6
CONTINUOUS
 10
146.7835756644
 20
122.5715924019
 11
146.1476707474
 21
122.3754253178
  0
LINE
  5
267
100
AcDbEntity
  8
ASSI
100
AcDbLine
 62
7
  6
CONTINUOUS
 10
146.7835756644
 20
122.5715924019
 11
146.1476707474
 21
122.3754253178
  0
LWPOLYLINE
  5
268
100
AcDbEntity
  8
0
100
AcDbPolyline
 62
253
  6
CONTINUOUS
 90
11
 70
0
 10
128.8291071352
 20
91.7271618036
 10
128.8343125818
 20
91.6517163247
 10
128.8440443116
 20
91.5808442626
 10
128.8582377864
 20
91.5150156208
 10
128.8767988792
 20
91.4546669562
 10
128.8996044978
 20
91.4001984841
 10
128.926503402
 20
91.3519714239
 10
128.9573172058
 20
91.3103056039
 10
128.9918415607
 20
91.2754773399
 10
129.029847511
 20
91.2477176032
 10
129.0693123473
 20
91.2279148105
  0
LWPOLYLINE
  5
269
100
AcDbEntity
  8
ASSI
100
AcDbPolyline
 62
253
  6
CONTINUOUS
 90
11
 70
0
 10
128.8291071352
 20
91.7271618036
 10
128.8343125818
 20
91.6517163247
 10
128.8440443116
 20
91.5808442626
 10
128.8582377864
 20
91.5150156208
 10
128.8767988792
 20
91.4546669562
 10
128.8996044978
 20
91.4001984841
 10
128.926503402
 20
91.3519714239
 10
128.9573172058
 20
91.3103056039
 10
128.9918415607
 20
91.2754773399
 10
129.029847511
 20
91.2477176032
 10
129.0693123473
 20
91.2279148105
  0
LWPOLYLINE
  5
26A
100
AcDbEntity
  8
0
100
AcDbPolyline
 62
253
  6
CONTINUOUS
 90
10
 70
0
 10
128.5170967526
 20
109.1762634683
 10
128.5186058637
 20
109.1348610002
 10
128.5232260024
 20
109.0964462331
 10
128.530906991
 20
109.0614363779
 10
128.5415654086
 20
109.0302116653
 10
128.5550854974
 20
109.0031112173
 10
128.5713204201
 20
108.9804293633
 10
128.5900938542
 20
108.9624124438
 10
128.6112019074
 20
108.9492561347
 10
128.6177418681
 20
108.9463660663
  0
LWPOLYLINE
  5
26B
100
AcDbEntity
  8
ASSI
100
AcDbPolyline
 62
253
  6
CONTINUOUS
 90
10
 70
0
 10
128.5170967526
 20
109.1762634683
 10
128.5186058637
 20
109.1348610002
 10
128.5232260024
 20
109.0964462331
 10
128.530906991
 20
109.0614363779
 10
128.5415654086
 20
109.0302116653
 10
128.5550854974
 20
109.0031112173
 10
128.5713204201
 20
108.9804293633
 10
128.5900938542
 20
108.9624124438
 10
128.6112019074
 20
108.9492561347
 10
128.6177418681
 20
108.9463660663
  0
LWPOLYLINE
  5
26C
100
AcDbEntity
  8
0
100
AcDbPolyline
 62
253
  6
CONTINUOUS
 90
10
 70
0
 10
128.5170969006
 20
107.9585686648
 10
128.5230700448
 20
106.1302292342
 10
128.5362205259
 20
104.3079492932
 10
128.5565471254
 20
102.4917851858
 10
128.5840491282
 20
100.6817639717
 10
128.6187250448
 20
98.8779714203
 10
128.6605714489
 20
97.0805510131
 10
128.7095852244
 20
95.2895870684
 10
128.765764727
 20
93.5051057379
 10
128.8291076934
 20
91.7271623022
  0
LWPOLYLINE
  5
26D
100
AcDbEntity
  8
ASSI
100
AcDbPolyline
 62
253
  6
CONTINUOUS
 90
10
 70
0
 10
128.5170969006
 20
107.9585686648
 10
128.5230700448
 20
106.1302292342
 10
128.5362205259
 20
104.3079492932
 10
128.5565471254
 20
102.4917851858
 10
128.5840491282
 20
100.6817639717
 10
128.6187250448
 20
98.8779714203
 10
128.6605714489
 20
97.0805510131
 10
128.7095852244
 20
95.2895870684
 10
128.765764727
 20
93.5051057379
 10
128.8291076934
 20
91.7271623022
  0
LWPOLYLINE
  5
26E
100
AcDbEntity
  8
0
100
AcDbPolyline
 62
253
  6
CONTINUOUS
 90
7
 70
0
 10
128.5170969006
 20
109.1762635883
 10
128.5230701017
 20
111.0143998018
 10
128.5362207175
 20
112.8582344063
 10
128.5565475194
 20
114.7077090527
 10
128.5840498253
 20
116.5627980485
 10
128.6187261127
 20
118.4234106434
 10
128.6605727585
 20
120.2893900444
  0
LWPOLYLINE
  5
26F
100
AcDbEntity
  8
ASSI
100
AcDbPolyline
 62
253
  6
CONTINUOUS
 90
7
 70
0
 10
128.5170969006
 20
109.1762635883
 10
128.5230701017
 20
111.0143998018
 10
128.5362207175
 20
112.8582344063
 10
128.5565475194
 20
114.7077090527
 10
128.5840498253
 20
116.5627980485
 10
128.6187261127
 20
118.4234106434
 10
128.6605727585
 20
120.2893900444
  0
LINE
  5
270
100
AcDbEntity
  8
0
100
AcDbLine
 62
253
  6
CONTINUOUS
 10
128.6605727585
 20
120.2893900444
 11
128.7095864759
 21
122.1606441813
  0
LINE
  5
271
100
AcDbEntity
  8
ASSI
100
AcDbLine
 62
253
  6
CONTINUOUS
 10
128.6605727585
 20
120.2893900444
 11
128.7095864759
 21
122.1606441813
  0
LWPOLYLINE
  5
272
100
AcDbEntity
  8
0
100
AcDbPolyline
 62
253
  6
CONTINUOUS
 90
3
 70
0
 10
128.7095864759
 20
122.1606441813
 10
128.7657655748
 20
124.03714669
 10
128.8291076934
 20
125.9188385085
  0
LWPOLYLINE
  5
273
100
AcDbEntity
  8
ASSI
100
AcDbPolyline
 62
253
  6
CONTINUOUS
 90
3
 70
0
 10
128.7095864759
 20
122.1606441813
 10
128.7657655748
 20
124.03714669
 10
128.8291076934
 20
125.9188385085
  0
LWPOLYLINE
  5
274
100
AcDbEntity
  8
0
100
AcDbPolyline
 62
253
  6
CONTINUOUS
 90
16
 70
0
 10
128.517096898
 20
107.9585686627
 10
128.5186060098
 20
108.0024259316
 10
128.523226147
 20
108.0483614437
 10
128.5309071318
 20
108.0958763083
 10
128.5415655435
 20
108.1444544816
 10
128.5550856244
 20
108.1935683719
 10
128.5713205375
 20
108.242684569
 10
128.5900939604
 20
108.2912696376
 10
128.6112020012
 20
108.338795911
 10
128.6344154121
 20
108.3847472216
 10
128.6594820798
 20
108.4286245071
 10
128.6861297632
 20
108.4699512304
 10
128.7140690506
 20
108.5082785553
 10
128.7429965022
 20
108.5431902209
 10
128.7725979464
 20
108.5743070631
 10
128.8025518913
 20
108.6012911317
  0
LWPOLYLINE
  5
275
100
AcDbEntity
  8
ASSI
100
AcDbPolyline
 62
253
  6
CONTINUOUS
 90
16
 70
0
 10
128.517096898
 20
107.9585686627
 10
128.5186060098
 20
108.0024259316
 10
128.523226147
 20
108.0483614437
 10
128.5309071318
 20
108.0958763083
 10
128.5415655435
 20
108.1444544816
 10
128.5550856244
 20
108.1935683719
 10
128.5713205375
 20
108.242684569
 10
128.5900939604
 20
108.2912696376
 10
128.6112020012
 20
108.338795911
 10
128.6344154121
 20
108.3847472216
 10
128.6594820798
 20
108.4286245071
 10
128.6861297632
 20
108.4699512304
 10
128.7140690506
 20
108.5082785553
 10
128.7429965022
 20
108.5431902209
 10
128.7725979464
 20
108.5743070631
 10
128.8025518913
 20
108.6012911317
  0
LWPOLYLINE
  5
276
100
AcDbEntity
  8
0
100
AcDbPolyline
 62
253
  6
CONTINUOUS
 90
19
 70
0
 10
128.8291076976
 20
125.9188385117
 10
128.8343131399
 20
126.0028013006
 10
128.8440448602
 20
126.0896001513
 10
128.8582383207
 20
126.1786594388
 10
128.8767993943
 20
126.269388548
 10
128.8996049894
 20
126.3611857896
 10
128.926503866
 20
126.4534423909
 10
128.9573176385
 20
126.5455465331
 10
128.9918419588
 20
126.636887408
 10
129.0298478718
 20
126.7268592696
 10
129.0710833332
 20
126.8148654506
 10
129.1152748815
 20
126.9003223195
 10
129.162129451
 20
126.9826631511
 10
129.2113363159
 20
127.0613418849
 10
129.2625691506
 20
127.1358367465
 10
129.3154881937
 20
127.2056537074
 10
129.3697425016
 20
127.2703297619
 10
129.4249722753
 20
127.3294359971
 10
129.480811247
 20
127.3825804376
  0
LWPOLYLINE
  5
277
100
AcDbEntity
  8
ASSI
100
AcDbPolyline
 62
253
  6
CONTINUOUS
 90
19
 70
0
 10
128.8291076976
 20
125.9188385117
 10
128.8343131399
 20
126.0028013006
 10
128.8440448602
 20
126.0896001513
 10
128.8582383207
 20
126.1786594388
 10
128.8767993943
 20
126.269388548
 10
128.8996049894
 20
126.3611857896
 10
128.926503866
 20
126.4534423909
 10
128.9573176385
 20
126.5455465331
 10
128.9918419588
 20
126.636887408
 10
129.0298478718
 20
126.7268592696
 10
129.0710833332
 20
126.8148654506
 10
129.1152748815
 20
126.9003223195
 10
129.162129451
 20
126.9826631511
 10
129.2113363159
 20
127.0613418849
 10
129.2625691506
 20
127.1358367465
 10
129.3154881937
 20
127.2056537074
 10
129.3697425016
 20
127.2703297619
 10
129.4249722753
 20
127.3294359971
 10
129.480811247
 20
127.3825804376
  0
LWPOLYLINE
  5
278
100
AcDbEntity
  8
0
100
AcDbPolyline
 62
253
  6
CONTINUOUS
 90
55
 70
0
 10
136.6449765729
 20
116.5936351587
 10
136.6805299823
 20
116.617797868
 10
136.7172281521
 20
116.6404086395
 10
136.7550509502
 20
116.6614428428
 10
136.7939782444
 20
116.6808758473
 10
136.8339899025
 20
116.6986830226
 10
136.8750657923
 20
116.7148397381
 10
136.9171751649
 20
116.7293227719
 10
136.9602448041
 20
116.742114537
 10
137.0041908769
 20
116.7531988549
 10
137.0489295503
 20
116.762559547
 10
137.0943769913
 20
116.770180435
 10
137.1404493669
 20
116.7760453403
 10
137.1870716285
 20
116.7801428783
 10
137.2342038639
 20
116.782480839
 10
137.2818149455
 20
116.7830718065
 10
137.3298737456
 20
116.7819283646
 10
137.3783491363
 20
116.7790630974
 10
137.42720999
 20
116.7744885886
 10
137.4764232669
 20
116.768216855
 10
137.5259482798
 20
116.7602576442
 10
137.5757424292
 20
116.7506201363
 10
137.625763116
 20
116.7393135118
 10
137.6759677407
 20
116.7263469509
 10
137.7263137041
 20
116.7117296338
 10
137.7767577029
 20
116.6954724119
 10
137.8272536173
 20
116.6775928211
 10
137.8777546238
 20
116.6581100682
 10
137.9282138987
 20
116.6370433601
 10
137.9785846183
 20
116.6144119035
 10
138.028819959
 20
116.5902349055
 10
138.0788743807
 20
116.5645321341
 10
138.128707479
 20
116.5373256029
 10
138.1782801328
 20
116.5086378866
 10
138.2275532212
 20
116.4784915601
 10
138.2764876234
 20
116.4469091982
 10
138.3250442185
 20
116.4139133756
 10
138.3731848719
 20
116.3795251088
 10
138.420875395
 20
116.3437591804
 10
138.4680825856
 20
116.3066288146
 10
138.5147732413
 20
116.2681472357
 10
138.5609141601
 20
116.228327668
 10
138.6064721395
 20
116.1871833357
 10
138.6514056664
 20
116.1447395798
 10
138.6956399831
 20
116.1010702089
 10
138.739092021
 20
116.0562611482
 10
138.7816787117
 20
116.0103983229
 10
138.8233169863
 20
115.9635676583
 10
138.8639237764
 20
115.9158550798
 10
138.9034271837
 20
115.8673387901
 10
138.9417999912
 20
115.8180661026
 10
138.9790261526
 20
115.7680766081
 10
139.0150896212
 20
115.7174098974
 10
139.0499743505
 20
115.6661055614
 10
139.0836642941
 20
115.6142031909
  0
LWPOLYLINE
  5
279
100
AcDbEntity
  8
0
100
AcDbPolyline
 62
7
  6
CONTINUOUS
 90
8
 70
0
 10
120.1548089063
 20
112.7295376407
 10
120.1288475807
 20
112.7671466908
 10
120.1063183487
 20
112.807187652
 10
120.0874931623
 20
112.8492966552
 10
120.0725253598
 20
112.8933178794
 10
120.0616420634
 20
112.9389051088
 10
120.0550571983
 20
112.9855012619
 10
120.0528820179
 20
113.0326034191
  0
LWPOLYLINE
  5
27A
100
AcDbEntity
  8
ASSI
100
AcDbPolyline
 62
7
  6
CONTINUOUS
 90
8
 70
0
 10
120.1548089063
 20
112.7295376407
 10
120.1288475807
 20
112.7671466908
 10
120.1063183487
 20
112.807187652
 10
120.0874931623
 20
112.8492966552
 10
120.0725253598
 20
112.8933178794
 10
120.0616420634
 20
112.9389051088
 10
120.0550571983
 20
112.9855012619
 10
120.0528820179
 20
113.0326034191
  0
LINE
  5
27B
100
AcDbEntity
  8
0
100
AcDbLine
 62
7
  6
CONTINUOUS
 10
133.9088700123
 20
127.7423644452
 11
133.8477177568
 21
127.3153637347
  0
LINE
  5
27C
100
AcDbEntity
  8
ASSI
100
AcDbLine
 62
7
  6
CONTINUOUS
 10
133.9088700123
 20
127.7423644452
 11
133.8477177568
 21
127.3153637347
  0
LWPOLYLINE
  5
27D
100
AcDbEntity
  8
0
100
AcDbPolyline
 62
253
  6
CONTINUOUS
 90
35
 70
0
 10
137.0027498829
 20
116.1119317454
 10
136.9919743366
 20
116.104016024
 10
136.9814483191
 20
116.095809963
 10
136.9711670084
 20
116.0873172382
 10
136.9611255825
 20
116.0785415258
 10
136.9513192194
 20
116.0694865018
 10
136.9417441735
 20
116.060156284
 10
136.932401005
 20
116.0505567577
 10
136.9232913503
 20
116.0406942502
 10
136.9144168459
 20
116.0305750884
 10
136.9057791285
 20
116.0202055997
 10
136.8973797107
 20
116.0095917385
 10
136.8892196111
 20
115.9987379689
 10
136.8812997242
 20
115.9876483827
 10
136.8736209449
 20
115.9763270712
 10
136.8661841678
 20
115.9647781261
 10
136.8572303018
 20
115.9500280048
 10
136.8486602691
 20
115.9349362104
 10
136.8404783768
 20
115.9195103545
 10
136.8326889318
 20
115.9037580484
 10
136.8267429319
 20
115.890925943
 10
136.8210536588
 20
115.8778916901
 10
136.8156239167
 20
115.8646571989
 10
136.8104565097
 20
115.8512243786
 10
136.8055542419
 20
115.8375951385
 10
136.8009202206
 20
115.8237719778
 10
136.7965587653
 20
115.8097597555
 10
136.7924744988
 20
115.7955639208
 10
136.7886720436
 20
115.7811899226
 10
136.7851560226
 20
115.7666432099
 10
136.7819310085
 20
115.7519275337
 10
136.7790013746
 20
115.7370398514
 10
136.7763714441
 20
115.7219754223
 10
136.7740455405
 20
115.7067295058
 10
136.7720279871
 20
115.6912973612
  0
LWPOLYLINE
  5
27E
100
AcDbEntity
  8
0
100
AcDbPolyline
 62
253
  6
CONTINUOUS
 90
55
 70
0
 10
137.0027498829
 20
116.1119317454
 10
137.0267905679
 20
116.1282942098
 10
137.0515668062
 20
116.1436340313
 10
137.0770640128
 20
116.1579369583
 10
137.1032676027
 20
116.171188739
 10
137.1301629909
 20
116.1833751217
 10
137.1577355925
 20
116.1944818545
 10
137.1859708223
 20
116.2044946859
 10
137.2148478358
 20
116.2134009424
 10
137.2443207491
 20
116.2211942655
 10
137.274337419
 20
116.2278698748
 10
137.3048457019
 20
116.2334229902
 10
137.3357934545
 20
116.2378488314
 10
137.3671285333
 20
116.2411426182
 10
137.398798795
 20
116.2432995704
 10
137.4307590463
 20
116.2443168177
 10
137.4629918949
 20
116.2441991294
 10
137.4954868985
 20
116.2429531849
 10
137.5282336149
 20
116.2405856635
 10
137.561221602
 20
116.2371032444
 10
137.5944404174
 20
116.2325126068
 10
137.6278796191
 20
116.2268204302
 10
137.6671500115
 20
116.2187965537
 10
137.7066498452
 20
116.2092949077
 10
137.7463228045
 20
116.1983279486
 10
137.7861125735
 20
116.1859081329
 10
137.8259628363
 20
116.172047917
 10
137.8658172774
 20
116.1567597572
 10
137.9056213694
 20
116.1400588028
 10
137.9453277405
 20
116.1219709749
 10
137.9848908072
 20
116.1025248871
 10
138.0242649864
 20
116.0817491533
 10
138.0634046946
 20
116.0596723874
 10
138.1022643487
 20
116.0363232032
 10
138.1353179033
 20
116.0153157559
 10
138.1681199066
 20
115.9933956553
 10
138.2006580507
 20
115.9705640635
 10
138.2329200283
 20
115.9468221429
 10
138.2648935318
 20
115.9221710556
 10
138.2965662535
 20
115.8966119638
 10
138.3279258859
 20
115.8701460299
 10
138.3589532064
 20
115.842782573
 10
138.3896013322
 20
115.8145635408
 10
138.4198164654
 20
115.7855390378
 10
138.4495448082
 20
115.7557591685
 10
138.4787325627
 20
115.7252740376
 10
138.5073259311
 20
115.6941337497
 10
138.5352711154
 20
115.6623884093
 10
138.5625214022
 20
115.6300839304
 10
138.5890584147
 20
115.5972494634
 10
138.6148708605
 20
115.5639099683
 10
138.6399474473
 20
115.530090405
 10
138.6642768826
 20
115.4958157334
 10
138.687847874
 20
115.4611109132
 10
138.7106491291
 20
115.4260009045
  0
LWPOLYLINE
  5
27F
100
AcDbEntity
  8
0
100
AcDbPolyline
 62
253
  6
CONTINUOUS
 90
35
 70
0
 10
136.644976125
 20
94.3342233732
 10
136.6281110571
 20
94.3590691923
 10
136.611633957
 20
94.3840437169
 10
136.5955371684
 20
94.409148128
 10
136.5798130351
 20
94.4343836062
 10
136.5644539009
 20
94.4597513326
 10
136.5494539795
 20
94.4852501321
 10
136.5348149642
 20
94.5108694062
 10
136.5205404184
 20
94.5365962006
 10
136.5066339053
 20
94.5624175611
 10
136.4930989883
 20
94.5883205334
 10
136.4799388162
 20
94.6142932243
 10
136.4671548803
 20
94.6403279856
 10
136.4547482573
 20
94.6664182301
 10
136.4427200241
 20
94.6925573707
 10
136.4310712575
 20
94.7187388204
 10
136.4170463667
 20
94.7515144236
 10
136.4036229912
 20
94.7843289517
 10
136.3908080473
 20
94.8171655143
 10
136.3786084512
 20
94.8500072207
 10
136.3692966023
 20
94.8762733635
 10
136.3603873218
 20
94.9025258877
 10
136.3518849291
 20
94.9287586928
 10
136.3437937437
 20
94.9549656779
 10
136.3361180848
 20
94.9811407424
 10
136.3288627645
 20
95.007276424
 10
136.322034565
 20
95.0333598144
 10
136.3156407612
 20
95.0593766435
 10
136.309688628
 20
95.0853126414
 10
136.3041854402
 20
95.1111535381
 10
136.2991383455
 20
95.1368877812
 10
136.2945539834
 20
95.1625146892
 10
136.290438866
 20
95.1880362981
 10
136.2867995056
 20
95.2134546439
 10
136.2836424144
 20
95.2387717629
  0
LINE
  5
280
100
AcDbEntity
  8
0
100
AcDbLine
 62
253
  6
CONTINUOUS
 10
133.8477177568
 20
127.3153637347
 11
133.8477177568
 21
127.3044584675
  0
LINE
  5
281
100
AcDbEntity
  8
ASSI
100
AcDbLine
 62
253
  6
CONTINUOUS
 10
133.8477177568
 20
127.3153637347
 11
133.8477177568
 21
127.3044584675
  0
LINE
  5
282
100
AcDbEntity
  8
0
100
AcDbLine
 62
7
  6
CONTINUOUS
 10
133.8470488444
 20
127.3044584675
 11
133.8477177568
 21
127.3153637347
  0
LINE
  5
283
100
AcDbEntity
  8
ASSI
100
AcDbLine
 62
7
  6
CONTINUOUS
 10
133.8470488444
 20
127.3044584675
 11
133.8477177568
 21
127.3153637347
  0
LWPOLYLINE
  5
284
100
AcDbEntity
  8
SUPERFICI
100
AcDbPolyline
 62
7
  6
CONTINUOUS
 90
34
 70
0
 10
135.2770355429
 20
110.0597720117
 10
135.2731855575
 20
110.0564223717
 10
135.2395975353
 20
110.0237234289
 10
135.2094254287
 20
109.9877898759
 10
135.1827783034
 20
109.9486723394
 10
135.1595482857
 20
109.9063211515
 10
135.1399803148
 20
109.8611690343
 10
135.1240786619
 20
109.8130474547
 10
135.1118400425
 20
109.7621257417
 10
135.103497544
 20
109.7093429956
 10
135.0991262214
 20
109.6548122136
 10
135.098651231
 20
109.5984205736
 10
135.1020802341
 20
109.5407679828
 10
135.1094837984
 20
109.4816868963
 10
135.1207911888
 20
109.4213447299
 10
135.1357975353
 20
109.3608433672
 10
135.1545225906
 20
109.3003190185
 10
135.1769456631
 20
109.239634723
 10
135.2028006773
 20
109.1794821734
 10
135.2321705212
 20
109.1197727198
 10
135.2649711032
 20
109.0605940465
 10
135.300685499
 20
109.0029020406
 10
135.3393189799
 20
108.9467749865
 10
135.3808647818
 20
108.8921333987
 10
135.4247876533
 20
108.8396962879
 10
135.471156999
 20
108.7894500191
 10
135.519901987
 20
108.7414070765
 10
135.5702769088
 20
108.6963255663
 10
135.6223216481
 20
108.6542554758
 10
135.6759951513
 20
108.6151458725
 10
135.7304303385
 20
108.5796035106
 10
135.7853379564
 20
108.5478304579
 10
135.8410065898
 20
108.5196241052
 10
135.8974360451
 20
108.494984295
  0
LWPOLYLINE
  5
285
100
AcDbEntity
  8
0
100
AcDbPolyline
 62
7
  6
CONTINUOUS
 90
13
 70
0
 10
135.277027017
 20
110.0597823013
 10
135.2857504219
 20
110.0670744165
 10
135.3294165415
 20
110.0985748016
 10
135.3765073202
 20
110.1247718571
 10
135.427176844
 20
110.1455902344
 10
135.4812687697
 20
110.1611034737
 10
135.5375807147
 20
110.1710422168
 10
135.5960661746
 20
110.1752919071
 10
135.6567697471
 20
110.1739655767
 10
135.7186257246
 20
110.167135269
 10
135.781278505
 20
110.1548247064
 10
135.8450826184
 20
110.1370093113
 10
135.9100377646
 20
110.1136888445
  0
LWPOLYLINE
  5
286
100
AcDbEntity
  8
ASSI
100
AcDbPolyline
 62
7
  6
CONTINUOUS
 90
13
 70
0
 10
135.277027017
 20
110.0597823013
 10
135.2857504219
 20
110.0670744165
 10
135.3294165415
 20
110.0985748016
 10
135.3765073202
 20
110.1247718571
 10
135.427176844
 20
110.1455902344
 10
135.4812687697
 20
110.1611034737
 10
135.5375807147
 20
110.1710422168
 10
135.5960661746
 20
110.1752919071
 10
135.6567697471
 20
110.1739655767
 10
135.7186257246
 20
110.167135269
 10
135.781278505
 20
110.1548247064
 10
135.8450826184
 20
110.1370093113
 10
135.9100377646
 20
110.1136888445
  0
LINE
  5
287
100
AcDbEntity
  8
SUPERFICI
100
AcDbLine
 62
7
  6
CONTINUOUS
 10
135.3096187755
 20
110.0853032439
 11
135.2770355429
 21
110.0597720117
  0
LWPOLYLINE
  5
288
100
AcDbEntity
  8
0
100
AcDbPolyline
 62
253
  6
CONTINUOUS
 90
35
 70
0
 10
139.0147819016
 20
112.1388625212
 10
139.0315009004
 20
112.1511341637
 10
139.0478315337
 20
112.1638607826
 10
139.0637815416
 20
112.1770372782
 10
139.0793586641
 20
112.1906585508
 10
139.0945706415
 20
112.2047195007
 10
139.1094233547
 20
112.2192140877
 10
139.1239152487
 20
112.2341325107
 10
139.1380429093
 20
112.2494640279
 10
139.1518029221
 20
112.2651978976
 10
139.165191873
 20
112.2813233782
 10
139.178206754
 20
112.2978305049
 10
139.190846182
 20
112.3147124204
 10
139.20310918
 20
112.3319630442
 10
139.214994771
 20
112.3495762959
 10
139.2265019782
 20
112.3675460951
 10
139.2403515938
 20
112.3905004315
 10
139.253601733
 20
112.4139902307
 10
139.2662456708
 20
112.4380033505
 10
139.2782766819
 20
112.462527649
 10
139.2874555308
 20
112.4825075313
 10
139.2962335575
 20
112.5028039066
 10
139.3046065169
 20
112.5234138842
 10
139.3125701641
 20
112.5443345736
 10
139.3201202539
 20
112.5655630845
 10
139.3272520525
 20
112.5870954996
 10
139.3339588704
 20
112.6089237957
 10
139.3402335293
 20
112.631038923
 10
139.346068851
 20
112.6534318315
 10
139.3514576571
 20
112.6760934714
 10
139.3563928831
 20
112.6990175501
 10
139.3608679194
 20
112.7222088038
 10
139.3648762703
 20
112.7456747257
 10
139.36841144
 20
112.7694228094
 10
139.3714669328
 20
112.7934605481
  0
LWPOLYLINE
  5
289
100
AcDbEntity
  8
0
100
AcDbPolyline
 62
253
  6
CONTINUOUS
 90
55
 70
0
 10
138.6550331562
 20
112.6189487226
 10
138.631158735
 20
112.6027217029
 10
138.6065469719
 20
112.5875154038
 10
138.5812120417
 20
112.5733438125
 10
138.5551681192
 20
112.5602209158
 10
138.5284293793
 20
112.5481607009
 10
138.5010099968
 20
112.5371771546
 10
138.4729241466
 20
112.5272842639
 10
138.4441922547
 20
112.5184944415
 10
138.414859752
 20
112.5108138019
 10
138.3849783204
 20
112.5042468853
 10
138.354599642
 20
112.4987982319
 10
138.3237753989
 20
112.494472382
 10
138.2925572729
 20
112.4912738756
 10
138.2609969463
 20
112.4892072531
 10
138.2291392761
 20
112.4882751346
 10
138.1970018208
 20
112.4884724607
 10
138.164595314
 20
112.4897922522
 10
138.1319304891
 20
112.4922275295
 10
138.0990180799
 20
112.4957713135
 10
138.06586882
 20
112.5004166248
 10
138.0324934428
 20
112.5061564841
 10
137.9932903003
 20
112.5142269182
 10
137.9538486306
 20
112.5237657063
 10
137.9142230677
 20
112.5347609008
 10
137.8744682452
 20
112.5472005541
 10
137.8346387972
 20
112.5610727185
 10
137.7947893574
 20
112.5763654463
 10
137.7549733453
 20
112.5930639313
 10
137.7152393222
 20
112.6111419324
 10
137.6756346353
 20
112.6305703503
 10
137.6362066315
 20
112.6513200853
 10
137.5970026578
 20
112.673362038
 10
137.5580700612
 20
112.6966671086
 10
137.5249481848
 20
112.717629062
 10
137.4920725105
 20
112.7394967014
 10
137.4594550757
 20
112.7622690871
 10
137.4271079178
 20
112.7859452794
 10
137.3950430742
 20
112.8105243386
 10
137.3632725824
 20
112.8360053248
 10
137.3318084798
 20
112.8623872983
 10
137.300669858
 20
112.8896611659
 10
137.2699040253
 20
112.9177852201
 10
137.2395653441
 20
112.9467096003
 10
137.209708177
 20
112.9763844454
 10
137.1803868864
 20
113.0067598947
 10
137.1516558348
 20
113.0377860873
 10
137.1235693846
 20
113.0694131624
 10
137.0961747683
 20
113.1015954587
 10
137.069490698
 20
113.1343041137
 10
137.0435287559
 20
113.1675144643
 10
137.0183005239
 20
113.2012018476
 10
136.9938175842
 20
113.2353416005
 10
136.9700915188
 20
113.2699090602
 10
136.9471339099
 20
113.3048795636
  0
LWPOLYLINE
  5
28A
100
AcDbEntity
  8
0
100
AcDbPolyline
 62
253
  6
CONTINUOUS
 90
55
 70
0
 10
139.014781451
 20
112.1388631222
 10
138.9795351309
 20
112.1149503243
 10
138.9431415608
 20
112.0925863736
 10
138.9056199645
 20
112.0717953658
 10
138.8669895659
 20
112.0526013967
 10
138.8272695885
 20
112.0350285617
 10
138.7864792562
 20
112.0191009568
 10
138.7446483901
 20
112.0048412484
 10
138.7018492008
 20
111.9922663859
 10
138.6581644964
 20
111.9813918898
 10
138.6136770848
 20
111.9722332801
 10
138.5684697741
 20
111.9648060774
 10
138.5226253722
 20
111.9591258018
 10
138.4762180594
 20
111.955203229
 10
138.4292875038
 20
111.9530301563
 10
138.381864746
 20
111.9525936362
 10
138.3339808263
 20
111.9538807213
 10
138.2856667851
 20
111.9568784642
 10
138.236953663
 20
111.9615739174
 10
138.1878743202
 20
111.9679547263
 10
138.1384688972
 20
111.9760109065
 10
138.0887793546
 20
111.9857330666
 10
138.0388476526
 20
111.9971118148
 10
137.9887157519
 20
112.0101377597
 10
137.9384256128
 20
112.0248015097
 10
137.8880200024
 20
112.0410920662
 10
137.8375449145
 20
112.0589920035
 10
137.7870471497
 20
112.0784822886
 10
137.7365735082
 20
112.0995438889
 10
137.6861707906
 20
112.1221577714
 10
137.6358857972
 20
112.1463049034
 10
137.5857641858
 20
112.1719656454
 10
137.535847043
 20
112.1991179314
 10
137.4861743127
 20
112.2277390884
 10
137.4367859388
 20
112.2578064438
 10
137.3877218652
 20
112.2892973247
 10
137.3390220357
 20
112.3221890583
 10
137.2907253061
 20
112.3564606103
 10
137.2428661798
 20
112.3920974994
 10
137.1954780718
 20
112.4290868828
 10
137.1485943973
 20
112.4674159177
 10
137.1022485715
 20
112.5070717614
 10
137.0564740096
 20
112.548041571
 10
137.0113125882
 20
112.590300428
 10
136.9668400304
 20
112.6337751116
 10
136.923140521
 20
112.6783803251
 10
136.8802982445
 20
112.724030772
 10
136.8383973855
 20
112.7706411558
 10
136.7975221288
 20
112.8181261798
 10
136.7577454143
 20
112.8664082694
 10
136.7190952034
 20
112.9154407375
 10
136.6815882127
 20
112.9651846188
 10
136.6452411591
 20
113.0156009481
 10
136.6100707592
 20
113.0666507603
 10
136.5760937298
 20
113.11829509
  0
LINE
  5
28B
100
AcDbEntity
  8
0
100
AcDbLine
 62
7
  6
CONTINUOUS
 10
155.9580785604
 20
118.8869052045
 11
155.3221736434
 21
118.6907381204
  0
LINE
  5
28C
100
AcDbEntity
  8
ASSI
100
AcDbLine
 62
7
  6
CONTINUOUS
 10
155.9580785604
 20
118.8869052045
 11
155.3221736434
 21
118.6907381204
  0
LWPOLYLINE
  5
28D
100
AcDbEntity
  8
SUPERFICI
100
AcDbPolyline
 62
7
  6
CONTINUOUS
 90
14
 70
0
 10
139.5963486856
 20
99.6525584323
 10
139.6525552091
 20
99.6319127703
 10
139.7080071282
 20
99.6153583611
 10
139.7627046173
 20
99.6028953518
 10
139.8169307976
 20
99.5944883834
 10
139.870403176
 20
99.590173343
 10
139.9222736371
 20
99.5900573569
 10
139.9725256823
 20
99.5942294876
 10
140.0211769525
 20
99.6026016309
 10
140.0674305808
 20
99.6150151959
 10
140.1111837347
 20
99.6315029431
 10
140.1525406466
 20
99.6520332846
 10
140.1910149579
 20
99.6763510305
 10
140.2068623688
 20
99.6881489454
  0
LWPOLYLINE
  5
28E
100
AcDbEntity
  8
SUPERFICI
100
AcDbPolyline
 62
7
  6
CONTINUOUS
 90
3
 70
0
 10
135.9099307532
 20
101.1331069824
 10
139.1869017117
 20
99.8172417617
 10
139.5963486856
 20
99.6525584323
  0
LINE
  5
28F
100
AcDbEntity
  8
0
100
AcDbLine
 62
7
  6
CONTINUOUS
 10
139.5962419059
 20
99.6525903107
 11
135.9100376418
 21
101.1330641215
  0
LINE
  5
290
100
AcDbEntity
  8
ASSI
100
AcDbLine
 62
7
  6
CONTINUOUS
 10
139.5962419059
 20
99.6525903107
 11
135.9100376418
 21
101.1330641215
  0
LWPOLYLINE
  5
291
100
AcDbEntity
  8
0
100
AcDbPolyline
 62
7
  6
CONTINUOUS
 90
29
 70
0
 10
135.9100376418
 20
101.1330641215
 10
135.8450262523
 20
101.1618033893
 10
135.7811850095
 20
101.1949951905
 10
135.7185142142
 20
101.2326397784
 10
135.6566594606
 20
101.2749992077
 10
135.5959762274
 20
101.3218123253
 10
135.5375298484
 20
101.3722947459
 10
135.4812857931
 20
101.426586682
 10
135.4272804912
 20
101.484549514
 10
135.376685735
 20
101.5449806217
 10
135.3296474075
 20
101.6078312874
 10
135.2860218687
 20
101.6731521064
 10
135.2465463808
 20
101.7398892209
 10
135.2112127278
 20
101.8082163564
 10
135.1800313823
 20
101.8779616723
 10
135.1537670288
 20
101.9475524492
 10
135.1325795476
 20
102.0168499717
 10
135.1163105348
 20
102.0859941832
 10
135.1052463806
 20
102.1538296256
 10
135.0994757152
 20
102.2204763164
 10
135.0989106389
 20
102.2858148399
 10
135.1035716805
 20
102.3483296961
 10
135.113550231
 20
102.4078336921
 10
135.1287542497
 20
102.46451347
 10
135.1489280388
 20
102.5174133814
 10
135.1742372774
 20
102.5665431086
 10
135.2045148608
 20
102.6118917736
 10
135.2390050202
 20
102.6524721426
 10
135.2692881108
 20
102.6810873107
  0
LWPOLYLINE
  5
292
100
AcDbEntity
  8
ASSI
100
AcDbPolyline
 62
7
  6
CONTINUOUS
 90
29
 70
0
 10
135.9100376418
 20
101.1330641215
 10
135.8450262523
 20
101.1618033893
 10
135.7811850095
 20
101.1949951905
 10
135.7185142142
 20
101.2326397784
 10
135.6566594606
 20
101.2749992077
 10
135.5959762274
 20
101.3218123253
 10
135.5375298484
 20
101.3722947459
 10
135.4812857931
 20
101.426586682
 10
135.4272804912
 20
101.484549514
 10
135.376685735
 20
101.5449806217
 10
135.3296474075
 20
101.6078312874
 10
135.2860218687
 20
101.6731521064
 10
135.2465463808
 20
101.7398892209
 10
135.2112127278
 20
101.8082163564
 10
135.1800313823
 20
101.8779616723
 10
135.1537670288
 20
101.9475524492
 10
135.1325795476
 20
102.0168499717
 10
135.1163105348
 20
102.0859941832
 10
135.1052463806
 20
102.1538296256
 10
135.0994757152
 20
102.2204763164
 10
135.0989106389
 20
102.2858148399
 10
135.1035716805
 20
102.3483296961
 10
135.113550231
 20
102.4078336921
 10
135.1287542497
 20
102.46451347
 10
135.1489280388
 20
102.5174133814
 10
135.1742372774
 20
102.5665431086
 10
135.2045148608
 20
102.6118917736
 10
135.2390050202
 20
102.6524721426
 10
135.2692881108
 20
102.6810873107
  0
LWPOLYLINE
  5
293
100
AcDbEntity
  8
0
100
AcDbPolyline
 62
253
  6
CONTINUOUS
 90
35
 70
0
 10
138.6550331562
 20
96.5399459479
 10
138.665733506
 20
96.5239900346
 10
138.6761839683
 20
96.5079534598
 10
138.6863894024
 20
96.4918359278
 10
138.6963546676
 20
96.4756371427
 10
138.7060846232
 20
96.4593568088
 10
138.7155830565
 20
96.4429958941
 10
138.724849467
 20
96.426560421
 10
138.7338822821
 20
96.4100576758
 10
138.7426799294
 20
96.3934949447
 10
138.7512408362
 20
96.3768795139
 10
138.7595635509
 20
96.360218219
 10
138.7676471049
 20
96.3435160925
 10
138.7754906505
 20
96.3267777164
 10
138.7830933401
 20
96.3100076727
 10
138.790454326
 20
96.2932105433
 10
138.799313944
 20
96.272183297
 10
138.8077903572
 20
96.2511314842
 10
138.8158793475
 20
96.2300657008
 10
138.8235766966
 20
96.2089965423
 10
138.8294496581
 20
96.1921456692
 10
138.8350665005
 20
96.1753034229
 10
138.8404244545
 20
96.1584738089
 10
138.8455207509
 20
96.1416608327
 10
138.8503526204
 20
96.1248684998
 10
138.854916993
 20
96.1081016143
 10
138.8592095951
 20
96.091368175
 10
138.863225852
 20
96.074676979
 10
138.8669611893
 20
96.0580368236
 10
138.8704110323
 20
96.0414565061
 10
138.8735708493
 20
96.0249431697
 10
138.8764362792
 20
96.008497342
 10
138.8790030039
 20
95.9921178962
 10
138.8812667051
 20
95.9758037057
 10
138.8832230645
 20
95.9595536441
  0
LWPOLYLINE
  5
294
100
AcDbEntity
  8
0
100
AcDbPolyline
 62
253
  6
CONTINUOUS
 90
13
 70
0
 10
136.2197024514
 20
96.1684515237
 10
136.218457527
 20
96.244509635
 10
136.217841236
 20
96.320325111
 10
136.2178535654
 20
96.3958932352
 10
136.2184945022
 20
96.4712092912
 10
136.2197640032
 20
96.5462685407
 10
136.2216619055
 20
96.6210661582
 10
136.224188016
 20
96.6955972966
 10
136.2273421417
 20
96.7698571085
 10
136.2311240615
 20
96.8438407892
 10
136.235533442
 20
96.9175437029
 10
136.2405699215
 20
96.9909612564
 10
136.2462331385
 20
97.0640888562
  0
LWPOLYLINE
  5
295
100
AcDbEntity
  8
0
100
AcDbPolyline
 62
253
  6
CONTINUOUS
 90
13
 70
0
 10
136.711365826
 20
95.9711916152
 10
136.7101841494
 20
96.0434215728
 10
136.7095987829
 20
96.1154207871
 10
136.7096097289
 20
96.1871849218
 10
136.7102169896
 20
96.2587096406
 10
136.7114205331
 20
96.3299904888
 10
136.7132201915
 20
96.4010225396
 10
136.7156157625
 20
96.471800748
 10
136.7186070439
 20
96.5423200691
 10
136.7221938072
 20
96.612575598
 10
136.7263757179
 20
96.6825629907
 10
136.7311524155
 20
96.7522780434
 10
136.7365235389
 20
96.8217165522
  0
LINE
  5
296
100
AcDbEntity
  8
0
100
AcDbLine
 62
7
  6
CONTINUOUS
 10
133.9088700123
 20
127.7423644452
 11
133.9149672781
 21
127.2150777512
  0
LINE
  5
297
100
AcDbEntity
  8
ASSI
100
AcDbLine
 62
7
  6
CONTINUOUS
 10
133.9088700123
 20
127.7423644452
 11
133.9149672781
 21
127.2150777512
  0
LWPOLYLINE
  5
298
100
AcDbEntity
  8
0
100
AcDbPolyline
 62
253
  6
CONTINUOUS
 90
13
 70
0
 10
136.2197024514
 20
115.0089485424
 10
136.2215798908
 20
115.0875545493
 10
136.2240855988
 20
115.1659192508
 10
136.2272193673
 20
115.2440374849
 10
136.2309809882
 20
115.32190409
 10
136.2353702397
 20
115.3995140601
 10
136.2403868446
 20
115.4768630133
 10
136.246030512
 20
115.5539467236
 10
136.252300951
 20
115.6307609651
 10
136.2591978364
 20
115.7073013717
 10
136.2667207062
 20
115.7835630172
 10
136.2748690643
 20
115.8595408353
 10
136.2836424144
 20
115.9352297598
  0
LWPOLYLINE
  5
299
100
AcDbEntity
  8
0
100
AcDbPolyline
 62
253
  6
CONTINUOUS
 90
13
 70
0
 10
136.711365826
 20
114.8116886339
 10
136.7131475032
 20
114.8863372628
 10
136.7155251561
 20
114.9607561288
 10
136.718498587
 20
115.034940329
 10
136.7220675981
 20
115.1088849606
 10
136.7262319791
 20
115.1825852706
 10
136.7309914675
 20
115.256037105
 10
136.7363457884
 20
115.3292364592
 10
136.7422946668
 20
115.4021793289
 10
136.748837795
 20
115.4748615751
 10
136.7559747358
 20
115.5472785211
 10
136.7637050194
 20
115.6194253554
 10
136.7720281759
 20
115.6912972668
  0
LWPOLYLINE
  5
29A
100
AcDbEntity
  8
0
100
AcDbPolyline
 62
253
  6
CONTINUOUS
 90
35
 70
0
 10
136.283643026
 20
115.9352294543
 10
136.2867952739
 20
115.959316321
 10
136.2904285457
 20
115.9831169147
 10
136.2945362344
 20
116.0066383386
 10
136.2991117333
 20
116.0298876961
 10
136.3041484356
 20
116.0528720904
 10
136.3096396978
 20
116.0755960988
 10
136.315578731
 20
116.0980541941
 10
136.3219587093
 20
116.1202383233
 10
136.3287728072
 20
116.1421404332
 10
136.3360141989
 20
116.1637524707
 10
136.3436764913
 20
116.1850671469
 10
136.3517550213
 20
116.2060802296
 10
136.3602455583
 20
116.2267882509
 10
136.3691438717
 20
116.2471877429
 10
136.378445731
 20
116.2672752374
 10
136.3906343507
 20
116.2919396261
 10
136.4034401642
 20
116.3160986265
 10
136.4168564355
 20
116.3397397648
 10
136.4308764283
 20
116.3628505671
 10
136.4425230384
 20
116.3809490345
 10
136.4545510489
 20
116.3986940158
 10
136.4669597896
 20
116.416079423
 10
136.4797485903
 20
116.4330991682
 10
136.4929167806
 20
116.4497471635
 10
136.5064630966
 20
116.466016371
 10
136.5203838984
 20
116.4818959535
 10
136.5346749525
 20
116.4973741237
 10
136.5493320253
 20
116.5124390942
 10
136.5643508831
 20
116.527079078
 10
136.5797293147
 20
116.5412834358
 10
136.5954731986
 20
116.5550461211
 10
136.6115904357
 20
116.5683622356
 10
136.6280889269
 20
116.5812268809
 10
136.6449765729
 20
116.5936351587
  0
LWPOLYLINE
  5
29B
100
AcDbEntity
  8
0
100
AcDbPolyline
 62
7
  6
CONTINUOUS
 90
11
 70
0
 10
155.8373818319
 20
98.3232019102
 10
155.8787962585
 20
98.3113614948
 10
155.9269069089
 20
98.3022879683
 10
155.9758483979
 20
98.297956348
 10
156.025160228
 20
98.2984598878
 10
156.0743266264
 20
98.3038416246
 10
156.1228948939
 20
98.3141005034
 10
156.1703738399
 20
98.3291871871
 10
156.2162507489
 20
98.3489901946
 10
156.2600424064
 20
98.3733484133
 10
156.2990287437
 20
98.4003174695
  0
LWPOLYLINE
  5
29C
100
AcDbEntity
  8
ASSI
100
AcDbPolyline
 62
7
  6
CONTINUOUS
 90
11
 70
0
 10
155.8373818319
 20
98.3232019102
 10
155.8787962585
 20
98.3113614948
 10
155.9269069089
 20
98.3022879683
 10
155.9758483979
 20
98.297956348
 10
156.025160228
 20
98.2984598878
 10
156.0743266264
 20
98.3038416246
 10
156.1228948939
 20
98.3141005034
 10
156.1703738399
 20
98.3291871871
 10
156.2162507489
 20
98.3489901946
 10
156.2600424064
 20
98.3733484133
 10
156.2990287437
 20
98.4003174695
  0
LWPOLYLINE
  5
29D
100
AcDbEntity
  8
0
100
AcDbPolyline
 62
253
  6
CONTINUOUS
 90
16
 70
0
 10
155.7444463298
 20
98.5501473016
 10
155.7876470953
 20
98.5373266578
 10
155.8328133933
 20
98.5269681275
 10
155.8795179201
 20
98.5191697095
 10
155.9273188121
 20
98.5140051822
 10
155.9757638472
 20
98.5115234044
 10
156.024394724
 20
98.511747857
 10
156.0727513829
 20
98.5146764224
 10
156.1203763131
 20
98.5202813981
 10
156.1668189055
 20
98.5285097519
 10
156.2116397624
 20
98.5392836285
 10
156.2544148721
 20
98.5525010993
 10
156.2947395751
 20
98.5680371227
 10
156.3322323782
 20
98.5857447203
 10
156.3665385674
 20
98.605456364
 10
156.3973335829
 20
98.6269855683
  0
LWPOLYLINE
  5
29E
100
AcDbEntity
  8
ASSI
100
AcDbPolyline
 62
253
  6
CONTINUOUS
 90
16
 70
0
 10
155.7444463298
 20
98.5501473016
 10
155.7876470953
 20
98.5373266578
 10
155.8328133933
 20
98.5269681275
 10
155.8795179201
 20
98.5191697095
 10
155.9273188121
 20
98.5140051822
 10
155.9757638472
 20
98.5115234044
 10
156.024394724
 20
98.511747857
 10
156.0727513829
 20
98.5146764224
 10
156.1203763131
 20
98.5202813981
 10
156.1668189055
 20
98.5285097519
 10
156.2116397624
 20
98.5392836285
 10
156.2544148721
 20
98.5525010993
 10
156.2947395751
 20
98.5680371227
 10
156.3322323782
 20
98.5857447203
 10
156.3665385674
 20
98.605456364
 10
156.3973335829
 20
98.6269855683
  0
LWPOLYLINE
  5
29F
100
AcDbEntity
  8
SUPERFICI
100
AcDbPolyline
 62
7
  6
CONTINUOUS
 90
12
 70
0
 10
135.8410838034
 20
102.751525277
 10
135.7854917604
 20
102.7680317409
 10
135.7306602323
 20
102.7804303328
 10
135.6763124126
 20
102.7887545525
 10
135.6227257721
 20
102.7929714503
 10
135.5707320488
 20
102.7929816186
 10
135.5203421327
 20
102.7886985419
 10
135.4715463052
 20
102.7802097086
 10
135.4251454248
 20
102.7676767437
 10
135.3812438839
 20
102.7510680841
 10
135.3397387049
 20
102.7304164701
 10
135.3011195935
 20
102.705979902
  0
LWPOLYLINE
  5
2A0
100
AcDbEntity
  8
0
100
AcDbPolyline
 62
253
  6
CONTINUOUS
 90
10
 70
0
 10
155.7444462227
 20
97.3390834825
 10
154.6157842806
 20
97.7188376212
 10
153.5265458831
 20
98.0945646295
 10
152.4759999466
 20
98.4655417608
 10
151.4634691715
 20
98.8310907636
 10
150.4882707174
 20
99.1905704858
 10
149.5497162249
 20
99.5433760018
 10
148.6471876283
 20
99.8889435439
 10
147.7801349438
 20
100.2267477655
 10
146.9480178971
 20
100.5562952772
  0
LWPOLYLINE
  5
2A1
100
AcDbEntity
  8
ASSI
100
AcDbPolyline
 62
253
  6
CONTINUOUS
 90
10
 70
0
 10
155.7444462227
 20
97.3390834825
 10
154.6157842806
 20
97.7188376212
 10
153.5265458831
 20
98.0945646295
 10
152.4759999466
 20
98.4655417608
 10
151.4634691715
 20
98.8310907636
 10
150.4882707174
 20
99.1905704858
 10
149.5497162249
 20
99.5433760018
 10
148.6471876283
 20
99.8889435439
 10
147.7801349438
 20
100.2267477655
 10
146.9480178971
 20
100.5562952772
  0
LINE
  5
2A2
100
AcDbEntity
  8
SUPERFICI
100
AcDbLine
 62
7
  6
CONTINUOUS
 10
135.8974361685
 20
102.7309107818
 11
135.8410838034
 21
102.751525277
  0
LINE
  5
2A3
100
AcDbEntity
  8
SUPERFICI
100
AcDbLine
 62
7
  6
CONTINUOUS
 10
139.583475318
 20
101.2505143594
 11
135.8974361685
 21
102.7309107818
  0
LINE
  5
2A4
100
AcDbEntity
  8
0
100
AcDbLine
 62
7
  6
CONTINUOUS
 10
135.8973694835
 20
102.7309305806
 11
139.5835418407
 21
101.2504875982
  0
LINE
  5
2A5
100
AcDbEntity
  8
ASSI
100
AcDbLine
 62
7
  6
CONTINUOUS
 10
135.8973694835
 20
102.7309305806
 11
139.5835418407
 21
101.2504875982
  0
LWPOLYLINE
  5
2A6
100
AcDbEntity
  8
0
100
AcDbPolyline
 62
7
  6
CONTINUOUS
 90
30
 70
0
 10
139.5835418407
 20
101.2504875982
 10
139.6484751287
 20
101.2216752952
 10
139.7122211182
 20
101.1883985779
 10
139.7747801367
 20
101.1506577169
 10
139.8365066995
 20
101.1081914365
 10
139.8970474162
 20
101.0612619447
 10
139.9553409581
 20
101.0106549065
 10
140.0114232261
 20
100.9562305748
 10
140.0652602581
 20
100.8981303078
 10
140.115685938
 20
100.8375614352
 10
140.1625566267
 20
100.7745747171
 10
140.2060182184
 20
100.7091212713
 10
140.2453386355
 20
100.6422587475
 10
140.2805279813
 20
100.5738150412
 10
140.3115783943
 20
100.5039641283
 10
140.3377302226
 20
100.4342822582
 10
140.3588254102
 20
100.3649095193
 10
140.3750234465
 20
100.2957070254
 10
140.3860401181
 20
100.2278318316
 10
140.3917876186
 20
100.1611643902
 10
140.3923544287
 20
100.0958248204
 10
140.387719695
 20
100.0333287835
 10
140.3777913274
 20
99.9738628448
 10
140.3626607101
 20
99.9172398578
 10
140.3425811261
 20
99.8644140173
 10
140.317385651
 20
99.8153746774
 10
140.2872397402
 20
99.7701312624
 10
140.2528943628
 20
99.7296673324
 10
140.2143587452
 20
99.6941501584
 10
140.2068478261
 20
99.6881668903
  0
LWPOLYLINE
  5
2A7
100
AcDbEntity
  8
ASSI
100
AcDbPolyline
 62
7
  6
CONTINUOUS
 90
30
 70
0
 10
139.5835418407
 20
101.2504875982
 10
139.6484751287
 20
101.2216752952
 10
139.7122211182
 20
101.1883985779
 10
139.7747801367
 20
101.1506577169
 10
139.8365066995
 20
101.1081914365
 10
139.8970474162
 20
101.0612619447
 10
139.9553409581
 20
101.0106549065
 10
140.0114232261
 20
100.9562305748
 10
140.0652602581
 20
100.8981303078
 10
140.115685938
 20
100.8375614352
 10
140.1625566267
 20
100.7745747171
 10
140.2060182184
 20
100.7091212713
 10
140.2453386355
 20
100.6422587475
 10
140.2805279813
 20
100.5738150412
 10
140.3115783943
 20
100.5039641283
 10
140.3377302226
 20
100.4342822582
 10
140.3588254102
 20
100.3649095193
 10
140.3750234465
 20
100.2957070254
 10
140.3860401181
 20
100.2278318316
 10
140.3917876186
 20
100.1611643902
 10
140.3923544287
 20
100.0958248204
 10
140.387719695
 20
100.0333287835
 10
140.3777913274
 20
99.9738628448
 10
140.3626607101
 20
99.9172398578
 10
140.3425811261
 20
99.8644140173
 10
140.317385651
 20
99.8153746774
 10
140.2872397402
 20
99.7701312624
 10
140.2528943628
 20
99.7296673324
 10
140.2143587452
 20
99.6941501584
 10
140.2068478261
 20
99.6881668903
  0
LWPOLYLINE
  5
2A8
100
AcDbEntity
  8
0
100
AcDbPolyline
 62
253
  6
CONTINUOUS
 90
10
 70
0
 10
120.2323380702
 20
111.6015467647
 10
120.1965742663
 20
111.6204594108
 10
120.1641813733
 20
111.641281302
 10
120.1354658502
 20
111.6638154491
 10
120.1106993686
 20
111.6878486608
 10
120.0901162319
 20
111.7131535696
 10
120.0739111643
 20
111.7394907849
 10
120.0622374786
 20
111.766611152
 10
120.0552056306
 20
111.7942580825
 10
120.0528820559
 20
111.8217535846
  0
LWPOLYLINE
  5
2A9
100
AcDbEntity
  8
ASSI
100
AcDbPolyline
 62
253
  6
CONTINUOUS
 90
10
 70
0
 10
120.2323380702
 20
111.6015467647
 10
120.1965742663
 20
111.6204594108
 10
120.1641813733
 20
111.641281302
 10
120.1354658502
 20
111.6638154491
 10
120.1106993686
 20
111.6878486608
 10
120.0901162319
 20
111.7131535696
 10
120.0739111643
 20
111.7394907849
 10
120.0622374786
 20
111.766611152
 10
120.0552056306
 20
111.7942580825
 10
120.0528820559
 20
111.8217535846
  0
LWPOLYLINE
  5
2AA
100
AcDbEntity
  8
0
100
AcDbPolyline
 62
253
  6
CONTINUOUS
 90
35
 70
0
 10
136.7720281759
 20
95.0882586457
 10
136.7740413623
 20
95.0720914941
 10
136.7763617218
 20
95.0558611736
 10
136.7789847833
 20
95.0395670769
 10
136.7819060762
 20
95.0232085968
 10
136.7851211293
 20
95.0067851262
 10
136.7886255288
 20
94.9902973556
 10
136.7924150875
 20
94.9737511677
 10
136.7964856753
 20
94.9571537427
 10
136.8008331619
 20
94.9405122611
 10
136.8054534173
 20
94.9238339032
 10
136.8103425428
 20
94.9071254031
 10
136.8154975676
 20
94.8903917095
 10
136.8209157521
 20
94.8736373248
 10
136.8265943572
 20
94.8568667513
 10
136.8325306435
 20
94.8400844914
 10
136.8403093925
 20
94.8190973817
 10
136.8484823382
 20
94.7981095801
 10
136.8570453305
 20
94.77713162
 10
136.8659942195
 20
94.7561740345
 10
136.8734286707
 20
94.7394294889
 10
136.8811070144
 20
94.7227087663
 10
136.8890288254
 20
94.7060159083
 10
136.8971936783
 20
94.6893549571
 10
136.9056011479
 20
94.6727299544
 10
136.9142504764
 20
94.656145738
 10
136.9231395759
 20
94.6396103289
 10
136.9322660262
 20
94.6231325437
 10
136.941627407
 20
94.6067211993
 10
136.951221298
 20
94.5903851124
 10
136.9610465295
 20
94.5741314872
 10
136.9711069343
 20
94.5579610774
 10
136.9814075956
 20
94.541873024
 10
136.9919535968
 20
94.5258664681
 10
137.0027500213
 20
94.5099405509
  0
LWPOLYLINE
  5
2AB
100
AcDbEntity
  8
0
100
AcDbPolyline
 62
253
  6
CONTINUOUS
 90
13
 70
0
 10
136.2836422705
 20
95.2387718072
 10
136.2748689646
 20
95.3173467647
 10
136.2667206367
 20
95.3957374385
 10
136.2591977848
 20
95.4739387059
 10
136.2523009069
 20
95.5519454444
 10
136.2460304668
 20
95.6297526856
 10
136.2403867914
 20
95.7073560796
 10
136.2353701734
 20
95.7847514311
 10
136.2309809056
 20
95.8619345446
 10
136.2272192669
 20
95.9389010821
 10
136.2240854809
 20
96.015646135
 10
136.2215797575
 20
96.092164652
 10
136.2197023065
 20
96.1684515819
  0
LWPOLYLINE
  5
2AC
100
AcDbEntity
  8
0
100
AcDbPolyline
 62
253
  6
CONTINUOUS
 90
13
 70
0
 10
136.7720280589
 20
95.0882586817
 10
136.7637049475
 20
95.16288534
 10
136.7559746947
 20
95.237336501
 10
136.7488377723
 20
95.3116072951
 10
136.7422946517
 20
95.3856928529
 10
136.7363457722
 20
95.4595884529
 10
136.7309914432
 20
95.5332899678
 10
136.7262319414
 20
95.6067934181
 10
136.7220675439
 20
95.6800948247
 10
136.7184985145
 20
95.7531900713
 10
136.7155250658
 20
95.8260744938
 10
136.7131473972
 20
95.8987432912
 10
136.7113657082
 20
95.9711916625
  0
LWPOLYLINE
  5
2AD
100
AcDbEntity
  8
0
100
AcDbPolyline
 62
253
  6
CONTINUOUS
 90
13
 70
0
 10
138.8832229926
 20
95.9595536663
 10
138.8912759702
 20
95.8847207535
 10
138.898759703
 20
95.8100793738
 10
138.9056737255
 20
95.7356342165
 10
138.9120175719
 20
95.6613899707
 10
138.9177907975
 20
95.5873513452
 10
138.922993042
 20
95.5135231268
 10
138.9276239662
 20
95.4399101214
 10
138.9316832308
 20
95.3665171352
 10
138.9351705215
 20
95.293348934
 10
138.9380856247
 20
95.2204101213
 10
138.9404283515
 20
95.1477052606
 10
138.9421985131
 20
95.0752389151
  0
LWPOLYLINE
  5
2AE
100
AcDbEntity
  8
0
100
AcDbPolyline
 62
253
  6
CONTINUOUS
 90
13
 70
0
 10
139.3714670766
 20
95.8089244634
 10
139.3799399032
 20
95.7301171183
 10
139.3878139392
 20
95.6515125918
 10
139.395088703
 20
95.5731159344
 10
139.4017637129
 20
95.4949321969
 10
139.4078385125
 20
95.416966372
 10
139.4133127466
 20
95.3392232221
 10
139.4181860857
 20
95.2617074518
 10
139.4224582
 20
95.1844237657
 10
139.4261287788
 20
95.1073769054
 10
139.4291975875
 20
95.0305717596
 10
139.4316644106
 20
94.9540132541
 10
139.4335290327
 20
94.8777063146
  0
LWPOLYLINE
  5
2AF
100
AcDbEntity
  8
0
100
AcDbPolyline
 62
253
  6
CONTINUOUS
 90
35
 70
0
 10
136.2462337524
 20
114.0486247101
 10
136.2483910067
 20
114.0225298001
 10
136.2510330273
 20
113.9963363317
 10
136.2541530395
 20
113.970042559
 10
136.2577442685
 20
113.943646736
 10
136.2617999397
 20
113.9171471169
 10
136.2663133405
 20
113.8905444579
 10
136.2712780085
 20
113.8638495242
 10
136.2766875436
 20
113.8370755833
 10
136.2825355455
 20
113.8102359028
 10
136.2888156142
 20
113.7833437499
 10
136.2955217448
 20
113.7564112978
 10
136.3026495128
 20
113.7294463411
 10
136.3101948892
 20
113.7024555802
 10
136.3181538447
 20
113.6754457155
 10
136.3265223503
 20
113.6484234472
 10
136.3375530607
 20
113.6146390995
 10
136.3492112491
 20
113.5808632635
 10
136.3614907672
 20
113.5471133622
 10
136.3743854666
 20
113.5134068187
 10
136.3851404784
 20
113.4864840915
 10
136.3962848445
 20
113.4596066746
 10
136.4078181378
 20
113.4327809785
 10
136.4197399314
 20
113.406013414
 10
136.4320497983
 20
113.3793103915
 10
136.4447467635
 20
113.3526797174
 10
136.4578276597
 20
113.3261347808
 10
136.4712887714
 20
113.2996903668
 10
136.4851263832
 20
113.2733612603
 10
136.4993367796
 20
113.2471622461
 10
136.5139181911
 20
113.2211053817
 10
136.5288766319
 20
113.1951918143
 10
136.5442200619
 20
113.1694199635
 10
136.5599564412
 20
113.1437882488
 10
136.5760937298
 20
113.11829509
  0
LWPOLYLINE
  5
2B0
100
AcDbEntity
  8
0
100
AcDbPolyline
 62
253
  6
CONTINUOUS
 90
13
 70
0
 10
136.246232994
 20
114.0486249405
 10
136.2405696115
 20
114.1297336474
 10
136.2355330436
 20
114.2106624917
 10
136.2311236367
 20
114.291406312
 10
136.2273417374
 20
114.371959947
 10
136.2241876638
 20
114.4523182906
 10
136.2216616214
 20
114.5324764578
 10
136.2197637873
 20
114.6124296191
 10
136.2184943386
 20
114.6921729448
 10
136.2178534269
 20
114.7717015631
 10
136.2178411016
 20
114.8510104335
 10
136.2184573868
 20
114.9300944735
 10
136.2197023065
 20
115.0089486005
  0
LWPOLYLINE
  5
2B1
100
AcDbEntity
  8
0
100
AcDbPolyline
 62
253
  6
CONTINUOUS
 90
13
 70
0
 10
136.7365234215
 20
113.899672004
 10
136.731152092
 20
113.9767015943
 10
136.726375285
 20
114.0535603579
 10
136.7221933423
 20
114.130243504
 10
136.7186066057
 20
114.2067462418
 10
136.7156153902
 20
114.2830637565
 10
136.7132199046
 20
114.3591911373
 10
136.7114203311
 20
114.4351234494
 10
136.7102168518
 20
114.5108557579
 10
136.7096096205
 20
114.5863831657
 10
136.7095986779
 20
114.6617009274
 10
136.7101840364
 20
114.7368043351
 10
136.7113657082
 20
114.8116886811
  0
LWPOLYLINE
  5
2B2
100
AcDbEntity
  8
0
100
AcDbPolyline
 62
253
  6
CONTINUOUS
 90
13
 70
0
 10
139.4335288879
 20
94.8777063728
 10
139.4347867716
 20
94.8016686722
 10
139.4354423459
 20
94.7258935416
 10
139.4354955909
 20
94.6503859561
 10
139.4349464865
 20
94.5751508905
 10
139.4337950285
 20
94.5001931655
 10
139.4320412751
 20
94.4255169838
 10
139.4296853004
 20
94.3511263938
 10
139.4267271786
 20
94.2770254436
 10
139.4231670071
 20
94.2032183131
 10
139.419004978
 20
94.1297097071
 10
139.4142413067
 20
94.056504462
 10
139.4088762087
 20
93.9836074143
  0
LWPOLYLINE
  5
2B3
100
AcDbEntity
  8
0
100
AcDbPolyline
 62
253
  6
CONTINUOUS
 90
13
 70
0
 10
138.9421983954
 20
95.0752389624
 10
138.9433917073
 20
95.0030273018
 10
138.9440123509
 20
94.9310644966
 10
138.94406031
 20
94.8593552742
 10
138.9435355684
 20
94.7879043622
 10
138.9424381246
 20
94.7167163399
 10
138.9407680366
 20
94.6457951944
 10
138.9385253777
 20
94.5751447644
 10
138.9357102207
 20
94.504768889
 10
138.9323226613
 20
94.4346715334
 10
138.9283628848
 20
94.3648571681
 10
138.9238310993
 20
94.2953303899
 10
138.9187275127
 20
94.2260957958
  0
LWPOLYLINE
  5
2B4
100
AcDbEntity
  8
0
100
AcDbPolyline
 62
253
  6
CONTINUOUS
 90
13
 70
0
 10
138.9421983954
 20
113.9157359811
 10
138.94042824
 20
113.8410880242
 10
138.9380855148
 20
113.7666902577
 10
138.9351703886
 20
113.6925471578
 10
138.9316830299
 20
113.6186632008
 10
138.927623642
 20
113.5450429819
 10
138.9229925671
 20
113.4716915704
 10
138.9177901821
 20
113.3986141546
 10
138.9120168641
 20
113.3258159226
 10
138.9056730068
 20
113.2533019144
 10
138.8987590711
 20
113.1810765779
 10
138.8912755348
 20
113.1091442127
 10
138.8832228757
 20
113.0375091185
  0
LWPOLYLINE
  5
2B5
100
AcDbEntity
  8
0
100
AcDbPolyline
 62
253
  6
CONTINUOUS
 90
13
 70
0
 10
139.4335288879
 20
113.7182033915
 10
139.4316642681
 20
113.6395980907
 10
139.429197443
 20
113.5612570739
 10
139.4261286127
 20
113.4831852107
 10
139.4224579778
 20
113.4053873712
 10
139.4181857649
 20
113.3278684441
 10
139.4133123067
 20
113.2506333939
 10
139.4078379625
 20
113.173687204
 10
139.4017630915
 20
113.0970348575
 10
139.3950880748
 20
113.0206812907
 10
139.3878133819
 20
112.9446312504
 10
139.3799395041
 20
112.8688894364
 10
139.3714669328
 20
112.7934605481
  0
LWPOLYLINE
  5
2B6
100
AcDbEntity
  8
0
100
AcDbPolyline
 62
253
  6
CONTINUOUS
 90
35
 70
0
 10
136.7365235389
 20
96.8217165522
 10
136.7379008611
 20
96.836596327
 10
136.7395878282
 20
96.8512927933
 10
136.7415798726
 20
96.865810183
 10
136.7438724267
 20
96.8801527282
 10
136.7464609227
 20
96.8943246608
 10
136.7493409043
 20
96.9083288395
 10
136.7525083601
 20
96.9221626297
 10
136.7559593897
 20
96.9358220237
 10
136.7596900928
 20
96.9493030136
 10
136.7636965694
 20
96.9626015916
 10
136.7679751361
 20
96.9757140167
 10
136.7725229779
 20
96.988637616
 10
136.7773374968
 20
97.0013699837
 10
136.7824160949
 20
97.0139087137
 10
136.7877561742
 20
97.0262514001
 10
136.7947952383
 20
97.0413999459
 10
136.8022350238
 20
97.0562309517
 10
136.8100717469
 20
97.0707369551
 10
136.818301624
 20
97.0849104933
 10
136.8251663324
 20
97.0960049339
 10
136.8322799714
 20
97.1068779972
 10
136.8396422747
 20
97.11752586
 10
136.8472529758
 20
97.1279446987
 10
136.8551118084
 20
97.13813069
 10
136.8632182008
 20
97.1480794646
 10
136.8715703601
 20
97.1577844715
 10
136.8801661882
 20
97.1672386138
 10
136.889003587
 20
97.1764347946
 10
136.8980804582
 20
97.1853659172
 10
136.9073959084
 20
97.1940255194
 10
136.916953863
 20
97.202409678
 10
136.926759452
 20
97.2105151045
 10
136.9368178055
 20
97.2183385102
 10
136.9471340535
 20
97.2258766068
  0
LWPOLYLINE
  5
2B7
100
AcDbEntity
  8
0
100
AcDbPolyline
 62
253
  6
CONTINUOUS
 90
35
 70
0
 10
138.8832228757
 20
113.0375091185
 10
138.8812707426
 20
113.0221584861
 10
138.8790124386
 20
113.006994008
 10
138.8764524281
 20
112.9920113678
 10
138.8735951754
 20
112.9772062486
 10
138.8704451449
 20
112.9625743339
 10
138.8670067383
 20
112.9481127202
 10
138.8632841073
 20
112.933824157
 10
138.8592813412
 20
112.9197128069
 10
138.855002529
 20
112.9057828324
 10
138.8504517599
 20
112.8920383961
 10
138.8456328922
 20
112.8784833823
 10
138.8405488598
 20
112.8651205613
 10
138.8352023658
 20
112.8519524252
 10
138.8295961132
 20
112.838981466
 10
138.8237328052
 20
112.8262101756
 10
138.8160461008
 20
112.810531114
 10
138.8079660322
 20
112.7951756189
 10
138.7994966608
 20
112.7801513804
 10
138.7906420481
 20
112.7654660887
 10
138.7832834304
 20
112.7539670614
 10
138.7756812383
 20
112.7426937988
 10
138.7678358527
 20
112.7316502181
 10
138.7597476542
 20
112.7208402364
 10
138.7514170237
 20
112.710267771
 10
138.7428446697
 20
112.6999373029
 10
138.7340326122
 20
112.6898555695
 10
138.724983199
 20
112.680029872
 10
138.7156987778
 20
112.6704675119
 10
138.7061816966
 20
112.6611757904
 10
138.6964330586
 20
112.6521613416
 10
138.6864489901
 20
112.6434281309
 10
138.6762243725
 20
112.6349794563
 10
138.6657540877
 20
112.6268186161
 10
138.6550330171
 20
112.6189489083
  0
LWPOLYLINE
  5
2B8
100
AcDbEntity
  8
SUPERFICI
100
AcDbPolyline
 62
7
  6
CONTINUOUS
 90
34
 70
0
 10
135.2692965214
 20
102.681077368
 10
135.2653644521
 20
102.677653799
 10
135.2324968894
 20
102.6455440017
 10
135.2030748913
 20
102.6102239111
 10
135.177206128
 20
102.5717430522
 10
135.1547841028
 20
102.5300528812
 10
135.1360451715
 20
102.4855793803
 10
135.1209961722
 20
102.4381563357
 10
135.1096312245
 20
102.3879507644
 10
135.1021670816
 20
102.3358880596
 10
135.0986764307
 20
102.2820792866
 10
135.0990867593
 20
102.2264135312
 10
135.1033964407
 20
102.1694827325
 10
135.1116782472
 20
102.1111209283
 10
135.1238592023
 20
102.0514939158
 10
135.139718481
 20
101.9916907913
 10
135.1592736094
 20
101.9318458883
 10
135.1825060935
 20
101.8718240686
 10
135.2091405444
 20
101.8123097744
 10
135.2392607106
 20
101.7532150881
 10
135.2727816219
 20
101.6946269085
 10
135.3091744399
 20
101.6374915901
 10
135.3484430998
 20
101.5818864273
 10
135.3905821729
 20
101.5277328768
 10
135.4350485106
 20
101.475743315
 10
135.4819112006
 20
101.425903931
 10
135.5310997429
 20
101.3782273526
 10
135.5818615139
 20
101.3334655349
 10
135.6342417771
 20
101.2916642947
 10
135.6881941279
 20
101.2527768579
 10
135.7428284808
 20
101.2174163262
 10
135.7978479267
 20
101.1857868871
 10
135.8535487426
 20
101.1576838218
 10
135.9099307532
 20
101.1331069824
  0
LWPOLYLINE
  5
2B9
100
AcDbEntity
  8
0
100
AcDbPolyline
 62
7
  6
CONTINUOUS
 90
13
 70
0
 10
135.2692881108
 20
102.6810873107
 10
135.2776958068
 20
102.688114823
 10
135.3205969169
 20
102.7189873272
 10
135.3669844114
 20
102.7446072484
 10
135.4170126142
 20
102.7648994168
 10
135.4705249319
 20
102.7799371125
 10
135.5263307848
 20
102.7894603864
 10
135.5843856632
 20
102.7933563604
 10
135.6447321306
 20
102.7917362955
 10
135.7063102277
 20
102.7846764604
 10
135.7687662499
 20
102.7722019591
 10
135.8324527773
 20
102.7542867558
 10
135.8973694835
 20
102.7309305806
  0
LWPOLYLINE
  5
2BA
100
AcDbEntity
  8
ASSI
100
AcDbPolyline
 62
7
  6
CONTINUOUS
 90
13
 70
0
 10
135.2692881108
 20
102.6810873107
 10
135.2776958068
 20
102.688114823
 10
135.3205969169
 20
102.7189873272
 10
135.3669844114
 20
102.7446072484
 10
135.4170126142
 20
102.7648994168
 10
135.4705249319
 20
102.7799371125
 10
135.5263307848
 20
102.7894603864
 10
135.5843856632
 20
102.7933563604
 10
135.6447321306
 20
102.7917362955
 10
135.7063102277
 20
102.7846764604
 10
135.7687662499
 20
102.7722019591
 10
135.8324527773
 20
102.7542867558
 10
135.8973694835
 20
102.7309305806
  0
LWPOLYLINE
  5
2BB
100
AcDbEntity
  8
SUPERFICI
100
AcDbPolyline
 62
7
  6
CONTINUOUS
 90
32
 70
0
 10
140.198499203
 20
107.0536657508
 10
140.2188173716
 20
107.07052386
 10
140.2522722567
 20
107.1031147636
 10
140.282320746
 20
107.1389480457
 10
140.3088551569
 20
107.1779741712
 10
140.3319843456
 20
107.2202436166
 10
140.351465773
 20
107.2653253346
 10
140.3672959947
 20
107.3133883194
 10
140.3794794129
 20
107.3642643423
 10
140.3877847345
 20
107.4170161004
 10
140.3921373599
 20
107.4715309616
 10
140.3926120635
 20
107.5279216929
 10
140.3892010321
 20
107.5855886227
 10
140.3818336116
 20
107.6446994479
 10
140.3705802522
 20
107.7050863023
 10
140.3556442226
 20
107.7656457082
 10
140.3370046262
 20
107.8262405712
 10
140.3146813918
 20
107.8870072047
 10
140.2889384927
 20
107.9472518153
 10
140.259691992
 20
108.0070621664
 10
140.227024605
 20
108.0663495123
 10
140.1914499115
 20
108.1241549989
 10
140.1529609881
 20
108.1803988846
 10
140.1115632648
 20
108.2351597132
 10
140.0677885864
 20
108.2877158492
 10
140.0215661996
 20
108.3380797389
 10
139.9729654455
 20
108.3862378052
 10
139.9227282168
 20
108.4314293027
 10
139.8708068429
 20
108.4736064431
 10
139.8172478534
 20
108.5128161026
 10
139.7629344812
 20
108.5484395663
 10
139.7081609236
 20
108.5802704252
  0
LINE
  5
2BC
100
AcDbEntity
  8
SUPERFICI
100
AcDbLine
 62
7
  6
CONTINUOUS
 10
135.3011195935
 20
102.705979902
 11
135.2692965214
 21
102.681077368
  0
LWPOLYLINE
  5
2BD
100
AcDbEntity
  8
0
100
AcDbPolyline
 62
7
  6
CONTINUOUS
 90
11
 70
0
 10
140.1984846671
 20
107.0536840975
 10
140.1627880108
 20
107.0285375528
 10
140.1158653798
 20
107.0024792733
 10
140.0653654709
 20
106.9818007059
 10
140.0114423456
 20
106.9664264964
 10
139.9552925828
 20
106.956621508
 10
139.8969602212
 20
106.952498233
 10
139.8363992757
 20
106.9539426078
 10
139.7746713003
 20
106.9608796697
 10
139.7121297611
 20
106.9732841196
 10
139.6484200676
 20
106.9911803463
  0
LWPOLYLINE
  5
2BE
100
AcDbEntity
  8
ASSI
100
AcDbPolyline
 62
7
  6
CONTINUOUS
 90
11
 70
0
 10
140.1984846671
 20
107.0536840975
 10
140.1627880108
 20
107.0285375528
 10
140.1158653798
 20
107.0024792733
 10
140.0653654709
 20
106.9818007059
 10
140.0114423456
 20
106.9664264964
 10
139.9552925828
 20
106.956621508
 10
139.8969602212
 20
106.952498233
 10
139.8363992757
 20
106.9539426078
 10
139.7746713003
 20
106.9608796697
 10
139.7121297611
 20
106.9732841196
 10
139.6484200676
 20
106.9911803463
  0
LWPOLYLINE
  5
2BF
100
AcDbEntity
  8
0
100
AcDbPolyline
 62
253
  6
CONTINUOUS
 90
10
 70
0
 10
155.9929024426
 20
97.9952617221
 10
154.8701695349
 20
98.3745656053
 10
153.7852163645
 20
98.7485151118
 10
152.7380429314
 20
99.1171102414
 10
151.7292879816
 20
99.4809539824
 10
150.7583127692
 20
99.8394433466
 10
149.823201056
 20
100.1907693699
 10
148.923314096
 20
100.5343290642
 10
148.0592906352
 20
100.8707254176
 10
147.2311306737
 20
101.1999584301
  0
LWPOLYLINE
  5
2C0
100
AcDbEntity
  8
ASSI
100
AcDbPolyline
 62
253
  6
CONTINUOUS
 90
10
 70
0
 10
155.9929024426
 20
97.9952617221
 10
154.8701695349
 20
98.3745656053
 10
153.7852163645
 20
98.7485151118
 10
152.7380429314
 20
99.1171102414
 10
151.7292879816
 20
99.4809539824
 10
150.7583127692
 20
99.8394433466
 10
149.823201056
 20
100.1907693699
 10
148.923314096
 20
100.5343290642
 10
148.0592906352
 20
100.8707254176
 10
147.2311306737
 20
101.1999584301
  0
LWPOLYLINE
  5
2C1
100
AcDbEntity
  8
0
100
AcDbPolyline
 62
7
  6
CONTINUOUS
 90
10
 70
0
 10
147.0482551336
 20
101.5442565997
 10
147.9881471259
 20
101.1723066733
 10
148.9907510835
 20
100.7827508547
 10
149.9897797565
 20
100.4020152931
 10
150.9850975764
 20
100.0300933962
 10
151.9765732317
 20
99.6669685936
 10
152.9640784649
 20
99.3126164767
 10
153.9474634268
 20
98.9670119498
 10
154.9265512227
 20
98.6301306009
 10
155.837196658
 20
98.323263596
  0
LWPOLYLINE
  5
2C2
100
AcDbEntity
  8
ASSI
100
AcDbPolyline
 62
7
  6
CONTINUOUS
 90
10
 70
0
 10
147.0482551336
 20
101.5442565997
 10
147.9881471259
 20
101.1723066733
 10
148.9907510835
 20
100.7827508547
 10
149.9897797565
 20
100.4020152931
 10
150.9850975764
 20
100.0300933962
 10
151.9765732317
 20
99.6669685936
 10
152.9640784649
 20
99.3126164767
 10
153.9474634268
 20
98.9670119498
 10
154.9265512227
 20
98.6301306009
 10
155.837196658
 20
98.323263596
  0
LWPOLYLINE
  5
2C3
100
AcDbEntity
  8
0
100
AcDbPolyline
 62
253
  6
CONTINUOUS
 90
10
 70
0
 10
146.9480178971
 20
101.7739902008
 10
147.7821449354
 20
101.443576128
 10
148.650723679
 20
101.104968127
 10
149.5542875028
 20
100.7586535364
 10
150.4933785357
 20
100.4051684648
 10
151.4686066962
 20
100.0450513499
 10
152.4806518853
 20
99.6788456485
 10
153.5301872014
 20
99.3071652999
 10
154.6178788679
 20
98.930695518
 10
155.7444462246
 20
98.5501472819
  0
LWPOLYLINE
  5
2C4
100
AcDbEntity
  8
ASSI
100
AcDbPolyline
 62
253
  6
CONTINUOUS
 90
10
 70
0
 10
146.9480178971
 20
101.7739902008
 10
147.7821449354
 20
101.443576128
 10
148.650723679
 20
101.104968127
 10
149.5542875028
 20
100.7586535364
 10
150.4933785357
 20
100.4051684648
 10
151.4686066962
 20
100.0450513499
 10
152.4806518853
 20
99.6788456485
 10
153.5301872014
 20
99.3071652999
 10
154.6178788679
 20
98.930695518
 10
155.7444462246
 20
98.5501472819
  0
LINE
  5
2C5
100
AcDbEntity
  8
0
100
AcDbLine
 62
7
  6
CONTINUOUS
 10
145.0816592472
 20
102.3311446816
 11
147.0482556447
 21
101.5442562063
  0
LINE
  5
2C6
100
AcDbEntity
  8
ASSI
100
AcDbLine
 62
7
  6
CONTINUOUS
 10
145.0816592472
 20
102.3311446816
 11
147.0482556447
 21
101.5442562063
  0
LINE
  5
2C7
100
AcDbEntity
  8
0
100
AcDbLine
 62
253
  6
CONTINUOUS
 10
146.9480178971
 20
100.5562952772
 11
145.1910388567
 21
101.2590947955
  0
LINE
  5
2C8
100
AcDbEntity
  8
ASSI
100
AcDbLine
 62
253
  6
CONTINUOUS
 10
146.9480178971
 20
100.5562952772
 11
145.1910388567
 21
101.2590947955
  0
LINE
  5
2C9
100
AcDbEntity
  8
0
100
AcDbLine
 62
253
  6
CONTINUOUS
 10
147.2311306737
 20
101.1999584301
 11
144.5974625754
 21
102.2543836206
  0
LINE
  5
2CA
100
AcDbEntity
  8
ASSI
100
AcDbLine
 62
253
  6
CONTINUOUS
 10
147.2311306737
 20
101.1999584301
 11
144.5974625754
 21
102.2543836206
  0
LINE
  5
2CB
100
AcDbEntity
  8
0
100
AcDbLine
 62
253
  6
CONTINUOUS
 10
143.4323138791
 20
103.1827282402
 11
146.9480178971
 21
101.7739902008
  0
LINE
  5
2CC
100
AcDbEntity
  8
ASSI
100
AcDbLine
 62
253
  6
CONTINUOUS
 10
143.4323138791
 20
103.1827282402
 11
146.9480178971
 21
101.7739902008
  0
LINE
  5
2CD
100
AcDbEntity
  8
0
100
AcDbLine
 62
253
  6
CONTINUOUS
 10
145.1910388567
 20
101.2590947955
 11
142.5588322036
 21
102.3161127807
  0
LINE
  5
2CE
100
AcDbEntity
  8
ASSI
100
AcDbLine
 62
253
  6
CONTINUOUS
 10
145.1910388567
 20
101.2590947955
 11
142.5588322036
 21
102.3161127807
  0
LWPOLYLINE
  5
2CF
100
AcDbEntity
  8
0
100
AcDbPolyline
 62
253
  6
CONTINUOUS
 90
3
 70
0
 10
142.5588322036
 20
102.3161127807
 10
140.8050945721
 20
103.0217412512
 10
131.1493079903
 20
106.8980903219
  0
LWPOLYLINE
  5
2D0
100
AcDbEntity
  8
ASSI
100
AcDbPolyline
 62
253
  6
CONTINUOUS
 90
3
 70
0
 10
142.5588322036
 20
102.3161127807
 10
140.8050945721
 20
103.0217412512
 10
131.1493079903
 20
106.8980903219
  0
LWPOLYLINE
  5
2D1
100
AcDbEntity
  8
0
100
AcDbPolyline
 62
7
  6
CONTINUOUS
 90
3
 70
0
 10
136.892417684
 20
105.6228368751
 10
141.0054471441
 20
103.9694660658
 10
145.0816592472
 20
102.3311446816
  0
LWPOLYLINE
  5
2D2
100
AcDbEntity
  8
ASSI
100
AcDbPolyline
 62
7
  6
CONTINUOUS
 90
3
 70
0
 10
136.892417684
 20
105.6228368751
 10
141.0054471441
 20
103.9694660658
 10
145.0816592472
 20
102.3311446816
  0
LINE
  5
2D3
100
AcDbEntity
  8
0
100
AcDbLine
 62
253
  6
CONTINUOUS
 10
138.1683213158
 20
105.3000682081
 11
143.4323138791
 21
103.1827282402
  0
LINE
  5
2D4
100
AcDbEntity
  8
ASSI
100
AcDbLine
 62
253
  6
CONTINUOUS
 10
138.1683213158
 20
105.3000682081
 11
143.4323138791
 21
103.1827282402
  0
LWPOLYLINE
  5
2D5
100
AcDbEntity
  8
0
100
AcDbPolyline
 62
253
  6
CONTINUOUS
 90
3
 70
0
 10
131.1493079903
 20
106.8980903219
 10
129.3940532232
 20
107.6045871915
 10
128.5170969006
 20
107.9585686648
  0
LWPOLYLINE
  5
2D6
100
AcDbEntity
  8
ASSI
100
AcDbPolyline
 62
253
  6
CONTINUOUS
 90
3
 70
0
 10
131.1493079903
 20
106.8980903219
 10
129.3940532232
 20
107.6045871915
 10
128.5170969006
 20
107.9585686648
  0
LWPOLYLINE
  5
2D7
100
AcDbEntity
  8
0
100
AcDbPolyline
 62
253
  6
CONTINUOUS
 90
3
 70
0
 10
144.5974625754
 20
102.2543836206
 10
129.679253948
 20
108.2476104835
 10
128.8025518913
 20
108.6012911317
  0
LWPOLYLINE
  5
2D8
100
AcDbEntity
  8
ASSI
100
AcDbPolyline
 62
253
  6
CONTINUOUS
 90
3
 70
0
 10
144.5974625754
 20
102.2543836206
 10
129.679253948
 20
108.2476104835
 10
128.8025518913
 20
108.6012911317
  0
LWPOLYLINE
  5
2D9
100
AcDbEntity
  8
0
100
AcDbPolyline
 62
7
  6
CONTINUOUS
 90
3
 70
0
 10
128.6177418681
 20
108.9463660663
 10
130.6485632925
 20
108.1277556725
 10
136.892417684
 20
105.6228368751
  0
LWPOLYLINE
  5
2DA
100
AcDbEntity
  8
ASSI
100
AcDbPolyline
 62
7
  6
CONTINUOUS
 90
3
 70
0
 10
128.6177418681
 20
108.9463660663
 10
130.6485632925
 20
108.1277556725
 10
136.892417684
 20
105.6228368751
  0
LWPOLYLINE
  5
2DB
100
AcDbEntity
  8
0
100
AcDbPolyline
 62
253
  6
CONTINUOUS
 90
3
 70
0
 10
128.5170969006
 20
109.1762635883
 10
129.3929916404
 20
108.8227479822
 10
138.1683213158
 20
105.3000682081
  0
LWPOLYLINE
  5
2DC
100
AcDbEntity
  8
ASSI
100
AcDbPolyline
 62
253
  6
CONTINUOUS
 90
3
 70
0
 10
128.5170969006
 20
109.1762635883
 10
129.3929916404
 20
108.8227479822
 10
138.1683213158
 20
105.3000682081
  0
LWPOLYLINE
  5
2DD
100
AcDbEntity
  8
0
100
AcDbPolyline
 62
253
  6
CONTINUOUS
 90
6
 70
0
 10
128.8025518913
 20
108.6012911317
 10
127.9779025397
 20
108.9358967805
 10
127.1296296943
 20
109.2872308757
 10
126.2577333552
 20
109.6552934171
 10
125.3614684427
 20
110.039535808
 10
124.4415800366
 20
110.4405066452
  0
LWPOLYLINE
  5
2DE
100
AcDbEntity
  8
ASSI
100
AcDbPolyline
 62
253
  6
CONTINUOUS
 90
6
 70
0
 10
128.8025518913
 20
108.6012911317
 10
127.9779025397
 20
108.9358967805
 10
127.1296296943
 20
109.2872308757
 10
126.2577333552
 20
109.6552934171
 10
125.3614684427
 20
110.039535808
 10
124.4415800366
 20
110.4405066452
  0
LWPOLYLINE
  5
2DF
100
AcDbEntity
  8
0
100
AcDbPolyline
 62
253
  6
CONTINUOUS
 90
10
 70
0
 10
128.5170969006
 20
107.9585686648
 10
127.6905530391
 20
108.2951945124
 10
126.8389250284
 20
108.6476877409
 10
125.9628292939
 20
109.016502873
 10
125.062944962
 20
109.4021041939
 10
124.1399603713
 20
109.8050167358
 10
123.1945767313
 20
110.2258283814
 10
122.2275845935
 20
110.6651241432
 10
121.2398651783
 20
111.1234863992
 10
120.2323380845
 20
111.6015467099
  0
LWPOLYLINE
  5
2E0
100
AcDbEntity
  8
ASSI
100
AcDbPolyline
 62
253
  6
CONTINUOUS
 90
10
 70
0
 10
128.5170969006
 20
107.9585686648
 10
127.6905530391
 20
108.2951945124
 10
126.8389250284
 20
108.6476877409
 10
125.9628292939
 20
109.016502873
 10
125.062944962
 20
109.4021041939
 10
124.1399603713
 20
109.8050167358
 10
123.1945767313
 20
110.2258283814
 10
122.2275845935
 20
110.6651241432
 10
121.2398651783
 20
111.1234863992
 10
120.2323380845
 20
111.6015467099
  0
LWPOLYLINE
  5
2E1
100
AcDbEntity
  8
0
100
AcDbPolyline
 62
253
  6
CONTINUOUS
 90
5
 70
0
 10
124.4415800366
 20
110.4405066452
 10
123.5003033757
 20
110.8598517192
 10
122.5383835397
 20
111.2981196266
 10
121.5550754491
 20
111.7547617709
 10
120.5503791037
 20
112.2297781518
  0
LWPOLYLINE
  5
2E2
100
AcDbEntity
  8
ASSI
100
AcDbPolyline
 62
253
  6
CONTINUOUS
 90
5
 70
0
 10
124.4415800366
 20
110.4405066452
 10
123.5003033757
 20
110.8598517192
 10
122.5383835397
 20
111.2981196266
 10
121.5550754491
 20
111.7547617709
 10
120.5503791037
 20
112.2297781518
  0
LWPOLYLINE
  5
2E3
100
AcDbEntity
  8
0
100
AcDbPolyline
 62
253
  6
CONTINUOUS
 90
10
 70
0
 10
120.2323380862
 20
112.8126105091
 10
121.2417531251
 20
112.335175026
 10
122.2309159022
 20
111.8774708686
 10
123.1988932208
 20
111.4388574852
 10
124.1447918552
 20
111.018726628
 10
125.0678100955
 20
110.6165033771
 10
125.9672363166
 20
110.2316458576
 10
126.8423733042
 20
109.863640423
 10
127.6925345301
 20
109.5119995285
 10
128.5170969006
 20
109.1762635883
  0
LWPOLYLINE
  5
2E4
100
AcDbEntity
  8
ASSI
100
AcDbPolyline
 62
253
  6
CONTINUOUS
 90
10
 70
0
 10
120.2323380862
 20
112.8126105091
 10
121.2417531251
 20
112.335175026
 10
122.2309159022
 20
111.8774708686
 10
123.1988932208
 20
111.4388574852
 10
124.1447918552
 20
111.018726628
 10
125.0678100955
 20
110.6165033771
 10
125.9672363166
 20
110.2316458576
 10
126.8423733042
 20
109.863640423
 10
127.6925345301
 20
109.5119995285
 10
128.5170969006
 20
109.1762635883
  0
LWPOLYLINE
  5
2E5
100
AcDbEntity
  8
0
100
AcDbPolyline
 62
7
  6
CONTINUOUS
 90
10
 70
0
 10
120.3371274825
 20
112.5810356992
 10
121.1455613667
 20
112.1978044666
 10
122.0317514486
 20
111.7854764624
 10
122.933793652
 20
111.3737836846
 10
123.8516701137
 20
110.9628285953
 10
124.7853731245
 20
110.5526994793
 10
125.7349018271
 20
110.14347245
 10
126.7002410843
 20
109.7352227896
 10
127.681357696
 20
109.3280248224
 10
128.6177431975
 20
108.946365704
  0
LWPOLYLINE
  5
2E6
100
AcDbEntity
  8
ASSI
100
AcDbPolyline
 62
7
  6
CONTINUOUS
 90
10
 70
0
 10
120.3371274825
 20
112.5810356992
 10
121.1455613667
 20
112.1978044666
 10
122.0317514486
 20
111.7854764624
 10
122.933793652
 20
111.3737836846
 10
123.8516701137
 20
110.9628285953
 10
124.7853731245
 20
110.5526994793
 10
125.7349018271
 20
110.14347245
 10
126.7002410843
 20
109.7352227896
 10
127.681357696
 20
109.3280248224
 10
128.6177431975
 20
108.946365704
  0
LWPOLYLINE
  5
2E7
100
AcDbEntity
  8
0
100
AcDbPolyline
 62
7
  6
CONTINUOUS
 90
7
 70
0
 10
120.3369933042
 20
112.5810999059
 10
120.3263209428
 20
112.5863657651
 10
120.2872656588
 20
112.6084769927
 10
120.2504383865
 20
112.6339343626
 10
120.2158635167
 20
112.6627410859
 10
120.1838711102
 20
112.6947014127
 10
120.1548089063
 20
112.7295376407
  0
LWPOLYLINE
  5
2E8
100
AcDbEntity
  8
ASSI
100
AcDbPolyline
 62
7
  6
CONTINUOUS
 90
7
 70
0
 10
120.3369933042
 20
112.5810999059
 10
120.3263209428
 20
112.5863657651
 10
120.2872656588
 20
112.6084769927
 10
120.2504383865
 20
112.6339343626
 10
120.2158635167
 20
112.6627410859
 10
120.1838711102
 20
112.6947014127
 10
120.1548089063
 20
112.7295376407
  0
LWPOLYLINE
  5
2E9
100
AcDbEntity
  8
0
100
AcDbPolyline
 62
253
  6
CONTINUOUS
 90
35
 70
0
 10
139.3714663214
 20
95.8089246964
 10
139.3684155258
 20
95.8342876601
 10
139.364886293
 20
95.8597543668
 10
139.3608852107
 20
95.8853264092
 10
139.3564188666
 20
95.9110053799
 10
139.3514938483
 20
95.9367928715
 10
139.3461167681
 20
95.9626880458
 10
139.3402943375
 20
95.9886803415
 10
139.3340332924
 20
96.0147567662
 10
139.327340369
 20
96.0409043276
 10
139.3202223032
 20
96.0671100334
 10
139.3126854012
 20
96.0933619575
 10
139.3047342488
 20
96.1196524372
 10
139.296373002
 20
96.145974876
 10
139.2876058166
 20
96.1723226776
 10
139.2784368484
 20
96.1986892454
 10
139.2664167009
 20
96.2316630936
 10
139.2537818083
 20
96.2646388604
 10
139.2405387176
 20
96.2975994492
 10
139.2266939757
 20
96.3305277634
 10
139.2151889298
 20
96.3568360987
 10
139.2033035911
 20
96.3831065464
 10
139.1910385337
 20
96.4093328164
 10
139.1783943315
 20
96.4355086185
 10
139.1653715587
 20
96.4616276626
 10
139.1519713731
 20
96.4876822923
 10
139.1381972686
 20
96.5136593859
 10
139.1240533232
 20
96.5395444552
 10
139.1095436146
 20
96.5653230124
 10
139.0946722208
 20
96.5909805692
 10
139.0794412097
 20
96.6165053127
 10
139.0638446091
 20
96.6418961302
 10
139.0478744371
 20
96.6671545841
 10
139.0315227118
 20
96.6922822367
 10
139.014781451
 20
96.7172806505
  0
LWPOLYLINE
  5
2EA
100
AcDbEntity
  8
0
100
AcDbPolyline
 62
253
  6
CONTINUOUS
 90
35
 70
0
 10
138.9187275127
 20
114.829134417
 10
138.9174112024
 20
114.845872416
 10
138.9157862432
 20
114.8626723751
 10
138.9138572004
 20
114.8795349787
 10
138.9116286391
 20
114.8964609112
 10
138.9091051243
 20
114.9134508569
 10
138.9062911037
 20
114.9305041527
 10
138.9031905552
 20
114.9476147448
 10
138.8998073392
 20
114.9647752317
 10
138.8961453159
 20
114.9819782121
 10
138.8922083459
 20
114.9992162845
 10
138.8880000728
 20
115.0164825063
 10
138.8835232745
 20
115.0337717705
 10
138.8787805119
 20
115.0510794285
 10
138.8737743462
 20
115.0684008321
 10
138.8685073385
 20
115.0857313329
 10
138.8615604528
 20
115.1073998652
 10
138.8542136938
 20
115.1290644392
 10
138.8464707521
 20
115.1507141454
 10
138.8383353181
 20
115.1723380743
 10
138.831546578
 20
115.1896115555
 10
138.8245092225
 20
115.2068573449
 10
138.817223469
 20
115.2240712306
 10
138.8096895351
 20
115.2412490005
 10
138.8019076385
 20
115.2583864425
 10
138.7938782967
 20
115.2754785223
 10
138.7856032284
 20
115.2925169164
 10
138.7770844523
 20
115.3094924791
 10
138.7683239869
 20
115.3263960647
 10
138.7593238512
 20
115.3432185273
 10
138.7500848653
 20
115.3599523769
 10
138.7406030568
 20
115.376596745
 10
138.7308732545
 20
115.3931524187
 10
138.7208902876
 20
115.4096201852
 10
138.710648985
 20
115.4260008317
  0
LWPOLYLINE
  5
2EB
100
AcDbEntity
  8
0
100
AcDbPolyline
 62
253
  6
CONTINUOUS
 90
13
 70
0
 10
138.9187276301
 20
114.8291343813
 10
138.9238311897
 20
114.7518704205
 10
138.9283629589
 20
114.6747992152
 10
138.9323227281
 20
114.5979258494
 10
138.9357102876
 20
114.5212554074
 10
138.93852545
 20
114.4447928166
 10
138.9407681183
 20
114.3685423785
 10
138.9424382175
 20
114.2925082378
 10
138.9435356728
 20
114.2166945392
 10
138.9440604245
 20
114.1411055663
 10
138.944012472
 20
114.0657461568
 10
138.9433918301
 20
113.9906212871
 10
138.9421985131
 20
113.9157359337
  0
LWPOLYLINE
  5
2EC
100
AcDbEntity
  8
0
100
AcDbPolyline
 62
253
  6
CONTINUOUS
 90
13
 70
0
 10
139.4088763531
 20
114.6800653673
 10
139.4142414247
 20
114.5986985477
 10
139.4190050801
 20
114.5175353124
 10
139.4231671021
 20
114.4365810143
 10
139.4267272736
 20
114.3558410061
 10
139.4296854009
 20
114.275320477
 10
139.4320413846
 20
114.1950239636
 10
139.433795149
 20
114.114955839
 10
139.4349466184
 20
114.0351204762
 10
139.4354957325
 20
113.9555223926
 10
139.4354424941
 20
113.8761666822
 10
139.4347869214
 20
113.797058583
 10
139.4335290327
 20
113.7182033333
  0
LWPOLYLINE
  5
2ED
100
AcDbEntity
  8
0
100
AcDbPolyline
 62
253
  6
CONTINUOUS
 90
35
 70
0
 10
139.408875595
 20
93.983607718
 10
139.4068196523
 20
93.960418892
 10
139.404281506
 20
93.9375153725
 10
139.4012679238
 20
93.9148901882
 10
139.3977856736
 20
93.8925363676
 10
139.393841523
 20
93.8704469393
 10
139.3894421643
 20
93.848617366
 10
139.3845939873
 20
93.8270528476
 10
139.3793033059
 20
93.8057610183
 10
139.3735764346
 20
93.7847495122
 10
139.3674196873
 20
93.7640259634
 10
139.3608389846
 20
93.7435972737
 10
139.353838673
 20
93.7234674157
 10
139.3464227051
 20
93.7036396299
 10
139.3385950337
 20
93.6841171566
 10
139.3303596115
 20
93.6649032361
 10
139.3194976607
 20
93.6413255909
 10
139.3080107235
 20
93.6182469508
 10
139.2959047481
 20
93.5956791441
 10
139.2831856825
 20
93.5736339989
 10
139.2725725483
 20
93.5563821054
 10
139.2615711649
 20
93.5394780878
 10
139.2501818537
 20
93.5229277485
 10
139.2384049366
 20
93.5067368897
 10
139.2262407352
 20
93.490911314
 10
139.2136901081
 20
93.475457727
 10
139.2007560624
 20
93.4603864479
 10
139.1874421422
 20
93.4457086989
 10
139.1737518914
 20
93.4314357025
 10
139.1596888543
 20
93.4175786812
 10
139.1452546418
 20
93.4041477825
 10
139.1304431332
 20
93.3911488543
 10
139.1152462749
 20
93.37858667
 10
139.0996560131
 20
93.3664660026
 10
139.0836642941
 20
93.3547916253
  0
LINE
  5
2EE
100
AcDbEntity
  8
0
100
AcDbLine
 62
7
  6
CONTINUOUS
 10
143.1652881128
 20
124.024778255
 11
143.1041358573
 21
123.5977775445
  0
LINE
  5
2EF
100
AcDbEntity
  8
ASSI
100
AcDbLine
 62
7
  6
CONTINUOUS
 10
143.1652881128
 20
124.024778255
 11
143.1041358573
 21
123.5977775445
  0
LINE
  5
2F0
100
AcDbEntity
  8
0
100
AcDbLine
 62
7
  6
CONTINUOUS
 10
139.6484200676
 20
106.9911803463
 11
139.583541893
 21
107.0145680847
  0
LINE
  5
2F1
100
AcDbEntity
  8
ASSI
100
AcDbLine
 62
7
  6
CONTINUOUS
 10
139.6484200676
 20
106.9911803463
 11
139.583541893
 21
107.0145680847
  0
LWPOLYLINE
  5
2F2
100
AcDbEntity
  8
SUPERFICI
100
AcDbPolyline
 62
7
  6
CONTINUOUS
 90
13
 70
0
 10
135.9099306567
 20
110.1137204541
 10
135.8536260544
 20
110.1342857748
 10
135.7980022888
 20
110.1506994155
 10
135.7430595344
 20
110.1629615152
 10
135.6885133748
 20
110.171106372
 10
135.6346488545
 20
110.1751001885
 10
135.5823204706
 20
110.1748410662
 10
135.5315442362
 20
110.1702395449
 10
135.4823052806
 20
110.1613859978
 10
135.4354118146
 20
110.1484483085
 10
135.3909683136
 20
110.131395062
 10
135.3488717023
 20
110.1102587942
 10
135.3096187755
 20
110.0853032439
  0
LWPOLYLINE
  5
2F3
100
AcDbEntity
  8
SUPERFICI
100
AcDbPolyline
 62
7
  6
CONTINUOUS
 90
14
 70
0
 10
139.5834751948
 20
107.0145878728
 10
139.6397899688
 20
106.9939425847
 10
139.695391603
 20
106.9774439774
 10
139.7502802902
 20
106.9650922076
 10
139.8047340622
 20
106.956854779
 10
139.8584755516
 20
106.9527647259
 10
139.9106719813
 20
106.9529206051
 10
139.9613146196
 20
106.9574106995
 10
140.0104133698
 20
106.9661476726
 10
140.0571634409
 20
106.9789666778
 10
140.1014618027
 20
106.9959003941
 10
140.1434129002
 20
107.0169172832
 10
140.1825230587
 20
107.0417560935
 10
140.198499203
 20
107.0536657508
  0
LINE
  5
2F4
100
AcDbEntity
  8
0
100
AcDbLine
 62
7
  6
CONTINUOUS
 10
158.5234757652
 20
100.0978595518
 11
158.6165431573
 21
100.0604815889
  0
LINE
  5
2F5
100
AcDbEntity
  8
ASSI
100
AcDbLine
 62
7
  6
CONTINUOUS
 10
158.5234757652
 20
100.0978595518
 11
158.6165431573
 21
100.0604815889
  0
LINE
  5
2F6
100
AcDbEntity
  8
SUPERFICI
100
AcDbLine
 62
7
  6
CONTINUOUS
 10
135.8974360451
 20
108.494984295
 11
139.5834751948
 21
107.0145878728
  0
LINE
  5
2F7
100
AcDbEntity
  8
0
100
AcDbLine
 62
7
  6
CONTINUOUS
 10
139.583541893
 20
107.0145680847
 11
135.8973694495
 21
108.4950109965
  0
LINE
  5
2F8
100
AcDbEntity
  8
ASSI
100
AcDbLine
 62
7
  6
CONTINUOUS
 10
139.583541893
 20
107.0145680847
 11
135.8973694495
 21
108.4950109965
  0
LINE
  5
2F9
100
AcDbEntity
  8
SUPERFICI
100
AcDbLine
 62
7
  6
CONTINUOUS
 10
139.5963485892
 20
108.6331719041
 11
135.9099306567
 21
110.1137204541
  0
LINE
  5
2FA
100
AcDbEntity
  8
0
100
AcDbLine
 62
7
  6
CONTINUOUS
 10
135.9100377646
 20
110.1136888445
 11
139.5962418133
 21
108.6332148573
  0
LINE
  5
2FB
100
AcDbEntity
  8
ASSI
100
AcDbLine
 62
7
  6
CONTINUOUS
 10
135.9100377646
 20
110.1136888445
 11
139.5962418133
 21
108.6332148573
  0
LWPOLYLINE
  5
2FC
100
AcDbEntity
  8
0
100
AcDbPolyline
 62
7
  6
CONTINUOUS
 90
29
 70
0
 10
135.8973694495
 20
108.4950109965
 10
135.8323977893
 20
108.5237918669
 10
135.7686750753
 20
108.5570876503
 10
135.7062016346
 20
108.5948986125
 10
135.644625005
 20
108.6374877111
 10
135.5842987737
 20
108.684592899
 10
135.5262825454
 20
108.7354270992
 10
135.4705438076
 20
108.7901328343
 10
135.4171170116
 20
108.848569147
 10
135.3671622147
 20
108.9095237444
 10
135.3208255154
 20
108.972947881
 10
135.2779630703
 20
109.038892119
 10
135.2392997625
 20
109.1062929152
 10
135.2048300275
 20
109.1753260921
 10
135.1745616716
 20
109.2458176287
 10
135.1492390073
 20
109.3161787102
 10
135.1290206001
 20
109.3862696655
 10
135.1137493181
 20
109.4562313122
 10
135.1036950488
 20
109.5248948598
 10
135.0989487974
 20
109.5923824763
 10
135.099420233
 20
109.6585725273
 10
135.1051061676
 20
109.7219296576
 10
135.1160956449
 20
109.7822648064
 10
135.1322989152
 20
109.8397664593
 10
135.1534435259
 20
109.8934647186
 10
135.1796964482
 20
109.9433702685
 10
135.2108892417
 20
109.9894712397
 10
135.2462454534
 20
110.0307631966
 10
135.277027017
 20
110.0597823013
  0
LWPOLYLINE
  5
2FD
100
AcDbEntity
  8
ASSI
100
AcDbPolyline
 62
7
  6
CONTINUOUS
 90
29
 70
0
 10
135.8973694495
 20
108.4950109965
 10
135.8323977893
 20
108.5237918669
 10
135.7686750753
 20
108.5570876503
 10
135.7062016346
 20
108.5948986125
 10
135.644625005
 20
108.6374877111
 10
135.5842987737
 20
108.684592899
 10
135.5262825454
 20
108.7354270992
 10
135.4705438076
 20
108.7901328343
 10
135.4171170116
 20
108.848569147
 10
135.3671622147
 20
108.9095237444
 10
135.3208255154
 20
108.972947881
 10
135.2779630703
 20
109.038892119
 10
135.2392997625
 20
109.1062929152
 10
135.2048300275
 20
109.1753260921
 10
135.1745616716
 20
109.2458176287
 10
135.1492390073
 20
109.3161787102
 10
135.1290206001
 20
109.3862696655
 10
135.1137493181
 20
109.4562313122
 10
135.1036950488
 20
109.5248948598
 10
135.0989487974
 20
109.5923824763
 10
135.099420233
 20
109.6585725273
 10
135.1051061676
 20
109.7219296576
 10
135.1160956449
 20
109.7822648064
 10
135.1322989152
 20
109.8397664593
 10
135.1534435259
 20
109.8934647186
 10
135.1796964482
 20
109.9433702685
 10
135.2108892417
 20
109.9894712397
 10
135.2462454534
 20
110.0307631966
 10
135.277027017
 20
110.0597823013
  0
LWPOLYLINE
  5
2FE
100
AcDbEntity
  8
0
100
AcDbPolyline
 62
7
  6
CONTINUOUS
 90
30
 70
0
 10
139.5962418133
 20
108.6332148573
 10
139.6611320441
 20
108.6043763421
 10
139.7247566172
 20
108.5710070555
 10
139.7871158334
 20
108.5331072369
 10
139.8485623093
 20
108.4904133662
 10
139.9087445011
 20
108.4431898195
 10
139.9666066763
 20
108.3922288471
 10
140.0221827044
 20
108.3373896951
 10
140.075440615
 20
108.2788146361
 10
140.1252259335
 20
108.2177204758
 10
140.1713949482
 20
108.1541577107
 10
140.2140936136
 20
108.0880776415
 10
140.2526017082
 20
108.0205480848
 10
140.2869266022
 20
107.9513946224
 10
140.3170631819
 20
107.8807934844
 10
140.3422718896
 20
107.8103379731
 10
140.362395803
 20
107.7401692268
 10
140.3775933209
 20
107.6701472981
 10
140.3875969999
 20
107.6014431653
 10
140.3923165132
 20
107.5339354211
 10
140.391842918
 20
107.4677460677
 10
140.3861797802
 20
107.4044103424
 10
140.3752375058
 20
107.3441169099
 10
140.3591050391
 20
107.2866765919
 10
140.3380526747
 20
107.2330569939
 10
140.3119123743
 20
107.1832465007
 10
140.2808507506
 20
107.1372555874
 10
140.2456391791
 20
107.0960842721
 10
140.206289695
 20
107.0599020184
 10
140.1984846671
 20
107.0536840975
  0
LWPOLYLINE
  5
2FF
100
AcDbEntity
  8
ASSI
100
AcDbPolyline
 62
7
  6
CONTINUOUS
 90
30
 70
0
 10
139.5962418133
 20
108.6332148573
 10
139.6611320441
 20
108.6043763421
 10
139.7247566172
 20
108.5710070555
 10
139.7871158334
 20
108.5331072369
 10
139.8485623093
 20
108.4904133662
 10
139.9087445011
 20
108.4431898195
 10
139.9666066763
 20
108.3922288471
 10
140.0221827044
 20
108.3373896951
 10
140.075440615
 20
108.2788146361
 10
140.1252259335
 20
108.2177204758
 10
140.1713949482
 20
108.1541577107
 10
140.2140936136
 20
108.0880776415
 10
140.2526017082
 20
108.0205480848
 10
140.2869266022
 20
107.9513946224
 10
140.3170631819
 20
107.8807934844
 10
140.3422718896
 20
107.8103379731
 10
140.362395803
 20
107.7401692268
 10
140.3775933209
 20
107.6701472981
 10
140.3875969999
 20
107.6014431653
 10
140.3923165132
 20
107.5339354211
 10
140.391842918
 20
107.4677460677
 10
140.3861797802
 20
107.4044103424
 10
140.3752375058
 20
107.3441169099
 10
140.3591050391
 20
107.2866765919
 10
140.3380526747
 20
107.2330569939
 10
140.3119123743
 20
107.1832465007
 10
140.2808507506
 20
107.1372555874
 10
140.2456391791
 20
107.0960842721
 10
140.206289695
 20
107.0599020184
 10
140.1984846671
 20
107.0536840975
  0
LWPOLYLINE
  5
300
100
AcDbEntity
  8
SUPERFICI
100
AcDbPolyline
 62
7
  6
CONTINUOUS
 90
3
 70
0
 10
139.7081609236
 20
108.5802704252
 10
139.6526323514
 20
108.6085145844
 10
139.5963485892
 20
108.6331719041
  0
LWPOLYLINE
  5
301
100
AcDbEntity
  8
0
100
AcDbPolyline
 62
253
  6
CONTINUOUS
 90
35
 70
0
 10
136.9471339099
 20
113.3048795636
 10
136.9368375878
 20
113.3211664369
 10
136.9267982342
 20
113.3375397722
 10
136.9170109629
 20
113.3539998432
 10
136.9074708874
 20
113.3705469233
 10
136.8981731213
 20
113.387181286
 10
136.8891138207
 20
113.4039019172
 10
136.8802933112
 20
113.420702651
 10
136.871712961
 20
113.4375760339
 10
136.8633741384
 20
113.4545146121
 10
136.8552782114
 20
113.4715109321
 10
136.8474264408
 20
113.4885580018
 10
136.8398196571
 20
113.5056506757
 10
136.8324585835
 20
113.5227842697
 10
136.8253439432
 20
113.5399541
 10
136.8184764591
 20
113.5571554824
 10
136.8102411911
 20
113.5786941663
 10
136.8023971789
 20
113.6002640116
 10
136.7949483664
 20
113.621854198
 10
136.7878986977
 20
113.6434539052
 10
136.7825491078
 20
113.6607334992
 10
136.7774601795
 20
113.6780081874
 10
136.7726345985
 20
113.6952738958
 10
136.7680750502
 20
113.7125265503
 10
136.76378422
 20
113.7297620767
 10
136.7597650684
 20
113.7469755812
 10
136.7560216559
 20
113.7641588902
 10
136.7525583177
 20
113.7813030107
 10
136.7493793891
 20
113.7983989494
 10
136.7464892057
 20
113.8154377132
 10
136.7438921198
 20
113.8324120119
 10
136.7415925528
 20
113.8493213674
 10
136.7395949431
 20
113.8661670049
 10
136.7379037291
 20
113.8829501494
 10
136.7365233494
 20
113.8996720259
  0
LINE
  5
302
100
AcDbEntity
  8
0
100
AcDbLine
 62
7
  6
CONTINUOUS
 10
143.1652881128
 20
124.024778255
 11
143.1713853785
 21
123.497491561
  0
LINE
  5
303
100
AcDbEntity
  8
ASSI
100
AcDbLine
 62
7
  6
CONTINUOUS
 10
143.1652881128
 20
124.024778255
 11
143.1713853785
 21
123.497491561
  0
LINE
  5
304
100
AcDbEntity
  8
0
100
AcDbLine
 62
253
  6
CONTINUOUS
 10
143.1041358573
 20
123.5977775445
 11
143.1041358573
 21
123.5868722773
  0
LINE
  5
305
100
AcDbEntity
  8
ASSI
100
AcDbLine
 62
253
  6
CONTINUOUS
 10
143.1041358573
 20
123.5977775445
 11
143.1041358573
 21
123.5868722773
  0
LINE
  5
306
100
AcDbEntity
  8
0
100
AcDbLine
 62
7
  6
CONTINUOUS
 10
143.1034669448
 20
123.5868722773
 11
143.1041358573
 21
123.5977775445
  0
LINE
  5
307
100
AcDbEntity
  8
ASSI
100
AcDbLine
 62
7
  6
CONTINUOUS
 10
143.1034669448
 20
123.5868722773
 11
143.1041358573
 21
123.5977775445
  0
LINE
  5
308
100
AcDbEntity
  8
0
100
AcDbLine
 62
253
  6
CONTINUOUS
 10
156.6432732691
 20
116.7355176168
 11
158.1455361506
 21
118.0083729213
  0
LINE
  5
309
100
AcDbEntity
  8
ASSI
100
AcDbLine
 62
253
  6
CONTINUOUS
 10
156.6432732691
 20
116.7355176168
 11
158.1455361506
 21
118.0083729213
  0
LINE
  5
30A
100
AcDbEntity
  8
0
100
AcDbLine
 62
253
  6
CONTINUOUS
 10
157.060211035
 20
116.1682096651
 11
158.5806015189
 21
117.4564243419
  0
LINE
  5
30B
100
AcDbEntity
  8
ASSI
100
AcDbLine
 62
253
  6
CONTINUOUS
 10
157.060211035
 20
116.1682096651
 11
158.5806015189
 21
117.4564243419
  0
LWPOLYLINE
  5
30C
100
AcDbEntity
  8
0
100
AcDbPolyline
 62
253
  6
CONTINUOUS
 90
35
 70
0
 10
136.5760932653
 20
97.6967132079
 10
136.5599774215
 20
97.6849356411
 10
136.5442612943
 20
97.672712396
 10
136.5289371527
 20
97.6600485801
 10
136.5139972662
 20
97.6469493007
 10
136.4994339038
 20
97.6334196651
 10
136.4852411382
 20
97.6194656756
 10
136.4714202564
 20
97.6050969136
 10
136.4579743486
 20
97.5903238555
 10
136.444906505
 20
97.5751569776
 10
136.4322198159
 20
97.5596067563
 10
136.4199169939
 20
97.5436829141
 10
136.40799924
 20
97.5273921595
 10
136.3964673776
 20
97.5107404469
 10
136.38532223
 20
97.4937337309
 10
136.3745646206
 20
97.4763779663
 10
136.3616646259
 20
97.4542015137
 10
136.3493777777
 20
97.4315007964
 10
136.3377104076
 20
97.408287634
 10
136.3266688474
 20
97.3845738462
 10
136.3182905863
 20
97.365249767
 10
136.3103210322
 20
97.3456156538
 10
136.3027643218
 20
97.3256743082
 10
136.2956245915
 20
97.305428532
 10
136.288905978
 20
97.2848811267
 10
136.2826130617
 20
97.2640358837
 10
136.2767521991
 20
97.2429005535
 10
136.2713301906
 20
97.2214838766
 10
136.2663538367
 20
97.1997945933
 10
136.2618299378
 20
97.1778414439
 10
136.2577652773
 20
97.1556304907
 10
136.2541665697
 20
97.1331570835
 10
136.2510405124
 20
97.1104138942
 10
136.2483938028
 20
97.0873935945
 10
136.2462331385
 20
97.0640888562
  0
LWPOLYLINE
  5
30D
100
AcDbEntity
  8
0
100
AcDbPolyline
 62
253
  6
CONTINUOUS
 90
55
 70
0
 10
136.5760937298
 20
97.6967126182
 10
136.6101359718
 20
97.7196390931
 10
136.6453665007
 20
97.7410503363
 10
136.6817665307
 20
97.7609226107
 10
136.7193172758
 20
97.7792321795
 10
136.7579999502
 20
97.7959553055
 10
136.797795768
 20
97.8110682519
 10
136.8386754258
 20
97.8245487761
 10
136.8805675488
 20
97.8363806134
 10
136.9233902449
 20
97.8465489936
 10
136.9670616216
 20
97.8550391466
 10
137.0114997867
 20
97.8618363022
 10
137.0566228479
 20
97.8669256901
 10
137.1023573126
 20
97.8702970979
 10
137.1486632871
 20
97.8719585437
 10
137.1955092774
 20
97.8719226036
 10
137.2428637896
 20
97.8702018533
 10
137.2906953298
 20
97.8668088687
 10
137.338972404
 20
97.8617562259
 10
137.3876617691
 20
97.8550559661
 10
137.4367231862
 20
97.8467179927
 10
137.486114667
 20
97.8367516746
 10
137.5357942233
 20
97.8251663808
 10
137.5857198671
 20
97.8119714801
 10
137.6358496102
 20
97.7971763415
 10
137.6861406613
 20
97.7807919434
 10
137.7365470162
 20
97.7628357034
 10
137.7870218675
 20
97.7433266486
 10
137.8375184079
 20
97.7222838061
 10
137.8879898302
 20
97.6997262031
 10
137.9383893268
 20
97.6756728667
 10
137.9886712431
 20
97.6501434387
 10
138.0387945345
 20
97.6231600198
 10
138.0887193087
 20
97.5947453251
 10
138.1384056738
 20
97.5649220698
 10
138.1878137376
 20
97.5337129692
 10
138.2369036082
 20
97.5011407384
 10
138.2856365492
 20
97.46722651
 10
138.3339784482
 20
97.4319850851
 10
138.3818963485
 20
97.3954296821
 10
138.4293572935
 20
97.3575735195
 10
138.4763283265
 20
97.3184298157
 10
138.522776491
 20
97.278011789
 10
138.5686601259
 20
97.2363445346
 10
138.6139027521
 20
97.1935006542
 10
138.6584191863
 20
97.1495646262
 10
138.702124245
 20
97.1046209291
 10
138.744932745
 20
97.0587540413
 10
138.7867595026
 20
97.0120484412
 10
138.8275306692
 20
96.9645809591
 10
138.8672177339
 20
96.9163978319
 10
138.9058035206
 20
96.8675376486
 10
138.9432708531
 20
96.818038998
 10
138.9796025553
 20
96.767940469
 10
139.014781451
 20
96.7172806505
  0
LWPOLYLINE
  5
30E
100
AcDbEntity
  8
0
100
AcDbPolyline
 62
253
  6
CONTINUOUS
 90
35
 70
0
 10
139.0836647613
 20
115.6142034267
 10
139.0996351184
 20
115.5886247033
 10
139.115205227
 20
115.5629072147
 10
139.1303829131
 20
115.537049919
 10
139.1451760028
 20
115.5110517745
 10
139.1595923218
 20
115.4849117392
 10
139.1736379039
 20
115.4586311907
 10
139.187311613
 20
115.432221184
 10
139.2006105207
 20
115.4056951936
 10
139.2135316987
 20
115.3790666939
 10
139.2260722187
 20
115.3523491593
 10
139.238229521
 20
115.3255549655
 10
139.2500025206
 20
115.2986920937
 10
139.2613905012
 20
115.2717674262
 10
139.2723927466
 20
115.2447878455
 10
139.2830085404
 20
115.2177602341
 10
139.2957329552
 20
115.1839193433
 10
139.3078462885
 20
115.1500316914
 10
139.3193424085
 20
115.1161148116
 10
139.3302151833
 20
115.0821862369
 10
139.3384603205
 20
115.0550462949
 10
139.3462985307
 20
115.0279164013
 10
139.3537257525
 20
115.0008028678
 10
139.3607379242
 20
114.9737120064
 10
139.3673309842
 20
114.9466501287
 10
139.3735004297
 20
114.9196249505
 10
139.3792399942
 20
114.8926498026
 10
139.38454297
 20
114.8657394195
 10
139.3894026495
 20
114.8389085359
 10
139.393812325
 20
114.8121718865
 10
139.3977652916
 20
114.7855413861
 10
139.4012548549
 20
114.7590176714
 10
139.4042743233
 20
114.7325985594
 10
139.4068170051
 20
114.706281867
 10
139.4088762087
 20
114.6800654112
  0
LWPOLYLINE
  5
30F
100
AcDbEntity
  8
0
100
AcDbPolyline
 62
253
  6
CONTINUOUS
 90
11
 70
0
 10
147.2600286941
 20
84.3248889183
 10
147.265225325
 20
84.2494470089
 10
147.2749433629
 20
84.1785804675
 10
147.2891183607
 20
84.1127592605
 10
147.3076563139
 20
84.052419895
 10
147.3304342841
 20
83.9979625242
 10
147.3573012146
 20
83.9497482935
 10
147.3880789316
 20
83.9080969459
 10
147.4225633261
 20
83.8732847008
 10
147.4605257078
 20
83.8455424231
 10
147.5000774518
 20
83.8257046795
  0
LWPOLYLINE
  5
310
100
AcDbEntity
  8
ASSI
100
AcDbPolyline
 62
253
  6
CONTINUOUS
 90
11
 70
0
 10
147.2600286941
 20
84.3248889183
 10
147.265225325
 20
84.2494470089
 10
147.2749433629
 20
84.1785804675
 10
147.2891183607
 20
84.1127592605
 10
147.3076563139
 20
84.052419895
 10
147.3304342841
 20
83.9979625242
 10
147.3573012146
 20
83.9497482935
 10
147.3880789316
 20
83.9080969459
 10
147.4225633261
 20
83.8732847008
 10
147.4605257078
 20
83.8455424231
 10
147.5000774518
 20
83.8257046795
  0
LWPOLYLINE
  5
311
100
AcDbEntity
  8
0
100
AcDbPolyline
 62
253
  6
CONTINUOUS
 90
10
 70
0
 10
146.9480178945
 20
101.7739901986
 10
146.9495126128
 20
101.7325935233
 10
146.9540930748
 20
101.6941947008
 10
146.9617095335
 20
101.6592107684
 10
146.9722792691
 20
101.6280216752
 10
146.9856874871
 20
101.6009661561
 10
147.0017885651
 20
101.5783380522
 10
147.0204076345
 20
101.5603831202
 10
147.0413424796
 20
101.5472963627
 10
147.0482551336
 20
101.5442565997
  0
LWPOLYLINE
  5
312
100
AcDbEntity
  8
ASSI
100
AcDbPolyline
 62
253
  6
CONTINUOUS
 90
10
 70
0
 10
146.9480178945
 20
101.7739901986
 10
146.9495126128
 20
101.7325935233
 10
146.9540930748
 20
101.6941947008
 10
146.9617095335
 20
101.6592107684
 10
146.9722792691
 20
101.6280216752
 10
146.9856874871
 20
101.6009661561
 10
147.0017885651
 20
101.5783380522
 10
147.0204076345
 20
101.5603831202
 10
147.0413424796
 20
101.5472963627
 10
147.0482551336
 20
101.5442565997
  0
LWPOLYLINE
  5
313
100
AcDbEntity
  8
0
100
AcDbPolyline
 62
253
  6
CONTINUOUS
 90
3
 70
0
 10
147.1405074724
 20
87.8872711425
 10
147.1966865713
 20
86.1028070813
 10
147.2600286899
 20
84.3248889146
  0
LWPOLYLINE
  5
314
100
AcDbEntity
  8
ASSI
100
AcDbPolyline
 62
253
  6
CONTINUOUS
 90
3
 70
0
 10
147.1405074724
 20
87.8872711425
 10
147.1966865713
 20
86.1028070813
 10
147.2600286899
 20
84.3248889146
  0
LINE
  5
315
100
AcDbEntity
  8
0
100
AcDbLine
 62
253
  6
CONTINUOUS
 10
147.0496471092
 20
91.4756477759
 11
147.0881036978
 21
89.8238376455
  0
LINE
  5
316
100
AcDbEntity
  8
ASSI
100
AcDbLine
 62
253
  6
CONTINUOUS
 10
147.0496471092
 20
91.4756477759
 11
147.0881036978
 21
89.8238376455
  0
LINE
  5
317
100
AcDbEntity
  8
0
100
AcDbLine
 62
253
  6
CONTINUOUS
 10
147.0881036978
 20
89.8238376455
 11
147.1405074724
 21
87.8872711425
  0
LINE
  5
318
100
AcDbEntity
  8
ASSI
100
AcDbLine
 62
253
  6
CONTINUOUS
 10
147.0881036978
 20
89.8238376455
 11
147.1405074724
 21
87.8872711425
  0
LWPOLYLINE
  5
319
100
AcDbEntity
  8
0
100
AcDbPolyline
 62
253
  6
CONTINUOUS
 90
6
 70
0
 10
146.9480178971
 20
100.5562952772
 10
146.9539910982
 20
98.7279449835
 10
146.967141714
 20
96.9056550866
 10
146.9874685159
 20
95.0894819231
 10
147.0149708218
 20
93.2794500674
 10
147.0496471092
 20
91.4756477759
  0
LWPOLYLINE
  5
31A
100
AcDbEntity
  8
ASSI
100
AcDbPolyline
 62
253
  6
CONTINUOUS
 90
6
 70
0
 10
146.9480178971
 20
100.5562952772
 10
146.9539910982
 20
98.7279449835
 10
146.967141714
 20
96.9056550866
 10
146.9874685159
 20
95.0894819231
 10
147.0149708218
 20
93.2794500674
 10
147.0496471092
 20
91.4756477759
  0
LWPOLYLINE
  5
31B
100
AcDbEntity
  8
0
100
AcDbPolyline
 62
253
  6
CONTINUOUS
 90
7
 70
0
 10
146.9480178971
 20
101.7739902008
 10
146.9539910413
 20
103.6121154579
 10
146.9671415224
 20
105.4559398859
 10
146.9874681219
 20
107.3054051444
 10
147.0149701247
 20
109.1604830021
 10
147.0496460413
 20
111.0210852494
 10
147.0914924454
 20
112.8870627916
  0
LWPOLYLINE
  5
31C
100
AcDbEntity
  8
ASSI
100
AcDbPolyline
 62
253
  6
CONTINUOUS
 90
7
 70
0
 10
146.9480178971
 20
101.7739902008
 10
146.9539910413
 20
103.6121154579
 10
146.9671415224
 20
105.4559398859
 10
146.9874681219
 20
107.3054051444
 10
147.0149701247
 20
109.1604830021
 10
147.0496460413
 20
111.0210852494
 10
147.0914924454
 20
112.8870627916
  0
LINE
  5
31D
100
AcDbEntity
  8
0
100
AcDbLine
 62
253
  6
CONTINUOUS
 10
147.0914924454
 20
112.8870627916
 11
147.1485747395
 21
115.0278326871
  0
LINE
  5
31E
100
AcDbEntity
  8
ASSI
100
AcDbLine
 62
253
  6
CONTINUOUS
 10
147.0914924454
 20
112.8870627916
 11
147.1485747395
 21
115.0278326871
  0
LWPOLYLINE
  5
31F
100
AcDbEntity
  8
0
100
AcDbPolyline
 62
253
  6
CONTINUOUS
 90
3
 70
0
 10
147.1485747395
 20
115.0278326871
 10
147.1966857235
 20
116.6348466445
 10
147.2600286899
 20
118.5165651209
  0
LWPOLYLINE
  5
320
100
AcDbEntity
  8
ASSI
100
AcDbPolyline
 62
253
  6
CONTINUOUS
 90
3
 70
0
 10
147.1485747395
 20
115.0278326871
 10
147.1966857235
 20
116.6348466445
 10
147.2600286899
 20
118.5165651209
  0
LWPOLYLINE
  5
321
100
AcDbEntity
  8
0
100
AcDbPolyline
 62
253
  6
CONTINUOUS
 90
19
 70
0
 10
147.2600281323
 20
118.5165647054
 10
147.2652247759
 20
118.6005310779
 10
147.2749428304
 20
118.6873354706
 10
147.2891178485
 20
118.7764022213
 10
147.3076558255
 20
118.8671406647
 10
147.3304338229
 20
118.9589490491
 10
147.3573007833
 20
119.0512185272
 10
147.3880785329
 20
119.1433371941
 10
147.4225629624
 20
119.2346941448
 10
147.4605253807
 20
119.324683526
 10
147.501714032
 20
119.4127085536
 10
147.5458557648
 20
119.4981854704
 10
147.5926578438
 20
119.5805474179
 10
147.6418098907
 20
119.6592481949
 10
147.6929859433
 20
119.7337658801
 10
147.7458466165
 20
119.8036062934
 10
147.8000413532
 20
119.868306273
 10
147.8552107495
 20
119.9274367468
 10
147.9109889376
 20
119.9806055784
  0
LWPOLYLINE
  5
322
100
AcDbEntity
  8
ASSI
100
AcDbPolyline
 62
253
  6
CONTINUOUS
 90
19
 70
0
 10
147.2600281323
 20
118.5165647054
 10
147.2652247759
 20
118.6005310779
 10
147.2749428304
 20
118.6873354706
 10
147.2891178485
 20
118.7764022213
 10
147.3076558255
 20
118.8671406647
 10
147.3304338229
 20
118.9589490491
 10
147.3573007833
 20
119.0512185272
 10
147.3880785329
 20
119.1433371941
 10
147.4225629624
 20
119.2346941448
 10
147.4605253807
 20
119.324683526
 10
147.501714032
 20
119.4127085536
 10
147.5458557648
 20
119.4981854704
 10
147.5926578438
 20
119.5805474179
 10
147.6418098907
 20
119.6592481949
 10
147.6929859433
 20
119.7337658801
 10
147.7458466165
 20
119.8036062934
 10
147.8000413532
 20
119.868306273
 10
147.8552107495
 20
119.9274367468
 10
147.9109889376
 20
119.9806055784
  0
LWPOLYLINE
  5
323
100
AcDbEntity
  8
SUPERFICI
100
AcDbPolyline
 62
7
  6
CONTINUOUS
 90
34
 70
0
 10
140.2068623688
 20
99.6881489454
 10
140.226629999
 20
99.7045616915
 10
140.2593639507
 20
99.7365610207
 10
140.2886624599
 20
99.7717789645
 10
140.3144193909
 20
99.8101672965
 10
140.3367420713
 20
99.8517752372
 10
140.355395972
 20
99.896178592
 10
140.3703750119
 20
99.9435444112
 10
140.3816862587
 20
99.993706465
 10
140.3891143892
 20
100.0457402048
 10
140.3925869422
 20
100.0995347577
 10
140.3921765903
 20
100.1552011678
 10
140.387885133
 20
100.2121472775
 10
140.3796398
 20
100.2705388274
 10
140.3675131943
 20
100.3302099319
 10
140.3517245969
 20
100.3900705123
 10
140.3322554455
 20
100.4499853331
 10
140.3091233636
 20
100.5100888421
 10
140.2826013723
 20
100.5696950361
 10
140.2526047053
 20
100.6288910262
 10
140.2192169253
 20
100.6875886951
 10
140.1829631675
 20
100.7448388815
 10
140.1438377231
 20
100.8005629426
 10
140.1018448079
 20
100.8548382766
 10
140.0575241704
 20
100.9069495566
 10
140.0108052018
 20
100.9569094311
 10
139.9617570835
 20
101.0047040639
 10
139.9111291466
 20
101.0495783163
 10
139.858881143
 20
101.0914819025
 10
139.8050521509
 20
101.1304641367
 10
139.7505105248
 20
101.1659193089
 10
139.6955454895
 20
101.197645328
 10
139.6398671518
 20
101.2258437315
 10
139.583475318
 20
101.2505143594
  0
LWPOLYLINE
  5
324
100
AcDbEntity
  8
0
100
AcDbPolyline
 62
7
  6
CONTINUOUS
 90
12
 70
0
 10
140.2068478261
 20
99.6881668903
 10
140.1716213938
 20
99.6634105756
 10
140.1254015753
 20
99.6379269689
 10
140.0755428224
 20
99.6177727362
 10
140.0221993452
 20
99.6028725901
 10
139.9665561791
 20
99.5934816786
 10
139.9086552785
 20
99.5897108312
 10
139.8484527824
 20
99.5914476194
 10
139.7870050253
 20
99.5986123217
 10
139.724663752
 20
99.6111780559
 10
139.6610761456
 20
99.6291708032
 10
139.5962419059
 20
99.6525903107
  0
LWPOLYLINE
  5
325
100
AcDbEntity
  8
ASSI
100
AcDbPolyline
 62
7
  6
CONTINUOUS
 90
12
 70
0
 10
140.2068478261
 20
99.6881668903
 10
140.1716213938
 20
99.6634105756
 10
140.1254015753
 20
99.6379269689
 10
140.0755428224
 20
99.6177727362
 10
140.0221993452
 20
99.6028725901
 10
139.9665561791
 20
99.5934816786
 10
139.9086552785
 20
99.5897108312
 10
139.8484527824
 20
99.5914476194
 10
139.7870050253
 20
99.5986123217
 10
139.724663752
 20
99.6111780559
 10
139.6610761456
 20
99.6291708032
 10
139.5962419059
 20
99.6525903107
  0
LWPOLYLINE
  5
326
100
AcDbEntity
  8
0
100
AcDbPolyline
 62
253
  6
CONTINUOUS
 90
55
 70
0
 10
136.9471339099
 20
97.2258767889
 10
136.9701523798
 20
97.2414026543
 10
136.99393524
 20
97.2559299558
 10
137.0184687096
 20
97.269445029
 10
137.0437390078
 20
97.2819342097
 10
137.0697323536
 20
97.2933838336
 10
137.0964349663
 20
97.3037802365
 10
137.1238330648
 20
97.313109754
 10
137.1519066473
 20
97.3213603209
 10
137.1806108267
 20
97.3285262682
 10
137.209894495
 20
97.3346035258
 10
137.2397065442
 20
97.3395880237
 10
137.2699958661
 20
97.3434756918
 10
137.3007113527
 20
97.3462624601
 10
137.3318018959
 20
97.3479442586
 10
137.3632230753
 20
97.3485188247
 10
137.394957221
 20
97.3479911267
 10
137.4269933507
 20
97.3463679401
 10
137.4593204823
 20
97.3436560407
 10
137.4919276336
 20
97.339862204
 10
137.5248038222
 20
97.3349932057
 10
137.557938066
 20
97.3290558215
 10
137.5969000226
 20
97.3207878196
 10
137.6361438573
 20
97.3110869745
 10
137.6756151544
 20
97.2999654128
 10
137.7152594982
 20
97.2874352607
 10
137.755022473
 20
97.2735086447
 10
137.7948496633
 20
97.2581976911
 10
137.8346877945
 20
97.241517325
 10
137.874488157
 20
97.223493666
 10
137.9142031823
 20
97.204155632
 10
137.9537853021
 20
97.1835321414
 10
137.9931869479
 20
97.1616521123
 10
138.0323605513
 20
97.1385444628
 10
138.0657233992
 20
97.1177799018
 10
138.0988720087
 20
97.0961358378
 10
138.1317946308
 20
97.0736134468
 10
138.1644795165
 20
97.050213905
 10
138.1969149171
 20
97.0259383884
 10
138.2290890836
 20
97.0007880731
 10
138.2609902672
 20
96.9747641353
 10
138.2925995063
 20
96.947875775
 10
138.3238689898
 20
96.9201642872
 10
138.3547436936
 20
96.8916789911
 10
138.3851685939
 20
96.8624692059
 10
138.415088667
 20
96.8325842504
 10
138.4444488888
 20
96.8020734439
 10
138.4731942356
 20
96.7709861053
 10
138.5012768554
 20
96.7393673885
 10
138.5286775845
 20
96.7072457861
 10
138.5553844311
 20
96.6746456254
 10
138.5813854034
 20
96.6415912339
 10
138.6066685095
 20
96.6081069389
 10
138.6312217577
 20
96.5742170678
 10
138.6550331562
 20
96.5399459479
  0
LWPOLYLINE
  5
327
100
AcDbEntity
  8
0
100
AcDbPolyline
 62
253
  6
CONTINUOUS
 90
16
 70
0
 10
146.9480177503
 20
100.5562951559
 10
146.9495124715
 20
100.6001582193
 10
146.9540929381
 20
100.646109681
 10
146.9617094029
 20
100.6936504765
 10
146.9722791462
 20
100.7422642804
 10
146.9856873731
 20
100.7914231133
 10
147.0017884613
 20
100.8405930767
 10
147.0204075418
 20
100.8892401511
 10
147.0413423988
 20
100.9368359959
 10
147.0643656654
 20
100.9828636876
 10
147.0892272931
 20
101.0268233341
 10
147.1156572677
 20
101.0682375033
 10
147.1433685416
 20
101.1066564091
 10
147.1720601514
 20
101.1416627958
 10
147.2014204865
 20
101.1728764701
 10
147.2311306737
 20
101.1999584301
  0
LWPOLYLINE
  5
328
100
AcDbEntity
  8
ASSI
100
AcDbPolyline
 62
253
  6
CONTINUOUS
 90
16
 70
0
 10
146.9480177503
 20
100.5562951559
 10
146.9495124715
 20
100.6001582193
 10
146.9540929381
 20
100.646109681
 10
146.9617094029
 20
100.6936504765
 10
146.9722791462
 20
100.7422642804
 10
146.9856873731
 20
100.7914231133
 10
147.0017884613
 20
100.8405930767
 10
147.0204075418
 20
100.8892401511
 10
147.0413423988
 20
100.9368359959
 10
147.0643656654
 20
100.9828636876
 10
147.0892272931
 20
101.0268233341
 10
147.1156572677
 20
101.0682375033
 10
147.1433685416
 20
101.1066564091
 10
147.1720601514
 20
101.1416627958
 10
147.2014204865
 20
101.1728764701
 10
147.2311306737
 20
101.1999584301
  0
LWPOLYLINE
  5
329
100
AcDbEntity
  8
0
100
AcDbPolyline
 62
253
  6
CONTINUOUS
 90
35
 70
0
 10
138.7106491291
 20
93.8240096419
 10
138.7208706429
 20
93.8314715264
 10
138.7308347467
 20
93.8392172948
 10
138.74054637
 20
93.8472433589
 10
138.7500104422
 20
93.8555461308
 10
138.7592318927
 20
93.8641220225
 10
138.7682146136
 20
93.8729670361
 10
138.7769583469
 20
93.8820755338
 10
138.7854617974
 20
93.8914414678
 10
138.7937236695
 20
93.9010587906
 10
138.801742668
 20
93.9109214545
 10
138.8095176014
 20
93.9210237681
 10
138.8170476941
 20
93.9313614661
 10
138.8243322745
 20
93.9419306398
 10
138.8313706708
 20
93.9527273802
 10
138.8381622113
 20
93.9637477785
 10
138.8463030496
 20
93.9778319065
 10
138.8540532758
 20
93.9922521547
 10
138.8614090393
 20
94.0070012855
 10
138.8683664896
 20
94.0220720613
 10
138.8736429635
 20
94.0343557231
 10
138.878659402
 20
94.0468388223
 10
138.8834131548
 20
94.0595195755
 10
138.8879015713
 20
94.0723961993
 10
138.8921220011
 20
94.0854669104
 10
138.8960715205
 20
94.09872936
 10
138.8997461136
 20
94.1121789377
 10
138.9031414913
 20
94.1258104678
 10
138.9062533646
 20
94.1396187745
 10
138.9090774443
 20
94.153598682
 10
138.9116094165
 20
94.1677466515
 10
138.9138448672
 20
94.1820656922
 10
138.9157793576
 20
94.1965604501
 10
138.9174084489
 20
94.2112355714
 10
138.9187277022
 20
94.2260957021
  0
LWPOLYLINE
  5
32A
100
AcDbEntity
  8
0
100
AcDbPolyline
 62
253
  6
CONTINUOUS
 90
55
 70
0
 10
138.7106491291
 20
93.8240096419
 10
138.6877880201
 20
93.8086134296
 10
138.6641612303
 20
93.7942151811
 10
138.6397821862
 20
93.7808281993
 10
138.6146643145
 20
93.7684657869
 10
138.5888210418
 20
93.7571412467
 10
138.5622657945
 20
93.7468678817
 10
138.5350119992
 20
93.7376589945
 10
138.5070792998
 20
93.7295262747
 10
138.4785122087
 20
93.7224749578
 10
138.4493614557
 20
93.716508666
 10
138.4196777705
 20
93.7116310216
 10
138.3895118829
 20
93.7078456467
 10
138.3589145227
 20
93.7051561636
 10
138.3279364196
 20
93.7035661945
 10
138.296621583
 20
93.70307764
 10
138.264987141
 20
93.7036855143
 10
138.2330435016
 20
93.7053831098
 10
138.2008010725
 20
93.7081637193
 10
138.1682702615
 20
93.7120206351
 10
138.1354614765
 20
93.7169471499
 10
138.1023851252
 20
93.7229365562
 10
138.0634782977
 20
93.7312582477
 10
138.0242772025
 20
93.7410046059
 10
137.984837593
 20
93.7521627139
 10
137.9452152226
 20
93.7647196545
 10
137.9054658448
 20
93.7786625107
 10
137.8656452131
 20
93.7939783654
 10
137.8258074805
 20
93.8106517631
 10
137.7860003995
 20
93.8286570943
 10
137.7462701221
 20
93.8479662111
 10
137.7066628005
 20
93.8685509657
 10
137.6672245867
 20
93.8903832102
 10
137.6280016329
 20
93.9134347967
 10
137.5945854747
 20
93.9341452166
 10
137.5613736568
 20
93.9557296167
 10
137.5283784615
 20
93.9781868141
 10
137.4956121712
 20
94.001515626
 10
137.4630870683
 20
94.0257148694
 10
137.4308154352
 20
94.0507833617
 10
137.3988095543
 20
94.0767199199
 10
137.3670888843
 20
94.1035154181
 10
137.3357015892
 20
94.1311289583
 10
137.3047030094
 20
94.1595116994
 10
137.2741484851
 20
94.1886148004
 10
137.2440933566
 20
94.2183894201
 10
137.2145929644
 20
94.2487867176
 10
137.1857026487
 20
94.2797578516
 10
137.1574706032
 20
94.311258121
 10
137.1299164353
 20
94.343259383
 10
137.1030526056
 20
94.3757376348
 10
137.0768915748
 20
94.4086688736
 10
137.0514458037
 20
94.4420290964
 10
137.0267277528
 20
94.4757943005
 10
137.0027498829
 20
94.5099404829
  0
LWPOLYLINE
  5
32B
100
AcDbEntity
  8
0
100
AcDbPolyline
 62
253
  6
CONTINUOUS
 90
55
 70
0
 10
139.0836642941
 20
93.3547916253
 10
139.0499104227
 20
93.3321030112
 10
139.0149667838
 20
93.3109294673
 10
138.9788514395
 20
93.2912939282
 10
138.9415824516
 20
93.2732193287
 10
138.9031778822
 20
93.2567286034
 10
138.8636557931
 20
93.241844687
 10
138.8230447231
 20
93.2285889908
 10
138.7814151176
 20
93.2169768322
 10
138.7388478988
 20
93.2070220054
 10
138.6954239889
 20
93.1987383045
 10
138.65122431
 20
93.1921395234
 10
138.6063297844
 20
93.1872394563
 10
138.56081297
 20
93.1840474477
 10
138.5147129687
 20
93.1825550437
 10
138.4680605183
 20
93.1827493409
 10
138.4208863565
 20
93.184617436
 10
138.373221221
 20
93.1881464255
 10
138.3250958495
 20
93.193323406
 10
138.2765428567
 20
93.2001360126
 10
138.2276023641
 20
93.2085740345
 10
138.1783163704
 20
93.2186277991
 10
138.128726874
 20
93.2302876341
 10
138.0788758735
 20
93.243543867
 10
138.0288053673
 20
93.2583868255
 10
137.9785581615
 20
93.2748052506
 10
137.9281802919
 20
93.2927815382
 10
137.877718602
 20
93.3122964973
 10
137.8272199351
 20
93.3333309374
 10
137.7767311345
 20
93.3558656677
 10
137.7262990438
 20
93.3798814975
 10
137.6759693105
 20
93.4053587469
 10
137.6257827997
 20
93.4322757795
 10
137.5757791806
 20
93.4606104697
 10
137.5259981226
 20
93.4903406919
 10
137.476479295
 20
93.5214443205
 10
137.427262367
 20
93.55389923
 10
137.3783859954
 20
93.5876848318
 10
137.3298847855
 20
93.6227866845
 10
137.2817923303
 20
93.6591918839
 10
137.2341422225
 20
93.6968875257
 10
137.1869680551
 20
93.7358607056
 10
137.1403034208
 20
93.7760985194
 10
137.0941906651
 20
93.8175763075
 10
137.0487071444
 20
93.8602223905
 10
137.0039389675
 20
93.9039533333
 10
136.9599722434
 20
93.9486857014
 10
136.916893081
 20
93.9943360598
 10
136.8747875893
 20
94.0408209738
 10
136.8337305474
 20
94.0880646004
 10
136.7937514148
 20
94.1360214635
 10
136.7548683212
 20
94.1846536786
 10
136.7170993966
 20
94.2339233615
 10
136.6804627706
 20
94.2837926278
 10
136.6449765729
 20
94.3342235931
  0
LINE
  5
32C
100
AcDbEntity
  8
0
100
AcDbLine
 62
253
  6
CONTINUOUS
 10
152.2786387533
 20
119.9130903471
 11
152.2786387533
 21
119.9021850799
  0
LINE
  5
32D
100
AcDbEntity
  8
ASSI
100
AcDbLine
 62
253
  6
CONTINUOUS
 10
152.2786387533
 20
119.9130903471
 11
152.2786387533
 21
119.9021850799
  0
LINE
  5
32E
100
AcDbEntity
  8
0
100
AcDbLine
 62
7
  6
CONTINUOUS
 10
152.2779698409
 20
119.9021850799
 11
152.2786387533
 21
119.9130903471
  0
LINE
  5
32F
100
AcDbEntity
  8
ASSI
100
AcDbLine
 62
7
  6
CONTINUOUS
 10
152.2779698409
 20
119.9021850799
 11
152.2786387533
 21
119.9130903471
  0
LINE
  5
330
100
AcDbEntity
  8
0
100
AcDbLine
 62
7
  6
CONTINUOUS
 10
152.3397910088
 20
120.3400910576
 11
152.2786387533
 21
119.9130903471
  0
LINE
  5
331
100
AcDbEntity
  8
ASSI
100
AcDbLine
 62
7
  6
CONTINUOUS
 10
152.3397910088
 20
120.3400910576
 11
152.2786387533
 21
119.9130903471
  0
LWPOLYLINE
  5
332
100
AcDbEntity
  8
0
100
AcDbPolyline
 62
253
  6
CONTINUOUS
 90
11
 70
0
 10
120.487240841
 20
129.5202603319
 10
120.4504521812
 20
129.5387817598
 10
120.4170581046
 20
129.5591173319
 10
120.3873824194
 20
129.5810698627
 10
120.3617128779
 20
129.604426488
 10
120.3402983867
 20
129.6289607283
 10
120.3233465932
 20
129.6544346858
 10
120.3110218715
 20
129.6806013501
 10
120.3034437293
 20
129.7072069944
 10
120.3006856486
 20
129.7339936351
 10
120.3007242893
 20
129.7396980136
  0
LWPOLYLINE
  5
333
100
AcDbEntity
  8
ASSI
100
AcDbPolyline
 62
253
  6
CONTINUOUS
 90
11
 70
0
 10
120.487240841
 20
129.5202603319
 10
120.4504521812
 20
129.5387817598
 10
120.4170581046
 20
129.5591173319
 10
120.3873824194
 20
129.5810698627
 10
120.3617128779
 20
129.604426488
 10
120.3402983867
 20
129.6289607283
 10
120.3233465932
 20
129.6544346858
 10
120.3110218715
 20
129.6806013501
 10
120.3034437293
 20
129.7072069944
 10
120.3006856486
 20
129.7339936351
 10
120.3007242893
 20
129.7396980136
  0
LINE
  5
334
100
AcDbEntity
  8
0
100
AcDbLine
 62
7
  6
CONTINUOUS
 10
152.3397910088
 20
120.3400910576
 11
152.3458882746
 21
119.8128043636
  0
LINE
  5
335
100
AcDbEntity
  8
ASSI
100
AcDbLine
 62
7
  6
CONTINUOUS
 10
152.3397910088
 20
120.3400910576
 11
152.3458882746
 21
119.8128043636
  0
LWPOLYLINE
  5
336
100
AcDbEntity
  8
0
100
AcDbPolyline
 62
253
  6
CONTINUOUS
 90
16
 70
0
 10
156.0038354867
 20
115.2560037592
 10
156.047164863
 20
115.2423478008
 10
156.0925803103
 20
115.2310314266
 10
156.139641463
 20
115.2221643643
 10
156.1878919981
 20
115.2158325926
 10
156.23686406
 20
115.2120975066
 10
156.2860827968
 20
115.2109953229
 10
156.3350709649
 20
115.2125367286
 10
156.3833535561
 20
115.2167067778
 10
156.4304624041
 20
115.223465036
 10
156.4759407233
 20
115.2327459726
 10
156.5193475387
 20
115.244459596
 10
156.5602619612
 20
115.2584923265
 10
156.5982872688
 20
115.2747080973
 10
156.6330547536
 20
115.2929496742
 10
156.6642272967
 20
115.3130401798
  0
LWPOLYLINE
  5
337
100
AcDbEntity
  8
ASSI
100
AcDbPolyline
 62
253
  6
CONTINUOUS
 90
16
 70
0
 10
156.0038354867
 20
115.2560037592
 10
156.047164863
 20
115.2423478008
 10
156.0925803103
 20
115.2310314266
 10
156.139641463
 20
115.2221643643
 10
156.1878919981
 20
115.2158325926
 10
156.23686406
 20
115.2120975066
 10
156.2860827968
 20
115.2109953229
 10
156.3350709649
 20
115.2125367286
 10
156.3833535561
 20
115.2167067778
 10
156.4304624041
 20
115.223465036
 10
156.4759407233
 20
115.2327459726
 10
156.5193475387
 20
115.244459596
 10
156.5602619612
 20
115.2584923265
 10
156.5982872688
 20
115.2747080973
 10
156.6330547536
 20
115.2929496742
 10
156.6642272967
 20
115.3130401798
  0
LWPOLYLINE
  5
338
100
AcDbEntity
  8
0
100
AcDbPolyline
 62
253
  6
CONTINUOUS
 90
3
 70
0
 10
156.6432732691
 20
116.7355176168
 10
155.7305833811
 20
117.0507971977
 10
154.8080188907
 20
117.3753961803
  0
LWPOLYLINE
  5
339
100
AcDbEntity
  8
ASSI
100
AcDbPolyline
 62
253
  6
CONTINUOUS
 90
3
 70
0
 10
156.6432732691
 20
116.7355176168
 10
155.7305833811
 20
117.0507971977
 10
154.8080188907
 20
117.3753961803
  0
LWPOLYLINE
  5
33A
100
AcDbEntity
  8
0
100
AcDbPolyline
 62
253
  6
CONTINUOUS
 90
10
 70
0
 10
156.0038288558
 20
115.2559978724
 10
155.0912283286
 20
115.5737223144
 10
154.1679513695
 20
115.9003775114
 10
153.2342178344
 20
116.236113858
 10
152.29653062
 20
116.5787388575
 10
151.3487842269
 20
116.9306944833
 10
150.3725606604
 20
117.2993165196
 10
149.3621980853
 20
117.6874186505
 10
148.3244956419
 20
118.0930324509
 10
147.2600286899
 20
118.5165651209
  0
LWPOLYLINE
  5
33B
100
AcDbEntity
  8
ASSI
100
AcDbPolyline
 62
253
  6
CONTINUOUS
 90
10
 70
0
 10
156.0038288558
 20
115.2559978724
 10
155.0912283286
 20
115.5737223144
 10
154.1679513695
 20
115.9003775114
 10
153.2342178344
 20
116.236113858
 10
152.29653062
 20
116.5787388575
 10
151.3487842269
 20
116.9306944833
 10
150.3725606604
 20
117.2993165196
 10
149.3621980853
 20
117.6874186505
 10
148.3244956419
 20
118.0930324509
 10
147.2600286899
 20
118.5165651209
  0
LINE
  5
33C
100
AcDbEntity
  8
0
100
AcDbLine
 62
253
  6
CONTINUOUS
 10
147.2600286899
 20
118.5165651209
 11
128.8291076934
 21
125.9188385085
  0
LINE
  5
33D
100
AcDbEntity
  8
ASSI
100
AcDbLine
 62
253
  6
CONTINUOUS
 10
147.2600286899
 20
118.5165651209
 11
128.8291076934
 21
125.9188385085
  0
LWPOLYLINE
  5
33E
100
AcDbEntity
  8
0
100
AcDbPolyline
 62
253
  6
CONTINUOUS
 90
13
 70
0
 10
128.8291076934
 20
125.9188385085
 10
128.0865696092
 20
126.2190147207
 10
127.3586220801
 20
126.5169841913
 10
126.6451538849
 20
126.8126304716
 10
125.9494967014
 20
127.1043959439
 10
125.268067539
 20
127.3935903316
 10
124.5905058163
 20
127.6844972238
 10
123.9171924139
 20
127.9769341978
 10
123.2477641716
 20
128.2710535466
 10
122.5710069337
 20
128.5718420948
 10
121.8833489938
 20
128.8810710137
 10
121.1887060268
 20
129.1971788437
 10
120.4872408397
 20
129.5202603211
  0
LWPOLYLINE
  5
33F
100
AcDbEntity
  8
ASSI
100
AcDbPolyline
 62
253
  6
CONTINUOUS
 90
13
 70
0
 10
128.8291076934
 20
125.9188385085
 10
128.0865696092
 20
126.2190147207
 10
127.3586220801
 20
126.5169841913
 10
126.6451538849
 20
126.8126304716
 10
125.9494967014
 20
127.1043959439
 10
125.268067539
 20
127.3935903316
 10
124.5905058163
 20
127.6844972238
 10
123.9171924139
 20
127.9769341978
 10
123.2477641716
 20
128.2710535466
 10
122.5710069337
 20
128.5718420948
 10
121.8833489938
 20
128.8810710137
 10
121.1887060268
 20
129.1971788437
 10
120.4872408397
 20
129.5202603211
  0
LWPOLYLINE
  5
340
100
AcDbEntity
  8
0
100
AcDbPolyline
 62
253
  6
CONTINUOUS
 90
9
 70
0
 10
126.6070079764
 20
128.567292602
 10
125.9275069019
 20
128.8563995951
 10
125.2516850054
 20
129.1474449777
 10
124.5796182777
 20
129.4401644176
 10
123.911230728
 20
129.734822247
 10
123.2354755492
 20
130.0365449253
 10
122.5486704722
 20
130.3470412724
 10
121.854497766
 20
130.6646024684
 10
121.1529574307
 20
130.9892285134
  0
LWPOLYLINE
  5
341
100
AcDbEntity
  8
ASSI
100
AcDbPolyline
 62
253
  6
CONTINUOUS
 90
9
 70
0
 10
126.6070079764
 20
128.567292602
 10
125.9275069019
 20
128.8563995951
 10
125.2516850054
 20
129.1474449777
 10
124.5796182777
 20
129.4401644176
 10
123.911230728
 20
129.734822247
 10
123.2354755492
 20
130.0365449253
 10
122.5486704722
 20
130.3470412724
 10
121.854497766
 20
130.6646024684
 10
121.1529574307
 20
130.9892285134
  0
LWPOLYLINE
  5
342
100
AcDbEntity
  8
0
100
AcDbPolyline
 62
253
  6
CONTINUOUS
 90
19
 70
0
 10
156.3973335423
 20
97.4171631949
 10
156.395616929
 20
97.4528942189
 10
156.3909093112
 20
97.4897319415
 10
156.3832208286
 20
97.5274084348
 10
156.3725779065
 20
97.5656666585
 10
156.3590402564
 20
97.6041992447
 10
156.3427163231
 20
97.6426504644
 10
156.3237220938
 20
97.6807247213
 10
156.3021932806
 20
97.7181306961
 10
156.2783243681
 20
97.7545246694
 10
156.2523211542
 20
97.7896032402
 10
156.2243672157
 20
97.8231282801
 10
156.1946545317
 20
97.8548694808
 10
156.163394392
 20
97.8845945007
 10
156.1308366066
 20
97.9120594906
 10
156.0972466403
 20
97.9370392053
 10
156.0628878584
 20
97.9593398894
 10
156.0280175455
 20
97.9787966033
 10
155.9929024444
 20
97.9952617236
  0
LWPOLYLINE
  5
343
100
AcDbEntity
  8
ASSI
100
AcDbPolyline
 62
253
  6
CONTINUOUS
 90
19
 70
0
 10
156.3973335423
 20
97.4171631949
 10
156.395616929
 20
97.4528942189
 10
156.3909093112
 20
97.4897319415
 10
156.3832208286
 20
97.5274084348
 10
156.3725779065
 20
97.5656666585
 10
156.3590402564
 20
97.6041992447
 10
156.3427163231
 20
97.6426504644
 10
156.3237220938
 20
97.6807247213
 10
156.3021932806
 20
97.7181306961
 10
156.2783243681
 20
97.7545246694
 10
156.2523211542
 20
97.7896032402
 10
156.2243672157
 20
97.8231282801
 10
156.1946545317
 20
97.8548694808
 10
156.163394392
 20
97.8845945007
 10
156.1308366066
 20
97.9120594906
 10
156.0972466403
 20
97.9370392053
 10
156.0628878584
 20
97.9593398894
 10
156.0280175455
 20
97.9787966033
 10
155.9929024444
 20
97.9952617236
  0
LWPOLYLINE
  5
344
100
AcDbEntity
  8
0
100
AcDbPolyline
 62
253
  6
CONTINUOUS
 90
10
 70
0
 10
155.7444463298
 20
98.5501473016
 10
155.7462173666
 20
98.5079660933
 10
155.7501368919
 20
98.4700449739
 10
155.7564031813
 20
98.4360552313
 10
155.7656059375
 20
98.405573709
 10
155.7776084381
 20
98.3789333198
 10
155.7915445303
 20
98.3570340923
 10
155.8077066564
 20
98.3400065898
 10
155.8263493267
 20
98.3277625579
 10
155.8373417266
 20
98.3232152909
  0
LWPOLYLINE
  5
345
100
AcDbEntity
  8
ASSI
100
AcDbPolyline
 62
253
  6
CONTINUOUS
 90
10
 70
0
 10
155.7444463298
 20
98.5501473016
 10
155.7462173666
 20
98.5079660933
 10
155.7501368919
 20
98.4700449739
 10
155.7564031813
 20
98.4360552313
 10
155.7656059375
 20
98.405573709
 10
155.7776084381
 20
98.3789333198
 10
155.7915445303
 20
98.3570340923
 10
155.8077066564
 20
98.3400065898
 10
155.8263493267
 20
98.3277625579
 10
155.8373417266
 20
98.3232152909
  0
LWPOLYLINE
  5
346
100
AcDbEntity
  8
0
100
AcDbPolyline
 62
253
  6
CONTINUOUS
 90
4
 70
0
 10
156.6642272702
 20
81.1448707577
 10
156.6087464656
 20
82.9969608686
 10
156.5599775203
 20
84.8227821408
 10
156.5179204343
 20
86.622334574
  0
LWPOLYLINE
  5
347
100
AcDbEntity
  8
ASSI
100
AcDbPolyline
 62
253
  6
CONTINUOUS
 90
4
 70
0
 10
156.6642272702
 20
81.1448707577
 10
156.6087464656
 20
82.9969608686
 10
156.5599775203
 20
84.8227821408
 10
156.5179204343
 20
86.622334574
  0
LWPOLYLINE
  5
348
100
AcDbEntity
  8
0
100
AcDbPolyline
 62
253
  6
CONTINUOUS
 90
10
 70
0
 10
156.0038288823
 20
81.0527116181
 10
155.9493949048
 20
82.9056549321
 10
155.9021004141
 20
84.7329799682
 10
155.8616333505
 20
86.5343737007
 10
155.8280426123
 20
88.2891575616
 10
155.8005427307
 20
90.0173008468
 10
155.7781540169
 20
91.7799653454
 10
155.7609994206
 20
93.5978936918
 10
155.7496643851
 20
95.450864342
 10
155.7444462227
 20
97.3390834825
  0
LWPOLYLINE
  5
349
100
AcDbEntity
  8
ASSI
100
AcDbPolyline
 62
253
  6
CONTINUOUS
 90
10
 70
0
 10
156.0038288823
 20
81.0527116181
 10
155.9493949048
 20
82.9056549321
 10
155.9021004141
 20
84.7329799682
 10
155.8616333505
 20
86.5343737007
 10
155.8280426123
 20
88.2891575616
 10
155.8005427307
 20
90.0173008468
 10
155.7781540169
 20
91.7799653454
 10
155.7609994206
 20
93.5978936918
 10
155.7496643851
 20
95.450864342
 10
155.7444462227
 20
97.3390834825
  0
LWPOLYLINE
  5
34A
100
AcDbEntity
  8
0
100
AcDbPolyline
 62
253
  6
CONTINUOUS
 90
7
 70
0
 10
156.5179204343
 20
86.622334574
 10
156.4829157048
 20
88.3752789227
 10
156.4546228346
 20
90.1019544325
 10
156.4320203324
 20
91.8633788408
 10
156.414767701
 20
93.6798913936
 10
156.4032054377
 20
95.531152845
 10
156.3973335423
 20
97.4171631949
  0
LWPOLYLINE
  5
34B
100
AcDbEntity
  8
ASSI
100
AcDbPolyline
 62
253
  6
CONTINUOUS
 90
7
 70
0
 10
156.5179204343
 20
86.622334574
 10
156.4829157048
 20
88.3752789227
 10
156.4546228346
 20
90.1019544325
 10
156.4320203324
 20
91.8633788408
 10
156.414767701
 20
93.6798913936
 10
156.4032054377
 20
95.531152845
 10
156.3973335423
 20
97.4171631949
  0
LWPOLYLINE
  5
34C
100
AcDbEntity
  8
0
100
AcDbPolyline
 62
253
  6
CONTINUOUS
 90
6
 70
0
 10
156.3973335822
 20
98.6269855678
 10
156.4014170508
 20
100.3205240418
 10
156.4113993621
 20
102.0438954374
 10
156.4272805162
 20
103.7970997545
 10
156.4484018403
 20
105.566425024
 10
156.4754220072
 20
107.3655832151
  0
LWPOLYLINE
  5
34D
100
AcDbEntity
  8
ASSI
100
AcDbPolyline
 62
253
  6
CONTINUOUS
 90
6
 70
0
 10
156.3973335822
 20
98.6269855678
 10
156.4014170508
 20
100.3205240418
 10
156.4113993621
 20
102.0438954374
 10
156.4272805162
 20
103.7970997545
 10
156.4484018403
 20
105.566425024
 10
156.4754220072
 20
107.3655832151
  0
LWPOLYLINE
  5
34E
100
AcDbEntity
  8
0
100
AcDbPolyline
 62
253
  6
CONTINUOUS
 90
5
 70
0
 10
155.7444462246
 20
98.5501472819
 10
155.7488030964
 20
100.2456937199
 10
155.7584268804
 20
101.9708647539
 10
155.7735477419
 20
103.7258141078
 10
155.7942182471
 20
105.4972884564
  0
LWPOLYLINE
  5
34F
100
AcDbEntity
  8
ASSI
100
AcDbPolyline
 62
253
  6
CONTINUOUS
 90
5
 70
0
 10
155.7444462246
 20
98.5501472819
 10
155.7488030964
 20
100.2456937199
 10
155.7584268804
 20
101.9708647539
 10
155.7735477419
 20
103.7258141078
 10
155.7942182471
 20
105.4972884564
  0
LWPOLYLINE
  5
350
100
AcDbEntity
  8
0
100
AcDbPolyline
 62
253
  6
CONTINUOUS
 90
6
 70
0
 10
155.7942182471
 20
105.4972884564
 10
155.8207727413
 20
107.2987820262
 10
155.8542442512
 20
109.1708653271
 10
155.8955773081
 20
111.1275024906
 10
155.9452110161
 20
113.1557216322
 10
156.0038288558
 20
115.2559978724
  0
LWPOLYLINE
  5
351
100
AcDbEntity
  8
ASSI
100
AcDbPolyline
 62
253
  6
CONTINUOUS
 90
6
 70
0
 10
155.7942182471
 20
105.4972884564
 10
155.8207727413
 20
107.2987820262
 10
155.8542442512
 20
109.1708653271
 10
155.8955773081
 20
111.1275024906
 10
155.9452110161
 20
113.1557216322
 10
156.0038288558
 20
115.2559978724
  0
LINE
  5
352
100
AcDbEntity
  8
0
100
AcDbLine
 62
253
  6
CONTINUOUS
 10
156.4754220072
 20
107.3655832151
 11
156.5103170345
 21
109.2357102355
  0
LINE
  5
353
100
AcDbEntity
  8
ASSI
100
AcDbLine
 62
253
  6
CONTINUOUS
 10
156.4754220072
 20
107.3655832151
 11
156.5103170345
 21
109.2357102355
  0
LINE
  5
354
100
AcDbEntity
  8
0
100
AcDbLine
 62
253
  6
CONTINUOUS
 10
156.5103170345
 20
109.2357102355
 11
156.5542909144
 21
111.2120506444
  0
LINE
  5
355
100
AcDbEntity
  8
ASSI
100
AcDbLine
 62
253
  6
CONTINUOUS
 10
156.5103170345
 20
109.2357102355
 11
156.5542909144
 21
111.2120506444
  0
LWPOLYLINE
  5
356
100
AcDbEntity
  8
0
100
AcDbPolyline
 62
253
  6
CONTINUOUS
 90
3
 70
0
 10
156.5542909144
 20
111.2120506444
 10
156.6050490156
 20
113.2162947025
 10
156.6642272968
 20
115.3130401798
  0
LWPOLYLINE
  5
357
100
AcDbEntity
  8
ASSI
100
AcDbPolyline
 62
253
  6
CONTINUOUS
 90
3
 70
0
 10
156.5542909144
 20
111.2120506444
 10
156.6050490156
 20
113.2162947025
 10
156.6642272968
 20
115.3130401798
  0
LWPOLYLINE
  5
358
100
AcDbEntity
  8
0
100
AcDbPolyline
 62
253
  6
CONTINUOUS
 90
16
 70
0
 10
155.7444462898
 20
97.3390834606
 10
155.7462170945
 20
97.3837116816
 10
155.7501363645
 20
97.4297514387
 10
155.7564023385
 20
97.4770675284
 10
155.7656045942
 20
97.5257648596
 10
155.7776064575
 20
97.5756511532
 10
155.7915420111
 20
97.6257880885
 10
155.8077037199
 20
97.6751770612
 10
155.826346032
 20
97.7236091279
 10
155.8464567071
 20
97.770819029
 10
155.8681152403
 20
97.8159373247
 10
155.8915539897
 20
97.8583650626
 10
155.9158196196
 20
97.8980921334
 10
155.9406000105
 20
97.9346499471
 10
155.9662874636
 20
97.9672106722
 10
155.9929024444
 20
97.9952617236
  0
LWPOLYLINE
  5
359
100
AcDbEntity
  8
ASSI
100
AcDbPolyline
 62
253
  6
CONTINUOUS
 90
16
 70
0
 10
155.7444462898
 20
97.3390834606
 10
155.7462170945
 20
97.3837116816
 10
155.7501363645
 20
97.4297514387
 10
155.7564023385
 20
97.4770675284
 10
155.7656045942
 20
97.5257648596
 10
155.7776064575
 20
97.5756511532
 10
155.7915420111
 20
97.6257880885
 10
155.8077037199
 20
97.6751770612
 10
155.826346032
 20
97.7236091279
 10
155.8464567071
 20
97.770819029
 10
155.8681152403
 20
97.8159373247
 10
155.8915539897
 20
97.8583650626
 10
155.9158196196
 20
97.8980921334
 10
155.9406000105
 20
97.9346499471
 10
155.9662874636
 20
97.9672106722
 10
155.9929024444
 20
97.9952617236
  0
LWPOLYLINE
  5
35A
100
AcDbEntity
  8
0
100
AcDbPolyline
 62
253
  6
CONTINUOUS
 90
10
 70
0
 10
156.3973335822
 20
98.6269855678
 10
156.3956169663
 20
98.5921756184
 10
156.3909093416
 20
98.5588003785
 10
156.3832208488
 20
98.5271232061
 10
156.3725779136
 20
98.4973824731
 10
156.3590402486
 20
98.4698391824
 10
156.3427163032
 20
98.4447617569
 10
156.3237220712
 20
98.422351112
 10
156.3021932636
 20
98.4027869396
 10
156.2990287438
 20
98.4003174695
  0
LWPOLYLINE
  5
35B
100
AcDbEntity
  8
ASSI
100
AcDbPolyline
 62
253
  6
CONTINUOUS
 90
10
 70
0
 10
156.3973335822
 20
98.6269855678
 10
156.3956169663
 20
98.5921756184
 10
156.3909093416
 20
98.5588003785
 10
156.3832208488
 20
98.5271232061
 10
156.3725779136
 20
98.4973824731
 10
156.3590402486
 20
98.4698391824
 10
156.3427163032
 20
98.4447617569
 10
156.3237220712
 20
98.422351112
 10
156.3021932636
 20
98.4027869396
 10
156.2990287438
 20
98.4003174695
  0
LWPOLYLINE
  5
35C
100
AcDbEntity
  8
0
100
AcDbPolyline
 62
253
  6
CONTINUOUS
 90
22
 70
0
 10
156.0038288744
 20
115.2559979212
 10
156.0074363278
 20
115.3279636642
 10
156.0143515218
 20
115.402170641
 10
156.0245430885
 20
115.4782513348
 10
156.0379709558
 20
115.5558207087
 10
156.0545676307
 20
115.6345019258
 10
156.0742405487
 20
115.7139289575
 10
156.09690756
 20
115.7937125241
 10
156.1224626605
 20
115.8734513553
 10
156.1507588706
 20
115.9527584928
 10
156.1816720682
 20
116.0312369089
 10
156.2150605393
 20
116.1084962452
 10
156.2507330561
 20
116.1841647231
 10
156.288532675
 20
116.2578637411
 10
156.3282854189
 20
116.3292225262
 10
156.3697597837
 20
116.3978951666
 10
156.412767392
 20
116.4635319924
 10
156.4571144146
 20
116.525806389
 10
156.5025508379
 20
116.5844282243
 10
156.5488548234
 20
116.6391074168
 10
156.5958332387
 20
116.6895566822
 10
156.6432732691
 20
116.7355176167
  0
LWPOLYLINE
  5
35D
100
AcDbEntity
  8
ASSI
100
AcDbPolyline
 62
253
  6
CONTINUOUS
 90
22
 70
0
 10
156.0038288744
 20
115.2559979212
 10
156.0074363278
 20
115.3279636642
 10
156.0143515218
 20
115.402170641
 10
156.0245430885
 20
115.4782513348
 10
156.0379709558
 20
115.5558207087
 10
156.0545676307
 20
115.6345019258
 10
156.0742405487
 20
115.7139289575
 10
156.09690756
 20
115.7937125241
 10
156.1224626605
 20
115.8734513553
 10
156.1507588706
 20
115.9527584928
 10
156.1816720682
 20
116.0312369089
 10
156.2150605393
 20
116.1084962452
 10
156.2507330561
 20
116.1841647231
 10
156.288532675
 20
116.2578637411
 10
156.3282854189
 20
116.3292225262
 10
156.3697597837
 20
116.3978951666
 10
156.412767392
 20
116.4635319924
 10
156.4571144146
 20
116.525806389
 10
156.5025508379
 20
116.5844282243
 10
156.5488548234
 20
116.6391074168
 10
156.5958332387
 20
116.6895566822
 10
156.6432732691
 20
116.7355176167
  0
LWPOLYLINE
  5
35E
100
AcDbEntity
  8
0
100
AcDbPolyline
 62
253
  6
CONTINUOUS
 90
22
 70
0
 10
156.6642272968
 20
115.3130401798
 10
156.6665343925
 20
115.3550884672
 10
156.6708370734
 20
115.3980395733
 10
156.6771353393
 20
115.4418934981
 10
156.6854794641
 20
115.4868930301
 10
156.6958191739
 20
115.5327953807
 10
156.7080036476
 20
115.5788721847
 10
156.7220592632
 20
115.6251079883
 10
156.7379596427
 20
115.6715182453
 10
156.7554748312
 20
115.7174209514
 10
156.7746305962
 20
115.7628117676
 10
156.7954011702
 20
115.8076950328
 10
156.8174792955
 20
115.8514017592
 10
156.8408844169
 20
115.8939129022
 10
156.8655970896
 20
115.9352475063
 10
156.8912517206
 20
115.9747937178
 10
156.9178752758
 20
116.0125357839
 10
156.9454407893
 20
116.0484894572
 10
156.9735017709
 20
116.0820901416
 10
157.0019093908
 20
116.1131496384
 10
157.0308124788
 20
116.1418561462
 10
157.060211035
 20
116.1682096651
  0
LWPOLYLINE
  5
35F
100
AcDbEntity
  8
ASSI
100
AcDbPolyline
 62
253
  6
CONTINUOUS
 90
22
 70
0
 10
156.6642272968
 20
115.3130401798
 10
156.6665343925
 20
115.3550884672
 10
156.6708370734
 20
115.3980395733
 10
156.6771353393
 20
115.4418934981
 10
156.6854794641
 20
115.4868930301
 10
156.6958191739
 20
115.5327953807
 10
156.7080036476
 20
115.5788721847
 10
156.7220592632
 20
115.6251079883
 10
156.7379596427
 20
115.6715182453
 10
156.7554748312
 20
115.7174209514
 10
156.7746305962
 20
115.7628117676
 10
156.7954011702
 20
115.8076950328
 10
156.8174792955
 20
115.8514017592
 10
156.8408844169
 20
115.8939129022
 10
156.8655970896
 20
115.9352475063
 10
156.8912517206
 20
115.9747937178
 10
156.9178752758
 20
116.0125357839
 10
156.9454407893
 20
116.0484894572
 10
156.9735017709
 20
116.0820901416
 10
157.0019093908
 20
116.1131496384
 10
157.0308124788
 20
116.1418561462
 10
157.060211035
 20
116.1682096651
  0
LINE
  5
360
100
AcDbEntity
  8
0
100
AcDbLine
 62
253
  6
CONTINUOUS
 10
158.6165431573
 20
100.0604815889
 11
155.9929024426
 21
97.9952617221
  0
LINE
  5
361
100
AcDbEntity
  8
ASSI
100
AcDbLine
 62
253
  6
CONTINUOUS
 10
158.6165431573
 20
100.0604815889
 11
155.9929024426
 21
97.9952617221
  0
LINE
  5
362
100
AcDbEntity
  8
0
100
AcDbLine
 62
253
  6
CONTINUOUS
 10
159.0261659858
 20
99.4864697728
 11
156.3973335423
 21
97.4171631949
  0
LINE
  5
363
100
AcDbEntity
  8
ASSI
100
AcDbLine
 62
253
  6
CONTINUOUS
 10
159.0261659858
 20
99.4864697728
 11
156.3973335423
 21
97.4171631949
  0
LINE
  5
364
100
AcDbEntity
  8
0
100
AcDbLine
 62
253
  6
CONTINUOUS
 10
156.2990287438
 20
98.4003174695
 11
156.2987359342
 21
98.4000936267
  0
LINE
  5
365
100
AcDbEntity
  8
ASSI
100
AcDbLine
 62
253
  6
CONTINUOUS
 10
156.2990287438
 20
98.4003174695
 11
156.2987359342
 21
98.4000936267
  0
LINE
  5
366
100
AcDbEntity
  8
0
100
AcDbLine
 62
253
  6
CONTINUOUS
 10
156.3973335822
 20
98.6269855678
 11
159.0261659858
 21
100.6331266974
  0
LINE
  5
367
100
AcDbEntity
  8
ASSI
100
AcDbLine
 62
253
  6
CONTINUOUS
 10
156.3973335822
 20
98.6269855678
 11
159.0261659858
 21
100.6331266974
  0
LINE
  5
368
100
AcDbEntity
  8
0
100
AcDbLine
 62
7
  6
CONTINUOUS
 10
156.2987348294
 20
98.4000927835
 11
158.9273247197
 21
100.4060488439
  0
LINE
  5
369
100
AcDbEntity
  8
ASSI
100
AcDbLine
 62
7
  6
CONTINUOUS
 10
156.2987348294
 20
98.4000927835
 11
158.9273247197
 21
100.4060488439
  0
LWPOLYLINE
  5
36A
100
AcDbEntity
  8
0
100
AcDbPolyline
 62
253
  6
CONTINUOUS
 90
16
 70
0
 10
156.397333543
 20
97.4171631955
 10
156.3665385275
 20
97.3955126305
 10
156.3322323384
 20
97.3756807742
 10
156.2947395353
 20
97.3578552494
 10
156.2544148323
 20
97.3422047001
 10
156.2116397225
 20
97.3288771879
 10
156.1668188657
 20
97.3179987956
 10
156.1203762732
 20
97.3096724404
 10
156.0727513429
 20
97.3039769049
 10
156.0243946841
 20
97.3009660781
 10
155.9757638072
 20
97.3006684404
 10
155.9273187721
 20
97.3030868022
 10
155.8795178801
 20
97.3081982839
 10
155.8328133533
 20
97.3159545287
 10
155.7876470553
 20
97.3262821564
 10
155.7444462898
 20
97.3390834606
  0
LWPOLYLINE
  5
36B
100
AcDbEntity
  8
ASSI
100
AcDbPolyline
 62
253
  6
CONTINUOUS
 90
16
 70
0
 10
156.397333543
 20
97.4171631955
 10
156.3665385275
 20
97.3955126305
 10
156.3322323384
 20
97.3756807742
 10
156.2947395353
 20
97.3578552494
 10
156.2544148323
 20
97.3422047001
 10
156.2116397225
 20
97.3288771879
 10
156.1668188657
 20
97.3179987956
 10
156.1203762732
 20
97.3096724404
 10
156.0727513429
 20
97.3039769049
 10
156.0243946841
 20
97.3009660781
 10
155.9757638072
 20
97.3006684404
 10
155.9273187721
 20
97.3030868022
 10
155.8795178801
 20
97.3081982839
 10
155.8328133533
 20
97.3159545287
 10
155.7876470553
 20
97.3262821564
 10
155.7444462898
 20
97.3390834606
  0
LWPOLYLINE
  5
36C
100
AcDbEntity
  8
0
100
AcDbPolyline
 62
253
  6
CONTINUOUS
 90
10
 70
0
 10
121.1529574306
 20
130.9892285133
 10
121.1094965399
 20
131.0035337612
 10
121.0666752151
 20
131.0133434546
 10
121.0249618058
 20
131.0185503185
 10
120.9848125287
 20
131.0190974207
 10
120.9466665157
 20
131.0149787926
 10
120.9109410042
 20
131.0062395089
 10
120.878026722
 20
130.9929751862
 10
120.8482836323
 20
130.9753309268
 10
120.8251219203
 20
130.9564550235
  0
LWPOLYLINE
  5
36D
100
AcDbEntity
  8
ASSI
100
AcDbPolyline
 62
253
  6
CONTINUOUS
 90
10
 70
0
 10
121.1529574306
 20
130.9892285133
 10
121.1094965399
 20
131.0035337612
 10
121.0666752151
 20
131.0133434546
 10
121.0249618058
 20
131.0185503185
 10
120.9848125287
 20
131.0190974207
 10
120.9466665157
 20
131.0149787926
 10
120.9109410042
 20
131.0062395089
 10
120.878026722
 20
130.9929751862
 10
120.8482836323
 20
130.9753309268
 10
120.8251219203
 20
130.9564550235
  0
LWPOLYLINE
  5
36E
100
AcDbEntity
  8
0
100
AcDbPolyline
 62
253
  6
CONTINUOUS
 90
8
 70
0
 10
154.8080188907
 20
117.3753961803
 10
153.8755797982
 20
117.7093145646
 10
152.9392879425
 20
118.0498829701
 10
151.9931214846
 20
118.3997707773
 10
151.0190149069
 20
118.7669861276
 10
150.0109463703
 20
119.1541984015
 10
148.9749377138
 20
119.5587382184
 10
147.9109889376
 20
119.9806055784
  0
LWPOLYLINE
  5
36F
100
AcDbEntity
  8
ASSI
100
AcDbPolyline
 62
253
  6
CONTINUOUS
 90
8
 70
0
 10
154.8080188907
 20
117.3753961803
 10
153.8755797982
 20
117.7093145646
 10
152.9392879425
 20
118.0498829701
 10
151.9931214846
 20
118.3997707773
 10
151.0190149069
 20
118.7669861276
 10
150.0109463703
 20
119.1541984015
 10
148.9749377138
 20
119.5587382184
 10
147.9109889376
 20
119.9806055784
  0
LINE
  5
370
100
AcDbEntity
  8
0
100
AcDbLine
 62
7
  6
CONTINUOUS
 10
136.6920137073
 20
126.0987166101
 11
133.9322414092
 21
127.2071033826
  0
LINE
  5
371
100
AcDbEntity
  8
ASSI
100
AcDbLine
 62
7
  6
CONTINUOUS
 10
136.6920137073
 20
126.0987166101
 11
133.9322414092
 21
127.2071033826
  0
LINE
  5
372
100
AcDbEntity
  8
0
100
AcDbLine
 62
7
  6
CONTINUOUS
 10
127.5175108113
 20
129.7834038075
 11
124.7577385131
 21
130.89179058
  0
LINE
  5
373
100
AcDbEntity
  8
ASSI
100
AcDbLine
 62
7
  6
CONTINUOUS
 10
127.5175108113
 20
129.7834038075
 11
124.7577385131
 21
130.89179058
  0
LINE
  5
374
100
AcDbEntity
  8
0
100
AcDbLine
 62
7
  6
CONTINUOUS
 10
143.1886595097
 20
123.4895171924
 11
145.9484318078
 21
122.3811304199
  0
LINE
  5
375
100
AcDbEntity
  8
ASSI
100
AcDbLine
 62
7
  6
CONTINUOUS
 10
143.1886595097
 20
123.4895171924
 11
145.9484318078
 21
122.3811304199
  0
LINE
  5
376
100
AcDbEntity
  8
0
100
AcDbLine
 62
7
  6
CONTINUOUS
 10
152.3631624057
 20
119.804829995
 11
155.1229347038
 21
118.6964432225
  0
LINE
  5
377
100
AcDbEntity
  8
ASSI
100
AcDbLine
 62
7
  6
CONTINUOUS
 10
152.3631624057
 20
119.804829995
 11
155.1229347038
 21
118.6964432225
  0
LINE
  5
378
100
AcDbEntity
  8
0
100
AcDbLine
 62
7
  6
CONTINUOUS
 10
158.1455361506
 20
118.0083729213
 11
155.9580785604
 21
118.8869052045
  0
LINE
  5
379
100
AcDbEntity
  8
ASSI
100
AcDbLine
 62
7
  6
CONTINUOUS
 10
158.1455361506
 20
118.0083729213
 11
155.9580785604
 21
118.8869052045
  0
LINE
  5
37A
100
AcDbEntity
  8
0
100
AcDbLine
 62
7
  6
CONTINUOUS
 10
152.3397910088
 20
120.3400910576
 11
146.7835756644
 21
122.5715924019
  0
LINE
  5
37B
100
AcDbEntity
  8
ASSI
100
AcDbLine
 62
7
  6
CONTINUOUS
 10
152.3397910088
 20
120.3400910576
 11
146.7835756644
 21
122.5715924019
  0
LINE
  5
37C
100
AcDbEntity
  8
0
100
AcDbLine
 62
7
  6
CONTINUOUS
 10
143.1652881128
 20
124.024778255
 11
137.5271575639
 21
126.2891785921
  0
LINE
  5
37D
100
AcDbEntity
  8
ASSI
100
AcDbLine
 62
7
  6
CONTINUOUS
 10
143.1652881128
 20
124.024778255
 11
137.5271575639
 21
126.2891785921
  0
LINE
  5
37E
100
AcDbEntity
  8
0
100
AcDbLine
 62
7
  6
CONTINUOUS
 10
133.9088700123
 20
127.7423644452
 11
128.3526546679
 21
129.9738657895
  0
LINE
  5
37F
100
AcDbEntity
  8
ASSI
100
AcDbLine
 62
7
  6
CONTINUOUS
 10
133.9088700123
 20
127.7423644452
 11
128.3526546679
 21
129.9738657895
  0
LINE
  5
380
100
AcDbEntity
  8
0
100
AcDbLine
 62
7
  6
CONTINUOUS
 10
124.7343671163
 20
131.4270516426
 11
122.5469095262
 21
132.3055839259
  0
LINE
  5
381
100
AcDbEntity
  8
ASSI
100
AcDbLine
 62
7
  6
CONTINUOUS
 10
124.7343671163
 20
131.4270516426
 11
122.5469095262
 21
132.3055839259
  0
LWPOLYLINE
  5
382
100
AcDbEntity
  8
0
100
AcDbPolyline
 62
253
  6
CONTINUOUS
 90
5
 70
0
 10
147.9109889376
 20
119.9806055784
 10
128.7397118392
 20
127.68271221
 10
128.0131104451
 20
127.9804489095
 10
127.3010070647
 20
128.275790536
 10
126.6070079764
 20
128.567292602
  0
LWPOLYLINE
  5
383
100
AcDbEntity
  8
ASSI
100
AcDbPolyline
 62
253
  6
CONTINUOUS
 90
5
 70
0
 10
147.9109889376
 20
119.9806055784
 10
128.7397118392
 20
127.68271221
 10
128.0131104451
 20
127.9804489095
 10
127.3010070647
 20
128.275790536
 10
126.6070079764
 20
128.567292602
  0
LWPOLYLINE
  5
384
100
AcDbEntity
  8
0
100
AcDbPolyline
 62
253
  6
CONTINUOUS
 90
16
 70
0
 10
156.6432732691
 20
116.7355176167
 10
156.685333989
 20
116.7154755276
 10
156.7270988443
 20
116.6913136678
 10
156.7681110477
 20
116.6632962985
 10
156.8079220435
 20
116.631729849
 10
156.8460964141
 20
116.5969595657
 10
156.8822166418
 20
116.5593657356
 10
156.9158876753
 20
116.5193595271
 10
156.9467412502
 20
116.477378493
 10
156.9744399173
 20
116.433881785
 10
156.9986807327
 20
116.3893451322
 10
157.0191985717
 20
116.3442556373
 10
157.0357690282
 20
116.2991064497
 10
157.0482108689
 20
116.2543913717
 10
157.056388016
 20
116.2105994577
 10
157.060211035
 20
116.1682096651
  0
LWPOLYLINE
  5
385
100
AcDbEntity
  8
ASSI
100
AcDbPolyline
 62
253
  6
CONTINUOUS
 90
16
 70
0
 10
156.6432732691
 20
116.7355176167
 10
156.685333989
 20
116.7154755276
 10
156.7270988443
 20
116.6913136678
 10
156.7681110477
 20
116.6632962985
 10
156.8079220435
 20
116.631729849
 10
156.8460964141
 20
116.5969595657
 10
156.8822166418
 20
116.5593657356
 10
156.9158876753
 20
116.5193595271
 10
156.9467412502
 20
116.477378493
 10
156.9744399173
 20
116.433881785
 10
156.9986807327
 20
116.3893451322
 10
157.0191985717
 20
116.3442556373
 10
157.0357690282
 20
116.2991064497
 10
157.0482108689
 20
116.2543913717
 10
157.056388016
 20
116.2105994577
 10
157.060211035
 20
116.1682096651
  0
LINE
  5
386
100
AcDbEntity
  8
0
100
AcDbLine
 62
7
  6
CONTINUOUS
 10
158.5806015189
 20
117.4564243419
 11
159.0261659858
 21
110.7906900153
  0
LINE
  5
387
100
AcDbEntity
  8
ASSI
100
AcDbLine
 62
7
  6
CONTINUOUS
 10
158.5806015189
 20
117.4564243419
 11
159.0261659858
 21
110.7906900153
  0
LINE
  5
388
100
AcDbEntity
  8
0
100
AcDbLine
 62
7
  6
CONTINUOUS
 10
159.0261659858
 20
110.7906900153
 11
159.0261659858
 21
100.6331266974
  0
LINE
  5
389
100
AcDbEntity
  8
ASSI
100
AcDbLine
 62
7
  6
CONTINUOUS
 10
159.0261659858
 20
110.7906900153
 11
159.0261659858
 21
100.6331266974
  0
LINE
  5
38A
100
AcDbEntity
  8
0
100
AcDbLine
 62
7
  6
CONTINUOUS
 10
159.0261659858
 20
89.3289064549
 11
159.0261659858
 21
99.4864697728
  0
LINE
  5
38B
100
AcDbEntity
  8
ASSI
100
AcDbLine
 62
7
  6
CONTINUOUS
 10
159.0261659858
 20
89.3289064549
 11
159.0261659858
 21
99.4864697728
  0
LINE
  5
38C
100
AcDbEntity
  8
0
100
AcDbLine
 62
7
  6
CONTINUOUS
 10
158.5806015189
 20
81.9724188233
 11
159.0261659858
 21
89.3289064549
  0
LINE
  5
38D
100
AcDbEntity
  8
ASSI
100
AcDbLine
 62
7
  6
CONTINUOUS
 10
158.5806015189
 20
81.9724188233
 11
159.0261659858
 21
89.3289064549
  0
LWPOLYLINE
  5
38E
100
AcDbEntity
  8
0
100
AcDbPolyline
 62
253
  6
CONTINUOUS
 90
8
 70
0
 10
156.9458357275
 20
80.6651389799
 10
156.9744414182
 20
80.6888004183
 10
156.998681927
 20
80.7160356981
 10
157.0191994298
 20
80.7471879127
 10
157.0357695601
 20
80.781916332
 10
157.0482111198
 20
80.8198411143
 10
157.0563880637
 20
80.8605474577
 10
157.0602109914
 20
80.9035901464
  0
LWPOLYLINE
  5
38F
100
AcDbEntity
  8
ASSI
100
AcDbPolyline
 62
253
  6
CONTINUOUS
 90
8
 70
0
 10
156.9458357275
 20
80.6651389799
 10
156.9744414182
 20
80.6888004183
 10
156.998681927
 20
80.7160356981
 10
157.0191994298
 20
80.7471879127
 10
157.0357695601
 20
80.781916332
 10
157.0482111198
 20
80.8198411143
 10
157.0563880637
 20
80.8605474577
 10
157.0602109914
 20
80.9035901464
  0
LINE
  5
390
100
AcDbEntity
  8
0
100
AcDbLine
 62
253
  6
CONTINUOUS
 10
158.5806015189
 20
81.9724188233
 11
157.0602109914
 21
80.9035901464
  0
LINE
  5
391
100
AcDbEntity
  8
ASSI
100
AcDbLine
 62
253
  6
CONTINUOUS
 10
158.5806015189
 20
81.9724188233
 11
157.0602109914
 21
80.9035901464
  0
LINE
  5
392
100
AcDbEntity
  8
0
100
AcDbLine
 62
7
  6
CONTINUOUS
 10
158.4572548253
 20
81.7276607763
 11
156.945835656
 21
80.6651389296
  0
LINE
  5
393
100
AcDbEntity
  8
ASSI
100
AcDbLine
 62
7
  6
CONTINUOUS
 10
158.4572548253
 20
81.7276607763
 11
156.945835656
 21
80.6651389296
  0
LWPOLYLINE
  5
394
100
AcDbEntity
  8
0
100
AcDbPolyline
 62
253
  6
CONTINUOUS
 90
22
 70
0
 10
157.0602109914
 20
80.9035901464
 10
157.0308124343
 20
80.884367432
 10
157.0019093454
 20
80.868265825
 10
156.9735017248
 20
80.8552853254
 10
156.9454407423
 20
80.8453834024
 10
156.917875228
 20
80.8386025868
 10
156.8912516722
 20
80.8350704709
 10
156.8655970405
 20
80.834844612
 10
156.8408843672
 20
80.8378674528
 10
156.8174792452
 20
80.8440939135
 10
156.7954011195
 20
80.8535731842
 10
156.7746305451
 20
80.8662560748
 10
156.7554747797
 20
80.8819499357
 10
156.7379595908
 20
80.9006990526
 10
156.722059211
 20
80.9224591398
 10
156.7080035952
 20
80.9469046892
 10
156.6958191204
 20
80.9740920472
 10
156.6854794095
 20
81.0039648675
 10
156.6771352867
 20
81.0360286034
 10
156.6708370265
 20
81.0701184059
 10
156.6665343543
 20
81.106399124
 10
156.6642272702
 20
81.1448707577
  0
LWPOLYLINE
  5
395
100
AcDbEntity
  8
ASSI
100
AcDbPolyline
 62
253
  6
CONTINUOUS
 90
22
 70
0
 10
157.0602109914
 20
80.9035901464
 10
157.0308124343
 20
80.884367432
 10
157.0019093454
 20
80.868265825
 10
156.9735017248
 20
80.8552853254
 10
156.9454407423
 20
80.8453834024
 10
156.917875228
 20
80.8386025868
 10
156.8912516722
 20
80.8350704709
 10
156.8655970405
 20
80.834844612
 10
156.8408843672
 20
80.8378674528
 10
156.8174792452
 20
80.8440939135
 10
156.7954011195
 20
80.8535731842
 10
156.7746305451
 20
80.8662560748
 10
156.7554747797
 20
80.8819499357
 10
156.7379595908
 20
80.9006990526
 10
156.722059211
 20
80.9224591398
 10
156.7080035952
 20
80.9469046892
 10
156.6958191204
 20
80.9740920472
 10
156.6854794095
 20
81.0039648675
 10
156.6771352867
 20
81.0360286034
 10
156.6708370265
 20
81.0701184059
 10
156.6665343543
 20
81.106399124
 10
156.6642272702
 20
81.1448707577
  0
ELLIPSE
  5
396
100
AcDbEntity
  8
0
100
AcDbEllipse
 62
7
  6
CONTINUOUS
 10
158.1709206428
 20
82.1375570509
 30
0.0
 11
-0.2850203122
 21
0.4108138748
 31
0.0
 40
0.7191175512
 41
-3.1374309805
 42
-2.401520857
  0
ELLIPSE
  5
397
100
AcDbEntity
  8
0
100
AcDbEllipse
 62
7
  6
CONTINUOUS
 10
158.6164495641
 20
99.6509275599
 30
0.0
 11
0.3170403205
 21
-0.3867036085
 31
0.0
 40
0.6711200097
 41
0.6859711218
 42
2.2565390145
  0
ELLIPSE
  5
398
100
AcDbEntity
  8
ASSI
100
AcDbEllipse
 62
7
  6
CONTINUOUS
 10
158.1709206428
 20
82.1375570509
 30
0.0
 11
-0.2850203122
 21
0.4108138748
 31
0.0
 40
0.7191175512
 41
-3.1374309805
 42
-2.401520857
  0
ELLIPSE
  5
399
100
AcDbEntity
  8
ASSI
100
AcDbEllipse
 62
7
  6
CONTINUOUS
 10
158.6164495641
 20
99.6509275599
 30
0.0
 11
0.3170403205
 21
-0.3867036085
 31
0.0
 40
0.6711200097
 41
0.6859711218
 42
2.2565390145
  0
ELLIPSE
  5
39A
100
AcDbEntity
  8
0
100
AcDbEllipse
 62
7
  6
CONTINUOUS
 10
122.5715459857
 20
131.9179553553
 30
0.0
 11
-0.3432468395
 21
0.3635678883
 31
0.0
 40
0.6190547263
 41
-0.930363261
 42
0.0001592011
  0
ELLIPSE
  5
39B
100
AcDbEntity
  8
0
100
AcDbEllipse
 62
7
  6
CONTINUOUS
 10
158.1709206428
 20
117.6204439239
 30
0.0
 11
-0.3433580121
 21
0.3640648834
 31
0.0
 40
0.6179721343
 41
-2.4982952834
 42
-0.9288689526
  0
ELLIPSE
  5
39C
100
AcDbEntity
  8
0
100
AcDbEllipse
 62
7
  6
CONTINUOUS
 10
158.6164495641
 20
100.7977716139
 30
0.0
 11
-0.3170686951
 21
0.3868251561
 31
0.0
 40
0.6708195125
 41
-3.1651785864
 42
-2.4557308722
  0
ELLIPSE
  5
39D
100
AcDbEntity
  8
0
100
AcDbEllipse
 62
7
  6
CONTINUOUS
 10
155.2376499911
 20
118.7989984725
 30
0.0
 11
0.1999434854
 21
0.0078174272
 31
0.0
 40
0.6081570881
 41
-2.2054349231
 42
-1.1582373719
  0
ELLIPSE
  5
39E
100
AcDbEntity
  8
0
100
AcDbEllipse
 62
7
  6
CONTINUOUS
 10
152.477877693
 20
119.907385245
 30
0.0
 11
0.1999434854
 21
0.0078174272
 31
0.0
 40
0.6081570881
 41
3.1201007963
 42
4.077750384
  0
ELLIPSE
  5
39F
100
AcDbEntity
  8
0
100
AcDbEllipse
 62
7
  6
CONTINUOUS
 10
146.0631470951
 20
122.4836856699
 30
0.0
 11
0.1999434854
 21
0.0078174272
 31
0.0
 40
0.6081570881
 41
-2.2054349231
 42
-1.1582373719
  0
ELLIPSE
  5
3A0
100
AcDbEntity
  8
0
100
AcDbEllipse
 62
7
  6
CONTINUOUS
 10
143.3033747969
 20
123.5920724424
 30
0.0
 11
0.1999434854
 21
0.0078174272
 31
0.0
 40
0.6081570881
 41
3.1201007963
 42
4.077750384
  0
ELLIPSE
  5
3A1
100
AcDbEntity
  8
0
100
AcDbEllipse
 62
7
  6
CONTINUOUS
 10
134.0469566965
 20
127.3096586326
 30
0.0
 11
0.1999434854
 21
0.0078174272
 31
0.0
 40
0.6081570881
 41
3.1201007963
 42
4.077750384
  0
ELLIPSE
  5
3A2
100
AcDbEntity
  8
0
100
AcDbEllipse
 62
7
  6
CONTINUOUS
 10
136.8067289946
 20
126.2012718601
 30
0.0
 11
0.1999434854
 21
0.0078174272
 31
0.0
 40
0.6081570881
 41
-2.2054349231
 42
-1.1582373719
  0
ELLIPSE
  5
3A3
100
AcDbEntity
  8
0
100
AcDbEllipse
 62
7
  6
CONTINUOUS
 10
127.6322260985
 20
129.8859590575
 30
0.0
 11
0.1999434854
 21
0.0078174272
 31
0.0
 40
0.6081570881
 41
-2.2054349231
 42
-1.1582373719
  0
ELLIPSE
  5
3A4
100
AcDbEntity
  8
0
100
AcDbEllipse
 62
7
  6
CONTINUOUS
 10
124.8724538004
 20
130.99434583
 30
0.0
 11
0.1999434854
 21
0.0078174272
 31
0.0
 40
0.6081570881
 41
3.1201007963
 42
4.077750384
  0
ELLIPSE
  5
3A5
100
AcDbEntity
  8
ASSI
100
AcDbEllipse
 62
7
  6
CONTINUOUS
 10
122.5715459857
 20
131.9179553553
 30
0.0
 11
-0.3432468395
 21
0.3635678883
 31
0.0
 40
0.6190547263
 41
-0.930363261
 42
0.0001592011
  0
ELLIPSE
  5
3A6
100
AcDbEntity
  8
ASSI
100
AcDbEllipse
 62
7
  6
CONTINUOUS
 10
158.1709206428
 20
117.6204439239
 30
0.0
 11
-0.3433580121
 21
0.3640648834
 31
0.0
 40
0.6179721343
 41
-2.4982952834
 42
-0.9288689526
  0
ELLIPSE
  5
3A7
100
AcDbEntity
  8
ASSI
100
AcDbEllipse
 62
7
  6
CONTINUOUS
 10
158.6164495641
 20
100.7977716139
 30
0.0
 11
-0.3170686951
 21
0.3868251561
 31
0.0
 40
0.6708195125
 41
-3.1651785864
 42
-2.4557308722
  0
ELLIPSE
  5
3A8
100
AcDbEntity
  8
ASSI
100
AcDbEllipse
 62
7
  6
CONTINUOUS
 10
155.2376499911
 20
118.7989984725
 30
0.0
 11
0.1999434854
 21
0.0078174272
 31
0.0
 40
0.6081570881
 41
-2.2054349231
 42
-1.1582373719
  0
ELLIPSE
  5
3A9
100
AcDbEntity
  8
ASSI
100
AcDbEllipse
 62
7
  6
CONTINUOUS
 10
152.477877693
 20
119.907385245
 30
0.0
 11
0.1999434854
 21
0.0078174272
 31
0.0
 40
0.6081570881
 41
3.1201007963
 42
4.077750384
  0
ELLIPSE
  5
3AA
100
AcDbEntity
  8
ASSI
100
AcDbEllipse
 62
7
  6
CONTINUOUS
 10
146.0631470951
 20
122.4836856699
 30
0.0
 11
0.1999434854
 21
0.0078174272
 31
0.0
 40
0.6081570881
 41
-2.2054349231
 42
-1.1582373719
  0
ELLIPSE
  5
3AB
100
AcDbEntity
  8
ASSI
100
AcDbEllipse
 62
7
  6
CONTINUOUS
 10
143.3033747969
 20
123.5920724424
 30
0.0
 11
0.1999434854
 21
0.0078174272
 31
0.0
 40
0.6081570881
 41
3.1201007963
 42
4.077750384
  0
ELLIPSE
  5
3AC
100
AcDbEntity
  8
ASSI
100
AcDbEllipse
 62
7
  6
CONTINUOUS
 10
134.0469566965
 20
127.3096586326
 30
0.0
 11
0.1999434854
 21
0.0078174272
 31
0.0
 40
0.6081570881
 41
3.1201007963
 42
4.077750384
  0
ELLIPSE
  5
3AD
100
AcDbEntity
  8
ASSI
100
AcDbEllipse
 62
7
  6
CONTINUOUS
 10
136.8067289946
 20
126.2012718601
 30
0.0
 11
0.1999434854
 21
0.0078174272
 31
0.0
 40
0.6081570881
 41
-2.2054349231
 42
-1.1582373719
  0
ELLIPSE
  5
3AE
100
AcDbEntity
  8
ASSI
100
AcDbEllipse
 62
7
  6
CONTINUOUS
 10
127.6322260985
 20
129.8859590575
 30
0.0
 11
0.1999434854
 21
0.0078174272
 31
0.0
 40
0.6081570881
 41
-2.2054349231
 42
-1.1582373719
  0
ELLIPSE
  5
3AF
100
AcDbEntity
  8
ASSI
100
AcDbEllipse
 62
7
  6
CONTINUOUS
 10
124.8724538004
 20
130.99434583
 30
0.0
 11
0.1999434854
 21
0.0078174272
 31
0.0
 40
0.6081570881
 41
3.1201007963
 42
4.077750384
  0
ENDSEC
  0
SECTION
  2
OBJECTS
  0
DICTIONARY
  5
C
100
AcDbDictionary
280
0
281
1
  3
ACAD_GROUP
350
D
  3
ACAD_MLINESTYLE
350
17
  3
ACAD_LAYOUT
350
1A
  3
ACAD_PLOTSETTINGS
350
19
  3
ACAD_PLOTSTYLENAME
350
E
  0
DICTIONARY
  5
D
102
{ACAD_REACTORS
330
C
102
}
100
AcDbDictionary
280
0
281
1
  0
ACDBDICTIONARYWDFLT
  5
E
102
{ACAD_REACTORS
330
C
102
}
100
AcDbDictionary
281
1
  3
Normal
350
F
100
AcDbDictionaryWithDefault
340
F
  0
DICTIONARY
  5
17
102
{ACAD_REACTORS
330
C
102
}
100
AcDbDictionary
280
0
281
1
  3
Standard
350
18
  0
DICTIONARY
  5
19
102
{ACAD_REACTORS
330
C
102
}
100
AcDbDictionary
281
1
  0
DICTIONARY
  5
1A
102
{ACAD_REACTORS
330
C
102
}
100
AcDbDictionary
281
1
  3
Model
350
3B0
  3
Layout1
350
3B1
  0
ACDBPLACEHOLDER
  5
F
102
{ACAD_REACTORS
330
E
102
}
  0
MLINESTYLE
  5
18
102
{ACAD_REACTORS
330
17
102
}
100
AcDbMlineStyle
  2
STANDARD
 70
0
  3

 62
256
 51
90.0
 52
90.0
 71
2
 49
0.5
 62
256
  6
BYLAYER
 49
-0.5
 62
256
  6
BYLAYER
  0
LAYOUT
  5
3B0
102
{ACAD_REACTORS
330
1A
102
}
100
AcDbPlotSettings
  1

  2
none_device
  4
ISO_A4_(297.00_x_210.00_MM)
  6

 40
0.0
 41
0.0
 42
0.0
 43
0.0
 44
297.0
 45
210.0
 46
0.0
 47
0.0
 48
0.0
 49
0.0
140
0.0
141
0.0
142
1.0
143
1.0
 70
1024
 72
1
 73
0
 74
0
  7

 75
0
147
1.0
148
0.0
149
0.0
100
AcDbLayout
  1
Model
 70
0
 71
0
 10
0.0
 20
0.0
 11
297.0
 21
210.0
 12
0.0
 22
0.0
 32
0.0
 14
0.0
 24
0.0
 34
0.0
 15
0.0
 25
0.0
 35
0.0
146
0.0
 13
0.0
 23
0.0
 33
0.0
 16
1.0
 26
0.0
 36
0.0
 17
0.0
 27
1.0
 37
0.0
 76
0
330
21F
345
0
346
0
  0
LAYOUT
  5
3B1
102
{ACAD_REACTORS
330
1A
102
}
100
AcDbPlotSettings
  1

  2
none_device
  4
ISO_A4_(297.00_x_210.00_MM)
  6

 40
0.0
 41
0.0
 42
0.0
 43
0.0
 44
297.0
 45
210.0
 46
0.0
 47
0.0
 48
0.0
 49
0.0
140
0.0
141
0.0
142
1.0
143
1.0
 70
0
 72
1
 73
0
 74
0
  7

 75
0
147
1.0
148
0.0
149
0.0
100
AcDbLayout
  1
Layout1
 70
0
 71
1
 10
0.0
 20
0.0
 11
297.0
 21
210.0
 12
0.0
 22
0.0
 32
0.0
 14
0.0
 24
0.0
 34
0.0
 15
0.0
 25
0.0
 35
0.0
146
0.0
 13
0.0
 23
0.0
 33
0.0
 16
1.0
 26
0.0
 36
0.0
 17
0.0
 27
1.0
 37
0.0
 76
0
330
220
345
0
346
0
  0
ENDSEC
  0
EOF
