  0
SECTION
  2
HEADER
  9
$ACADVER
  1
AC1021
  9
$DWGCODEPAGE
  3
ANSI_1252
  9
$EXTMAX
 10
297.0
 20
210.0
 30
0.0
  9
$EXTMIN
 10
0.0
 20
0.0
 30
0.0
  9
$LIMMIN
 10
0.0
 20
0.0
  9
$LIMMAX
 10
297.0
 20
210.0
  9
$VIEWCTR
 10
148.5
 20
105.0
  9
$VIEWSIZE
 40
210.0
  9
$CLAYER
  8
0
  9
$LTSCALE
 40
16.335
  9
$CELTYPE
  6
BYLAYER
  9
$DIMSCALE
 40
1.0
  9
$DIMASZ
 40
3.0
  9
$DIMEXO
 40
1.85625
  9
$DIMDLI
 40
11.286
  9
$DIMEXE
 40
5.346
  9
$DIMCEN
 40
2.673
  9
$DIMLFAC
 40
1.0
  9
$DIMBLK
  1
_FILLED
  9
$DIMTXT
 40
3.0
  9
$DIMTOL
 70
1
  9
$DIMLIM
 70
0
  9
$DIMTFAC
 40
1.0
  9
$DIMTP
 40
0.01
  9
$DIMTM
 40
0.01
  9
$PDMODE
 70
3
  9
$PDSIZE
 40
3.0
  9
$HANDSEED
  5
3A6
  9
$TILEMODE
 70
1
  9
$MEASUREMENT
 70
1
  9
$INSUNITS
 70
4
  0
ENDSEC
  0
SECTION
  2
CLASSES
  0
CLASS
  1
ACDBDICTIONARYWDFLT
  2
AcDbDictionaryWithDefault
  3
AutoCAD 2000
 90
0
 91
1
280
0
281
0
  0
CLASS
  1
ACDBPLACEHOLDER
  2
AcDbPlaceHolder
  3
AutoCAD 2000
 90
0
 91
1
280
0
281
0
  0
CLASS
  1
LAYOUT
  2
AcDbLayout
  3
AutoCAD 2000
 90
0
 91
0
280
0
281
0
  0
ENDSEC
  0
SECTION
  2
TABLES
  0
TABLE
  2
VPORT
  5
8
100
AcDbSymbolTable
 70
2
  0
VPORT
  5
1F4
100
AcDbSymbolTableRecord
100
AcDbViewportTableRecord
  2
*ACTIVE
 70
0
 10
0.0
 20
0.0
 11
1.0
 21
1.0
 12
148.5
 22
105.0
 13
0.0
 23
0.0
 14
1.0
 24
1.0
 15
0.0
 25
0.0
 16
0.0
 26
0.0
 36
1.0
 17
0.0
 27
0.0
 37
0.0
 40
210.0
 41
1.4142857143
 42
50.0
 43
0.0
 44
0.0
 50
0.0
 51
0.0
 71
0
 72
100
 73
1
 74
1
 75
0
 76
0
 77
0
 78
0
  0
ENDTAB
  0
TABLE
  2
LTYPE
  5
5
100
AcDbSymbolTable
 70
6
  0
LTYPE
  5
14
100
AcDbSymbolTableRecord
100
AcDbLinetypeTableRecord
  2
BYBLOCK
 70
0
  3

 72
65
 73
0
 40
0.0
  0
LTYPE
  5
15
100
AcDbSymbolTableRecord
100
AcDbLinetypeTableRecord
  2
BYLAYER
 70
0
  3

 72
65
 73
0
 40
0.0
  0
LTYPE
  5
16
100
AcDbSymbolTableRecord
100
AcDbLinetypeTableRecord
  2
CONTINUOUS
 70
64
  3
Solid line
 72
65
 73
0
 40
0.0
  0
LTYPE
  5
1F5
100
AcDbSymbolTableRecord
100
AcDbLinetypeTableRecord
  2
CENTER
 70
64
  3
____ _ ____ _ ____ _ ____ _ ____ _ ____ _ ____
 72
65
 73
4
 40
0.6
 49
0.375
 74
0
 49
-0.075
 74
0
 49
0.075
 74
0
 49
-0.075
 74
0
  0
LTYPE
  5
1F6
100
AcDbSymbolTableRecord
100
AcDbLinetypeTableRecord
  2
HIDDEN
 70
64
  3
- - - - - - - - - - - - - - - - - - - -
 72
65
 73
2
 40
0.2
 49
0.1
 74
0
 49
-0.1
 74
0
  0
LTYPE
  5
1F7
100
AcDbSymbolTableRecord
100
AcDbLinetypeTableRecord
  2
PHANTOM
 70
64
  3
_____ _ _ _____ _ _ _____ _ _ _____
 72
65
 73
6
 40
0.8
 49
0.45
 74
0
 49
-0.05
 74
0
 49
0.1
 74
0
 49
-0.05
 74
0
 49
0.1
 74
0
 49
-0.05
 74
0
  0
LTYPE
  5
1F8
100
AcDbSymbolTableRecord
100
AcDbLinetypeTableRecord
  2
DOT
 70
64
  3
. . . . . . . . . . . . . . . . . . . .
 72
65
 73
2
 40
0.2
 49
0.1
 74
0
 49
-0.1
 74
0
  0
LTYPE
  5
1F9
100
AcDbSymbolTableRecord
100
AcDbLinetypeTableRecord
  2
DASHED
 70
64
  3
- - - - - - - - - - - - - - - - - - - -
 72
65
 73
2
 40
0.2
 49
0.1
 74
0
 49
-0.1
 74
0
  0
ENDTAB
  0
TABLE
  2
LAYER
  5
2
100
AcDbSymbolTable
 70
36
  0
LAYER
  5
10
100
AcDbSymbolTableRecord
100
AcDbLayerTableRecord
  2
0
 70
0
 62
7
  6
CONTINUOUS
370
-3
390
F
  0
LAYER
  5
1FA
100
AcDbSymbolTableRecord
100
AcDbLayerTableRecord
  2
DEFAULT_1
 70
0
 62
7
  6
CENTER
370
-3
390
F
  0
LAYER
  5
1FB
100
AcDbSymbolTableRecord
100
AcDbLayerTableRecord
  2
DEFAULT_2
 70
0
 62
7
  6
HIDDEN
370
-3
390
F
  0
LAYER
  5
1FC
100
AcDbSymbolTableRecord
100
AcDbLayerTableRecord
  2
DEFAULT_3
 70
0
 62
7
  6
PHANTOM
370
-3
390
F
  0
LAYER
  5
1FD
100
AcDbSymbolTableRecord
100
AcDbLayerTableRecord
  2
ASSI
 70
0
 62
7
  6
CONTINUOUS
370
-3
390
F
  0
LAYER
  5
1FE
100
AcDbSymbolTableRecord
100
AcDbLayerTableRecord
  2
COLOR3
 70
0
 62
7
  6
CONTINUOUS
370
-3
390
F
  0
LAYER
  5
1FF
100
AcDbSymbolTableRecord
100
AcDbLayerTableRecord
  2
COORDINATE
 70
0
 62
7
  6
CONTINUOUS
370
-3
390
F
  0
LAYER
  5
200
100
AcDbSymbolTableRecord
100
AcDbLayerTableRecord
  2
COPY_PUBLISH
 70
0
 62
7
  6
CONTINUOUS
370
-3
390
F
  0
LAYER
  5
201
100
AcDbSymbolTableRecord
100
AcDbLayerTableRecord
  2
COSMETIC
 70
0
 62
7
  6
CONTINUOUS
370
-3
390
F
  0
LAYER
  5
202
100
AcDbSymbolTableRecord
100
AcDbLayerTableRecord
  2
COSMETICI
 70
0
 62
7
  6
CONTINUOUS
370
-3
390
F
  0
LAYER
  5
203
100
AcDbSymbolTableRecord
100
AcDbLayerTableRecord
  2
CURVE
 70
0
 62
7
  6
CONTINUOUS
370
-3
390
F
  0
LAYER
  5
204
100
AcDbSymbolTableRecord
100
AcDbLayerTableRecord
  2
DRAFT
 70
0
 62
7
  6
CONTINUOUS
370
-3
390
F
  0
LAYER
  5
205
100
AcDbSymbolTableRecord
100
AcDbLayerTableRecord
  2
IMPORT_IGES
 70
0
 62
7
  6
CONTINUOUS
370
-3
390
F
  0
LAYER
  5
206
100
AcDbSymbolTableRecord
100
AcDbLayerTableRecord
  2
INTFCLR_1
 70
0
 62
7
  6
CONTINUOUS
370
-3
390
F
  0
LAYER
  5
207
100
AcDbSymbolTableRecord
100
AcDbLayerTableRecord
  2
INTF_1
 70
0
 62
7
  6
CONTINUOUS
370
-3
390
F
  0
LAYER
  5
208
100
AcDbSymbolTableRecord
100
AcDbLayerTableRecord
  2
INTF_10
 70
0
 62
7
  6
CONTINUOUS
370
-3
390
F
  0
LAYER
  5
209
100
AcDbSymbolTableRecord
100
AcDbLayerTableRecord
  2
INTF_13
 70
0
 62
7
  6
CONTINUOUS
370
-3
390
F
  0
LAYER
  5
20A
100
AcDbSymbolTableRecord
100
AcDbLayerTableRecord
  2
INTF_15
 70
0
 62
7
  6
CONTINUOUS
370
-3
390
F
  0
LAYER
  5
20B
100
AcDbSymbolTableRecord
100
AcDbLayerTableRecord
  2
INTF_16
 70
0
 62
7
  6
CONTINUOUS
370
-3
390
F
  0
LAYER
  5
20C
100
AcDbSymbolTableRecord
100
AcDbLayerTableRecord
  2
INTF_18
 70
0
 62
7
  6
CONTINUOUS
370
-3
390
F
  0
LAYER
  5
20D
100
AcDbSymbolTableRecord
100
AcDbLayerTableRecord
  2
INTF_20
 70
0
 62
7
  6
CONTINUOUS
370
-3
390
F
  0
LAYER
  5
20E
100
AcDbSymbolTableRecord
100
AcDbLayerTableRecord
  2
INTF_3
 70
0
 62
7
  6
CONTINUOUS
370
-3
390
F
  0
LAYER
  5
20F
100
AcDbSymbolTableRecord
100
AcDbLayerTableRecord
  2
INTF_5
 70
0
 62
7
  6
CONTINUOUS
370
-3
390
F
  0
LAYER
  5
210
100
AcDbSymbolTableRecord
100
AcDbLayerTableRecord
  2
INTF_8
 70
0
 62
7
  6
CONTINUOUS
370
-3
390
F
  0
LAYER
  5
211
100
AcDbSymbolTableRecord
100
AcDbLayerTableRecord
  2
NOTE
 70
0
 62
7
  6
CONTINUOUS
370
-3
390
F
  0
LAYER
  5
212
100
AcDbSymbolTableRecord
100
AcDbLayerTableRecord
  2
PIANI
 70
0
 62
7
  6
CONTINUOUS
370
-3
390
F
  0
LAYER
  5
213
100
AcDbSymbolTableRecord
100
AcDbLayerTableRecord
  2
PUNTI
 70
0
 62
7
  6
CONTINUOUS
370
-3
390
F
  0
LAYER
  5
214
100
AcDbSymbolTableRecord
100
AcDbLayerTableRecord
  2
RACCORDO
 70
0
 62
7
  6
CONTINUOUS
370
-3
390
F
  0
LAYER
  5
215
100
AcDbSymbolTableRecord
100
AcDbLayerTableRecord
  2
SIMBOLI
 70
0
 62
7
  6
CONTINUOUS
370
-3
390
F
  0
LAYER
  5
216
100
AcDbSymbolTableRecord
100
AcDbLayerTableRecord
  2
SMUSSO
 70
0
 62
7
  6
CONTINUOUS
370
-3
390
F
  0
LAYER
  5
217
100
AcDbSymbolTableRecord
100
AcDbLayerTableRecord
  2
SNAPLINE
 70
0
 62
7
  6
CONTINUOUS
370
-3
390
F
  0
LAYER
  5
218
100
AcDbSymbolTableRecord
100
AcDbLayerTableRecord
  2
SOLIDO
 70
0
 62
7
  6
CONTINUOUS
370
-3
390
F
  0
LAYER
  5
219
100
AcDbSymbolTableRecord
100
AcDbLayerTableRecord
  2
SUPERFICI
 70
0
 62
7
  6
CONTINUOUS
370
-3
390
F
  0
LAYER
  5
21A
100
AcDbSymbolTableRecord
100
AcDbLayerTableRecord
  2
SUPERFICI_SKEL
 70
0
 62
7
  6
CONTINUOUS
370
-3
390
F
  0
LAYER
  5
21B
100
AcDbSymbolTableRecord
100
AcDbLayerTableRecord
  2
TRASH
 70
0
 62
7
  6
CONTINUOUS
370
-3
390
F
  0
LAYER
  5
21C
100
AcDbSymbolTableRecord
100
AcDbLayerTableRecord
  2
___SHELL
 70
0
 62
7
  6
CONTINUOUS
370
-3
390
F
  0
ENDTAB
  0
TABLE
  2
STYLE
  5
3
100
AcDbSymbolTable
 70
1
  0
STYLE
  5
11
100
AcDbSymbolTableRecord
100
AcDbTextStyleTableRecord
  2
STANDARD
 70
0
 40
0.0
 41
0.8
 50
0.0
 71
0
 42
0.2
  3
txt
  4

  0
STYLE
  5
21D
100
AcDbSymbolTableRecord
100
AcDbTextStyleTableRecord
  2
TEXTSTYLE_1
 70
0
 40
0.0
 41
0.8
 50
0.0
 71
0
 42
0.2
  3
gdt
  4

  0
ENDTAB
  0
TABLE
  2
VIEW
  5
6
100
AcDbSymbolTable
 70
0
  0
ENDTAB
  0
TABLE
  2
UCS
  5
7
100
AcDbSymbolTable
 70
0
  0
ENDTAB
  0
TABLE
  2
APPID
  5
9
100
AcDbSymbolTable
 70
1
  0
APPID
  5
21E
100
AcDbSymbolTableRecord
100
AcDbRegAppTableRecord
  2
ACAD
 70
0
  0
ENDTAB
  0
TABLE
  2
BLOCK_RECORD
  5
1
100
AcDbSymbolTable
 70
0
  0
BLOCK_RECORD
  5
21F
100
AcDbSymbolTableRecord
100
AcDbBlockTableRecord
  2
*Model_Space
  0
BLOCK_RECORD
  5
220
100
AcDbSymbolTableRecord
100
AcDbBlockTableRecord
  2
*Paper_Space
  0
ENDTAB
  0
TABLE
  2
DIMSTYLE
  5
A
100
AcDbSymbolTable
 70
1
100
AcDbDimStyleTable
 71
0
  0
DIMSTYLE
105
221
100
AcDbSymbolTableRecord
100
AcDbDimStyleTableRecord
  2
STANDARD
 70
0
  3

  4

 40
1.0
 41
3.0
 42
0.0625
 43
0.38
 44
0.18
 45
0.0
 46
0.0
 47
0.01
 48
0.01
140
3.0
141
0.09
142
0.0
143
25.4
144
1.0
145
0.0
146
1.0
147
0.09
 71
1.0
 72
0.0
 73
0
 74
0
 75
0
 76
0
 77
1
 78
8
170
0
171
2
172
0
173
0
174
0
175
0
176
0
177
0
178
0
270
2
271
2
272
2
273
2
274
2
275
0
280
0
281
0
282
0
283
1
284
8
285
0
286
0
287
3
288
0
340
11
  0
ENDTAB
  0
ENDSEC
  0
SECTION
  2
BLOCKS
  0
BLOCK
  5
20
100
AcDbEntity
  8
0
100
AcDbBlockBegin
  2
*Model_Space
 70
0
 10
0.0
 20
0.0
 30
0.0
  3
*Model_Space
  1

  0
ENDBLK
  5
21
100
AcDbEntity
  8
0
100
AcDbBlockEnd
  0
BLOCK
  5
1C
100
AcDbEntity
  8
0
100
AcDbBlockBegin
  2
*Paper_Space
 70
0
 10
0.0
 20
0.0
 30
0.0
  3
*Paper_Space
  1

  0
ENDBLK
  5
1D
100
AcDbEntity
  8
0
100
AcDbBlockEnd
  0
ENDSEC
  0
SECTION
  2
ENTITIES
  0
LWPOLYLINE
  5
222
100
AcDbEntity
  8
0
100
AcDbPolyline
 62
7
  6
CONTINUOUS
 90
18
 70
0
 10
127.3275214679
 20
130.8348013721
 10
127.2705945747
 20
130.7763527471
 10
127.2173864207
 20
130.7145343186
 10
127.1677497775
 20
130.6498653714
 10
127.1213665655
 20
130.5825497596
 10
127.0779977405
 20
130.5126764394
 10
127.0376368889
 20
130.4405908884
 10
127.0002660733
 20
130.3665377108
 10
126.965871411
 20
130.2906485451
 10
126.9345309046
 20
130.2132091576
 10
126.9063519319
 20
130.1344777847
 10
126.8814191031
 20
130.0545969899
 10
126.8598792268
 20
129.9737923995
 10
126.8419368798
 20
129.8923463212
 10
126.827766155
 20
129.810308912
 10
126.817630983
 20
129.7277303773
 10
126.8118737592
 20
129.6448975315
 10
126.8112048633
 20
129.6257435766
  0
LWPOLYLINE
  5
223
100
AcDbEntity
  8
ASSI
100
AcDbPolyline
 62
7
  6
CONTINUOUS
 90
18
 70
0
 10
127.3275214679
 20
130.8348013721
 10
127.2705945747
 20
130.7763527471
 10
127.2173864207
 20
130.7145343186
 10
127.1677497775
 20
130.6498653714
 10
127.1213665655
 20
130.5825497596
 10
127.0779977405
 20
130.5126764394
 10
127.0376368889
 20
130.4405908884
 10
127.0002660733
 20
130.3665377108
 10
126.965871411
 20
130.2906485451
 10
126.9345309046
 20
130.2132091576
 10
126.9063519319
 20
130.1344777847
 10
126.8814191031
 20
130.0545969899
 10
126.8598792268
 20
129.9737923995
 10
126.8419368798
 20
129.8923463212
 10
126.827766155
 20
129.810308912
 10
126.817630983
 20
129.7277303773
 10
126.8118737592
 20
129.6448975315
 10
126.8112048633
 20
129.6257435766
  0
LINE
  5
224
100
AcDbEntity
  8
0
100
AcDbLine
 62
7
  6
CONTINUOUS
 10
128.7387579479
 20
132.1675539435
 11
127.3275214679
 21
130.8348013721
  0
LINE
  5
225
100
AcDbEntity
  8
ASSI
100
AcDbLine
 62
7
  6
CONTINUOUS
 10
128.7387579479
 20
132.1675539435
 11
127.3275214679
 21
130.8348013721
  0
LINE
  5
226
100
AcDbEntity
  8
0
100
AcDbLine
 62
253
  6
CONTINUOUS
 10
129.0573842411
 20
132.1916296514
 11
127.6634321457
 21
130.8752742389
  0
LINE
  5
227
100
AcDbEntity
  8
ASSI
100
AcDbLine
 62
253
  6
CONTINUOUS
 10
129.0573842411
 20
132.1916296514
 11
127.6634321457
 21
130.8752742389
  0
LINE
  5
228
100
AcDbEntity
  8
0
100
AcDbLine
 62
7
  6
CONTINUOUS
 10
127.3355966352
 20
130.842500749
 11
127.3351510479
 21
130.8420811775
  0
LINE
  5
229
100
AcDbEntity
  8
ASSI
100
AcDbLine
 62
7
  6
CONTINUOUS
 10
127.3355966352
 20
130.842500749
 11
127.3351510479
 21
130.8420811775
  0
LWPOLYLINE
  5
22A
100
AcDbEntity
  8
0
100
AcDbPolyline
 62
253
  6
CONTINUOUS
 90
22
 70
0
 10
127.6634321456
 20
130.8752742389
 10
127.6142717919
 20
130.8300042269
 10
127.5655045884
 20
130.7802733803
 10
127.5173889906
 20
130.7263217723
 10
127.470197764
 20
130.6684047043
 10
127.4241624594
 20
130.6068083573
 10
127.3794725603
 20
130.541847175
 10
127.3363608858
 20
130.4738321134
 10
127.2950593872
 20
130.4030953417
 10
127.2557435458
 20
130.3300052715
 10
127.2186189985
 20
130.2549199603
 10
127.1838831118
 20
130.1782017751
 10
127.1516810422
 20
130.1002409978
 10
127.1221793559
 20
130.021418006
 10
127.0955361884
 20
129.9421161663
 10
127.0718624426
 20
129.8627369261
 10
127.0512804358
 20
129.7836750027
 10
127.0338991626
 20
129.7053088957
 10
127.0197870848
 20
129.6280143162
 10
127.0090127894
 20
129.5521676626
 10
127.0016421767
 20
129.4781435972
 10
126.9977155512
 20
129.4063060475
  0
LWPOLYLINE
  5
22B
100
AcDbEntity
  8
ASSI
100
AcDbPolyline
 62
253
  6
CONTINUOUS
 90
22
 70
0
 10
127.6634321456
 20
130.8752742389
 10
127.6142717919
 20
130.8300042269
 10
127.5655045884
 20
130.7802733803
 10
127.5173889906
 20
130.7263217723
 10
127.470197764
 20
130.6684047043
 10
127.4241624594
 20
130.6068083573
 10
127.3794725603
 20
130.541847175
 10
127.3363608858
 20
130.4738321134
 10
127.2950593872
 20
130.4030953417
 10
127.2557435458
 20
130.3300052715
 10
127.2186189985
 20
130.2549199603
 10
127.1838831118
 20
130.1782017751
 10
127.1516810422
 20
130.1002409978
 10
127.1221793559
 20
130.021418006
 10
127.0955361884
 20
129.9421161663
 10
127.0718624426
 20
129.8627369261
 10
127.0512804358
 20
129.7836750027
 10
127.0338991626
 20
129.7053088957
 10
127.0197870848
 20
129.6280143162
 10
127.0090127894
 20
129.5521676626
 10
127.0016421767
 20
129.4781435972
 10
126.9977155512
 20
129.4063060475
  0
LINE
  5
22C
100
AcDbEntity
  8
0
100
AcDbLine
 62
7
  6
CONTINUOUS
 10
134.8631293829
 20
129.859911515
 11
134.2272244659
 21
129.6637444309
  0
LINE
  5
22D
100
AcDbEntity
  8
ASSI
100
AcDbLine
 62
7
  6
CONTINUOUS
 10
134.8631293829
 20
129.859911515
 11
134.2272244659
 21
129.6637444309
  0
LWPOLYLINE
  5
22E
100
AcDbEntity
  8
0
100
AcDbPolyline
 62
253
  6
CONTINUOUS
 90
10
 70
0
 10
126.5633567328
 20
112.9186491399
 10
126.5656803085
 20
112.8909127027
 10
126.5727121565
 20
112.8633563319
 10
126.5843858422
 20
112.8363182262
 10
126.6005909098
 20
112.810054196
 10
126.6211740465
 20
112.7848127032
 10
126.6459405281
 20
112.7608325371
 10
126.6746560513
 20
112.7383405632
 10
126.7070489442
 20
112.7175495746
 10
126.7428127481
 20
112.6986562682
  0
LWPOLYLINE
  5
22F
100
AcDbEntity
  8
ASSI
100
AcDbPolyline
 62
253
  6
CONTINUOUS
 90
10
 70
0
 10
126.5633567328
 20
112.9186491399
 10
126.5656803085
 20
112.8909127027
 10
126.5727121565
 20
112.8633563319
 10
126.5843858422
 20
112.8363182262
 10
126.6005909098
 20
112.810054196
 10
126.6211740465
 20
112.7848127032
 10
126.6459405281
 20
112.7608325371
 10
126.6746560513
 20
112.7383405632
 10
126.7070489442
 20
112.7175495746
 10
126.7428127481
 20
112.6986562682
  0
LWPOLYLINE
  5
230
100
AcDbEntity
  8
0
100
AcDbPolyline
 62
253
  6
CONTINUOUS
 90
12
 70
0
 10
126.9977156581
 20
95.2030198218
 10
127.001642294
 20
95.1372256434
 10
127.0090129145
 20
95.0747209208
 10
127.0197872147
 20
95.0158144597
 10
127.0338992929
 20
94.9608044885
 10
127.0512805629
 20
94.9099563744
 10
127.0718625659
 20
94.8635042434
 10
127.0955363087
 20
94.8216808004
 10
127.1221794729
 20
94.7847002844
 10
127.1516811555
 20
94.7527384089
 10
127.1838832207
 20
94.7259609893
 10
127.2179880374
 20
94.7048956431
  0
LWPOLYLINE
  5
231
100
AcDbEntity
  8
ASSI
100
AcDbPolyline
 62
253
  6
CONTINUOUS
 90
12
 70
0
 10
126.9977156581
 20
95.2030198218
 10
127.001642294
 20
95.1372256434
 10
127.0090129145
 20
95.0747209208
 10
127.0197872147
 20
95.0158144597
 10
127.0338992929
 20
94.9608044885
 10
127.0512805629
 20
94.9099563744
 10
127.0718625659
 20
94.8635042434
 10
127.0955363087
 20
94.8216808004
 10
127.1221794729
 20
94.7847002844
 10
127.1516811555
 20
94.7527384089
 10
127.1838832207
 20
94.7259609893
 10
127.2179880374
 20
94.7048956431
  0
LWPOLYLINE
  5
232
100
AcDbEntity
  8
0
100
AcDbPolyline
 62
7
  6
CONTINUOUS
 90
14
 70
0
 10
126.8112410715
 20
95.4286791958
 10
126.8122564024
 20
95.4033148462
 10
126.820125427
 20
95.3136981302
 10
126.834254337
 20
95.22966927
 10
126.8543320164
 20
95.1511056025
 10
126.8801384562
 20
95.0777042506
 10
126.9114988781
 20
95.0093555985
 10
126.948087205
 20
94.9462742111
 10
126.9896194552
 20
94.8885379974
 10
127.0358176057
 20
94.836266299
 10
127.0861347501
 20
94.7898374438
 10
127.1400688938
 20
94.7494393363
 10
127.1972773856
 20
94.7151286397
 10
127.2318504805
 20
94.6980463014
  0
LWPOLYLINE
  5
233
100
AcDbEntity
  8
ASSI
100
AcDbPolyline
 62
7
  6
CONTINUOUS
 90
14
 70
0
 10
126.8112410715
 20
95.4286791958
 10
126.8122564024
 20
95.4033148462
 10
126.820125427
 20
95.3136981302
 10
126.834254337
 20
95.22966927
 10
126.8543320164
 20
95.1511056025
 10
126.8801384562
 20
95.0777042506
 10
126.9114988781
 20
95.0093555985
 10
126.948087205
 20
94.9462742111
 10
126.9896194552
 20
94.8885379974
 10
127.0358176057
 20
94.836266299
 10
127.0861347501
 20
94.7898374438
 10
127.1400688938
 20
94.7494393363
 10
127.1972773856
 20
94.7151286397
 10
127.2318504805
 20
94.6980463014
  0
LWPOLYLINE
  5
234
100
AcDbEntity
  8
0
100
AcDbPolyline
 62
253
  6
CONTINUOUS
 90
9
 70
0
 10
126.7428127481
 20
112.6986562682
 10
126.7442128616
 20
112.6566255112
 10
126.7495236756
 20
112.6181465963
 10
126.7582974182
 20
112.5831503212
 10
126.7700718278
 20
112.5516360683
 10
126.7850088618
 20
112.5238168275
 10
126.8033732697
 20
112.5001384716
 10
126.8243540272
 20
112.4811748262
 10
126.8474130543
 20
112.4671719414
  0
LWPOLYLINE
  5
235
100
AcDbEntity
  8
ASSI
100
AcDbPolyline
 62
253
  6
CONTINUOUS
 90
9
 70
0
 10
126.7428127481
 20
112.6986562682
 10
126.7442128616
 20
112.6566255112
 10
126.7495236756
 20
112.6181465963
 10
126.7582974182
 20
112.5831503212
 10
126.7700718278
 20
112.5516360683
 10
126.7850088618
 20
112.5238168275
 10
126.8033732697
 20
112.5001384716
 10
126.8243540272
 20
112.4811748262
 10
126.8474130543
 20
112.4671719414
  0
LWPOLYLINE
  5
236
100
AcDbEntity
  8
0
100
AcDbPolyline
 62
7
  6
CONTINUOUS
 90
10
 70
0
 10
126.5633567708
 20
111.707799315
 10
126.5678779545
 20
109.930836539
 10
126.5782527775
 20
108.0928804839
 10
126.5944176055
 20
106.2599431687
 10
126.6163725631
 20
104.4320636589
 10
126.6441175832
 20
102.609278786
 10
126.6776526009
 20
100.7916243846
 10
126.716977007
 20
98.9791416078
 10
126.762089692
 20
97.1718764341
 10
126.8112292503
 20
95.4288621996
  0
LWPOLYLINE
  5
237
100
AcDbEntity
  8
ASSI
100
AcDbPolyline
 62
7
  6
CONTINUOUS
 90
10
 70
0
 10
126.5633567708
 20
111.707799315
 10
126.5678779545
 20
109.930836539
 10
126.5782527775
 20
108.0928804839
 10
126.5944176055
 20
106.2599431687
 10
126.6163725631
 20
104.4320636589
 10
126.6441175832
 20
102.609278786
 10
126.6776526009
 20
100.7916243846
 10
126.716977007
 20
98.9791416078
 10
126.762089692
 20
97.1718764341
 10
126.8112292503
 20
95.4288621996
  0
LWPOLYLINE
  5
238
100
AcDbEntity
  8
0
100
AcDbPolyline
 62
253
  6
CONTINUOUS
 90
10
 70
0
 10
126.7428127994
 20
111.4875924354
 10
126.7470997417
 20
109.7991265955
 10
126.7565543808
 20
108.0895836907
 10
126.7714068819
 20
106.359187078
 10
126.791720135
 20
104.6212846588
 10
126.8178181616
 20
102.862921509
 10
126.8507030182
 20
101.0451941614
 10
126.8913089127
 20
99.1556774576
 10
126.9400852728
 20
97.2080711244
 10
126.997715579
 20
95.2030197905
  0
LWPOLYLINE
  5
239
100
AcDbEntity
  8
ASSI
100
AcDbPolyline
 62
253
  6
CONTINUOUS
 90
10
 70
0
 10
126.7428127994
 20
111.4875924354
 10
126.7470997417
 20
109.7991265955
 10
126.7565543808
 20
108.0895836907
 10
126.7714068819
 20
106.359187078
 10
126.791720135
 20
104.6212846588
 10
126.8178181616
 20
102.862921509
 10
126.8507030182
 20
101.0451941614
 10
126.8913089127
 20
99.1556774576
 10
126.9400852728
 20
97.2080711244
 10
126.997715579
 20
95.2030197905
  0
LWPOLYLINE
  5
23A
100
AcDbEntity
  8
0
100
AcDbPolyline
 62
7
  6
CONTINUOUS
 90
10
 70
0
 10
126.8112080319
 20
129.6260756283
 10
126.7622161355
 20
127.8036890865
 10
126.7170911152
 20
125.9184221447
 10
126.677753356
 20
124.0379462425
 10
126.6442040552
 20
122.1623074363
 10
126.6164437854
 20
120.2915456504
 10
126.5944729021
 20
118.4256984663
 10
126.5782916851
 20
116.5648039949
 10
126.5679000073
 20
114.7089018799
 10
126.5633567328
 20
112.9186491399
  0
LWPOLYLINE
  5
23B
100
AcDbEntity
  8
ASSI
100
AcDbPolyline
 62
7
  6
CONTINUOUS
 90
10
 70
0
 10
126.8112080319
 20
129.6260756283
 10
126.7622161355
 20
127.8036890865
 10
126.7170911152
 20
125.9184221447
 10
126.677753356
 20
124.0379462425
 10
126.6442040552
 20
122.1623074363
 10
126.6164437854
 20
120.2915456504
 10
126.5944729021
 20
118.4256984663
 10
126.5782916851
 20
116.5648039949
 10
126.5679000073
 20
114.7089018799
 10
126.5633567328
 20
112.9186491399
  0
LWPOLYLINE
  5
23C
100
AcDbEntity
  8
0
100
AcDbPolyline
 62
253
  6
CONTINUOUS
 90
10
 70
0
 10
126.9977155547
 20
129.4063060466
 10
126.9442070664
 20
127.4649414412
 10
126.8977273549
 20
125.5608010755
 10
126.8579643602
 20
123.6936867268
 10
126.8249619411
 20
121.884352945
 10
126.7979396681
 20
120.1115477253
 10
126.7759329717
 20
118.3125166357
 10
126.7590698413
 20
116.4667225989
 10
126.7479306804
 20
114.5953421648
 10
126.7428128011
 20
112.6986562347
  0
LWPOLYLINE
  5
23D
100
AcDbEntity
  8
ASSI
100
AcDbPolyline
 62
253
  6
CONTINUOUS
 90
10
 70
0
 10
126.9977155547
 20
129.4063060466
 10
126.9442070664
 20
127.4649414412
 10
126.8977273549
 20
125.5608010755
 10
126.8579643602
 20
123.6936867268
 10
126.8249619411
 20
121.884352945
 10
126.7979396681
 20
120.1115477253
 10
126.7759329717
 20
118.3125166357
 10
126.7590698413
 20
116.4667225989
 10
126.7479306804
 20
114.5953421648
 10
126.7428128011
 20
112.6986562347
  0
LWPOLYLINE
  5
23E
100
AcDbEntity
  8
0
100
AcDbPolyline
 62
253
  6
CONTINUOUS
 90
16
 70
0
 10
126.7428127852
 20
111.4875924902
 10
126.7442129196
 20
111.5323713699
 10
126.7495241215
 20
111.5778538584
 10
126.7582984873
 20
111.6241641844
 10
126.7700735762
 20
111.6718297514
 10
126.7850113106
 20
111.7205382893
 10
126.8033764819
 20
111.7688971627
 10
126.8243578832
 20
111.8163508617
 10
126.8476250193
 20
111.8629253971
 10
126.8736722805
 20
111.9077504745
 10
126.9017434427
 20
111.9502922816
 10
126.9311318564
 20
111.9903290708
 10
126.9623657619
 20
112.0272559277
 10
126.9951297395
 20
112.0606057183
 10
127.0282184556
 20
112.0901922993
 10
127.0608538391
 20
112.1158238949
  0
LWPOLYLINE
  5
23F
100
AcDbEntity
  8
ASSI
100
AcDbPolyline
 62
253
  6
CONTINUOUS
 90
16
 70
0
 10
126.7428127852
 20
111.4875924902
 10
126.7442129196
 20
111.5323713699
 10
126.7495241215
 20
111.5778538584
 10
126.7582984873
 20
111.6241641844
 10
126.7700735762
 20
111.6718297514
 10
126.7850113106
 20
111.7205382893
 10
126.8033764819
 20
111.7688971627
 10
126.8243578832
 20
111.8163508617
 10
126.8476250193
 20
111.8629253971
 10
126.8736722805
 20
111.9077504745
 10
126.9017434427
 20
111.9502922816
 10
126.9311318564
 20
111.9903290708
 10
126.9623657619
 20
112.0272559277
 10
126.9951297395
 20
112.0606057183
 10
127.0282184556
 20
112.0901922993
 10
127.0608538391
 20
112.1158238949
  0
LINE
  5
240
100
AcDbEntity
  8
0
100
AcDbLine
 62
7
  6
CONTINUOUS
 10
144.0376322789
 20
126.1752243176
 11
143.4017273619
 21
125.9790572335
  0
LINE
  5
241
100
AcDbEntity
  8
ASSI
100
AcDbLine
 62
7
  6
CONTINUOUS
 10
144.0376322789
 20
126.1752243176
 11
143.4017273619
 21
125.9790572335
  0
LWPOLYLINE
  5
242
100
AcDbEntity
  8
0
100
AcDbPolyline
 62
253
  6
CONTINUOUS
 90
16
 70
0
 10
162.5143035984
 20
80.9387573348
 10
162.5576335086
 20
80.9255941855
 10
162.6030495402
 20
80.9151064224
 10
162.6501113132
 20
80.9073957409
 10
162.6983624897
 20
80.9025369082
 10
162.7473351986
 20
80.9005770383
 10
162.7965545725
 20
80.9015351352
 10
162.8455433519
 20
80.9054019087
 10
162.8938265136
 20
80.9121398643
 10
162.9409358764
 20
80.921683667
 10
162.9864146408
 20
80.9339407746
 10
163.0298218187
 20
80.9487923351
 10
163.0707365091
 20
80.9660943393
 10
163.1087619797
 20
80.985679017
 10
163.1435295137
 20
81.007356464
 10
163.1747019852
 20
81.0309164832
  0
LWPOLYLINE
  5
243
100
AcDbEntity
  8
ASSI
100
AcDbPolyline
 62
253
  6
CONTINUOUS
 90
16
 70
0
 10
162.5143035984
 20
80.9387573348
 10
162.5576335086
 20
80.9255941855
 10
162.6030495402
 20
80.9151064224
 10
162.6501113132
 20
80.9073957409
 10
162.6983624897
 20
80.9025369082
 10
162.7473351986
 20
80.9005770383
 10
162.7965545725
 20
80.9015351352
 10
162.8455433519
 20
80.9054019087
 10
162.8938265136
 20
80.9121398643
 10
162.9409358764
 20
80.921683667
 10
162.9864146408
 20
80.9339407746
 10
163.0298218187
 20
80.9487923351
 10
163.0707365091
 20
80.9660943393
 10
163.1087619797
 20
80.985679017
 10
163.1435295137
 20
81.007356464
 10
163.1747019852
 20
81.0309164832
  0
LWPOLYLINE
  5
244
100
AcDbEntity
  8
0
100
AcDbPolyline
 62
7
  6
CONTINUOUS
 90
14
 70
0
 10
162.7598170102
 20
80.4291591162
 10
162.7655343008
 20
80.4271832545
 10
162.818598529
 20
80.4115341045
 10
162.8731483823
 20
80.4002434811
 10
162.9289470593
 20
80.3934210981
 10
162.9859751932
 20
80.3911701151
 10
163.0440004753
 20
80.3936404039
 10
163.1026215246
 20
80.4009475811
 10
163.1616585059
 20
80.4131867779
 10
163.2208801268
 20
80.4304328396
 10
163.2800456958
 20
80.4527419634
 10
163.3391287104
 20
80.4802580129
 10
163.3980711362
 20
80.5131350753
 10
163.4561010617
 20
80.5510456476
  0
LWPOLYLINE
  5
245
100
AcDbEntity
  8
ASSI
100
AcDbPolyline
 62
7
  6
CONTINUOUS
 90
14
 70
0
 10
162.7598170102
 20
80.4291591162
 10
162.7655343008
 20
80.4271832545
 10
162.818598529
 20
80.4115341045
 10
162.8731483823
 20
80.4002434811
 10
162.9289470593
 20
80.3934210981
 10
162.9859751932
 20
80.3911701151
 10
163.0440004753
 20
80.3936404039
 10
163.1026215246
 20
80.4009475811
 10
163.1616585059
 20
80.4131867779
 10
163.2208801268
 20
80.4304328396
 10
163.2800456958
 20
80.4527419634
 10
163.3391287104
 20
80.4802580129
 10
163.3980711362
 20
80.5131350753
 10
163.4561010617
 20
80.5510456476
  0
LINE
  5
246
100
AcDbEntity
  8
0
100
AcDbLine
 62
7
  6
CONTINUOUS
 10
131.1830206633
 20
130.8751913904
 11
131.1836895758
 21
130.8860966576
  0
LINE
  5
247
100
AcDbEntity
  8
ASSI
100
AcDbLine
 62
7
  6
CONTINUOUS
 10
131.1830206633
 20
130.8751913904
 11
131.1836895758
 21
130.8860966576
  0
LINE
  5
248
100
AcDbEntity
  8
0
100
AcDbLine
 62
7
  6
CONTINUOUS
 10
131.2448418313
 20
131.3130973681
 11
131.1836895758
 21
130.8860966576
  0
LINE
  5
249
100
AcDbEntity
  8
ASSI
100
AcDbLine
 62
7
  6
CONTINUOUS
 10
131.2448418313
 20
131.3130973681
 11
131.1836895758
 21
130.8860966576
  0
LWPOLYLINE
  5
24A
100
AcDbEntity
  8
0
100
AcDbPolyline
 62
7
  6
CONTINUOUS
 90
12
 70
0
 10
126.7331570821
 20
112.0837710409
 10
126.720702909
 20
112.0724405835
 10
126.6921991918
 20
112.0433392756
 10
126.6662017249
 20
112.0120701424
 10
126.6428114569
 20
111.978761046
 10
126.6221879724
 20
111.9436225317
 10
126.6045070089
 20
111.9069517342
 10
126.5898614912
 20
111.868944998
 10
126.5783241327
 20
111.8297367456
 10
126.5700048059
 20
111.7895787927
 10
126.5650005865
 20
111.7488263272
 10
126.5633567709
 20
111.7077993101
  0
LWPOLYLINE
  5
24B
100
AcDbEntity
  8
ASSI
100
AcDbPolyline
 62
7
  6
CONTINUOUS
 90
12
 70
0
 10
126.7331570821
 20
112.0837710409
 10
126.720702909
 20
112.0724405835
 10
126.6921991918
 20
112.0433392756
 10
126.6662017249
 20
112.0120701424
 10
126.6428114569
 20
111.978761046
 10
126.6221879724
 20
111.9436225317
 10
126.6045070089
 20
111.9069517342
 10
126.5898614912
 20
111.868944998
 10
126.5783241327
 20
111.8297367456
 10
126.5700048059
 20
111.7895787927
 10
126.5650005865
 20
111.7488263272
 10
126.5633567709
 20
111.7077993101
  0
LINE
  5
24C
100
AcDbEntity
  8
0
100
AcDbLine
 62
7
  6
CONTINUOUS
 10
126.7331426683
 20
112.0837583646
 11
127.0564226836
 21
112.3680918427
  0
LINE
  5
24D
100
AcDbEntity
  8
ASSI
100
AcDbLine
 62
7
  6
CONTINUOUS
 10
126.7331426683
 20
112.0837583646
 11
127.0564226836
 21
112.3680918427
  0
LINE
  5
24E
100
AcDbEntity
  8
0
100
AcDbLine
 62
253
  6
CONTINUOUS
 10
127.0608538187
 20
112.1158238773
 11
127.245674485
 21
112.2783786299
  0
LINE
  5
24F
100
AcDbEntity
  8
ASSI
100
AcDbLine
 62
253
  6
CONTINUOUS
 10
127.0608538187
 20
112.1158238773
 11
127.245674485
 21
112.2783786299
  0
LWPOLYLINE
  5
250
100
AcDbEntity
  8
0
100
AcDbPolyline
 62
253
  6
CONTINUOUS
 90
12
 70
0
 10
126.7331570821
 20
112.0837710409
 10
126.7418389557
 20
112.0910346789
 10
126.7662700411
 20
112.1080302668
 10
126.7929430278
 20
112.1219528789
 10
126.8216694878
 20
112.1327137868
 10
126.8522521332
 20
112.140239017
 10
126.8844735689
 20
112.1444683972
 10
126.9180763839
 20
112.1453617909
 10
126.9527866097
 20
112.1429106026
 10
126.9883320717
 20
112.1371361617
 10
127.0244465731
 20
112.1280837709
 10
127.0608538388
 20
112.115823895
  0
LWPOLYLINE
  5
251
100
AcDbEntity
  8
ASSI
100
AcDbPolyline
 62
253
  6
CONTINUOUS
 90
12
 70
0
 10
126.7331570821
 20
112.0837710409
 10
126.7418389557
 20
112.0910346789
 10
126.7662700411
 20
112.1080302668
 10
126.7929430278
 20
112.1219528789
 10
126.8216694878
 20
112.1327137868
 10
126.8522521332
 20
112.140239017
 10
126.8844735689
 20
112.1444683972
 10
126.9180763839
 20
112.1453617909
 10
126.9527866097
 20
112.1429106026
 10
126.9883320717
 20
112.1371361617
 10
127.0244465731
 20
112.1280837709
 10
127.0608538388
 20
112.115823895
  0
LWPOLYLINE
  5
252
100
AcDbEntity
  8
0
100
AcDbPolyline
 62
7
  6
CONTINUOUS
 90
10
 70
0
 10
154.0105521668
 20
83.711750405
 10
154.9210520715
 20
83.3489068532
 10
155.9012068985
 20
82.9639735871
 10
156.8848712923
 20
82.583500285
 10
157.8719759274
 20
82.2075053145
 10
158.8624579422
 20
81.8360035727
 10
159.8562567009
 20
81.4690087705
 10
160.8533103434
 20
81.1065346723
 10
161.853553243
 20
80.748595459
 10
162.7602260224
 20
80.4290156477
  0
LWPOLYLINE
  5
253
100
AcDbEntity
  8
ASSI
100
AcDbPolyline
 62
7
  6
CONTINUOUS
 90
10
 70
0
 10
154.0105521668
 20
83.711750405
 10
154.9210520715
 20
83.3489068532
 10
155.9012068985
 20
82.9639735871
 10
156.8848712923
 20
82.583500285
 10
157.8719759274
 20
82.2075053145
 10
158.8624579422
 20
81.8360035727
 10
159.8562567009
 20
81.4690087705
 10
160.8533103434
 20
81.1065346723
 10
161.853553243
 20
80.748595459
 10
162.7602260224
 20
80.4290156477
  0
LWPOLYLINE
  5
254
100
AcDbEntity
  8
0
100
AcDbPolyline
 62
253
  6
CONTINUOUS
 90
13
 70
0
 10
153.7705034049
 20
84.2109346401
 10
154.5164129063
 20
83.9135201312
 10
155.2535254554
 20
83.6230582055
 10
155.9816885919
 20
83.3394493165
 10
156.6971987118
 20
83.0639464176
 10
157.4034395947
 20
82.7950766015
 10
158.1110103572
 20
82.5287516755
 10
158.8194933472
 20
82.265123941
 10
159.5292515904
 20
82.004040995
 10
160.2522956584
 20
81.7411683983
 10
160.9927513141
 20
81.4751888363
 10
161.7467204844
 20
81.207678187
 10
162.5143035973
 20
80.9387573436
  0
LWPOLYLINE
  5
255
100
AcDbEntity
  8
ASSI
100
AcDbPolyline
 62
253
  6
CONTINUOUS
 90
13
 70
0
 10
153.7705034049
 20
84.2109346401
 10
154.5164129063
 20
83.9135201312
 10
155.2535254554
 20
83.6230582055
 10
155.9816885919
 20
83.3394493165
 10
156.6971987118
 20
83.0639464176
 10
157.4034395947
 20
82.7950766015
 10
158.1110103572
 20
82.5287516755
 10
158.8194933472
 20
82.265123941
 10
159.5292515904
 20
82.004040995
 10
160.2522956584
 20
81.7411683983
 10
160.9927513141
 20
81.4751888363
 10
161.7467204844
 20
81.207678187
 10
162.5143035973
 20
80.9387573436
  0
LINE
  5
256
100
AcDbEntity
  8
0
100
AcDbLine
 62
253
  6
CONTINUOUS
 10
135.3395824084
 20
91.6132080277
 11
153.7705034049
 21
84.2109346401
  0
LINE
  5
257
100
AcDbEntity
  8
ASSI
100
AcDbLine
 62
253
  6
CONTINUOUS
 10
135.3395824084
 20
91.6132080277
 11
153.7705034049
 21
84.2109346401
  0
LINE
  5
258
100
AcDbEntity
  8
0
100
AcDbLine
 62
7
  6
CONTINUOUS
 10
135.5797870623
 20
91.113960536
 11
154.010554065
 21
83.7117490459
  0
LINE
  5
259
100
AcDbEntity
  8
ASSI
100
AcDbLine
 62
7
  6
CONTINUOUS
 10
135.5797870623
 20
91.113960536
 11
154.010554065
 21
83.7117490459
  0
LWPOLYLINE
  5
25A
100
AcDbEntity
  8
0
100
AcDbPolyline
 62
253
  6
CONTINUOUS
 90
13
 70
0
 10
162.7598116837
 20
80.4291610411
 10
162.7255352643
 20
80.4441277894
 10
162.6921467969
 20
80.4650417706
 10
162.6612336028
 20
80.4913015507
 10
162.6329373961
 20
80.5227792803
 10
162.6073822987
 20
80.5593228045
 10
162.5847152901
 20
80.600741921
 10
162.5650423753
 20
80.6468289432
 10
162.5484457033
 20
80.6973619469
 10
162.5350178362
 20
80.7520971242
 10
162.5248262657
 20
80.8107695459
 10
162.5179110645
 20
80.8730913575
 10
162.5143036003
 20
80.9387573422
  0
LWPOLYLINE
  5
25B
100
AcDbEntity
  8
ASSI
100
AcDbPolyline
 62
253
  6
CONTINUOUS
 90
13
 70
0
 10
162.7598116837
 20
80.4291610411
 10
162.7255352643
 20
80.4441277894
 10
162.6921467969
 20
80.4650417706
 10
162.6612336028
 20
80.4913015507
 10
162.6329373961
 20
80.5227792803
 10
162.6073822987
 20
80.5593228045
 10
162.5847152901
 20
80.600741921
 10
162.5650423753
 20
80.6468289432
 10
162.5484457033
 20
80.6973619469
 10
162.5350178362
 20
80.7520971242
 10
162.5248262657
 20
80.8107695459
 10
162.5179110645
 20
80.8730913575
 10
162.5143036003
 20
80.9387573422
  0
LWPOLYLINE
  5
25C
100
AcDbEntity
  8
0
100
AcDbPolyline
 62
7
  6
CONTINUOUS
 90
10
 70
0
 10
127.2313287367
 20
94.6982817366
 10
128.0541053903
 20
94.3235945935
 10
128.9787460852
 20
93.9083841432
 10
129.9102315782
 20
93.4962511284
 10
130.8485171382
 20
93.0872238144
 10
131.7935606718
 20
92.6813285086
 10
132.7453211163
 20
92.2785909632
 10
133.7037502223
 20
91.8790392192
 10
134.6687913915
 20
91.4827038793
 10
135.579790335
 20
91.1139598696
  0
LWPOLYLINE
  5
25D
100
AcDbEntity
  8
ASSI
100
AcDbPolyline
 62
7
  6
CONTINUOUS
 90
10
 70
0
 10
127.2313287367
 20
94.6982817366
 10
128.0541053903
 20
94.3235945935
 10
128.9787460852
 20
93.9083841432
 10
129.9102315782
 20
93.4962511284
 10
130.8485171382
 20
93.0872238144
 10
131.7935606718
 20
92.6813285086
 10
132.7453211163
 20
92.2785909632
 10
133.7037502223
 20
91.8790392192
 10
134.6687913915
 20
91.4827038793
 10
135.579790335
 20
91.1139598696
  0
LWPOLYLINE
  5
25E
100
AcDbEntity
  8
0
100
AcDbPolyline
 62
253
  6
CONTINUOUS
 90
10
 70
0
 10
126.997715579
 20
95.2030197905
 10
127.8323518256
 20
94.8214307487
 10
128.6850705071
 20
94.4369775944
 10
129.556042605
 20
94.0498300881
 10
130.4394912554
 20
93.6627754581
 10
131.3414652502
 20
93.2733252786
 10
132.280163544
 20
92.8739643385
 10
133.2620930335
 20
92.4625711873
 10
134.2817426829
 20
92.042169404
 10
135.3395824084
 20
91.6132080277
  0
LWPOLYLINE
  5
25F
100
AcDbEntity
  8
ASSI
100
AcDbPolyline
 62
253
  6
CONTINUOUS
 90
10
 70
0
 10
126.997715579
 20
95.2030197905
 10
127.8323518256
 20
94.8214307487
 10
128.6850705071
 20
94.4369775944
 10
129.556042605
 20
94.0498300881
 10
130.4394912554
 20
93.6627754581
 10
131.3414652502
 20
93.2733252786
 10
132.280163544
 20
92.8739643385
 10
133.2620930335
 20
92.4625711873
 10
134.2817426829
 20
92.042169404
 10
135.3395824084
 20
91.6132080277
  0
LWPOLYLINE
  5
260
100
AcDbEntity
  8
0
100
AcDbPolyline
 62
253
  6
CONTINUOUS
 90
10
 70
0
 10
126.9977236726
 20
95.2030259653
 10
126.9609352434
 20
95.2220399539
 10
126.9275412955
 20
95.243203764
 10
126.8978656295
 20
95.2663121831
 10
126.8721959918
 20
95.2911411431
 10
126.8507812851
 20
95.317449893
 10
126.8338291547
 20
95.3449833333
 10
126.8215039747
 20
95.3734744892
 10
126.813925255
 20
95.4026470996
 10
126.8112410715
 20
95.4286791958
  0
LWPOLYLINE
  5
261
100
AcDbEntity
  8
ASSI
100
AcDbPolyline
 62
253
  6
CONTINUOUS
 90
10
 70
0
 10
126.9977236726
 20
95.2030259653
 10
126.9609352434
 20
95.2220399539
 10
126.9275412955
 20
95.243203764
 10
126.8978656295
 20
95.2663121831
 10
126.8721959918
 20
95.2911411431
 10
126.8507812851
 20
95.317449893
 10
126.8338291547
 20
95.3449833333
 10
126.8215039747
 20
95.3734744892
 10
126.813925255
 20
95.4026470996
 10
126.8112410715
 20
95.4286791958
  0
LINE
  5
262
100
AcDbEntity
  8
0
100
AcDbLine
 62
7
  6
CONTINUOUS
 10
131.2448418313
 20
131.3130973681
 11
131.250939097
 21
130.7858106741
  0
LINE
  5
263
100
AcDbEntity
  8
ASSI
100
AcDbLine
 62
7
  6
CONTINUOUS
 10
131.2448418313
 20
131.3130973681
 11
131.250939097
 21
130.7858106741
  0
LINE
  5
264
100
AcDbEntity
  8
0
100
AcDbLine
 62
253
  6
CONTINUOUS
 10
131.1836895758
 20
130.8860966576
 11
131.1836895758
 21
130.8751913904
  0
LINE
  5
265
100
AcDbEntity
  8
ASSI
100
AcDbLine
 62
253
  6
CONTINUOUS
 10
131.1836895758
 20
130.8860966576
 11
131.1836895758
 21
130.8751913904
  0
LINE
  5
266
100
AcDbEntity
  8
0
100
AcDbLine
 62
7
  6
CONTINUOUS
 10
153.2940503794
 20
122.4576381274
 11
152.6581454624
 21
122.2614710433
  0
LINE
  5
267
100
AcDbEntity
  8
ASSI
100
AcDbLine
 62
7
  6
CONTINUOUS
 10
153.2940503794
 20
122.4576381274
 11
152.6581454624
 21
122.2614710433
  0
LWPOLYLINE
  5
268
100
AcDbEntity
  8
0
100
AcDbPolyline
 62
253
  6
CONTINUOUS
 90
51
 70
0
 10
144.4417335822
 20
92.0880415588
 10
144.3328236368
 20
92.133470695
 10
144.2237445373
 20
92.1823510375
 10
144.114514847
 20
92.2347237828
 10
144.0051531289
 20
92.2906301272
 10
143.8956779463
 20
92.3501112668
 10
143.7861740011
 20
92.4131561355
 10
143.6769905518
 20
92.4795446175
 10
143.5685429954
 20
92.5490043343
 10
143.4612467292
 20
92.6212629077
 10
143.3555171504
 20
92.6960479592
 10
143.2517314761
 20
92.7730824637
 10
143.1501142031
 20
92.8520708086
 10
143.050851648
 20
92.9327127345
 10
142.9541301273
 20
93.014707982
 10
142.8601359576
 20
93.0977562918
 10
142.7690038341
 20
93.1816062129
 10
142.6806619651
 20
93.2662015291
 10
142.5949869377
 20
93.3515348325
 10
142.5118553387
 20
93.4375987153
 10
142.431143755
 20
93.5243857696
 10
142.3527482132
 20
93.6118788196
 10
142.2766424979
 20
93.7000216168
 10
142.2028198336
 20
93.7887481448
 10
142.1312734444
 20
93.8779923871
 10
142.0619965547
 20
93.967688327
 10
141.9949786461
 20
94.0577761709
 10
141.9301942293
 20
94.1482210151
 10
141.867614072
 20
94.2389941791
 10
141.8072089421
 20
94.330066982
 10
141.7489496076
 20
94.421410743
 10
141.6790943895
 20
94.5359567612
 10
141.6124649589
 20
94.6509991724
 10
141.5489799734
 20
94.7666558112
 10
141.4885580904
 20
94.8830445124
 10
141.4311458605
 20
95.0002451339
 10
141.3768014057
 20
95.1181856276
 10
141.3256107412
 20
95.2367559688
 10
141.2776598822
 20
95.3558461329
 10
141.2330353359
 20
95.4753285855
 10
141.191825578
 20
95.5950057537
 10
141.1541195764
 20
95.7146625549
 10
141.1200062988
 20
95.8340839066
 10
141.0895647214
 20
95.9530564512
 10
141.0628338533
 20
96.0713737312
 10
141.039842712
 20
96.1888310141
 10
141.0206203149
 20
96.3052235674
 10
141.0051880018
 20
96.420365468
 10
140.9935364018
 20
96.5341460308
 10
140.9856484666
 20
96.6464733803
 10
140.9815071476
 20
96.7572556408
  0
LWPOLYLINE
  5
269
100
AcDbEntity
  8
0
100
AcDbPolyline
 62
253
  6
CONTINUOUS
 90
11
 70
0
 10
135.3395818501
 20
91.6132075292
 10
135.3447872968
 20
91.5377620502
 10
135.3545190266
 20
91.4668899881
 10
135.3687125014
 20
91.4010613463
 10
135.3872735941
 20
91.3407126818
 10
135.4100792128
 20
91.2862442096
 10
135.436978117
 20
91.2380171494
 10
135.4677919208
 20
91.1963513294
 10
135.5023162757
 20
91.1615230654
 10
135.540322226
 20
91.1337633287
 10
135.5797870623
 20
91.113960536
  0
LWPOLYLINE
  5
26A
100
AcDbEntity
  8
ASSI
100
AcDbPolyline
 62
253
  6
CONTINUOUS
 90
11
 70
0
 10
135.3395818501
 20
91.6132075292
 10
135.3447872968
 20
91.5377620502
 10
135.3545190266
 20
91.4668899881
 10
135.3687125014
 20
91.4010613463
 10
135.3872735941
 20
91.3407126818
 10
135.4100792128
 20
91.2862442096
 10
135.436978117
 20
91.2380171494
 10
135.4677919208
 20
91.1963513294
 10
135.5023162757
 20
91.1615230654
 10
135.540322226
 20
91.1337633287
 10
135.5797870623
 20
91.113960536
  0
LWPOLYLINE
  5
26B
100
AcDbEntity
  8
0
100
AcDbPolyline
 62
253
  6
CONTINUOUS
 90
10
 70
0
 10
135.0275714676
 20
109.0623091938
 10
135.0290805786
 20
109.0209067257
 10
135.0337007174
 20
108.9824919587
 10
135.041381706
 20
108.9474821034
 10
135.0520401236
 20
108.9162573908
 10
135.0655602124
 20
108.8891569429
 10
135.0817951351
 20
108.8664750888
 10
135.1005685692
 20
108.8484581693
 10
135.1216766223
 20
108.8353018603
 10
135.1282165831
 20
108.8324117918
  0
LWPOLYLINE
  5
26C
100
AcDbEntity
  8
ASSI
100
AcDbPolyline
 62
253
  6
CONTINUOUS
 90
10
 70
0
 10
135.0275714676
 20
109.0623091938
 10
135.0290805786
 20
109.0209067257
 10
135.0337007174
 20
108.9824919587
 10
135.041381706
 20
108.9474821034
 10
135.0520401236
 20
108.9162573908
 10
135.0655602124
 20
108.8891569429
 10
135.0817951351
 20
108.8664750888
 10
135.1005685692
 20
108.8484581693
 10
135.1216766223
 20
108.8353018603
 10
135.1282165831
 20
108.8324117918
  0
LWPOLYLINE
  5
26D
100
AcDbEntity
  8
0
100
AcDbPolyline
 62
253
  6
CONTINUOUS
 90
10
 70
0
 10
135.0275716156
 20
107.8446143903
 10
135.0335447597
 20
106.0162749597
 10
135.0466952409
 20
104.1939950187
 10
135.0670218404
 20
102.3778309113
 10
135.0945238432
 20
100.5678096972
 10
135.1291997597
 20
98.7640171458
 10
135.1710461639
 20
96.9665967386
 10
135.2200599393
 20
95.1756327939
 10
135.276239442
 20
93.3911514634
 10
135.3395824084
 20
91.6132080277
  0
LWPOLYLINE
  5
26E
100
AcDbEntity
  8
ASSI
100
AcDbPolyline
 62
253
  6
CONTINUOUS
 90
10
 70
0
 10
135.0275716156
 20
107.8446143903
 10
135.0335447597
 20
106.0162749597
 10
135.0466952409
 20
104.1939950187
 10
135.0670218404
 20
102.3778309113
 10
135.0945238432
 20
100.5678096972
 10
135.1291997597
 20
98.7640171458
 10
135.1710461639
 20
96.9665967386
 10
135.2200599393
 20
95.1756327939
 10
135.276239442
 20
93.3911514634
 10
135.3395824084
 20
91.6132080277
  0
LWPOLYLINE
  5
26F
100
AcDbEntity
  8
0
100
AcDbPolyline
 62
253
  6
CONTINUOUS
 90
7
 70
0
 10
135.0275716156
 20
109.0623093139
 10
135.0335448166
 20
110.9004455273
 10
135.0466954324
 20
112.7442801319
 10
135.0670222344
 20
114.5937547782
 10
135.0945245403
 20
116.448843774
 10
135.1292008277
 20
118.3094563689
 10
135.1710474735
 20
120.1754357699
  0
LWPOLYLINE
  5
270
100
AcDbEntity
  8
ASSI
100
AcDbPolyline
 62
253
  6
CONTINUOUS
 90
7
 70
0
 10
135.0275716156
 20
109.0623093139
 10
135.0335448166
 20
110.9004455273
 10
135.0466954324
 20
112.7442801319
 10
135.0670222344
 20
114.5937547782
 10
135.0945245403
 20
116.448843774
 10
135.1292008277
 20
118.3094563689
 10
135.1710474735
 20
120.1754357699
  0
LINE
  5
271
100
AcDbEntity
  8
0
100
AcDbLine
 62
253
  6
CONTINUOUS
 10
135.1710474735
 20
120.1754357699
 11
135.2200611908
 21
122.0466899068
  0
LINE
  5
272
100
AcDbEntity
  8
ASSI
100
AcDbLine
 62
253
  6
CONTINUOUS
 10
135.1710474735
 20
120.1754357699
 11
135.2200611908
 21
122.0466899068
  0
LWPOLYLINE
  5
273
100
AcDbEntity
  8
0
100
AcDbPolyline
 62
253
  6
CONTINUOUS
 90
3
 70
0
 10
135.2200611908
 20
122.0466899068
 10
135.2762402898
 20
123.9231924155
 10
135.3395824084
 20
125.804884234
  0
LWPOLYLINE
  5
274
100
AcDbEntity
  8
ASSI
100
AcDbPolyline
 62
253
  6
CONTINUOUS
 90
3
 70
0
 10
135.2200611908
 20
122.0466899068
 10
135.2762402898
 20
123.9231924155
 10
135.3395824084
 20
125.804884234
  0
LWPOLYLINE
  5
275
100
AcDbEntity
  8
0
100
AcDbPolyline
 62
253
  6
CONTINUOUS
 90
16
 70
0
 10
135.027571613
 20
107.8446143882
 10
135.0290807248
 20
107.8884716571
 10
135.033700862
 20
107.9344071692
 10
135.0413818468
 20
107.9819220338
 10
135.0520402584
 20
108.0305002072
 10
135.0655603394
 20
108.0796140974
 10
135.0817952524
 20
108.1287302945
 10
135.1005686754
 20
108.1773153631
 10
135.1216767161
 20
108.2248416365
 10
135.144890127
 20
108.2707929472
 10
135.1699567947
 20
108.3146702327
 10
135.1966044782
 20
108.3559969559
 10
135.2245437655
 20
108.3943242808
 10
135.2534712172
 20
108.4292359465
 10
135.2830726613
 20
108.4603527886
 10
135.3130266063
 20
108.4873368572
  0
LWPOLYLINE
  5
276
100
AcDbEntity
  8
ASSI
100
AcDbPolyline
 62
253
  6
CONTINUOUS
 90
16
 70
0
 10
135.027571613
 20
107.8446143882
 10
135.0290807248
 20
107.8884716571
 10
135.033700862
 20
107.9344071692
 10
135.0413818468
 20
107.9819220338
 10
135.0520402584
 20
108.0305002072
 10
135.0655603394
 20
108.0796140974
 10
135.0817952524
 20
108.1287302945
 10
135.1005686754
 20
108.1773153631
 10
135.1216767161
 20
108.2248416365
 10
135.144890127
 20
108.2707929472
 10
135.1699567947
 20
108.3146702327
 10
135.1966044782
 20
108.3559969559
 10
135.2245437655
 20
108.3943242808
 10
135.2534712172
 20
108.4292359465
 10
135.2830726613
 20
108.4603527886
 10
135.3130266063
 20
108.4873368572
  0
LWPOLYLINE
  5
277
100
AcDbEntity
  8
0
100
AcDbPolyline
 62
253
  6
CONTINUOUS
 90
19
 70
0
 10
135.3395824126
 20
125.8048842372
 10
135.3447878549
 20
125.8888470261
 10
135.3545195752
 20
125.9756458768
 10
135.3687130356
 20
126.0647051643
 10
135.3872741093
 20
126.1554342735
 10
135.4100797044
 20
126.2472315151
 10
135.436978581
 20
126.3394881165
 10
135.4677923534
 20
126.4315922586
 10
135.5023166738
 20
126.5229331336
 10
135.5403225868
 20
126.6129049952
 10
135.5815580482
 20
126.7009111761
 10
135.6257495964
 20
126.786368045
 10
135.672604166
 20
126.8687088766
 10
135.7218110309
 20
126.9473876104
 10
135.7730438656
 20
127.021882472
 10
135.8259629087
 20
127.0916994329
 10
135.8802172165
 20
127.1563754874
 10
135.9354469902
 20
127.2154817226
 10
135.991285962
 20
127.2686261631
  0
LWPOLYLINE
  5
278
100
AcDbEntity
  8
ASSI
100
AcDbPolyline
 62
253
  6
CONTINUOUS
 90
19
 70
0
 10
135.3395824126
 20
125.8048842372
 10
135.3447878549
 20
125.8888470261
 10
135.3545195752
 20
125.9756458768
 10
135.3687130356
 20
126.0647051643
 10
135.3872741093
 20
126.1554342735
 10
135.4100797044
 20
126.2472315151
 10
135.436978581
 20
126.3394881165
 10
135.4677923534
 20
126.4315922586
 10
135.5023166738
 20
126.5229331336
 10
135.5403225868
 20
126.6129049952
 10
135.5815580482
 20
126.7009111761
 10
135.6257495964
 20
126.786368045
 10
135.672604166
 20
126.8687088766
 10
135.7218110309
 20
126.9473876104
 10
135.7730438656
 20
127.021882472
 10
135.8259629087
 20
127.0916994329
 10
135.8802172165
 20
127.1563754874
 10
135.9354469902
 20
127.2154817226
 10
135.991285962
 20
127.2686261631
  0
LWPOLYLINE
  5
279
100
AcDbEntity
  8
0
100
AcDbPolyline
 62
253
  6
CONTINUOUS
 90
55
 70
0
 10
144.4285330009
 20
92.569114348
 10
144.3411755703
 20
92.6054586052
 10
144.2538117738
 20
92.6443367274
 10
144.1664467842
 20
92.6857796158
 10
144.0790857743
 20
92.7298181716
 10
143.9917339167
 20
92.776483296
 10
143.9043963844
 20
92.82580589
 10
143.8171292812
 20
92.8777727925
 10
143.7301924359
 20
92.9321945924
 10
143.6438966087
 20
92.9888378164
 10
143.5585525595
 20
93.0474689911
 10
143.4744710484
 20
93.1078546432
 10
143.3919628356
 20
93.1697612993
 10
143.3112929626
 20
93.2329694671
 10
143.232543598
 20
93.297315579
 10
143.1557511917
 20
93.3626500484
 10
143.0809521939
 20
93.4288232886
 10
143.0081830546
 20
93.4956857131
 10
142.937480224
 20
93.5630877354
 10
142.8688632689
 20
93.6309026209
 10
142.8022842241
 20
93.6990950434
 10
142.7376782411
 20
93.7676525289
 10
142.6749804715
 20
93.8365626034
 10
142.6141260669
 20
93.9058127927
 10
142.5550501787
 20
93.9753906228
 10
142.4864298918
 20
94.0592920574
 10
142.4202518905
 20
94.1435844738
 10
142.3564907787
 20
94.2282050136
 10
142.2951211599
 20
94.3130908186
 10
142.2361176378
 20
94.3981790304
 10
142.1794494252
 20
94.4834220394
 10
142.1250641712
 20
94.5688332301
 10
142.0729041339
 20
94.6544412356
 10
142.0229115716
 20
94.7402746892
 10
141.9750287424
 20
94.826362224
 10
141.9292069895
 20
94.9127325821
 10
141.8854339963
 20
94.9994149408
 10
141.8437065313
 20
95.0864385864
 10
141.8040213628
 20
95.1738328053
 10
141.7663752592
 20
95.2616268835
 10
141.7307761158
 20
95.3498216901
 10
141.6972763354
 20
95.438304424
 10
141.6659394476
 20
95.5269338671
 10
141.6368289821
 20
95.6155688009
 10
141.6100084683
 20
95.7040680072
 10
141.5855327576
 20
95.7922994982
 10
141.5634219869
 20
95.8801682073
 10
141.543687615
 20
95.9675882987
 10
141.5263411004
 20
96.0544739364
 10
141.5113939018
 20
96.1407392844
 10
141.4988553745
 20
96.2263023928
 10
141.4887264608
 20
96.3110968564
 10
141.4810059998
 20
96.3950601558
 10
141.4756928305
 20
96.4781297716
 10
141.4727857918
 20
96.5602431848
  0
LWPOLYLINE
  5
27A
100
AcDbEntity
  8
0
100
AcDbPolyline
 62
7
  6
CONTINUOUS
 90
8
 70
0
 10
126.6652836213
 20
112.6155833662
 10
126.6393222957
 20
112.6531924164
 10
126.6167930637
 20
112.6932333776
 10
126.5979678773
 20
112.7353423807
 10
126.5830000748
 20
112.7793636049
 10
126.5721167783
 20
112.8249508343
 10
126.5655319133
 20
112.8715469874
 10
126.5633567328
 20
112.9186491446
  0
LWPOLYLINE
  5
27B
100
AcDbEntity
  8
ASSI
100
AcDbPolyline
 62
7
  6
CONTINUOUS
 90
8
 70
0
 10
126.6652836213
 20
112.6155833662
 10
126.6393222957
 20
112.6531924164
 10
126.6167930637
 20
112.6932333776
 10
126.5979678773
 20
112.7353423807
 10
126.5830000748
 20
112.7793636049
 10
126.5721167783
 20
112.8249508343
 10
126.5655319133
 20
112.8715469874
 10
126.5633567328
 20
112.9186491446
  0
LINE
  5
27C
100
AcDbEntity
  8
0
100
AcDbLine
 62
7
  6
CONTINUOUS
 10
140.4193447273
 20
127.6284101707
 11
140.3581924718
 21
127.2014094602
  0
LINE
  5
27D
100
AcDbEntity
  8
ASSI
100
AcDbLine
 62
7
  6
CONTINUOUS
 10
140.4193447273
 20
127.6284101707
 11
140.3581924718
 21
127.2014094602
  0
LINE
  5
27E
100
AcDbEntity
  8
0
100
AcDbLine
 62
253
  6
CONTINUOUS
 10
140.3581924718
 20
127.2014094602
 11
140.3581924718
 21
127.190504193
  0
LINE
  5
27F
100
AcDbEntity
  8
ASSI
100
AcDbLine
 62
253
  6
CONTINUOUS
 10
140.3581924718
 20
127.2014094602
 11
140.3581924718
 21
127.190504193
  0
LINE
  5
280
100
AcDbEntity
  8
0
100
AcDbLine
 62
7
  6
CONTINUOUS
 10
140.3575235594
 20
127.190504193
 11
140.3581924718
 21
127.2014094602
  0
LINE
  5
281
100
AcDbEntity
  8
ASSI
100
AcDbLine
 62
7
  6
CONTINUOUS
 10
140.3575235594
 20
127.190504193
 11
140.3581924718
 21
127.2014094602
  0
LWPOLYLINE
  5
282
100
AcDbEntity
  8
SUPERFICI
100
AcDbPolyline
 62
7
  6
CONTINUOUS
 90
34
 70
0
 10
141.7875102578
 20
109.9458177372
 10
141.7836602725
 20
109.9424680972
 10
141.7500722503
 20
109.9097691544
 10
141.7199001437
 20
109.8738356014
 10
141.6932530184
 20
109.834718065
 10
141.6700230006
 20
109.7923668771
 10
141.6504550297
 20
109.7472147598
 10
141.6345533769
 20
109.6990931802
 10
141.6223147575
 20
109.6481714672
 10
141.613972259
 20
109.5953887211
 10
141.6096009363
 20
109.5408579391
 10
141.609125946
 20
109.4844662992
 10
141.6125549491
 20
109.4268137083
 10
141.6199585133
 20
109.3677326218
 10
141.6312659037
 20
109.3073904554
 10
141.6462722503
 20
109.2468890927
 10
141.6649973055
 20
109.186364744
 10
141.687420378
 20
109.1256804485
 10
141.7132753923
 20
109.0655278989
 10
141.7426452362
 20
109.0058184453
 10
141.7754458182
 20
108.946639772
 10
141.811160214
 20
108.8889477661
 10
141.8497936949
 20
108.8328207121
 10
141.8913394967
 20
108.7781791242
 10
141.9352623682
 20
108.7257420134
 10
141.9816317139
 20
108.6754957446
 10
142.0303767019
 20
108.627452802
 10
142.0807516238
 20
108.5823712918
 10
142.1327963631
 20
108.5403012013
 10
142.1864698663
 20
108.501191598
 10
142.2409050535
 20
108.4656492362
 10
142.2958126713
 20
108.4338761834
 10
142.3514813048
 20
108.4056698307
 10
142.4079107601
 20
108.3810300205
  0
LWPOLYLINE
  5
283
100
AcDbEntity
  8
0
100
AcDbPolyline
 62
7
  6
CONTINUOUS
 90
13
 70
0
 10
141.787501732
 20
109.9458280268
 10
141.7962251369
 20
109.953120142
 10
141.8398912565
 20
109.9846205271
 10
141.8869820351
 20
110.0108175826
 10
141.9376515589
 20
110.03163596
 10
141.9917434847
 20
110.0471491993
 10
142.0480554297
 20
110.0570879423
 10
142.1065408895
 20
110.0613376326
 10
142.167244462
 20
110.0600113022
 10
142.2291004396
 20
110.0531809945
 10
142.29175322
 20
110.040870432
 10
142.3555573333
 20
110.0230550368
 10
142.4205124796
 20
109.99973457
  0
LWPOLYLINE
  5
284
100
AcDbEntity
  8
ASSI
100
AcDbPolyline
 62
7
  6
CONTINUOUS
 90
13
 70
0
 10
141.787501732
 20
109.9458280268
 10
141.7962251369
 20
109.953120142
 10
141.8398912565
 20
109.9846205271
 10
141.8869820351
 20
110.0108175826
 10
141.9376515589
 20
110.03163596
 10
141.9917434847
 20
110.0471491993
 10
142.0480554297
 20
110.0570879423
 10
142.1065408895
 20
110.0613376326
 10
142.167244462
 20
110.0600113022
 10
142.2291004396
 20
110.0531809945
 10
142.29175322
 20
110.040870432
 10
142.3555573333
 20
110.0230550368
 10
142.4205124796
 20
109.99973457
  0
LINE
  5
285
100
AcDbEntity
  8
SUPERFICI
100
AcDbLine
 62
7
  6
CONTINUOUS
 10
141.8200934905
 20
109.9713489694
 11
141.7875102578
 21
109.9458177372
  0
LINE
  5
286
100
AcDbEntity
  8
0
100
AcDbLine
 62
7
  6
CONTINUOUS
 10
162.4685532754
 20
118.7729509301
 11
161.8326483584
 21
118.5767838459
  0
LINE
  5
287
100
AcDbEntity
  8
ASSI
100
AcDbLine
 62
7
  6
CONTINUOUS
 10
162.4685532754
 20
118.7729509301
 11
161.8326483584
 21
118.5767838459
  0
LWPOLYLINE
  5
288
100
AcDbEntity
  8
SUPERFICI
100
AcDbPolyline
 62
7
  6
CONTINUOUS
 90
14
 70
0
 10
146.1068234005
 20
99.5386041578
 10
146.1630299241
 20
99.5179584958
 10
146.2184818432
 20
99.5014040867
 10
146.2731793323
 20
99.4889410774
 10
146.3274055126
 20
99.4805341089
 10
146.380877891
 20
99.4762190685
 10
146.4327483521
 20
99.4761030824
 10
146.4830003973
 20
99.4802752131
 10
146.5316516675
 20
99.4886473564
 10
146.5779052958
 20
99.5010609214
 10
146.6216584496
 20
99.5175486686
 10
146.6630153616
 20
99.5380790101
 10
146.7014896728
 20
99.562396756
 10
146.7173370838
 20
99.574194671
  0
LWPOLYLINE
  5
289
100
AcDbEntity
  8
SUPERFICI
100
AcDbPolyline
 62
7
  6
CONTINUOUS
 90
3
 70
0
 10
142.4204054681
 20
101.0191527079
 10
145.6973764266
 20
99.7032874872
 10
146.1068234005
 20
99.5386041578
  0
LINE
  5
28A
100
AcDbEntity
  8
0
100
AcDbLine
 62
7
  6
CONTINUOUS
 10
146.1067166208
 20
99.5386360362
 11
142.4205123567
 21
101.0191098471
  0
LINE
  5
28B
100
AcDbEntity
  8
ASSI
100
AcDbLine
 62
7
  6
CONTINUOUS
 10
146.1067166208
 20
99.5386360362
 11
142.4205123567
 21
101.0191098471
  0
LWPOLYLINE
  5
28C
100
AcDbEntity
  8
0
100
AcDbPolyline
 62
253
  6
CONTINUOUS
 90
55
 70
0
 10
144.3122952183
 20
98.2486775404
 10
144.395994925
 20
98.2138770154
 10
144.4797393124
 20
98.1766731198
 10
144.5634782753
 20
98.1370741069
 10
144.6471617086
 20
98.0950882303
 10
144.7307395069
 20
98.0507237434
 10
144.8141615652
 20
98.0039888999
 10
144.8973634656
 20
97.9549060243
 10
144.9802235401
 20
97.9035537262
 10
145.0626058083
 20
97.8500246861
 10
145.1443742896
 20
97.7944115849
 10
145.2253930034
 20
97.7368071031
 10
145.3055259693
 20
97.6773039214
 10
145.3846562392
 20
97.6159851043
 10
145.462742995
 20
97.5528952515
 10
145.5397644511
 20
97.4880693464
 10
145.6156988219
 20
97.4215423726
 10
145.6905243218
 20
97.3533493136
 10
145.7642191651
 20
97.2835251529
 10
145.836758373
 20
97.2121032496
 10
145.9081041932
 20
97.1391104654
 10
145.9782156804
 20
97.0645720379
 10
146.047051889
 20
96.9885132042
 10
146.1145718735
 20
96.910959202
 10
146.1807346886
 20
96.8319352685
 10
146.2454887658
 20
96.7514868732
 10
146.3087400457
 20
96.669740414
 10
146.370383846
 20
96.5868425209
 10
146.4303154845
 20
96.5029398238
 10
146.4884302788
 20
96.4181789526
 10
146.5446235465
 20
96.3327065374
 10
146.5988064317
 20
96.2466521751
 10
146.6509533822
 20
96.1600773317
 10
146.7010546724
 20
96.0730264401
 10
146.7491005764
 20
95.9855439332
 10
146.7950813685
 20
95.897674244
 10
146.8389873228
 20
95.8094618055
 10
146.8808054902
 20
95.7209555409
 10
146.9205100281
 20
95.6322223345
 10
146.9580718706
 20
95.5433335607
 10
146.9934619518
 20
95.454360594
 10
147.0266512057
 20
95.3653748089
 10
147.0576105664
 20
95.27644758
 10
147.086312919
 20
95.1876507944
 10
147.1127389519
 20
95.0990583905
 10
147.1368713048
 20
95.0107448195
 10
147.158692617
 20
94.9227845326
 10
147.1781855282
 20
94.8352519809
 10
147.1953326778
 20
94.7482216156
 10
147.2101185821
 20
94.6617671829
 10
147.2225352641
 20
94.5759596097
 10
147.2325766237
 20
94.4908691178
 10
147.2402365607
 20
94.4065659292
 10
147.245508975
 20
94.3231202657
 10
147.2483877663
 20
94.2406023492
  0
LWPOLYLINE
  5
28D
100
AcDbEntity
  8
0
100
AcDbPolyline
 62
253
  6
CONTINUOUS
 90
51
 70
0
 10
144.3056905497
 20
98.7351510635
 10
144.4113866233
 20
98.6910789112
 10
144.5171745329
 20
98.6437058525
 10
144.6229755862
 20
98.5930470933
 10
144.728711091
 20
98.5391178395
 10
144.8343023548
 20
98.4819332969
 10
144.9396527046
 20
98.4215246292
 10
145.0445935439
 20
98.3579868319
 10
145.1489382955
 20
98.2914308584
 10
145.2525003819
 20
98.2219676622
 10
145.355093226
 20
98.1497081967
 10
145.4565430655
 20
98.0747652709
 10
145.5567273984
 20
97.9972591163
 10
145.6555365379
 20
97.9173118198
 10
145.7528607971
 20
97.8350454685
 10
145.848590489
 20
97.7505821495
 10
145.9426388193
 20
97.6640175554
 10
146.0350105627
 20
97.575341802
 10
146.1257333865
 20
97.4845186107
 10
146.2148349581
 20
97.3915117029
 10
146.3023429445
 20
97.2962848
 10
146.3882523275
 20
97.1988364021
 10
146.4724273455
 20
97.0993041247
 10
146.5546995514
 20
96.9978603617
 10
146.634900498
 20
96.8946775074
 10
146.7128617382
 20
96.7899279556
 10
146.7884267202
 20
96.683788393
 10
146.8614864739
 20
96.5764526752
 10
146.9319439245
 20
96.4681189504
 10
146.9997019974
 20
96.3589853669
 10
147.0646636177
 20
96.2492500727
 10
147.1267508191
 20
96.1390753728
 10
147.1859620692
 20
96.0284801991
 10
147.2423149436
 20
95.9174476405
 10
147.2958270183
 20
95.8059607857
 10
147.3465158692
 20
95.6940027235
 10
147.3943837365
 20
95.5815898972
 10
147.4393715187
 20
95.468872168
 10
147.4814047786
 20
95.3560327517
 10
147.5204090791
 20
95.243254864
 10
147.556309983
 20
95.1307217207
 10
147.5890440008
 20
95.0186000217
 10
147.618591433
 20
94.9069904043
 10
147.644943528
 20
94.7959769896
 10
147.6680915339
 20
94.6856438991
 10
147.688026699
 20
94.5760752541
 10
147.7047401151
 20
94.4673595774
 10
147.7182222496
 20
94.3596029979
 10
147.7284634135
 20
94.2529160462
 10
147.7354539178
 20
94.1474092527
 10
147.7391840737
 20
94.0431931478
  0
LWPOLYLINE
  5
28E
100
AcDbEntity
  8
0
100
AcDbPolyline
 62
7
  6
CONTINUOUS
 90
29
 70
0
 10
142.4205123567
 20
101.0191098471
 10
142.3555009672
 20
101.0478491148
 10
142.2916597244
 20
101.081040916
 10
142.2289889291
 20
101.118685504
 10
142.1671341756
 20
101.1610449332
 10
142.1064509424
 20
101.2078580508
 10
142.0480045634
 20
101.2583404714
 10
141.9917605081
 20
101.3126324076
 10
141.9377552061
 20
101.3705952395
 10
141.88716045
 20
101.4310263473
 10
141.8401221225
 20
101.493877013
 10
141.7964965836
 20
101.5591978319
 10
141.7570210957
 20
101.6259349464
 10
141.7216874428
 20
101.6942620819
 10
141.6905060973
 20
101.7640073978
 10
141.6642417437
 20
101.8335981747
 10
141.6430542626
 20
101.9028956972
 10
141.6267852497
 20
101.9720399087
 10
141.6157210956
 20
102.0398753511
 10
141.6099504302
 20
102.1065220419
 10
141.6093853539
 20
102.1718605654
 10
141.6140463955
 20
102.2343754216
 10
141.624024946
 20
102.2938794177
 10
141.6392289646
 20
102.3505591955
 10
141.6594027538
 20
102.4034591069
 10
141.6847119924
 20
102.4525888341
 10
141.7149895758
 20
102.4979374991
 10
141.7494797351
 20
102.5385178682
 10
141.7797628258
 20
102.5671330363
  0
LWPOLYLINE
  5
28F
100
AcDbEntity
  8
ASSI
100
AcDbPolyline
 62
7
  6
CONTINUOUS
 90
29
 70
0
 10
142.4205123567
 20
101.0191098471
 10
142.3555009672
 20
101.0478491148
 10
142.2916597244
 20
101.081040916
 10
142.2289889291
 20
101.118685504
 10
142.1671341756
 20
101.1610449332
 10
142.1064509424
 20
101.2078580508
 10
142.0480045634
 20
101.2583404714
 10
141.9917605081
 20
101.3126324076
 10
141.9377552061
 20
101.3705952395
 10
141.88716045
 20
101.4310263473
 10
141.8401221225
 20
101.493877013
 10
141.7964965836
 20
101.5591978319
 10
141.7570210957
 20
101.6259349464
 10
141.7216874428
 20
101.6942620819
 10
141.6905060973
 20
101.7640073978
 10
141.6642417437
 20
101.8335981747
 10
141.6430542626
 20
101.9028956972
 10
141.6267852497
 20
101.9720399087
 10
141.6157210956
 20
102.0398753511
 10
141.6099504302
 20
102.1065220419
 10
141.6093853539
 20
102.1718605654
 10
141.6140463955
 20
102.2343754216
 10
141.624024946
 20
102.2938794177
 10
141.6392289646
 20
102.3505591955
 10
141.6594027538
 20
102.4034591069
 10
141.6847119924
 20
102.4525888341
 10
141.7149895758
 20
102.4979374991
 10
141.7494797351
 20
102.5385178682
 10
141.7797628258
 20
102.5671330363
  0
LINE
  5
290
100
AcDbEntity
  8
0
100
AcDbLine
 62
7
  6
CONTINUOUS
 10
140.4193447273
 20
127.6284101707
 11
140.425441993
 21
127.1011234767
  0
LINE
  5
291
100
AcDbEntity
  8
ASSI
100
AcDbLine
 62
7
  6
CONTINUOUS
 10
140.4193447273
 20
127.6284101707
 11
140.425441993
 21
127.1011234767
  0
LWPOLYLINE
  5
292
100
AcDbEntity
  8
0
100
AcDbPolyline
 62
253
  6
CONTINUOUS
 90
55
 70
0
 10
141.4727874309
 20
96.5602425276
 10
141.4723138217
 20
96.6418453394
 10
141.4742713915
 20
96.7224319088
 10
141.4786556235
 20
96.8019353668
 10
141.4854620011
 20
96.8802888445
 10
141.4946860075
 20
96.9574254732
 10
141.5063231261
 20
97.0332783839
 10
141.520367085
 20
97.1077820807
 10
141.5368045924
 20
97.1808765599
 10
141.5556206016
 20
97.2525031908
 10
141.5768000657
 20
97.3226033424
 10
141.6003279378
 20
97.3911183841
 10
141.626189171
 20
97.457989685
 10
141.6543667609
 20
97.5231602617
 10
141.6848358718
 20
97.5865797196
 10
141.7175697103
 20
97.6481993113
 10
141.752541483
 20
97.7079702895
 10
141.7897243967
 20
97.765843907
 10
141.829091658
 20
97.8217714164
 10
141.8706190295
 20
97.8757057398
 10
141.9142924976
 20
97.9276064769
 10
141.9601006048
 20
97.9774348967
 10
142.0080318937
 20
98.0251522683
 10
142.0580749067
 20
98.0707198607
 10
142.1102181862
 20
98.114098943
 10
142.1644349472
 20
98.1552468955
 10
142.2206370948
 20
98.1941055431
 10
142.2787212065
 20
98.2306128224
 10
142.3385838599
 20
98.2647066694
 10
142.4001216327
 20
98.2963250207
 10
142.4632311022
 20
98.3254058124
 10
142.5278194355
 20
98.3518987497
 10
142.593836156
 20
98.3758006128
 10
142.6612413767
 20
98.3971199505
 10
142.7299952105
 20
98.4158653119
 10
142.8000577702
 20
98.432045246
 10
142.8713891687
 20
98.4456683016
 10
142.9439520663
 20
98.4567386438
 10
143.0177193124
 20
98.4652429016
 10
143.0926663037
 20
98.4711633199
 10
143.1687684371
 20
98.4744821439
 10
143.2460011094
 20
98.4751816185
 10
143.3243397172
 20
98.4732439887
 10
143.4037408137
 20
98.468657452
 10
143.4840855767
 20
98.4614340158
 10
143.5652363404
 20
98.4515916398
 10
143.6470554388
 20
98.4391482838
 10
143.729405206
 20
98.4241219075
 10
143.8121479762
 20
98.4065304708
 10
143.8951606561
 20
98.3863945032
 10
143.9783784427
 20
98.3637448133
 10
144.0617511056
 20
98.3386147798
 10
144.1452284146
 20
98.311037781
 10
144.2287601391
 20
98.2810471954
 10
144.312296049
 20
98.2486764016
  0
LWPOLYLINE
  5
293
100
AcDbEntity
  8
0
100
AcDbPolyline
 62
253
  6
CONTINUOUS
 90
51
 70
0
 10
140.9815063099
 20
96.7572575746
 10
140.9810217864
 20
96.860226044
 10
140.9838533115
 20
96.9618339459
 10
140.9899941674
 20
97.0619768217
 10
140.9994376364
 20
97.160550213
 10
141.0121770011
 20
97.2574496611
 10
141.0282054644
 20
97.3525754628
 10
141.0475159127
 20
97.4458469366
 10
141.0701011529
 20
97.5371881561
 10
141.0959539919
 20
97.626523195
 10
141.1250672368
 20
97.7137761271
 10
141.1574235908
 20
97.7988634048
 10
141.1929653416
 20
97.8816709955
 10
141.2316246733
 20
97.9620772456
 10
141.2733337699
 20
98.0399605011
 10
141.3180248155
 20
98.1151991083
 10
141.3656436123
 20
98.1876916013
 10
141.4161904366
 20
98.2574172652
 10
141.4696791828
 20
98.3243755733
 10
141.5261237454
 20
98.3885659985
 10
141.585538019
 20
98.4499880141
 10
141.6479173206
 20
98.5086209062
 10
141.7131826581
 20
98.5643632142
 10
141.781236462
 20
98.6170932906
 10
141.8519811629
 20
98.6666894877
 10
141.9253191911
 20
98.7130301582
 10
142.0011415826
 20
98.7560081514
 10
142.0792937939
 20
98.7955743055
 10
142.1596098871
 20
98.8316939552
 10
142.2419239241
 20
98.8643324356
 10
142.3260699668
 20
98.8934550817
 10
142.4119143758
 20
98.9190353926
 10
142.4994527051
 20
98.9410795242
 10
142.5887128076
 20
98.9596017965
 10
142.6797225358
 20
98.9746165296
 10
142.7725097425
 20
98.9861380435
 10
142.8670780638
 20
98.9941726644
 10
142.9633342702
 20
98.998694742
 10
143.0611609156
 20
98.9996706322
 10
143.1604405538
 20
98.9970666908
 10
143.2610557388
 20
98.9908492738
 10
143.3628777011
 20
98.9809971775
 10
143.465732378
 20
98.9675389615
 10
143.5694343834
 20
98.9505156258
 10
143.6737983311
 20
98.9299681706
 10
143.778638835
 20
98.9059375959
 10
143.8837880303
 20
98.8784663359
 10
143.9891481375
 20
98.8476025618
 10
144.0946388986
 20
98.8133958788
 10
144.2001800553
 20
98.7758958919
 10
144.3056913496
 20
98.7351522065
  0
LWPOLYLINE
  5
294
100
AcDbEntity
  8
0
100
AcDbPolyline
 62
253
  6
CONTINUOUS
 90
55
 70
0
 10
141.4245575531
 20
115.4171336084
 10
141.4274456458
 20
115.5009326123
 10
141.432733853
 20
115.5837898621
 10
141.440423225
 20
115.6656398091
 10
141.4505148124
 20
115.7464169046
 10
141.4630096656
 20
115.8260555999
 10
141.4779064451
 20
115.9044873664
 10
141.4951942518
 20
115.9816317556
 10
141.5148597967
 20
116.0574053388
 10
141.5368897906
 20
116.1317246875
 10
141.5612709446
 20
116.2045063731
 10
141.5879821081
 20
116.2756656621
 10
141.6169706842
 20
116.3451126004
 10
141.6481762145
 20
116.4127559289
 10
141.6815382407
 20
116.4785043885
 10
141.7169963044
 20
116.5422667201
 10
141.754501194
 20
116.6039712794
 10
141.7940486856
 20
116.6636248813
 10
141.835645802
 20
116.7212539555
 10
141.8792995661
 20
116.7768849318
 10
141.9250170007
 20
116.8305442399
 10
141.9728134787
 20
116.8822501298
 10
142.0227377731
 20
116.9319881333
 10
142.0748470069
 20
116.9797356026
 10
142.1291983032
 20
117.0254698898
 10
142.185848785
 20
117.0691683471
 10
142.2448501964
 20
117.1107969187
 10
142.3062327663
 20
117.1502759177
 10
142.3700213446
 20
117.1875142494
 10
142.4362407812
 20
117.2224208191
 10
142.5049159262
 20
117.2549045321
 10
142.5640471741
 20
117.2800551378
 10
142.6249642772
 20
117.3033913786
 10
142.6877304807
 20
117.3248446893
 10
142.7524090298
 20
117.3443465046
 10
142.8190631699
 20
117.3618282593
 10
142.887756146
 20
117.3772213882
 10
142.9585345227
 20
117.3904471242
 10
143.0313781408
 20
117.4013858931
 10
143.1062501602
 20
117.4099079188
 10
143.1831137409
 20
117.4158834253
 10
143.261932043
 20
117.4191826365
 10
143.3426682265
 20
117.4196757765
 10
143.4252401741
 20
117.4172558839
 10
143.5093846598
 20
117.411907257
 10
143.5947931805
 20
117.4036370088
 10
143.6811572329
 20
117.3924522524
 10
143.7681683139
 20
117.3783601007
 10
143.8555179203
 20
117.3613676668
 10
143.9429479227
 20
117.3414869292
 10
144.0304016876
 20
117.3187493281
 10
144.117872955
 20
117.2931911691
 10
144.2053554654
 20
117.264848758
 10
144.2928429587
 20
117.2337584003
 10
144.3803291754
 20
117.1999564018
  0
LWPOLYLINE
  5
295
100
AcDbEntity
  8
0
100
AcDbPolyline
 62
253
  6
CONTINUOUS
 90
51
 70
0
 10
140.9332781539
 20
115.6141464714
 10
140.9373918867
 20
115.7271137864
 10
140.9452480042
 20
115.8386788366
 10
140.9568624725
 20
115.9487323323
 10
140.9722512575
 20
116.0571649839
 10
140.9914224853
 20
116.1638534056
 10
141.014352923
 20
116.2686178263
 10
141.0410114975
 20
116.3712643785
 10
141.0713671359
 20
116.4715991948
 10
141.1053792465
 20
116.5694356305
 10
141.1429691614
 20
116.6646159307
 10
141.184048694
 20
116.7569895634
 10
141.2285296577
 20
116.8464059962
 10
141.2763254794
 20
116.9327326593
 10
141.3273560406
 20
117.0159088314
 10
141.3815428364
 20
117.0958917536
 10
141.4388073618
 20
117.1726386668
 10
141.4990980084
 20
117.2461221696
 10
141.5624707543
 20
117.3163762899
 10
141.6290084738
 20
117.383450413
 10
141.6987940414
 20
117.4473939243
 10
141.7570142493
 20
117.4963139164
 10
141.8173942212
 20
117.5432034286
 10
141.8799620584
 20
117.5880039657
 10
141.9447458624
 20
117.6306570329
 10
142.0117737346
 20
117.671104135
 10
142.0810700789
 20
117.7092834921
 10
142.1526445087
 20
117.7451201842
 10
142.2265029399
 20
117.7785360063
 10
142.3026512884
 20
117.8094527535
 10
142.38109547
 20
117.8377922209
 10
142.4618612324
 20
117.8634704544
 10
142.5450536493
 20
117.886380503
 10
142.6307976265
 20
117.9064096667
 10
142.7192180696
 20
117.9234452455
 10
142.8104398842
 20
117.9373745394
 10
142.9045351091
 20
117.9480756943
 10
143.001364316
 20
117.9553902404
 10
143.10073521
 20
117.959150554
 10
143.2024554958
 20
117.9591890113
 10
143.3063328785
 20
117.9553379887
 10
143.4121390935
 20
117.9474663507
 10
143.5195019983
 20
117.9355889153
 10
143.628013481
 20
117.9197569886
 10
143.7372654296
 20
117.9000218769
 10
143.8468497321
 20
117.8764348865
 10
143.9564227271
 20
117.8490484179
 10
144.0658985548
 20
117.8179192487
 10
144.175255806
 20
117.7831052508
 10
144.2844730714
 20
117.744664296
 10
144.3935289419
 20
117.7026542562
  0
LWPOLYLINE
  5
296
100
AcDbEntity
  8
0
100
AcDbPolyline
 62
7
  6
CONTINUOUS
 90
11
 70
0
 10
162.3478565469
 20
98.2092476357
 10
162.3892709735
 20
98.1974072204
 10
162.4373816239
 20
98.1883336938
 10
162.4863231129
 20
98.1840020735
 10
162.5356349429
 20
98.1845056133
 10
162.5848013413
 20
98.1898873501
 10
162.6333696089
 20
98.2001462289
 10
162.6808485549
 20
98.2152329126
 10
162.7267254639
 20
98.2350359201
 10
162.7705171214
 20
98.2593941388
 10
162.8095034587
 20
98.2863631951
  0
LWPOLYLINE
  5
297
100
AcDbEntity
  8
ASSI
100
AcDbPolyline
 62
7
  6
CONTINUOUS
 90
11
 70
0
 10
162.3478565469
 20
98.2092476357
 10
162.3892709735
 20
98.1974072204
 10
162.4373816239
 20
98.1883336938
 10
162.4863231129
 20
98.1840020735
 10
162.535634943
 20
98.1845056133
 10
162.5848013414
 20
98.1898873501
 10
162.6333696089
 20
98.2001462289
 10
162.6808485549
 20
98.2152329126
 10
162.7267254639
 20
98.2350359201
 10
162.7705171214
 20
98.2593941388
 10
162.8095034587
 20
98.2863631951
  0
LWPOLYLINE
  5
298
100
AcDbEntity
  8
0
100
AcDbPolyline
 62
253
  6
CONTINUOUS
 90
16
 70
0
 10
162.2549210448
 20
98.4361930271
 10
162.2981218103
 20
98.4233723833
 10
162.3432881083
 20
98.413013853
 10
162.3899926351
 20
98.405215435
 10
162.437793527
 20
98.4000509077
 10
162.4862385622
 20
98.3975691299
 10
162.534869439
 20
98.3977935825
 10
162.5832260978
 20
98.4007221479
 10
162.630851028
 20
98.4063271237
 10
162.6772936205
 20
98.4145554775
 10
162.7221144773
 20
98.425329354
 10
162.7648895871
 20
98.4385468248
 10
162.8052142901
 20
98.4540828482
 10
162.8427070932
 20
98.4717904458
 10
162.8770132824
 20
98.4915020895
 10
162.9078082978
 20
98.5130312938
  0
LWPOLYLINE
  5
299
100
AcDbEntity
  8
ASSI
100
AcDbPolyline
 62
253
  6
CONTINUOUS
 90
16
 70
0
 10
162.2549210448
 20
98.4361930271
 10
162.2981218103
 20
98.4233723833
 10
162.3432881083
 20
98.413013853
 10
162.3899926351
 20
98.405215435
 10
162.437793527
 20
98.4000509077
 10
162.4862385622
 20
98.3975691299
 10
162.534869439
 20
98.3977935825
 10
162.5832260978
 20
98.4007221479
 10
162.630851028
 20
98.4063271237
 10
162.6772936205
 20
98.4145554775
 10
162.7221144773
 20
98.425329354
 10
162.7648895871
 20
98.4385468248
 10
162.8052142901
 20
98.4540828482
 10
162.8427070932
 20
98.4717904458
 10
162.8770132824
 20
98.4915020895
 10
162.9078082978
 20
98.5130312938
  0
LWPOLYLINE
  5
29A
100
AcDbEntity
  8
SUPERFICI
100
AcDbPolyline
 62
7
  6
CONTINUOUS
 90
12
 70
0
 10
142.3515585183
 20
102.6375710025
 10
142.2959664753
 20
102.6540774665
 10
142.2411349472
 20
102.6664760583
 10
142.1867871276
 20
102.674800278
 10
142.1332004871
 20
102.6790171758
 10
142.0812067638
 20
102.6790273441
 10
142.0308168476
 20
102.6747442674
 10
141.9820210202
 20
102.6662554341
 10
141.9356201398
 20
102.6537224693
 10
141.8917185989
 20
102.6371138096
 10
141.8502134199
 20
102.6164621956
 10
141.8115943085
 20
102.5920256275
  0
LWPOLYLINE
  5
29B
100
AcDbEntity
  8
0
100
AcDbPolyline
 62
253
  6
CONTINUOUS
 90
10
 70
0
 10
162.2549209376
 20
97.225129208
 10
161.1262589956
 20
97.6048833467
 10
160.037020598
 20
97.980610355
 10
158.9864746616
 20
98.3515874863
 10
157.9739438864
 20
98.7171364891
 10
156.9987454324
 20
99.0766162113
 10
156.0601909398
 20
99.4294217273
 10
155.1576623433
 20
99.7749892695
 10
154.2906096587
 20
100.112793491
 10
153.4584926121
 20
100.4423410027
  0
LWPOLYLINE
  5
29C
100
AcDbEntity
  8
ASSI
100
AcDbPolyline
 62
253
  6
CONTINUOUS
 90
10
 70
0
 10
162.2549209376
 20
97.225129208
 10
161.1262589956
 20
97.6048833467
 10
160.037020598
 20
97.980610355
 10
158.9864746616
 20
98.3515874863
 10
157.9739438864
 20
98.7171364891
 10
156.9987454324
 20
99.0766162113
 10
156.0601909398
 20
99.4294217273
 10
155.1576623433
 20
99.7749892695
 10
154.2906096587
 20
100.112793491
 10
153.4584926121
 20
100.4423410027
  0
LINE
  5
29D
100
AcDbEntity
  8
SUPERFICI
100
AcDbLine
 62
7
  6
CONTINUOUS
 10
142.4079108834
 20
102.6169565073
 11
142.3515585183
 21
102.6375710025
  0
LINE
  5
29E
100
AcDbEntity
  8
SUPERFICI
100
AcDbLine
 62
7
  6
CONTINUOUS
 10
146.0939500329
 20
101.1365600849
 11
142.4079108834
 21
102.6169565073
  0
LINE
  5
29F
100
AcDbEntity
  8
0
100
AcDbLine
 62
7
  6
CONTINUOUS
 10
142.4078441985
 20
102.6169763061
 11
146.0940165557
 21
101.1365333237
  0
LINE
  5
2A0
100
AcDbEntity
  8
ASSI
100
AcDbLine
 62
7
  6
CONTINUOUS
 10
142.4078441985
 20
102.6169763061
 11
146.0940165557
 21
101.1365333237
  0
LWPOLYLINE
  5
2A1
100
AcDbEntity
  8
0
100
AcDbPolyline
 62
7
  6
CONTINUOUS
 90
30
 70
0
 10
146.0940165557
 20
101.1365333237
 10
146.1589498437
 20
101.1077210207
 10
146.2226958332
 20
101.0744443034
 10
146.2852548516
 20
101.0367034424
 10
146.3469814145
 20
100.994237162
 10
146.4075221312
 20
100.9473076702
 10
146.4658156731
 20
100.896700632
 10
146.5218979411
 20
100.8422763003
 10
146.5757349731
 20
100.7841760333
 10
146.626160653
 20
100.7236071607
 10
146.6730313417
 20
100.6606204427
 10
146.7164929334
 20
100.5951669969
 10
146.7558133504
 20
100.528304473
 10
146.7910026963
 20
100.4598607667
 10
146.8220531093
 20
100.3900098538
 10
146.8482049376
 20
100.3203279837
 10
146.8693001251
 20
100.2509552448
 10
146.8854981615
 20
100.1817527509
 10
146.8965148331
 20
100.1138775571
 10
146.9022623335
 20
100.0472101157
 10
146.9028291437
 20
99.9818705459
 10
146.8981944099
 20
99.919374509
 10
146.8882660424
 20
99.8599085704
 10
146.873135425
 20
99.8032855833
 10
146.853055841
 20
99.7504597428
 10
146.827860366
 20
99.7014204029
 10
146.7977144552
 20
99.6561769879
 10
146.7633690777
 20
99.6157130579
 10
146.7248334602
 20
99.5801958839
 10
146.7173225411
 20
99.5742126158
  0
LWPOLYLINE
  5
2A2
100
AcDbEntity
  8
ASSI
100
AcDbPolyline
 62
7
  6
CONTINUOUS
 90
30
 70
0
 10
146.0940165557
 20
101.1365333237
 10
146.1589498437
 20
101.1077210207
 10
146.2226958332
 20
101.0744443034
 10
146.2852548516
 20
101.0367034424
 10
146.3469814145
 20
100.994237162
 10
146.4075221312
 20
100.9473076702
 10
146.4658156731
 20
100.896700632
 10
146.5218979411
 20
100.8422763003
 10
146.5757349731
 20
100.7841760333
 10
146.626160653
 20
100.7236071607
 10
146.6730313417
 20
100.6606204427
 10
146.7164929334
 20
100.5951669969
 10
146.7558133504
 20
100.528304473
 10
146.7910026963
 20
100.4598607667
 10
146.8220531093
 20
100.3900098538
 10
146.8482049376
 20
100.3203279837
 10
146.8693001251
 20
100.2509552448
 10
146.8854981615
 20
100.1817527509
 10
146.8965148331
 20
100.1138775571
 10
146.9022623335
 20
100.0472101157
 10
146.9028291437
 20
99.9818705459
 10
146.8981944099
 20
99.919374509
 10
146.8882660424
 20
99.8599085704
 10
146.873135425
 20
99.8032855833
 10
146.853055841
 20
99.7504597428
 10
146.827860366
 20
99.7014204029
 10
146.7977144552
 20
99.6561769879
 10
146.7633690777
 20
99.6157130579
 10
146.7248334602
 20
99.5801958839
 10
146.7173225411
 20
99.5742126158
  0
LWPOLYLINE
  5
2A3
100
AcDbEntity
  8
0
100
AcDbPolyline
 62
253
  6
CONTINUOUS
 90
10
 70
0
 10
126.7428127852
 20
111.4875924902
 10
126.7070489813
 20
111.5065051363
 10
126.6746560883
 20
111.5273270275
 10
126.6459405652
 20
111.5498611746
 10
126.6211740836
 20
111.5738943863
 10
126.6005909469
 20
111.5991992951
 10
126.5843858793
 20
111.6255365105
 10
126.5727121936
 20
111.6526568775
 10
126.5656803456
 20
111.680303808
 10
126.5633567709
 20
111.7077993101
  0
LWPOLYLINE
  5
2A4
100
AcDbEntity
  8
ASSI
100
AcDbPolyline
 62
253
  6
CONTINUOUS
 90
10
 70
0
 10
126.7428127852
 20
111.4875924902
 10
126.7070489813
 20
111.5065051363
 10
126.6746560883
 20
111.5273270275
 10
126.6459405652
 20
111.5498611746
 10
126.6211740836
 20
111.5738943863
 10
126.6005909469
 20
111.5991992951
 10
126.5843858793
 20
111.6255365105
 10
126.5727121936
 20
111.6526568775
 10
126.5656803456
 20
111.680303808
 10
126.5633567709
 20
111.7077993101
  0
LWPOLYLINE
  5
2A5
100
AcDbEntity
  8
0
100
AcDbPolyline
 62
253
  6
CONTINUOUS
 90
85
 70
0
 10
144.5802258207
 20
96.7704766223
 10
144.5798889807
 20
96.7798190318
 10
144.5792045364
 20
96.7892240931
 10
144.5781817485
 20
96.7986916315
 10
144.5768298778
 20
96.808221472
 10
144.575158185
 20
96.8178134396
 10
144.5731759309
 20
96.8274673595
 10
144.5708909231
 20
96.8371812938
 10
144.5683051565
 20
96.8469462522
 10
144.565419173
 20
96.8567514814
 10
144.5622335142
 20
96.8665862283
 10
144.5587487221
 20
96.8764397395
 10
144.5549653384
 20
96.8863012618
 10
144.5508840953
 20
96.8961588762
 10
144.5465064875
 20
96.9059960013
 10
144.5418342001
 20
96.91579489
 10
144.5368669455
 20
96.9255404073
 10
144.5315965456
 20
96.9352278674
 10
144.5260128499
 20
96.944855197
 10
144.5201086245
 20
96.9544143545
 10
144.5138883035
 20
96.9638734261
 10
144.5073592379
 20
96.9731945303
 10
144.5005285195
 20
96.9823446415
 10
144.4934022034
 20
96.9913101591
 10
144.4859860856
 20
97.0000823387
 10
144.4782894378
 20
97.0086510395
 10
144.4703354357
 20
97.0170005345
 10
144.4621507307
 20
97.0251137005
 10
144.4537596554
 20
97.0329753449
 10
144.4451772661
 20
97.0405779995
 10
144.4364163004
 20
97.0479161269
 10
144.427493166
 20
97.0549830474
 10
144.4184389528
 20
97.0617675127
 10
144.4092884208
 20
97.0682571323
 10
144.4000763301
 20
97.0744395158
 10
144.3908374409
 20
97.0803022726
 10
144.3816065134
 20
97.0858330122
 10
144.372411111
 20
97.0910241958
 10
144.3632500111
 20
97.0958876915
 10
144.3541147947
 20
97.1004402191
 10
144.345005011
 20
97.1046942052
 10
144.3359520843
 20
97.1086449041
 10
144.3269954076
 20
97.1122832768
 10
144.3181629896
 20
97.1156046413
 10
144.3094373032
 20
97.1186217425
 10
144.300789437
 20
97.1213516821
 10
144.2921897611
 20
97.1238084209
 10
144.2836057713
 20
97.1259933565
 10
144.2750042446
 20
97.1279047457
 10
144.2663656743
 20
97.1295379004
 10
144.2577254184
 20
97.1308763531
 10
144.2491325508
 20
97.1319006914
 10
144.2406283222
 20
97.1325931986
 10
144.2322226901
 20
97.132942941
 10
144.223917789
 20
97.1329406806
 10
144.2157200589
 20
97.1325768978
 10
144.2076531641
 20
97.1318409456
 10
144.1997450743
 20
97.1307218952
 10
144.1920231629
 20
97.129210003
 10
144.1845124159
 20
97.1273002663
 10
144.1772372227
 20
97.1249888675
 10
144.170218575
 20
97.1222722144
 10
144.1634638744
 20
97.1191476173
 10
144.1569771251
 20
97.115612612
 10
144.1507620339
 20
97.1116678783
 10
144.144821119
 20
97.107326673
 10
144.1391566017
 20
97.1026053968
 10
144.1337707694
 20
97.0975200897
 10
144.1286661752
 20
97.0920853472
 10
144.1238454383
 20
97.0863154041
 10
144.1193112636
 20
97.0802233663
 10
144.1150666977
 20
97.0738178246
 10
144.1111148726
 20
97.0671062413
 10
144.1074592605
 20
97.0600982419
 10
144.1041046941
 20
97.052812105
 10
144.1010563464
 20
97.0452682727
 10
144.09831939
 20
97.0374871871
 10
144.0958989979
 20
97.0294892901
 10
144.0938003428
 20
97.0212950238
 10
144.0920290167
 20
97.0129196524
 10
144.0905922869
 20
97.0043577293
 10
144.0894978398
 20
96.9955986299
 10
144.0887533617
 20
96.9866317298
 10
144.0883665391
 20
96.9774464045
 10
144.0883450582
 20
96.9680320294
  0
LINE
  5
2A6
100
AcDbEntity
  8
0
100
AcDbLine
 62
253
  6
CONTINUOUS
 10
144.1159706119
 20
95.5000941952
 11
144.1483457651
 21
94.036241389
  0
LINE
  5
2A7
100
AcDbEntity
  8
0
100
AcDbLine
 62
253
  6
CONTINUOUS
 10
144.6402293821
 20
93.8386858594
 11
144.6078537763
 21
95.3025382923
  0
LINE
  5
2A8
100
AcDbEntity
  8
0
100
AcDbLine
 62
253
  6
CONTINUOUS
 10
144.0883443946
 20
96.9680321245
 11
144.1159706119
 21
95.5000941952
  0
LINE
  5
2A9
100
AcDbEntity
  8
0
100
AcDbLine
 62
253
  6
CONTINUOUS
 10
144.6078537763
 20
95.3025382923
 11
144.5802271727
 21
96.7704759078
  0
LWPOLYLINE
  5
2AA
100
AcDbEntity
  8
0
100
AcDbPolyline
 62
253
  6
CONTINUOUS
 90
81
 70
0
 10
144.6402277439
 20
93.8386865175
 10
144.6402552928
 20
93.8293614726
 10
144.6399079259
 20
93.8201956729
 10
144.6391863604
 20
93.8112018847
 10
144.6380913134
 20
93.8023928748
 10
144.636623502
 20
93.7937814096
 10
144.6347836433
 20
93.7853802557
 10
144.6325724546
 20
93.7772021796
 10
144.6299906528
 20
93.7692599479
 10
144.627039697
 20
93.761566641
 10
144.6237240132
 20
93.7541365946
 10
144.620048769
 20
93.7469844585
 10
144.6160191323
 20
93.7401248823
 10
144.6116419186
 20
93.7335724285
 10
144.606930535
 20
93.7273413112
 10
144.6019000364
 20
93.7214456576
 10
144.5965654776
 20
93.7158995945
 10
144.5909402044
 20
93.7107146753
 10
144.5850307266
 20
93.7058921577
 10
144.5788418448
 20
93.7014307255
 10
144.5723783596
 20
93.6973290627
 10
144.5656437678
 20
93.6935869464
 10
144.5586363509
 20
93.6902085265
 10
144.5513530863
 20
93.6871990464
 10
144.5437909516
 20
93.6845637491
 10
144.5359513278
 20
93.6823085573
 10
144.5278532087
 20
93.6804421116
 10
144.5195199919
 20
93.678973732
 10
144.5109750747
 20
93.6779127383
 10
144.502240742
 20
93.6772668652
 10
144.4933348285
 20
93.6770375049
 10
144.4842740567
 20
93.6772244643
 10
144.4750751489
 20
93.6778275504
 10
144.4657548909
 20
93.6788455954
 10
144.4563303228
 20
93.6802735339
 10
144.4468185483
 20
93.6821053259
 10
144.437236671
 20
93.6843349315
 10
144.4276017945
 20
93.6869563107
 10
144.4179310225
 20
93.6899634235
 10
144.4082414586
 20
93.6933502301
 10
144.3985502063
 20
93.6971106904
 10
144.3888736055
 20
93.701238256
 10
144.3792249395
 20
93.7057243446
 10
144.3696167279
 20
93.7105598655
 10
144.3600614903
 20
93.715735728
 10
144.3505717461
 20
93.7212428413
 10
144.341160015
 20
93.7270721147
 10
144.3318388165
 20
93.7332144575
 10
144.32262067
 20
93.7396607789
 10
144.3135178266
 20
93.7464020273
 10
144.3045414633
 20
93.7534293077
 10
144.2957024885
 20
93.7607337644
 10
144.2870118106
 20
93.7683065414
 10
144.2784803381
 20
93.7761387829
 10
144.2701189793
 20
93.7842216332
 10
144.2619386429
 20
93.7925462363
 10
144.2539502371
 20
93.8011037365
 10
144.2461650258
 20
93.8098840468
 10
144.238595694
 20
93.8188721566
 10
144.2312552819
 20
93.8280518239
 10
144.2241568299
 20
93.8374068071
 10
144.2173133785
 20
93.8469208644
 10
144.2107379677
 20
93.8565777539
 10
144.2044436381
 20
93.8663612338
 10
144.19844343
 20
93.8762550625
 10
144.1927493299
 20
93.8862429399
 10
144.1873691097
 20
93.896308333
 10
144.1823094873
 20
93.9064346509
 10
144.1775771809
 20
93.9166053025
 10
144.1731789084
 20
93.9268036966
 10
144.1691213881
 20
93.9370132422
 10
144.1654113378
 20
93.9472173483
 10
144.1620554757
 20
93.9573994236
 10
144.1590597016
 20
93.9675432074
 10
144.1564266424
 20
93.9776337595
 10
144.1541581067
 20
93.9876564703
 10
144.1522559032
 20
93.9975967299
 10
144.1507218406
 20
94.0074399285
 10
144.1495577274
 20
94.0171714563
 10
144.1487653724
 20
94.0267767034
 10
144.1483465843
 20
94.03624106
  0
LWPOLYLINE
  5
2AB
100
AcDbEntity
  8
0
100
AcDbPolyline
 62
253
  6
CONTINUOUS
 90
85
 70
0
 10
144.0392899985
 20
112.8434908383
 10
144.0393085337
 20
112.8338876889
 10
144.0396777792
 20
112.8242244318
 10
144.0403883419
 20
112.8145011335
 10
144.0414308289
 20
112.8047178607
 10
144.0427958472
 20
112.79487468
 10
144.0444740039
 20
112.7849716581
 10
144.0464574393
 20
112.7750106902
 10
144.0487444271
 20
112.7650009865
 10
144.0513347741
 20
112.7549535861
 10
144.0542282875
 20
112.7448795277
 10
144.0574247741
 20
112.7347898505
 10
144.0609240409
 20
112.7246955932
 10
144.0647257397
 20
112.7146089895
 10
144.068828901
 20
112.704547051
 10
144.0732324004
 20
112.6945279841
 10
144.0779370241
 20
112.6845673321
 10
144.0829512009
 20
112.6746699864
 10
144.0882852707
 20
112.6648381752
 10
144.093946817
 20
112.6550802266
 10
144.0999323992
 20
112.6454288682
 10
144.1062358203
 20
112.6359229269
 10
144.1128509813
 20
112.6265962414
 10
144.1197721735
 20
112.6174626962
 10
144.1269937859
 20
112.6085311871
 10
144.1345067319
 20
112.5998120066
 10
144.1422880222
 20
112.5913210343
 10
144.1503111917
 20
112.5830755463
 10
144.1585520615
 20
112.5750908606
 10
144.1669955963
 20
112.5673744631
 10
144.1756290468
 20
112.5599318813
 10
144.1844359837
 20
112.5527697775
 10
144.1933852581
 20
112.5458993513
 10
144.2024420411
 20
112.5393329369
 10
144.2115715038
 20
112.5330828686
 10
144.2207388173
 20
112.5271614805
 10
144.2299091529
 20
112.5215811068
 10
144.2390548146
 20
112.516349178
 10
144.248176639
 20
112.5114535098
 10
144.257282596
 20
112.5068770142
 10
144.2663727232
 20
112.5026069265
 10
144.2754153311
 20
112.498647775
 10
144.2843707982
 20
112.4950084113
 10
144.293210895
 20
112.491693337
 10
144.3019529609
 20
112.488689653
 10
144.310625727
 20
112.4859801103
 10
144.3192587583
 20
112.4835506947
 10
144.3278849536
 20
112.4814003318
 10
144.3365380454
 20
112.4795311822
 10
144.345237965
 20
112.4779482819
 10
144.3539494399
 20
112.4766681684
 10
144.3626233969
 20
112.4757102546
 10
144.371218635
 20
112.475092298
 10
144.3797254435
 20
112.4748254346
 10
144.3881419845
 20
112.4749191449
 10
144.3964620663
 20
112.4753831524
 10
144.404662084
 20
112.4762281525
 10
144.4127140794
 20
112.4774650835
 10
144.4205906597
 20
112.479103673
 10
144.4282666952
 20
112.4811488061
 10
144.4357176217
 20
112.4836041572
 10
144.4429223114
 20
112.486473207
 10
144.4498733814
 20
112.4897586605
 10
144.4565668852
 20
112.4934630292
 10
144.4629990712
 20
112.4975855965
 10
144.4691669679
 20
112.5021127345
 10
144.4750677989
 20
112.5070275875
 10
144.4806987317
 20
112.5123136693
 10
144.4860567098
 20
112.5179559715
 10
144.4911386204
 20
112.5239398557
 10
144.495941303
 20
112.5302518423
 10
144.5004614047
 20
112.5368830897
 10
144.5046955247
 20
112.5438259154
 10
144.5086398407
 20
112.5510704073
 10
144.512288846
 20
112.5585977344
 10
144.5156366123
 20
112.5663868359
 10
144.5186772114
 20
112.5744166511
 10
144.5214047151
 20
112.5826661192
 10
144.5238131952
 20
112.5911141794
 10
144.5258964753
 20
112.5997450885
 10
144.5276473854
 20
112.608564373
 10
144.529058507
 20
112.617582877
 10
144.530122422
 20
112.6268114445
 10
144.530831712
 20
112.6362609196
 10
144.5311789586
 20
112.6459421463
  0
LINE
  5
2AC
100
AcDbEntity
  8
0
100
AcDbLine
 62
253
  6
CONTINUOUS
 10
144.0669152557
 20
114.3566899505
 11
144.0392886521
 21
112.8434915575
  0
LINE
  5
2AD
100
AcDbEntity
  8
0
100
AcDbLine
 62
253
  6
CONTINUOUS
 10
144.5311796281
 20
112.645942056
 11
144.5588058454
 21
114.1591401302
  0
LINE
  5
2AE
100
AcDbEntity
  8
0
100
AcDbLine
 62
253
  6
CONTINUOUS
 10
144.0992908615
 20
115.8735834708
 11
144.0669152557
 21
114.3566899505
  0
LINE
  5
2AF
100
AcDbEntity
  8
0
100
AcDbLine
 62
253
  6
CONTINUOUS
 10
144.5588058454
 20
114.1591401302
 11
144.5911809985
 21
115.6760332821
  0
LWPOLYLINE
  5
2B0
100
AcDbEntity
  8
0
100
AcDbPolyline
 62
253
  6
CONTINUOUS
 90
81
 70
0
 10
144.0992924999
 20
115.8735828129
 10
144.0997122838
 20
115.8832742913
 10
144.1005070331
 20
115.8928065653
 10
144.101675394
 20
115.9021663468
 10
144.1032160124
 20
115.9113403474
 10
144.1051275343
 20
115.920315279
 10
144.1074086057
 20
115.9290778533
 10
144.1100578727
 20
115.9376147821
 10
144.1130739813
 20
115.9459127771
 10
144.1164548034
 20
115.9539582098
 10
144.1201951144
 20
115.9617360904
 10
144.1242889158
 20
115.9692310885
 10
144.1287302089
 20
115.9764278739
 10
144.1335113178
 20
115.9833111793
 10
144.1386178569
 20
115.989865989
 10
144.1440337633
 20
115.9960773502
 10
144.1497429739
 20
116.0019303101
 10
144.1557312931
 20
116.0074126192
 10
144.1619919946
 20
116.0125228424
 10
144.1685202191
 20
116.0172622479
 10
144.1753111076
 20
116.0216321038
 10
144.1823610778
 20
116.0256325629
 10
144.1896716539
 20
116.0292593163
 10
144.1972456374
 20
116.0325069394
 10
144.2050858292
 20
116.0353700077
 10
144.2131905071
 20
116.0378423191
 10
144.2215398551
 20
116.0399145595
 10
144.2301095338
 20
116.0415766373
 10
144.2388752035
 20
116.0428184609
 10
144.2478137371
 20
116.0436316055
 10
144.2569068564
 20
116.0440143159
 10
144.2661374956
 20
116.0439665037
 10
144.2754885889
 20
116.0434880807
 10
144.2849430556
 20
116.042579973
 10
144.294483757
 20
116.0412471653
 10
144.3040935393
 20
116.0394956566
 10
144.313755249
 20
116.0373314459
 10
144.3234517324
 20
116.0347605322
 10
144.3331658361
 20
116.0317889145
 10
144.3428804064
 20
116.028422592
 10
144.3525782897
 20
116.0246675636
 10
144.3622431396
 20
116.0205303722
 10
144.371861838
 20
116.0160197355
 10
144.3814220742
 20
116.0111449154
 10
144.3909115371
 20
116.0059151735
 10
144.4003179161
 20
116.0003397714
 10
144.4096289001
 20
115.9944279708
 10
144.4188321784
 20
115.9881890334
 10
144.42791544
 20
115.9816322209
 10
144.4368666482
 20
115.9747667602
 10
144.4456748624
 20
115.96760174
 10
144.4543294161
 20
115.9601462144
 10
144.4628196426
 20
115.9524092372
 10
144.4711348755
 20
115.9443998626
 10
144.4792644483
 20
115.9361271444
 10
144.4871976945
 20
115.9276001368
 10
144.4949239474
 20
115.9188278936
 10
144.5024322393
 20
115.9098207441
 10
144.5097103971
 20
115.9005941186
 10
144.5167459466
 20
115.8911647224
 10
144.5235264133
 20
115.881549261
 10
144.5300393229
 20
115.8717644397
 10
144.5362722012
 20
115.861826964
 10
144.5422125737
 20
115.8517535394
 10
144.5478479662
 20
115.8415608712
 10
144.5531669797
 20
115.8312657409
 10
144.5581625172
 20
115.8208852341
 10
144.562828557
 20
115.8104365122
 10
144.5671590774
 20
115.7999367368
 10
144.5711480569
 20
115.7894030695
 10
144.5747894737
 20
115.7788526718
 10
144.5780773061
 20
115.7683027052
 10
144.5810055327
 20
115.7577703314
 10
144.5835689466
 20
115.7472723789
 10
144.5857656008
 20
115.7368243446
 10
144.5875943634
 20
115.7264413928
 10
144.5890541022
 20
115.7161386873
 10
144.5901436853
 20
115.7059313924
 10
144.5908619805
 20
115.695834672
 10
144.5912078559
 20
115.6858636902
 10
144.5911801794
 20
115.6760336111
  0
LWPOLYLINE
  5
2B1
100
AcDbEntity
  8
SUPERFICI
100
AcDbPolyline
 62
7
  6
CONTINUOUS
 90
34
 70
0
 10
141.7797712364
 20
102.5671230935
 10
141.775839167
 20
102.5636995245
 10
141.7429716043
 20
102.5315897272
 10
141.7135496062
 20
102.4962696366
 10
141.687680843
 20
102.4577887777
 10
141.6652588178
 20
102.4160986067
 10
141.6465198864
 20
102.3716251058
 10
141.6314708872
 20
102.3242020612
 10
141.6201059394
 20
102.2739964899
 10
141.6126417965
 20
102.2219337851
 10
141.6091511457
 20
102.1681250121
 10
141.6095614743
 20
102.1124592567
 10
141.6138711557
 20
102.055528458
 10
141.6221529621
 20
101.9971666538
 10
141.6343339173
 20
101.9375396413
 10
141.650193196
 20
101.8777365169
 10
141.6697483244
 20
101.8178916138
 10
141.6929808085
 20
101.7578697941
 10
141.7196152594
 20
101.6983554999
 10
141.7497354255
 20
101.6392608136
 10
141.7832563369
 20
101.580672634
 10
141.8196491549
 20
101.5235373157
 10
141.8589178148
 20
101.4679321528
 10
141.9010568879
 20
101.4137786023
 10
141.9455232256
 20
101.3617890405
 10
141.9923859156
 20
101.3119496565
 10
142.0415744579
 20
101.2642730781
 10
142.0923362288
 20
101.2195112604
 10
142.1447164921
 20
101.1777100202
 10
142.1986688429
 20
101.1388225834
 10
142.2533031958
 20
101.1034620518
 10
142.3083226416
 20
101.0718326126
 10
142.3640234576
 20
101.0437295473
 10
142.4204054681
 20
101.0191527079
  0
LWPOLYLINE
  5
2B2
100
AcDbEntity
  8
0
100
AcDbPolyline
 62
7
  6
CONTINUOUS
 90
13
 70
0
 10
141.7797628258
 20
102.5671330363
 10
141.7881705217
 20
102.5741605485
 10
141.8310716319
 20
102.6050330527
 10
141.8774591263
 20
102.630652974
 10
141.9274873292
 20
102.6509451423
 10
141.9809996469
 20
102.665982838
 10
142.0368054998
 20
102.6755061119
 10
142.0948603782
 20
102.6794020859
 10
142.1552068456
 20
102.677782021
 10
142.2167849427
 20
102.6707221859
 10
142.2792409648
 20
102.6582476847
 10
142.3429274923
 20
102.6403324813
 10
142.4078441985
 20
102.6169763061
  0
LWPOLYLINE
  5
2B3
100
AcDbEntity
  8
ASSI
100
AcDbPolyline
 62
7
  6
CONTINUOUS
 90
13
 70
0
 10
141.7797628258
 20
102.5671330363
 10
141.7881705217
 20
102.5741605485
 10
141.8310716319
 20
102.6050330527
 10
141.8774591263
 20
102.630652974
 10
141.9274873292
 20
102.6509451423
 10
141.9809996469
 20
102.665982838
 10
142.0368054998
 20
102.6755061119
 10
142.0948603782
 20
102.6794020859
 10
142.1552068456
 20
102.677782021
 10
142.2167849427
 20
102.6707221859
 10
142.2792409648
 20
102.6582476847
 10
142.3429274923
 20
102.6403324813
 10
142.4078441985
 20
102.6169763061
  0
LWPOLYLINE
  5
2B4
100
AcDbEntity
  8
SUPERFICI
100
AcDbPolyline
 62
7
  6
CONTINUOUS
 90
32
 70
0
 10
146.708973918
 20
106.9397114763
 10
146.7292920866
 20
106.9565695855
 10
146.7627469717
 20
106.9891604891
 10
146.792795461
 20
107.0249937712
 10
146.8193298719
 20
107.0640198967
 10
146.8424590605
 20
107.1062893421
 10
146.8619404879
 20
107.1513710601
 10
146.8777707097
 20
107.1994340449
 10
146.8899541279
 20
107.2503100678
 10
146.8982594495
 20
107.3030618259
 10
146.9026120749
 20
107.3575766871
 10
146.9030867784
 20
107.4139674184
 10
146.8996757471
 20
107.4716343482
 10
146.8923083266
 20
107.5307451734
 10
146.8810549672
 20
107.5911320278
 10
146.8661189376
 20
107.6516914337
 10
146.8474793412
 20
107.7122862967
 10
146.8251561068
 20
107.7730529302
 10
146.7994132077
 20
107.8332975408
 10
146.770166707
 20
107.8931078919
 10
146.73749932
 20
107.9523952378
 10
146.7019246264
 20
108.0102007245
 10
146.6634357031
 20
108.0664446101
 10
146.6220379797
 20
108.1212054387
 10
146.5782633013
 20
108.1737615747
 10
146.5320409146
 20
108.2241254644
 10
146.4834401605
 20
108.2722835307
 10
146.4332029318
 20
108.3174750282
 10
146.3812815579
 20
108.3596521686
 10
146.3277225683
 20
108.3988618281
 10
146.2734091962
 20
108.4344852918
 10
146.2186356386
 20
108.4663161508
  0
LINE
  5
2B5
100
AcDbEntity
  8
SUPERFICI
100
AcDbLine
 62
7
  6
CONTINUOUS
 10
141.8115943085
 20
102.5920256275
 11
141.7797712364
 21
102.5671230935
  0
LWPOLYLINE
  5
2B6
100
AcDbEntity
  8
0
100
AcDbPolyline
 62
7
  6
CONTINUOUS
 90
11
 70
0
 10
146.7089593821
 20
106.939729823
 10
146.6732627258
 20
106.9145832784
 10
146.6263400948
 20
106.8885249988
 10
146.5758401858
 20
106.8678464315
 10
146.5219170606
 20
106.8524722219
 10
146.4657672978
 20
106.8426672335
 10
146.4074349361
 20
106.8385439585
 10
146.3468739907
 20
106.8399883333
 10
146.2851460153
 20
106.8469253952
 10
146.2226044761
 20
106.8593298451
 10
146.1588947826
 20
106.8772260719
  0
LWPOLYLINE
  5
2B7
100
AcDbEntity
  8
ASSI
100
AcDbPolyline
 62
7
  6
CONTINUOUS
 90
11
 70
0
 10
146.7089593821
 20
106.939729823
 10
146.6732627258
 20
106.9145832784
 10
146.6263400948
 20
106.8885249988
 10
146.5758401858
 20
106.8678464315
 10
146.5219170606
 20
106.8524722219
 10
146.4657672978
 20
106.8426672335
 10
146.4074349361
 20
106.8385439585
 10
146.3468739907
 20
106.8399883333
 10
146.2851460153
 20
106.8469253952
 10
146.2226044761
 20
106.8593298451
 10
146.1588947826
 20
106.8772260719
  0
LWPOLYLINE
  5
2B8
100
AcDbEntity
  8
0
100
AcDbPolyline
 62
253
  6
CONTINUOUS
 90
10
 70
0
 10
162.5033771576
 20
97.8813074477
 10
161.3806442498
 20
98.2606113308
 10
160.2956910794
 20
98.6345608373
 10
159.2485176463
 20
99.0031559669
 10
158.2397626966
 20
99.3669997079
 10
157.2687874842
 20
99.7254890721
 10
156.333675771
 20
100.0768150954
 10
155.433788811
 20
100.4203747898
 10
154.5697653502
 20
100.7567711431
 10
153.7416053887
 20
101.0860041556
  0
LWPOLYLINE
  5
2B9
100
AcDbEntity
  8
ASSI
100
AcDbPolyline
 62
253
  6
CONTINUOUS
 90
10
 70
0
 10
162.5033771576
 20
97.8813074477
 10
161.3806442498
 20
98.2606113308
 10
160.2956910794
 20
98.6345608373
 10
159.2485176463
 20
99.0031559669
 10
158.2397626966
 20
99.3669997079
 10
157.2687874842
 20
99.7254890721
 10
156.333675771
 20
100.0768150954
 10
155.433788811
 20
100.4203747898
 10
154.5697653502
 20
100.7567711431
 10
153.7416053887
 20
101.0860041556
  0
LWPOLYLINE
  5
2BA
100
AcDbEntity
  8
0
100
AcDbPolyline
 62
7
  6
CONTINUOUS
 90
10
 70
0
 10
153.5587298486
 20
101.4303023252
 10
154.4986218409
 20
101.0583523988
 10
155.5012257985
 20
100.6687965802
 10
156.5002544715
 20
100.2880610186
 10
157.4955722914
 20
99.9161391217
 10
158.4870479467
 20
99.5530143191
 10
159.4745531798
 20
99.1986622022
 10
160.4579381418
 20
98.8530576753
 10
161.4370259376
 20
98.5161763264
 10
162.347671373
 20
98.2093093215
  0
LWPOLYLINE
  5
2BB
100
AcDbEntity
  8
ASSI
100
AcDbPolyline
 62
7
  6
CONTINUOUS
 90
10
 70
0
 10
153.5587298486
 20
101.4303023252
 10
154.4986218409
 20
101.0583523988
 10
155.5012257985
 20
100.6687965802
 10
156.5002544715
 20
100.2880610186
 10
157.4955722914
 20
99.9161391217
 10
158.4870479467
 20
99.5530143191
 10
159.4745531798
 20
99.1986622022
 10
160.4579381418
 20
98.8530576753
 10
161.4370259376
 20
98.5161763264
 10
162.347671373
 20
98.2093093215
  0
LWPOLYLINE
  5
2BC
100
AcDbEntity
  8
0
100
AcDbPolyline
 62
253
  6
CONTINUOUS
 90
10
 70
0
 10
153.4584926121
 20
101.6600359263
 10
154.2926196504
 20
101.3296218535
 10
155.161198394
 20
100.9910138525
 10
156.0647622178
 20
100.6446992619
 10
157.0038532507
 20
100.2912141903
 10
157.9790814112
 20
99.9310970754
 10
158.9911266003
 20
99.564891374
 10
160.0406619164
 20
99.1932110254
 10
161.1283535829
 20
98.8167412435
 10
162.2549209396
 20
98.4361930074
  0
LWPOLYLINE
  5
2BD
100
AcDbEntity
  8
ASSI
100
AcDbPolyline
 62
253
  6
CONTINUOUS
 90
10
 70
0
 10
153.4584926121
 20
101.6600359263
 10
154.2926196504
 20
101.3296218535
 10
155.161198394
 20
100.9910138525
 10
156.0647622178
 20
100.6446992619
 10
157.0038532507
 20
100.2912141903
 10
157.9790814112
 20
99.9310970754
 10
158.9911266003
 20
99.564891374
 10
160.0406619164
 20
99.1932110254
 10
161.1283535829
 20
98.8167412435
 10
162.2549209396
 20
98.4361930074
  0
LINE
  5
2BE
100
AcDbEntity
  8
0
100
AcDbLine
 62
7
  6
CONTINUOUS
 10
151.5921339621
 20
102.2171904071
 11
153.5587303596
 21
101.4303019318
  0
LINE
  5
2BF
100
AcDbEntity
  8
ASSI
100
AcDbLine
 62
7
  6
CONTINUOUS
 10
151.5921339621
 20
102.2171904071
 11
153.5587303596
 21
101.4303019318
  0
LINE
  5
2C0
100
AcDbEntity
  8
0
100
AcDbLine
 62
253
  6
CONTINUOUS
 10
153.4584926121
 20
100.4423410027
 11
151.7015135716
 21
101.1451405211
  0
LINE
  5
2C1
100
AcDbEntity
  8
ASSI
100
AcDbLine
 62
253
  6
CONTINUOUS
 10
153.4584926121
 20
100.4423410027
 11
151.7015135716
 21
101.1451405211
  0
LINE
  5
2C2
100
AcDbEntity
  8
0
100
AcDbLine
 62
253
  6
CONTINUOUS
 10
153.7416053887
 20
101.0860041556
 11
151.1079372904
 21
102.1404293461
  0
LINE
  5
2C3
100
AcDbEntity
  8
ASSI
100
AcDbLine
 62
253
  6
CONTINUOUS
 10
153.7416053887
 20
101.0860041556
 11
151.1079372904
 21
102.1404293461
  0
LINE
  5
2C4
100
AcDbEntity
  8
0
100
AcDbLine
 62
253
  6
CONTINUOUS
 10
149.942788594
 20
103.0687739657
 11
153.4584926121
 21
101.6600359263
  0
LINE
  5
2C5
100
AcDbEntity
  8
ASSI
100
AcDbLine
 62
253
  6
CONTINUOUS
 10
149.942788594
 20
103.0687739657
 11
153.4584926121
 21
101.6600359263
  0
LINE
  5
2C6
100
AcDbEntity
  8
0
100
AcDbLine
 62
253
  6
CONTINUOUS
 10
151.7015135716
 20
101.1451405211
 11
149.0693069186
 21
102.2021585062
  0
LINE
  5
2C7
100
AcDbEntity
  8
ASSI
100
AcDbLine
 62
253
  6
CONTINUOUS
 10
151.7015135716
 20
101.1451405211
 11
149.0693069186
 21
102.2021585062
  0
LWPOLYLINE
  5
2C8
100
AcDbEntity
  8
0
100
AcDbPolyline
 62
253
  6
CONTINUOUS
 90
3
 70
0
 10
149.0693069186
 20
102.2021585062
 10
147.3155692871
 20
102.9077869768
 10
137.6597827052
 20
106.7841360475
  0
LWPOLYLINE
  5
2C9
100
AcDbEntity
  8
ASSI
100
AcDbPolyline
 62
253
  6
CONTINUOUS
 90
3
 70
0
 10
149.0693069186
 20
102.2021585062
 10
147.3155692871
 20
102.9077869768
 10
137.6597827052
 20
106.7841360475
  0
LWPOLYLINE
  5
2CA
100
AcDbEntity
  8
0
100
AcDbPolyline
 62
7
  6
CONTINUOUS
 90
3
 70
0
 10
143.402892399
 20
105.5088826006
 10
147.5159218591
 20
103.8555117914
 10
151.5921339621
 20
102.2171904071
  0
LWPOLYLINE
  5
2CB
100
AcDbEntity
  8
ASSI
100
AcDbPolyline
 62
7
  6
CONTINUOUS
 90
3
 70
0
 10
143.402892399
 20
105.5088826006
 10
147.5159218591
 20
103.8555117914
 10
151.5921339621
 20
102.2171904071
  0
LINE
  5
2CC
100
AcDbEntity
  8
0
100
AcDbLine
 62
253
  6
CONTINUOUS
 10
144.6787960308
 20
105.1861139337
 11
149.942788594
 21
103.0687739657
  0
LINE
  5
2CD
100
AcDbEntity
  8
ASSI
100
AcDbLine
 62
253
  6
CONTINUOUS
 10
144.6787960308
 20
105.1861139337
 11
149.942788594
 21
103.0687739657
  0
LWPOLYLINE
  5
2CE
100
AcDbEntity
  8
0
100
AcDbPolyline
 62
253
  6
CONTINUOUS
 90
3
 70
0
 10
137.6597827052
 20
106.7841360475
 10
135.9045279382
 20
107.4906329171
 10
135.0275716156
 20
107.8446143903
  0
LWPOLYLINE
  5
2CF
100
AcDbEntity
  8
ASSI
100
AcDbPolyline
 62
253
  6
CONTINUOUS
 90
3
 70
0
 10
137.6597827052
 20
106.7841360475
 10
135.9045279382
 20
107.4906329171
 10
135.0275716156
 20
107.8446143903
  0
LWPOLYLINE
  5
2D0
100
AcDbEntity
  8
0
100
AcDbPolyline
 62
253
  6
CONTINUOUS
 90
3
 70
0
 10
151.1079372904
 20
102.1404293461
 10
136.189728663
 20
108.1336562091
 10
135.3130266063
 20
108.4873368572
  0
LWPOLYLINE
  5
2D1
100
AcDbEntity
  8
ASSI
100
AcDbPolyline
 62
253
  6
CONTINUOUS
 90
3
 70
0
 10
151.1079372904
 20
102.1404293461
 10
136.189728663
 20
108.1336562091
 10
135.3130266063
 20
108.4873368572
  0
LWPOLYLINE
  5
2D2
100
AcDbEntity
  8
0
100
AcDbPolyline
 62
7
  6
CONTINUOUS
 90
3
 70
0
 10
135.1282165831
 20
108.8324117918
 10
137.1590380075
 20
108.013801398
 10
143.402892399
 20
105.5088826006
  0
LWPOLYLINE
  5
2D3
100
AcDbEntity
  8
ASSI
100
AcDbPolyline
 62
7
  6
CONTINUOUS
 90
3
 70
0
 10
135.1282165831
 20
108.8324117918
 10
137.1590380075
 20
108.013801398
 10
143.402892399
 20
105.5088826006
  0
LWPOLYLINE
  5
2D4
100
AcDbEntity
  8
0
100
AcDbPolyline
 62
253
  6
CONTINUOUS
 90
3
 70
0
 10
135.0275716156
 20
109.0623093139
 10
135.9034663554
 20
108.7087937077
 10
144.6787960308
 20
105.1861139337
  0
LWPOLYLINE
  5
2D5
100
AcDbEntity
  8
ASSI
100
AcDbPolyline
 62
253
  6
CONTINUOUS
 90
3
 70
0
 10
135.0275716156
 20
109.0623093139
 10
135.9034663554
 20
108.7087937077
 10
144.6787960308
 20
105.1861139337
  0
LWPOLYLINE
  5
2D6
100
AcDbEntity
  8
0
100
AcDbPolyline
 62
253
  6
CONTINUOUS
 90
6
 70
0
 10
135.3130266063
 20
108.4873368572
 10
134.4883772546
 20
108.821942506
 10
133.6401044092
 20
109.1732766012
 10
132.7682080702
 20
109.5413391426
 10
131.8719431577
 20
109.9255815335
 10
130.9520547515
 20
110.3265523707
  0
LWPOLYLINE
  5
2D7
100
AcDbEntity
  8
ASSI
100
AcDbPolyline
 62
253
  6
CONTINUOUS
 90
6
 70
0
 10
135.3130266063
 20
108.4873368572
 10
134.4883772546
 20
108.821942506
 10
133.6401044092
 20
109.1732766012
 10
132.7682080702
 20
109.5413391426
 10
131.8719431577
 20
109.9255815335
 10
130.9520547515
 20
110.3265523707
  0
LWPOLYLINE
  5
2D8
100
AcDbEntity
  8
0
100
AcDbPolyline
 62
253
  6
CONTINUOUS
 90
10
 70
0
 10
135.0275716156
 20
107.8446143903
 10
134.2010277541
 20
108.1812402379
 10
133.3493997434
 20
108.5337334664
 10
132.4733040089
 20
108.9025485985
 10
131.573419677
 20
109.2881499194
 10
130.6504350862
 20
109.6910624613
 10
129.7050514463
 20
110.1118741069
 10
128.7380593084
 20
110.5511698688
 10
127.7503398933
 20
111.0095321247
 10
126.7428127994
 20
111.4875924354
  0
LWPOLYLINE
  5
2D9
100
AcDbEntity
  8
ASSI
100
AcDbPolyline
 62
253
  6
CONTINUOUS
 90
10
 70
0
 10
135.0275716156
 20
107.8446143903
 10
134.2010277541
 20
108.1812402379
 10
133.3493997434
 20
108.5337334664
 10
132.4733040089
 20
108.9025485985
 10
131.573419677
 20
109.2881499194
 10
130.6504350862
 20
109.6910624613
 10
129.7050514463
 20
110.1118741069
 10
128.7380593084
 20
110.5511698688
 10
127.7503398933
 20
111.0095321247
 10
126.7428127994
 20
111.4875924354
  0
LWPOLYLINE
  5
2DA
100
AcDbEntity
  8
0
100
AcDbPolyline
 62
253
  6
CONTINUOUS
 90
5
 70
0
 10
130.9520547515
 20
110.3265523707
 10
130.0107780906
 20
110.7458974447
 10
129.0488582547
 20
111.1841653522
 10
128.0655501641
 20
111.6408074964
 10
127.0608538187
 20
112.1158238773
  0
LWPOLYLINE
  5
2DB
100
AcDbEntity
  8
ASSI
100
AcDbPolyline
 62
253
  6
CONTINUOUS
 90
5
 70
0
 10
130.9520547515
 20
110.3265523707
 10
130.0107780906
 20
110.7458974447
 10
129.0488582547
 20
111.1841653522
 10
128.0655501641
 20
111.6408074964
 10
127.0608538187
 20
112.1158238773
  0
LWPOLYLINE
  5
2DC
100
AcDbEntity
  8
0
100
AcDbPolyline
 62
253
  6
CONTINUOUS
 90
10
 70
0
 10
126.7428128011
 20
112.6986562347
 10
127.75222784
 20
112.2212207515
 10
128.7413906171
 20
111.7635165941
 10
129.7093679357
 20
111.3249032107
 10
130.6552665702
 20
110.9047723535
 10
131.5782848105
 20
110.5025491026
 10
132.4777110316
 20
110.1176915831
 10
133.3528480192
 20
109.7496861485
 10
134.2030092451
 20
109.398045254
 10
135.0275716156
 20
109.0623093139
  0
LWPOLYLINE
  5
2DD
100
AcDbEntity
  8
ASSI
100
AcDbPolyline
 62
253
  6
CONTINUOUS
 90
10
 70
0
 10
126.7428128011
 20
112.6986562347
 10
127.75222784
 20
112.2212207515
 10
128.7413906171
 20
111.7635165941
 10
129.7093679357
 20
111.3249032107
 10
130.6552665702
 20
110.9047723535
 10
131.5782848105
 20
110.5025491026
 10
132.4777110316
 20
110.1176915831
 10
133.3528480192
 20
109.7496861485
 10
134.2030092451
 20
109.398045254
 10
135.0275716156
 20
109.0623093139
  0
LWPOLYLINE
  5
2DE
100
AcDbEntity
  8
0
100
AcDbPolyline
 62
7
  6
CONTINUOUS
 90
10
 70
0
 10
126.8476021975
 20
112.4670814247
 10
127.6560360817
 20
112.0838501921
 10
128.5422261636
 20
111.6715221879
 10
129.444268367
 20
111.2598294101
 10
130.3621448287
 20
110.8488743208
 10
131.2958478395
 20
110.4387452048
 10
132.2453765421
 20
110.0295181756
 10
133.2107157993
 20
109.6212685151
 10
134.191832411
 20
109.2140705479
 10
135.1282179125
 20
108.8324114295
  0
LWPOLYLINE
  5
2DF
100
AcDbEntity
  8
ASSI
100
AcDbPolyline
 62
7
  6
CONTINUOUS
 90
10
 70
0
 10
126.8476021975
 20
112.4670814247
 10
127.6560360817
 20
112.0838501921
 10
128.5422261636
 20
111.6715221879
 10
129.444268367
 20
111.2598294101
 10
130.3621448287
 20
110.8488743208
 10
131.2958478395
 20
110.4387452048
 10
132.2453765421
 20
110.0295181756
 10
133.2107157993
 20
109.6212685151
 10
134.191832411
 20
109.2140705479
 10
135.1282179125
 20
108.8324114295
  0
LWPOLYLINE
  5
2E0
100
AcDbEntity
  8
0
100
AcDbPolyline
 62
7
  6
CONTINUOUS
 90
7
 70
0
 10
126.8474680191
 20
112.4671456314
 10
126.8367956578
 20
112.4724114906
 10
126.7977403738
 20
112.4945227182
 10
126.7609131015
 20
112.5199800881
 10
126.7263382317
 20
112.5487868114
 10
126.6943458252
 20
112.5807471382
 10
126.6652836213
 20
112.6155833662
  0
LWPOLYLINE
  5
2E1
100
AcDbEntity
  8
ASSI
100
AcDbPolyline
 62
7
  6
CONTINUOUS
 90
7
 70
0
 10
126.8474680191
 20
112.4671456314
 10
126.8367956578
 20
112.4724114906
 10
126.7977403738
 20
112.4945227182
 10
126.7609131015
 20
112.5199800881
 10
126.7263382317
 20
112.5487868114
 10
126.6943458252
 20
112.5807471382
 10
126.6652836213
 20
112.6155833662
  0
LWPOLYLINE
  5
2E2
100
AcDbEntity
  8
0
100
AcDbPolyline
 62
253
  6
CONTINUOUS
 90
55
 70
0
 10
147.2483877782
 20
94.2406007463
 10
147.2488648455
 20
94.1595583201
 10
147.2469737322
 20
94.0794838067
 10
147.2427106287
 20
94.0004404946
 10
147.2360717253
 20
93.9224916723
 10
147.2270532125
 20
93.8457006282
 10
147.2156534244
 20
93.7701334294
 10
147.2018792709
 20
93.6958672564
 10
147.1857398055
 20
93.6229820684
 10
147.1672440819
 20
93.5515578245
 10
147.1464011537
 20
93.4816744838
 10
147.1232276221
 20
93.4134130531
 10
147.0977702774
 20
93.3468587303
 10
147.0700834578
 20
93.2820977609
 10
147.0402215013
 20
93.2192163905
 10
147.0082387457
 20
93.1583008647
 10
146.9741793292
 20
93.0994186718
 10
146.9380465899
 20
93.0425622711
 10
146.8998336658
 20
92.9877053649
 10
146.8595336951
 20
92.9348216554
 10
146.8171398161
 20
92.8838848446
 10
146.7726366408
 20
92.8348766704
 10
146.7259746783
 20
92.7878110127
 10
146.6770959114
 20
92.742709787
 10
146.625942323
 20
92.6995949088
 10
146.5724558961
 20
92.6584882936
 10
146.5165833155
 20
92.6194227101
 10
146.4582900731
 20
92.58247434
 10
146.3975463626
 20
92.5477302179
 10
146.3343223779
 20
92.5152773788
 10
146.2685883127
 20
92.4852028574
 10
146.2118628645
 20
92.4620229674
 10
146.1533075515
 20
92.4406213918
 10
146.0928563191
 20
92.4210643944
 10
146.0304431128
 20
92.4034182393
 10
145.9660018779
 20
92.3877491904
 10
145.8994665599
 20
92.3741235116
 10
145.8307868919
 20
92.3626169371
 10
145.7599757571
 20
92.353343081
 10
145.6870618267
 20
92.3464250279
 10
145.6120737715
 20
92.341985862
 10
145.5350402627
 20
92.3401486678
 10
145.4559899711
 20
92.3410365297
 10
145.3749970552
 20
92.3447498893
 10
145.292317623
 20
92.3512986177
 10
145.2082532699
 20
92.3606699435
 10
145.1231055912
 20
92.372851095
 10
145.0371761825
 20
92.3878293007
 10
144.950766639
 20
92.405591789
 10
144.8641295613
 20
92.4261220526
 10
144.7773215704
 20
92.4493886408
 10
144.6903502924
 20
92.4753563672
 10
144.6032233534
 20
92.5039900452
 10
144.5159483794
 20
92.5352544886
 10
144.4285329966
 20
92.5691145108
  0
LWPOLYLINE
  5
2E3
100
AcDbEntity
  8
0
100
AcDbPolyline
 62
253
  6
CONTINUOUS
 90
51
 70
0
 10
147.7391848924
 20
94.0431928186
 10
147.7396220952
 20
93.9339534117
 10
147.7363768204
 20
93.8261653428
 10
147.7294288773
 20
93.7199344407
 10
147.7187580754
 20
93.6153665346
 10
147.7043511561
 20
93.512580806
 10
147.6862225879
 20
93.4117498466
 10
147.6643937712
 20
93.3130596003
 10
147.6388861063
 20
93.2166960114
 10
147.6097304162
 20
93.1228377225
 10
147.5769952143
 20
93.0316341703
 10
147.5407584368
 20
92.9432274904
 10
147.5010980197
 20
92.8577598181
 10
147.4580909909
 20
92.7753559046
 10
147.4118107458
 20
92.6960709636
 10
147.3623297715
 20
92.6199428248
 10
147.3097205554
 20
92.5470093176
 10
147.254029973
 20
92.4772939669
 10
147.1952024532
 20
92.4107630778
 10
147.1331568135
 20
92.347368651
 10
147.0678118712
 20
92.287062687
 10
147.0131075511
 20
92.2410227417
 10
146.9562082732
 20
92.1969844471
 10
146.8970825901
 20
92.1550035575
 10
146.8356990546
 20
92.1151358272
 10
146.7720262194
 20
92.0774370105
 10
146.7060360489
 20
92.0419659124
 10
146.637714154
 20
92.008793541
 10
146.5670495576
 20
91.9779939552
 10
146.4940312823
 20
91.9496412138
 10
146.4186483509
 20
91.9238093758
 10
146.3408700507
 20
91.9005783281
 10
146.2605867276
 20
91.8800512696
 10
146.177668992
 20
91.8623372274
 10
146.0919874544
 20
91.8475452287
 10
146.0034127253
 20
91.8357843003
 10
145.9118666249
 20
91.827171266
 10
145.8174758123
 20
91.8218541356
 10
145.7204181564
 20
91.8199887156
 10
145.6208715258
 20
91.8217308125
 10
145.5190137895
 20
91.8272362325
 10
145.4150599502
 20
91.8366252478
 10
145.3093735464
 20
91.8498759925
 10
145.2023552504
 20
91.8669310662
 10
145.0944057349
 20
91.8877330686
 10
144.9859256721
 20
91.9122245992
 10
144.8772528712
 20
91.9403484636
 10
144.7684736877
 20
91.9720482904
 10
144.6596116138
 20
92.0072679137
 10
144.5506901415
 20
92.0459511681
 10
144.4417327631
 20
92.0880418878
  0
LWPOLYLINE
  5
2E4
100
AcDbEntity
  8
0
100
AcDbPolyline
 62
253
  6
CONTINUOUS
 90
55
 70
0
 10
147.2002051412
 20
113.0975305246
 10
147.1973236872
 20
113.0131794058
 10
147.1920458567
 20
112.9298730381
 10
147.1843787419
 20
112.8476804
 10
147.1743294351
 20
112.7666704701
 10
147.1619050286
 20
112.6869122272
 10
147.1471126147
 20
112.6084746498
 10
147.1299609135
 20
112.5314252396
 10
147.1104651574
 20
112.4558255897
 10
147.0886422064
 20
112.3817358164
 10
147.0645089208
 20
112.3092160358
 10
147.0380821608
 20
112.2383263641
 10
147.0093787865
 20
112.1691269175
 10
146.9784174949
 20
112.1016760659
 10
146.9452243304
 20
112.036025194
 10
146.909827174
 20
111.9722239399
 10
146.8722539067
 20
111.9103219421
 10
146.8325324097
 20
111.8503688389
 10
146.7906905639
 20
111.7924142686
 10
146.7467535512
 20
111.7365060826
 10
146.7007357557
 20
111.6826849849
 10
146.6526488623
 20
111.6309898928
 10
146.6025045558
 20
111.5814597233
 10
146.550314521
 20
111.5341333936
 10
146.4960904429
 20
111.4890498208
 10
146.4398595792
 20
111.4462520121
 10
146.3817114798
 20
111.405799334
 10
146.3217512674
 20
111.3677552431
 10
146.2600840649
 20
111.332183196
 10
146.1968149951
 20
111.2991466491
 10
146.1320491807
 20
111.2687090592
 10
146.0658806465
 20
111.240921697
 10
145.9983590253
 20
111.2157870915
 10
145.9295228516
 20
111.1932955857
 10
145.8594106601
 20
111.1734375227
 10
145.7880609854
 20
111.1562032459
 10
145.7155123623
 20
111.1415830982
 10
145.6418009262
 20
111.1295719283
 10
145.5669532166
 20
111.1201826067
 10
145.4909933739
 20
111.1134325091
 10
145.4139455384
 20
111.1093390113
 10
145.3358338505
 20
111.1079194893
 10
145.2566824506
 20
111.1091913187
 10
145.1765344103
 20
111.1131659949
 10
145.0955085273
 20
111.1198314903
 10
145.0137425305
 20
111.1291698967
 10
144.9313741487
 20
111.1411633061
 10
144.8485411109
 20
111.1557938103
 10
144.765381146
 20
111.1730435012
 10
144.6820172695
 20
111.1928917854
 10
144.5985136426
 20
111.2153073286
 10
144.5149197133
 20
111.2402561113
 10
144.4312849294
 20
111.2677041142
 10
144.3476587389
 20
111.2976173177
 10
144.2640905894
 20
111.3299617024
  0
LWPOLYLINE
  5
2E5
100
AcDbEntity
  8
0
100
AcDbPolyline
 62
253
  6
CONTINUOUS
 90
51
 70
0
 10
147.691003738
 20
112.9001202169
 10
147.6872541655
 20
112.7936833791
 10
147.6802420187
 20
112.6886509123
 10
147.6699780461
 20
112.585130577
 10
147.6564729963
 20
112.4832301336
 10
147.6397376175
 20
112.3830573424
 10
147.6197824222
 20
112.2847149501
 10
147.5966169781
 20
112.1882856486
 10
147.5702506168
 20
112.093847116
 10
147.5406926699
 20
112.0014770303
 10
147.5079524689
 20
111.9112530698
 10
147.4720496851
 20
111.8232607269
 10
147.4330453485
 20
111.7376167519
 10
147.3910108286
 20
111.6544457096
 10
147.3460174951
 20
111.5738721647
 10
147.2981367176
 20
111.496020682
 10
147.2474252958
 20
111.420994859
 10
147.1938817495
 20
111.3488144241
 10
147.1374900288
 20
111.2794781385
 10
147.0782340836
 20
111.2129847635
 10
147.0160978641
 20
111.1493330604
 10
146.951084708
 20
111.0885426409
 10
146.883275504
 20
111.0307165195
 10
146.8127705287
 20
110.9759785611
 10
146.7396700585
 20
110.9244526307
 10
146.6640743702
 20
110.8762625934
 10
146.5860946877
 20
110.8315174507
 10
146.5058860257
 20
110.7902667509
 10
146.4236143465
 20
110.7525451789
 10
146.3394456124
 20
110.7183874195
 10
146.2535457855
 20
110.6878281576
 10
146.166047999
 20
110.6608934791
 10
146.0769540684
 20
110.6375750737
 10
145.9862329805
 20
110.6178560321
 10
145.8938537216
 20
110.6017194451
 10
145.7997852783
 20
110.5891484036
 10
145.7040213856
 20
110.580134428
 10
145.6066547727
 20
110.5747027586
 10
145.5078029174
 20
110.5728870656
 10
145.4075832974
 20
110.574721019
 10
145.3061133905
 20
110.5802382888
 10
145.2035218647
 20
110.5894599956
 10
145.0999821499
 20
110.6023570615
 10
144.9956788663
 20
110.6188878588
 10
144.8907966339
 20
110.6390107601
 10
144.7855200729
 20
110.6626841377
 10
144.6800162182
 20
110.6898648777
 10
144.5743817639
 20
110.7205039198
 10
144.4686958186
 20
110.7545507173
 10
144.3630374911
 20
110.7919547234
 10
144.2574858901
 20
110.8326653915
  0
LINE
  5
2E6
100
AcDbEntity
  8
0
100
AcDbLine
 62
7
  6
CONTINUOUS
 10
149.6757628278
 20
123.9108239805
 11
149.6146105723
 21
123.48382327
  0
LINE
  5
2E7
100
AcDbEntity
  8
ASSI
100
AcDbLine
 62
7
  6
CONTINUOUS
 10
149.6757628278
 20
123.9108239805
 11
149.6146105723
 21
123.48382327
  0
LINE
  5
2E8
100
AcDbEntity
  8
0
100
AcDbLine
 62
7
  6
CONTINUOUS
 10
146.1588947826
 20
106.8772260719
 11
146.0940166079
 21
106.9006138103
  0
LINE
  5
2E9
100
AcDbEntity
  8
ASSI
100
AcDbLine
 62
7
  6
CONTINUOUS
 10
146.1588947826
 20
106.8772260719
 11
146.0940166079
 21
106.9006138103
  0
LWPOLYLINE
  5
2EA
100
AcDbEntity
  8
SUPERFICI
100
AcDbPolyline
 62
7
  6
CONTINUOUS
 90
13
 70
0
 10
142.4204053716
 20
109.9997661796
 10
142.3641007694
 20
110.0203315003
 10
142.3084770038
 20
110.036745141
 10
142.2535342494
 20
110.0490072407
 10
142.1989880898
 20
110.0571520975
 10
142.1451235695
 20
110.061145914
 10
142.0927951856
 20
110.0608867917
 10
142.0420189512
 20
110.0562852704
 10
141.9927799956
 20
110.0474317233
 10
141.9458865295
 20
110.034494034
 10
141.9014430286
 20
110.0174407876
 10
141.8593464173
 20
109.9963045197
 10
141.8200934905
 20
109.9713489694
  0
LWPOLYLINE
  5
2EB
100
AcDbEntity
  8
SUPERFICI
100
AcDbPolyline
 62
7
  6
CONTINUOUS
 90
14
 70
0
 10
146.0939499097
 20
106.9006335983
 10
146.1502646837
 20
106.8799883102
 10
146.2058663179
 20
106.8634897029
 10
146.2607550051
 20
106.8511379331
 10
146.3152087772
 20
106.8429005045
 10
146.3689502665
 20
106.8388104514
 10
146.4211466963
 20
106.8389663306
 10
146.4717893345
 20
106.843456425
 10
146.5208880847
 20
106.8521933981
 10
146.5676381559
 20
106.8650124034
 10
146.6119365176
 20
106.8819461196
 10
146.6538876152
 20
106.9029630088
 10
146.6929977737
 20
106.927801819
 10
146.708973918
 20
106.9397114763
  0
LINE
  5
2EC
100
AcDbEntity
  8
0
100
AcDbLine
 62
7
  6
CONTINUOUS
 10
165.0339504802
 20
99.9839052773
 11
165.1270178722
 21
99.9465273145
  0
LINE
  5
2ED
100
AcDbEntity
  8
ASSI
100
AcDbLine
 62
7
  6
CONTINUOUS
 10
165.0339504802
 20
99.9839052773
 11
165.1270178722
 21
99.9465273145
  0
LINE
  5
2EE
100
AcDbEntity
  8
SUPERFICI
100
AcDbLine
 62
7
  6
CONTINUOUS
 10
142.4079107601
 20
108.3810300205
 11
146.0939499097
 21
106.9006335983
  0
LINE
  5
2EF
100
AcDbEntity
  8
0
100
AcDbLine
 62
7
  6
CONTINUOUS
 10
146.0940166079
 20
106.9006138103
 11
142.4078441644
 21
108.381056722
  0
LINE
  5
2F0
100
AcDbEntity
  8
ASSI
100
AcDbLine
 62
7
  6
CONTINUOUS
 10
146.0940166079
 20
106.9006138103
 11
142.4078441644
 21
108.381056722
  0
LINE
  5
2F1
100
AcDbEntity
  8
SUPERFICI
100
AcDbLine
 62
7
  6
CONTINUOUS
 10
146.1068233041
 20
108.5192176296
 11
142.4204053716
 21
109.9997661796
  0
LINE
  5
2F2
100
AcDbEntity
  8
0
100
AcDbLine
 62
7
  6
CONTINUOUS
 10
142.4205124796
 20
109.99973457
 11
146.1067165283
 21
108.5192605828
  0
LINE
  5
2F3
100
AcDbEntity
  8
ASSI
100
AcDbLine
 62
7
  6
CONTINUOUS
 10
142.4205124796
 20
109.99973457
 11
146.1067165283
 21
108.5192605828
  0
LWPOLYLINE
  5
2F4
100
AcDbEntity
  8
0
100
AcDbPolyline
 62
7
  6
CONTINUOUS
 90
29
 70
0
 10
142.4078441644
 20
108.381056722
 10
142.3428725043
 20
108.4098375924
 10
142.2791497902
 20
108.4431333758
 10
142.2166763496
 20
108.480944338
 10
142.15509972
 20
108.5235334366
 10
142.0947734886
 20
108.5706386245
 10
142.0367572603
 20
108.6214728247
 10
141.9810185225
 20
108.6761785598
 10
141.9275917265
 20
108.7346148725
 10
141.8776369296
 20
108.7955694699
 10
141.8313002304
 20
108.8589936065
 10
141.7884377853
 20
108.9249378445
 10
141.7497744775
 20
108.9923386407
 10
141.7153047424
 20
109.0613718176
 10
141.6850363865
 20
109.1318633542
 10
141.6597137223
 20
109.2022244358
 10
141.6394953151
 20
109.272315391
 10
141.6242240331
 20
109.3422770377
 10
141.6141697637
 20
109.4109405853
 10
141.6094235123
 20
109.4784282018
 10
141.609894948
 20
109.5446182528
 10
141.6155808826
 20
109.6079753831
 10
141.6265703599
 20
109.6683105319
 10
141.6427736302
 20
109.7258121848
 10
141.6639182409
 20
109.7795104441
 10
141.6901711631
 20
109.8294159941
 10
141.7213639567
 20
109.8755169652
 10
141.7567201684
 20
109.9168089221
 10
141.787501732
 20
109.9458280268
  0
LWPOLYLINE
  5
2F5
100
AcDbEntity
  8
ASSI
100
AcDbPolyline
 62
7
  6
CONTINUOUS
 90
29
 70
0
 10
142.4078441644
 20
108.381056722
 10
142.3428725043
 20
108.4098375924
 10
142.2791497902
 20
108.4431333758
 10
142.2166763496
 20
108.480944338
 10
142.15509972
 20
108.5235334366
 10
142.0947734886
 20
108.5706386245
 10
142.0367572603
 20
108.6214728247
 10
141.9810185225
 20
108.6761785598
 10
141.9275917265
 20
108.7346148725
 10
141.8776369296
 20
108.7955694699
 10
141.8313002304
 20
108.8589936065
 10
141.7884377853
 20
108.9249378445
 10
141.7497744775
 20
108.9923386407
 10
141.7153047424
 20
109.0613718176
 10
141.6850363865
 20
109.1318633542
 10
141.6597137223
 20
109.2022244358
 10
141.6394953151
 20
109.272315391
 10
141.6242240331
 20
109.3422770377
 10
141.6141697637
 20
109.4109405853
 10
141.6094235123
 20
109.4784282018
 10
141.609894948
 20
109.5446182528
 10
141.6155808826
 20
109.6079753831
 10
141.6265703599
 20
109.6683105319
 10
141.6427736302
 20
109.7258121848
 10
141.6639182409
 20
109.7795104441
 10
141.6901711631
 20
109.8294159941
 10
141.7213639567
 20
109.8755169652
 10
141.7567201684
 20
109.9168089221
 10
141.787501732
 20
109.9458280268
  0
LWPOLYLINE
  5
2F6
100
AcDbEntity
  8
0
100
AcDbPolyline
 62
7
  6
CONTINUOUS
 90
30
 70
0
 10
146.1067165283
 20
108.5192605828
 10
146.171606759
 20
108.4904220677
 10
146.2352313321
 20
108.457052781
 10
146.2975905484
 20
108.4191529624
 10
146.3590370242
 20
108.3764590917
 10
146.4192192161
 20
108.329235545
 10
146.4770813913
 20
108.2782745727
 10
146.5326574194
 20
108.2234354206
 10
146.58591533
 20
108.1648603616
 10
146.6357006484
 20
108.1037662013
 10
146.6818696632
 20
108.0402034363
 10
146.7245683285
 20
107.974123367
 10
146.7630764231
 20
107.9065938103
 10
146.7974013171
 20
107.8374403479
 10
146.8275378968
 20
107.7668392099
 10
146.8527466046
 20
107.6963836986
 10
146.872870518
 20
107.6262149523
 10
146.8880680359
 20
107.5561930236
 10
146.8980717149
 20
107.4874888908
 10
146.9027912281
 20
107.4199811466
 10
146.902317633
 20
107.3537917932
 10
146.8966544952
 20
107.2904560679
 10
146.8857122208
 20
107.2301626355
 10
146.869579754
 20
107.1727223175
 10
146.8485273897
 20
107.1191027194
 10
146.8223870893
 20
107.0692922263
 10
146.7913254655
 20
107.0233013129
 10
146.756113894
 20
106.9821299977
 10
146.71676441
 20
106.9459477439
 10
146.7089593821
 20
106.939729823
  0
LWPOLYLINE
  5
2F7
100
AcDbEntity
  8
ASSI
100
AcDbPolyline
 62
7
  6
CONTINUOUS
 90
30
 70
0
 10
146.1067165283
 20
108.5192605828
 10
146.171606759
 20
108.4904220677
 10
146.2352313321
 20
108.457052781
 10
146.2975905484
 20
108.4191529624
 10
146.3590370242
 20
108.3764590917
 10
146.4192192161
 20
108.329235545
 10
146.4770813913
 20
108.2782745727
 10
146.5326574194
 20
108.2234354206
 10
146.58591533
 20
108.1648603616
 10
146.6357006484
 20
108.1037662013
 10
146.6818696632
 20
108.0402034363
 10
146.7245683285
 20
107.974123367
 10
146.7630764231
 20
107.9065938103
 10
146.7974013171
 20
107.8374403479
 10
146.8275378968
 20
107.7668392099
 10
146.8527466046
 20
107.6963836986
 10
146.872870518
 20
107.6262149523
 10
146.8880680359
 20
107.5561930236
 10
146.8980717149
 20
107.4874888908
 10
146.9027912281
 20
107.4199811466
 10
146.902317633
 20
107.3537917932
 10
146.8966544952
 20
107.2904560679
 10
146.8857122208
 20
107.2301626355
 10
146.869579754
 20
107.1727223175
 10
146.8485273897
 20
107.1191027194
 10
146.8223870893
 20
107.0692922263
 10
146.7913254655
 20
107.0233013129
 10
146.756113894
 20
106.9821299977
 10
146.71676441
 20
106.9459477439
 10
146.7089593821
 20
106.939729823
  0
LWPOLYLINE
  5
2F8
100
AcDbEntity
  8
SUPERFICI
100
AcDbPolyline
 62
7
  6
CONTINUOUS
 90
3
 70
0
 10
146.2186356386
 20
108.4663161508
 10
146.1631070664
 20
108.4945603099
 10
146.1068233041
 20
108.5192176296
  0
LINE
  5
2F9
100
AcDbEntity
  8
0
100
AcDbLine
 62
7
  6
CONTINUOUS
 10
149.6757628278
 20
123.9108239805
 11
149.6818600935
 21
123.3835372865
  0
LINE
  5
2FA
100
AcDbEntity
  8
ASSI
100
AcDbLine
 62
7
  6
CONTINUOUS
 10
149.6757628278
 20
123.9108239805
 11
149.6818600935
 21
123.3835372865
  0
LINE
  5
2FB
100
AcDbEntity
  8
0
100
AcDbLine
 62
253
  6
CONTINUOUS
 10
149.6146105723
 20
123.48382327
 11
149.6146105723
 21
123.4729180028
  0
LINE
  5
2FC
100
AcDbEntity
  8
ASSI
100
AcDbLine
 62
253
  6
CONTINUOUS
 10
149.6146105723
 20
123.48382327
 11
149.6146105723
 21
123.4729180028
  0
LINE
  5
2FD
100
AcDbEntity
  8
0
100
AcDbLine
 62
7
  6
CONTINUOUS
 10
149.6139416598
 20
123.4729180028
 11
149.6146105723
 21
123.48382327
  0
LINE
  5
2FE
100
AcDbEntity
  8
ASSI
100
AcDbLine
 62
7
  6
CONTINUOUS
 10
149.6139416598
 20
123.4729180028
 11
149.6146105723
 21
123.48382327
  0
LINE
  5
2FF
100
AcDbEntity
  8
0
100
AcDbLine
 62
253
  6
CONTINUOUS
 10
163.1537479841
 20
116.6215633423
 11
164.6560108655
 21
117.8944186468
  0
LINE
  5
300
100
AcDbEntity
  8
ASSI
100
AcDbLine
 62
253
  6
CONTINUOUS
 10
163.1537479841
 20
116.6215633423
 11
164.6560108655
 21
117.8944186468
  0
LINE
  5
301
100
AcDbEntity
  8
0
100
AcDbLine
 62
253
  6
CONTINUOUS
 10
163.57068575
 20
116.0542553906
 11
165.0910762339
 21
117.3424700674
  0
LINE
  5
302
100
AcDbEntity
  8
ASSI
100
AcDbLine
 62
253
  6
CONTINUOUS
 10
163.57068575
 20
116.0542553906
 11
165.0910762339
 21
117.3424700674
  0
LWPOLYLINE
  5
303
100
AcDbEntity
  8
0
100
AcDbPolyline
 62
253
  6
CONTINUOUS
 90
55
 70
0
 10
144.2640913972
 20
111.3299605449
 10
144.1804210186
 20
111.364785094
 10
144.0967684459
 20
111.4020641999
 10
144.0131845378
 20
111.4417902262
 10
143.9297201526
 20
111.4839555366
 10
143.846426149
 20
111.5285524944
 10
143.7633533852
 20
111.5755734633
 10
143.6805668933
 20
111.6249966215
 10
143.5981883987
 20
111.6767434068
 10
143.5163538001
 20
111.7307210715
 10
143.4351989964
 20
111.786836868
 10
143.3548598865
 20
111.8449980487
 10
143.275472369
 20
111.9051118661
 10
143.1971534074
 20
111.967095268
 10
143.1199442228
 20
112.0309039851
 10
143.0438671009
 20
112.0965034434
 10
142.9689443271
 20
112.163859069
 10
142.8951981873
 20
112.232936288
 10
142.822650967
 20
112.3037005265
 10
142.7513282808
 20
112.3761189459
 10
142.6812690584
 20
112.4501656494
 10
142.6125155587
 20
112.5258164752
 10
142.5451100404
 20
112.6030472617
 10
142.4790947623
 20
112.6818338473
 10
142.4145119832
 20
112.7621520704
 10
142.3514140751
 20
112.84395712
 10
142.2898938641
 20
112.9271215879
 10
142.2300542895
 20
113.0114974162
 10
142.1719982907
 20
113.0969365474
 10
142.1158288071
 20
113.1832909237
 10
142.061648778
 20
113.2704124876
 10
142.0095455838
 20
113.3581704329
 10
141.9595443687
 20
113.4465029599
 10
141.9116547179
 20
113.5353655205
 10
141.8658862167
 20
113.6247135665
 10
141.8222484502
 20
113.7145025498
 10
141.7807510036
 20
113.8046879223
 10
141.7414065279
 20
113.8952205165
 10
141.7042399369
 20
113.9860326874
 10
141.6692792102
 20
114.0770521705
 10
141.6365523274
 20
114.1682067016
 10
141.606087268
 20
114.2594240162
 10
141.5779120117
 20
114.35063185
 10
141.5520524474
 20
114.4417573114
 10
141.5285261012
 20
114.5327249996
 10
141.5073484087
 20
114.6234588866
 10
141.4885348055
 20
114.7138829446
 10
141.472100727
 20
114.8039211454
 10
141.458061609
 20
114.8934974611
 10
141.4464309055
 20
114.9825364829
 10
141.4372141457
 20
115.0709652789
 10
141.4304148773
 20
115.1587115365
 10
141.4260366482
 20
115.2457029428
 10
141.4240830061
 20
115.3318671853
 10
141.4245574987
 20
115.4171319512
  0
LWPOLYLINE
  5
304
100
AcDbEntity
  8
0
100
AcDbPolyline
 62
253
  6
CONTINUOUS
 90
51
 70
0
 10
144.2574867283
 20
110.832666566
 10
144.1518267587
 20
110.876768293
 10
144.0461521436
 20
110.9242341571
 10
143.9405427115
 20
110.9750498832
 10
143.835078291
 20
111.0292011961
 10
143.7298387105
 20
111.0866738209
 10
143.6249217076
 20
111.1474374656
 10
143.5204966555
 20
111.2113977711
 10
143.4167508367
 20
111.2784443615
 10
143.3138715333
 20
111.3484668608
 10
143.2120460276
 20
111.4213548932
 10
143.1114486751
 20
111.4969961354
 10
143.0122021233
 20
111.5752704754
 10
142.9144160931
 20
111.6560558539
 10
142.8182003052
 20
111.7392302117
 10
142.7236644804
 20
111.8246714895
 10
142.630895967
 20
111.9122844481
 10
142.5398926238
 20
112.0020811293
 10
142.4506299369
 20
112.0941003948
 10
142.3630833927
 20
112.1883811064
 10
142.2772284774
 20
112.284962126
 10
142.1930728155
 20
112.383847088
 10
142.1107525836
 20
112.4848987173
 10
142.030436097
 20
112.5879445116
 10
141.9522916703
 20
112.6928119686
 10
141.8764876187
 20
112.7993285857
 10
141.8031799368
 20
112.9073172204
 10
141.7324753388
 20
113.0165821688
 10
141.6644682183
 20
113.1269230865
 10
141.5992529693
 20
113.2381396294
 10
141.5369239856
 20
113.3500314532
 10
141.4775573861
 20
113.4624347398
 10
141.4211561899
 20
113.5753317748
 10
141.3677051412
 20
113.6887413699
 10
141.3171889843
 20
113.8026823369
 10
141.2695924633
 20
113.9171734874
 10
141.2249146549
 20
114.032199457
 10
141.1832119652
 20
114.1476081764
 10
141.1445551327
 20
114.2632134002
 10
141.109014896
 20
114.3788288828
 10
141.0766619937
 20
114.4942683789
 10
141.0475564625
 20
114.60936236
 10
141.0217155319
 20
114.7240081659
 10
140.9991457296
 20
114.8381198534
 10
140.9798535834
 20
114.9516114793
 10
140.9638456211
 20
115.0643971004
 10
140.9511282257
 20
115.1763861257
 10
140.9417072026
 20
115.2874693728
 10
140.9355882124
 20
115.3975330115
 10
140.9327769157
 20
115.5064632116
 10
140.9332789734
 20
115.6141461429
  0
LWPOLYLINE
  5
305
100
AcDbEntity
  8
0
100
AcDbPolyline
 62
253
  6
CONTINUOUS
 90
11
 70
0
 10
153.7705034091
 20
84.2109346438
 10
153.7757000399
 20
84.1354927344
 10
153.7854180779
 20
84.064626193
 10
153.7995930757
 20
83.998804986
 10
153.8181310288
 20
83.9384656205
 10
153.8409089991
 20
83.8840082497
 10
153.8677759296
 20
83.835794019
 10
153.8985536465
 20
83.7941426714
 10
153.9330380411
 20
83.7593304263
 10
153.9710004228
 20
83.7315881486
 10
154.0105521668
 20
83.711750405
  0
LWPOLYLINE
  5
306
100
AcDbEntity
  8
ASSI
100
AcDbPolyline
 62
253
  6
CONTINUOUS
 90
11
 70
0
 10
153.7705034091
 20
84.2109346438
 10
153.7757000399
 20
84.1354927344
 10
153.7854180779
 20
84.064626193
 10
153.7995930757
 20
83.998804986
 10
153.8181310288
 20
83.9384656205
 10
153.8409089991
 20
83.8840082497
 10
153.8677759296
 20
83.835794019
 10
153.8985536465
 20
83.7941426714
 10
153.9330380411
 20
83.7593304263
 10
153.9710004228
 20
83.7315881486
 10
154.0105521668
 20
83.711750405
  0
LWPOLYLINE
  5
307
100
AcDbEntity
  8
0
100
AcDbPolyline
 62
253
  6
CONTINUOUS
 90
10
 70
0
 10
153.4584926095
 20
101.6600359242
 10
153.4599873278
 20
101.6186392488
 10
153.4645677897
 20
101.5802404263
 10
153.4721842485
 20
101.5452564939
 10
153.4827539841
 20
101.5140674008
 10
153.496162202
 20
101.4870118816
 10
153.5122632801
 20
101.4643837777
 10
153.5308823495
 20
101.4464288457
 10
153.5518171946
 20
101.4333420882
 10
153.5587298486
 20
101.4303023252
  0
LWPOLYLINE
  5
308
100
AcDbEntity
  8
ASSI
100
AcDbPolyline
 62
253
  6
CONTINUOUS
 90
10
 70
0
 10
153.4584926095
 20
101.6600359242
 10
153.4599873278
 20
101.6186392488
 10
153.4645677897
 20
101.5802404263
 10
153.4721842485
 20
101.5452564939
 10
153.4827539841
 20
101.5140674008
 10
153.496162202
 20
101.4870118816
 10
153.5122632801
 20
101.4643837777
 10
153.5308823495
 20
101.4464288457
 10
153.5518171946
 20
101.4333420882
 10
153.5587298486
 20
101.4303023252
  0
LWPOLYLINE
  5
309
100
AcDbEntity
  8
0
100
AcDbPolyline
 62
253
  6
CONTINUOUS
 90
3
 70
0
 10
153.6509821874
 20
87.773316868
 10
153.7071612863
 20
85.9888528068
 10
153.7705034049
 20
84.2109346401
  0
LWPOLYLINE
  5
30A
100
AcDbEntity
  8
ASSI
100
AcDbPolyline
 62
253
  6
CONTINUOUS
 90
3
 70
0
 10
153.6509821874
 20
87.773316868
 10
153.7071612863
 20
85.9888528068
 10
153.7705034049
 20
84.2109346401
  0
LINE
  5
30B
100
AcDbEntity
  8
0
100
AcDbLine
 62
253
  6
CONTINUOUS
 10
153.5601218242
 20
91.3616935014
 11
153.5985784128
 21
89.7098833711
  0
LINE
  5
30C
100
AcDbEntity
  8
ASSI
100
AcDbLine
 62
253
  6
CONTINUOUS
 10
153.5601218242
 20
91.3616935014
 11
153.5985784128
 21
89.7098833711
  0
LINE
  5
30D
100
AcDbEntity
  8
0
100
AcDbLine
 62
253
  6
CONTINUOUS
 10
153.5985784128
 20
89.7098833711
 11
153.6509821874
 21
87.773316868
  0
LINE
  5
30E
100
AcDbEntity
  8
ASSI
100
AcDbLine
 62
253
  6
CONTINUOUS
 10
153.5985784128
 20
89.7098833711
 11
153.6509821874
 21
87.773316868
  0
LWPOLYLINE
  5
30F
100
AcDbEntity
  8
0
100
AcDbPolyline
 62
253
  6
CONTINUOUS
 90
6
 70
0
 10
153.4584926121
 20
100.4423410027
 10
153.4644658132
 20
98.6139907091
 10
153.4776164289
 20
96.7917008121
 10
153.4979432309
 20
94.9755276486
 10
153.5254455368
 20
93.1654957929
 10
153.5601218242
 20
91.3616935014
  0
LWPOLYLINE
  5
310
100
AcDbEntity
  8
ASSI
100
AcDbPolyline
 62
253
  6
CONTINUOUS
 90
6
 70
0
 10
153.4584926121
 20
100.4423410027
 10
153.4644658132
 20
98.6139907091
 10
153.4776164289
 20
96.7917008121
 10
153.4979432309
 20
94.9755276486
 10
153.5254455368
 20
93.1654957929
 10
153.5601218242
 20
91.3616935014
  0
LWPOLYLINE
  5
311
100
AcDbEntity
  8
0
100
AcDbPolyline
 62
253
  6
CONTINUOUS
 90
7
 70
0
 10
153.4584926121
 20
101.6600359263
 10
153.4644657562
 20
103.4981611834
 10
153.4776162374
 20
105.3419856114
 10
153.4979428369
 20
107.1914508699
 10
153.5254448397
 20
109.0465287276
 10
153.5601207562
 20
110.907130975
 10
153.6019671604
 20
112.7731085171
  0
LWPOLYLINE
  5
312
100
AcDbEntity
  8
ASSI
100
AcDbPolyline
 62
253
  6
CONTINUOUS
 90
7
 70
0
 10
153.4584926121
 20
101.6600359263
 10
153.4644657562
 20
103.4981611834
 10
153.4776162374
 20
105.3419856114
 10
153.4979428369
 20
107.1914508699
 10
153.5254448397
 20
109.0465287276
 10
153.5601207562
 20
110.907130975
 10
153.6019671604
 20
112.7731085171
  0
LINE
  5
313
100
AcDbEntity
  8
0
100
AcDbLine
 62
253
  6
CONTINUOUS
 10
153.6019671604
 20
112.7731085171
 11
153.6590494545
 21
114.9138784126
  0
LINE
  5
314
100
AcDbEntity
  8
ASSI
100
AcDbLine
 62
253
  6
CONTINUOUS
 10
153.6019671604
 20
112.7731085171
 11
153.6590494545
 21
114.9138784126
  0
LWPOLYLINE
  5
315
100
AcDbEntity
  8
0
100
AcDbPolyline
 62
253
  6
CONTINUOUS
 90
3
 70
0
 10
153.6590494545
 20
114.9138784126
 10
153.7071604385
 20
116.52089237
 10
153.7705034049
 20
118.4026108465
  0
LWPOLYLINE
  5
316
100
AcDbEntity
  8
ASSI
100
AcDbPolyline
 62
253
  6
CONTINUOUS
 90
3
 70
0
 10
153.6590494545
 20
114.9138784126
 10
153.7071604385
 20
116.52089237
 10
153.7705034049
 20
118.4026108465
  0
LWPOLYLINE
  5
317
100
AcDbEntity
  8
0
100
AcDbPolyline
 62
253
  6
CONTINUOUS
 90
19
 70
0
 10
153.7705028473
 20
118.4026104309
 10
153.7756994909
 20
118.4865768034
 10
153.7854175454
 20
118.5733811961
 10
153.7995925635
 20
118.6624479468
 10
153.8181305405
 20
118.7531863902
 10
153.8409085378
 20
118.8449947746
 10
153.8677754983
 20
118.9372642527
 10
153.8985532479
 20
119.0293829196
 10
153.9330376773
 20
119.1207398704
 10
153.9710000957
 20
119.2107292515
 10
154.012188747
 20
119.2987542791
 10
154.0563304798
 20
119.3842311959
 10
154.1031325587
 20
119.4665931434
 10
154.1522846057
 20
119.5452939204
 10
154.2034606583
 20
119.6198116056
 10
154.2563213314
 20
119.6896520189
 10
154.3105160682
 20
119.7543519985
 10
154.3656854645
 20
119.8134824723
 10
154.4214636526
 20
119.8666513039
  0
LWPOLYLINE
  5
318
100
AcDbEntity
  8
ASSI
100
AcDbPolyline
 62
253
  6
CONTINUOUS
 90
19
 70
0
 10
153.7705028473
 20
118.4026104309
 10
153.7756994909
 20
118.4865768034
 10
153.7854175454
 20
118.5733811961
 10
153.7995925635
 20
118.6624479468
 10
153.8181305405
 20
118.7531863902
 10
153.8409085378
 20
118.8449947746
 10
153.8677754983
 20
118.9372642527
 10
153.8985532479
 20
119.0293829196
 10
153.9330376773
 20
119.1207398704
 10
153.9710000957
 20
119.2107292515
 10
154.012188747
 20
119.2987542791
 10
154.0563304798
 20
119.3842311959
 10
154.1031325587
 20
119.4665931434
 10
154.1522846057
 20
119.5452939204
 10
154.2034606583
 20
119.6198116056
 10
154.2563213314
 20
119.6896520189
 10
154.3105160682
 20
119.7543519985
 10
154.3656854645
 20
119.8134824723
 10
154.4214636526
 20
119.8666513039
  0
LWPOLYLINE
  5
319
100
AcDbEntity
  8
SUPERFICI
100
AcDbPolyline
 62
7
  6
CONTINUOUS
 90
34
 70
0
 10
146.7173370838
 20
99.574194671
 10
146.737104714
 20
99.590607417
 10
146.7698386657
 20
99.6226067462
 10
146.7991371749
 20
99.65782469
 10
146.8248941059
 20
99.696213022
 10
146.8472167863
 20
99.7378209627
 10
146.865870687
 20
99.7822243175
 10
146.8808497268
 20
99.8295901367
 10
146.8921609736
 20
99.8797521906
 10
146.8995891042
 20
99.9317859303
 10
146.9030616571
 20
99.9855804833
 10
146.9026513053
 20
100.0412468933
 10
146.8983598479
 20
100.098193003
 10
146.890114515
 20
100.156584553
 10
146.8779879092
 20
100.2162556574
 10
146.8621993119
 20
100.2761162378
 10
146.8427301605
 20
100.3360310586
 10
146.8195980785
 20
100.3961345676
 10
146.7930760873
 20
100.4557407616
 10
146.7630794203
 20
100.5149367517
 10
146.7296916403
 20
100.5736344207
 10
146.6934378825
 20
100.6308846071
 10
146.654312438
 20
100.6866086682
 10
146.6123195228
 20
100.7408840022
 10
146.5679988853
 20
100.7929952821
 10
146.5212799167
 20
100.8429551566
 10
146.4722317984
 20
100.8907497894
 10
146.4216038615
 20
100.9356240418
 10
146.369355858
 20
100.9775276281
 10
146.3155268658
 20
101.0165098622
 10
146.2609852397
 20
101.0519650344
 10
146.2060202044
 20
101.0836910535
 10
146.1503418668
 20
101.1118894571
 10
146.0939500329
 20
101.1365600849
  0
LWPOLYLINE
  5
31A
100
AcDbEntity
  8
0
100
AcDbPolyline
 62
7
  6
CONTINUOUS
 90
12
 70
0
 10
146.7173225411
 20
99.5742126158
 10
146.6820961088
 20
99.5494563012
 10
146.6358762903
 20
99.5239726945
 10
146.5860175374
 20
99.5038184617
 10
146.5326740602
 20
99.4889183156
 10
146.4770308941
 20
99.4795274041
 10
146.4191299934
 20
99.4757565567
 10
146.3589274974
 20
99.4774933449
 10
146.2974797402
 20
99.4846580472
 10
146.235138467
 20
99.4972237815
 10
146.1715508606
 20
99.5152165287
 10
146.1067166208
 20
99.5386360362
  0
LWPOLYLINE
  5
31B
100
AcDbEntity
  8
ASSI
100
AcDbPolyline
 62
7
  6
CONTINUOUS
 90
12
 70
0
 10
146.7173225411
 20
99.5742126158
 10
146.6820961088
 20
99.5494563012
 10
146.6358762903
 20
99.5239726945
 10
146.5860175374
 20
99.5038184617
 10
146.5326740602
 20
99.4889183156
 10
146.4770308941
 20
99.4795274041
 10
146.4191299934
 20
99.4757565567
 10
146.3589274974
 20
99.4774933449
 10
146.2974797402
 20
99.4846580472
 10
146.235138467
 20
99.4972237815
 10
146.1715508606
 20
99.5152165287
 10
146.1067166208
 20
99.5386360362
  0
LWPOLYLINE
  5
31C
100
AcDbEntity
  8
0
100
AcDbPolyline
 62
253
  6
CONTINUOUS
 90
16
 70
0
 10
153.4584924653
 20
100.4423408814
 10
153.4599871865
 20
100.4862039448
 10
153.464567653
 20
100.5321554065
 10
153.4721841179
 20
100.579696202
 10
153.4827538611
 20
100.6283100059
 10
153.4961620881
 20
100.6774688388
 10
153.5122631762
 20
100.7266388022
 10
153.5308822568
 20
100.7752858766
 10
153.5518171138
 20
100.8228817214
 10
153.5748403803
 20
100.8689094131
 10
153.5997020081
 20
100.9128690596
 10
153.6261319827
 20
100.9542832288
 10
153.6538432566
 20
100.9927021346
 10
153.6825348663
 20
101.0277085213
 10
153.7118952015
 20
101.0589221956
 10
153.7416053887
 20
101.0860041556
  0
LWPOLYLINE
  5
31D
100
AcDbEntity
  8
ASSI
100
AcDbPolyline
 62
253
  6
CONTINUOUS
 90
16
 70
0
 10
153.4584924653
 20
100.4423408814
 10
153.4599871865
 20
100.4862039448
 10
153.464567653
 20
100.5321554065
 10
153.4721841179
 20
100.579696202
 10
153.4827538611
 20
100.6283100059
 10
153.4961620881
 20
100.6774688388
 10
153.5122631762
 20
100.7266388022
 10
153.5308822568
 20
100.7752858766
 10
153.5518171138
 20
100.8228817214
 10
153.5748403803
 20
100.8689094131
 10
153.5997020081
 20
100.9128690596
 10
153.6261319827
 20
100.9542832288
 10
153.6538432566
 20
100.9927021346
 10
153.6825348663
 20
101.0277085213
 10
153.7118952015
 20
101.0589221956
 10
153.7416053887
 20
101.0860041556
  0
LWPOLYLINE
  5
31E
100
AcDbEntity
  8
0
100
AcDbPolyline
 62
253
  6
CONTINUOUS
 90
55
 70
0
 10
144.3803291798
 20
117.1999565718
 10
144.4676172045
 20
117.1635554606
 10
144.5547702939
 20
117.1245047372
 10
144.6417818605
 20
117.0827723416
 10
144.7286453172
 20
117.0383262141
 10
144.8153540765
 20
116.9911342945
 10
144.9019015512
 20
116.9411645232
 10
144.9882316118
 20
116.8884300403
 10
145.0740899597
 20
116.8331247871
 10
145.1591727543
 20
116.7754879049
 10
145.243176155
 20
116.7157585352
 10
145.325796321
 20
116.6541758194
 10
145.4067294118
 20
116.5909788988
 10
145.4857175159
 20
116.5263931065
 10
145.5626864391
 20
116.4605885424
 10
145.6376079165
 20
116.3937214978
 10
145.7104536832
 20
116.3259482643
 10
145.7811954742
 20
116.2574251333
 10
145.8498050246
 20
116.1883083963
 10
145.9162700456
 20
116.1187307497
 10
145.9806421531
 20
116.04873051
 10
146.0429889392
 20
115.9783223987
 10
146.1033779958
 20
115.9075211372
 10
146.1618769149
 20
115.8363414471
 10
146.2185532886
 20
115.7647980499
 10
146.2842399225
 20
115.6784935074
 10
146.3474296774
 20
115.5917532629
 10
146.4081528072
 20
115.5046441538
 10
146.4664395659
 20
115.4172330176
 10
146.5223202073
 20
115.3295866917
 10
146.5758296855
 20
115.241756199
 10
146.6270217546
 20
115.1537293044
 10
146.675954869
 20
115.0654779584
 10
146.722687483
 20
114.9769741114
 10
146.7672780507
 20
114.8881897139
 10
146.8097758106
 20
114.7990965002
 10
146.8501931379
 20
114.7096653409
 10
146.8885331918
 20
114.6198668905
 10
146.9247991316
 20
114.5296718035
 10
146.9589941166
 20
114.4390507344
 10
146.9911112715
 20
114.3480036499
 10
147.0211035836
 20
114.2566477661
 10
147.0489140055
 20
114.1651296113
 10
147.0744854899
 20
114.0735957138
 10
147.0977609895
 20
113.9821926019
 10
147.1186917416
 20
113.8910572509
 10
147.1372621229
 20
113.8002884246
 10
147.1534647947
 20
113.7099753337
 10
147.167292418
 20
113.6202071891
 10
147.1787376544
 20
113.5310732016
 10
147.1877950498
 20
113.4426585168
 10
147.1944666897
 20
113.3550320204
 10
147.1987565443
 20
113.2682585328
 10
147.2006685839
 20
113.1824028745
 10
147.2002067787
 20
113.097529866
  0
LWPOLYLINE
  5
31F
100
AcDbEntity
  8
0
100
AcDbPolyline
 62
253
  6
CONTINUOUS
 90
51
 70
0
 10
144.3935281227
 20
117.7026545852
 10
144.5023408661
 20
117.6571458258
 10
144.6111259534
 20
117.6080246425
 10
144.7198626273
 20
117.5552480418
 10
144.8285301306
 20
117.4987730301
 10
144.9371077062
 20
117.4385566138
 10
145.0455100815
 20
117.3746093919
 10
145.153393923
 20
117.3071563335
 10
145.2603513818
 20
117.2364760001
 10
145.3659746089
 20
117.1628469534
 10
145.4698557557
 20
117.086547755
 10
145.5716262815
 20
117.0078625376
 10
145.6710748798
 20
116.9270977183
 10
145.7680295521
 20
116.8445652855
 10
145.8623183003
 20
116.7605772274
 10
145.953769126
 20
116.6754455322
 10
146.0422600128
 20
116.5894320366
 10
146.1278688723
 20
116.5025979701
 10
146.2107235976
 20
116.4149544105
 10
146.2909520822
 20
116.3265124356
 10
146.3686822193
 20
116.2372831233
 10
146.4440225515
 20
116.147287392
 10
146.5170042169
 20
116.056585523
 10
146.5876390031
 20
115.965247638
 10
146.6559386975
 20
115.8733438591
 10
146.7219150874
 20
115.780944308
 10
146.7855834033
 20
115.6881126385
 10
146.8469726473
 20
115.5948866314
 10
146.9061152646
 20
115.5012975996
 10
146.9630437004
 20
115.4073768557
 10
147.0177903999
 20
115.3131557124
 10
147.0832078195
 20
115.1949744626
 10
147.1453464446
 20
115.0762533989
 10
147.2042857483
 20
114.9568731555
 10
147.2601052035
 20
114.8367143663
 10
147.3128577825
 20
114.7156967821
 10
147.3624904536
 20
114.5938966212
 10
147.4089236846
 20
114.4714292186
 10
147.452077943
 20
114.3484099093
 10
147.4918738774
 20
114.2249720894
 10
147.5282328615
 20
114.1013214
 10
147.5610764499
 20
113.977681543
 10
147.5903261972
 20
113.8542762205
 10
147.6159134942
 20
113.7313272821
 10
147.6378090759
 20
113.6090491674
 10
147.6559935134
 20
113.4876544633
 10
147.670447378
 20
113.3673557569
 10
147.6811580289
 20
113.2483460971
 10
147.6881399776
 20
113.1307403799
 10
147.6914145238
 20
113.0146339633
 10
147.6910029673
 20
112.9001222055
  0
LINE
  5
320
100
AcDbEntity
  8
0
100
AcDbLine
 62
253
  6
CONTINUOUS
 10
158.7891134683
 20
119.7991360727
 11
158.7891134683
 21
119.7882308054
  0
LINE
  5
321
100
AcDbEntity
  8
ASSI
100
AcDbLine
 62
253
  6
CONTINUOUS
 10
158.7891134683
 20
119.7991360727
 11
158.7891134683
 21
119.7882308054
  0
LINE
  5
322
100
AcDbEntity
  8
0
100
AcDbLine
 62
7
  6
CONTINUOUS
 10
158.7884445559
 20
119.7882308054
 11
158.7891134683
 21
119.7991360727
  0
LINE
  5
323
100
AcDbEntity
  8
ASSI
100
AcDbLine
 62
7
  6
CONTINUOUS
 10
158.7884445559
 20
119.7882308054
 11
158.7891134683
 21
119.7991360727
  0
LINE
  5
324
100
AcDbEntity
  8
0
100
AcDbLine
 62
7
  6
CONTINUOUS
 10
158.8502657238
 20
120.2261367832
 11
158.7891134683
 21
119.7991360727
  0
LINE
  5
325
100
AcDbEntity
  8
ASSI
100
AcDbLine
 62
7
  6
CONTINUOUS
 10
158.8502657238
 20
120.2261367832
 11
158.7891134683
 21
119.7991360727
  0
LWPOLYLINE
  5
326
100
AcDbEntity
  8
0
100
AcDbPolyline
 62
253
  6
CONTINUOUS
 90
11
 70
0
 10
126.997715556
 20
129.4063060574
 10
126.9609268962
 20
129.4248274853
 10
126.9275328196
 20
129.4451630574
 10
126.8978571343
 20
129.4671155883
 10
126.8721875928
 20
129.4904722135
 10
126.8507731017
 20
129.5150064538
 10
126.8338213081
 20
129.5404804113
 10
126.8214965865
 20
129.5666470756
 10
126.8139184443
 20
129.59325272
 10
126.8111603636
 20
129.6200393606
 10
126.8111990042
 20
129.6257437392
  0
LWPOLYLINE
  5
327
100
AcDbEntity
  8
ASSI
100
AcDbPolyline
 62
253
  6
CONTINUOUS
 90
11
 70
0
 10
126.997715556
 20
129.4063060574
 10
126.9609268962
 20
129.4248274853
 10
126.9275328196
 20
129.4451630574
 10
126.8978571343
 20
129.4671155883
 10
126.8721875928
 20
129.4904722135
 10
126.8507731017
 20
129.5150064538
 10
126.8338213081
 20
129.5404804113
 10
126.8214965865
 20
129.5666470756
 10
126.8139184443
 20
129.59325272
 10
126.8111603636
 20
129.6200393606
 10
126.8111990042
 20
129.6257437392
  0
LINE
  5
328
100
AcDbEntity
  8
0
100
AcDbLine
 62
7
  6
CONTINUOUS
 10
158.8502657238
 20
120.2261367832
 11
158.8563629895
 21
119.6988500891
  0
LINE
  5
329
100
AcDbEntity
  8
ASSI
100
AcDbLine
 62
7
  6
CONTINUOUS
 10
158.8502657238
 20
120.2261367832
 11
158.8563629895
 21
119.6988500891
  0
LWPOLYLINE
  5
32A
100
AcDbEntity
  8
0
100
AcDbPolyline
 62
253
  6
CONTINUOUS
 90
16
 70
0
 10
162.5143102017
 20
115.1420494847
 10
162.557639578
 20
115.1283935263
 10
162.6030550253
 20
115.1170771521
 10
162.650116178
 20
115.1082100899
 10
162.6983667131
 20
115.1018783181
 10
162.747338775
 20
115.0981432321
 10
162.7965575118
 20
115.0970410484
 10
162.8455456798
 20
115.0985824541
 10
162.8938282711
 20
115.1027525033
 10
162.940937119
 20
115.1095107615
 10
162.9864154383
 20
115.1187916981
 10
163.0298222537
 20
115.1305053215
 10
163.0707366761
 20
115.144538052
 10
163.1087619837
 20
115.1607538229
 10
163.1435294685
 20
115.1789953997
 10
163.1747020117
 20
115.1990859054
  0
LWPOLYLINE
  5
32B
100
AcDbEntity
  8
ASSI
100
AcDbPolyline
 62
253
  6
CONTINUOUS
 90
16
 70
0
 10
162.5143102017
 20
115.1420494847
 10
162.557639578
 20
115.1283935263
 10
162.6030550253
 20
115.1170771521
 10
162.650116178
 20
115.1082100899
 10
162.6983667131
 20
115.1018783181
 10
162.747338775
 20
115.0981432321
 10
162.7965575118
 20
115.0970410484
 10
162.8455456798
 20
115.0985824541
 10
162.8938282711
 20
115.1027525033
 10
162.940937119
 20
115.1095107615
 10
162.9864154383
 20
115.1187916981
 10
163.0298222537
 20
115.1305053215
 10
163.0707366761
 20
115.144538052
 10
163.1087619837
 20
115.1607538229
 10
163.1435294685
 20
115.1789953997
 10
163.1747020117
 20
115.1990859054
  0
LWPOLYLINE
  5
32C
100
AcDbEntity
  8
0
100
AcDbPolyline
 62
253
  6
CONTINUOUS
 90
3
 70
0
 10
163.1537479841
 20
116.6215633423
 10
162.241058096
 20
116.9368429232
 10
161.3184936057
 20
117.2614419058
  0
LWPOLYLINE
  5
32D
100
AcDbEntity
  8
ASSI
100
AcDbPolyline
 62
253
  6
CONTINUOUS
 90
3
 70
0
 10
163.1537479841
 20
116.6215633423
 10
162.241058096
 20
116.9368429232
 10
161.3184936057
 20
117.2614419058
  0
LWPOLYLINE
  5
32E
100
AcDbEntity
  8
0
100
AcDbPolyline
 62
253
  6
CONTINUOUS
 90
10
 70
0
 10
162.5143035708
 20
115.1420435979
 10
161.6017030436
 20
115.4597680399
 10
160.6784260845
 20
115.7864232369
 10
159.7446925494
 20
116.1221595835
 10
158.807005335
 20
116.464784583
 10
157.8592589419
 20
116.8167402088
 10
156.8830353754
 20
117.1853622451
 10
155.8726728002
 20
117.573464376
 10
154.8349703569
 20
117.9790781764
 10
153.7705034049
 20
118.4026108465
  0
LWPOLYLINE
  5
32F
100
AcDbEntity
  8
ASSI
100
AcDbPolyline
 62
253
  6
CONTINUOUS
 90
10
 70
0
 10
162.5143035708
 20
115.1420435979
 10
161.6017030436
 20
115.4597680399
 10
160.6784260845
 20
115.7864232369
 10
159.7446925494
 20
116.1221595835
 10
158.807005335
 20
116.464784583
 10
157.8592589419
 20
116.8167402088
 10
156.8830353754
 20
117.1853622451
 10
155.8726728002
 20
117.573464376
 10
154.8349703569
 20
117.9790781764
 10
153.7705034049
 20
118.4026108465
  0
LINE
  5
330
100
AcDbEntity
  8
0
100
AcDbLine
 62
253
  6
CONTINUOUS
 10
153.7705034049
 20
118.4026108465
 11
135.3395824084
 21
125.804884234
  0
LINE
  5
331
100
AcDbEntity
  8
ASSI
100
AcDbLine
 62
253
  6
CONTINUOUS
 10
153.7705034049
 20
118.4026108465
 11
135.3395824084
 21
125.804884234
  0
LWPOLYLINE
  5
332
100
AcDbEntity
  8
0
100
AcDbPolyline
 62
253
  6
CONTINUOUS
 90
13
 70
0
 10
135.3395824084
 20
125.804884234
 10
134.5970443242
 20
126.1050604463
 10
133.8690967951
 20
126.4030299168
 10
133.1556285999
 20
126.6986761971
 10
132.4599714164
 20
126.9904416694
 10
131.778542254
 20
127.2796360571
 10
131.1009805312
 20
127.5705429493
 10
130.4276671289
 20
127.8629799234
 10
129.7582388866
 20
128.1570992721
 10
129.0814816487
 20
128.4578878203
 10
128.3938237088
 20
128.7671167392
 10
127.6991807418
 20
129.0832245692
 10
126.9977155547
 20
129.4063060466
  0
LWPOLYLINE
  5
333
100
AcDbEntity
  8
ASSI
100
AcDbPolyline
 62
253
  6
CONTINUOUS
 90
13
 70
0
 10
135.3395824084
 20
125.804884234
 10
134.5970443242
 20
126.1050604463
 10
133.8690967951
 20
126.4030299168
 10
133.1556285999
 20
126.6986761971
 10
132.4599714164
 20
126.9904416694
 10
131.778542254
 20
127.2796360571
 10
131.1009805312
 20
127.5705429493
 10
130.4276671289
 20
127.8629799234
 10
129.7582388866
 20
128.1570992721
 10
129.0814816487
 20
128.4578878203
 10
128.3938237088
 20
128.7671167392
 10
127.6991807418
 20
129.0832245692
 10
126.9977155547
 20
129.4063060466
  0
LWPOLYLINE
  5
334
100
AcDbEntity
  8
0
100
AcDbPolyline
 62
253
  6
CONTINUOUS
 90
9
 70
0
 10
133.1174826914
 20
128.4533383276
 10
132.4379816169
 20
128.7424453206
 10
131.7621597204
 20
129.0334907032
 10
131.0900929926
 20
129.3262101431
 10
130.421705443
 20
129.6208679725
 10
129.7459502642
 20
129.9225906509
 10
129.0591451871
 20
130.2330869979
 10
128.364972481
 20
130.550648194
 10
127.6634321457
 20
130.8752742389
  0
LWPOLYLINE
  5
335
100
AcDbEntity
  8
ASSI
100
AcDbPolyline
 62
253
  6
CONTINUOUS
 90
9
 70
0
 10
133.1174826914
 20
128.4533383276
 10
132.4379816169
 20
128.7424453206
 10
131.7621597204
 20
129.0334907032
 10
131.0900929926
 20
129.3262101431
 10
130.421705443
 20
129.6208679725
 10
129.7459502642
 20
129.9225906509
 10
129.0591451871
 20
130.2330869979
 10
128.364972481
 20
130.550648194
 10
127.6634321457
 20
130.8752742389
  0
LWPOLYLINE
  5
336
100
AcDbEntity
  8
0
100
AcDbPolyline
 62
253
  6
CONTINUOUS
 90
19
 70
0
 10
162.9078082573
 20
97.3032089204
 10
162.906091644
 20
97.3389399444
 10
162.9013840262
 20
97.375777667
 10
162.8936955435
 20
97.4134541603
 10
162.8830526215
 20
97.451712384
 10
162.8695149714
 20
97.4902449702
 10
162.8531910381
 20
97.5286961899
 10
162.8341968088
 20
97.5667704468
 10
162.8126679955
 20
97.6041764216
 10
162.7887990831
 20
97.6405703949
 10
162.7627958692
 20
97.6756489657
 10
162.7348419306
 20
97.7091740057
 10
162.7051292466
 20
97.7409152063
 10
162.673869107
 20
97.7706402262
 10
162.6413113216
 20
97.7981052161
 10
162.6077213552
 20
97.8230849309
 10
162.5733625733
 20
97.8453856149
 10
162.5384922605
 20
97.8648423289
 10
162.5033771594
 20
97.8813074491
  0
LWPOLYLINE
  5
337
100
AcDbEntity
  8
ASSI
100
AcDbPolyline
 62
253
  6
CONTINUOUS
 90
19
 70
0
 10
162.9078082573
 20
97.3032089204
 10
162.906091644
 20
97.3389399444
 10
162.9013840262
 20
97.375777667
 10
162.8936955435
 20
97.4134541603
 10
162.8830526215
 20
97.451712384
 10
162.8695149714
 20
97.4902449702
 10
162.8531910381
 20
97.5286961899
 10
162.8341968088
 20
97.5667704468
 10
162.8126679955
 20
97.6041764216
 10
162.7887990831
 20
97.6405703949
 10
162.7627958692
 20
97.6756489657
 10
162.7348419306
 20
97.7091740057
 10
162.7051292466
 20
97.7409152063
 10
162.673869107
 20
97.7706402262
 10
162.6413113216
 20
97.7981052161
 10
162.6077213552
 20
97.8230849309
 10
162.5733625733
 20
97.8453856149
 10
162.5384922605
 20
97.8648423289
 10
162.5033771594
 20
97.8813074491
  0
LWPOLYLINE
  5
338
100
AcDbEntity
  8
0
100
AcDbPolyline
 62
253
  6
CONTINUOUS
 90
10
 70
0
 10
162.2549210448
 20
98.4361930271
 10
162.2566920816
 20
98.3940118189
 10
162.2606116068
 20
98.3560906994
 10
162.2668778963
 20
98.3221009569
 10
162.2760806525
 20
98.2916194345
 10
162.2880831531
 20
98.2649790453
 10
162.3020192453
 20
98.2430798178
 10
162.3181813714
 20
98.2260523153
 10
162.3368240417
 20
98.2138082834
 10
162.3478164416
 20
98.2092610164
  0
LWPOLYLINE
  5
339
100
AcDbEntity
  8
ASSI
100
AcDbPolyline
 62
253
  6
CONTINUOUS
 90
10
 70
0
 10
162.2549210448
 20
98.4361930271
 10
162.2566920816
 20
98.3940118189
 10
162.2606116068
 20
98.3560906994
 10
162.2668778963
 20
98.3221009569
 10
162.2760806525
 20
98.2916194345
 10
162.2880831531
 20
98.2649790453
 10
162.3020192453
 20
98.2430798178
 10
162.3181813714
 20
98.2260523153
 10
162.3368240417
 20
98.2138082834
 10
162.3478164416
 20
98.2092610164
  0
LWPOLYLINE
  5
33A
100
AcDbEntity
  8
0
100
AcDbPolyline
 62
253
  6
CONTINUOUS
 90
4
 70
0
 10
163.1747019852
 20
81.0309164832
 10
163.1192211805
 20
82.8830065942
 10
163.0704522352
 20
84.7088278663
 10
163.0283951493
 20
86.5083802996
  0
LWPOLYLINE
  5
33B
100
AcDbEntity
  8
ASSI
100
AcDbPolyline
 62
253
  6
CONTINUOUS
 90
4
 70
0
 10
163.1747019852
 20
81.0309164832
 10
163.1192211805
 20
82.8830065942
 10
163.0704522352
 20
84.7088278663
 10
163.0283951493
 20
86.5083802996
  0
LWPOLYLINE
  5
33C
100
AcDbEntity
  8
0
100
AcDbPolyline
 62
253
  6
CONTINUOUS
 90
10
 70
0
 10
162.5143035973
 20
80.9387573436
 10
162.4598696198
 20
82.7917006576
 10
162.412575129
 20
84.6190256937
 10
162.3721080654
 20
86.4204194262
 10
162.3385173273
 20
88.1752032871
 10
162.3110174456
 20
89.9033465723
 10
162.2886287318
 20
91.6660110709
 10
162.2714741356
 20
93.4839394173
 10
162.2601391001
 20
95.3369100675
 10
162.2549209376
 20
97.225129208
  0
LWPOLYLINE
  5
33D
100
AcDbEntity
  8
ASSI
100
AcDbPolyline
 62
253
  6
CONTINUOUS
 90
10
 70
0
 10
162.5143035973
 20
80.9387573436
 10
162.4598696198
 20
82.7917006576
 10
162.412575129
 20
84.6190256937
 10
162.3721080654
 20
86.4204194262
 10
162.3385173273
 20
88.1752032871
 10
162.3110174456
 20
89.9033465723
 10
162.2886287318
 20
91.6660110709
 10
162.2714741356
 20
93.4839394173
 10
162.2601391001
 20
95.3369100675
 10
162.2549209376
 20
97.225129208
  0
LWPOLYLINE
  5
33E
100
AcDbEntity
  8
0
100
AcDbPolyline
 62
253
  6
CONTINUOUS
 90
7
 70
0
 10
163.0283951493
 20
86.5083802996
 10
162.9933904197
 20
88.2613246482
 10
162.9650975495
 20
89.988000158
 10
162.9424950473
 20
91.7494245664
 10
162.925242416
 20
93.5659371191
 10
162.9136801526
 20
95.4171985705
 10
162.9078082573
 20
97.3032089204
  0
LWPOLYLINE
  5
33F
100
AcDbEntity
  8
ASSI
100
AcDbPolyline
 62
253
  6
CONTINUOUS
 90
7
 70
0
 10
163.0283951493
 20
86.5083802996
 10
162.9933904197
 20
88.2613246482
 10
162.9650975495
 20
89.988000158
 10
162.9424950473
 20
91.7494245664
 10
162.925242416
 20
93.5659371191
 10
162.9136801526
 20
95.4171985705
 10
162.9078082573
 20
97.3032089204
  0
LWPOLYLINE
  5
340
100
AcDbEntity
  8
0
100
AcDbPolyline
 62
253
  6
CONTINUOUS
 90
6
 70
0
 10
162.9078082971
 20
98.5130312933
 10
162.9118917657
 20
100.2065697673
 10
162.9218740771
 20
101.9299411629
 10
162.9377552311
 20
103.68314548
 10
162.9588765553
 20
105.4524707496
 10
162.9858967222
 20
107.2516289407
  0
LWPOLYLINE
  5
341
100
AcDbEntity
  8
ASSI
100
AcDbPolyline
 62
253
  6
CONTINUOUS
 90
6
 70
0
 10
162.9078082971
 20
98.5130312933
 10
162.9118917657
 20
100.2065697673
 10
162.9218740771
 20
101.9299411629
 10
162.9377552311
 20
103.68314548
 10
162.9588765553
 20
105.4524707496
 10
162.9858967222
 20
107.2516289407
  0
LWPOLYLINE
  5
342
100
AcDbEntity
  8
0
100
AcDbPolyline
 62
253
  6
CONTINUOUS
 90
5
 70
0
 10
162.2549209396
 20
98.4361930074
 10
162.2592778114
 20
100.1317394454
 10
162.2689015954
 20
101.8569104794
 10
162.2840224568
 20
103.6118598334
 10
162.3046929621
 20
105.3833341819
  0
LWPOLYLINE
  5
343
100
AcDbEntity
  8
ASSI
100
AcDbPolyline
 62
253
  6
CONTINUOUS
 90
5
 70
0
 10
162.2549209396
 20
98.4361930074
 10
162.2592778114
 20
100.1317394454
 10
162.2689015954
 20
101.8569104794
 10
162.2840224568
 20
103.6118598334
 10
162.3046929621
 20
105.3833341819
  0
LWPOLYLINE
  5
344
100
AcDbEntity
  8
0
100
AcDbPolyline
 62
253
  6
CONTINUOUS
 90
6
 70
0
 10
162.3046929621
 20
105.3833341819
 10
162.3312474563
 20
107.1848277517
 10
162.3647189662
 20
109.0569110526
 10
162.4060520231
 20
111.0135482161
 10
162.4556857311
 20
113.0417673577
 10
162.5143035708
 20
115.1420435979
  0
LWPOLYLINE
  5
345
100
AcDbEntity
  8
ASSI
100
AcDbPolyline
 62
253
  6
CONTINUOUS
 90
6
 70
0
 10
162.3046929621
 20
105.3833341819
 10
162.3312474563
 20
107.1848277517
 10
162.3647189662
 20
109.0569110526
 10
162.4060520231
 20
111.0135482161
 10
162.4556857311
 20
113.0417673577
 10
162.5143035708
 20
115.1420435979
  0
LINE
  5
346
100
AcDbEntity
  8
0
100
AcDbLine
 62
253
  6
CONTINUOUS
 10
162.9858967222
 20
107.2516289407
 11
163.0207917495
 21
109.121755961
  0
LINE
  5
347
100
AcDbEntity
  8
ASSI
100
AcDbLine
 62
253
  6
CONTINUOUS
 10
162.9858967222
 20
107.2516289407
 11
163.0207917495
 21
109.121755961
  0
LINE
  5
348
100
AcDbEntity
  8
0
100
AcDbLine
 62
253
  6
CONTINUOUS
 10
163.0207917495
 20
109.121755961
 11
163.0647656293
 21
111.09809637
  0
LINE
  5
349
100
AcDbEntity
  8
ASSI
100
AcDbLine
 62
253
  6
CONTINUOUS
 10
163.0207917495
 20
109.121755961
 11
163.0647656293
 21
111.09809637
  0
LWPOLYLINE
  5
34A
100
AcDbEntity
  8
0
100
AcDbPolyline
 62
253
  6
CONTINUOUS
 90
3
 70
0
 10
163.0647656293
 20
111.09809637
 10
163.1155237306
 20
113.102340428
 10
163.1747020118
 20
115.1990859053
  0
LWPOLYLINE
  5
34B
100
AcDbEntity
  8
ASSI
100
AcDbPolyline
 62
253
  6
CONTINUOUS
 90
3
 70
0
 10
163.0647656293
 20
111.09809637
 10
163.1155237306
 20
113.102340428
 10
163.1747020118
 20
115.1990859053
  0
LWPOLYLINE
  5
34C
100
AcDbEntity
  8
0
100
AcDbPolyline
 62
253
  6
CONTINUOUS
 90
16
 70
0
 10
162.2549210048
 20
97.2251291861
 10
162.2566918095
 20
97.2697574071
 10
162.2606110794
 20
97.3157971642
 10
162.2668770535
 20
97.3631132539
 10
162.2760793091
 20
97.4118105851
 10
162.2880811725
 20
97.4616968787
 10
162.302016726
 20
97.511833814
 10
162.3181784348
 20
97.5612227867
 10
162.336820747
 20
97.6096548535
 10
162.3569314221
 20
97.6568647545
 10
162.3785899553
 20
97.7019830502
 10
162.4020287047
 20
97.7444107881
 10
162.4262943346
 20
97.7841378589
 10
162.4510747255
 20
97.8206956726
 10
162.4767621786
 20
97.8532563977
 10
162.5033771594
 20
97.8813074491
  0
LWPOLYLINE
  5
34D
100
AcDbEntity
  8
ASSI
100
AcDbPolyline
 62
253
  6
CONTINUOUS
 90
16
 70
0
 10
162.2549210048
 20
97.2251291861
 10
162.2566918095
 20
97.2697574071
 10
162.2606110794
 20
97.3157971642
 10
162.2668770535
 20
97.3631132539
 10
162.2760793091
 20
97.4118105851
 10
162.2880811725
 20
97.4616968787
 10
162.302016726
 20
97.511833814
 10
162.3181784348
 20
97.5612227867
 10
162.336820747
 20
97.6096548535
 10
162.3569314221
 20
97.6568647545
 10
162.3785899553
 20
97.7019830502
 10
162.4020287047
 20
97.7444107881
 10
162.4262943346
 20
97.7841378589
 10
162.4510747255
 20
97.8206956726
 10
162.4767621786
 20
97.8532563977
 10
162.5033771594
 20
97.8813074491
  0
LWPOLYLINE
  5
34E
100
AcDbEntity
  8
0
100
AcDbPolyline
 62
253
  6
CONTINUOUS
 90
10
 70
0
 10
162.9078082971
 20
98.5130312933
 10
162.9060916813
 20
98.4782213439
 10
162.9013840566
 20
98.444846104
 10
162.8936955638
 20
98.4131689316
 10
162.8830526286
 20
98.3834281986
 10
162.8695149636
 20
98.355884908
 10
162.8531910182
 20
98.3308074825
 10
162.8341967861
 20
98.3083968375
 10
162.8126679786
 20
98.2888326651
 10
162.8095034587
 20
98.2863631951
  0
LWPOLYLINE
  5
34F
100
AcDbEntity
  8
ASSI
100
AcDbPolyline
 62
253
  6
CONTINUOUS
 90
10
 70
0
 10
162.9078082971
 20
98.5130312933
 10
162.9060916813
 20
98.4782213439
 10
162.9013840566
 20
98.444846104
 10
162.8936955638
 20
98.4131689316
 10
162.8830526286
 20
98.3834281986
 10
162.8695149636
 20
98.355884908
 10
162.8531910182
 20
98.3308074825
 10
162.8341967861
 20
98.3083968375
 10
162.8126679786
 20
98.2888326651
 10
162.8095034587
 20
98.2863631951
  0
LWPOLYLINE
  5
350
100
AcDbEntity
  8
0
100
AcDbPolyline
 62
253
  6
CONTINUOUS
 90
22
 70
0
 10
162.5143035894
 20
115.1420436467
 10
162.5179110428
 20
115.2140093897
 10
162.5248262368
 20
115.2882163665
 10
162.5350178035
 20
115.3642970603
 10
162.5484456708
 20
115.4418664342
 10
162.5650423457
 20
115.5205476513
 10
162.5847152636
 20
115.599974683
 10
162.607382275
 20
115.6797582496
 10
162.6329373755
 20
115.7594970809
 10
162.6612335856
 20
115.8388042183
 10
162.6921467831
 20
115.9172826344
 10
162.7255352543
 20
115.9945419707
 10
162.7612077711
 20
116.0702104486
 10
162.7990073899
 20
116.1439094666
 10
162.8387601338
 20
116.2152682517
 10
162.8802344987
 20
116.2839408921
 10
162.9232421069
 20
116.3495777179
 10
162.9675891296
 20
116.4118521145
 10
163.0130255529
 20
116.4704739498
 10
163.0593295384
 20
116.5251531423
 10
163.1063079537
 20
116.5756024078
 10
163.153747984
 20
116.6215633422
  0
LWPOLYLINE
  5
351
100
AcDbEntity
  8
ASSI
100
AcDbPolyline
 62
253
  6
CONTINUOUS
 90
22
 70
0
 10
162.5143035894
 20
115.1420436467
 10
162.5179110428
 20
115.2140093897
 10
162.5248262368
 20
115.2882163665
 10
162.5350178035
 20
115.3642970603
 10
162.5484456708
 20
115.4418664342
 10
162.5650423457
 20
115.5205476513
 10
162.5847152636
 20
115.599974683
 10
162.607382275
 20
115.6797582496
 10
162.6329373755
 20
115.7594970809
 10
162.6612335856
 20
115.8388042183
 10
162.6921467831
 20
115.9172826344
 10
162.7255352543
 20
115.9945419707
 10
162.7612077711
 20
116.0702104486
 10
162.7990073899
 20
116.1439094666
 10
162.8387601338
 20
116.2152682517
 10
162.8802344987
 20
116.2839408921
 10
162.9232421069
 20
116.3495777179
 10
162.9675891296
 20
116.4118521145
 10
163.0130255529
 20
116.4704739498
 10
163.0593295384
 20
116.5251531423
 10
163.1063079537
 20
116.5756024078
 10
163.153747984
 20
116.6215633422
  0
LWPOLYLINE
  5
352
100
AcDbEntity
  8
0
100
AcDbPolyline
 62
253
  6
CONTINUOUS
 90
22
 70
0
 10
163.1747020118
 20
115.1990859053
 10
163.1770091075
 20
115.2411341928
 10
163.1813117884
 20
115.2840852989
 10
163.1876100543
 20
115.3279392237
 10
163.195954179
 20
115.3729387556
 10
163.2062938888
 20
115.4188411062
 10
163.2184783626
 20
115.4649179102
 10
163.2325339782
 20
115.5111537138
 10
163.2484343577
 20
115.5575639708
 10
163.2659495461
 20
115.6034666769
 10
163.2851053112
 20
115.6488574931
 10
163.3058758852
 20
115.6937407583
 10
163.3279540104
 20
115.7374474847
 10
163.3513591319
 20
115.7799586277
 10
163.3760718046
 20
115.8212932319
 10
163.4017264356
 20
115.8608394433
 10
163.4283499907
 20
115.8985815094
 10
163.4559155042
 20
115.9345351827
 10
163.4839764859
 20
115.9681358671
 10
163.5123841057
 20
115.9991953639
 10
163.5412871938
 20
116.0279018717
 10
163.57068575
 20
116.0542553906
  0
LWPOLYLINE
  5
353
100
AcDbEntity
  8
ASSI
100
AcDbPolyline
 62
253
  6
CONTINUOUS
 90
22
 70
0
 10
163.1747020118
 20
115.1990859053
 10
163.1770091075
 20
115.2411341928
 10
163.1813117884
 20
115.2840852989
 10
163.1876100543
 20
115.3279392237
 10
163.195954179
 20
115.3729387556
 10
163.2062938888
 20
115.4188411062
 10
163.2184783626
 20
115.4649179102
 10
163.2325339782
 20
115.5111537138
 10
163.2484343577
 20
115.5575639708
 10
163.2659495461
 20
115.6034666769
 10
163.2851053112
 20
115.6488574931
 10
163.3058758852
 20
115.6937407583
 10
163.3279540104
 20
115.7374474847
 10
163.3513591319
 20
115.7799586277
 10
163.3760718046
 20
115.8212932319
 10
163.4017264356
 20
115.8608394433
 10
163.4283499907
 20
115.8985815094
 10
163.4559155042
 20
115.9345351827
 10
163.4839764859
 20
115.9681358671
 10
163.5123841057
 20
115.9991953639
 10
163.5412871938
 20
116.0279018717
 10
163.57068575
 20
116.0542553906
  0
LINE
  5
354
100
AcDbEntity
  8
0
100
AcDbLine
 62
253
  6
CONTINUOUS
 10
165.1270178722
 20
99.9465273145
 11
162.5033771576
 21
97.8813074477
  0
LINE
  5
355
100
AcDbEntity
  8
ASSI
100
AcDbLine
 62
253
  6
CONTINUOUS
 10
165.1270178722
 20
99.9465273145
 11
162.5033771576
 21
97.8813074477
  0
LINE
  5
356
100
AcDbEntity
  8
0
100
AcDbLine
 62
253
  6
CONTINUOUS
 10
165.5366407008
 20
99.3725154983
 11
162.9078082573
 21
97.3032089204
  0
LINE
  5
357
100
AcDbEntity
  8
ASSI
100
AcDbLine
 62
253
  6
CONTINUOUS
 10
165.5366407008
 20
99.3725154983
 11
162.9078082573
 21
97.3032089204
  0
LINE
  5
358
100
AcDbEntity
  8
0
100
AcDbLine
 62
253
  6
CONTINUOUS
 10
162.8095034587
 20
98.2863631951
 11
162.8092106492
 21
98.2861393522
  0
LINE
  5
359
100
AcDbEntity
  8
ASSI
100
AcDbLine
 62
253
  6
CONTINUOUS
 10
162.8095034587
 20
98.2863631951
 11
162.8092106492
 21
98.2861393522
  0
LINE
  5
35A
100
AcDbEntity
  8
0
100
AcDbLine
 62
253
  6
CONTINUOUS
 10
162.9078082971
 20
98.5130312933
 11
165.5366407008
 21
100.519172423
  0
LINE
  5
35B
100
AcDbEntity
  8
ASSI
100
AcDbLine
 62
253
  6
CONTINUOUS
 10
162.9078082971
 20
98.5130312933
 11
165.5366407008
 21
100.519172423
  0
LINE
  5
35C
100
AcDbEntity
  8
0
100
AcDbLine
 62
7
  6
CONTINUOUS
 10
162.8092095443
 20
98.286138509
 11
165.4377994346
 21
100.2920945695
  0
LINE
  5
35D
100
AcDbEntity
  8
ASSI
100
AcDbLine
 62
7
  6
CONTINUOUS
 10
162.8092095443
 20
98.286138509
 11
165.4377994346
 21
100.2920945695
  0
LWPOLYLINE
  5
35E
100
AcDbEntity
  8
0
100
AcDbPolyline
 62
253
  6
CONTINUOUS
 90
16
 70
0
 10
162.907808258
 20
97.303208921
 10
162.8770132425
 20
97.281558356
 10
162.8427070533
 20
97.2617264997
 10
162.8052142502
 20
97.2439009749
 10
162.7648895472
 20
97.2282504256
 10
162.7221144375
 20
97.2149229134
 10
162.6772935806
 20
97.2040445211
 10
162.6308509881
 20
97.1957181659
 10
162.5832260579
 20
97.1900226304
 10
162.534869399
 20
97.1870118036
 10
162.4862385222
 20
97.1867141659
 10
162.4377934871
 20
97.1891325277
 10
162.3899925951
 20
97.1942440094
 10
162.3432880683
 20
97.2020002542
 10
162.2981217703
 20
97.2123278819
 10
162.2549210048
 20
97.2251291861
  0
LWPOLYLINE
  5
35F
100
AcDbEntity
  8
ASSI
100
AcDbPolyline
 62
253
  6
CONTINUOUS
 90
16
 70
0
 10
162.907808258
 20
97.303208921
 10
162.8770132425
 20
97.281558356
 10
162.8427070533
 20
97.2617264997
 10
162.8052142502
 20
97.2439009749
 10
162.7648895472
 20
97.2282504256
 10
162.7221144375
 20
97.2149229134
 10
162.6772935806
 20
97.2040445211
 10
162.6308509881
 20
97.1957181659
 10
162.5832260579
 20
97.1900226304
 10
162.534869399
 20
97.1870118036
 10
162.4862385222
 20
97.1867141659
 10
162.4377934871
 20
97.1891325277
 10
162.3899925951
 20
97.1942440094
 10
162.3432880683
 20
97.2020002542
 10
162.2981217703
 20
97.2123278819
 10
162.2549210048
 20
97.2251291861
  0
LWPOLYLINE
  5
360
100
AcDbEntity
  8
0
100
AcDbPolyline
 62
253
  6
CONTINUOUS
 90
10
 70
0
 10
127.6634321456
 20
130.8752742389
 10
127.6199712549
 20
130.8895794867
 10
127.5771499301
 20
130.8993891801
 10
127.5354365208
 20
130.9045960441
 10
127.4952872437
 20
130.9051431462
 10
127.4571412306
 20
130.9010245181
 10
127.4214157191
 20
130.8922852344
 10
127.3885014369
 20
130.8790209117
 10
127.3587583473
 20
130.8613766523
 10
127.3355966352
 20
130.842500749
  0
LWPOLYLINE
  5
361
100
AcDbEntity
  8
ASSI
100
AcDbPolyline
 62
253
  6
CONTINUOUS
 90
10
 70
0
 10
127.6634321456
 20
130.8752742389
 10
127.6199712549
 20
130.8895794867
 10
127.5771499301
 20
130.8993891801
 10
127.5354365208
 20
130.9045960441
 10
127.4952872437
 20
130.9051431462
 10
127.4571412306
 20
130.9010245181
 10
127.4214157191
 20
130.8922852344
 10
127.3885014369
 20
130.8790209117
 10
127.3587583473
 20
130.8613766523
 10
127.3355966352
 20
130.842500749
  0
LWPOLYLINE
  5
362
100
AcDbEntity
  8
0
100
AcDbPolyline
 62
253
  6
CONTINUOUS
 90
8
 70
0
 10
161.3184936057
 20
117.2614419058
 10
160.3860545131
 20
117.5953602901
 10
159.4497626575
 20
117.9359286956
 10
158.5035961996
 20
118.2858165028
 10
157.5294896219
 20
118.6530318531
 10
156.5214210852
 20
119.040244127
 10
155.4854124288
 20
119.4447839439
 10
154.4214636526
 20
119.8666513039
  0
LWPOLYLINE
  5
363
100
AcDbEntity
  8
ASSI
100
AcDbPolyline
 62
253
  6
CONTINUOUS
 90
8
 70
0
 10
161.3184936057
 20
117.2614419058
 10
160.3860545131
 20
117.5953602901
 10
159.4497626575
 20
117.9359286956
 10
158.5035961996
 20
118.2858165028
 10
157.5294896219
 20
118.6530318531
 10
156.5214210852
 20
119.040244127
 10
155.4854124288
 20
119.4447839439
 10
154.4214636526
 20
119.8666513039
  0
LINE
  5
364
100
AcDbEntity
  8
0
100
AcDbLine
 62
7
  6
CONTINUOUS
 10
143.2024884223
 20
125.9847623356
 11
140.4427161242
 21
127.0931491081
  0
LINE
  5
365
100
AcDbEntity
  8
ASSI
100
AcDbLine
 62
7
  6
CONTINUOUS
 10
143.2024884223
 20
125.9847623356
 11
140.4427161242
 21
127.0931491081
  0
LINE
  5
366
100
AcDbEntity
  8
0
100
AcDbLine
 62
7
  6
CONTINUOUS
 10
134.0279855262
 20
129.669449533
 11
131.2682132281
 21
130.7778363055
  0
LINE
  5
367
100
AcDbEntity
  8
ASSI
100
AcDbLine
 62
7
  6
CONTINUOUS
 10
134.0279855262
 20
129.669449533
 11
131.2682132281
 21
130.7778363055
  0
LINE
  5
368
100
AcDbEntity
  8
0
100
AcDbLine
 62
7
  6
CONTINUOUS
 10
149.6991342246
 20
123.3755629179
 11
152.4589065228
 21
122.2671761454
  0
LINE
  5
369
100
AcDbEntity
  8
ASSI
100
AcDbLine
 62
7
  6
CONTINUOUS
 10
149.6991342246
 20
123.3755629179
 11
152.4589065228
 21
122.2671761454
  0
LINE
  5
36A
100
AcDbEntity
  8
0
100
AcDbLine
 62
7
  6
CONTINUOUS
 10
158.8736371207
 20
119.6908757206
 11
161.6334094188
 21
118.582488948
  0
LINE
  5
36B
100
AcDbEntity
  8
ASSI
100
AcDbLine
 62
7
  6
CONTINUOUS
 10
158.8736371207
 20
119.6908757206
 11
161.6334094188
 21
118.582488948
  0
LINE
  5
36C
100
AcDbEntity
  8
0
100
AcDbLine
 62
7
  6
CONTINUOUS
 10
164.6560108655
 20
117.8944186468
 11
162.4685532754
 21
118.7729509301
  0
LINE
  5
36D
100
AcDbEntity
  8
ASSI
100
AcDbLine
 62
7
  6
CONTINUOUS
 10
164.6560108655
 20
117.8944186468
 11
162.4685532754
 21
118.7729509301
  0
LINE
  5
36E
100
AcDbEntity
  8
0
100
AcDbLine
 62
7
  6
CONTINUOUS
 10
158.8502657238
 20
120.2261367832
 11
153.2940503794
 21
122.4576381274
  0
LINE
  5
36F
100
AcDbEntity
  8
ASSI
100
AcDbLine
 62
7
  6
CONTINUOUS
 10
158.8502657238
 20
120.2261367832
 11
153.2940503794
 21
122.4576381274
  0
LINE
  5
370
100
AcDbEntity
  8
0
100
AcDbLine
 62
7
  6
CONTINUOUS
 10
149.6757628278
 20
123.9108239805
 11
144.0376322789
 21
126.1752243176
  0
LINE
  5
371
100
AcDbEntity
  8
ASSI
100
AcDbLine
 62
7
  6
CONTINUOUS
 10
149.6757628278
 20
123.9108239805
 11
144.0376322789
 21
126.1752243176
  0
LINE
  5
372
100
AcDbEntity
  8
0
100
AcDbLine
 62
7
  6
CONTINUOUS
 10
140.4193447273
 20
127.6284101707
 11
134.8631293829
 21
129.859911515
  0
LINE
  5
373
100
AcDbEntity
  8
ASSI
100
AcDbLine
 62
7
  6
CONTINUOUS
 10
140.4193447273
 20
127.6284101707
 11
134.8631293829
 21
129.859911515
  0
LINE
  5
374
100
AcDbEntity
  8
0
100
AcDbLine
 62
7
  6
CONTINUOUS
 10
131.2448418313
 20
131.3130973681
 11
129.0573842411
 21
132.1916296514
  0
LINE
  5
375
100
AcDbEntity
  8
ASSI
100
AcDbLine
 62
7
  6
CONTINUOUS
 10
131.2448418313
 20
131.3130973681
 11
129.0573842411
 21
132.1916296514
  0
LWPOLYLINE
  5
376
100
AcDbEntity
  8
0
100
AcDbPolyline
 62
253
  6
CONTINUOUS
 90
5
 70
0
 10
154.4214636526
 20
119.8666513039
 10
135.2501865542
 20
127.5687579356
 10
134.5235851601
 20
127.866494635
 10
133.8114817796
 20
128.1618362615
 10
133.1174826914
 20
128.4533383276
  0
LWPOLYLINE
  5
377
100
AcDbEntity
  8
ASSI
100
AcDbPolyline
 62
253
  6
CONTINUOUS
 90
5
 70
0
 10
154.4214636526
 20
119.8666513039
 10
135.2501865542
 20
127.5687579356
 10
134.5235851601
 20
127.866494635
 10
133.8114817796
 20
128.1618362615
 10
133.1174826914
 20
128.4533383276
  0
LWPOLYLINE
  5
378
100
AcDbEntity
  8
0
100
AcDbPolyline
 62
253
  6
CONTINUOUS
 90
16
 70
0
 10
163.153747984
 20
116.6215633422
 10
163.1958087039
 20
116.6015212531
 10
163.2375735593
 20
116.5773593933
 10
163.2785857626
 20
116.549342024
 10
163.3183967585
 20
116.5177755746
 10
163.3565711291
 20
116.4830052912
 10
163.3926913568
 20
116.4454114611
 10
163.4263623902
 20
116.4054052526
 10
163.4572159652
 20
116.3634242185
 10
163.4849146322
 20
116.3199275105
 10
163.5091554477
 20
116.2753908577
 10
163.5296732867
 20
116.2303013628
 10
163.5462437431
 20
116.1851521752
 10
163.5586855839
 20
116.1404370972
 10
163.566862731
 20
116.0966451832
 10
163.57068575
 20
116.0542553906
  0
LWPOLYLINE
  5
379
100
AcDbEntity
  8
ASSI
100
AcDbPolyline
 62
253
  6
CONTINUOUS
 90
16
 70
0
 10
163.153747984
 20
116.6215633422
 10
163.1958087039
 20
116.6015212531
 10
163.2375735593
 20
116.5773593933
 10
163.2785857626
 20
116.549342024
 10
163.3183967585
 20
116.5177755746
 10
163.3565711291
 20
116.4830052912
 10
163.3926913568
 20
116.4454114611
 10
163.4263623902
 20
116.4054052526
 10
163.4572159652
 20
116.3634242185
 10
163.4849146322
 20
116.3199275105
 10
163.5091554477
 20
116.2753908577
 10
163.5296732867
 20
116.2303013628
 10
163.5462437431
 20
116.1851521752
 10
163.5586855839
 20
116.1404370972
 10
163.566862731
 20
116.0966451832
 10
163.57068575
 20
116.0542553906
  0
LINE
  5
37A
100
AcDbEntity
  8
0
100
AcDbLine
 62
7
  6
CONTINUOUS
 10
165.0910762339
 20
117.3424700674
 11
165.5366407008
 21
110.6767357408
  0
LINE
  5
37B
100
AcDbEntity
  8
ASSI
100
AcDbLine
 62
7
  6
CONTINUOUS
 10
165.0910762339
 20
117.3424700674
 11
165.5366407008
 21
110.6767357408
  0
LINE
  5
37C
100
AcDbEntity
  8
0
100
AcDbLine
 62
7
  6
CONTINUOUS
 10
165.5366407008
 20
110.6767357408
 11
165.5366407008
 21
100.519172423
  0
LINE
  5
37D
100
AcDbEntity
  8
ASSI
100
AcDbLine
 62
7
  6
CONTINUOUS
 10
165.5366407008
 20
110.6767357408
 11
165.5366407008
 21
100.519172423
  0
LINE
  5
37E
100
AcDbEntity
  8
0
100
AcDbLine
 62
7
  6
CONTINUOUS
 10
165.5366407008
 20
89.2149521805
 11
165.5366407008
 21
99.3725154983
  0
LINE
  5
37F
100
AcDbEntity
  8
ASSI
100
AcDbLine
 62
7
  6
CONTINUOUS
 10
165.5366407008
 20
89.2149521805
 11
165.5366407008
 21
99.3725154983
  0
LINE
  5
380
100
AcDbEntity
  8
0
100
AcDbLine
 62
7
  6
CONTINUOUS
 10
165.0910762339
 20
81.8584645488
 11
165.5366407008
 21
89.2149521805
  0
LINE
  5
381
100
AcDbEntity
  8
ASSI
100
AcDbLine
 62
7
  6
CONTINUOUS
 10
165.0910762339
 20
81.8584645488
 11
165.5366407008
 21
89.2149521805
  0
LWPOLYLINE
  5
382
100
AcDbEntity
  8
0
100
AcDbPolyline
 62
253
  6
CONTINUOUS
 90
8
 70
0
 10
163.4563104425
 20
80.5511847054
 10
163.4849161332
 20
80.5748461438
 10
163.5091566419
 20
80.6020814236
 10
163.5296741448
 20
80.6332336382
 10
163.5462442751
 20
80.6679620575
 10
163.5586858347
 20
80.7058868398
 10
163.5668627787
 20
80.7465931832
 10
163.5706857063
 20
80.7896358719
  0
LWPOLYLINE
  5
383
100
AcDbEntity
  8
ASSI
100
AcDbPolyline
 62
253
  6
CONTINUOUS
 90
8
 70
0
 10
163.4563104425
 20
80.5511847054
 10
163.4849161332
 20
80.5748461438
 10
163.5091566419
 20
80.6020814236
 10
163.5296741448
 20
80.6332336382
 10
163.5462442751
 20
80.6679620575
 10
163.5586858347
 20
80.7058868398
 10
163.5668627787
 20
80.7465931832
 10
163.5706857063
 20
80.7896358719
  0
LINE
  5
384
100
AcDbEntity
  8
0
100
AcDbLine
 62
253
  6
CONTINUOUS
 10
165.0910762339
 20
81.8584645488
 11
163.5706857063
 21
80.7896358719
  0
LINE
  5
385
100
AcDbEntity
  8
ASSI
100
AcDbLine
 62
253
  6
CONTINUOUS
 10
165.0910762339
 20
81.8584645488
 11
163.5706857063
 21
80.7896358719
  0
LINE
  5
386
100
AcDbEntity
  8
0
100
AcDbLine
 62
7
  6
CONTINUOUS
 10
164.9677295403
 20
81.6137065018
 11
163.456310371
 21
80.5511846551
  0
LINE
  5
387
100
AcDbEntity
  8
ASSI
100
AcDbLine
 62
7
  6
CONTINUOUS
 10
164.9677295403
 20
81.6137065018
 11
163.456310371
 21
80.5511846551
  0
LWPOLYLINE
  5
388
100
AcDbEntity
  8
0
100
AcDbPolyline
 62
253
  6
CONTINUOUS
 90
22
 70
0
 10
163.5706857063
 20
80.7896358719
 10
163.5412871493
 20
80.7704131575
 10
163.5123840604
 20
80.7543115505
 10
163.4839764398
 20
80.7413310509
 10
163.4559154573
 20
80.7314291279
 10
163.428349943
 20
80.7246483123
 10
163.4017263872
 20
80.7211161964
 10
163.3760717555
 20
80.7208903375
 10
163.3513590822
 20
80.7239131783
 10
163.3279539602
 20
80.730139639
 10
163.3058758345
 20
80.7396189097
 10
163.28510526
 20
80.7523018004
 10
163.2659494946
 20
80.7679956612
 10
163.2484343058
 20
80.7867447782
 10
163.232533926
 20
80.8085048653
 10
163.2184783102
 20
80.8329504147
 10
163.2062938353
 20
80.8601377727
 10
163.1959541245
 20
80.890010593
 10
163.1876100017
 20
80.9220743289
 10
163.1813117415
 20
80.9561641314
 10
163.1770090693
 20
80.9924448495
 10
163.1747019852
 20
81.0309164832
  0
LWPOLYLINE
  5
389
100
AcDbEntity
  8
ASSI
100
AcDbPolyline
 62
253
  6
CONTINUOUS
 90
22
 70
0
 10
163.5706857063
 20
80.7896358719
 10
163.5412871493
 20
80.7704131575
 10
163.5123840604
 20
80.7543115505
 10
163.4839764398
 20
80.7413310509
 10
163.4559154573
 20
80.7314291279
 10
163.428349943
 20
80.7246483123
 10
163.4017263872
 20
80.7211161964
 10
163.3760717555
 20
80.7208903375
 10
163.3513590822
 20
80.7239131783
 10
163.3279539602
 20
80.730139639
 10
163.3058758345
 20
80.7396189097
 10
163.28510526
 20
80.7523018004
 10
163.2659494946
 20
80.7679956612
 10
163.2484343058
 20
80.7867447782
 10
163.232533926
 20
80.8085048653
 10
163.2184783102
 20
80.8329504147
 10
163.2062938353
 20
80.8601377727
 10
163.1959541245
 20
80.890010593
 10
163.1876100017
 20
80.9220743289
 10
163.1813117415
 20
80.9561641314
 10
163.1770090693
 20
80.9924448495
 10
163.1747019852
 20
81.0309164832
  0
ELLIPSE
  5
38A
100
AcDbEntity
  8
0
100
AcDbEllipse
 62
7
  6
CONTINUOUS
 10
164.6813953578
 20
82.0236027764
 30
0.0
 11
-0.2850203122
 21
0.4108138748
 31
0.0
 40
0.7191175512
 41
-3.1374309805
 42
-2.401520857
  0
ELLIPSE
  5
38B
100
AcDbEntity
  8
0
100
AcDbEllipse
 62
7
  6
CONTINUOUS
 10
165.126924279
 20
99.5369732855
 30
0.0
 11
0.3170403205
 21
-0.3867036085
 31
0.0
 40
0.6711200097
 41
0.6859711218
 42
2.2565390145
  0
ELLIPSE
  5
38C
100
AcDbEntity
  8
ASSI
100
AcDbEllipse
 62
7
  6
CONTINUOUS
 10
164.6813953578
 20
82.0236027764
 30
0.0
 11
-0.2850203122
 21
0.4108138748
 31
0.0
 40
0.7191175512
 41
-3.1374309805
 42
-2.401520857
  0
ELLIPSE
  5
38D
100
AcDbEntity
  8
ASSI
100
AcDbEllipse
 62
7
  6
CONTINUOUS
 10
165.126924279
 20
99.5369732855
 30
0.0
 11
0.3170403205
 21
-0.3867036085
 31
0.0
 40
0.6711200097
 41
0.6859711218
 42
2.2565390145
  0
ELLIPSE
  5
38E
100
AcDbEntity
  8
0
100
AcDbEllipse
 62
7
  6
CONTINUOUS
 10
129.0820207007
 20
131.8040010808
 30
0.0
 11
-0.3432468395
 21
0.3635678883
 31
0.0
 40
0.6190547263
 41
-0.930363261
 42
0.0001592011
  0
ELLIPSE
  5
38F
100
AcDbEntity
  8
0
100
AcDbEllipse
 62
7
  6
CONTINUOUS
 10
164.6813953578
 20
117.5064896494
 30
0.0
 11
-0.3433580121
 21
0.3640648834
 31
0.0
 40
0.6179721343
 41
-2.4982952834
 42
-0.9288689526
  0
ELLIPSE
  5
390
100
AcDbEntity
  8
0
100
AcDbEllipse
 62
7
  6
CONTINUOUS
 10
165.126924279
 20
100.6838173394
 30
0.0
 11
-0.3170686951
 21
0.3868251561
 31
0.0
 40
0.6708195125
 41
-3.1651785864
 42
-2.4557308722
  0
ELLIPSE
  5
391
100
AcDbEntity
  8
0
100
AcDbEllipse
 62
7
  6
CONTINUOUS
 10
161.7481247061
 20
118.685044198
 30
0.0
 11
0.1999434854
 21
0.0078174272
 31
0.0
 40
0.6081570881
 41
-2.2054349231
 42
-1.1582373719
  0
ELLIPSE
  5
392
100
AcDbEntity
  8
0
100
AcDbEllipse
 62
7
  6
CONTINUOUS
 10
158.9883524079
 20
119.7934309705
 30
0.0
 11
0.1999434854
 21
0.0078174272
 31
0.0
 40
0.6081570881
 41
3.1201007963
 42
4.077750384
  0
ELLIPSE
  5
393
100
AcDbEntity
  8
0
100
AcDbEllipse
 62
7
  6
CONTINUOUS
 10
152.57362181
 20
122.3697313954
 30
0.0
 11
0.1999434854
 21
0.0078174272
 31
0.0
 40
0.6081570881
 41
-2.2054349231
 42
-1.1582373719
  0
ELLIPSE
  5
394
100
AcDbEntity
  8
0
100
AcDbEllipse
 62
7
  6
CONTINUOUS
 10
149.8138495119
 20
123.4781181679
 30
0.0
 11
0.1999434854
 21
0.0078174272
 31
0.0
 40
0.6081570881
 41
3.1201007963
 42
4.077750384
  0
ELLIPSE
  5
395
100
AcDbEntity
  8
0
100
AcDbEllipse
 62
7
  6
CONTINUOUS
 10
140.5574314114
 20
127.1957043581
 30
0.0
 11
0.1999434854
 21
0.0078174272
 31
0.0
 40
0.6081570881
 41
3.1201007963
 42
4.077750384
  0
ELLIPSE
  5
396
100
AcDbEntity
  8
0
100
AcDbEllipse
 62
7
  6
CONTINUOUS
 10
143.3172037096
 20
126.0873175856
 30
0.0
 11
0.1999434854
 21
0.0078174272
 31
0.0
 40
0.6081570881
 41
-2.2054349231
 42
-1.1582373719
  0
ELLIPSE
  5
397
100
AcDbEntity
  8
0
100
AcDbEllipse
 62
7
  6
CONTINUOUS
 10
134.1427008135
 20
129.772004783
 30
0.0
 11
0.1999434854
 21
0.0078174272
 31
0.0
 40
0.6081570881
 41
-2.2054349231
 42
-1.1582373719
  0
ELLIPSE
  5
398
100
AcDbEntity
  8
0
100
AcDbEllipse
 62
7
  6
CONTINUOUS
 10
131.3829285154
 20
130.8803915555
 30
0.0
 11
0.1999434854
 21
0.0078174272
 31
0.0
 40
0.6081570881
 41
3.1201007963
 42
4.077750384
  0
ELLIPSE
  5
399
100
AcDbEntity
  8
ASSI
100
AcDbEllipse
 62
7
  6
CONTINUOUS
 10
129.0820207007
 20
131.8040010808
 30
0.0
 11
-0.3432468395
 21
0.3635678883
 31
0.0
 40
0.6190547263
 41
-0.930363261
 42
0.0001592011
  0
ELLIPSE
  5
39A
100
AcDbEntity
  8
ASSI
100
AcDbEllipse
 62
7
  6
CONTINUOUS
 10
164.6813953578
 20
117.5064896494
 30
0.0
 11
-0.3433580121
 21
0.3640648834
 31
0.0
 40
0.6179721343
 41
-2.4982952834
 42
-0.9288689526
  0
ELLIPSE
  5
39B
100
AcDbEntity
  8
ASSI
100
AcDbEllipse
 62
7
  6
CONTINUOUS
 10
165.126924279
 20
100.6838173394
 30
0.0
 11
-0.3170686951
 21
0.3868251561
 31
0.0
 40
0.6708195125
 41
-3.1651785864
 42
-2.4557308722
  0
ELLIPSE
  5
39C
100
AcDbEntity
  8
ASSI
100
AcDbEllipse
 62
7
  6
CONTINUOUS
 10
161.7481247061
 20
118.685044198
 30
0.0
 11
0.1999434854
 21
0.0078174272
 31
0.0
 40
0.6081570881
 41
-2.2054349231
 42
-1.1582373719
  0
ELLIPSE
  5
39D
100
AcDbEntity
  8
ASSI
100
AcDbEllipse
 62
7
  6
CONTINUOUS
 10
158.9883524079
 20
119.7934309705
 30
0.0
 11
0.1999434854
 21
0.0078174272
 31
0.0
 40
0.6081570881
 41
3.1201007963
 42
4.077750384
  0
ELLIPSE
  5
39E
100
AcDbEntity
  8
ASSI
100
AcDbEllipse
 62
7
  6
CONTINUOUS
 10
152.57362181
 20
122.3697313954
 30
0.0
 11
0.1999434854
 21
0.0078174272
 31
0.0
 40
0.6081570881
 41
-2.2054349231
 42
-1.1582373719
  0
ELLIPSE
  5
39F
100
AcDbEntity
  8
ASSI
100
AcDbEllipse
 62
7
  6
CONTINUOUS
 10
149.8138495119
 20
123.4781181679
 30
0.0
 11
0.1999434854
 21
0.0078174272
 31
0.0
 40
0.6081570881
 41
3.1201007963
 42
4.077750384
  0
ELLIPSE
  5
3A0
100
AcDbEntity
  8
ASSI
100
AcDbEllipse
 62
7
  6
CONTINUOUS
 10
140.5574314114
 20
127.1957043581
 30
0.0
 11
0.1999434854
 21
0.0078174272
 31
0.0
 40
0.6081570881
 41
3.1201007963
 42
4.077750384
  0
ELLIPSE
  5
3A1
100
AcDbEntity
  8
ASSI
100
AcDbEllipse
 62
7
  6
CONTINUOUS
 10
143.3172037096
 20
126.0873175856
 30
0.0
 11
0.1999434854
 21
0.0078174272
 31
0.0
 40
0.6081570881
 41
-2.2054349231
 42
-1.1582373719
  0
ELLIPSE
  5
3A2
100
AcDbEntity
  8
ASSI
100
AcDbEllipse
 62
7
  6
CONTINUOUS
 10
134.1427008135
 20
129.772004783
 30
0.0
 11
0.1999434854
 21
0.0078174272
 31
0.0
 40
0.6081570881
 41
-2.2054349231
 42
-1.1582373719
  0
ELLIPSE
  5
3A3
100
AcDbEntity
  8
ASSI
100
AcDbEllipse
 62
7
  6
CONTINUOUS
 10
131.3829285154
 20
130.8803915555
 30
0.0
 11
0.1999434854
 21
0.0078174272
 31
0.0
 40
0.6081570881
 41
3.1201007963
 42
4.077750384
  0
ENDSEC
  0
SECTION
  2
OBJECTS
  0
DICTIONARY
  5
C
100
AcDbDictionary
280
0
281
1
  3
ACAD_GROUP
350
D
  3
ACAD_MLINESTYLE
350
17
  3
ACAD_LAYOUT
350
1A
  3
ACAD_PLOTSETTINGS
350
19
  3
ACAD_PLOTSTYLENAME
350
E
  0
DICTIONARY
  5
D
102
{ACAD_REACTORS
330
C
102
}
100
AcDbDictionary
280
0
281
1
  0
ACDBDICTIONARYWDFLT
  5
E
102
{ACAD_REACTORS
330
C
102
}
100
AcDbDictionary
281
1
  3
Normal
350
F
100
AcDbDictionaryWithDefault
340
F
  0
DICTIONARY
  5
17
102
{ACAD_REACTORS
330
C
102
}
100
AcDbDictionary
280
0
281
1
  3
Standard
350
18
  0
DICTIONARY
  5
19
102
{ACAD_REACTORS
330
C
102
}
100
AcDbDictionary
281
1
  0
DICTIONARY
  5
1A
102
{ACAD_REACTORS
330
C
102
}
100
AcDbDictionary
281
1
  3
Model
350
3A4
  3
Layout1
350
3A5
  0
ACDBPLACEHOLDER
  5
F
102
{ACAD_REACTORS
330
E
102
}
  0
MLINESTYLE
  5
18
102
{ACAD_REACTORS
330
17
102
}
100
AcDbMlineStyle
  2
STANDARD
 70
0
  3

 62
256
 51
90.0
 52
90.0
 71
2
 49
0.5
 62
256
  6
BYLAYER
 49
-0.5
 62
256
  6
BYLAYER
  0
LAYOUT
  5
3A4
102
{ACAD_REACTORS
330
1A
102
}
100
AcDbPlotSettings
  1

  2
none_device
  4
ISO_A4_(297.00_x_210.00_MM)
  6

 40
0.0
 41
0.0
 42
0.0
 43
0.0
 44
297.0
 45
210.0
 46
0.0
 47
0.0
 48
0.0
 49
0.0
140
0.0
141
0.0
142
1.0
143
1.0
 70
1024
 72
1
 73
0
 74
0
  7

 75
0
147
1.0
148
0.0
149
0.0
100
AcDbLayout
  1
Model
 70
0
 71
0
 10
0.0
 20
0.0
 11
297.0
 21
210.0
 12
0.0
 22
0.0
 32
0.0
 14
0.0
 24
0.0
 34
0.0
 15
0.0
 25
0.0
 35
0.0
146
0.0
 13
0.0
 23
0.0
 33
0.0
 16
1.0
 26
0.0
 36
0.0
 17
0.0
 27
1.0
 37
0.0
 76
0
330
21F
345
0
346
0
  0
LAYOUT
  5
3A5
102
{ACAD_REACTORS
330
1A
102
}
100
AcDbPlotSettings
  1

  2
none_device
  4
ISO_A4_(297.00_x_210.00_MM)
  6

 40
0.0
 41
0.0
 42
0.0
 43
0.0
 44
297.0
 45
210.0
 46
0.0
 47
0.0
 48
0.0
 49
0.0
140
0.0
141
0.0
142
1.0
143
1.0
 70
0
 72
1
 73
0
 74
0
  7

 75
0
147
1.0
148
0.0
149
0.0
100
AcDbLayout
  1
Layout1
 70
0
 71
1
 10
0.0
 20
0.0
 11
297.0
 21
210.0
 12
0.0
 22
0.0
 32
0.0
 14
0.0
 24
0.0
 34
0.0
 15
0.0
 25
0.0
 35
0.0
146
0.0
 13
0.0
 23
0.0
 33
0.0
 16
1.0
 26
0.0
 36
0.0
 17
0.0
 27
1.0
 37
0.0
 76
0
330
220
345
0
346
0
  0
ENDSEC
  0
EOF
