  0
SECTION
  2
HEADER
  9
$ACADVER
  1
AC1021
  9
$DWGCODEPAGE
  3
ANSI_1252
  9
$EXTMAX
 10
297.0
 20
210.0
 30
0.0
  9
$EXTMIN
 10
0.0
 20
0.0
 30
0.0
  9
$LIMMIN
 10
0.0
 20
0.0
  9
$LIMMAX
 10
297.0
 20
210.0
  9
$VIEWCTR
 10
148.5
 20
105.0
  9
$VIEWSIZE
 40
210.0
  9
$CLAYER
  8
0
  9
$LTSCALE
 40
16.335
  9
$CELTYPE
  6
BYLAYER
  9
$DIMSCALE
 40
1.0
  9
$DIMASZ
 40
3.0
  9
$DIMEXO
 40
1.85625
  9
$DIMDLI
 40
11.286
  9
$DIMEXE
 40
5.346
  9
$DIMCEN
 40
2.673
  9
$DIMLFAC
 40
1.0
  9
$DIMBLK
  1
_FILLED
  9
$DIMTXT
 40
3.0
  9
$DIMTOL
 70
1
  9
$DIMLIM
 70
0
  9
$DIMTFAC
 40
1.0
  9
$DIMTP
 40
0.01
  9
$DIMTM
 40
0.01
  9
$PDMODE
 70
3
  9
$PDSIZE
 40
3.0
  9
$HANDSEED
  5
3C2
  9
$TILEMODE
 70
1
  9
$MEASUREMENT
 70
1
  9
$INSUNITS
 70
4
  0
ENDSEC
  0
SECTION
  2
CLASSES
  0
CLASS
  1
ACDBDICTIONARYWDFLT
  2
AcDbDictionaryWithDefault
  3
AutoCAD 2000
 90
0
 91
1
280
0
281
0
  0
CLASS
  1
ACDBPLACEHOLDER
  2
AcDbPlaceHolder
  3
AutoCAD 2000
 90
0
 91
1
280
0
281
0
  0
CLASS
  1
LAYOUT
  2
AcDbLayout
  3
AutoCAD 2000
 90
0
 91
0
280
0
281
0
  0
ENDSEC
  0
SECTION
  2
TABLES
  0
TABLE
  2
VPORT
  5
8
100
AcDbSymbolTable
 70
2
  0
VPORT
  5
1F4
100
AcDbSymbolTableRecord
100
AcDbViewportTableRecord
  2
*ACTIVE
 70
0
 10
0.0
 20
0.0
 11
1.0
 21
1.0
 12
148.5
 22
105.0
 13
0.0
 23
0.0
 14
1.0
 24
1.0
 15
0.0
 25
0.0
 16
0.0
 26
0.0
 36
1.0
 17
0.0
 27
0.0
 37
0.0
 40
210.0
 41
1.4142857143
 42
50.0
 43
0.0
 44
0.0
 50
0.0
 51
0.0
 71
0
 72
100
 73
1
 74
1
 75
0
 76
0
 77
0
 78
0
  0
ENDTAB
  0
TABLE
  2
LTYPE
  5
5
100
AcDbSymbolTable
 70
6
  0
LTYPE
  5
14
100
AcDbSymbolTableRecord
100
AcDbLinetypeTableRecord
  2
BYBLOCK
 70
0
  3

 72
65
 73
0
 40
0.0
  0
LTYPE
  5
15
100
AcDbSymbolTableRecord
100
AcDbLinetypeTableRecord
  2
BYLAYER
 70
0
  3

 72
65
 73
0
 40
0.0
  0
LTYPE
  5
16
100
AcDbSymbolTableRecord
100
AcDbLinetypeTableRecord
  2
CONTINUOUS
 70
64
  3
Solid line
 72
65
 73
0
 40
0.0
  0
LTYPE
  5
1F5
100
AcDbSymbolTableRecord
100
AcDbLinetypeTableRecord
  2
CENTER
 70
64
  3
____ _ ____ _ ____ _ ____ _ ____ _ ____ _ ____
 72
65
 73
4
 40
0.6
 49
0.375
 74
0
 49
-0.075
 74
0
 49
0.075
 74
0
 49
-0.075
 74
0
  0
LTYPE
  5
1F6
100
AcDbSymbolTableRecord
100
AcDbLinetypeTableRecord
  2
HIDDEN
 70
64
  3
- - - - - - - - - - - - - - - - - - - -
 72
65
 73
2
 40
0.2
 49
0.1
 74
0
 49
-0.1
 74
0
  0
LTYPE
  5
1F7
100
AcDbSymbolTableRecord
100
AcDbLinetypeTableRecord
  2
PHANTOM
 70
64
  3
_____ _ _ _____ _ _ _____ _ _ _____
 72
65
 73
6
 40
0.8
 49
0.45
 74
0
 49
-0.05
 74
0
 49
0.1
 74
0
 49
-0.05
 74
0
 49
0.1
 74
0
 49
-0.05
 74
0
  0
LTYPE
  5
1F8
100
AcDbSymbolTableRecord
100
AcDbLinetypeTableRecord
  2
DOT
 70
64
  3
. . . . . . . . . . . . . . . . . . . .
 72
65
 73
2
 40
0.2
 49
0.1
 74
0
 49
-0.1
 74
0
  0
LTYPE
  5
1F9
100
AcDbSymbolTableRecord
100
AcDbLinetypeTableRecord
  2
DASHED
 70
64
  3
- - - - - - - - - - - - - - - - - - - -
 72
65
 73
2
 40
0.2
 49
0.1
 74
0
 49
-0.1
 74
0
  0
ENDTAB
  0
TABLE
  2
LAYER
  5
2
100
AcDbSymbolTable
 70
36
  0
LAYER
  5
10
100
AcDbSymbolTableRecord
100
AcDbLayerTableRecord
  2
0
 70
0
 62
7
  6
CONTINUOUS
370
-3
390
F
  0
LAYER
  5
1FA
100
AcDbSymbolTableRecord
100
AcDbLayerTableRecord
  2
DEFAULT_1
 70
0
 62
7
  6
CENTER
370
-3
390
F
  0
LAYER
  5
1FB
100
AcDbSymbolTableRecord
100
AcDbLayerTableRecord
  2
DEFAULT_2
 70
0
 62
7
  6
HIDDEN
370
-3
390
F
  0
LAYER
  5
1FC
100
AcDbSymbolTableRecord
100
AcDbLayerTableRecord
  2
DEFAULT_3
 70
0
 62
7
  6
PHANTOM
370
-3
390
F
  0
LAYER
  5
1FD
100
AcDbSymbolTableRecord
100
AcDbLayerTableRecord
  2
ASSI
 70
0
 62
7
  6
CONTINUOUS
370
-3
390
F
  0
LAYER
  5
1FE
100
AcDbSymbolTableRecord
100
AcDbLayerTableRecord
  2
COLOR3
 70
0
 62
7
  6
CONTINUOUS
370
-3
390
F
  0
LAYER
  5
1FF
100
AcDbSymbolTableRecord
100
AcDbLayerTableRecord
  2
COORDINATE
 70
0
 62
7
  6
CONTINUOUS
370
-3
390
F
  0
LAYER
  5
200
100
AcDbSymbolTableRecord
100
AcDbLayerTableRecord
  2
COPY_PUBLISH
 70
0
 62
7
  6
CONTINUOUS
370
-3
390
F
  0
LAYER
  5
201
100
AcDbSymbolTableRecord
100
AcDbLayerTableRecord
  2
COSMETIC
 70
0
 62
7
  6
CONTINUOUS
370
-3
390
F
  0
LAYER
  5
202
100
AcDbSymbolTableRecord
100
AcDbLayerTableRecord
  2
COSMETICI
 70
0
 62
7
  6
CONTINUOUS
370
-3
390
F
  0
LAYER
  5
203
100
AcDbSymbolTableRecord
100
AcDbLayerTableRecord
  2
CURVE
 70
0
 62
7
  6
CONTINUOUS
370
-3
390
F
  0
LAYER
  5
204
100
AcDbSymbolTableRecord
100
AcDbLayerTableRecord
  2
DRAFT
 70
0
 62
7
  6
CONTINUOUS
370
-3
390
F
  0
LAYER
  5
205
100
AcDbSymbolTableRecord
100
AcDbLayerTableRecord
  2
IMPORT_IGES
 70
0
 62
7
  6
CONTINUOUS
370
-3
390
F
  0
LAYER
  5
206
100
AcDbSymbolTableRecord
100
AcDbLayerTableRecord
  2
INTFCLR_1
 70
0
 62
7
  6
CONTINUOUS
370
-3
390
F
  0
LAYER
  5
207
100
AcDbSymbolTableRecord
100
AcDbLayerTableRecord
  2
INTF_1
 70
0
 62
7
  6
CONTINUOUS
370
-3
390
F
  0
LAYER
  5
208
100
AcDbSymbolTableRecord
100
AcDbLayerTableRecord
  2
INTF_10
 70
0
 62
7
  6
CONTINUOUS
370
-3
390
F
  0
LAYER
  5
209
100
AcDbSymbolTableRecord
100
AcDbLayerTableRecord
  2
INTF_13
 70
0
 62
7
  6
CONTINUOUS
370
-3
390
F
  0
LAYER
  5
20A
100
AcDbSymbolTableRecord
100
AcDbLayerTableRecord
  2
INTF_15
 70
0
 62
7
  6
CONTINUOUS
370
-3
390
F
  0
LAYER
  5
20B
100
AcDbSymbolTableRecord
100
AcDbLayerTableRecord
  2
INTF_16
 70
0
 62
7
  6
CONTINUOUS
370
-3
390
F
  0
LAYER
  5
20C
100
AcDbSymbolTableRecord
100
AcDbLayerTableRecord
  2
INTF_18
 70
0
 62
7
  6
CONTINUOUS
370
-3
390
F
  0
LAYER
  5
20D
100
AcDbSymbolTableRecord
100
AcDbLayerTableRecord
  2
INTF_20
 70
0
 62
7
  6
CONTINUOUS
370
-3
390
F
  0
LAYER
  5
20E
100
AcDbSymbolTableRecord
100
AcDbLayerTableRecord
  2
INTF_3
 70
0
 62
7
  6
CONTINUOUS
370
-3
390
F
  0
LAYER
  5
20F
100
AcDbSymbolTableRecord
100
AcDbLayerTableRecord
  2
INTF_5
 70
0
 62
7
  6
CONTINUOUS
370
-3
390
F
  0
LAYER
  5
210
100
AcDbSymbolTableRecord
100
AcDbLayerTableRecord
  2
INTF_8
 70
0
 62
7
  6
CONTINUOUS
370
-3
390
F
  0
LAYER
  5
211
100
AcDbSymbolTableRecord
100
AcDbLayerTableRecord
  2
NOTE
 70
0
 62
7
  6
CONTINUOUS
370
-3
390
F
  0
LAYER
  5
212
100
AcDbSymbolTableRecord
100
AcDbLayerTableRecord
  2
PIANI
 70
0
 62
7
  6
CONTINUOUS
370
-3
390
F
  0
LAYER
  5
213
100
AcDbSymbolTableRecord
100
AcDbLayerTableRecord
  2
PUNTI
 70
0
 62
7
  6
CONTINUOUS
370
-3
390
F
  0
LAYER
  5
214
100
AcDbSymbolTableRecord
100
AcDbLayerTableRecord
  2
RACCORDO
 70
0
 62
7
  6
CONTINUOUS
370
-3
390
F
  0
LAYER
  5
215
100
AcDbSymbolTableRecord
100
AcDbLayerTableRecord
  2
SIMBOLI
 70
0
 62
7
  6
CONTINUOUS
370
-3
390
F
  0
LAYER
  5
216
100
AcDbSymbolTableRecord
100
AcDbLayerTableRecord
  2
SMUSSO
 70
0
 62
7
  6
CONTINUOUS
370
-3
390
F
  0
LAYER
  5
217
100
AcDbSymbolTableRecord
100
AcDbLayerTableRecord
  2
SNAPLINE
 70
0
 62
7
  6
CONTINUOUS
370
-3
390
F
  0
LAYER
  5
218
100
AcDbSymbolTableRecord
100
AcDbLayerTableRecord
  2
SOLIDO
 70
0
 62
7
  6
CONTINUOUS
370
-3
390
F
  0
LAYER
  5
219
100
AcDbSymbolTableRecord
100
AcDbLayerTableRecord
  2
SUPERFICI
 70
0
 62
7
  6
CONTINUOUS
370
-3
390
F
  0
LAYER
  5
21A
100
AcDbSymbolTableRecord
100
AcDbLayerTableRecord
  2
SUPERFICI_SKEL
 70
0
 62
7
  6
CONTINUOUS
370
-3
390
F
  0
LAYER
  5
21B
100
AcDbSymbolTableRecord
100
AcDbLayerTableRecord
  2
TRASH
 70
0
 62
7
  6
CONTINUOUS
370
-3
390
F
  0
LAYER
  5
21C
100
AcDbSymbolTableRecord
100
AcDbLayerTableRecord
  2
___SHELL
 70
0
 62
7
  6
CONTINUOUS
370
-3
390
F
  0
ENDTAB
  0
TABLE
  2
STYLE
  5
3
100
AcDbSymbolTable
 70
1
  0
STYLE
  5
11
100
AcDbSymbolTableRecord
100
AcDbTextStyleTableRecord
  2
STANDARD
 70
0
 40
0.0
 41
0.8
 50
0.0
 71
0
 42
0.2
  3
txt
  4

  0
STYLE
  5
21D
100
AcDbSymbolTableRecord
100
AcDbTextStyleTableRecord
  2
TEXTSTYLE_1
 70
0
 40
0.0
 41
0.8
 50
0.0
 71
0
 42
0.2
  3
gdt
  4

  0
ENDTAB
  0
TABLE
  2
VIEW
  5
6
100
AcDbSymbolTable
 70
0
  0
ENDTAB
  0
TABLE
  2
UCS
  5
7
100
AcDbSymbolTable
 70
0
  0
ENDTAB
  0
TABLE
  2
APPID
  5
9
100
AcDbSymbolTable
 70
1
  0
APPID
  5
21E
100
AcDbSymbolTableRecord
100
AcDbRegAppTableRecord
  2
ACAD
 70
0
  0
ENDTAB
  0
TABLE
  2
BLOCK_RECORD
  5
1
100
AcDbSymbolTable
 70
0
  0
BLOCK_RECORD
  5
21F
100
AcDbSymbolTableRecord
100
AcDbBlockTableRecord
  2
*Model_Space
  0
BLOCK_RECORD
  5
220
100
AcDbSymbolTableRecord
100
AcDbBlockTableRecord
  2
*Paper_Space
  0
ENDTAB
  0
TABLE
  2
DIMSTYLE
  5
A
100
AcDbSymbolTable
 70
1
100
AcDbDimStyleTable
 71
0
  0
DIMSTYLE
105
221
100
AcDbSymbolTableRecord
100
AcDbDimStyleTableRecord
  2
STANDARD
 70
0
  3

  4

 40
1.0
 41
3.0
 42
0.0625
 43
0.38
 44
0.18
 45
0.0
 46
0.0
 47
0.01
 48
0.01
140
3.0
141
0.09
142
0.0
143
25.4
144
1.0
145
0.0
146
1.0
147
0.09
 71
1.0
 72
0.0
 73
0
 74
0
 75
0
 76
0
 77
1
 78
8
170
0
171
2
172
0
173
0
174
0
175
0
176
0
177
0
178
0
270
2
271
2
272
2
273
2
274
2
275
0
280
0
281
0
282
0
283
1
284
8
285
0
286
0
287
3
288
0
340
11
  0
ENDTAB
  0
ENDSEC
  0
SECTION
  2
BLOCKS
  0
BLOCK
  5
20
100
AcDbEntity
  8
0
100
AcDbBlockBegin
  2
*Model_Space
 70
0
 10
0.0
 20
0.0
 30
0.0
  3
*Model_Space
  1

  0
ENDBLK
  5
21
100
AcDbEntity
  8
0
100
AcDbBlockEnd
  0
BLOCK
  5
1C
100
AcDbEntity
  8
0
100
AcDbBlockBegin
  2
*Paper_Space
 70
0
 10
0.0
 20
0.0
 30
0.0
  3
*Paper_Space
  1

  0
ENDBLK
  5
1D
100
AcDbEntity
  8
0
100
AcDbBlockEnd
  0
ENDSEC
  0
SECTION
  2
ENTITIES
  0
LWPOLYLINE
  5
222
100
AcDbEntity
  8
0
100
AcDbPolyline
 62
7
  6
CONTINUOUS
 90
18
 70
0
 10
123.3399017242
 20
128.4336736062
 10
123.2829748311
 20
128.3752249811
 10
123.2297666771
 20
128.3134065526
 10
123.1801300339
 20
128.2487376054
 10
123.1337468219
 20
128.1814219936
 10
123.0903779968
 20
128.1115486735
 10
123.0500171453
 20
128.0394631225
 10
123.0126463296
 20
127.9654099449
 10
122.9782516673
 20
127.8895207791
 10
122.946911161
 20
127.8120813916
 10
122.9187321882
 20
127.7333500187
 10
122.8937993594
 20
127.6534692239
 10
122.8722594832
 20
127.5726646335
 10
122.8543171361
 20
127.4912185553
 10
122.8401464114
 20
127.4091811461
 10
122.8300112394
 20
127.3266026114
 10
122.8242540155
 20
127.2437697656
 10
122.8235851196
 20
127.2246158107
  0
LWPOLYLINE
  5
223
100
AcDbEntity
  8
ASSI
100
AcDbPolyline
 62
7
  6
CONTINUOUS
 90
18
 70
0
 10
123.3399017242
 20
128.4336736062
 10
123.2829748311
 20
128.3752249811
 10
123.2297666771
 20
128.3134065526
 10
123.1801300339
 20
128.2487376054
 10
123.1337468219
 20
128.1814219936
 10
123.0903779968
 20
128.1115486735
 10
123.0500171453
 20
128.0394631225
 10
123.0126463296
 20
127.9654099449
 10
122.9782516673
 20
127.8895207791
 10
122.946911161
 20
127.8120813916
 10
122.9187321882
 20
127.7333500187
 10
122.8937993594
 20
127.6534692239
 10
122.8722594832
 20
127.5726646335
 10
122.8543171361
 20
127.4912185553
 10
122.8401464114
 20
127.4091811461
 10
122.8300112394
 20
127.3266026114
 10
122.8242540155
 20
127.2437697656
 10
122.8235851196
 20
127.2246158107
  0
LINE
  5
224
100
AcDbEntity
  8
0
100
AcDbLine
 62
7
  6
CONTINUOUS
 10
124.7511382042
 20
129.7664261776
 11
123.3399017242
 21
128.4336736062
  0
LINE
  5
225
100
AcDbEntity
  8
ASSI
100
AcDbLine
 62
7
  6
CONTINUOUS
 10
124.7511382042
 20
129.7664261776
 11
123.3399017242
 21
128.4336736062
  0
LINE
  5
226
100
AcDbEntity
  8
0
100
AcDbLine
 62
253
  6
CONTINUOUS
 10
125.0697644975
 20
129.7905018855
 11
123.675812402
 21
128.474146473
  0
LINE
  5
227
100
AcDbEntity
  8
ASSI
100
AcDbLine
 62
253
  6
CONTINUOUS
 10
125.0697644975
 20
129.7905018855
 11
123.675812402
 21
128.474146473
  0
LINE
  5
228
100
AcDbEntity
  8
0
100
AcDbLine
 62
7
  6
CONTINUOUS
 10
123.3479768916
 20
128.441372983
 11
123.3475313043
 21
128.4409534115
  0
LINE
  5
229
100
AcDbEntity
  8
ASSI
100
AcDbLine
 62
7
  6
CONTINUOUS
 10
123.3479768916
 20
128.441372983
 11
123.3475313043
 21
128.4409534115
  0
LWPOLYLINE
  5
22A
100
AcDbEntity
  8
0
100
AcDbPolyline
 62
253
  6
CONTINUOUS
 90
22
 70
0
 10
123.675812402
 20
128.4741464729
 10
123.6266520482
 20
128.428876461
 10
123.5778848448
 20
128.3791456143
 10
123.529769247
 20
128.3251940064
 10
123.4825780204
 20
128.2672769383
 10
123.4365427157
 20
128.2056805913
 10
123.3918528166
 20
128.140719409
 10
123.3487411421
 20
128.0727043474
 10
123.3074396436
 20
128.0019675758
 10
123.2681238021
 20
127.9288775056
 10
123.2309992549
 20
127.8537921944
 10
123.1962633681
 20
127.7770740092
 10
123.1640612986
 20
127.6991132319
 10
123.1345596123
 20
127.62029024
 10
123.1079164447
 20
127.5409884004
 10
123.0842426989
 20
127.4616091602
 10
123.0636606922
 20
127.3825472368
 10
123.0462794189
 20
127.3041811297
 10
123.0321673412
 20
127.2268865503
 10
123.0213930458
 20
127.1510398966
 10
123.014022433
 20
127.0770158313
 10
123.0100958075
 20
127.0051782816
  0
LWPOLYLINE
  5
22B
100
AcDbEntity
  8
ASSI
100
AcDbPolyline
 62
253
  6
CONTINUOUS
 90
22
 70
0
 10
123.675812402
 20
128.4741464729
 10
123.6266520482
 20
128.428876461
 10
123.5778848448
 20
128.3791456143
 10
123.529769247
 20
128.3251940064
 10
123.4825780204
 20
128.2672769383
 10
123.4365427157
 20
128.2056805913
 10
123.3918528166
 20
128.140719409
 10
123.3487411421
 20
128.0727043474
 10
123.3074396436
 20
128.0019675758
 10
123.2681238021
 20
127.9288775056
 10
123.2309992549
 20
127.8537921944
 10
123.1962633681
 20
127.7770740092
 10
123.1640612986
 20
127.6991132319
 10
123.1345596123
 20
127.62029024
 10
123.1079164447
 20
127.5409884004
 10
123.0842426989
 20
127.4616091602
 10
123.0636606922
 20
127.3825472368
 10
123.0462794189
 20
127.3041811297
 10
123.0321673412
 20
127.2268865503
 10
123.0213930458
 20
127.1510398966
 10
123.014022433
 20
127.0770158313
 10
123.0100958075
 20
127.0051782816
  0
LINE
  5
22C
100
AcDbEntity
  8
0
100
AcDbLine
 62
7
  6
CONTINUOUS
 10
130.8755096392
 20
127.4587837491
 11
130.2396047222
 21
127.2626166649
  0
LINE
  5
22D
100
AcDbEntity
  8
ASSI
100
AcDbLine
 62
7
  6
CONTINUOUS
 10
130.8755096392
 20
127.4587837491
 11
130.2396047222
 21
127.2626166649
  0
LWPOLYLINE
  5
22E
100
AcDbEntity
  8
0
100
AcDbPolyline
 62
253
  6
CONTINUOUS
 90
10
 70
0
 10
122.5757369892
 20
110.517521374
 10
122.5780605649
 20
110.4897849368
 10
122.5850924129
 20
110.462228566
 10
122.5967660986
 20
110.4351904603
 10
122.6129711661
 20
110.40892643
 10
122.6335543029
 20
110.3836849372
 10
122.6583207845
 20
110.3597047712
 10
122.6870363076
 20
110.3372127973
 10
122.7194292006
 20
110.3164218086
 10
122.7551930045
 20
110.2975285022
  0
LWPOLYLINE
  5
22F
100
AcDbEntity
  8
ASSI
100
AcDbPolyline
 62
253
  6
CONTINUOUS
 90
10
 70
0
 10
122.5757369892
 20
110.517521374
 10
122.5780605649
 20
110.4897849368
 10
122.5850924129
 20
110.462228566
 10
122.5967660986
 20
110.4351904603
 10
122.6129711661
 20
110.40892643
 10
122.6335543029
 20
110.3836849372
 10
122.6583207845
 20
110.3597047712
 10
122.6870363076
 20
110.3372127973
 10
122.7194292006
 20
110.3164218086
 10
122.7551930045
 20
110.2975285022
  0
LWPOLYLINE
  5
230
100
AcDbEntity
  8
0
100
AcDbPolyline
 62
253
  6
CONTINUOUS
 90
12
 70
0
 10
123.0100959145
 20
92.8018920558
 10
123.0140225503
 20
92.7360978775
 10
123.0213931708
 20
92.6735931549
 10
123.032167471
 20
92.6146866938
 10
123.0462795492
 20
92.5596767225
 10
123.0636608192
 20
92.5088286085
 10
123.0842428222
 20
92.4623764775
 10
123.107916565
 20
92.4205530345
 10
123.1345597293
 20
92.3835725184
 10
123.1640614119
 20
92.3516106429
 10
123.1962634771
 20
92.3248332234
 10
123.2303682937
 20
92.3037678772
  0
LWPOLYLINE
  5
231
100
AcDbEntity
  8
ASSI
100
AcDbPolyline
 62
253
  6
CONTINUOUS
 90
12
 70
0
 10
123.0100959145
 20
92.8018920558
 10
123.0140225503
 20
92.7360978775
 10
123.0213931708
 20
92.6735931549
 10
123.032167471
 20
92.6146866938
 10
123.0462795492
 20
92.5596767225
 10
123.0636608192
 20
92.5088286085
 10
123.0842428222
 20
92.4623764775
 10
123.107916565
 20
92.4205530345
 10
123.1345597293
 20
92.3835725184
 10
123.1640614119
 20
92.3516106429
 10
123.1962634771
 20
92.3248332234
 10
123.2303682937
 20
92.3037678772
  0
LWPOLYLINE
  5
232
100
AcDbEntity
  8
0
100
AcDbPolyline
 62
7
  6
CONTINUOUS
 90
14
 70
0
 10
122.8236213279
 20
93.0275514299
 10
122.8246366587
 20
93.0021870803
 10
122.8325056834
 20
92.9125703643
 10
122.8466345934
 20
92.828541504
 10
122.8667122727
 20
92.7499778366
 10
122.8925187125
 20
92.6765764847
 10
122.9238791345
 20
92.6082278326
 10
122.9604674613
 20
92.5451464452
 10
123.0019997116
 20
92.4874102314
 10
123.048197862
 20
92.435138533
 10
123.0985150065
 20
92.3887096778
 10
123.1524491501
 20
92.3483115703
 10
123.209657642
 20
92.3140008737
 10
123.2442307368
 20
92.2969185354
  0
LWPOLYLINE
  5
233
100
AcDbEntity
  8
ASSI
100
AcDbPolyline
 62
7
  6
CONTINUOUS
 90
14
 70
0
 10
122.8236213279
 20
93.0275514299
 10
122.8246366587
 20
93.0021870803
 10
122.8325056834
 20
92.9125703643
 10
122.8466345934
 20
92.828541504
 10
122.8667122727
 20
92.7499778366
 10
122.8925187125
 20
92.6765764847
 10
122.9238791345
 20
92.6082278326
 10
122.9604674613
 20
92.5451464452
 10
123.0019997116
 20
92.4874102314
 10
123.048197862
 20
92.435138533
 10
123.0985150065
 20
92.3887096778
 10
123.1524491501
 20
92.3483115703
 10
123.209657642
 20
92.3140008737
 10
123.2442307368
 20
92.2969185354
  0
LWPOLYLINE
  5
234
100
AcDbEntity
  8
0
100
AcDbPolyline
 62
253
  6
CONTINUOUS
 90
9
 70
0
 10
122.7551930045
 20
110.2975285022
 10
122.7565931179
 20
110.2554977452
 10
122.7619039319
 20
110.2170188303
 10
122.7706776746
 20
110.1820225553
 10
122.7824520842
 20
110.1505083024
 10
122.7973891182
 20
110.1226890616
 10
122.8157535261
 20
110.0990107057
 10
122.8367342836
 20
110.0800470602
 10
122.8597933106
 20
110.0660441755
  0
LWPOLYLINE
  5
235
100
AcDbEntity
  8
ASSI
100
AcDbPolyline
 62
253
  6
CONTINUOUS
 90
9
 70
0
 10
122.7551930045
 20
110.2975285022
 10
122.7565931179
 20
110.2554977452
 10
122.7619039319
 20
110.2170188303
 10
122.7706776746
 20
110.1820225553
 10
122.7824520842
 20
110.1505083024
 10
122.7973891182
 20
110.1226890616
 10
122.8157535261
 20
110.0990107057
 10
122.8367342836
 20
110.0800470602
 10
122.8597933106
 20
110.0660441755
  0
LWPOLYLINE
  5
236
100
AcDbEntity
  8
0
100
AcDbPolyline
 62
7
  6
CONTINUOUS
 90
10
 70
0
 10
122.5757370272
 20
109.3066715491
 10
122.5802582108
 20
107.5297087731
 10
122.5906330338
 20
105.691752718
 10
122.6067978619
 20
103.8588154028
 10
122.6287528194
 20
102.0309358929
 10
122.6564978395
 20
100.2081510201
 10
122.6900328572
 20
98.3904966187
 10
122.7293572633
 20
96.5780138419
 10
122.7744699484
 20
94.7707486682
 10
122.8236095066
 20
93.0277344337
  0
LWPOLYLINE
  5
237
100
AcDbEntity
  8
ASSI
100
AcDbPolyline
 62
7
  6
CONTINUOUS
 90
10
 70
0
 10
122.5757370272
 20
109.3066715491
 10
122.5802582108
 20
107.5297087731
 10
122.5906330338
 20
105.691752718
 10
122.6067978619
 20
103.8588154028
 10
122.6287528194
 20
102.0309358929
 10
122.6564978395
 20
100.2081510201
 10
122.6900328572
 20
98.3904966187
 10
122.7293572633
 20
96.5780138419
 10
122.7744699484
 20
94.7707486682
 10
122.8236095066
 20
93.0277344337
  0
LWPOLYLINE
  5
238
100
AcDbEntity
  8
0
100
AcDbPolyline
 62
253
  6
CONTINUOUS
 90
10
 70
0
 10
122.7551930558
 20
109.0864646695
 10
122.7594799981
 20
107.3979988295
 10
122.7689346371
 20
105.6884559248
 10
122.7837871383
 20
103.958059312
 10
122.8041003913
 20
102.2201568929
 10
122.8301984179
 20
100.4617937431
 10
122.8630832745
 20
98.6440663955
 10
122.9036891691
 20
96.7545496916
 10
122.9524655291
 20
94.8069433585
 10
123.0100958353
 20
92.8018920246
  0
LWPOLYLINE
  5
239
100
AcDbEntity
  8
ASSI
100
AcDbPolyline
 62
253
  6
CONTINUOUS
 90
10
 70
0
 10
122.7551930558
 20
109.0864646695
 10
122.7594799981
 20
107.3979988295
 10
122.7689346371
 20
105.6884559248
 10
122.7837871383
 20
103.958059312
 10
122.8041003913
 20
102.2201568929
 10
122.8301984179
 20
100.4617937431
 10
122.8630832745
 20
98.6440663955
 10
122.9036891691
 20
96.7545496916
 10
122.9524655291
 20
94.8069433585
 10
123.0100958353
 20
92.8018920246
  0
LWPOLYLINE
  5
23A
100
AcDbEntity
  8
0
100
AcDbPolyline
 62
7
  6
CONTINUOUS
 90
10
 70
0
 10
122.8235882883
 20
127.2249478624
 10
122.7745963918
 20
125.4025613206
 10
122.7294713715
 20
123.5172943787
 10
122.6901336124
 20
121.6368184765
 10
122.6565843115
 20
119.7611796704
 10
122.6288240418
 20
117.8904178844
 10
122.6068531584
 20
116.0245707003
 10
122.5906719415
 20
114.1636762289
 10
122.5802802637
 20
112.3077741139
 10
122.5757369892
 20
110.517521374
  0
LWPOLYLINE
  5
23B
100
AcDbEntity
  8
ASSI
100
AcDbPolyline
 62
7
  6
CONTINUOUS
 90
10
 70
0
 10
122.8235882883
 20
127.2249478624
 10
122.7745963918
 20
125.4025613206
 10
122.7294713715
 20
123.5172943787
 10
122.6901336124
 20
121.6368184765
 10
122.6565843115
 20
119.7611796704
 10
122.6288240418
 20
117.8904178844
 10
122.6068531584
 20
116.0245707003
 10
122.5906719415
 20
114.1636762289
 10
122.5802802637
 20
112.3077741139
 10
122.5757369892
 20
110.517521374
  0
LWPOLYLINE
  5
23C
100
AcDbEntity
  8
0
100
AcDbPolyline
 62
253
  6
CONTINUOUS
 90
10
 70
0
 10
123.010095811
 20
127.0051782807
 10
122.9565873228
 20
125.0638136752
 10
122.9101076112
 20
123.1596733096
 10
122.8703446166
 20
121.2925589609
 10
122.8373421974
 20
119.483225179
 10
122.8103199244
 20
117.7104199594
 10
122.7883132281
 20
115.9113888698
 10
122.7714500976
 20
114.065594833
 10
122.7603109367
 20
112.1942143989
 10
122.7551930575
 20
110.2975284687
  0
LWPOLYLINE
  5
23D
100
AcDbEntity
  8
ASSI
100
AcDbPolyline
 62
253
  6
CONTINUOUS
 90
10
 70
0
 10
123.010095811
 20
127.0051782807
 10
122.9565873228
 20
125.0638136752
 10
122.9101076112
 20
123.1596733096
 10
122.8703446166
 20
121.2925589609
 10
122.8373421974
 20
119.483225179
 10
122.8103199244
 20
117.7104199594
 10
122.7883132281
 20
115.9113888698
 10
122.7714500976
 20
114.065594833
 10
122.7603109367
 20
112.1942143989
 10
122.7551930575
 20
110.2975284687
  0
LWPOLYLINE
  5
23E
100
AcDbEntity
  8
0
100
AcDbPolyline
 62
253
  6
CONTINUOUS
 90
16
 70
0
 10
122.7551930415
 20
109.0864647243
 10
122.7565931759
 20
109.131243604
 10
122.7619043778
 20
109.1767260924
 10
122.7706787436
 20
109.2230364184
 10
122.7824538325
 20
109.2707019855
 10
122.797391567
 20
109.3194105233
 10
122.8157567382
 20
109.3677693968
 10
122.8367381396
 20
109.4152230957
 10
122.8600052756
 20
109.4617976312
 10
122.8860525368
 20
109.5066227086
 10
122.9141236991
 20
109.5491645156
 10
122.9435121127
 20
109.5892013049
 10
122.9747460183
 20
109.6261281618
 10
123.0075099959
 20
109.6594779524
 10
123.040598712
 20
109.6890645333
 10
123.0732340955
 20
109.7146961289
  0
LWPOLYLINE
  5
23F
100
AcDbEntity
  8
ASSI
100
AcDbPolyline
 62
253
  6
CONTINUOUS
 90
16
 70
0
 10
122.7551930415
 20
109.0864647243
 10
122.7565931759
 20
109.131243604
 10
122.7619043778
 20
109.1767260924
 10
122.7706787436
 20
109.2230364184
 10
122.7824538325
 20
109.2707019855
 10
122.797391567
 20
109.3194105233
 10
122.8157567382
 20
109.3677693968
 10
122.8367381396
 20
109.4152230957
 10
122.8600052756
 20
109.4617976312
 10
122.8860525368
 20
109.5066227086
 10
122.9141236991
 20
109.5491645156
 10
122.9435121127
 20
109.5892013049
 10
122.9747460183
 20
109.6261281618
 10
123.0075099959
 20
109.6594779524
 10
123.040598712
 20
109.6890645333
 10
123.0732340955
 20
109.7146961289
  0
LINE
  5
240
100
AcDbEntity
  8
0
100
AcDbLine
 62
7
  6
CONTINUOUS
 10
140.0500125353
 20
123.7740965517
 11
139.4141076182
 21
123.5779294676
  0
LINE
  5
241
100
AcDbEntity
  8
ASSI
100
AcDbLine
 62
7
  6
CONTINUOUS
 10
140.0500125353
 20
123.7740965517
 11
139.4141076182
 21
123.5779294676
  0
LWPOLYLINE
  5
242
100
AcDbEntity
  8
0
100
AcDbPolyline
 62
253
  6
CONTINUOUS
 90
16
 70
0
 10
158.5266838548
 20
78.5376295689
 10
158.570013765
 20
78.5244664196
 10
158.6154297965
 20
78.5139786565
 10
158.6624915696
 20
78.506267975
 10
158.7107427461
 20
78.5014091423
 10
158.759715455
 20
78.4994492723
 10
158.8089348288
 20
78.5004073692
 10
158.8579236082
 20
78.5042741428
 10
158.90620677
 20
78.5110120984
 10
158.9533161328
 20
78.5205559011
 10
158.9987948972
 20
78.5328130087
 10
159.042202075
 20
78.5476645692
 10
159.0831167654
 20
78.5649665734
 10
159.121142236
 20
78.5845512511
 10
159.15590977
 20
78.606228698
 10
159.1870822415
 20
78.6297887173
  0
LWPOLYLINE
  5
243
100
AcDbEntity
  8
ASSI
100
AcDbPolyline
 62
253
  6
CONTINUOUS
 90
16
 70
0
 10
158.5266838548
 20
78.5376295689
 10
158.570013765
 20
78.5244664196
 10
158.6154297965
 20
78.5139786565
 10
158.6624915696
 20
78.506267975
 10
158.7107427461
 20
78.5014091423
 10
158.759715455
 20
78.4994492723
 10
158.8089348288
 20
78.5004073692
 10
158.8579236082
 20
78.5042741428
 10
158.90620677
 20
78.5110120984
 10
158.9533161328
 20
78.5205559011
 10
158.9987948972
 20
78.5328130087
 10
159.042202075
 20
78.5476645692
 10
159.0831167654
 20
78.5649665734
 10
159.121142236
 20
78.5845512511
 10
159.15590977
 20
78.606228698
 10
159.1870822415
 20
78.6297887173
  0
LWPOLYLINE
  5
244
100
AcDbEntity
  8
0
100
AcDbPolyline
 62
7
  6
CONTINUOUS
 90
14
 70
0
 10
158.7721972666
 20
78.0280313502
 10
158.7779145571
 20
78.0260554886
 10
158.8309787854
 20
78.0104063385
 10
158.8855286386
 20
77.9991157152
 10
158.9413273156
 20
77.9922933322
 10
158.9983554496
 20
77.9900423492
 10
159.0563807316
 20
77.992512638
 10
159.115001781
 20
77.9998198151
 10
159.1740387623
 20
78.0120590119
 10
159.2332603831
 20
78.0293050736
 10
159.2924259522
 20
78.0516141975
 10
159.3515089667
 20
78.079130247
 10
159.4104513925
 20
78.1120073094
 10
159.468481318
 20
78.1499178817
  0
LWPOLYLINE
  5
245
100
AcDbEntity
  8
ASSI
100
AcDbPolyline
 62
7
  6
CONTINUOUS
 90
14
 70
0
 10
158.7721972666
 20
78.0280313502
 10
158.7779145571
 20
78.0260554886
 10
158.8309787854
 20
78.0104063385
 10
158.8855286386
 20
77.9991157152
 10
158.9413273156
 20
77.9922933322
 10
158.9983554496
 20
77.9900423492
 10
159.0563807316
 20
77.992512638
 10
159.115001781
 20
77.9998198151
 10
159.1740387623
 20
78.0120590119
 10
159.2332603831
 20
78.0293050736
 10
159.2924259522
 20
78.0516141975
 10
159.3515089667
 20
78.079130247
 10
159.4104513925
 20
78.1120073094
 10
159.468481318
 20
78.1499178817
  0
LINE
  5
246
100
AcDbEntity
  8
0
100
AcDbLine
 62
7
  6
CONTINUOUS
 10
127.1954009197
 20
128.4740636244
 11
127.1960698321
 21
128.4849688917
  0
LINE
  5
247
100
AcDbEntity
  8
ASSI
100
AcDbLine
 62
7
  6
CONTINUOUS
 10
127.1954009197
 20
128.4740636244
 11
127.1960698321
 21
128.4849688917
  0
LINE
  5
248
100
AcDbEntity
  8
0
100
AcDbLine
 62
7
  6
CONTINUOUS
 10
127.2572220876
 20
128.9119696022
 11
127.1960698321
 21
128.4849688917
  0
LINE
  5
249
100
AcDbEntity
  8
ASSI
100
AcDbLine
 62
7
  6
CONTINUOUS
 10
127.2572220876
 20
128.9119696022
 11
127.1960698321
 21
128.4849688917
  0
LWPOLYLINE
  5
24A
100
AcDbEntity
  8
0
100
AcDbPolyline
 62
7
  6
CONTINUOUS
 90
12
 70
0
 10
122.7455373385
 20
109.6826432749
 10
122.7330831653
 20
109.6713128176
 10
122.7045794482
 20
109.6422115097
 10
122.6785819813
 20
109.6109423765
 10
122.6551917133
 20
109.5776332801
 10
122.6345682288
 20
109.5424947658
 10
122.6168872652
 20
109.5058239682
 10
122.6022417475
 20
109.4678172321
 10
122.590704389
 20
109.4286089797
 10
122.5823850623
 20
109.3884510268
 10
122.5773808429
 20
109.3476985613
 10
122.5757370272
 20
109.3066715441
  0
LWPOLYLINE
  5
24B
100
AcDbEntity
  8
ASSI
100
AcDbPolyline
 62
7
  6
CONTINUOUS
 90
12
 70
0
 10
122.7455373385
 20
109.6826432749
 10
122.7330831653
 20
109.6713128176
 10
122.7045794482
 20
109.6422115097
 10
122.6785819813
 20
109.6109423765
 10
122.6551917133
 20
109.5776332801
 10
122.6345682288
 20
109.5424947658
 10
122.6168872652
 20
109.5058239682
 10
122.6022417475
 20
109.4678172321
 10
122.590704389
 20
109.4286089797
 10
122.5823850623
 20
109.3884510268
 10
122.5773808429
 20
109.3476985613
 10
122.5757370272
 20
109.3066715441
  0
LINE
  5
24C
100
AcDbEntity
  8
0
100
AcDbLine
 62
7
  6
CONTINUOUS
 10
122.7455229247
 20
109.6826305986
 11
123.06880294
 21
109.9669640768
  0
LINE
  5
24D
100
AcDbEntity
  8
ASSI
100
AcDbLine
 62
7
  6
CONTINUOUS
 10
122.7455229247
 20
109.6826305986
 11
123.06880294
 21
109.9669640768
  0
LINE
  5
24E
100
AcDbEntity
  8
0
100
AcDbLine
 62
253
  6
CONTINUOUS
 10
123.073234075
 20
109.7146961114
 11
123.2580547413
 21
109.8772508639
  0
LINE
  5
24F
100
AcDbEntity
  8
ASSI
100
AcDbLine
 62
253
  6
CONTINUOUS
 10
123.073234075
 20
109.7146961114
 11
123.2580547413
 21
109.8772508639
  0
LWPOLYLINE
  5
250
100
AcDbEntity
  8
0
100
AcDbPolyline
 62
253
  6
CONTINUOUS
 90
12
 70
0
 10
122.7455373385
 20
109.6826432749
 10
122.7542192121
 20
109.689906913
 10
122.7786502975
 20
109.7069025009
 10
122.8053232842
 20
109.720825113
 10
122.8340497441
 20
109.7315860208
 10
122.8646323895
 20
109.7391112511
 10
122.8968538252
 20
109.7433406312
 10
122.9304566403
 20
109.744234025
 10
122.9651668661
 20
109.7417828367
 10
123.000712328
 20
109.7360083958
 10
123.0368268295
 20
109.726956005
 10
123.0732340951
 20
109.7146961291
  0
LWPOLYLINE
  5
251
100
AcDbEntity
  8
ASSI
100
AcDbPolyline
 62
253
  6
CONTINUOUS
 90
12
 70
0
 10
122.7455373385
 20
109.6826432749
 10
122.7542192121
 20
109.689906913
 10
122.7786502975
 20
109.7069025009
 10
122.8053232842
 20
109.720825113
 10
122.8340497441
 20
109.7315860208
 10
122.8646323895
 20
109.7391112511
 10
122.8968538252
 20
109.7433406312
 10
122.9304566403
 20
109.744234025
 10
122.9651668661
 20
109.7417828367
 10
123.000712328
 20
109.7360083958
 10
123.0368268295
 20
109.726956005
 10
123.0732340951
 20
109.7146961291
  0
LWPOLYLINE
  5
252
100
AcDbEntity
  8
0
100
AcDbPolyline
 62
7
  6
CONTINUOUS
 90
10
 70
0
 10
150.0229324231
 20
81.3106226391
 10
150.9334323278
 20
80.9477790872
 10
151.9135871548
 20
80.5628458212
 10
152.8972515486
 20
80.1823725191
 10
153.8843561838
 20
79.8063775486
 10
154.8748381985
 20
79.4348758067
 10
155.8686369573
 20
79.0678810046
 10
156.8656905997
 20
78.7054069064
 10
157.8659334994
 20
78.3474676931
 10
158.7726062788
 20
78.0278878817
  0
LWPOLYLINE
  5
253
100
AcDbEntity
  8
ASSI
100
AcDbPolyline
 62
7
  6
CONTINUOUS
 90
10
 70
0
 10
150.0229324231
 20
81.3106226391
 10
150.9334323278
 20
80.9477790872
 10
151.9135871548
 20
80.5628458212
 10
152.8972515486
 20
80.1823725191
 10
153.8843561838
 20
79.8063775486
 10
154.8748381985
 20
79.4348758067
 10
155.8686369573
 20
79.0678810046
 10
156.8656905997
 20
78.7054069064
 10
157.8659334994
 20
78.3474676931
 10
158.7726062788
 20
78.0278878817
  0
LWPOLYLINE
  5
254
100
AcDbEntity
  8
0
100
AcDbPolyline
 62
253
  6
CONTINUOUS
 90
13
 70
0
 10
149.7828836612
 20
81.8098068741
 10
150.5287931627
 20
81.5123923653
 10
151.2659057117
 20
81.2219304396
 10
151.9940688483
 20
80.9383215505
 10
152.7095789682
 20
80.6628186517
 10
153.4158198511
 20
80.3939488355
 10
154.1233906135
 20
80.1276239095
 10
154.8318736035
 20
79.8639961751
 10
155.5416318467
 20
79.602913229
 10
156.2646759148
 20
79.3400406323
 10
157.0051315705
 20
79.0740610703
 10
157.7591007407
 20
78.806550421
 10
158.5266838536
 20
78.5376295776
  0
LWPOLYLINE
  5
255
100
AcDbEntity
  8
ASSI
100
AcDbPolyline
 62
253
  6
CONTINUOUS
 90
13
 70
0
 10
149.7828836612
 20
81.8098068741
 10
150.5287931627
 20
81.5123923653
 10
151.2659057117
 20
81.2219304396
 10
151.9940688483
 20
80.9383215505
 10
152.7095789682
 20
80.6628186517
 10
153.4158198511
 20
80.3939488355
 10
154.1233906135
 20
80.1276239095
 10
154.8318736035
 20
79.8639961751
 10
155.5416318467
 20
79.602913229
 10
156.2646759148
 20
79.3400406323
 10
157.0051315705
 20
79.0740610703
 10
157.7591007407
 20
78.806550421
 10
158.5266838536
 20
78.5376295776
  0
LINE
  5
256
100
AcDbEntity
  8
0
100
AcDbLine
 62
253
  6
CONTINUOUS
 10
131.3519626647
 20
89.2120802617
 11
149.7828836612
 21
81.8098068741
  0
LINE
  5
257
100
AcDbEntity
  8
ASSI
100
AcDbLine
 62
253
  6
CONTINUOUS
 10
131.3519626647
 20
89.2120802617
 11
149.7828836612
 21
81.8098068741
  0
LINE
  5
258
100
AcDbEntity
  8
0
100
AcDbLine
 62
7
  6
CONTINUOUS
 10
131.5921673186
 20
88.7128327701
 11
150.0229343214
 21
81.31062128
  0
LINE
  5
259
100
AcDbEntity
  8
ASSI
100
AcDbLine
 62
7
  6
CONTINUOUS
 10
131.5921673186
 20
88.7128327701
 11
150.0229343214
 21
81.31062128
  0
LWPOLYLINE
  5
25A
100
AcDbEntity
  8
0
100
AcDbPolyline
 62
253
  6
CONTINUOUS
 90
13
 70
0
 10
158.77219194
 20
78.0280332752
 10
158.7379155207
 20
78.0430000235
 10
158.7045270532
 20
78.0639140046
 10
158.6736138592
 20
78.0901737847
 10
158.6453176524
 20
78.1216515143
 10
158.619762555
 20
78.1581950386
 10
158.5970955464
 20
78.1996141551
 10
158.5774226317
 20
78.2457011772
 10
158.5608259597
 20
78.296234181
 10
158.5473980925
 20
78.3509693582
 10
158.537206522
 20
78.40964178
 10
158.5302913208
 20
78.4719635916
 10
158.5266838566
 20
78.5376295763
  0
LWPOLYLINE
  5
25B
100
AcDbEntity
  8
ASSI
100
AcDbPolyline
 62
253
  6
CONTINUOUS
 90
13
 70
0
 10
158.77219194
 20
78.0280332752
 10
158.7379155207
 20
78.0430000235
 10
158.7045270532
 20
78.0639140046
 10
158.6736138592
 20
78.0901737847
 10
158.6453176524
 20
78.1216515143
 10
158.619762555
 20
78.1581950386
 10
158.5970955464
 20
78.1996141551
 10
158.5774226317
 20
78.2457011772
 10
158.5608259597
 20
78.296234181
 10
158.5473980925
 20
78.3509693582
 10
158.537206522
 20
78.40964178
 10
158.5302913208
 20
78.4719635916
 10
158.5266838566
 20
78.5376295763
  0
LWPOLYLINE
  5
25C
100
AcDbEntity
  8
0
100
AcDbPolyline
 62
7
  6
CONTINUOUS
 90
10
 70
0
 10
123.243708993
 20
92.2971539707
 10
124.0664856467
 20
91.9224668276
 10
124.9911263416
 20
91.5072563773
 10
125.9226118345
 20
91.0951233625
 10
126.8608973946
 20
90.6860960485
 10
127.8059409282
 20
90.2802007426
 10
128.7577013727
 20
89.8774631973
 10
129.7161304787
 20
89.4779114533
 10
130.6811716479
 20
89.0815761133
 10
131.5921705914
 20
88.7128321036
  0
LWPOLYLINE
  5
25D
100
AcDbEntity
  8
ASSI
100
AcDbPolyline
 62
7
  6
CONTINUOUS
 90
10
 70
0
 10
123.243708993
 20
92.2971539707
 10
124.0664856467
 20
91.9224668276
 10
124.9911263416
 20
91.5072563773
 10
125.9226118345
 20
91.0951233625
 10
126.8608973946
 20
90.6860960485
 10
127.8059409282
 20
90.2802007426
 10
128.7577013727
 20
89.8774631973
 10
129.7161304787
 20
89.4779114533
 10
130.6811716479
 20
89.0815761133
 10
131.5921705914
 20
88.7128321036
  0
LWPOLYLINE
  5
25E
100
AcDbEntity
  8
0
100
AcDbPolyline
 62
253
  6
CONTINUOUS
 90
10
 70
0
 10
123.0100958353
 20
92.8018920246
 10
123.844732082
 20
92.4203029828
 10
124.6974507635
 20
92.0358498284
 10
125.5684228613
 20
91.6487023222
 10
126.4518715118
 20
91.2616476922
 10
127.3538455066
 20
90.8721975127
 10
128.2925438004
 20
90.4728365726
 10
129.2744732898
 20
90.0614434214
 10
130.2941229392
 20
89.641041638
 10
131.3519626647
 20
89.2120802617
  0
LWPOLYLINE
  5
25F
100
AcDbEntity
  8
ASSI
100
AcDbPolyline
 62
253
  6
CONTINUOUS
 90
10
 70
0
 10
123.0100958353
 20
92.8018920246
 10
123.844732082
 20
92.4203029828
 10
124.6974507635
 20
92.0358498284
 10
125.5684228613
 20
91.6487023222
 10
126.4518715118
 20
91.2616476922
 10
127.3538455066
 20
90.8721975127
 10
128.2925438004
 20
90.4728365726
 10
129.2744732898
 20
90.0614434214
 10
130.2941229392
 20
89.641041638
 10
131.3519626647
 20
89.2120802617
  0
LWPOLYLINE
  5
260
100
AcDbEntity
  8
0
100
AcDbPolyline
 62
253
  6
CONTINUOUS
 90
10
 70
0
 10
123.0101039289
 20
92.8018981994
 10
122.9733154998
 20
92.820912188
 10
122.9399215519
 20
92.8420759981
 10
122.9102458858
 20
92.8651844172
 10
122.8845762481
 20
92.8900133772
 10
122.8631615415
 20
92.9163221271
 10
122.846209411
 20
92.9438555673
 10
122.8338842311
 20
92.9723467233
 10
122.8263055114
 20
93.0015193337
 10
122.8236213279
 20
93.0275514299
  0
LWPOLYLINE
  5
261
100
AcDbEntity
  8
ASSI
100
AcDbPolyline
 62
253
  6
CONTINUOUS
 90
10
 70
0
 10
123.0101039289
 20
92.8018981994
 10
122.9733154998
 20
92.820912188
 10
122.9399215519
 20
92.8420759981
 10
122.9102458858
 20
92.8651844172
 10
122.8845762481
 20
92.8900133772
 10
122.8631615415
 20
92.9163221271
 10
122.846209411
 20
92.9438555673
 10
122.8338842311
 20
92.9723467233
 10
122.8263055114
 20
93.0015193337
 10
122.8236213279
 20
93.0275514299
  0
LINE
  5
262
100
AcDbEntity
  8
0
100
AcDbLine
 62
7
  6
CONTINUOUS
 10
127.2572220876
 20
128.9119696022
 11
127.2633193533
 21
128.3846829082
  0
LINE
  5
263
100
AcDbEntity
  8
ASSI
100
AcDbLine
 62
7
  6
CONTINUOUS
 10
127.2572220876
 20
128.9119696022
 11
127.2633193533
 21
128.3846829082
  0
LINE
  5
264
100
AcDbEntity
  8
0
100
AcDbLine
 62
253
  6
CONTINUOUS
 10
127.1960698321
 20
128.4849688917
 11
127.1960698321
 21
128.4740636244
  0
LINE
  5
265
100
AcDbEntity
  8
ASSI
100
AcDbLine
 62
253
  6
CONTINUOUS
 10
127.1960698321
 20
128.4849688917
 11
127.1960698321
 21
128.4740636244
  0
LINE
  5
266
100
AcDbEntity
  8
0
100
AcDbLine
 62
7
  6
CONTINUOUS
 10
149.3064306357
 20
120.0565103615
 11
148.6705257187
 21
119.8603432773
  0
LINE
  5
267
100
AcDbEntity
  8
ASSI
100
AcDbLine
 62
7
  6
CONTINUOUS
 10
149.3064306357
 20
120.0565103615
 11
148.6705257187
 21
119.8603432773
  0
LWPOLYLINE
  5
268
100
AcDbEntity
  8
0
100
AcDbPolyline
 62
253
  6
CONTINUOUS
 90
11
 70
0
 10
131.3519621065
 20
89.2120797632
 10
131.3571675531
 20
89.1366342843
 10
131.3668992829
 20
89.0657622222
 10
131.3810927578
 20
88.9999335804
 10
131.3996538505
 20
88.9395849158
 10
131.4224594692
 20
88.8851164437
 10
131.4493583734
 20
88.8368893835
 10
131.4801721771
 20
88.7952235635
 10
131.514696532
 20
88.7603952995
 10
131.5527024823
 20
88.7326355627
 10
131.5921673186
 20
88.7128327701
  0
LWPOLYLINE
  5
269
100
AcDbEntity
  8
ASSI
100
AcDbPolyline
 62
253
  6
CONTINUOUS
 90
11
 70
0
 10
131.3519621065
 20
89.2120797632
 10
131.3571675531
 20
89.1366342843
 10
131.3668992829
 20
89.0657622222
 10
131.3810927578
 20
88.9999335804
 10
131.3996538505
 20
88.9395849158
 10
131.4224594692
 20
88.8851164437
 10
131.4493583734
 20
88.8368893835
 10
131.4801721771
 20
88.7952235635
 10
131.514696532
 20
88.7603952995
 10
131.5527024823
 20
88.7326355627
 10
131.5921673186
 20
88.7128327701
  0
LWPOLYLINE
  5
26A
100
AcDbEntity
  8
0
100
AcDbPolyline
 62
253
  6
CONTINUOUS
 90
10
 70
0
 10
131.0399517239
 20
106.6611814278
 10
131.041460835
 20
106.6197789597
 10
131.0460809737
 20
106.5813641927
 10
131.0537619623
 20
106.5463543374
 10
131.0644203799
 20
106.5151296249
 10
131.0779404688
 20
106.4880291769
 10
131.0941753914
 20
106.4653473229
 10
131.1129488255
 20
106.4473304033
 10
131.1340568787
 20
106.4341740943
 10
131.1405968394
 20
106.4312840258
  0
LWPOLYLINE
  5
26B
100
AcDbEntity
  8
ASSI
100
AcDbPolyline
 62
253
  6
CONTINUOUS
 90
10
 70
0
 10
131.0399517239
 20
106.6611814278
 10
131.041460835
 20
106.6197789597
 10
131.0460809737
 20
106.5813641927
 10
131.0537619623
 20
106.5463543374
 10
131.0644203799
 20
106.5151296249
 10
131.0779404688
 20
106.4880291769
 10
131.0941753914
 20
106.4653473229
 10
131.1129488255
 20
106.4473304033
 10
131.1340568787
 20
106.4341740943
 10
131.1405968394
 20
106.4312840258
  0
LWPOLYLINE
  5
26C
100
AcDbEntity
  8
0
100
AcDbPolyline
 62
253
  6
CONTINUOUS
 90
10
 70
0
 10
131.0399518719
 20
105.4434866244
 10
131.0459250161
 20
103.6151471938
 10
131.0590754972
 20
101.7928672528
 10
131.0794020967
 20
99.9767031454
 10
131.1069040995
 20
98.1666819313
 10
131.1415800161
 20
96.3628893798
 10
131.1834264202
 20
94.5654689726
 10
131.2324401957
 20
92.774505028
 10
131.2886196984
 20
90.9900236974
 10
131.3519626647
 20
89.2120802617
  0
LWPOLYLINE
  5
26D
100
AcDbEntity
  8
ASSI
100
AcDbPolyline
 62
253
  6
CONTINUOUS
 90
10
 70
0
 10
131.0399518719
 20
105.4434866244
 10
131.0459250161
 20
103.6151471938
 10
131.0590754972
 20
101.7928672528
 10
131.0794020967
 20
99.9767031454
 10
131.1069040995
 20
98.1666819313
 10
131.1415800161
 20
96.3628893798
 10
131.1834264202
 20
94.5654689726
 10
131.2324401957
 20
92.774505028
 10
131.2886196984
 20
90.9900236974
 10
131.3519626647
 20
89.2120802617
  0
LWPOLYLINE
  5
26E
100
AcDbEntity
  8
0
100
AcDbPolyline
 62
253
  6
CONTINUOUS
 90
7
 70
0
 10
131.0399518719
 20
106.6611815479
 10
131.045925073
 20
108.4993177614
 10
131.0590756888
 20
110.3431523659
 10
131.0794024907
 20
112.1926270122
 10
131.1069047966
 20
114.0477160081
 10
131.141581084
 20
115.9083286029
 10
131.1834277298
 20
117.774308004
  0
LWPOLYLINE
  5
26F
100
AcDbEntity
  8
ASSI
100
AcDbPolyline
 62
253
  6
CONTINUOUS
 90
7
 70
0
 10
131.0399518719
 20
106.6611815479
 10
131.045925073
 20
108.4993177614
 10
131.0590756888
 20
110.3431523659
 10
131.0794024907
 20
112.1926270122
 10
131.1069047966
 20
114.0477160081
 10
131.141581084
 20
115.9083286029
 10
131.1834277298
 20
117.774308004
  0
LINE
  5
270
100
AcDbEntity
  8
0
100
AcDbLine
 62
253
  6
CONTINUOUS
 10
131.1834277298
 20
117.774308004
 11
131.2324414472
 21
119.6455621409
  0
LINE
  5
271
100
AcDbEntity
  8
ASSI
100
AcDbLine
 62
253
  6
CONTINUOUS
 10
131.1834277298
 20
117.774308004
 11
131.2324414472
 21
119.6455621409
  0
LWPOLYLINE
  5
272
100
AcDbEntity
  8
0
100
AcDbPolyline
 62
253
  6
CONTINUOUS
 90
3
 70
0
 10
131.2324414472
 20
119.6455621409
 10
131.2886205462
 20
121.5220646495
 10
131.3519626647
 20
123.4037564681
  0
LWPOLYLINE
  5
273
100
AcDbEntity
  8
ASSI
100
AcDbPolyline
 62
253
  6
CONTINUOUS
 90
3
 70
0
 10
131.2324414472
 20
119.6455621409
 10
131.2886205462
 20
121.5220646495
 10
131.3519626647
 20
123.4037564681
  0
LWPOLYLINE
  5
274
100
AcDbEntity
  8
0
100
AcDbPolyline
 62
253
  6
CONTINUOUS
 90
16
 70
0
 10
131.0399518693
 20
105.4434866223
 10
131.0414609811
 20
105.4873438912
 10
131.0460811183
 20
105.5332794033
 10
131.0537621031
 20
105.5807942678
 10
131.0644205148
 20
105.6293724412
 10
131.0779405958
 20
105.6784863315
 10
131.0941755088
 20
105.7276025285
 10
131.1129489317
 20
105.7761875972
 10
131.1340569725
 20
105.8237138706
 10
131.1572703834
 20
105.8696651812
 10
131.1823370511
 20
105.9135424667
 10
131.2089847345
 20
105.95486919
 10
131.2369240219
 20
105.9931965148
 10
131.2658514735
 20
106.0281081805
 10
131.2954529177
 20
106.0592250226
 10
131.3254068626
 20
106.0862090913
  0
LWPOLYLINE
  5
275
100
AcDbEntity
  8
ASSI
100
AcDbPolyline
 62
253
  6
CONTINUOUS
 90
16
 70
0
 10
131.0399518693
 20
105.4434866223
 10
131.0414609811
 20
105.4873438912
 10
131.0460811183
 20
105.5332794033
 10
131.0537621031
 20
105.5807942678
 10
131.0644205148
 20
105.6293724412
 10
131.0779405958
 20
105.6784863315
 10
131.0941755088
 20
105.7276025285
 10
131.1129489317
 20
105.7761875972
 10
131.1340569725
 20
105.8237138706
 10
131.1572703834
 20
105.8696651812
 10
131.1823370511
 20
105.9135424667
 10
131.2089847345
 20
105.95486919
 10
131.2369240219
 20
105.9931965148
 10
131.2658514735
 20
106.0281081805
 10
131.2954529177
 20
106.0592250226
 10
131.3254068626
 20
106.0862090913
  0
LWPOLYLINE
  5
276
100
AcDbEntity
  8
0
100
AcDbPolyline
 62
253
  6
CONTINUOUS
 90
19
 70
0
 10
131.3519626689
 20
123.4037564712
 10
131.3571681112
 20
123.4877192602
 10
131.3668998316
 20
123.5745181108
 10
131.381093292
 20
123.6635773984
 10
131.3996543656
 20
123.7543065076
 10
131.4224599607
 20
123.8461037491
 10
131.4493588373
 20
123.9383603505
 10
131.4801726098
 20
124.0304644927
 10
131.5146969301
 20
124.1218053676
 10
131.5527028431
 20
124.2117772292
 10
131.5939383045
 20
124.2997834102
 10
131.6381298528
 20
124.385240279
 10
131.6849844223
 20
124.4675811106
 10
131.7341912873
 20
124.5462598445
 10
131.7854241219
 20
124.620754706
 10
131.8383431651
 20
124.690571667
 10
131.8925974729
 20
124.7552477214
 10
131.9478272466
 20
124.8143539566
 10
132.0036662183
 20
124.8674983972
  0
LWPOLYLINE
  5
277
100
AcDbEntity
  8
ASSI
100
AcDbPolyline
 62
253
  6
CONTINUOUS
 90
19
 70
0
 10
131.3519626689
 20
123.4037564712
 10
131.3571681112
 20
123.4877192602
 10
131.3668998316
 20
123.5745181108
 10
131.381093292
 20
123.6635773984
 10
131.3996543656
 20
123.7543065076
 10
131.4224599607
 20
123.8461037491
 10
131.4493588373
 20
123.9383603505
 10
131.4801726098
 20
124.0304644927
 10
131.5146969301
 20
124.1218053676
 10
131.5527028431
 20
124.2117772292
 10
131.5939383045
 20
124.2997834102
 10
131.6381298528
 20
124.385240279
 10
131.6849844223
 20
124.4675811106
 10
131.7341912873
 20
124.5462598445
 10
131.7854241219
 20
124.620754706
 10
131.8383431651
 20
124.690571667
 10
131.8925974729
 20
124.7552477214
 10
131.9478272466
 20
124.8143539566
 10
132.0036662183
 20
124.8674983972
  0
LWPOLYLINE
  5
278
100
AcDbEntity
  8
0
100
AcDbPolyline
 62
253
  6
CONTINUOUS
 90
19
 70
0
 10
137.1399002142
 20
113.0475419436
 10
137.2895310962
 20
113.1402909781
 10
137.4409405143
 20
113.2305702366
 10
137.5941032664
 20
113.3183656198
 10
137.7489941509
 20
113.4036630285
 10
137.9055879658
 20
113.4864483632
 10
138.0638595094
 20
113.5667075247
 10
138.2237840034
 20
113.644426999
 10
138.3853383642
 20
113.7195956136
 10
138.5484999316
 20
113.7922027814
 10
138.7132460456
 20
113.8622379152
 10
138.8795540461
 20
113.9296904281
 10
139.047401273
 20
113.9945497329
 10
139.2167642749
 20
114.0568053049
 10
139.3876164342
 20
114.1164468694
 10
139.5599303422
 20
114.173464214
 10
139.7336785901
 20
114.2278471263
 10
139.9088337689
 20
114.2795853939
 10
140.0853684698
 20
114.3286688046
  0
LWPOLYLINE
  5
279
100
AcDbEntity
  8
0
100
AcDbPolyline
 62
253
  6
CONTINUOUS
 90
42
 70
0
 10
140.5732937771
 20
91.1596252288
 10
140.5660083648
 20
91.1578311305
 10
140.5586038639
 20
91.1562897352
 10
140.5510864772
 20
91.1550002502
 10
140.5434624077
 20
91.1539618824
 10
140.5357378583
 20
91.1531738389
 10
140.5279190318
 20
91.1526353268
 10
140.5200121311
 20
91.152345553
 10
140.5120233593
 20
91.1523037247
 10
140.5039589192
 20
91.1525090489
 10
140.4948036997
 20
91.1530340125
 10
140.4855693926
 20
91.1538668666
 10
140.4762648274
 20
91.1550037026
 10
140.4668988338
 20
91.1564406124
 10
140.4574802413
 20
91.1581736874
 10
140.4480178795
 20
91.1601990193
 10
140.4385205778
 20
91.1625126998
 10
140.4289971659
 20
91.1651108205
 10
140.4194553318
 20
91.1679900665
 10
140.4098981975
 20
91.171149498
 10
140.4003277434
 20
91.1745887685
 10
140.39074595
 20
91.1783075316
 10
140.3811547976
 20
91.1823054409
 10
140.3715562668
 20
91.1865821501
 10
140.3619523379
 20
91.1911373127
 10
140.3523449914
 20
91.1959705823
 10
140.342737847
 20
91.2010807078
 10
140.3331410822
 20
91.2064628183
 10
140.3235665133
 20
91.2121111381
 10
140.314025957
 20
91.2180198917
 10
140.30453123
 20
91.2241833033
 10
140.2950941488
 20
91.2305955972
 10
140.28572653
 20
91.2372509979
 10
140.2764401902
 20
91.2441437296
 10
140.2672461628
 20
91.2512679487
 10
140.2581523481
 20
91.2586175387
 10
140.2491658634
 20
91.2661863154
 10
140.2402938259
 20
91.2739680943
 10
140.2315433526
 20
91.281956691
 10
140.2229215608
 20
91.2901459211
 10
140.2144355676
 20
91.2985296002
 10
140.2060924902
 20
91.307101544
  0
LWPOLYLINE
  5
27A
100
AcDbEntity
  8
0
100
AcDbPolyline
 62
253
  6
CONTINUOUS
 90
41
 70
0
 10
140.7186565536
 20
90.6139015913
 10
140.70463693
 20
90.6106740113
 10
140.6903566033
 20
90.607969713
 10
140.675827322
 20
90.6057895593
 10
140.6610608348
 20
90.6041344131
 10
140.6460688904
 20
90.6030051373
 10
140.6308632374
 20
90.6024025948
 10
140.6154556244
 20
90.6023276485
 10
140.5998578002
 20
90.6027811613
 10
140.5840827669
 20
90.603762814
 10
140.5681485411
 20
90.6052675584
 10
140.5520743925
 20
90.6072891644
 10
140.5358795913
 20
90.6098214017
 10
140.5195834074
 20
90.61285804
 10
140.5032051108
 20
90.6163928491
 10
140.4867639715
 20
90.6204195989
 10
140.4702792595
 20
90.624932059
 10
140.4537674474
 20
90.6299249343
 10
140.4372338194
 20
90.6353966699
 10
140.4206808621
 20
90.6413466461
 10
140.4041110623
 20
90.6477742431
 10
140.3875269068
 20
90.6546788412
 10
140.3709308822
 20
90.6620598205
 10
140.3543254754
 20
90.6699165614
 10
140.3377131731
 20
90.678248444
 10
140.3210997218
 20
90.6870530134
 10
140.3045039072
 20
90.6963204738
 10
140.2879477748
 20
90.7060391941
 10
140.2714533701
 20
90.7161975435
 10
140.2550427385
 20
90.7267838909
 10
140.2387379255
 20
90.7377866053
 10
140.2225609766
 20
90.7491940557
 10
140.2065339371
 20
90.7609946112
 10
140.1906769165
 20
90.773176815
 10
140.1750022789
 20
90.7857299078
 10
140.1595204524
 20
90.7986433043
 10
140.1442418652
 20
90.8119064194
 10
140.1291769453
 20
90.8255086679
 10
140.1143361207
 20
90.8394394648
 10
140.0997298195
 20
90.8536882248
 10
140.0853684698
 20
90.8682443629
  0
LWPOLYLINE
  5
27B
100
AcDbEntity
  8
0
100
AcDbPolyline
 62
7
  6
CONTINUOUS
 90
8
 70
0
 10
122.6776638776
 20
110.2144556003
 10
122.651702552
 20
110.2520646504
 10
122.62917332
 20
110.2921056116
 10
122.6103481336
 20
110.3342146148
 10
122.5953803311
 20
110.378235839
 10
122.5844970347
 20
110.4238230683
 10
122.5779121696
 20
110.4704192215
 10
122.5757369892
 20
110.5175213786
  0
LWPOLYLINE
  5
27C
100
AcDbEntity
  8
ASSI
100
AcDbPolyline
 62
7
  6
CONTINUOUS
 90
8
 70
0
 10
122.6776638776
 20
110.2144556003
 10
122.651702552
 20
110.2520646504
 10
122.62917332
 20
110.2921056116
 10
122.6103481336
 20
110.3342146148
 10
122.5953803311
 20
110.378235839
 10
122.5844970347
 20
110.4238230683
 10
122.5779121696
 20
110.4704192215
 10
122.5757369892
 20
110.5175213786
  0
LINE
  5
27D
100
AcDbEntity
  8
0
100
AcDbLine
 62
7
  6
CONTINUOUS
 10
136.4317249837
 20
125.2272824048
 11
136.3705727282
 21
124.8002816943
  0
LINE
  5
27E
100
AcDbEntity
  8
ASSI
100
AcDbLine
 62
7
  6
CONTINUOUS
 10
136.4317249837
 20
125.2272824048
 11
136.3705727282
 21
124.8002816943
  0
LWPOLYLINE
  5
27F
100
AcDbEntity
  8
0
100
AcDbPolyline
 62
253
  6
CONTINUOUS
 90
19
 70
0
 10
137.13575182
 20
111.3319373601
 10
137.2835787749
 20
111.4464093663
 10
137.4337575432
 20
111.5579737437
 10
137.5862565882
 20
111.666607872
 10
137.741044373
 20
111.7722891309
 10
137.8980893611
 20
111.8749949
 10
138.0573600157
 20
111.9747025591
 10
138.218824565
 20
112.071390116
 10
138.3824502979
 20
112.1650380907
 10
138.5482042679
 20
112.2556276315
 10
138.7160535288
 20
112.3431398864
 10
138.8859651343
 20
112.4275560036
 10
139.0579061383
 20
112.5088571313
 10
139.2318430554
 20
112.587024892
 10
139.4077402449
 20
112.6620428049
 10
139.585561527
 20
112.7338948639
 10
139.7652707221
 20
112.8025650626
 10
139.9468316505
 20
112.8680373946
 10
140.1302081325
 20
112.9302958536
  0
LWPOLYLINE
  5
280
100
AcDbEntity
  8
0
100
AcDbPolyline
 62
253
  6
CONTINUOUS
 90
19
 70
0
 10
137.7442211943
 20
111.0415297246
 10
137.8732449383
 20
111.1350365579
 10
138.0039842151
 20
111.2263369538
 10
138.1364170574
 20
111.3154166947
 10
138.2705214977
 20
111.402261563
 10
138.4062755688
 20
111.486857341
 10
138.5436573034
 20
111.5691898111
 10
138.6826450691
 20
111.6492453161
 10
138.8232185745
 20
111.7270124408
 10
138.9653578632
 20
111.8024803303
 10
139.109042979
 20
111.8756381297
 10
139.2542539654
 20
111.9464749842
 10
139.4009708662
 20
112.0149800389
 10
139.5491730048
 20
112.0811424535
 10
139.6988368239
 20
112.1449514463
 10
139.8499380462
 20
112.20639625
 10
140.0024523941
 20
112.2654660976
 10
140.1563555902
 20
112.3221502218
 10
140.3116233571
 20
112.3764378554
  0
LWPOLYLINE
  5
281
100
AcDbEntity
  8
0
100
AcDbPolyline
 62
253
  6
CONTINUOUS
 90
19
 70
0
 10
137.4857948772
 20
112.5580667295
 10
137.6244696291
 20
112.6440686474
 10
137.7647192767
 20
112.7278845819
 10
137.9065226297
 20
112.8095026104
 10
138.0498584983
 20
112.8889108105
 10
138.1947056921
 20
112.9660972594
 10
138.3410430212
 20
113.0410500345
 10
138.4888496589
 20
113.1137576984
 10
138.6381062319
 20
113.1842107535
 10
138.7887937306
 20
113.2524001877
 10
138.9408931451
 20
113.3183169885
 10
139.0943854657
 20
113.3819521436
 10
139.2492516827
 20
113.4432966408
 10
139.4054721207
 20
113.5023415008
 10
139.5630244419
 20
113.5590778771
 10
139.7218856428
 20
113.6134969565
 10
139.8820327201
 20
113.6655899256
 10
140.0434426704
 20
113.7153479711
 10
140.2060924902
 20
113.7627622797
  0
LWPOLYLINE
  5
282
100
AcDbEntity
  8
0
100
AcDbPolyline
 62
253
  6
CONTINUOUS
 90
81
 70
0
 10
137.4857947285
 20
112.55806694
 10
137.4788430535
 20
112.5539505656
 10
137.4716330087
 20
112.5502117036
 10
137.4641748454
 20
112.5468554067
 10
137.4564788147
 20
112.5438867275
 10
137.4485551679
 20
112.5413107186
 10
137.4404141561
 20
112.5391324329
 10
137.4320660307
 20
112.5373569228
 10
137.4235210429
 20
112.535989241
 10
137.4147905033
 20
112.5350339448
 10
137.4058899601
 20
112.5344936094
 10
137.396836021
 20
112.5343703147
 10
137.3876452936
 20
112.5346661406
 10
137.378335653
 20
112.5353818674
 10
137.368930043
 20
112.5365130775
 10
137.3594526748
 20
112.5380540538
 10
137.3499277598
 20
112.5399990791
 10
137.340376485
 20
112.5423425962
 10
137.3308079416
 20
112.5450796882
 10
137.321228197
 20
112.5482055979
 10
137.3116433182
 20
112.5517155682
 10
137.3020591979
 20
112.5556057884
 10
137.2924810304
 20
112.5598762333
 10
137.2829138356
 20
112.5645278242
 10
137.273362633
 20
112.5695614824
 10
137.2638358244
 20
112.5749758543
 10
137.2543553386
 20
112.5807604877
 10
137.2449464868
 20
112.5869026555
 10
137.2356345796
 20
112.5933896306
 10
137.2264441221
 20
112.6002075472
 10
137.2173963961
 20
112.6073379827
 10
137.2085118774
 20
112.614761376
 10
137.1998110417
 20
112.6224581657
 10
137.1913117328
 20
112.6304107889
 10
137.1830212657
 20
112.6386096763
 10
137.174944323
 20
112.647047257
 10
137.1670855877
 20
112.6557159601
 10
137.1594504782
 20
112.664607878
 10
137.1520473561
 20
112.6737137557
 10
137.1448853188
 20
112.6830240016
 10
137.1379734636
 20
112.6925290239
 10
137.1313215202
 20
112.702217633
 10
137.1249417476
 20
112.7120722468
 10
137.1188470371
 20
112.7220736852
 10
137.11305028
 20
112.7322027682
 10
137.1075635897
 20
112.7424406043
 10
137.1023959673
 20
112.752769457
 10
137.0975556361
 20
112.7631718784
 10
137.0930508193
 20
112.7736304204
 10
137.0888890352
 20
112.7841280022
 10
137.0850749833
 20
112.7946490108
 10
137.0816126581
 20
112.8051782003
 10
137.0785060542
 20
112.8157003247
 10
137.0757591663
 20
112.826200138
 10
137.0733759888
 20
112.8366623943
 10
137.0713605164
 20
112.8470718476
 10
137.0697167438
 20
112.857413252
 10
137.0684481025
 20
112.8676714562
 10
137.0675557732
 20
112.8778316872
 10
137.0670403735
 20
112.8878792667
 10
137.0669025211
 20
112.8977995166
 10
137.0671428335
 20
112.9075777586
 10
137.0677619285
 20
112.9171993143
 10
137.0687604238
 20
112.9266495056
 10
137.0701389369
 20
112.9359136541
 10
137.0718970709
 20
112.944977102
 10
137.0740303703
 20
112.9538252732
 10
137.0765333648
 20
112.9624436118
 10
137.0794005844
 20
112.9708175621
 10
137.0826265587
 20
112.9789325684
 10
137.0862058176
 20
112.9867740749
 10
137.090132891
 20
112.9943275258
 10
137.0944023085
 20
113.0015783654
 10
137.0990079649
 20
113.0085132046
 10
137.1039412132
 20
113.0151233216
 10
137.1091927714
 20
113.0214011612
 10
137.1147533575
 20
113.0273391681
 10
137.1206136893
 20
113.0329297874
 10
137.1267644849
 20
113.0381654637
 10
137.1331964621
 20
113.043038642
 10
137.139900339
 20
113.0475417671
  0
LWPOLYLINE
  5
283
100
AcDbEntity
  8
0
100
AcDbPolyline
 62
253
  6
CONTINUOUS
 90
43
 70
0
 10
140.3116233571
 20
112.3764378554
 10
140.3136967002
 20
112.3770957148
 10
140.3158109321
 20
112.3776702788
 10
140.3179637376
 20
112.3781617427
 10
140.3201528017
 20
112.378570302
 10
140.3223758094
 20
112.3788961517
 10
140.3246304456
 20
112.3791394873
 10
140.3269143952
 20
112.3793005041
 10
140.3292253432
 20
112.3793793973
 10
140.3315609746
 20
112.3793763623
 10
140.3339189741
 20
112.3792915944
 10
140.3362970269
 20
112.3791252888
 10
140.3386928179
 20
112.3788776408
 10
140.3411040319
 20
112.3785488459
 10
140.3435283539
 20
112.3781390992
 10
140.3459635336
 20
112.377648709
 10
140.3484075788
 20
112.3770784354
 10
140.3508585621
 20
112.3764291517
 10
140.3533145562
 20
112.3757017307
 10
140.3557736336
 20
112.3748970457
 10
140.358233867
 20
112.3740159697
 10
140.3606933288
 20
112.3730593759
 10
140.3631500918
 20
112.3720281372
 10
140.3656022284
 20
112.3709231269
 10
140.3680478113
 20
112.3697452179
 10
140.3704849131
 20
112.3684952834
 10
140.3729116063
 20
112.3671741965
 10
140.3753259636
 20
112.3657828302
 10
140.3777260575
 20
112.3643220577
 10
140.3801099259
 20
112.3627928961
 10
140.3824754681
 20
112.3611969384
 10
140.3848205484
 20
112.3595359219
 10
140.3871430314
 20
112.3578115837
 10
140.3894407816
 20
112.356025661
 10
140.3917116633
 20
112.3541798909
 10
140.3939535412
 20
112.3522760106
 10
140.3961642796
 20
112.3503157571
 10
140.3983417431
 20
112.3483008678
 10
140.4004837962
 20
112.3462330796
 10
140.4025883032
 20
112.3441141299
 10
140.4046531288
 20
112.3419457557
 10
140.4066761373
 20
112.3397296941
 10
140.4086551933
 20
112.3374676824
  0
LWPOLYLINE
  5
284
100
AcDbEntity
  8
0
100
AcDbPolyline
 62
253
  6
CONTINUOUS
 90
46
 70
0
 10
140.1302081325
 20
112.9302958536
 10
140.1398456382
 20
112.9332696859
 10
140.149647464
 20
112.9358897086
 10
140.159605439
 20
112.9381557489
 10
140.1697113918
 20
112.940067634
 10
140.1799571514
 20
112.9416251913
 10
140.1903345467
 20
112.9428282478
 10
140.2008354064
 20
112.9436766307
 10
140.2114515594
 20
112.9441701674
 10
140.2221748346
 20
112.944308685
 10
140.2329966418
 20
112.9440926831
 10
140.2439067143
 20
112.9435253501
 10
140.2548943666
 20
112.9426105469
 10
140.265948913
 20
112.9413521344
 10
140.2770596679
 20
112.9397539734
 10
140.2882159456
 20
112.9378199248
 10
140.2994070605
 20
112.9355538495
 10
140.3106223269
 20
112.9329596082
 10
140.3218510593
 20
112.9300410618
 10
140.3330840671
 20
112.9268014777
 10
140.3443181409
 20
112.9232417497
 10
140.3555515664
 20
112.9193621779
 10
140.3667826293
 20
112.9151630627
 10
140.3780096155
 20
112.9106447042
 10
140.3892308105
 20
112.9058074027
 10
140.4004445001
 20
112.9006514585
 10
140.41164897
 20
112.8951771718
 10
140.422842506
 20
112.8893848428
 10
140.4340215254
 20
112.8832758637
 10
140.4451749718
 20
112.8768559939
 10
140.4562899204
 20
112.8701320847
 10
140.4673534466
 20
112.8631109874
 10
140.4783526255
 20
112.8557995533
 10
140.4892745325
 20
112.8482046336
 10
140.5001062426
 20
112.8403330798
 10
140.5108348313
 20
112.832191743
 10
140.5214473737
 20
112.8237874745
 10
140.5319320257
 20
112.8151271189
 10
140.5422812662
 20
112.8062174932
 10
140.5524886547
 20
112.7970654078
 10
140.5625477505
 20
112.7876776728
 10
140.5724521132
 20
112.7780610987
 10
140.5821953023
 20
112.7682224956
 10
140.5917708772
 20
112.7581686739
 10
140.6011723975
 20
112.7479064438
 10
140.6103934225
 20
112.7374426156
  0
LINE
  5
285
100
AcDbEntity
  8
0
100
AcDbLine
 62
253
  6
CONTINUOUS
 10
137.8035801674
 20
95.9353543007
 11
139.6674471143
 21
95.187727602
  0
LINE
  5
286
100
AcDbEntity
  8
0
100
AcDbLine
 62
253
  6
CONTINUOUS
 10
139.6598571737
 20
95.6730027627
 11
137.4389740626
 21
96.5637439069
  0
LINE
  5
287
100
AcDbEntity
  8
0
100
AcDbLine
 62
253
  6
CONTINUOUS
 10
140.9617073442
 20
94.6679235151
 11
142.8240516421
 21
93.9190197724
  0
LINE
  5
288
100
AcDbEntity
  8
0
100
AcDbLine
 62
253
  6
CONTINUOUS
 10
143.1730383726
 20
94.2608144088
 11
140.9541174037
 21
95.1531986762
  0
LWPOLYLINE
  5
289
100
AcDbEntity
  8
0
100
AcDbPolyline
 62
253
  6
CONTINUOUS
 90
51
 70
0
 10
139.6598572833
 20
95.6729955058
 10
139.6672955066
 20
95.6698957045
 10
139.6747324613
 20
95.6665678478
 10
139.6821613263
 20
95.6630150248
 10
139.6895752803
 20
95.6592403247
 10
139.6969675023
 20
95.6552468368
 10
139.704331171
 20
95.6510376501
 10
139.7116594653
 20
95.6466158539
 10
139.7189455641
 20
95.6419845374
 10
139.726182646
 20
95.6371467897
 10
139.7333638901
 20
95.6321056999
 10
139.7404822138
 20
95.6268651278
 10
139.7475294898
 20
95.6214320146
 10
139.7544973292
 20
95.615814072
 10
139.7613773434
 20
95.6100190118
 10
139.7681611437
 20
95.6040545456
 10
139.7748403413
 20
95.5979283853
 10
139.7814065475
 20
95.5916482426
 10
139.7878513736
 20
95.5852218291
 10
139.7941664309
 20
95.5786568567
 10
139.8003433306
 20
95.571961037
 10
139.8063745743
 20
95.5651417395
 10
139.8122562242
 20
95.5582049645
 10
139.8179852326
 20
95.5511563701
 10
139.8235585519
 20
95.5440016142
 10
139.8289731346
 20
95.5367463548
 10
139.834225854
 20
95.5293959404
 10
139.8393132669
 20
95.5219544801
 10
139.8442318512
 20
95.5144257738
 10
139.8489780846
 20
95.5068136209
 10
139.853548445
 20
95.4991218211
 10
139.8579389284
 20
95.4913554276
 10
139.8621436042
 20
95.4835245076
 10
139.8661560602
 20
95.475640382
 10
139.8699698839
 20
95.4677143716
 10
139.8735786633
 20
95.4597577971
 10
139.8769765503
 20
95.4517816973
 10
139.8801599548
 20
95.4437959825
 10
139.883125851
 20
95.435810281
 10
139.8858712129
 20
95.427834221
 10
139.888393015
 20
95.4198774307
 10
139.8906886391
 20
95.4119490719
 10
139.8927570992
 20
95.4040564401
 10
139.8945978169
 20
95.3962063644
 10
139.8962102138
 20
95.3884056738
 10
139.8975937117
 20
95.3806611972
 10
139.8987477322
 20
95.3729797638
 10
139.899671697
 20
95.3653682026
 10
139.9003650277
 20
95.3578333426
 10
139.9008271461
 20
95.3503820127
 10
139.9010574739
 20
95.3430210421
  0
LWPOLYLINE
  5
28A
100
AcDbEntity
  8
0
100
AcDbPolyline
 62
253
  6
CONTINUOUS
 90
51
 70
0
 10
140.9617074416
 20
94.6679174978
 10
140.9542723399
 20
94.6710197335
 10
140.9468382213
 20
94.6743497896
 10
140.9394119086
 20
94.6779045784
 10
140.9320002245
 20
94.681681012
 10
140.9246099919
 20
94.6856760025
 10
140.9172480333
 20
94.6898864621
 10
140.9099211716
 20
94.6943093031
 10
140.9026362295
 20
94.6989414375
 10
140.8954000297
 20
94.7037797777
 10
140.888219395
 20
94.7088212356
 10
140.8811014109
 20
94.7140619547
 10
140.8740542143
 20
94.7194950029
 10
140.8670862049
 20
94.725112679
 10
140.8602057823
 20
94.7309072821
 10
140.8534213461
 20
94.7368711113
 10
140.8467412961
 20
94.7429964653
 10
140.840174032
 20
94.7492756434
 10
140.8337279533
 20
94.7557009445
 10
140.8274114597
 20
94.7622646674
 10
140.821232951
 20
94.7689591114
 10
140.8151999376
 20
94.7757769178
 10
140.8093163728
 20
94.7827120981
 10
140.803585321
 20
94.7897590066
 10
140.7980098463
 20
94.7969119972
 10
140.7925930129
 20
94.8041654239
 10
140.7873379637
 20
94.8115139507
 10
140.7822481557
 20
94.8189534804
 10
140.7773271246
 20
94.8264802256
 10
140.7725784061
 20
94.8340903992
 10
140.7680055357
 20
94.8417802137
 10
140.7636125314
 20
94.849544628
 10
140.7594053398
 20
94.8573735863
 10
140.7553903897
 20
94.8652557789
 10
140.75157411
 20
94.873179896
 10
140.7479629295
 20
94.8811346279
 10
140.744562712
 20
94.8891089468
 10
140.7413770612
 20
94.8970929511
 10
140.7384090157
 20
94.9050770214
 10
140.7356616141
 20
94.9130515379
 10
140.7331378951
 20
94.9210068811
 10
140.730840488
 20
94.9289338971
 10
140.7287703851
 20
94.9368252954
 10
140.7269281694
 20
94.9446742515
 10
140.7253144242
 20
94.9524739405
 10
140.7239297323
 20
94.960217538
 10
140.7227746768
 20
94.9678982191
 10
140.7218498409
 20
94.9755091593
 10
140.7211558075
 20
94.9830435339
 10
140.7206931598
 20
94.9904945183
 10
140.7204624807
 20
94.9978552877
  0
LWPOLYLINE
  5
28B
100
AcDbEntity
  8
0
100
AcDbPolyline
 62
253
  6
CONTINUOUS
 90
67
 70
0
 10
143.1730382087
 20
94.2608252264
 10
143.1871141996
 20
94.2549239451
 10
143.2011808786
 20
94.2485510061
 10
143.2152216707
 20
94.2417147542
 10
143.2292200006
 20
94.2344235346
 10
143.2431592932
 20
94.2266856921
 10
143.2570229734
 20
94.2185095718
 10
143.2707945641
 20
94.2099040352
 10
143.2844579798
 20
94.2008800102
 10
143.297997233
 20
94.1914489413
 10
143.3113963364
 20
94.181622273
 10
143.3246393024
 20
94.1714114497
 10
143.3377101437
 20
94.1608279159
 10
143.3505931043
 20
94.1498835384
 10
143.363273355
 20
94.1385918725
 10
143.375736298
 20
94.126966896
 10
143.3879673355
 20
94.1150225866
 10
143.3999518697
 20
94.102772922
 10
143.411675303
 20
94.0902318799
 10
143.4231233619
 20
94.0774137643
 10
143.4342830706
 20
94.0643341845
 10
143.4451417776
 20
94.0510090758
 10
143.4556868314
 20
94.0374543739
 10
143.4659055806
 20
94.0236860143
 10
143.4757853738
 20
94.0097199324
 10
143.4853139728
 20
93.9955722784
 10
143.4944807933
 20
93.9812600603
 10
143.5032756644
 20
93.9668005008
 10
143.5116884152
 20
93.9522108226
 10
143.5197088747
 20
93.9375082482
 10
143.527326872
 20
93.9227100004
 10
143.5345327211
 20
93.9078333939
 10
143.5413186763
 20
93.892896112
 10
143.5476774769
 20
93.8779159301
 10
143.5536018618
 20
93.8629106235
 10
143.5590845705
 20
93.8478979676
 10
143.5641183421
 20
93.8328957379
 10
143.5686964522
 20
93.8179216768
 10
143.5728143221
 20
93.802993396
 10
143.5764679094
 20
93.7881284739
 10
143.5796531717
 20
93.7733444893
 10
143.5823660668
 20
93.7586590207
 10
143.5846025522
 20
93.7440896469
 10
143.5863591511
 20
93.7296537855
 10
143.5876346483
 20
93.7153682104
 10
143.5884283941
 20
93.7012495345
 10
143.5887397388
 20
93.6873143707
 10
143.5885680326
 20
93.6735793319
 10
143.5879126258
 20
93.660061031
 10
143.5867734363
 20
93.6467758036
 10
143.5851526517
 20
93.6337388753
 10
143.5830530274
 20
93.6209651944
 10
143.5804773187
 20
93.6084697093
 10
143.5774282807
 20
93.5962673683
 10
143.5739086689
 20
93.5843731196
 10
143.5699217873
 20
93.5728015325
 10
143.5654731363
 20
93.5615656601
 10
143.5605687648
 20
93.5506781764
 10
143.555214722
 20
93.5401517555
 10
143.5494170569
 20
93.5299990712
 10
143.5431818188
 20
93.5202327978
 10
143.5365155618
 20
93.5108651385
 10
143.5294268614
 20
93.5019064145
 10
143.5219247979
 20
93.4933664763
 10
143.514018452
 20
93.4852551744
 10
143.5057169042
 20
93.4775823592
 10
143.4970292349
 20
93.4703578814
  0
LWPOLYLINE
  5
28C
100
AcDbEntity
  8
0
100
AcDbPolyline
 62
253
  6
CONTINUOUS
 90
61
 70
0
 10
142.8240514876
 20
93.9190292979
 10
142.8271840106
 20
93.9177099847
 10
142.8303136434
 20
93.9162739972
 10
142.8334359436
 20
93.9147238446
 10
142.8365464685
 20
93.913062036
 10
142.8396407758
 20
93.9112910806
 10
142.8427144231
 20
93.9094134877
 10
142.8457629677
 20
93.9074317664
 10
142.8487819673
 20
93.905348426
 10
142.8517669794
 20
93.9031659755
 10
142.8547135615
 20
93.9008869243
 10
142.8576173158
 20
93.898514121
 10
142.8604740228
 20
93.8960517728
 10
142.8632795077
 20
93.8935044264
 10
142.8660295957
 20
93.8908766285
 10
142.8687201119
 20
93.8881729259
 10
142.8713468816
 20
93.8853978653
 10
142.87390573
 20
93.8825559934
 10
142.8763924822
 20
93.8796518568
 10
142.8788029633
 20
93.8766900024
 10
142.8811329987
 20
93.8736749769
 10
142.8833787351
 20
93.8706112454
 10
142.885537606
 20
93.8675029479
 10
142.8876073668
 20
93.8643541425
 10
142.8895857725
 20
93.8611688875
 10
142.8914705783
 20
93.8579512414
 10
142.8932595396
 20
93.8547052622
 10
142.8949504115
 20
93.8514350084
 10
142.8965409492
 20
93.8481445383
 10
142.8980289079
 20
93.8448379101
 10
142.8994120429
 20
93.8415191822
 10
142.9006882356
 20
93.8381925937
 10
142.9018558733
 20
93.8348631074
 10
142.9029134696
 20
93.8315358669
 10
142.903859538
 20
93.8282160161
 10
142.904692592
 20
93.8249086984
 10
142.9054111452
 20
93.8216190576
 10
142.9060137112
 20
93.8183522373
 10
142.9064988034
 20
93.8151133812
 10
142.9068649356
 20
93.811907633
 10
142.9071106211
 20
93.8087401363
 10
142.9072347526
 20
93.8056159141
 10
142.9072377384
 20
93.8025395063
 10
142.9071203657
 20
93.7995153322
 10
142.9068834219
 20
93.7965478109
 10
142.9065276943
 20
93.7936413618
 10
142.9060539702
 20
93.7908004039
 10
142.9054630369
 20
93.7880293567
 10
142.9047556817
 20
93.7853326393
 10
142.9039326918
 20
93.7827146708
 10
142.9029948546
 20
93.7801798707
 10
142.9019432231
 20
93.7777323719
 10
142.9007799124
 20
93.7753751629
 10
142.8995073036
 20
93.7731109463
 10
142.8981277775
 20
93.7709424243
 10
142.8966437152
 20
93.7688722994
 10
142.8950574974
 20
93.766903274
 10
142.8933715052
 20
93.7650380504
 10
142.8915881195
 20
93.7632793312
 10
142.8897097211
 20
93.7616298185
 10
142.8877386911
 20
93.760092215
  0
LWPOLYLINE
  5
28D
100
AcDbEntity
  8
0
100
AcDbPolyline
 62
253
  6
CONTINUOUS
 90
19
 70
0
 10
140.085368564
 20
90.8682444684
 10
139.9088352568
 20
91.0519929238
 10
139.7336812871
 20
91.2372182156
 10
139.5599340673
 20
91.4238939443
 10
139.3876210098
 20
91.6119937103
 10
139.2167695268
 20
91.801491114
 10
139.0474070309
 20
91.992359756
 10
138.8795601431
 20
92.1845738267
 10
138.7132523193
 20
92.3781098775
 10
138.548506224
 20
92.57294505
 10
138.385344522
 20
92.7690564858
 10
138.2237898776
 20
92.9664213262
 10
138.0638649556
 20
93.165016713
 10
137.9055928443
 20
93.3648189009
 10
137.748998327
 20
93.5658005983
 10
137.5941066108
 20
93.7679336271
 10
137.4409429027
 20
93.971189809
 10
137.2895324097
 20
94.1755409657
 10
137.139900339
 20
94.3809589189
  0
LWPOLYLINE
  5
28E
100
AcDbEntity
  8
0
100
AcDbPolyline
 62
253
  6
CONTINUOUS
 90
19
 70
0
 10
140.2060926845
 20
91.3071017552
 10
140.0434441168
 20
91.4787482629
 10
139.8820352535
 20
91.651685322
 10
139.7218891011
 20
91.8258904832
 10
139.5630286662
 20
92.001341297
 10
139.4054769552
 20
92.1780153142
 10
139.2492569747
 20
92.3558900853
 10
139.0943910657
 20
92.5349436692
 10
138.9408989074
 20
92.7151561575
 10
138.7887995134
 20
92.89650815
 10
138.6381118973
 20
93.0789802466
 10
138.488855073
 20
93.2625530472
 10
138.3410480539
 20
93.4472071516
 10
138.1947102174
 20
93.6329224116
 10
138.0498623945
 20
93.8196756866
 10
137.9065257797
 20
94.0074430881
 10
137.7647215677
 20
94.1962007275
 10
137.6244709531
 20
94.3859247162
 10
137.4857951304
 20
94.5765911655
  0
LWPOLYLINE
  5
28F
100
AcDbEntity
  8
0
100
AcDbPolyline
 62
253
  6
CONTINUOUS
 90
19
 70
0
 10
140.1302080218
 20
92.1531742074
 10
139.9468316381
 20
92.3555597749
 10
139.7652705467
 20
92.5596418947
 10
139.5855607872
 20
92.7653836477
 10
139.4077383991
 20
92.9727481152
 10
139.2318394218
 20
93.1816983783
 10
139.057899895
 20
93.3921975182
 10
138.8859554221
 20
93.6042084426
 10
138.7160398632
 20
93.817693365
 10
138.5481866424
 20
94.0326143255
 10
138.3824291838
 20
94.2489333644
 10
138.2188009116
 20
94.4666125216
 10
138.0573352499
 20
94.6856138374
 10
137.8980652701
 20
94.9058990234
 10
137.7410226329
 20
95.1274284774
 10
137.5862386465
 20
95.3501622688
 10
137.4337446189
 20
95.5740604672
 10
137.2835718583
 20
95.7990831417
 10
137.1357516726
 20
96.025190362
  0
LWPOLYLINE
  5
290
100
AcDbEntity
  8
0
100
AcDbPolyline
 62
253
  6
CONTINUOUS
 90
19
 70
0
 10
140.3116230119
 20
92.5365012863
 10
140.1563608383
 20
92.7096341492
 10
140.0024622337
 20
92.884026796
 10
139.8499513441
 20
93.0596542942
 10
139.6988523151
 20
93.2364917117
 10
139.5491892927
 20
93.414514116
 10
139.4009864227
 20
93.5936965748
 10
139.2542672381
 20
93.7740145592
 10
139.1090528211
 20
93.9554451531
 10
138.965363641
 20
94.1379658438
 10
138.8232201672
 20
94.3215541186
 10
138.6826428691
 20
94.5061874649
 10
138.543652216
 20
94.6918433698
 10
138.4062688932
 20
94.878498641
 10
138.2705144492
 20
95.0661273664
 10
138.1364106485
 20
95.2547029545
 10
138.0039792553
 20
95.4441988137
 10
137.8732420342
 20
95.6345883521
 10
137.7442207495
 20
95.8258449783
  0
LWPOLYLINE
  5
291
100
AcDbEntity
  8
0
100
AcDbPolyline
 62
253
  6
CONTINUOUS
 90
81
 70
0
 10
137.1398999373
 20
94.3809586918
 10
137.1332112522
 20
94.3904737175
 10
137.1267922585
 20
94.4001300125
 10
137.1206518443
 20
94.4099139837
 10
137.1147988979
 20
94.4198120378
 10
137.1092423074
 20
94.4298105817
 10
137.1039909608
 20
94.4398960222
 10
137.0990537464
 20
94.4500547661
 10
137.0944395522
 20
94.4602732202
 10
137.0901571928
 20
94.4705367683
 10
137.0862151877
 20
94.480826702
 10
137.0826219829
 20
94.49112329
 10
137.0793860244
 20
94.501406801
 10
137.076514962
 20
94.51165667
 10
137.0740132611
 20
94.521848998
 10
137.0718845908
 20
94.5319590527
 10
137.0701326204
 20
94.5419621014
 10
137.0687600481
 20
94.5518366235
 10
137.0677656879
 20
94.5615739458
 10
137.067147383
 20
94.5711686068
 10
137.0669029765
 20
94.5806151451
 10
137.0670310488
 20
94.5899078301
 10
137.067533131
 20
94.5990398541
 10
137.0684114913
 20
94.6080041401
 10
137.0696683983
 20
94.6167936113
 10
137.0713052726
 20
94.6253987135
 10
137.0733201436
 20
94.6337999838
 10
137.075710193
 20
94.6419754821
 10
137.0784726024
 20
94.6499032682
 10
137.0816032157
 20
94.657562551
 10
137.0850925266
 20
94.6649371359
 10
137.0889296907
 20
94.672011977
 10
137.093103864
 20
94.6787720289
 10
137.0976050723
 20
94.6852043364
 10
137.102426822
 20
94.6913043073
 10
137.1075634894
 20
94.6970694399
 10
137.1130094509
 20
94.7024972326
 10
137.118759204
 20
94.7075845617
 10
137.1248077301
 20
94.7123258162
 10
137.1311501317
 20
94.7167147631
 10
137.1377815114
 20
94.7207451693
 10
137.1446954282
 20
94.7244105322
 10
137.1518792684
 20
94.7277032701
 10
137.1593188749
 20
94.7306155319
 10
137.1670000904
 20
94.7331394661
 10
137.1749085702
 20
94.7352682032
 10
137.1830292188
 20
94.7369987999
 10
137.191346753
 20
94.7383292945
 10
137.1998458897
 20
94.7392577254
 10
137.2085119164
 20
94.7397826307
 10
137.2173324026
 20
94.739904547
 10
137.2262954884
 20
94.7396245108
 10
137.2353893141
 20
94.7389435587
 10
137.2446020198
 20
94.7378627269
 10
137.2539217457
 20
94.736383052
 10
137.263336632
 20
94.7345055703
 10
137.2728348187
 20
94.7322313184
 10
137.2824038646
 20
94.7295619737
 10
137.2920290025
 20
94.7265017778
 10
137.3016948839
 20
94.7230556134
 10
137.31138616
 20
94.719228363
 10
137.3210874823
 20
94.7150249094
 10
137.3307835021
 20
94.7104501352
 10
137.3404588709
 20
94.7055089231
 10
137.3500982399
 20
94.7002061556
 10
137.3596858047
 20
94.6945482957
 10
137.3692039375
 20
94.6885481273
 10
137.3786345549
 20
94.6822200145
 10
137.3879595731
 20
94.6755783216
 10
137.3971609086
 20
94.6686374128
 10
137.4062204778
 20
94.6614116521
 10
137.415120197
 20
94.6539154037
 10
137.4238419828
 20
94.6461630319
 10
137.4323692251
 20
94.6381687912
 10
137.4406912084
 20
94.6299464973
 10
137.4487986911
 20
94.6215098565
 10
137.4566824313
 20
94.612872575
 10
137.4643331871
 20
94.604048359
 10
137.4717417168
 20
94.5950509146
 10
137.4788987785
 20
94.585893948
 10
137.4857951304
 20
94.5765911655
  0
LWPOLYLINE
  5
292
100
AcDbEntity
  8
0
100
AcDbPolyline
 62
253
  6
CONTINUOUS
 90
67
 70
0
 10
137.1357519625
 20
96.0251904876
 10
137.1266925603
 20
96.0395462859
 10
137.1180106733
 20
96.0540439398
 10
137.1097158954
 20
96.0686660903
 10
137.1018178203
 20
96.0833953783
 10
137.0943260419
 20
96.0982144448
 10
137.0872501539
 20
96.1131059308
 10
137.080599251
 20
96.1280524066
 10
137.0743804313
 20
96.1430361602
 10
137.068600294
 20
96.1580394087
 10
137.063265438
 20
96.1730443694
 10
137.0583824623
 20
96.1880332598
 10
137.0539579661
 20
96.2029882969
 10
137.0499979978
 20
96.2178917617
 10
137.0465064034
 20
96.2327261888
 10
137.0434864785
 20
96.2474741766
 10
137.0409415185
 20
96.2621183233
 10
137.038874819
 20
96.2766412273
 10
137.0372896755
 20
96.2910254867
 10
137.0361888119
 20
96.3052538802
 10
137.0355726656
 20
96.3193099067
 10
137.0354411023
 20
96.3331772457
 10
137.0357939878
 20
96.3468395765
 10
137.0366311878
 20
96.3602805783
 10
137.0379525682
 20
96.3734839307
 10
137.03975742
 20
96.3864336132
 10
137.0420427354
 20
96.3991148075
 10
137.0448049317
 20
96.4115129955
 10
137.0480404265
 20
96.4236136592
 10
137.051745637
 20
96.4354022805
 10
137.0559169809
 20
96.4468643414
 10
137.0605503402
 20
96.4579857248
 10
137.0656394564
 20
96.4687539172
 10
137.0711775358
 20
96.4791568062
 10
137.0771577845
 20
96.4891822792
 10
137.0835734089
 20
96.4988182238
 10
137.090417615
 20
96.5080525274
 10
137.097683077
 20
96.5168735648
 10
137.1053603409
 20
96.5252716596
 10
137.1134394203
 20
96.5332376228
 10
137.121910329
 20
96.5407622654
 10
137.1307630808
 20
96.5478363981
 10
137.1399876894
 20
96.554450832
 10
137.1495738765
 20
96.5605969228
 10
137.1595101954
 20
96.5662682053
 10
137.1697849073
 20
96.5714587592
 10
137.1803862735
 20
96.5761626642
 10
137.1913025551
 20
96.5803739998
 10
137.2025220134
 20
96.5840868459
 10
137.2140321403
 20
96.587295898
 10
137.2258173508
 20
96.5899983159
 10
137.2378612906
 20
96.5921918754
 10
137.2501476054
 20
96.5938743523
 10
137.2626599409
 20
96.5950435223
 10
137.2753819429
 20
96.5956971613
 10
137.2882976215
 20
96.5958336935
 10
137.3013924449
 20
96.5954541367
 10
137.3146522455
 20
96.5945601569
 10
137.328062856
 20
96.5931534206
 10
137.341610109
 20
96.5912355939
 10
137.3552798368
 20
96.5888083429
 10
137.3690573959
 20
96.5858738622
 10
137.3829262367
 20
96.5824364595
 10
137.3968693337
 20
96.5785009705
 10
137.4108696611
 20
96.5740722313
 10
137.4249101933
 20
96.5691550778
 10
137.4389739044
 20
96.5637543459
  0
LINE
  5
293
100
AcDbEntity
  8
0
100
AcDbLine
 62
253
  6
CONTINUOUS
 10
136.3705727282
 20
124.8002816943
 11
136.3705727282
 21
124.789376427
  0
LINE
  5
294
100
AcDbEntity
  8
ASSI
100
AcDbLine
 62
253
  6
CONTINUOUS
 10
136.3705727282
 20
124.8002816943
 11
136.3705727282
 21
124.789376427
  0
LINE
  5
295
100
AcDbEntity
  8
0
100
AcDbLine
 62
7
  6
CONTINUOUS
 10
136.3699038157
 20
124.789376427
 11
136.3705727282
 21
124.8002816943
  0
LINE
  5
296
100
AcDbEntity
  8
ASSI
100
AcDbLine
 62
7
  6
CONTINUOUS
 10
136.3699038157
 20
124.789376427
 11
136.3705727282
 21
124.8002816943
  0
LWPOLYLINE
  5
297
100
AcDbEntity
  8
SUPERFICI
100
AcDbPolyline
 62
7
  6
CONTINUOUS
 90
34
 70
0
 10
137.7998905142
 20
107.5446899713
 10
137.7960405289
 20
107.5413403312
 10
137.7624525066
 20
107.5086413884
 10
137.7322804
 20
107.4727078355
 10
137.7056332747
 20
107.433590299
 10
137.682403257
 20
107.3912391111
 10
137.6628352861
 20
107.3460869939
 10
137.6469336332
 20
107.2979654143
 10
137.6346950139
 20
107.2470437013
 10
137.6263525154
 20
107.1942609552
 10
137.6219811927
 20
107.1397301731
 10
137.6215062023
 20
107.0833385332
 10
137.6249352054
 20
107.0256859424
 10
137.6323387697
 20
106.9666048559
 10
137.6436461601
 20
106.9062626895
 10
137.6586525066
 20
106.8457613268
 10
137.6773775619
 20
106.7852369781
 10
137.6998006344
 20
106.7245526826
 10
137.7256556486
 20
106.664400133
 10
137.7550254925
 20
106.6046906794
 10
137.7878260745
 20
106.545512006
 10
137.8235404703
 20
106.4878200002
 10
137.8621739512
 20
106.4316929461
 10
137.9037197531
 20
106.3770513583
 10
137.9476426246
 20
106.3246142475
 10
137.9940119703
 20
106.2743679787
 10
138.0427569583
 20
106.2263250361
 10
138.0931318801
 20
106.1812435259
 10
138.1451766194
 20
106.1391734353
 10
138.1988501226
 20
106.1000638321
 10
138.2532853098
 20
106.0645214702
 10
138.3081929277
 20
106.0327484175
 10
138.3638615612
 20
106.0045420648
 10
138.4202910165
 20
105.9799022546
  0
LWPOLYLINE
  5
298
100
AcDbEntity
  8
0
100
AcDbPolyline
 62
7
  6
CONTINUOUS
 90
13
 70
0
 10
137.7998819884
 20
107.5447002608
 10
137.8086053933
 20
107.5519923761
 10
137.8522715128
 20
107.5834927611
 10
137.8993622915
 20
107.6096898166
 10
137.9500318153
 20
107.630508194
 10
138.0041237411
 20
107.6460214333
 10
138.0604356861
 20
107.6559601764
 10
138.1189211459
 20
107.6602098667
 10
138.1796247184
 20
107.6588835362
 10
138.2414806959
 20
107.6520532286
 10
138.3041334763
 20
107.639742666
 10
138.3679375897
 20
107.6219272709
 10
138.4328927359
 20
107.5986068041
  0
LWPOLYLINE
  5
299
100
AcDbEntity
  8
ASSI
100
AcDbPolyline
 62
7
  6
CONTINUOUS
 90
13
 70
0
 10
137.7998819884
 20
107.5447002608
 10
137.8086053933
 20
107.5519923761
 10
137.8522715128
 20
107.5834927611
 10
137.8993622915
 20
107.6096898166
 10
137.9500318153
 20
107.630508194
 10
138.0041237411
 20
107.6460214333
 10
138.0604356861
 20
107.6559601764
 10
138.1189211459
 20
107.6602098667
 10
138.1796247184
 20
107.6588835362
 10
138.2414806959
 20
107.6520532286
 10
138.3041334763
 20
107.639742666
 10
138.3679375897
 20
107.6219272709
 10
138.4328927359
 20
107.5986068041
  0
LINE
  5
29A
100
AcDbEntity
  8
SUPERFICI
100
AcDbLine
 62
7
  6
CONTINUOUS
 10
137.8324737469
 20
107.5702212035
 11
137.7998905142
 21
107.5446899713
  0
LINE
  5
29B
100
AcDbEntity
  8
0
100
AcDbLine
 62
7
  6
CONTINUOUS
 10
158.4809335318
 20
116.3718231641
 11
157.8450286148
 21
116.17565608
  0
LINE
  5
29C
100
AcDbEntity
  8
ASSI
100
AcDbLine
 62
7
  6
CONTINUOUS
 10
158.4809335318
 20
116.3718231641
 11
157.8450286148
 21
116.17565608
  0
LWPOLYLINE
  5
29D
100
AcDbEntity
  8
SUPERFICI
100
AcDbPolyline
 62
7
  6
CONTINUOUS
 90
14
 70
0
 10
142.1192036569
 20
97.1374763919
 10
142.1754101805
 20
97.1168307299
 10
142.2308620995
 20
97.1002763207
 10
142.2855595887
 20
97.0878133114
 10
142.339785769
 20
97.079406343
 10
142.3932581474
 20
97.0750913026
 10
142.4451286084
 20
97.0749753165
 10
142.4953806536
 20
97.0791474471
 10
142.5440319238
 20
97.0875195905
 10
142.5902855521
 20
97.0999331554
 10
142.634038706
 20
97.1164209027
 10
142.6753956179
 20
97.1369512442
 10
142.7138699292
 20
97.16126899
 10
142.7297173401
 20
97.173066905
  0
LWPOLYLINE
  5
29E
100
AcDbEntity
  8
SUPERFICI
100
AcDbPolyline
 62
7
  6
CONTINUOUS
 90
3
 70
0
 10
138.4327857245
 20
98.618024942
 10
141.709756683
 20
97.3021597213
 10
142.1192036569
 20
97.1374763919
  0
LINE
  5
29F
100
AcDbEntity
  8
0
100
AcDbLine
 62
7
  6
CONTINUOUS
 10
142.1190968772
 20
97.1375082703
 11
138.4328926131
 21
98.6179820811
  0
LINE
  5
2A0
100
AcDbEntity
  8
ASSI
100
AcDbLine
 62
7
  6
CONTINUOUS
 10
142.1190968772
 20
97.1375082703
 11
138.4328926131
 21
98.6179820811
  0
LWPOLYLINE
  5
2A1
100
AcDbEntity
  8
0
100
AcDbPolyline
 62
7
  6
CONTINUOUS
 90
29
 70
0
 10
138.4328926131
 20
98.6179820811
 10
138.3678812236
 20
98.6467213488
 10
138.3040399808
 20
98.6799131501
 10
138.2413691855
 20
98.717557738
 10
138.1795144319
 20
98.7599171673
 10
138.1188311988
 20
98.8067302849
 10
138.0603848198
 20
98.8572127055
 10
138.0041407644
 20
98.9115046416
 10
137.9501354625
 20
98.9694674736
 10
137.8995407063
 20
99.0298985813
 10
137.8525023789
 20
99.092749247
 10
137.80887684
 20
99.158070066
 10
137.7694013521
 20
99.2248071805
 10
137.7340676991
 20
99.2931343159
 10
137.7028863537
 20
99.3628796318
 10
137.6766220001
 20
99.4324704088
 10
137.6554345189
 20
99.5017679313
 10
137.6391655061
 20
99.5709121428
 10
137.6281013519
 20
99.6387475851
 10
137.6223306865
 20
99.705394276
 10
137.6217656102
 20
99.7707327995
 10
137.6264266518
 20
99.8332476557
 10
137.6364052023
 20
99.8927516517
 10
137.651609221
 20
99.9494314296
 10
137.6717830101
 20
100.002331341
 10
137.6970922488
 20
100.0514610681
 10
137.7273698321
 20
100.0968097332
 10
137.7618599915
 20
100.1373901022
 10
137.7921430822
 20
100.1660052703
  0
LWPOLYLINE
  5
2A2
100
AcDbEntity
  8
ASSI
100
AcDbPolyline
 62
7
  6
CONTINUOUS
 90
29
 70
0
 10
138.4328926131
 20
98.6179820811
 10
138.3678812236
 20
98.6467213488
 10
138.3040399808
 20
98.6799131501
 10
138.2413691855
 20
98.717557738
 10
138.1795144319
 20
98.7599171673
 10
138.1188311988
 20
98.8067302849
 10
138.0603848198
 20
98.8572127055
 10
138.0041407644
 20
98.9115046416
 10
137.9501354625
 20
98.9694674736
 10
137.8995407063
 20
99.0298985813
 10
137.8525023789
 20
99.092749247
 10
137.80887684
 20
99.158070066
 10
137.7694013521
 20
99.2248071805
 10
137.7340676991
 20
99.2931343159
 10
137.7028863537
 20
99.3628796318
 10
137.6766220001
 20
99.4324704088
 10
137.6554345189
 20
99.5017679313
 10
137.6391655061
 20
99.5709121428
 10
137.6281013519
 20
99.6387475851
 10
137.6223306865
 20
99.705394276
 10
137.6217656102
 20
99.7707327995
 10
137.6264266518
 20
99.8332476557
 10
137.6364052023
 20
99.8927516517
 10
137.651609221
 20
99.9494314296
 10
137.6717830101
 20
100.002331341
 10
137.6970922488
 20
100.0514610681
 10
137.7273698321
 20
100.0968097332
 10
137.7618599915
 20
100.1373901022
 10
137.7921430822
 20
100.1660052703
  0
LWPOLYLINE
  5
2A3
100
AcDbEntity
  8
0
100
AcDbPolyline
 62
253
  6
CONTINUOUS
 90
61
 70
0
 10
137.7442213922
 20
95.8258452821
 10
137.7421575865
 20
95.8290186498
 10
137.7401860923
 20
95.8322292547
 10
137.7383093483
 20
95.8354723827
 10
137.7365297937
 20
95.8387433193
 10
137.7348498672
 20
95.8420373503
 10
137.7332720078
 20
95.8453497615
 10
137.7317986545
 20
95.8486758384
 10
137.7304322461
 20
95.8520108668
 10
137.7291752217
 20
95.8553501324
 10
137.72803002
 20
95.8586889209
 10
137.7269987761
 20
95.8620224392
 10
137.7260824087
 20
95.8653455784
 10
137.7252815326
 20
95.868653151
 10
137.7245967627
 20
95.8719399693
 10
137.7240287136
 20
95.8752008457
 10
137.7235780003
 20
95.8784305925
 10
137.7232452375
 20
95.8816240222
 10
137.72303104
 20
95.8847759471
 10
137.7229360225
 20
95.8878811795
 10
137.7229608
 20
95.8909345319
 10
137.7231057323
 20
95.8939311256
 10
137.7233701602
 20
95.896867318
 10
137.7237531696
 20
95.8997397754
 10
137.7242538463
 20
95.9025451642
 10
137.7248712765
 20
95.9052801507
 10
137.7256045458
 20
95.9079414014
 10
137.7264527403
 20
95.9105255824
 10
137.7274149459
 20
95.9130293603
 10
137.7284902484
 20
95.9154494013
 10
137.7296777338
 20
95.9177823719
 10
137.7309762258
 20
95.9200249875
 10
137.7323834992
 20
95.9221741601
 10
137.7338970666
 20
95.9242268509
 10
137.7355144406
 20
95.926180021
 10
137.7372331338
 20
95.9280306317
 10
137.7390506588
 20
95.9297756441
 10
137.7409645281
 20
95.9314120193
 10
137.7429722545
 20
95.9329367185
 10
137.7450713504
 20
95.9343467029
 10
137.7472593285
 20
95.9356389336
 10
137.7495334225
 20
95.9368107417
 10
137.7518897502
 20
95.9378609377
 10
137.7543241507
 20
95.938788702
 10
137.7568324629
 20
95.9395932151
 10
137.7594105258
 20
95.9402736572
 10
137.7620541783
 20
95.9408292088
 10
137.7647592596
 20
95.9412590503
 10
137.7675216085
 20
95.9415623622
 10
137.770337064
 20
95.9417383247
 10
137.7732014652
 20
95.9417861184
 10
137.7761106089
 20
95.941705252
 10
137.7790601239
 20
95.9414965487
 10
137.7820455972
 20
95.9411611599
 10
137.7850626153
 20
95.9407002371
 10
137.7881067651
 20
95.9401149318
 10
137.7911736334
 20
95.9394063954
 10
137.7942588069
 20
95.9385757795
 10
137.7973578725
 20
95.9376242356
 10
137.8004664168
 20
95.9365529152
 10
137.8035800267
 20
95.9353629697
  0
LINE
  5
2A4
100
AcDbEntity
  8
0
100
AcDbLine
 62
7
  6
CONTINUOUS
 10
136.4317249837
 20
125.2272824048
 11
136.4378222494
 21
124.6999957108
  0
LINE
  5
2A5
100
AcDbEntity
  8
ASSI
100
AcDbLine
 62
7
  6
CONTINUOUS
 10
136.4317249837
 20
125.2272824048
 11
136.4378222494
 21
124.6999957108
  0
LWPOLYLINE
  5
2A6
100
AcDbEntity
  8
0
100
AcDbPolyline
 62
7
  6
CONTINUOUS
 90
11
 70
0
 10
158.3602368032
 20
95.8081198698
 10
158.4016512298
 20
95.7962794544
 10
158.4497618803
 20
95.7872059278
 10
158.4987033692
 20
95.7828743076
 10
158.5480151993
 20
95.7833778474
 10
158.5971815977
 20
95.7887595841
 10
158.6457498653
 20
95.7990184629
 10
158.6932288112
 20
95.8141051467
 10
158.7391057202
 20
95.8339081542
 10
158.7828973777
 20
95.8582663729
 10
158.8218837151
 20
95.8852354291
  0
LWPOLYLINE
  5
2A7
100
AcDbEntity
  8
ASSI
100
AcDbPolyline
 62
7
  6
CONTINUOUS
 90
11
 70
0
 10
158.3602368032
 20
95.8081198698
 10
158.4016512298
 20
95.7962794544
 10
158.4497618803
 20
95.7872059278
 10
158.4987033692
 20
95.7828743076
 10
158.5480151993
 20
95.7833778474
 10
158.5971815977
 20
95.7887595841
 10
158.6457498653
 20
95.7990184629
 10
158.6932288112
 20
95.8141051467
 10
158.7391057202
 20
95.8339081542
 10
158.7828973777
 20
95.8582663729
 10
158.8218837151
 20
95.8852354291
  0
LWPOLYLINE
  5
2A8
100
AcDbEntity
  8
0
100
AcDbPolyline
 62
253
  6
CONTINUOUS
 90
16
 70
0
 10
158.2673013012
 20
96.0350652612
 10
158.3105020666
 20
96.0222446173
 10
158.3556683646
 20
96.0118860871
 10
158.4023728914
 20
96.0040876691
 10
158.4501737834
 20
95.9989231417
 10
158.4986188185
 20
95.9964413639
 10
158.5472496953
 20
95.9966658165
 10
158.5956063542
 20
95.999594382
 10
158.6432312844
 20
96.0051993577
 10
158.6896738769
 20
96.0134277115
 10
158.7344947337
 20
96.0242015881
 10
158.7772698434
 20
96.0374190589
 10
158.8175945464
 20
96.0529550822
 10
158.8550873495
 20
96.0706626798
 10
158.8893935387
 20
96.0903743235
 10
158.9201885542
 20
96.1119035279
  0
LWPOLYLINE
  5
2A9
100
AcDbEntity
  8
ASSI
100
AcDbPolyline
 62
253
  6
CONTINUOUS
 90
16
 70
0
 10
158.2673013012
 20
96.0350652612
 10
158.3105020666
 20
96.0222446173
 10
158.3556683646
 20
96.0118860871
 10
158.4023728914
 20
96.0040876691
 10
158.4501737834
 20
95.9989231417
 10
158.4986188185
 20
95.9964413639
 10
158.5472496953
 20
95.9966658165
 10
158.5956063542
 20
95.999594382
 10
158.6432312844
 20
96.0051993577
 10
158.6896738769
 20
96.0134277115
 10
158.7344947337
 20
96.0242015881
 10
158.7772698434
 20
96.0374190589
 10
158.8175945464
 20
96.0529550822
 10
158.8550873495
 20
96.0706626798
 10
158.8893935387
 20
96.0903743235
 10
158.9201885542
 20
96.1119035279
  0
LWPOLYLINE
  5
2AA
100
AcDbEntity
  8
SUPERFICI
100
AcDbPolyline
 62
7
  6
CONTINUOUS
 90
12
 70
0
 10
138.3639387747
 20
100.2364432366
 10
138.3083467317
 20
100.2529497005
 10
138.2535152036
 20
100.2653482923
 10
138.1991673839
 20
100.2736725121
 10
138.1455807434
 20
100.2778894099
 10
138.0935870201
 20
100.2778995781
 10
138.043197104
 20
100.2736165015
 10
137.9944012765
 20
100.2651276682
 10
137.9480003961
 20
100.2525947033
 10
137.9040988552
 20
100.2359860436
 10
137.8625936763
 20
100.2153344296
 10
137.8239745648
 20
100.1908978616
  0
LWPOLYLINE
  5
2AB
100
AcDbEntity
  8
0
100
AcDbPolyline
 62
253
  6
CONTINUOUS
 90
10
 70
0
 10
158.267301194
 20
94.8240014421
 10
157.1386392519
 20
95.2037555807
 10
156.0494008544
 20
95.579482589
 10
154.9988549179
 20
95.9504597203
 10
153.9863241428
 20
96.3160087232
 10
153.0111256887
 20
96.6754884454
 10
152.0725711962
 20
97.0282939614
 10
151.1700425996
 20
97.3738615035
 10
150.3029899151
 20
97.7116657251
 10
149.4708728684
 20
98.0412132368
  0
LWPOLYLINE
  5
2AC
100
AcDbEntity
  8
ASSI
100
AcDbPolyline
 62
253
  6
CONTINUOUS
 90
10
 70
0
 10
158.267301194
 20
94.8240014421
 10
157.1386392519
 20
95.2037555807
 10
156.0494008544
 20
95.579482589
 10
154.9988549179
 20
95.9504597203
 10
153.9863241428
 20
96.3160087232
 10
153.0111256887
 20
96.6754884454
 10
152.0725711962
 20
97.0282939614
 10
151.1700425996
 20
97.3738615035
 10
150.3029899151
 20
97.7116657251
 10
149.4708728684
 20
98.0412132368
  0
LINE
  5
2AD
100
AcDbEntity
  8
SUPERFICI
100
AcDbLine
 62
7
  6
CONTINUOUS
 10
138.4202911398
 20
100.2158287413
 11
138.3639387747
 21
100.2364432366
  0
LINE
  5
2AE
100
AcDbEntity
  8
SUPERFICI
100
AcDbLine
 62
7
  6
CONTINUOUS
 10
142.1063302893
 20
98.735432319
 11
138.4202911398
 21
100.2158287413
  0
LINE
  5
2AF
100
AcDbEntity
  8
0
100
AcDbLine
 62
7
  6
CONTINUOUS
 10
138.4202244548
 20
100.2158485402
 11
142.1063968121
 21
98.7354055578
  0
LINE
  5
2B0
100
AcDbEntity
  8
ASSI
100
AcDbLine
 62
7
  6
CONTINUOUS
 10
138.4202244548
 20
100.2158485402
 11
142.1063968121
 21
98.7354055578
  0
LWPOLYLINE
  5
2B1
100
AcDbEntity
  8
0
100
AcDbPolyline
 62
7
  6
CONTINUOUS
 90
30
 70
0
 10
142.1063968121
 20
98.7354055578
 10
142.1713301
 20
98.7065932547
 10
142.2350760895
 20
98.6733165375
 10
142.297635108
 20
98.6355756765
 10
142.3593616709
 20
98.5931093961
 10
142.4199023875
 20
98.5461799042
 10
142.4781959294
 20
98.4955728661
 10
142.5342781974
 20
98.4411485344
 10
142.5881152294
 20
98.3830482674
 10
142.6385409093
 20
98.3224793948
 10
142.685411598
 20
98.2594926767
 10
142.7288731898
 20
98.1940392309
 10
142.7681936068
 20
98.1271767071
 10
142.8033829526
 20
98.0587330008
 10
142.8344333656
 20
97.9888820879
 10
142.8605851939
 20
97.9192002178
 10
142.8816803815
 20
97.8498274789
 10
142.8978784178
 20
97.780624985
 10
142.9088950895
 20
97.7127497912
 10
142.9146425899
 20
97.6460823498
 10
142.9152094
 20
97.58074278
 10
142.9105746663
 20
97.5182467431
 10
142.9006462987
 20
97.4587808044
 10
142.8855156814
 20
97.4021578174
 10
142.8654360974
 20
97.3493319769
 10
142.8402406223
 20
97.300292637
 10
142.8100947116
 20
97.255049222
 10
142.7757493341
 20
97.214585292
 10
142.7372137165
 20
97.1790681179
 10
142.7297027975
 20
97.1730848498
  0
LWPOLYLINE
  5
2B2
100
AcDbEntity
  8
ASSI
100
AcDbPolyline
 62
7
  6
CONTINUOUS
 90
30
 70
0
 10
142.1063968121
 20
98.7354055578
 10
142.1713301
 20
98.7065932547
 10
142.2350760895
 20
98.6733165375
 10
142.297635108
 20
98.6355756765
 10
142.3593616709
 20
98.5931093961
 10
142.4199023875
 20
98.5461799042
 10
142.4781959294
 20
98.4955728661
 10
142.5342781974
 20
98.4411485344
 10
142.5881152294
 20
98.3830482674
 10
142.6385409093
 20
98.3224793948
 10
142.685411598
 20
98.2594926767
 10
142.7288731898
 20
98.1940392309
 10
142.7681936068
 20
98.1271767071
 10
142.8033829526
 20
98.0587330008
 10
142.8344333656
 20
97.9888820879
 10
142.8605851939
 20
97.9192002178
 10
142.8816803815
 20
97.8498274789
 10
142.8978784178
 20
97.780624985
 10
142.9088950895
 20
97.7127497912
 10
142.9146425899
 20
97.6460823498
 10
142.9152094
 20
97.58074278
 10
142.9105746663
 20
97.5182467431
 10
142.9006462987
 20
97.4587808044
 10
142.8855156814
 20
97.4021578174
 10
142.8654360974
 20
97.3493319769
 10
142.8402406223
 20
97.300292637
 10
142.8100947116
 20
97.255049222
 10
142.7757493341
 20
97.214585292
 10
142.7372137165
 20
97.1790681179
 10
142.7297027975
 20
97.1730848498
  0
LWPOLYLINE
  5
2B3
100
AcDbEntity
  8
0
100
AcDbPolyline
 62
253
  6
CONTINUOUS
 90
10
 70
0
 10
122.7551930415
 20
109.0864647243
 10
122.7194292376
 20
109.1053773704
 10
122.6870363447
 20
109.1261992615
 10
122.6583208215
 20
109.1487334087
 10
122.63355434
 20
109.1727666204
 10
122.6129712032
 20
109.1980715292
 10
122.5967661356
 20
109.2244087445
 10
122.58509245
 20
109.2515291116
 10
122.578060602
 20
109.2791760421
 10
122.5757370272
 20
109.3066715442
  0
LWPOLYLINE
  5
2B4
100
AcDbEntity
  8
ASSI
100
AcDbPolyline
 62
253
  6
CONTINUOUS
 90
10
 70
0
 10
122.7551930415
 20
109.0864647243
 10
122.7194292376
 20
109.1053773704
 10
122.6870363447
 20
109.1261992615
 10
122.6583208215
 20
109.1487334087
 10
122.63355434
 20
109.1727666204
 10
122.6129712032
 20
109.1980715292
 10
122.5967661356
 20
109.2244087445
 10
122.58509245
 20
109.2515291116
 10
122.578060602
 20
109.2791760421
 10
122.5757370272
 20
109.3066715442
  0
LINE
  5
2B5
100
AcDbEntity
  8
0
100
AcDbLine
 62
253
  6
CONTINUOUS
 10
139.9013104364
 20
95.326845216
 11
139.9010574739
 21
95.3430210421
  0
LINE
  5
2B6
100
AcDbEntity
  8
0
100
AcDbLine
 62
253
  6
CONTINUOUS
 10
140.7202095181
 20
95.0140311138
 11
140.7204624807
 21
94.9978552877
  0
LWPOLYLINE
  5
2B7
100
AcDbEntity
  8
0
100
AcDbPolyline
 62
253
  6
CONTINUOUS
 90
51
 70
0
 10
139.9013104364
 20
95.326845216
 10
139.9013088778
 20
95.3195494894
 10
139.9010744501
 20
95.312352126
 10
139.9006074039
 20
95.3052597055
 10
139.8999079898
 20
95.2982788074
 10
139.8989764587
 20
95.2914160116
 10
139.8978130612
 20
95.2846778975
 10
139.8964180479
 20
95.2780710449
 10
139.8947916695
 20
95.2716020334
 10
139.8929341768
 20
95.2652774428
 10
139.8908458204
 20
95.2591038526
 10
139.8885275256
 20
95.2530878202
 10
139.8859829159
 20
95.2472358141
 10
139.8832162894
 20
95.2415542803
 10
139.8802319442
 20
95.236049665
 10
139.8770341785
 20
95.2307284143
 10
139.8736272903
 20
95.2255969744
 10
139.8700155777
 20
95.2206617913
 10
139.8662033389
 20
95.2159293112
 10
139.862194872
 20
95.2114059802
 10
139.857994475
 20
95.2070982445
 10
139.8536064728
 20
95.2030116606
 10
139.8490352962
 20
95.1991482274
 10
139.8442854031
 20
95.195509054
 10
139.8393612509
 20
95.1920952499
 10
139.8342672974
 20
95.1889079243
 10
139.8290076532
 20
95.1859484122
 10
139.823585041
 20
95.1832189513
 10
139.8180018361
 20
95.1807220054
 10
139.8122604144
 20
95.178460038
 10
139.8063631514
 20
95.1764355126
 10
139.800313492
 20
95.1746509166
 10
139.7941191592
 20
95.1731088321
 10
139.7877889451
 20
95.171811865
 10
139.7813316422
 20
95.1707626211
 10
139.7747560426
 20
95.1699637065
 10
139.7680708916
 20
95.1694171951
 10
139.7612847457
 20
95.1691230339
 10
139.7544061147
 20
95.169080638
 10
139.747443508
 20
95.1692894225
 10
139.7404054352
 20
95.1697488025
 10
139.7333001069
 20
95.170457918
 10
139.7261345379
 20
95.1714148086
 10
139.7189154439
 20
95.172617239
 10
139.7116495408
 20
95.1740629735
 10
139.7043435442
 20
95.1757497769
 10
139.6970041699
 20
95.1776754136
 10
139.6896381337
 20
95.1798376482
 10
139.6822521515
 20
95.1822342452
 10
139.6748529388
 20
95.1848629691
 10
139.6674472116
 20
95.1877215845
  0
LWPOLYLINE
  5
2B8
100
AcDbEntity
  8
0
100
AcDbPolyline
 62
253
  6
CONTINUOUS
 90
51
 70
0
 10
140.7202095181
 20
95.0140311138
 10
140.7202114248
 20
95.0213270348
 10
140.7204463695
 20
95.0285247426
 10
140.7209140972
 20
95.0356176532
 10
140.7216143525
 20
95.0425991828
 10
140.7225468801
 20
95.0494627474
 10
140.7237114249
 20
95.0562017634
 10
140.7251077314
 20
95.0628096467
 10
140.7267355445
 20
95.0692798135
 10
140.7285946089
 20
95.0756056801
 10
140.7306846692
 20
95.0817806624
 10
140.7330047944
 20
95.0877981978
 10
140.7355513494
 20
95.0936518083
 10
140.7383200233
 20
95.0993350371
 10
140.7413065054
 20
95.1048414272
 10
140.7445064848
 20
95.1101645217
 10
140.7479156504
 20
95.115297864
 10
140.7515296916
 20
95.120234997
 10
140.7553442974
 20
95.1249694639
 10
140.7593551569
 20
95.1294948079
 10
140.7635579593
 20
95.1338045721
 10
140.7679483668
 20
95.1378931887
 10
140.772521934
 20
95.1417586461
 10
140.7772741886
 20
95.1453998217
 10
140.7822006585
 20
95.1488155929
 10
140.7872968712
 20
95.1520048373
 10
140.7925587019
 20
95.1549662068
 10
140.7979834141
 20
95.1576974514
 10
140.8035686191
 20
95.1601960959
 10
140.8093119276
 20
95.1624596648
 10
140.8152109508
 20
95.1644856828
 10
140.82126223
 20
95.1662716507
 10
140.8274580282
 20
95.1678149744
 10
140.833789539
 20
95.169113036
 10
140.8402479558
 20
95.1701632174
 10
140.8468244719
 20
95.1709629008
 10
140.8535103288
 20
95.1715100007
 10
140.8602969591
 20
95.1718045614
 10
140.8671758435
 20
95.1718471598
 10
140.8741384625
 20
95.1716383728
 10
140.8811762968
 20
95.1711787772
 10
140.8882811273
 20
95.1704692261
 10
140.895445936
 20
95.1695116769
 10
140.9026640054
 20
95.1683083637
 10
140.9099286179
 20
95.1668615203
 10
140.9172330559
 20
95.1651733804
 10
140.9245706019
 20
95.1632461779
 10
140.9319345381
 20
95.1610821467
 10
140.9393181472
 20
95.1586835206
 10
140.9467147114
 20
95.1560525334
 10
140.9541175133
 20
95.153191419
  0
LINE
  5
2B9
100
AcDbEntity
  8
0
100
AcDbLine
 62
253
  6
CONTINUOUS
 10
139.9010574739
 20
109.7788326672
 11
139.9013104364
 21
109.7954229228
  0
LINE
  5
2BA
100
AcDbEntity
  8
0
100
AcDbLine
 62
253
  6
CONTINUOUS
 10
140.7204624807
 20
109.4664329945
 11
140.7202095181
 21
109.4498427388
  0
LWPOLYLINE
  5
2BB
100
AcDbEntity
  8
0
100
AcDbPolyline
 62
253
  6
CONTINUOUS
 90
51
 70
0
 10
139.9010574739
 20
109.7788326672
 10
139.9008262649
 20
109.7713489127
 10
139.9003623405
 20
109.7639636358
 10
139.8996661616
 20
109.7566835888
 10
139.8987381889
 20
109.7495155241
 10
139.8975788834
 20
109.7424661939
 10
139.896188706
 20
109.7355423505
 10
139.8945681175
 20
109.7287507462
 10
139.8927175789
 20
109.7220981333
 10
139.890637551
 20
109.715591264
 10
139.8883284947
 20
109.7092368907
 10
139.8857915532
 20
109.7030417497
 10
139.8830305989
 20
109.6970125135
 10
139.8800501864
 20
109.6911558388
 10
139.8768548705
 20
109.6854783821
 10
139.8734492058
 20
109.6799867999
 10
139.8698377471
 20
109.6746877489
 10
139.866025049
 20
109.6695878857
 10
139.8620156663
 20
109.6646938668
 10
139.8578141535
 20
109.6600123488
 10
139.8534250654
 20
109.6555499883
 10
139.8488529558
 20
109.65131253
 10
139.8441023747
 20
109.6473020714
 10
139.8391778714
 20
109.643519798
 10
139.8340839951
 20
109.6399668954
 10
139.8288252949
 20
109.6366445491
 10
139.8234059757
 20
109.6335541725
 10
139.8178288645
 20
109.63069809
 10
139.8120964442
 20
109.6280788537
 10
139.8062111975
 20
109.6256990159
 10
139.8001756072
 20
109.6235611286
 10
139.7939932399
 20
109.6216677796
 10
139.787671998
 20
109.6200216985
 10
139.7812208677
 20
109.6186256504
 10
139.7746488354
 20
109.6174824005
 10
139.7679648872
 20
109.616594714
 10
139.761177945
 20
109.6159648098
 10
139.7542966724
 20
109.6155927227
 10
139.7473296688
 20
109.6154779412
 10
139.7402855334
 20
109.6156199539
 10
139.7331728655
 20
109.6160182494
 10
139.7259999529
 20
109.616672031
 10
139.7187738376
 20
109.6175793607
 10
139.7115012502
 20
109.6187380153
 10
139.7041889211
 20
109.6201457716
 10
139.6968435809
 20
109.6218004064
 10
139.6894719603
 20
109.6236996965
 10
139.6820807896
 20
109.6258414186
 10
139.6746767995
 20
109.6282233496
 10
139.6672667206
 20
109.6308432662
 10
139.6598572833
 20
109.6336989451
  0
LWPOLYLINE
  5
2BC
100
AcDbEntity
  8
0
100
AcDbPolyline
 62
253
  6
CONTINUOUS
 90
51
 70
0
 10
140.7204624807
 20
109.4664329945
 10
140.7206940427
 20
109.4739171288
 10
140.721158499
 20
109.4813029207
 10
140.7218553841
 20
109.4885836142
 10
140.7227842324
 20
109.4957524538
 10
140.7239445782
 20
109.5028026837
 10
140.7253359559
 20
109.5097275482
 10
140.7269578998
 20
109.5165202915
 10
140.7288099444
 20
109.5231741579
 10
140.7308916241
 20
109.5296823917
 10
140.7332024731
 20
109.5360382372
 10
140.7357413419
 20
109.5422349532
 10
140.7385043454
 20
109.5482658571
 10
140.7414869145
 20
109.5541242806
 10
140.7446844799
 20
109.5598035557
 10
140.7480924725
 20
109.5652970142
 10
140.7517063233
 20
109.570597988
 10
140.7555214631
 20
109.5756998089
 10
140.7595333228
 20
109.5805958088
 10
140.7637373332
 20
109.5852793197
 10
140.7681289253
 20
109.5897436733
 10
140.7727035307
 20
109.5939831135
 10
140.7774565848
 20
109.5979955321
 10
140.7823835237
 20
109.6017797328
 10
140.7874797837
 20
109.6053345194
 10
140.7927408009
 20
109.6086586957
 10
140.7981623559
 20
109.6117508374
 10
140.8037416069
 20
109.6146086091
 10
140.8094760562
 20
109.6172294473
 10
140.8153632065
 20
109.6196107885
 10
140.8214005602
 20
109.6217500694
 10
140.8275845361
 20
109.6236446912
 10
140.8339072184
 20
109.6252919134
 10
140.8403596075
 20
109.6266889605
 10
140.8469327038
 20
109.6278330567
 10
140.8536175078
 20
109.6287214264
 10
140.8604050851
 20
109.6293518404
 10
140.8672867619
 20
109.629724256
 10
140.8742539297
 20
109.6298391769
 10
140.8812979798
 20
109.629697107
 10
140.8884103037
 20
109.6292985499
 10
140.8955826054
 20
109.6286442959
 10
140.9028078402
 20
109.6277362806
 10
140.9100792758
 20
109.626576726
 10
140.9173901799
 20
109.625167854
 10
140.9247338205
 20
109.6235118868
 10
140.9321034652
 20
109.6216110461
 10
140.9394923818
 20
109.6194675542
 10
140.9468938383
 20
109.6170836329
 10
140.9543011022
 20
109.6144615043
 10
140.9617074416
 20
109.6116033903
  0
LWPOLYLINE
  5
2BD
100
AcDbEntity
  8
SUPERFICI
100
AcDbPolyline
 62
7
  6
CONTINUOUS
 90
34
 70
0
 10
137.7921514928
 20
100.1659953276
 10
137.7882194234
 20
100.1625717585
 10
137.7553518607
 20
100.1304619613
 10
137.7259298626
 20
100.0951418707
 10
137.7000610993
 20
100.0566610118
 10
137.6776390742
 20
100.0149708408
 10
137.6589001428
 20
99.9704973399
 10
137.6438511436
 20
99.9230742952
 10
137.6324861958
 20
99.872868724
 10
137.6250220529
 20
99.8208060192
 10
137.621531402
 20
99.7669972462
 10
137.6219417307
 20
99.7113314908
 10
137.626251412
 20
99.654400692
 10
137.6345332185
 20
99.5960388879
 10
137.6467141736
 20
99.5364118754
 10
137.6625734523
 20
99.4766087509
 10
137.6821285807
 20
99.4167638479
 10
137.7053610648
 20
99.3567420282
 10
137.7319955157
 20
99.297227734
 10
137.7621156819
 20
99.2381330477
 10
137.7956365932
 20
99.1795448681
 10
137.8320294112
 20
99.1224095497
 10
137.8712980711
 20
99.0668043869
 10
137.9134371442
 20
99.0126508364
 10
137.9579034819
 20
98.9606612746
 10
138.0047661719
 20
98.9108218905
 10
138.0539547142
 20
98.8631453122
 10
138.1047164852
 20
98.8183834945
 10
138.1570967484
 20
98.7765822543
 10
138.2110490992
 20
98.7376948174
 10
138.2656834521
 20
98.7023342858
 10
138.320702898
 20
98.6707048467
 10
138.3764037139
 20
98.6426017814
 10
138.4327857245
 20
98.618024942
  0
LWPOLYLINE
  5
2BE
100
AcDbEntity
  8
0
100
AcDbPolyline
 62
7
  6
CONTINUOUS
 90
13
 70
0
 10
137.7921430822
 20
100.1660052703
 10
137.8005507781
 20
100.1730327826
 10
137.8434518883
 20
100.2039052867
 10
137.8898393827
 20
100.229525208
 10
137.9398675856
 20
100.2498173764
 10
137.9933799032
 20
100.2648550721
 10
138.0491857561
 20
100.274378346
 10
138.1072406345
 20
100.27827432
 10
138.1675871019
 20
100.2766542551
 10
138.229165199
 20
100.26959442
 10
138.2916212212
 20
100.2571199187
 10
138.3553077486
 20
100.2392047154
 10
138.4202244548
 20
100.2158485402
  0
LWPOLYLINE
  5
2BF
100
AcDbEntity
  8
ASSI
100
AcDbPolyline
 62
7
  6
CONTINUOUS
 90
13
 70
0
 10
137.7921430822
 20
100.1660052703
 10
137.8005507781
 20
100.1730327826
 10
137.8434518883
 20
100.2039052867
 10
137.8898393827
 20
100.229525208
 10
137.9398675856
 20
100.2498173764
 10
137.9933799032
 20
100.2648550721
 10
138.0491857561
 20
100.274378346
 10
138.1072406345
 20
100.27827432
 10
138.1675871019
 20
100.2766542551
 10
138.229165199
 20
100.26959442
 10
138.2916212212
 20
100.2571199187
 10
138.3553077486
 20
100.2392047154
 10
138.4202244548
 20
100.2158485402
  0
LWPOLYLINE
  5
2C0
100
AcDbEntity
  8
SUPERFICI
100
AcDbPolyline
 62
7
  6
CONTINUOUS
 90
32
 70
0
 10
142.7213541743
 20
104.5385837104
 10
142.741672343
 20
104.5554418195
 10
142.775127228
 20
104.5880327231
 10
142.8051757173
 20
104.6238660053
 10
142.8317101282
 20
104.6628921308
 10
142.8548393169
 20
104.7051615762
 10
142.8743207443
 20
104.7502432942
 10
142.890150966
 20
104.7983062789
 10
142.9023343842
 20
104.8491823018
 10
142.9106397058
 20
104.90193406
 10
142.9149923313
 20
104.9564489212
 10
142.9154670348
 20
105.0128396525
 10
142.9120560035
 20
105.0705065822
 10
142.9046885829
 20
105.1296174075
 10
142.8934352235
 20
105.1900042619
 10
142.8784991939
 20
105.2505636678
 10
142.8598595976
 20
105.3111585308
 10
142.8375363631
 20
105.3719251642
 10
142.811793464
 20
105.4321697748
 10
142.7825469633
 20
105.491980126
 10
142.7498795764
 20
105.5512674719
 10
142.7143048828
 20
105.6090729585
 10
142.6758159595
 20
105.6653168442
 10
142.6344182361
 20
105.7200776728
 10
142.5906435577
 20
105.7726338088
 10
142.5444211709
 20
105.8229976985
 10
142.4958204169
 20
105.8711557648
 10
142.4455831881
 20
105.9163472623
 10
142.3936618142
 20
105.9585244026
 10
142.3401028247
 20
105.9977340622
 10
142.2857894526
 20
106.0333575258
 10
142.2310158949
 20
106.0651883848
  0
LINE
  5
2C1
100
AcDbEntity
  8
SUPERFICI
100
AcDbLine
 62
7
  6
CONTINUOUS
 10
137.8239745648
 20
100.1908978616
 11
137.7921514928
 21
100.1659953276
  0
LWPOLYLINE
  5
2C2
100
AcDbEntity
  8
0
100
AcDbPolyline
 62
7
  6
CONTINUOUS
 90
11
 70
0
 10
142.7213396384
 20
104.5386020571
 10
142.6856429822
 20
104.5134555124
 10
142.6387203511
 20
104.4873972329
 10
142.5882204422
 20
104.4667186655
 10
142.5342973169
 20
104.4513444559
 10
142.4781475541
 20
104.4415394676
 10
142.4198151925
 20
104.4374161926
 10
142.3592542471
 20
104.4388605674
 10
142.2975262716
 20
104.4457976293
 10
142.2349847325
 20
104.4582020792
 10
142.1712750389
 20
104.4760983059
  0
LWPOLYLINE
  5
2C3
100
AcDbEntity
  8
ASSI
100
AcDbPolyline
 62
7
  6
CONTINUOUS
 90
11
 70
0
 10
142.7213396384
 20
104.5386020571
 10
142.6856429822
 20
104.5134555124
 10
142.6387203511
 20
104.4873972329
 10
142.5882204422
 20
104.4667186655
 10
142.5342973169
 20
104.4513444559
 10
142.4781475541
 20
104.4415394676
 10
142.4198151925
 20
104.4374161926
 10
142.3592542471
 20
104.4388605674
 10
142.2975262716
 20
104.4457976293
 10
142.2349847325
 20
104.4582020792
 10
142.1712750389
 20
104.4760983059
  0
LWPOLYLINE
  5
2C4
100
AcDbEntity
  8
0
100
AcDbPolyline
 62
253
  6
CONTINUOUS
 90
10
 70
0
 10
158.5157574139
 20
95.4801796817
 10
157.3930245062
 20
95.8594835649
 10
156.3080713358
 20
96.2334330713
 10
155.2608979027
 20
96.602028201
 10
154.2521429529
 20
96.965871942
 10
153.2811677405
 20
97.3243613062
 10
152.3460560273
 20
97.6756873295
 10
151.4461690673
 20
98.0192470238
 10
150.5821456066
 20
98.3556433772
 10
149.753985645
 20
98.6848763897
  0
LWPOLYLINE
  5
2C5
100
AcDbEntity
  8
ASSI
100
AcDbPolyline
 62
253
  6
CONTINUOUS
 90
10
 70
0
 10
158.5157574139
 20
95.4801796817
 10
157.3930245062
 20
95.8594835649
 10
156.3080713358
 20
96.2334330713
 10
155.2608979027
 20
96.602028201
 10
154.2521429529
 20
96.965871942
 10
153.2811677405
 20
97.3243613062
 10
152.3460560273
 20
97.6756873295
 10
151.4461690673
 20
98.0192470238
 10
150.5821456066
 20
98.3556433772
 10
149.753985645
 20
98.6848763897
  0
LWPOLYLINE
  5
2C6
100
AcDbEntity
  8
0
100
AcDbPolyline
 62
7
  6
CONTINUOUS
 90
10
 70
0
 10
149.5711101049
 20
99.0291745593
 10
150.5110020972
 20
98.6572246329
 10
151.5136060548
 20
98.2676688143
 10
152.5126347278
 20
97.8869332527
 10
153.5079525477
 20
97.5150113558
 10
154.499428203
 20
97.1518865532
 10
155.4869334362
 20
96.7975344363
 10
156.4703183981
 20
96.4519299094
 10
157.449406194
 20
96.1150485604
 10
158.3600516293
 20
95.8081815555
  0
LWPOLYLINE
  5
2C7
100
AcDbEntity
  8
ASSI
100
AcDbPolyline
 62
7
  6
CONTINUOUS
 90
10
 70
0
 10
149.5711101049
 20
99.0291745593
 10
150.5110020972
 20
98.6572246329
 10
151.5136060548
 20
98.2676688143
 10
152.5126347278
 20
97.8869332527
 10
153.5079525477
 20
97.5150113558
 10
154.499428203
 20
97.1518865532
 10
155.4869334362
 20
96.7975344363
 10
156.4703183981
 20
96.4519299094
 10
157.449406194
 20
96.1150485604
 10
158.3600516293
 20
95.8081815555
  0
LWPOLYLINE
  5
2C8
100
AcDbEntity
  8
0
100
AcDbPolyline
 62
253
  6
CONTINUOUS
 90
10
 70
0
 10
149.4708728684
 20
99.2589081603
 10
150.3049999067
 20
98.9284940876
 10
151.1735786503
 20
98.5898860866
 10
152.0771424741
 20
98.243571496
 10
153.016233507
 20
97.8900864244
 10
153.9914616675
 20
97.5299693094
 10
155.0035068566
 20
97.163763608
 10
156.0530421728
 20
96.7920832594
 10
157.1407338392
 20
96.4156134775
 10
158.2673011959
 20
96.0350652415
  0
LWPOLYLINE
  5
2C9
100
AcDbEntity
  8
ASSI
100
AcDbPolyline
 62
253
  6
CONTINUOUS
 90
10
 70
0
 10
149.4708728684
 20
99.2589081603
 10
150.3049999067
 20
98.9284940876
 10
151.1735786503
 20
98.5898860866
 10
152.0771424741
 20
98.243571496
 10
153.016233507
 20
97.8900864244
 10
153.9914616675
 20
97.5299693094
 10
155.0035068566
 20
97.163763608
 10
156.0530421728
 20
96.7920832594
 10
157.1407338392
 20
96.4156134775
 10
158.2673011959
 20
96.0350652415
  0
LINE
  5
2CA
100
AcDbEntity
  8
0
100
AcDbLine
 62
7
  6
CONTINUOUS
 10
147.6045142185
 20
99.8160626412
 11
149.571110616
 21
99.0291741659
  0
LINE
  5
2CB
100
AcDbEntity
  8
ASSI
100
AcDbLine
 62
7
  6
CONTINUOUS
 10
147.6045142185
 20
99.8160626412
 11
149.571110616
 21
99.0291741659
  0
LINE
  5
2CC
100
AcDbEntity
  8
0
100
AcDbLine
 62
253
  6
CONTINUOUS
 10
149.4708728684
 20
98.0412132368
 11
147.713893828
 21
98.7440127551
  0
LINE
  5
2CD
100
AcDbEntity
  8
ASSI
100
AcDbLine
 62
253
  6
CONTINUOUS
 10
149.4708728684
 20
98.0412132368
 11
147.713893828
 21
98.7440127551
  0
LINE
  5
2CE
100
AcDbEntity
  8
0
100
AcDbLine
 62
253
  6
CONTINUOUS
 10
149.753985645
 20
98.6848763897
 11
147.1203175467
 21
99.7393015802
  0
LINE
  5
2CF
100
AcDbEntity
  8
ASSI
100
AcDbLine
 62
253
  6
CONTINUOUS
 10
149.753985645
 20
98.6848763897
 11
147.1203175467
 21
99.7393015802
  0
LINE
  5
2D0
100
AcDbEntity
  8
0
100
AcDbLine
 62
253
  6
CONTINUOUS
 10
145.9551688504
 20
100.6676461998
 11
149.4708728684
 21
99.2589081603
  0
LINE
  5
2D1
100
AcDbEntity
  8
ASSI
100
AcDbLine
 62
253
  6
CONTINUOUS
 10
145.9551688504
 20
100.6676461998
 11
149.4708728684
 21
99.2589081603
  0
LINE
  5
2D2
100
AcDbEntity
  8
0
100
AcDbLine
 62
253
  6
CONTINUOUS
 10
147.713893828
 20
98.7440127551
 11
145.0816871749
 21
99.8010307403
  0
LINE
  5
2D3
100
AcDbEntity
  8
ASSI
100
AcDbLine
 62
253
  6
CONTINUOUS
 10
147.713893828
 20
98.7440127551
 11
145.0816871749
 21
99.8010307403
  0
LWPOLYLINE
  5
2D4
100
AcDbEntity
  8
0
100
AcDbPolyline
 62
253
  6
CONTINUOUS
 90
3
 70
0
 10
145.0816871749
 20
99.8010307403
 10
143.3279495434
 20
100.5066592108
 10
133.6721629616
 20
104.3830082815
  0
LWPOLYLINE
  5
2D5
100
AcDbEntity
  8
ASSI
100
AcDbPolyline
 62
253
  6
CONTINUOUS
 90
3
 70
0
 10
145.0816871749
 20
99.8010307403
 10
143.3279495434
 20
100.5066592108
 10
133.6721629616
 20
104.3830082815
  0
LWPOLYLINE
  5
2D6
100
AcDbEntity
  8
0
100
AcDbPolyline
 62
7
  6
CONTINUOUS
 90
3
 70
0
 10
139.4152726553
 20
103.1077548347
 10
143.5283021154
 20
101.4543840254
 10
147.6045142185
 20
99.8160626412
  0
LWPOLYLINE
  5
2D7
100
AcDbEntity
  8
ASSI
100
AcDbPolyline
 62
7
  6
CONTINUOUS
 90
3
 70
0
 10
139.4152726553
 20
103.1077548347
 10
143.5283021154
 20
101.4543840254
 10
147.6045142185
 20
99.8160626412
  0
LINE
  5
2D8
100
AcDbEntity
  8
0
100
AcDbLine
 62
253
  6
CONTINUOUS
 10
140.6911762872
 20
102.7849861677
 11
145.9551688504
 21
100.6676461998
  0
LINE
  5
2D9
100
AcDbEntity
  8
ASSI
100
AcDbLine
 62
253
  6
CONTINUOUS
 10
140.6911762872
 20
102.7849861677
 11
145.9551688504
 21
100.6676461998
  0
LWPOLYLINE
  5
2DA
100
AcDbEntity
  8
0
100
AcDbPolyline
 62
253
  6
CONTINUOUS
 90
3
 70
0
 10
133.6721629616
 20
104.3830082815
 10
131.9169081945
 20
105.0895051511
 10
131.0399518719
 20
105.4434866244
  0
LWPOLYLINE
  5
2DB
100
AcDbEntity
  8
ASSI
100
AcDbPolyline
 62
253
  6
CONTINUOUS
 90
3
 70
0
 10
133.6721629616
 20
104.3830082815
 10
131.9169081945
 20
105.0895051511
 10
131.0399518719
 20
105.4434866244
  0
LWPOLYLINE
  5
2DC
100
AcDbEntity
  8
0
100
AcDbPolyline
 62
253
  6
CONTINUOUS
 90
3
 70
0
 10
147.1203175467
 20
99.7393015802
 10
132.2021089194
 20
105.7325284431
 10
131.3254068626
 20
106.0862090913
  0
LWPOLYLINE
  5
2DD
100
AcDbEntity
  8
ASSI
100
AcDbPolyline
 62
253
  6
CONTINUOUS
 90
3
 70
0
 10
147.1203175467
 20
99.7393015802
 10
132.2021089194
 20
105.7325284431
 10
131.3254068626
 20
106.0862090913
  0
LWPOLYLINE
  5
2DE
100
AcDbEntity
  8
0
100
AcDbPolyline
 62
7
  6
CONTINUOUS
 90
3
 70
0
 10
131.1405968394
 20
106.4312840258
 10
133.1714182638
 20
105.612673632
 10
139.4152726553
 20
103.1077548347
  0
LWPOLYLINE
  5
2DF
100
AcDbEntity
  8
ASSI
100
AcDbPolyline
 62
7
  6
CONTINUOUS
 90
3
 70
0
 10
131.1405968394
 20
106.4312840258
 10
133.1714182638
 20
105.612673632
 10
139.4152726553
 20
103.1077548347
  0
LWPOLYLINE
  5
2E0
100
AcDbEntity
  8
0
100
AcDbPolyline
 62
253
  6
CONTINUOUS
 90
3
 70
0
 10
131.0399518719
 20
106.6611815479
 10
131.9158466117
 20
106.3076659418
 10
140.6911762872
 20
102.7849861677
  0
LWPOLYLINE
  5
2E1
100
AcDbEntity
  8
ASSI
100
AcDbPolyline
 62
253
  6
CONTINUOUS
 90
3
 70
0
 10
131.0399518719
 20
106.6611815479
 10
131.9158466117
 20
106.3076659418
 10
140.6911762872
 20
102.7849861677
  0
LWPOLYLINE
  5
2E2
100
AcDbEntity
  8
0
100
AcDbPolyline
 62
253
  6
CONTINUOUS
 90
6
 70
0
 10
131.3254068626
 20
106.0862090913
 10
130.500757511
 20
106.4208147401
 10
129.6524846656
 20
106.7721488352
 10
128.7805883265
 20
107.1402113767
 10
127.884323414
 20
107.5244537676
 10
126.9644350079
 20
107.9254246048
  0
LWPOLYLINE
  5
2E3
100
AcDbEntity
  8
ASSI
100
AcDbPolyline
 62
253
  6
CONTINUOUS
 90
6
 70
0
 10
131.3254068626
 20
106.0862090913
 10
130.500757511
 20
106.4208147401
 10
129.6524846656
 20
106.7721488352
 10
128.7805883265
 20
107.1402113767
 10
127.884323414
 20
107.5244537676
 10
126.9644350079
 20
107.9254246048
  0
LWPOLYLINE
  5
2E4
100
AcDbEntity
  8
0
100
AcDbPolyline
 62
253
  6
CONTINUOUS
 90
10
 70
0
 10
131.0399518719
 20
105.4434866244
 10
130.2134080104
 20
105.780112472
 10
129.3617799997
 20
106.1326057004
 10
128.4856842652
 20
106.5014208325
 10
127.5857999333
 20
106.8870221534
 10
126.6628153426
 20
107.2899346953
 10
125.7174317026
 20
107.710746341
 10
124.7504395648
 20
108.1500421028
 10
123.7627201496
 20
108.6084043588
 10
122.7551930558
 20
109.0864646695
  0
LWPOLYLINE
  5
2E5
100
AcDbEntity
  8
ASSI
100
AcDbPolyline
 62
253
  6
CONTINUOUS
 90
10
 70
0
 10
131.0399518719
 20
105.4434866244
 10
130.2134080104
 20
105.780112472
 10
129.3617799997
 20
106.1326057004
 10
128.4856842652
 20
106.5014208325
 10
127.5857999333
 20
106.8870221534
 10
126.6628153426
 20
107.2899346953
 10
125.7174317026
 20
107.710746341
 10
124.7504395648
 20
108.1500421028
 10
123.7627201496
 20
108.6084043588
 10
122.7551930558
 20
109.0864646695
  0
LWPOLYLINE
  5
2E6
100
AcDbEntity
  8
0
100
AcDbPolyline
 62
253
  6
CONTINUOUS
 90
5
 70
0
 10
126.9644350079
 20
107.9254246048
 10
126.023158347
 20
108.3447696787
 10
125.0612385111
 20
108.7830375862
 10
124.0779304204
 20
109.2396797304
 10
123.073234075
 20
109.7146961114
  0
LWPOLYLINE
  5
2E7
100
AcDbEntity
  8
ASSI
100
AcDbPolyline
 62
253
  6
CONTINUOUS
 90
5
 70
0
 10
126.9644350079
 20
107.9254246048
 10
126.023158347
 20
108.3447696787
 10
125.0612385111
 20
108.7830375862
 10
124.0779304204
 20
109.2396797304
 10
123.073234075
 20
109.7146961114
  0
LWPOLYLINE
  5
2E8
100
AcDbEntity
  8
0
100
AcDbPolyline
 62
253
  6
CONTINUOUS
 90
10
 70
0
 10
122.7551930575
 20
110.2975284687
 10
123.7646080964
 20
109.8200929855
 10
124.7537708735
 20
109.3623888282
 10
125.7217481921
 20
108.9237754448
 10
126.6676468265
 20
108.5036445876
 10
127.5906650668
 20
108.1014213367
 10
128.4900912879
 20
107.7165638171
 10
129.3652282755
 20
107.3485583825
 10
130.2153895014
 20
106.9969174881
 10
131.0399518719
 20
106.6611815479
  0
LWPOLYLINE
  5
2E9
100
AcDbEntity
  8
ASSI
100
AcDbPolyline
 62
253
  6
CONTINUOUS
 90
10
 70
0
 10
122.7551930575
 20
110.2975284687
 10
123.7646080964
 20
109.8200929855
 10
124.7537708735
 20
109.3623888282
 10
125.7217481921
 20
108.9237754448
 10
126.6676468265
 20
108.5036445876
 10
127.5906650668
 20
108.1014213367
 10
128.4900912879
 20
107.7165638171
 10
129.3652282755
 20
107.3485583825
 10
130.2153895014
 20
106.9969174881
 10
131.0399518719
 20
106.6611815479
  0
LWPOLYLINE
  5
2EA
100
AcDbEntity
  8
0
100
AcDbPolyline
 62
7
  6
CONTINUOUS
 90
10
 70
0
 10
122.8599824538
 20
110.0659536588
 10
123.668416338
 20
109.6827224262
 10
124.55460642
 20
109.270394422
 10
125.4566486233
 20
108.8587016441
 10
126.374525085
 20
108.4477465549
 10
127.3082280958
 20
108.0376174389
 10
128.2577567985
 20
107.6283904096
 10
129.2230960556
 20
107.2201407492
 10
130.2042126673
 20
106.812942782
 10
131.1405981688
 20
106.4312836635
  0
LWPOLYLINE
  5
2EB
100
AcDbEntity
  8
ASSI
100
AcDbPolyline
 62
7
  6
CONTINUOUS
 90
10
 70
0
 10
122.8599824538
 20
110.0659536588
 10
123.668416338
 20
109.6827224262
 10
124.55460642
 20
109.270394422
 10
125.4566486233
 20
108.8587016441
 10
126.374525085
 20
108.4477465549
 10
127.3082280958
 20
108.0376174389
 10
128.2577567985
 20
107.6283904096
 10
129.2230960556
 20
107.2201407492
 10
130.2042126673
 20
106.812942782
 10
131.1405981688
 20
106.4312836635
  0
LWPOLYLINE
  5
2EC
100
AcDbEntity
  8
0
100
AcDbPolyline
 62
7
  6
CONTINUOUS
 90
7
 70
0
 10
122.8598482755
 20
110.0660178655
 10
122.8491759141
 20
110.0712837247
 10
122.8101206301
 20
110.0933949523
 10
122.7732933578
 20
110.1188523221
 10
122.738718488
 20
110.1476590454
 10
122.7067260815
 20
110.1796193723
 10
122.6776638776
 20
110.2144556003
  0
LWPOLYLINE
  5
2ED
100
AcDbEntity
  8
ASSI
100
AcDbPolyline
 62
7
  6
CONTINUOUS
 90
7
 70
0
 10
122.8598482755
 20
110.0660178655
 10
122.8491759141
 20
110.0712837247
 10
122.8101206301
 20
110.0933949523
 10
122.7732933578
 20
110.1188523221
 10
122.738718488
 20
110.1476590454
 10
122.7067260815
 20
110.1796193723
 10
122.6776638776
 20
110.2144556003
  0
LINE
  5
2EE
100
AcDbEntity
  8
0
100
AcDbLine
 62
7
  6
CONTINUOUS
 10
145.6881430841
 20
121.5096962146
 11
145.6269908286
 21
121.0826955041
  0
LINE
  5
2EF
100
AcDbEntity
  8
ASSI
100
AcDbLine
 62
7
  6
CONTINUOUS
 10
145.6881430841
 20
121.5096962146
 11
145.6269908286
 21
121.0826955041
  0
LINE
  5
2F0
100
AcDbEntity
  8
0
100
AcDbLine
 62
7
  6
CONTINUOUS
 10
142.1712750389
 20
104.4760983059
 11
142.1063968643
 21
104.4994860443
  0
LINE
  5
2F1
100
AcDbEntity
  8
ASSI
100
AcDbLine
 62
7
  6
CONTINUOUS
 10
142.1712750389
 20
104.4760983059
 11
142.1063968643
 21
104.4994860443
  0
LWPOLYLINE
  5
2F2
100
AcDbEntity
  8
SUPERFICI
100
AcDbPolyline
 62
7
  6
CONTINUOUS
 90
13
 70
0
 10
138.432785628
 20
107.5986384136
 10
138.3764810257
 20
107.6192037343
 10
138.3208572602
 20
107.6356173751
 10
138.2659145058
 20
107.6478794748
 10
138.2113683462
 20
107.6560243315
 10
138.1575038258
 20
107.6600181481
 10
138.1051754419
 20
107.6597590257
 10
138.0543992075
 20
107.6551575045
 10
138.0051602519
 20
107.6463039574
 10
137.9582667859
 20
107.6333662681
 10
137.913823285
 20
107.6163130216
 10
137.8717266736
 20
107.5951767538
 10
137.8324737469
 20
107.5702212035
  0
LWPOLYLINE
  5
2F3
100
AcDbEntity
  8
SUPERFICI
100
AcDbPolyline
 62
7
  6
CONTINUOUS
 90
14
 70
0
 10
142.1063301661
 20
104.4995058323
 10
142.1626449401
 20
104.4788605443
 10
142.2182465743
 20
104.462361937
 10
142.2731352615
 20
104.4500101672
 10
142.3275890335
 20
104.4417727386
 10
142.3813305229
 20
104.4376826855
 10
142.4335269526
 20
104.4378385647
 10
142.4841695909
 20
104.4423286591
 10
142.5332683411
 20
104.4510656322
 10
142.5800184123
 20
104.4638846374
 10
142.624316774
 20
104.4808183537
 10
142.6662678715
 20
104.5018352428
 10
142.70537803
 20
104.5266740531
 10
142.7213541743
 20
104.5385837104
  0
LINE
  5
2F4
100
AcDbEntity
  8
0
100
AcDbLine
 62
7
  6
CONTINUOUS
 10
161.0463307365
 20
97.5827775113
 11
161.1393981286
 21
97.5453995485
  0
LINE
  5
2F5
100
AcDbEntity
  8
ASSI
100
AcDbLine
 62
7
  6
CONTINUOUS
 10
161.0463307365
 20
97.5827775113
 11
161.1393981286
 21
97.5453995485
  0
LINE
  5
2F6
100
AcDbEntity
  8
SUPERFICI
100
AcDbLine
 62
7
  6
CONTINUOUS
 10
138.4202910165
 20
105.9799022546
 11
142.1063301661
 21
104.4995058323
  0
LINE
  5
2F7
100
AcDbEntity
  8
0
100
AcDbLine
 62
7
  6
CONTINUOUS
 10
142.1063968643
 20
104.4994860443
 11
138.4202244208
 21
105.9799289561
  0
LINE
  5
2F8
100
AcDbEntity
  8
ASSI
100
AcDbLine
 62
7
  6
CONTINUOUS
 10
142.1063968643
 20
104.4994860443
 11
138.4202244208
 21
105.9799289561
  0
LINE
  5
2F9
100
AcDbEntity
  8
SUPERFICI
100
AcDbLine
 62
7
  6
CONTINUOUS
 10
142.1192035605
 20
106.1180898637
 11
138.432785628
 21
107.5986384136
  0
LINE
  5
2FA
100
AcDbEntity
  8
0
100
AcDbLine
 62
7
  6
CONTINUOUS
 10
138.4328927359
 20
107.5986068041
 11
142.1190967846
 21
106.1181328169
  0
LINE
  5
2FB
100
AcDbEntity
  8
ASSI
100
AcDbLine
 62
7
  6
CONTINUOUS
 10
138.4328927359
 20
107.5986068041
 11
142.1190967846
 21
106.1181328169
  0
LWPOLYLINE
  5
2FC
100
AcDbEntity
  8
0
100
AcDbPolyline
 62
7
  6
CONTINUOUS
 90
29
 70
0
 10
138.4202244208
 20
105.9799289561
 10
138.3552527607
 20
106.0087098265
 10
138.2915300466
 20
106.0420056099
 10
138.2290566059
 20
106.0798165721
 10
138.1674799763
 20
106.1224056706
 10
138.107153745
 20
106.1695108586
 10
138.0491375167
 20
106.2203450588
 10
137.9933987789
 20
106.2750507939
 10
137.9399719829
 20
106.3334871065
 10
137.890017186
 20
106.3944417039
 10
137.8436804867
 20
106.4578658405
 10
137.8008180416
 20
106.5238100785
 10
137.7621547338
 20
106.5912108747
 10
137.7276849988
 20
106.6602440517
 10
137.6974166429
 20
106.7307355883
 10
137.6720939787
 20
106.8010966698
 10
137.6518755714
 20
106.8711876251
 10
137.6366042894
 20
106.9411492717
 10
137.6265500201
 20
107.0098128193
 10
137.6218037687
 20
107.0773004359
 10
137.6222752043
 20
107.1434904869
 10
137.627961139
 20
107.2068476172
 10
137.6389506162
 20
107.267182766
 10
137.6551538865
 20
107.3246844189
 10
137.6762984972
 20
107.3783826781
 10
137.7025514195
 20
107.4282882281
 10
137.733744213
 20
107.4743891993
 10
137.7691004247
 20
107.5156811562
 10
137.7998819884
 20
107.5447002608
  0
LWPOLYLINE
  5
2FD
100
AcDbEntity
  8
ASSI
100
AcDbPolyline
 62
7
  6
CONTINUOUS
 90
29
 70
0
 10
138.4202244208
 20
105.9799289561
 10
138.3552527607
 20
106.0087098265
 10
138.2915300466
 20
106.0420056099
 10
138.2290566059
 20
106.0798165721
 10
138.1674799763
 20
106.1224056706
 10
138.107153745
 20
106.1695108586
 10
138.0491375167
 20
106.2203450588
 10
137.9933987789
 20
106.2750507939
 10
137.9399719829
 20
106.3334871065
 10
137.890017186
 20
106.3944417039
 10
137.8436804867
 20
106.4578658405
 10
137.8008180416
 20
106.5238100785
 10
137.7621547338
 20
106.5912108747
 10
137.7276849988
 20
106.6602440517
 10
137.6974166429
 20
106.7307355883
 10
137.6720939787
 20
106.8010966698
 10
137.6518755714
 20
106.8711876251
 10
137.6366042894
 20
106.9411492717
 10
137.6265500201
 20
107.0098128193
 10
137.6218037687
 20
107.0773004359
 10
137.6222752043
 20
107.1434904869
 10
137.627961139
 20
107.2068476172
 10
137.6389506162
 20
107.267182766
 10
137.6551538865
 20
107.3246844189
 10
137.6762984972
 20
107.3783826781
 10
137.7025514195
 20
107.4282882281
 10
137.733744213
 20
107.4743891993
 10
137.7691004247
 20
107.5156811562
 10
137.7998819884
 20
107.5447002608
  0
LWPOLYLINE
  5
2FE
100
AcDbEntity
  8
0
100
AcDbPolyline
 62
7
  6
CONTINUOUS
 90
30
 70
0
 10
142.1190967846
 20
106.1181328169
 10
142.1839870154
 20
106.0892943017
 10
142.2476115885
 20
106.055925015
 10
142.3099708047
 20
106.0180251965
 10
142.3714172806
 20
105.9753313257
 10
142.4315994725
 20
105.9281077791
 10
142.4894616476
 20
105.8771468067
 10
142.5450376757
 20
105.8223076547
 10
142.5982955863
 20
105.7637325957
 10
142.6480809048
 20
105.7026384354
 10
142.6942499195
 20
105.6390756703
 10
142.7369485849
 20
105.5729956011
 10
142.7754566795
 20
105.5054660444
 10
142.8097815735
 20
105.4363125819
 10
142.8399181532
 20
105.365711444
 10
142.8651268609
 20
105.2952559326
 10
142.8852507743
 20
105.2250871864
 10
142.9004482922
 20
105.1550652576
 10
142.9104519712
 20
105.0863611249
 10
142.9151714845
 20
105.0188533807
 10
142.9146978893
 20
104.9526640273
 10
142.9090347515
 20
104.8893283019
 10
142.8980924771
 20
104.8290348695
 10
142.8819600104
 20
104.7715945515
 10
142.860907646
 20
104.7179749534
 10
142.8347673456
 20
104.6681644603
 10
142.8037057219
 20
104.622173547
 10
142.7684941504
 20
104.5810022317
 10
142.7291446664
 20
104.544819978
 10
142.7213396384
 20
104.5386020571
  0
LWPOLYLINE
  5
2FF
100
AcDbEntity
  8
ASSI
100
AcDbPolyline
 62
7
  6
CONTINUOUS
 90
30
 70
0
 10
142.1190967846
 20
106.1181328169
 10
142.1839870154
 20
106.0892943017
 10
142.2476115885
 20
106.055925015
 10
142.3099708047
 20
106.0180251965
 10
142.3714172806
 20
105.9753313257
 10
142.4315994725
 20
105.9281077791
 10
142.4894616476
 20
105.8771468067
 10
142.5450376757
 20
105.8223076547
 10
142.5982955863
 20
105.7637325957
 10
142.6480809048
 20
105.7026384354
 10
142.6942499195
 20
105.6390756703
 10
142.7369485849
 20
105.5729956011
 10
142.7754566795
 20
105.5054660444
 10
142.8097815735
 20
105.4363125819
 10
142.8399181532
 20
105.365711444
 10
142.8651268609
 20
105.2952559326
 10
142.8852507743
 20
105.2250871864
 10
142.9004482922
 20
105.1550652576
 10
142.9104519712
 20
105.0863611249
 10
142.9151714845
 20
105.0188533807
 10
142.9146978893
 20
104.9526640273
 10
142.9090347515
 20
104.8893283019
 10
142.8980924771
 20
104.8290348695
 10
142.8819600104
 20
104.7715945515
 10
142.860907646
 20
104.7179749534
 10
142.8347673456
 20
104.6681644603
 10
142.8037057219
 20
104.622173547
 10
142.7684941504
 20
104.5810022317
 10
142.7291446664
 20
104.544819978
 10
142.7213396384
 20
104.5386020571
  0
LWPOLYLINE
  5
300
100
AcDbEntity
  8
SUPERFICI
100
AcDbPolyline
 62
7
  6
CONTINUOUS
 90
3
 70
0
 10
142.2310158949
 20
106.0651883848
 10
142.1754873227
 20
106.093432544
 10
142.1192035605
 20
106.1180898637
  0
LINE
  5
301
100
AcDbEntity
  8
0
100
AcDbLine
 62
7
  6
CONTINUOUS
 10
145.6881430841
 20
121.5096962146
 11
145.6942403498
 21
120.9824095206
  0
LINE
  5
302
100
AcDbEntity
  8
ASSI
100
AcDbLine
 62
7
  6
CONTINUOUS
 10
145.6881430841
 20
121.5096962146
 11
145.6942403498
 21
120.9824095206
  0
LINE
  5
303
100
AcDbEntity
  8
0
100
AcDbLine
 62
253
  6
CONTINUOUS
 10
145.6269908286
 20
121.0826955041
 11
145.6269908286
 21
121.0717902368
  0
LINE
  5
304
100
AcDbEntity
  8
ASSI
100
AcDbLine
 62
253
  6
CONTINUOUS
 10
145.6269908286
 20
121.0826955041
 11
145.6269908286
 21
121.0717902368
  0
LINE
  5
305
100
AcDbEntity
  8
0
100
AcDbLine
 62
7
  6
CONTINUOUS
 10
145.6263219162
 20
121.0717902368
 11
145.6269908286
 21
121.0826955041
  0
LINE
  5
306
100
AcDbEntity
  8
ASSI
100
AcDbLine
 62
7
  6
CONTINUOUS
 10
145.6263219162
 20
121.0717902368
 11
145.6269908286
 21
121.0826955041
  0
LINE
  5
307
100
AcDbEntity
  8
0
100
AcDbLine
 62
253
  6
CONTINUOUS
 10
159.1661282405
 20
114.2204355763
 11
160.6683911219
 21
115.4932908808
  0
LINE
  5
308
100
AcDbEntity
  8
ASSI
100
AcDbLine
 62
253
  6
CONTINUOUS
 10
159.1661282405
 20
114.2204355763
 11
160.6683911219
 21
115.4932908808
  0
LINE
  5
309
100
AcDbEntity
  8
0
100
AcDbLine
 62
253
  6
CONTINUOUS
 10
159.5830660063
 20
113.6531276247
 11
161.1034564902
 21
114.9413423015
  0
LINE
  5
30A
100
AcDbEntity
  8
ASSI
100
AcDbLine
 62
253
  6
CONTINUOUS
 10
159.5830660063
 20
113.6531276247
 11
161.1034564902
 21
114.9413423015
  0
LINE
  5
30B
100
AcDbEntity
  8
0
100
AcDbLine
 62
253
  6
CONTINUOUS
 10
137.4389740626
 20
110.524468483
 11
139.6598571737
 21
109.6336915083
  0
LINE
  5
30C
100
AcDbEntity
  8
0
100
AcDbLine
 62
253
  6
CONTINUOUS
 10
139.6674471143
 20
110.1314013002
 11
137.8035801674
 21
110.8790577619
  0
LINE
  5
30D
100
AcDbEntity
  8
0
100
AcDbLine
 62
253
  6
CONTINUOUS
 10
142.8240516421
 20
108.8627232336
 11
140.9617073442
 21
109.6115972133
  0
LINE
  5
30E
100
AcDbEntity
  8
0
100
AcDbLine
 62
253
  6
CONTINUOUS
 10
140.9541174037
 20
109.1138874219
 11
143.1730383726
 21
108.2215389849
  0
LWPOLYLINE
  5
30F
100
AcDbEntity
  8
0
100
AcDbPolyline
 62
253
  6
CONTINUOUS
 90
51
 70
0
 10
139.6674472116
 20
110.131407477
 10
139.6748816992
 20
110.1283047382
 10
139.6823077329
 20
110.1249680593
 10
139.6897185027
 20
110.1214005386
 10
139.6971071984
 20
110.1176052741
 10
139.70446701
 20
110.1135853641
 10
139.7117911274
 20
110.1093439067
 10
139.7190727405
 20
110.1048840003
 10
139.7263050392
 20
110.1002087429
 10
139.7334812134
 20
110.0953212327
 10
139.7405944531
 20
110.0902245679
 10
139.7476377079
 20
110.0849226342
 10
139.7546029665
 20
110.0794224664
 10
139.7614819775
 20
110.073731887
 10
139.7682664892
 20
110.0678587183
 10
139.7749482503
 20
110.0618107826
 10
139.7815190092
 20
110.0555959025
 10
139.7879705143
 20
110.0492219002
 10
139.7942945143
 20
110.0426965981
 10
139.8004827574
 20
110.0360278186
 10
139.8065269924
 20
110.029223384
 10
139.8124198579
 20
110.0222907751
 10
139.818157554
 20
110.0152361061
 10
139.823737171
 20
110.0080651496
 10
139.8291557994
 20
110.0007836781
 10
139.8344105295
 20
109.9933974641
 10
139.8394983621
 20
109.9859119615
 10
139.8444159394
 20
109.9783313487
 10
139.8491598143
 20
109.9706594855
 10
139.8537265393
 20
109.9629002316
 10
139.8581126672
 20
109.9550574467
 10
139.8623143022
 20
109.9471362717
 10
139.866325754
 20
109.9391469727
 10
139.8701408839
 20
109.9311010971
 10
139.8737535532
 20
109.9230101921
 10
139.877157623
 20
109.914885805
 10
139.8803475174
 20
109.9067391996
 10
139.8833199119
 20
109.8985805059
 10
139.8860720448
 20
109.8904195704
 10
139.8886011542
 20
109.8822662394
 10
139.8909044785
 20
109.8741303594
 10
139.8929796544
 20
109.8660213022
 10
139.8948259125
 20
109.8579465409
 10
139.896442882
 20
109.8499130741
 10
139.8978301921
 20
109.8419279002
 10
139.8989874719
 20
109.8339980176
 10
139.8999143505
 20
109.826130425
 10
139.9006104571
 20
109.8183321207
 10
139.9010754209
 20
109.8106101032
 10
139.9013088709
 20
109.8029713711
 10
139.9013104364
 20
109.7954229228
  0
LWPOLYLINE
  5
310
100
AcDbEntity
  8
0
100
AcDbPolyline
 62
253
  6
CONTINUOUS
 90
51
 70
0
 10
140.9541175133
 20
109.1138948584
 10
140.946685951
 20
109.1170001161
 10
140.9392625643
 20
109.1203390871
 10
140.9318541649
 20
109.1239086745
 10
140.9244675643
 20
109.1277057811
 10
140.9171095741
 20
109.1317273101
 10
140.909787006
 20
109.1359701644
 10
140.9025066716
 20
109.140431247
 10
140.8952753824
 20
109.1451074609
 10
140.88809995
 20
109.1499957091
 10
140.8809871861
 20
109.1550928945
 10
140.8739441444
 20
109.160395134
 10
140.8669788465
 20
109.1658953998
 10
140.8600995565
 20
109.1715858778
 10
140.853314538
 20
109.1774587539
 10
140.846632055
 20
109.1835062143
 10
140.8400603712
 20
109.1897204448
 10
140.8336077506
 20
109.1960936314
 10
140.827282457
 20
109.2026179601
 10
140.8210927542
 20
109.2092856169
 10
140.815046906
 20
109.2160887878
 10
140.8091522863
 20
109.2230200011
 10
140.8034127088
 20
109.2300731549
 10
140.7978310972
 20
109.2372424897
 10
140.7924103751
 20
109.244522246
 10
140.7871534662
 20
109.2519066642
 10
140.7820633838
 20
109.2593903031
 10
140.7771434994
 20
109.2669689946
 10
140.7723972739
 20
109.2746388891
 10
140.7678281685
 20
109.2823961368
 10
140.7634396442
 20
109.2902368879
 10
140.7592356105
 20
109.2981560121
 10
140.7552217715
 20
109.3061432564
 10
140.7514042795
 20
109.3141870871
 10
140.7477892872
 20
109.3222759707
 10
140.7443829469
 20
109.3303983736
 10
140.741190848
 20
109.3385430451
 10
140.7382163273
 20
109.3466998675
 10
140.7354621585
 20
109.3548590059
 10
140.7329311152
 20
109.3630106256
 10
140.7306259712
 20
109.3711448917
 10
140.7285491003
 20
109.3792524427
 10
140.7267012779
 20
109.3873258103
 10
140.7250828796
 20
109.3953579994
 10
140.723694281
 20
109.4033420149
 10
140.7225358578
 20
109.4112708618
 10
140.7216079855
 20
109.4191375449
 10
140.7209110397
 20
109.4269350693
 10
140.7204453962
 20
109.4346564398
 10
140.7202114305
 20
109.4422946613
 10
140.7202095181
 20
109.4498427388
  0
LWPOLYLINE
  5
311
100
AcDbEntity
  8
0
100
AcDbPolyline
 62
253
  6
CONTINUOUS
 90
67
 70
0
 10
137.4389738987
 20
110.5244573969
 10
137.4248891368
 20
110.5303514934
 10
137.4108281907
 20
110.5367291287
 10
137.3968076146
 20
110.5435819404
 10
137.3828439623
 20
110.5509015663
 10
137.368953788
 20
110.5586796441
 10
137.3551536456
 20
110.5669078116
 10
137.3414599769
 20
110.5755771782
 10
137.3278887745
 20
110.5846767398
 10
137.3144559184
 20
110.5941949642
 10
137.3011772891
 20
110.604120319
 10
137.2880687665
 20
110.6144412719
 10
137.2751462311
 20
110.6251462907
 10
137.2624253171
 20
110.6362234091
 10
137.2499206753
 20
110.6476589255
 10
137.2376467109
 20
110.6594387041
 10
137.2256178287
 20
110.6715486094
 10
137.2138484338
 20
110.6839745058
 10
137.2023529312
 20
110.6967022578
 10
137.1911453875
 20
110.7097173918
 10
137.180238516
 20
110.7230040839
 10
137.1696446919
 20
110.7365461718
 10
137.1593762901
 20
110.7503274938
 10
137.1494456855
 20
110.7643318878
 10
137.1398652534
 20
110.7785431918
 10
137.1306469419
 20
110.7929450185
 10
137.1218009927
 20
110.8075200789
 10
137.1133372207
 20
110.822250859
 10
137.1052654409
 20
110.8371198442
 10
137.0975954681
 20
110.8521095205
 10
137.0903371174
 20
110.8672023736
 10
137.0834997068
 20
110.8823807873
 10
137.0770905666
 20
110.897626738
 10
137.0711165303
 20
110.9129221003
 10
137.0655844313
 20
110.9282487488
 10
137.0605011031
 20
110.943588558
 10
137.0558733792
 20
110.9589234025
 10
137.0517075467
 20
110.9742351816
 10
137.0480077082
 20
110.9895058937
 10
137.0447774197
 20
111.0047175619
 10
137.0420202375
 20
111.0198522092
 10
137.0397397176
 20
111.0348918588
 10
137.0379394163
 20
111.0498185337
 10
137.0366223175
 20
111.0646144125
 10
137.0357891164
 20
111.0792622954
 10
137.035439936
 20
111.0937451379
 10
137.0355748991
 20
111.1080458957
 10
137.0361941288
 20
111.1221475242
 10
137.037297748
 20
111.1360329792
 10
137.0388853092
 20
111.1496854912
 10
137.0409540824
 20
111.1630893903
 10
137.0435007675
 20
111.1762292819
 10
137.046522064
 20
111.1890897712
 10
137.0500146717
 20
111.2016554632
 10
137.0539752901
 20
111.2139109634
 10
137.0584000712
 20
111.2258412568
 10
137.0632829752
 20
111.2374328484
 10
137.0686174147
 20
111.2486726231
 10
137.074396802
 20
111.2595474659
 10
137.0806145497
 20
111.2700442618
 10
137.0872640703
 20
111.2801498955
 10
137.0943382768
 20
111.2898517275
 10
137.1018280854
 20
111.29913902
 10
137.1097239126
 20
111.3080015106
 10
137.1180161751
 20
111.3164289369
 10
137.1266952896
 20
111.3244110365
 10
137.1357516726
 20
111.331937547
  0
LWPOLYLINE
  5
312
100
AcDbEntity
  8
0
100
AcDbPolyline
 62
253
  6
CONTINUOUS
 90
61
 70
0
 10
137.8035800129
 20
110.8790479831
 10
137.800446043
 20
110.8803661112
 10
137.7973188146
 20
110.8818040682
 10
137.7942027523
 20
110.8833593307
 10
137.7911022811
 20
110.8850293748
 10
137.7880218255
 20
110.8868116768
 10
137.7849658104
 20
110.8887037131
 10
137.7819386604
 20
110.8907029599
 10
137.7789448004
 20
110.8928068935
 10
137.775988655
 20
110.8950129901
 10
137.773074649
 20
110.8973187262
 10
137.770207151
 20
110.8997212289
 10
137.767390305
 20
110.9022162293
 10
137.7646281989
 20
110.9047991095
 10
137.7619249205
 20
110.9074652515
 10
137.7592845576
 20
110.9102100374
 10
137.7567111981
 20
110.9130288491
 10
137.75420893
 20
110.9159170688
 10
137.7517818409
 20
110.9188700785
 10
137.7494340189
 20
110.9218832603
 10
137.7471695517
 20
110.9249519961
 10
137.7449922035
 20
110.9280717479
 10
137.7429044441
 20
110.9312382966
 10
137.7409084195
 20
110.9344475031
 10
137.7390062757
 20
110.9376952281
 10
137.7372001587
 20
110.9409773325
 10
137.7354922147
 20
110.9442896771
 10
137.7338845895
 20
110.9476281226
 10
137.7323794293
 20
110.9509885299
 10
137.7309788802
 20
110.9543667598
 10
137.729685088
 20
110.9577586731
 10
137.7285000645
 20
110.9611599431
 10
137.7274252836
 20
110.9645654932
 10
137.7264620846
 20
110.9679700593
 10
137.7256118069
 20
110.9713683774
 10
137.7248757902
 20
110.9747551833
 10
137.7242553736
 20
110.978125213
 10
137.7237518968
 20
110.9814732023
 10
137.7233666992
 20
110.9847938873
 10
137.7231011201
 20
110.9880820037
 10
137.7229564991
 20
110.9913322876
 10
137.7229337946
 20
110.994539594
 10
137.7230324418
 20
110.9976992547
 10
137.7232514949
 20
111.0008067205
 10
137.7235900081
 20
111.0038574426
 10
137.7240470355
 20
111.0068468717
 10
137.7246216315
 20
111.0097704589
 10
137.7253128501
 20
111.012623655
 10
137.7261197456
 20
111.0154019111
 10
137.7270413723
 20
111.0181006781
 10
137.7280767842
 20
111.0207154068
 10
137.7292247754
 20
111.0232418388
 10
137.7304830987
 20
111.0256768775
 10
137.7318492467
 20
111.028017717
 10
137.7333207119
 20
111.0302615511
 10
137.7348949869
 20
111.0324055739
 10
137.7365695643
 20
111.0344469793
 10
137.7383419367
 20
111.0363829614
 10
137.7402095967
 20
111.038210714
 10
137.7421700367
 20
111.0399274313
 10
137.7442207495
 20
111.0415303071
  0
LWPOLYLINE
  5
313
100
AcDbEntity
  8
0
100
AcDbPolyline
 62
253
  6
CONTINUOUS
 90
19
 70
0
 10
140.6103935402
 20
112.7374427306
 10
140.7878974262
 20
112.5302466945
 10
140.9635374863
 20
112.3213143498
 10
141.1372841615
 20
112.1106879242
 10
141.3091078932
 20
111.898409645
 10
141.4789791227
 20
111.6845217399
 10
141.646868291
 20
111.4690664365
 10
141.8127462914
 20
111.2520861488
 10
141.9765858241
 20
111.0336240371
 10
142.138360041
 20
110.8137234481
 10
142.2980420943
 20
110.5924277286
 10
142.4556051361
 20
110.3697802254
 10
142.6110223183
 20
110.1458242853
 10
142.7642671188
 20
109.9206035614
 10
142.9153143183
 20
109.6941629323
 10
143.0641390232
 20
109.4665475833
 10
143.2107163399
 20
109.2378026992
 10
143.355021375
 20
109.0079734652
 10
143.4970292349
 20
108.7771050664
  0
LWPOLYLINE
  5
314
100
AcDbEntity
  8
0
100
AcDbPolyline
 62
253
  6
CONTINUOUS
 90
19
 70
0
 10
140.408655559
 20
112.3374680319
 10
140.5591123371
 20
112.1603988194
 10
140.7081715038
 20
111.9820419372
 10
140.8558130731
 20
111.8024257253
 10
141.0020170592
 20
111.6215785235
 10
141.146763476
 20
111.4395286717
 10
141.2900323377
 20
111.2563045099
 10
141.431804266
 20
111.0719339704
 10
141.5720623134
 20
110.8864433562
 10
141.71079014
 20
110.6998585626
 10
141.8479714059
 20
110.5122054851
 10
141.9835897714
 20
110.323510019
 10
142.1176288966
 20
110.1337980598
 10
142.2500722291
 20
109.9430961856
 10
142.3809023673
 20
109.7514337049
 10
142.5101016968
 20
109.5588406092
 10
142.6376526034
 20
109.3653468895
 10
142.7635374729
 20
109.1709825373
 10
142.8877386911
 20
108.9757775438
  0
LWPOLYLINE
  5
315
100
AcDbEntity
  8
0
100
AcDbPolyline
 62
253
  6
CONTINUOUS
 90
61
 70
0
 10
142.8877380304
 20
108.9757772253
 10
142.889721631
 20
108.9725381574
 10
142.8916105768
 20
108.9692599327
 10
142.8934025579
 20
108.9659473712
 10
142.8950952644
 20
108.9626052926
 10
142.8966863861
 20
108.959238517
 10
142.8981736133
 20
108.9558518643
 10
142.8995546358
 20
108.9524501545
 10
142.9008271438
 20
108.9490382074
 10
142.9019888273
 20
108.945620843
 10
142.9030373763
 20
108.9422028813
 10
142.9039707908
 20
108.9387892258
 10
142.9047883108
 20
108.9353851156
 10
142.9054894864
 20
108.9319958731
 10
142.9060738674
 20
108.9286268211
 10
142.906541004
 20
108.925283282
 10
142.906890446
 20
108.9219705786
 10
142.9071217434
 20
108.9186940333
 10
142.9072344464
 20
108.9154589689
 10
142.9072281047
 20
108.912270708
 10
142.9071022685
 20
108.9091345731
 10
142.906856735
 20
108.9060555717
 10
142.9064922907
 20
108.9030374507
 10
142.9060099694
 20
108.9000836417
 10
142.9054108049
 20
108.8971975765
 10
142.9046958309
 20
108.8943826867
 10
142.9038660813
 20
108.8916424041
 10
142.9029225898
 20
108.8889801603
 10
142.9018663902
 20
108.886399387
 10
142.9006985163
 20
108.883903516
 10
142.899420002
 20
108.8814959788
 10
142.8980321443
 20
108.8791801593
 10
142.8965372947
 20
108.8769592484
 10
142.8949380678
 20
108.8748363895
 10
142.8932370784
 20
108.8728147255
 10
142.8914369411
 20
108.8708973998
 10
142.8895402707
 20
108.8690875553
 10
142.887549682
 20
108.8673883352
 10
142.8854677895
 20
108.8658028827
 10
142.8832972082
 20
108.8643343409
 10
142.8810405527
 20
108.8629858529
 10
142.8787007077
 20
108.8617601847
 10
142.8762816388
 20
108.8606585941
 10
142.8737875812
 20
108.8596819616
 10
142.8712227704
 20
108.8588311676
 10
142.8685914418
 20
108.8581070928
 10
142.8658978309
 20
108.8575106177
 10
142.863146173
 20
108.8570426229
 10
142.8603407037
 20
108.8567039888
 10
142.8574856583
 20
108.8564955962
 10
142.8545852723
 20
108.8564183254
 10
142.851643813
 20
108.8564727204
 10
142.8486656762
 20
108.8566579782
 10
142.8456552894
 20
108.856972959
 10
142.8426170802
 20
108.8574165231
 10
142.8395554763
 20
108.8579875308
 10
142.8364749052
 20
108.8586848425
 10
142.8333797945
 20
108.8595073184
 10
142.830274572
 20
108.8604538187
 10
142.8271636651
 20
108.8615232039
 10
142.8240515015
 20
108.8627143341
  0
LWPOLYLINE
  5
316
100
AcDbEntity
  8
0
100
AcDbPolyline
 62
253
  6
CONTINUOUS
 90
67
 70
0
 10
143.4970289372
 20
108.7771049344
 10
143.5057194987
 20
108.7624469994
 10
143.5140236856
 20
108.7476399518
 10
143.5219324074
 20
108.7327015626
 10
143.5294365734
 20
108.7176496032
 10
143.5365270931
 20
108.7025018447
 10
143.5431948757
 20
108.6872760584
 10
143.5494313358
 20
108.6719900909
 10
143.5552299087
 20
108.6566620914
 10
143.5605845347
 20
108.6413102844
 10
143.5654891542
 20
108.6259528945
 10
143.5699377075
 20
108.6106081463
 10
143.5739241351
 20
108.5952942643
 10
143.577442929
 20
108.5800294106
 10
143.5804907877
 20
108.5648314965
 10
143.5830649617
 20
108.5497183709
 10
143.5851627012
 20
108.5347078826
 10
143.5867812565
 20
108.5198178804
 10
143.5879178779
 20
108.5050662132
 10
143.5885703842
 20
108.4904705469
 10
143.5887388685
 20
108.4760478172
 10
143.5884239926
 20
108.4618147766
 10
143.5876264181
 20
108.4477881778
 10
143.5863468065
 20
108.4339847737
 10
143.5845858197
 20
108.4204213169
 10
143.582344687
 20
108.4071142539
 10
143.5796269094
 20
108.3940788073
 10
143.5764365555
 20
108.3813298932
 10
143.5727776941
 20
108.3688824279
 10
143.5686543939
 20
108.3567513276
 10
143.5640707235
 20
108.3449515085
 10
143.5590312771
 20
108.333497478
 10
143.5535427497
 20
108.3224021071
 10
143.547612362
 20
108.311677858
 10
143.5412473345
 20
108.3013371926
 10
143.5344548877
 20
108.2913925732
 10
143.5272422422
 20
108.2818564617
 10
143.519617139
 20
108.2727408236
 10
143.5115894016
 20
108.2640556376
 10
143.5031693738
 20
108.2558103858
 10
143.4943673994
 20
108.2480145502
 10
143.4851938224
 20
108.2406776128
 10
143.4756589867
 20
108.2338090557
 10
143.4657735136
 20
108.2274178042
 10
143.4555491349
 20
108.2215105569
 10
143.4449978598
 20
108.2160934558
 10
143.4341316976
 20
108.2111726426
 10
143.4229626574
 20
108.2067542592
 10
143.4115027486
 20
108.2028444476
 10
143.3997647396
 20
108.1994487254
 10
143.3877644367
 20
108.1965701141
 10
143.3755184053
 20
108.1942110109
 10
143.3630432108
 20
108.1923738128
 10
143.3503554188
 20
108.1910609172
 10
143.3374715947
 20
108.1902747212
 10
143.3244079173
 20
108.1900169556
 10
143.3111790195
 20
108.1902866851
 10
143.2977991472
 20
108.1910823079
 10
143.2842825467
 20
108.1924022223
 10
143.2706434641
 20
108.1942448265
 10
143.2568961454
 20
108.1966085188
 10
143.2430553052
 20
108.1994911626
 10
143.229137531
 20
108.2028884815
 10
143.2151598789
 20
108.2067956645
 10
143.2011394048
 20
108.2112079005
 10
143.1870931647
 20
108.2161203783
 10
143.1730382145
 20
108.2215282869
  0
LWPOLYLINE
  5
317
100
AcDbEntity
  8
0
100
AcDbPolyline
 62
253
  6
CONTINUOUS
 90
11
 70
0
 10
149.7828836654
 20
81.8098068779
 10
149.7880802963
 20
81.7343649685
 10
149.7977983342
 20
81.6634984271
 10
149.811973332
 20
81.59767722
 10
149.8305112852
 20
81.5373378545
 10
149.8532892555
 20
81.4828804837
 10
149.8801561859
 20
81.4346662531
 10
149.9109339029
 20
81.3930149054
 10
149.9454182974
 20
81.3582026604
 10
149.9833806791
 20
81.3304603827
 10
150.0229324231
 20
81.3106226391
  0
LWPOLYLINE
  5
318
100
AcDbEntity
  8
ASSI
100
AcDbPolyline
 62
253
  6
CONTINUOUS
 90
11
 70
0
 10
149.7828836654
 20
81.8098068779
 10
149.7880802963
 20
81.7343649685
 10
149.7977983342
 20
81.6634984271
 10
149.811973332
 20
81.59767722
 10
149.8305112852
 20
81.5373378545
 10
149.8532892555
 20
81.4828804837
 10
149.8801561859
 20
81.4346662531
 10
149.9109339029
 20
81.3930149054
 10
149.9454182974
 20
81.3582026604
 10
149.9833806791
 20
81.3304603827
 10
150.0229324231
 20
81.3106226391
  0
LWPOLYLINE
  5
319
100
AcDbEntity
  8
0
100
AcDbPolyline
 62
253
  6
CONTINUOUS
 90
10
 70
0
 10
149.4708728658
 20
99.2589081582
 10
149.4723675841
 20
99.2175114829
 10
149.4769480461
 20
99.1791126604
 10
149.4845645048
 20
99.1441287279
 10
149.4951342404
 20
99.1129396348
 10
149.5085424584
 20
99.0858841157
 10
149.5246435364
 20
99.0632560118
 10
149.5432626058
 20
99.0453010797
 10
149.564197451
 20
99.0322143222
 10
149.5711101049
 20
99.0291745593
  0
LWPOLYLINE
  5
31A
100
AcDbEntity
  8
ASSI
100
AcDbPolyline
 62
253
  6
CONTINUOUS
 90
10
 70
0
 10
149.4708728658
 20
99.2589081582
 10
149.4723675841
 20
99.2175114829
 10
149.4769480461
 20
99.1791126604
 10
149.4845645048
 20
99.1441287279
 10
149.4951342404
 20
99.1129396348
 10
149.5085424584
 20
99.0858841157
 10
149.5246435364
 20
99.0632560118
 10
149.5432626058
 20
99.0453010797
 10
149.564197451
 20
99.0322143222
 10
149.5711101049
 20
99.0291745593
  0
LWPOLYLINE
  5
31B
100
AcDbEntity
  8
0
100
AcDbPolyline
 62
253
  6
CONTINUOUS
 90
3
 70
0
 10
149.6633624437
 20
85.3721891021
 10
149.7195415427
 20
83.5877250409
 10
149.7828836612
 20
81.8098068741
  0
LWPOLYLINE
  5
31C
100
AcDbEntity
  8
ASSI
100
AcDbPolyline
 62
253
  6
CONTINUOUS
 90
3
 70
0
 10
149.6633624437
 20
85.3721891021
 10
149.7195415427
 20
83.5877250409
 10
149.7828836612
 20
81.8098068741
  0
LINE
  5
31D
100
AcDbEntity
  8
0
100
AcDbLine
 62
253
  6
CONTINUOUS
 10
149.5725020805
 20
88.9605657355
 11
149.6109586691
 21
87.3087556051
  0
LINE
  5
31E
100
AcDbEntity
  8
ASSI
100
AcDbLine
 62
253
  6
CONTINUOUS
 10
149.5725020805
 20
88.9605657355
 11
149.6109586691
 21
87.3087556051
  0
LINE
  5
31F
100
AcDbEntity
  8
0
100
AcDbLine
 62
253
  6
CONTINUOUS
 10
149.6109586691
 20
87.3087556051
 11
149.6633624437
 21
85.3721891021
  0
LINE
  5
320
100
AcDbEntity
  8
ASSI
100
AcDbLine
 62
253
  6
CONTINUOUS
 10
149.6109586691
 20
87.3087556051
 11
149.6633624437
 21
85.3721891021
  0
LWPOLYLINE
  5
321
100
AcDbEntity
  8
0
100
AcDbPolyline
 62
253
  6
CONTINUOUS
 90
6
 70
0
 10
149.4708728684
 20
98.0412132368
 10
149.4768460695
 20
96.2128629431
 10
149.4899966853
 20
94.3905730462
 10
149.5103234873
 20
92.5743998826
 10
149.5378257931
 20
90.7643680269
 10
149.5725020805
 20
88.9605657355
  0
LWPOLYLINE
  5
322
100
AcDbEntity
  8
ASSI
100
AcDbPolyline
 62
253
  6
CONTINUOUS
 90
6
 70
0
 10
149.4708728684
 20
98.0412132368
 10
149.4768460695
 20
96.2128629431
 10
149.4899966853
 20
94.3905730462
 10
149.5103234873
 20
92.5743998826
 10
149.5378257931
 20
90.7643680269
 10
149.5725020805
 20
88.9605657355
  0
LWPOLYLINE
  5
323
100
AcDbEntity
  8
0
100
AcDbPolyline
 62
253
  6
CONTINUOUS
 90
7
 70
0
 10
149.4708728684
 20
99.2589081603
 10
149.4768460126
 20
101.0970334174
 10
149.4899964937
 20
102.9408578455
 10
149.5103230932
 20
104.7903231039
 10
149.537825096
 20
106.6454009616
 10
149.5725010126
 20
108.506003209
 10
149.6143474167
 20
110.3719807512
  0
LWPOLYLINE
  5
324
100
AcDbEntity
  8
ASSI
100
AcDbPolyline
 62
253
  6
CONTINUOUS
 90
7
 70
0
 10
149.4708728684
 20
99.2589081603
 10
149.4768460126
 20
101.0970334174
 10
149.4899964937
 20
102.9408578455
 10
149.5103230932
 20
104.7903231039
 10
149.537825096
 20
106.6454009616
 10
149.5725010126
 20
108.506003209
 10
149.6143474167
 20
110.3719807512
  0
LINE
  5
325
100
AcDbEntity
  8
0
100
AcDbLine
 62
253
  6
CONTINUOUS
 10
149.6143474167
 20
110.3719807512
 11
149.6714297108
 21
112.5127506467
  0
LINE
  5
326
100
AcDbEntity
  8
ASSI
100
AcDbLine
 62
253
  6
CONTINUOUS
 10
149.6143474167
 20
110.3719807512
 11
149.6714297108
 21
112.5127506467
  0
LWPOLYLINE
  5
327
100
AcDbEntity
  8
0
100
AcDbPolyline
 62
253
  6
CONTINUOUS
 90
3
 70
0
 10
149.6714297108
 20
112.5127506467
 10
149.7195406949
 20
114.1197646041
 10
149.7828836612
 20
116.0014830805
  0
LWPOLYLINE
  5
328
100
AcDbEntity
  8
ASSI
100
AcDbPolyline
 62
253
  6
CONTINUOUS
 90
3
 70
0
 10
149.6714297108
 20
112.5127506467
 10
149.7195406949
 20
114.1197646041
 10
149.7828836612
 20
116.0014830805
  0
LWPOLYLINE
  5
329
100
AcDbEntity
  8
0
100
AcDbPolyline
 62
253
  6
CONTINUOUS
 90
19
 70
0
 10
149.7828831036
 20
116.001482665
 10
149.7880797472
 20
116.0854490375
 10
149.7977978017
 20
116.1722534301
 10
149.8119728198
 20
116.2613201809
 10
149.8305107968
 20
116.3520586243
 10
149.8532887942
 20
116.4438670086
 10
149.8801557546
 20
116.5361364868
 10
149.9109335042
 20
116.6282551537
 10
149.9454179337
 20
116.7196121044
 10
149.983380352
 20
116.8096014856
 10
150.0245690033
 20
116.8976265131
 10
150.0687107361
 20
116.98310343
 10
150.1155128151
 20
117.0654653774
 10
150.164664862
 20
117.1441661544
 10
150.2158409146
 20
117.2186838397
 10
150.2687015878
 20
117.288524253
 10
150.3228963246
 20
117.3532242325
 10
150.3780657208
 20
117.4123547064
 10
150.4338439089
 20
117.465523538
  0
LWPOLYLINE
  5
32A
100
AcDbEntity
  8
ASSI
100
AcDbPolyline
 62
253
  6
CONTINUOUS
 90
19
 70
0
 10
149.7828831036
 20
116.001482665
 10
149.7880797472
 20
116.0854490375
 10
149.7977978017
 20
116.1722534301
 10
149.8119728198
 20
116.2613201809
 10
149.8305107968
 20
116.3520586243
 10
149.8532887942
 20
116.4438670086
 10
149.8801557546
 20
116.5361364868
 10
149.9109335042
 20
116.6282551537
 10
149.9454179337
 20
116.7196121044
 10
149.983380352
 20
116.8096014856
 10
150.0245690033
 20
116.8976265131
 10
150.0687107361
 20
116.98310343
 10
150.1155128151
 20
117.0654653774
 10
150.164664862
 20
117.1441661544
 10
150.2158409146
 20
117.2186838397
 10
150.2687015878
 20
117.288524253
 10
150.3228963246
 20
117.3532242325
 10
150.3780657208
 20
117.4123547064
 10
150.4338439089
 20
117.465523538
  0
LWPOLYLINE
  5
32B
100
AcDbEntity
  8
SUPERFICI
100
AcDbPolyline
 62
7
  6
CONTINUOUS
 90
34
 70
0
 10
142.7297173401
 20
97.173066905
 10
142.7494849704
 20
97.1894796511
 10
142.7822189221
 20
97.2214789803
 10
142.8115174312
 20
97.2566969241
 10
142.8372743622
 20
97.2950852561
 10
142.8595970426
 20
97.3366931967
 10
142.8782509434
 20
97.3810965515
 10
142.8932299832
 20
97.4284623708
 10
142.90454123
 20
97.4786244246
 10
142.9119693605
 20
97.5306581644
 10
142.9154419135
 20
97.5844527173
 10
142.9150315616
 20
97.6401191274
 10
142.9107401043
 20
97.6970652371
 10
142.9024947713
 20
97.755456787
 10
142.8903681656
 20
97.8151278915
 10
142.8745795682
 20
97.8749884718
 10
142.8551104168
 20
97.9349032926
 10
142.8319783349
 20
97.9950068016
 10
142.8054563436
 20
98.0546129957
 10
142.7754596766
 20
98.1138089858
 10
142.7420718966
 20
98.1725066547
 10
142.7058181388
 20
98.2297568411
 10
142.6666926944
 20
98.2854809022
 10
142.6246997792
 20
98.3397562362
 10
142.5803791417
 20
98.3918675162
 10
142.5336601731
 20
98.4418273907
 10
142.4846120548
 20
98.4896220235
 10
142.4339841179
 20
98.5344962759
 10
142.3817361143
 20
98.5763998621
 10
142.3279071222
 20
98.6153820963
 10
142.2733654961
 20
98.6508372685
 10
142.2184004608
 20
98.6825632876
 10
142.1627221231
 20
98.7107616911
 10
142.1063302893
 20
98.735432319
  0
LWPOLYLINE
  5
32C
100
AcDbEntity
  8
0
100
AcDbPolyline
 62
7
  6
CONTINUOUS
 90
12
 70
0
 10
142.7297027975
 20
97.1730848498
 10
142.6944763651
 20
97.1483285352
 10
142.6482565466
 20
97.1228449285
 10
142.5983977937
 20
97.1026906958
 10
142.5450543165
 20
97.0877905496
 10
142.4894111504
 20
97.0783996382
 10
142.4315102498
 20
97.0746287907
 10
142.3713077537
 20
97.076365579
 10
142.3098599966
 20
97.0835302813
 10
142.2475187234
 20
97.0960960155
 10
142.1839311169
 20
97.1140887627
 10
142.1190968772
 20
97.1375082703
  0
LWPOLYLINE
  5
32D
100
AcDbEntity
  8
ASSI
100
AcDbPolyline
 62
7
  6
CONTINUOUS
 90
12
 70
0
 10
142.7297027975
 20
97.1730848498
 10
142.6944763651
 20
97.1483285352
 10
142.6482565466
 20
97.1228449285
 10
142.5983977937
 20
97.1026906958
 10
142.5450543165
 20
97.0877905496
 10
142.4894111504
 20
97.0783996382
 10
142.4315102498
 20
97.0746287907
 10
142.3713077537
 20
97.076365579
 10
142.3098599966
 20
97.0835302813
 10
142.2475187234
 20
97.0960960155
 10
142.1839311169
 20
97.1140887627
 10
142.1190968772
 20
97.1375082703
  0
LWPOLYLINE
  5
32E
100
AcDbEntity
  8
0
100
AcDbPolyline
 62
253
  6
CONTINUOUS
 90
19
 70
0
 10
140.718656452
 20
114.0743259215
 10
140.8893458729
 20
113.8857904348
 10
141.0585985487
 20
113.695731086
 10
141.2263918376
 20
113.5041781826
 10
141.3927030982
 20
113.3111620324
 10
141.5575096888
 20
113.1167129428
 10
141.720788968
 20
112.9208612214
 10
141.8825190994
 20
112.7236365972
 10
142.042681468
 20
112.5250664841
 10
142.2012582641
 20
112.3251777176
 10
142.3582316779
 20
112.1239971329
 10
142.5135838998
 20
111.9215515654
 10
142.6672971199
 20
111.7178678503
 10
142.8193531369
 20
111.5129737361
 10
142.9697321828
 20
111.3069006225
 10
143.1184140981
 20
111.0996808226
 10
143.265378723
 20
110.891346649
 10
143.4106058981
 20
110.6819304148
 10
143.5540754636
 20
110.4714644328
  0
LWPOLYLINE
  5
32F
100
AcDbEntity
  8
0
100
AcDbPolyline
 62
253
  6
CONTINUOUS
 90
19
 70
0
 10
140.5732935686
 20
113.6152857417
 10
140.7306880224
 20
113.439335316
 10
140.8867957451
 20
113.2620558167
 10
141.0415976926
 20
113.0834729392
 10
141.1950748209
 20
112.9036123787
 10
141.347208086
 20
112.7224998305
 10
141.4979784439
 20
112.5401609899
 10
141.6473675217
 20
112.3566210485
 10
141.7953596309
 20
112.1719031837
 10
141.9419397543
 20
111.9860300694
 10
142.0870928745
 20
111.7990243791
 10
142.2308039741
 20
111.6109087868
 10
142.373058036
 20
111.4217059662
 10
142.513839703
 20
111.2314393586
 10
142.6531322592
 20
111.0401354754
 10
142.7909186488
 20
110.8478215957
 10
142.9271818161
 20
110.6545249983
 10
143.0619047056
 20
110.4602729622
 10
143.1950702613
 20
110.2650927664
  0
LWPOLYLINE
  5
330
100
AcDbEntity
  8
0
100
AcDbPolyline
 62
253
  6
CONTINUOUS
 90
81
 70
0
 10
143.5540758808
 20
110.4714646727
 10
143.5604776743
 20
110.4617146391
 10
143.5666000357
 20
110.4518153571
 10
143.5724345189
 20
110.441780782
 10
143.5779726779
 20
110.4316248692
 10
143.5832060669
 20
110.4213615741
 10
143.5881262398
 20
110.411004852
 10
143.5927247505
 20
110.4005686583
 10
143.5969931532
 20
110.3900669484
 10
143.6009231171
 20
110.3795147348
 10
143.6045067727
 20
110.3689312583
 10
143.6077363657
 20
110.358336817
 10
143.6106041417
 20
110.3477517086
 10
143.6131031865
 20
110.3371971006
 10
143.6152299459
 20
110.3266976384
 10
143.6169817057
 20
110.3162788368
 10
143.6183557517
 20
110.3059662105
 10
143.6193502239
 20
110.2957819669
 10
143.619966679
 20
110.285735083
 10
143.620207528
 20
110.2758312281
 10
143.6200751816
 20
110.2660760719
 10
143.6195713126
 20
110.2564755523
 10
143.6186946402
 20
110.247036682
 10
143.6174431455
 20
110.2377667421
 10
143.6158148092
 20
110.228673014
 10
143.6138085708
 20
110.2197653463
 10
143.6114272018
 20
110.2110638584
 10
143.6086744325
 20
110.2025912373
 10
143.6055539927
 20
110.1943701699
 10
143.6020709218
 20
110.1864221708
 10
143.5982354967
 20
110.1787640657
 10
143.5940593035
 20
110.1714115082
 10
143.5895539285
 20
110.1643801518
 10
143.5847299907
 20
110.1576834798
 10
143.5795942412
 20
110.1513262952
 10
143.5741524635
 20
110.145311231
 10
143.5684104417
 20
110.1396409199
 10
143.5623738611
 20
110.1343186354
 10
143.5560480142
 20
110.1293502131
 10
143.5494380953
 20
110.1247421288
 10
143.5425492985
 20
110.1205008588
 10
143.5353883944
 20
110.1166331758
 10
143.5279684595
 20
110.1131470404
 10
143.5203041465
 20
110.1100507098
 10
143.5124101083
 20
110.1073524414
 10
143.5043011492
 20
110.1050594814
 10
143.4959926801
 20
110.1031750311
 10
143.4875002631
 20
110.1017012809
 10
143.4788394605
 20
110.1006404211
 10
143.4700252375
 20
110.0999941205
 10
143.4610701698
 20
110.0997619615
 10
143.4519862364
 20
110.099943005
 10
143.4427854157
 20
110.1005363121
 10
143.4334796867
 20
110.1015409436
 10
143.4240810279
 20
110.1029559605
 10
143.4146014181
 20
110.1047804237
 10
143.4050528361
 20
110.1070133942
 10
143.3954478277
 20
110.1096532802
 10
143.3858012082
 20
110.1126958794
 10
143.3761283601
 20
110.1161363371
 10
143.3664446659
 20
110.1199697982
 10
143.3567655081
 20
110.1241914078
 10
143.347106269
 20
110.128796311
 10
143.3374823314
 20
110.133779653
 10
143.3279090775
 20
110.1391365788
 10
143.318402293
 20
110.1448606101
 10
143.3089793757
 20
110.1509387746
 10
143.2996581267
 20
110.1573564767
 10
143.290456347
 20
110.1640991206
 10
143.2813918375
 20
110.1711521108
 10
143.2724823992
 20
110.1785008515
 10
143.2637458331
 20
110.1861307471
 10
143.2551999402
 20
110.1940272018
 10
143.2468610314
 20
110.2021757164
 10
143.2387394577
 20
110.2105621762
 10
143.2308440799
 20
110.2191725632
 10
143.223183759
 20
110.227992859
 10
143.2157673557
 20
110.2370090454
 10
143.2086037311
 20
110.2462071043
 10
143.201701746
 20
110.2555730174
 10
143.1950702613
 20
110.2650927664
  0
LWPOLYLINE
  5
331
100
AcDbEntity
  8
0
100
AcDbPolyline
 62
253
  6
CONTINUOUS
 90
16
 70
0
 10
149.4708727217
 20
98.0412131155
 10
149.4723674429
 20
98.0850761789
 10
149.4769479094
 20
98.1310276405
 10
149.4845643743
 20
98.1785684361
 10
149.4951341175
 20
98.2271822399
 10
149.5085423444
 20
98.2763410729
 10
149.5246434326
 20
98.3255110363
 10
149.5432625131
 20
98.3741581106
 10
149.5641973701
 20
98.4217539554
 10
149.5872206367
 20
98.4677816472
 10
149.6120822644
 20
98.5117412936
 10
149.638512239
 20
98.5531554629
 10
149.6662235129
 20
98.5915743687
 10
149.6949151227
 20
98.6265807554
 10
149.7242754578
 20
98.6577944297
 10
149.753985645
 20
98.6848763897
  0
LWPOLYLINE
  5
332
100
AcDbEntity
  8
ASSI
100
AcDbPolyline
 62
253
  6
CONTINUOUS
 90
16
 70
0
 10
149.4708727217
 20
98.0412131155
 10
149.4723674429
 20
98.0850761789
 10
149.4769479094
 20
98.1310276405
 10
149.4845643743
 20
98.1785684361
 10
149.4951341175
 20
98.2271822399
 10
149.5085423444
 20
98.2763410729
 10
149.5246434326
 20
98.3255110363
 10
149.5432625131
 20
98.3741581106
 10
149.5641973701
 20
98.4217539554
 10
149.5872206367
 20
98.4677816472
 10
149.6120822644
 20
98.5117412936
 10
149.638512239
 20
98.5531554629
 10
149.6662235129
 20
98.5915743687
 10
149.6949151227
 20
98.6265807554
 10
149.7242754578
 20
98.6577944297
 10
149.753985645
 20
98.6848763897
  0
LWPOLYLINE
  5
333
100
AcDbEntity
  8
0
100
AcDbPolyline
 62
253
  6
CONTINUOUS
 90
19
 70
0
 10
143.4970290836
 20
93.4703580651
 10
143.3550147188
 20
93.3606474539
 10
143.2107039063
 20
93.2538898245
 10
143.0641217609
 20
93.1501025366
 10
142.9152933973
 20
93.0493029499
 10
142.7642439304
 20
92.9515084241
 10
142.6109984748
 20
92.8567363191
 10
142.4555823577
 20
92.7650033479
 10
142.2980217551
 20
92.676323637
 10
142.1383430553
 20
92.5907106662
 10
141.9765726467
 20
92.5081779156
 10
141.8127369175
 20
92.428738865
 10
141.6468622562
 20
92.3524069941
 10
141.4789756017
 20
92.2791953185
 10
141.3091060962
 20
92.2091149952
 10
141.1372834327
 20
92.142176717
 10
140.963537304
 20
92.0783911764
 10
140.787897403
 20
92.017769066
 10
140.6103934225
 20
91.9603210786
  0
LWPOLYLINE
  5
334
100
AcDbEntity
  8
0
100
AcDbPolyline
 62
253
  6
CONTINUOUS
 90
19
 70
0
 10
142.8877382338
 20
93.7600927873
 10
142.763534647
 20
93.6705343956
 10
142.6376477955
 20
93.5832088737
 10
142.5100954902
 20
93.4981270347
 10
142.3808955422
 20
93.4152996914
 10
142.2500657623
 20
93.3347376566
 10
142.1176239614
 20
93.2564517433
 10
141.9835876229
 20
93.1804522099
 10
141.8479729189
 20
93.1067470975
 10
141.7107956943
 20
93.035343893
 10
141.5720717935
 20
92.966250083
 10
141.4318170614
 20
92.8994731543
 10
141.2900473424
 20
92.8350205938
 10
141.1467791924
 20
92.772899866
 10
141.0020320111
 20
92.7131183472
 10
140.8558259097
 20
92.6556833916
 10
140.7081809989
 20
92.6006023535
 10
140.5591173898
 20
92.5478825869
 10
140.4086551933
 20
92.4975314461
  0
LWPOLYLINE
  5
335
100
AcDbEntity
  8
0
100
AcDbPolyline
 62
253
  6
CONTINUOUS
 90
19
 70
0
 10
143.1950705239
 20
92.2836172101
 10
143.0619059967
 20
92.2021290041
 10
142.927184037
 20
92.1228410864
 10
142.790921696
 20
92.0457619892
 10
142.653136025
 20
91.9709002448
 10
142.5138440754
 20
91.8982643856
 10
142.3730628985
 20
91.8278629439
 10
142.2308092059
 20
91.7597039864
 10
142.0870983506
 20
91.6937937172
 10
141.9419453461
 20
91.6301378752
 10
141.7953652056
 20
91.568742199
 10
141.6473729425
 20
91.5096124273
 10
141.4979835702
 20
91.4527542987
 10
141.3472127734
 20
91.3981735233
 10
141.1950789214
 20
91.3458756971
 10
141.0416010551
 20
91.2958663873
 10
140.8867982151
 20
91.2481511611
 10
140.7306894422
 20
91.2027355859
 10
140.5732937771
 20
91.1596252288
  0
LWPOLYLINE
  5
336
100
AcDbEntity
  8
0
100
AcDbPolyline
 62
253
  6
CONTINUOUS
 90
81
 70
0
 10
143.1950706782
 20
92.2836170041
 10
143.2017554765
 20
92.287514766
 10
143.2087088628
 20
92.2910433857
 10
143.2159209191
 20
92.2941980835
 10
143.2233817277
 20
92.2969740801
 10
143.2310813709
 20
92.2993665958
 10
143.2390099307
 20
92.3013708512
 10
143.2471574894
 20
92.3029820667
 10
143.2555141291
 20
92.3041954627
 10
143.2640688718
 20
92.3050067546
 10
143.2728064981
 20
92.3054136362
 10
143.281710728
 20
92.3054142963
 10
143.290765282
 20
92.3050069237
 10
143.2999525855
 20
92.3041909842
 10
143.3092498854
 20
92.3029710517
 10
143.3186331338
 20
92.301352977
 10
143.3280782827
 20
92.2993426111
 10
143.3375642672
 20
92.2969456112
 10
143.3470819533
 20
92.2941668594
 10
143.3566251898
 20
92.291011044
 10
143.3661878257
 20
92.2874828535
 10
143.3757639182
 20
92.2835860573
 10
143.3853483577
 20
92.2793207501
 10
143.3949362431
 20
92.2746861079
 10
143.4045226732
 20
92.2696813064
 10
143.4140993353
 20
92.264307772
 10
143.4236442706
 20
92.2585759327
 10
143.433132109
 20
92.2524984669
 10
143.4425374801
 20
92.2460880529
 10
143.451835765
 20
92.2393584635
 10
143.4610053492
 20
92.2323278482
 10
143.4700253694
 20
92.2250154512
 10
143.4788749623
 20
92.2174405164
 10
143.48753593
 20
92.2096203163
 10
143.4960007354
 20
92.2015642384
 10
143.504264507
 20
92.193279699
 10
143.5123223729
 20
92.1847741141
 10
143.5201687255
 20
92.1760552364
 10
143.5277950124
 20
92.1671321647
 10
143.5351919453
 20
92.158014334
 10
143.542350236
 20
92.1487111798
 10
143.5492599135
 20
92.1392336941
 10
143.5559082766
 20
92.1295990968
 10
143.5622819418
 20
92.1198261647
 10
143.5683675252
 20
92.1099336744
 10
143.5741524191
 20
92.0999401123
 10
143.5796271189
 20
92.0898628027
 10
143.5847828958
 20
92.0797187794
 10
143.5896110212
 20
92.0695250762
 10
143.5941034717
 20
92.0592983605
 10
143.5982550454
 20
92.0490538335
 10
143.6020612458
 20
92.0388063302
 10
143.6055175765
 20
92.0285706852
 10
143.6086195409
 20
92.0183617335
 10
143.6113626425
 20
92.0081943098
 10
143.6137423849
 20
91.998083249
 10
143.6157542715
 20
91.9880433858
 10
143.6173943602
 20
91.9780894537
 10
143.6186609266
 20
91.9682357797
 10
143.6195528004
 20
91.9584965897
 10
143.6200688115
 20
91.9488861092
 10
143.6202077897
 20
91.939418564
 10
143.619968565
 20
91.9301081798
 10
143.6193499672
 20
91.9209691823
 10
143.6183508261
 20
91.9120157972
 10
143.6169709671
 20
91.903262214
 10
143.6152141976
 20
91.8947224781
 10
143.6130853205
 20
91.8864105985
 10
143.6105891388
 20
91.8783405845
 10
143.6077304552
 20
91.8705264452
 10
143.6045140729
 20
91.8629821898
 10
143.6009447946
 20
91.8557218275
 10
143.5970274232
 20
91.8487593673
 10
143.5927674298
 20
91.8421076785
 10
143.5881729571
 20
91.8357750703
 10
143.5832528159
 20
91.8297687117
 10
143.5780158172
 20
91.824095772
 10
143.5724707718
 20
91.8187634202
 10
143.5666264905
 20
91.8137788257
 10
143.5604917841
 20
91.8091491574
 10
143.5540754636
 20
91.8048815847
  0
LWPOLYLINE
  5
337
100
AcDbEntity
  8
0
100
AcDbPolyline
 62
253
  6
CONTINUOUS
 90
43
 70
0
 10
140.4086551933
 20
92.4975314461
 10
140.4066435196
 20
92.4969241033
 10
140.4045881993
 20
92.4963977969
 10
140.4024915161
 20
92.4959523056
 10
140.4003557536
 20
92.4955874085
 10
140.3981831954
 20
92.4953028846
 10
140.3959761251
 20
92.4950985126
 10
140.3937368264
 20
92.4949740717
 10
140.3914675828
 20
92.4949293407
 10
140.389170678
 20
92.4949640986
 10
140.3868483955
 20
92.4950781244
 10
140.3845030191
 20
92.4952711969
 10
140.3821368324
 20
92.4955430951
 10
140.3797521188
 20
92.495893598
 10
140.3773511622
 20
92.4963224846
 10
140.3749361873
 20
92.4968294255
 10
140.3725091845
 20
92.4974136593
 10
140.3700720851
 20
92.4980743162
 10
140.3676268209
 20
92.4988105265
 10
140.3651753232
 20
92.4996214205
 10
140.3627195236
 20
92.5005061284
 10
140.3602613536
 20
92.5014637805
 10
140.3578027448
 20
92.5024935071
 10
140.3553456287
 20
92.5035944385
 10
140.3528919367
 20
92.5047657049
 10
140.3504436005
 20
92.5060064367
 10
140.3480025515
 20
92.5073157641
 10
140.3455707212
 20
92.5086928173
 10
140.3431500413
 20
92.5101367267
 10
140.3407424834
 20
92.5116464831
 10
140.3383501802
 20
92.5132205194
 10
140.3359753047
 20
92.5148571291
 10
140.3336200297
 20
92.5165546057
 10
140.3312865283
 20
92.5183112427
 10
140.3289769734
 20
92.5201253335
 10
140.3266935378
 20
92.5219951718
 10
140.3244383945
 20
92.5239190509
 10
140.3222137164
 20
92.5258952644
 10
140.3200216765
 20
92.5279221057
 10
140.3178644477
 20
92.5299978683
 10
140.3157442029
 20
92.5321208457
 10
140.3136631151
 20
92.5342893315
 10
140.3116233571
 20
92.536501619
  0
LWPOLYLINE
  5
338
100
AcDbEntity
  8
0
100
AcDbPolyline
 62
253
  6
CONTINUOUS
 90
46
 70
0
 10
140.6103934225
 20
91.9603210786
 10
140.6010531751
 20
91.9575907461
 10
140.5915363027
 20
91.9552041436
 10
140.581850803
 20
91.9531613019
 10
140.5720046739
 20
91.9514622519
 10
140.562005913
 20
91.9501070242
 10
140.5518625182
 20
91.9490956496
 10
140.5415824872
 20
91.9484281589
 10
140.5311738178
 20
91.9481045829
 10
140.5206445078
 20
91.9481249523
 10
140.5100029977
 20
91.9484886449
 10
140.499259499
 20
91.9491924272
 10
140.4884246658
 20
91.9502324125
 10
140.4775091524
 20
91.9516047141
 10
140.466523613
 20
91.9533054456
 10
140.4554787017
 20
91.9553307203
 10
140.4443850729
 20
91.9576766516
 10
140.4332533807
 20
91.9603393529
 10
140.4220942793
 20
91.9633149376
 10
140.4109169301
 20
91.9666001145
 10
140.3997245233
 20
91.9701939741
 10
140.3885187563
 20
91.9740962024
 10
140.3773013264
 20
91.9783064852
 10
140.3660739309
 20
91.9828245084
 10
140.3548382673
 20
91.9876499578
 10
140.3435960329
 20
91.9927825195
 10
140.3323489251
 20
91.9982218793
 10
140.3210986411
 20
92.0039677231
 10
140.309848764
 20
92.0100186589
 10
140.2986104181
 20
92.0163689831
 10
140.2873966135
 20
92.0230119142
 10
140.2762203602
 20
92.0299406709
 10
140.2650946683
 20
92.0371484717
 10
140.2540325477
 20
92.044628535
 10
140.2430470085
 20
92.0523740795
 10
140.2321510607
 20
92.0603783237
 10
140.2213577142
 20
92.0686344861
 10
140.2106789185
 20
92.0771358086
 10
140.2001223806
 20
92.0858756262
 10
140.1896947469
 20
92.0948472973
 10
140.1794026638
 20
92.1040441803
 10
140.1692527778
 20
92.1134596335
 10
140.1592517353
 20
92.1230870154
 10
140.1494061826
 20
92.1329196843
 10
140.1397227662
 20
92.1429509986
 10
140.1302081325
 20
92.1531743166
  0
LWPOLYLINE
  5
339
100
AcDbEntity
  8
0
100
AcDbPolyline
 62
253
  6
CONTINUOUS
 90
42
 70
0
 10
140.2060924902
 20
113.7627622797
 10
140.2136120855
 20
113.7647482096
 10
140.2212407133
 20
113.7664731988
 10
140.2289720732
 20
113.7679379605
 10
140.2367998648
 20
113.7691432077
 10
140.244717788
 20
113.7700896536
 10
140.2527195424
 20
113.7707780115
 10
140.2607988276
 20
113.7712089944
 10
140.2689493433
 20
113.7713833156
 10
140.2771647893
 20
113.7713016881
 10
140.2864769582
 20
113.7709052899
 10
140.2958545093
 20
113.7701897745
 10
140.3052886215
 20
113.7691590572
 10
140.3147704734
 20
113.767817053
 10
140.3242912439
 20
113.7661676773
 10
140.3338421116
 20
113.7642148451
 10
140.3434142555
 20
113.7619624718
 10
140.3529988541
 20
113.7594144724
 10
140.3625882228
 20
113.7565741644
 10
140.3721792223
 20
113.7534424736
 10
140.3817698498
 20
113.7500197283
 10
140.3913581026
 20
113.7463062564
 10
140.400941978
 20
113.7423023861
 10
140.4105194731
 20
113.7380084455
 10
140.4200885852
 20
113.7334247626
 10
140.4296473116
 20
113.7285516656
 10
140.4391920239
 20
113.7233903989
 10
140.4487125923
 20
113.7179458719
 10
140.4581972611
 20
113.7122239103
 10
140.4676342751
 20
113.7062303398
 10
140.4770118786
 20
113.6999709863
 10
140.4863183162
 20
113.6934516754
 10
140.4955418325
 20
113.6866782328
 10
140.5046706719
 20
113.6796564843
 10
140.5136938826
 20
113.6723923404
 10
140.5226037268
 20
113.6648920506
 10
140.5313932702
 20
113.657161949
 10
140.5400555785
 20
113.64920837
 10
140.5485837176
 20
113.6410376478
 10
140.5569707533
 20
113.6326561167
 10
140.5652097512
 20
113.6240701109
 10
140.5732937771
 20
113.6152859646
  0
LINE
  5
33A
100
AcDbEntity
  8
0
100
AcDbLine
 62
253
  6
CONTINUOUS
 10
154.8014937247
 20
117.3980083067
 11
154.8014937247
 21
117.3871030395
  0
LINE
  5
33B
100
AcDbEntity
  8
ASSI
100
AcDbLine
 62
253
  6
CONTINUOUS
 10
154.8014937247
 20
117.3980083067
 11
154.8014937247
 21
117.3871030395
  0
LINE
  5
33C
100
AcDbEntity
  8
0
100
AcDbLine
 62
7
  6
CONTINUOUS
 10
154.8008248122
 20
117.3871030395
 11
154.8014937247
 21
117.3980083067
  0
LINE
  5
33D
100
AcDbEntity
  8
ASSI
100
AcDbLine
 62
7
  6
CONTINUOUS
 10
154.8008248122
 20
117.3871030395
 11
154.8014937247
 21
117.3980083067
  0
LINE
  5
33E
100
AcDbEntity
  8
0
100
AcDbLine
 62
7
  6
CONTINUOUS
 10
154.8626459802
 20
117.8250090172
 11
154.8014937247
 21
117.3980083067
  0
LINE
  5
33F
100
AcDbEntity
  8
ASSI
100
AcDbLine
 62
7
  6
CONTINUOUS
 10
154.8626459802
 20
117.8250090172
 11
154.8014937247
 21
117.3980083067
  0
LWPOLYLINE
  5
340
100
AcDbEntity
  8
0
100
AcDbPolyline
 62
253
  6
CONTINUOUS
 90
19
 70
0
 10
143.5540755932
 20
91.8048814121
 10
143.4106071677
 20
91.7171803666
 10
143.2653810245
 20
91.6319661502
 10
143.1184173179
 20
91.5492487279
 10
142.9697362026
 20
91.4690380643
 10
142.819357833
 20
91.3913441243
 10
142.6673023636
 20
91.3161768726
 10
142.5135895573
 20
91.2435457151
 10
142.358237611
 20
91.173457821
 10
142.2012643297
 20
91.1059198005
 10
142.0426875187
 20
91.0409382637
 10
141.882524983
 20
90.9785198209
 10
141.7207945279
 20
90.9186710823
 10
141.5575147639
 20
90.861398607
 10
141.3927075235
 20
90.8067087502
 10
141.2263954445
 20
90.7546078161
 10
141.0586011646
 20
90.7051021088
 10
140.8893473217
 20
90.6581979325
 10
140.7186565536
 20
90.6139015913
  0
LWPOLYLINE
  5
341
100
AcDbEntity
  8
0
100
AcDbPolyline
 62
253
  6
CONTINUOUS
 90
41
 70
0
 10
140.0853684698
 20
114.3286688046
 10
140.0998488028
 20
114.3322737757
 10
140.114568449
 20
114.3353379435
 10
140.1295153181
 20
114.3378601651
 10
140.1446773197
 20
114.3398392977
 10
140.1600423635
 20
114.3412741986
 10
140.1755983591
 20
114.342163725
 10
140.1913332163
 20
114.3425067341
 10
140.2072348447
 20
114.3423020831
 10
140.2232899395
 20
114.3415498434
 10
140.2394803377
 20
114.3402549431
 10
140.2557866622
 20
114.3384235245
 10
140.2721895356
 20
114.33606173
 10
140.2886695806
 20
114.3331757019
 10
140.3052074199
 20
114.3297715825
 10
140.3217836762
 20
114.3258555141
 10
140.3383789722
 20
114.321433639
 10
140.3549767423
 20
114.3165111765
 10
140.3715716682
 20
114.3110896532
 10
140.3881612435
 20
114.3051696727
 10
140.4047429616
 20
114.2987518385
 10
140.421314316
 20
114.2918367544
 10
140.4378728002
 20
114.2844250237
 10
140.4544159076
 20
114.2765172502
 10
140.4709411318
 20
114.2681140374
 10
140.4874427387
 20
114.2592178504
 10
140.5039020842
 20
114.2498386012
 10
140.5202972967
 20
114.239988063
 10
140.5366065046
 20
114.2296780092
 10
140.5528078363
 20
114.2189202133
 10
140.5688794201
 20
114.2077264487
 10
140.5847993844
 20
114.1961084888
 10
140.6005458576
 20
114.184078107
 10
140.6160989392
 20
114.1716469308
 10
140.6314466128
 20
114.1588260049
 10
140.6465788332
 20
114.1456262279
 10
140.6614855551
 20
114.1320584986
 10
140.6761567334
 20
114.1181337157
 10
140.6905823227
 20
114.103862778
 10
140.7047522778
 20
114.0892565842
 10
140.7186565536
 20
114.0743260331
  0
LWPOLYLINE
  5
342
100
AcDbEntity
  8
0
100
AcDbPolyline
 62
253
  6
CONTINUOUS
 90
11
 70
0
 10
123.0100958123
 20
127.0051782914
 10
122.9733071525
 20
127.0236997194
 10
122.939913076
 20
127.0440352915
 10
122.9102373907
 20
127.0659878223
 10
122.8845678492
 20
127.0893444475
 10
122.863153358
 20
127.1138786879
 10
122.8462015645
 20
127.1393526453
 10
122.8338768428
 20
127.1655193097
 10
122.8262987006
 20
127.192124954
 10
122.8235406199
 20
127.2189115947
 10
122.8235792606
 20
127.2246159732
  0
LWPOLYLINE
  5
343
100
AcDbEntity
  8
ASSI
100
AcDbPolyline
 62
253
  6
CONTINUOUS
 90
11
 70
0
 10
123.0100958123
 20
127.0051782914
 10
122.9733071525
 20
127.0236997194
 10
122.939913076
 20
127.0440352915
 10
122.9102373907
 20
127.0659878223
 10
122.8845678492
 20
127.0893444475
 10
122.863153358
 20
127.1138786879
 10
122.8462015645
 20
127.1393526453
 10
122.8338768428
 20
127.1655193097
 10
122.8262987006
 20
127.192124954
 10
122.8235406199
 20
127.2189115947
 10
122.8235792606
 20
127.2246159732
  0
LINE
  5
344
100
AcDbEntity
  8
0
100
AcDbLine
 62
7
  6
CONTINUOUS
 10
154.8626459802
 20
117.8250090172
 11
154.8687432459
 21
117.2977223232
  0
LINE
  5
345
100
AcDbEntity
  8
ASSI
100
AcDbLine
 62
7
  6
CONTINUOUS
 10
154.8626459802
 20
117.8250090172
 11
154.8687432459
 21
117.2977223232
  0
LWPOLYLINE
  5
346
100
AcDbEntity
  8
0
100
AcDbPolyline
 62
253
  6
CONTINUOUS
 90
16
 70
0
 10
158.526690458
 20
112.7409217188
 10
158.5700198344
 20
112.7272657604
 10
158.6154352816
 20
112.7159493861
 10
158.6624964343
 20
112.7070823239
 10
158.7107469694
 20
112.7007505522
 10
158.7597190313
 20
112.6970154662
 10
158.8089377681
 20
112.6959132825
 10
158.8579259362
 20
112.6974546882
 10
158.9062085274
 20
112.7016247374
 10
158.9533173754
 20
112.7083829956
 10
158.9987956947
 20
112.7176639321
 10
159.0422025101
 20
112.7293775556
 10
159.0831169325
 20
112.7434102861
 10
159.1211422401
 20
112.7596260569
 10
159.1559097249
 20
112.7778676338
 10
159.187082268
 20
112.7979581394
  0
LWPOLYLINE
  5
347
100
AcDbEntity
  8
ASSI
100
AcDbPolyline
 62
253
  6
CONTINUOUS
 90
16
 70
0
 10
158.526690458
 20
112.7409217188
 10
158.5700198344
 20
112.7272657604
 10
158.6154352816
 20
112.7159493861
 10
158.6624964343
 20
112.7070823239
 10
158.7107469694
 20
112.7007505522
 10
158.7597190313
 20
112.6970154662
 10
158.8089377681
 20
112.6959132825
 10
158.8579259362
 20
112.6974546882
 10
158.9062085274
 20
112.7016247374
 10
158.9533173754
 20
112.7083829956
 10
158.9987956947
 20
112.7176639321
 10
159.0422025101
 20
112.7293775556
 10
159.0831169325
 20
112.7434102861
 10
159.1211422401
 20
112.7596260569
 10
159.1559097249
 20
112.7778676338
 10
159.187082268
 20
112.7979581394
  0
LWPOLYLINE
  5
348
100
AcDbEntity
  8
0
100
AcDbPolyline
 62
253
  6
CONTINUOUS
 90
3
 70
0
 10
159.1661282405
 20
114.2204355763
 10
158.2534383524
 20
114.5357151573
 10
157.3308738621
 20
114.8603141399
  0
LWPOLYLINE
  5
349
100
AcDbEntity
  8
ASSI
100
AcDbPolyline
 62
253
  6
CONTINUOUS
 90
3
 70
0
 10
159.1661282405
 20
114.2204355763
 10
158.2534383524
 20
114.5357151573
 10
157.3308738621
 20
114.8603141399
  0
LWPOLYLINE
  5
34A
100
AcDbEntity
  8
0
100
AcDbPolyline
 62
253
  6
CONTINUOUS
 90
10
 70
0
 10
158.5266838271
 20
112.740915832
 10
157.6140832999
 20
113.058640274
 10
156.6908063408
 20
113.385295471
 10
155.7570728057
 20
113.7210318176
 10
154.8193855914
 20
114.0636568171
 10
153.8716391982
 20
114.4156124429
 10
152.8954156317
 20
114.7842344792
 10
151.8850530566
 20
115.1723366101
 10
150.8473506133
 20
115.5779504104
 10
149.7828836612
 20
116.0014830805
  0
LWPOLYLINE
  5
34B
100
AcDbEntity
  8
ASSI
100
AcDbPolyline
 62
253
  6
CONTINUOUS
 90
10
 70
0
 10
158.5266838271
 20
112.740915832
 10
157.6140832999
 20
113.058640274
 10
156.6908063408
 20
113.385295471
 10
155.7570728057
 20
113.7210318176
 10
154.8193855914
 20
114.0636568171
 10
153.8716391982
 20
114.4156124429
 10
152.8954156317
 20
114.7842344792
 10
151.8850530566
 20
115.1723366101
 10
150.8473506133
 20
115.5779504104
 10
149.7828836612
 20
116.0014830805
  0
LINE
  5
34C
100
AcDbEntity
  8
0
100
AcDbLine
 62
253
  6
CONTINUOUS
 10
149.7828836612
 20
116.0014830805
 11
131.3519626647
 21
123.4037564681
  0
LINE
  5
34D
100
AcDbEntity
  8
ASSI
100
AcDbLine
 62
253
  6
CONTINUOUS
 10
149.7828836612
 20
116.0014830805
 11
131.3519626647
 21
123.4037564681
  0
LWPOLYLINE
  5
34E
100
AcDbEntity
  8
0
100
AcDbPolyline
 62
253
  6
CONTINUOUS
 90
13
 70
0
 10
131.3519626647
 20
123.4037564681
 10
130.6094245805
 20
123.7039326803
 10
129.8814770514
 20
124.0019021509
 10
129.1680088562
 20
124.2975484312
 10
128.4723516727
 20
124.5893139035
 10
127.7909225103
 20
124.8785082912
 10
127.1133607876
 20
125.1694151834
 10
126.4400473852
 20
125.4618521574
 10
125.7706191429
 20
125.7559715062
 10
125.093861905
 20
126.0567600544
 10
124.4062039651
 20
126.3659889733
 10
123.7115609981
 20
126.6820968032
 10
123.010095811
 20
127.0051782807
  0
LWPOLYLINE
  5
34F
100
AcDbEntity
  8
ASSI
100
AcDbPolyline
 62
253
  6
CONTINUOUS
 90
13
 70
0
 10
131.3519626647
 20
123.4037564681
 10
130.6094245805
 20
123.7039326803
 10
129.8814770514
 20
124.0019021509
 10
129.1680088562
 20
124.2975484312
 10
128.4723516727
 20
124.5893139035
 10
127.7909225103
 20
124.8785082912
 10
127.1133607876
 20
125.1694151834
 10
126.4400473852
 20
125.4618521574
 10
125.7706191429
 20
125.7559715062
 10
125.093861905
 20
126.0567600544
 10
124.4062039651
 20
126.3659889733
 10
123.7115609981
 20
126.6820968032
 10
123.010095811
 20
127.0051782807
  0
LWPOLYLINE
  5
350
100
AcDbEntity
  8
0
100
AcDbPolyline
 62
253
  6
CONTINUOUS
 90
9
 70
0
 10
129.1298629478
 20
126.0522105616
 10
128.4503618732
 20
126.3413175547
 10
127.7745399768
 20
126.6323629373
 10
127.102473249
 20
126.9250823771
 10
126.4340856993
 20
127.2197402066
 10
125.7583305205
 20
127.5214628849
 10
125.0715254435
 20
127.831959232
 10
124.3773527373
 20
128.149520428
 10
123.675812402
 20
128.474146473
  0
LWPOLYLINE
  5
351
100
AcDbEntity
  8
ASSI
100
AcDbPolyline
 62
253
  6
CONTINUOUS
 90
9
 70
0
 10
129.1298629478
 20
126.0522105616
 10
128.4503618732
 20
126.3413175547
 10
127.7745399768
 20
126.6323629373
 10
127.102473249
 20
126.9250823771
 10
126.4340856993
 20
127.2197402066
 10
125.7583305205
 20
127.5214628849
 10
125.0715254435
 20
127.831959232
 10
124.3773527373
 20
128.149520428
 10
123.675812402
 20
128.474146473
  0
LWPOLYLINE
  5
352
100
AcDbEntity
  8
0
100
AcDbPolyline
 62
253
  6
CONTINUOUS
 90
19
 70
0
 10
158.9201885136
 20
94.9020811545
 10
158.9184719003
 20
94.9378121784
 10
158.9137642825
 20
94.974649901
 10
158.9060757999
 20
95.0123263944
 10
158.8954328779
 20
95.0505846181
 10
158.8818952277
 20
95.0891172043
 10
158.8655712944
 20
95.1275684239
 10
158.8465770651
 20
95.1656426808
 10
158.8250482519
 20
95.2030486556
 10
158.8011793394
 20
95.239442629
 10
158.7751761256
 20
95.2745211998
 10
158.747222187
 20
95.3080462397
 10
158.717509503
 20
95.3397874404
 10
158.6862493634
 20
95.3695124603
 10
158.6536915779
 20
95.3969774501
 10
158.6201016116
 20
95.4219571649
 10
158.5857428297
 20
95.444257849
 10
158.5508725168
 20
95.4637145629
 10
158.5157574157
 20
95.4801796831
  0
LWPOLYLINE
  5
353
100
AcDbEntity
  8
ASSI
100
AcDbPolyline
 62
253
  6
CONTINUOUS
 90
19
 70
0
 10
158.9201885136
 20
94.9020811545
 10
158.9184719003
 20
94.9378121784
 10
158.9137642825
 20
94.974649901
 10
158.9060757999
 20
95.0123263944
 10
158.8954328779
 20
95.0505846181
 10
158.8818952277
 20
95.0891172043
 10
158.8655712944
 20
95.1275684239
 10
158.8465770651
 20
95.1656426808
 10
158.8250482519
 20
95.2030486556
 10
158.8011793394
 20
95.239442629
 10
158.7751761256
 20
95.2745211998
 10
158.747222187
 20
95.3080462397
 10
158.717509503
 20
95.3397874404
 10
158.6862493634
 20
95.3695124603
 10
158.6536915779
 20
95.3969774501
 10
158.6201016116
 20
95.4219571649
 10
158.5857428297
 20
95.444257849
 10
158.5508725168
 20
95.4637145629
 10
158.5157574157
 20
95.4801796831
  0
LWPOLYLINE
  5
354
100
AcDbEntity
  8
0
100
AcDbPolyline
 62
253
  6
CONTINUOUS
 90
10
 70
0
 10
158.2673013012
 20
96.0350652612
 10
158.269072338
 20
95.9928840529
 10
158.2729918632
 20
95.9549629335
 10
158.2792581526
 20
95.9209731909
 10
158.2884609088
 20
95.8904916686
 10
158.3004634094
 20
95.8638512794
 10
158.3143995017
 20
95.8419520519
 10
158.3305616277
 20
95.8249245494
 10
158.349204298
 20
95.8126805174
 10
158.3601966979
 20
95.8081332504
  0
LWPOLYLINE
  5
355
100
AcDbEntity
  8
ASSI
100
AcDbPolyline
 62
253
  6
CONTINUOUS
 90
10
 70
0
 10
158.2673013012
 20
96.0350652612
 10
158.269072338
 20
95.9928840529
 10
158.2729918632
 20
95.9549629335
 10
158.2792581526
 20
95.9209731909
 10
158.2884609088
 20
95.8904916686
 10
158.3004634094
 20
95.8638512794
 10
158.3143995017
 20
95.8419520519
 10
158.3305616277
 20
95.8249245494
 10
158.349204298
 20
95.8126805174
 10
158.3601966979
 20
95.8081332504
  0
LWPOLYLINE
  5
356
100
AcDbEntity
  8
0
100
AcDbPolyline
 62
253
  6
CONTINUOUS
 90
4
 70
0
 10
159.1870822415
 20
78.6297887173
 10
159.1316014369
 20
80.4818788282
 10
159.0828324916
 20
82.3077001003
 10
159.0407754056
 20
84.1072525336
  0
LWPOLYLINE
  5
357
100
AcDbEntity
  8
ASSI
100
AcDbPolyline
 62
253
  6
CONTINUOUS
 90
4
 70
0
 10
159.1870822415
 20
78.6297887173
 10
159.1316014369
 20
80.4818788282
 10
159.0828324916
 20
82.3077001003
 10
159.0407754056
 20
84.1072525336
  0
LWPOLYLINE
  5
358
100
AcDbEntity
  8
0
100
AcDbPolyline
 62
253
  6
CONTINUOUS
 90
10
 70
0
 10
158.5266838536
 20
78.5376295776
 10
158.4722498761
 20
80.3905728916
 10
158.4249553854
 20
82.2178979277
 10
158.3844883218
 20
84.0192916602
 10
158.3508975836
 20
85.7740755211
 10
158.323397702
 20
87.5022188064
 10
158.3010089882
 20
89.264883305
 10
158.2838543919
 20
91.0828116514
 10
158.2725193564
 20
92.9357823016
 10
158.267301194
 20
94.8240014421
  0
LWPOLYLINE
  5
359
100
AcDbEntity
  8
ASSI
100
AcDbPolyline
 62
253
  6
CONTINUOUS
 90
10
 70
0
 10
158.5266838536
 20
78.5376295776
 10
158.4722498761
 20
80.3905728916
 10
158.4249553854
 20
82.2178979277
 10
158.3844883218
 20
84.0192916602
 10
158.3508975836
 20
85.7740755211
 10
158.323397702
 20
87.5022188064
 10
158.3010089882
 20
89.264883305
 10
158.2838543919
 20
91.0828116514
 10
158.2725193564
 20
92.9357823016
 10
158.267301194
 20
94.8240014421
  0
LWPOLYLINE
  5
35A
100
AcDbEntity
  8
0
100
AcDbPolyline
 62
253
  6
CONTINUOUS
 90
7
 70
0
 10
159.0407754056
 20
84.1072525336
 10
159.0057706761
 20
85.8601968822
 10
158.9774778059
 20
87.586872392
 10
158.9548753037
 20
89.3482968004
 10
158.9376226723
 20
91.1648093532
 10
158.926060409
 20
93.0160708046
 10
158.9201885136
 20
94.9020811545
  0
LWPOLYLINE
  5
35B
100
AcDbEntity
  8
ASSI
100
AcDbPolyline
 62
253
  6
CONTINUOUS
 90
7
 70
0
 10
159.0407754056
 20
84.1072525336
 10
159.0057706761
 20
85.8601968822
 10
158.9774778059
 20
87.586872392
 10
158.9548753037
 20
89.3482968004
 10
158.9376226723
 20
91.1648093532
 10
158.926060409
 20
93.0160708046
 10
158.9201885136
 20
94.9020811545
  0
LWPOLYLINE
  5
35C
100
AcDbEntity
  8
0
100
AcDbPolyline
 62
253
  6
CONTINUOUS
 90
6
 70
0
 10
158.9201885535
 20
96.1119035273
 10
158.9242720221
 20
97.8054420013
 10
158.9342543334
 20
99.5288133969
 10
158.9501354875
 20
101.2820177141
 10
158.9712568116
 20
103.0513429836
 10
158.9982769785
 20
104.8505011747
  0
LWPOLYLINE
  5
35D
100
AcDbEntity
  8
ASSI
100
AcDbPolyline
 62
253
  6
CONTINUOUS
 90
6
 70
0
 10
158.9201885535
 20
96.1119035273
 10
158.9242720221
 20
97.8054420013
 10
158.9342543334
 20
99.5288133969
 10
158.9501354875
 20
101.2820177141
 10
158.9712568116
 20
103.0513429836
 10
158.9982769785
 20
104.8505011747
  0
LWPOLYLINE
  5
35E
100
AcDbEntity
  8
0
100
AcDbPolyline
 62
253
  6
CONTINUOUS
 90
5
 70
0
 10
158.2673011959
 20
96.0350652415
 10
158.2716580678
 20
97.7306116795
 10
158.2812818517
 20
99.4557827135
 10
158.2964027132
 20
101.2107320674
 10
158.3170732184
 20
102.982206416
  0
LWPOLYLINE
  5
35F
100
AcDbEntity
  8
ASSI
100
AcDbPolyline
 62
253
  6
CONTINUOUS
 90
5
 70
0
 10
158.2673011959
 20
96.0350652415
 10
158.2716580678
 20
97.7306116795
 10
158.2812818517
 20
99.4557827135
 10
158.2964027132
 20
101.2107320674
 10
158.3170732184
 20
102.982206416
  0
LWPOLYLINE
  5
360
100
AcDbEntity
  8
0
100
AcDbPolyline
 62
253
  6
CONTINUOUS
 90
6
 70
0
 10
158.3170732184
 20
102.982206416
 10
158.3436277126
 20
104.7836999858
 10
158.3770992225
 20
106.6557832867
 10
158.4184322795
 20
108.6124204502
 10
158.4680659874
 20
110.6406395917
 10
158.5266838271
 20
112.740915832
  0
LWPOLYLINE
  5
361
100
AcDbEntity
  8
ASSI
100
AcDbPolyline
 62
253
  6
CONTINUOUS
 90
6
 70
0
 10
158.3170732184
 20
102.982206416
 10
158.3436277126
 20
104.7836999858
 10
158.3770992225
 20
106.6557832867
 10
158.4184322795
 20
108.6124204502
 10
158.4680659874
 20
110.6406395917
 10
158.5266838271
 20
112.740915832
  0
LINE
  5
362
100
AcDbEntity
  8
0
100
AcDbLine
 62
253
  6
CONTINUOUS
 10
158.9982769785
 20
104.8505011747
 11
159.0331720058
 21
106.7206281951
  0
LINE
  5
363
100
AcDbEntity
  8
ASSI
100
AcDbLine
 62
253
  6
CONTINUOUS
 10
158.9982769785
 20
104.8505011747
 11
159.0331720058
 21
106.7206281951
  0
LINE
  5
364
100
AcDbEntity
  8
0
100
AcDbLine
 62
253
  6
CONTINUOUS
 10
159.0331720058
 20
106.7206281951
 11
159.0771458857
 21
108.696968604
  0
LINE
  5
365
100
AcDbEntity
  8
ASSI
100
AcDbLine
 62
253
  6
CONTINUOUS
 10
159.0331720058
 20
106.7206281951
 11
159.0771458857
 21
108.696968604
  0
LWPOLYLINE
  5
366
100
AcDbEntity
  8
0
100
AcDbPolyline
 62
253
  6
CONTINUOUS
 90
3
 70
0
 10
159.0771458857
 20
108.696968604
 10
159.1279039869
 20
110.701212662
 10
159.1870822681
 20
112.7979581394
  0
LWPOLYLINE
  5
367
100
AcDbEntity
  8
ASSI
100
AcDbPolyline
 62
253
  6
CONTINUOUS
 90
3
 70
0
 10
159.0771458857
 20
108.696968604
 10
159.1279039869
 20
110.701212662
 10
159.1870822681
 20
112.7979581394
  0
LWPOLYLINE
  5
368
100
AcDbEntity
  8
0
100
AcDbPolyline
 62
253
  6
CONTINUOUS
 90
16
 70
0
 10
158.2673012612
 20
94.8240014202
 10
158.2690720658
 20
94.8686296412
 10
158.2729913358
 20
94.9146693983
 10
158.2792573098
 20
94.961985488
 10
158.2884595655
 20
95.0106828191
 10
158.3004614289
 20
95.0605691127
 10
158.3143969824
 20
95.1107060481
 10
158.3305586912
 20
95.1600950208
 10
158.3492010033
 20
95.2085270875
 10
158.3693116784
 20
95.2557369886
 10
158.3909702116
 20
95.3008552842
 10
158.414408961
 20
95.3432830222
 10
158.4386745909
 20
95.383010093
 10
158.4634549819
 20
95.4195679067
 10
158.4891424349
 20
95.4521286317
 10
158.5157574157
 20
95.4801796832
  0
LWPOLYLINE
  5
369
100
AcDbEntity
  8
ASSI
100
AcDbPolyline
 62
253
  6
CONTINUOUS
 90
16
 70
0
 10
158.2673012612
 20
94.8240014202
 10
158.2690720658
 20
94.8686296412
 10
158.2729913358
 20
94.9146693983
 10
158.2792573098
 20
94.961985488
 10
158.2884595655
 20
95.0106828191
 10
158.3004614289
 20
95.0605691127
 10
158.3143969824
 20
95.1107060481
 10
158.3305586912
 20
95.1600950208
 10
158.3492010033
 20
95.2085270875
 10
158.3693116784
 20
95.2557369886
 10
158.3909702116
 20
95.3008552842
 10
158.414408961
 20
95.3432830222
 10
158.4386745909
 20
95.383010093
 10
158.4634549819
 20
95.4195679067
 10
158.4891424349
 20
95.4521286317
 10
158.5157574157
 20
95.4801796832
  0
LWPOLYLINE
  5
36A
100
AcDbEntity
  8
0
100
AcDbPolyline
 62
253
  6
CONTINUOUS
 90
10
 70
0
 10
158.9201885535
 20
96.1119035273
 10
158.9184719376
 20
96.077093578
 10
158.9137643129
 20
96.0437183381
 10
158.9060758202
 20
96.0120411656
 10
158.8954328849
 20
95.9823004327
 10
158.8818952199
 20
95.954757142
 10
158.8655712746
 20
95.9296797165
 10
158.8465770425
 20
95.9072690716
 10
158.8250482349
 20
95.8877048992
 10
158.8218837151
 20
95.8852354291
  0
LWPOLYLINE
  5
36B
100
AcDbEntity
  8
ASSI
100
AcDbPolyline
 62
253
  6
CONTINUOUS
 90
10
 70
0
 10
158.9201885535
 20
96.1119035273
 10
158.9184719376
 20
96.077093578
 10
158.9137643129
 20
96.0437183381
 10
158.9060758202
 20
96.0120411656
 10
158.8954328849
 20
95.9823004327
 10
158.8818952199
 20
95.954757142
 10
158.8655712746
 20
95.9296797165
 10
158.8465770425
 20
95.9072690716
 10
158.8250482349
 20
95.8877048992
 10
158.8218837151
 20
95.8852354291
  0
LWPOLYLINE
  5
36C
100
AcDbEntity
  8
0
100
AcDbPolyline
 62
253
  6
CONTINUOUS
 90
22
 70
0
 10
158.5266838457
 20
112.7409158808
 10
158.5302912991
 20
112.8128816237
 10
158.5372064932
 20
112.8870886005
 10
158.5473980599
 20
112.9631692944
 10
158.5608259272
 20
113.0407386683
 10
158.5774226021
 20
113.1194198853
 10
158.59709552
 20
113.1988469171
 10
158.6197625313
 20
113.2786304836
 10
158.6453176318
 20
113.3583693149
 10
158.6736138419
 20
113.4376764524
 10
158.7045270395
 20
113.5161548685
 10
158.7379155106
 20
113.5934142048
 10
158.7735880274
 20
113.6690826826
 10
158.8113876463
 20
113.7427817007
 10
158.8511403902
 20
113.8141404857
 10
158.892614755
 20
113.8828131262
 10
158.9356223633
 20
113.948449952
 10
158.979969386
 20
114.0107243485
 10
159.0254058092
 20
114.0693461839
 10
159.0717097948
 20
114.1240253764
 10
159.11868821
 20
114.1744746418
 10
159.1661282404
 20
114.2204355763
  0
LWPOLYLINE
  5
36D
100
AcDbEntity
  8
ASSI
100
AcDbPolyline
 62
253
  6
CONTINUOUS
 90
22
 70
0
 10
158.5266838457
 20
112.7409158808
 10
158.5302912991
 20
112.8128816237
 10
158.5372064932
 20
112.8870886005
 10
158.5473980599
 20
112.9631692944
 10
158.5608259272
 20
113.0407386683
 10
158.5774226021
 20
113.1194198853
 10
158.59709552
 20
113.1988469171
 10
158.6197625313
 20
113.2786304836
 10
158.6453176318
 20
113.3583693149
 10
158.6736138419
 20
113.4376764524
 10
158.7045270395
 20
113.5161548685
 10
158.7379155106
 20
113.5934142048
 10
158.7735880274
 20
113.6690826826
 10
158.8113876463
 20
113.7427817007
 10
158.8511403902
 20
113.8141404857
 10
158.892614755
 20
113.8828131262
 10
158.9356223633
 20
113.948449952
 10
158.979969386
 20
114.0107243485
 10
159.0254058092
 20
114.0693461839
 10
159.0717097948
 20
114.1240253764
 10
159.11868821
 20
114.1744746418
 10
159.1661282404
 20
114.2204355763
  0
LWPOLYLINE
  5
36E
100
AcDbEntity
  8
0
100
AcDbPolyline
 62
253
  6
CONTINUOUS
 90
22
 70
0
 10
159.1870822681
 20
112.7979581394
 10
159.1893893639
 20
112.8400064268
 10
159.1936920447
 20
112.8829575329
 10
159.1999903106
 20
112.9268114577
 10
159.2083344354
 20
112.9718109896
 10
159.2186741452
 20
113.0177133403
 10
159.2308586189
 20
113.0637901442
 10
159.2449142345
 20
113.1100259479
 10
159.260814614
 20
113.1564362049
 10
159.2783298025
 20
113.2023389109
 10
159.2974855675
 20
113.2477297271
 10
159.3182561415
 20
113.2926129923
 10
159.3403342668
 20
113.3363197188
 10
159.3637393882
 20
113.3788308617
 10
159.3884520609
 20
113.4201654659
 10
159.4141066919
 20
113.4597116774
 10
159.4407302471
 20
113.4974537434
 10
159.4682957606
 20
113.5334074168
 10
159.4963567423
 20
113.5670081012
 10
159.5247643621
 20
113.5980675979
 10
159.5536674501
 20
113.6267741058
 10
159.5830660063
 20
113.6531276247
  0
LWPOLYLINE
  5
36F
100
AcDbEntity
  8
ASSI
100
AcDbPolyline
 62
253
  6
CONTINUOUS
 90
22
 70
0
 10
159.1870822681
 20
112.7979581394
 10
159.1893893639
 20
112.8400064268
 10
159.1936920447
 20
112.8829575329
 10
159.1999903106
 20
112.9268114577
 10
159.2083344354
 20
112.9718109896
 10
159.2186741452
 20
113.0177133403
 10
159.2308586189
 20
113.0637901442
 10
159.2449142345
 20
113.1100259479
 10
159.260814614
 20
113.1564362049
 10
159.2783298025
 20
113.2023389109
 10
159.2974855675
 20
113.2477297271
 10
159.3182561415
 20
113.2926129923
 10
159.3403342668
 20
113.3363197188
 10
159.3637393882
 20
113.3788308617
 10
159.3884520609
 20
113.4201654659
 10
159.4141066919
 20
113.4597116774
 10
159.4407302471
 20
113.4974537434
 10
159.4682957606
 20
113.5334074168
 10
159.4963567423
 20
113.5670081012
 10
159.5247643621
 20
113.5980675979
 10
159.5536674501
 20
113.6267741058
 10
159.5830660063
 20
113.6531276247
  0
LINE
  5
370
100
AcDbEntity
  8
0
100
AcDbLine
 62
253
  6
CONTINUOUS
 10
161.1393981286
 20
97.5453995485
 11
158.5157574139
 21
95.4801796817
  0
LINE
  5
371
100
AcDbEntity
  8
ASSI
100
AcDbLine
 62
253
  6
CONTINUOUS
 10
161.1393981286
 20
97.5453995485
 11
158.5157574139
 21
95.4801796817
  0
LINE
  5
372
100
AcDbEntity
  8
0
100
AcDbLine
 62
253
  6
CONTINUOUS
 10
161.5490209571
 20
96.9713877324
 11
158.9201885136
 21
94.9020811545
  0
LINE
  5
373
100
AcDbEntity
  8
ASSI
100
AcDbLine
 62
253
  6
CONTINUOUS
 10
161.5490209571
 20
96.9713877324
 11
158.9201885136
 21
94.9020811545
  0
LINE
  5
374
100
AcDbEntity
  8
0
100
AcDbLine
 62
253
  6
CONTINUOUS
 10
158.8218837151
 20
95.8852354291
 11
158.8215909056
 21
95.8850115862
  0
LINE
  5
375
100
AcDbEntity
  8
ASSI
100
AcDbLine
 62
253
  6
CONTINUOUS
 10
158.8218837151
 20
95.8852354291
 11
158.8215909056
 21
95.8850115862
  0
LINE
  5
376
100
AcDbEntity
  8
0
100
AcDbLine
 62
253
  6
CONTINUOUS
 10
158.9201885535
 20
96.1119035273
 11
161.5490209571
 21
98.118044657
  0
LINE
  5
377
100
AcDbEntity
  8
ASSI
100
AcDbLine
 62
253
  6
CONTINUOUS
 10
158.9201885535
 20
96.1119035273
 11
161.5490209571
 21
98.118044657
  0
LINE
  5
378
100
AcDbEntity
  8
0
100
AcDbLine
 62
7
  6
CONTINUOUS
 10
158.8215898007
 20
95.8850107431
 11
161.450179691
 21
97.8909668035
  0
LINE
  5
379
100
AcDbEntity
  8
ASSI
100
AcDbLine
 62
7
  6
CONTINUOUS
 10
158.8215898007
 20
95.8850107431
 11
161.450179691
 21
97.8909668035
  0
LWPOLYLINE
  5
37A
100
AcDbEntity
  8
0
100
AcDbPolyline
 62
253
  6
CONTINUOUS
 90
16
 70
0
 10
158.9201885143
 20
94.9020811551
 10
158.8893934989
 20
94.8804305901
 10
158.8550873097
 20
94.8605987338
 10
158.8175945066
 20
94.842773209
 10
158.7772698036
 20
94.8271226596
 10
158.7344946938
 20
94.8137951475
 10
158.689673837
 20
94.8029167551
 10
158.6432312445
 20
94.7945904
 10
158.5956063142
 20
94.7888948644
 10
158.5472496554
 20
94.7858840377
 10
158.4986187785
 20
94.7855864
 10
158.4501737434
 20
94.7880047618
 10
158.4023728514
 20
94.7931162434
 10
158.3556683246
 20
94.8008724882
 10
158.3105020266
 20
94.811200116
 10
158.2673012612
 20
94.8240014202
  0
LWPOLYLINE
  5
37B
100
AcDbEntity
  8
ASSI
100
AcDbPolyline
 62
253
  6
CONTINUOUS
 90
16
 70
0
 10
158.9201885143
 20
94.9020811551
 10
158.8893934989
 20
94.8804305901
 10
158.8550873097
 20
94.8605987338
 10
158.8175945066
 20
94.842773209
 10
158.7772698036
 20
94.8271226596
 10
158.7344946938
 20
94.8137951475
 10
158.689673837
 20
94.8029167551
 10
158.6432312445
 20
94.7945904
 10
158.5956063142
 20
94.7888948644
 10
158.5472496554
 20
94.7858840377
 10
158.4986187785
 20
94.7855864
 10
158.4501737434
 20
94.7880047618
 10
158.4023728514
 20
94.7931162434
 10
158.3556683246
 20
94.8008724882
 10
158.3105020266
 20
94.811200116
 10
158.2673012612
 20
94.8240014202
  0
LWPOLYLINE
  5
37C
100
AcDbEntity
  8
0
100
AcDbPolyline
 62
253
  6
CONTINUOUS
 90
10
 70
0
 10
123.675812402
 20
128.4741464729
 10
123.6323515112
 20
128.4884517208
 10
123.5895301865
 20
128.4982614142
 10
123.5478167771
 20
128.5034682781
 10
123.5076675
 20
128.5040153802
 10
123.469521487
 20
128.4998967522
 10
123.4337959755
 20
128.4911574685
 10
123.4008816933
 20
128.4778931458
 10
123.3711386036
 20
128.4602488864
 10
123.3479768916
 20
128.441372983
  0
LWPOLYLINE
  5
37D
100
AcDbEntity
  8
ASSI
100
AcDbPolyline
 62
253
  6
CONTINUOUS
 90
10
 70
0
 10
123.675812402
 20
128.4741464729
 10
123.6323515112
 20
128.4884517208
 10
123.5895301865
 20
128.4982614142
 10
123.5478167771
 20
128.5034682781
 10
123.5076675
 20
128.5040153802
 10
123.469521487
 20
128.4998967522
 10
123.4337959755
 20
128.4911574685
 10
123.4008816933
 20
128.4778931458
 10
123.3711386036
 20
128.4602488864
 10
123.3479768916
 20
128.441372983
  0
LWPOLYLINE
  5
37E
100
AcDbEntity
  8
0
100
AcDbPolyline
 62
253
  6
CONTINUOUS
 90
8
 70
0
 10
157.3308738621
 20
114.8603141399
 10
156.3984347695
 20
115.1942325242
 10
155.4621429138
 20
115.5348009297
 10
154.5159764559
 20
115.8846887369
 10
153.5418698782
 20
116.2519040872
 10
152.5338013416
 20
116.639116361
 10
151.4977926851
 20
117.043656178
 10
150.4338439089
 20
117.465523538
  0
LWPOLYLINE
  5
37F
100
AcDbEntity
  8
ASSI
100
AcDbPolyline
 62
253
  6
CONTINUOUS
 90
8
 70
0
 10
157.3308738621
 20
114.8603141399
 10
156.3984347695
 20
115.1942325242
 10
155.4621429138
 20
115.5348009297
 10
154.5159764559
 20
115.8846887369
 10
153.5418698782
 20
116.2519040872
 10
152.5338013416
 20
116.639116361
 10
151.4977926851
 20
117.043656178
 10
150.4338439089
 20
117.465523538
  0
LINE
  5
380
100
AcDbEntity
  8
0
100
AcDbLine
 62
7
  6
CONTINUOUS
 10
139.2148686786
 20
123.5836345697
 11
136.4550963805
 21
124.6920213422
  0
LINE
  5
381
100
AcDbEntity
  8
ASSI
100
AcDbLine
 62
7
  6
CONTINUOUS
 10
139.2148686786
 20
123.5836345697
 11
136.4550963805
 21
124.6920213422
  0
LINE
  5
382
100
AcDbEntity
  8
0
100
AcDbLine
 62
7
  6
CONTINUOUS
 10
130.0403657826
 20
127.268321767
 11
127.2805934845
 21
128.3767085396
  0
LINE
  5
383
100
AcDbEntity
  8
ASSI
100
AcDbLine
 62
7
  6
CONTINUOUS
 10
130.0403657826
 20
127.268321767
 11
127.2805934845
 21
128.3767085396
  0
LINE
  5
384
100
AcDbEntity
  8
0
100
AcDbLine
 62
7
  6
CONTINUOUS
 10
145.711514481
 20
120.974435152
 11
148.4712867791
 21
119.8660483795
  0
LINE
  5
385
100
AcDbEntity
  8
ASSI
100
AcDbLine
 62
7
  6
CONTINUOUS
 10
145.711514481
 20
120.974435152
 11
148.4712867791
 21
119.8660483795
  0
LINE
  5
386
100
AcDbEntity
  8
0
100
AcDbLine
 62
7
  6
CONTINUOUS
 10
154.886017377
 20
117.2897479546
 11
157.6457896751
 21
116.1813611821
  0
LINE
  5
387
100
AcDbEntity
  8
ASSI
100
AcDbLine
 62
7
  6
CONTINUOUS
 10
154.886017377
 20
117.2897479546
 11
157.6457896751
 21
116.1813611821
  0
LINE
  5
388
100
AcDbEntity
  8
0
100
AcDbLine
 62
7
  6
CONTINUOUS
 10
160.6683911219
 20
115.4932908808
 11
158.4809335318
 21
116.3718231641
  0
LINE
  5
389
100
AcDbEntity
  8
ASSI
100
AcDbLine
 62
7
  6
CONTINUOUS
 10
160.6683911219
 20
115.4932908808
 11
158.4809335318
 21
116.3718231641
  0
LINE
  5
38A
100
AcDbEntity
  8
0
100
AcDbLine
 62
7
  6
CONTINUOUS
 10
154.8626459802
 20
117.8250090172
 11
149.3064306357
 21
120.0565103615
  0
LINE
  5
38B
100
AcDbEntity
  8
ASSI
100
AcDbLine
 62
7
  6
CONTINUOUS
 10
154.8626459802
 20
117.8250090172
 11
149.3064306357
 21
120.0565103615
  0
LINE
  5
38C
100
AcDbEntity
  8
0
100
AcDbLine
 62
7
  6
CONTINUOUS
 10
145.6881430841
 20
121.5096962146
 11
140.0500125353
 21
123.7740965517
  0
LINE
  5
38D
100
AcDbEntity
  8
ASSI
100
AcDbLine
 62
7
  6
CONTINUOUS
 10
145.6881430841
 20
121.5096962146
 11
140.0500125353
 21
123.7740965517
  0
LINE
  5
38E
100
AcDbEntity
  8
0
100
AcDbLine
 62
7
  6
CONTINUOUS
 10
136.4317249837
 20
125.2272824048
 11
130.8755096392
 21
127.4587837491
  0
LINE
  5
38F
100
AcDbEntity
  8
ASSI
100
AcDbLine
 62
7
  6
CONTINUOUS
 10
136.4317249837
 20
125.2272824048
 11
130.8755096392
 21
127.4587837491
  0
LINE
  5
390
100
AcDbEntity
  8
0
100
AcDbLine
 62
7
  6
CONTINUOUS
 10
127.2572220876
 20
128.9119696022
 11
125.0697644975
 21
129.7905018855
  0
LINE
  5
391
100
AcDbEntity
  8
ASSI
100
AcDbLine
 62
7
  6
CONTINUOUS
 10
127.2572220876
 20
128.9119696022
 11
125.0697644975
 21
129.7905018855
  0
LWPOLYLINE
  5
392
100
AcDbEntity
  8
0
100
AcDbPolyline
 62
253
  6
CONTINUOUS
 90
5
 70
0
 10
150.4338439089
 20
117.465523538
 10
131.2625668105
 20
125.1676301696
 10
130.5359654164
 20
125.4653668691
 10
129.823862036
 20
125.7607084956
 10
129.1298629478
 20
126.0522105616
  0
LWPOLYLINE
  5
393
100
AcDbEntity
  8
ASSI
100
AcDbPolyline
 62
253
  6
CONTINUOUS
 90
5
 70
0
 10
150.4338439089
 20
117.465523538
 10
131.2625668105
 20
125.1676301696
 10
130.5359654164
 20
125.4653668691
 10
129.823862036
 20
125.7607084956
 10
129.1298629478
 20
126.0522105616
  0
LWPOLYLINE
  5
394
100
AcDbEntity
  8
0
100
AcDbPolyline
 62
253
  6
CONTINUOUS
 90
16
 70
0
 10
159.1661282404
 20
114.2204355763
 10
159.2081889603
 20
114.2003934872
 10
159.2499538156
 20
114.1762316274
 10
159.290966019
 20
114.1482142581
 10
159.3307770148
 20
114.1166478086
 10
159.3689513854
 20
114.0818775253
 10
159.4050716131
 20
114.0442836952
 10
159.4387426466
 20
114.0042774866
 10
159.4695962215
 20
113.9622964525
 10
159.4972948886
 20
113.9187997446
 10
159.521535704
 20
113.8742630918
 10
159.542053543
 20
113.8291735968
 10
159.5586239995
 20
113.7840244093
 10
159.5710658402
 20
113.7393093313
 10
159.5792429873
 20
113.6955174172
 10
159.5830660063
 20
113.6531276247
  0
LWPOLYLINE
  5
395
100
AcDbEntity
  8
ASSI
100
AcDbPolyline
 62
253
  6
CONTINUOUS
 90
16
 70
0
 10
159.1661282404
 20
114.2204355763
 10
159.2081889603
 20
114.2003934872
 10
159.2499538156
 20
114.1762316274
 10
159.290966019
 20
114.1482142581
 10
159.3307770148
 20
114.1166478086
 10
159.3689513854
 20
114.0818775253
 10
159.4050716131
 20
114.0442836952
 10
159.4387426466
 20
114.0042774866
 10
159.4695962215
 20
113.9622964525
 10
159.4972948886
 20
113.9187997446
 10
159.521535704
 20
113.8742630918
 10
159.542053543
 20
113.8291735968
 10
159.5586239995
 20
113.7840244093
 10
159.5710658402
 20
113.7393093313
 10
159.5792429873
 20
113.6955174172
 10
159.5830660063
 20
113.6531276247
  0
LINE
  5
396
100
AcDbEntity
  8
0
100
AcDbLine
 62
7
  6
CONTINUOUS
 10
161.1034564902
 20
114.9413423015
 11
161.5490209571
 21
108.2756079749
  0
LINE
  5
397
100
AcDbEntity
  8
ASSI
100
AcDbLine
 62
7
  6
CONTINUOUS
 10
161.1034564902
 20
114.9413423015
 11
161.5490209571
 21
108.2756079749
  0
LINE
  5
398
100
AcDbEntity
  8
0
100
AcDbLine
 62
7
  6
CONTINUOUS
 10
161.5490209571
 20
108.2756079749
 11
161.5490209571
 21
98.118044657
  0
LINE
  5
399
100
AcDbEntity
  8
ASSI
100
AcDbLine
 62
7
  6
CONTINUOUS
 10
161.5490209571
 20
108.2756079749
 11
161.5490209571
 21
98.118044657
  0
LINE
  5
39A
100
AcDbEntity
  8
0
100
AcDbLine
 62
7
  6
CONTINUOUS
 10
161.5490209571
 20
86.8138244145
 11
161.5490209571
 21
96.9713877324
  0
LINE
  5
39B
100
AcDbEntity
  8
ASSI
100
AcDbLine
 62
7
  6
CONTINUOUS
 10
161.5490209571
 20
86.8138244145
 11
161.5490209571
 21
96.9713877324
  0
LINE
  5
39C
100
AcDbEntity
  8
0
100
AcDbLine
 62
7
  6
CONTINUOUS
 10
161.1034564902
 20
79.4573367828
 11
161.5490209571
 21
86.8138244145
  0
LINE
  5
39D
100
AcDbEntity
  8
ASSI
100
AcDbLine
 62
7
  6
CONTINUOUS
 10
161.1034564902
 20
79.4573367828
 11
161.5490209571
 21
86.8138244145
  0
LWPOLYLINE
  5
39E
100
AcDbEntity
  8
0
100
AcDbPolyline
 62
253
  6
CONTINUOUS
 90
8
 70
0
 10
159.4686906988
 20
78.1500569395
 10
159.4972963895
 20
78.1737183778
 10
159.5215368983
 20
78.2009536577
 10
159.5420544012
 20
78.2321058723
 10
159.5586245315
 20
78.2668342916
 10
159.5710660911
 20
78.3047590739
 10
159.579243035
 20
78.3454654173
 10
159.5830659627
 20
78.3885081059
  0
LWPOLYLINE
  5
39F
100
AcDbEntity
  8
ASSI
100
AcDbPolyline
 62
253
  6
CONTINUOUS
 90
8
 70
0
 10
159.4686906988
 20
78.1500569395
 10
159.4972963895
 20
78.1737183778
 10
159.5215368983
 20
78.2009536577
 10
159.5420544012
 20
78.2321058723
 10
159.5586245315
 20
78.2668342916
 10
159.5710660911
 20
78.3047590739
 10
159.579243035
 20
78.3454654173
 10
159.5830659627
 20
78.3885081059
  0
LINE
  5
3A0
100
AcDbEntity
  8
0
100
AcDbLine
 62
253
  6
CONTINUOUS
 10
161.1034564902
 20
79.4573367828
 11
159.5830659627
 21
78.3885081059
  0
LINE
  5
3A1
100
AcDbEntity
  8
ASSI
100
AcDbLine
 62
253
  6
CONTINUOUS
 10
161.1034564902
 20
79.4573367828
 11
159.5830659627
 21
78.3885081059
  0
LINE
  5
3A2
100
AcDbEntity
  8
0
100
AcDbLine
 62
7
  6
CONTINUOUS
 10
160.9801097966
 20
79.2125787359
 11
159.4686906273
 21
78.1500568892
  0
LINE
  5
3A3
100
AcDbEntity
  8
ASSI
100
AcDbLine
 62
7
  6
CONTINUOUS
 10
160.9801097966
 20
79.2125787359
 11
159.4686906273
 21
78.1500568892
  0
LWPOLYLINE
  5
3A4
100
AcDbEntity
  8
0
100
AcDbPolyline
 62
253
  6
CONTINUOUS
 90
22
 70
0
 10
159.5830659627
 20
78.3885081059
 10
159.5536674056
 20
78.3692853915
 10
159.5247643168
 20
78.3531837845
 10
159.4963566961
 20
78.3402032849
 10
159.4682957136
 20
78.330301362
 10
159.4407301994
 20
78.3235205464
 10
159.4141066435
 20
78.3199884305
 10
159.3884520118
 20
78.3197625716
 10
159.3637393385
 20
78.3227854123
 10
159.3403342165
 20
78.3290118731
 10
159.3182560908
 20
78.3384911438
 10
159.2974855164
 20
78.3511740344
 10
159.278329751
 20
78.3668678952
 10
159.2608145622
 20
78.3856170122
 10
159.2449141823
 20
78.4073770994
 10
159.2308585665
 20
78.4318226488
 10
159.2186740917
 20
78.4590100068
 10
159.2083343808
 20
78.4888828271
 10
159.199990258
 20
78.520946563
 10
159.1936919978
 20
78.5550363655
 10
159.1893893257
 20
78.5913170836
 10
159.1870822415
 20
78.6297887173
  0
LWPOLYLINE
  5
3A5
100
AcDbEntity
  8
ASSI
100
AcDbPolyline
 62
253
  6
CONTINUOUS
 90
22
 70
0
 10
159.5830659627
 20
78.3885081059
 10
159.5536674056
 20
78.3692853915
 10
159.5247643168
 20
78.3531837845
 10
159.4963566961
 20
78.3402032849
 10
159.4682957136
 20
78.330301362
 10
159.4407301994
 20
78.3235205464
 10
159.4141066435
 20
78.3199884305
 10
159.3884520118
 20
78.3197625716
 10
159.3637393385
 20
78.3227854123
 10
159.3403342165
 20
78.3290118731
 10
159.3182560908
 20
78.3384911438
 10
159.2974855164
 20
78.3511740344
 10
159.278329751
 20
78.3668678952
 10
159.2608145622
 20
78.3856170122
 10
159.2449141823
 20
78.4073770994
 10
159.2308585665
 20
78.4318226488
 10
159.2186740917
 20
78.4590100068
 10
159.2083343808
 20
78.4888828271
 10
159.199990258
 20
78.520946563
 10
159.1936919978
 20
78.5550363655
 10
159.1893893257
 20
78.5913170836
 10
159.1870822415
 20
78.6297887173
  0
ELLIPSE
  5
3A6
100
AcDbEntity
  8
0
100
AcDbEllipse
 62
7
  6
CONTINUOUS
 10
160.6937756141
 20
79.6224750105
 30
0.0
 11
-0.2850203122
 21
0.4108138748
 31
0.0
 40
0.7191175512
 41
-3.1374309805
 42
-2.401520857
  0
ELLIPSE
  5
3A7
100
AcDbEntity
  8
0
100
AcDbEllipse
 62
7
  6
CONTINUOUS
 10
161.1393045354
 20
97.1358455195
 30
0.0
 11
0.3170403205
 21
-0.3867036085
 31
0.0
 40
0.6711200097
 41
0.6859711218
 42
2.2565390145
  0
ELLIPSE
  5
3A8
100
AcDbEntity
  8
ASSI
100
AcDbEllipse
 62
7
  6
CONTINUOUS
 10
160.6937756141
 20
79.6224750105
 30
0.0
 11
-0.2850203122
 21
0.4108138748
 31
0.0
 40
0.7191175512
 41
-3.1374309805
 42
-2.401520857
  0
ELLIPSE
  5
3A9
100
AcDbEntity
  8
ASSI
100
AcDbEllipse
 62
7
  6
CONTINUOUS
 10
161.1393045354
 20
97.1358455195
 30
0.0
 11
0.3170403205
 21
-0.3867036085
 31
0.0
 40
0.6711200097
 41
0.6859711218
 42
2.2565390145
  0
ELLIPSE
  5
3AA
100
AcDbEntity
  8
0
100
AcDbEllipse
 62
7
  6
CONTINUOUS
 10
125.094400957
 20
129.4028733149
 30
0.0
 11
-0.3432468395
 21
0.3635678883
 31
0.0
 40
0.6190547263
 41
-0.930363261
 42
0.0001592011
  0
ELLIPSE
  5
3AB
100
AcDbEntity
  8
0
100
AcDbEllipse
 62
7
  6
CONTINUOUS
 10
160.6937756141
 20
115.1053618834
 30
0.0
 11
-0.3433580121
 21
0.3640648834
 31
0.0
 40
0.6179721343
 41
-2.4982952834
 42
-0.9288689526
  0
ELLIPSE
  5
3AC
100
AcDbEntity
  8
0
100
AcDbEllipse
 62
7
  6
CONTINUOUS
 10
161.1393045354
 20
98.2826895735
 30
0.0
 11
-0.3170686951
 21
0.3868251561
 31
0.0
 40
0.6708195125
 41
-3.1651785864
 42
-2.4557308722
  0
ELLIPSE
  5
3AD
100
AcDbEntity
  8
0
100
AcDbEllipse
 62
7
  6
CONTINUOUS
 10
157.7605049624
 20
116.2839164321
 30
0.0
 11
0.1999434854
 21
0.0078174272
 31
0.0
 40
0.6081570881
 41
-2.2054349231
 42
-1.1582373719
  0
ELLIPSE
  5
3AE
100
AcDbEntity
  8
0
100
AcDbEllipse
 62
7
  6
CONTINUOUS
 10
155.0007326643
 20
117.3923032046
 30
0.0
 11
0.1999434854
 21
0.0078174272
 31
0.0
 40
0.6081570881
 41
3.1201007963
 42
4.077750384
  0
ELLIPSE
  5
3AF
100
AcDbEntity
  8
0
100
AcDbEllipse
 62
7
  6
CONTINUOUS
 10
148.5860020664
 20
119.9686036294
 30
0.0
 11
0.1999434854
 21
0.0078174272
 31
0.0
 40
0.6081570881
 41
-2.2054349231
 42
-1.1582373719
  0
ELLIPSE
  5
3B0
100
AcDbEntity
  8
0
100
AcDbEllipse
 62
7
  6
CONTINUOUS
 10
145.8262297682
 20
121.076990402
 30
0.0
 11
0.1999434854
 21
0.0078174272
 31
0.0
 40
0.6081570881
 41
3.1201007963
 42
4.077750384
  0
ELLIPSE
  5
3B1
100
AcDbEntity
  8
0
100
AcDbEllipse
 62
7
  6
CONTINUOUS
 10
136.5698116678
 20
124.7945765922
 30
0.0
 11
0.1999434854
 21
0.0078174272
 31
0.0
 40
0.6081570881
 41
3.1201007963
 42
4.077750384
  0
ELLIPSE
  5
3B2
100
AcDbEntity
  8
0
100
AcDbEllipse
 62
7
  6
CONTINUOUS
 10
139.3295839659
 20
123.6861898197
 30
0.0
 11
0.1999434854
 21
0.0078174272
 31
0.0
 40
0.6081570881
 41
-2.2054349231
 42
-1.1582373719
  0
ELLIPSE
  5
3B3
100
AcDbEntity
  8
0
100
AcDbEllipse
 62
7
  6
CONTINUOUS
 10
130.1550810699
 20
127.370877017
 30
0.0
 11
0.1999434854
 21
0.0078174272
 31
0.0
 40
0.6081570881
 41
-2.2054349231
 42
-1.1582373719
  0
ELLIPSE
  5
3B4
100
AcDbEntity
  8
0
100
AcDbEllipse
 62
7
  6
CONTINUOUS
 10
127.3953087717
 20
128.4792637896
 30
0.0
 11
0.1999434854
 21
0.0078174272
 31
0.0
 40
0.6081570881
 41
3.1201007963
 42
4.077750384
  0
ELLIPSE
  5
3B5
100
AcDbEntity
  8
ASSI
100
AcDbEllipse
 62
7
  6
CONTINUOUS
 10
125.094400957
 20
129.4028733149
 30
0.0
 11
-0.3432468395
 21
0.3635678883
 31
0.0
 40
0.6190547263
 41
-0.930363261
 42
0.0001592011
  0
ELLIPSE
  5
3B6
100
AcDbEntity
  8
ASSI
100
AcDbEllipse
 62
7
  6
CONTINUOUS
 10
160.6937756141
 20
115.1053618834
 30
0.0
 11
-0.3433580121
 21
0.3640648834
 31
0.0
 40
0.6179721343
 41
-2.4982952834
 42
-0.9288689526
  0
ELLIPSE
  5
3B7
100
AcDbEntity
  8
ASSI
100
AcDbEllipse
 62
7
  6
CONTINUOUS
 10
161.1393045354
 20
98.2826895735
 30
0.0
 11
-0.3170686951
 21
0.3868251561
 31
0.0
 40
0.6708195125
 41
-3.1651785864
 42
-2.4557308722
  0
ELLIPSE
  5
3B8
100
AcDbEntity
  8
ASSI
100
AcDbEllipse
 62
7
  6
CONTINUOUS
 10
157.7605049624
 20
116.2839164321
 30
0.0
 11
0.1999434854
 21
0.0078174272
 31
0.0
 40
0.6081570881
 41
-2.2054349231
 42
-1.1582373719
  0
ELLIPSE
  5
3B9
100
AcDbEntity
  8
ASSI
100
AcDbEllipse
 62
7
  6
CONTINUOUS
 10
155.0007326643
 20
117.3923032046
 30
0.0
 11
0.1999434854
 21
0.0078174272
 31
0.0
 40
0.6081570881
 41
3.1201007963
 42
4.077750384
  0
ELLIPSE
  5
3BA
100
AcDbEntity
  8
ASSI
100
AcDbEllipse
 62
7
  6
CONTINUOUS
 10
148.5860020664
 20
119.9686036294
 30
0.0
 11
0.1999434854
 21
0.0078174272
 31
0.0
 40
0.6081570881
 41
-2.2054349231
 42
-1.1582373719
  0
ELLIPSE
  5
3BB
100
AcDbEntity
  8
ASSI
100
AcDbEllipse
 62
7
  6
CONTINUOUS
 10
145.8262297682
 20
121.076990402
 30
0.0
 11
0.1999434854
 21
0.0078174272
 31
0.0
 40
0.6081570881
 41
3.1201007963
 42
4.077750384
  0
ELLIPSE
  5
3BC
100
AcDbEntity
  8
ASSI
100
AcDbEllipse
 62
7
  6
CONTINUOUS
 10
136.5698116678
 20
124.7945765922
 30
0.0
 11
0.1999434854
 21
0.0078174272
 31
0.0
 40
0.6081570881
 41
3.1201007963
 42
4.077750384
  0
ELLIPSE
  5
3BD
100
AcDbEntity
  8
ASSI
100
AcDbEllipse
 62
7
  6
CONTINUOUS
 10
139.3295839659
 20
123.6861898197
 30
0.0
 11
0.1999434854
 21
0.0078174272
 31
0.0
 40
0.6081570881
 41
-2.2054349231
 42
-1.1582373719
  0
ELLIPSE
  5
3BE
100
AcDbEntity
  8
ASSI
100
AcDbEllipse
 62
7
  6
CONTINUOUS
 10
130.1550810699
 20
127.370877017
 30
0.0
 11
0.1999434854
 21
0.0078174272
 31
0.0
 40
0.6081570881
 41
-2.2054349231
 42
-1.1582373719
  0
ELLIPSE
  5
3BF
100
AcDbEntity
  8
ASSI
100
AcDbEllipse
 62
7
  6
CONTINUOUS
 10
127.3953087717
 20
128.4792637896
 30
0.0
 11
0.1999434854
 21
0.0078174272
 31
0.0
 40
0.6081570881
 41
3.1201007963
 42
4.077750384
  0
ENDSEC
  0
SECTION
  2
OBJECTS
  0
DICTIONARY
  5
C
100
AcDbDictionary
280
0
281
1
  3
ACAD_GROUP
350
D
  3
ACAD_MLINESTYLE
350
17
  3
ACAD_LAYOUT
350
1A
  3
ACAD_PLOTSETTINGS
350
19
  3
ACAD_PLOTSTYLENAME
350
E
  0
DICTIONARY
  5
D
102
{ACAD_REACTORS
330
C
102
}
100
AcDbDictionary
280
0
281
1
  0
ACDBDICTIONARYWDFLT
  5
E
102
{ACAD_REACTORS
330
C
102
}
100
AcDbDictionary
281
1
  3
Normal
350
F
100
AcDbDictionaryWithDefault
340
F
  0
DICTIONARY
  5
17
102
{ACAD_REACTORS
330
C
102
}
100
AcDbDictionary
280
0
281
1
  3
Standard
350
18
  0
DICTIONARY
  5
19
102
{ACAD_REACTORS
330
C
102
}
100
AcDbDictionary
281
1
  0
DICTIONARY
  5
1A
102
{ACAD_REACTORS
330
C
102
}
100
AcDbDictionary
281
1
  3
Model
350
3C0
  3
Layout1
350
3C1
  0
ACDBPLACEHOLDER
  5
F
102
{ACAD_REACTORS
330
E
102
}
  0
MLINESTYLE
  5
18
102
{ACAD_REACTORS
330
17
102
}
100
AcDbMlineStyle
  2
STANDARD
 70
0
  3

 62
256
 51
90.0
 52
90.0
 71
2
 49
0.5
 62
256
  6
BYLAYER
 49
-0.5
 62
256
  6
BYLAYER
  0
LAYOUT
  5
3C0
102
{ACAD_REACTORS
330
1A
102
}
100
AcDbPlotSettings
  1

  2
none_device
  4
ISO_A4_(297.00_x_210.00_MM)
  6

 40
0.0
 41
0.0
 42
0.0
 43
0.0
 44
297.0
 45
210.0
 46
0.0
 47
0.0
 48
0.0
 49
0.0
140
0.0
141
0.0
142
1.0
143
1.0
 70
1024
 72
1
 73
0
 74
0
  7

 75
0
147
1.0
148
0.0
149
0.0
100
AcDbLayout
  1
Model
 70
0
 71
0
 10
0.0
 20
0.0
 11
297.0
 21
210.0
 12
0.0
 22
0.0
 32
0.0
 14
0.0
 24
0.0
 34
0.0
 15
0.0
 25
0.0
 35
0.0
146
0.0
 13
0.0
 23
0.0
 33
0.0
 16
1.0
 26
0.0
 36
0.0
 17
0.0
 27
1.0
 37
0.0
 76
0
330
21F
345
0
346
0
  0
LAYOUT
  5
3C1
102
{ACAD_REACTORS
330
1A
102
}
100
AcDbPlotSettings
  1

  2
none_device
  4
ISO_A4_(297.00_x_210.00_MM)
  6

 40
0.0
 41
0.0
 42
0.0
 43
0.0
 44
297.0
 45
210.0
 46
0.0
 47
0.0
 48
0.0
 49
0.0
140
0.0
141
0.0
142
1.0
143
1.0
 70
0
 72
1
 73
0
 74
0
  7

 75
0
147
1.0
148
0.0
149
0.0
100
AcDbLayout
  1
Layout1
 70
0
 71
1
 10
0.0
 20
0.0
 11
297.0
 21
210.0
 12
0.0
 22
0.0
 32
0.0
 14
0.0
 24
0.0
 34
0.0
 15
0.0
 25
0.0
 35
0.0
146
0.0
 13
0.0
 23
0.0
 33
0.0
 16
1.0
 26
0.0
 36
0.0
 17
0.0
 27
1.0
 37
0.0
 76
0
330
220
345
0
346
0
  0
ENDSEC
  0
EOF
