  0
SECTION
  2
HEADER
  9
$ACADVER
  1
AC1015
  9
$DWGCODEPAGE
  3
ANSI_1252
  9
$EXTMAX
 10
297.0
 20
210.0
 30
0.0
  9
$EXTMIN
 10
0.0
 20
0.0
 30
0.0
  9
$LIMMIN
 10
0.0
 20
0.0
  9
$LIMMAX
 10
297.0
 20
210.0
  9
$VIEWCTR
 10
148.5
 20
105.0
  9
$VIEWSIZE
 40
210.0
  9
$CLAYER
  8
0
  9
$LTSCALE
 40
16.335
  9
$CELTYPE
  6
BYLAYER
  9
$DIMSCALE
 40
1.0
  9
$DIMASZ
 40
3.0
  9
$DIMEXO
 40
0.5
  9
$DIMDLI
 40
11.286
  9
$DIMEXE
 40
1.5
  9
$DIMCEN
 40
2.673
  9
$DIMLFAC
 40
1.0
  9
$DIMBLK
  1
_FILLED
  9
$DIMTXT
 40
3.0
  9
$DIMTOL
 70
1
  9
$DIMLIM
 70
0
  9
$DIMTFAC
 40
1.0
  9
$DIMTP
 40
0.01
  9
$DIMTM
 40
0.01
  9
$DIMGAP
 40
0.625
  9
$DIMDSEP
 70
44
  9
$PDMODE
 70
3
  9
$PDSIZE
 40
3.0
  9
$HANDSEED
  5
2ED
  9
$TILEMODE
 70
1
  9
$MEASUREMENT
 70
1
  9
$INSUNITS
 70
4
  0
ENDSEC
  0
SECTION
  2
CLASSES
  0
CLASS
  1
ACDBDICTIONARYWDFLT
  2
AcDbDictionaryWithDefault
  3
AutoCAD 2000
 90
0
280
0
281
0
  0
CLASS
  1
ACDBPLACEHOLDER
  2
AcDbPlaceHolder
  3
AutoCAD 2000
 90
0
280
0
281
0
  0
CLASS
  1
LAYOUT
  2
AcDbLayout
  3
AutoCAD 2000
 90
0
280
0
281
0
  0
ENDSEC
  0
SECTION
  2
TABLES
  0
TABLE
  2
VPORT
  5
8
100
AcDbSymbolTable
 70
2
  0
VPORT
  5
1F4
100
AcDbSymbolTableRecord
100
AcDbViewportTableRecord
  2
*ACTIVE
 70
0
 10
0.0
 20
0.0
 11
1.0
 21
1.0
 12
148.5
 22
105.0
 13
0.0
 23
0.0
 14
1.0
 24
1.0
 15
0.0
 25
0.0
 16
0.0
 26
0.0
 36
1.0
 17
0.0
 27
0.0
 37
0.0
 40
210.0
 41
1.4142857143
 42
50.0
 43
0.0
 44
0.0
 50
0.0
 51
0.0
 71
0
 72
100
 73
1
 74
1
 75
0
 76
0
 77
0
 78
0
  0
ENDTAB
  0
TABLE
  2
LTYPE
  5
5
100
AcDbSymbolTable
 70
6
  0
LTYPE
  5
14
100
AcDbSymbolTableRecord
100
AcDbLinetypeTableRecord
  2
BYBLOCK
 70
0
  3

 72
65
 73
0
 40
0.0
  0
LTYPE
  5
15
100
AcDbSymbolTableRecord
100
AcDbLinetypeTableRecord
  2
BYLAYER
 70
0
  3

 72
65
 73
0
 40
0.0
  0
LTYPE
  5
16
100
AcDbSymbolTableRecord
100
AcDbLinetypeTableRecord
  2
CONTINUOUS
 70
64
  3
Solid line
 72
65
 73
0
 40
0.0
  0
LTYPE
  5
1F5
100
AcDbSymbolTableRecord
100
AcDbLinetypeTableRecord
  2
CENTER
 70
64
  3
____ _ ____ _ ____ _ ____ _ ____ _ ____ _ ____
 72
65
 73
4
 40
0.6
 49
0.375
 74
0
 49
-0.075
 74
0
 49
0.075
 74
0
 49
-0.075
 74
0
  0
LTYPE
  5
1F6
100
AcDbSymbolTableRecord
100
AcDbLinetypeTableRecord
  2
HIDDEN
 70
64
  3
- - - - - - - - - - - - - - - - - - - -
 72
65
 73
2
 40
0.2
 49
0.1
 74
0
 49
-0.1
 74
0
  0
LTYPE
  5
1F7
100
AcDbSymbolTableRecord
100
AcDbLinetypeTableRecord
  2
PHANTOM
 70
64
  3
_____ _ _ _____ _ _ _____ _ _ _____
 72
65
 73
6
 40
0.8
 49
0.45
 74
0
 49
-0.05
 74
0
 49
0.1
 74
0
 49
-0.05
 74
0
 49
0.1
 74
0
 49
-0.05
 74
0
  0
LTYPE
  5
1F8
100
AcDbSymbolTableRecord
100
AcDbLinetypeTableRecord
  2
DOT
 70
64
  3
. . . . . . . . . . . . . . . . . . . .
 72
65
 73
2
 40
0.2
 49
0.1
 74
0
 49
-0.1
 74
0
  0
LTYPE
  5
1F9
100
AcDbSymbolTableRecord
100
AcDbLinetypeTableRecord
  2
DASHED
 70
64
  3
- - - - - - - - - - - - - - - - - - - -
 72
65
 73
2
 40
0.2
 49
0.1
 74
0
 49
-0.1
 74
0
  0
ENDTAB
  0
TABLE
  2
LAYER
  5
2
100
AcDbSymbolTable
 70
36
  0
LAYER
  5
10
100
AcDbSymbolTableRecord
100
AcDbLayerTableRecord
  2
0
 70
0
 62
7
  6
CONTINUOUS
370
-3
390
F
  0
LAYER
  5
1FA
100
AcDbSymbolTableRecord
100
AcDbLayerTableRecord
  2
DEFAULT_1
 70
0
 62
7
  6
CENTER
370
-3
390
F
  0
LAYER
  5
1FB
100
AcDbSymbolTableRecord
100
AcDbLayerTableRecord
  2
DEFAULT_2
 70
0
 62
7
  6
HIDDEN
370
-3
390
F
  0
LAYER
  5
1FC
100
AcDbSymbolTableRecord
100
AcDbLayerTableRecord
  2
DEFAULT_3
 70
0
 62
7
  6
PHANTOM
370
-3
390
F
  0
LAYER
  5
1FD
100
AcDbSymbolTableRecord
100
AcDbLayerTableRecord
  2
ASSI
 70
0
 62
7
  6
CONTINUOUS
370
-3
390
F
  0
LAYER
  5
1FE
100
AcDbSymbolTableRecord
100
AcDbLayerTableRecord
  2
COLOR3
 70
0
 62
7
  6
CONTINUOUS
370
-3
390
F
  0
LAYER
  5
1FF
100
AcDbSymbolTableRecord
100
AcDbLayerTableRecord
  2
COORDINATE
 70
0
 62
7
  6
CONTINUOUS
370
-3
390
F
  0
LAYER
  5
200
100
AcDbSymbolTableRecord
100
AcDbLayerTableRecord
  2
COPY_PUBLISH
 70
0
 62
7
  6
CONTINUOUS
370
-3
390
F
  0
LAYER
  5
201
100
AcDbSymbolTableRecord
100
AcDbLayerTableRecord
  2
COSMETIC
 70
0
 62
7
  6
CONTINUOUS
370
-3
390
F
  0
LAYER
  5
202
100
AcDbSymbolTableRecord
100
AcDbLayerTableRecord
  2
COSMETICI
 70
0
 62
7
  6
CONTINUOUS
370
-3
390
F
  0
LAYER
  5
203
100
AcDbSymbolTableRecord
100
AcDbLayerTableRecord
  2
CURVE
 70
0
 62
7
  6
CONTINUOUS
370
-3
390
F
  0
LAYER
  5
204
100
AcDbSymbolTableRecord
100
AcDbLayerTableRecord
  2
DRAFT
 70
0
 62
7
  6
CONTINUOUS
370
-3
390
F
  0
LAYER
  5
205
100
AcDbSymbolTableRecord
100
AcDbLayerTableRecord
  2
IMPORT_IGES
 70
0
 62
7
  6
CONTINUOUS
370
-3
390
F
  0
LAYER
  5
206
100
AcDbSymbolTableRecord
100
AcDbLayerTableRecord
  2
INTFCLR_1
 70
0
 62
7
  6
CONTINUOUS
370
-3
390
F
  0
LAYER
  5
207
100
AcDbSymbolTableRecord
100
AcDbLayerTableRecord
  2
INTF_10
 70
0
 62
7
  6
CONTINUOUS
370
-3
390
F
  0
LAYER
  5
208
100
AcDbSymbolTableRecord
100
AcDbLayerTableRecord
  2
INTF_13
 70
0
 62
7
  6
CONTINUOUS
370
-3
390
F
  0
LAYER
  5
209
100
AcDbSymbolTableRecord
100
AcDbLayerTableRecord
  2
INTF_15
 70
0
 62
7
  6
CONTINUOUS
370
-3
390
F
  0
LAYER
  5
20A
100
AcDbSymbolTableRecord
100
AcDbLayerTableRecord
  2
INTF_16
 70
0
 62
7
  6
CONTINUOUS
370
-3
390
F
  0
LAYER
  5
20B
100
AcDbSymbolTableRecord
100
AcDbLayerTableRecord
  2
INTF_18
 70
0
 62
7
  6
CONTINUOUS
370
-3
390
F
  0
LAYER
  5
20C
100
AcDbSymbolTableRecord
100
AcDbLayerTableRecord
  2
INTF_20
 70
0
 62
7
  6
CONTINUOUS
370
-3
390
F
  0
LAYER
  5
20D
100
AcDbSymbolTableRecord
100
AcDbLayerTableRecord
  2
INTF_3
 70
0
 62
7
  6
CONTINUOUS
370
-3
390
F
  0
LAYER
  5
20E
100
AcDbSymbolTableRecord
100
AcDbLayerTableRecord
  2
INTF_5
 70
0
 62
7
  6
CONTINUOUS
370
-3
390
F
  0
LAYER
  5
20F
100
AcDbSymbolTableRecord
100
AcDbLayerTableRecord
  2
INTF_8
 70
0
 62
7
  6
CONTINUOUS
370
-3
390
F
  0
LAYER
  5
210
100
AcDbSymbolTableRecord
100
AcDbLayerTableRecord
  2
NOTE
 70
0
 62
7
  6
CONTINUOUS
370
-3
390
F
  0
LAYER
  5
211
100
AcDbSymbolTableRecord
100
AcDbLayerTableRecord
  2
PIANI
 70
0
 62
7
  6
CONTINUOUS
370
-3
390
F
  0
LAYER
  5
212
100
AcDbSymbolTableRecord
100
AcDbLayerTableRecord
  2
PUNTI
 70
0
 62
7
  6
CONTINUOUS
370
-3
390
F
  0
LAYER
  5
213
100
AcDbSymbolTableRecord
100
AcDbLayerTableRecord
  2
RACCORDO
 70
0
 62
7
  6
CONTINUOUS
370
-3
390
F
  0
LAYER
  5
214
100
AcDbSymbolTableRecord
100
AcDbLayerTableRecord
  2
SIMBOLI
 70
0
 62
7
  6
CONTINUOUS
370
-3
390
F
  0
LAYER
  5
215
100
AcDbSymbolTableRecord
100
AcDbLayerTableRecord
  2
SNAPLINE
 70
0
 62
7
  6
CONTINUOUS
370
-3
390
F
  0
LAYER
  5
216
100
AcDbSymbolTableRecord
100
AcDbLayerTableRecord
  2
SOLIDO
 70
0
 62
7
  6
CONTINUOUS
370
-3
390
F
  0
LAYER
  5
217
100
AcDbSymbolTableRecord
100
AcDbLayerTableRecord
  2
SUPERFICI
 70
0
 62
7
  6
CONTINUOUS
370
-3
390
F
  0
LAYER
  5
218
100
AcDbSymbolTableRecord
100
AcDbLayerTableRecord
  2
SUPERFICI_SKEL
 70
0
 62
7
  6
CONTINUOUS
370
-3
390
F
  0
LAYER
  5
219
100
AcDbSymbolTableRecord
100
AcDbLayerTableRecord
  2
TRASH
 70
0
 62
7
  6
CONTINUOUS
370
-3
390
F
  0
LAYER
  5
21A
100
AcDbSymbolTableRecord
100
AcDbLayerTableRecord
  2
___SHELL
 70
0
 62
7
  6
CONTINUOUS
370
-3
390
F
  0
ENDTAB
  0
TABLE
  2
STYLE
  5
3
100
AcDbSymbolTable
 70
1
  0
STYLE
  5
11
100
AcDbSymbolTableRecord
100
AcDbTextStyleTableRecord
  2
STANDARD
 70
0
 40
0.0
 41
0.8
 50
0.0
 71
0
 42
0.2
  3
txt
  4

  0
STYLE
  5
21B
100
AcDbSymbolTableRecord
100
AcDbTextStyleTableRecord
  2
TEXTSTYLE_1
 70
0
 40
0.0
 41
0.8
 50
0.0
 71
0
 42
0.2
  3
gdt
  4

  0
ENDTAB
  0
TABLE
  2
VIEW
  5
6
100
AcDbSymbolTable
 70
0
  0
ENDTAB
  0
TABLE
  2
UCS
  5
7
100
AcDbSymbolTable
 70
0
  0
ENDTAB
  0
TABLE
  2
APPID
  5
9
100
AcDbSymbolTable
 70
1
  0
APPID
  5
21C
100
AcDbSymbolTableRecord
100
AcDbRegAppTableRecord
  2
ACAD
 70
0
  0
ENDTAB
  0
TABLE
  2
BLOCK_RECORD
  5
1
100
AcDbSymbolTable
 70
0
  0
BLOCK_RECORD
  5
21D
100
AcDbSymbolTableRecord
100
AcDbBlockTableRecord
  2
*Model_Space
  0
BLOCK_RECORD
  5
21E
100
AcDbSymbolTableRecord
100
AcDbBlockTableRecord
  2
*Paper_Space
  0
ENDTAB
  0
TABLE
  2
DIMSTYLE
  5
A
100
AcDbSymbolTable
 70
1
100
AcDbDimStyleTable
 71
0
  0
DIMSTYLE
105
21F
100
AcDbSymbolTableRecord
100
AcDbDimStyleTableRecord
  2
STANDARD
 70
0
  3

  4

 40
1.0
 41
3.0
 42
0.5
 43
0.38
 44
1.5
 45
0.0
 46
0.0
 47
0.01
 48
0.01
140
3.0
141
0.09
142
0.0
143
25.4
144
1.0
145
0.0
146
1.0
147
0.625
 71
1.0
 72
0.0
 73
0
 74
0
 75
0
 76
0
 77
1
 78
8
170
0
171
2
172
0
173
0
174
0
175
0
176
0
177
0
178
0
270
2
271
2
272
2
273
2
274
2
275
0
280
0
281
0
282
0
283
1
284
8
285
0
286
0
287
3
288
0
340
11
278
44
  0
ENDTAB
  0
ENDSEC
  0
SECTION
  2
BLOCKS
  0
BLOCK
  5
20
100
AcDbEntity
  8
0
100
AcDbBlockBegin
  2
*Model_Space
 70
0
 10
0.0
 20
0.0
 30
0.0
  3
*Model_Space
  1

  0
ENDBLK
  5
21
100
AcDbEntity
  8
0
100
AcDbBlockEnd
  0
BLOCK
  5
1C
100
AcDbEntity
  8
0
100
AcDbBlockBegin
  2
*Paper_Space
 70
0
 10
0.0
 20
0.0
 30
0.0
  3
*Paper_Space
  1

  0
ENDBLK
  5
1D
100
AcDbEntity
  8
0
100
AcDbBlockEnd
  0
ENDSEC
  0
SECTION
  2
ENTITIES
  0
LWPOLYLINE
  5
220
100
AcDbEntity
  8
0
100
AcDbPolyline
 62
7
  6
CONTINUOUS
 90
18
 70
0
 10
130.5134129974
 20
129.856592613
 10
130.4564863739
 20
129.7981443324
 10
130.4032784507
 20
129.7363263181
 10
130.3536420036
 20
129.6716578521
 10
130.3072589559
 20
129.6043427867
 10
130.2638902578
 20
129.5344700693
 10
130.2235294932
 20
129.4623851697
 10
130.1861587225
 20
129.3883326895
 10
130.1517640551
 20
129.3124442529
 10
130.1204234905
 20
129.2350056208
 10
130.0922444007
 20
129.1562750224
 10
130.0673113892
 20
129.0763950063
 10
130.0457712579
 20
128.9955911943
 10
130.0278285776
 20
128.9141458888
 10
130.0136574322
 20
128.8321092445
 10
130.0035217385
 20
128.7495314682
 10
129.9977638794
 20
128.6666993656
 10
129.997094836
 20
128.6475462132
  0
LINE
  5
221
100
AcDbEntity
  8
0
100
AcDbLine
 62
7
  6
CONTINUOUS
 10
133.0701897888
 20
132.271117068
 11
130.5134129974
 21
129.856592613
  0
LINE
  5
222
100
AcDbEntity
  8
0
100
AcDbLine
 62
253
  6
CONTINUOUS
 10
133.398532278
 20
132.3043681034
 11
130.8493234956
 21
129.8970653065
  0
LINE
  5
223
100
AcDbEntity
  8
0
100
AcDbLine
 62
7
  6
CONTINUOUS
 10
130.5214879787
 20
129.8642918104
 11
130.5210423979
 21
129.863872245
  0
LWPOLYLINE
  5
224
100
AcDbEntity
  8
0
100
AcDbPolyline
 62
253
  6
CONTINUOUS
 90
22
 70
0
 10
130.8493234956
 20
129.8970653064
 10
130.8001621741
 20
129.8517962002
 10
130.7513939707
 20
129.8020663519
 10
130.7032773505
 20
129.7481158209
 10
130.6560850967
 20
129.6901998874
 10
130.6100487625
 20
129.628604723
 10
130.5653578186
 20
129.5636447739
 10
130.5222450955
 20
129.4956309804
 10
130.4809425544
 20
129.4248954942
 10
130.4416256624
 20
129.3518067254
 10
130.4045000669
 20
129.2767227151
 10
130.3697631449
 20
129.2000058113
 10
130.3375600404
 20
129.1220462913
 10
130.3080573281
 20
129.043224516
 10
130.2814131542
 20
128.9639238329
 10
130.2577384108
 20
128.8845456808
 10
130.2371554226
 20
128.8054847618
 10
130.2197731935
 20
128.7271195572
 10
130.2056601783
 20
128.649825766
 10
130.1948849668
 20
128.5739797727
 10
130.1875134709
 20
128.4999562254
 10
130.1835860013
 20
128.4281190392
  0
LINE
  5
225
100
AcDbEntity
  8
0
100
AcDbLine
 62
7
  6
CONTINUOUS
 10
140.096833082
 20
129.6141794909
 11
137.5851992669
 21
128.8393783079
  0
LWPOLYLINE
  5
226
100
AcDbEntity
  8
0
100
AcDbPolyline
 62
253
  6
CONTINUOUS
 90
10
 70
0
 10
129.7491260786
 20
111.9496384504
 10
129.7514409873
 20
111.9219514321
 10
129.7584616927
 20
111.8944022996
 10
129.77012197
 20
111.8673705448
 10
129.7863115489
 20
111.8411117828
 10
129.8068773438
 20
111.8158742945
 10
129.8316248974
 20
111.7918967056
 10
129.8603202092
 20
111.769405737
 10
129.8926919421
 20
111.74861406
 10
129.9284339993
 20
111.7297182739
  0
LWPOLYLINE
  5
227
100
AcDbEntity
  8
0
100
AcDbPolyline
 62
253
  6
CONTINUOUS
 90
12
 70
0
 10
130.1835860157
 20
94.2248063638
 10
130.1875134849
 20
94.1590134377
 10
130.1948849813
 20
94.0965099122
 10
130.2056601937
 20
94.0376045828
 10
130.2197732094
 20
93.9825956716
 10
130.2371554383
 20
93.9317485347
 10
130.2577384261
 20
93.8852972824
 10
130.2814131693
 20
93.8434746159
 10
130.3080573433
 20
93.8064947707
 10
130.3375600554
 20
93.7745334484
 10
130.3697631597
 20
93.7477564651
 10
130.4038684047
 20
93.7266917998
  0
LWPOLYLINE
  5
228
100
AcDbEntity
  8
0
100
AcDbPolyline
 62
7
  6
CONTINUOUS
 90
14
 70
0
 10
129.9971310375
 20
94.4504571593
 10
129.9981465748
 20
94.4250941369
 10
130.0060164161
 20
94.3354785307
 10
130.0201460454
 20
94.2514508235
 10
130.0402243185
 20
94.1728883599
 10
130.0660312068
 20
94.0994882463
 10
130.0973919237
 20
94.0311408242
 10
130.133980363
 20
93.9680606609
 10
130.1755125265
 20
93.9103256448
 10
130.221710428
 20
93.8580550408
 10
130.2720271651
 20
93.8116271621
 10
130.3259607603
 20
93.7712298932
 10
130.3831686651
 20
93.7369198379
 10
130.4177185261
 20
93.7198482562
  0
LWPOLYLINE
  5
229
100
AcDbEntity
  8
0
100
AcDbPolyline
 62
253
  6
CONTINUOUS
 90
9
 70
0
 10
129.9284339993
 20
111.7297182739
 10
129.9298346474
 20
111.6876861439
 10
129.9351472216
 20
111.6492046716
 10
129.9439242433
 20
111.6142050083
 10
129.9557038903
 20
111.5826867732
 10
129.9706479123
 20
111.5548630582
 10
129.9890204142
 20
111.5311797111
 10
130.010010726
 20
111.5122105207
 10
130.0330460559
 20
111.4982183396
  0
LWPOLYLINE
  5
22A
100
AcDbEntity
  8
0
100
AcDbPolyline
 62
7
  6
CONTINUOUS
 90
10
 70
0
 10
129.7491260261
 20
110.7201822176
 10
129.7536724189
 20
108.9446845461
 10
129.7640691728
 20
107.1080880155
 10
129.7802525413
 20
105.2764045538
 10
129.8022231315
 20
103.4496736393
 10
129.8299810922
 20
101.6279322993
 10
129.8635265642
 20
99.8112165674
 10
129.9028590069
 20
97.9995676176
 10
129.9479772578
 20
96.1930313007
 10
129.9971192514
 20
94.4506402572
  0
LWPOLYLINE
  5
22B
100
AcDbEntity
  8
0
100
AcDbPolyline
 62
253
  6
CONTINUOUS
 90
10
 70
0
 10
129.9284341677
 20
110.5000446742
 10
129.9327519367
 20
108.8119360909
 10
129.9422405876
 20
107.1029556674
 10
129.9571285001
 20
105.3733252914
 10
129.9774755689
 20
103.6364328944
 10
130.0036041336
 20
101.8792795694
 10
130.0365173756
 20
100.0628351394
 10
130.0771489621
 20
98.174631413
 10
130.1259448575
 20
96.2284076783
 10
130.1835860097
 20
94.2248063529
  0
LWPOLYLINE
  5
22C
100
AcDbEntity
  8
0
100
AcDbPolyline
 62
7
  6
CONTINUOUS
 90
10
 70
0
 10
129.9970980103
 20
128.6478782384
 10
129.9481037016
 20
126.8261089371
 10
129.9029731341
 20
124.9415599446
 10
129.8636273439
 20
123.0619031248
 10
129.8300675182
 20
121.1871844417
 10
129.8022942016
 20
119.3174437723
 10
129.7803077151
 20
117.4527186694
 10
129.7641081764
 20
115.5930470967
 10
129.7536946706
 20
113.7384680126
 10
129.7491260785
 20
111.9496384504
  0
LWPOLYLINE
  5
22D
100
AcDbEntity
  8
0
100
AcDbPolyline
 62
253
  6
CONTINUOUS
 90
10
 70
0
 10
130.1835860113
 20
128.4281190405
 10
130.1300841483
 20
126.4887816603
 10
130.0835947192
 20
124.5863993116
 10
130.0438094372
 20
122.720776625
 10
130.0107760233
 20
120.9126532897
 10
129.9837173265
 20
119.1407976621
 10
129.9616708402
 20
117.3425103683
 10
129.9447667889
 20
115.497273893
 10
129.9335880957
 20
113.6262489708
 10
129.9284341588
 20
111.7297181958
  0
LWPOLYLINE
  5
22E
100
AcDbEntity
  8
0
100
AcDbPolyline
 62
253
  6
CONTINUOUS
 90
16
 70
0
 10
129.9284339457
 20
110.5000447112
 10
129.9298346163
 20
110.544822849
 10
129.9351475801
 20
110.5903045986
 10
129.9439252268
 20
110.6366138707
 10
129.9557055553
 20
110.6842776431
 10
129.9706502803
 20
110.7329834313
 10
129.9890235484
 20
110.7813388915
 10
130.0100145072
 20
110.8287888106
 10
130.0332928941
 20
110.875359022
 10
130.0593523152
 20
110.9201791583
 10
130.0874365577
 20
110.9627155949
 10
130.1168392456
 20
111.0027466608
 10
130.1480879957
 20
111.0396673224
 10
130.1808671355
 20
111.0730105116
 10
130.2139715391
 20
111.102590296
 10
130.2466230854
 20
111.1282150306
  0
LINE
  5
22F
100
AcDbEntity
  8
0
100
AcDbLine
 62
7
  6
CONTINUOUS
 10
149.271335978
 20
125.9294922935
 11
146.7597021629
 21
125.1546911105
  0
LWPOLYLINE
  5
230
100
AcDbEntity
  8
0
100
AcDbPolyline
 62
253
  6
CONTINUOUS
 90
16
 70
0
 10
165.4544685711
 20
80.0592247292
 10
165.4977981402
 20
80.0460633989
 10
165.5432134822
 20
80.035577384
 10
165.5902742536
 20
80.027868356
 10
165.6385241572
 20
80.0230110609
 10
165.6874953661
 20
80.0210525948
 10
165.7367130595
 20
80.0220119468
 10
165.785700027
 20
80.025879815
 10
165.8339812949
 20
80.032618697
 10
165.8810887323
 20
80.0421632531
 10
165.9265655894
 20
80.0544209401
 10
165.9699709264
 20
80.0692729085
 10
166.010883889
 20
80.0865751549
 10
166.0489077884
 20
80.1061599183
 10
166.0836739483
 20
80.1278373063
 10
166.1148452788
 20
80.1513971369
  0
LWPOLYLINE
  5
231
100
AcDbEntity
  8
0
100
AcDbPolyline
 62
7
  6
CONTINUOUS
 90
12
 70
0
 10
165.6994928918
 20
79.5498135719
 10
165.7318080539
 20
79.5393704218
 10
165.7994959885
 20
79.5231467475
 10
165.869270801
 20
79.5138959603
 10
165.9406080416
 20
79.5118303758
 10
166.0133387267
 20
79.5171659743
 10
166.0870225276
 20
79.5301511657
 10
166.1609791678
 20
79.5509073794
 10
166.2349978839
 20
79.5796283211
 10
166.3089163127
 20
79.6165910808
 10
166.3823385217
 20
79.6619334026
 10
166.3960009017
 20
79.6713639975
  0
LINE
  5
232
100
AcDbEntity
  8
0
100
AcDbLine
 62
7
  6
CONTINUOUS
 10
134.5409954643
 20
130.0508252674
 11
134.5416643768
 21
130.0617305347
  0
LINE
  5
233
100
AcDbEntity
  8
0
100
AcDbLine
 62
7
  6
CONTINUOUS
 10
134.7831974562
 20
131.7482553513
 11
134.5416643768
 21
130.0617305347
  0
LINE
  5
234
100
AcDbEntity
  8
0
100
AcDbLine
 62
7
  6
CONTINUOUS
 10
134.7831974562
 20
130.5061258241
 11
134.6998148704
 21
129.9238999833
  0
LWPOLYLINE
  5
235
100
AcDbEntity
  8
0
100
AcDbPolyline
 62
7
  6
CONTINUOUS
 90
10
 70
0
 10
129.9188525899
 20
111.0960973037
 10
129.8948165862
 20
111.0735006577
 10
129.8620662756
 20
111.0372247256
 10
129.8330378826
 20
110.997960659
 10
129.8080745921
 20
110.9562335652
 10
129.7872844081
 20
110.9122838018
 10
129.7707751667
 20
110.8662406321
 10
129.7587792913
 20
110.8184808736
 10
129.7515238612
 20
110.7696137647
 10
129.7491260259
 20
110.7201822153
  0
LINE
  5
236
100
AcDbEntity
  8
0
100
AcDbLine
 62
7
  6
CONTINUOUS
 10
129.9189119148
 20
111.0961494996
 11
130.2562371441
 21
111.3928361216
  0
LINE
  5
237
100
AcDbEntity
  8
0
100
AcDbLine
 62
253
  6
CONTINUOUS
 10
130.2466231122
 20
111.1282150536
 11
130.4457529792
 21
111.3033551335
  0
LWPOLYLINE
  5
238
100
AcDbEntity
  8
0
100
AcDbPolyline
 62
253
  6
CONTINUOUS
 90
10
 70
0
 10
129.9189112787
 20
111.0961489401
 10
129.9370969729
 20
111.1105844
 10
129.9677619616
 20
111.1291376124
 10
130.0015282512
 20
111.1432060094
 10
130.0380334931
 20
111.1526324195
 10
130.0768724516
 20
111.1573064608
 10
130.117608027
 20
111.1571734662
 10
130.159787884
 20
111.1522355272
 10
130.2029512868
 20
111.1425471748
 10
130.2466230858
 20
111.1282150304
  0
LINE
  5
239
100
AcDbEntity
  8
0
100
AcDbLine
 62
253
  6
CONTINUOUS
 10
148.1822520761
 20
87.1485728116
 11
148.1566965557
 21
87.1451821761
  0
LWPOLYLINE
  5
23A
100
AcDbEntity
  8
0
100
AcDbPolyline
 62
253
  6
CONTINUOUS
 90
4
 70
0
 10
148.1566965557
 20
87.1451821761
 10
148.1310419781
 20
87.1449560457
 10
148.1063293404
 20
87.1479785583
 10
148.0829242291
 20
87.1542046364
  0
LWPOLYLINE
  5
23B
100
AcDbEntity
  8
0
100
AcDbPolyline
 62
253
  6
CONTINUOUS
 90
16
 70
0
 10
147.2692931878
 20
87.3628011383
 10
147.312622757
 20
87.349639808
 10
147.3580380989
 20
87.339153793
 10
147.4050988704
 20
87.331444765
 10
147.453348774
 20
87.32658747
 10
147.5023199829
 20
87.3246290039
 10
147.5515376763
 20
87.3255883559
 10
147.6005246438
 20
87.3294562241
 10
147.6488059117
 20
87.3361951061
 10
147.6959133491
 20
87.3457396622
 10
147.7413902062
 20
87.3579973492
 10
147.7847955432
 20
87.3728493176
 10
147.8257085058
 20
87.390151564
 10
147.8637324052
 20
87.4097363274
 10
147.8984985651
 20
87.4314137154
 10
147.9296698956
 20
87.454973546
  0
LWPOLYLINE
  5
23C
100
AcDbEntity
  8
0
100
AcDbPolyline
 62
7
  6
CONTINUOUS
 90
12
 70
0
 10
147.5143175085
 20
86.853389981
 10
147.5466326707
 20
86.8429468309
 10
147.6143206052
 20
86.8267231565
 10
147.6840954177
 20
86.8174723693
 10
147.7554326584
 20
86.8154067849
 10
147.8281633435
 20
86.8207423834
 10
147.9018471443
 20
86.8337275748
 10
147.9758037846
 20
86.8544837885
 10
148.0498225007
 20
86.8832047302
 10
148.1237409295
 20
86.9201674898
 10
148.1971631385
 20
86.9655098116
 10
148.2018159104
 20
86.9687214341
  0
LWPOLYLINE
  5
23D
100
AcDbEntity
  8
0
100
AcDbPolyline
 62
253
  6
CONTINUOUS
 90
13
 70
0
 10
148.0829242291
 20
87.1542046364
 10
148.0608460894
 20
87.1636834686
 10
148.040075476
 20
87.1763658663
 10
148.02091964
 20
87.1920591865
 10
148.0034043482
 20
87.210807713
 10
147.9875038337
 20
87.2325671619
 10
147.9734480461
 20
87.2570120387
 10
147.9612633607
 20
87.2841986879
 10
147.9509234021
 20
87.3140707649
 10
147.9425789939
 20
87.346133742
 10
147.9362804107
 20
87.3802227766
 10
147.9319773779
 20
87.4165027112
 10
147.9296698956
 20
87.454973546
  0
LWPOLYLINE
  5
23E
100
AcDbEntity
  8
0
100
AcDbPolyline
 62
253
  6
CONTINUOUS
 90
13
 70
0
 10
147.5143106878
 20
86.853392413
 10
147.4805204235
 20
86.8681868971
 10
147.4471330956
 20
86.8890996823
 10
147.4162209268
 20
86.9153581972
 10
147.3879256131
 20
86.9468346014
 10
147.3623712568
 20
86.9833767517
 10
147.3397048437
 20
87.0247944508
 10
147.3200323667
 20
87.0708800231
 10
147.3034359598
 20
87.1214115585
 10
147.2900081902
 20
87.1761452597
 10
147.2798165469
 20
87.234816211
 10
147.2729010914
 20
87.2971365728
 10
147.2692931876
 20
87.3628011425
  0
LWPOLYLINE
  5
23F
100
AcDbEntity
  8
0
100
AcDbPolyline
 62
253
  6
CONTINUOUS
 90
13
 70
0
 10
165.699486071
 20
79.5498160039
 10
165.6656958067
 20
79.564610488
 10
165.6323084789
 20
79.5855232733
 10
165.6013963101
 20
79.6117817881
 10
165.5731009963
 20
79.6432581923
 10
165.54754664
 20
79.6798003426
 10
165.5248802269
 20
79.7212180417
 10
165.5052077499
 20
79.7673036141
 10
165.488611343
 20
79.8178351494
 10
165.4751835734
 20
79.8725688506
 10
165.4649919301
 20
79.9312398019
 10
165.4580764746
 20
79.9935601637
 10
165.4544685708
 20
80.0592247334
  0
LWPOLYLINE
  5
240
100
AcDbEntity
  8
0
100
AcDbPolyline
 62
7
  6
CONTINUOUS
 90
10
 70
0
 10
130.4171969177
 20
93.7200836506
 10
132.1605611541
 20
92.9318486486
 10
134.0205838051
 20
92.1146622869
 10
135.9018703465
 20
91.3122967741
 10
137.8039986513
 20
90.5249377901
 10
139.7265418123
 20
89.7527661475
 10
141.6690601118
 20
88.9959531683
 10
143.6311023719
 20
88.2546611173
 10
145.6122120441
 20
87.5290475344
 10
147.5152141986
 20
86.8530743672
  0
LWPOLYLINE
  5
241
100
AcDbEntity
  8
0
100
AcDbPolyline
 62
7
  6
CONTINUOUS
 90
10
 70
0
 10
148.6023723009
 20
86.4165072415
 10
150.3457365373
 20
85.6282722395
 10
152.2057591883
 20
84.8110858778
 10
154.0870457297
 20
84.008720365
 10
155.9891740345
 20
83.221361381
 10
157.9117171955
 20
82.4491897384
 10
159.854235495
 20
81.6923767592
 10
161.8162777551
 20
80.9510847082
 10
163.7973874273
 20
80.2254711253
 10
165.7003895819
 20
79.5494979581
  0
LWPOLYLINE
  5
242
100
AcDbEntity
  8
0
100
AcDbPolyline
 62
253
  6
CONTINUOUS
 90
31
 70
0
 10
130.1835860097
 20
94.2248063529
 10
130.711768232
 20
93.9826297397
 10
131.2415434215
 20
93.741835674
 10
131.772900231
 20
93.502426816
 10
132.3057023703
 20
93.2644613453
 10
132.8400626161
 20
93.0278856955
 10
133.3763468673
 20
92.7925375916
 10
133.9147218301
 20
92.5583466894
 10
134.4550061958
 20
92.325394583
 10
134.9970460112
 20
92.0937485275
 10
135.5407951021
 20
91.8634280871
 10
136.0862806575
 20
91.6344216411
 10
136.6334569786
 20
91.4067482815
 10
137.1823898493
 20
91.180380708
 10
137.7329944302
 20
90.9553540903
 10
138.2849962774
 20
90.7317789541
 10
138.8380257855
 20
90.5097998693
 10
139.3924258004
 20
90.28927374
 10
139.9489953604
 20
90.0698835654
 10
140.5066709874
 20
89.8520490291
 10
141.0664993526
 20
89.6353600635
 10
141.6324870959
 20
89.4182910023
 10
142.2037080279
 20
89.2012430042
 10
142.7811418068
 20
88.9838859553
 10
143.3717492794
 20
88.7636806611
 10
143.9758216606
 20
88.5406494392
 10
144.5932502137
 20
88.314960159
 10
145.2305147003
 20
88.0843995665
 10
145.8899021976
 20
87.8483575013
 10
146.5694432176
 20
87.6077698101
 10
147.2692931866
 20
87.3628011485
  0
LWPOLYLINE
  5
243
100
AcDbEntity
  8
0
100
AcDbPolyline
 62
253
  6
CONTINUOUS
 90
31
 70
0
 10
148.3687613929
 20
86.9212299438
 10
148.8969436152
 20
86.6790533306
 10
149.4267188047
 20
86.4382592649
 10
149.9580756142
 20
86.1988504069
 10
150.4908777535
 20
85.9608849362
 10
151.0252379994
 20
85.7243092864
 10
151.5615222505
 20
85.4889611825
 10
152.0998972133
 20
85.2547702804
 10
152.640181579
 20
85.021818174
 10
153.1822213944
 20
84.7901721184
 10
153.7259704853
 20
84.559851678
 10
154.2714560407
 20
84.330845232
 10
154.8186323619
 20
84.1031718724
 10
155.3675652325
 20
83.8768042989
 10
155.9181698134
 20
83.6517776812
 10
156.4701716606
 20
83.428202545
 10
157.0232011688
 20
83.2062234603
 10
157.5776011836
 20
82.9856973309
 10
158.1341707436
 20
82.7663071563
 10
158.6918463706
 20
82.54847262
 10
159.2516747358
 20
82.3317836544
 10
159.8176624791
 20
82.1147145932
 10
160.3888834112
 20
81.8976665951
 10
160.96631719
 20
81.6803095462
 10
161.5569246627
 20
81.460104252
 10
162.1609970438
 20
81.2370730301
 10
162.7784255969
 20
81.0113837499
 10
163.4156900835
 20
80.7808231574
 10
164.0750775808
 20
80.5447810922
 10
164.7546186008
 20
80.304193401
 10
165.4544685698
 20
80.0592247394
  0
LWPOLYLINE
  5
244
100
AcDbEntity
  8
0
100
AcDbPolyline
 62
253
  6
CONTINUOUS
 90
10
 70
0
 10
130.1835940325
 20
94.2248124954
 10
130.1468084449
 20
94.2438270299
 10
130.1134172687
 20
94.2649912026
 10
130.0837442553
 20
94.2880998117
 10
130.0580771062
 20
94.3129288024
 10
130.0366646829
 20
94.3392374397
 10
130.0197145943
 20
94.3667706427
 10
130.0073911837
 20
94.395261457
 10
129.9998139356
 20
94.4244336436
 10
129.9971310375
 20
94.4504571593
  0
LWPOLYLINE
  5
245
100
AcDbEntity
  8
0
100
AcDbPolyline
 62
253
  6
CONTINUOUS
 90
10
 70
0
 10
148.3687694157
 20
86.9212360863
 10
148.3319838282
 20
86.9402506208
 10
148.2985926519
 20
86.9614147935
 10
148.2689196385
 20
86.9845234026
 10
148.2432524894
 20
87.0093523933
 10
148.2218400661
 20
87.0356610307
 10
148.2048899775
 20
87.0631942336
 10
148.1925665669
 20
87.0916850479
 10
148.1849893188
 20
87.1208572345
 10
148.1823064207
 20
87.1468807502
  0
LINE
  5
246
100
AcDbEntity
  8
0
100
AcDbLine
 62
253
  6
CONTINUOUS
 10
134.5416643768
 20
130.0617305347
 11
134.5416643768
 21
130.0508252674
  0
LINE
  5
247
100
AcDbEntity
  8
0
100
AcDbLine
 62
7
  6
CONTINUOUS
 10
134.7831974562
 20
131.7482553513
 11
134.7831974562
 21
130.5061258241
  0
LINE
  5
248
100
AcDbEntity
  8
0
100
AcDbLine
 62
7
  6
CONTINUOUS
 10
151.255365172
 20
124.9675406589
 11
148.7062177909
 21
122.5602958451
  0
LINE
  5
249
100
AcDbEntity
  8
0
100
AcDbLine
 62
253
  6
CONTINUOUS
 10
147.9087174905
 20
123.0456281006
 11
150.6560011562
 21
125.3733795414
  0
LINE
  5
24A
100
AcDbEntity
  8
0
100
AcDbLine
 62
253
  6
CONTINUOUS
 10
148.3256552564
 20
122.4783201489
 11
151.0651562682
 21
124.7994774095
  0
LINE
  5
24B
100
AcDbEntity
  8
0
100
AcDbLine
 62
7
  6
CONTINUOUS
 10
158.2820084652
 20
122.3106030818
 11
155.7703746501
 21
121.5358018988
  0
LINE
  5
24C
100
AcDbEntity
  8
0
100
AcDbLine
 62
7
  6
CONTINUOUS
 10
169.2503316514
 20
93.9361827579
 11
170.1276324758
 21
94.0204073008
  0
LWPOLYLINE
  5
24D
100
AcDbEntity
  8
0
100
AcDbPolyline
 62
7
  6
CONTINUOUS
 90
19
 70
0
 10
148.7066672443
 20
122.5607112802
 10
148.6985883806
 20
122.5530162039
 10
148.6416617571
 20
122.4945679234
 10
148.5884538339
 20
122.432749909
 10
148.5388173868
 20
122.368081443
 10
148.4924343391
 20
122.3007663776
 10
148.449065641
 20
122.2308936602
 10
148.4087048764
 20
122.1588087606
 10
148.3713341057
 20
122.0847562804
 10
148.3369394383
 20
122.0088678438
 10
148.3055988738
 20
121.9314292117
 10
148.2774197839
 20
121.8526986133
 10
148.2524867724
 20
121.7728185972
 10
148.2309466411
 20
121.6920147852
 10
148.2130039608
 20
121.6105694797
 10
148.1988328154
 20
121.5285328354
 10
148.1886971217
 20
121.4459550591
 10
148.1829392626
 20
121.3631229566
 10
148.1822702192
 20
121.3439698041
  0
LINE
  5
24E
100
AcDbEntity
  8
0
100
AcDbLine
 62
253
  6
CONTINUOUS
 10
151.5837076612
 20
125.0007916943
 11
149.0344988789
 21
122.5934888974
  0
LWPOLYLINE
  5
24F
100
AcDbEntity
  8
0
100
AcDbPolyline
 62
253
  6
CONTINUOUS
 90
22
 70
0
 10
149.0344988788
 20
122.5934888973
 10
148.9853375573
 20
122.5482197911
 10
148.9365693539
 20
122.4984899428
 10
148.8884527337
 20
122.4445394118
 10
148.8412604799
 20
122.3866234783
 10
148.7952241457
 20
122.3250283139
 10
148.7505332019
 20
122.2600683648
 10
148.7074204787
 20
122.1920545713
 10
148.6661179376
 20
122.1213190851
 10
148.6268010457
 20
122.0482303164
 10
148.5896754502
 20
121.973146306
 10
148.5549385281
 20
121.8964294022
 10
148.5227354236
 20
121.8184698822
 10
148.4932327114
 20
121.7396481069
 10
148.4665885374
 20
121.6603474238
 10
148.4429137941
 20
121.5809692717
 10
148.4223308059
 20
121.5019083527
 10
148.4049485767
 20
121.4235431481
 10
148.3908355616
 20
121.3462493569
 10
148.3800603501
 20
121.2704033636
 10
148.3726888542
 20
121.1963798163
 10
148.3687613845
 20
121.1245426301
  0
LWPOLYLINE
  5
250
100
AcDbEntity
  8
0
100
AcDbPolyline
 62
7
  6
CONTINUOUS
 90
8
 70
0
 10
129.8510337541
 20
111.6465897243
 10
129.825076371
 20
111.6841979329
 10
129.8025508622
 20
111.724237379
 10
129.7837290374
 20
111.7663442896
 10
129.7687641518
 20
111.8103629029
 10
129.7578832402
 20
111.8559470816
 10
129.7513001476
 20
111.9025398619
 10
129.7491260786
 20
111.9496384531
  0
LINE
  5
251
100
AcDbEntity
  8
0
100
AcDbLine
 62
7
  6
CONTINUOUS
 10
143.9577003522
 20
128.063568154
 11
143.7161672728
 21
126.3770433373
  0
LINE
  5
252
100
AcDbEntity
  8
0
100
AcDbLine
 62
7
  6
CONTINUOUS
 10
143.9577003522
 20
126.8214386267
 11
143.8743177664
 21
126.2392127859
  0
LINE
  5
253
100
AcDbEntity
  8
0
100
AcDbLine
 62
7
  6
CONTINUOUS
 10
167.4565113612
 20
118.6259158844
 11
164.9448775461
 21
117.8511147015
  0
LINE
  5
254
100
AcDbEntity
  8
0
100
AcDbLine
 62
7
  6
CONTINUOUS
 10
143.7154983604
 20
126.36613807
 11
143.7161672728
 21
126.3770433373
  0
LINE
  5
255
100
AcDbEntity
  8
0
100
AcDbLine
 62
253
  6
CONTINUOUS
 10
143.7161672728
 20
126.3770433373
 11
143.7161672728
 21
126.36613807
  0
LINE
  5
256
100
AcDbEntity
  8
0
100
AcDbLine
 62
7
  6
CONTINUOUS
 10
143.9577003522
 20
128.063568154
 11
143.9577003522
 21
126.8214386267
  0
LWPOLYLINE
  5
257
100
AcDbEntity
  8
0
100
AcDbPolyline
 62
7
  6
CONTINUOUS
 90
11
 70
0
 10
165.2879945155
 20
97.3388882622
 10
165.3293715352
 20
97.3270684359
 10
165.377473144
 20
97.3180050147
 10
165.4264044353
 20
97.3136815452
 10
165.4757050668
 20
97.3141911311
 10
165.5248596916
 20
97.3195766774
 10
165.5734159945
 20
97.3298370757
 10
165.6208831089
 20
97.3449229707
 10
165.6667486529
 20
97.3647229034
 10
165.710529804
 20
97.3890758646
 10
165.7495168042
 20
97.4160453367
  0
LWPOLYLINE
  5
258
100
AcDbEntity
  8
0
100
AcDbPolyline
 62
253
  6
CONTINUOUS
 90
16
 70
0
 10
165.1951013302
 20
97.5658295281
 10
165.2382990084
 20
97.5530213352
 10
165.283459631
 20
97.5426742691
 10
165.3301561737
 20
97.5348861686
 10
165.377947082
 20
97.5297306762
 10
165.426380467
 20
97.5272565391
 10
165.4749983798
 20
97.5274871526
 10
165.5233411263
 20
97.5304203412
 10
165.5709515691
 20
97.5360283741
 10
165.6173794744
 20
97.5442582178
 10
165.6621858152
 20
97.5550320444
 10
165.7049469415
 20
97.5682479794
 10
165.7452585396
 20
97.5837810619
 10
165.7827394418
 20
97.601484419
 10
165.8170352342
 20
97.6211906513
 10
165.8478216267
 20
97.6427134228
  0
LWPOLYLINE
  5
259
100
AcDbEntity
  8
0
100
AcDbPolyline
 62
253
  6
CONTINUOUS
 90
10
 70
0
 10
165.1951012086
 20
96.3361561184
 10
163.1975597035
 20
97.0137356569
 10
161.2240994314
 20
97.7128113323
 10
159.2751112552
 20
98.433230157
 10
157.3510998581
 20
99.1747899103
 10
155.4523314489
 20
99.9373780864
 10
153.578843305
 20
100.7209797218
 10
151.7309108496
 20
101.5254898046
 10
149.9090381034
 20
102.3507054508
 10
148.1136095509
 20
103.1964682652
  0
LWPOLYLINE
  5
25A
100
AcDbEntity
  8
0
100
AcDbPolyline
 62
253
  6
CONTINUOUS
 90
10
 70
0
 10
129.9284339457
 20
110.5000447112
 10
129.8926918885
 20
110.5189601913
 10
129.8603201556
 20
110.5397833025
 10
129.8316248438
 20
110.5623171481
 10
129.8068772901
 20
110.5863486515
 10
129.7863114952
 20
110.611650582
 10
129.7701219164
 20
110.6379837046
 10
129.758461639
 20
110.6650990354
 10
129.7514409336
 20
110.692740169
 10
129.7491260259
 20
110.7201822153
  0
LWPOLYLINE
  5
25B
100
AcDbEntity
  8
0
100
AcDbPolyline
 62
253
  6
CONTINUOUS
 90
10
 70
0
 10
147.9343014618
 20
104.6460620413
 10
147.9366163705
 20
104.618375023
 10
147.9436370759
 20
104.5908258905
 10
147.9552973533
 20
104.5637941357
 10
147.9714869321
 20
104.5375353737
 10
147.992052727
 20
104.5122978855
 10
148.0168002806
 20
104.4883202965
 10
148.0454955924
 20
104.465829328
 10
148.0778673253
 20
104.4450376509
 10
148.1136093825
 20
104.4261418648
  0
LWPOLYLINE
  5
25C
100
AcDbEntity
  8
0
100
AcDbPolyline
 62
253
  6
CONTINUOUS
 90
12
 70
0
 10
148.3687613989
 20
86.9212299547
 10
148.3726888682
 20
86.8554370286
 10
148.3800603646
 20
86.7929335031
 10
148.390835577
 20
86.7340281737
 10
148.4049485926
 20
86.6790192625
 10
148.4223308215
 20
86.6281721256
 10
148.4429138093
 20
86.5817208733
 10
148.4665885526
 20
86.5398982068
 10
148.4932327265
 20
86.5029183617
 10
148.5227354386
 20
86.4709570394
 10
148.5549385429
 20
86.4441800561
 10
148.5890437879
 20
86.4231153907
  0
LWPOLYLINE
  5
25D
100
AcDbEntity
  8
0
100
AcDbPolyline
 62
253
  6
CONTINUOUS
 90
16
 70
0
 10
147.6626463001
 20
103.7178776586
 10
147.6602282582
 20
103.7608883195
 10
147.6535062952
 20
103.8054151761
 10
147.642509906
 20
103.8509900377
 10
147.6272972179
 20
103.8971762501
 10
147.6080036541
 20
103.94342002
 10
147.584884904
 20
103.9890596256
 10
147.5582288746
 20
104.0335405674
 10
147.5283031057
 20
104.076428411
 10
147.4954277009
 20
104.1172616294
 10
147.4599555264
 20
104.155595803
 10
147.4222804179
 20
104.1909996272
 10
147.3828264
 20
104.2230725888
 10
147.3420315692
 20
104.2514591612
 10
147.3003415263
 20
104.2758498697
 10
147.2582152022
 20
104.2959761873
  0
LWPOLYLINE
  5
25E
100
AcDbEntity
  8
0
100
AcDbPolyline
 62
253
  6
CONTINUOUS
 90
10
 70
0
 10
147.009925947
 20
104.8694059372
 10
147.0116950678
 20
104.8272243405
 10
147.0156112904
 20
104.7893026977
 10
147.021872819
 20
104.7553127968
 10
147.0310690516
 20
104.7248320173
 10
147.0430632446
 20
104.6981932989
 10
147.0569896841
 20
104.6762962102
 10
147.0731409042
 20
104.6592713829
 10
147.0917712348
 20
104.6470307832
 10
147.1027794945
 20
104.6424778843
  0
LWPOLYLINE
  5
25F
100
AcDbEntity
  8
0
100
AcDbPolyline
 62
7
  6
CONTINUOUS
 90
14
 70
0
 10
148.1823064207
 20
87.1468807502
 10
148.183321958
 20
87.1215177278
 10
148.1911917993
 20
87.0319021217
 10
148.2053214286
 20
86.9478744144
 10
148.2253997017
 20
86.8693119509
 10
148.25120659
 20
86.7959118373
 10
148.2825673069
 20
86.7275644151
 10
148.3191557463
 20
86.6644842518
 10
148.3606879098
 20
86.6067492357
 10
148.4068858112
 20
86.5544786317
 10
148.4572025483
 20
86.508050753
 10
148.5111361435
 20
86.4676534842
 10
148.5683440483
 20
86.4333434288
 10
148.6028939093
 20
86.4162718471
  0
LWPOLYLINE
  5
260
100
AcDbEntity
  8
0
100
AcDbPolyline
 62
253
  6
CONTINUOUS
 90
9
 70
0
 10
148.1136093825
 20
104.4261418648
 10
148.1150100306
 20
104.3841097348
 10
148.1203226048
 20
104.3456282626
 10
148.1290996265
 20
104.3106285992
 10
148.1408792735
 20
104.2791103641
 10
148.1558232955
 20
104.2512866491
 10
148.1741957974
 20
104.227603302
 10
148.1951861092
 20
104.2086341116
 10
148.2182214392
 20
104.1946419306
  0
LWPOLYLINE
  5
261
100
AcDbEntity
  8
0
100
AcDbPolyline
 62
253
  6
CONTINUOUS
 90
10
 70
0
 10
147.9296698956
 20
87.454973546
 10
147.8742167723
 20
89.3050990899
 10
147.8254627737
 20
91.1291975643
 10
147.7834078998
 20
92.9272689691
 10
147.7483897052
 20
94.6789892777
 10
147.7200706353
 20
96.4046825167
 10
147.6974380262
 20
98.1653207663
 10
147.6801543233
 20
99.9812280532
 10
147.6685570813
 20
101.8320803506
 10
147.6626463001
 20
103.7178776586
  0
LWPOLYLINE
  5
262
100
AcDbEntity
  8
0
100
AcDbPolyline
 62
253
  6
CONTINUOUS
 90
4
 70
0
 10
147.2692931866
 20
87.3628011485
 10
147.2149208819
 20
89.2137731838
 10
147.1676651033
 20
91.0393639539
 10
147.127217564
 20
92.839263761
  0
LWPOLYLINE
  5
263
100
AcDbEntity
  8
0
100
AcDbPolyline
 62
253
  6
CONTINUOUS
 90
7
 70
0
 10
147.127217564
 20
92.839263761
 10
147.0936307575
 20
94.5928150065
 10
147.0661227604
 20
96.3199722152
 10
147.0437167489
 20
98.0818461545
 10
147.0265381751
 20
99.8991637778
 10
147.0151747345
 20
101.7517232651
 10
147.0099258254
 20
103.6397325275
  0
LWPOLYLINE
  5
264
100
AcDbEntity
  8
0
100
AcDbPolyline
 62
7
  6
CONTINUOUS
 90
10
 70
0
 10
147.9343014093
 20
103.4166058085
 10
147.9388478021
 20
101.641108137
 10
147.949244556
 20
99.8045116064
 10
147.9654279245
 20
97.9728281447
 10
147.9873985147
 20
96.1460972303
 10
148.0151564754
 20
94.3243558902
 10
148.0487019474
 20
92.5076401583
 10
148.0880343901
 20
90.6959912085
 10
148.133152641
 20
88.8894548916
 10
148.1822946346
 20
87.1470638481
  0
LWPOLYLINE
  5
265
100
AcDbEntity
  8
0
100
AcDbPolyline
 62
253
  6
CONTINUOUS
 90
10
 70
0
 10
148.1136095509
 20
103.1964682652
 10
148.1179273199
 20
101.5083596818
 10
148.1274159708
 20
99.7993792583
 10
148.1423038833
 20
98.0697488823
 10
148.1626509522
 20
96.3328564853
 10
148.1887795168
 20
94.5757031603
 10
148.2216927588
 20
92.7592587303
 10
148.2623243453
 20
90.8710550039
 10
148.3111202408
 20
88.9248312692
 10
148.3687613929
 20
86.9212299438
  0
LWPOLYLINE
  5
266
100
AcDbEntity
  8
0
100
AcDbPolyline
 62
253
  6
CONTINUOUS
 90
10
 70
0
 10
147.6626462425
 20
104.9462898312
 10
147.6667637437
 20
106.6395195634
 10
147.6767762327
 20
108.3623733095
 10
147.6926837094
 20
110.1148510694
 10
147.7138288927
 20
111.8831996735
 10
147.7408690637
 20
113.6811722914
 10
147.7757760659
 20
115.5500284327
 10
147.8192071805
 20
117.5035212673
 10
147.8705051263
 20
119.5278976252
 10
147.9296699033
 20
121.6231575065
  0
LWPOLYLINE
  5
267
100
AcDbEntity
  8
0
100
AcDbPolyline
 62
253
  6
CONTINUOUS
 90
5
 70
0
 10
147.0099258153
 20
104.8694060481
 10
147.0143099886
 20
106.5646428452
 10
147.0239582084
 20
108.2892992755
 10
147.0390988542
 20
110.0435276064
 10
147.0597820442
 20
111.8140300238
  0
LWPOLYLINE
  5
268
100
AcDbEntity
  8
0
100
AcDbPolyline
 62
253
  6
CONTINUOUS
 90
6
 70
0
 10
147.0597820442
 20
111.8140300238
 10
147.0863398945
 20
113.6143415333
 10
147.1198049165
 20
115.485159854
 10
147.1611205542
 20
117.4404908166
 10
147.2107229953
 20
119.4673177499
 10
147.2692931874
 20
121.5661138355
  0
LWPOLYLINE
  5
269
100
AcDbEntity
  8
0
100
AcDbPolyline
 62
7
  6
CONTINUOUS
 90
10
 70
0
 10
148.1822733935
 20
121.3443018293
 10
148.1332790848
 20
119.522532528
 10
148.0881485173
 20
117.6379835355
 10
148.0488027272
 20
115.7583267157
 10
148.0152429014
 20
113.8836080326
 10
147.9874695848
 20
112.0138673632
 10
147.9654830983
 20
110.1491422603
 10
147.9492835597
 20
108.2894706876
 10
147.9388700538
 20
106.4348916035
 10
147.9343014617
 20
104.6460620413
  0
LWPOLYLINE
  5
26A
100
AcDbEntity
  8
0
100
AcDbPolyline
 62
253
  6
CONTINUOUS
 90
10
 70
0
 10
148.3687613945
 20
121.1245426314
 10
148.3152595315
 20
119.1852052512
 10
148.2687701025
 20
117.2828229026
 10
148.2289848204
 20
115.4172002159
 10
148.1959514065
 20
113.6090768806
 10
148.1688927097
 20
111.837221253
 10
148.1468462234
 20
110.0389339593
 10
148.1299421721
 20
108.1936974839
 10
148.1187634789
 20
106.3226725617
 10
148.113609542
 20
104.4261417867
  0
LWPOLYLINE
  5
26B
100
AcDbEntity
  8
0
100
AcDbPolyline
 62
253
  6
CONTINUOUS
 90
16
 70
0
 10
148.113609329
 20
103.1964683021
 10
148.1150099995
 20
103.2412464399
 10
148.1203229633
 20
103.2867281895
 10
148.12910061
 20
103.3330374616
 10
148.1408809385
 20
103.380701234
 10
148.1558256635
 20
103.4294070222
 10
148.1741989316
 20
103.4777624824
 10
148.1951898904
 20
103.5252124015
 10
148.2184682773
 20
103.5717826129
 10
148.2445276984
 20
103.6166027492
 10
148.2726119409
 20
103.6591391858
 10
148.3020146288
 20
103.6991702518
 10
148.3332633789
 20
103.7360909133
 10
148.3660425187
 20
103.7694341025
 10
148.3991469223
 20
103.7990138869
 10
148.4317984686
 20
103.8246386215
  0
LWPOLYLINE
  5
26C
100
AcDbEntity
  8
0
100
AcDbPolyline
 62
253
  6
CONTINUOUS
 90
16
 70
0
 10
147.0099260049
 20
103.6397324658
 10
147.0116948924
 20
103.6843609273
 10
147.0156108586
 20
103.7304019773
 10
147.0218720706
 20
103.7777202406
 10
147.0310678014
 20
103.8264204992
 10
147.0430613558
 20
103.876310185
 10
147.0569872549
 20
103.9264508334
 10
147.0731380556
 20
103.975844242
 10
147.0917680256
 20
104.0242814563
 10
147.1118652263
 20
104.0714967076
 10
147.1335094022
 20
104.1166206454
 10
147.1569329224
 20
104.1590545029
 10
147.1811825738
 20
104.1987877603
 10
147.2059464441
 20
104.2353517104
 10
147.2316170836
 20
104.267918711
 10
147.2582152022
 20
104.2959761873
  0
LWPOLYLINE
  5
26D
100
AcDbEntity
  8
0
100
AcDbPolyline
 62
253
  6
CONTINUOUS
 90
22
 70
0
 10
147.2692932019
 20
121.5661138414
 10
147.2729011064
 20
121.6380793843
 10
147.2798165632
 20
121.7122860967
 10
147.2900082077
 20
121.7883664698
 10
147.3034359779
 20
121.865935472
 10
147.3200323845
 20
121.9446162776
 10
147.3397048609
 20
122.0240428758
 10
147.3623712739
 20
122.1038259951
 10
147.3879256302
 20
122.183564373
 10
147.4162209437
 20
122.2628710662
 10
147.4471331122
 20
122.3413490542
 10
147.4805204395
 20
122.4186079845
 10
147.51619169
 20
122.4942760915
 10
147.5539899429
 20
122.567974779
 10
147.5937412428
 20
122.6393332778
 10
147.6352140761
 20
122.7080056869
 10
147.6782200894
 20
122.7736423403
 10
147.7225654774
 20
122.8359166248
 10
147.7680002153
 20
122.8945384156
 10
147.814302477
 20
122.9492176348
 10
147.8612791656
 20
122.9996669976
 10
147.9087174904
 20
123.0456281005
  0
LWPOLYLINE
  5
26E
100
AcDbEntity
  8
0
100
AcDbPolyline
 62
253
  6
CONTINUOUS
 90
22
 70
0
 10
147.9296699033
 20
121.6231575065
 10
147.931977389
 20
121.6652056063
 10
147.9362804243
 20
121.7081564835
 10
147.9425790092
 20
121.7520101382
 10
147.950923418
 20
121.7970093528
 10
147.9612633764
 20
121.8429113448
 10
147.9734480617
 20
121.888987767
 10
147.9875038493
 20
121.9352231646
 10
148.0034043637
 20
121.9816329924
 10
148.0209196554
 20
122.0275352677
 10
148.0400754914
 20
122.0729256532
 10
148.0608461047
 20
122.1178084862
 10
148.0829242444
 20
122.1615147962
 10
148.1063293556
 20
122.2040255405
 10
148.1310419933
 20
122.2453597619
 10
148.1566965707
 20
122.2849056185
 10
148.1833200534
 20
122.3226473579
 10
148.2108854759
 20
122.3586007325
 10
148.2389463557
 20
122.3922011575
 10
148.2673538653
 20
122.4232604377
 10
148.2962568322
 20
122.4519667682
 10
148.3256552564
 20
122.4783201489
  0
LWPOLYLINE
  5
26F
100
AcDbEntity
  8
0
100
AcDbPolyline
 62
253
  6
CONTINUOUS
 90
8
 70
0
 10
147.6626462427
 20
104.9462898313
 10
147.6602281964
 20
104.9046887174
 10
147.6535062229
 20
104.8652295524
 10
147.6425098201
 20
104.828362468
 10
147.6272971186
 20
104.7944810857
 10
147.608003544
 20
104.7640318434
 10
147.5848847865
 20
104.7374678887
 10
147.5643414209
 20
104.7196217458
  0
LINE
  5
270
100
AcDbEntity
  8
0
100
AcDbLine
 62
253
  6
CONTINUOUS
 10
147.9347674762
 20
104.8285297452
 11
147.2582152023
 21
104.2959761873
  0
LINE
  5
271
100
AcDbEntity
  8
0
100
AcDbLine
 62
253
  6
CONTINUOUS
 10
147.5643414209
 20
104.7196217458
 11
147.5640496338
 21
104.7193986831
  0
LINE
  5
272
100
AcDbEntity
  8
0
100
AcDbLine
 62
253
  6
CONTINUOUS
 10
147.6626462425
 20
104.9462898312
 11
147.9356002178
 21
105.1545892251
  0
LINE
  5
273
100
AcDbEntity
  8
0
100
AcDbLine
 62
7
  6
CONTINUOUS
 10
147.5640474894
 20
104.7193970467
 11
147.9352121563
 21
105.0026439753
  0
LWPOLYLINE
  5
274
100
AcDbEntity
  8
0
100
AcDbPolyline
 62
7
  6
CONTINUOUS
 90
11
 70
0
 10
147.1028191323
 20
104.6424646713
 10
147.144196152
 20
104.630644845
 10
147.1922977608
 20
104.6215814238
 10
147.2412290521
 20
104.6172579543
 10
147.2905296836
 20
104.6177675401
 10
147.3396843084
 20
104.6231530864
 10
147.3882406113
 20
104.6334134848
 10
147.4357077257
 20
104.6484993798
 10
147.4815732697
 20
104.6682993125
 10
147.5253544208
 20
104.6926522736
 10
147.564341421
 20
104.7196217458
  0
LWPOLYLINE
  5
275
100
AcDbEntity
  8
0
100
AcDbPolyline
 62
253
  6
CONTINUOUS
 90
16
 70
0
 10
147.009925947
 20
104.8694059372
 10
147.0531236252
 20
104.8565977443
 10
147.0982842478
 20
104.8462506782
 10
147.1449807905
 20
104.8384625777
 10
147.1927716988
 20
104.8333070852
 10
147.2412050838
 20
104.8308329482
 10
147.2898229966
 20
104.8310635616
 10
147.3381657431
 20
104.8339967503
 10
147.3857761859
 20
104.8396047831
 10
147.4322040912
 20
104.8478346269
 10
147.477010432
 20
104.8586084535
 10
147.5197715583
 20
104.8718243885
 10
147.5600831564
 20
104.887357471
 10
147.5975640586
 20
104.9050608281
 10
147.631859851
 20
104.9247670604
 10
147.6626462435
 20
104.9462898319
  0
LINE
  5
276
100
AcDbEntity
  8
0
100
AcDbLine
 62
7
  6
CONTINUOUS
 10
165.2879548777
 20
97.3389014752
 11
165.2879945155
 21
97.3388882622
  0
LINE
  5
277
100
AcDbEntity
  8
0
100
AcDbLine
 62
7
  6
CONTINUOUS
 10
147.1027794945
 20
104.6424778843
 11
147.1028191323
 21
104.6424646713
  0
LWPOLYLINE
  5
278
100
AcDbEntity
  8
0
100
AcDbPolyline
 62
253
  6
CONTINUOUS
 90
10
 70
0
 10
165.4433905855
 20
96.9923997782
 10
163.4533812074
 20
97.6675140963
 10
161.4881268903
 20
98.3637158057
 10
159.5476276342
 20
99.0810049065
 10
157.6316126938
 20
99.8194901427
 10
155.7403528145
 20
100.5790627703
 10
153.8746602314
 20
101.3593965575
 10
152.0348056897
 20
102.1603827603
 10
150.2205184444
 20
102.9821301226
 10
148.4317984954
 20
103.8246386446
  0
LWPOLYLINE
  5
279
100
AcDbEntity
  8
0
100
AcDbPolyline
 62
253
  6
CONTINUOUS
 90
10
 70
0
 10
147.0099258254
 20
103.6397325275
 10
145.0123843202
 20
104.3173120659
 10
143.0389240482
 20
105.0163877414
 10
141.089935872
 20
105.7368065661
 10
139.1659244749
 20
106.4783663194
 10
137.2671560657
 20
107.2409544955
 10
135.3936679218
 20
108.0245561308
 10
133.5457354664
 20
108.8290662137
 10
131.7238627202
 20
109.6542818599
 10
129.9284341677
 20
110.5000446742
  0
LWPOLYLINE
  5
27A
100
AcDbEntity
  8
0
100
AcDbPolyline
 62
253
  6
CONTINUOUS
 90
10
 70
0
 10
147.2582152023
 20
104.2959761873
 10
145.2682058242
 20
104.9710905053
 10
143.3029515071
 20
105.6672922148
 10
141.362452251
 20
106.3845813156
 10
139.4464373106
 20
107.1230665518
 10
137.5551774312
 20
107.8826391794
 10
135.6894848482
 20
108.6629729666
 10
133.8496303065
 20
109.4639591694
 10
132.0353430612
 20
110.2857065317
 10
130.2466231122
 20
111.1282150536
  0
LINE
  5
27B
100
AcDbEntity
  8
0
100
AcDbLine
 62
7
  6
CONTINUOUS
 10
170.1276324758
 20
94.0204073008
 11
170.375863383
 21
93.9207121723
  0
LINE
  5
27C
100
AcDbEntity
  8
0
100
AcDbLine
 62
7
  6
CONTINUOUS
 10
169.2503316514
 20
96.2255041829
 11
168.3489555236
 21
96.5875171569
  0
LWPOLYLINE
  5
27D
100
AcDbEntity
  8
0
100
AcDbPolyline
 62
253
  6
CONTINUOUS
 90
10
 70
0
 10
129.9284341588
 20
111.7297181958
 10
131.7238616249
 20
110.8865765291
 10
133.5457335285
 20
110.0633269317
 10
135.3936653975
 20
109.2601276264
 10
137.2671532234
 20
108.4771813865
 10
139.1659215945
 20
107.7145931791
 10
141.089933245
 20
106.9723779775
 10
143.0389219769
 20
106.2506483502
 10
145.0123831179
 20
105.5496066474
 10
147.0099258153
 20
104.8694060481
  0
LWPOLYLINE
  5
27E
100
AcDbEntity
  8
0
100
AcDbPolyline
 62
253
  6
CONTINUOUS
 90
10
 70
0
 10
148.113609542
 20
104.4261417867
 10
149.9090370081
 20
103.58300012
 10
151.7309089117
 20
102.7597505226
 10
153.5788407807
 20
101.9565512173
 10
155.4523286066
 20
101.1736049774
 10
157.3510969777
 20
100.4110167701
 10
159.2751086282
 20
99.6688015684
 10
161.2240973601
 20
98.9470719411
 10
163.1975585011
 20
98.2460302383
 10
165.1951011986
 20
97.565829639
  0
LWPOLYLINE
  5
27F
100
AcDbEntity
  8
0
100
AcDbPolyline
 62
7
  6
CONTINUOUS
 90
13
 70
0
 10
130.0332349436
 20
111.4981278891
 10
131.32281399
 20
110.8892457488
 10
132.6900637974
 20
110.2617264598
 10
134.0728095344
 20
109.6453596459
 10
135.4707322688
 20
109.0403042513
 10
136.8835347413
 20
108.446704588
 10
138.3109606769
 20
107.864666565
 10
139.752736987
 20
107.2942980146
 10
141.2085905698
 20
106.7357068612
 10
142.6782572281
 20
106.1889927088
 10
144.1613955864
 20
105.6542642045
 10
145.6576329167
 20
105.1316365773
 10
147.1026345689
 20
104.64252622
  0
LWPOLYLINE
  5
280
100
AcDbEntity
  8
0
100
AcDbPolyline
 62
7
  6
CONTINUOUS
 90
13
 70
0
 10
148.2184103268
 20
104.19455148
 10
149.5079893733
 20
103.5856693397
 10
150.8752391806
 20
102.9581500507
 10
152.2579849176
 20
102.3417832368
 10
153.655907652
 20
101.7367278422
 10
155.0687101245
 20
101.143128179
 10
156.4961360601
 20
100.5610901559
 10
157.9379123702
 20
99.9907216055
 10
159.393765953
 20
99.4321304521
 10
160.8634326113
 20
98.8854162997
 10
162.3465709696
 20
98.3506877954
 10
163.8428082999
 20
97.8280601682
 10
165.2878099521
 20
97.3389498109
  0
LINE
  5
281
100
AcDbEntity
  8
0
100
AcDbLine
 62
7
  6
CONTINUOUS
 10
130.0330460559
 20
111.4982183396
 11
130.0331008949
 21
111.4981920695
  0
LINE
  5
282
100
AcDbEntity
  8
0
100
AcDbLine
 62
7
  6
CONTINUOUS
 10
148.2182214392
 20
104.1946419306
 11
148.2182762781
 21
104.1946156604
  0
LWPOLYLINE
  5
283
100
AcDbEntity
  8
0
100
AcDbPolyline
 62
7
  6
CONTINUOUS
 90
7
 70
0
 10
130.0331008949
 20
111.4981920695
 10
130.022526034
 20
111.5034123854
 10
129.9834744831
 20
111.5255258978
 10
129.9466510335
 20
111.5509850345
 10
129.9120801897
 20
111.5797928846
 10
129.880091909
 20
111.6117536617
 10
129.8510337541
 20
111.6465897243
  0
LWPOLYLINE
  5
284
100
AcDbEntity
  8
0
100
AcDbPolyline
 62
7
  6
CONTINUOUS
 90
7
 70
0
 10
148.2182762781
 20
104.1946156604
 10
148.2077014172
 20
104.1998359763
 10
148.1686498664
 20
104.2219494887
 10
148.1318264168
 20
104.2474086254
 10
148.0972555729
 20
104.2762164755
 10
148.0652672922
 20
104.3081772526
 10
148.0362091373
 20
104.3430133152
  0
LWPOLYLINE
  5
285
100
AcDbEntity
  8
0
100
AcDbPolyline
 62
253
  6
CONTINUOUS
 90
10
 70
0
 10
148.113609329
 20
103.1964683021
 10
148.0778672717
 20
103.2153837822
 10
148.0454955388
 20
103.2362068934
 10
148.016800227
 20
103.258740739
 10
147.9920526734
 20
103.2827722425
 10
147.9714868784
 20
103.3080741729
 10
147.9552972996
 20
103.3344072955
 10
147.9436370222
 20
103.3615226263
 10
147.9366163168
 20
103.3891637599
 10
147.9343014091
 20
103.4166058062
  0
LWPOLYLINE
  5
286
100
AcDbEntity
  8
0
100
AcDbPolyline
 62
7
  6
CONTINUOUS
 90
8
 70
0
 10
148.0362091373
 20
104.3430133152
 10
148.0102517542
 20
104.3806215238
 10
147.9877262454
 20
104.4206609699
 10
147.9689044206
 20
104.4627678805
 10
147.9539395351
 20
104.5067864938
 10
147.9430586234
 20
104.5523706725
 10
147.9364755308
 20
104.5989634528
 10
147.9343014618
 20
104.646062044
  0
LINE
  5
287
100
AcDbEntity
  8
0
100
AcDbLine
 62
7
  6
CONTINUOUS
 10
151.0651562682
 20
124.7994774095
 11
151.0651562682
 21
124.7879200529
  0
LINE
  5
288
100
AcDbEntity
  8
0
100
AcDbLine
 62
7
  6
CONTINUOUS
 10
152.9683728394
 20
124.4446789423
 11
152.72683976
 21
122.7581541256
  0
LINE
  5
289
100
AcDbEntity
  8
0
100
AcDbLine
 62
7
  6
CONTINUOUS
 10
152.9683728394
 20
123.202549415
 11
152.8849902536
 21
122.6203235742
  0
LWPOLYLINE
  5
28A
100
AcDbEntity
  8
0
100
AcDbPolyline
 62
7
  6
CONTINUOUS
 90
10
 70
0
 10
148.1040279731
 20
103.7925208946
 10
148.0799919695
 20
103.7699242486
 10
148.0472416588
 20
103.7336483166
 10
148.0182132659
 20
103.6943842499
 10
147.9932499753
 20
103.6526571561
 10
147.9724597913
 20
103.6087073928
 10
147.9559505499
 20
103.562664223
 10
147.9439546745
 20
103.5149044646
 10
147.9366992444
 20
103.4660373556
 10
147.9343014091
 20
103.4166058062
  0
LINE
  5
28B
100
AcDbEntity
  8
0
100
AcDbLine
 62
7
  6
CONTINUOUS
 10
148.104087298
 20
103.7925730905
 11
148.4414125273
 21
104.0892597125
  0
LINE
  5
28C
100
AcDbEntity
  8
0
100
AcDbLine
 62
253
  6
CONTINUOUS
 10
148.4317984954
 20
103.8246386446
 11
148.6309283624
 21
103.9997787244
  0
LWPOLYLINE
  5
28D
100
AcDbEntity
  8
0
100
AcDbPolyline
 62
253
  6
CONTINUOUS
 90
10
 70
0
 10
148.1040866619
 20
103.792572531
 10
148.1222723561
 20
103.8070079909
 10
148.1529373448
 20
103.8255612034
 10
148.1867036344
 20
103.8396296003
 10
148.2232088763
 20
103.8490560104
 10
148.2620478348
 20
103.8537300517
 10
148.3027834102
 20
103.8535970572
 10
148.3449632672
 20
103.8486591181
 10
148.38812667
 20
103.8389707657
 10
148.431798469
 20
103.8246386213
  0
LINE
  5
28E
100
AcDbEntity
  8
0
100
AcDbLine
 62
253
  6
CONTINUOUS
 10
148.2495381551
 20
104.1798542974
 11
147.6626463001
 21
103.7178776586
  0
LWPOLYLINE
  5
28F
100
AcDbEntity
  8
0
100
AcDbPolyline
 62
253
  6
CONTINUOUS
 90
16
 70
0
 10
147.6626463008
 20
103.7178776592
 10
147.6318599083
 20
103.6962316167
 10
147.5975641159
 20
103.676403279
 10
147.5600832136
 20
103.6585801367
 10
147.5197716156
 20
103.6429307219
 10
147.4770104894
 20
103.6296030074
 10
147.4322041486
 20
103.6187230111
 10
147.3857762434
 20
103.6103936112
 10
147.3381658007
 20
103.6046935774
 10
147.2898230543
 20
103.6016768127
 10
147.2412051416
 20
103.6013718387
 10
147.1927717566
 20
103.6037815336
 10
147.1449808484
 20
103.6088831115
 10
147.0982843057
 20
103.616628335
 10
147.0531236831
 20
103.6269439669
 10
147.0099260049
 20
103.6397324658
  0
LINE
  5
290
100
AcDbEntity
  8
0
100
AcDbLine
 62
7
  6
CONTINUOUS
 10
167.3508476985
 20
98.6380687479
 11
167.4721474415
 21
98.5893520364
  0
LINE
  5
291
100
AcDbEntity
  8
0
100
AcDbLine
 62
253
  6
CONTINUOUS
 10
152.72683976
 20
122.7581541256
 11
152.72683976
 21
122.7472488583
  0
LINE
  5
292
100
AcDbEntity
  8
0
100
AcDbLine
 62
7
  6
CONTINUOUS
 10
152.9683728394
 20
124.4446789423
 11
152.9683728394
 21
123.202549415
  0
LINE
  5
293
100
AcDbEntity
  8
0
100
AcDbLine
 62
7
  6
CONTINUOUS
 10
152.7261708475
 20
122.7472488583
 11
152.72683976
 21
122.7581541256
  0
LINE
  5
294
100
AcDbEntity
  8
0
100
AcDbLine
 62
253
  6
CONTINUOUS
 10
166.0938928737
 20
115.7420516915
 11
168.8411765394
 21
118.0698031324
  0
LINE
  5
295
100
AcDbEntity
  8
0
100
AcDbLine
 62
253
  6
CONTINUOUS
 10
166.5108306396
 20
115.1747437398
 11
169.2503316514
 21
117.4959010004
  0
LINE
  5
296
100
AcDbEntity
  8
0
100
AcDbLine
 62
7
  6
CONTINUOUS
 10
170.1276324758
 20
112.205582684
 11
169.2503316514
 21
112.1213581411
  0
LINE
  5
297
100
AcDbEntity
  8
0
100
AcDbLine
 62
7
  6
CONTINUOUS
 10
169.2503316514
 20
110.4787497535
 11
170.5405463789
 21
111.645674948
  0
LINE
  5
298
100
AcDbEntity
  8
0
100
AcDbLine
 62
7
  6
CONTINUOUS
 10
161.9006737436
 20
119.0625616609
 11
161.901342656
 21
119.0734669282
  0
LINE
  5
299
100
AcDbEntity
  8
0
100
AcDbLine
 62
7
  6
CONTINUOUS
 10
162.1428757354
 20
120.7599917449
 11
161.901342656
 21
119.0734669282
  0
LINE
  5
29A
100
AcDbEntity
  8
0
100
AcDbLine
 62
7
  6
CONTINUOUS
 10
162.1428757354
 20
119.5178622176
 11
162.0594931496
 21
118.9356363768
  0
LINE
  5
29B
100
AcDbEntity
  8
0
100
AcDbLine
 62
7
  6
CONTINUOUS
 10
169.2503316514
 20
107.0383111675
 11
170.5405463789
 21
108.2399987502
  0
LWPOLYLINE
  5
29C
100
AcDbEntity
  8
0
100
AcDbPolyline
 62
253
  6
CONTINUOUS
 90
11
 70
0
 10
130.1835860128
 20
128.428119053
 10
130.1468001878
 20
128.4466407047
 10
130.1134088759
 20
128.4669762285
 10
130.0837358364
 20
128.4889284526
 10
130.0580687766
 20
128.5122845303
 10
130.036656562
 20
128.5368180029
 10
130.0197068038
 20
128.562290996
 10
130.0073838452
 20
128.5884565256
 10
129.9998071687
 20
128.615060893
 10
129.9970502372
 20
128.6418461444
 10
129.9970889801
 20
128.6475463757
  0
LINE
  5
29D
100
AcDbEntity
  8
0
100
AcDbLine
 62
253
  6
CONTINUOUS
 10
161.901342656
 20
119.0734669282
 11
161.901342656
 21
119.0625616609
  0
LINE
  5
29E
100
AcDbEntity
  8
0
100
AcDbLine
 62
7
  6
CONTINUOUS
 10
162.1428757354
 20
120.7599917449
 11
162.1428757354
 21
119.5178622176
  0
LINE
  5
29F
100
AcDbEntity
  8
0
100
AcDbLine
 62
7
  6
CONTINUOUS
 10
169.2503316514
 20
103.1063813549
 11
167.8817702701
 21
102.0455491213
  0
LWPOLYLINE
  5
2A0
100
AcDbEntity
  8
0
100
AcDbPolyline
 62
253
  6
CONTINUOUS
 90
16
 70
0
 10
165.4544751986
 20
114.2625432851
 10
165.4978042351
 20
114.2488888302
 10
165.5432189931
 20
114.2375737991
 10
165.5902791437
 20
114.228707899
 10
165.6385284047
 20
114.2223770914
 10
165.6874989647
 20
114.218642758
 10
165.7367160186
 20
114.2175411056
 10
165.7857023715
 20
114.2190828155
 10
165.8339830653
 20
114.2232529397
 10
165.8810899839
 20
114.2300110459
 10
165.9265663915
 20
114.2392916092
 10
165.9699713615
 20
114.251004648
 10
166.0108840514
 20
114.2650365959
 10
166.0489077831
 20
114.281251403
 10
166.083673889
 20
114.299491855
 10
166.1148452865
 20
114.3195810975
  0
LWPOLYLINE
  5
2A1
100
AcDbEntity
  8
0
100
AcDbPolyline
 62
253
  6
CONTINUOUS
 90
16
 70
0
 10
147.2692998154
 20
121.5661196942
 10
147.3126288519
 20
121.5524652393
 10
147.3580436099
 20
121.5411502081
 10
147.4051037605
 20
121.5322843081
 10
147.4533530215
 20
121.5259535005
 10
147.5023235815
 20
121.5222191671
 10
147.5515406354
 20
121.5211175147
 10
147.6005269883
 20
121.5226592246
 10
147.6488076821
 20
121.5268293488
 10
147.6959146007
 20
121.5335874549
 10
147.7413910083
 20
121.5428680183
 10
147.7847959783
 20
121.5545810571
 10
147.8257086682
 20
121.568613005
 10
147.8637323999
 20
121.5848278121
 10
147.8984985057
 20
121.603068264
 10
147.9296699033
 20
121.6231575066
  0
LWPOLYLINE
  5
2A2
100
AcDbEntity
  8
0
100
AcDbPolyline
 62
253
  6
CONTINUOUS
 90
31
 70
0
 10
165.4544685706
 20
114.2625374264
 10
164.8758646089
 20
114.4634109686
 10
164.2990614286
 20
114.6656819596
 10
163.7240672598
 20
114.8693451855
 10
163.1510242688
 20
115.0743472803
 10
162.5798058765
 20
115.2807305041
 10
162.0100203359
 20
115.4886359582
 10
161.4414950472
 20
115.6981291592
 10
160.8744260022
 20
115.9091405408
 10
160.3089762528
 20
116.1216103011
 10
159.7451937142
 20
116.3355203019
 10
159.1830499647
 20
116.5508811542
 10
158.6225919011
 20
116.7676747472
 10
158.0637523408
 20
116.9859272357
 10
157.5066178691
 20
117.20560488
 10
156.951463284
 20
117.4265974445
 10
156.3986517269
 20
117.6487550642
 10
155.8478316461
 20
117.872213704
 10
155.2982106527
 20
118.0972958111
 10
154.7508381858
 20
118.3235702021
 10
154.2046863058
 20
118.5514622884
 10
153.6558908447
 20
118.7826144427
 10
153.1054214883
 20
119.0166611364
 10
152.5524064366
 20
119.2540208356
 10
151.9903229526
 20
119.4975916134
 10
151.4191033843
 20
119.7475342841
 10
150.8390639209
 20
120.0038509135
 10
150.244392862
 20
120.2693019994
 10
149.6333180859
 20
120.544919529
 10
149.0080355776
 20
120.829953191
 10
148.3687613945
 20
121.1245426314
  0
LWPOLYLINE
  5
2A3
100
AcDbEntity
  8
0
100
AcDbPolyline
 62
253
  6
CONTINUOUS
 90
31
 70
0
 10
147.2692931874
 20
121.5661138355
 10
146.6906892256
 20
121.7669873777
 10
146.1138860454
 20
121.9692583686
 10
145.5388918766
 20
122.1729215946
 10
144.9658488856
 20
122.3779236894
 10
144.3946304933
 20
122.5843069132
 10
143.8248449527
 20
122.7922123673
 10
143.256319664
 20
123.0017055683
 10
142.6892506189
 20
123.2127169499
 10
142.1238008696
 20
123.4251867102
 10
141.560018331
 20
123.639096711
 10
140.9978745815
 20
123.8544575633
 10
140.4374165179
 20
124.0712511563
 10
139.8785769576
 20
124.2895036448
 10
139.3214424859
 20
124.509181289
 10
138.7662879008
 20
124.7301738536
 10
138.2134763437
 20
124.9523314733
 10
137.6626562629
 20
125.1757901131
 10
137.1130352695
 20
125.4008722202
 10
136.5656628026
 20
125.6271466111
 10
136.0195109226
 20
125.8550386975
 10
135.4707154615
 20
126.0861908518
 10
134.9202461051
 20
126.3202375455
 10
134.3672310534
 20
126.5575972447
 10
133.8051475694
 20
126.8011680225
 10
133.233928001
 20
127.0511106932
 10
132.6538885377
 20
127.3074273226
 10
132.0592174787
 20
127.5728784085
 10
131.4481427027
 20
127.848495938
 10
130.8228601944
 20
128.1335296
 10
130.1835860113
 20
128.4281190405
  0
LINE
  5
2A4
100
AcDbEntity
  8
0
100
AcDbLine
 62
7
  6
CONTINUOUS
 10
170.375863383
 20
112.1058875555
 11
170.1276324758
 21
112.205582684
  0
LWPOLYLINE
  5
2A5
100
AcDbEntity
  8
0
100
AcDbPolyline
 62
253
  6
CONTINUOUS
 90
11
 70
0
 10
148.368761396
 20
121.1245426439
 10
148.331975571
 20
121.1430642957
 10
148.2985842592
 20
121.1633998194
 10
148.2689112197
 20
121.1853520435
 10
148.2432441598
 20
121.2087081212
 10
148.2218319453
 20
121.2332415938
 10
148.204882187
 20
121.2587145869
 10
148.1925592284
 20
121.2848801165
 10
148.184982552
 20
121.3114844839
 10
148.1822256204
 20
121.3382697353
 10
148.1822643633
 20
121.3439699666
  0
LWPOLYLINE
  5
2A6
100
AcDbEntity
  8
0
100
AcDbPolyline
 62
253
  6
CONTINUOUS
 90
16
 70
0
 10
165.8478216833
 20
96.4143012496
 10
165.8454036414
 20
96.4573119104
 10
165.8386816784
 20
96.501838767
 10
165.8276852892
 20
96.5474136286
 10
165.8124726012
 20
96.593599841
 10
165.7931790373
 20
96.6398436109
 10
165.7700602872
 20
96.6854832165
 10
165.7434042578
 20
96.7299641583
 10
165.7134784889
 20
96.7728520019
 10
165.6806030841
 20
96.8136852203
 10
165.6451309097
 20
96.8520193939
 10
165.6074558012
 20
96.8874232181
 10
165.5680017833
 20
96.9194961797
 10
165.5272069524
 20
96.9478827521
 10
165.4855169095
 20
96.9722734606
 10
165.4433905854
 20
96.9923997782
  0
LWPOLYLINE
  5
2A7
100
AcDbEntity
  8
0
100
AcDbPolyline
 62
253
  6
CONTINUOUS
 90
10
 70
0
 10
165.1951013302
 20
97.5658295281
 10
165.196870451
 20
97.5236479314
 10
165.2007866736
 20
97.4857262886
 10
165.2070482022
 20
97.4517363878
 10
165.2162444348
 20
97.4212556083
 10
165.2282386278
 20
97.3946168899
 10
165.2421650673
 20
97.3727198011
 10
165.2583162874
 20
97.3556949739
 10
165.2769466181
 20
97.3434543741
 10
165.2879548777
 20
97.3389014752
  0
LWPOLYLINE
  5
2A8
100
AcDbEntity
  8
0
100
AcDbPolyline
 62
253
  6
CONTINUOUS
 90
10
 70
0
 10
166.1148452788
 20
80.1513971369
 10
166.0593921555
 20
82.0015226808
 10
166.010638157
 20
83.8256211552
 10
165.9685832831
 20
85.6236925601
 10
165.9335650885
 20
87.3754128686
 10
165.9052460185
 20
89.1011061077
 10
165.8826134094
 20
90.8617443572
 10
165.8653297065
 20
92.6776516441
 10
165.8537324645
 20
94.5285039415
 10
165.8478216833
 20
96.4143012496
  0
LWPOLYLINE
  5
2A9
100
AcDbEntity
  8
0
100
AcDbPolyline
 62
253
  6
CONTINUOUS
 90
4
 70
0
 10
165.4544685698
 20
80.0592247394
 10
165.4000962651
 20
81.9101967747
 10
165.3528404866
 20
83.7357875448
 10
165.3123929472
 20
85.5356873519
  0
LWPOLYLINE
  5
2AA
100
AcDbEntity
  8
0
100
AcDbPolyline
 62
253
  6
CONTINUOUS
 90
7
 70
0
 10
165.3123929472
 20
85.5356873519
 10
165.2788061407
 20
87.2892385974
 10
165.2512981436
 20
89.0163958061
 10
165.2288921321
 20
90.7782697454
 10
165.2117135583
 20
92.5955873688
 10
165.2003501177
 20
94.448146856
 10
165.1951012086
 20
96.3361561184
  0
LWPOLYLINE
  5
2AB
100
AcDbEntity
  8
0
100
AcDbPolyline
 62
253
  6
CONTINUOUS
 90
10
 70
0
 10
165.8478216257
 20
97.6427134221
 10
165.8519391269
 20
99.3359431543
 10
165.8619516159
 20
101.0587969004
 10
165.8778590926
 20
102.8112746604
 10
165.8990042759
 20
104.5796232644
 10
165.9260444469
 20
106.3775958823
 10
165.9609514491
 20
108.2464520236
 10
166.0043825637
 20
110.1999448582
 10
166.0556805095
 20
112.2243212161
 10
166.1148452865
 20
114.3195810975
  0
LWPOLYLINE
  5
2AC
100
AcDbEntity
  8
0
100
AcDbPolyline
 62
253
  6
CONTINUOUS
 90
5
 70
0
 10
165.1951011986
 20
97.565829639
 10
165.1994853718
 20
99.2610664361
 10
165.2091335916
 20
100.9857228664
 10
165.2242742374
 20
102.7399511973
 10
165.2449574274
 20
104.5104536147
  0
LWPOLYLINE
  5
2AD
100
AcDbEntity
  8
0
100
AcDbPolyline
 62
253
  6
CONTINUOUS
 90
6
 70
0
 10
165.2449574274
 20
104.5104536147
 10
165.2715152777
 20
106.3107651242
 10
165.3049802997
 20
108.1815834449
 10
165.3462959375
 20
110.1369144075
 10
165.3958983785
 20
112.1637413408
 10
165.4544685706
 20
114.2625374264
  0
LWPOLYLINE
  5
2AE
100
AcDbEntity
  8
0
100
AcDbPolyline
 62
253
  6
CONTINUOUS
 90
16
 70
0
 10
165.1951013881
 20
96.3361560567
 10
165.1968702757
 20
96.3807845183
 10
165.2007862418
 20
96.4268255682
 10
165.2070474538
 20
96.4741438315
 10
165.2162431846
 20
96.5228440901
 10
165.228236739
 20
96.5727337759
 10
165.2421626381
 20
96.6228744243
 10
165.2583134389
 20
96.6722678329
 10
165.2769434088
 20
96.7207050472
 10
165.2970406095
 20
96.7679202985
 10
165.3186847855
 20
96.8130442364
 10
165.3421083056
 20
96.8554780939
 10
165.366357957
 20
96.8952113512
 10
165.3911218273
 20
96.9317753013
 10
165.4167924669
 20
96.9643423019
 10
165.4433905854
 20
96.9923997782
  0
LWPOLYLINE
  5
2AF
100
AcDbEntity
  8
0
100
AcDbPolyline
 62
253
  6
CONTINUOUS
 90
22
 70
0
 10
165.4544685851
 20
114.2625374323
 10
165.4580764896
 20
114.3345029752
 10
165.4649919464
 20
114.4087096876
 10
165.475183591
 20
114.4847900608
 10
165.4886113611
 20
114.562359063
 10
165.5052077677
 20
114.6410398685
 10
165.5248802441
 20
114.7204664667
 10
165.5475466571
 20
114.8002495861
 10
165.5731010134
 20
114.8799879639
 10
165.6013963269
 20
114.9592946571
 10
165.6323084954
 20
115.0377726451
 10
165.6656958227
 20
115.1150315754
 10
165.7013670732
 20
115.1906996824
 10
165.7391653261
 20
115.2643983699
 10
165.7789166261
 20
115.3357568687
 10
165.8203894593
 20
115.4044292778
 10
165.8633954726
 20
115.4700659312
 10
165.9077408606
 20
115.5323402157
 10
165.9531755985
 20
115.5909620065
 10
165.9994778602
 20
115.6456412257
 10
166.0464545488
 20
115.6960905885
 10
166.0938928736
 20
115.7420516914
  0
LWPOLYLINE
  5
2B0
100
AcDbEntity
  8
0
100
AcDbPolyline
 62
253
  6
CONTINUOUS
 90
22
 70
0
 10
166.1148452865
 20
114.3195810975
 10
166.1171527722
 20
114.3616291972
 10
166.1214558075
 20
114.4045800744
 10
166.1277543924
 20
114.4484337291
 10
166.1360988012
 20
114.4934329437
 10
166.1464387597
 20
114.5393349357
 10
166.1586234449
 20
114.5854113579
 10
166.1726792325
 20
114.6316467555
 10
166.1885797469
 20
114.6780565833
 10
166.2060950386
 20
114.7239588586
 10
166.2252508747
 20
114.7693492441
 10
166.246021488
 20
114.8142320771
 10
166.2680996276
 20
114.8579383871
 10
166.2915047389
 20
114.9004491314
 10
166.3162173765
 20
114.9417833528
 10
166.341871954
 20
114.9813292094
 10
166.3684954366
 20
115.0190709488
 10
166.3960608591
 20
115.0550243235
 10
166.4241217389
 20
115.0886247484
 10
166.4525292485
 20
115.1196840286
 10
166.4814322154
 20
115.1483903591
 10
166.5108306396
 20
115.1747437398
  0
LWPOLYLINE
  5
2B1
100
AcDbEntity
  8
0
100
AcDbPolyline
 62
253
  6
CONTINUOUS
 90
8
 70
0
 10
165.8478216259
 20
97.6427134223
 10
165.8454035796
 20
97.6011123083
 10
165.8386816062
 20
97.5616531433
 10
165.8276852033
 20
97.5247860589
 10
165.8124725018
 20
97.4909046766
 10
165.7931789273
 20
97.4604554344
 10
165.7700601697
 20
97.4338914796
 10
165.7495168041
 20
97.4160453367
  0
LINE
  5
2B2
100
AcDbEntity
  8
0
100
AcDbLine
 62
253
  6
CONTINUOUS
 10
167.4721474415
 20
98.5893520364
 11
165.4433905855
 21
96.9923997782
  0
LINE
  5
2B3
100
AcDbEntity
  8
0
100
AcDbLine
 62
253
  6
CONTINUOUS
 10
167.8817702701
 20
98.0153402203
 11
165.8478216833
 21
96.4143012496
  0
LINE
  5
2B4
100
AcDbEntity
  8
0
100
AcDbLine
 62
253
  6
CONTINUOUS
 10
165.7495168041
 20
97.4160453367
 11
165.749225017
 21
97.4158222741
  0
LINE
  5
2B5
100
AcDbEntity
  8
0
100
AcDbLine
 62
253
  6
CONTINUOUS
 10
165.8478216257
 20
97.6427134221
 11
167.8817702701
 21
99.1948808503
  0
LINE
  5
2B6
100
AcDbEntity
  8
0
100
AcDbLine
 62
7
  6
CONTINUOUS
 10
165.7492228726
 20
97.4158206376
 11
167.7829132892
 21
98.9677910044
  0
LWPOLYLINE
  5
2B7
100
AcDbEntity
  8
0
100
AcDbPolyline
 62
253
  6
CONTINUOUS
 90
16
 70
0
 10
165.847821684
 20
96.4143012501
 10
165.8170352915
 20
96.3926552076
 10
165.7827394991
 20
96.3728268699
 10
165.7452585969
 20
96.3550037276
 10
165.7049469988
 20
96.3393543128
 10
165.6621858726
 20
96.3260265983
 10
165.6173795318
 20
96.315146602
 10
165.5709516267
 20
96.3068172021
 10
165.5233411839
 20
96.3011171683
 10
165.4749984375
 20
96.2981004036
 10
165.4263805248
 20
96.2977954296
 10
165.3779471398
 20
96.3002051245
 10
165.3301562316
 20
96.3053067024
 10
165.2834596889
 20
96.3130519259
 10
165.2382990663
 20
96.3233675578
 10
165.1951013881
 20
96.3361560567
  0
LWPOLYLINE
  5
2B8
100
AcDbEntity
  8
0
100
AcDbPolyline
 62
253
  6
CONTINUOUS
 90
10
 70
0
 10
149.0344988788
 20
122.5934888973
 10
148.9910379881
 20
122.6077941452
 10
148.9482166634
 20
122.6176038386
 10
148.9065032541
 20
122.6228107025
 10
148.866353977
 20
122.6233578047
 10
148.8282079639
 20
122.6192391766
 10
148.7924824525
 20
122.6104998929
 10
148.7595681702
 20
122.5972355703
 10
148.7298250806
 20
122.5795913109
 10
148.7066633619
 20
122.5607154013
  0
LWPOLYLINE
  5
2B9
100
AcDbEntity
  8
0
100
AcDbPolyline
 62
253
  6
CONTINUOUS
 90
10
 70
0
 10
130.8493234956
 20
129.8970653064
 10
130.8058626049
 20
129.9113705543
 10
130.7630412802
 20
129.9211802477
 10
130.7213278709
 20
129.9263871116
 10
130.6811785938
 20
129.9269342138
 10
130.6430325807
 20
129.9228155857
 10
130.6073070692
 20
129.914076302
 10
130.574392787
 20
129.9008119793
 10
130.5446496974
 20
129.8831677199
 10
130.5214879787
 20
129.8642918104
  0
LWPOLYLINE
  5
2BA
100
AcDbEntity
  8
0
100
AcDbPolyline
 62
253
  6
CONTINUOUS
 90
31
 70
0
 10
166.0938928737
 20
115.7420516915
 10
165.516084635
 20
115.9412600371
 10
164.9401577075
 20
116.1419207037
 10
164.3661120912
 20
116.3440336912
 10
163.7941030887
 20
116.5475434667
 10
163.2239753973
 20
116.752505563
 10
162.6552631091
 20
116.9590865794
 10
162.0877324322
 20
117.1673699717
 10
161.5216171583
 20
117.377272284
 10
160.9571527552
 20
117.5887097471
 10
160.394402772
 20
117.8016602194
 10
159.8333036595
 20
118.0161458426
 10
159.2739002377
 20
118.2321492716
 10
158.7161093688
 20
118.4497051606
 10
158.1600141906
 20
118.6687788554
 10
157.6059089354
 20
118.8892490489
 10
157.0541400145
 20
119.1109735528
 10
156.5043610165
 20
119.3340945552
 10
155.9558269407
 20
119.5589173137
 10
155.409589075
 20
119.7849701084
 10
154.8645961313
 20
120.0127246591
 10
154.316949245
 20
120.2439013832
 10
153.7674966948
 20
120.4780485613
 10
153.2153902019
 20
120.7156179129
 10
152.6541860655
 20
120.9596850131
 10
152.0835335872
 20
121.2102825571
 10
151.5037834654
 20
121.4673778497
 10
150.9095440942
 20
121.7339483811
 10
150.2990182718
 20
122.0109866478
 10
149.6740032
 20
122.2975001532
 10
149.0344988789
 20
122.5934888974
  0
LWPOLYLINE
  5
2BB
100
AcDbEntity
  8
0
100
AcDbPolyline
 62
253
  6
CONTINUOUS
 90
31
 70
0
 10
147.9087174905
 20
123.0456281006
 10
147.3309092518
 20
123.2448364462
 10
146.7549823243
 20
123.4454971128
 10
146.180936708
 20
123.6476101003
 10
145.6089277055
 20
123.8511198757
 10
145.0388000141
 20
124.0560819721
 10
144.4700877259
 20
124.2626629885
 10
143.9025570489
 20
124.4709463808
 10
143.3364417751
 20
124.6808486931
 10
142.771977372
 20
124.8922861562
 10
142.2092273888
 20
125.1052366285
 10
141.6481282763
 20
125.3197222517
 10
141.0887248544
 20
125.5357256807
 10
140.5309339856
 20
125.7532815697
 10
139.9748388074
 20
125.9723552645
 10
139.4207335522
 20
126.192825458
 10
138.8689646312
 20
126.4145499618
 10
138.3191856333
 20
126.6376709643
 10
137.7706515575
 20
126.8624937228
 10
137.2244136917
 20
127.0885465175
 10
136.6794207481
 20
127.3163010682
 10
136.1317738618
 20
127.5474777923
 10
135.5823213115
 20
127.7816249704
 10
135.0302148187
 20
128.019194322
 10
134.4690106823
 20
128.2632614222
 10
133.898358204
 20
128.5138589662
 10
133.3186080822
 20
128.7709542588
 10
132.724368711
 20
129.0375247901
 10
132.1138428886
 20
129.3145630569
 10
131.4888278168
 20
129.6010765623
 10
130.8493234956
 20
129.8970653065
  0
LINE
  5
2BC
100
AcDbEntity
  8
0
100
AcDbLine
 62
7
  6
CONTINUOUS
 10
164.7456386065
 20
117.8568198036
 11
161.9858663084
 21
118.9652065761
  0
LINE
  5
2BD
100
AcDbEntity
  8
0
100
AcDbLine
 62
7
  6
CONTINUOUS
 10
155.5711357105
 20
121.5415070009
 11
152.8113634123
 21
122.6498937735
  0
LINE
  5
2BE
100
AcDbEntity
  8
0
100
AcDbLine
 62
7
  6
CONTINUOUS
 10
146.5604632233
 20
125.1603962127
 11
143.8006909252
 21
126.2687829852
  0
LINE
  5
2BF
100
AcDbEntity
  8
0
100
AcDbLine
 62
7
  6
CONTINUOUS
 10
137.3859603273
 20
128.84508341
 11
134.6261880291
 21
129.9534701826
  0
LWPOLYLINE
  5
2C0
100
AcDbEntity
  8
0
100
AcDbPolyline
 62
253
  6
CONTINUOUS
 90
16
 70
0
 10
147.9087174904
 20
123.0456281005
 10
147.9507782103
 20
123.0255860114
 10
147.9925430656
 20
123.0014241516
 10
148.033555269
 20
122.9734067823
 10
148.0733662649
 20
122.9418403329
 10
148.1115406354
 20
122.9070700495
 10
148.1476608631
 20
122.8694762194
 10
148.1813318966
 20
122.8294700109
 10
148.2121854716
 20
122.7874889768
 10
148.2398841386
 20
122.7439922688
 10
148.2641249541
 20
122.699455616
 10
148.2846427931
 20
122.6543661211
 10
148.3012132495
 20
122.6092169335
 10
148.3136550903
 20
122.5645018555
 10
148.3218322374
 20
122.5207099415
 10
148.3256552564
 20
122.4783201489
  0
LWPOLYLINE
  5
2C1
100
AcDbEntity
  8
0
100
AcDbPolyline
 62
253
  6
CONTINUOUS
 90
16
 70
0
 10
166.0938928736
 20
115.7420516914
 10
166.1359535935
 20
115.7220096024
 10
166.1777184489
 20
115.6978477425
 10
166.2187306522
 20
115.6698303732
 10
166.2585416481
 20
115.6382639238
 10
166.2967160187
 20
115.6034936405
 10
166.3328362464
 20
115.5658998103
 10
166.3665072798
 20
115.5258936018
 10
166.3973608548
 20
115.4839125677
 10
166.4250595218
 20
115.4404158598
 10
166.4493003373
 20
115.3958792069
 10
166.4698181763
 20
115.350789712
 10
166.4863886327
 20
115.3056405244
 10
166.4988304735
 20
115.2609254464
 10
166.5070076206
 20
115.2171335324
 10
166.5108306396
 20
115.1747437398
  0
LINE
  5
2C2
100
AcDbEntity
  8
0
100
AcDbLine
 62
7
  6
CONTINUOUS
 10
167.8817702701
 20
98.0153402203
 11
167.8817702701
 21
95.1646719493
  0
LINE
  5
2C3
100
AcDbEntity
  8
0
100
AcDbLine
 62
7
  6
CONTINUOUS
 10
167.8817702701
 20
99.1948808503
 11
167.8817702701
 21
102.0455491213
  0
LINE
  5
2C4
100
AcDbEntity
  8
0
100
AcDbLine
 62
7
  6
CONTINUOUS
 10
169.2503316514
 20
117.4959010004
 11
169.2503316514
 21
103.1063813549
  0
LINE
  5
2C5
100
AcDbEntity
  8
0
100
AcDbLine
 62
7
  6
CONTINUOUS
 10
169.2503316514
 20
81.8359845374
 11
169.2503316514
 21
96.2255041829
  0
LINE
  5
2C6
100
AcDbEntity
  8
0
100
AcDbLine
 62
7
  6
CONTINUOUS
 10
168.3489555236
 20
96.5875171569
 11
167.8817702701
 21
96.2253812799
  0
LINE
  5
2C7
100
AcDbEntity
  8
0
100
AcDbLine
 62
7
  6
CONTINUOUS
 10
169.2503316514
 20
96.2255041829
 11
167.8817702701
 21
95.1646719493
  0
LINE
  5
2C8
100
AcDbEntity
  8
0
100
AcDbLine
 62
7
  6
CONTINUOUS
 10
168.8411765394
 20
118.0698031324
 11
167.4565113612
 21
118.6259158844
  0
LINE
  5
2C9
100
AcDbEntity
  8
0
100
AcDbLine
 62
7
  6
CONTINUOUS
 10
162.1428757354
 20
120.7599917449
 11
158.2820084652
 21
122.3106030818
  0
LINE
  5
2CA
100
AcDbEntity
  8
0
100
AcDbLine
 62
7
  6
CONTINUOUS
 10
152.9683728394
 20
124.4446789423
 11
151.5837076612
 21
125.0007916943
  0
LINE
  5
2CB
100
AcDbEntity
  8
0
100
AcDbLine
 62
7
  6
CONTINUOUS
 10
150.6560011562
 20
125.3733795414
 11
149.271335978
 21
125.9294922935
  0
LINE
  5
2CC
100
AcDbEntity
  8
0
100
AcDbLine
 62
7
  6
CONTINUOUS
 10
143.9577003522
 20
128.063568154
 11
140.096833082
 21
129.6141794909
  0
LINE
  5
2CD
100
AcDbEntity
  8
0
100
AcDbLine
 62
7
  6
CONTINUOUS
 10
134.7831974562
 20
131.7482553513
 11
133.398532278
 21
132.3043681034
  0
LINE
  5
2CE
100
AcDbEntity
  8
0
100
AcDbLine
 62
253
  6
CONTINUOUS
 10
170.5405463789
 20
111.645674948
 11
170.5405463789
 21
108.2399987502
  0
LINE
  5
2CF
100
AcDbEntity
  8
0
100
AcDbLine
 62
253
  6
CONTINUOUS
 10
170.5405463789
 20
93.4604995648
 11
170.5405463789
 21
90.054823367
  0
LINE
  5
2D0
100
AcDbEntity
  8
0
100
AcDbLine
 62
7
  6
CONTINUOUS
 10
170.6317175212
 20
111.825822578
 11
170.6317175212
 21
108.4245901641
  0
LINE
  5
2D1
100
AcDbEntity
  8
0
100
AcDbLine
 62
7
  6
CONTINUOUS
 10
170.6317175212
 20
93.6406471947
 11
170.6317175212
 21
90.2394147808
  0
LINE
  5
2D2
100
AcDbEntity
  8
0
100
AcDbLine
 62
7
  6
CONTINUOUS
 10
169.2503316514
 20
92.2935743703
 11
170.5405463789
 21
93.4604995648
  0
LINE
  5
2D3
100
AcDbEntity
  8
0
100
AcDbLine
 62
7
  6
CONTINUOUS
 10
169.2503316514
 20
88.8531357843
 11
170.5405463789
 21
90.054823367
  0
LWPOLYLINE
  5
2D4
100
AcDbEntity
  8
0
100
AcDbPolyline
 62
253
  6
CONTINUOUS
 90
8
 70
0
 10
166.3964553618
 20
79.6716747157
 10
166.4250610524
 20
79.695336154
 10
166.4493015612
 20
79.7225714339
 10
166.4698190641
 20
79.7537236484
 10
166.4863891944
 20
79.7884520678
 10
166.498830754
 20
79.8263768501
 10
166.507007698
 20
79.8670831935
 10
166.5108306256
 20
79.9101258822
  0
LINE
  5
2D5
100
AcDbEntity
  8
0
100
AcDbLine
 62
253
  6
CONTINUOUS
 10
169.2503316514
 20
81.8359845374
 11
166.5108306256
 21
79.9101258822
  0
LINE
  5
2D6
100
AcDbEntity
  8
0
100
AcDbLine
 62
7
  6
CONTINUOUS
 10
169.1442023288
 20
81.6033302359
 11
166.3964552903
 21
79.6716746655
  0
LWPOLYLINE
  5
2D7
100
AcDbEntity
  8
0
100
AcDbPolyline
 62
253
  6
CONTINUOUS
 90
22
 70
0
 10
166.5108306256
 20
79.9101258822
 10
166.4814322012
 20
79.8909032348
 10
166.4525292342
 20
79.8748016387
 10
166.4241217244
 20
79.8618210939
 10
166.3960608444
 20
79.8519190697
 10
166.3684954218
 20
79.8451380968
 10
166.3418719389
 20
79.841605767
 10
166.3162173614
 20
79.8413796366
 10
166.2915047236
 20
79.8444021492
 10
166.2680996123
 20
79.8506282273
 10
166.2460214726
 20
79.8601070595
 10
166.2252508593
 20
79.8727894572
 10
166.2060950232
 20
79.8884827774
 10
166.1885797314
 20
79.9072313039
 10
166.172679217
 20
79.9289907528
 10
166.1586234293
 20
79.9534356297
 10
166.1464387439
 20
79.9806222788
 10
166.1360987853
 20
80.0104943558
 10
166.1277543771
 20
80.0425573329
 10
166.1214557939
 20
80.0766463675
 10
166.1171527611
 20
80.1129263022
 10
166.1148452788
 20
80.1513971369
  0
ELLIPSE
  5
2D8
100
AcDbEntity
  8
0
100
AcDbEllipse
 62
7
  6
CONTINUOUS
 10
170.0317175212
 20
90.2369684106
 30
0.0
 11
0.5999961625
 21
0.0037035667
 31
0.0
 40
0.5794175877
 41
-0.5620818877
 42
-0.0038369829
  0
ELLIPSE
  5
2D9
100
AcDbEntity
  8
0
100
AcDbEllipse
 62
7
  6
CONTINUOUS
 10
168.8406152297
 20
82.0010977766
 30
0.0
 11
-0.3166934957
 21
0.3878404978
 31
0.0
 40
0.6702436759
 41
-3.1895544554
 42
-2.4542862349
  0
ELLIPSE
  5
2DA
100
AcDbEntity
  8
0
100
AcDbEllipse
 62
7
  6
CONTINUOUS
 10
167.4720538483
 20
98.1797980074
 30
0.0
 11
0.3170403205
 21
-0.3867036085
 31
0.0
 40
0.6711200097
 41
0.6859711218
 42
2.2565390145
  0
ELLIPSE
  5
2DB
100
AcDbEntity
  8
0
100
AcDbEllipse
 62
7
  6
CONTINUOUS
 10
170.0317175212
 20
93.643093565
 30
0.0
 11
0.5999964607
 21
-0.0036301502
 31
0.0
 40
0.5677065366
 41
-0.5550705872
 42
0.963365862
  0
ELLIPSE
  5
2DC
100
AcDbEntity
  8
0
100
AcDbEllipse
 62
7
  6
CONTINUOUS
 10
150.6554398464
 20
124.9634668739
 30
0.0
 11
-0.3165198962
 21
0.3871139532
 31
0.0
 40
0.6720475734
 41
-2.4536186814
 42
-0.8841923507
  0
ELLIPSE
  5
2DD
100
AcDbEntity
  8
0
100
AcDbEllipse
 62
7
  6
CONTINUOUS
 10
134.7409033164
 20
130.0560254326
 30
0.0
 11
0.1999434854
 21
0.0078174272
 31
0.0
 40
0.6081570881
 41
3.1201007963
 42
4.077750384
  0
ELLIPSE
  5
2DE
100
AcDbEntity
  8
0
100
AcDbEllipse
 62
7
  6
CONTINUOUS
 10
137.5006756145
 20
128.94763866
 30
0.0
 11
0.1999434854
 21
0.0078174272
 31
0.0
 40
0.6081570881
 41
-2.2054349231
 42
-1.1582373719
  0
ELLIPSE
  5
2DF
100
AcDbEntity
  8
0
100
AcDbEllipse
 62
7
  6
CONTINUOUS
 10
146.6751785106
 20
125.2629514626
 30
0.0
 11
0.1999434854
 21
0.0078174272
 31
0.0
 40
0.6081570881
 41
-2.2054349231
 42
-1.1582373719
  0
ELLIPSE
  5
2E0
100
AcDbEntity
  8
0
100
AcDbEllipse
 62
7
  6
CONTINUOUS
 10
143.9154062124
 20
126.3713382352
 30
0.0
 11
0.1999434854
 21
0.0078174272
 31
0.0
 40
0.6081570881
 41
3.1201007963
 42
4.077750384
  0
ELLIPSE
  5
2E1
100
AcDbEntity
  8
0
100
AcDbEllipse
 62
7
  6
CONTINUOUS
 10
133.3990935877
 20
131.8940045666
 30
0.0
 11
-0.3166934957
 21
0.3878404978
 31
0.0
 40
0.6702436759
 41
-0.8821199121
 42
0.0484752164
  0
ELLIPSE
  5
2E2
100
AcDbEntity
  8
0
100
AcDbEllipse
 62
7
  6
CONTINUOUS
 10
168.8406152297
 20
117.6598904648
 30
0.0
 11
-0.3165198962
 21
0.3871139532
 31
0.0
 40
0.6720475734
 41
-2.4536186814
 42
-0.8841923507
  0
ELLIPSE
  5
2E3
100
AcDbEntity
  8
0
100
AcDbEllipse
 62
7
  6
CONTINUOUS
 10
167.4720538483
 20
99.3595257667
 30
0.0
 11
-0.3170686951
 21
0.3868251561
 31
0.0
 40
0.6708195125
 41
-3.1644370718
 42
-2.4557308722
  0
ELLIPSE
  5
2E4
100
AcDbEntity
  8
0
100
AcDbEllipse
 62
7
  6
CONTINUOUS
 10
152.9260786996
 20
122.7524490235
 30
0.0
 11
0.1999434854
 21
0.0078174272
 31
0.0
 40
0.6081570881
 41
3.1201007963
 42
4.077750384
  0
ELLIPSE
  5
2E5
100
AcDbEntity
  8
0
100
AcDbEllipse
 62
7
  6
CONTINUOUS
 10
155.6858509977
 20
121.6440622509
 30
0.0
 11
0.1999434854
 21
0.0078174272
 31
0.0
 40
0.6081570881
 41
-2.2054349231
 42
-1.1582373719
  0
ELLIPSE
  5
2E6
100
AcDbEntity
  8
0
100
AcDbEllipse
 62
7
  6
CONTINUOUS
 10
164.8603538938
 20
117.9593750536
 30
0.0
 11
0.1999434854
 21
0.0078174272
 31
0.0
 40
0.6081570881
 41
-2.2054349231
 42
-1.1582373719
  0
ELLIPSE
  5
2E7
100
AcDbEntity
  8
0
100
AcDbEllipse
 62
7
  6
CONTINUOUS
 10
162.1005815957
 20
119.0677618261
 30
0.0
 11
0.1999434854
 21
0.0078174272
 31
0.0
 40
0.6081570881
 41
3.1201007963
 42
4.077750384
  0
ELLIPSE
  5
2E8
100
AcDbEntity
  8
0
100
AcDbEllipse
 62
7
  6
CONTINUOUS
 10
151.584268971
 20
124.5904281576
 30
0.0
 11
-0.3166934957
 21
0.3878404978
 31
0.0
 40
0.6702436759
 41
-0.8821199121
 42
0.0484752164
  0
ELLIPSE
  5
2E9
100
AcDbEntity
  8
0
100
AcDbEllipse
 62
7
  6
CONTINUOUS
 10
170.0317175212
 20
108.4221437938
 30
0.0
 11
0.5999961625
 21
0.0037035667
 31
0.0
 40
0.5794175877
 41
-0.5620818877
 42
-0.0038369829
  0
ELLIPSE
  5
2EA
100
AcDbEntity
  8
0
100
AcDbEllipse
 62
7
  6
CONTINUOUS
 10
170.0317175212
 20
111.8282689482
 30
0.0
 11
0.5999964607
 21
-0.0036301502
 31
0.0
 40
0.5677065366
 41
-0.5550705872
 42
0.963365862
  0
ENDSEC
  0
SECTION
  2
OBJECTS
  0
DICTIONARY
  5
C
100
AcDbDictionary
280
0
281
1
  3
ACAD_GROUP
350
D
  3
ACAD_MLINESTYLE
350
17
  3
ACAD_LAYOUT
350
1A
  3
ACAD_PLOTSETTINGS
350
19
  3
ACAD_PLOTSTYLENAME
350
E
  0
DICTIONARY
  5
D
102
{ACAD_REACTORS
330
C
102
}
100
AcDbDictionary
280
0
281
1
  0
ACDBDICTIONARYWDFLT
  5
E
102
{ACAD_REACTORS
330
C
102
}
100
AcDbDictionary
281
1
  3
Normal
350
F
100
AcDbDictionaryWithDefault
340
F
  0
DICTIONARY
  5
17
102
{ACAD_REACTORS
330
C
102
}
100
AcDbDictionary
280
0
281
1
  3
Standard
350
18
  0
DICTIONARY
  5
19
102
{ACAD_REACTORS
330
C
102
}
100
AcDbDictionary
281
1
  0
DICTIONARY
  5
1A
102
{ACAD_REACTORS
330
C
102
}
100
AcDbDictionary
281
1
  3
Model
350
2EB
  3
Layout1
350
2EC
  0
ACDBPLACEHOLDER
  5
F
102
{ACAD_REACTORS
330
E
102
}
  0
MLINESTYLE
  5
18
102
{ACAD_REACTORS
330
17
102
}
100
AcDbMlineStyle
  2
STANDARD
 70
0
  3

 62
256
 51
90.0
 52
90.0
 71
2
 49
0.5
 62
256
  6
BYLAYER
 49
-0.5
 62
256
  6
BYLAYER
  0
LAYOUT
  5
2EB
102
{ACAD_REACTORS
330
1A
102
}
100
AcDbPlotSettings
  1

  2
none_device
  4
ISO_A4_(297.00_x_210.00_MM)
  6

 40
0.0
 41
0.0
 42
0.0
 43
0.0
 44
297.0
 45
210.0
 46
0.0
 47
0.0
 48
0.0
 49
0.0
140
0.0
141
0.0
142
1.0
143
1.0
 70
1024
 72
1
 73
0
 74
0
  7

 75
0
147
1.0
148
0.0
149
0.0
100
AcDbLayout
  1
Model
 70
0
 71
0
 10
0.0
 20
0.0
 11
297.0
 21
210.0
 12
0.0
 22
0.0
 32
0.0
 14
0.0
 24
0.0
 34
0.0
 15
0.0
 25
0.0
 35
0.0
146
0.0
 13
0.0
 23
0.0
 33
0.0
 16
1.0
 26
0.0
 36
0.0
 17
0.0
 27
1.0
 37
0.0
 76
0
330
21D
345
0
346
0
  0
LAYOUT
  5
2EC
102
{ACAD_REACTORS
330
1A
102
}
100
AcDbPlotSettings
  1

  2
none_device
  4
ISO_A4_(297.00_x_210.00_MM)
  6

 40
0.0
 41
0.0
 42
0.0
 43
0.0
 44
297.0
 45
210.0
 46
0.0
 47
0.0
 48
0.0
 49
0.0
140
0.0
141
0.0
142
1.0
143
1.0
 70
0
 72
1
 73
0
 74
0
  7

 75
0
147
1.0
148
0.0
149
0.0
100
AcDbLayout
  1
Layout1
 70
0
 71
1
 10
0.0
 20
0.0
 11
297.0
 21
210.0
 12
0.0
 22
0.0
 32
0.0
 14
0.0
 24
0.0
 34
0.0
 15
0.0
 25
0.0
 35
0.0
146
0.0
 13
0.0
 23
0.0
 33
0.0
 16
1.0
 26
0.0
 36
0.0
 17
0.0
 27
1.0
 37
0.0
 76
0
330
21E
345
0
346
0
  0
ENDSEC
  0
EOF
