  0
SECTION
  2
HEADER
  9
$ACADVER
  1
AC1015
  9
$DWGCODEPAGE
  3
ANSI_1252
  9
$EXTMAX
 10
297.0
 20
210.0
 30
0.0
  9
$EXTMIN
 10
0.0
 20
0.0
 30
0.0
  9
$LIMMIN
 10
0.0
 20
0.0
  9
$LIMMAX
 10
297.0
 20
210.0
  9
$VIEWCTR
 10
148.5
 20
105.0
  9
$VIEWSIZE
 40
210.0
  9
$CLAYER
  8
0
  9
$LTSCALE
 40
16.335
  9
$CELTYPE
  6
BYLAYER
  9
$DIMSCALE
 40
1.0
  9
$DIMASZ
 40
3.0
  9
$DIMEXO
 40
0.5
  9
$DIMDLI
 40
11.286
  9
$DIMEXE
 40
1.5
  9
$DIMCEN
 40
2.673
  9
$DIMLFAC
 40
1.0
  9
$DIMBLK
  1
_FILLED
  9
$DIMTXT
 40
3.0
  9
$DIMTOL
 70
1
  9
$DIMLIM
 70
0
  9
$DIMTFAC
 40
1.0
  9
$DIMTP
 40
0.01
  9
$DIMTM
 40
0.01
  9
$DIMGAP
 40
0.625
  9
$DIMDSEP
 70
44
  9
$PDMODE
 70
3
  9
$PDSIZE
 40
3.0
  9
$HANDSEED
  5
2BC
  9
$TILEMODE
 70
1
  9
$MEASUREMENT
 70
1
  9
$INSUNITS
 70
4
  0
ENDSEC
  0
SECTION
  2
CLASSES
  0
CLASS
  1
ACDBDICTIONARYWDFLT
  2
AcDbDictionaryWithDefault
  3
AutoCAD 2000
 90
0
280
0
281
0
  0
CLASS
  1
ACDBPLACEHOLDER
  2
AcDbPlaceHolder
  3
AutoCAD 2000
 90
0
280
0
281
0
  0
CLASS
  1
LAYOUT
  2
AcDbLayout
  3
AutoCAD 2000
 90
0
280
0
281
0
  0
ENDSEC
  0
SECTION
  2
TABLES
  0
TABLE
  2
VPORT
  5
8
100
AcDbSymbolTable
 70
2
  0
VPORT
  5
1F4
100
AcDbSymbolTableRecord
100
AcDbViewportTableRecord
  2
*ACTIVE
 70
0
 10
0.0
 20
0.0
 11
1.0
 21
1.0
 12
148.5
 22
105.0
 13
0.0
 23
0.0
 14
1.0
 24
1.0
 15
0.0
 25
0.0
 16
0.0
 26
0.0
 36
1.0
 17
0.0
 27
0.0
 37
0.0
 40
210.0
 41
1.4142857143
 42
50.0
 43
0.0
 44
0.0
 50
0.0
 51
0.0
 71
0
 72
100
 73
1
 74
1
 75
0
 76
0
 77
0
 78
0
  0
ENDTAB
  0
TABLE
  2
LTYPE
  5
5
100
AcDbSymbolTable
 70
6
  0
LTYPE
  5
14
100
AcDbSymbolTableRecord
100
AcDbLinetypeTableRecord
  2
BYBLOCK
 70
0
  3

 72
65
 73
0
 40
0.0
  0
LTYPE
  5
15
100
AcDbSymbolTableRecord
100
AcDbLinetypeTableRecord
  2
BYLAYER
 70
0
  3

 72
65
 73
0
 40
0.0
  0
LTYPE
  5
16
100
AcDbSymbolTableRecord
100
AcDbLinetypeTableRecord
  2
CONTINUOUS
 70
64
  3
Solid line
 72
65
 73
0
 40
0.0
  0
LTYPE
  5
1F5
100
AcDbSymbolTableRecord
100
AcDbLinetypeTableRecord
  2
CENTER
 70
64
  3
____ _ ____ _ ____ _ ____ _ ____ _ ____ _ ____
 72
65
 73
4
 40
0.6
 49
0.375
 74
0
 49
-0.075
 74
0
 49
0.075
 74
0
 49
-0.075
 74
0
  0
LTYPE
  5
1F6
100
AcDbSymbolTableRecord
100
AcDbLinetypeTableRecord
  2
HIDDEN
 70
64
  3
- - - - - - - - - - - - - - - - - - - -
 72
65
 73
2
 40
0.2
 49
0.1
 74
0
 49
-0.1
 74
0
  0
LTYPE
  5
1F7
100
AcDbSymbolTableRecord
100
AcDbLinetypeTableRecord
  2
PHANTOM
 70
64
  3
_____ _ _ _____ _ _ _____ _ _ _____
 72
65
 73
6
 40
0.8
 49
0.45
 74
0
 49
-0.05
 74
0
 49
0.1
 74
0
 49
-0.05
 74
0
 49
0.1
 74
0
 49
-0.05
 74
0
  0
LTYPE
  5
1F8
100
AcDbSymbolTableRecord
100
AcDbLinetypeTableRecord
  2
DOT
 70
64
  3
. . . . . . . . . . . . . . . . . . . .
 72
65
 73
2
 40
0.2
 49
0.1
 74
0
 49
-0.1
 74
0
  0
LTYPE
  5
1F9
100
AcDbSymbolTableRecord
100
AcDbLinetypeTableRecord
  2
DASHED
 70
64
  3
- - - - - - - - - - - - - - - - - - - -
 72
65
 73
2
 40
0.2
 49
0.1
 74
0
 49
-0.1
 74
0
  0
ENDTAB
  0
TABLE
  2
LAYER
  5
2
100
AcDbSymbolTable
 70
36
  0
LAYER
  5
10
100
AcDbSymbolTableRecord
100
AcDbLayerTableRecord
  2
0
 70
0
 62
7
  6
CONTINUOUS
370
-3
390
F
  0
LAYER
  5
1FA
100
AcDbSymbolTableRecord
100
AcDbLayerTableRecord
  2
DEFAULT_1
 70
0
 62
7
  6
CENTER
370
-3
390
F
  0
LAYER
  5
1FB
100
AcDbSymbolTableRecord
100
AcDbLayerTableRecord
  2
DEFAULT_2
 70
0
 62
7
  6
HIDDEN
370
-3
390
F
  0
LAYER
  5
1FC
100
AcDbSymbolTableRecord
100
AcDbLayerTableRecord
  2
DEFAULT_3
 70
0
 62
7
  6
PHANTOM
370
-3
390
F
  0
LAYER
  5
1FD
100
AcDbSymbolTableRecord
100
AcDbLayerTableRecord
  2
ASSI
 70
0
 62
7
  6
CONTINUOUS
370
-3
390
F
  0
LAYER
  5
1FE
100
AcDbSymbolTableRecord
100
AcDbLayerTableRecord
  2
COLOR3
 70
0
 62
7
  6
CONTINUOUS
370
-3
390
F
  0
LAYER
  5
1FF
100
AcDbSymbolTableRecord
100
AcDbLayerTableRecord
  2
COORDINATE
 70
0
 62
7
  6
CONTINUOUS
370
-3
390
F
  0
LAYER
  5
200
100
AcDbSymbolTableRecord
100
AcDbLayerTableRecord
  2
COPY_PUBLISH
 70
0
 62
7
  6
CONTINUOUS
370
-3
390
F
  0
LAYER
  5
201
100
AcDbSymbolTableRecord
100
AcDbLayerTableRecord
  2
COSMETIC
 70
0
 62
7
  6
CONTINUOUS
370
-3
390
F
  0
LAYER
  5
202
100
AcDbSymbolTableRecord
100
AcDbLayerTableRecord
  2
COSMETICI
 70
0
 62
7
  6
CONTINUOUS
370
-3
390
F
  0
LAYER
  5
203
100
AcDbSymbolTableRecord
100
AcDbLayerTableRecord
  2
CURVE
 70
0
 62
7
  6
CONTINUOUS
370
-3
390
F
  0
LAYER
  5
204
100
AcDbSymbolTableRecord
100
AcDbLayerTableRecord
  2
DRAFT
 70
0
 62
7
  6
CONTINUOUS
370
-3
390
F
  0
LAYER
  5
205
100
AcDbSymbolTableRecord
100
AcDbLayerTableRecord
  2
IMPORT_IGES
 70
0
 62
7
  6
CONTINUOUS
370
-3
390
F
  0
LAYER
  5
206
100
AcDbSymbolTableRecord
100
AcDbLayerTableRecord
  2
INTFCLR_1
 70
0
 62
7
  6
CONTINUOUS
370
-3
390
F
  0
LAYER
  5
207
100
AcDbSymbolTableRecord
100
AcDbLayerTableRecord
  2
INTF_10
 70
0
 62
7
  6
CONTINUOUS
370
-3
390
F
  0
LAYER
  5
208
100
AcDbSymbolTableRecord
100
AcDbLayerTableRecord
  2
INTF_13
 70
0
 62
7
  6
CONTINUOUS
370
-3
390
F
  0
LAYER
  5
209
100
AcDbSymbolTableRecord
100
AcDbLayerTableRecord
  2
INTF_15
 70
0
 62
7
  6
CONTINUOUS
370
-3
390
F
  0
LAYER
  5
20A
100
AcDbSymbolTableRecord
100
AcDbLayerTableRecord
  2
INTF_16
 70
0
 62
7
  6
CONTINUOUS
370
-3
390
F
  0
LAYER
  5
20B
100
AcDbSymbolTableRecord
100
AcDbLayerTableRecord
  2
INTF_18
 70
0
 62
7
  6
CONTINUOUS
370
-3
390
F
  0
LAYER
  5
20C
100
AcDbSymbolTableRecord
100
AcDbLayerTableRecord
  2
INTF_20
 70
0
 62
7
  6
CONTINUOUS
370
-3
390
F
  0
LAYER
  5
20D
100
AcDbSymbolTableRecord
100
AcDbLayerTableRecord
  2
INTF_3
 70
0
 62
7
  6
CONTINUOUS
370
-3
390
F
  0
LAYER
  5
20E
100
AcDbSymbolTableRecord
100
AcDbLayerTableRecord
  2
INTF_5
 70
0
 62
7
  6
CONTINUOUS
370
-3
390
F
  0
LAYER
  5
20F
100
AcDbSymbolTableRecord
100
AcDbLayerTableRecord
  2
INTF_8
 70
0
 62
7
  6
CONTINUOUS
370
-3
390
F
  0
LAYER
  5
210
100
AcDbSymbolTableRecord
100
AcDbLayerTableRecord
  2
NOTE
 70
0
 62
7
  6
CONTINUOUS
370
-3
390
F
  0
LAYER
  5
211
100
AcDbSymbolTableRecord
100
AcDbLayerTableRecord
  2
PIANI
 70
0
 62
7
  6
CONTINUOUS
370
-3
390
F
  0
LAYER
  5
212
100
AcDbSymbolTableRecord
100
AcDbLayerTableRecord
  2
PUNTI
 70
0
 62
7
  6
CONTINUOUS
370
-3
390
F
  0
LAYER
  5
213
100
AcDbSymbolTableRecord
100
AcDbLayerTableRecord
  2
RACCORDO
 70
0
 62
7
  6
CONTINUOUS
370
-3
390
F
  0
LAYER
  5
214
100
AcDbSymbolTableRecord
100
AcDbLayerTableRecord
  2
SIMBOLI
 70
0
 62
7
  6
CONTINUOUS
370
-3
390
F
  0
LAYER
  5
215
100
AcDbSymbolTableRecord
100
AcDbLayerTableRecord
  2
SNAPLINE
 70
0
 62
7
  6
CONTINUOUS
370
-3
390
F
  0
LAYER
  5
216
100
AcDbSymbolTableRecord
100
AcDbLayerTableRecord
  2
SOLIDO
 70
0
 62
7
  6
CONTINUOUS
370
-3
390
F
  0
LAYER
  5
217
100
AcDbSymbolTableRecord
100
AcDbLayerTableRecord
  2
SUPERFICI
 70
0
 62
7
  6
CONTINUOUS
370
-3
390
F
  0
LAYER
  5
218
100
AcDbSymbolTableRecord
100
AcDbLayerTableRecord
  2
SUPERFICI_SKEL
 70
0
 62
7
  6
CONTINUOUS
370
-3
390
F
  0
LAYER
  5
219
100
AcDbSymbolTableRecord
100
AcDbLayerTableRecord
  2
TRASH
 70
0
 62
7
  6
CONTINUOUS
370
-3
390
F
  0
LAYER
  5
21A
100
AcDbSymbolTableRecord
100
AcDbLayerTableRecord
  2
___SHELL
 70
0
 62
7
  6
CONTINUOUS
370
-3
390
F
  0
ENDTAB
  0
TABLE
  2
STYLE
  5
3
100
AcDbSymbolTable
 70
1
  0
STYLE
  5
11
100
AcDbSymbolTableRecord
100
AcDbTextStyleTableRecord
  2
STANDARD
 70
0
 40
0.0
 41
0.8
 50
0.0
 71
0
 42
0.2
  3
txt
  4

  0
STYLE
  5
21B
100
AcDbSymbolTableRecord
100
AcDbTextStyleTableRecord
  2
TEXTSTYLE_1
 70
0
 40
0.0
 41
0.8
 50
0.0
 71
0
 42
0.2
  3
gdt
  4

  0
ENDTAB
  0
TABLE
  2
VIEW
  5
6
100
AcDbSymbolTable
 70
0
  0
ENDTAB
  0
TABLE
  2
UCS
  5
7
100
AcDbSymbolTable
 70
0
  0
ENDTAB
  0
TABLE
  2
APPID
  5
9
100
AcDbSymbolTable
 70
1
  0
APPID
  5
21C
100
AcDbSymbolTableRecord
100
AcDbRegAppTableRecord
  2
ACAD
 70
0
  0
ENDTAB
  0
TABLE
  2
BLOCK_RECORD
  5
1
100
AcDbSymbolTable
 70
0
  0
BLOCK_RECORD
  5
21D
100
AcDbSymbolTableRecord
100
AcDbBlockTableRecord
  2
*Model_Space
  0
BLOCK_RECORD
  5
21E
100
AcDbSymbolTableRecord
100
AcDbBlockTableRecord
  2
*Paper_Space
  0
ENDTAB
  0
TABLE
  2
DIMSTYLE
  5
A
100
AcDbSymbolTable
 70
1
100
AcDbDimStyleTable
 71
0
  0
DIMSTYLE
105
21F
100
AcDbSymbolTableRecord
100
AcDbDimStyleTableRecord
  2
STANDARD
 70
0
  3

  4

 40
1.0
 41
3.0
 42
0.5
 43
0.38
 44
1.5
 45
0.0
 46
0.0
 47
0.01
 48
0.01
140
3.0
141
0.09
142
0.0
143
25.4
144
1.0
145
0.0
146
1.0
147
0.625
 71
1.0
 72
0.0
 73
0
 74
0
 75
0
 76
0
 77
1
 78
8
170
0
171
2
172
0
173
0
174
0
175
0
176
0
177
0
178
0
270
2
271
2
272
2
273
2
274
2
275
0
280
0
281
0
282
0
283
1
284
8
285
0
286
0
287
3
288
0
340
11
278
44
  0
ENDTAB
  0
ENDSEC
  0
SECTION
  2
BLOCKS
  0
BLOCK
  5
20
100
AcDbEntity
  8
0
100
AcDbBlockBegin
  2
*Model_Space
 70
0
 10
0.0
 20
0.0
 30
0.0
  3
*Model_Space
  1

  0
ENDBLK
  5
21
100
AcDbEntity
  8
0
100
AcDbBlockEnd
  0
BLOCK
  5
1C
100
AcDbEntity
  8
0
100
AcDbBlockBegin
  2
*Paper_Space
 70
0
 10
0.0
 20
0.0
 30
0.0
  3
*Paper_Space
  1

  0
ENDBLK
  5
1D
100
AcDbEntity
  8
0
100
AcDbBlockEnd
  0
ENDSEC
  0
SECTION
  2
ENTITIES
  0
LWPOLYLINE
  5
220
100
AcDbEntity
  8
0
100
AcDbPolyline
 62
7
  6
CONTINUOUS
 90
18
 70
0
 10
120.9025386279
 20
133.6115325008
 10
120.8456119388
 20
133.5530841383
 10
120.7924039585
 20
133.4912660321
 10
120.7427674621
 20
133.4265974656
 10
120.6963843722
 20
133.3592822915
 10
120.6530156393
 20
133.2894094583
 10
120.6126548478
 20
133.2173244373
 10
120.5752840583
 20
133.1432718307
 10
120.5408893813
 20
133.0673832645
 10
120.5095488168
 20
132.9899445004
 10
120.4813697377
 20
132.911213769
 10
120.4564367484
 20
132.8313336202
 10
120.434896652
 20
132.7505296764
 10
120.4169540206
 20
132.6690842415
 10
120.4027829395
 20
132.5870474701
 10
120.3926473278
 20
132.5044695686
 10
120.3868895711
 20
132.4216373436
 10
120.3862205521
 20
132.4024840736
  0
LINE
  5
221
100
AcDbEntity
  8
0
100
AcDbLine
 62
7
  6
CONTINUOUS
 10
123.4593141866
 20
136.026055793
 11
120.9025386279
 21
133.6115325008
  0
LINE
  5
222
100
AcDbEntity
  8
0
100
AcDbLine
 62
253
  6
CONTINUOUS
 10
123.7876566758
 20
136.0593068284
 11
121.2384491946
 21
133.6520052603
  0
LINE
  5
223
100
AcDbEntity
  8
0
100
AcDbLine
 62
7
  6
CONTINUOUS
 10
120.9106136788
 20
133.6192317653
 11
120.9101680969
 21
133.6188121988
  0
LWPOLYLINE
  5
224
100
AcDbEntity
  8
0
100
AcDbPolyline
 62
253
  6
CONTINUOUS
 90
22
 70
0
 10
121.2384491946
 20
133.6520052602
 10
121.189287858
 20
133.6067360582
 10
121.140519642
 20
133.5570060998
 10
121.092403012
 20
133.503055446
 10
121.0452107516
 20
133.4451393788
 10
120.9991744146
 20
133.3835440715
 10
120.9544834729
 20
133.3185839712
 10
120.9113707572
 20
133.2505700201
 10
120.8700682292
 20
133.1798343719
 10
120.8307513571
 20
133.1067454384
 10
120.7936257885
 20
133.0316612625
 10
120.7588889005
 20
132.9549441945
 10
120.726685838
 20
132.8769845135
 10
120.697183176
 20
132.7981625823
 10
120.6705390603
 20
132.7188617508
 10
120.6468643838
 20
132.6394834595
 10
120.6262814717
 20
132.5604224123
 10
120.6088993268
 20
132.4820570928
 10
120.5947864029
 20
132.404763203
 10
120.5840112887
 20
132.3289171297
 10
120.5766398961
 20
132.2548935223
 10
120.5727125351
 20
132.1830562973
  0
LINE
  5
225
100
AcDbEntity
  8
0
100
AcDbLine
 62
7
  6
CONTINUOUS
 10
130.4859574798
 20
133.3691182159
 11
127.9743236646
 21
132.5943170329
  0
LWPOLYLINE
  5
226
100
AcDbEntity
  8
0
100
AcDbPolyline
 62
253
  6
CONTINUOUS
 90
12
 70
0
 10
120.5727126149
 20
97.9797480823
 10
120.576639978
 20
97.9139549499
 10
120.5840113725
 20
97.8514512199
 10
120.5947864882
 20
97.79254569
 10
120.6088994124
 20
97.7375365841
 10
120.6262815563
 20
97.6866892606
 10
120.6468644673
 20
97.6402378319
 10
120.6705391428
 20
97.5984150005
 10
120.6971832576
 20
97.5614350034
 10
120.7266859186
 20
97.5294735435
 10
120.7588889797
 20
97.502696438
 10
120.7929943034
 20
97.4816315984
  0
LWPOLYLINE
  5
227
100
AcDbEntity
  8
0
100
AcDbPolyline
 62
7
  6
CONTINUOUS
 90
14
 70
0
 10
120.3862567941
 20
98.2053991911
 10
120.3872722968
 20
98.1800359776
 10
120.3951420049
 20
98.0904201968
 10
120.4092715185
 20
98.0063923064
 10
120.429349698
 20
97.9278296484
 10
120.4551565183
 20
97.8544293328
 10
120.4865171934
 20
97.7860817106
 10
120.5231056214
 20
97.7230013486
 10
120.5646378066
 20
97.6652661387
 10
120.6108357552
 20
97.6129953599
 10
120.6611525634
 20
97.5665673275
 10
120.7150862508
 20
97.5261699282
 10
120.7722942507
 20
97.4918597754
 10
120.8068453162
 20
97.474787625
  0
LWPOLYLINE
  5
228
100
AcDbEntity
  8
0
100
AcDbPolyline
 62
7
  6
CONTINUOUS
 90
10
 70
0
 10
120.1383130831
 20
114.4751762444
 10
120.1428594725
 20
112.699253224
 10
120.1532557202
 20
110.8623368876
 10
120.169437051
 20
109.030438415
 10
120.1914036561
 20
107.2035974144
 10
120.2191554285
 20
105.3818509631
 10
120.2526922571
 20
103.5652351901
 10
120.2920136411
 20
101.7537902518
 10
120.3371185081
 20
99.9475616517
 10
120.3862449514
 20
98.2055822236
  0
LWPOLYLINE
  5
229
100
AcDbEntity
  8
0
100
AcDbPolyline
 62
7
  6
CONTINUOUS
 90
10
 70
0
 10
120.3862237147
 20
132.4028160946
 10
120.3372453853
 20
130.5815026481
 10
120.2921284121
 20
128.6972973733
 10
120.2527937566
 20
126.8178721824
 10
120.2192425761
 20
124.9432723803
 10
120.1914754378
 20
123.0735372154
 10
120.1694927815
 20
121.2087044933
 10
120.1532948745
 20
119.3488128132
 10
120.1428816486
 20
117.4939021298
 10
120.1383130818
 20
115.7046303937
  0
LWPOLYLINE
  5
22A
100
AcDbEntity
  8
0
100
AcDbPolyline
 62
253
  6
CONTINUOUS
 90
13
 70
0
 10
120.5727125164
 20
132.183056298
 10
120.5316831
 20
130.716175572
 10
120.4948248738
 20
129.2758159054
 10
120.4619647884
 20
127.8618632818
 10
120.433084643
 20
126.4819116626
 10
120.4078293137
 20
125.1281125052
 10
120.3856851278
 20
123.7773138198
 10
120.3666505499
 20
122.4295637256
 10
120.3507197006
 20
121.0848389452
 10
120.3376940203
 20
119.7201333171
 10
120.3276868233
 20
118.3279326003
 10
120.3209442611
 20
116.9160724064
 10
120.3176320741
 20
115.4847048659
  0
LWPOLYLINE
  5
22B
100
AcDbEntity
  8
0
100
AcDbPolyline
 62
253
  6
CONTINUOUS
 90
16
 70
0
 10
120.3176320529
 20
114.2550334803
 10
120.3190326429
 20
114.2998116815
 10
120.3243454424
 20
114.3452935013
 10
120.333122818
 20
114.3916028737
 10
120.344902734
 20
114.4392668083
 10
120.359846921
 20
114.4879728362
 10
120.3782195756
 20
114.5363285899
 10
120.3992098176
 20
114.5837788322
 10
120.4224873656
 20
114.6303494094
 10
120.4485458858
 20
114.6751699582
 10
120.4766291627
 20
114.7177068372
 10
120.5060307987
 20
114.7577383703
 10
120.5372784614
 20
114.7946595354
 10
120.5700564986
 20
114.8280032583
 10
120.6031597655
 20
114.8575835874
 10
120.6358101428
 20
114.8832088659
  0
LWPOLYLINE
  5
22C
100
AcDbEntity
  8
0
100
AcDbPolyline
 62
253
  6
CONTINUOUS
 90
16
 70
0
 10
156.0893390968
 20
83.7154700944
 10
156.132668681
 20
83.7023086788
 10
156.1780840526
 20
83.6918225749
 10
156.2251448668
 20
83.6841134553
 10
156.2733948246
 20
83.6792560671
 10
156.3223660972
 20
83.6772975073
 10
156.371583862
 20
83.678256766
 10
156.4205709064
 20
83.6821245424
 10
156.4688522547
 20
83.6888633345
 10
156.5159597738
 20
83.6984078036
 10
156.5614367118
 20
83.7106654071
 10
156.6048421271
 20
83.7255172957
 10
156.6457551632
 20
83.7428194667
 10
156.6837791297
 20
83.762404159
 10
156.7185453482
 20
83.7840814806
 10
156.7497167277
 20
83.8076412495
  0
LWPOLYLINE
  5
22D
100
AcDbEntity
  8
0
100
AcDbPolyline
 62
7
  6
CONTINUOUS
 90
12
 70
0
 10
156.3343634995
 20
83.2060566403
 10
156.3666795169
 20
83.1956131879
 10
156.4343674407
 20
83.1793895125
 10
156.5041422506
 20
83.1701387217
 10
156.575479495
 20
83.1680731339
 10
156.6482101841
 20
83.1734087307
 10
156.7218939885
 20
83.1863939217
 10
156.7958506318
 20
83.2071501366
 10
156.8698693455
 20
83.2358710788
 10
156.9437877648
 20
83.2728338361
 10
157.0172099593
 20
83.3181761514
 10
157.0308723155
 20
83.3276067301
  0
LWPOLYLINE
  5
22E
100
AcDbEntity
  8
0
100
AcDbPolyline
 62
253
  6
CONTINUOUS
 90
10
 70
0
 10
120.1383130818
 20
115.7046303937
 10
120.1406286366
 20
115.6769395982
 10
120.1476501734
 20
115.6493899601
 10
120.1593114513
 20
115.6223577627
 10
120.1755021858
 20
115.596098635
 10
120.1960692747
 20
115.5708608717
 10
120.2208182407
 20
115.5468831112
 10
120.2495150607
 20
115.5243920852
 10
120.2818883726
 20
115.5036004735
 10
120.3176320526
 20
115.4847048823
  0
LWPOLYLINE
  5
22F
100
AcDbEntity
  8
0
100
AcDbPolyline
 62
253
  6
CONTINUOUS
 90
9
 70
0
 10
120.3176320526
 20
115.4847048823
 10
120.3190326225
 20
115.4426727979
 10
120.324345034
 20
115.4041914595
 10
120.3331217857
 20
115.3691919923
 10
120.3449010215
 20
115.3376739984
 10
120.3598445074
 20
115.3098505631
 10
120.3782163979
 20
115.2861675379
 10
120.3992059947
 20
115.2671987163
 10
120.4222432276
 20
115.2532056342
  0
LWPOLYLINE
  5
230
100
AcDbEntity
  8
0
100
AcDbPolyline
 62
253
  6
CONTINUOUS
 90
10
 70
0
 10
120.3176320741
 20
114.2550334635
 10
120.3219313407
 20
112.5710805179
 10
120.3313843567
 20
110.8647691782
 10
120.346232385
 20
109.136332561
 10
120.3665563629
 20
107.3986062777
 10
120.3926887797
 20
105.6391714247
 10
120.4256142637
 20
103.8206952661
 10
120.4662527234
 20
101.9312700345
 10
120.5150587324
 20
99.984073126
 10
120.5727125209
 20
97.979748034
  0
LINE
  5
231
100
AcDbEntity
  8
0
100
AcDbLine
 62
7
  6
CONTINUOUS
 10
125.1723218539
 20
135.5031940764
 11
124.9307887745
 21
133.8166692597
  0
LINE
  5
232
100
AcDbEntity
  8
0
100
AcDbLine
 62
7
  6
CONTINUOUS
 10
125.1723218539
 20
134.2610645491
 11
125.0889392681
 21
133.6788387083
  0
LINE
  5
233
100
AcDbEntity
  8
0
100
AcDbLine
 62
7
  6
CONTINUOUS
 10
137.9045398062
 20
129.6465108278
 11
138.9510538959
 21
129.9693446541
  0
LWPOLYLINE
  5
234
100
AcDbEntity
  8
0
100
AcDbPolyline
 62
7
  6
CONTINUOUS
 90
10
 70
0
 10
147.5856264271
 20
86.4884708698
 10
148.4895096819
 20
86.1280235382
 10
149.4646743024
 20
85.7448608268
 10
150.4449956903
 20
85.3655536303
 10
151.4304107337
 20
84.9901270906
 10
152.4208637168
 20
84.6186025186
 10
153.4163015972
 20
84.2509999004
 10
154.4166701437
 20
83.88733951
 10
155.421911785
 20
83.527642116
 10
156.3352600537
 20
83.2057410726
  0
LWPOLYLINE
  5
235
100
AcDbEntity
  8
0
100
AcDbPolyline
 62
253
  6
CONTINUOUS
 90
13
 70
0
 10
147.3454906165
 20
86.9876890332
 10
148.0887782249
 20
86.6909667213
 10
148.8240044894
 20
86.4009926183
 10
149.5510159641
 20
86.1176657187
 10
150.266314226
 20
85.8421661632
 10
150.9730781147
 20
85.5730933306
 10
151.6812855451
 20
85.3065712495
 10
152.3903011197
 20
85.0428249908
 10
153.1006932825
 20
84.7816188089
 10
153.8244812845
 20
84.5185924446
 10
154.5657902633
 20
84.2524171915
 10
155.3207115678
 20
83.9846712217
 10
156.0893390959
 20
83.7154701015
  0
LINE
  5
236
100
AcDbEntity
  8
0
100
AcDbLine
 62
7
  6
CONTINUOUS
 10
129.1547670606
 20
93.8907176121
 11
147.5856248122
 21
86.4884696251
  0
LINE
  5
237
100
AcDbEntity
  8
0
100
AcDbLine
 62
253
  6
CONTINUOUS
 10
128.914648756
 20
94.3899273888
 11
147.3454890211
 21
86.9876864248
  0
LWPOLYLINE
  5
238
100
AcDbEntity
  8
0
100
AcDbPolyline
 62
253
  6
CONTINUOUS
 90
13
 70
0
 10
156.334356679
 20
83.2060590722
 10
156.3005661331
 20
83.2208537549
 10
156.2671787464
 20
83.241766684
 10
156.2362665318
 20
83.2680253568
 10
156.2079711863
 20
83.2995019319
 10
156.1824168132
 20
83.3360442646
 10
156.1597503985
 20
83.3774621563
 10
156.140077935
 20
83.4235479303
 10
156.123481558
 20
83.4740796742
 10
156.1100538365
 20
83.5288135879
 10
156.09986226
 20
83.5874847537
 10
156.0929468897
 20
83.6498053301
 10
156.0893390894
 20
83.7154701123
  0
LWPOLYLINE
  5
239
100
AcDbEntity
  8
0
100
AcDbPolyline
 62
7
  6
CONTINUOUS
 90
10
 70
0
 10
120.806323827
 20
97.4750229639
 10
121.6351602984
 20
97.0975418418
 10
122.5643750832
 20
96.6802444788
 10
123.4989304816
 20
96.2667331993
 10
124.438772294
 20
95.8570301887
 10
125.3838489432
 20
95.4511560484
 10
126.3341103941
 20
95.0491307242
 10
127.2894981742
 20
94.6509769265
 10
128.2499453825
 20
94.2567200736
 10
129.154768745
 20
93.8907188306
  0
LWPOLYLINE
  5
23A
100
AcDbEntity
  8
0
100
AcDbPolyline
 62
253
  6
CONTINUOUS
 90
10
 70
0
 10
120.5727125209
 20
97.979748034
 10
121.409554311
 20
97.5970359284
 10
122.2637079096
 20
97.2118066616
 10
123.1353441369
 20
96.824231949
 10
124.0184067569
 20
96.4372078882
 10
124.9192236927
 20
96.048140702
 10
125.8568482491
 20
95.6492089881
 10
126.8380945707
 20
95.2382085301
 10
127.8571953818
 20
94.8182904549
 10
128.9146503516
 20
94.3899299984
  0
LWPOLYLINE
  5
23B
100
AcDbEntity
  8
0
100
AcDbPolyline
 62
253
  6
CONTINUOUS
 90
10
 70
0
 10
120.5727206313
 20
97.9797542282
 10
120.535934924
 20
97.998768728
 10
120.5025436308
 20
98.019932867
 10
120.4728705053
 20
98.0430414431
 10
120.4472032507
 20
98.0678704011
 10
120.4257907302
 20
98.0941790057
 10
120.4088405544
 20
98.1217121756
 10
120.3965170678
 20
98.1502029561
 10
120.388939756
 20
98.1793751075
 10
120.3862567941
 20
98.2053991911
  0
LINE
  5
23C
100
AcDbEntity
  8
0
100
AcDbLine
 62
7
  6
CONTINUOUS
 10
124.9301198621
 20
133.8057639924
 11
124.9307887745
 21
133.8166692597
  0
LWPOLYLINE
  5
23D
100
AcDbEntity
  8
0
100
AcDbPolyline
 62
7
  6
CONTINUOUS
 90
10
 70
0
 10
120.3080396546
 20
114.8510911459
 10
120.2840019405
 20
114.828492783
 10
120.2512519764
 20
114.7922169024
 10
120.2222239139
 20
114.7529529548
 10
120.1972609245
 20
114.7112260434
 10
120.1764709971
 20
114.6672765084
 10
120.1599619653
 20
114.6212336173
 10
120.1479662437
 20
114.5734741829
 10
120.1407109013
 20
114.5246074246
 10
120.1383130831
 20
114.4751762391
  0
LINE
  5
23E
100
AcDbEntity
  8
0
100
AcDbLine
 62
7
  6
CONTINUOUS
 10
120.3080989722
 20
114.8511433354
 11
120.6450576236
 21
115.1475075423
  0
LINE
  5
23F
100
AcDbEntity
  8
0
100
AcDbLine
 62
253
  6
CONTINUOUS
 10
120.6358101386
 20
114.8832088623
 11
120.8342630337
 21
115.0577535271
  0
LWPOLYLINE
  5
240
100
AcDbEntity
  8
0
100
AcDbPolyline
 62
253
  6
CONTINUOUS
 90
10
 70
0
 10
120.308098336
 20
114.8511427758
 10
120.3262839926
 20
114.8655782089
 10
120.35694898
 20
114.8841314286
 10
120.3907152703
 20
114.8981998325
 10
120.4272205156
 20
114.9076262488
 10
120.4660594798
 20
114.912300295
 10
120.5067950618
 20
114.9121673035
 10
120.5489749258
 20
114.9072293656
 10
120.592138336
 20
114.8975410126
 10
120.6358101428
 20
114.8832088659
  0
LINE
  5
241
100
AcDbEntity
  8
0
100
AcDbLine
 62
253
  6
CONTINUOUS
 10
124.9307887745
 20
133.8166692597
 11
124.9307887745
 21
133.8057639924
  0
LINE
  5
242
100
AcDbEntity
  8
0
100
AcDbLine
 62
7
  6
CONTINUOUS
 10
125.1723218539
 20
135.5031940764
 11
125.1723218539
 21
134.2610645491
  0
LINE
  5
243
100
AcDbEntity
  8
0
100
AcDbLine
 62
7
  6
CONTINUOUS
 10
159.8852016624
 20
97.5924245044
 11
160.7625024868
 21
97.6766490473
  0
LWPOLYLINE
  5
244
100
AcDbEntity
  8
0
100
AcDbPolyline
 62
7
  6
CONTINUOUS
 90
8
 70
0
 10
120.2402220468
 20
115.401580195
 10
120.2142643754
 20
115.439188498
 10
120.1917385993
 20
115.4792280894
 10
120.1729165391
 20
115.5213351883
 10
120.1579514565
 20
115.5653540273
 10
120.1470703929
 20
115.6109384625
 10
120.1404871986
 20
115.6575315206
 10
120.1383130818
 20
115.7046303981
  0
LWPOLYLINE
  5
245
100
AcDbEntity
  8
0
100
AcDbPolyline
 62
253
  6
CONTINUOUS
 90
11
 70
0
 10
128.9146387422
 20
94.3899314106
 10
128.9198399143
 20
94.3144879337
 10
128.9295649195
 20
94.2436188533
 10
128.9437492646
 20
94.1777941518
 10
128.9622988833
 20
94.1174503587
 10
128.9850907601
 20
94.0629876557
 10
129.0119737462
 20
94.0147672231
 10
129.0427695616
 20
93.9731088442
 10
129.077273978
 20
93.9382887848
 10
129.1152581724
 20
93.910537961
 10
129.1547670606
 20
93.8907176121
  0
LWPOLYLINE
  5
246
100
AcDbEntity
  8
0
100
AcDbPolyline
 62
253
  6
CONTINUOUS
 90
9
 70
0
 10
128.6039323748
 20
111.8477189045
 10
128.6054338392
 20
111.8063136997
 10
128.610034465
 20
111.767901952
 10
128.6176842739
 20
111.732900941
 10
128.6283001634
 20
111.7016908946
 10
128.6417668095
 20
111.6746108581
 10
128.6579379192
 20
111.651955011
 10
128.6766378203
 20
111.6339694714
 10
128.6976633692
 20
111.6208496221
  0
LWPOLYLINE
  5
247
100
AcDbEntity
  8
0
100
AcDbPolyline
 62
253
  6
CONTINUOUS
 90
7
 70
0
 10
128.6039403986
 20
110.611409428
 10
128.6154946944
 20
107.8729934191
 10
128.6431499911
 20
105.1482614841
 10
128.6869005166
 20
102.4374020595
 10
128.7467393658
 20
99.7406025316
 10
128.8226585015
 20
97.0580492249
 10
128.914648756
 20
94.3899273888
  0
LWPOLYLINE
  5
248
100
AcDbEntity
  8
0
100
AcDbPolyline
 62
253
  6
CONTINUOUS
 90
7
 70
0
 10
128.6039403878
 20
111.8477156863
 10
128.6154949708
 20
114.6054156692
 10
128.6431502712
 20
117.3758932279
 10
128.6869005168
 20
120.1589504696
 10
128.7467388025
 20
122.9543886951
 10
128.8226570911
 20
125.7620084127
 10
128.9146462149
 20
128.5816093535
  0
LWPOLYLINE
  5
249
100
AcDbEntity
  8
0
100
AcDbPolyline
 62
253
  6
CONTINUOUS
 90
16
 70
0
 10
128.6039323748
 20
110.6114126505
 10
128.6054342238
 20
110.6552833715
 10
128.6100359418
 20
110.7012379512
 10
128.6176874257
 20
110.7487769944
 10
128.6283054749
 20
110.7973840649
 10
128.6417746053
 20
110.846530859
 10
128.6579482229
 20
110.8956829362
 10
128.6766504376
 20
110.9443062614
 10
128.6976779253
 20
110.9918726504
 10
128.7208019341
 20
111.0378650924
 10
128.7457710766
 20
111.0817840711
 10
128.7723140006
 20
111.1231527422
 10
128.8001421426
 20
111.1615218105
 10
128.8289530954
 20
111.196474793
 10
128.8584339176
 20
111.2276324904
 10
128.8882644005
 20
111.2546569154
  0
LWPOLYLINE
  5
24A
100
AcDbEntity
  8
0
100
AcDbPolyline
 62
253
  6
CONTINUOUS
 90
19
 70
0
 10
128.9146387422
 20
128.5816123548
 10
128.9198398785
 20
128.6655765234
 10
128.9295648237
 20
128.7523778236
 10
128.9437491063
 20
128.841440631
 10
128.9622986932
 20
128.9321743705
 10
128.9850905824
 20
129.0239772798
 10
129.0119735957
 20
129.1162403959
 10
129.0427694331
 20
129.2083518052
 10
129.0772738778
 20
129.2997007015
 10
129.1152581036
 20
129.3896812824
 10
129.1564702085
 20
129.4776968231
 10
129.2006368846
 20
129.5631636312
 10
129.2474652288
 20
129.6455149151
 10
129.2966446879
 20
129.7242045467
 10
129.3478491174
 20
129.7987106821
 10
129.400738943
 20
129.86853922
 10
129.4549634142
 20
129.933227081
 10
129.5101629303
 20
129.9923452785
 10
129.5659714248
 20
130.0455017618
  0
LINE
  5
24B
100
AcDbEntity
  8
0
100
AcDbLine
 62
7
  6
CONTINUOUS
 10
147.1609579067
 20
125.9289246376
 11
148.2074719963
 21
126.2517584639
  0
LINE
  5
24C
100
AcDbEntity
  8
0
100
AcDbLine
 62
7
  6
CONTINUOUS
 10
134.9555924468
 20
130.8308745698
 11
135.0562312299
 21
131.5335932435
  0
LINE
  5
24D
100
AcDbEntity
  8
0
100
AcDbLine
 62
7
  6
CONTINUOUS
 10
135.0562312299
 20
131.5335932435
 11
135.0562312299
 21
130.7904557657
  0
LINE
  5
24E
100
AcDbEntity
  8
0
100
AcDbLine
 62
7
  6
CONTINUOUS
 10
158.0913813723
 20
122.282157631
 11
155.5797475572
 21
121.507356448
  0
LWPOLYLINE
  5
24F
100
AcDbEntity
  8
0
100
AcDbPolyline
 62
7
  6
CONTINUOUS
 90
11
 70
0
 10
155.9229227517
 20
100.9951846381
 10
155.9643019847
 20
100.9833634144
 10
156.0124042871
 20
100.9742991777
 10
156.0613363645
 20
100.9699750435
 10
156.1106378533
 20
100.9704841266
 10
156.1597933828
 20
100.9758693413
 10
156.2083506092
 20
100.9861295837
 10
156.2558186408
 20
101.0012155002
 10
156.30168507
 20
101.0210156303
 10
156.3454670446
 20
101.0453689577
 10
156.3844543454
 20
101.0723386176
  0
LWPOLYLINE
  5
250
100
AcDbEntity
  8
0
100
AcDbPolyline
 62
253
  6
CONTINUOUS
 90
10
 70
0
 10
155.8300263675
 20
99.9924553163
 10
154.8318448333
 20
100.3273573453
 10
153.8386967864
 20
100.6679209539
 10
152.850646577
 20
101.0141413622
 10
151.8677944164
 20
101.366000616
 10
150.8901691567
 20
101.7235064765
 10
149.9177305028
 20
102.08669433
 10
148.9505109783
 20
102.4555744343
 10
147.9886137143
 20
102.8301300086
 10
147.0321067778
 20
103.21035746
  0
LWPOLYLINE
  5
251
100
AcDbEntity
  8
0
100
AcDbPolyline
 62
7
  6
CONTINUOUS
 90
7
 70
0
 10
120.4222980814
 20
115.2531793585
 10
120.4117158308
 20
115.2584031325
 10
120.3726639885
 20
115.2805164961
 10
120.3358402442
 20
115.3059755249
 10
120.3012690938
 20
115.3347833173
 10
120.2692805025
 20
115.3667440896
 10
120.2402220468
 20
115.401580195
  0
LWPOLYLINE
  5
252
100
AcDbEntity
  8
0
100
AcDbPolyline
 62
253
  6
CONTINUOUS
 90
10
 70
0
 10
120.3176320529
 20
114.2550334803
 10
120.2818883729
 20
114.2739487545
 10
120.249515061
 20
114.2947717854
 10
120.2208182411
 20
114.3173056695
 10
120.1960692751
 20
114.3413373219
 10
120.1755021861
 20
114.3666395012
 10
120.1593114516
 20
114.3929729599
 10
120.1476501737
 20
114.4200887006
 10
120.140628637
 20
114.4477303043
 10
120.1383130831
 20
114.4751762391
  0
LWPOLYLINE
  5
253
100
AcDbEntity
  8
0
100
AcDbPolyline
 62
253
  6
CONTINUOUS
 90
16
 70
0
 10
155.8300264097
 20
101.2221267192
 10
155.8732243186
 20
101.2093175918
 10
155.918385365
 20
101.1989696598
 10
155.9650825038
 20
101.1911807736
 10
156.0128741572
 20
101.1860245857
 10
156.0613084117
 20
101.1835498521
 10
156.1099272919
 20
101.1837799752
 10
156.1582710766
 20
101.1867127849
 10
156.2058826004
 20
101.1923205521
 10
156.2523116016
 20
101.2005502442
 10
156.2971190256
 20
101.2113240312
 10
156.3398811953
 20
101.2245400352
 10
156.3801937712
 20
101.2400732897
 10
156.4176755614
 20
101.2577769144
 10
156.4519721296
 20
101.2774835006
 10
156.4827591656
 20
101.2990067019
  0
LWPOLYLINE
  5
254
100
AcDbEntity
  8
0
100
AcDbPolyline
 62
253
  6
CONTINUOUS
 90
10
 70
0
 10
156.0783280624
 20
100.648694631
 10
155.0841193801
 20
100.9822623624
 10
154.0950514448
 20
101.321456098
 10
153.1111242566
 20
101.6662758378
 10
152.1323068514
 20
102.0167148861
 10
151.1586301933
 20
102.3727799386
 10
150.1901871744
 20
102.7344910824
 10
149.227008759
 20
103.1018550134
 10
148.269063983
 20
103.4748650357
 10
147.3163528462
 20
103.8535211495
  0
LWPOLYLINE
  5
255
100
AcDbEntity
  8
0
100
AcDbPolyline
 62
253
  6
CONTINUOUS
 90
10
 70
0
 10
147.032106767
 20
104.4466629449
 10
147.9886209257
 20
104.066348675
 10
148.9505236885
 20
103.6915433921
 10
149.9177469519
 20
103.3222506881
 10
150.8901875476
 20
102.9584869533
 10
151.8678129184
 20
102.6002423375
 10
152.8506633285
 20
102.2474826567
 10
153.8387098935
 20
101.900200565
 10
154.8318523674
 20
101.5584136482
 10
155.8300263675
 20
101.2221267188
  0
LWPOLYLINE
  5
256
100
AcDbEntity
  8
0
100
AcDbPolyline
 62
7
  6
CONTINUOUS
 90
10
 70
0
 10
147.1325583295
 20
104.2168312959
 10
148.032027785
 20
103.8589889964
 10
149.0041576226
 20
103.4797971127
 10
149.9828135828
 20
103.1058368846
 10
150.9678957869
 20
102.7371495869
 10
151.9593195618
 20
102.3737681494
 10
152.9570065175
 20
102.0157225894
 10
153.9608711416
 20
101.6630449761
 10
154.9708086967
 20
101.3157716883
 10
155.9227380783
 20
100.9952461395
  0
LINE
  5
257
100
AcDbEntity
  8
0
100
AcDbLine
 62
7
  6
CONTINUOUS
 10
160.7625024868
 20
97.6766490473
 11
161.010733394
 21
97.5769539188
  0
LINE
  5
258
100
AcDbEntity
  8
0
100
AcDbLine
 62
253
  6
CONTINUOUS
 10
147.0320128075
 20
103.2102800974
 11
128.6039403986
 21
110.611409428
  0
LINE
  5
259
100
AcDbEntity
  8
0
100
AcDbLine
 62
253
  6
CONTINUOUS
 10
147.3163528462
 20
103.8535211495
 11
128.8882644004
 21
111.2546569209
  0
LINE
  5
25A
100
AcDbEntity
  8
0
100
AcDbLine
 62
7
  6
CONTINUOUS
 10
128.7043759394
 20
111.6178912474
 11
147.132464385
 21
104.2167554762
  0
LINE
  5
25B
100
AcDbEntity
  8
0
100
AcDbLine
 62
253
  6
CONTINUOUS
 10
128.6039403878
 20
111.8477156863
 11
147.0320127967
 21
104.4465863557
  0
LINE
  5
25C
100
AcDbEntity
  8
0
100
AcDbLine
 62
7
  6
CONTINUOUS
 10
159.8852016624
 20
99.8817459294
 11
158.9838255346
 21
100.2437589034
  0
LWPOLYLINE
  5
25D
100
AcDbEntity
  8
0
100
AcDbPolyline
 62
253
  6
CONTINUOUS
 90
10
 70
0
 10
128.6040343689
 20
110.6114867906
 10
127.6538856264
 20
110.9970153042
 10
126.7110533392
 20
111.3874422062
 10
125.7755666614
 20
111.7827319992
 10
124.8474880279
 20
112.182834926
 10
123.9268120768
 20
112.5877297754
 10
123.0134680209
 20
112.9974257284
 10
122.1074533387
 20
113.4119044045
 10
121.2088314054
 20
113.8311180154
 10
120.3176320741
 20
114.2550334635
  0
LWPOLYLINE
  5
25E
100
AcDbEntity
  8
0
100
AcDbPolyline
 62
253
  6
CONTINUOUS
 90
10
 70
0
 10
128.8882644004
 20
111.2546569209
 10
127.9419913086
 20
111.6386758172
 10
127.0030517243
 20
112.0274974504
 10
126.0714456475
 20
112.4211218203
 10
125.1471731785
 20
112.8195680622
 10
124.2302342171
 20
113.2228170409
 10
123.3206284625
 20
113.6308113508
 10
122.4183558144
 20
114.0435318567
 10
121.5234163731
 20
114.4609976939
 10
120.6358101386
 20
114.8832088623
  0
LINE
  5
25F
100
AcDbEntity
  8
0
100
AcDbLine
 62
253
  6
CONTINUOUS
 10
128.6976633692
 20
111.6208496221
 11
128.7043759394
 21
111.6178912474
  0
LWPOLYLINE
  5
260
100
AcDbEntity
  8
0
100
AcDbPolyline
 62
253
  6
CONTINUOUS
 90
10
 70
0
 10
120.3176320741
 20
115.4847048659
 10
121.2088381771
 20
115.0621736938
 10
122.1074652777
 20
114.6441830588
 10
123.0134834843
 20
114.2307659677
 10
123.9268293852
 20
113.8219705192
 10
124.8475054632
 20
113.4178146201
 10
125.775582465
 20
113.0182878286
 10
126.7110657145
 20
112.6234108897
 10
127.6538927421
 20
112.2332338922
 10
128.6040343581
 20
111.8477922755
  0
LWPOLYLINE
  5
261
100
AcDbEntity
  8
0
100
AcDbPolyline
 62
7
  6
CONTINUOUS
 90
10
 70
0
 10
120.4224321258
 20
115.2531151585
 10
121.2674872694
 20
114.8522434699
 10
122.1813528078
 20
114.4267954033
 10
123.1020614212
 20
114.0064507109
 10
124.0295166823
 20
113.5912526388
 10
124.9636358784
 20
113.1812355069
 10
125.9043422001
 20
112.7764304429
 10
126.8515518709
 20
112.3768710017
 10
127.8051621383
 20
111.9825961222
 10
128.704469941
 20
111.6179670442
  0
LINE
  5
262
100
AcDbEntity
  8
0
100
AcDbLine
 62
7
  6
CONTINUOUS
 10
157.9857177096
 20
102.2943104944
 11
158.1070174526
 21
102.245593783
  0
LINE
  5
263
100
AcDbEntity
  8
0
100
AcDbLine
 62
7
  6
CONTINUOUS
 10
144.2120105473
 20
127.1132883796
 11
144.3126493303
 21
127.8160070532
  0
LWPOLYLINE
  5
264
100
AcDbEntity
  8
0
100
AcDbPolyline
 62
253
  6
CONTINUOUS
 90
11
 70
0
 10
147.3454964938
 20
86.9876834236
 10
147.3506976301
 20
86.9122402978
 10
147.3604225751
 20
86.8413714149
 10
147.3746068577
 20
86.7755467757
 10
147.3931564446
 20
86.7152029002
 10
147.4159483339
 20
86.6607400363
 10
147.4428313472
 20
86.6125194707
 10
147.4736271846
 20
86.5708610079
 10
147.5081316293
 20
86.5360408844
 10
147.5461158551
 20
86.5082900159
 10
147.5856248186
 20
86.4884696225
  0
LINE
  5
265
100
AcDbEntity
  8
0
100
AcDbLine
 62
7
  6
CONTINUOUS
 10
144.3126493303
 20
127.8160070532
 11
144.3126493303
 21
127.0728695755
  0
LINE
  5
266
100
AcDbEntity
  8
0
100
AcDbLine
 62
253
  6
CONTINUOUS
 10
156.7287643335
 20
119.3982946655
 11
159.4760465504
 21
121.7260448789
  0
LINE
  5
267
100
AcDbEntity
  8
0
100
AcDbLine
 62
253
  6
CONTINUOUS
 10
157.1457020993
 20
118.8309867138
 11
159.8852016624
 21
121.1521427469
  0
LINE
  5
268
100
AcDbEntity
  8
0
100
AcDbLine
 62
7
  6
CONTINUOUS
 10
160.7625024868
 20
115.8618244306
 11
159.8852016624
 21
115.7775998876
  0
LWPOLYLINE
  5
269
100
AcDbEntity
  8
0
100
AcDbPolyline
 62
253
  6
CONTINUOUS
 90
10
 70
0
 10
147.0320208205
 20
104.4465831332
 10
147.0335226696
 20
104.4051728977
 10
147.0381243875
 20
104.3667573313
 10
147.0457758715
 20
104.3317537455
 10
147.0563939207
 20
104.3005422683
 10
147.0698630511
 20
104.2734620056
 10
147.0860366686
 20
104.2508072323
 10
147.1047388834
 20
104.2328238219
 10
147.125766371
 20
104.2197068519
 10
147.1324648568
 20
104.2167552867
  0
LWPOLYLINE
  5
26A
100
AcDbEntity
  8
0
100
AcDbPolyline
 62
253
  6
CONTINUOUS
 90
7
 70
0
 10
147.0320128075
 20
103.2102800974
 10
147.0438573195
 20
100.4717475311
 10
147.0718712697
 20
97.7468715528
 10
147.116048886
 20
95.0358405988
 10
147.1763832631
 20
92.3388420557
 10
147.2528663641
 20
89.6560622479
 10
147.3454890211
 20
86.9876864248
  0
LWPOLYLINE
  5
26B
100
AcDbEntity
  8
0
100
AcDbPolyline
 62
253
  6
CONTINUOUS
 90
7
 70
0
 10
147.0320127967
 20
104.4465863557
 10
147.043857596
 20
107.2041697811
 10
147.0718715498
 20
109.9745032965
 10
147.1160488862
 20
112.757389009
 10
147.1763826998
 20
115.5526282192
 10
147.2528649537
 20
118.3600214357
 10
147.34548648
 20
121.1793683895
  0
LWPOLYLINE
  5
26C
100
AcDbEntity
  8
0
100
AcDbPolyline
 62
253
  6
CONTINUOUS
 90
16
 70
0
 10
147.0320208206
 20
103.2102768792
 10
147.033522285
 20
103.2541419392
 10
147.0381229108
 20
103.300090911
 10
147.0457727197
 20
103.3476246352
 10
147.0563886092
 20
103.3962267368
 10
147.0698552553
 20
103.4453692346
 10
147.086026365
 20
103.4945182769
 10
147.104726266
 20
103.5431399409
 10
147.125751815
 20
103.590706033
 10
147.1488746042
 20
103.6366998268
 10
147.1738434427
 20
103.6806216761
 10
147.2003870857
 20
103.7219944431
 10
147.2282171807
 20
103.7603686818
 10
147.2570314
 20
103.7953275198
 10
147.2865167248
 20
103.8264911877
 10
147.3163528462
 20
103.853521144
  0
LWPOLYLINE
  5
26D
100
AcDbEntity
  8
0
100
AcDbPolyline
 62
253
  6
CONTINUOUS
 90
19
 70
0
 10
147.3454964938
 20
121.1793643677
 10
147.350697666
 20
121.2633289462
 10
147.3604226712
 20
121.3501305424
 10
147.3746070163
 20
121.4391935145
 10
147.393156635
 20
121.5299272238
 10
147.4159485118
 20
121.6217299517
 10
147.4428314979
 20
121.7139928902
 10
147.4736273134
 20
121.8061041796
 10
147.5081317298
 20
121.8974529654
 10
147.5461159242
 20
121.9874334502
 10
147.5873279969
 20
122.0754489106
 10
147.6314946419
 20
122.1609156546
 10
147.6783229594
 20
122.2432668927
 10
147.7275023982
 20
122.3219564963
 10
147.7787068149
 20
122.3964626197
 10
147.8315966375
 20
122.4662911609
 10
147.8858211166
 20
122.5309790381
 10
147.9410206519
 20
122.5900972607
 10
147.9968291767
 20
122.6432537747
  0
LINE
  5
26E
100
AcDbEntity
  8
0
100
AcDbLine
 62
253
  6
CONTINUOUS
 10
152.5362126671
 20
122.7297086747
 11
152.5362126671
 21
122.7188034075
  0
LINE
  5
26F
100
AcDbEntity
  8
0
100
AcDbLine
 62
7
  6
CONTINUOUS
 10
152.7777457465
 20
124.4162334914
 11
152.7777457465
 21
123.1741039641
  0
LINE
  5
270
100
AcDbEntity
  8
0
100
AcDbLine
 62
7
  6
CONTINUOUS
 10
152.5355437546
 20
122.7188034075
 11
152.5362126671
 21
122.7297086747
  0
LINE
  5
271
100
AcDbEntity
  8
0
100
AcDbLine
 62
7
  6
CONTINUOUS
 10
152.7777457465
 20
124.4162334914
 11
152.5362126671
 21
122.7297086747
  0
LINE
  5
272
100
AcDbEntity
  8
0
100
AcDbLine
 62
7
  6
CONTINUOUS
 10
152.7777457465
 20
123.1741039641
 11
152.6943631607
 21
122.5918781233
  0
LINE
  5
273
100
AcDbEntity
  8
0
100
AcDbLine
 62
7
  6
CONTINUOUS
 10
159.8852016624
 20
114.1349915001
 11
161.1754163899
 21
115.3019166945
  0
LWPOLYLINE
  5
274
100
AcDbEntity
  8
0
100
AcDbPolyline
 62
253
  6
CONTINUOUS
 90
11
 70
0
 10
120.5727125175
 20
132.1830563069
 10
120.5359265754
 20
132.2015779602
 10
120.5025351496
 20
132.2219135039
 10
120.4728620014
 20
132.2438657656
 10
120.4471948399
 20
132.2672218976
 10
120.4257825325
 20
132.2917554401
 10
120.4088326916
 20
132.3172285172
 10
120.396509662
 20
132.3433941435
 10
120.388932927
 20
132.3699986185
 10
120.3861759502
 20
132.3967839868
 10
120.3862146852
 20
132.4024842365
  0
LINE
  5
275
100
AcDbEntity
  8
0
100
AcDbLine
 62
7
  6
CONTINUOUS
 10
159.8852016624
 20
110.694552914
 11
161.1754163899
 21
111.8962404967
  0
LWPOLYLINE
  5
276
100
AcDbEntity
  8
0
100
AcDbPolyline
 62
253
  6
CONTINUOUS
 90
16
 70
0
 10
156.0893457436
 20
117.9187842642
 10
156.1326747921
 20
117.9051297557
 10
156.1780895771
 20
117.8938146846
 10
156.2251497682
 20
117.8849487589
 10
156.2733990816
 20
117.8786179404
 10
156.3223697039
 20
117.8748836113
 10
156.3715868283
 20
117.8737819782
 10
156.4205732578
 20
117.8753237224
 10
156.4688540322
 20
117.8794938956
 10
156.5159610332
 20
117.8862520647
 10
156.5614375232
 20
117.8955327042
 10
156.6048425734
 20
117.9072458315
 10
156.6457553393
 20
117.9212778788
 10
156.683779141
 20
117.937492795
 10
156.7185453092
 20
117.9557333644
 10
156.7497167598
 20
117.9758227309
  0
LWPOLYLINE
  5
277
100
AcDbEntity
  8
0
100
AcDbPolyline
 62
253
  6
CONTINUOUS
 90
10
 70
0
 10
156.7287643335
 20
119.3982946655
 10
155.8136102825
 20
119.7143751901
 10
154.8894163534
 20
120.039482124
 10
153.956182546
 20
120.3736154671
 10
153.020209345
 20
120.713986936
 10
152.0751962657
 20
121.0633848141
 10
151.1022418546
 20
121.430173952
 10
150.0950456272
 20
121.8171426331
 10
149.0599080678
 20
122.221502574
 10
147.9968291767
 20
122.6432537747
  0
LWPOLYLINE
  5
278
100
AcDbEntity
  8
0
100
AcDbPolyline
 62
253
  6
CONTINUOUS
 90
10
 70
0
 10
156.0893390911
 20
117.9187783653
 10
155.174249141
 20
118.2373933307
 10
154.2493128968
 20
118.5646408487
 10
153.3147521793
 20
118.9006708365
 10
152.3773704971
 20
119.2431993265
 10
151.4307648735
 20
119.5947586154
 10
150.4556371198
 20
119.9629695086
 10
149.4460537628
 20
120.350757626
 10
148.4091357943
 20
120.7560807404
 10
147.3454880754
 20
121.1793683938
  0
LINE
  5
279
100
AcDbEntity
  8
0
100
AcDbLine
 62
253
  6
CONTINUOUS
 10
147.34548648
 20
121.1793683895
 11
128.9146462149
 21
128.5816093535
  0
LINE
  5
27A
100
AcDbEntity
  8
0
100
AcDbLine
 62
7
  6
CONTINUOUS
 10
161.010733394
 20
115.762129302
 11
160.7625024868
 21
115.8618244306
  0
LINE
  5
27B
100
AcDbEntity
  8
0
100
AcDbLine
 62
253
  6
CONTINUOUS
 10
147.9968291767
 20
122.6432537747
 11
129.5659714248
 21
130.0455017618
  0
LWPOLYLINE
  5
27C
100
AcDbEntity
  8
0
100
AcDbPolyline
 62
253
  6
CONTINUOUS
 90
13
 70
0
 10
128.9146478106
 20
128.5816093591
 10
128.1743891574
 20
128.8808128458
 10
127.4480689816
 20
129.1780823896
 10
126.7355749633
 20
129.4733012933
 10
126.0400386828
 20
129.7649889163
 10
125.3580781156
 20
130.0543794403
 10
124.6799280223
 20
130.3455230506
 10
124.0061650273
 20
130.638146532
 10
123.3362181124
 20
130.9324835213
 10
122.6588577818
 20
131.2335412076
 10
121.9705038938
 20
131.5430947316
 10
121.2750699283
 20
131.8595698768
 10
120.5727125164
 20
132.183056298
  0
LWPOLYLINE
  5
27D
100
AcDbEntity
  8
0
100
AcDbPolyline
 62
253
  6
CONTINUOUS
 90
13
 70
0
 10
129.5659714248
 20
130.0455017618
 10
128.8272532061
 20
130.3444496914
 10
128.1023727607
 20
130.6413216671
 10
127.3913300885
 20
130.9361176891
 10
126.6975449433
 20
131.227476189
 10
126.0175975714
 20
131.5167587351
 10
125.3412287116
 20
131.8080500325
 10
124.6686925581
 20
132.1010133436
 10
123.9997349167
 20
132.395985406
 10
123.323333944
 20
132.6980611371
 10
122.6358156922
 20
133.0089388428
 10
121.9408541091
 20
133.3269202171
 10
121.2384491946
 20
133.6520052603
  0
LWPOLYLINE
  5
27E
100
AcDbEntity
  8
0
100
AcDbPolyline
 62
253
  6
CONTINUOUS
 90
16
 70
0
 10
156.4827591646
 20
100.0705961058
 10
156.4803411263
 20
100.1136067326
 10
156.4736191715
 20
100.1581335631
 10
156.4626227923
 20
100.2037084081
 10
156.4474101121
 20
100.2498946178
 10
156.4281165515
 20
100.2961383957
 10
156.4049978031
 20
100.3417780101
 10
156.3783417759
 20
100.3862589577
 10
156.3484160082
 20
100.4291468076
 10
156.3155406026
 20
100.4699800334
 10
156.2800684248
 20
100.508314216
 10
156.2423933108
 20
100.5437180495
 10
156.2029392864
 20
100.5757910194
 10
156.1621444487
 20
100.6041775987
 10
156.1204543984
 20
100.6285683128
 10
156.0783280667
 20
100.6486946344
  0
LWPOLYLINE
  5
27F
100
AcDbEntity
  8
0
100
AcDbPolyline
 62
253
  6
CONTINUOUS
 90
10
 70
0
 10
155.8300264097
 20
101.2221267192
 10
155.8317956438
 20
101.1799450858
 10
155.8357120866
 20
101.1420234187
 10
155.8419739482
 20
101.1080334682
 10
155.8511706505
 20
101.0775525734
 10
155.8631654517
 20
101.0509136727
 10
155.8770926034
 20
101.0290163714
 10
155.8932446338
 20
101.0119912975
 10
155.9118758868
 20
100.9997504003
 10
155.9228830382
 20
100.9951978772
  0
LWPOLYLINE
  5
280
100
AcDbEntity
  8
0
100
AcDbPolyline
 62
253
  6
CONTINUOUS
 90
13
 70
0
 10
156.7497167277
 20
83.8076412495
 10
156.7070822829
 20
85.2060437995
 10
156.6684536107
 20
86.5844470055
 10
156.6338307112
 20
87.9428508673
 10
156.6034525966
 20
89.2738814134
 10
156.5770802548
 20
90.5849126153
 10
156.5539966482
 20
91.8980663883
 10
156.533976291
 20
93.2131319165
 10
156.5172446691
 20
94.5303200158
 10
156.5037612034
 20
95.8723850481
 10
156.4935123676
 20
97.2469118009
 10
156.486511688
 20
98.6463154868
 10
156.4827591646
 20
100.0705961058
  0
LWPOLYLINE
  5
281
100
AcDbEntity
  8
0
100
AcDbPolyline
 62
253
  6
CONTINUOUS
 90
5
 70
0
 10
156.0893390959
 20
83.7154701015
 10
156.0476398003
 20
85.114583434
 10
156.0101734836
 20
86.4940599994
 10
155.9767670965
 20
87.8537303066
 10
155.9474058028
 20
89.1859733319
  0
LINE
  5
282
100
AcDbEntity
  8
0
100
AcDbLine
 62
253
  6
CONTINUOUS
 10
155.9474058028
 20
89.1859733319
 11
155.9186282093
 21
90.6791974409
  0
LWPOLYLINE
  5
283
100
AcDbEntity
  8
0
100
AcDbPolyline
 62
253
  6
CONTINUOUS
 90
8
 70
0
 10
155.9186282093
 20
90.6791974409
 10
155.8992192632
 20
91.8122716624
 10
155.8798653217
 20
93.1285757224
 10
155.8636668031
 20
94.4469816655
 10
155.850425232
 20
95.7901704209
 10
155.8402539505
 20
97.1658418958
 10
155.8333990822
 20
98.5665637267
 10
155.8300263675
 20
99.9924553163
  0
LWPOLYLINE
  5
284
100
AcDbEntity
  8
0
100
AcDbPolyline
 62
253
  6
CONTINUOUS
 90
10
 70
0
 10
156.4827591649
 20
101.2990067013
 10
156.4868338731
 20
102.9880452209
 10
156.4968140156
 20
104.7081846519
 10
156.5126995924
 20
106.4594249943
 10
156.5338354336
 20
108.2285871169
 10
156.5608767092
 20
110.0288501508
 10
156.5957889287
 20
111.8997514898
 10
156.6392272618
 20
113.8544702651
 10
156.6905365389
 20
115.8798273454
 10
156.7497167598
 20
117.9758227309
  0
LWPOLYLINE
  5
285
100
AcDbEntity
  8
0
100
AcDbPolyline
 62
253
  6
CONTINUOUS
 90
5
 70
0
 10
155.8300263675
 20
101.2221267188
 10
155.8343917862
 20
102.913177359
 10
155.8440048191
 20
104.6351066917
 10
155.8591067292
 20
106.3880768622
 10
155.8797689068
 20
108.1593770385
  0
LWPOLYLINE
  5
286
100
AcDbEntity
  8
0
100
AcDbPolyline
 62
253
  6
CONTINUOUS
 90
6
 70
0
 10
155.8797689068
 20
108.1593770385
 10
155.906333388
 20
109.9619786632
 10
155.9398134427
 20
111.8348510546
 10
155.9811385267
 20
113.7914168906
 10
156.0307536661
 20
115.819235684
 10
156.0893390911
 20
117.9187783653
  0
LWPOLYLINE
  5
287
100
AcDbEntity
  8
0
100
AcDbPolyline
 62
253
  6
CONTINUOUS
 90
16
 70
0
 10
155.8300264094
 20
99.9924553167
 10
155.8317954116
 20
100.0370837625
 10
155.8357115994
 20
100.0831247269
 10
155.841973146
 20
100.1304428469
 10
155.8511693479
 20
100.1791429135
 10
155.8631635118
 20
100.2290323797
 10
155.8770901246
 20
100.2791727899
 10
155.893241737
 20
100.328565909
 10
155.9118726309
 20
100.3770027821
 10
155.9319708434
 20
100.4242176788
 10
155.9536161004
 20
100.4693412397
 10
155.9770407706
 20
100.5117746824
 10
156.0012916305
 20
100.5515075183
 10
156.0260567518
 20
100.5880710478
 10
156.0517286667
 20
100.6206376123
 10
156.0783280666
 20
100.6486946345
  0
LWPOLYLINE
  5
288
100
AcDbEntity
  8
0
100
AcDbPolyline
 62
253
  6
CONTINUOUS
 90
22
 70
0
 10
156.0893391306
 20
117.9187784264
 10
156.0929469292
 20
117.9907440019
 10
156.0998622988
 20
118.0649507639
 10
156.1100538752
 20
118.1410312025
 10
156.1234815971
 20
118.2186002849
 10
156.1400779746
 20
118.2972811837
 10
156.1597504386
 20
118.3767078852
 10
156.182416854
 20
118.4564911159
 10
156.2079712278
 20
118.5362296117
 10
156.2362665742
 20
118.6155364274
 10
156.2671787896
 20
118.6940145407
 10
156.300566177
 20
118.7712735973
 10
156.3362375003
 20
118.8469418297
 10
156.3740358376
 20
118.9206406401
 10
156.4137872319
 20
118.9919992575
 10
156.4552601693
 20
119.0606717792
 10
156.4982662947
 20
119.1263085378
 10
156.5426118014
 20
119.1885829186
 10
156.588046664
 20
119.2472047955
 10
156.6343490551
 20
119.3018840892
 10
156.6813258757
 20
119.352333514
 10
156.7287643334
 20
119.3982946654
  0
LWPOLYLINE
  5
289
100
AcDbEntity
  8
0
100
AcDbPolyline
 62
253
  6
CONTINUOUS
 90
22
 70
0
 10
156.7497167598
 20
117.9758227309
 10
156.7520241942
 20
118.0178708649
 10
156.756327182
 20
118.0608217826
 10
156.762625723
 20
118.1046754841
 10
156.7709700905
 20
118.1496747521
 10
156.7813100114
 20
118.1955768039
 10
156.7934946661
 20
118.2416532913
 10
156.8075504317
 20
118.2878887603
 10
156.8234509312
 20
118.334298665
 10
156.8409662145
 20
118.3802010193
 10
156.8601220487
 20
118.4255914856
 10
156.8808926666
 20
118.4704744016
 10
156.9029708162
 20
118.5141807933
 10
156.9263759428
 20
118.5566916179
 10
156.9510886012
 20
118.5980259184
 10
156.9767432033
 20
118.6375718499
 10
157.0033667147
 20
118.6753136601
 10
157.0309321698
 20
118.7112671013
 10
157.0589930842
 20
118.7448675861
 10
157.0874006299
 20
118.7759269185
 10
157.116303635
 20
118.8046332944
 10
157.1457020993
 20
118.8309867138
  0
LWPOLYLINE
  5
28A
100
AcDbEntity
  8
0
100
AcDbPolyline
 62
253
  6
CONTINUOUS
 90
8
 70
0
 10
156.4827591649
 20
101.2990067013
 10
156.4803411223
 20
101.2574056191
 10
156.4736191573
 20
101.2179464736
 10
156.4626227646
 20
101.1810793975
 10
156.4474100709
 20
101.1471980114
 10
156.4281164996
 20
101.1167487581
 10
156.4049977437
 20
101.090184793
 10
156.3844543454
 20
101.0723386176
  0
LINE
  5
28B
100
AcDbEntity
  8
0
100
AcDbLine
 62
7
  6
CONTINUOUS
 10
159.8852016624
 20
106.7626231015
 11
158.5166402811
 21
105.7017908678
  0
LINE
  5
28C
100
AcDbEntity
  8
0
100
AcDbLine
 62
253
  6
CONTINUOUS
 10
156.4827591649
 20
101.2990067013
 11
158.5166402811
 21
102.8511225968
  0
LWPOLYLINE
  5
28D
100
AcDbEntity
  8
0
100
AcDbPolyline
 62
253
  6
CONTINUOUS
 90
10
 70
0
 10
121.2384491946
 20
133.6520052602
 10
121.1949883039
 20
133.6663105081
 10
121.1521669791
 20
133.6761202015
 10
121.1104535698
 20
133.6813270654
 10
121.0703042927
 20
133.6818741676
 10
121.0321582797
 20
133.6777555395
 10
120.9964327682
 20
133.6690162558
 10
120.963518486
 20
133.6557519331
 10
120.9337753964
 20
133.6381076737
 10
120.9106136788
 20
133.6192317653
  0
LINE
  5
28E
100
AcDbEntity
  8
0
100
AcDbLine
 62
7
  6
CONTINUOUS
 10
127.775084725
 20
132.600022135
 11
125.0153124269
 21
133.7084089076
  0
LINE
  5
28F
100
AcDbEntity
  8
0
100
AcDbLine
 62
7
  6
CONTINUOUS
 10
152.6207363194
 20
122.6214483226
 11
155.3805086176
 21
121.5130615501
  0
LWPOLYLINE
  5
290
100
AcDbEntity
  8
0
100
AcDbPolyline
 62
253
  6
CONTINUOUS
 90
16
 70
0
 10
156.7287643334
 20
119.3982946654
 10
156.7708250533
 20
119.3782525763
 10
156.8125899086
 20
119.3540907165
 10
156.853602112
 20
119.3260733472
 10
156.8934131078
 20
119.2945068978
 10
156.9315874784
 20
119.2597366144
 10
156.9677077061
 20
119.2221427843
 10
157.0013787396
 20
119.1821365758
 10
157.0322323145
 20
119.1401555417
 10
157.0599309816
 20
119.0966588337
 10
157.084171797
 20
119.0521221809
 10
157.104689636
 20
119.007032686
 10
157.1212600925
 20
118.9618834984
 10
157.1337019332
 20
118.9171684204
 10
157.1418790803
 20
118.8733765064
 10
157.1457020993
 20
118.8309867138
  0
LINE
  5
291
100
AcDbEntity
  8
0
100
AcDbLine
 62
7
  6
CONTINUOUS
 10
158.5166402811
 20
101.6715819668
 11
158.5166402811
 21
98.8209136958
  0
LINE
  5
292
100
AcDbEntity
  8
0
100
AcDbLine
 62
7
  6
CONTINUOUS
 10
158.5166402811
 20
102.8511225968
 11
158.5166402811
 21
105.7017908678
  0
LINE
  5
293
100
AcDbEntity
  8
0
100
AcDbLine
 62
253
  6
CONTINUOUS
 10
158.1070174526
 20
102.245593783
 11
156.0783280624
 21
100.648694631
  0
LINE
  5
294
100
AcDbEntity
  8
0
100
AcDbLine
 62
253
  6
CONTINUOUS
 10
158.5166402811
 20
101.6715819668
 11
156.4827591646
 21
100.0705961058
  0
LINE
  5
295
100
AcDbEntity
  8
0
100
AcDbLine
 62
7
  6
CONTINUOUS
 10
158.9838255346
 20
100.2437589034
 11
158.5166402811
 21
99.8816230264
  0
LINE
  5
296
100
AcDbEntity
  8
0
100
AcDbLine
 62
253
  6
CONTINUOUS
 10
156.3844543454
 20
101.0723386176
 11
156.3841625566
 21
101.0721155536
  0
LINE
  5
297
100
AcDbEntity
  8
0
100
AcDbLine
 62
7
  6
CONTINUOUS
 10
156.384160412
 20
101.072113917
 11
158.4177833003
 21
102.6240327509
  0
LWPOLYLINE
  5
298
100
AcDbEntity
  8
0
100
AcDbPolyline
 62
253
  6
CONTINUOUS
 90
16
 70
0
 10
156.4827591653
 20
100.0705961064
 10
156.4519721293
 20
100.04894968
 10
156.4176755611
 20
100.029121034
 10
156.3801937709
 20
100.0112976689
 10
156.339881195
 20
99.9956481257
 10
156.2971190253
 20
99.9823203843
 10
156.2523116013
 20
99.9714404678
 10
156.2058826001
 20
99.9631112577
 10
156.1582710763
 20
99.9574115249
 10
156.1099272916
 20
99.9543951719
 10
156.0613084114
 20
99.9540907177
 10
156.0128741569
 20
99.9565010353
 10
155.9650825035
 20
99.9616033314
 10
155.9183853647
 20
99.9693493594
 10
155.8732243183
 20
99.9796658723
 10
155.8300264094
 20
99.9924553167
  0
LINE
  5
299
100
AcDbEntity
  8
0
100
AcDbLine
 62
7
  6
CONTINUOUS
 10
137.9045398062
 20
129.6465108278
 11
134.9555924468
 21
130.8308745698
  0
LINE
  5
29A
100
AcDbEntity
  8
0
100
AcDbLine
 62
7
  6
CONTINUOUS
 10
144.2120105473
 20
127.1132883796
 11
147.1609579067
 21
125.9289246376
  0
LINE
  5
29B
100
AcDbEntity
  8
0
100
AcDbLine
 62
7
  6
CONTINUOUS
 10
159.4760465504
 20
121.7260448789
 11
158.0913813723
 21
122.282157631
  0
LINE
  5
29C
100
AcDbEntity
  8
0
100
AcDbLine
 62
7
  6
CONTINUOUS
 10
152.7777457465
 20
124.4162334914
 11
148.2074719963
 21
126.2517584639
  0
LINE
  5
29D
100
AcDbEntity
  8
0
100
AcDbLine
 62
7
  6
CONTINUOUS
 10
144.3126493303
 20
127.8160070532
 11
138.9510538959
 21
129.9693446541
  0
LINE
  5
29E
100
AcDbEntity
  8
0
100
AcDbLine
 62
7
  6
CONTINUOUS
 10
135.0562312299
 20
131.5335932435
 11
130.4859574798
 21
133.3691182159
  0
LINE
  5
29F
100
AcDbEntity
  8
0
100
AcDbLine
 62
7
  6
CONTINUOUS
 10
125.1723218539
 20
135.5031940764
 11
123.7876566758
 21
136.0593068284
  0
LINE
  5
2A0
100
AcDbEntity
  8
0
100
AcDbLine
 62
7
  6
CONTINUOUS
 10
159.8852016624
 20
121.1521427469
 11
159.8852016624
 21
106.7626231015
  0
LINE
  5
2A1
100
AcDbEntity
  8
0
100
AcDbLine
 62
7
  6
CONTINUOUS
 10
159.8852016624
 20
85.4922262839
 11
159.8852016624
 21
99.8817459294
  0
LINE
  5
2A2
100
AcDbEntity
  8
0
100
AcDbLine
 62
253
  6
CONTINUOUS
 10
161.1754163899
 20
115.3019166945
 11
161.1754163899
 21
111.8962404967
  0
LINE
  5
2A3
100
AcDbEntity
  8
0
100
AcDbLine
 62
253
  6
CONTINUOUS
 10
161.1754163899
 20
97.1167413113
 11
161.1754163899
 21
93.7110651135
  0
LINE
  5
2A4
100
AcDbEntity
  8
0
100
AcDbLine
 62
7
  6
CONTINUOUS
 10
161.2665875322
 20
115.4820643245
 11
161.2665875322
 21
112.0808319106
  0
LINE
  5
2A5
100
AcDbEntity
  8
0
100
AcDbLine
 62
7
  6
CONTINUOUS
 10
161.2665875322
 20
97.2968889413
 11
161.2665875322
 21
93.8956565274
  0
LINE
  5
2A6
100
AcDbEntity
  8
0
100
AcDbLine
 62
7
  6
CONTINUOUS
 10
159.8852016624
 20
99.8817459294
 11
158.5166402811
 21
98.8209136958
  0
LINE
  5
2A7
100
AcDbEntity
  8
0
100
AcDbLine
 62
7
  6
CONTINUOUS
 10
159.8852016624
 20
95.9498161168
 11
161.1754163899
 21
97.1167413113
  0
LINE
  5
2A8
100
AcDbEntity
  8
0
100
AcDbLine
 62
7
  6
CONTINUOUS
 10
159.8852016624
 20
92.5093775308
 11
161.1754163899
 21
93.7110651135
  0
LWPOLYLINE
  5
2A9
100
AcDbEntity
  8
0
100
AcDbPolyline
 62
253
  6
CONTINUOUS
 90
8
 70
0
 10
157.0313267751
 20
83.3279174481
 10
157.0599324658
 20
83.3515788864
 10
157.0841729745
 20
83.3788141662
 10
157.1046904774
 20
83.4099663808
 10
157.1212606077
 20
83.4446948001
 10
157.1337021674
 20
83.4826195825
 10
157.1418791113
 20
83.5233259259
 10
157.145702039
 20
83.5663686145
  0
LINE
  5
2AA
100
AcDbEntity
  8
0
100
AcDbLine
 62
253
  6
CONTINUOUS
 10
159.8852016624
 20
85.4922262839
 11
157.145702039
 21
83.5663686145
  0
LINE
  5
2AB
100
AcDbEntity
  8
0
100
AcDbLine
 62
7
  6
CONTINUOUS
 10
159.7790723399
 20
85.2595719824
 11
157.0313267037
 21
83.3279173978
  0
LWPOLYLINE
  5
2AC
100
AcDbEntity
  8
0
100
AcDbPolyline
 62
253
  6
CONTINUOUS
 90
22
 70
0
 10
157.145702039
 20
83.5663686145
 10
157.1163035742
 20
83.5471459434
 10
157.0874005689
 20
83.5310443334
 10
157.0589930228
 20
83.5180637847
 10
157.030932108
 20
83.5081617666
 10
157.0033666526
 20
83.5013808096
 10
156.9767431409
 20
83.4978485059
 10
156.9510885386
 20
83.4976224122
 10
156.92637588
 20
83.5006449716
 10
156.9029707531
 20
83.5068711061
 10
156.8808926033
 20
83.5163500045
 10
156.8601219853
 20
83.5290324779
 10
156.8409661509
 20
83.5447258818
 10
156.8234508676
 20
83.5634745003
 10
156.8075503679
 20
83.5852340491
 10
156.7934946023
 20
83.6096790315
 10
156.7813099464
 20
83.6368657923
 10
156.7709700244
 20
83.6667379865
 10
156.7626256593
 20
83.6988010825
 10
156.7563271253
 20
83.7328902364
 10
156.7520241481
 20
83.769170292
 10
156.7497167277
 20
83.8076412495
  0
ELLIPSE
  5
2AD
100
AcDbEntity
  8
0
100
AcDbEllipse
 62
7
  6
CONTINUOUS
 10
160.6665875322
 20
93.8932101571
 30
0.0
 11
0.5999961625
 21
0.0037035667
 31
0.0
 40
0.5794175877
 41
-0.5620818877
 42
-0.0038369829
  0
ELLIPSE
  5
2AE
100
AcDbEntity
  8
0
100
AcDbEllipse
 62
7
  6
CONTINUOUS
 10
159.4754852407
 20
85.6573395232
 30
0.0
 11
-0.3166934957
 21
0.3878404978
 31
0.0
 40
0.6702436759
 41
-3.1895544554
 42
-2.4542862349
  0
ELLIPSE
  5
2AF
100
AcDbEntity
  8
0
100
AcDbEllipse
 62
7
  6
CONTINUOUS
 10
158.1069238594
 20
101.8360397539
 30
0.0
 11
0.3170403205
 21
-0.3867036085
 31
0.0
 40
0.6711200097
 41
0.6859711218
 42
2.2565390145
  0
ELLIPSE
  5
2B0
100
AcDbEntity
  8
0
100
AcDbEllipse
 62
7
  6
CONTINUOUS
 10
160.6665875322
 20
97.2993353115
 30
0.0
 11
0.5999964607
 21
-0.0036301502
 31
0.0
 40
0.5677065366
 41
-0.5550705872
 42
0.963365862
  0
ELLIPSE
  5
2B1
100
AcDbEntity
  8
0
100
AcDbEllipse
 62
7
  6
CONTINUOUS
 10
160.6665875322
 20
112.0783855403
 30
0.0
 11
0.5999961625
 21
0.0037035667
 31
0.0
 40
0.5794175877
 41
-0.5620818877
 42
-0.0038369829
  0
ELLIPSE
  5
2B2
100
AcDbEntity
  8
0
100
AcDbEllipse
 62
7
  6
CONTINUOUS
 10
159.4754852407
 20
121.3161322113
 30
0.0
 11
-0.3165198962
 21
0.3871139532
 31
0.0
 40
0.6720475734
 41
-2.4536186814
 42
-0.8841923507
  0
ELLIPSE
  5
2B3
100
AcDbEntity
  8
0
100
AcDbEllipse
 62
7
  6
CONTINUOUS
 10
123.7882179855
 20
135.6489432917
 30
0.0
 11
-0.3166934957
 21
0.3878404978
 31
0.0
 40
0.6702436759
 41
-0.8821199121
 42
0.0484752164
  0
ELLIPSE
  5
2B4
100
AcDbEntity
  8
0
100
AcDbEllipse
 62
7
  6
CONTINUOUS
 10
152.7354516067
 20
122.7240035726
 30
0.0
 11
0.1999434854
 21
0.0078174272
 31
0.0
 40
0.6081570881
 41
3.1201007963
 42
4.077750384
  0
ELLIPSE
  5
2B5
100
AcDbEntity
  8
0
100
AcDbEllipse
 62
7
  6
CONTINUOUS
 10
155.4952239048
 20
121.6156168001
 30
0.0
 11
0.1999434854
 21
0.0078174272
 31
0.0
 40
0.6081570881
 41
-2.2054349231
 42
-1.1582373719
  0
ELLIPSE
  5
2B6
100
AcDbEntity
  8
0
100
AcDbEllipse
 62
7
  6
CONTINUOUS
 10
127.8898000123
 20
132.702577385
 30
0.0
 11
0.1999434854
 21
0.0078174272
 31
0.0
 40
0.6081570881
 41
-2.2054349231
 42
-1.1582373719
  0
ELLIPSE
  5
2B7
100
AcDbEntity
  8
0
100
AcDbEllipse
 62
7
  6
CONTINUOUS
 10
125.1300277142
 20
133.8109641576
 30
0.0
 11
0.1999434854
 21
0.0078174272
 31
0.0
 40
0.6081570881
 41
3.1201007963
 42
4.077750384
  0
ELLIPSE
  5
2B8
100
AcDbEntity
  8
0
100
AcDbEllipse
 62
7
  6
CONTINUOUS
 10
158.1069238594
 20
103.0157675133
 30
0.0
 11
-0.3170686951
 21
0.3868251561
 31
0.0
 40
0.6708195125
 41
-3.1644370718
 42
-2.4557308722
  0
ELLIPSE
  5
2B9
100
AcDbEntity
  8
0
100
AcDbEllipse
 62
7
  6
CONTINUOUS
 10
160.6665875322
 20
115.4845106947
 30
0.0
 11
0.5999964607
 21
-0.0036301502
 31
0.0
 40
0.5677065366
 41
-0.5550705872
 42
0.963365862
  0
ENDSEC
  0
SECTION
  2
OBJECTS
  0
DICTIONARY
  5
C
100
AcDbDictionary
280
0
281
1
  3
ACAD_GROUP
350
D
  3
ACAD_MLINESTYLE
350
17
  3
ACAD_LAYOUT
350
1A
  3
ACAD_PLOTSETTINGS
350
19
  3
ACAD_PLOTSTYLENAME
350
E
  0
DICTIONARY
  5
D
102
{ACAD_REACTORS
330
C
102
}
100
AcDbDictionary
280
0
281
1
  0
ACDBDICTIONARYWDFLT
  5
E
102
{ACAD_REACTORS
330
C
102
}
100
AcDbDictionary
281
1
  3
Normal
350
F
100
AcDbDictionaryWithDefault
340
F
  0
DICTIONARY
  5
17
102
{ACAD_REACTORS
330
C
102
}
100
AcDbDictionary
280
0
281
1
  3
Standard
350
18
  0
DICTIONARY
  5
19
102
{ACAD_REACTORS
330
C
102
}
100
AcDbDictionary
281
1
  0
DICTIONARY
  5
1A
102
{ACAD_REACTORS
330
C
102
}
100
AcDbDictionary
281
1
  3
Model
350
2BA
  3
Layout1
350
2BB
  0
ACDBPLACEHOLDER
  5
F
102
{ACAD_REACTORS
330
E
102
}
  0
MLINESTYLE
  5
18
102
{ACAD_REACTORS
330
17
102
}
100
AcDbMlineStyle
  2
STANDARD
 70
0
  3

 62
256
 51
90.0
 52
90.0
 71
2
 49
0.5
 62
256
  6
BYLAYER
 49
-0.5
 62
256
  6
BYLAYER
  0
LAYOUT
  5
2BA
102
{ACAD_REACTORS
330
1A
102
}
100
AcDbPlotSettings
  1

  2
none_device
  4
ISO_A4_(297.00_x_210.00_MM)
  6

 40
0.0
 41
0.0
 42
0.0
 43
0.0
 44
297.0
 45
210.0
 46
0.0
 47
0.0
 48
0.0
 49
0.0
140
0.0
141
0.0
142
1.0
143
1.0
 70
1024
 72
1
 73
0
 74
0
  7

 75
0
147
1.0
148
0.0
149
0.0
100
AcDbLayout
  1
Model
 70
0
 71
0
 10
0.0
 20
0.0
 11
297.0
 21
210.0
 12
0.0
 22
0.0
 32
0.0
 14
0.0
 24
0.0
 34
0.0
 15
0.0
 25
0.0
 35
0.0
146
0.0
 13
0.0
 23
0.0
 33
0.0
 16
1.0
 26
0.0
 36
0.0
 17
0.0
 27
1.0
 37
0.0
 76
0
330
21D
345
0
346
0
  0
LAYOUT
  5
2BB
102
{ACAD_REACTORS
330
1A
102
}
100
AcDbPlotSettings
  1

  2
none_device
  4
ISO_A4_(297.00_x_210.00_MM)
  6

 40
0.0
 41
0.0
 42
0.0
 43
0.0
 44
297.0
 45
210.0
 46
0.0
 47
0.0
 48
0.0
 49
0.0
140
0.0
141
0.0
142
1.0
143
1.0
 70
0
 72
1
 73
0
 74
0
  7

 75
0
147
1.0
148
0.0
149
0.0
100
AcDbLayout
  1
Layout1
 70
0
 71
1
 10
0.0
 20
0.0
 11
297.0
 21
210.0
 12
0.0
 22
0.0
 32
0.0
 14
0.0
 24
0.0
 34
0.0
 15
0.0
 25
0.0
 35
0.0
146
0.0
 13
0.0
 23
0.0
 33
0.0
 16
1.0
 26
0.0
 36
0.0
 17
0.0
 27
1.0
 37
0.0
 76
0
330
21E
345
0
346
0
  0
ENDSEC
  0
EOF
