  0
SECTION
  2
HEADER
  9
$ACADVER
  1
AC1024
  9
$DWGCODEPAGE
  3
ANSI_1252
  9
$EXTMAX
 10
297.0
 20
210.0
 30
0.0
  9
$EXTMIN
 10
0.0
 20
0.0
 30
0.0
  9
$LIMMIN
 10
0.0
 20
0.0
  9
$LIMMAX
 10
297.0
 20
210.0
  9
$VIEWCTR
 10
148.5
 20
105.0
  9
$VIEWSIZE
 40
210.0
  9
$CLAYER
  8
0
  9
$LTSCALE
 40
16.335
  9
$CELTYPE
  6
BYLAYER
  9
$DIMSCALE
 40
1.0
  9
$DIMASZ
 40
3.0
  9
$DIMEXO
 40
0.5
  9
$DIMDLI
 40
11.286
  9
$DIMEXE
 40
1.5
  9
$DIMCEN
 40
2.673
  9
$DIMLFAC
 40
1.0
  9
$DIMBLK
  1
_FILLED
  9
$DIMALT
 70
0
  9
$DIMALTF
 40
0.0393700787
  9
$DIMTXT
 40
3.0
  9
$DIMTOL
 70
1
  9
$DIMLIM
 70
0
  9
$DIMTFAC
 40
1.0
  9
$DIMTP
 40
0.01
  9
$DIMTM
 40
0.01
  9
$DIMGAP
 40
0.625
  9
$DIMDSEP
 70
44
  9
$AUNITS
 70
0
  9
$PDMODE
 70
3
  9
$PDSIZE
 40
3.0
  9
$HANDSEED
  5
4C5
  9
$TILEMODE
 70
1
  9
$MEASUREMENT
 70
1
  9
$INSUNITS
 70
4
  0
ENDSEC
  0
SECTION
  2
CLASSES
  0
CLASS
  1
ACDBDICTIONARYWDFLT
  2
AcDbDictionaryWithDefault
  3
AutoCAD 2000
 90
0
 91
1
280
0
281
0
  0
CLASS
  1
ACDBPLACEHOLDER
  2
AcDbPlaceHolder
  3
AutoCAD 2000
 90
0
 91
1
280
0
281
0
  0
CLASS
  1
LAYOUT
  2
AcDbLayout
  3
AutoCAD 2000
 90
0
 91
0
280
0
281
0
  0
ENDSEC
  0
SECTION
  2
TABLES
  0
TABLE
  2
VPORT
  5
8
100
AcDbSymbolTable
 70
2
  0
VPORT
  5
1F4
100
AcDbSymbolTableRecord
100
AcDbViewportTableRecord
  2
*ACTIVE
 70
0
 10
0.0
 20
0.0
 11
1.0
 21
1.0
 12
148.5
 22
105.0
 13
0.0
 23
0.0
 14
1.0
 24
1.0
 15
0.0
 25
0.0
 16
0.0
 26
0.0
 36
1.0
 17
0.0
 27
0.0
 37
0.0
 40
210.0
 41
1.4142857143
 42
50.0
 43
0.0
 44
0.0
 50
0.0
 51
0.0
 71
0
 72
100
 73
1
 74
1
 75
0
 76
0
 77
0
 78
0
  0
ENDTAB
  0
TABLE
  2
LTYPE
  5
5
100
AcDbSymbolTable
 70
6
  0
LTYPE
  5
14
100
AcDbSymbolTableRecord
100
AcDbLinetypeTableRecord
  2
BYBLOCK
 70
0
  3

 72
65
 73
0
 40
0.0
  0
LTYPE
  5
15
100
AcDbSymbolTableRecord
100
AcDbLinetypeTableRecord
  2
BYLAYER
 70
0
  3

 72
65
 73
0
 40
0.0
  0
LTYPE
  5
16
100
AcDbSymbolTableRecord
100
AcDbLinetypeTableRecord
  2
CONTINUOUS
 70
64
  3
Solid line
 72
65
 73
0
 40
0.0
  0
LTYPE
  5
1F5
100
AcDbSymbolTableRecord
100
AcDbLinetypeTableRecord
  2
CENTER
 70
64
  3
____ _ ____ _ ____ _ ____ _ ____ _ ____ _ ____
 72
65
 73
4
 40
0.6
 49
0.375
 74
0
 49
-0.075
 74
0
 49
0.075
 74
0
 49
-0.075
 74
0
  0
LTYPE
  5
1F6
100
AcDbSymbolTableRecord
100
AcDbLinetypeTableRecord
  2
HIDDEN
 70
64
  3
- - - - - - - - - - - - - - - - - - - -
 72
65
 73
2
 40
0.2
 49
0.1
 74
0
 49
-0.1
 74
0
  0
LTYPE
  5
1F7
100
AcDbSymbolTableRecord
100
AcDbLinetypeTableRecord
  2
PHANTOM
 70
64
  3
_____ _ _ _____ _ _ _____ _ _ _____
 72
65
 73
6
 40
0.8
 49
0.45
 74
0
 49
-0.05
 74
0
 49
0.1
 74
0
 49
-0.05
 74
0
 49
0.1
 74
0
 49
-0.05
 74
0
  0
LTYPE
  5
1F8
100
AcDbSymbolTableRecord
100
AcDbLinetypeTableRecord
  2
DOT
 70
64
  3
. . . . . . . . . . . . . . . . . . . .
 72
65
 73
2
 40
0.2
 49
0.1
 74
0
 49
-0.1
 74
0
  0
LTYPE
  5
1F9
100
AcDbSymbolTableRecord
100
AcDbLinetypeTableRecord
  2
DASHED
 70
64
  3
- - - - - - - - - - - - - - - - - - - -
 72
65
 73
2
 40
0.2
 49
0.1
 74
0
 49
-0.1
 74
0
  0
ENDTAB
  0
TABLE
  2
LAYER
  5
2
100
AcDbSymbolTable
 70
36
  0
LAYER
  5
10
100
AcDbSymbolTableRecord
100
AcDbLayerTableRecord
  2
0
 70
0
 62
7
  6
CONTINUOUS
370
-3
390
F
  0
LAYER
  5
1FA
100
AcDbSymbolTableRecord
100
AcDbLayerTableRecord
  2
DEFAULT_1
 70
0
 62
7
  6
CENTER
370
-3
390
F
  0
LAYER
  5
1FB
100
AcDbSymbolTableRecord
100
AcDbLayerTableRecord
  2
DEFAULT_2
 70
0
 62
7
  6
HIDDEN
370
-3
390
F
  0
LAYER
  5
1FC
100
AcDbSymbolTableRecord
100
AcDbLayerTableRecord
  2
DEFAULT_3
 70
0
 62
7
  6
PHANTOM
370
-3
390
F
  0
LAYER
  5
1FD
100
AcDbSymbolTableRecord
100
AcDbLayerTableRecord
  2
ASSI
 70
0
 62
7
  6
CONTINUOUS
370
-3
390
F
  0
LAYER
  5
1FE
100
AcDbSymbolTableRecord
100
AcDbLayerTableRecord
  2
COLOR9
 70
0
 62
7
  6
CONTINUOUS
370
-3
390
F
  0
LAYER
  5
1FF
100
AcDbSymbolTableRecord
100
AcDbLayerTableRecord
  2
COLORE_TOP
 70
0
 62
7
  6
CONTINUOUS
370
-3
390
F
  0
LAYER
  5
200
100
AcDbSymbolTableRecord
100
AcDbLayerTableRecord
  2
COORDINATE
 70
0
 62
7
  6
CONTINUOUS
370
-3
390
F
  0
LAYER
  5
201
100
AcDbSymbolTableRecord
100
AcDbLayerTableRecord
  2
COORD_ORIGINE
 70
0
 62
7
  6
CONTINUOUS
370
-3
390
F
  0
LAYER
  5
202
100
AcDbSymbolTableRecord
100
AcDbLayerTableRecord
  2
COPY
 70
0
 62
7
  6
CONTINUOUS
370
-3
390
F
  0
LAYER
  5
203
100
AcDbSymbolTableRecord
100
AcDbLayerTableRecord
  2
COPY_GEOMETRY
 70
0
 62
7
  6
CONTINUOUS
370
-3
390
F
  0
LAYER
  5
204
100
AcDbSymbolTableRecord
100
AcDbLayerTableRecord
  2
COPY_PUBLISH
 70
0
 62
7
  6
CONTINUOUS
370
-3
390
F
  0
LAYER
  5
205
100
AcDbSymbolTableRecord
100
AcDbLayerTableRecord
  2
COSMETICHE
 70
0
 62
7
  6
CONTINUOUS
370
-3
390
F
  0
LAYER
  5
206
100
AcDbSymbolTableRecord
100
AcDbLayerTableRecord
  2
COSMETICI
 70
0
 62
7
  6
CONTINUOUS
370
-3
390
F
  0
LAYER
  5
207
100
AcDbSymbolTableRecord
100
AcDbLayerTableRecord
  2
CURVE
 70
0
 62
7
  6
CONTINUOUS
370
-3
390
F
  0
LAYER
  5
208
100
AcDbSymbolTableRecord
100
AcDbLayerTableRecord
  2
DRAFT
 70
0
 62
7
  6
CONTINUOUS
370
-3
390
F
  0
LAYER
  5
209
100
AcDbSymbolTableRecord
100
AcDbLayerTableRecord
  2
GENERICI
 70
0
 62
7
  6
CONTINUOUS
370
-3
390
F
  0
LAYER
  5
20A
100
AcDbSymbolTableRecord
100
AcDbLayerTableRecord
  2
IGES
 70
0
 62
7
  6
CONTINUOUS
370
-3
390
F
  0
LAYER
  5
20B
100
AcDbSymbolTableRecord
100
AcDbLayerTableRecord
  2
IMPIANTO
 70
0
 62
7
  6
CONTINUOUS
370
-3
390
F
  0
LAYER
  5
20C
100
AcDbSymbolTableRecord
100
AcDbLayerTableRecord
  2
IMPORTED
 70
0
 62
7
  6
CONTINUOUS
370
-3
390
F
  0
LAYER
  5
20D
100
AcDbSymbolTableRecord
100
AcDbLayerTableRecord
  2
IMPORT_IGES
 70
0
 62
7
  6
CONTINUOUS
370
-3
390
F
  0
LAYER
  5
20E
100
AcDbSymbolTableRecord
100
AcDbLayerTableRecord
  2
INCISIONI_LASER
 70
0
 62
7
  6
CONTINUOUS
370
-3
390
F
  0
LAYER
  5
20F
100
AcDbSymbolTableRecord
100
AcDbLayerTableRecord
  2
INTFCLR_3
 70
0
 62
7
  6
CONTINUOUS
370
-3
390
F
  0
LAYER
  5
210
100
AcDbSymbolTableRecord
100
AcDbLayerTableRecord
  2
INTF_1
 70
0
 62
7
  6
CONTINUOUS
370
-3
390
F
  0
LAYER
  5
211
100
AcDbSymbolTableRecord
100
AcDbLayerTableRecord
  2
INTF_11
 70
0
 62
7
  6
CONTINUOUS
370
-3
390
F
  0
LAYER
  5
212
100
AcDbSymbolTableRecord
100
AcDbLayerTableRecord
  2
INTF_12
 70
0
 62
7
  6
CONTINUOUS
370
-3
390
F
  0
LAYER
  5
213
100
AcDbSymbolTableRecord
100
AcDbLayerTableRecord
  2
INTF_16
 70
0
 62
7
  6
CONTINUOUS
370
-3
390
F
  0
LAYER
  5
214
100
AcDbSymbolTableRecord
100
AcDbLayerTableRecord
  2
INTF_2
 70
0
 62
7
  6
CONTINUOUS
370
-3
390
F
  0
LAYER
  5
215
100
AcDbSymbolTableRecord
100
AcDbLayerTableRecord
  2
INTF_6
 70
0
 62
7
  6
CONTINUOUS
370
-3
390
F
  0
LAYER
  5
216
100
AcDbSymbolTableRecord
100
AcDbLayerTableRecord
  2
INTF_YELLOW
 70
0
 62
7
  6
CONTINUOUS
370
-3
390
F
  0
LAYER
  5
217
100
AcDbSymbolTableRecord
100
AcDbLayerTableRecord
  2
NOTE
 70
0
 62
7
  6
CONTINUOUS
370
-3
390
F
  0
LAYER
  5
218
100
AcDbSymbolTableRecord
100
AcDbLayerTableRecord
  2
PIANI
 70
0
 62
7
  6
CONTINUOUS
370
-3
390
F
  0
LAYER
  5
219
100
AcDbSymbolTableRecord
100
AcDbLayerTableRecord
  2
PIANI_ORIGINE
 70
0
 62
7
  6
CONTINUOUS
370
-3
390
F
  0
LAYER
  5
21A
100
AcDbSymbolTableRecord
100
AcDbLayerTableRecord
  2
PIANI_RIFERIMENTO
 70
0
 62
7
  6
CONTINUOUS
370
-3
390
F
  0
LAYER
  5
21B
100
AcDbSymbolTableRecord
100
AcDbLayerTableRecord
  2
PIANI_SFORMO
 70
0
 62
7
  6
CONTINUOUS
370
-3
390
F
  0
LAYER
  5
21C
100
AcDbSymbolTableRecord
100
AcDbLayerTableRecord
  2
PUNTI
 70
0
 62
7
  6
CONTINUOUS
370
-3
390
F
  0
LAYER
  5
21D
100
AcDbSymbolTableRecord
100
AcDbLayerTableRecord
  2
RACCORDO
 70
0
 62
7
  6
CONTINUOUS
370
-3
390
F
  0
LAYER
  5
21E
100
AcDbSymbolTableRecord
100
AcDbLayerTableRecord
  2
RGB__255__255__255__
 70
0
 62
7
  6
CONTINUOUS
370
-3
390
F
  0
LAYER
  5
21F
100
AcDbSymbolTableRecord
100
AcDbLayerTableRecord
  2
RINTRACCIABILITA
 70
0
 62
7
  6
CONTINUOUS
370
-3
390
F
  0
LAYER
  5
220
100
AcDbSymbolTableRecord
100
AcDbLayerTableRecord
  2
SIMBOLI
 70
0
 62
7
  6
CONTINUOUS
370
-3
390
F
  0
LAYER
  5
221
100
AcDbSymbolTableRecord
100
AcDbLayerTableRecord
  2
SMUSSO
 70
0
 62
7
  6
CONTINUOUS
370
-3
390
F
  0
LAYER
  5
222
100
AcDbSymbolTableRecord
100
AcDbLayerTableRecord
  2
SUPERFICI
 70
0
 62
7
  6
CONTINUOUS
370
-3
390
F
  0
LAYER
  5
223
100
AcDbSymbolTableRecord
100
AcDbLayerTableRecord
  2
TRASH
 70
0
 62
7
  6
CONTINUOUS
370
-3
390
F
  0
LAYER
  5
224
100
AcDbSymbolTableRecord
100
AcDbLayerTableRecord
  2
XSEC_DATUMS
 70
0
 62
7
  6
CONTINUOUS
370
-3
390
F
  0
ENDTAB
  0
TABLE
  2
STYLE
  5
3
100
AcDbSymbolTable
 70
1
  0
STYLE
  5
11
100
AcDbSymbolTableRecord
100
AcDbTextStyleTableRecord
  2
STANDARD
 70
0
 40
0.0
 41
0.8
 50
0.0
 71
0
 42
0.2
  3
txt
  4

  0
STYLE
  5
225
100
AcDbSymbolTableRecord
100
AcDbTextStyleTableRecord
  2
TEXTSTYLE_1
 70
0
 40
0.0
 41
0.8
 50
0.0
 71
0
 42
0.2
  3
gdt
  4

  0
ENDTAB
  0
TABLE
  2
VIEW
  5
6
100
AcDbSymbolTable
 70
0
  0
ENDTAB
  0
TABLE
  2
UCS
  5
7
100
AcDbSymbolTable
 70
0
  0
ENDTAB
  0
TABLE
  2
APPID
  5
9
100
AcDbSymbolTable
 70
1
  0
APPID
  5
226
100
AcDbSymbolTableRecord
100
AcDbRegAppTableRecord
  2
ACAD
 70
0
  0
ENDTAB
  0
TABLE
  2
BLOCK_RECORD
  5
1
100
AcDbSymbolTable
 70
0
  0
BLOCK_RECORD
  5
227
100
AcDbSymbolTableRecord
100
AcDbBlockTableRecord
  2
*Model_Space
  0
BLOCK_RECORD
  5
228
100
AcDbSymbolTableRecord
100
AcDbBlockTableRecord
  2
*Paper_Space
  0
BLOCK_RECORD
  5
229
100
AcDbSymbolTableRecord
100
AcDbBlockTableRecord
  2
_FILLED
  0
ENDTAB
  0
TABLE
  2
DIMSTYLE
  5
A
100
AcDbSymbolTable
 70
1
100
AcDbDimStyleTable
 71
0
  0
DIMSTYLE
105
22A
100
AcDbSymbolTableRecord
100
AcDbDimStyleTableRecord
  2
STANDARD
 70
0
  3

  4

 40
1.0
 41
3.0
 42
0.5
 43
0.38
 44
1.5
 45
0.0
 46
0.0
 47
0.01
 48
0.01
140
3.0
141
0.09
142
0.0
143
25.4
144
1.0
145
0.0
146
1.0
147
0.625
 71
1.0
 72
0.0
 73
0
 74
0
 75
0
 76
0
 77
1
 78
8
 79
2
170
0
171
1
172
0
173
0
174
0
175
0
176
0
177
0
178
0
270
2
179
2
271
2
272
2
273
2
274
2
275
0
280
0
281
0
282
0
283
1
284
8
285
0
286
0
287
3
288
0
340
11
278
44
341
229
342
229
343
229
344
229
  0
ENDTAB
  0
ENDSEC
  0
SECTION
  2
BLOCKS
  0
BLOCK
  5
20
100
AcDbEntity
  8
0
100
AcDbBlockBegin
  2
*Model_Space
 70
0
 10
0.0
 20
0.0
 30
0.0
  3
*Model_Space
  1

  0
ENDBLK
  5
21
100
AcDbEntity
  8
0
100
AcDbBlockEnd
  0
BLOCK
  5
1C
100
AcDbEntity
  8
0
100
AcDbBlockBegin
  2
*Paper_Space
 70
0
 10
0.0
 20
0.0
 30
0.0
  3
*Paper_Space
  1

  0
ENDBLK
  5
1D
100
AcDbEntity
  8
0
100
AcDbBlockEnd
  0
BLOCK
  5
22B
100
AcDbEntity
  8
0
100
AcDbBlockBegin
  2
_FILLED
 70
64
 10
0.0
 20
0.0
  3
_FILLED
  1

  0
SOLID
  5
22C
100
AcDbEntity
  8
0
  6
BYBLOCK
 62
0
100
AcDbTrace
 10
0.0
 20
0.0
 11
-1.0
 21
0.3166666667
 12
-1.0
 22
-0.3166666667
 13
-1.0
 23
-0.3166666667
  0
ENDBLK
  5
22D
100
AcDbEntity
  8
0
  6
BYBLOCK
 62
0
100
AcDbBlockEnd
  0
ENDSEC
  0
SECTION
  2
ENTITIES
  0
LINE
  5
22E
100
AcDbEntity
  8
0
100
AcDbLine
 62
7
  6
CONTINUOUS
 10
133.5597755825
 20
132.4612767353
 11
134.1299760966
 21
132.7937558613
  0
LINE
  5
22F
100
AcDbEntity
  8
0
100
AcDbLine
 62
250
  6
CONTINUOUS
 10
133.793679545
 20
132.4528299929
 11
134.237686834
 21
132.7117269103
  0
LWPOLYLINE
  5
230
100
AcDbEntity
  8
RACCORDO
100
AcDbPolyline
 62
7
  6
CONTINUOUS
 90
14
 70
0
 10
130.2148346528
 20
130.4097414853
 10
130.150127539
 20
130.3743996334
 10
130.0810812256
 20
130.3288261773
 10
130.0147740501
 20
130.2765696905
 10
129.9515866978
 20
130.2180042311
 10
129.892337233
 20
130.1540202363
 10
129.8370421127
 20
130.0847766086
 10
129.7859175449
 20
130.0105341486
 10
129.7399205494
 20
129.9326856137
 10
129.6991455619
 20
129.8515552837
 10
129.6638100784
 20
129.7674152012
 10
129.6346122457
 20
129.6818786833
 10
129.6117466351
 20
129.5956482075
 10
129.5950272888
 20
129.5072065142
  0
LINE
  5
231
100
AcDbEntity
  8
0
100
AcDbLine
 62
7
  6
CONTINUOUS
 10
133.6705797743
 20
133.8083158435
 11
135.2537514692
 21
134.6205128908
  0
LINE
  5
232
100
AcDbEntity
  8
0
100
AcDbLine
 62
250
  6
CONTINUOUS
 10
133.7836654404
 20
133.8018678684
 11
135.3664220436
 21
134.6138519657
  0
LINE
  5
233
100
AcDbEntity
  8
0
100
AcDbLine
 62
7
  6
CONTINUOUS
 10
135.2537534389
 20
134.6205139013
 11
135.2554898564
 21
134.6213821244
  0
LINE
  5
234
100
AcDbEntity
  8
0
100
AcDbLine
 62
7
  6
CONTINUOUS
 10
135.2554926203
 20
134.6213834708
 11
135.7903598111
 21
134.8819342233
  0
LINE
  5
235
100
AcDbEntity
  8
0
100
AcDbLine
 62
250
  6
CONTINUOUS
 10
135.3664220436
 20
134.6138519657
 11
135.9008719222
 21
134.8741994323
  0
LINE
  5
236
100
AcDbEntity
  8
0
100
AcDbLine
 62
7
  6
CONTINUOUS
 10
137.2402580053
 20
131.8582806369
 11
136.3501978226
 21
131.3615997156
  0
LINE
  5
237
100
AcDbEntity
  8
0
100
AcDbLine
 62
7
  6
CONTINUOUS
 10
139.2201569927
 20
132.2539717893
 11
138.1656675612
 21
131.7129987506
  0
LINE
  5
238
100
AcDbEntity
  8
0
100
AcDbLine
 62
250
  6
CONTINUOUS
 10
135.4622035108
 20
132.9625988331
 11
137.0634843016
 21
133.7653208366
  0
LINE
  5
239
100
AcDbEntity
  8
0
100
AcDbLine
 62
250
  6
CONTINUOUS
 10
135.6389772145
 20
132.6577092943
 11
137.2402580053
 21
133.4604312978
  0
LINE
  5
23A
100
AcDbEntity
  8
0
100
AcDbLine
 62
250
  6
CONTINUOUS
 10
137.0634843016
 20
133.7653208366
 11
137.5917514734
 21
134.0287596567
  0
LINE
  5
23B
100
AcDbEntity
  8
0
100
AcDbLine
 62
250
  6
CONTINUOUS
 10
137.2402580053
 20
133.4604312978
 11
137.7685251771
 21
133.7238701179
  0
LINE
  5
23C
100
AcDbEntity
  8
0
100
AcDbLine
 62
7
  6
CONTINUOUS
 10
138.8250774356
 20
131.3832938134
 11
139.6801806344
 21
131.8094878036
  0
LINE
  5
23D
100
AcDbEntity
  8
RACCORDO
100
AcDbLine
 62
7
  6
CONTINUOUS
 10
130.2147742516
 20
130.4097252287
 11
132.9499276485
 21
131.7607722911
  0
LINE
  5
23E
100
AcDbEntity
  8
RACCORDO
100
AcDbLine
 62
250
  6
CONTINUOUS
 10
130.4454660036
 20
130.3989249945
 11
133.1770190519
 21
131.748193641
  0
LINE
  5
23F
100
AcDbEntity
  8
0
100
AcDbLine
 62
7
  6
CONTINUOUS
 10
140.5602093674
 20
132.2719571525
 11
145.1728522234
 21
134.5451793424
  0
LINE
  5
240
100
AcDbEntity
  8
0
100
AcDbLine
 62
7
  6
CONTINUOUS
 10
144.5563803986
 20
134.8534152547
 11
139.2201569927
 21
132.2539717893
  0
LINE
  5
241
100
AcDbEntity
  8
0
100
AcDbLine
 62
7
  6
CONTINUOUS
 10
145.064589775
 20
135.6729515179
 11
137.9432509596
 21
132.2088525525
  0
LINE
  5
242
100
AcDbEntity
  8
0
100
AcDbLine
 62
250
  6
CONTINUOUS
 10
137.2402580053
 20
132.7333864454
 11
137.7685251771
 21
133.3763386011
  0
LINE
  5
243
100
AcDbEntity
  8
0
100
AcDbLine
 62
7
  6
CONTINUOUS
 10
137.2402580053
 20
132.643855979
 11
137.7838857495
 21
133.3055034345
  0
LINE
  5
244
100
AcDbEntity
  8
0
100
AcDbLine
 62
7
  6
CONTINUOUS
 10
138.8250774356
 20
129.9371310476
 11
139.5383550442
 21
130.3329854927
  0
LINE
  5
245
100
AcDbEntity
  8
0
100
AcDbLine
 62
7
  6
CONTINUOUS
 10
141.6596753877
 20
129.6485719457
 11
141.4444472167
 21
129.5291247245
  0
LINE
  5
246
100
AcDbEntity
  8
0
100
AcDbLine
 62
7
  6
CONTINUOUS
 10
143.1250126112
 20
130.2616441088
 11
142.9133255844
 21
130.1524153424
  0
LINE
  5
247
100
AcDbEntity
  8
0
100
AcDbLine
 62
250
  6
CONTINUOUS
 10
143.2153085114
 20
130.2563960299
 11
143.0042121539
 21
130.1474720439
  0
LINE
  5
248
100
AcDbEntity
  8
0
100
AcDbLine
 62
7
  6
CONTINUOUS
 10
142.3563612933
 20
129.9985412645
 11
141.6596753877
 21
129.6485719457
  0
LINE
  5
249
100
AcDbEntity
  8
0
100
AcDbLine
 62
250
  6
CONTINUOUS
 10
141.5182558265
 20
131.1049223724
 11
142.2051576118
 21
131.4494830303
  0
LINE
  5
24A
100
AcDbEntity
  8
0
100
AcDbLine
 62
250
  6
CONTINUOUS
 10
141.6596753877
 20
130.8610133733
 11
142.3478005889
 21
131.2061877156
  0
LINE
  5
24B
100
AcDbEntity
  8
0
100
AcDbLine
 62
7
  6
CONTINUOUS
 10
145.8903763144
 20
132.5719181887
 11
146.9822592766
 21
133.1178596698
  0
LINE
  5
24C
100
AcDbEntity
  8
0
100
AcDbLine
 62
7
  6
CONTINUOUS
 10
143.1267163991
 20
130.2624961067
 11
143.1250150964
 21
130.2616453912
  0
LINE
  5
24D
100
AcDbEntity
  8
0
100
AcDbLine
 62
250
  6
CONTINUOUS
 10
141.3034426124
 20
130.9978568147
 11
141.5182558265
 21
131.1049223724
  0
LINE
  5
24E
100
AcDbEntity
  8
0
100
AcDbLine
 62
250
  6
CONTINUOUS
 10
141.4444472167
 20
130.7537409959
 11
141.6596753877
 21
130.8610133733
  0
LINE
  5
24F
100
AcDbEntity
  8
0
100
AcDbLine
 62
7
  6
CONTINUOUS
 10
144.8978114913
 20
133.0141894826
 11
145.30927706
 21
133.2169696869
  0
LINE
  5
250
100
AcDbEntity
  8
0
100
AcDbLine
 62
7
  6
CONTINUOUS
 10
148.0238257145
 20
134.1933335481
 11
145.8886901107
 21
133.1410869761
  0
LINE
  5
251
100
AcDbEntity
  8
0
100
AcDbLine
 62
7
  6
CONTINUOUS
 10
143.8259936041
 20
130.6011455115
 11
143.126718167
 21
130.2624969635
  0
LINE
  5
252
100
AcDbEntity
  8
0
100
AcDbLine
 62
250
  6
CONTINUOUS
 10
143.9143048464
 20
130.594909413
 11
143.2153085114
 21
130.2563960299
  0
LINE
  5
253
100
AcDbEntity
  8
RACCORDO
100
AcDbLine
 62
7
  6
CONTINUOUS
 10
145.0358195427
 20
131.986147625
 11
144.8977047406
 21
131.9209105397
  0
LINE
  5
254
100
AcDbEntity
  8
RACCORDO
100
AcDbLine
 62
250
  6
CONTINUOUS
 10
145.1193535492
 20
131.9776485383
 11
144.9830772601
 21
131.9132798555
  0
LINE
  5
255
100
AcDbEntity
  8
DRAFT
100
AcDbLine
 62
7
  6
CONTINUOUS
 10
139.731147448
 20
128.6234711459
 11
139.5655114212
 21
128.5539474564
  0
LINE
  5
256
100
AcDbEntity
  8
RACCORDO
100
AcDbLine
 62
7
  6
CONTINUOUS
 10
129.5950423311
 20
129.5073070009
 11
129.5950272888
 21
129.5072065142
  0
LINE
  5
257
100
AcDbEntity
  8
RACCORDO
100
AcDbLine
 62
7
  6
CONTINUOUS
 10
144.882973542
 20
131.9112341085
 11
142.6532405975
 21
129.9597851205
  0
LINE
  5
258
100
AcDbEntity
  8
RACCORDO
100
AcDbLine
 62
250
  6
CONTINUOUS
 10
144.9824183857
 20
131.9136092927
 11
143.0515868016
 21
130.2237569944
  0
LINE
  5
259
100
AcDbEntity
  8
RACCORDO
100
AcDbLine
 62
250
  6
CONTINUOUS
 10
142.8088354912
 20
130.0113024939
 11
142.7148016194
 21
129.9290046095
  0
LINE
  5
25A
100
AcDbEntity
  8
RACCORDO
100
AcDbLine
 62
250
  6
CONTINUOUS
 10
144.1075460698
 20
130.4982888013
 11
145.0081456074
 21
131.2042718533
  0
LINE
  5
25B
100
AcDbEntity
  8
RACCORDO
100
AcDbLine
 62
250
  6
CONTINUOUS
 10
144.3854357328
 20
130.3593439698
 11
145.1809527374
 21
130.9829524655
  0
LINE
  5
25C
100
AcDbEntity
  8
0
100
AcDbLine
 62
7
  6
CONTINUOUS
 10
144.6274741318
 20
129.3358410549
 11
143.7871665587
 21
128.9022492518
  0
LINE
  5
25D
100
AcDbEntity
  8
0
100
AcDbLine
 62
7
  6
CONTINUOUS
 10
145.5134073452
 20
129.107346613
 11
144.4465764331
 21
128.5725443147
  0
LINE
  5
25E
100
AcDbEntity
  8
0
100
AcDbLine
 62
7
  6
CONTINUOUS
 10
150.7878994144
 20
131.7376557469
 11
145.5134073452
 21
129.107346613
  0
LINE
  5
25F
100
AcDbEntity
  8
0
100
AcDbLine
 62
7
  6
CONTINUOUS
 10
145.5134073452
 20
127.7217059669
 11
150.8207180114
 21
130.368381237
  0
LINE
  5
260
100
AcDbEntity
  8
0
100
AcDbLine
 62
7
  6
CONTINUOUS
 10
150.1714275896
 20
132.0458916592
 11
145.5592530908
 21
129.7724352908
  0
LINE
  5
261
100
AcDbEntity
  8
0
100
AcDbLine
 62
7
  6
CONTINUOUS
 10
150.9515528625
 20
131.4160659842
 11
152.2743153241
 21
132.0680887433
  0
LINE
  5
262
100
AcDbEntity
  8
0
100
AcDbLine
 62
7
  6
CONTINUOUS
 10
147.559150613
 20
128.4695544744
 11
148.0940178038
 21
128.730105227
  0
LINE
  5
263
100
AcDbEntity
  8
0
100
AcDbLine
 62
250
  6
CONTINUOUS
 10
147.6700800362
 20
128.4620229694
 11
148.2045299149
 21
128.7223704359
  0
LINE
  5
264
100
AcDbEntity
  8
RACCORDO
100
AcDbLine
 62
7
  6
CONTINUOUS
 10
158.5017861689
 20
134.6197845545
 11
152.8692897086
 21
132.0185110346
  0
LINE
  5
265
100
AcDbEntity
  8
RACCORDO
100
AcDbLine
 62
250
  6
CONTINUOUS
 10
158.8902436514
 20
134.5875702188
 11
153.0893038312
 21
131.9085039733
  0
LINE
  5
266
100
AcDbEntity
  8
DRAFT
100
AcDbLine
 62
7
  6
CONTINUOUS
 10
143.9293547939
 20
126.5243674729
 11
143.7694096074
 21
126.4519983632
  0
LINE
  5
267
100
AcDbEntity
  8
RACCORDO
100
AcDbLine
 62
7
  6
CONTINUOUS
 10
145.1809527374
 20
130.1180339376
 11
145.0163051504
 21
130.043909261
  0
LINE
  5
268
100
AcDbEntity
  8
RACCORDO
100
AcDbLine
 62
7
  6
CONTINUOUS
 10
128.0314862104
 20
92.1681898572
 11
128.0315056892
 21
92.1679462472
  0
LWPOLYLINE
  5
269
100
AcDbEntity
  8
RACCORDO
100
AcDbPolyline
 62
7
  6
CONTINUOUS
 90
10
 70
0
 10
127.7884576495
 20
102.1415612837
 10
127.7647454006
 20
101.0618099956
 10
127.7522951096
 20
99.9150704722
 10
127.7531450763
 20
98.7751524207
 10
127.7672992702
 20
97.6423326793
 10
127.7947558557
 20
96.5168385831
 10
127.8355121485
 20
95.3988783657
 10
127.8895638373
 20
94.2886772371
 10
127.9568985707
 20
93.1865023198
 10
128.0314862104
 20
92.1681898572
  0
LWPOLYLINE
  5
26A
100
AcDbEntity
  8
RACCORDO
100
AcDbPolyline
 62
7
  6
CONTINUOUS
 90
10
 70
0
 10
128.4914941642
 20
118.9227459455
 10
128.3919073959
 20
117.1041467358
 10
128.2943592595
 20
115.2138269223
 10
128.2030491759
 20
113.3262910111
 10
128.1179791502
 20
111.4415778511
 10
128.0391506405
 20
109.5597197371
 10
127.966564945
 20
107.6807464348
 10
127.9002234121
 20
105.8046901425
 10
127.8401273813
 20
103.9315893579
 10
127.7884576309
 20
102.1415611251
  0
LWPOLYLINE
  5
26B
100
AcDbEntity
  8
RACCORDO
100
AcDbPolyline
 62
7
  6
CONTINUOUS
 90
10
 70
0
 10
129.5950295085
 20
129.5073089286
 10
129.4297863608
 20
128.3736307333
 10
129.265942582
 20
127.1664982622
 10
129.1151759076
 20
125.9633092215
 10
128.9775263175
 20
124.764354958
 10
128.853021978
 20
123.5698768239
 10
128.7416877809
 20
122.3800971067
 10
128.6435492459
 20
121.1952555557
 10
128.5586300079
 20
120.0156372451
 10
128.491494182
 20
118.922745836
  0
LINE
  5
26C
100
AcDbEntity
  8
RACCORDO
100
AcDbLine
 62
250
  6
CONTINUOUS
 10
146.472688922
 20
130.472000196
 11
145.8969086228
 21
129.9388741624
  0
LINE
  5
26D
100
AcDbEntity
  8
RACCORDO
100
AcDbLine
 62
7
  6
CONTINUOUS
 10
146.375888551
 20
130.4718399562
 11
145.6902791466
 21
129.8370213165
  0
LINE
  5
26E
100
AcDbEntity
  8
0
100
AcDbLine
 62
7
  6
CONTINUOUS
 10
145.5134073452
 20
127.7217059669
 11
144.4465764331
 21
127.1263815489
  0
LINE
  5
26F
100
AcDbEntity
  8
0
100
AcDbLine
 62
7
  6
CONTINUOUS
 10
156.5147452362
 20
130.1171733685
 11
157.165518891
 21
130.4603391846
  0
LINE
  5
270
100
AcDbEntity
  8
RACCORDO
100
AcDbLine
 62
250
  6
CONTINUOUS
 10
157.165391109
 20
130.4602717977
 11
157.165518891
 21
130.4603391846
  0
LINE
  5
271
100
AcDbEntity
  8
ASSI
100
AcDbLine
 62
7
  6
CONTINUOUS
 10
149.6551166519
 20
126.6273689157
 11
156.0441724052
 21
129.9761224406
  0
LINE
  5
272
100
AcDbEntity
  8
0
100
AcDbLine
 62
7
  6
CONTINUOUS
 10
145.9742377669
 20
127.6564868472
 11
147.5574094619
 21
128.4686838945
  0
LINE
  5
273
100
AcDbEntity
  8
0
100
AcDbLine
 62
250
  6
CONTINUOUS
 10
146.0873234331
 20
127.650038872
 11
147.6700800362
 21
128.4620229694
  0
LINE
  5
274
100
AcDbEntity
  8
0
100
AcDbLine
 62
7
  6
CONTINUOUS
 10
160.8577320748
 20
133.4304752415
 11
156.8455760963
 21
131.3890754488
  0
LINE
  5
275
100
AcDbEntity
  8
0
100
AcDbLine
 62
250
  6
CONTINUOUS
 10
147.7658615035
 20
126.8107698368
 11
149.3671422943
 21
127.6134918403
  0
LINE
  5
276
100
AcDbEntity
  8
0
100
AcDbLine
 62
250
  6
CONTINUOUS
 10
147.9426352071
 20
126.505880298
 11
149.543915998
 21
127.3086023015
  0
LINE
  5
277
100
AcDbEntity
  8
0
100
AcDbLine
 62
7
  6
CONTINUOUS
 10
147.5574114316
 20
128.468684905
 11
147.559147849
 21
128.469553128
  0
LINE
  5
278
100
AcDbEntity
  8
0
100
AcDbLine
 62
7
  6
CONTINUOUS
 10
157.2938063198
 20
130.2372474532
 11
157.7887810666
 21
130.4847348266
  0
LINE
  5
279
100
AcDbEntity
  8
0
100
AcDbLine
 62
7
  6
CONTINUOUS
 10
155.2335512636
 20
130.5884707736
 11
149.9116953329
 21
127.9307650978
  0
LINE
  5
27A
100
AcDbEntity
  8
0
100
AcDbLine
 62
250
  6
CONTINUOUS
 10
149.3671422943
 20
127.6134918403
 11
149.895409466
 21
127.8769306604
  0
LINE
  5
27B
100
AcDbEntity
  8
0
100
AcDbLine
 62
250
  6
CONTINUOUS
 10
149.543915998
 20
127.3086023015
 11
150.0721831697
 21
127.5720411215
  0
LINE
  5
27C
100
AcDbEntity
  8
DRAFT
100
AcDbLine
 62
7
  6
CONTINUOUS
 10
160.8577320748
 20
133.0226239742
 11
156.8455760963
 21
131.0677511666
  0
LINE
  5
27D
100
AcDbEntity
  8
RACCORDO
100
AcDbLine
 62
7
  6
CONTINUOUS
 10
159.8614024851
 20
134.1019908019
 11
156.4309985847
 21
132.464653989
  0
LINE
  5
27E
100
AcDbEntity
  8
DRAFT
100
AcDbLine
 62
7
  6
CONTINUOUS
 10
156.1476009573
 20
129.3963858627
 11
155.6552157035
 21
129.1689860354
  0
LWPOLYLINE
  5
27F
100
AcDbEntity
  8
RACCORDO
100
AcDbPolyline
 62
7
  6
CONTINUOUS
 90
11
 70
0
 10
143.1221893759
 20
84.1871586081
 10
143.1558239683
 20
84.1713930529
 10
143.2147081117
 20
84.1487738648
 10
143.275749616
 20
84.1314304053
 10
143.3385999007
 20
84.1195390266
 10
143.403181797
 20
84.113231633
 10
143.4690771864
 20
84.1126852152
 10
143.5357847141
 20
84.1180290008
 10
143.6032146362
 20
84.1294196805
 10
143.6710983091
 20
84.1470226698
 10
143.7251999307
 20
84.1655406439
  0
LINE
  5
280
100
AcDbEntity
  8
RACCORDO
100
AcDbLine
 62
7
  6
CONTINUOUS
 10
128.4318031483
 20
91.5323413624
 11
128.4309339909
 21
91.5327744993
  0
LINE
  5
281
100
AcDbEntity
  8
ASSI
100
AcDbLine
 62
7
  6
CONTINUOUS
 10
128.4309000879
 20
91.5327914508
 11
143.123092254
 21
84.1866953677
  0
LINE
  5
282
100
AcDbEntity
  8
RACCORDO
100
AcDbLine
 62
250
  6
CONTINUOUS
 10
128.1780206388
 20
91.989944955
 11
142.8627755297
 21
84.6475675096
  0
LINE
  5
283
100
AcDbEntity
  8
RACCORDO
100
AcDbLine
 62
7
  6
CONTINUOUS
 10
143.1222760592
 20
84.1871045733
 11
143.123056305
 21
84.1867133422
  0
LWPOLYLINE
  5
284
100
AcDbEntity
  8
RACCORDO
100
AcDbPolyline
 62
7
  6
CONTINUOUS
 90
11
 70
0
 10
128.0315166632
 20
92.1679471302
 10
128.0398248011
 20
92.097004718
 10
128.057759882
 20
92.0100857193
 10
128.0833623318
 20
91.928656252
 10
128.1158685987
 20
91.8533959734
 10
128.1547607593
 20
91.7842270619
 10
128.1999570025
 20
91.7207342829
 10
128.2507650722
 20
91.6635407615
 10
128.3065554926
 20
91.61299907
 10
128.367572419
 20
91.5688384939
 10
128.4317204174
 20
91.5323939609
  0
LINE
  5
285
100
AcDbEntity
  8
0
100
AcDbLine
 62
7
  6
CONTINUOUS
 10
149.543915998
 20
125.7064516405
 11
148.6538558152
 21
125.2097707193
  0
LINE
  5
286
100
AcDbEntity
  8
0
100
AcDbLine
 62
250
  6
CONTINUOUS
 10
149.8977385132
 20
125.5295403829
 11
148.8185644493
 21
124.9403875408
  0
LINE
  5
287
100
AcDbEntity
  8
0
100
AcDbLine
 62
250
  6
CONTINUOUS
 10
150.2510227792
 20
124.9196873563
 11
149.1718487152
 21
124.3305345142
  0
LINE
  5
288
100
AcDbEntity
  8
ASSI
100
AcDbLine
 62
7
  6
CONTINUOUS
 10
150.0010532715
 20
126.1799513966
 11
156.0441724052
 21
129.3746053589
  0
LINE
  5
289
100
AcDbEntity
  8
0
100
AcDbLine
 62
250
  6
CONTINUOUS
 10
150.5984098297
 20
125.8812731174
 11
149.8974738759
 21
125.5296727016
  0
LINE
  5
28A
100
AcDbEntity
  8
0
100
AcDbLine
 62
250
  6
CONTINUOUS
 10
150.951958733
 20
125.2715006197
 11
150.2510227792
 21
124.9199002038
  0
LINE
  5
28B
100
AcDbEntity
  8
RACCORDO
100
AcDbLine
 62
7
  6
CONTINUOUS
 10
160.2569589791
 20
130.6652346789
 11
158.9454946681
 21
130.0095025234
  0
LINE
  5
28C
100
AcDbEntity
  8
RACCORDO
100
AcDbLine
 62
7
  6
CONTINUOUS
 10
161.1054896869
 20
130.2409718953
 11
160.2265970357
 21
129.8015255698
  0
LINE
  5
28D
100
AcDbEntity
  8
RACCORDO
100
AcDbLine
 62
250
  6
CONTINUOUS
 10
165.7882807112
 20
130.6247182929
 11
151.2510227792
 21
123.3969186737
  0
LINE
  5
28E
100
AcDbEntity
  8
DRAFT
100
AcDbLine
 62
7
  6
CONTINUOUS
 10
157.0234785161
 20
128.9584470833
 11
150.6397830333
 21
125.8575728277
  0
LINE
  5
28F
100
AcDbEntity
  8
RACCORDO
100
AcDbLine
 62
7
  6
CONTINUOUS
 10
165.3687375003
 20
131.3483232944
 11
157.7761726001
 21
127.6602418223
  0
LINE
  5
290
100
AcDbEntity
  8
RACCORDO
100
AcDbLine
 62
7
  6
CONTINUOUS
 10
164.5630655642
 20
131.7511592624
 11
161.1419194944
 21
130.1091935341
  0
LINE
  5
291
100
AcDbEntity
  8
RACCORDO
100
AcDbLine
 62
250
  6
CONTINUOUS
 10
148.0265037647
 20
124.3234512846
 11
145.1480474512
 21
123.0476342707
  0
LINE
  5
292
100
AcDbEntity
  8
RACCORDO
100
AcDbLine
 62
250
  6
CONTINUOUS
 10
148.3614387873
 20
123.7052154655
 11
145.4829824738
 21
122.4293984516
  0
LINE
  5
293
100
AcDbEntity
  8
0
100
AcDbLine
 62
250
  6
CONTINUOUS
 10
150.0721831697
 20
85.9249054654
 11
149.543915998
 21
86.0334077425
  0
LINE
  5
294
100
AcDbEntity
  8
0
100
AcDbLine
 62
250
  6
CONTINUOUS
 10
149.9827693744
 20
86.2444722714
 11
149.543915998
 21
86.3346095981
  0
LINE
  5
295
100
AcDbEntity
  8
0
100
AcDbLine
 62
7
  6
CONTINUOUS
 10
146.2136360381
 20
85.112347817
 11
147.6550865439
 21
84.3916225641
  0
LINE
  5
296
100
AcDbEntity
  8
0
100
AcDbLine
 62
250
  6
CONTINUOUS
 10
146.3303116676
 20
85.1567418042
 11
147.5901132475
 21
84.5268410142
  0
LINE
  5
297
100
AcDbEntity
  8
0
100
AcDbLine
 62
250
  6
CONTINUOUS
 10
147.5901132475
 20
84.8668149483
 11
146.6847033151
 21
85.3195199146
  0
LINE
  5
298
100
AcDbEntity
  8
0
100
AcDbLine
 62
250
  6
CONTINUOUS
 10
147.6785015951
 20
85.0985091222
 11
146.7674655424
 21
85.5540271486
  0
LINE
  5
299
100
AcDbEntity
  8
0
100
AcDbLine
 62
7
  6
CONTINUOUS
 10
148.3013338556
 20
85.8433114255
 11
146.8065476847
 21
86.5907045109
  0
LINE
  5
29A
100
AcDbEntity
  8
0
100
AcDbLine
 62
7
  6
CONTINUOUS
 10
148.8185644493
 20
86.2786088559
 11
148.3013338556
 21
86.5372241527
  0
LINE
  5
29B
100
AcDbEntity
  8
0
100
AcDbLine
 62
7
  6
CONTINUOUS
 10
133.4403952791
 20
132.1962612323
 11
133.4403952791
 21
131.6165055274
  0
LINE
  5
29C
100
AcDbEntity
  8
0
100
AcDbLine
 62
7
  6
CONTINUOUS
 10
133.5346938797
 20
133.585879401
 11
133.5346938797
 21
133.2459054669
  0
LINE
  5
29D
100
AcDbEntity
  8
0
100
AcDbLine
 62
250
  6
CONTINUOUS
 10
133.6079171844
 20
133.4974910534
 11
133.6079171844
 21
133.1575171193
  0
LINE
  5
29E
100
AcDbEntity
  8
0
100
AcDbLine
 62
7
  6
CONTINUOUS
 10
134.237686834
 20
132.7399004926
 11
134.237686834
 21
132.2859467506
  0
LINE
  5
29F
100
AcDbEntity
  8
0
100
AcDbLine
 62
250
  6
CONTINUOUS
 10
134.3109101387
 20
132.7032888402
 11
134.3109101387
 21
132.1942146961
  0
LINE
  5
2A0
100
AcDbEntity
  8
0
100
AcDbLine
 62
250
  6
CONTINUOUS
 10
135.2864552548
 20
132.3182480841
 11
135.2864552548
 21
132.6582220182
  0
LINE
  5
2A1
100
AcDbEntity
  8
0
100
AcDbLine
 62
250
  6
CONTINUOUS
 10
135.6389772145
 20
132.3177353602
 11
135.6389772145
 21
132.6577092943
  0
LINE
  5
2A2
100
AcDbEntity
  8
0
100
AcDbLine
 62
250
  6
CONTINUOUS
 10
149.543915998
 20
126.581557449
 11
150.0721831697
 21
127.2245096048
  0
LINE
  5
2A3
100
AcDbEntity
  8
0
100
AcDbLine
 62
7
  6
CONTINUOUS
 10
149.543915998
 20
126.4920269827
 11
150.0875437421
 21
127.1536744382
  0
LINE
  5
2A4
100
AcDbEntity
  8
RACCORDO
100
AcDbLine
 62
250
  6
CONTINUOUS
 10
166.1272441951
 20
129.4529907865
 11
151.6652363415
 21
121.9650670212
  0
LINE
  5
2A5
100
AcDbEntity
  8
0
100
AcDbLine
 62
7
  6
CONTINUOUS
 10
150.951958733
 20
122.3395956687
 11
151.6528946867
 21
122.6931039756
  0
LINE
  5
2A6
100
AcDbEntity
  8
0
100
AcDbLine
 62
250
  6
CONTINUOUS
 10
149.543915998
 20
86.4638989596
 11
149.9827693744
 21
86.2444722714
  0
LINE
  5
2A7
100
AcDbEntity
  8
0
100
AcDbLine
 62
7
  6
CONTINUOUS
 10
149.543915998
 20
86.4675191092
 11
150.0061844256
 21
86.2363848953
  0
LINE
  5
2A8
100
AcDbEntity
  8
SUPERFICI
100
AcDbLine
 62
7
  6
CONTINUOUS
 10
132.6792388062
 20
96.526063128
 11
133.5631223028
 21
96.0841213797
  0
LINE
  5
2A9
100
AcDbEntity
  8
DRAFT
100
AcDbLine
 62
7
  6
CONTINUOUS
 10
132.6792388062
 20
96.526063128
 11
133.5631223028
 21
96.0841213797
  0
LINE
  5
2AA
100
AcDbEntity
  8
SUPERFICI
100
AcDbLine
 62
7
  6
CONTINUOUS
 10
134.694493233
 20
95.5184359146
 11
135.7551534305
 21
94.9881058158
  0
LINE
  5
2AB
100
AcDbEntity
  8
DRAFT
100
AcDbLine
 62
7
  6
CONTINUOUS
 10
134.694493233
 20
95.5184359146
 11
135.7551534305
 21
94.9881058158
  0
LINE
  5
2AC
100
AcDbEntity
  8
SUPERFICI
100
AcDbLine
 62
7
  6
CONTINUOUS
 10
136.8865241812
 20
94.4224204405
 11
137.7704076777
 21
93.9804786923
  0
LINE
  5
2AD
100
AcDbEntity
  8
DRAFT
100
AcDbLine
 62
7
  6
CONTINUOUS
 10
136.8865241812
 20
94.4224204405
 11
137.7704076777
 21
93.9804786923
  0
LINE
  5
2AE
100
AcDbEntity
  8
SUPERFICI
100
AcDbLine
 62
7
  6
CONTINUOUS
 10
132.6792400835
 20
97.3932775883
 11
133.5631235965
 21
96.9513358318
  0
LINE
  5
2AF
100
AcDbEntity
  8
DRAFT
100
AcDbLine
 62
7
  6
CONTINUOUS
 10
132.6792400835
 20
97.3932775883
 11
133.5631235965
 21
96.9513358318
  0
LINE
  5
2B0
100
AcDbEntity
  8
SUPERFICI
100
AcDbLine
 62
7
  6
CONTINUOUS
 10
134.6944945103
 20
96.385650375
 11
135.7551547242
 21
95.855320268
  0
LINE
  5
2B1
100
AcDbEntity
  8
DRAFT
100
AcDbLine
 62
7
  6
CONTINUOUS
 10
134.6944945103
 20
96.385650375
 11
135.7551547242
 21
95.855320268
  0
LINE
  5
2B2
100
AcDbEntity
  8
SUPERFICI
100
AcDbLine
 62
7
  6
CONTINUOUS
 10
136.8865254584
 20
95.2896349009
 11
137.7704089714
 21
94.8476931444
  0
LINE
  5
2B3
100
AcDbEntity
  8
DRAFT
100
AcDbLine
 62
7
  6
CONTINUOUS
 10
136.8865254584
 20
95.2896349009
 11
137.7704089714
 21
94.8476931444
  0
LINE
  5
2B4
100
AcDbEntity
  8
0
100
AcDbLine
 62
250
  6
CONTINUOUS
 10
135.9976758629
 20
131.350831834
 11
135.9976758629
 21
132.0315599008
  0
LINE
  5
2B5
100
AcDbEntity
  8
0
100
AcDbLine
 62
250
  6
CONTINUOUS
 10
136.3501978226
 20
131.3615997156
 11
136.3501978226
 21
132.1692318373
  0
LINE
  5
2B6
100
AcDbEntity
  8
0
100
AcDbLine
 62
7
  6
CONTINUOUS
 10
137.2402580053
 20
131.8582806369
 11
137.2402580053
 21
133.4604312978
  0
LINE
  5
2B7
100
AcDbEntity
  8
0
100
AcDbLine
 62
250
  6
CONTINUOUS
 10
137.7685251771
 20
133.7238701179
 11
137.7685251771
 21
133.3763386011
  0
LINE
  5
2B8
100
AcDbEntity
  8
0
100
AcDbLine
 62
7
  6
CONTINUOUS
 10
137.8407230341
 20
133.81174275
 11
137.8407230341
 21
133.4642112333
  0
LINE
  5
2B9
100
AcDbEntity
  8
DRAFT
100
AcDbLine
 62
7
  6
CONTINUOUS
 10
138.1241414818
 20
129.274632426
 11
138.1241414818
 21
129.4446607382
  0
LINE
  5
2BA
100
AcDbEntity
  8
0
100
AcDbLine
 62
7
  6
CONTINUOUS
 10
138.1656675612
 20
131.7129987506
 11
138.1656675612
 21
130.2668359848
  0
LINE
  5
2BB
100
AcDbEntity
  8
0
100
AcDbLine
 62
7
  6
CONTINUOUS
 10
138.8250774356
 20
129.9371310476
 11
138.8250774356
 21
131.3832938134
  0
LINE
  5
2BC
100
AcDbEntity
  8
DRAFT
100
AcDbLine
 62
7
  6
CONTINUOUS
 10
147.4225956544
 20
91.9314608929
 11
149.1718487152
 21
91.0568343625
  0
LINE
  5
2BD
100
AcDbEntity
  8
RACCORDO
100
AcDbLine
 62
250
  6
CONTINUOUS
 10
127.9349148896
 20
101.9656861117
 11
142.5835753748
 21
94.6413558691
  0
LINE
  5
2BE
100
AcDbEntity
  8
RACCORDO
100
AcDbLine
 62
7
  6
CONTINUOUS
 10
139.1313706082
 20
128.7710178629
 11
139.1313706082
 21
128.941046175
  0
LINE
  5
2BF
100
AcDbEntity
  8
0
100
AcDbLine
 62
7
  6
CONTINUOUS
 10
139.5383550442
 20
131.5665998444
 11
139.5383550442
 21
130.3329854927
  0
LINE
  5
2C0
100
AcDbEntity
  8
0
100
AcDbLine
 62
250
  6
CONTINUOUS
 10
141.1628440076
 20
129.520741011
 11
141.1628440076
 21
130.7543553627
  0
LINE
  5
2C1
100
AcDbEntity
  8
0
100
AcDbLine
 62
250
  6
CONTINUOUS
 10
141.4444472167
 20
129.5291247245
 11
141.4444472167
 21
130.7537409959
  0
LINE
  5
2C2
100
AcDbEntity
  8
0
100
AcDbLine
 62
7
  6
CONTINUOUS
 10
141.6596753877
 20
130.8610133733
 11
141.6596753877
 21
129.6485719457
  0
LWPOLYLINE
  5
2C3
100
AcDbEntity
  8
RACCORDO
100
AcDbPolyline
 62
7
  6
CONTINUOUS
 90
9
 70
0
 10
146.4397499669
 20
130.5687216896
 10
146.4381669728
 20
130.560904612
 10
146.4347446125
 20
130.5506330048
 10
146.4289808738
 20
130.5380766557
 10
146.4206621183
 20
130.5238352362
 10
146.4099835041
 20
130.5087759826
 10
146.3971689498
 20
130.4934066095
 10
146.382325666
 20
130.4779561064
 10
146.3758887291
 20
130.4718397631
  0
LINE
  5
2C4
100
AcDbEntity
  8
DRAFT
100
AcDbLine
 62
7
  6
CONTINUOUS
 10
166.3798383748
 20
123.4840293462
 11
167.4505614688
 21
124.1765640034
  0
LINE
  5
2C5
100
AcDbEntity
  8
0
100
AcDbLine
 62
7
  6
CONTINUOUS
 10
142.3563612933
 20
129.9985412645
 11
142.3478005889
 21
131.2061877156
  0
LINE
  5
2C6
100
AcDbEntity
  8
0
100
AcDbLine
 62
250
  6
CONTINUOUS
 10
144.90557395
 20
131.9209103512
 11
144.8978114913
 21
133.0141894826
  0
LINE
  5
2C7
100
AcDbEntity
  8
0
100
AcDbLine
 62
7
  6
CONTINUOUS
 10
142.8050349053
 20
129.9746812701
 11
142.8050349053
 21
128.7437277914
  0
LINE
  5
2C8
100
AcDbEntity
  8
0
100
AcDbLine
 62
250
  6
CONTINUOUS
 10
142.8636135491
 20
129.9039705919
 11
142.8636135491
 21
128.6703562403
  0
LINE
  5
2C9
100
AcDbEntity
  8
0
100
AcDbLine
 62
7
  6
CONTINUOUS
 10
143.7871665587
 20
128.9022492518
 11
143.7871665587
 21
127.4560864861
  0
LINE
  5
2CA
100
AcDbEntity
  8
0
100
AcDbLine
 62
7
  6
CONTINUOUS
 10
144.4465764331
 20
127.1263815489
 11
144.4465764331
 21
128.5725443147
  0
LINE
  5
2CB
100
AcDbEntity
  8
DRAFT
100
AcDbLine
 62
7
  6
CONTINUOUS
 10
144.4881025125
 20
126.2626802229
 11
144.4881025125
 21
126.0926519107
  0
LINE
  5
2CC
100
AcDbEntity
  8
RACCORDO
100
AcDbLine
 62
250
  6
CONTINUOUS
 10
145.1809527374
 20
130.9829524655
 11
145.1809527374
 21
130.1180339376
  0
LINE
  5
2CD
100
AcDbEntity
  8
RACCORDO
100
AcDbLine
 62
7
  6
CONTINUOUS
 10
143.9231034736
 20
126.3751514301
 11
143.9293547939
 21
126.5243674729
  0
LINE
  5
2CE
100
AcDbEntity
  8
RACCORDO
100
AcDbLine
 62
7
  6
CONTINUOUS
 10
146.4400925529
 20
130.5735920423
 11
146.4397499669
 21
130.5687216896
  0
LINE
  5
2CF
100
AcDbEntity
  8
DRAFT
100
AcDbLine
 62
7
  6
CONTINUOUS
 10
147.1615808265
 20
95.0651767145
 11
147.4225956544
 21
91.9314608929
  0
LINE
  5
2D0
100
AcDbEntity
  8
RACCORDO
100
AcDbLine
 62
7
  6
CONTINUOUS
 10
147.436375242
 20
101.6243886928
 11
147.452818459
 21
101.4269732057
  0
LINE
  5
2D1
100
AcDbEntity
  8
0
100
AcDbLine
 62
7
  6
CONTINUOUS
 10
148.0207297137
 20
104.8770447162
 11
149.1718487152
 21
91.0568343625
  0
LINE
  5
2D2
100
AcDbEntity
  8
RACCORDO
100
AcDbLine
 62
7
  6
CONTINUOUS
 10
146.4400974816
 20
130.5736491695
 11
146.4400975171
 21
130.5735501932
  0
LINE
  5
2D3
100
AcDbEntity
  8
0
100
AcDbLine
 62
7
  6
CONTINUOUS
 10
145.3611062495
 20
133.3212448584
 11
145.3611062495
 21
134.5690114495
  0
LINE
  5
2D4
100
AcDbEntity
  8
0
100
AcDbLine
 62
7
  6
CONTINUOUS
 10
145.5134073452
 20
127.7217059669
 11
145.5134073452
 21
129.107346613
  0
LINE
  5
2D5
100
AcDbEntity
  8
RACCORDO
100
AcDbLine
 62
250
  6
CONTINUOUS
 10
145.5938239537
 20
131.0952128908
 11
145.5938239537
 21
130.1126282309
  0
LINE
  5
2D6
100
AcDbEntity
  8
0
100
AcDbLine
 62
7
  6
CONTINUOUS
 10
145.8383518724
 20
127.4340504047
 11
145.8383518724
 21
127.0940764706
  0
LINE
  5
2D7
100
AcDbEntity
  8
0
100
AcDbLine
 62
250
  6
CONTINUOUS
 10
145.9115751771
 20
127.3456620571
 11
145.9115751771
 21
127.0056881229
  0
LINE
  5
2D8
100
AcDbEntity
  8
RACCORDO
100
AcDbLine
 62
250
  6
CONTINUOUS
 10
146.3522295523
 20
130.7160100914
 11
146.3522295523
 21
130.4499339061
  0
LINE
  5
2D9
100
AcDbEntity
  8
0
100
AcDbLine
 62
7
  6
CONTINUOUS
 10
146.5413448267
 20
126.5880714963
 11
146.5413448267
 21
126.1341177543
  0
LINE
  5
2DA
100
AcDbEntity
  8
0
100
AcDbLine
 62
250
  6
CONTINUOUS
 10
146.6145681314
 20
126.5514598439
 11
146.6145681314
 21
126.0423856997
  0
LINE
  5
2DB
100
AcDbEntity
  8
RACCORDO
100
AcDbLine
 62
7
  6
CONTINUOUS
 10
147.4225956544
 20
91.9314608929
 11
147.4225956544
 21
91.5849584015
  0
LINE
  5
2DC
100
AcDbEntity
  8
0
100
AcDbLine
 62
250
  6
CONTINUOUS
 10
147.5901132475
 20
84.5268410142
 11
147.5901132475
 21
84.8668149483
  0
LINE
  5
2DD
100
AcDbEntity
  8
0
100
AcDbLine
 62
250
  6
CONTINUOUS
 10
147.5901132475
 20
126.1664190877
 11
147.5901132475
 21
126.5063930219
  0
LINE
  5
2DE
100
AcDbEntity
  8
0
100
AcDbLine
 62
250
  6
CONTINUOUS
 10
147.9426352071
 20
84.5263282904
 11
147.9426352071
 21
84.8663022245
  0
LINE
  5
2DF
100
AcDbEntity
  8
0
100
AcDbLine
 62
250
  6
CONTINUOUS
 10
147.9426352071
 20
126.1659063639
 11
147.9426352071
 21
126.505880298
  0
LINE
  5
2E0
100
AcDbEntity
  8
0
100
AcDbLine
 62
250
  6
CONTINUOUS
 10
148.3013338556
 20
85.8433114255
 11
148.3013338556
 21
86.5372241527
  0
LINE
  5
2E1
100
AcDbEntity
  8
0
100
AcDbLine
 62
250
  6
CONTINUOUS
 10
148.3013338556
 20
125.1990028376
 11
148.3013338556
 21
125.8797312253
  0
LINE
  5
2E2
100
AcDbEntity
  8
0
100
AcDbLine
 62
250
  6
CONTINUOUS
 10
146.3331566732
 20
131.8904742046
 11
146.3370705501
 21
132.441711916
  0
LINE
  5
2E3
100
AcDbEntity
  8
RACCORDO
100
AcDbLine
 62
7
  6
CONTINUOUS
 10
146.7627189729
 20
85.5445340096
 11
148.3614387873
 21
123.7052154655
  0
LINE
  5
2E4
100
AcDbEntity
  8
0
100
AcDbLine
 62
7
  6
CONTINUOUS
 10
149.1718487152
 20
119.8088777682
 11
148.0207297137
 21
104.8770447162
  0
LINE
  5
2E5
100
AcDbEntity
  8
0
100
AcDbLine
 62
7
  6
CONTINUOUS
 10
148.7329894613
 20
133.6757339507
 11
148.7362969443
 21
133.2099018956
  0
LINE
  5
2E6
100
AcDbEntity
  8
0
100
AcDbLine
 62
250
  6
CONTINUOUS
 10
148.6538558152
 20
85.7177987016
 11
148.6538558152
 21
86.3609631729
  0
LINE
  5
2E7
100
AcDbEntity
  8
0
100
AcDbLine
 62
250
  6
CONTINUOUS
 10
148.6538558152
 20
125.2097707193
 11
148.6538558152
 21
126.017402841
  0
LINE
  5
2E8
100
AcDbEntity
  8
0
100
AcDbLine
 62
7
  6
CONTINUOUS
 10
149.1718487152
 20
124.3305345142
 11
149.1718487152
 21
119.8088777682
  0
LINE
  5
2E9
100
AcDbEntity
  8
0
100
AcDbLine
 62
7
  6
CONTINUOUS
 10
149.1718487152
 20
91.0568343625
 11
149.1718487152
 21
86.5351776165
  0
LINE
  5
2EA
100
AcDbEntity
  8
0
100
AcDbLine
 62
7
  6
CONTINUOUS
 10
149.543915998
 20
85.30636289
 11
149.543915998
 21
86.4747226848
  0
LINE
  5
2EB
100
AcDbEntity
  8
0
100
AcDbLine
 62
7
  6
CONTINUOUS
 10
149.543915998
 20
125.7064516405
 11
149.543915998
 21
127.3086023015
  0
LINE
  5
2EC
100
AcDbEntity
  8
0
100
AcDbLine
 62
250
  6
CONTINUOUS
 10
150.0721831697
 20
127.5720411215
 11
150.0721831697
 21
127.2245096048
  0
LINE
  5
2ED
100
AcDbEntity
  8
0
100
AcDbLine
 62
250
  6
CONTINUOUS
 10
150.0721831697
 20
85.9249054654
 11
150.0721831697
 21
85.5773739487
  0
LINE
  5
2EE
100
AcDbEntity
  8
0
100
AcDbLine
 62
7
  6
CONTINUOUS
 10
150.1443810267
 20
127.6599137537
 11
150.1443810267
 21
127.312382237
  0
LINE
  5
2EF
100
AcDbEntity
  8
0
100
AcDbLine
 62
7
  6
CONTINUOUS
 10
150.1443810267
 20
86.0127780976
 11
150.1443810267
 21
85.6652465809
  0
LINE
  5
2F0
100
AcDbEntity
  8
0
100
AcDbLine
 62
7
  6
CONTINUOUS
 10
150.2510227792
 20
124.9199002038
 11
150.2510227792
 21
86.9879582065
  0
LINE
  5
2F1
100
AcDbEntity
  8
0
100
AcDbLine
 62
250
  6
CONTINUOUS
 10
150.8207180114
 20
130.368381237
 11
150.8207180114
 21
130.8427826123
  0
LINE
  5
2F2
100
AcDbEntity
  8
0
100
AcDbLine
 62
250
  6
CONTINUOUS
 10
150.8207180114
 20
131.1989584788
 11
150.8207180114
 21
131.7521292019
  0
LINE
  5
2F3
100
AcDbEntity
  8
ASSI
100
AcDbLine
 62
7
  6
CONTINUOUS
 10
150.8818651376
 20
90.8871942134
 11
150.8818651376
 21
91.6981350738
  0
LINE
  5
2F4
100
AcDbEntity
  8
ASSI
100
AcDbLine
 62
7
  6
CONTINUOUS
 10
150.8818651376
 20
120.8516731843
 11
150.8818651376
 21
121.6626140447
  0
LINE
  5
2F5
100
AcDbEntity
  8
0
100
AcDbLine
 62
7
  6
CONTINUOUS
 10
150.8821736789
 20
121.662459774
 11
150.8821736789
 21
120.8515189136
  0
LINE
  5
2F6
100
AcDbEntity
  8
0
100
AcDbLine
 62
7
  6
CONTINUOUS
 10
150.8821736789
 20
90.8870399427
 11
150.8821736789
 21
91.6979808031
  0
LINE
  5
2F7
100
AcDbEntity
  8
0
100
AcDbLine
 62
7
  6
CONTINUOUS
 10
150.9515528625
 20
130.5260234296
 11
150.9515528625
 21
131.7738931042
  0
LINE
  5
2F8
100
AcDbEntity
  8
0
100
AcDbLine
 62
7
  6
CONTINUOUS
 10
150.951958733
 20
125.2715006197
 11
150.951958733
 21
122.3395956687
  0
LINE
  5
2F9
100
AcDbEntity
  8
0
100
AcDbLine
 62
7
  6
CONTINUOUS
 10
150.951958733
 20
90.2815403502
 11
150.951958733
 21
87.3496353992
  0
LINE
  5
2FA
100
AcDbEntity
  8
0
100
AcDbLine
 62
250
  6
CONTINUOUS
 10
150.1443810267
 20
85.6652465985
 11
150.1443808817
 21
85.6651119571
  0
LINE
  5
2FB
100
AcDbEntity
  8
RACCORDO
100
AcDbLine
 62
250
  6
CONTINUOUS
 10
147.452818459
 20
101.4269732057
 11
147.4276170305
 21
101.4153343508
  0
LINE
  5
2FC
100
AcDbEntity
  8
DRAFT
100
AcDbLine
 62
7
  6
CONTINUOUS
 10
147.5818369759
 20
105.0964910851
 11
148.0207297137
 21
104.8770447162
  0
LINE
  5
2FD
100
AcDbEntity
  8
ASSI
100
AcDbLine
 62
7
  6
CONTINUOUS
 10
151.6528946867
 20
122.6931039756
 11
151.6528946867
 21
122.0831817512
  0
LINE
  5
2FE
100
AcDbEntity
  8
ASSI
100
AcDbLine
 62
7
  6
CONTINUOUS
 10
151.6528946867
 20
121.2157108473
 11
151.6528946867
 21
92.1187027802
  0
LINE
  5
2FF
100
AcDbEntity
  8
ASSI
100
AcDbLine
 62
7
  6
CONTINUOUS
 10
151.6528946867
 20
91.2512318763
 11
151.6528946867
 21
90.6413096519
  0
LINE
  5
300
100
AcDbEntity
  8
0
100
AcDbLine
 62
7
  6
CONTINUOUS
 10
151.6532032281
 20
122.0830274805
 11
151.6532032281
 21
121.2155565766
  0
LINE
  5
301
100
AcDbEntity
  8
0
100
AcDbLine
 62
7
  6
CONTINUOUS
 10
151.6532032281
 20
91.2510776057
 11
151.6532032281
 21
92.1185485095
  0
LINE
  5
302
100
AcDbEntity
  8
DRAFT
100
AcDbLine
 62
7
  6
CONTINUOUS
 10
151.6652363415
 20
91.3570049516
 11
151.6652363415
 21
121.9650670212
  0
LINE
  5
303
100
AcDbEntity
  8
RACCORDO
100
AcDbLine
 62
250
  6
CONTINUOUS
 10
128.6380499712
 20
118.7491860278
 11
143.2867104564
 21
111.4248557852
  0
LINE
  5
304
100
AcDbEntity
  8
ASSI
100
AcDbLine
 62
7
  6
CONTINUOUS
 10
156.1842703528
 20
130.2898375105
 11
156.1844300085
 21
130.2725818726
  0
LINE
  5
305
100
AcDbEntity
  8
RACCORDO
100
AcDbLine
 62
7
  6
CONTINUOUS
 10
156.0139430458
 20
129.3586248131
 11
156.0139430458
 21
129.3346582099
  0
LINE
  5
306
100
AcDbEntity
  8
ASSI
100
AcDbLine
 62
250
  6
CONTINUOUS
 10
156.0441724052
 20
92.6296451354
 11
156.0441724052
 21
92.414383026
  0
LINE
  5
307
100
AcDbEntity
  8
ASSI
100
AcDbLine
 62
250
  6
CONTINUOUS
 10
156.0441724052
 20
129.3746053589
 11
156.0441724052
 21
129.9761224406
  0
LINE
  5
308
100
AcDbEntity
  8
ASSI
100
AcDbLine
 62
7
  6
CONTINUOUS
 10
156.184502505
 20
130.273730649
 11
156.184502505
 21
129.5508685925
  0
LINE
  5
309
100
AcDbEntity
  8
ASSI
100
AcDbLine
 62
7
  6
CONTINUOUS
 10
156.184502505
 20
92.4640988298
 11
156.184502505
 21
92.7038540038
  0
LINE
  5
30A
100
AcDbEntity
  8
0
100
AcDbLine
 62
250
  6
CONTINUOUS
 10
156.8455760963
 20
131.3890754488
 11
156.8455760963
 21
131.0677511666
  0
LINE
  5
30B
100
AcDbEntity
  8
DRAFT
100
AcDbLine
 62
7
  6
CONTINUOUS
 10
157.5282862943
 20
130.9673804678
 11
157.5282862943
 21
131.4003931697
  0
LINE
  5
30C
100
AcDbEntity
  8
ASSI
100
AcDbLine
 62
7
  6
CONTINUOUS
 10
156.1844225113
 20
92.464955896
 11
156.1842703528
 21
92.4632319148
  0
LINE
  5
30D
100
AcDbEntity
  8
0
100
AcDbLine
 62
7
  6
CONTINUOUS
 10
158.4957500067
 20
130.1312503566
 11
158.4957500067
 21
129.6653755901
  0
LINE
  5
30E
100
AcDbEntity
  8
RACCORDO
100
AcDbLine
 62
250
  6
CONTINUOUS
 10
158.9130831876
 20
130.8603655803
 11
158.9130831876
 21
131.3190971465
  0
LINE
  5
30F
100
AcDbEntity
  8
0
100
AcDbLine
 62
7
  6
CONTINUOUS
 10
158.9454946681
 20
130.0095025234
 11
158.9454946681
 21
129.6563169696
  0
LINE
  5
310
100
AcDbEntity
  8
RACCORDO
100
AcDbLine
 62
250
  6
CONTINUOUS
 10
159.054096109
 20
130.8612958584
 11
159.054096109
 21
131.3300930436
  0
LINE
  5
311
100
AcDbEntity
  8
0
100
AcDbLine
 62
7
  6
CONTINUOUS
 10
160.8577320748
 20
133.4304752415
 11
160.8577320748
 21
133.0226239742
  0
LINE
  5
312
100
AcDbEntity
  8
0
100
AcDbLine
 62
250
  6
CONTINUOUS
 10
148.3008196272
 20
85.8435685397
 11
147.6785015951
 21
85.0985091222
  0
LINE
  5
313
100
AcDbEntity
  8
0
100
AcDbLine
 62
250
  6
CONTINUOUS
 10
148.6538558152
 20
85.7177987016
 11
147.9426352071
 21
84.8663022245
  0
LINE
  5
314
100
AcDbEntity
  8
RACCORDO
100
AcDbLine
 62
250
  6
CONTINUOUS
 10
166.1272441951
 20
98.8449287169
 11
151.6652363415
 21
91.3570049516
  0
LINE
  5
315
100
AcDbEntity
  8
RACCORDO
100
AcDbLine
 62
250
  6
CONTINUOUS
 10
147.4225956544
 20
91.5849584015
 11
147.0077526003
 21
91.3933701317
  0
LINE
  5
316
100
AcDbEntity
  8
RACCORDO
100
AcDbLine
 62
7
  6
CONTINUOUS
 10
147.2333231689
 20
91.2028403452
 11
146.9951624756
 21
91.0928498447
  0
LINE
  5
317
100
AcDbEntity
  8
0
100
AcDbLine
 62
7
  6
CONTINUOUS
 10
151.6528946867
 20
122.6931039756
 11
150.951958733
 21
123.9020396671
  0
LINE
  5
318
100
AcDbEntity
  8
DRAFT
100
AcDbLine
 62
7
  6
CONTINUOUS
 10
150.951958733
 20
123.9127278536
 11
151.2510227792
 21
123.3969186737
  0
LINE
  5
319
100
AcDbEntity
  8
0
100
AcDbLine
 62
7
  6
CONTINUOUS
 10
150.951958733
 20
90.1333099142
 11
151.6528946867
 21
90.6413096519
  0
LINE
  5
31A
100
AcDbEntity
  8
DRAFT
100
AcDbLine
 62
7
  6
CONTINUOUS
 10
151.2510227792
 20
90.3393668614
 11
150.951958733
 21
90.1226217277
  0
LINE
  5
31B
100
AcDbEntity
  8
DRAFT
100
AcDbLine
 62
7
  6
CONTINUOUS
 10
157.7761726001
 20
93.6930295156
 11
157.0234785161
 21
93.1475183386
  0
LINE
  5
31C
100
AcDbEntity
  8
RACCORDO
100
AcDbLine
 62
250
  6
CONTINUOUS
 10
165.7882807112
 20
98.0121646944
 11
165.3687375003
 21
97.7081029039
  0
LINE
  5
31D
100
AcDbEntity
  8
RACCORDO
100
AcDbLine
 62
7
  6
CONTINUOUS
 10
165.8553915459
 20
98.0538906139
 11
165.4390107063
 21
97.7521207359
  0
LINE
  5
31E
100
AcDbEntity
  8
RACCORDO
100
AcDbLine
 62
7
  6
CONTINUOUS
 10
165.3687375003
 20
97.7081029039
 11
157.7761726001
 21
93.6930295156
  0
LINE
  5
31F
100
AcDbEntity
  8
DRAFT
100
AcDbLine
 62
7
  6
CONTINUOUS
 10
157.0234785161
 20
93.1475183386
 11
150.951958733
 21
89.9367986637
  0
LINE
  5
320
100
AcDbEntity
  8
RACCORDO
100
AcDbLine
 62
250
  6
CONTINUOUS
 10
165.7882807112
 20
98.0121646944
 11
151.2510227792
 21
90.3393668614
  0
LINE
  5
321
100
AcDbEntity
  8
0
100
AcDbLine
 62
7
  6
CONTINUOUS
 10
155.2335512636
 20
91.9014358531
 11
150.951958733
 21
89.7018155938
  0
LINE
  5
322
100
AcDbEntity
  8
0
100
AcDbLine
 62
7
  6
CONTINUOUS
 10
150.951958733
 20
90.2815403502
 11
151.6528946867
 21
90.6413096519
  0
LINE
  5
323
100
AcDbEntity
  8
ASSI
100
AcDbLine
 62
7
  6
CONTINUOUS
 10
156.0441724052
 20
92.414383026
 11
150.951958733
 21
89.8102693705
  0
LINE
  5
324
100
AcDbEntity
  8
RACCORDO
100
AcDbLine
 62
250
  6
CONTINUOUS
 10
129.7430404696
 20
129.3462238328
 11
144.4277953604
 21
122.0038463874
  0
LINE
  5
325
100
AcDbEntity
  8
DRAFT
100
AcDbLine
 62
7
  6
CONTINUOUS
 10
148.2181806469
 20
120.2857118023
 11
149.1718487152
 21
119.8088777682
  0
LINE
  5
326
100
AcDbEntity
  8
RACCORDO
100
AcDbLine
 62
250
  6
CONTINUOUS
 10
130.4454660036
 20
130.3989249945
 11
145.1480474512
 21
123.0476342707
  0
LINE
  5
327
100
AcDbEntity
  8
RACCORDO
100
AcDbLine
 62
7
  6
CONTINUOUS
 10
166.379838011
 20
123.5216909574
 11
166.3798383366
 21
123.5212318897
  0
LINE
  5
328
100
AcDbEntity
  8
RACCORDO
100
AcDbLine
 62
250
  6
CONTINUOUS
 10
166.1272441951
 20
129.4529907865
 11
166.1272441951
 21
125.4780984819
  0
LINE
  5
329
100
AcDbEntity
  8
RACCORDO
100
AcDbLine
 62
250
  6
CONTINUOUS
 10
166.1272441951
 20
123.7776357931
 11
166.1272441951
 21
98.8449287169
  0
LINE
  5
32A
100
AcDbEntity
  8
RACCORDO
100
AcDbLine
 62
7
  6
CONTINUOUS
 10
166.3798383748
 20
129.7655870532
 11
166.3798383748
 21
126.3599016065
  0
LINE
  5
32B
100
AcDbEntity
  8
RACCORDO
100
AcDbLine
 62
7
  6
CONTINUOUS
 10
166.3798383748
 20
123.5209409371
 11
166.3798383748
 21
99.1575249836
  0
LINE
  5
32C
100
AcDbEntity
  8
RACCORDO
100
AcDbLine
 62
7
  6
CONTINUOUS
 10
166.3798382247
 20
126.3588831038
 11
166.3798381369
 21
126.3586355237
  0
LINE
  5
32D
100
AcDbEntity
  8
0
100
AcDbLine
 62
250
  6
CONTINUOUS
 10
150.2510227792
 20
86.9879582065
 11
150.951958733
 21
87.3496353992
  0
LINE
  5
32E
100
AcDbEntity
  8
0
100
AcDbLine
 62
7
  6
CONTINUOUS
 10
150.1223236318
 20
86.7181551847
 11
150.8241464801
 21
87.0802900078
  0
LINE
  5
32F
100
AcDbEntity
  8
0
100
AcDbLine
 62
250
  6
CONTINUOUS
 10
149.543915998
 20
85.30636289
 11
150.0721831697
 21
85.5773739487
  0
LINE
  5
330
100
AcDbEntity
  8
0
100
AcDbLine
 62
7
  6
CONTINUOUS
 10
149.4798128686
 20
85.1715861298
 11
150.0084951322
 21
85.4428101384
  0
LINE
  5
331
100
AcDbEntity
  8
0
100
AcDbLine
 62
7
  6
CONTINUOUS
 10
149.4798108949
 20
85.1715851172
 11
149.4780744831
 21
85.170716897
  0
LINE
  5
332
100
AcDbEntity
  8
0
100
AcDbLine
 62
250
  6
CONTINUOUS
 10
147.9426352071
 20
84.5263282904
 11
149.543915998
 21
85.30636289
  0
LINE
  5
333
100
AcDbEntity
  8
0
100
AcDbLine
 62
7
  6
CONTINUOUS
 10
147.8763736146
 20
84.3904776642
 11
149.4780717175
 21
85.1707155498
  0
LINE
  5
334
100
AcDbEntity
  8
0
100
AcDbLine
 62
250
  6
CONTINUOUS
 10
149.1718487152
 20
86.5351776165
 11
150.2510227792
 21
86.988171054
  0
LINE
  5
335
100
AcDbEntity
  8
0
100
AcDbLine
 62
7
  6
CONTINUOUS
 10
149.030552836
 20
86.2592336815
 11
150.1087551627
 21
86.7118192232
  0
LINE
  5
336
100
AcDbEntity
  8
RACCORDO
100
AcDbLine
 62
250
  6
CONTINUOUS
 10
143.8919509823
 20
84.452233605
 11
146.7627189729
 21
85.5445340096
  0
LINE
  5
337
100
AcDbEntity
  8
RACCORDO
100
AcDbLine
 62
7
  6
CONTINUOUS
 10
146.600042535
 20
85.2593718797
 11
143.7252062724
 21
84.1655239396
  0
LINE
  5
338
100
AcDbEntity
  8
RACCORDO
100
AcDbLine
 62
7
  6
CONTINUOUS
 10
133.1770190519
 20
131.748193641
 11
148.0265037647
 21
124.3234512846
  0
LINE
  5
339
100
AcDbEntity
  8
DRAFT
100
AcDbLine
 62
7
  6
CONTINUOUS
 10
143.9293547939
 20
126.5243674729
 11
139.731147448
 21
128.6234711459
  0
LINE
  5
33A
100
AcDbEntity
  8
DRAFT
100
AcDbLine
 62
7
  6
CONTINUOUS
 10
138.1241414818
 20
129.4446607382
 11
144.4881025125
 21
126.2626802229
  0
LINE
  5
33B
100
AcDbEntity
  8
0
100
AcDbLine
 62
7
  6
CONTINUOUS
 10
148.8185644493
 20
124.9403875408
 11
148.3013338556
 21
125.1990028376
  0
LINE
  5
33C
100
AcDbEntity
  8
0
100
AcDbLine
 62
7
  6
CONTINUOUS
 10
146.6145681314
 20
126.0423856997
 11
144.4465764331
 21
127.1263815489
  0
LINE
  5
33D
100
AcDbEntity
  8
0
100
AcDbLine
 62
7
  6
CONTINUOUS
 10
143.7871665587
 20
127.4560864861
 11
138.8250774356
 21
129.9371310476
  0
LINE
  5
33E
100
AcDbEntity
  8
0
100
AcDbLine
 62
7
  6
CONTINUOUS
 10
138.1656675612
 20
130.2668359848
 11
135.9976758629
 21
131.350831834
  0
LINE
  5
33F
100
AcDbEntity
  8
0
100
AcDbLine
 62
7
  6
CONTINUOUS
 10
134.3109101387
 20
132.1942146961
 11
133.793679545
 21
132.4528299929
  0
LINE
  5
340
100
AcDbEntity
  8
0
100
AcDbLine
 62
7
  6
CONTINUOUS
 10
133.6728904809
 20
133.0222986692
 11
135.3514285513
 21
132.183029634
  0
LINE
  5
341
100
AcDbEntity
  8
0
100
AcDbLine
 62
7
  6
CONTINUOUS
 10
145.9765484735
 20
126.8704696728
 11
147.6550865439
 21
126.0312006376
  0
LINE
  5
342
100
AcDbEntity
  8
0
100
AcDbLine
 62
250
  6
CONTINUOUS
 10
133.6079171844
 20
133.1575171193
 11
135.2864552548
 21
132.3182480841
  0
LINE
  5
343
100
AcDbEntity
  8
0
100
AcDbLine
 62
250
  6
CONTINUOUS
 10
145.9115751771
 20
127.0056881229
 11
147.5901132475
 21
126.1664190877
  0
LINE
  5
344
100
AcDbEntity
  8
0
100
AcDbLine
 62
250
  6
CONTINUOUS
 10
156.4309985847
 20
132.464653989
 11
156.8455760963
 21
131.3890754488
  0
LINE
  5
345
100
AcDbEntity
  8
0
100
AcDbLine
 62
7
  6
CONTINUOUS
 10
157.9902804245
 20
129.8890104008
 11
157.7887810666
 21
130.4847348266
  0
LINE
  5
346
100
AcDbEntity
  8
0
100
AcDbLine
 62
7
  6
CONTINUOUS
 10
147.7157917136
 20
126.0100852031
 11
148.3400895995
 21
125.8797312253
  0
LINE
  5
347
100
AcDbEntity
  8
0
100
AcDbLine
 62
250
  6
CONTINUOUS
 10
147.9426352071
 20
126.1659063639
 11
148.6538558152
 21
126.017402841
  0
LINE
  5
348
100
AcDbEntity
  8
0
100
AcDbLine
 62
7
  6
CONTINUOUS
 10
143.7871665587
 20
128.2085797355
 11
142.8636135491
 21
128.6703562403
  0
LINE
  5
349
100
AcDbEntity
  8
0
100
AcDbLine
 62
7
  6
CONTINUOUS
 10
141.1628440076
 20
129.520741011
 11
139.5383550442
 21
130.3329854927
  0
LINE
  5
34A
100
AcDbEntity
  8
0
100
AcDbLine
 62
250
  6
CONTINUOUS
 10
147.5901132475
 20
126.5063930219
 11
145.9115751771
 21
127.3456620571
  0
LINE
  5
34B
100
AcDbEntity
  8
0
100
AcDbLine
 62
250
  6
CONTINUOUS
 10
135.2864552548
 20
132.6582220182
 11
133.6079171844
 21
133.4974910534
  0
LINE
  5
34C
100
AcDbEntity
  8
0
100
AcDbLine
 62
7
  6
CONTINUOUS
 10
149.8974738759
 20
125.5296727016
 11
149.543915998
 21
125.7064516405
  0
LINE
  5
34D
100
AcDbEntity
  8
0
100
AcDbLine
 62
7
  6
CONTINUOUS
 10
145.865222944
 20
127.5457981675
 11
145.5134073452
 21
127.7217059669
  0
LINE
  5
34E
100
AcDbEntity
  8
0
100
AcDbLine
 62
7
  6
CONTINUOUS
 10
138.1656675612
 20
131.3955758589
 11
137.2402580053
 21
131.8582806369
  0
LINE
  5
34F
100
AcDbEntity
  8
0
100
AcDbLine
 62
7
  6
CONTINUOUS
 10
141.6596753877
 20
129.6485719457
 11
142.8050349053
 21
129.0758921869
  0
LINE
  5
350
100
AcDbEntity
  8
0
100
AcDbLine
 62
250
  6
CONTINUOUS
 10
147.7658615035
 20
126.8107698368
 11
146.0873234331
 21
127.650038872
  0
LINE
  5
351
100
AcDbEntity
  8
0
100
AcDbLine
 62
250
  6
CONTINUOUS
 10
135.4622035108
 20
132.9625988331
 11
133.7836654404
 21
133.8018678684
  0
LINE
  5
352
100
AcDbEntity
  8
0
100
AcDbLine
 62
7
  6
CONTINUOUS
 10
138.1656675612
 20
131.7129987506
 11
138.8250774356
 21
131.3832938134
  0
LINE
  5
353
100
AcDbEntity
  8
0
100
AcDbLine
 62
7
  6
CONTINUOUS
 10
143.7871665587
 20
128.9022492518
 11
144.4465764331
 21
128.5725443147
  0
LINE
  5
354
100
AcDbEntity
  8
0
100
AcDbLine
 62
7
  6
CONTINUOUS
 10
142.8050349053
 20
129.7742044585
 11
142.3563612933
 21
129.9985412645
  0
LINE
  5
355
100
AcDbEntity
  8
0
100
AcDbLine
 62
7
  6
CONTINUOUS
 10
150.5984098297
 20
125.8812731174
 11
149.543915998
 21
126.4085200333
  0
LINE
  5
356
100
AcDbEntity
  8
0
100
AcDbLine
 62
7
  6
CONTINUOUS
 10
137.9432509596
 20
132.2088525525
 11
137.2402580053
 21
132.5603490296
  0
LINE
  5
357
100
AcDbEntity
  8
0
100
AcDbLine
 62
7
  6
CONTINUOUS
 10
142.3555810086
 20
130.1086149149
 11
142.8050349053
 21
129.8838879666
  0
LINE
  5
358
100
AcDbEntity
  8
0
100
AcDbLine
 62
250
  6
CONTINUOUS
 10
144.3186126237
 20
129.1764710546
 11
142.8636135491
 21
129.9039705919
  0
LINE
  5
359
100
AcDbEntity
  8
0
100
AcDbLine
 62
250
  6
CONTINUOUS
 10
141.1628440076
 20
130.7543553627
 11
139.5383550442
 21
131.5665998444
  0
LINE
  5
35A
100
AcDbEntity
  8
0
100
AcDbLine
 62
250
  6
CONTINUOUS
 10
144.6274741318
 20
129.3358410549
 11
143.0042121539
 21
130.1474720439
  0
LINE
  5
35B
100
AcDbEntity
  8
0
100
AcDbLine
 62
250
  6
CONTINUOUS
 10
141.3034426124
 20
130.9978568147
 11
139.6801806344
 21
131.8094878036
  0
LINE
  5
35C
100
AcDbEntity
  8
0
100
AcDbLine
 62
7
  6
CONTINUOUS
 10
139.2201569927
 20
132.2539717893
 11
141.5182558265
 21
131.1049223724
  0
LINE
  5
35D
100
AcDbEntity
  8
0
100
AcDbLine
 62
7
  6
CONTINUOUS
 10
143.2153085114
 20
130.2563960299
 11
145.5134073452
 21
129.107346613
  0
LINE
  5
35E
100
AcDbEntity
  8
0
100
AcDbLine
 62
7
  6
CONTINUOUS
 10
149.3671422943
 20
127.6134918403
 11
147.6700800362
 21
128.4620229694
  0
LINE
  5
35F
100
AcDbEntity
  8
0
100
AcDbLine
 62
7
  6
CONTINUOUS
 10
137.0634843016
 20
133.7653208366
 11
135.3664220436
 21
134.6138519657
  0
LINE
  5
360
100
AcDbEntity
  8
0
100
AcDbLine
 62
7
  6
CONTINUOUS
 10
140.5602093674
 20
132.2719571525
 11
142.2051576118
 21
131.4494830303
  0
LINE
  5
361
100
AcDbEntity
  8
0
100
AcDbLine
 62
7
  6
CONTINUOUS
 10
143.9143048464
 20
130.594909413
 11
145.5592530908
 21
129.7724352908
  0
LINE
  5
362
100
AcDbEntity
  8
0
100
AcDbLine
 62
250
  6
CONTINUOUS
 10
135.9008719222
 20
134.8741994323
 11
137.5917514734
 21
134.0287596567
  0
LINE
  5
363
100
AcDbEntity
  8
0
100
AcDbLine
 62
250
  6
CONTINUOUS
 10
148.2045299149
 20
128.7223704359
 11
149.895409466
 21
127.8769306604
  0
LINE
  5
364
100
AcDbEntity
  8
0
100
AcDbLine
 62
7
  6
CONTINUOUS
 10
136.0116468818
 20
134.8807893234
 11
137.7025264329
 21
134.0353495478
  0
LINE
  5
365
100
AcDbEntity
  8
0
100
AcDbLine
 62
7
  6
CONTINUOUS
 10
148.3153048744
 20
128.728960327
 11
150.0061844256
 21
127.8835205515
  0
LINE
  5
366
100
AcDbEntity
  8
RACCORDO
100
AcDbLine
 62
7
  6
CONTINUOUS
 10
145.8497407192
 20
129.9846698482
 11
145.5938239537
 21
130.1126282309
  0
LINE
  5
367
100
AcDbEntity
  8
DRAFT
100
AcDbLine
 62
7
  6
CONTINUOUS
 10
157.7761726001
 20
127.6602418223
 11
157.0234785161
 21
128.9584470833
  0
LINE
  5
368
100
AcDbEntity
  8
RACCORDO
100
AcDbLine
 62
7
  6
CONTINUOUS
 10
160.8486166161
 20
133.4543690425
 11
160.8577320748
 21
133.4304752415
  0
LINE
  5
369
100
AcDbEntity
  8
0
100
AcDbLine
 62
7
  6
CONTINUOUS
 10
135.412133721
 20
132.1619141994
 11
136.0364331432
 21
132.0315599008
  0
LINE
  5
36A
100
AcDbEntity
  8
0
100
AcDbLine
 62
250
  6
CONTINUOUS
 10
135.6389772145
 20
132.3177353602
 11
136.3501978226
 21
132.1692318373
  0
LINE
  5
36B
100
AcDbEntity
  8
RACCORDO
100
AcDbLine
 62
250
  6
CONTINUOUS
 10
145.5938239537
 20
131.0952128908
 11
146.3522295523
 21
130.7160100914
  0
LINE
  5
36C
100
AcDbEntity
  8
RACCORDO
100
AcDbLine
 62
250
  6
CONTINUOUS
 10
145.6962643012
 20
131.3129284742
 11
146.4546698999
 21
130.9337256749
  0
LINE
  5
36D
100
AcDbEntity
  8
RACCORDO
100
AcDbLine
 62
7
  6
CONTINUOUS
 10
144.9830772601
 20
131.9132798555
 11
147.4252112918
 21
130.6922128396
  0
LINE
  5
36E
100
AcDbEntity
  8
RACCORDO
100
AcDbLine
 62
250
  6
CONTINUOUS
 10
148.0325681704
 20
130.9915942624
 11
145.9528196722
 21
132.0314685115
  0
LINE
  5
36F
100
AcDbEntity
  8
RACCORDO
100
AcDbLine
 62
7
  6
CONTINUOUS
 10
148.0820927476
 20
131.0160061674
 11
146.0410282728
 21
132.0365384048
  0
LINE
  5
370
100
AcDbEntity
  8
0
100
AcDbLine
 62
7
  6
CONTINUOUS
 10
146.3370705501
 20
132.441711916
 11
148.6392291066
 21
131.2906326377
  0
LINE
  5
371
100
AcDbEntity
  8
0
100
AcDbLine
 62
7
  6
CONTINUOUS
 10
146.9822592766
 20
133.1178596698
 11
149.6450876173
 21
131.7864454995
  0
LINE
  5
372
100
AcDbEntity
  8
0
100
AcDbLine
 62
250
  6
CONTINUOUS
 10
150.7878994144
 20
131.7376557469
 11
150.1714275896
 21
132.0458916592
  0
LINE
  5
373
100
AcDbEntity
  8
0
100
AcDbLine
 62
250
  6
CONTINUOUS
 10
145.1728522234
 20
134.5451793424
 11
144.5563803986
 21
134.8534152547
  0
LINE
  5
374
100
AcDbEntity
  8
0
100
AcDbLine
 62
7
  6
CONTINUOUS
 10
158.0007752599
 20
129.8837629831
 11
158.2146677139
 21
129.6862297155
  0
LINE
  5
375
100
AcDbEntity
  8
0
100
AcDbLine
 62
7
  6
CONTINUOUS
 10
148.7362969443
 20
133.2099018956
 11
146.9822592766
 21
133.1178596698
  0
LWPOLYLINE
  5
376
100
AcDbEntity
  8
RACCORDO
100
AcDbPolyline
 62
7
  6
CONTINUOUS
 90
10
 70
0
 10
151.7461475345
 20
131.8077416066
 10
151.7016112084
 20
131.814618193
 10
151.6435511519
 20
131.8257871585
 10
151.5896595845
 20
131.8382848919
 10
151.5411711566
 20
131.8515216039
 10
151.4983464436
 20
131.8650624039
 10
151.4613063293
 20
131.8784694521
 10
151.4306538103
 20
131.8910435392
 10
151.4063377571
 20
131.902252327
 10
151.402019955
 20
131.904386523
  0
LINE
  5
377
100
AcDbEntity
  8
0
100
AcDbLine
 62
7
  6
CONTINUOUS
 10
158.9454946681
 20
130.0095025234
 11
158.4957500067
 21
130.1312503566
  0
LINE
  5
378
100
AcDbEntity
  8
0
100
AcDbLine
 62
7
  6
CONTINUOUS
 10
150.9465102447
 20
131.7823050734
 11
150.4315221572
 21
132.0397991172
  0
LINE
  5
379
100
AcDbEntity
  8
0
100
AcDbLine
 62
7
  6
CONTINUOUS
 10
145.3321332177
 20
134.589493587
 11
144.8408703829
 21
134.8351250044
  0
LINE
  5
37A
100
AcDbEntity
  8
DRAFT
100
AcDbLine
 62
7
  6
CONTINUOUS
 10
157.0234785161
 20
128.9584470833
 11
156.1476009573
 21
129.3963858627
  0
LINE
  5
37B
100
AcDbEntity
  8
0
100
AcDbLine
 62
7
  6
CONTINUOUS
 10
151.6426502911
 20
131.7567252222
 11
148.7362969443
 21
133.2099018956
  0
LINE
  5
37C
100
AcDbEntity
  8
RACCORDO
100
AcDbLine
 62
7
  6
CONTINUOUS
 10
151.4020945773
 20
131.904358134
 11
148.736102027
 21
133.2373544092
  0
LINE
  5
37D
100
AcDbEntity
  8
0
100
AcDbLine
 62
250
  6
CONTINUOUS
 10
145.064589775
 20
135.6729515179
 11
148.0238257145
 21
134.1933335481
  0
LINE
  5
37E
100
AcDbEntity
  8
0
100
AcDbLine
 62
250
  6
CONTINUOUS
 10
152.2743153241
 20
132.0680887433
 11
155.2335512636
 21
130.5884707736
  0
LINE
  5
37F
100
AcDbEntity
  8
0
100
AcDbLine
 62
7
  6
CONTINUOUS
 10
145.3532409567
 20
135.7765354105
 11
148.468322866
 21
134.2189944559
  0
LINE
  5
380
100
AcDbEntity
  8
0
100
AcDbLine
 62
7
  6
CONTINUOUS
 10
152.716017849
 20
132.0951469644
 11
155.8310997583
 21
130.5376060098
  0
LINE
  5
381
100
AcDbEntity
  8
0
100
AcDbLine
 62
7
  6
CONTINUOUS
 10
158.0007752599
 20
129.8837629831
 11
157.2938063198
 21
130.2372474532
  0
LINE
  5
382
100
AcDbEntity
  8
0
100
AcDbLine
 62
7
  6
CONTINUOUS
 10
158.4957500067
 20
130.1312503566
 11
157.7887810666
 21
130.4847348266
  0
LINE
  5
383
100
AcDbEntity
  8
DRAFT
100
AcDbLine
 62
7
  6
CONTINUOUS
 10
157.5282862943
 20
130.9673804678
 11
157.0896758218
 21
131.186685704
  0
LINE
  5
384
100
AcDbEntity
  8
RACCORDO
100
AcDbLine
 62
250
  6
CONTINUOUS
 10
165.3687375003
 20
131.3483232944
 11
165.7882807112
 21
130.6247182929
  0
LINE
  5
385
100
AcDbEntity
  8
RACCORDO
100
AcDbLine
 62
7
  6
CONTINUOUS
 10
165.7590018646
 20
131.3427134805
 11
166.1058396351
 21
130.7445068146
  0
LINE
  5
386
100
AcDbEntity
  8
RACCORDO
100
AcDbLine
 62
7
  6
CONTINUOUS
 10
161.7581992743
 20
130.7276440932
 11
161.0317018855
 21
131.0908927876
  0
LINE
  5
387
100
AcDbEntity
  8
DRAFT
100
AcDbLine
 62
7
  6
CONTINUOUS
 10
161.5753696139
 20
130.834718776
 11
161.2712502299
 21
130.986778468
  0
LINE
  5
388
100
AcDbEntity
  8
DRAFT
100
AcDbLine
 62
7
  6
CONTINUOUS
 10
163.9699696476
 20
131.4665051878
 11
160.8577320748
 21
133.0226239742
  0
LINE
  5
389
100
AcDbEntity
  8
RACCORDO
100
AcDbLine
 62
250
  6
CONTINUOUS
 10
165.3687375003
 20
131.3483232944
 11
164.5630655642
 21
131.7511592624
  0
LINE
  5
38A
100
AcDbEntity
  8
RACCORDO
100
AcDbLine
 62
250
  6
CONTINUOUS
 10
159.8614024851
 20
134.1019908019
 11
158.8902436514
 21
134.5875702188
  0
LINE
  5
38B
100
AcDbEntity
  8
RACCORDO
100
AcDbLine
 62
7
  6
CONTINUOUS
 10
165.6990128778
 20
131.3990053985
 11
164.8732539777
 21
131.8118848486
  0
LINE
  5
38C
100
AcDbEntity
  8
RACCORDO
100
AcDbLine
 62
7
  6
CONTINUOUS
 10
160.3339852566
 20
134.0815192091
 11
159.2816292439
 21
134.6076972154
  0
ARC
  5
38D
100
AcDbEntity
  8
RACCORDO
100
AcDbCircle
 62
7
  6
CONTINUOUS
 10
125.0708991122
 20
60.1889180793
 40
78.8191348932
100
AcDbArc
 50
62.7491355285
 51
63.4099869178
  0
ARC
  5
38E
100
AcDbEntity
  8
RACCORDO
100
AcDbCircle
 62
7
  6
CONTINUOUS
 10
159.2598001471
 20
127.1308251775
 40
3.7059776187
100
AcDbArc
 50
73.0771937146
 51
74.2386873556
  0
ARC
  5
38F
100
AcDbEntity
  8
DRAFT
100
AcDbCircle
 62
7
  6
CONTINUOUS
 10
148.4367176474
 20
121.7655270106
 40
3.2529605183
100
AcDbArc
 50
27.0119127187
 51
30.0999396503
  0
ARC
  5
390
100
AcDbEntity
  8
DRAFT
100
AcDbCircle
 62
7
  6
CONTINUOUS
 10
149.2945235076
 20
121.9558050479
 40
2.3709247519
100
AcDbArc
 50
3.0950335685
 51
5.8627437916
  0
ARC
  5
391
100
AcDbEntity
  8
DRAFT
100
AcDbCircle
 62
7
  6
CONTINUOUS
 10
149.4752873397
 20
121.9646165523
 40
2.1899490482
100
AcDbArc
 50
0.0117856461
 51
3.1201814062
  0
ARC
  5
392
100
AcDbEntity
  8
DRAFT
100
AcDbCircle
 62
7
  6
CONTINUOUS
 10
149.6406193127
 20
91.3560747768
 40
2.0246172426
100
AcDbArc
 50
357.0164637573
 51
0.0263235385
  0
ARC
  5
393
100
AcDbEntity
  8
DRAFT
100
AcDbCircle
 62
7
  6
CONTINUOUS
 10
149.7066453933
 20
91.3529474867
 40
1.9585179109
100
AcDbArc
 50
356.8227672005
 51
357.0072912393
  0
ARC
  5
394
100
AcDbEntity
  8
DRAFT
100
AcDbCircle
 62
7
  6
CONTINUOUS
 10
149.8065192913
 20
91.3462325156
 40
1.8584257245
100
AcDbArc
 50
353.513147031
 51
356.8588128131
  0
ARC
  5
395
100
AcDbEntity
  8
SUPERFICI
100
AcDbCircle
 62
7
  6
CONTINUOUS
 10
133.9860002569
 20
95.3057781477
 40
1.8525398973
100
AcDbArc
 50
15.6754602844
 51
17.2560567692
  0
ARC
  5
396
100
AcDbEntity
  8
SUPERFICI
100
AcDbCircle
 62
7
  6
CONTINUOUS
 10
131.7939694299
 20
96.4017936956
 40
1.8525396149
100
AcDbArc
 50
15.6754632253
 51
17.2560600014
  0
ARC
  5
397
100
AcDbEntity
  8
SUPERFICI
100
AcDbCircle
 62
7
  6
CONTINUOUS
 10
136.0012548047
 20
94.2981510081
 40
1.852539615
100
AcDbArc
 50
15.6754632254
 51
17.2560600013
  0
ARC
  5
398
100
AcDbEntity
  8
DRAFT
100
AcDbCircle
 62
7
  6
CONTINUOUS
 10
138.6126003265
 20
94.9736184654
 40
1.8119487084
100
AcDbArc
 50
196.0972318253
 51
197.7101476151
  0
ARC
  5
399
100
AcDbEntity
  8
DRAFT
100
AcDbCircle
 62
7
  6
CONTINUOUS
 10
134.4053149516
 20
97.0772611528
 40
1.8119487084
100
AcDbArc
 50
196.0972318253
 51
197.7101476151
  0
ARC
  5
39A
100
AcDbEntity
  8
DRAFT
100
AcDbCircle
 62
7
  6
CONTINUOUS
 10
136.4205690983
 20
96.0696339566
 40
1.8119484469
100
AcDbArc
 50
196.0972347508
 51
197.7101508254
  0
ARC
  5
39B
100
AcDbEntity
  8
DRAFT
100
AcDbCircle
 62
7
  6
CONTINUOUS
 10
150.790032582
 20
90.9749265388
 40
0.7851420671
100
AcDbArc
 50
305.9544853396
 51
313.9372865043
  0
ARC
  5
39C
100
AcDbEntity
  8
DRAFT
100
AcDbCircle
 62
7
  6
CONTINUOUS
 10
137.5327133144
 20
94.9899430988
 40
0.7123018471
100
AcDbArc
 50
155.1188685737
 51
158.1356758861
  0
ARC
  5
39D
100
AcDbEntity
  8
DRAFT
100
AcDbCircle
 62
7
  6
CONTINUOUS
 10
133.3254279395
 20
97.0935857863
 40
0.7123018472
100
AcDbArc
 50
155.1188685738
 51
158.1356758861
  0
ARC
  5
39E
100
AcDbEntity
  8
DRAFT
100
AcDbCircle
 62
7
  6
CONTINUOUS
 10
135.3406821312
 20
96.085958597
 40
0.7123016237
100
AcDbArc
 50
155.118862379
 51
158.1356705677
  0
ARC
  5
39F
100
AcDbEntity
  8
SUPERFICI
100
AcDbCircle
 62
7
  6
CONTINUOUS
 10
135.1074585646
 20
95.2826977924
 40
0.7115427408
100
AcDbArc
 50
335.5424675817
 51
338.5383981845
  0
ARC
  5
3A0
100
AcDbEntity
  8
SUPERFICI
100
AcDbCircle
 62
7
  6
CONTINUOUS
 10
132.9154276774
 20
96.3787133321
 40
0.7115425118
100
AcDbArc
 50
335.5424613374
 51
338.5383928326
  0
ARC
  5
3A1
100
AcDbEntity
  8
SUPERFICI
100
AcDbCircle
 62
7
  6
CONTINUOUS
 10
137.1227130524
 20
94.2750706446
 40
0.7115425118
100
AcDbArc
 50
335.5424613373
 51
338.5383928327
  0
ARC
  5
3A2
100
AcDbEntity
  8
RACCORDO
100
AcDbCircle
 62
250
  6
CONTINUOUS
 10
165.5271770358
 20
98.5067184082
 40
0.5592481606
100
AcDbArc
 50
297.832179873
 51
305.9350085168
  0
ARC
  5
3A3
100
AcDbEntity
  8
RACCORDO
100
AcDbCircle
 62
250
  6
CONTINUOUS
 10
128.5945633689
 20
91.8601239083
 40
0.3659587733
100
AcDbArc
 50
240.2394972119
 51
243.4412093991
  0
ARC
  5
3A4
100
AcDbEntity
  8
0
100
AcDbCircle
 62
7
  6
CONTINUOUS
 10
149.8929358723
 20
86.0108437295
 40
0.252394862
100
AcDbArc
 50
50.5468866676
 51
56.9724421949
  0
ARC
  5
3A5
100
AcDbEntity
  8
0
100
AcDbCircle
 62
7
  6
CONTINUOUS
 10
146.0905646365
 20
127.0947377422
 40
0.2522783115
100
AcDbArc
 50
187.260653558
 51
205.8198203078
  0
ARC
  5
3A6
100
AcDbEntity
  8
0
100
AcDbCircle
 62
7
  6
CONTINUOUS
 10
149.8932125811
 20
86.0117193545
 40
0.2515431525
100
AcDbArc
 50
31.0468292416
 51
50.4688152004
  0
ARC
  5
3A7
100
AcDbEntity
  8
0
100
AcDbCircle
 62
7
  6
CONTINUOUS
 10
149.8940939886
 20
127.3125019642
 40
0.2502978029
100
AcDbArc
 50
320.6130706816
 51
359.9701471572
  0
ARC
  5
3A8
100
AcDbEntity
  8
0
100
AcDbCircle
 62
7
  6
CONTINUOUS
 10
146.0883705128
 20
127.4340429927
 40
0.2500151037
100
AcDbArc
 50
117.1617076756
 51
179.9944821188
  0
ARC
  5
3A9
100
AcDbEntity
  8
0
100
AcDbCircle
 62
7
  6
CONTINUOUS
 10
147.7669066008
 20
126.2547889812
 40
0.2499779475
100
AcDbArc
 50
243.4290120027
 51
258.2010452234
  0
ARC
  5
3AA
100
AcDbEntity
  8
0
100
AcDbCircle
 62
7
  6
CONTINUOUS
 10
147.7668805779
 20
84.6151870137
 40
0.2499579347
100
AcDbArc
 50
243.4325276724
 51
296.0201890813
  0
ARC
  5
3AB
100
AcDbEntity
  8
0
100
AcDbCircle
 62
7
  6
CONTINUOUS
 10
146.0883186665
 20
127.0940419554
 40
0.2499537638
100
AcDbArc
 50
205.9004825784
 51
243.4668726477
  0
ARC
  5
3AC
100
AcDbEntity
  8
0
100
AcDbCircle
 62
7
  6
CONTINUOUS
 10
149.8945607582
 20
85.6651285562
 40
0.2497815931
100
AcDbArc
 50
297.0898558427
 51
336.9512557795
  0
ARC
  5
3AD
100
AcDbEntity
  8
0
100
AcDbCircle
 62
7
  6
CONTINUOUS
 10
146.0878936135
 20
127.0940715297
 40
0.2495447174
100
AcDbArc
 50
179.9925715692
 51
187.1864240465
  0
ARC
  5
3AE
100
AcDbEntity
  8
0
100
AcDbCircle
 62
7
  6
CONTINUOUS
 10
149.8948477743
 20
86.012926777
 40
0.2495195661
100
AcDbArc
 50
359.9224713112
 51
31.0029428873
  0
ARC
  5
3AF
100
AcDbEntity
  8
0
100
AcDbCircle
 62
7
  6
CONTINUOUS
 10
149.8947923446
 20
86.0137571569
 40
0.2489403656
100
AcDbArc
 50
56.9652016036
 51
63.4188481345
  0
ARC
  5
3B0
100
AcDbEntity
  8
0
100
AcDbCircle
 62
7
  6
CONTINUOUS
 10
150.0354399504
 20
86.8865213907
 40
0.189462091
100
AcDbArc
 50
292.7717188963
 51
297.2921248775
  0
ARC
  5
3B1
100
AcDbEntity
  8
0
100
AcDbCircle
 62
250
  6
CONTINUOUS
 10
149.9109463552
 20
86.1005036858
 40
0.1608897129
100
AcDbArc
 50
60.1198813668
 51
63.4863180173
  0
ARC
  5
3B2
100
AcDbEntity
  8
0
100
AcDbCircle
 62
250
  6
CONTINUOUS
 10
146.0186250931
 20
126.9546019007
 40
0.0940674384
100
AcDbArc
 50
238.1057806591
 51
243.4300962563
  0
ARC
  5
3B3
100
AcDbEntity
  8
0
100
AcDbCircle
 62
250
  6
CONTINUOUS
 10
145.9011771905
 20
127.0940849509
 40
0.0628250606
100
AcDbArc
 50
180.0077271478
 51
185.9636474493
  0
ARC
  5
3B4
100
AcDbEntity
  8
0
100
AcDbCircle
 62
7
  6
CONTINUOUS
 10
116.3201861617
 20
194.9906596448
 40
81.7996817093
100
AcDbArc
 50
295.089032745
 51
295.5910997835
  0
ARC
  5
3B5
100
AcDbEntity
  8
0
100
AcDbCircle
 62
7
  6
CONTINUOUS
 10
133.9822058425
 20
157.3772258937
 40
40.2459461718
100
AcDbArc
 50
294.8293644967
 51
295.0227891936
  0
ARC
  5
3B6
100
AcDbEntity
  8
RACCORDO
100
AcDbCircle
 62
7
  6
CONTINUOUS
 10
145.6528467015
 20
130.5134091392
 40
1.5770389823
100
AcDbArc
 50
77.468946149
 51
80.4096706159
  0
ARC
  5
3B7
100
AcDbEntity
  8
RACCORDO
100
AcDbCircle
 62
250
  6
CONTINUOUS
 10
160.2676250773
 20
129.1084067814
 40
1.4712916631
100
AcDbArc
 50
46.4995514929
 51
50.7194619362
  0
ARC
  5
3B8
100
AcDbEntity
  8
RACCORDO
100
AcDbCircle
 62
7
  6
CONTINUOUS
 10
145.5371475458
 20
130.7464227957
 40
1.3376490123
100
AcDbArc
 50
105.3086081408
 51
108.7938608937
  0
ARC
  5
3B9
100
AcDbEntity
  8
RACCORDO
100
AcDbCircle
 62
250
  6
CONTINUOUS
 10
160.3414952514
 20
129.316843684
 40
1.1985912515
100
AcDbArc
 50
43.5179553287
 51
44.5762283426
  0
ARC
  5
3BA
100
AcDbEntity
  8
RACCORDO
100
AcDbCircle
 62
7
  6
CONTINUOUS
 10
145.4904070134
 20
130.885847399
 40
1.1906000601
100
AcDbArc
 50
108.8260612712
 51
112.2763731713
  0
ARC
  5
3BB
100
AcDbEntity
  8
RACCORDO
100
AcDbCircle
 62
7
  6
CONTINUOUS
 10
158.8791258629
 20
133.8027655311
 40
0.8999458359
100
AcDbArc
 50
63.4315459583
 51
114.789822733
  0
ARC
  5
3BC
100
AcDbEntity
  8
0
100
AcDbCircle
 62
7
  6
CONTINUOUS
 10
156.745147374
 20
130.4252462498
 40
0.688125326
100
AcDbArc
 50
179.9934254783
 51
182.5889373544
  0
ARC
  5
3BD
100
AcDbEntity
  8
RACCORDO
100
AcDbCircle
 62
250
  6
CONTINUOUS
 10
146.1181753214
 20
130.8557475233
 40
0.5224384214
100
AcDbArc
 50
312.7323809787
 51
317.9261275075
  0
ARC
  5
3BE
100
AcDbEntity
  8
0
100
AcDbCircle
 62
7
  6
CONTINUOUS
 10
148.2030011632
 20
128.5043563207
 40
0.2511076924
100
AcDbArc
 50
63.3938371273
 51
65.5614104974
  0
ARC
  5
3BF
100
AcDbEntity
  8
0
100
AcDbCircle
 62
7
  6
CONTINUOUS
 10
135.900336662
 20
134.6561823595
 40
0.2511070237
100
AcDbArc
 50
114.0214681681
 51
116.0150406505
  0
ARC
  5
3C0
100
AcDbEntity
  8
0
100
AcDbCircle
 62
7
  6
CONTINUOUS
 10
135.4635788918
 20
132.407633231
 40
0.251046705
100
AcDbArc
 50
243.4638408028
 51
258.1750254623
  0
ARC
  5
3C1
100
AcDbEntity
  8
0
100
AcDbCircle
 62
7
  6
CONTINUOUS
 10
135.9000500768
 20
134.6565099948
 40
0.250691134
100
AcDbArc
 50
99.4431458384
 51
113.9921241267
  0
ARC
  5
3C2
100
AcDbEntity
  8
0
100
AcDbCircle
 62
7
  6
CONTINUOUS
 10
148.2032912893
 20
128.5046872662
 40
0.2506863999
100
AcDbArc
 50
65.5904860464
 51
80.0867799203
  0
ARC
  5
3C3
100
AcDbEntity
  8
0
100
AcDbCircle
 62
7
  6
CONTINUOUS
 10
137.590435996
 20
133.4643309606
 40
0.2502978029
100
AcDbArc
 50
320.6130706817
 51
359.9701471571
  0
ARC
  5
3C4
100
AcDbEntity
  8
0
100
AcDbCircle
 62
7
  6
CONTINUOUS
 10
135.8998276741
 20
134.6570106883
 40
0.2501607737
100
AcDbArc
 50
63.4493112243
 51
99.4117127847
  0
ARC
  5
3C5
100
AcDbEntity
  8
0
100
AcDbCircle
 62
7
  6
CONTINUOUS
 10
148.2035156015
 20
128.5051828447
 40
0.2501596406
100
AcDbArc
 50
80.1178478781
 51
115.9579685268
  0
ARC
  5
3C6
100
AcDbEntity
  8
0
100
AcDbCircle
 62
7
  6
CONTINUOUS
 10
133.7847184173
 20
133.2459219028
 40
0.2500256747
100
AcDbArc
 50
184.1988491295
 51
243.4316038441
  0
ARC
  5
3C7
100
AcDbEntity
  8
0
100
AcDbCircle
 62
7
  6
CONTINUOUS
 10
149.8943600758
 20
127.6599042588
 40
0.2500178625
100
AcDbArc
 50
0.0078515286
 51
63.4316275385
  0
ARC
  5
3C8
100
AcDbEntity
  8
0
100
AcDbCircle
 62
7
  6
CONTINUOUS
 10
137.5907020831
 20
133.8117332552
 40
0.2500178625
100
AcDbArc
 50
0.0078515286
 51
63.4316275385
  0
ARC
  5
3C9
100
AcDbEntity
  8
0
100
AcDbCircle
 62
7
  6
CONTINUOUS
 10
133.7847125201
 20
133.585871989
 40
0.2500151037
100
AcDbArc
 50
117.1617076756
 51
179.9944821188
  0
ARC
  5
3CA
100
AcDbEntity
  8
0
100
AcDbCircle
 62
7
  6
CONTINUOUS
 10
133.7836276414
 20
133.2456803342
 40
0.2489201914
100
AcDbArc
 50
179.904686793
 51
184.1617777751
  0
ARC
  5
3CB
100
AcDbEntity
  8
0
100
AcDbCircle
 62
7
  6
CONTINUOUS
 10
144.6606688878
 20
134.6765861466
 40
0.203902962
100
AcDbArc
 50
103.9050632252
 51
110.403273407
  0
ARC
  5
3CC
100
AcDbEntity
  8
RACCORDO
100
AcDbCircle
 62
7
  6
CONTINUOUS
 10
145.9513466686
 20
131.8569818884
 40
0.200706502
100
AcDbArc
 50
63.4538375193
 51
77.4355559117
  0
ARC
  5
3CD
100
AcDbEntity
  8
0
100
AcDbCircle
 62
7
  6
CONTINUOUS
 10
143.0050613325
 20
129.974665404
 40
0.2000264278
100
AcDbArc
 50
117.3009020161
 51
179.9954553106
  0
ARC
  5
3CE
100
AcDbEntity
  8
0
100
AcDbCircle
 62
250
  6
CONTINUOUS
 10
143.0806404566
 20
129.9968888554
 40
0.168868535
100
AcDbArc
 50
116.9100126539
 51
119.7528174079
  0
ARC
  5
3CF
100
AcDbEntity
  8
0
100
AcDbCircle
 62
7
  6
CONTINUOUS
 10
145.3534825374
 20
134.4296898194
 40
0.1504616973
100
AcDbArc
 50
98.1115753477
 51
100.4405370913
  0
ARC
  5
3D0
100
AcDbEntity
  8
0
100
AcDbCircle
 62
250
  6
CONTINUOUS
 10
135.9695018144
 20
134.7964552917
 40
0.0942783586
100
AcDbArc
 50
63.4468793617
 51
70.0270077917
  0
ARC
  5
3D1
100
AcDbEntity
  8
0
100
AcDbCircle
 62
250
  6
CONTINUOUS
 10
148.1351928572
 20
128.6455369549
 40
0.0940592748
100
AcDbArc
 50
109.4786603836
 51
115.9607725688
  0
ARC
  5
3D2
100
AcDbEntity
  8
RACCORDO
100
AcDbCircle
 62
7
  6
CONTINUOUS
 10
160.3159949328
 20
130.6020331645
 40
0.0776367623
100
AcDbArc
 50
63.5314456202
 51
73.1139843021
  0
ARC
  5
3D3
100
AcDbEntity
  8
RACCORDO
100
AcDbCircle
 62
7
  6
CONTINUOUS
 10
161.1264283571
 20
130.1923566102
 40
0.0759917442
100
AcDbArc
 50
55.9851762193
 51
62.7845765146
  0
ARC
  5
3D4
100
AcDbEntity
  8
RACCORDO
100
AcDbCircle
 62
250
  6
CONTINUOUS
 10
146.0074161638
 20
131.969313302
 40
0.0751591924
100
AcDbArc
 50
63.4291495123
 51
66.3264811757
  0
ARC
  5
3D5
100
AcDbEntity
  8
RACCORDO
100
AcDbCircle
 62
7
  6
CONTINUOUS
 10
145.0651446773
 20
131.9241377463
 40
0.0685893154
100
AcDbArc
 50
112.3300883057
 51
115.2604856626
  0
ARC
  5
3D6
100
AcDbEntity
  8
RACCORDO
100
AcDbCircle
 62
7
  6
CONTINUOUS
 10
144.9249114563
 20
131.8634433073
 40
0.0635823074
100
AcDbArc
 50
115.4495520974
 51
131.3833850804
  0
ARC
  5
3D7
100
AcDbEntity
  8
0
100
AcDbCircle
 62
250
  6
CONTINUOUS
 10
133.5973467043
 20
133.2459075844
 40
0.0626525666
100
AcDbArc
 50
180.0019366037
 51
183.6026147343
  0
ARC
  5
3D8
100
AcDbEntity
  8
RACCORDO
100
AcDbCircle
 62
250
  6
CONTINUOUS
 10
705.600425243
 20
86.1712002827
 40
577.8813958196
100
AcDbArc
 50
176.7682447934
 51
178.4338134216
  0
ARC
  5
3D9
100
AcDbEntity
  8
RACCORDO
100
AcDbCircle
 62
250
  6
CONTINUOUS
 10
702.5258593837
 20
79.4868581608
 40
559.452669665
100
AcDbArc
 50
176.7309432101
 51
176.8619799957
  0
ARC
  5
3DA
100
AcDbEntity
  8
RACCORDO
100
AcDbCircle
 62
250
  6
CONTINUOUS
 10
701.5450803945
 20
79.537981297
 40
559.1682934239
100
AcDbArc
 50
176.7309037339
 51
177.0432597537
  0
ARC
  5
3DB
100
AcDbEntity
  8
RACCORDO
100
AcDbCircle
 62
250
  6
CONTINUOUS
 10
699.7009311877
 20
79.6404675582
 40
556.6235679754
100
AcDbArc
 50
176.8853221225
 51
177.1824616126
  0
ARC
  5
3DC
100
AcDbEntity
  8
RACCORDO
100
AcDbCircle
 62
250
  6
CONTINUOUS
 10
698.2582536335
 20
79.7102545034
 40
555.876956019
100
AcDbArc
 50
177.043517738
 51
177.1722459045
  0
ARC
  5
3DD
100
AcDbEntity
  8
RACCORDO
100
AcDbCircle
 62
250
  6
CONTINUOUS
 10
693.2171100722
 20
79.9509354463
 40
550.8300678147
100
AcDbArc
 50
177.2705001521
 51
177.7869123581
  0
ARC
  5
3DE
100
AcDbEntity
  8
RACCORDO
100
AcDbCircle
 62
250
  6
CONTINUOUS
 10
690.2147694365
 20
80.0937057357
 40
547.1265947072
100
AcDbArc
 50
177.1810366922
 51
178.4783112043
  0
ARC
  5
3DF
100
AcDbEntity
  8
RACCORDO
100
AcDbCircle
 62
250
  6
CONTINUOUS
 10
684.7091321385
 20
80.2777826104
 40
542.3158042443
100
AcDbArc
 50
177.8763625017
 51
178.482307969
  0
LINE
  5
3E0
100
AcDbEntity
  8
RACCORDO
100
AcDbLine
 62
7
  6
CONTINUOUS
 10
161.199126286
 20
130.2472679038
 11
161.3119164612
 21
130.1908061078
  0
SPLINE
  5
3E1
100
AcDbEntity
  8
RACCORDO
100
AcDbSpline
 62
7
  6
CONTINUOUS
 70
0
 71
3
 72
11
 73
7
 74
0
 42
0.0000001
 43
0.0000001
 44
0.0000000001
 40
0.0
 40
0.0
 40
0.0
 40
0.0
 40
0.2790622737
 40
0.5354121262
 40
0.7731144998
 40
1.0
 40
1.0
 40
1.0
 40
1.0
 10
161.105460791
 20
130.2409574474
 30
0.0
 10
161.1135427886
 20
130.2449984462
 30
0.0
 10
161.1297052391
 20
130.2515544687
 30
0.0
 10
161.1544694329
 20
130.2563366101
 30
0.0
 10
161.1780306028
 20
130.2553026113
 30
0.0
 10
161.192552586
 20
130.2505477279
 30
0.0
 10
161.199126286
 20
130.2472679038
 30
0.0
  0
SPLINE
  5
3E2
100
AcDbEntity
  8
RACCORDO
100
AcDbSpline
 62
7
  6
CONTINUOUS
 70
0
 71
3
 72
15
 73
11
 74
0
 42
0.0000001
 43
0.0000001
 44
0.0000000001
 40
0.0
 40
0.0
 40
0.0
 40
0.0
 40
0.1239431405
 40
0.2528690727
 40
0.3845266169
 40
0.5164261195
 40
0.6460736386
 40
0.7711313758
 40
0.8895882584
 40
1.0
 40
1.0
 40
1.0
 40
1.0
 10
160.2664566062
 20
130.6974640552
 30
0.0
 10
160.1402192602
 20
130.7331074974
 30
0.0
 10
159.8788018027
 20
130.7926077268
 30
0.0
 10
159.475004297
 20
130.8469050591
 30
0.0
 10
159.0596445839
 20
130.8673855966
 30
0.0
 10
158.6432596864
 20
130.8535487999
 30
0.0
 10
158.2364063602
 20
130.8057313806
 30
0.0
 10
157.849232453
 20
130.7249565861
 30
0.0
 10
157.4911712873
 20
130.6129069009
 30
0.0
 10
157.2688807064
 20
130.5148439136
 30
0.0
 10
157.165518891
 20
130.4603391846
 30
0.0
  0
SPLINE
  5
3E3
100
AcDbEntity
  8
RACCORDO
100
AcDbSpline
 62
250
  6
CONTINUOUS
 70
0
 71
3
 72
10
 73
6
 74
0
 42
0.0000001
 43
0.0000001
 44
0.0000000001
 40
0.0
 40
0.0
 40
0.0
 40
0.0
 40
0.4657640826
 40
0.724337405
 40
1.0
 40
1.0
 40
1.0
 40
1.0
 10
156.6489343148
 20
130.0577683594
 30
0.0
 10
156.7129738718
 20
130.1374518162
 30
0.0
 10
156.8302111161
 20
130.2475601052
 30
0.0
 10
157.0101158874
 20
130.373388491
 30
0.0
 10
157.1118765662
 20
130.4320465807
 30
0.0
 10
157.1653937091
 20
130.4602705651
 30
0.0
  0
SPLINE
  5
3E4
100
AcDbEntity
  8
RACCORDO
100
AcDbSpline
 62
250
  6
CONTINUOUS
 70
0
 71
3
 72
9
 73
5
 74
0
 42
0.0000001
 43
0.0000001
 44
0.0000000001
 40
0.0
 40
0.0
 40
0.0
 40
0.0
 40
0.2553269455
 40
1.0
 40
1.0
 40
1.0
 40
1.0
 10
161.1054896869
 20
130.2409718953
 30
0.0
 10
161.1132169199
 20
130.2344596886
 30
0.0
 10
161.14320546
 20
130.2086299363
 30
0.0
 10
161.172078791
 20
130.1814994206
 30
0.0
 10
161.1928230601
 20
130.1605632215
 30
0.0
  0
LINE
  5
3E5
100
AcDbEntity
  8
RACCORDO
100
AcDbLine
 62
250
  6
CONTINUOUS
 10
161.1928230601
 20
130.1605632215
 11
161.1952725397
 21
130.1580840362
  0
SPLINE
  5
3E6
100
AcDbEntity
  8
RACCORDO
100
AcDbSpline
 62
250
  6
CONTINUOUS
 70
0
 71
3
 72
17
 73
13
 74
0
 42
0.0000001
 43
0.0000001
 44
0.0000000001
 40
0.0
 40
0.0
 40
0.0
 40
0.0
 40
0.0890902331
 40
0.1394982394
 40
0.1938210985
 40
0.2518917037
 40
0.3134075848
 40
0.4449787119
 40
0.5844323548
 40
0.7268367702
 40
0.8670152835
 40
1.0
 40
1.0
 40
1.0
 40
1.0
 10
156.7304414439
 20
130.024132719
 30
0.0
 10
156.7945827972
 20
130.115418485
 30
0.0
 10
156.9206516861
 20
130.2407131013
 30
0.0
 10
157.1193283673
 20
130.3802431822
 30
0.0
 10
157.2975434619
 20
130.4800833879
 30
0.0
 10
157.4964072525
 20
130.5694232397
 30
0.0
 10
157.7927472081
 20
130.6756186488
 30
0.0
 10
158.198783405
 20
130.7737938911
 30
0.0
 10
158.7139233085
 20
130.8351145875
 30
0.0
 10
159.2435096441
 20
130.8395122616
 30
0.0
 10
159.7622513335
 20
130.78682708
 30
0.0
 10
160.0972999285
 20
130.7125966078
 30
0.0
 10
160.2569589791
 20
130.6652346789
 30
0.0
  0
SPLINE
  5
3E7
100
AcDbEntity
  8
RACCORDO
100
AcDbSpline
 62
7
  6
CONTINUOUS
 70
0
 71
3
 72
9
 73
5
 74
0
 42
0.0000001
 43
0.0000001
 44
0.0000000001
 40
0.0
 40
0.0
 40
0.0
 40
0.0
 40
0.4665212439
 40
1.0
 40
1.0
 40
1.0
 40
1.0
 10
160.3385459786
 20
130.6763225796
 30
0.0
 10
160.3260685195
 20
130.6801174916
 30
0.0
 10
160.2971090886
 20
130.6814012212
 30
0.0
 10
160.270271798
 20
130.6718910883
 30
0.0
 10
160.2569326535
 20
130.6652215161
 30
0.0
  0
SPLINE
  5
3E8
100
AcDbEntity
  8
SUPERFICI
100
AcDbSpline
 62
7
  6
CONTINUOUS
 70
0
 71
3
 72
10
 73
6
 74
0
 42
0.0000001
 43
0.0000001
 44
0.0000000001
 40
0.0
 40
0.0
 40
0.0
 40
0.0
 40
0.456745556
 40
0.7200712973
 40
1.0
 40
1.0
 40
1.0
 40
1.0
 10
132.6792400835
 20
97.3932775883
 30
0.0
 10
132.6226690563
 20
97.2713754636
 30
0.0
 10
132.5887195004
 20
97.0534694196
 30
0.0
 10
132.6157506705
 20
96.760585515
 30
0.0
 10
132.6541899395
 20
96.6045256414
 30
0.0
 10
132.6792388062
 20
96.526063128
 30
0.0
  0
SPLINE
  5
3E9
100
AcDbEntity
  8
SUPERFICI
100
AcDbSpline
 62
7
  6
CONTINUOUS
 70
0
 71
3
 72
10
 73
6
 74
0
 42
0.0000001
 43
0.0000001
 44
0.0000000001
 40
0.0
 40
0.0
 40
0.0
 40
0.0
 40
0.4567455472
 40
0.7200712918
 40
1.0
 40
1.0
 40
1.0
 40
1.0
 10
134.6944945103
 20
96.385650375
 30
0.0
 10
134.6379234705
 20
96.2637482578
 30
0.0
 10
134.6039739084
 20
96.0458422105
 30
0.0
 10
134.6310050843
 20
95.7529583046
 30
0.0
 10
134.6694443612
 20
95.5968984287
 30
0.0
 10
134.694493233
 20
95.5184359146
 30
0.0
  0
SPLINE
  5
3EA
100
AcDbEntity
  8
SUPERFICI
100
AcDbSpline
 62
7
  6
CONTINUOUS
 70
0
 71
3
 72
10
 73
6
 74
0
 42
0.0000001
 43
0.0000001
 44
0.0000000001
 40
0.0
 40
0.0
 40
0.0
 40
0.0
 40
0.456745556
 40
0.7200712973
 40
1.0
 40
1.0
 40
1.0
 40
1.0
 10
136.8865254584
 20
95.2896349009
 30
0.0
 10
136.8299544312
 20
95.1677327762
 30
0.0
 10
136.7960048753
 20
94.9498267322
 30
0.0
 10
136.8230360454
 20
94.6569428275
 30
0.0
 10
136.8614753145
 20
94.5008829539
 30
0.0
 10
136.8865241812
 20
94.4224204405
 30
0.0
  0
SPLINE
  5
3EB
100
AcDbEntity
  8
SUPERFICI
100
AcDbSpline
 62
7
  6
CONTINUOUS
 70
0
 71
3
 72
10
 73
6
 74
0
 42
0.0000001
 43
0.0000001
 44
0.0000000001
 40
0.0
 40
0.0
 40
0.0
 40
0.0
 40
0.4600941289
 40
0.7222695172
 40
1.0
 40
1.0
 40
1.0
 40
1.0
 10
135.7696650514
 20
95.0223602406
 30
0.0
 10
135.8142822557
 20
95.1357699029
 30
0.0
 10
135.8410656279
 20
95.3310905763
 30
0.0
 10
135.8198989604
 20
95.5951049663
 30
0.0
 10
135.7895108265
 20
95.7354811683
 30
0.0
 10
135.7696396678
 20
95.8063123854
 30
0.0
  0
SPLINE
  5
3EC
100
AcDbEntity
  8
SUPERFICI
100
AcDbSpline
 62
7
  6
CONTINUOUS
 70
0
 71
3
 72
10
 73
6
 74
0
 42
0.0000001
 43
0.0000001
 44
0.0000000001
 40
0.0
 40
0.0
 40
0.0
 40
0.0
 40
0.460094121
 40
0.7222695122
 40
1.0
 40
1.0
 40
1.0
 40
1.0
 10
133.5776339267
 20
96.1183758022
 30
0.0
 10
133.6222511413
 20
96.2317854592
 30
0.0
 10
133.6490345185
 20
96.427106135
 30
0.0
 10
133.6278678464
 20
96.6911205264
 30
0.0
 10
133.597479706
 20
96.8314967306
 30
0.0
 10
133.5776085432
 20
96.9023279485
 30
0.0
  0
SPLINE
  5
3ED
100
AcDbEntity
  8
SUPERFICI
100
AcDbSpline
 62
7
  6
CONTINUOUS
 70
0
 71
3
 72
10
 73
6
 74
0
 42
0.0000001
 43
0.0000001
 44
0.0000000001
 40
0.0
 40
0.0
 40
0.0
 40
0.0
 40
0.460094121
 40
0.7222695122
 40
1.0
 40
1.0
 40
1.0
 40
1.0
 10
137.7849193017
 20
94.0147331147
 30
0.0
 10
137.8295365162
 20
94.1281427717
 30
0.0
 10
137.8563198934
 20
94.3234634476
 30
0.0
 10
137.8351532213
 20
94.587477839
 30
0.0
 10
137.8047650809
 20
94.7278540432
 30
0.0
 10
137.7848939181
 20
94.798685261
 30
0.0
  0
SPLINE
  5
3EE
100
AcDbEntity
  8
0
100
AcDbSpline
 62
7
  6
CONTINUOUS
 70
0
 71
3
 72
9
 73
5
 74
0
 42
0.0000001
 43
0.0000001
 44
0.0000000001
 40
0.0
 40
0.0
 40
0.0
 40
0.0
 40
0.2505368002
 40
1.0
 40
1.0
 40
1.0
 40
1.0
 10
151.6532032281
 20
91.2510776057
 30
0.0
 10
151.5889733442
 20
91.2203377674
 30
0.0
 10
151.3324841063
 20
91.0978951099
 30
0.0
 10
151.0754991769
 20
90.9764750149
 30
0.0
 10
150.8821736789
 20
90.8870399427
 30
0.0
  0
SPLINE
  5
3EF
100
AcDbEntity
  8
0
100
AcDbSpline
 62
7
  6
CONTINUOUS
 70
0
 71
3
 72
9
 73
5
 74
0
 42
0.0000001
 43
0.0000001
 44
0.0000000001
 40
0.0
 40
0.0
 40
0.0
 40
0.0
 40
0.2506278887
 40
1.0
 40
1.0
 40
1.0
 40
1.0
 10
150.8821736789
 20
91.6979808031
 30
0.0
 10
150.9463289974
 20
91.7335865841
 30
0.0
 10
151.2027006436
 20
91.8749442552
 30
0.0
 10
151.460085528
 20
92.014454885
 30
0.0
 10
151.6532032281
 20
92.1185485095
 30
0.0
  0
SPLINE
  5
3F0
100
AcDbEntity
  8
0
100
AcDbSpline
 62
7
  6
CONTINUOUS
 70
0
 71
3
 72
9
 73
5
 74
0
 42
0.0000001
 43
0.0000001
 44
0.0000000001
 40
0.0
 40
0.0
 40
0.0
 40
0.0
 40
0.2506278887
 40
1.0
 40
1.0
 40
1.0
 40
1.0
 10
150.8821736789
 20
121.662459774
 30
0.0
 10
150.9463289974
 20
121.6980655551
 30
0.0
 10
151.2027006436
 20
121.8394232262
 30
0.0
 10
151.460085528
 20
121.978933856
 30
0.0
 10
151.6532032281
 20
122.0830274805
 30
0.0
  0
SPLINE
  5
3F1
100
AcDbEntity
  8
DRAFT
100
AcDbSpline
 62
7
  6
CONTINUOUS
 70
0
 71
3
 72
10
 73
6
 74
0
 42
0.0000001
 43
0.0000001
 44
0.0000000001
 40
0.0
 40
0.0
 40
0.0
 40
0.0
 40
0.2805355076
 40
0.5443126416
 40
1.0
 40
1.0
 40
1.0
 40
1.0
 10
137.7704089714
 20
94.8476931444
 30
0.0
 10
137.794867517
 20
94.7689321741
 30
0.0
 10
137.8323247093
 20
94.6124844052
 30
0.0
 10
137.8585412492
 20
94.3198451142
 30
0.0
 10
137.8259011181
 20
94.1024061854
 30
0.0
 10
137.7704076777
 20
93.9804786923
 30
0.0
  0
SPLINE
  5
3F2
100
AcDbEntity
  8
DRAFT
100
AcDbSpline
 62
7
  6
CONTINUOUS
 70
0
 71
3
 72
10
 73
6
 74
0
 42
0.0000001
 43
0.0000001
 44
0.0000000001
 40
0.0
 40
0.0
 40
0.0
 40
0.0
 40
0.2805355022
 40
0.5443126328
 40
1.0
 40
1.0
 40
1.0
 40
1.0
 10
135.7551547242
 20
95.855320268
 30
0.0
 10
135.7796132647
 20
95.7765592984
 30
0.0
 10
135.8170704492
 20
95.6201115319
 30
0.0
 10
135.8432869833
 20
95.327472242
 30
0.0
 10
135.8106468583
 20
95.1100333165
 30
0.0
 10
135.7551534305
 20
94.9881058158
 30
0.0
  0
SPLINE
  5
3F3
100
AcDbEntity
  8
DRAFT
100
AcDbSpline
 62
7
  6
CONTINUOUS
 70
0
 71
3
 72
10
 73
6
 74
0
 42
0.0000001
 43
0.0000001
 44
0.0000000001
 40
0.0
 40
0.0
 40
0.0
 40
0.0
 40
0.2805355076
 40
0.5443126416
 40
1.0
 40
1.0
 40
1.0
 40
1.0
 10
133.5631235965
 20
96.9513358318
 30
0.0
 10
133.587582142
 20
96.8725748616
 30
0.0
 10
133.6250393344
 20
96.7161270927
 30
0.0
 10
133.6512558743
 20
96.4234878016
 30
0.0
 10
133.6186157432
 20
96.2060488728
 30
0.0
 10
133.5631223028
 20
96.0841213797
 30
0.0
  0
SPLINE
  5
3F4
100
AcDbEntity
  8
RACCORDO
100
AcDbSpline
 62
250
  6
CONTINUOUS
 70
0
 71
3
 72
9
 73
5
 74
0
 42
0.0000001
 43
0.0000001
 44
0.0000000001
 40
0.0
 40
0.0
 40
0.0
 40
0.0
 40
0.245812381
 40
1.0
 40
1.0
 40
1.0
 40
1.0
 10
128.6380499712
 20
118.7491860278
 30
0.0
 10
128.6871373819
 20
119.6209868074
 30
0.0
 10
128.9303611547
 20
123.165058729
 30
0.0
 10
129.3440601402
 20
126.6970533118
 30
0.0
 10
129.7430404696
 20
129.3462238328
 30
0.0
  0
SPLINE
  5
3F5
100
AcDbEntity
  8
RACCORDO
100
AcDbSpline
 62
250
  6
CONTINUOUS
 70
0
 71
3
 72
11
 73
7
 74
0
 42
0.0000001
 43
0.0000001
 44
0.0000000001
 40
0.0
 40
0.0
 40
0.0
 40
0.0
 40
0.2021978518
 40
0.4282231577
 40
0.6929926379
 40
1.0
 40
1.0
 40
1.0
 40
1.0
 10
127.7884783574
 20
102.1415605611
 30
0.0
 10
127.7880416748
 20
102.1253699263
 30
0.0
 10
127.7947618348
 20
102.0905957806
 30
0.0
 10
127.8252537776
 20
102.0431006966
 30
0.0
 10
127.8732936017
 20
102.0001523628
 30
0.0
 10
127.9129246329
 20
101.976694998
 30
0.0
 10
127.9349148901
 20
101.965686112
 30
0.0
  0
SPLINE
  5
3F6
100
AcDbEntity
  8
RACCORDO
100
AcDbSpline
 62
250
  6
CONTINUOUS
 70
0
 71
3
 72
11
 73
7
 74
0
 42
0.0000001
 43
0.0000001
 44
0.0000000001
 40
0.0
 40
0.0
 40
0.0
 40
0.0
 40
0.1967110715
 40
0.4204415117
 40
0.6871782626
 40
1.0
 40
1.0
 40
1.0
 40
1.0
 10
128.491513616
 20
118.9227447438
 30
0.0
 10
128.490640767
 20
118.9071054978
 30
0.0
 10
128.4968506438
 20
118.8729538049
 30
0.0
 10
128.527324525
 20
118.8263491682
 30
0.0
 10
128.5757512999
 20
118.7837843091
 30
0.0
 10
128.6157648258
 20
118.7603142888
 30
0.0
 10
128.6380499967
 20
118.7491860383
 30
0.0
  0
SPLINE
  5
3F7
100
AcDbEntity
  8
RACCORDO
100
AcDbSpline
 62
250
  6
CONTINUOUS
 70
0
 71
3
 72
9
 73
5
 74
0
 42
0.0000001
 43
0.0000001
 44
0.0000000001
 40
0.0
 40
0.0
 40
0.0
 40
0.0
 40
0.2446793626
 40
1.0
 40
1.0
 40
1.0
 40
1.0
 10
128.1780206388
 20
91.989944955
 30
0.0
 10
128.1137559552
 20
92.8014835534
 30
0.0
 10
127.8981592192
 20
96.1218571659
 30
0.0
 10
127.8663713128
 20
99.4535739009
 30
0.0
 10
127.9349148896
 20
101.9656861117
 30
0.0
  0
SPLINE
  5
3F8
100
AcDbEntity
  8
RACCORDO
100
AcDbSpline
 62
250
  6
CONTINUOUS
 70
0
 71
3
 72
11
 73
7
 74
0
 42
0.0000001
 43
0.0000001
 44
0.0000000001
 40
0.0
 40
0.0
 40
0.0
 40
0.0
 40
0.1741988669
 40
0.3894867726
 40
0.664626894
 40
1.0
 40
1.0
 40
1.0
 40
1.0
 10
129.5950408638
 20
129.5072044748
 30
0.0
 10
129.5930835849
 20
129.4939691627
 30
0.0
 10
129.5985223451
 20
129.4628222791
 30
0.0
 10
129.6294669518
 20
129.421017869
 30
0.0
 10
129.6789774906
 20
129.3808103147
 30
0.0
 10
129.7199682875
 20
129.357646845
 30
0.0
 10
129.7430570785
 20
129.3462279833
 30
0.0
  0
SPLINE
  5
3F9
100
AcDbEntity
  8
RACCORDO
100
AcDbSpline
 62
250
  6
CONTINUOUS
 70
0
 71
3
 72
10
 73
6
 74
0
 42
0.0000001
 43
0.0000001
 44
0.0000000001
 40
0.0
 40
0.0
 40
0.0
 40
0.0
 40
0.230493605
 40
0.470176855
 40
1.0
 40
1.0
 40
1.0
 40
1.0
 10
130.2148335738
 20
130.4097436902
 30
0.0
 10
130.2312201114
 20
130.4178451961
 30
0.0
 10
130.2670809994
 20
130.4298555621
 30
0.0
 10
130.3468961991
 20
130.4350277959
 30
0.0
 10
130.4075159377
 20
130.4169633127
 30
0.0
 10
130.4454660036
 20
130.3989249945
 30
0.0
  0
SPLINE
  5
3FA
100
AcDbEntity
  8
DRAFT
100
AcDbSpline
 62
7
  6
CONTINUOUS
 70
0
 71
3
 72
9
 73
5
 74
0
 42
0.0000001
 43
0.0000001
 44
0.0000000001
 40
0.0
 40
0.0
 40
0.0
 40
0.0
 40
0.5383471489
 40
1.0
 40
1.0
 40
1.0
 40
1.0
 10
136.8716935043
 20
94.4712226467
 30
0.0
 10
136.832188803
 20
94.6081572164
 30
0.0
 10
136.7878272926
 20
94.872210627
 30
0.0
 10
136.8261087151
 20
95.1417973603
 30
0.0
 10
136.8716485364
 20
95.2552114171
 30
0.0
  0
SPLINE
  5
3FB
100
AcDbEntity
  8
RACCORDO
100
AcDbSpline
 62
250
  6
CONTINUOUS
 70
0
 71
3
 72
11
 73
7
 74
0
 42
0.0000001
 43
0.0000001
 44
0.0000000001
 40
0.0
 40
0.0
 40
0.0
 40
0.0
 40
0.2263938233
 40
0.4796111184
 40
0.7438054544
 40
1.0
 40
1.0
 40
1.0
 40
1.0
 10
145.4829824738
 20
122.4293984516
 30
0.0
 10
145.4376646626
 20
122.4092974783
 30
0.0
 10
145.349345967
 20
122.3490599705
 30
0.0
 10
145.2413929345
 20
122.2253791037
 30
0.0
 10
145.1594545654
 20
122.0756936941
 30
0.0
 10
145.1271081217
 20
121.9651543299
 30
0.0
 10
145.1183997892
 20
121.9097328295
 30
0.0
  0
SPLINE
  5
3FC
100
AcDbEntity
  8
RACCORDO
100
AcDbSpline
 62
250
  6
CONTINUOUS
 70
0
 71
3
 72
11
 73
7
 74
0
 42
0.0000001
 43
0.0000001
 44
0.0000000001
 40
0.0
 40
0.0
 40
0.0
 40
0.0
 40
0.2254965726
 40
0.4785900701
 40
0.7431975274
 40
1.0
 40
1.0
 40
1.0
 40
1.0
 10
145.1480474512
 20
123.0476342707
 30
0.0
 10
145.0583402223
 20
123.0067670764
 30
0.0
 10
144.8837367771
 20
122.8848403541
 30
0.0
 10
144.6707079472
 20
122.6362318905
 30
0.0
 10
144.5089595855
 20
122.3360357318
 30
0.0
 10
144.4450419484
 20
122.1147767646
 30
0.0
 10
144.4277953604
 20
122.0038463874
 30
0.0
  0
SPLINE
  5
3FD
100
AcDbEntity
  8
RACCORDO
100
AcDbSpline
 62
250
  6
CONTINUOUS
 70
0
 71
3
 72
11
 73
7
 74
0
 42
0.0000001
 43
0.0000001
 44
0.0000000001
 40
0.0
 40
0.0
 40
0.0
 40
0.0
 40
0.2493593587
 40
0.5152754607
 40
0.7728350622
 40
1.0
 40
1.0
 40
1.0
 40
1.0
 10
145.4829824738
 20
122.4293984516
 30
0.0
 10
145.484236557
 20
122.4902479176
 30
0.0
 10
145.4665352864
 20
122.6166374221
 30
0.0
 10
145.396102767
 20
122.7933228382
 30
0.0
 10
145.2903357955
 20
122.9448548419
 30
0.0
 10
145.1971181922
 20
123.0218226035
 30
0.0
 10
145.1480474545
 20
123.0476342722
 30
0.0
  0
SPLINE
  5
3FE
100
AcDbEntity
  8
RACCORDO
100
AcDbSpline
 62
250
  6
CONTINUOUS
 70
0
 71
3
 72
11
 73
7
 74
0
 42
0.0000001
 43
0.0000001
 44
0.0000000001
 40
0.0
 40
0.0
 40
0.0
 40
0.0
 40
0.2205911622
 40
0.4560723653
 40
0.7148121531
 40
1.0
 40
1.0
 40
1.0
 40
1.0
 10
128.4129103474
 20
91.5424322282
 30
0.0
 10
128.3794309271
 20
91.5615752128
 30
0.0
 10
128.3163058917
 20
91.6126649175
 30
0.0
 10
128.2450664658
 20
91.7170593288
 30
0.0
 10
128.197157203
 20
91.8457697477
 30
0.0
 10
128.1820398084
 20
91.9402479429
 30
0.0
 10
128.1780206388
 20
91.989944955
 30
0.0
  0
SPLINE
  5
3FF
100
AcDbEntity
  8
RACCORDO
100
AcDbSpline
 62
250
  6
CONTINUOUS
 70
0
 71
3
 72
9
 73
5
 74
0
 42
0.0000001
 43
0.0000001
 44
0.0000000001
 40
0.0
 40
0.0
 40
0.0
 40
0.0
 40
0.2539798382
 40
1.0
 40
1.0
 40
1.0
 40
1.0
 10
145.1183997892
 20
121.9097328295
 30
0.0
 10
144.9794071437
 20
121.0245730859
 30
0.0
 10
144.473225109
 20
117.5331431301
 30
0.0
 10
144.1336347227
 20
114.0171385607
 30
0.0
 10
143.9835539836
 20
111.3895645285
 30
0.0
  0
SPLINE
  5
400
100
AcDbEntity
  8
RACCORDO
100
AcDbSpline
 62
250
  6
CONTINUOUS
 70
0
 71
3
 72
9
 73
5
 74
0
 42
0.0000001
 43
0.0000001
 44
0.0000000001
 40
0.0
 40
0.0
 40
0.0
 40
0.0
 40
0.2539802425
 40
1.0
 40
1.0
 40
1.0
 40
1.0
 10
144.4277953604
 20
122.0038463874
 30
0.0
 10
144.2880409432
 20
121.113734548
 30
0.0
 10
143.7790844198
 20
117.6027787041
 30
0.0
 10
143.437623634
 20
114.0671175159
 30
0.0
 10
143.2867104564
 20
111.4248557852
 30
0.0
  0
SPLINE
  5
401
100
AcDbEntity
  8
RACCORDO
100
AcDbSpline
 62
250
  6
CONTINUOUS
 70
0
 71
3
 72
11
 73
7
 74
0
 42
0.0000001
 43
0.0000001
 44
0.0000000001
 40
0.0
 40
0.0
 40
0.0
 40
0.0
 40
0.2265454093
 40
0.4907102914
 40
0.7597874291
 40
1.0
 40
1.0
 40
1.0
 40
1.0
 10
145.1183997892
 20
121.9097328295
 30
0.0
 10
145.0663552027
 20
121.8977293463
 30
0.0
 10
144.9501095283
 20
121.8875279493
 30
0.0
 10
144.7709343497
 20
121.8997310185
 30
0.0
 10
144.5918703866
 20
121.9368064813
 30
0.0
 10
144.4783390064
 20
121.9782994162
 30
0.0
 10
144.4277953755
 20
122.0038463911
 30
0.0
  0
LINE
  5
402
100
AcDbEntity
  8
RACCORDO
100
AcDbLine
 62
250
  6
CONTINUOUS
 10
143.9120525331
 20
110.1120829143
 11
143.8996165657
 21
109.8843940585
  0
LINE
  5
403
100
AcDbEntity
  8
RACCORDO
100
AcDbLine
 62
250
  6
CONTINUOUS
 10
143.0581571237
 20
107.1336581665
 11
143.0119650884
 21
106.1818721833
  0
LINE
  5
404
100
AcDbEntity
  8
RACCORDO
100
AcDbLine
 62
250
  6
CONTINUOUS
 10
142.7978944496
 20
101.2218235846
 11
142.7657951094
 21
100.373826573
  0
SPLINE
  5
405
100
AcDbEntity
  8
RACCORDO
100
AcDbSpline
 62
250
  6
CONTINUOUS
 70
0
 71
3
 72
11
 73
7
 74
0
 42
0.0000001
 43
0.0000001
 44
0.0000000001
 40
0.0
 40
0.0
 40
0.0
 40
0.0
 40
0.2333662153
 40
0.4978372532
 40
0.7634625093
 40
1.0
 40
1.0
 40
1.0
 40
1.0
 10
143.9835539836
 20
111.3895645285
 30
0.0
 10
143.9318530499
 20
111.3694477381
 30
0.0
 10
143.8150757469
 20
111.3433406638
 30
0.0
 10
143.6329151104
 20
111.3373580789
 30
0.0
 10
143.4515428351
 20
111.3618874165
 30
0.0
 10
143.33699174
 20
111.3996827979
 30
0.0
 10
143.2867104567
 20
111.4248557853
 30
0.0
  0
SPLINE
  5
406
100
AcDbEntity
  8
RACCORDO
100
AcDbSpline
 62
250
  6
CONTINUOUS
 70
0
 71
3
 72
9
 73
5
 74
0
 42
0.0000001
 43
0.0000001
 44
0.0000000001
 40
0.0
 40
0.0
 40
0.0
 40
0.0
 40
0.2550087863
 40
1.0
 40
1.0
 40
1.0
 40
1.0
 10
143.281122037
 20
94.6228481124
 30
0.0
 10
143.2587493593
 20
93.7777843421
 30
0.0
 10
143.2146809951
 20
90.462990652
 30
0.0
 10
143.3483975728
 20
87.1452083052
 30
0.0
 10
143.5588713422
 20
84.6845306681
 30
0.0
  0
LINE
  5
407
100
AcDbEntity
  8
RACCORDO
100
AcDbLine
 62
250
  6
CONTINUOUS
 10
142.5835753748
 20
94.6413558691
 11
142.5813496807
 21
94.5558658571
  0
SPLINE
  5
408
100
AcDbEntity
  8
RACCORDO
100
AcDbSpline
 62
250
  6
CONTINUOUS
 70
0
 71
3
 72
9
 73
5
 74
0
 42
0.0000001
 43
0.0000001
 44
0.0000000001
 40
0.0
 40
0.0
 40
0.0
 40
0.0
 40
0.254971399
 40
1.0
 40
1.0
 40
1.0
 40
1.0
 10
142.5813496807
 20
94.5558658571
 30
0.0
 10
142.5597906453
 20
93.7134518734
 30
0.0
 10
142.5184376511
 20
90.40861039
 30
0.0
 10
142.6529676151
 20
87.1009595299
 30
0.0
 10
142.8627755297
 20
84.6475675096
 30
0.0
  0
SPLINE
  5
409
100
AcDbEntity
  8
RACCORDO
100
AcDbSpline
 62
250
  6
CONTINUOUS
 70
0
 71
3
 72
11
 73
7
 74
0
 42
0.0000001
 43
0.0000001
 44
0.0000000001
 40
0.0
 40
0.0
 40
0.0
 40
0.0
 40
0.2354489931
 40
0.5000177843
 40
0.7645770572
 40
1.0
 40
1.0
 40
1.0
 40
1.0
 10
143.281122037
 20
94.6228481124
 30
0.0
 10
143.2296701545
 20
94.6004840015
 30
0.0
 10
143.1130877612
 20
94.5698701069
 30
0.0
 10
142.9303883514
 20
94.5586281895
 30
0.0
 10
142.7485483057
 20
94.5795411197
 30
0.0
 10
142.6337616664
 20
94.6162941343
 30
0.0
 10
142.5835753901
 20
94.6413558762
 30
0.0
  0
SPLINE
  5
40A
100
AcDbEntity
  8
RACCORDO
100
AcDbSpline
 62
250
  6
CONTINUOUS
 70
0
 71
3
 72
13
 73
9
 74
0
 42
0.0000001
 43
0.0000001
 44
0.0000000001
 40
0.0
 40
0.0
 40
0.0
 40
0.0
 40
0.2759522192
 40
0.3986575091
 40
0.5144364232
 40
0.6278683303
 40
0.7440952701
 40
1.0
 40
1.0
 40
1.0
 40
1.0
 10
143.5588713422
 20
84.6845306681
 30
0.0
 10
143.5626695803
 20
84.640254538
 30
0.0
 10
143.5775562573
 20
84.5756709306
 30
0.0
 10
143.6223090398
 20
84.5051229689
 30
0.0
 10
143.6642644433
 20
84.4659892623
 30
0.0
 10
143.7145400529
 20
84.4404692905
 30
0.0
 10
143.7921183947
 20
84.4253464969
 30
0.0
 10
143.8534323819
 20
84.4375840371
 30
0.0
 10
143.8919509823
 20
84.452233605
 30
0.0
  0
SPLINE
  5
40B
100
AcDbEntity
  8
RACCORDO
100
AcDbSpline
 62
250
  6
CONTINUOUS
 70
0
 71
3
 72
11
 73
7
 74
0
 42
0.0000001
 43
0.0000001
 44
0.0000000001
 40
0.0
 40
0.0
 40
0.0
 40
0.0
 40
0.283616008
 40
0.5411969682
 40
0.7768506127
 40
1.0
 40
1.0
 40
1.0
 40
1.0
 10
142.8627755297
 20
84.6475675096
 30
0.0
 10
142.8671392856
 20
84.5956629269
 30
0.0
 10
142.8837815585
 20
84.4969626239
 30
0.0
 10
142.9369612845
 20
84.3631922323
 30
0.0
 10
143.0161617948
 20
84.2560358741
 30
0.0
 10
143.085663725
 20
84.2055183615
 30
0.0
 10
143.1222804468
 20
84.1871120087
 30
0.0
  0
SPLINE
  5
40C
100
AcDbEntity
  8
RACCORDO
100
AcDbSpline
 62
250
  6
CONTINUOUS
 70
0
 71
3
 72
11
 73
7
 74
0
 42
0.0000001
 43
0.0000001
 44
0.0000000001
 40
0.0
 40
0.0
 40
0.0
 40
0.0
 40
0.2426694867
 40
0.5075709815
 40
0.7683791325
 40
1.0
 40
1.0
 40
1.0
 40
1.0
 10
143.5588713421
 20
84.6845306682
 30
0.0
 10
143.5087309039
 20
84.6549285072
 30
0.0
 10
143.3939539039
 20
84.6095708237
 30
0.0
 10
143.2106301482
 20
84.5807064156
 30
0.0
 10
143.0279298687
 20
84.5895341463
 30
0.0
 10
142.9125827022
 20
84.6228947717
 30
0.0
 10
142.8627877079
 20
84.6475750476
 30
0.0
  0
SPLINE
  5
40D
100
AcDbEntity
  8
DRAFT
100
AcDbSpline
 62
7
  6
CONTINUOUS
 70
0
 71
3
 72
9
 73
5
 74
0
 42
0.0000001
 43
0.0000001
 44
0.0000000001
 40
0.0
 40
0.0
 40
0.0
 40
0.0
 40
0.5383471566
 40
1.0
 40
1.0
 40
1.0
 40
1.0
 10
134.6796625531
 20
95.5672381215
 30
0.0
 10
134.640157844
 20
95.7041726922
 30
0.0
 10
134.595796324
 20
95.968226104
 30
0.0
 10
134.6340777538
 20
96.237812842
 30
0.0
 10
134.6796175851
 20
96.3512268934
 30
0.0
  0
SPLINE
  5
40E
100
AcDbEntity
  8
RACCORDO
100
AcDbSpline
 62
250
  6
CONTINUOUS
 70
0
 71
3
 72
11
 73
7
 74
0
 42
0.0000001
 43
0.0000001
 44
0.0000000001
 40
0.0
 40
0.0
 40
0.0
 40
0.0
 40
0.2891450844
 40
0.5494706422
 40
0.7828999235
 40
1.0
 40
1.0
 40
1.0
 40
1.0
 10
143.8919509823
 20
84.452233605
 30
0.0
 10
143.8898434357
 20
84.4186772062
 30
0.0
 10
143.8801206329
 20
84.3550160794
 30
0.0
 10
143.8463385757
 20
84.2694584264
 30
0.0
 10
143.7948232669
 20
84.2031034851
 30
0.0
 10
143.7491625699
 20
84.1746458339
 30
0.0
 10
143.7255704865
 20
84.1656613629
 30
0.0
  0
SPLINE
  5
40F
100
AcDbEntity
  8
DRAFT
100
AcDbSpline
 62
7
  6
CONTINUOUS
 70
0
 71
3
 72
9
 73
5
 74
0
 42
0.0000001
 43
0.0000001
 44
0.0000000001
 40
0.0
 40
0.0
 40
0.0
 40
0.0
 40
0.5383471489
 40
1.0
 40
1.0
 40
1.0
 40
1.0
 10
132.6644081294
 20
96.5748653341
 30
0.0
 10
132.6249034281
 20
96.7117999039
 30
0.0
 10
132.5805419177
 20
96.9758533145
 30
0.0
 10
132.6188233402
 20
97.2454400478
 30
0.0
 10
132.6643631614
 20
97.3588541045
 30
0.0
  0
SPLINE
  5
410
100
AcDbEntity
  8
RACCORDO
100
AcDbSpline
 62
250
  6
CONTINUOUS
 70
0
 71
3
 72
11
 73
7
 74
0
 42
0.0000001
 43
0.0000001
 44
0.0000000001
 40
0.0
 40
0.0
 40
0.0
 40
0.0
 40
0.2503349851
 40
0.5093935417
 40
0.7635577638
 40
1.0
 40
1.0
 40
1.0
 40
1.0
 10
129.7430404696
 20
129.3462238328
 30
0.0
 10
129.7570781681
 20
129.4384325976
 30
0.0
 10
129.8051147509
 20
129.62341541
 30
0.0
 10
129.9242260358
 20
129.8832514286
 30
0.0
 10
130.0832488102
 20
130.1145373294
 30
0.0
 10
130.21442059
 20
130.2441670797
 30
0.0
 10
130.2841279938
 20
130.298033555
 30
0.0
  0
SPLINE
  5
411
100
AcDbEntity
  8
RACCORDO
100
AcDbSpline
 62
250
  6
CONTINUOUS
 70
0
 71
3
 72
9
 73
5
 74
0
 42
0.0000001
 43
0.0000001
 44
0.0000000001
 40
0.0
 40
0.0
 40
0.0
 40
0.0
 40
0.260526842
 40
1.0
 40
1.0
 40
1.0
 40
1.0
 10
130.2841279938
 20
130.298033555
 30
0.0
 10
130.2972167748
 20
130.3081479253
 30
0.0
 10
130.3483507346
 20
130.3457802157
 30
0.0
 10
130.4031545572
 20
130.3785755212
 30
0.0
 10
130.4454660036
 20
130.3989249945
 30
0.0
  0
SPLINE
  5
412
100
AcDbEntity
  8
RACCORDO
100
AcDbSpline
 62
250
  6
CONTINUOUS
 70
0
 71
3
 72
11
 73
7
 74
0
 42
0.0000001
 43
0.0000001
 44
0.0000000001
 40
0.0
 40
0.0
 40
0.0
 40
0.0
 40
0.2177680629
 40
0.4508273288
 40
0.7102648651
 40
1.0
 40
1.0
 40
1.0
 40
1.0
 10
128.0315261175
 20
92.1679478726
 30
0.0
 10
128.0329246414
 20
92.1505623365
 30
0.0
 10
128.0420852595
 20
92.1148387639
 30
0.0
 10
128.0730619814
 20
92.0662321169
 30
0.0
 10
128.1194536385
 20
92.0233379876
 30
0.0
 10
128.1573010723
 20
92.0003951138
 30
0.0
 10
128.1780206643
 20
91.9899449708
 30
0.0
  0
SPLINE
  5
413
100
AcDbEntity
  8
RACCORDO
100
AcDbSpline
 62
7
  6
CONTINUOUS
 70
0
 71
3
 72
17
 73
13
 74
0
 42
0.0000001
 43
0.0000001
 44
0.0000000001
 40
0.0
 40
0.0
 40
0.0
 40
0.0
 40
0.1262301359
 40
0.2618454946
 40
0.4018038102
 40
0.5399049769
 40
0.6704345079
 40
0.7898137829
 40
0.8453327687
 40
0.8984593887
 40
0.9497487549
 40
1.0
 40
1.0
 40
1.0
 40
1.0
 10
166.3800122226
 20
129.1337904832
 30
0.0
 10
166.5853112528
 20
129.0038754936
 30
0.0
 10
166.9767379864
 20
128.6783880442
 30
0.0
 10
167.4634906228
 20
128.0722524411
 30
0.0
 10
167.8465665881
 20
127.3695761825
 30
0.0
 10
168.0987402272
 20
126.6201717788
 30
0.0
 10
168.2010456678
 20
125.8756519735
 30
0.0
 10
168.1485814242
 20
125.2827456923
 30
0.0
 10
168.0136184793
 20
124.8633506849
 30
0.0
 10
167.8706420827
 20
124.5888269659
 30
0.0
 10
167.6843423213
 20
124.3541913409
 30
0.0
 10
167.5317722883
 20
124.2290904757
 30
0.0
 10
167.4505614679
 20
124.1765640028
 30
0.0
  0
SPLINE
  5
414
100
AcDbEntity
  8
RACCORDO
100
AcDbSpline
 62
7
  6
CONTINUOUS
 70
0
 71
3
 72
9
 73
5
 74
0
 42
0.0000001
 43
0.0000001
 44
0.0000000001
 40
0.0
 40
0.0
 40
0.0
 40
0.0
 40
0.5021448215
 40
1.0
 40
1.0
 40
1.0
 40
1.0
 10
165.700940924
 20
131.3980239794
 30
0.0
 10
165.7128534682
 20
131.3920440777
 30
0.0
 10
165.7350986677
 20
131.376759061
 30
0.0
 10
165.751639736
 20
131.3554414706
 30
0.0
 10
165.758250707
 20
131.343998549
 30
0.0
  0
SPLINE
  5
415
100
AcDbEntity
  8
RACCORDO
100
AcDbSpline
 62
7
  6
CONTINUOUS
 70
0
 71
3
 72
11
 73
7
 74
0
 42
0.0000001
 43
0.0000001
 44
0.0000000001
 40
0.0
 40
0.0
 40
0.0
 40
0.0
 40
0.2499115435
 40
0.4992943761
 40
0.7487191603
 40
1.0
 40
1.0
 40
1.0
 40
1.0
 10
165.8553915459
 20
98.0538906139
 30
0.0
 10
165.9408009629
 20
98.1157906509
 30
0.0
 10
166.0954708379
 20
98.2632148202
 30
0.0
 10
166.262303882
 20
98.5353422458
 30
0.0
 10
166.3597582435
 20
98.8394035549
 30
0.0
 10
166.3798383748
 20
99.0514653647
 30
0.0
 10
166.3798383748
 20
99.1575249836
 30
0.0
  0
SPLINE
  5
416
100
AcDbEntity
  8
RACCORDO
100
AcDbSpline
 62
7
  6
CONTINUOUS
 70
0
 71
3
 72
9
 73
5
 74
0
 42
0.0000001
 43
0.0000001
 44
0.0000000001
 40
0.0
 40
0.0
 40
0.0
 40
0.0
 40
0.4950842791
 40
1.0
 40
1.0
 40
1.0
 40
1.0
 10
166.3798383748
 20
129.7655870532
 30
0.0
 10
166.3798383748
 20
129.9347679765
 30
0.0
 10
166.3282267203
 20
130.2775556188
 30
0.0
 10
166.1923835464
 20
130.5952406475
 30
0.0
 10
166.1058396351
 20
130.7445068146
 30
0.0
  0
SPLINE
  5
417
100
AcDbEntity
  8
RACCORDO
100
AcDbSpline
 62
7
  6
CONTINUOUS
 70
0
 71
3
 72
9
 73
5
 74
0
 42
0.0000001
 43
0.0000001
 44
0.0000000001
 40
0.0
 40
0.0
 40
0.0
 40
0.0
 40
0.506145467
 40
1.0
 40
1.0
 40
1.0
 40
1.0
 10
145.9155850608
 20
132.0684076943
 30
0.0
 10
145.7930906847
 20
132.0891669834
 30
0.0
 10
145.5461602485
 20
132.1035221766
 30
0.0
 10
145.300898414
 20
132.0686451913
 30
0.0
 10
145.1839841791
 20
132.036609029
 30
0.0
  0
SPLINE
  5
418
100
AcDbEntity
  8
RACCORDO
100
AcDbSpline
 62
7
  6
CONTINUOUS
 70
0
 71
3
 72
9
 73
5
 74
0
 42
0.0000001
 43
0.0000001
 44
0.0000000001
 40
0.0
 40
0.0
 40
0.0
 40
0.0
 40
0.2468732706
 40
1.0
 40
1.0
 40
1.0
 40
1.0
 10
165.3687375003
 20
97.7081029039
 30
0.0
 10
165.374661239
 20
97.7112354745
 30
0.0
 10
165.3984188805
 20
97.7243701006
 30
0.0
 10
165.4212104216
 20
97.7392388194
 30
0.0
 10
165.437749138
 20
97.7512541634
 30
0.0
  0
SPLINE
  5
419
100
AcDbEntity
  8
RACCORDO
100
AcDbSpline
 62
250
  6
CONTINUOUS
 70
0
 71
3
 72
11
 73
7
 74
0
 42
0.0000001
 43
0.0000001
 44
0.0000000001
 40
0.0
 40
0.0
 40
0.0
 40
0.0
 40
0.2278476681
 40
0.4657333803
 40
0.7217788532
 40
1.0
 40
1.0
 40
1.0
 40
1.0
 10
158.5017919449
 20
134.6197720464
 30
0.0
 10
158.5295754336
 20
134.6326001002
 30
0.0
 10
158.5903092812
 20
134.6510037092
 30
0.0
 10
158.6881772893
 20
134.6538317998
 30
0.0
 10
158.7905075147
 20
134.632742897
 30
0.0
 10
158.8570549767
 20
134.6047413748
 30
0.0
 10
158.8902436514
 20
134.5875702188
 30
0.0
  0
SPLINE
  5
41A
100
AcDbEntity
  8
RACCORDO
100
AcDbSpline
 62
250
  6
CONTINUOUS
 70
0
 71
3
 72
14
 73
10
 74
0
 42
0.0000001
 43
0.0000001
 44
0.0000000001
 40
0.0
 40
0.0
 40
0.0
 40
0.0
 40
0.0282570206
 40
0.0515629833
 40
0.0820688737
 40
0.1653301237
 40
0.2782857061
 40
0.588974346
 40
1.0
 40
1.0
 40
1.0
 40
1.0
 10
166.1058283835
 20
130.744500291
 30
0.0
 10
166.1042065415
 20
130.7473030216
 30
0.0
 10
166.0973203475
 20
130.7490184362
 30
0.0
 10
166.0882485357
 20
130.7485905863
 30
0.0
 10
166.0725414664
 20
130.7461969484
 30
0.0
 10
166.0475837549
 20
130.7391260391
 30
0.0
 10
165.9927689494
 20
130.7196891847
 30
0.0
 10
165.9050082286
 20
130.6815253594
 30
0.0
 10
165.8304574228
 20
130.6456881935
 30
0.0
 10
165.7882807102
 20
130.6247182947
 30
0.0
  0
SPLINE
  5
41B
100
AcDbEntity
  8
RACCORDO
100
AcDbSpline
 62
250
  6
CONTINUOUS
 70
0
 71
3
 72
17
 73
13
 74
0
 42
0.0000001
 43
0.0000001
 44
0.0000000001
 40
0.0
 40
0.0
 40
0.0
 40
0.0
 40
0.2621117077
 40
0.3930718934
 40
0.5237851808
 40
0.6538512017
 40
0.7183114578
 40
0.7819164004
 40
0.8438707478
 40
0.9022192019
 40
0.9544150681
 40
1.0
 40
1.0
 40
1.0
 40
1.0
 10
166.3798386712
 20
126.3586363671
 30
0.0
 10
166.3798032979
 20
126.2749116953
 30
0.0
 10
166.3746499368
 20
126.1492595557
 30
0.0
 10
166.3565213195
 20
125.9828840342
 30
0.0
 10
166.3365118968
 20
125.8593020475
 30
0.0
 10
166.3132852049
 20
125.7579152729
 30
0.0
 10
166.2890627478
 20
125.679056186
 30
0.0
 10
166.2674679048
 20
125.6222739988
 30
0.0
 10
166.2416178786
 20
125.5693763569
 30
0.0
 10
166.2102140463
 20
125.523753543
 30
0.0
 10
166.1723452018
 20
125.4900320369
 30
0.0
 10
166.1417328071
 20
125.4795476516
 30
0.0
 10
166.1272441951
 20
125.4780984819
 30
0.0
  0
SPLINE
  5
41C
100
AcDbEntity
  8
RACCORDO
100
AcDbSpline
 62
250
  6
CONTINUOUS
 70
0
 71
3
 72
11
 73
7
 74
0
 42
0.0000001
 43
0.0000001
 44
0.0000000001
 40
0.0
 40
0.0
 40
0.0
 40
0.0
 40
0.2077698197
 40
0.4361288948
 40
0.6987110217
 40
1.0
 40
1.0
 40
1.0
 40
1.0
 10
166.3798381661
 20
129.7655870532
 30
0.0
 10
166.3798351691
 20
129.7364384093
 30
0.0
 10
166.3672972726
 20
129.6747964456
 30
0.0
 10
166.3147702749
 20
129.590258169
 30
0.0
 10
166.2326133018
 20
129.5140014547
 30
0.0
 10
166.1647799956
 20
129.4724255161
 30
0.0
 10
166.1272441951
 20
129.4529907865
 30
0.0
  0
SPLINE
  5
41D
100
AcDbEntity
  8
RACCORDO
100
AcDbSpline
 62
250
  6
CONTINUOUS
 70
0
 71
3
 72
11
 73
7
 74
0
 42
0.0000001
 43
0.0000001
 44
0.0000000001
 40
0.0
 40
0.0
 40
0.0
 40
0.0
 40
0.2077706525
 40
0.4361384342
 40
0.6986709806
 40
1.0
 40
1.0
 40
1.0
 40
1.0
 10
166.3798351973
 20
99.1575249834
 30
0.0
 10
166.3798430197
 20
99.128376232
 30
0.0
 10
166.3672902048
 20
99.0667324677
 30
0.0
 10
166.3147723241
 20
98.9822001751
 30
0.0
 10
166.2326213676
 20
98.9059347513
 30
0.0
 10
166.1647849733
 20
98.8643660256
 30
0.0
 10
166.1272441951
 20
98.8449287187
 30
0.0
  0
SPLINE
  5
41E
100
AcDbEntity
  8
RACCORDO
100
AcDbSpline
 62
250
  6
CONTINUOUS
 70
0
 71
3
 72
13
 73
9
 74
0
 42
0.0000001
 43
0.0000001
 44
0.0000000001
 40
0.0
 40
0.0
 40
0.0
 40
0.0
 40
0.254734268
 40
0.3710316998
 40
0.485089072
 40
0.6018533436
 40
0.7252809759
 40
1.0
 40
1.0
 40
1.0
 40
1.0
 10
146.4546698999
 20
130.9337256749
 30
0.0
 10
146.4934871113
 20
130.9143564384
 30
0.0
 10
146.5464793579
 20
130.8746509455
 30
0.0
 10
146.5882198109
 20
130.8022754156
 30
0.0
 10
146.6025824994
 20
130.7441173128
 30
0.0
 10
146.6006706041
 20
130.6831240247
 30
0.0
 10
146.5765593713
 20
130.5981139062
 30
0.0
 10
146.5373071543
 20
130.5404082338
 30
0.0
 10
146.5059716891
 20
130.5056677018
 30
0.0
  0
SPLINE
  5
41F
100
AcDbEntity
  8
RACCORDO
100
AcDbSpline
 62
250
  6
CONTINUOUS
 70
0
 71
3
 72
11
 73
7
 74
0
 42
0.0000001
 43
0.0000001
 44
0.0000000001
 40
0.0
 40
0.0
 40
0.0
 40
0.0
 40
0.2525049943
 40
0.5168997369
 40
0.7726228642
 40
1.0
 40
1.0
 40
1.0
 40
1.0
 10
145.0081456074
 20
131.2042718533
 30
0.0
 10
145.0563081177
 20
131.2420545832
 30
0.0
 10
145.1663957385
 20
131.3052572037
 30
0.0
 10
145.3477426173
 20
131.3583135116
 30
0.0
 10
145.530520711
 20
131.366734475
 30
0.0
 10
145.6469517927
 20
131.3375608641
 30
0.0
 10
145.6962643012
 20
131.3129284742
 30
0.0
  0
SPLINE
  5
420
100
AcDbEntity
  8
0
100
AcDbSpline
 62
7
  6
CONTINUOUS
 70
0
 71
3
 72
12
 73
8
 74
0
 42
0.0000001
 43
0.0000001
 44
0.0000000001
 40
0.0
 40
0.0
 40
0.0
 40
0.0
 40
0.3016981062
 40
0.5641499035
 40
0.7921056904
 40
0.8974627524
 40
1.0
 40
1.0
 40
1.0
 40
1.0
 10
156.8455760963
 20
131.3890754488
 30
0.0
 10
156.7285225625
 20
131.3295181781
 30
0.0
 10
156.5170012982
 20
131.2018909775
 30
0.0
 10
156.2605224904
 20
130.9673647887
 30
0.0
 10
156.1202993416
 20
130.7435124637
 30
0.0
 10
156.0659593698
 20
130.560696424
 30
0.0
 10
156.0570274727
 20
130.4699612824
 30
0.0
 10
156.0570220525
 20
130.4253252101
 30
0.0
  0
SPLINE
  5
421
100
AcDbEntity
  8
DRAFT
100
AcDbSpline
 62
7
  6
CONTINUOUS
 70
0
 71
3
 72
9
 73
5
 74
0
 42
0.0000001
 43
0.0000001
 44
0.0000000001
 40
0.0
 40
0.0
 40
0.0
 40
0.0
 40
0.2412181231
 40
1.0
 40
1.0
 40
1.0
 40
1.0
 10
161.5753696139
 20
130.834718776
 30
0.0
 10
161.551761047
 20
130.8485258173
 30
0.0
 10
161.4528930519
 20
130.9040557969
 30
0.0
 10
161.3503570696
 20
130.952962405
 30
0.0
 10
161.2712502299
 20
130.986778468
 30
0.0
  0
SPLINE
  5
422
100
AcDbEntity
  8
RACCORDO
100
AcDbSpline
 62
7
  6
CONTINUOUS
 70
0
 71
3
 72
9
 73
5
 74
0
 42
0.0000001
 43
0.0000001
 44
0.0000000001
 40
0.0
 40
0.0
 40
0.0
 40
0.0
 40
0.2423387215
 40
1.0
 40
1.0
 40
1.0
 40
1.0
 10
144.8975891075
 20
131.9208558413
 30
0.0
 10
144.8997916677
 20
131.921900321
 30
0.0
 10
144.9091261658
 20
131.9256903337
 30
0.0
 10
144.9192909051
 20
131.9272719375
 30
0.0
 10
144.9269110125
 20
131.9274039486
 30
0.0
  0
SPLINE
  5
423
100
AcDbEntity
  8
RACCORDO
100
AcDbSpline
 62
7
  6
CONTINUOUS
 70
0
 71
3
 72
9
 73
5
 74
0
 42
0.0000001
 43
0.0000001
 44
0.0000000001
 40
0.0
 40
0.0
 40
0.0
 40
0.0
 40
0.2271410778
 40
1.0
 40
1.0
 40
1.0
 40
1.0
 10
144.9269110125
 20
131.9274039486
 30
0.0
 10
144.9312638028
 20
131.9274793566
 30
0.0
 10
144.950440888
 20
131.926330094
 30
0.0
 10
144.9691694056
 20
131.9202337827
 30
0.0
 10
144.9824183857
 20
131.9136092927
 30
0.0
  0
SPLINE
  5
424
100
AcDbEntity
  8
RACCORDO
100
AcDbSpline
 62
7
  6
CONTINUOUS
 70
0
 71
3
 72
9
 73
5
 74
0
 42
0.0000001
 43
0.0000001
 44
0.0000000001
 40
0.0
 40
0.0
 40
0.0
 40
0.0
 40
0.4624563088
 40
1.0
 40
1.0
 40
1.0
 40
1.0
 10
145.0390847176
 20
131.9875835711
 30
0.0
 10
145.0509186087
 20
131.9924442567
 30
0.0
 10
145.0799000426
 20
131.9952216445
 30
0.0
 10
145.1063610358
 20
131.9848821204
 30
0.0
 10
145.1193535492
 20
131.9776485383
 30
0.0
  0
SPLINE
  5
425
100
AcDbEntity
  8
RACCORDO
100
AcDbSpline
 62
250
  6
CONTINUOUS
 70
0
 71
3
 72
9
 73
5
 74
0
 42
0.0000001
 43
0.0000001
 44
0.0000000001
 40
0.0
 40
0.0
 40
0.0
 40
0.0
 40
0.5177799267
 40
1.0
 40
1.0
 40
1.0
 40
1.0
 10
165.7882807112
 20
130.6247182929
 30
0.0
 10
165.8947456173
 20
130.4410934924
 30
0.0
 10
166.0590992181
 20
130.0611431635
 30
0.0
 10
166.1272441952
 20
129.6506700793
 30
0.0
 10
166.1272441951
 20
129.4529907865
 30
0.0
  0
SPLINE
  5
426
100
AcDbEntity
  8
RACCORDO
100
AcDbSpline
 62
7
  6
CONTINUOUS
 70
0
 71
3
 72
11
 73
7
 74
0
 42
0.0000001
 43
0.0000001
 44
0.0000000001
 40
0.0
 40
0.0
 40
0.0
 40
0.0
 40
0.2336741059
 40
0.4963205999
 40
0.7609364539
 40
1.0
 40
1.0
 40
1.0
 40
1.0
 10
145.5938239537
 20
130.1126282309
 30
0.0
 10
145.5643217558
 20
130.1273793299
 30
0.0
 10
145.4966901162
 20
130.1487646104
 30
0.0
 10
145.3893101178
 20
130.1598885795
 30
0.0
 10
145.2809157252
 20
130.1514396667
 30
0.0
 10
145.2117233941
 20
130.1318869495
 30
0.0
 10
145.1809527374
 20
130.1180339376
 30
0.0
  0
SPLINE
  5
427
100
AcDbEntity
  8
RACCORDO
100
AcDbSpline
 62
250
  6
CONTINUOUS
 70
0
 71
3
 72
15
 73
11
 74
0
 42
0.0000001
 43
0.0000001
 44
0.0000000001
 40
0.0
 40
0.0
 40
0.0
 40
0.0
 40
0.0951406638
 40
0.171690764
 40
0.2994227567
 40
0.4151614009
 40
0.5255423869
 40
0.6339721696
 40
0.7450560606
 40
1.0
 40
1.0
 40
1.0
 40
1.0
 10
166.2349034853
 20
123.9066936646
 30
0.0
 10
166.2529429282
 20
123.9130898206
 30
0.0
 10
166.287267054
 20
123.9208193873
 30
0.0
 10
166.348110359
 20
123.9147099371
 30
0.0
 10
166.4063364972
 20
123.8813536473
 30
0.0
 10
166.4502598978
 20
123.8238280764
 30
0.0
 10
166.4743003836
 20
123.7600369423
 30
0.0
 10
166.4798336365
 20
123.6930411611
 30
0.0
 10
166.4612322818
 20
123.5982725368
 30
0.0
 10
166.4163798279
 20
123.5352551163
 30
0.0
 10
166.3801038532
 20
123.4989988477
 30
0.0
  0
SPLINE
  5
428
100
AcDbEntity
  8
RACCORDO
100
AcDbSpline
 62
7
  6
CONTINUOUS
 70
0
 71
3
 72
31
 73
27
 74
0
 42
0.0000001
 43
0.0000001
 44
0.0000000001
 40
0.0
 40
0.0
 40
0.0
 40
0.0
 40
0.1395652982
 40
0.2102492609
 40
0.2817763226
 40
0.3544634145
 40
0.391401902
 40
0.4288645775
 40
0.4669866123
 40
0.5059064605
 40
0.5454486465
 40
0.5649186539
 40
0.5831167934
 40
0.599133957
 40
0.6130432868
 40
0.6256668924
 40
0.6377475879
 40
0.6615624773
 40
0.6857067582
 40
0.7103248418
 40
0.7353820266
 40
0.7865620725
 40
0.8388537209
 40
0.8919722947
 40
0.9457301391
 40
1.0
 40
1.0
 40
1.0
 40
1.0
 10
166.2349034853
 20
123.9066936645
 30
0.0
 10
166.3556222504
 20
124.0067434404
 30
0.0
 10
166.5357798383
 20
124.1595612851
 30
0.0
 10
166.771636066
 20
124.3707244808
 30
0.0
 10
166.9476261906
 20
124.5360226582
 30
0.0
 10
167.0913310854
 20
124.6802162652
 30
0.0
 10
167.203456728
 20
124.801625396
 30
0.0
 10
167.2860624252
 20
124.8973472161
 30
0.0
 10
167.3655663352
 20
124.9985746339
 30
0.0
 10
167.4392290007
 20
125.106976831
 30
0.0
 10
167.4906638786
 20
125.2048903638
 30
0.0
 10
167.5174769525
 20
125.2877107971
 30
0.0
 10
167.5253368238
 20
125.3479500894
 30
0.0
 10
167.5191414105
 20
125.4024241317
 30
0.0
 10
167.4990520263
 20
125.4466163965
 30
0.0
 10
167.4706739511
 20
125.4800184945
 30
0.0
 10
167.4267852595
 20
125.5128751078
 30
0.0
 10
167.3641932868
 20
125.5399492336
 30
0.0
 10
167.2846366446
 20
125.5586101214
 30
0.0
 10
167.2021954381
 20
125.5686611011
 30
0.0
 10
167.08894811
 20
125.5739038146
 30
0.0
 10
166.9444433839
 20
125.5690020905
 30
0.0
 10
166.7692949453
 20
125.5520070207
 30
0.0
 10
166.5921820321
 20
125.5271045636
 30
0.0
 10
166.413760005
 20
125.4963475441
 30
0.0
 10
166.2946818014
 20
125.4728707503
 30
0.0
 10
166.2349769119
 20
125.4605271583
 30
0.0
  0
SPLINE
  5
429
100
AcDbEntity
  8
RACCORDO
100
AcDbSpline
 62
250
  6
CONTINUOUS
 70
0
 71
3
 72
14
 73
10
 74
0
 42
0.0000001
 43
0.0000001
 44
0.0000000001
 40
0.0
 40
0.0
 40
0.0
 40
0.0
 40
0.2544725274
 40
0.5087079822
 40
0.6355705859
 40
0.7615423764
 40
0.8849158252
 40
0.9442180361
 40
1.0
 40
1.0
 40
1.0
 40
1.0
 10
166.3802388098
 20
127.0510230724
 30
0.0
 10
166.4220544363
 20
126.9177073531
 30
0.0
 10
166.4766453454
 20
126.6415932212
 30
0.0
 10
166.4820767366
 20
126.2909963341
 30
0.0
 10
166.4511024853
 20
126.013967508
 30
0.0
 10
166.408907508
 20
125.8115006882
 30
0.0
 10
166.3548020675
 20
125.6499877833
 30
0.0
 10
166.2943510766
 20
125.53357899
 30
0.0
 10
166.2563206841
 20
125.4823894072
 30
0.0
 10
166.2348903843
 20
125.460508291
 30
0.0
  0
SPLINE
  5
42A
100
AcDbEntity
  8
RACCORDO
100
AcDbSpline
 62
250
  6
CONTINUOUS
 70
0
 71
3
 72
9
 73
5
 74
0
 42
0.0000001
 43
0.0000001
 44
0.0000000001
 40
0.0
 40
0.0
 40
0.0
 40
0.0
 40
0.5349853634
 40
1.0
 40
1.0
 40
1.0
 40
1.0
 10
145.9528196722
 20
132.0314685115
 30
0.0
 10
145.9667726472
 20
132.038295867
 30
0.0
 10
145.9950638427
 20
132.0476090669
 30
0.0
 10
146.0252285531
 20
132.0435691945
 30
0.0
 10
146.0375944232
 20
132.0381477182
 30
0.0
  0
SPLINE
  5
42B
100
AcDbEntity
  8
RACCORDO
100
AcDbSpline
 62
250
  6
CONTINUOUS
 70
0
 71
3
 72
10
 73
6
 74
0
 42
0.0000001
 43
0.0000001
 44
0.0000000001
 40
0.0
 40
0.0
 40
0.0
 40
0.0
 40
0.3148903432
 40
0.6958669389
 40
1.0
 40
1.0
 40
1.0
 40
1.0
 10
145.9528196722
 20
132.0314685115
 30
0.0
 10
145.9562562673
 20
132.0353234779
 30
0.0
 10
145.9643762449
 20
132.0433638432
 30
0.0
 10
145.9783078557
 20
132.0525948315
 30
0.0
 10
145.9901383661
 20
132.0539624091
 30
0.0
 10
145.9950078904
 20
132.052881879
 30
0.0
  0
SPLINE
  5
42C
100
AcDbEntity
  8
RACCORDO
100
AcDbSpline
 62
250
  6
CONTINUOUS
 70
0
 71
3
 72
11
 73
7
 74
0
 42
0.0000001
 43
0.0000001
 44
0.0000000001
 40
0.0
 40
0.0
 40
0.0
 40
0.0
 40
0.2539066107
 40
0.5150096465
 40
0.7683381763
 40
1.0
 40
1.0
 40
1.0
 40
1.0
 10
145.9528196722
 20
132.0314685115
 30
0.0
 10
145.8829245803
 20
132.0470169832
 30
0.0
 10
145.7385157305
 20
132.0673571636
 30
0.0
 10
145.521215171
 20
132.0683191407
 30
0.0
 10
145.3119926637
 20
132.0407018324
 30
0.0
 10
145.179872078
 20
132.0022569038
 30
0.0
 10
145.1193535492
 20
131.9776485383
 30
0.0
  0
SPLINE
  5
42D
100
AcDbEntity
  8
RACCORDO
100
AcDbSpline
 62
250
  6
CONTINUOUS
 70
0
 71
3
 72
10
 73
6
 74
0
 42
0.0000001
 43
0.0000001
 44
0.0000000001
 40
0.0
 40
0.0
 40
0.0
 40
0.0
 40
0.2610049634
 40
0.5270913481
 40
1.0
 40
1.0
 40
1.0
 40
1.0
 10
145.1809527374
 20
130.9829524655
 30
0.0
 10
145.208412354
 20
131.0105977813
 30
0.0
 10
145.2717476075
 20
131.0593945537
 30
0.0
 10
145.4071077822
 20
131.1206636045
 30
0.0
 10
145.5306704033
 20
131.126772816
 30
0.0
 10
145.5938239537
 20
131.0952128908
 30
0.0
  0
SPLINE
  5
42E
100
AcDbEntity
  8
RACCORDO
100
AcDbSpline
 62
250
  6
CONTINUOUS
 70
0
 71
3
 72
9
 73
5
 74
0
 42
0.0000001
 43
0.0000001
 44
0.0000000001
 40
0.0
 40
0.0
 40
0.0
 40
0.0
 40
0.5065966774
 40
1.0
 40
1.0
 40
1.0
 40
1.0
 10
146.3522295523
 20
130.7160100914
 30
0.0
 10
146.3785881751
 20
130.7028483695
 30
0.0
 10
146.4256581916
 20
130.6624189831
 30
0.0
 10
146.4400668117
 20
130.6023702479
 30
0.0
 10
146.4400871347
 20
130.5736755625
 30
0.0
  0
SPLINE
  5
42F
100
AcDbEntity
  8
RACCORDO
100
AcDbSpline
 62
250
  6
CONTINUOUS
 70
0
 71
3
 72
11
 73
7
 74
0
 42
0.0000001
 43
0.0000001
 44
0.0000000001
 40
0.0
 40
0.0
 40
0.0
 40
0.0
 40
0.3085817442
 40
0.5746667067
 40
0.8000780788
 40
1.0
 40
1.0
 40
1.0
 40
1.0
 10
146.472688922
 20
130.472000196
 30
0.0
 10
146.4630974043
 20
130.4761973435
 30
0.0
 10
146.4446252285
 20
130.482755943
 30
0.0
 10
146.4175498893
 20
130.4868012333
 30
0.0
 10
146.3938799485
 20
130.4837821466
 30
0.0
 10
146.3808778273
 20
130.4764351973
 30
0.0
 10
146.3758897828
 20
130.4718386244
 30
0.0
  0
SPLINE
  5
430
100
AcDbEntity
  8
RACCORDO
100
AcDbSpline
 62
250
  6
CONTINUOUS
 70
0
 71
3
 72
9
 73
5
 74
0
 42
0.0000001
 43
0.0000001
 44
0.0000000001
 40
0.0
 40
0.0
 40
0.0
 40
0.0
 40
0.2375937273
 40
1.0
 40
1.0
 40
1.0
 40
1.0
 10
146.4546698999
 20
130.9337256749
 30
0.0
 10
146.4480326109
 20
130.9280760691
 30
0.0
 10
146.4214860899
 20
130.9026905988
 30
0.0
 10
146.4000998567
 20
130.8720924808
 30
0.0
 10
146.3870908865
 20
130.8473329809
 30
0.0
  0
SPLINE
  5
431
100
AcDbEntity
  8
RACCORDO
100
AcDbSpline
 62
250
  6
CONTINUOUS
 70
0
 71
3
 72
9
 73
5
 74
0
 42
0.0000001
 43
0.0000001
 44
0.0000000001
 40
0.0
 40
0.0
 40
0.0
 40
0.0
 40
0.2619905242
 40
1.0
 40
1.0
 40
1.0
 40
1.0
 10
146.3870908865
 20
130.8473329809
 30
0.0
 10
146.3815438074
 20
130.8367754269
 30
0.0
 10
146.3626235603
 20
130.795404144
 30
0.0
 10
146.3522295888
 20
130.7496051227
 30
0.0
 10
146.3522295545
 20
130.7160100904
 30
0.0
  0
SPLINE
  5
432
100
AcDbEntity
  8
RACCORDO
100
AcDbSpline
 62
250
  6
CONTINUOUS
 70
0
 71
3
 72
9
 73
5
 74
0
 42
0.0000001
 43
0.0000001
 44
0.0000000001
 40
0.0
 40
0.0
 40
0.0
 40
0.0
 40
0.503908962
 40
1.0
 40
1.0
 40
1.0
 40
1.0
 10
145.6962643012
 20
131.3129284742
 30
0.0
 10
145.6648471565
 20
131.2861865167
 30
0.0
 10
145.6158057908
 20
131.2175519399
 30
0.0
 10
145.5938239537
 20
131.1358301553
 30
0.0
 10
145.5938239537
 20
131.0952128908
 30
0.0
  0
SPLINE
  5
433
100
AcDbEntity
  8
RACCORDO
100
AcDbSpline
 62
250
  6
CONTINUOUS
 70
0
 71
3
 72
11
 73
7
 74
0
 42
0.0000001
 43
0.0000001
 44
0.0000000001
 40
0.0
 40
0.0
 40
0.0
 40
0.0
 40
0.2345188867
 40
0.5007387613
 40
0.7665652614
 40
1.0
 40
1.0
 40
1.0
 40
1.0
 10
145.0081456074
 20
131.2042718533
 30
0.0
 10
145.0275911429
 20
131.1932119567
 30
0.0
 10
145.0657295657
 20
131.1637048658
 30
0.0
 10
145.1152484615
 20
131.1095458794
 30
0.0
 10
145.1557317733
 20
131.0484639101
 30
0.0
 10
145.1750227592
 20
131.004415672
 30
0.0
 10
145.180952739
 20
130.9829524668
 30
0.0
  0
SPLINE
  5
434
100
AcDbEntity
  8
RACCORDO
100
AcDbSpline
 62
250
  6
CONTINUOUS
 70
0
 71
3
 72
16
 73
12
 74
0
 42
0.0000001
 43
0.0000001
 44
0.0000000001
 40
0.0
 40
0.0
 40
0.0
 40
0.0
 40
0.1080918061
 40
0.1943287314
 40
0.2612719188
 40
0.3184127735
 40
0.3727001042
 40
0.4269608027
 40
0.5376689437
 40
0.7665407379
 40
1.0
 40
1.0
 40
1.0
 40
1.0
 10
166.1272441951
 20
123.7776357931
 30
0.0
 10
166.1400846022
 20
123.7896469241
 30
0.0
 10
166.1646701161
 20
123.8098227642
 30
0.0
 10
166.2034782445
 20
123.8286197922
 30
0.0
 10
166.2384503909
 20
123.8319626925
 30
0.0
 10
166.2666474792
 20
123.8228183751
 30
0.0
 10
166.2889634095
 20
123.8072508473
 30
0.0
 10
166.31344229
 20
123.7810664453
 30
0.0
 10
166.3463450519
 20
123.7254197139
 30
0.0
 10
166.3729569443
 20
123.6349915866
 30
0.0
 10
166.3798013918
 20
123.5596935813
 30
0.0
 10
166.3798389805
 20
123.5217185571
 30
0.0
  0
SPLINE
  5
435
100
AcDbEntity
  8
RACCORDO
100
AcDbSpline
 62
250
  6
CONTINUOUS
 70
0
 71
3
 72
9
 73
5
 74
0
 42
0.0000001
 43
0.0000001
 44
0.0000000001
 40
0.0
 40
0.0
 40
0.0
 40
0.0
 40
0.246951232
 40
1.0
 40
1.0
 40
1.0
 40
1.0
 10
165.7882807112
 20
98.0121646944
 30
0.0
 10
165.7972248595
 20
98.0186469199
 30
0.0
 10
165.8327449716
 20
98.0458504518
 30
0.0
 10
165.865383094
 20
98.0767817276
 30
0.0
 10
165.8880880891
 20
98.101663189
 30
0.0
  0
SPLINE
  5
436
100
AcDbEntity
  8
RACCORDO
100
AcDbSpline
 62
250
  6
CONTINUOUS
 70
0
 71
3
 72
11
 73
7
 74
0
 42
0.0000001
 43
0.0000001
 44
0.0000000001
 40
0.0
 40
0.0
 40
0.0
 40
0.0
 40
0.2211780059
 40
0.4599539454
 40
0.7194923471
 40
1.0
 40
1.0
 40
1.0
 40
1.0
 10
165.8880880891
 20
98.101663189
 30
0.0
 10
165.9277116483
 20
98.1450850023
 30
0.0
 10
165.9987461598
 20
98.246170406
 30
0.0
 10
166.0732414449
 20
98.4235353152
 30
0.0
 10
166.118044224
 20
98.6265832427
 30
0.0
 10
166.1272441952
 20
98.7703771137
 30
0.0
 10
166.1272441951
 20
98.8449287169
 30
0.0
  0
SPLINE
  5
437
100
AcDbEntity
  8
RACCORDO
100
AcDbSpline
 62
250
  6
CONTINUOUS
 70
0
 71
3
 72
9
 73
5
 74
0
 42
0.0000001
 43
0.0000001
 44
0.0000000001
 40
0.0
 40
0.0
 40
0.0
 40
0.0
 40
0.2551444626
 40
1.0
 40
1.0
 40
1.0
 40
1.0
 10
151.2792613654
 20
131.9393390835
 30
0.0
 10
151.2900972727
 20
131.9382635679
 30
0.0
 10
151.3323647271
 20
131.9322597397
 30
0.0
 10
151.3735901344
 20
131.918609757
 30
0.0
 10
151.402017232
 20
131.9043810899
 30
0.0
  0
SPLINE
  5
438
100
AcDbEntity
  8
RACCORDO
100
AcDbSpline
 62
7
  6
CONTINUOUS
 70
0
 71
3
 72
10
 73
6
 74
0
 42
0.0000001
 43
0.0000001
 44
0.0000000001
 40
0.0
 40
0.0
 40
0.0
 40
0.0
 40
0.3213393498
 40
0.5943228933
 40
1.0
 40
1.0
 40
1.0
 40
1.0
 10
165.3687375003
 20
131.3483232944
 30
0.0
 10
165.4018936608
 20
131.3644288691
 30
0.0
 10
165.4651620715
 20
131.3910915514
 30
0.0
 10
165.5752250051
 20
131.4203996031
 30
0.0
 10
165.6593516198
 20
131.418901128
 30
0.0
 10
165.700940924
 20
131.3980239794
 30
0.0
  0
SPLINE
  5
439
100
AcDbEntity
  8
RACCORDO
100
AcDbSpline
 62
250
  6
CONTINUOUS
 70
0
 71
3
 72
11
 73
7
 74
0
 42
0.0000001
 43
0.0000001
 44
0.0000000001
 40
0.0
 40
0.0
 40
0.0
 40
0.0
 40
0.2780663821
 40
0.5340572864
 40
0.7720144474
 40
1.0
 40
1.0
 40
1.0
 40
1.0
 10
158.8902436514
 20
134.5875702188
 30
0.0
 10
158.9241118325
 20
134.6037802753
 30
0.0
 10
158.9918361684
 20
134.629825694
 30
0.0
 10
159.0953140919
 20
134.6477802558
 30
0.0
 10
159.1935908157
 20
134.6418572461
 30
0.0
 10
159.2540712806
 20
134.6214553162
 30
0.0
 10
159.2816090435
 20
134.6076932594
 30
0.0
  0
SPLINE
  5
43A
100
AcDbEntity
  8
RACCORDO
100
AcDbSpline
 62
250
  6
CONTINUOUS
 70
0
 71
3
 72
17
 73
13
 74
0
 42
0.0000001
 43
0.0000001
 44
0.0000000001
 40
0.0
 40
0.0
 40
0.0
 40
0.0
 40
0.1297523959
 40
0.2696969499
 40
0.4136781876
 40
0.5548477757
 40
0.6868353648
 40
0.8049893174
 40
0.8584227611
 40
0.9082550494
 40
0.9551146512
 40
1.0
 40
1.0
 40
1.0
 40
1.0
 10
166.3800345381
 20
129.0557171442
 30
0.0
 10
166.5786714243
 20
128.915556517
 30
0.0
 10
166.9568525293
 20
128.5737635447
 30
0.0
 10
167.4269244314
 20
127.9529213502
 30
0.0
 10
167.7956147363
 20
127.2426450515
 30
0.0
 10
168.0356595523
 20
126.494633981
 30
0.0
 10
168.1297916961
 20
125.7631536506
 30
0.0
 10
168.0777881464
 20
125.189846796
 30
0.0
 10
167.9504381541
 20
124.7933729384
 30
0.0
 10
167.8205036547
 20
124.5421801236
 30
0.0
 10
167.6551593679
 20
124.3325656144
 30
0.0
 10
167.5211763909
 20
124.2222379704
 30
0.0
 10
167.4505614626
 20
124.1765640123
 30
0.0
  0
SPLINE
  5
43B
100
AcDbEntity
  8
RACCORDO
100
AcDbSpline
 62
7
  6
CONTINUOUS
 70
0
 71
3
 72
9
 73
5
 74
0
 42
0.0000001
 43
0.0000001
 44
0.0000000001
 40
0.0
 40
0.0
 40
0.0
 40
0.0
 40
0.5181535087
 40
1.0
 40
1.0
 40
1.0
 40
1.0
 10
166.2349769119
 20
125.4605271583
 30
0.0
 10
166.2161219915
 20
125.4566561609
 30
0.0
 10
166.1780006516
 20
125.4541668032
 30
0.0
 10
166.142296486
 20
125.4684124409
 30
0.0
 10
166.1272441951
 20
125.4780984819
 30
0.0
  0
SPLINE
  5
43C
100
AcDbEntity
  8
RACCORDO
100
AcDbSpline
 62
7
  6
CONTINUOUS
 70
0
 71
3
 72
9
 73
5
 74
0
 42
0.0000001
 43
0.0000001
 44
0.0000000001
 40
0.0
 40
0.0
 40
0.0
 40
0.0
 40
0.2611040676
 40
1.0
 40
1.0
 40
1.0
 40
1.0
 10
166.1272441951
 20
123.7776357931
 30
0.0
 10
166.1347317719
 20
123.7902471865
 30
0.0
 10
166.1650386132
 20
123.8375250578
 30
0.0
 10
166.2029548076
 20
123.8801992947
 30
0.0
 10
166.2349034853
 20
123.9066936645
 30
0.0
  0
SPLINE
  5
43D
100
AcDbEntity
  8
0
100
AcDbSpline
 62
7
  6
CONTINUOUS
 70
0
 71
3
 72
9
 73
5
 74
0
 42
0.0000001
 43
0.0000001
 44
0.0000000001
 40
0.0
 40
0.0
 40
0.0
 40
0.0
 40
0.2437977623
 40
1.0
 40
1.0
 40
1.0
 40
1.0
 10
144.6116681873
 20
134.874513783
 30
0.0
 10
144.6176094247
 20
134.8759889498
 30
0.0
 10
144.6422395114
 20
134.8809824033
 30
0.0
 10
144.6676278874
 20
134.8818264662
 30
0.0
 10
144.6865760336
 20
134.8805992558
 30
0.0
  0
SPLINE
  5
43E
100
AcDbEntity
  8
0
100
AcDbSpline
 62
7
  6
CONTINUOUS
 70
0
 71
3
 72
9
 73
5
 74
0
 42
0.0000001
 43
0.0000001
 44
0.0000000001
 40
0.0
 40
0.0
 40
0.0
 40
0.0
 40
0.2394927276
 40
1.0
 40
1.0
 40
1.0
 40
1.0
 10
144.6865760336
 20
134.8805992558
 30
0.0
 10
144.6994371469
 20
134.8797662828
 30
0.0
 10
144.752913192
 20
134.8727056846
 30
0.0
 10
144.804213992
 20
134.8534509039
 30
0.0
 10
144.8408201797
 20
134.8351501137
 30
0.0
  0
SPLINE
  5
43F
100
AcDbEntity
  8
0
100
AcDbSpline
 62
7
  6
CONTINUOUS
 70
0
 71
3
 72
9
 73
5
 74
0
 42
0.0000001
 43
0.0000001
 44
0.0000000001
 40
0.0
 40
0.0
 40
0.0
 40
0.0
 40
0.2432699689
 40
1.0
 40
1.0
 40
1.0
 40
1.0
 10
150.3241665396
 20
132.0786854406
 30
0.0
 10
150.3331996159
 20
132.076742041
 30
0.0
 10
150.3700235623
 20
132.0673274448
 30
0.0
 10
150.405438742
 20
132.0528319245
 30
0.0
 10
150.4311497094
 20
132.0399853229
 30
0.0
  0
SPLINE
  5
440
100
AcDbEntity
  8
0
100
AcDbSpline
 62
7
  6
CONTINUOUS
 70
0
 71
3
 72
8
 73
4
 74
0
 42
0.0000001
 43
0.0000001
 44
0.0000000001
 40
0.0
 40
0.0
 40
0.0
 40
0.0
 40
1.0
 40
1.0
 40
1.0
 40
1.0
 10
150.124402813
 20
85.5673355396
 30
0.0
 10
150.1374261946
 20
85.5979434692
 30
0.0
 10
150.1443521702
 20
85.6318487711
 30
0.0
 10
150.1443481044
 20
85.6651121715
 30
0.0
  0
SPLINE
  5
441
100
AcDbEntity
  8
0
100
AcDbSpline
 62
7
  6
CONTINUOUS
 70
0
 71
3
 72
10
 73
6
 74
0
 42
0.0000001
 43
0.0000001
 44
0.0000000001
 40
0.0
 40
0.0
 40
0.0
 40
0.0
 40
0.437339694
 40
0.7085619899
 40
1.0
 40
1.0
 40
1.0
 40
1.0
 10
150.7858545023
 20
130.7860131069
 30
0.0
 10
150.8345128749
 20
130.8448129773
 30
0.0
 10
150.862488832
 20
130.9783444973
 30
0.0
 10
150.8390526043
 20
131.1503050008
 30
0.0
 10
150.8068339925
 20
131.2442599159
 30
0.0
 10
150.7858545023
 20
131.2905914934
 30
0.0
  0
SPLINE
  5
442
100
AcDbEntity
  8
0
100
AcDbSpline
 62
7
  6
CONTINUOUS
 70
0
 71
3
 72
9
 73
5
 74
0
 42
0.0000001
 43
0.0000001
 44
0.0000000001
 40
0.0
 40
0.0
 40
0.0
 40
0.0
 40
0.4909689486
 40
1.0
 40
1.0
 40
1.0
 40
1.0
 10
150.9515530425
 20
131.7743255175
 30
0.0
 10
150.9515474064
 20
131.7759378265
 30
0.0
 10
150.9507869594
 20
131.7793648082
 30
0.0
 10
150.9480302465
 20
131.7815456895
 30
0.0
 10
150.9465348479
 20
131.7822927793
 30
0.0
  0
SPLINE
  5
443
100
AcDbEntity
  8
0
100
AcDbSpline
 62
7
  6
CONTINUOUS
 70
0
 71
3
 72
9
 73
5
 74
0
 42
0.0000001
 43
0.0000001
 44
0.0000000001
 40
0.0
 40
0.0
 40
0.0
 40
0.0
 40
0.4907390975
 40
1.0
 40
1.0
 40
1.0
 40
1.0
 10
145.3611066163
 20
134.5695488535
 30
0.0
 10
145.3611010415
 20
134.5711646744
 30
0.0
 10
145.3603353016
 20
134.5746012654
 30
0.0
 10
145.3575656472
 20
134.5767818575
 30
0.0
 10
145.3560640551
 20
134.5775281379
 30
0.0
  0
SPLINE
  5
444
100
AcDbEntity
  8
ASSI
100
AcDbSpline
 62
7
  6
CONTINUOUS
 70
0
 71
3
 72
9
 73
5
 74
0
 42
0.0000001
 43
0.0000001
 44
0.0000000001
 40
0.0
 40
0.0
 40
0.0
 40
0.0
 40
0.26616832
 40
1.0
 40
1.0
 40
1.0
 40
1.0
 10
146.9550370354
 20
90.1295859098
 30
0.0
 10
146.9584908501
 20
90.0998786257
 30
0.0
 10
146.9674335356
 20
89.9879231946
 30
0.0
 10
146.9597721012
 20
89.873985663
 30
0.0
 10
146.9411483493
 20
89.7936611322
 30
0.0
  0
SPLINE
  5
445
100
AcDbEntity
  8
0
100
AcDbSpline
 62
250
  6
CONTINUOUS
 70
0
 71
3
 72
9
 73
5
 74
0
 42
0.0000001
 43
0.0000001
 44
0.0000000001
 40
0.0
 40
0.0
 40
0.0
 40
0.0
 40
0.4658745477
 40
1.0
 40
1.0
 40
1.0
 40
1.0
 10
136.0017051482
 20
134.8850631593
 30
0.0
 10
135.9865956099
 20
134.8905557827
 30
0.0
 10
135.9507977845
 20
134.8936844742
 30
0.0
 10
135.9174050248
 20
134.8823481793
 30
0.0
 10
135.9008719222
 20
134.8741994323
 30
0.0
  0
SPLINE
  5
446
100
AcDbEntity
  8
0
100
AcDbSpline
 62
250
  6
CONTINUOUS
 70
0
 71
3
 72
9
 73
5
 74
0
 42
0.0000001
 43
0.0000001
 44
0.0000000001
 40
0.0
 40
0.0
 40
0.0
 40
0.0
 40
0.4641675224
 40
1.0
 40
1.0
 40
1.0
 40
1.0
 10
150.0061843623
 20
127.8835204248
 30
0.0
 10
149.9904021791
 20
127.8914107389
 30
0.0
 10
149.9508760605
 20
127.8980978983
 30
0.0
 10
149.9136797491
 20
127.8859356196
 30
0.0
 10
149.895409466
 20
127.8769306604
 30
0.0
  0
SPLINE
  5
447
100
AcDbEntity
  8
0
100
AcDbSpline
 62
250
  6
CONTINUOUS
 70
0
 71
3
 72
9
 73
5
 74
0
 42
0.0000001
 43
0.0000001
 44
0.0000000001
 40
0.0
 40
0.0
 40
0.0
 40
0.0
 40
0.464167748
 40
1.0
 40
1.0
 40
1.0
 40
1.0
 10
148.3153048002
 20
128.7289602067
 30
0.0
 10
148.2995226099
 20
128.7368505214
 30
0.0
 10
148.2599964926
 20
128.7435376705
 30
0.0
 10
148.2228001884
 20
128.7313753904
 30
0.0
 10
148.2045299149
 20
128.7223704359
 30
0.0
  0
SPLINE
  5
448
100
AcDbEntity
  8
0
100
AcDbSpline
 62
250
  6
CONTINUOUS
 70
0
 71
3
 72
11
 73
7
 74
0
 42
0.0000001
 43
0.0000001
 44
0.0000000001
 40
0.0
 40
0.0
 40
0.0
 40
0.0
 40
0.2351711086
 40
0.4995790016
 40
0.7642134063
 40
1.0
 40
1.0
 40
1.0
 40
1.0
 10
147.5901132475
 20
126.5063930219
 30
0.0
 10
147.6155065459
 20
126.4936963727
 30
0.0
 10
147.6738506845
 20
126.4755520743
 30
0.0
 10
147.7661857408
 20
126.4667964189
 30
0.0
 10
147.8586200883
 20
126.4752984949
 30
0.0
 10
147.9171166823
 20
126.4932686393
 30
0.0
 10
147.9426352071
 20
126.505880298
 30
0.0
  0
SPLINE
  5
449
100
AcDbEntity
  8
0
100
AcDbSpline
 62
7
  6
CONTINUOUS
 70
0
 71
3
 72
9
 73
5
 74
0
 42
0.0000001
 43
0.0000001
 44
0.0000000001
 40
0.0
 40
0.0
 40
0.0
 40
0.0
 40
0.4547712433
 40
1.0
 40
1.0
 40
1.0
 40
1.0
 10
145.5134073452
 20
128.1824791589
 30
0.0
 10
145.5391508263
 20
128.2347070619
 30
0.0
 10
145.5601415845
 20
128.3663445015
 30
0.0
 10
145.5352940714
 20
128.493680765
 30
0.0
 10
145.5134073452
 20
128.5599708806
 30
0.0
  0
SPLINE
  5
44A
100
AcDbEntity
  8
0
100
AcDbSpline
 62
250
  6
CONTINUOUS
 70
0
 71
3
 72
11
 73
7
 74
0
 42
0.0000001
 43
0.0000001
 44
0.0000000001
 40
0.0
 40
0.0
 40
0.0
 40
0.0
 40
0.2351712695
 40
0.4995791233
 40
0.7642134642
 40
1.0
 40
1.0
 40
1.0
 40
1.0
 10
147.5901132475
 20
126.1664190877
 30
0.0
 10
147.6155065632
 20
126.1537224299
 30
0.0
 10
147.6738507193
 20
126.1355781342
 30
0.0
 10
147.7661857824
 20
126.1268224853
 30
0.0
 10
147.85862011
 20
126.1353245659
 30
0.0
 10
147.9171166886
 20
126.1532947083
 30
0.0
 10
147.9426352071
 20
126.1659063639
 30
0.0
  0
SPLINE
  5
44B
100
AcDbEntity
  8
0
100
AcDbSpline
 62
250
  6
CONTINUOUS
 70
0
 71
3
 72
11
 73
7
 74
0
 42
0.0000001
 43
0.0000001
 44
0.0000000001
 40
0.0
 40
0.0
 40
0.0
 40
0.0
 40
0.2069625494
 40
0.4350623935
 40
0.6978079022
 40
1.0
 40
1.0
 40
1.0
 40
1.0
 10
137.840722776
 20
133.8117427677
 30
0.0
 10
137.8407228196
 20
133.8035206789
 30
0.0
 10
137.8371240418
 20
133.7861047962
 30
0.0
 10
137.8220748024
 20
133.7623092748
 30
0.0
 10
137.79859741
 20
133.7408979079
 30
0.0
 10
137.779237863
 20
133.7292891501
 30
0.0
 10
137.7685251771
 20
133.7238701179
 30
0.0
  0
SPLINE
  5
44C
100
AcDbEntity
  8
0
100
AcDbSpline
 62
250
  6
CONTINUOUS
 70
0
 71
3
 72
11
 73
7
 74
0
 42
0.0000001
 43
0.0000001
 44
0.0000000001
 40
0.0
 40
0.0
 40
0.0
 40
0.0
 40
0.2351713294
 40
0.4995792494
 40
0.7642136314
 40
1.0
 40
1.0
 40
1.0
 40
1.0
 10
135.2864552548
 20
132.6582220182
 30
0.0
 10
135.3118485771
 20
132.6455253571
 30
0.0
 10
135.370192749
 20
132.6273810593
 30
0.0
 10
135.4625278328
 20
132.618625415
 30
0.0
 10
135.5549621534
 20
132.6271275025
 30
0.0
 10
135.613458714
 20
132.6450976476
 30
0.0
 10
135.6389772145
 20
132.6577092943
 30
0.0
  0
SPLINE
  5
44D
100
AcDbEntity
  8
0
100
AcDbSpline
 62
250
  6
CONTINUOUS
 70
0
 71
3
 72
11
 73
7
 74
0
 42
0.0000001
 43
0.0000001
 44
0.0000000001
 40
0.0
 40
0.0
 40
0.0
 40
0.0
 40
0.2351713009
 40
0.4995791941
 40
0.7642135602
 40
1.0
 40
1.0
 40
1.0
 40
1.0
 10
135.2864552548
 20
132.3182480841
 30
0.0
 10
135.311848574
 20
132.3055514245
 30
0.0
 10
135.3701927389
 20
132.2874071275
 30
0.0
 10
135.4625278139
 20
132.2786514812
 30
0.0
 10
135.5549621378
 20
132.2871535657
 30
0.0
 10
135.6134587063
 20
132.3051237097
 30
0.0
 10
135.6389772145
 20
132.3177353602
 30
0.0
  0
SPLINE
  5
44E
100
AcDbEntity
  8
0
100
AcDbSpline
 62
250
  6
CONTINUOUS
 70
0
 71
3
 72
10
 73
6
 74
0
 42
0.0000001
 43
0.0000001
 44
0.0000000001
 40
0.0
 40
0.0
 40
0.0
 40
0.0
 40
0.3027378155
 40
0.5674159533
 40
1.0
 40
1.0
 40
1.0
 40
1.0
 10
133.6079171844
 20
133.1575171193
 30
0.0
 10
133.5974690509
 20
133.162741186
 30
0.0
 10
133.5784970839
 20
133.1740130527
 30
0.0
 10
133.5494000578
 20
133.1992937765
 30
0.0
 10
133.5358665578
 20
133.2253121307
 30
0.0
 10
133.5348179478
 20
133.2419707437
 30
0.0
  0
SPLINE
  5
44F
100
AcDbEntity
  8
0
100
AcDbSpline
 62
250
  6
CONTINUOUS
 70
0
 71
3
 72
11
 73
7
 74
0
 42
0.0000001
 43
0.0000001
 44
0.0000000001
 40
0.0
 40
0.0
 40
0.0
 40
0.0
 40
0.3025803505
 40
0.5654851532
 40
0.7934324302
 40
1.0
 40
1.0
 40
1.0
 40
1.0
 10
133.6079171844
 20
133.4974910534
 30
0.0
 10
133.5970625795
 20
133.5029183558
 30
0.0
 10
133.5774441465
 20
133.5145583207
 30
0.0
 10
133.5536323273
 20
133.5360784694
 30
0.0
 10
133.5383532079
 20
133.5600330984
 30
0.0
 10
133.5346941741
 20
133.577594459
 30
0.0
 10
133.534694138
 20
133.5858794196
 30
0.0
  0
SPLINE
  5
450
100
AcDbEntity
  8
0
100
AcDbSpline
 62
250
  6
CONTINUOUS
 70
0
 71
3
 72
11
 73
7
 74
0
 42
0.0000001
 43
0.0000001
 44
0.0000000001
 40
0.0
 40
0.0
 40
0.0
 40
0.0
 40
0.2069625494
 40
0.4350623935
 40
0.6978079022
 40
1.0
 40
1.0
 40
1.0
 40
1.0
 10
150.1443807686
 20
127.6599137714
 30
0.0
 10
150.1443808122
 20
127.6516916825
 30
0.0
 10
150.1407820344
 20
127.6342757999
 30
0.0
 10
150.125732795
 20
127.6104802784
 30
0.0
 10
150.1022554026
 20
127.5890689115
 30
0.0
 10
150.0828958556
 20
127.5774601538
 30
0.0
 10
150.0721831697
 20
127.5720411215
 30
0.0
  0
SPLINE
  5
451
100
AcDbEntity
  8
0
100
AcDbSpline
 62
7
  6
CONTINUOUS
 70
0
 71
3
 72
12
 73
8
 74
0
 42
0.0000001
 43
0.0000001
 44
0.0000000001
 40
0.0
 40
0.0
 40
0.0
 40
0.0
 40
0.1473186917
 40
0.2879453266
 40
0.5479160079
 40
0.7822066127
 40
1.0
 40
1.0
 40
1.0
 40
1.0
 10
150.2510227792
 20
86.988171054
 30
0.0
 10
150.2510227792
 20
86.972758179
 30
0.0
 10
150.2502452814
 20
86.942585142
 30
0.0
 10
150.242086712
 20
86.8857543611
 30
0.0
 10
150.2219629334
 20
86.821720196
 30
0.0
 10
150.1808145213
 20
86.7583341244
 30
0.0
 10
150.1425628743
 20
86.728598657
 30
0.0
 10
150.1223135128
 20
86.7181501696
 30
0.0
  0
SPLINE
  5
452
100
AcDbEntity
  8
0
100
AcDbSpline
 62
7
  6
CONTINUOUS
 70
0
 71
3
 72
11
 73
7
 74
0
 42
0.0000001
 43
0.0000001
 44
0.0000000001
 40
0.0
 40
0.0
 40
0.0
 40
0.0
 40
0.1105194225
 40
0.2307240176
 40
0.4904759085
 40
1.0
 40
1.0
 40
1.0
 40
1.0
 10
149.8977385132
 20
125.5295403829
 30
0.0
 10
149.9218207146
 20
125.5174992822
 30
0.0
 10
149.9691391598
 20
125.4864908173
 30
0.0
 10
150.05890272
 20
125.4070401227
 30
0.0
 10
150.1893260352
 20
125.2325149573
 30
0.0
 10
150.2510227792
 20
125.0438175138
 30
0.0
 10
150.2510227792
 20
124.9196873563
 30
0.0
  0
SPLINE
  5
453
100
AcDbEntity
  8
0
100
AcDbSpline
 62
7
  6
CONTINUOUS
 70
0
 71
3
 72
9
 73
5
 74
0
 42
0.0000001
 43
0.0000001
 44
0.0000000001
 40
0.0
 40
0.0
 40
0.0
 40
0.0
 40
0.3947538935
 40
1.0
 40
1.0
 40
1.0
 40
1.0
 10
145.3560640551
 20
134.5775281379
 30
0.0
 10
145.3532294012
 20
134.5789369404
 30
0.0
 10
145.3450155735
 20
134.5800826296
 30
0.0
 10
145.3370576684
 20
134.579326074
 30
0.0
 10
145.3322522051
 20
134.5786461733
 30
0.0
  0
SPLINE
  5
454
100
AcDbEntity
  8
0
100
AcDbSpline
 62
7
  6
CONTINUOUS
 70
0
 71
3
 72
9
 73
5
 74
0
 42
0.0000001
 43
0.0000001
 44
0.0000000001
 40
0.0
 40
0.0
 40
0.0
 40
0.0
 40
0.3569097911
 40
1.0
 40
1.0
 40
1.0
 40
1.0
 10
150.9465348479
 20
131.7822927793
 30
0.0
 10
150.9416381723
 20
131.7847391212
 30
0.0
 10
150.9253763112
 20
131.784546874
 30
0.0
 10
150.9106670638
 20
131.7814135996
 30
0.0
 10
150.9011070163
 20
131.7789887779
 30
0.0
  0
SPLINE
  5
455
100
AcDbEntity
  8
0
100
AcDbSpline
 62
7
  6
CONTINUOUS
 70
0
 71
3
 72
9
 73
5
 74
0
 42
0.0000001
 43
0.0000001
 44
0.0000000001
 40
0.0
 40
0.0
 40
0.0
 40
0.0
 40
0.2011698412
 40
1.0
 40
1.0
 40
1.0
 40
1.0
 10
150.9011070163
 20
131.7789887779
 30
0.0
 10
150.895596094
 20
131.777590981
 30
0.0
 10
150.8683875339
 20
131.7699124422
 30
0.0
 10
150.841800582
 20
131.7602050498
 30
0.0
 10
150.8207180114
 20
131.7521292019
 30
0.0
  0
SPLINE
  5
456
100
AcDbEntity
  8
0
100
AcDbSpline
 62
250
  6
CONTINUOUS
 70
0
 71
3
 72
11
 73
7
 74
0
 42
0.0000001
 43
0.0000001
 44
0.0000000001
 40
0.0
 40
0.0
 40
0.0
 40
0.0
 40
0.2466001016
 40
0.5114084622
 40
0.7699750674
 40
1.0
 40
1.0
 40
1.0
 40
1.0
 10
145.9115751771
 20
127.3456620571
 30
0.0
 10
145.9115751771
 20
127.3757405708
 30
0.0
 10
145.9219174837
 20
127.4382257359
 30
0.0
 10
145.9594020335
 20
127.5251956949
 30
0.0
 10
146.0145405167
 20
127.5996952353
 30
0.0
 10
146.0623003988
 20
127.6373490568
 30
0.0
 10
146.0873234331
 20
127.650038872
 30
0.0
  0
SPLINE
  5
457
100
AcDbEntity
  8
0
100
AcDbSpline
 62
250
  6
CONTINUOUS
 70
0
 71
3
 72
11
 73
7
 74
0
 42
0.0000001
 43
0.0000001
 44
0.0000000001
 40
0.0
 40
0.0
 40
0.0
 40
0.0
 40
0.2466000408
 40
0.5114083384
 40
0.7699749055
 40
1.0
 40
1.0
 40
1.0
 40
1.0
 10
147.5901132475
 20
126.5063930219
 30
0.0
 10
147.5901132475
 20
126.5364715282
 30
0.0
 10
147.6004555487
 20
126.5989566781
 30
0.0
 10
147.6379400832
 20
126.685926622
 30
0.0
 10
147.6930785625
 20
126.760426173
 30
0.0
 10
147.7408384516
 20
126.7980800127
 30
0.0
 10
147.7658615035
 20
126.8107698368
 30
0.0
  0
SPLINE
  5
458
100
AcDbEntity
  8
0
100
AcDbSpline
 62
250
  6
CONTINUOUS
 70
0
 71
3
 72
11
 73
7
 74
0
 42
0.0000001
 43
0.0000001
 44
0.0000000001
 40
0.0
 40
0.0
 40
0.0
 40
0.0
 40
0.3025822955
 40
0.5654826204
 40
0.793432266
 40
1.0
 40
1.0
 40
1.0
 40
1.0
 10
142.8636135491
 20
129.9039705919
 30
0.0
 10
142.8549298144
 20
129.9083124593
 30
0.0
 10
142.8392350378
 20
129.9176242466
 30
0.0
 10
142.820185931
 20
129.9348407447
 30
0.0
 10
142.8079625877
 20
129.9540041719
 30
0.0
 10
142.8050347985
 20
129.9680533002
 30
0.0
 10
142.8050349091
 20
129.9746812701
 30
0.0
  0
SPLINE
  5
459
100
AcDbEntity
  8
0
100
AcDbSpline
 62
250
  6
CONTINUOUS
 70
0
 71
3
 72
11
 73
7
 74
0
 42
0.0000001
 43
0.0000001
 44
0.0000000001
 40
0.0
 40
0.0
 40
0.0
 40
0.0
 40
0.2350722031
 40
0.4993698028
 40
0.7640064406
 40
1.0
 40
1.0
 40
1.0
 40
1.0
 10
141.1628440076
 20
130.7543553627
 30
0.0
 10
141.1831180128
 20
130.7442183601
 30
0.0
 10
141.2296940361
 20
130.7297191795
 30
0.0
 10
141.3034202725
 20
130.7226864928
 30
0.0
 10
141.3772652284
 20
130.7294153308
 30
0.0
 10
141.4240235621
 20
130.7437058612
 30
0.0
 10
141.4444472167
 20
130.7537409959
 30
0.0
  0
SPLINE
  5
45A
100
AcDbEntity
  8
0
100
AcDbSpline
 62
250
  6
CONTINUOUS
 70
0
 71
3
 72
9
 73
5
 74
0
 42
0.0000001
 43
0.0000001
 44
0.0000000001
 40
0.0
 40
0.0
 40
0.0
 40
0.0
 40
0.5365169102
 40
1.0
 40
1.0
 40
1.0
 40
1.0
 10
143.0042121539
 20
130.1474720439
 30
0.0
 10
142.989187849
 20
130.1548532938
 30
0.0
 10
142.9586249473
 20
130.1647878854
 30
0.0
 10
142.9261767977
 20
130.1590457872
 30
0.0
 10
142.9133256079
 20
130.1524152848
 30
0.0
  0
SPLINE
  5
45B
100
AcDbEntity
  8
0
100
AcDbSpline
 62
7
  6
CONTINUOUS
 70
0
 71
3
 72
9
 73
5
 74
0
 42
0.0000001
 43
0.0000001
 44
0.0000000001
 40
0.0
 40
0.0
 40
0.0
 40
0.0
 40
0.5361431045
 40
1.0
 40
1.0
 40
1.0
 40
1.0
 10
143.2153085114
 20
130.2563960299
 30
0.0
 10
143.2007279294
 20
130.2636863209
 30
0.0
 10
143.1710648968
 20
130.2736125628
 30
0.0
 10
143.1394097837
 20
130.2686437105
 30
0.0
 10
143.1267164391
 20
130.2624960733
 30
0.0
  0
SPLINE
  5
45C
100
AcDbEntity
  8
0
100
AcDbSpline
 62
7
  6
CONTINUOUS
 70
0
 71
3
 72
11
 73
7
 74
0
 42
0.0000001
 43
0.0000001
 44
0.0000000001
 40
0.0
 40
0.0
 40
0.0
 40
0.0
 40
0.2296750453
 40
0.4882137809
 40
0.7532064433
 40
1.0
 40
1.0
 40
1.0
 40
1.0
 10
141.5182558265
 20
131.1049223724
 30
0.0
 10
141.53836288
 20
131.0948688456
 30
0.0
 10
141.5767847511
 20
131.0648109749
 30
0.0
 10
141.6211519375
 20
131.005134944
 30
0.0
 10
141.6513394178
 20
130.9353485648
 30
0.0
 10
141.6596753877
 20
130.8851692857
 30
0.0
 10
141.6596753877
 20
130.8610133733
 30
0.0
  0
SPLINE
  5
45D
100
AcDbEntity
  8
0
100
AcDbSpline
 62
250
  6
CONTINUOUS
 70
0
 71
3
 72
11
 73
7
 74
0
 42
0.0000001
 43
0.0000001
 44
0.0000000001
 40
0.0
 40
0.0
 40
0.0
 40
0.0
 40
0.2292299108
 40
0.4879022955
 40
0.7531904418
 40
1.0
 40
1.0
 40
1.0
 40
1.0
 10
141.3034426124
 20
130.9978568147
 30
0.0
 10
141.3234168167
 20
130.9876926187
 30
0.0
 10
141.3615640468
 20
130.9574473941
 30
0.0
 10
141.4056738634
 20
130.8977119838
 30
0.0
 10
141.4358335134
 20
130.8279787562
 30
0.0
 10
141.4443313288
 20
130.7778710614
 30
0.0
 10
141.4444472167
 20
130.7537409959
 30
0.0
  0
SPLINE
  5
45E
100
AcDbEntity
  8
0
100
AcDbSpline
 62
250
  6
CONTINUOUS
 70
0
 71
3
 72
11
 73
7
 74
0
 42
0.0000001
 43
0.0000001
 44
0.0000000001
 40
0.0
 40
0.0
 40
0.0
 40
0.0
 40
0.2466001016
 40
0.5114084622
 40
0.7699750674
 40
1.0
 40
1.0
 40
1.0
 40
1.0
 10
133.6079171844
 20
133.4974910534
 30
0.0
 10
133.6079171844
 20
133.5275695671
 30
0.0
 10
133.6182594911
 20
133.5900547322
 30
0.0
 10
133.6557440408
 20
133.6770246912
 30
0.0
 10
133.7108825241
 20
133.7515242316
 30
0.0
 10
133.7586424061
 20
133.7891780531
 30
0.0
 10
133.7836654404
 20
133.8018678684
 30
0.0
  0
SPLINE
  5
45F
100
AcDbEntity
  8
0
100
AcDbSpline
 62
250
  6
CONTINUOUS
 70
0
 71
3
 72
11
 73
7
 74
0
 42
0.0000001
 43
0.0000001
 44
0.0000000001
 40
0.0
 40
0.0
 40
0.0
 40
0.0
 40
0.2466001016
 40
0.5114084622
 40
0.7699750674
 40
1.0
 40
1.0
 40
1.0
 40
1.0
 10
135.2864552548
 20
132.6582220182
 30
0.0
 10
135.2864552548
 20
132.6883005319
 30
0.0
 10
135.2967975615
 20
132.750785697
 30
0.0
 10
135.3342821112
 20
132.837755656
 30
0.0
 10
135.3894205945
 20
132.9122551964
 30
0.0
 10
135.4371804765
 20
132.9499090179
 30
0.0
 10
135.4622035108
 20
132.9625988331
 30
0.0
  0
LINE
  5
460
100
AcDbEntity
  8
0
100
AcDbLine
 62
7
  6
CONTINUOUS
 10
145.8886901107
 20
133.1410869761
 11
145.8903763144
 21
132.5719181887
  0
SPLINE
  5
461
100
AcDbEntity
  8
0
100
AcDbSpline
 62
250
  6
CONTINUOUS
 70
0
 71
3
 72
11
 73
7
 74
0
 42
0.0000001
 43
0.0000001
 44
0.0000000001
 40
0.0
 40
0.0
 40
0.0
 40
0.0
 40
0.2069636589
 40
0.4351216028
 40
0.6978811211
 40
1.0
 40
1.0
 40
1.0
 40
1.0
 10
150.1443804881
 20
86.0125904268
 30
0.0
 10
150.1443558979
 20
86.0043810961
 30
0.0
 10
150.1407170684
 20
85.9870020385
 30
0.0
 10
150.1256576022
 20
85.9632649005
 30
0.0
 10
150.1022050555
 20
85.9419016443
 30
0.0
 10
150.0828766319
 20
85.9303147733
 30
0.0
 10
150.0721831697
 20
85.9249054654
 30
0.0
  0
SPLINE
  5
462
100
AcDbEntity
  8
0
100
AcDbSpline
 62
250
  6
CONTINUOUS
 70
0
 71
3
 72
11
 73
7
 74
0
 42
0.0000001
 43
0.0000001
 44
0.0000000001
 40
0.0
 40
0.0
 40
0.0
 40
0.0
 40
0.2465991961
 40
0.5114081749
 40
0.7699752441
 40
1.0
 40
1.0
 40
1.0
 40
1.0
 10
141.1628440076
 20
130.7543553627
 30
0.0
 10
141.1628440076
 20
130.7784180801
 30
0.0
 10
141.1711182026
 20
130.8284060662
 30
0.0
 10
141.2011050841
 20
130.8979823926
 30
0.0
 10
141.245216565
 20
130.9575816116
 30
0.0
 10
141.2834242047
 20
130.9877049725
 30
0.0
 10
141.3034426124
 20
130.9978568147
 30
0.0
  0
SPLINE
  5
463
100
AcDbEntity
  8
0
100
AcDbSpline
 62
7
  6
CONTINUOUS
 70
0
 71
3
 72
9
 73
5
 74
0
 42
0.0000001
 43
0.0000001
 44
0.0000000001
 40
0.0
 40
0.0
 40
0.0
 40
0.0
 40
0.5259293973
 40
1.0
 40
1.0
 40
1.0
 40
1.0
 10
145.8903763144
 20
132.5719181887
 30
0.0
 10
145.9714326046
 20
132.5606921306
 30
0.0
 10
146.1243763506
 20
132.5293509849
 30
0.0
 10
146.2710965151
 20
132.4746989335
 30
0.0
 10
146.3370705501
 20
132.441711916
 30
0.0
  0
SPLINE
  5
464
100
AcDbEntity
  8
0
100
AcDbSpline
 62
250
  6
CONTINUOUS
 70
0
 71
3
 72
11
 73
7
 74
0
 42
0.0000001
 43
0.0000001
 44
0.0000000001
 40
0.0
 40
0.0
 40
0.0
 40
0.0
 40
0.2069626523
 40
0.4350658702
 40
0.6978122983
 40
1.0
 40
1.0
 40
1.0
 40
1.0
 10
150.1443807677
 20
127.3123715341
 30
0.0
 10
150.1443794
 20
127.3041501704
 30
0.0
 10
150.1407783282
 20
127.2867363859
 30
0.0
 10
150.1257284947
 20
127.262944193
 30
0.0
 10
150.1022525144
 20
127.241535584
 30
0.0
 10
150.0828947498
 20
127.2299280777
 30
0.0
 10
150.0721831697
 20
127.2245096048
 30
0.0
  0
SPLINE
  5
465
100
AcDbEntity
  8
0
100
AcDbSpline
 62
250
  6
CONTINUOUS
 70
0
 71
3
 72
9
 73
5
 74
0
 42
0.0000001
 43
0.0000001
 44
0.0000000001
 40
0.0
 40
0.0
 40
0.0
 40
0.0
 40
0.2355841474
 40
1.0
 40
1.0
 40
1.0
 40
1.0
 10
142.8636135491
 20
129.9039705919
 30
0.0
 10
142.8636135491
 20
129.9132721725
 30
0.0
 10
142.8662078035
 20
129.9527418882
 30
0.0
 10
142.8778995449
 20
129.9913607032
 30
0.0
 10
142.8904139255
 20
130.0188254325
 30
0.0
  0
SPLINE
  5
466
100
AcDbEntity
  8
0
100
AcDbSpline
 62
250
  6
CONTINUOUS
 70
0
 71
3
 72
9
 73
5
 74
0
 42
0.0000001
 43
0.0000001
 44
0.0000000001
 40
0.0
 40
0.0
 40
0.0
 40
0.0
 40
0.526247282
 40
1.0
 40
1.0
 40
1.0
 40
1.0
 10
142.8904139255
 20
130.0188254325
 30
0.0
 10
142.9024725041
 20
130.0452898343
 30
0.0
 10
142.9320282155
 20
130.0927666618
 30
0.0
 10
142.9741038008
 20
130.1305110322
 30
0.0
 10
142.9968378933
 20
130.1434961967
 30
0.0
  0
SPLINE
  5
467
100
AcDbEntity
  8
0
100
AcDbSpline
 62
250
  6
CONTINUOUS
 70
0
 71
3
 72
11
 73
7
 74
0
 42
0.0000001
 43
0.0000001
 44
0.0000000001
 40
0.0
 40
0.0
 40
0.0
 40
0.0
 40
0.2299225475
 40
0.4883138243
 40
0.7531101442
 40
1.0
 40
1.0
 40
1.0
 40
1.0
 10
149.895409466
 20
127.8769306604
 30
0.0
 10
149.9206486269
 20
127.8644560226
 30
0.0
 10
149.9688850095
 20
127.8270244017
 30
0.0
 10
150.0244865118
 20
127.7524303573
 30
0.0
 10
150.0621356172
 20
127.6650896825
 30
0.0
 10
150.0723255937
 20
127.6022721288
 30
0.0
 10
150.0721831697
 20
127.5720411215
 30
0.0
  0
SPLINE
  5
468
100
AcDbEntity
  8
0
100
AcDbSpline
 62
7
  6
CONTINUOUS
 70
0
 71
3
 72
11
 73
7
 74
0
 42
0.0000001
 43
0.0000001
 44
0.0000000001
 40
0.0
 40
0.0
 40
0.0
 40
0.0
 40
0.2296752475
 40
0.4882147097
 40
0.7532072079
 40
1.0
 40
1.0
 40
1.0
 40
1.0
 10
149.3671422943
 20
127.6134918403
 30
0.0
 10
149.3922762911
 20
127.6009248419
 30
0.0
 10
149.4403036151
 20
127.563351545
 30
0.0
 10
149.4957622208
 20
127.4887554358
 30
0.0
 10
149.5334959946
 20
127.4015216265
 30
0.0
 10
149.543915998
 20
127.338797288
 30
0.0
 10
149.543915998
 20
127.3086023015
 30
0.0
  0
SPLINE
  5
469
100
AcDbEntity
  8
0
100
AcDbSpline
 62
250
  6
CONTINUOUS
 70
0
 71
3
 72
11
 73
7
 74
0
 42
0.0000001
 43
0.0000001
 44
0.0000000001
 40
0.0
 40
0.0
 40
0.0
 40
0.0
 40
0.2294296147
 40
0.4881164794
 40
0.7533035489
 40
1.0
 40
1.0
 40
1.0
 40
1.0
 10
147.7658615035
 20
126.8107698368
 30
0.0
 10
147.7908889213
 20
126.7981086321
 30
0.0
 10
147.8387042745
 20
126.7603920605
 30
0.0
 10
147.8940188371
 20
126.6857936836
 30
0.0
 10
147.9318382215
 20
126.5986678888
 30
0.0
 10
147.9424907784
 20
126.5360385995
 30
0.0
 10
147.9426352071
 20
126.505880298
 30
0.0
  0
SPLINE
  5
46A
100
AcDbEntity
  8
0
100
AcDbSpline
 62
250
  6
CONTINUOUS
 70
0
 71
3
 72
11
 73
7
 74
0
 42
0.0000001
 43
0.0000001
 44
0.0000000001
 40
0.0
 40
0.0
 40
0.0
 40
0.0
 40
0.2069626523
 40
0.4350658702
 40
0.6978122983
 40
1.0
 40
1.0
 40
1.0
 40
1.0
 10
137.8407227751
 20
133.4642005304
 30
0.0
 10
137.8407214073
 20
133.4559791667
 30
0.0
 10
137.8371203356
 20
133.4385653822
 30
0.0
 10
137.8220705021
 20
133.4147731894
 30
0.0
 10
137.7985945218
 20
133.3933645803
 30
0.0
 10
137.7792367572
 20
133.381757074
 30
0.0
 10
137.7685251771
 20
133.3763386011
 30
0.0
  0
SPLINE
  5
46B
100
AcDbEntity
  8
0
100
AcDbSpline
 62
250
  6
CONTINUOUS
 70
0
 71
3
 72
11
 73
7
 74
0
 42
0.0000001
 43
0.0000001
 44
0.0000000001
 40
0.0
 40
0.0
 40
0.0
 40
0.0
 40
0.2299225475
 40
0.4883138243
 40
0.7531101442
 40
1.0
 40
1.0
 40
1.0
 40
1.0
 10
137.5917514734
 20
134.0287596567
 30
0.0
 10
137.6169906343
 20
134.016285019
 30
0.0
 10
137.6652270168
 20
133.9788533981
 30
0.0
 10
137.7208285191
 20
133.9042593537
 30
0.0
 10
137.7584776245
 20
133.8169186788
 30
0.0
 10
137.768667601
 20
133.7541011251
 30
0.0
 10
137.7685251771
 20
133.7238701179
 30
0.0
  0
SPLINE
  5
46C
100
AcDbEntity
  8
0
100
AcDbSpline
 62
7
  6
CONTINUOUS
 70
0
 71
3
 72
11
 73
7
 74
0
 42
0.0000001
 43
0.0000001
 44
0.0000000001
 40
0.0
 40
0.0
 40
0.0
 40
0.0
 40
0.2296752475
 40
0.4882147097
 40
0.7532072079
 40
1.0
 40
1.0
 40
1.0
 40
1.0
 10
137.0634843016
 20
133.7653208366
 30
0.0
 10
137.0886182984
 20
133.7527538383
 30
0.0
 10
137.1366456225
 20
133.7151805413
 30
0.0
 10
137.1921042282
 20
133.6405844321
 30
0.0
 10
137.2298380019
 20
133.5533506229
 30
0.0
 10
137.2402580053
 20
133.4906262843
 30
0.0
 10
137.2402580053
 20
133.4604312978
 30
0.0
  0
SPLINE
  5
46D
100
AcDbEntity
  8
0
100
AcDbSpline
 62
250
  6
CONTINUOUS
 70
0
 71
3
 72
11
 73
7
 74
0
 42
0.0000001
 43
0.0000001
 44
0.0000000001
 40
0.0
 40
0.0
 40
0.0
 40
0.0
 40
0.2294297766
 40
0.4881166035
 40
0.7533036098
 40
1.0
 40
1.0
 40
1.0
 40
1.0
 10
135.4622035108
 20
132.9625988331
 30
0.0
 10
135.4872309462
 20
132.9499376195
 30
0.0
 10
135.5350463066
 20
132.9122210296
 30
0.0
 10
135.5903608653
 20
132.8376226422
 30
0.0
 10
135.6281802344
 20
132.7504968624
 30
0.0
 10
135.6388327858
 20
132.6878675884
 30
0.0
 10
135.6389772145
 20
132.6577092943
 30
0.0
  0
SPLINE
  5
46E
100
AcDbEntity
  8
0
100
AcDbSpline
 62
250
  6
CONTINUOUS
 70
0
 71
3
 72
11
 73
7
 74
0
 42
0.0000001
 43
0.0000001
 44
0.0000000001
 40
0.0
 40
0.0
 40
0.0
 40
0.0
 40
0.2897444871
 40
0.5495867578
 40
0.7828492791
 40
1.0
 40
1.0
 40
1.0
 40
1.0
 10
135.2864552548
 20
132.3182480841
 30
0.0
 10
135.2864552548
 20
132.3030440473
 30
0.0
 10
135.2889086725
 20
132.2740953882
 30
0.0
 10
135.3012809537
 20
132.2345029983
 30
0.0
 10
135.3219441097
 20
132.2028039935
 30
0.0
 10
135.3412293337
 20
132.1881304943
 30
0.0
 10
135.3514205902
 20
132.1830335598
 30
0.0
  0
SPLINE
  5
46F
100
AcDbEntity
  8
0
100
AcDbSpline
 62
250
  6
CONTINUOUS
 70
0
 71
3
 72
11
 73
7
 74
0
 42
0.0000001
 43
0.0000001
 44
0.0000000001
 40
0.0
 40
0.0
 40
0.0
 40
0.0
 40
0.2897462804
 40
0.5495881417
 40
0.782849192
 40
1.0
 40
1.0
 40
1.0
 40
1.0
 10
133.6079171844
 20
133.1575171193
 30
0.0
 10
133.6079171844
 20
133.1423121422
 30
0.0
 10
133.6103708933
 20
133.113361782
 30
0.0
 10
133.6227447545
 20
133.0737673989
 30
0.0
 10
133.643410612
 20
133.0420676126
 30
0.0
 10
133.6626981467
 20
133.0273948767
 30
0.0
 10
133.6728904583
 20
133.022298624
 30
0.0
  0
SPLINE
  5
470
100
AcDbEntity
  8
0
100
AcDbSpline
 62
250
  6
CONTINUOUS
 70
0
 71
3
 72
11
 73
7
 74
0
 42
0.0000001
 43
0.0000001
 44
0.0000000001
 40
0.0
 40
0.0
 40
0.0
 40
0.0
 40
0.2069632709
 40
0.4351047998
 40
0.6978603878
 40
1.0
 40
1.0
 40
1.0
 40
1.0
 10
150.1443806244
 20
85.6651119573
 30
0.0
 10
150.1443629898
 20
85.6568990161
 30
0.0
 10
150.1407354572
 20
85.6395095451
 30
0.0
 10
150.1256788638
 20
85.6157559142
 30
0.0
 10
150.1022192883
 20
85.5943790625
 30
0.0
 10
150.0828820659
 20
85.5827860054
 30
0.0
 10
150.0721831697
 20
85.5773739487
 30
0.0
  0
SPLINE
  5
471
100
AcDbEntity
  8
0
100
AcDbSpline
 62
250
  6
CONTINUOUS
 70
0
 71
3
 72
11
 73
7
 74
0
 42
0.0000001
 43
0.0000001
 44
0.0000000001
 40
0.0
 40
0.0
 40
0.0
 40
0.0
 40
0.2776558679
 40
0.5374733441
 40
0.7760959182
 40
1.0
 40
1.0
 40
1.0
 40
1.0
 10
135.6389772145
 20
132.3177353602
 30
0.0
 10
135.6291053042
 20
132.2920354464
 30
0.0
 10
135.6033294273
 20
132.2444780568
 30
0.0
 10
135.5478202156
 20
132.1893965155
 30
0.0
 10
135.4814291219
 20
132.1583223887
 30
0.0
 10
135.4338660763
 20
132.1573766535
 30
0.0
 10
135.4121337177
 20
132.1619141838
 30
0.0
  0
SPLINE
  5
472
100
AcDbEntity
  8
0
100
AcDbSpline
 62
250
  6
CONTINUOUS
 70
0
 71
3
 72
10
 73
6
 74
0
 42
0.0000001
 43
0.0000001
 44
0.0000000001
 40
0.0
 40
0.0
 40
0.0
 40
0.0
 40
0.348992152
 40
0.6281611902
 40
1.0
 40
1.0
 40
1.0
 40
1.0
 10
137.7685251771
 20
133.3763386011
 30
0.0
 10
137.7731128837
 20
133.3688700241
 30
0.0
 10
137.7807258916
 20
133.3548247473
 30
0.0
 10
137.7895770287
 20
133.3319197141
 30
0.0
 10
137.7898136851
 20
133.3127196935
 30
0.0
 10
137.783885675
 20
133.3055034957
 30
0.0
  0
SPLINE
  5
473
100
AcDbEntity
  8
0
100
AcDbSpline
 62
250
  6
CONTINUOUS
 70
0
 71
3
 72
11
 73
7
 74
0
 42
0.0000001
 43
0.0000001
 44
0.0000000001
 40
0.0
 40
0.0
 40
0.0
 40
0.0
 40
0.2893588232
 40
0.5490436311
 40
0.7824594985
 40
1.0
 40
1.0
 40
1.0
 40
1.0
 10
150.0721831697
 20
85.5773739487
 30
0.0
 10
150.0722544692
 20
85.562311998
 30
0.0
 10
150.0699611222
 20
85.5336129642
 30
0.0
 10
150.0578992715
 20
85.4942957695
 30
0.0
 10
150.0375897515
 20
85.4627123125
 30
0.0
 10
150.0185705214
 20
85.447978612
 30
0.0
 10
150.0084950834
 20
85.4428102083
 30
0.0
  0
SPLINE
  5
474
100
AcDbEntity
  8
0
100
AcDbSpline
 62
7
  6
CONTINUOUS
 70
0
 71
3
 72
11
 73
7
 74
0
 42
0.0000001
 43
0.0000001
 44
0.0000000001
 40
0.0
 40
0.0
 40
0.0
 40
0.0
 40
0.2895498204
 40
0.5494320339
 40
0.7828527029
 40
1.0
 40
1.0
 40
1.0
 40
1.0
 10
149.543915998
 20
85.30636289
 30
0.0
 10
149.543915998
 20
85.291261015
 30
0.0
 10
149.5414940655
 20
85.2624975657
 30
0.0
 10
149.5292934973
 20
85.2231220489
 30
0.0
 10
149.5089218376
 20
85.191510329
 30
0.0
 10
149.489887979
 20
85.176754461
 30
0.0
 10
149.4798108585
 20
85.1715851944
 30
0.0
  0
SPLINE
  5
475
100
AcDbEntity
  8
0
100
AcDbSpline
 62
250
  6
CONTINUOUS
 70
0
 71
3
 72
8
 73
4
 74
0
 42
0.0000001
 43
0.0000001
 44
0.0000000001
 40
0.0
 40
0.0
 40
0.0
 40
0.0
 40
1.0
 40
1.0
 40
1.0
 40
1.0
 10
150.0061844482
 20
86.2363849405
 30
0.0
 10
149.9987987808
 20
86.2400778445
 30
0.0
 10
149.9908552393
 20
86.242797634
 30
0.0
 10
149.9827693744
 20
86.2444722714
 30
0.0
  0
SPLINE
  5
476
100
AcDbEntity
  8
0
100
AcDbSpline
 62
250
  6
CONTINUOUS
 70
0
 71
3
 72
11
 73
7
 74
0
 42
0.0000001
 43
0.0000001
 44
0.0000000001
 40
0.0
 40
0.0
 40
0.0
 40
0.0
 40
0.2897455134
 40
0.5495875958
 40
0.7828491694
 40
1.0
 40
1.0
 40
1.0
 40
1.0
 10
147.5901132475
 20
126.1664190877
 30
0.0
 10
147.5901132475
 20
126.1512144142
 30
0.0
 10
147.5925668644
 20
126.1222645901
 30
0.0
 10
147.6049402262
 20
126.0826708274
 30
0.0
 10
147.625605246
 20
126.0509712733
 30
0.0
 10
147.6448920648
 20
126.036298293
 30
0.0
 10
147.6550840507
 20
126.0312018277
 30
0.0
  0
SPLINE
  5
477
100
AcDbEntity
  8
0
100
AcDbSpline
 62
250
  6
CONTINUOUS
 70
0
 71
3
 72
10
 73
6
 74
0
 42
0.0000001
 43
0.0000001
 44
0.0000000001
 40
0.0
 40
0.0
 40
0.0
 40
0.0
 40
0.5466521768
 40
0.7820204772
 40
1.0
 40
1.0
 40
1.0
 40
1.0
 10
145.9115751771
 20
127.0056881229
 30
0.0
 10
145.9115751771
 20
126.9786526653
 30
0.0
 10
145.9174000116
 20
126.9388524299
 30
0.0
 10
145.9427169224
 20
126.8957191324
 30
0.0
 10
145.9597711692
 20
126.8804318091
 30
0.0
 10
145.9689243101
 20
126.8747362941
 30
0.0
  0
SPLINE
  5
478
100
AcDbEntity
  8
0
100
AcDbSpline
 62
7
  6
CONTINUOUS
 70
0
 71
3
 72
10
 73
6
 74
0
 42
0.0000001
 43
0.0000001
 44
0.0000000001
 40
0.0
 40
0.0
 40
0.0
 40
0.0
 40
0.2565291183
 40
0.5176013489
 40
1.0
 40
1.0
 40
1.0
 40
1.0
 10
148.6538558152
 20
126.017402841
 30
0.0
 10
148.6344068738
 20
125.9941175878
 30
0.0
 10
148.5895650835
 20
125.9513563892
 30
0.0
 10
148.4892595968
 20
125.8893037036
 30
0.0
 10
148.3958773286
 20
125.8680953777
 30
0.0
 10
148.3400269692
 20
125.8797443447
 30
0.0
  0
SPLINE
  5
479
100
AcDbEntity
  8
0
100
AcDbSpline
 62
250
  6
CONTINUOUS
 70
0
 71
3
 72
11
 73
7
 74
0
 42
0.0000001
 43
0.0000001
 44
0.0000000001
 40
0.0
 40
0.0
 40
0.0
 40
0.0
 40
0.2901016424
 40
0.5501044941
 40
0.7832382416
 40
1.0
 40
1.0
 40
1.0
 40
1.0
 10
147.9426352071
 20
84.5263282904
 30
0.0
 10
147.9425621493
 20
84.5110007917
 30
0.0
 10
147.9399509682
 20
84.4818373438
 30
0.0
 10
147.9272963683
 20
84.4420117371
 30
0.0
 10
147.9063293646
 20
84.4102186211
 30
0.0
 10
147.8868241464
 20
84.3955931923
 30
0.0
 10
147.8765376868
 20
84.3905579588
 30
0.0
  0
SPLINE
  5
47A
100
AcDbEntity
  8
0
100
AcDbSpline
 62
250
  6
CONTINUOUS
 70
0
 71
3
 72
11
 73
7
 74
0
 42
0.0000001
 43
0.0000001
 44
0.0000000001
 40
0.0
 40
0.0
 40
0.0
 40
0.0
 40
0.2776557585
 40
0.5374732707
 40
0.7760958843
 40
1.0
 40
1.0
 40
1.0
 40
1.0
 10
147.9426352071
 20
126.1659063639
 30
0.0
 10
147.9327633002
 20
126.1402064589
 30
0.0
 10
147.9069874281
 20
126.092649073
 30
0.0
 10
147.8514782211
 20
126.0375675255
 30
0.0
 10
147.7850871142
 20
126.0064933906
 30
0.0
 10
147.7375240581
 20
126.0055476572
 30
0.0
 10
147.7157916955
 20
126.0100851906
 30
0.0
  0
SPLINE
  5
47B
100
AcDbEntity
  8
0
100
AcDbSpline
 62
250
  6
CONTINUOUS
 70
0
 71
3
 72
10
 73
6
 74
0
 42
0.0000001
 43
0.0000001
 44
0.0000000001
 40
0.0
 40
0.0
 40
0.0
 40
0.0
 40
0.348992152
 40
0.6281611902
 40
1.0
 40
1.0
 40
1.0
 40
1.0
 10
150.0721831697
 20
127.2245096048
 30
0.0
 10
150.0767708763
 20
127.2170410277
 30
0.0
 10
150.0843838843
 20
127.202995751
 30
0.0
 10
150.0932350213
 20
127.1800907178
 30
0.0
 10
150.0934716777
 20
127.1608906972
 30
0.0
 10
150.0875436676
 20
127.1536744994
 30
0.0
  0
SPLINE
  5
47C
100
AcDbEntity
  8
0
100
AcDbSpline
 62
7
  6
CONTINUOUS
 70
0
 71
3
 72
10
 73
6
 74
0
 42
0.0000001
 43
0.0000001
 44
0.0000000001
 40
0.0
 40
0.0
 40
0.0
 40
0.0
 40
0.4823936024
 40
0.7434680481
 40
1.0
 40
1.0
 40
1.0
 40
1.0
 10
136.0363593445
 20
132.031577259
 30
0.0
 10
136.0922058417
 20
132.0199055364
 30
0.0
 10
136.1855969873
 20
132.041134378
 30
0.0
 10
136.2859043309
 20
132.1031822659
 30
0.0
 10
136.3307481662
 20
132.1459457281
 30
0.0
 10
136.3501978226
 20
132.1692318373
 30
0.0
  0
SPLINE
  5
47D
100
AcDbEntity
  8
0
100
AcDbSpline
 62
250
  6
CONTINUOUS
 70
0
 71
3
 72
9
 73
5
 74
0
 42
0.0000001
 43
0.0000001
 44
0.0000000001
 40
0.0
 40
0.0
 40
0.0
 40
0.0
 40
0.4633167549
 40
1.0
 40
1.0
 40
1.0
 40
1.0
 10
133.6705798132
 20
133.8083157677
 30
0.0
 10
133.6865858082
 20
133.8165263739
 30
0.0
 10
133.7269864228
 20
133.8235638972
 30
0.0
 10
133.7649843748
 20
133.8110995803
 30
0.0
 10
133.7836654404
 20
133.8018678684
 30
0.0
  0
SPLINE
  5
47E
100
AcDbEntity
  8
0
100
AcDbSpline
 62
250
  6
CONTINUOUS
 70
0
 71
3
 72
9
 73
5
 74
0
 42
0.0000001
 43
0.0000001
 44
0.0000000001
 40
0.0
 40
0.0
 40
0.0
 40
0.0
 40
0.4641049814
 40
1.0
 40
1.0
 40
1.0
 40
1.0
 10
135.790359893
 20
134.8819340837
 30
0.0
 10
135.8061938131
 20
134.8896465186
 30
0.0
 10
135.8457214807
 20
134.8959086781
 30
0.0
 10
135.8827245871
 20
134.8833785355
 30
0.0
 10
135.9008719222
 20
134.8741994323
 30
0.0
  0
SPLINE
  5
47F
100
AcDbEntity
  8
0
100
AcDbSpline
 62
7
  6
CONTINUOUS
 70
0
 71
3
 72
9
 73
5
 74
0
 42
0.0000001
 43
0.0000001
 44
0.0000000001
 40
0.0
 40
0.0
 40
0.0
 40
0.0
 40
0.4638305674
 40
1.0
 40
1.0
 40
1.0
 40
1.0
 10
135.2554899275
 20
134.6213819787
 30
0.0
 10
135.2713672043
 20
134.6291155354
 30
0.0
 10
135.3110072319
 20
134.6354065118
 30
0.0
 10
135.3481623933
 20
134.6229817908
 30
0.0
 10
135.3664220436
 20
134.6138519657
 30
0.0
  0
SPLINE
  5
480
100
AcDbEntity
  8
0
100
AcDbSpline
 62
250
  6
CONTINUOUS
 70
0
 71
3
 72
9
 73
5
 74
0
 42
0.0000001
 43
0.0000001
 44
0.0000000001
 40
0.0
 40
0.0
 40
0.0
 40
0.0
 40
0.4633167549
 40
1.0
 40
1.0
 40
1.0
 40
1.0
 10
145.9742378058
 20
127.6564867713
 30
0.0
 10
145.9902438009
 20
127.6646973776
 30
0.0
 10
146.0306444154
 20
127.6717349008
 30
0.0
 10
146.0686423675
 20
127.6592705839
 30
0.0
 10
146.0873234331
 20
127.650038872
 30
0.0
  0
SPLINE
  5
481
100
AcDbEntity
  8
0
100
AcDbSpline
 62
250
  6
CONTINUOUS
 70
0
 71
3
 72
9
 73
5
 74
0
 42
0.0000001
 43
0.0000001
 44
0.0000000001
 40
0.0
 40
0.0
 40
0.0
 40
0.0
 40
0.2515051252
 40
1.0
 40
1.0
 40
1.0
 40
1.0
 10
150.0721831697
 20
85.9249054654
 30
0.0
 10
150.076373711
 20
85.9359670619
 30
0.0
 10
150.0905354852
 20
85.9808496752
 30
0.0
 10
150.0946657863
 20
86.0289438222
 30
0.0
 10
150.0914877512
 20
86.0640032003
 30
0.0
  0
SPLINE
  5
482
100
AcDbEntity
  8
0
100
AcDbSpline
 62
250
  6
CONTINUOUS
 70
0
 71
3
 72
8
 73
4
 74
0
 42
0.0000001
 43
0.0000001
 44
0.0000000001
 40
0.0
 40
0.0
 40
0.0
 40
0.0
 40
1.0
 40
1.0
 40
1.0
 40
1.0
 10
150.0914877512
 20
86.0640032003
 30
0.0
 10
150.0901161415
 20
86.0791344945
 30
0.0
 10
150.0875694751
 20
86.0942133579
 30
0.0
 10
150.0837828448
 20
86.1089272563
 30
0.0
  0
SPLINE
  5
483
100
AcDbEntity
  8
0
100
AcDbSpline
 62
250
  6
CONTINUOUS
 70
0
 71
3
 72
9
 73
5
 74
0
 42
0.0000001
 43
0.0000001
 44
0.0000000001
 40
0.0
 40
0.0
 40
0.0
 40
0.0
 40
0.2539367745
 40
1.0
 40
1.0
 40
1.0
 40
1.0
 10
150.0837828448
 20
86.1089272563
 30
0.0
 10
150.08285539
 20
86.1125311133
 30
0.0
 10
150.078909706
 20
86.1266452877
 30
0.0
 10
150.0737718043
 20
86.1404312973
 30
0.0
 10
150.0692575722
 20
86.150388915
 30
0.0
  0
SPLINE
  5
484
100
AcDbEntity
  8
0
100
AcDbSpline
 62
250
  6
CONTINUOUS
 70
0
 71
3
 72
9
 73
5
 74
0
 42
0.0000001
 43
0.0000001
 44
0.0000000001
 40
0.0
 40
0.0
 40
0.0
 40
0.0
 40
0.5166279727
 40
1.0
 40
1.0
 40
1.0
 40
1.0
 10
150.0692575722
 20
86.150388915
 30
0.0
 10
150.0606984669
 20
86.1692688255
 30
0.0
 10
150.0392340265
 20
86.2039016078
 30
0.0
 10
150.0079174203
 20
86.2303457516
 30
0.0
 10
149.9910995026
 20
86.240006276
 30
0.0
  0
SPLINE
  5
485
100
AcDbEntity
  8
0
100
AcDbSpline
 62
250
  6
CONTINUOUS
 70
0
 71
3
 72
9
 73
5
 74
0
 42
0.0000001
 43
0.0000001
 44
0.0000000001
 40
0.0
 40
0.0
 40
0.0
 40
0.0
 40
0.4657827872
 40
1.0
 40
1.0
 40
1.0
 40
1.0
 10
148.1038282509
 20
128.7342128177
 30
0.0
 10
148.1189798718
 20
128.7395731205
 30
0.0
 10
148.1548080044
 20
128.7423691326
 30
0.0
 10
148.1880811765
 20
128.730690372
 30
0.0
 10
148.2045299149
 20
128.7223704359
 30
0.0
  0
SPLINE
  5
486
100
AcDbEntity
  8
0
100
AcDbSpline
 62
7
  6
CONTINUOUS
 70
0
 71
3
 72
9
 73
5
 74
0
 42
0.0000001
 43
0.0000001
 44
0.0000000001
 40
0.0
 40
0.0
 40
0.0
 40
0.0
 40
0.4638305674
 40
1.0
 40
1.0
 40
1.0
 40
1.0
 10
147.5591479201
 20
128.4695529824
 30
0.0
 10
147.5750251969
 20
128.4772865391
 30
0.0
 10
147.6146652246
 20
128.4835775154
 30
0.0
 10
147.651820386
 20
128.4711527945
 30
0.0
 10
147.6700800362
 20
128.4620229694
 30
0.0
  0
SPLINE
  5
487
100
AcDbEntity
  8
0
100
AcDbSpline
 62
250
  6
CONTINUOUS
 70
0
 71
3
 72
11
 73
7
 74
0
 42
0.0000001
 43
0.0000001
 44
0.0000000001
 40
0.0
 40
0.0
 40
0.0
 40
0.0
 40
0.2897477355
 40
0.549586599
 40
0.7828464392
 40
1.0
 40
1.0
 40
1.0
 40
1.0
 10
147.5901132475
 20
84.5268410142
 30
0.0
 10
147.5901132475
 20
84.5116359673
 30
0.0
 10
147.5925670642
 20
84.4826857624
 30
0.0
 10
147.6049404894
 20
84.4430912912
 30
0.0
 10
147.6256068171
 20
84.4113921437
 30
0.0
 10
147.6448939312
 20
84.3967185266
 30
0.0
 10
147.6550866072
 20
84.3916226908
 30
0.0
  0
SPLINE
  5
488
100
AcDbEntity
  8
0
100
AcDbSpline
 62
250
  6
CONTINUOUS
 70
0
 71
3
 72
11
 73
7
 74
0
 42
0.0000001
 43
0.0000001
 44
0.0000000001
 40
0.0
 40
0.0
 40
0.0
 40
0.0
 40
0.2351713009
 40
0.4995791941
 40
0.7642135602
 40
1.0
 40
1.0
 40
1.0
 40
1.0
 10
147.5901132475
 20
84.8668149483
 30
0.0
 10
147.6155065666
 20
84.8541182888
 30
0.0
 10
147.6738507315
 20
84.8359739918
 30
0.0
 10
147.7661858066
 20
84.8272183455
 30
0.0
 10
147.8586201305
 20
84.83572043
 30
0.0
 10
147.917116699
 20
84.853690574
 30
0.0
 10
147.9426352071
 20
84.8663022245
 30
0.0
  0
SPLINE
  5
489
100
AcDbEntity
  8
0
100
AcDbSpline
 62
250
  6
CONTINUOUS
 70
0
 71
3
 72
11
 73
7
 74
0
 42
0.0000001
 43
0.0000001
 44
0.0000000001
 40
0.0
 40
0.0
 40
0.0
 40
0.0
 40
0.2351711086
 40
0.4995790016
 40
0.7642134063
 40
1.0
 40
1.0
 40
1.0
 40
1.0
 10
147.5901132475
 20
84.5268410142
 30
0.0
 10
147.6155065459
 20
84.514144365
 30
0.0
 10
147.6738506845
 20
84.4960000667
 30
0.0
 10
147.7661857408
 20
84.4872444112
 30
0.0
 10
147.8586200883
 20
84.4957464873
 30
0.0
 10
147.9171166823
 20
84.5137166317
 30
0.0
 10
147.9426352071
 20
84.5263282904
 30
0.0
  0
SPLINE
  5
48A
100
AcDbEntity
  8
0
100
AcDbSpline
 62
250
  6
CONTINUOUS
 70
0
 71
3
 72
11
 73
7
 74
0
 42
0.0000001
 43
0.0000001
 44
0.0000000001
 40
0.0
 40
0.0
 40
0.0
 40
0.0
 40
0.2188690737
 40
0.4829783008
 40
0.7560361435
 40
1.0
 40
1.0
 40
1.0
 40
1.0
 10
147.9426352071
 20
84.8663022245
 30
0.0
 10
147.9290089046
 20
84.8883074197
 30
0.0
 10
147.8929829811
 20
84.9330797564
 30
0.0
 10
147.828874893
 20
84.9955584045
 30
0.0
 10
147.7562457627
 20
85.0528833724
 30
0.0
 10
147.7042284779
 20
85.085453208
 30
0.0
 10
147.6785015951
 20
85.0985091222
 30
0.0
  0
SPLINE
  5
48B
100
AcDbEntity
  8
0
100
AcDbSpline
 62
7
  6
CONTINUOUS
 70
0
 71
3
 72
10
 73
6
 74
0
 42
0.0000001
 43
0.0000001
 44
0.0000000001
 40
0.0
 40
0.0
 40
0.0
 40
0.0
 40
0.2083150484
 40
0.4661810473
 40
1.0
 40
1.0
 40
1.0
 40
1.0
 10
148.6538558152
 20
85.7177987016
 30
0.0
 10
148.6283384452
 20
85.7231272076
 30
0.0
 10
148.5718745598
 20
85.7380929293
 30
0.0
 10
148.4529148038
 20
85.7768497994
 30
0.0
 10
148.3605674913
 20
85.8136946076
 30
0.0
 10
148.3008196272
 20
85.8435685397
 30
0.0
  0
SPLINE
  5
48C
100
AcDbEntity
  8
0
100
AcDbSpline
 62
250
  6
CONTINUOUS
 70
0
 71
3
 72
9
 73
5
 74
0
 42
0.0000001
 43
0.0000001
 44
0.0000000001
 40
0.0
 40
0.0
 40
0.0
 40
0.0
 40
0.4868892324
 40
1.0
 40
1.0
 40
1.0
 40
1.0
 10
147.5901132475
 20
84.8668149483
 30
0.0
 10
147.5901132475
 20
84.9076176171
 30
0.0
 10
147.6085923849
 20
84.9914537775
 30
0.0
 10
147.6510695926
 20
85.0653957659
 30
0.0
 10
147.6785015951
 20
85.0985091222
 30
0.0
  0
SPLINE
  5
48D
100
AcDbEntity
  8
0
100
AcDbSpline
 62
250
  6
CONTINUOUS
 70
0
 71
3
 72
9
 73
5
 74
0
 42
0.0000001
 43
0.0000001
 44
0.0000000001
 40
0.0
 40
0.0
 40
0.0
 40
0.0
 40
0.5649858295
 40
1.0
 40
1.0
 40
1.0
 40
1.0
 10
145.9115751771
 20
127.0056881229
 30
0.0
 10
145.8925430503
 20
127.0152041863
 30
0.0
 10
145.8601155383
 20
127.0358456242
 30
0.0
 10
145.840393371
 20
127.0712625968
 30
0.0
 10
145.8386921382
 20
127.0875575876
 30
0.0
  0
SPLINE
  5
48E
100
AcDbEntity
  8
0
100
AcDbSpline
 62
250
  6
CONTINUOUS
 70
0
 71
3
 72
11
 73
7
 74
0
 42
0.0000001
 43
0.0000001
 44
0.0000000001
 40
0.0
 40
0.0
 40
0.0
 40
0.0
 40
0.3025803505
 40
0.5654851532
 40
0.7934324302
 40
1.0
 40
1.0
 40
1.0
 40
1.0
 10
145.9115751771
 20
127.3456620571
 30
0.0
 10
145.9007205722
 20
127.3510893595
 30
0.0
 10
145.8811021391
 20
127.3627293244
 30
0.0
 10
145.8572903199
 20
127.384249473
 30
0.0
 10
145.8420112006
 20
127.4082041021
 30
0.0
 10
145.8383521667
 20
127.4257654627
 30
0.0
 10
145.8383521306
 20
127.4340504233
 30
0.0
  0
SPLINE
  5
48F
100
AcDbEntity
  8
0
100
AcDbSpline
 62
250
  6
CONTINUOUS
 70
0
 71
3
 72
9
 73
5
 74
0
 42
0.0000001
 43
0.0000001
 44
0.0000000001
 40
0.0
 40
0.0
 40
0.0
 40
0.0
 40
0.4641675224
 40
1.0
 40
1.0
 40
1.0
 40
1.0
 10
137.7025263696
 20
134.0353494212
 30
0.0
 10
137.6867441865
 20
134.0432397352
 30
0.0
 10
137.6472180678
 20
134.0499268946
 30
0.0
 10
137.6100217565
 20
134.0377646159
 30
0.0
 10
137.5917514734
 20
134.0287596567
 30
0.0
  0
ELLIPSE
  5
490
100
AcDbEntity
  8
RACCORDO
100
AcDbEllipse
 62
7
  6
CONTINUOUS
 10
148.0077515177
 20
123.8817500073
 30
0.0
 11
-0.1996736685
 21
0.4584064956
 31
0.0
 40
0.6381227599
 41
-2.2220345828
 42
-0.6519234887
  0
ELLIPSE
  5
491
100
AcDbEntity
  8
RACCORDO
100
AcDbEllipse
 62
7
  6
CONTINUOUS
 10
146.4090570705
 20
85.7216740538
 30
0.0
 11
-0.1999840611
 21
0.4586318226
 31
0.0
 40
0.6372798266
 41
-3.1720661614
 42
-2.2231487507
  0
ELLIPSE
  5
492
100
AcDbEntity
  8
RACCORDO
100
AcDbEllipse
 62
7
  6
CONTINUOUS
 10
133.1587515037
 20
131.3062500144
 30
0.0
 11
-0.1999840611
 21
0.4586318226
 31
0.0
 40
0.6372798266
 41
-0.6516671913
 42
0.0303399174
  0
ELLIPSE
  5
493
100
AcDbEntity
  8
0
100
AcDbEllipse
 62
7
  6
CONTINUOUS
 10
158.7832760125
 20
131.2854002948
 30
0.0
 11
3.3311333813
 21
-0.0467042088
 31
0.0
 40
0.4892378494
 41
-2.4679914484
 42
-0.7772130249
  0
ELLIPSE
  5
494
100
AcDbEntity
  8
DRAFT
100
AcDbEllipse
 62
7
  6
CONTINUOUS
 10
159.4787662736
 20
129.9921404781
 30
0.0
 11
2.7583300471
 21
-0.038763314
 31
0.0
 40
0.4892375088
 41
0.4291477653
 42
0.6564870977
  0
ELLIPSE
  5
495
100
AcDbEntity
  8
DRAFT
100
AcDbEllipse
 62
7
  6
CONTINUOUS
 10
158.8070148315
 20
130.1036381621
 30
0.0
 11
2.7499350056
 21
-0.0386453369
 31
0.0
 40
0.4892375088
 41
8.654981679
 42
9.2596989469
  0
ELLIPSE
  5
496
100
AcDbEntity
  8
DRAFT
100
AcDbEllipse
 62
7
  6
CONTINUOUS
 10
159.4787662736
 20
129.9921404781
 30
0.0
 11
2.7583300471
 21
-0.038763314
 31
0.0
 40
0.4892375088
 41
0.9280596999
 42
2.3630697256
  0
ELLIPSE
  5
497
100
AcDbEntity
  8
RACCORDO
100
AcDbEllipse
 62
7
  6
CONTINUOUS
 10
164.1844805047
 20
131.1500409951
 30
0.0
 11
0.716172246
 21
0.6416715914
 31
0.0
 40
0.2882345029
 41
0.1142323894
 42
0.7807533904
  0
ELLIPSE
  5
498
100
AcDbEntity
  8
DRAFT
100
AcDbEllipse
 62
7
  6
CONTINUOUS
 10
159.4787662736
 20
131.9368511893
 30
0.0
 11
2.7583515655
 21
-1.4175703156
 31
0.0
 40
0.0109499087
 41
-0.9155571536
 42
-0.85781018
  0
ELLIPSE
  5
499
100
AcDbEntity
  8
DRAFT
100
AcDbEllipse
 62
7
  6
CONTINUOUS
 10
159.4787662736
 20
131.9368511893
 30
0.0
 11
2.7583515655
 21
-1.4175703156
 31
0.0
 40
0.0109499087
 41
-0.7017315251
 42
-0.6439845515
  0
ELLIPSE
  5
49A
100
AcDbEntity
  8
DRAFT
100
AcDbEllipse
 62
7
  6
CONTINUOUS
 10
159.4787662736
 20
130.42515318
 30
0.0
 11
2.7583300471
 21
-0.038763314
 31
0.0
 40
0.4892375088
 41
0.1708839954
 42
2.3630697256
  0
ELLIPSE
  5
49B
100
AcDbEntity
  8
RACCORDO
100
AcDbEllipse
 62
7
  6
CONTINUOUS
 10
160.2177742577
 20
133.1333941187
 30
0.0
 11
-0.2796057293
 21
0.9974617846
 31
0.0
 40
0.6760995073
 41
4.8467711056
 42
6.4001141399
  0
ELLIPSE
  5
49C
100
AcDbEntity
  8
0
100
AcDbEllipse
 62
7
  6
CONTINUOUS
 10
158.7832760125
 20
131.2854002948
 30
0.0
 11
3.3311333813
 21
-0.0467042088
 31
0.0
 40
0.4892378494
 41
2.3616770883
 42
3.6719184414
  0
ELLIPSE
  5
49D
100
AcDbEntity
  8
0
100
AcDbEllipse
 62
7
  6
CONTINUOUS
 10
144.5543115534
 20
134.4193874248
 30
0.0
 11
0.2257019663
 21
0.4461636818
 31
0.0
 40
0.6159267166
 41
0.5882567743
 42
0.6817883054
  0
ELLIPSE
  5
49E
100
AcDbEntity
  8
RACCORDO
100
AcDbEllipse
 62
7
  6
CONTINUOUS
 10
155.684502505
 20
129.5482040016
 30
0.0
 11
0.499996712
 21
0.0035883639
 31
0.0
 40
0.5053247124
 41
-0.7715714568
 42
-0.0038735433
  0
ELLIPSE
  5
49F
100
AcDbEntity
  8
0
100
AcDbEllipse
 62
7
  6
CONTINUOUS
 10
143.9155570466
 20
130.4223007554
 30
0.0
 11
-0.0909679979
 21
0.1781462259
 31
0.0
 40
0.6079022756
 41
-0.6898048156
 42
-0.0128958448
  0
ELLIPSE
  5
4A0
100
AcDbEntity
  8
0
100
AcDbEllipse
 62
7
  6
CONTINUOUS
 10
152.2640308438
 20
131.2031064782
 30
0.0
 11
0.4547905863
 21
0.8906238433
 31
0.0
 40
0.6079814556
 41
0.0051546174
 42
0.6840559135
  0
ELLIPSE
  5
4A1
100
AcDbEntity
  8
ASSI
100
AcDbEllipse
 62
7
  6
CONTINUOUS
 10
144.3533304324
 20
135.1584566839
 30
0.0
 11
1.004787277
 21
0.6140102217
 31
0.0
 40
0.0864918533
 41
0.0544314379
 42
0.7329085821
  0
ELLIPSE
  5
4A2
100
AcDbEntity
  8
ASSI
100
AcDbEllipse
 62
7
  6
CONTINUOUS
 10
155.9365830916
 20
92.4118169297
 30
0.0
 11
0.9927147821
 21
0.620457446
 31
0.0
 40
0.0764819879
 41
-2.4043514965
 42
-1.3666868807
  0
ELLIPSE
  5
4A3
100
AcDbEntity
  8
ASSI
100
AcDbEllipse
 62
7
  6
CONTINUOUS
 10
174.3468142108
 20
102.8853073084
 30
0.0
 11
24.0955625974
 21
12.2610436036
 31
0.0
 40
0.0085648092
 41
-2.9166229256
 42
-2.803161766
  0
ELLIPSE
  5
4A4
100
AcDbEntity
  8
ASSI
100
AcDbEllipse
 62
7
  6
CONTINUOUS
 10
174.3468142108
 20
133.5426066024
 30
0.0
 11
24.0955625974
 21
12.2610436036
 31
0.0
 40
0.0085648092
 41
2.794445403
 42
2.9079065627
  0
ELLIPSE
  5
4A5
100
AcDbEntity
  8
ASSI
100
AcDbEllipse
 62
7
  6
CONTINUOUS
 10
174.3468142108
 20
132.8497862793
 30
0.0
 11
24.0955625974
 21
12.2610436036
 31
0.0
 40
0.0085648092
 41
-2.9166229256
 42
-2.803161766
  0
ELLIPSE
  5
4A6
100
AcDbEntity
  8
ASSI
100
AcDbEllipse
 62
7
  6
CONTINUOUS
 10
174.3468142108
 20
103.5781276314
 30
0.0
 11
24.0955625974
 21
12.2610436036
 31
0.0
 40
0.0085648092
 41
2.794445403
 42
2.9079065627
  0
ELLIPSE
  5
4A7
100
AcDbEntity
  8
0
100
AcDbEllipse
 62
7
  6
CONTINUOUS
 10
150.5983918796
 20
87.5264408097
 30
0.0
 11
-0.2236315662
 21
0.4472293059
 31
0.0
 40
0.6123445654
 41
-3.1338150222
 42
-2.2555748796
  0
ELLIPSE
  5
4A8
100
AcDbEntity
  8
0
100
AcDbEllipse
 62
7
  6
CONTINUOUS
 10
150.5983918796
 20
125.4482620625
 30
0.0
 11
-0.223611546
 21
0.4472115081
 31
0.0
 40
0.6124054886
 41
-2.2555017776
 42
-0.6847562194
  0
ELLIPSE
  5
4A9
100
AcDbEntity
  8
0
100
AcDbEllipse
 62
7
  6
CONTINUOUS
 10
142.2063739097
 20
131.2768923239
 30
0.0
 11
-0.090948378
 21
0.1781282571
 31
0.0
 40
0.6080538059
 41
-2.2606249166
 42
-0.6898793584
  0
ELLIPSE
  5
4AA
100
AcDbEntity
  8
0
100
AcDbEllipse
 62
7
  6
CONTINUOUS
 10
150.1662853495
 20
131.6134005267
 30
0.0
 11
0.2273952932
 21
0.4453119217
 31
0.0
 40
0.6079814556
 41
0.2357074224
 42
0.6840559135
  0
ELLIPSE
  5
4AB
100
AcDbEntity
  8
ASSI
100
AcDbEllipse
 62
7
  6
CONTINUOUS
 10
155.684502505
 20
92.1550075994
 30
0.0
 11
0.499443764
 21
0.3120915671
 31
0.0
 40
0.0755486457
 41
-0.0466009711
 42
0.720771186
  0
ELLIPSE
  5
4AC
100
AcDbEntity
  8
0
100
AcDbEllipse
 62
7
  6
CONTINUOUS
 10
143.0050349053
 20
128.750144212
 30
0.0
 11
0.199943508
 21
0.008945986
 31
0.0
 40
0.5313301283
 41
3.1178423524
 42
3.9032222197
  0
ELLIPSE
  5
4AD
100
AcDbEntity
  8
0
100
AcDbEllipse
 62
7
  6
CONTINUOUS
 10
141.3042653638
 20
129.6005289828
 30
0.0
 11
0.199943508
 21
0.008945986
 31
0.0
 40
0.5313301283
 41
-2.3799630874
 42
-0.8178934069
  0
ELLIPSE
  5
4AE
100
AcDbEntity
  8
0
100
AcDbEllipse
 62
7
  6
CONTINUOUS
 10
146.7913448267
 20
126.1421206644
 30
0.0
 11
0.249929385
 21
0.0111824824
 31
0.0
 40
0.5313301283
 41
3.1178197826
 42
3.9032222197
  0
ELLIPSE
  5
4AF
100
AcDbEntity
  8
0
100
AcDbEllipse
 62
7
  6
CONTINUOUS
 10
145.1738807062
 20
134.1096028483
 30
0.0
 11
0.2197467797
 21
0.4491356978
 31
0.0
 40
0.6167074461
 41
0.2252343201
 42
0.6735828111
  0
ELLIPSE
  5
4B0
100
AcDbEntity
  8
0
100
AcDbEllipse
 62
7
  6
CONTINUOUS
 10
144.9080635396
 20
176.2408769143
 30
0.0
 11
-0.3192264997
 21
45.1189143812
 31
0.0
 40
0.0071249215
 41
3.4474731796
 42
3.5354687861
  0
ELLIPSE
  5
4B1
100
AcDbEntity
  8
0
100
AcDbEllipse
 62
7
  6
CONTINUOUS
 10
134.487686834
 20
132.2939496608
 30
0.0
 11
0.249929385
 21
0.0111824824
 31
0.0
 40
0.5313301283
 41
3.1178197826
 42
3.9032222197
  0
ELLIPSE
  5
4B2
100
AcDbEntity
  8
0
100
AcDbEllipse
 62
7
  6
CONTINUOUS
 10
136.1744525582
 20
131.4505667987
 30
0.0
 11
0.249929385
 21
0.0111824824
 31
0.0
 40
0.5313301283
 41
-2.3799630874
 42
-0.8149845248
  0
ELLIPSE
  5
4B3
100
AcDbEntity
  8
RACCORDO
100
AcDbEllipse
 62
7
  6
CONTINUOUS
 10
147.2406477629
 20
101.5331315939
 30
0.0
 11
-0.1571758788
 21
0.2571581498
 31
0.0
 40
0.5601087126
 41
-2.9466728429
 42
-2.3018722735
  0
ELLIPSE
  5
4B4
100
AcDbEntity
  8
0
100
AcDbEllipse
 62
7
  6
CONTINUOUS
 10
150.4985101526
 20
130.5276347382
 30
0.0
 11
0.4530414621
 21
-0.0021419047
 31
0.0
 40
0.4964289597
 41
-0.77723337
 42
0.0023234052
  0
ELLIPSE
  5
4B5
100
AcDbEntity
  8
0
100
AcDbEllipse
 62
7
  6
CONTINUOUS
 10
145.6194367226
 20
132.6533404882
 30
0.0
 11
1.0205811965
 21
-0.0048251373
 31
0.0
 40
0.4964289597
 41
1.3061600176
 42
2.3584907469
  0
ELLIPSE
  5
4B6
100
AcDbEntity
  8
0
100
AcDbEllipse
 62
7
  6
CONTINUOUS
 10
144.9080635396
 20
133.3228580447
 30
0.0
 11
0.4530414621
 21
-0.0021419047
 31
0.0
 40
0.4964289597
 41
-0.4806702637
 42
0.0023660984
  0
ELLIPSE
  5
4B7
100
AcDbEntity
  8
0
100
AcDbEllipse
 62
7
  6
CONTINUOUS
 10
133.7940025258
 20
132.0190615574
 30
0.0
 11
-0.2234618187
 21
0.4480306886
 31
0.0
 40
0.6116748051
 41
-0.6831523234
 42
0.886730614
  0
ELLIPSE
  5
4B8
100
AcDbEntity
  8
0
100
AcDbEllipse
 62
7
  6
CONTINUOUS
 10
139.6810105659
 20
131.6366934398
 30
0.0
 11
0.0907039967
 21
0.1782526758
 31
0.0
 40
0.6176975122
 41
0.6948951487
 42
2.2598737113
  0
ELLIPSE
  5
4B9
100
AcDbEntity
  8
0
100
AcDbEllipse
 62
7
  6
CONTINUOUS
 10
148.4781105509
 20
125.2987378023
 30
0.0
 11
0.249929385
 21
0.0111824824
 31
0.0
 40
0.5313301283
 41
-2.3799630874
 42
-0.8149845248
  0
ELLIPSE
  5
4BA
100
AcDbEntity
  8
0
100
AcDbEllipse
 62
7
  6
CONTINUOUS
 10
199.8888084318
 20
155.8771236146
 30
0.0
 11
60.4168605605
 21
30.5632322457
 31
0.0
 40
0.005706723
 41
2.5167363259
 42
2.6876789752
  0
ELLIPSE
  5
4BB
100
AcDbEntity
  8
0
100
AcDbEllipse
 62
7
  6
CONTINUOUS
 10
150.7858545023
 20
131.3036159503
 30
0.0
 11
0.221538876
 21
0.4482453432
 31
0.0
 40
0.6088015717
 41
0.5825560023
 42
0.6760875334
  0
ELLIPSE
  5
4BC
100
AcDbEntity
  8
0
100
AcDbEllipse
 62
7
  6
CONTINUOUS
 10
199.8888084318
 20
155.8771236146
 30
0.0
 11
60.4168605605
 21
30.5632322457
 31
0.0
 40
0.005706723
 41
-2.6934527084
 42
-2.5225100591
  0
ELLIPSE
  5
4BD
100
AcDbEntity
  8
ASSI
100
AcDbEllipse
 62
7
  6
CONTINUOUS
 10
155.684502505
 20
130.5828270524
 30
0.0
 11
-0.3739417019
 21
0.598522373
 31
0.0
 40
0.554557473
 41
-3.1836090632
 42
-2.4162040327
  0
ELLIPSE
  5
4BE
100
AcDbEntity
  8
0
100
AcDbEllipse
 62
7
  6
CONTINUOUS
 10
148.8182414685
 20
86.7123772914
 30
0.0
 11
-0.2234618187
 21
0.4480306886
 31
0.0
 40
0.6116748051
 41
2.4584403302
 42
4.0283232676
  0
ELLIPSE
  5
4BF
100
AcDbEntity
  8
0
100
AcDbEllipse
 62
7
  6
CONTINUOUS
 10
148.8182414685
 20
124.506942086
 30
0.0
 11
-0.2230998035
 21
0.4477110033
 31
0.0
 40
0.6127700112
 41
-2.2535417632
 42
-0.6836588258
  0
ELLIPSE
  5
4C0
100
AcDbEntity
  8
0
100
AcDbEllipse
 62
7
  6
CONTINUOUS
 10
148.0258826801
 20
133.3221805601
 30
0.0
 11
0.4394935595
 21
0.8982713957
 31
0.0
 40
0.6167074461
 41
5.3917895557
 42
6.9567681183
  0
ELLIPSE
  5
4C1
100
AcDbEntity
  8
RACCORDO
100
AcDbEllipse
 62
7
  6
CONTINUOUS
 10
146.927545509
 20
91.8326681481
 30
0.0
 11
-0.313181275
 21
0.626269159
 31
0.0
 40
0.6121897086
 41
-3.1606751969
 42
-2.2557347926
  0
ELLIPSE
  5
4C2
100
AcDbEntity
  8
ASSI
100
AcDbEllipse
 62
7
  6
CONTINUOUS
 10
155.9365830916
 20
129.3668303544
 30
0.0
 11
-0.7356038977
 21
1.2035991204
 31
0.0
 40
0.5552491559
 41
5.1980061968
 42
6.2356708126
  0
ENDSEC
  0
SECTION
  2
OBJECTS
  0
DICTIONARY
  5
C
100
AcDbDictionary
280
0
281
1
  3
ACAD_GROUP
350
D
  3
ACAD_MLINESTYLE
350
17
  3
ACAD_LAYOUT
350
1A
  3
ACAD_PLOTSETTINGS
350
19
  3
ACAD_PLOTSTYLENAME
350
E
  0
DICTIONARY
  5
D
102
{ACAD_REACTORS
330
C
102
}
100
AcDbDictionary
280
0
281
1
  0
ACDBDICTIONARYWDFLT
  5
E
102
{ACAD_REACTORS
330
C
102
}
100
AcDbDictionary
281
1
  3
Normal
350
F
100
AcDbDictionaryWithDefault
340
F
  0
DICTIONARY
  5
17
102
{ACAD_REACTORS
330
C
102
}
100
AcDbDictionary
280
0
281
1
  3
Standard
350
18
  0
DICTIONARY
  5
19
102
{ACAD_REACTORS
330
C
102
}
100
AcDbDictionary
281
1
  0
DICTIONARY
  5
1A
102
{ACAD_REACTORS
330
C
102
}
100
AcDbDictionary
281
1
  3
Model
350
4C3
  3
Layout1
350
4C4
  0
ACDBPLACEHOLDER
  5
F
102
{ACAD_REACTORS
330
E
102
}
  0
MLINESTYLE
  5
18
102
{ACAD_REACTORS
330
17
102
}
100
AcDbMlineStyle
  2
STANDARD
 70
0
  3

 62
256
 51
90.0
 52
90.0
 71
2
 49
0.5
 62
256
  6
BYLAYER
 49
-0.5
 62
256
  6
BYLAYER
  0
LAYOUT
  5
4C3
102
{ACAD_REACTORS
330
1A
102
}
100
AcDbPlotSettings
  1

  2
none_device
  4
ISO_A4_(297.00_x_210.00_MM)
  6

 40
0.0
 41
0.0
 42
0.0
 43
0.0
 44
297.0
 45
210.0
 46
0.0
 47
0.0
 48
0.0
 49
0.0
140
0.0
141
0.0
142
1.0
143
1.0
 70
1024
 72
1
 73
0
 74
0
  7

 75
0
147
1.0
148
0.0
149
0.0
100
AcDbLayout
  1
Model
 70
0
 71
0
 10
0.0
 20
0.0
 11
297.0
 21
210.0
 12
0.0
 22
0.0
 32
0.0
 14
0.0
 24
0.0
 34
0.0
 15
0.0
 25
0.0
 35
0.0
146
0.0
 13
0.0
 23
0.0
 33
0.0
 16
1.0
 26
0.0
 36
0.0
 17
0.0
 27
1.0
 37
0.0
 76
0
330
227
345
0
346
0
  0
LAYOUT
  5
4C4
102
{ACAD_REACTORS
330
1A
102
}
100
AcDbPlotSettings
  1

  2
none_device
  4
ISO_A4_(297.00_x_210.00_MM)
  6

 40
0.0
 41
0.0
 42
0.0
 43
0.0
 44
297.0
 45
210.0
 46
0.0
 47
0.0
 48
0.0
 49
0.0
140
0.0
141
0.0
142
1.0
143
1.0
 70
0
 72
1
 73
0
 74
0
  7

 75
0
147
1.0
148
0.0
149
0.0
100
AcDbLayout
  1
Layout1
 70
0
 71
1
 10
0.0
 20
0.0
 11
297.0
 21
210.0
 12
0.0
 22
0.0
 32
0.0
 14
0.0
 24
0.0
 34
0.0
 15
0.0
 25
0.0
 35
0.0
146
0.0
 13
0.0
 23
0.0
 33
0.0
 16
1.0
 26
0.0
 36
0.0
 17
0.0
 27
1.0
 37
0.0
 76
0
330
228
345
0
346
0
  0
ENDSEC
  0
EOF
