  0
SECTION
  2
HEADER
  9
$ACADVER
  1
AC1024
  9
$DWGCODEPAGE
  3
ANSI_1252
  9
$EXTMAX
 10
279.4
 20
215.9
 30
0.0
  9
$EXTMIN
 10
0.0
 20
0.0
 30
0.0
  9
$LIMMIN
 10
0.0
 20
0.0
  9
$LIMMAX
 10
279.4
 20
215.9
  9
$VIEWCTR
 10
139.7
 20
107.95
  9
$VIEWSIZE
 40
215.9
  9
$CLAYER
  8
0
  9
$LTSCALE
 40
15.367
  9
$CELTYPE
  6
BYLAYER
  9
$DIMSCALE
 40
1.0
  9
$DIMASZ
 40
3.0
  9
$DIMEXO
 40
0.5
  9
$DIMDLI
 40
10.6172
  9
$DIMEXE
 40
1.5
  9
$DIMCEN
 40
2.5146
  9
$DIMLFAC
 40
1.0
  9
$DIMBLK
  1
_FILLED
  9
$DIMALT
 70
0
  9
$DIMALTF
 40
0.0393700787
  9
$DIMTXT
 40
3.0
  9
$DIMTOL
 70
1
  9
$DIMLIM
 70
0
  9
$DIMTFAC
 40
1.0
  9
$DIMTP
 40
0.01
  9
$DIMTM
 40
0.01
  9
$DIMGAP
 40
0.625
  9
$DIMDSEP
 70
44
  9
$AUNITS
 70
0
  9
$PDMODE
 70
3
  9
$PDSIZE
 40
3.0
  9
$HANDSEED
  5
490
  9
$TILEMODE
 70
1
  9
$MEASUREMENT
 70
1
  9
$INSUNITS
 70
4
  0
ENDSEC
  0
SECTION
  2
CLASSES
  0
CLASS
  1
ACDBDICTIONARYWDFLT
  2
AcDbDictionaryWithDefault
  3
AutoCAD 2000
 90
0
 91
1
280
0
281
0
  0
CLASS
  1
ACDBPLACEHOLDER
  2
AcDbPlaceHolder
  3
AutoCAD 2000
 90
0
 91
1
280
0
281
0
  0
CLASS
  1
LAYOUT
  2
AcDbLayout
  3
AutoCAD 2000
 90
0
 91
0
280
0
281
0
  0
ENDSEC
  0
SECTION
  2
TABLES
  0
TABLE
  2
VPORT
  5
8
100
AcDbSymbolTable
 70
2
  0
VPORT
  5
1F4
100
AcDbSymbolTableRecord
100
AcDbViewportTableRecord
  2
*ACTIVE
 70
0
 10
0.0
 20
0.0
 11
1.0
 21
1.0
 12
139.7
 22
107.95
 13
0.0
 23
0.0
 14
1.0
 24
1.0
 15
0.0
 25
0.0
 16
0.0
 26
0.0
 36
1.0
 17
0.0
 27
0.0
 37
0.0
 40
215.9
 41
1.2941176471
 42
50.0
 43
0.0
 44
0.0
 50
0.0
 51
0.0
 71
0
 72
100
 73
1
 74
1
 75
0
 76
0
 77
0
 78
0
  0
ENDTAB
  0
TABLE
  2
LTYPE
  5
5
100
AcDbSymbolTable
 70
6
  0
LTYPE
  5
14
100
AcDbSymbolTableRecord
100
AcDbLinetypeTableRecord
  2
BYBLOCK
 70
0
  3

 72
65
 73
0
 40
0.0
  0
LTYPE
  5
15
100
AcDbSymbolTableRecord
100
AcDbLinetypeTableRecord
  2
BYLAYER
 70
0
  3

 72
65
 73
0
 40
0.0
  0
LTYPE
  5
16
100
AcDbSymbolTableRecord
100
AcDbLinetypeTableRecord
  2
CONTINUOUS
 70
64
  3
Solid line
 72
65
 73
0
 40
0.0
  0
LTYPE
  5
1F5
100
AcDbSymbolTableRecord
100
AcDbLinetypeTableRecord
  2
CENTER
 70
64
  3
____ _ ____ _ ____ _ ____ _ ____ _ ____ _ ____
 72
65
 73
4
 40
0.6
 49
0.375
 74
0
 49
-0.075
 74
0
 49
0.075
 74
0
 49
-0.075
 74
0
  0
LTYPE
  5
1F6
100
AcDbSymbolTableRecord
100
AcDbLinetypeTableRecord
  2
HIDDEN
 70
64
  3
- - - - - - - - - - - - - - - - - - - -
 72
65
 73
2
 40
0.2
 49
0.1
 74
0
 49
-0.1
 74
0
  0
LTYPE
  5
1F7
100
AcDbSymbolTableRecord
100
AcDbLinetypeTableRecord
  2
PHANTOM
 70
64
  3
_____ _ _ _____ _ _ _____ _ _ _____
 72
65
 73
6
 40
0.8
 49
0.45
 74
0
 49
-0.05
 74
0
 49
0.1
 74
0
 49
-0.05
 74
0
 49
0.1
 74
0
 49
-0.05
 74
0
  0
LTYPE
  5
1F8
100
AcDbSymbolTableRecord
100
AcDbLinetypeTableRecord
  2
DOT
 70
64
  3
. . . . . . . . . . . . . . . . . . . .
 72
65
 73
2
 40
0.2
 49
0.1
 74
0
 49
-0.1
 74
0
  0
LTYPE
  5
1F9
100
AcDbSymbolTableRecord
100
AcDbLinetypeTableRecord
  2
DASHED
 70
64
  3
- - - - - - - - - - - - - - - - - - - -
 72
65
 73
2
 40
0.2
 49
0.1
 74
0
 49
-0.1
 74
0
  0
ENDTAB
  0
TABLE
  2
LAYER
  5
2
100
AcDbSymbolTable
 70
36
  0
LAYER
  5
10
100
AcDbSymbolTableRecord
100
AcDbLayerTableRecord
  2
0
 70
0
 62
7
  6
CONTINUOUS
370
-3
390
F
  0
LAYER
  5
1FA
100
AcDbSymbolTableRecord
100
AcDbLayerTableRecord
  2
DEFAULT_1
 70
0
 62
7
  6
CENTER
370
-3
390
F
  0
LAYER
  5
1FB
100
AcDbSymbolTableRecord
100
AcDbLayerTableRecord
  2
DEFAULT_2
 70
0
 62
7
  6
HIDDEN
370
-3
390
F
  0
LAYER
  5
1FC
100
AcDbSymbolTableRecord
100
AcDbLayerTableRecord
  2
DEFAULT_3
 70
0
 62
7
  6
PHANTOM
370
-3
390
F
  0
LAYER
  5
1FD
100
AcDbSymbolTableRecord
100
AcDbLayerTableRecord
  2
ASSI
 70
0
 62
7
  6
CONTINUOUS
370
-3
390
F
  0
LAYER
  5
1FE
100
AcDbSymbolTableRecord
100
AcDbLayerTableRecord
  2
COLOR9
 70
0
 62
7
  6
CONTINUOUS
370
-3
390
F
  0
LAYER
  5
1FF
100
AcDbSymbolTableRecord
100
AcDbLayerTableRecord
  2
COLORE_TOP
 70
0
 62
7
  6
CONTINUOUS
370
-3
390
F
  0
LAYER
  5
200
100
AcDbSymbolTableRecord
100
AcDbLayerTableRecord
  2
COORDINATE
 70
0
 62
7
  6
CONTINUOUS
370
-3
390
F
  0
LAYER
  5
201
100
AcDbSymbolTableRecord
100
AcDbLayerTableRecord
  2
COORD_ORIGINE
 70
0
 62
7
  6
CONTINUOUS
370
-3
390
F
  0
LAYER
  5
202
100
AcDbSymbolTableRecord
100
AcDbLayerTableRecord
  2
COPY
 70
0
 62
7
  6
CONTINUOUS
370
-3
390
F
  0
LAYER
  5
203
100
AcDbSymbolTableRecord
100
AcDbLayerTableRecord
  2
COPY-PUBBLISH
 70
0
 62
7
  6
CONTINUOUS
370
-3
390
F
  0
LAYER
  5
204
100
AcDbSymbolTableRecord
100
AcDbLayerTableRecord
  2
COSMETICHE
 70
0
 62
7
  6
CONTINUOUS
370
-3
390
F
  0
LAYER
  5
205
100
AcDbSymbolTableRecord
100
AcDbLayerTableRecord
  2
COSMETICI
 70
0
 62
7
  6
CONTINUOUS
370
-3
390
F
  0
LAYER
  5
206
100
AcDbSymbolTableRecord
100
AcDbLayerTableRecord
  2
CURVA_CENTRALE
 70
0
 62
7
  6
CONTINUOUS
370
-3
390
F
  0
LAYER
  5
207
100
AcDbSymbolTableRecord
100
AcDbLayerTableRecord
  2
CURVE
 70
0
 62
7
  6
CONTINUOUS
370
-3
390
F
  0
LAYER
  5
208
100
AcDbSymbolTableRecord
100
AcDbLayerTableRecord
  2
DRAFT
 70
0
 62
7
  6
CONTINUOUS
370
-3
390
F
  0
LAYER
  5
209
100
AcDbSymbolTableRecord
100
AcDbLayerTableRecord
  2
IGES
 70
0
 62
7
  6
CONTINUOUS
370
-3
390
F
  0
LAYER
  5
20A
100
AcDbSymbolTableRecord
100
AcDbLayerTableRecord
  2
IMPIANTO
 70
0
 62
7
  6
CONTINUOUS
370
-3
390
F
  0
LAYER
  5
20B
100
AcDbSymbolTableRecord
100
AcDbLayerTableRecord
  2
IMPORTED
 70
0
 62
7
  6
CONTINUOUS
370
-3
390
F
  0
LAYER
  5
20C
100
AcDbSymbolTableRecord
100
AcDbLayerTableRecord
  2
INCISIONI_LASER
 70
0
 62
7
  6
CONTINUOUS
370
-3
390
F
  0
LAYER
  5
20D
100
AcDbSymbolTableRecord
100
AcDbLayerTableRecord
  2
INTFCLR_3
 70
0
 62
7
  6
CONTINUOUS
370
-3
390
F
  0
LAYER
  5
20E
100
AcDbSymbolTableRecord
100
AcDbLayerTableRecord
  2
INTF_1
 70
0
 62
7
  6
CONTINUOUS
370
-3
390
F
  0
LAYER
  5
20F
100
AcDbSymbolTableRecord
100
AcDbLayerTableRecord
  2
INTF_11
 70
0
 62
7
  6
CONTINUOUS
370
-3
390
F
  0
LAYER
  5
210
100
AcDbSymbolTableRecord
100
AcDbLayerTableRecord
  2
INTF_12
 70
0
 62
7
  6
CONTINUOUS
370
-3
390
F
  0
LAYER
  5
211
100
AcDbSymbolTableRecord
100
AcDbLayerTableRecord
  2
INTF_2
 70
0
 62
7
  6
CONTINUOUS
370
-3
390
F
  0
LAYER
  5
212
100
AcDbSymbolTableRecord
100
AcDbLayerTableRecord
  2
INTF_6
 70
0
 62
7
  6
CONTINUOUS
370
-3
390
F
  0
LAYER
  5
213
100
AcDbSymbolTableRecord
100
AcDbLayerTableRecord
  2
INTF_YELLOW
 70
0
 62
7
  6
CONTINUOUS
370
-3
390
F
  0
LAYER
  5
214
100
AcDbSymbolTableRecord
100
AcDbLayerTableRecord
  2
NOTE
 70
0
 62
7
  6
CONTINUOUS
370
-3
390
F
  0
LAYER
  5
215
100
AcDbSymbolTableRecord
100
AcDbLayerTableRecord
  2
PIANI
 70
0
 62
7
  6
CONTINUOUS
370
-3
390
F
  0
LAYER
  5
216
100
AcDbSymbolTableRecord
100
AcDbLayerTableRecord
  2
PIANI_ORIGINE
 70
0
 62
7
  6
CONTINUOUS
370
-3
390
F
  0
LAYER
  5
217
100
AcDbSymbolTableRecord
100
AcDbLayerTableRecord
  2
PIANI_RIFERIMENTO
 70
0
 62
7
  6
CONTINUOUS
370
-3
390
F
  0
LAYER
  5
218
100
AcDbSymbolTableRecord
100
AcDbLayerTableRecord
  2
PIANI_SFORMO
 70
0
 62
7
  6
CONTINUOUS
370
-3
390
F
  0
LAYER
  5
219
100
AcDbSymbolTableRecord
100
AcDbLayerTableRecord
  2
PUNTI
 70
0
 62
7
  6
CONTINUOUS
370
-3
390
F
  0
LAYER
  5
21A
100
AcDbSymbolTableRecord
100
AcDbLayerTableRecord
  2
RACCORDO
 70
0
 62
7
  6
CONTINUOUS
370
-3
390
F
  0
LAYER
  5
21B
100
AcDbSymbolTableRecord
100
AcDbLayerTableRecord
  2
RGB__255__255__255__
 70
0
 62
7
  6
CONTINUOUS
370
-3
390
F
  0
LAYER
  5
21C
100
AcDbSymbolTableRecord
100
AcDbLayerTableRecord
  2
RINTRACCIABILITA
 70
0
 62
7
  6
CONTINUOUS
370
-3
390
F
  0
LAYER
  5
21D
100
AcDbSymbolTableRecord
100
AcDbLayerTableRecord
  2
SMUSSO
 70
0
 62
7
  6
CONTINUOUS
370
-3
390
F
  0
LAYER
  5
21E
100
AcDbSymbolTableRecord
100
AcDbLayerTableRecord
  2
SNAPLINE
 70
0
 62
7
  6
CONTINUOUS
370
-3
390
F
  0
LAYER
  5
21F
100
AcDbSymbolTableRecord
100
AcDbLayerTableRecord
  2
SUPERFICI
 70
0
 62
7
  6
CONTINUOUS
370
-3
390
F
  0
LAYER
  5
220
100
AcDbSymbolTableRecord
100
AcDbLayerTableRecord
  2
TRASH
 70
0
 62
7
  6
CONTINUOUS
370
-3
390
F
  0
LAYER
  5
221
100
AcDbSymbolTableRecord
100
AcDbLayerTableRecord
  2
XSEC_DATUMS
 70
0
 62
7
  6
CONTINUOUS
370
-3
390
F
  0
ENDTAB
  0
TABLE
  2
STYLE
  5
3
100
AcDbSymbolTable
 70
1
  0
STYLE
  5
11
100
AcDbSymbolTableRecord
100
AcDbTextStyleTableRecord
  2
STANDARD
 70
0
 40
0.0
 41
0.8
 50
0.0
 71
0
 42
0.2
  3
txt
  4

  0
STYLE
  5
222
100
AcDbSymbolTableRecord
100
AcDbTextStyleTableRecord
  2
TEXTSTYLE_1
 70
0
 40
0.0
 41
0.8
 50
0.0
 71
0
 42
0.2
  3
gdt
  4

  0
ENDTAB
  0
TABLE
  2
VIEW
  5
6
100
AcDbSymbolTable
 70
0
  0
ENDTAB
  0
TABLE
  2
UCS
  5
7
100
AcDbSymbolTable
 70
0
  0
ENDTAB
  0
TABLE
  2
APPID
  5
9
100
AcDbSymbolTable
 70
1
  0
APPID
  5
223
100
AcDbSymbolTableRecord
100
AcDbRegAppTableRecord
  2
ACAD
 70
0
  0
ENDTAB
  0
TABLE
  2
BLOCK_RECORD
  5
1
100
AcDbSymbolTable
 70
0
  0
BLOCK_RECORD
  5
224
100
AcDbSymbolTableRecord
100
AcDbBlockTableRecord
  2
*Model_Space
  0
BLOCK_RECORD
  5
225
100
AcDbSymbolTableRecord
100
AcDbBlockTableRecord
  2
*Paper_Space
  0
BLOCK_RECORD
  5
226
100
AcDbSymbolTableRecord
100
AcDbBlockTableRecord
  2
_FILLED
  0
ENDTAB
  0
TABLE
  2
DIMSTYLE
  5
A
100
AcDbSymbolTable
 70
1
100
AcDbDimStyleTable
 71
0
  0
DIMSTYLE
105
227
100
AcDbSymbolTableRecord
100
AcDbDimStyleTableRecord
  2
STANDARD
 70
0
  3

  4

 40
1.0
 41
3.0
 42
0.5
 43
0.38
 44
1.5
 45
0.0
 46
0.0
 47
0.01
 48
0.01
140
3.0
141
0.09
142
0.0
143
25.4
144
1.0
145
0.0
146
1.0
147
0.625
 71
1
 72
0
 73
0
 74
0
 75
0
 76
0
 77
1
 78
8
 79
2
170
0
171
1
172
0
173
0
174
0
175
0
176
0
177
0
178
0
270
2
179
2
271
2
272
2
273
2
274
2
275
0
280
0
281
0
282
0
283
1
284
8
285
0
286
0
287
3
288
0
340
11
278
44
341
226
342
226
343
226
344
226
  0
ENDTAB
  0
ENDSEC
  0
SECTION
  2
BLOCKS
  0
BLOCK
  5
20
100
AcDbEntity
  8
0
100
AcDbBlockBegin
  2
*Model_Space
 70
0
 10
0.0
 20
0.0
 30
0.0
  3
*Model_Space
  1

  0
ENDBLK
  5
21
100
AcDbEntity
  8
0
100
AcDbBlockEnd
  0
BLOCK
  5
1C
100
AcDbEntity
  8
0
100
AcDbBlockBegin
  2
*Paper_Space
 70
0
 10
0.0
 20
0.0
 30
0.0
  3
*Paper_Space
  1

  0
ENDBLK
  5
1D
100
AcDbEntity
  8
0
100
AcDbBlockEnd
  0
BLOCK
  5
228
100
AcDbEntity
  8
0
100
AcDbBlockBegin
  2
_FILLED
 70
64
 10
0.0
 20
0.0
  3
_FILLED
  1

  0
SOLID
  5
229
100
AcDbEntity
  8
0
  6
BYBLOCK
 62
0
100
AcDbTrace
 10
0.0
 20
0.0
 11
-1.0
 21
0.3166666667
 12
-1.0
 22
-0.3166666667
 13
-1.0
 23
-0.3166666667
  0
ENDBLK
  5
22A
100
AcDbEntity
  8
0
  6
BYBLOCK
 62
0
100
AcDbBlockEnd
  0
ENDSEC
  0
SECTION
  2
ENTITIES
  0
LWPOLYLINE
  5
22B
100
AcDbEntity
  8
RACCORDO
100
AcDbPolyline
 62
250
  6
CONTINUOUS
 90
11
 70
0
 10
-19.4688581717
 20
-19.7801796394
 10
-19.5088639514
 20
-19.7555936778
 10
-19.545930312
 20
-19.7257889398
 10
-19.5798308185
 20
-19.6909464293
 10
-19.6103689594
 20
-19.6512707006
 10
-19.6373597659
 20
-19.6069991383
 10
-19.6606364893
 20
-19.5583998333
 10
-19.6800621229
 20
-19.5057642956
 10
-19.695519958
 20
-19.44940934
 10
-19.7069138341
 20
-19.3896746793
 10
-19.7141740793
 20
-19.3269197952
  0
LWPOLYLINE
  5
22C
100
AcDbEntity
  8
RACCORDO
100
AcDbPolyline
 62
250
  6
CONTINUOUS
 90
4
 70
0
 10
-17.6080667242
 20
18.9811688048
 10
-17.5547110473
 20
19.0197472883
 10
-17.5008223299
 20
19.0534446515
 10
-17.4467287145
 20
19.0820602443
  0
LWPOLYLINE
  5
22D
100
AcDbEntity
  8
0
100
AcDbPolyline
 62
7
  6
CONTINUOUS
 90
10
 70
0
 10
-14.3816797583
 20
22.4216926317
 10
-14.409680984
 20
22.4049324541
 10
-14.4356646132
 20
22.3843032233
 10
-14.45895102
 20
22.360102828
 10
-14.4788965862
 20
22.3328197432
 10
-14.4950270906
 20
22.3029926654
 10
-14.5070256435
 20
22.2710817616
 10
-14.5146328553
 20
22.2374364068
 10
-14.5175367347
 20
22.2030585869
 10
-14.5175656505
 20
22.1992731092
  0
LINE
  5
22E
100
AcDbEntity
  8
0
100
AcDbLine
 62
7
  6
CONTINUOUS
 10
-14.4924827627
 20
21.0746542158
 11
-13.922283436
 21
21.4071326495
  0
LINE
  5
22F
100
AcDbEntity
  8
0
100
AcDbLine
 62
250
  6
CONTINUOUS
 10
-14.2585799875
 20
21.0662067811
 11
-13.8145726985
 21
21.3251036985
  0
LWPOLYLINE
  5
230
100
AcDbEntity
  8
RACCORDO
100
AcDbPolyline
 62
7
  6
CONTINUOUS
 90
14
 70
0
 10
-17.6773600653
 20
19.0928767351
 10
-17.7420671791
 20
19.0575348832
 10
-17.8111134925
 20
19.0119614271
 10
-17.877420668
 20
18.9597049403
 10
-17.9406080203
 20
18.9011394809
 10
-17.9998574851
 20
18.8371554861
 10
-18.0551526054
 20
18.7679118584
 10
-18.1062771732
 20
18.6936693984
 10
-18.1522741687
 20
18.6158208635
 10
-18.1930491562
 20
18.5346905335
 10
-18.2283846397
 20
18.450550451
 10
-18.2575824724
 20
18.3650139331
 10
-18.280448083
 20
18.2787834573
 10
-18.2971674293
 20
18.190341764
  0
LINE
  5
231
100
AcDbEntity
  8
0
100
AcDbLine
 62
7
  6
CONTINUOUS
 10
-14.3816797583
 20
22.4216926317
 11
-12.7985060929
 21
23.2338906898
  0
LINE
  5
232
100
AcDbEntity
  8
0
100
AcDbLine
 62
250
  6
CONTINUOUS
 10
-14.2685940921
 20
22.4152446565
 11
-12.685837489
 21
23.2272287539
  0
LINE
  5
233
100
AcDbEntity
  8
0
100
AcDbLine
 62
250
  6
CONTINUOUS
 10
-12.5900560217
 20
21.5759756213
 11
-10.9887752309
 21
22.3786976248
  0
LINE
  5
234
100
AcDbEntity
  8
0
100
AcDbLine
 62
250
  6
CONTINUOUS
 10
-12.413282318
 20
21.2710860825
 11
-10.8120015272
 21
22.073808086
  0
LINE
  5
235
100
AcDbEntity
  8
0
100
AcDbLine
 62
7
  6
CONTINUOUS
 10
-12.7985060949
 20
23.2338906888
 11
-12.7967696783
 21
23.2347589115
  0
LINE
  5
236
100
AcDbEntity
  8
0
100
AcDbLine
 62
250
  6
CONTINUOUS
 10
-10.9887752309
 20
22.3786976248
 11
-10.4605080592
 21
22.6421364449
  0
LINE
  5
237
100
AcDbEntity
  8
0
100
AcDbLine
 62
250
  6
CONTINUOUS
 10
-10.8120015272
 20
22.073808086
 11
-10.2837343555
 21
22.3372469061
  0
LINE
  5
238
100
AcDbEntity
  8
RACCORDO
100
AcDbLine
 62
7
  6
CONTINUOUS
 10
-17.6774204664
 20
19.0928604785
 11
-14.9422062116
 21
20.443937602
  0
LINE
  5
239
100
AcDbEntity
  8
RACCORDO
100
AcDbLine
 62
250
  6
CONTINUOUS
 10
-17.4467287145
 20
19.0820602443
 11
-14.7151756661
 21
20.4313288908
  0
LWPOLYLINE
  5
23A
100
AcDbEntity
  8
0
100
AcDbPolyline
 62
250
  6
CONTINUOUS
 90
16
 70
0
 10
-14.3816797583
 20
22.4216926317
 10
-14.378282034
 20
22.4233502561
 10
-14.3715368131
 20
22.4261628038
 10
-14.3645560741
 20
22.4284613573
 10
-14.3573556301
 20
22.4302407097
 10
-14.3499517917
 20
22.4314968304
 10
-14.3423613303
 20
22.432226874
 10
-14.3346014398
 20
22.4324291868
 10
-14.3266896984
 20
22.4321033106
 10
-14.3186440276
 20
22.4312499834
 10
-14.310482653
 20
22.4298711384
 10
-14.3022240617
 20
22.4279698988
 10
-14.2938869613
 20
22.4255505714
 10
-14.2854902373
 20
22.4226186366
 10
-14.2770529101
 20
22.4191807357
 10
-14.2685940921
 20
22.4152446565
  0
LINE
  5
23B
100
AcDbEntity
  8
0
100
AcDbLine
 62
7
  6
CONTINUOUS
 10
-12.7967696791
 20
23.2347589111
 11
-12.2618997214
 21
23.4953110115
  0
LINE
  5
23C
100
AcDbEntity
  8
0
100
AcDbLine
 62
250
  6
CONTINUOUS
 10
-12.685837489
 20
23.2272287539
 11
-12.1513876103
 21
23.4875762204
  0
LWPOLYLINE
  5
23D
100
AcDbEntity
  8
0
100
AcDbPolyline
 62
7
  6
CONTINUOUS
 90
16
 70
0
 10
-12.7967696783
 20
23.2347589115
 10
-12.79511205
 20
23.23554642
 10
-12.7883765611
 20
23.2383539579
 10
-12.7814088219
 20
23.2406458195
 10
-12.7742245648
 20
23.2424168394
 10
-12.7668400492
 20
23.2436630144
 10
-12.7592720948
 20
23.2443814796
 10
-12.7515377733
 20
23.2445706447
 10
-12.7436545674
 20
23.2442301014
 10
-12.7356404679
 20
23.2433605598
 10
-12.7275135375
 20
23.2419640368
 10
-12.7192921265
 20
23.2400437269
 10
-12.7109950297
 20
23.2376039002
 10
-12.7026410364
 20
23.2346500893
 10
-12.6942488873
 20
23.2311890763
 10
-12.685837489
 20
23.2272287539
  0
LWPOLYLINE
  5
23E
100
AcDbEntity
  8
0
100
AcDbPolyline
 62
250
  6
CONTINUOUS
 90
16
 70
0
 10
-12.2618997214
 20
23.4953110115
 10
-12.260226998
 20
23.496105461
 10
-12.2535000677
 20
23.4989071155
 10
-12.2465440861
 20
23.5011913966
 10
-12.2393747442
 20
23.5029531381
 10
-12.2320083485
 20
23.5041883201
 10
-12.2244617515
 20
23.50489413
 10
-12.2167521654
 20
23.5050689992
 10
-12.2088969662
 20
23.5047125741
 10
-12.2009138075
 20
23.5038256702
 10
-12.1928195599
 20
23.5024100461
 10
-12.1846337492
 20
23.5004690024
 10
-12.176378483
 20
23.4980081054
 10
-12.1680737273
 20
23.4950340559
 10
-12.1597371458
 20
23.4915539234
 10
-12.1513876103
 20
23.4875762204
  0
LINE
  5
23F
100
AcDbEntity
  8
0
100
AcDbLine
 62
7
  6
CONTINUOUS
 10
-12.2541465224
 20
23.498924921
 11
-12.2620638612
 21
23.4952308554
  0
LWPOLYLINE
  5
240
100
AcDbEntity
  8
RACCORDO
100
AcDbPolyline
 62
250
  6
CONTINUOUS
 90
8
 70
0
 10
-17.6773654462
 20
19.0928876459
 10
-17.661592831
 20
19.0998663861
 10
-17.6292363026
 20
19.1096575442
 10
-17.5949832362
 20
19.1143575296
 10
-17.5592085888
 20
19.1139148931
 10
-17.5223039733
 20
19.10833448
 10
-17.484673372
 20
19.0976773771
 10
-17.4467287145
 20
19.0820602443
  0
LINE
  5
241
100
AcDbEntity
  8
0
100
AcDbLine
 62
250
  6
CONTINUOUS
 10
2.0199236372
 20
-25.4617177464
 11
1.4916564654
 21
-25.3532154693
  0
LWPOLYLINE
  5
242
100
AcDbEntity
  8
0
100
AcDbPolyline
 62
7
  6
CONTINUOUS
 90
16
 70
0
 10
0.6015962827
 20
-25.6688245102
 10
0.5958575994
 20
-25.6676068209
 10
0.5899318798
 20
-25.6662887465
 10
0.5838203982
 20
-25.6648741704
 10
0.5775218218
 20
-25.6633709057
 10
0.5710407666
 20
-25.6617794606
 10
0.564387739
 20
-25.6600930111
 10
0.5575648543
 20
-25.6583163412
 10
0.550574652
 20
-25.6564540263
 10
0.5434285354
 20
-25.6544991534
 10
0.536129351
 20
-25.6524570066
 10
0.5286803333
 20
-25.6503326882
 10
0.5210937248
 20
-25.6481192362
 10
0.5133731294
 20
-25.6458224271
 10
0.5055224939
 20
-25.6434478796
 10
0.497554834
 20
-25.6409886216
  0
LWPOLYLINE
  5
243
100
AcDbEntity
  8
0
100
AcDbPolyline
 62
7
  6
CONTINUOUS
 90
9
 70
0
 10
-0.3971729886
 20
-26.9950006477
 10
-0.3689792765
 20
-27.0069972863
 10
-0.3390955275
 20
-27.0155520711
 10
-0.3080295168
 20
-27.0203647874
 10
-0.2762314233
 20
-27.0212267225
 10
-0.2444452569
 20
-27.0180214929
 10
-0.2135253449
 20
-27.0108482391
 10
-0.183639117
 20
-26.9997594572
 10
-0.1757217782
 20
-26.9960653915
  0
LWPOLYLINE
  5
244
100
AcDbEntity
  8
RACCORDO
100
AcDbPolyline
 62
7
  6
CONTINUOUS
 90
11
 70
0
 10
-4.7700053422
 20
-27.1297061421
 10
-4.7363707498
 20
-27.1454716973
 10
-4.6774866064
 20
-27.1680908854
 10
-4.6164451021
 20
-27.1854343449
 10
-4.5535948174
 20
-27.1973257236
 10
-4.4890129211
 20
-27.2036331172
 10
-4.4231175317
 20
-27.204179535
 10
-4.356410004
 20
-27.1988357494
 10
-4.2889800819
 20
-27.1874450697
 10
-4.221096409
 20
-27.1698420804
 10
-4.1669947874
 20
-27.1513241063
  0
LINE
  5
245
100
AcDbEntity
  8
RACCORDO
100
AcDbLine
 62
7
  6
CONTINUOUS
 10
-19.4603915698
 20
-19.7845233878
 11
-19.4612597276
 21
-19.7840907507
  0
LINE
  5
246
100
AcDbEntity
  8
ASSI
100
AcDbLine
 62
7
  6
CONTINUOUS
 10
-19.4612585703
 20
-19.7840913294
 11
-4.769138524
 21
-27.1301513525
  0
LINE
  5
247
100
AcDbEntity
  8
RACCORDO
100
AcDbLine
 62
250
  6
CONTINUOUS
 10
-19.7141740793
 20
-19.3269197952
 11
-5.0294191884
 21
-26.6692972406
  0
LINE
  5
248
100
AcDbEntity
  8
RACCORDO
100
AcDbLine
 62
7
  6
CONTINUOUS
 10
-4.7699186589
 20
-27.1297601769
 11
-4.7691373857
 21
-27.1301519217
  0
LINE
  5
249
100
AcDbEntity
  8
RACCORDO
100
AcDbLine
 62
250
  6
CONTINUOUS
 10
-19.4612597276
 20
-19.7840907507
 11
-19.4688581717
 21
-19.7801796394
  0
LINE
  5
24A
100
AcDbEntity
  8
0
100
AcDbLine
 62
7
  6
CONTINUOUS
 10
-10.8120015272
 20
20.471657425
 11
-11.7020617099
 21
19.9749765038
  0
LINE
  5
24B
100
AcDbEntity
  8
0
100
AcDbLine
 62
7
  6
CONTINUOUS
 10
-8.8321025399
 20
20.8673485774
 11
-9.8865919713
 21
20.3263755388
  0
LINE
  5
24C
100
AcDbEntity
  8
0
100
AcDbLine
 62
7
  6
CONTINUOUS
 10
-3.4958791339
 20
23.4667920429
 11
-8.8321025399
 21
20.8673485774
  0
LINE
  5
24D
100
AcDbEntity
  8
0
100
AcDbLine
 62
7
  6
CONTINUOUS
 10
-2.9876697576
 20
24.286328306
 11
-10.1090085729
 21
20.8222293407
  0
LWPOLYLINE
  5
24E
100
AcDbEntity
  8
0
100
AcDbPolyline
 62
7
  6
CONTINUOUS
 90
3
 70
0
 10
-3.4626764363
 20
23.4810734477
 10
-3.4518242385
 20
23.4847757288
 10
-3.4405908178
 20
23.4878981771
  0
LINE
  5
24F
100
AcDbEntity
  8
0
100
AcDbLine
 62
250
  6
CONTINUOUS
 10
1.9305098418
 20
-25.1421509404
 11
1.4916564654
 21
-25.0520136137
  0
LWPOLYLINE
  5
250
100
AcDbEntity
  8
0
100
AcDbPolyline
 62
7
  6
CONTINUOUS
 90
3
 70
0
 10
0.497554834
 20
-25.6409886216
 10
0.4812862228
 20
-25.6358408594
 10
0.4730037687
 20
-25.6331515717
  0
LWPOLYLINE
  5
251
100
AcDbEntity
  8
0
100
AcDbPolyline
 62
7
  6
CONTINUOUS
 90
3
 70
0
 10
0.4730037687
 20
-25.6331515717
 10
0.4561772675
 20
-25.6275620405
 10
0.4476532808
 20
-25.6246616553
  0
LWPOLYLINE
  5
252
100
AcDbEntity
  8
0
100
AcDbPolyline
 62
7
  6
CONTINUOUS
 90
3
 70
0
 10
0.4476532808
 20
-25.6246616553
 10
0.4304225512
 20
-25.6186714528
 10
0.421737483
 20
-25.6155822336
  0
LWPOLYLINE
  5
253
100
AcDbEntity
  8
0
100
AcDbPolyline
 62
7
  6
CONTINUOUS
 90
3
 70
0
 10
0.421737483
 20
-25.6155822336
 10
0.4042707964
 20
-25.6092393159
 10
0.3955125146
 20
-25.6059870776
  0
LWPOLYLINE
  5
254
100
AcDbEntity
  8
0
100
AcDbPolyline
 62
7
  6
CONTINUOUS
 90
17
 70
0
 10
0.3955125146
 20
-25.6059870776
 10
0.3779931963
 20
-25.5993467259
 10
0.3692571736
 20
-25.5959610768
 10
0.360551135
 20
-25.5925381211
 10
0.35188387
 20
-25.5890863835
 10
0.3432732201
 20
-25.5856009555
 10
0.3347286661
 20
-25.5820902897
 10
0.3262597713
 20
-25.578563264
 10
0.3178849258
 20
-25.5750158426
 10
0.3096145225
 20
-25.5714566069
 10
0.3014588665
 20
-25.5678947075
 10
0.2934366459
 20
-25.5643271558
 10
0.2855694318
 20
-25.5607687117
 10
0.2778576591
 20
-25.5572220006
 10
0.270289767
 20
-25.5536682818
 10
0.2628712317
 20
-25.5501100415
 10
0.2556233516
 20
-25.5465682991
  0
LWPOLYLINE
  5
255
100
AcDbEntity
  8
0
100
AcDbPolyline
 62
250
  6
CONTINUOUS
 90
34
 70
0
 10
-0.4621462851
 20
-26.8597821976
 10
-0.4535813533
 20
-26.8638665521
 10
-0.44463557
 20
-26.8677452219
 10
-0.4353285411
 20
-26.8714092399
 10
-0.425679356
 20
-26.8748505673
 10
-0.4157105689
 20
-26.8780606549
 10
-0.4054485774
 20
-26.8810307925
 10
-0.3949180159
 20
-26.8837539211
 10
-0.3841410952
 20
-26.886224366
 10
-0.3731418578
 20
-26.8884366081
 10
-0.3619448876
 20
-26.8903856813
 10
-0.3505754949
 20
-26.8920671589
 10
-0.3390594772
 20
-26.893477219
 10
-0.3274228408
 20
-26.8946126838
 10
-0.3156916569
 20
-26.8954710157
 10
-0.3038922344
 20
-26.8960502894
 10
-0.2920510787
 20
-26.8963491997
 10
-0.2801948535
 20
-26.8963670692
 10
-0.2683502453
 20
-26.8961038555
 10
-0.2565438997
 20
-26.8955601493
 10
-0.2448023661
 20
-26.894737172
 10
-0.2331520573
 20
-26.8936367734
 10
-0.2216191754
 20
-26.8922614269
 10
-0.2102296625
 20
-26.890614225
 10
-0.1990091447
 20
-26.8886988728
 10
-0.1879828613
 20
-26.886519678
 10
-0.1771756112
 20
-26.8840815411
 10
-0.1666117057
 20
-26.8813899464
 10
-0.1563149003
 20
-26.8784509458
 10
-0.1463083605
 20
-26.8752711508
 10
-0.1366146108
 20
-26.8718577194
 10
-0.1272554587
 20
-26.8682183323
 10
-0.1182519472
 20
-26.8643611742
 10
-0.1096243254
 20
-26.8602949214
  0
LWPOLYLINE
  5
256
100
AcDbEntity
  8
0
100
AcDbPolyline
 62
250
  6
CONTINUOUS
 90
34
 70
0
 10
-0.4621462851
 20
-26.5198082635
 10
-0.4535666646
 20
-26.5238992973
 10
-0.4446087861
 20
-26.5277823545
 10
-0.435292795
 20
-26.5314487023
 10
-0.4256396533
 20
-26.5348900918
 10
-0.4156710593
 20
-26.5380987879
 10
-0.4054093948
 20
-26.5410675847
 10
-0.3948777095
 20
-26.5437898091
 10
-0.3840997095
 20
-26.5462593292
 10
-0.3730996703
 20
-26.5484705811
 10
-0.3619023435
 20
-26.5504185898
 10
-0.3505328988
 20
-26.5520989769
 10
-0.3390169058
 20
-26.5535079634
 10
-0.3273802637
 20
-26.5546423806
 10
-0.3156491423
 20
-26.5554996772
 10
-0.3038499238
 20
-26.5560779252
 10
-0.2920091354
 20
-26.5563758245
 10
-0.2801534149
 20
-26.5563927044
 10
-0.268309451
 20
-26.5561285279
 10
-0.2565038968
 20
-26.5555838918
 10
-0.2447632848
 20
-26.5547600228
 10
-0.2331139926
 20
-26.5536587727
 10
-0.2215821333
 20
-26.5522826069
 10
-0.2101937284
 20
-26.5506346274
 10
-0.1989746136
 20
-26.5487185817
 10
-0.1879501546
 20
-26.5465388257
 10
-0.177144978
 20
-26.5441002529
 10
-0.1665831563
 20
-26.5414083052
 10
-0.1562876154
 20
-26.5384687877
 10
-0.1462823766
 20
-26.5352885193
 10
-0.1365920676
 20
-26.5318754394
 10
-0.1272389384
 20
-26.5282376532
 10
-0.1182430386
 20
-26.5243832364
 10
-0.1096243254
 20
-26.5203209873
  0
LINE
  5
257
100
AcDbEntity
  8
0
100
AcDbLine
 62
7
  6
CONTINUOUS
 10
-1.848680722
 20
-26.269246781
 11
-0.3971729886
 21
-26.9950006477
  0
LINE
  5
258
100
AcDbEntity
  8
0
100
AcDbLine
 62
250
  6
CONTINUOUS
 10
-1.7320050925
 20
-26.2248527939
 11
-0.4621462851
 21
-26.8597821976
  0
LINE
  5
259
100
AcDbEntity
  8
0
100
AcDbLine
 62
250
  6
CONTINUOUS
 10
-0.4621462851
 20
-26.5198082635
 11
-1.3458863635
 21
-26.0779382242
  0
LINE
  5
25A
100
AcDbEntity
  8
0
100
AcDbLine
 62
250
  6
CONTINUOUS
 10
-0.3737579374
 20
-26.2881140896
 11
-1.1522370672
 21
-25.8988745248
  0
LINE
  5
25B
100
AcDbEntity
  8
0
100
AcDbLine
 62
7
  6
CONTINUOUS
 10
0.2556233516
 20
-25.5465682991
 11
-1.0917936806
 21
-24.8728777845
  0
LWPOLYLINE
  5
25C
100
AcDbEntity
  8
RACCORDO
100
AcDbPolyline
 62
250
  6
CONTINUOUS
 90
9
 70
0
 10
-19.8606890288
 20
-19.148918503
 10
-19.860078466
 20
-19.1549970206
 10
-19.8540082458
 20
-19.1833059103
 10
-19.8427263984
 20
-19.2108295338
 10
-19.8263524925
 20
-19.2372761867
 10
-19.8050600644
 20
-19.2623655785
 10
-19.7790747784
 20
-19.2858318035
 10
-19.7486720353
 20
-19.3074261586
 10
-19.7141740538
 20
-19.3269197794
  0
LINE
  5
25D
100
AcDbEntity
  8
RACCORDO
100
AcDbLine
 62
7
  6
CONTINUOUS
 10
-19.8607085077
 20
-19.148674893
 11
-19.8606890288
 21
-19.148918503
  0
LWPOLYLINE
  5
25E
100
AcDbEntity
  8
RACCORDO
100
AcDbPolyline
 62
250
  6
CONTINUOUS
 90
10
 70
0
 10
-19.7141740793
 20
-19.3269197952
 10
-19.7927856637
 20
-18.2488232989
 10
-19.8585207172
 20
-17.1626127109
 10
-19.9113649247
 20
-16.0685147625
 10
-19.9513063105
 20
-14.966758063
 10
-19.9783365001
 20
-13.8575722416
 10
-19.992450715
 20
-12.7411878957
 10
-19.9936460972
 20
-11.6178376252
 10
-19.981921717
 20
-10.4877559882
 10
-19.9572798285
 20
-9.3511786385
  0
LWPOLYLINE
  5
25F
100
AcDbEntity
  8
RACCORDO
100
AcDbPolyline
 62
250
  6
CONTINUOUS
 90
9
 70
0
 10
-20.1037370872
 20
-9.1753036251
 10
-20.1027293433
 20
-9.1940071844
 10
-20.0967575542
 20
-9.2186553837
 10
-20.0855644651
 20
-9.2429887906
 10
-20.0692686605
 20
-9.2667496064
 10
-20.048042785
 20
-9.2896860988
 10
-20.0221117147
 20
-9.3115552688
 10
-19.9917501747
 20
-9.332125425
 10
-19.957279828
 20
-9.3511786382
  0
LWPOLYLINE
  5
260
100
AcDbEntity
  8
RACCORDO
100
AcDbPolyline
 62
250
  6
CONTINUOUS
 90
10
 70
0
 10
-18.2971674293
 20
18.190341764
 10
-18.2977045958
 20
18.1855533738
 10
-18.2965040939
 20
18.1664273538
 10
-18.2900705897
 20
18.1467668222
 10
-18.2784722654
 20
18.1267801408
 10
-18.2618320397
 20
18.1066791281
 10
-18.2403262654
 20
18.0866768143
 10
-18.2141828602
 20
18.0669851836
 10
-18.1836788915
 20
18.0478129275
 10
-18.1491376396
 20
18.0293632331
  0
LWPOLYLINE
  5
261
100
AcDbEntity
  8
RACCORDO
100
AcDbPolyline
 62
7
  6
CONTINUOUS
 90
10
 70
0
 10
-18.2971652096
 20
18.1904441784
 10
-18.4624083573
 20
17.0567659831
 10
-18.6262521361
 20
15.849633512
 10
-18.7770188105
 20
14.6464444713
 10
-18.9146684006
 20
13.4474902078
 10
-19.0391727401
 20
12.2530120737
 10
-19.1505069372
 20
11.0632323565
 10
-19.2486454722
 20
9.8783908055
 10
-19.3335647102
 20
8.6987724949
 10
-19.4007005361
 20
7.6058810858
  0
LWPOLYLINE
  5
262
100
AcDbEntity
  8
RACCORDO
100
AcDbPolyline
 62
250
  6
CONTINUOUS
 90
16
 70
0
 10
-18.1491542485
 20
18.0293590826
 10
-18.136257044
 20
18.1011543312
 10
-18.1193261851
 20
18.1735846039
 10
-18.0984646885
 20
18.2462151846
 10
-18.0738012984
 20
18.3186119893
 10
-18.045484244
 20
18.3903392015
 10
-18.0136806549
 20
18.4609619612
 10
-17.9785860559
 20
18.5300559881
 10
-17.9404127481
 20
18.5972090098
 10
-17.8993827997
 20
18.6620179828
 10
-17.8557465093
 20
18.7240954016
 10
-17.8097685374
 20
18.7830695806
 10
-17.7617155002
 20
18.8385850955
 10
-17.7118783788
 20
18.8903112554
 10
-17.6605612827
 20
18.9379366449
 10
-17.6080667242
 20
18.9811688048
  0
LWPOLYLINE
  5
263
100
AcDbEntity
  8
0
100
AcDbPolyline
 62
7
  6
CONTINUOUS
 90
7
 70
0
 10
-10.2683737831
 20
21.9188802227
 10
-10.2494538892
 20
21.9452214402
 10
-10.2340974657
 20
21.9738024128
 10
-10.2225691219
 20
22.004140129
 10
-10.2150561193
 20
22.0357858946
 10
-10.2117142899
 20
22.0681612467
 10
-10.2115364994
 20
22.0775773186
  0
LINE
  5
264
100
AcDbEntity
  8
0
100
AcDbLine
 62
250
  6
CONTINUOUS
 10
-10.8120015272
 20
21.3467632335
 11
-10.2837343555
 21
21.9897153893
  0
LINE
  5
265
100
AcDbEntity
  8
0
100
AcDbLine
 62
7
  6
CONTINUOUS
 10
-10.8120015272
 20
21.2572327672
 11
-10.2683737831
 21
21.9188802227
  0
LINE
  5
266
100
AcDbEntity
  8
0
100
AcDbLine
 62
7
  6
CONTINUOUS
 10
-9.2271820969
 20
18.5505078358
 11
-8.5139044884
 21
18.9463622809
  0
LINE
  5
267
100
AcDbEntity
  8
0
100
AcDbLine
 62
250
  6
CONTINUOUS
 10
-6.5340037061
 20
19.7182991605
 11
-5.8471019207
 21
20.0628598185
  0
LINE
  5
268
100
AcDbEntity
  8
0
100
AcDbLine
 62
250
  6
CONTINUOUS
 10
-6.3925841448
 20
19.4743901614
 11
-5.7044589437
 21
19.8195645038
  0
LINE
  5
269
100
AcDbEntity
  8
0
100
AcDbLine
 62
7
  6
CONTINUOUS
 10
-9.2271820969
 20
19.9966706016
 11
-8.3720788981
 21
20.4228645918
  0
LINE
  5
26A
100
AcDbEntity
  8
0
100
AcDbLine
 62
250
  6
CONTINUOUS
 10
-6.7488169202
 20
19.6112336028
 11
-6.5340037061
 21
19.7182991605
  0
LINE
  5
26B
100
AcDbEntity
  8
0
100
AcDbLine
 62
250
  6
CONTINUOUS
 10
-6.6078123159
 20
19.3671177841
 11
-6.3925841448
 21
19.4743901614
  0
LINE
  5
26C
100
AcDbEntity
  8
0
100
AcDbLine
 62
7
  6
CONTINUOUS
 10
-7.4920501651
 20
20.8853339407
 11
-2.8794073092
 21
23.1585561306
  0
LINE
  5
26D
100
AcDbEntity
  8
0
100
AcDbLine
 62
7
  6
CONTINUOUS
 10
-3.1544480412
 20
21.6275662708
 11
-2.7429824726
 21
21.8303464751
  0
LINE
  5
26E
100
AcDbEntity
  8
0
100
AcDbLine
 62
7
  6
CONTINUOUS
 10
-0.0284338181
 20
22.8067103363
 11
-2.1635694219
 21
21.7544637643
  0
LWPOLYLINE
  5
26F
100
AcDbEntity
  8
0
100
AcDbPolyline
 62
250
  6
CONTINUOUS
 90
5
 70
0
 10
1.953924893
 20
-25.1502383165
 10
1.9497363278
 20
-25.1482716607
 10
1.9435164411
 20
-25.1457960208
 10
1.9371035433
 20
-25.1437544853
 10
1.9305098418
 20
-25.1421509404
  0
LINE
  5
270
100
AcDbEntity
  8
0
100
AcDbLine
 62
7
  6
CONTINUOUS
 10
0.7663049167
 20
-25.1080143559
 11
0.249074323
 21
-24.8493990591
  0
LINE
  5
271
100
AcDbEntity
  8
0
100
AcDbLine
 62
250
  6
CONTINUOUS
 10
1.4916564654
 20
-24.9227242522
 11
1.9305098418
 21
-25.1421509404
  0
LINE
  5
272
100
AcDbEntity
  8
0
100
AcDbLine
 62
7
  6
CONTINUOUS
 10
1.4916564654
 20
-24.9191041027
 11
1.953924893
 21
-25.1502383165
  0
LINE
  5
273
100
AcDbEntity
  8
SUPERFICI
100
AcDbLine
 62
7
  6
CONTINUOUS
 10
-15.2129559119
 20
-14.7908016222
 11
-14.3290724153
 21
-15.2327433705
  0
LINE
  5
274
100
AcDbEntity
  8
DRAFT
100
AcDbLine
 62
7
  6
CONTINUOUS
 10
-15.2129559119
 20
-14.7908016222
 11
-14.3290724153
 21
-15.2327433705
  0
LINE
  5
275
100
AcDbEntity
  8
SUPERFICI
100
AcDbLine
 62
7
  6
CONTINUOUS
 10
-13.1977014851
 20
-15.7984288356
 11
-12.1370412876
 21
-16.3287589344
  0
LINE
  5
276
100
AcDbEntity
  8
DRAFT
100
AcDbLine
 62
7
  6
CONTINUOUS
 10
-13.1977014851
 20
-15.7984288356
 11
-12.1370412876
 21
-16.3287589344
  0
LINE
  5
277
100
AcDbEntity
  8
SUPERFICI
100
AcDbLine
 62
7
  6
CONTINUOUS
 10
-11.0056705369
 20
-16.8944443097
 11
-10.1217870404
 21
-17.3363860579
  0
LINE
  5
278
100
AcDbEntity
  8
DRAFT
100
AcDbLine
 62
7
  6
CONTINUOUS
 10
-11.0056705369
 20
-16.8944443097
 11
-10.1217870404
 21
-17.3363860579
  0
LINE
  5
279
100
AcDbEntity
  8
0
100
AcDbLine
 62
250
  6
CONTINUOUS
 10
1.9388401453
 20
-25.1466165241
 11
1.9305098418
 21
-25.1421509404
  0
LINE
  5
27A
100
AcDbEntity
  8
0
100
AcDbLine
 62
7
  6
CONTINUOUS
 10
1.953924893
 20
-25.1502383165
 11
1.9782498445
 21
-25.1641575584
  0
LWPOLYLINE
  5
27B
100
AcDbEntity
  8
RACCORDO
100
AcDbPolyline
 62
7
  6
CONTINUOUS
 90
11
 70
0
 10
-19.8606780549
 20
-19.14891762
 10
-19.852369917
 20
-19.2198600322
 10
-19.8344348361
 20
-19.3067790309
 10
-19.8088323863
 20
-19.3882084982
 10
-19.7763261193
 20
-19.4634687768
 10
-19.7374339588
 20
-19.5326376883
 10
-19.6922377156
 20
-19.5961304673
 10
-19.6414296459
 20
-19.6533239887
 10
-19.5856392255
 20
-19.7038656802
 10
-19.5246222991
 20
-19.7480262563
 10
-19.4604743007
 20
-19.7844707893
  0
LWPOLYLINE
  5
27C
100
AcDbEntity
  8
RACCORDO
100
AcDbPolyline
 62
250
  6
CONTINUOUS
 90
9
 70
0
 10
-19.4007005361
 20
7.6058810858
 10
-19.399781282
 20
7.5850280383
 10
-19.3937631006
 20
7.5614871715
 10
-19.3825295788
 20
7.5381188549
 10
-19.3661997294
 20
7.5151706626
 10
-19.3449465579
 20
7.4928857175
 10
-19.3189952295
 20
7.471500116
 10
-19.2886206836
 20
7.4512404262
 10
-19.2541447214
 20
7.4323212881
  0
LWPOLYLINE
  5
27D
100
AcDbEntity
  8
RACCORDO
100
AcDbPolyline
 62
7
  6
CONTINUOUS
 90
10
 70
0
 10
-20.1037370686
 20
-9.1753034665
 10
-20.1274493175
 20
-10.2550547546
 10
-20.1398996085
 20
-11.401794278
 10
-20.1390496418
 20
-12.5417123295
 10
-20.1248954479
 20
-13.6745320709
 10
-20.0974388624
 20
-14.8000261671
 10
-20.0566825696
 20
-15.9179863845
 10
-20.0026308808
 20
-17.0281875131
 10
-19.9352961474
 20
-18.1303624304
 10
-19.8607085077
 20
-19.148674893
  0
LWPOLYLINE
  5
27E
100
AcDbEntity
  8
RACCORDO
100
AcDbPolyline
 62
250
  6
CONTINUOUS
 90
10
 70
0
 10
-19.9572798285
 20
-9.3511786385
 10
-19.9036770256
 20
-7.4977283911
 10
-19.8439407243
 20
-5.6413736629
 10
-19.7780723645
 20
-3.7821477302
 10
-19.7060745149
 20
-1.9201091918
 10
-19.6279479935
 20
-0.0552662142
 10
-19.5436910128
 20
1.8124238402
 10
-19.45330342
 20
3.6829532278
 10
-19.3567875498
 20
5.556263452
 10
-19.2541447469
 20
7.4323212776
  0
LWPOLYLINE
  5
27F
100
AcDbEntity
  8
RACCORDO
100
AcDbPolyline
 62
7
  6
CONTINUOUS
 90
10
 70
0
 10
-19.4007005539
 20
7.6058811953
 10
-19.5002873222
 20
5.7872819856
 10
-19.5978354586
 20
3.8969621721
 10
-19.6891455422
 20
2.0094262609
 10
-19.7742155679
 20
0.1247131009
 10
-19.8530440775
 20
-1.7571450131
 10
-19.9256297731
 20
-3.6361183154
 10
-19.991971306
 20
-5.5121746077
 10
-20.0520673368
 20
-7.3852753923
 10
-20.1037370872
 20
-9.1753036251
  0
LWPOLYLINE
  5
280
100
AcDbEntity
  8
RACCORDO
100
AcDbPolyline
 62
250
  6
CONTINUOUS
 90
10
 70
0
 10
-19.2541447469
 20
7.4323212776
 10
-19.1826494488
 20
8.5904928244
 10
-19.0982830297
 20
9.754052846
 10
-19.0010632642
 20
10.9227589245
 10
-18.8910111019
 20
12.0963677483
 10
-18.7681493924
 20
13.2746347321
 10
-18.6325028722
 20
14.4573140706
 10
-18.4840998588
 20
15.644159362
 10
-18.3229722515
 20
16.8349236573
 10
-18.1491542485
 20
18.0293590826
  0
LWPOLYLINE
  5
281
100
AcDbEntity
  8
0
100
AcDbPolyline
 62
250
  6
CONTINUOUS
 90
30
 70
0
 10
-12.413282318
 20
20.9311121484
 10
-12.4177028435
 20
20.9202206536
 10
-12.4225100389
 20
20.9095543848
 10
-12.4276930544
 20
20.899137415
 10
-12.4332401925
 20
20.8889932547
 10
-12.4391389335
 20
20.8791447988
 10
-12.4453759644
 20
20.8696142746
 10
-12.4519372084
 20
20.8604231919
 10
-12.4588078573
 20
20.8515922945
 10
-12.4659724045
 20
20.8431415132
 10
-12.4734146799
 20
20.8350899209
 10
-12.4811178869
 20
20.8274556895
 10
-12.4890646396
 20
20.8202560491
 10
-12.4972370028
 20
20.8135072489
 10
-12.5056165319
 20
20.8072245204
 10
-12.5141843148
 20
20.8014220434
 10
-12.5229210145
 20
20.7961129139
 10
-12.5318069129
 20
20.791309114
 10
-12.540821955
 20
20.7870214859
 10
-12.5499457943
 20
20.7832597063
 10
-12.5591578388
 20
20.7800322654
 10
-12.5684372977
 20
20.7773464474
 10
-12.5777632276
 20
20.775208314
 10
-12.5871145804
 20
20.7736226907
 10
-12.5964702508
 20
20.7725931563
 10
-12.6058091236
 20
20.7721220344
 10
-12.6151101214
 20
20.7722103883
 10
-12.6243522524
 20
20.7728580185
 10
-12.6335146578
 20
20.7740634634
 10
-12.6401258116
 20
20.7752909876
  0
LWPOLYLINE
  5
282
100
AcDbEntity
  8
RACCORDO
100
AcDbPolyline
 62
7
  6
CONTINUOUS
 90
5
 70
0
 10
-3.1658346793
 20
20.5268443385
 10
-3.1635924443
 20
20.5286594932
 10
-3.1603095059
 20
20.5310083322
 10
-3.1568708214
 20
20.5331229536
 10
-3.1541451883
 20
20.5345769036
  0
LINE
  5
283
100
AcDbEntity
  8
0
100
AcDbLine
 62
7
  6
CONTINUOUS
 10
-6.3925841448
 20
18.2619487338
 11
-6.6078123159
 21
18.1425015127
  0
LINE
  5
284
100
AcDbEntity
  8
0
100
AcDbLine
 62
250
  6
CONTINUOUS
 10
-5.0554216609
 20
18.7568734303
 11
-5.0480473787
 21
18.7608488321
  0
LINE
  5
285
100
AcDbEntity
  8
0
100
AcDbLine
 62
7
  6
CONTINUOUS
 10
-4.9272444217
 20
18.8750221868
 11
-5.1389339481
 21
18.7657921306
  0
LINE
  5
286
100
AcDbEntity
  8
0
100
AcDbLine
 62
250
  6
CONTINUOUS
 10
-4.8369510211
 20
18.8697728181
 11
-5.0480473787
 21
18.7608488321
  0
LINE
  5
287
100
AcDbEntity
  8
0
100
AcDbLine
 62
7
  6
CONTINUOUS
 10
-5.6958982393
 20
18.6119180527
 11
-6.3925841448
 21
18.2619487338
  0
LINE
  5
288
100
AcDbEntity
  8
0
100
AcDbLine
 62
7
  6
CONTINUOUS
 10
-2.1618832181
 20
21.1852949769
 11
-1.0700002559
 21
21.731236458
  0
LINE
  5
289
100
AcDbEntity
  8
RACCORDO
100
AcDbLine
 62
7
  6
CONTINUOUS
 10
-3.154144994
 20
20.5345770007
 11
-3.0925884759
 21
20.5653552598
  0
LINE
  5
28A
100
AcDbEntity
  8
RACCORDO
100
AcDbLine
 62
250
  6
CONTINUOUS
 10
-3.0691822732
 20
20.5266566441
 11
-3.0031457568
 21
20.5596749023
  0
LINE
  5
28B
100
AcDbEntity
  8
0
100
AcDbLine
 62
7
  6
CONTINUOUS
 10
-4.9255431378
 20
18.8758728928
 11
-4.927244442
 21
18.8750221763
  0
LWPOLYLINE
  5
28C
100
AcDbEntity
  8
RACCORDO
100
AcDbPolyline
 62
7
  6
CONTINUOUS
 90
20
 70
0
 10
-3.1541451883
 20
20.5345769036
 10
-3.1532796437
 20
20.5350008577
 10
-3.1495414526
 20
20.5366388746
 10
-3.1456620951
 20
20.5380340901
 10
-3.1416456585
 20
20.5391849197
 10
-3.1374981524
 20
20.5400892579
 10
-3.1332259413
 20
20.5407452619
 10
-3.1288338934
 20
20.5411522952
 10
-3.1243284777
 20
20.5413093521
 10
-3.1197164936
 20
20.5412156921
 10
-3.11500351
 20
20.5408716396
 10
-3.1101963713
 20
20.5402773073
 10
-3.1053022278
 20
20.5394330682
 10
-3.1003272675
 20
20.5383401981
 10
-3.0952786277
 20
20.5369999304
 10
-3.0901637154
 20
20.535413748
 10
-3.0849892363
 20
20.5335838465
 10
-3.0797623993
 20
20.5315125911
 10
-3.0744909067
 20
20.5292025236
 10
-3.0691822732
 20
20.5266566441
  0
LWPOLYLINE
  5
28D
100
AcDbEntity
  8
RACCORDO
100
AcDbPolyline
 62
250
  6
CONTINUOUS
 90
55
 70
0
 10
-3.0031457568
 20
20.5596749023
 10
-2.9873946508
 20
20.5673426301
 10
-2.971265246
 20
20.5747876904
 10
-2.9547575423
 20
20.5820100831
 10
-2.9378581849
 20
20.5890150136
 10
-2.9205805287
 20
20.5957972766
 10
-2.902964638
 20
20.602341256
 10
-2.8850100389
 20
20.6086462028
 10
-2.8667172053
 20
20.6147128662
 10
-2.8481276241
 20
20.6205278768
 10
-2.8292407119
 20
20.6260905916
 10
-2.8100570521
 20
20.6314016536
 10
-2.790619881
 20
20.6364496238
 10
-2.7709287206
 20
20.6412338567
 10
-2.7509840488
 20
20.6457549976
 10
-2.7308305363
 20
20.6500035437
 10
-2.7104677243
 20
20.6539788562
 10
-2.6898960715
 20
20.6576815738
 10
-2.6691616255
 20
20.6611041089
 10
-2.6482641547
 20
20.6642457933
 10
-2.6272038906
 20
20.6671072951
 10
-2.6060275748
 20
20.6696830313
 10
-2.5847350498
 20
20.6719723427
 10
-2.563326473
 20
20.6739758884
 10
-2.5418490588
 20
20.6756900629
 10
-2.5203028215
 20
20.6771142106
 10
-2.4986877469
 20
20.6782489872
 10
-2.4770510058
 20
20.6790927541
 10
-2.4553926506
 20
20.679644872
 10
-2.4337126289
 20
20.6799059802
 10
-2.4120579546
 20
20.6798763584
 10
-2.390428842
 20
20.6795553823
 10
-2.3688250767
 20
20.6789436762
 10
-2.3472930294
 20
20.6780433924
 10
-2.325832941
 20
20.6768539236
 10
-2.3044445706
 20
20.675375877
 10
-2.2831735665
 20
20.6736132274
 10
-2.2620203254
 20
20.6715653938
 10
-2.2409844506
 20
20.6692329571
 10
-2.2201104001
 20
20.6666216342
 10
-2.199398647
 20
20.663730876
 10
-2.1788487183
 20
20.6605612316
 10
-2.1585036528
 20
20.6571200658
 10
-2.1383639903
 20
20.653406861
 10
-2.118429191
 20
20.6494221349
 10
-2.0987406747
 20
20.6451748045
 10
-2.0792989147
 20
20.6406643493
 10
-2.0601034376
 20
20.63589129
 10
-2.0411942431
 20
20.6308661058
 10
-2.0225718451
 20
20.6255882589
 10
-2.0042357295
 20
20.6200582871
 10
-1.9862243538
 20
20.6142882833
 10
-1.968550537
 20
20.6082822782
 10
-1.9512014601
 20
20.6020362412
 10
-1.9341771229
 20
20.595550172
  0
LINE
  5
28E
100
AcDbEntity
  8
0
100
AcDbLine
 62
7
  6
CONTINUOUS
 10
-4.2262722313
 20
19.2145192473
 11
-4.9255431191
 21
18.8758729024
  0
LINE
  5
28F
100
AcDbEntity
  8
0
100
AcDbLine
 62
250
  6
CONTINUOUS
 10
-4.1379546861
 20
19.2082862012
 11
-4.8369510211
 21
18.8697728181
  0
LWPOLYLINE
  5
290
100
AcDbEntity
  8
RACCORDO
100
AcDbPolyline
 62
250
  6
CONTINUOUS
 90
17
 70
0
 10
-3.0925884759
 20
20.5653552598
 10
-3.0892376189
 20
20.5669285865
 10
-3.0842617094
 20
20.568909098
 10
-3.0791313911
 20
20.5705423261
 10
-3.0738564299
 20
20.5718251616
 10
-3.068446867
 20
20.5727551628
 10
-3.0629129997
 20
20.5733305592
 10
-3.0572653622
 20
20.5735502556
 10
-3.051514705
 20
20.5734138338
 10
-3.0456719747
 20
20.5729215536
 10
-3.0397482935
 20
20.5720743519
 10
-3.0337549373
 20
20.5708738414
 10
-3.0277033149
 20
20.5693223076
 10
-3.0216049458
 20
20.5674227037
 10
-3.0154714387
 20
20.5651786458
 10
-3.0093144689
 20
20.5625944056
 10
-3.0031457568
 20
20.5596749023
  0
LINE
  5
291
100
AcDbEntity
  8
SUPERFICI
100
AcDbLine
 62
7
  6
CONTINUOUS
 10
-15.2129546346
 20
-13.9235871619
 11
-14.3290711216
 21
-14.3655289184
  0
LINE
  5
292
100
AcDbEntity
  8
DRAFT
100
AcDbLine
 62
7
  6
CONTINUOUS
 10
-15.2129546346
 20
-13.9235871619
 11
-14.3290711216
 21
-14.3655289184
  0
LINE
  5
293
100
AcDbEntity
  8
SUPERFICI
100
AcDbLine
 62
7
  6
CONTINUOUS
 10
-13.1977002078
 20
-14.9312143752
 11
-12.1370399939
 21
-15.4615444822
  0
LINE
  5
294
100
AcDbEntity
  8
DRAFT
100
AcDbLine
 62
7
  6
CONTINUOUS
 10
-13.1977002078
 20
-14.9312143752
 11
-12.1370399939
 21
-15.4615444822
  0
LINE
  5
295
100
AcDbEntity
  8
SUPERFICI
100
AcDbLine
 62
7
  6
CONTINUOUS
 10
-11.0056692597
 20
-16.0272298493
 11
-10.1217857467
 21
-16.4691716058
  0
LINE
  5
296
100
AcDbEntity
  8
DRAFT
100
AcDbLine
 62
7
  6
CONTINUOUS
 10
-11.0056692597
 20
-16.0272298493
 11
-10.1217857467
 21
-16.4691716058
  0
LINE
  5
297
100
AcDbEntity
  8
0
100
AcDbLine
 62
7
  6
CONTINUOUS
 10
1.9782498445
 20
-25.1641575584
 11
2.0010710161
 21
-25.1808815984
  0
LINE
  5
298
100
AcDbEntity
  8
DRAFT
100
AcDbLine
 62
7
  6
CONTINUOUS
 10
-15.2129559119
 20
-14.7908016222
 11
-15.2252842853
 21
-14.7505819975
  0
LWPOLYLINE
  5
299
100
AcDbEntity
  8
DRAFT
100
AcDbPolyline
 62
7
  6
CONTINUOUS
 90
25
 70
0
 10
-14.3290711216
 20
-14.3655289184
 10
-14.3170362954
 20
-14.4058959802
 10
-14.3060209976
 20
-14.446175077
 10
-14.2960247576
 20
-14.4863659697
 10
-14.287036319
 20
-14.5265253836
 10
-14.2790659408
 20
-14.5665960852
 10
-14.2721455909
 20
-14.6064069779
 10
-14.2662795427
 20
-14.6459491574
 10
-14.2614628917
 20
-14.6852311988
 10
-14.2577141659
 20
-14.7241083858
 10
-14.2550380883
 20
-14.7625806537
 10
-14.2534296011
 20
-14.8006478836
 10
-14.2528928829
 20
-14.8381654387
 10
-14.2534309016
 20
-14.875131898
 10
-14.2550406877
 20
-14.9115486645
 10
-14.2577178475
 20
-14.9472755039
 10
-14.2614673855
 20
-14.9823076961
 10
-14.2662846293
 20
-15.016650111
 10
-14.2721509924
 20
-15.0501770607
 10
-14.2790713591
 20
-15.0828923098
 10
-14.2870414752
 20
-15.1147923951
 10
-14.2960293722
 20
-15.1457409525
 10
-14.3060247892
 20
-15.1756927222
 10
-14.3170389807
 20
-15.2046934514
 10
-14.3290724153
 20
-15.2327433705
  0
LINE
  5
29A
100
AcDbEntity
  8
SUPERFICI
100
AcDbLine
 62
7
  6
CONTINUOUS
 10
-14.313235127
 20
-14.4194318918
 11
-14.3290711216
 21
-14.3655289184
  0
LWPOLYLINE
  5
29B
100
AcDbEntity
  8
DRAFT
100
AcDbPolyline
 62
7
  6
CONTINUOUS
 90
22
 70
0
 10
-15.2252842853
 20
-14.7505819975
 10
-15.2365729546
 20
-14.7104399688
 10
-15.24682145
 20
-14.6703753051
 10
-15.2560404576
 20
-14.6303311237
 10
-15.2642182955
 20
-14.5903638188
 10
-15.271321107
 20
-14.5506431595
 10
-15.2773440322
 20
-14.5111776153
 10
-15.2822913001
 20
-14.471958415
 10
-15.2861430133
 20
-14.4331296303
 10
-15.2888941594
 20
-14.3946910513
 10
-15.2905494151
 20
-14.3566427363
 10
-15.2911037377
 20
-14.3191293215
 10
-15.2905541274
 20
-14.2821520045
 10
-15.2889035812
 20
-14.2457096033
 10
-15.2861563852
 20
-14.2099433519
 10
-15.2823077804
 20
-14.1748581175
 10
-15.2773628585
 20
-14.1404492153
 10
-15.2713410057
 20
-14.1068437129
 10
-15.2642378197
 20
-14.0740381741
 10
-15.2560583354
 20
-14.0420363649
 10
-15.2468364221
 20
-14.0109763188
 10
-15.2365837668
 20
-13.9809042485
  0
LINE
  5
29C
100
AcDbEntity
  8
RACCORDO
100
AcDbLine
 62
7
  6
CONTINUOUS
 10
-3.1658343542
 20
20.5268445074
 11
-5.4381091817
 21
18.592707032
  0
LINE
  5
29D
100
AcDbEntity
  8
0
100
AcDbLine
 62
250
  6
CONTINUOUS
 10
-3.0691822732
 20
20.5266566441
 11
-5.1362868819
 21
18.767157995
  0
LINE
  5
29E
100
AcDbEntity
  8
0
100
AcDbLine
 62
250
  6
CONTINUOUS
 10
-5.2089247384
 20
18.7053293822
 11
-5.3770836071
 21
18.5621942447
  0
LINE
  5
29F
100
AcDbEntity
  8
0
100
AcDbLine
 62
7
  6
CONTINUOUS
 10
-2.5388521873
 20
16.3350827551
 11
-3.6056830995
 21
15.7397583371
  0
LINE
  5
2A0
100
AcDbEntity
  8
0
100
AcDbLine
 62
7
  6
CONTINUOUS
 10
-3.4247854007
 20
17.9492178431
 11
-4.2650929739
 21
17.51562604
  0
LINE
  5
2A1
100
AcDbEntity
  8
0
100
AcDbLine
 62
7
  6
CONTINUOUS
 10
-2.5388521873
 20
17.7207234012
 11
-3.6056830995
 21
17.1859211028
  0
LINE
  5
2A2
100
AcDbEntity
  8
0
100
AcDbLine
 62
7
  6
CONTINUOUS
 10
-0.4948481023
 20
17.0820616925
 11
-0.4931116857
 21
17.0829299152
  0
LINE
  5
2A3
100
AcDbEntity
  8
0
100
AcDbLine
 62
7
  6
CONTINUOUS
 10
2.7356398818
 20
20.3510325351
 11
-2.5388521873
 21
17.7207234012
  0
LINE
  5
2A4
100
AcDbEntity
  8
0
100
AcDbLine
 62
7
  6
CONTINUOUS
 10
-2.5388521873
 20
16.3350827551
 11
2.7684584788
 21
18.9817580252
  0
LINE
  5
2A5
100
AcDbEntity
  8
0
100
AcDbLine
 62
7
  6
CONTINUOUS
 10
2.119168057
 20
20.6592684474
 11
-2.4930064417
 21
18.385812079
  0
LINE
  5
2A6
100
AcDbEntity
  8
0
100
AcDbLine
 62
7
  6
CONTINUOUS
 10
2.89929333
 20
20.0294427724
 11
4.2220557915
 21
20.6814655315
  0
LWPOLYLINE
  5
2A7
100
AcDbEntity
  8
0
100
AcDbPolyline
 62
250
  6
CONTINUOUS
 90
16
 70
0
 10
-2.0780217656
 20
16.2698636354
 10
-2.0746240414
 20
16.2715212597
 10
-2.0678788204
 20
16.2743338075
 10
-2.0608980815
 20
16.276632361
 10
-2.0536976375
 20
16.2784117134
 10
-2.0462937991
 20
16.2796678341
 10
-2.0387033376
 20
16.2803978777
 10
-2.0309434472
 20
16.2806001905
 10
-2.0230317057
 20
16.2802743143
 10
-2.014986035
 20
16.2794209871
 10
-2.0068246603
 20
16.2780421421
 10
-1.998566069
 20
16.2761409025
 10
-1.9902289687
 20
16.2737215751
 10
-1.9818322447
 20
16.2707896402
 10
-1.9733949175
 20
16.2673517394
 10
-1.9649360995
 20
16.2634156602
  0
LINE
  5
2A8
100
AcDbEntity
  8
0
100
AcDbLine
 62
7
  6
CONTINUOUS
 10
-0.4931116865
 20
17.0829299148
 11
0.0417582712
 21
17.3434820152
  0
LINE
  5
2A9
100
AcDbEntity
  8
0
100
AcDbLine
 62
250
  6
CONTINUOUS
 10
-0.3821794963
 20
17.0753997576
 11
0.1522703823
 21
17.3357472241
  0
LWPOLYLINE
  5
2AA
100
AcDbEntity
  8
0
100
AcDbPolyline
 62
250
  6
CONTINUOUS
 90
3
 70
0
 10
0.0417582712
 20
17.3434820152
 10
0.0434138077
 20
17.3442685073
 10
0.0501393265
 20
17.347071204
  0
LWPOLYLINE
  5
2AB
100
AcDbEntity
  8
0
100
AcDbPolyline
 62
7
  6
CONTINUOUS
 90
16
 70
0
 10
-0.4931116857
 20
17.0829299152
 10
-0.4914540573
 20
17.0837174237
 10
-0.4847185684
 20
17.0865249616
 10
-0.4777508292
 20
17.0888168232
 10
-0.4705665722
 20
17.090587843
 10
-0.4631820565
 20
17.0918340181
 10
-0.4556141022
 20
17.0925524833
 10
-0.4478797807
 20
17.0927416484
 10
-0.4399965747
 20
17.0924011051
 10
-0.4319824752
 20
17.0915315635
 10
-0.4238555449
 20
17.0901350405
 10
-0.4156341338
 20
17.0882147306
 10
-0.4073370371
 20
17.0857749039
 10
-0.3989830438
 20
17.082821093
 10
-0.3905908946
 20
17.07936008
 10
-0.3821794963
 20
17.0753997576
  0
LINE
  5
2AC
100
AcDbEntity
  8
RACCORDO
100
AcDbLine
 62
7
  6
CONTINUOUS
 10
10.5000184016
 20
23.3295195992
 11
4.7410923827
 21
20.6698567195
  0
LINE
  5
2AD
100
AcDbEntity
  8
RACCORDO
100
AcDbLine
 62
250
  6
CONTINUOUS
 10
10.9316378266
 20
23.2937258929
 11
5.0133187593
 21
20.5604500213
  0
LWPOLYLINE
  5
2AE
100
AcDbEntity
  8
RACCORDO
100
AcDbPolyline
 62
250
  6
CONTINUOUS
 90
3
 70
0
 10
5.0133187593
 20
20.5604500213
 10
4.987900962
 20
20.5489833121
 10
4.9851790391
 20
20.5478133913
  0
LWPOLYLINE
  5
2AF
100
AcDbEntity
  8
RACCORDO
100
AcDbPolyline
 62
7
  6
CONTINUOUS
 90
34
 70
0
 10
10.5000184016
 20
23.3295195992
 10
10.5243775208
 20
23.34037772
 10
10.5490509106
 20
23.3505956945
 10
10.5740179271
 20
23.36016205
 10
10.5992672164
 20
23.3690694761
 10
10.6247673383
 20
23.3773043352
 10
10.6504664795
 20
23.3848494957
 10
10.6761684885
 20
23.3916560895
 10
10.7020225336
 20
23.3977725567
 10
10.7285003896
 20
23.4032916006
 10
10.7559663141
 20
23.4082333925
 10
10.7840156043
 20
23.4124692346
 10
10.8119671214
 20
23.4158854839
 10
10.8394858374
 20
23.4184720237
 10
10.8668563346
 20
23.4202860673
 10
10.8943264494
 20
23.4213502159
 10
10.9219202215
 20
23.4216585912
 10
10.9495638646
 20
23.4212038884
 10
10.9773565998
 20
23.4199751567
 10
11.0054838349
 20
23.4179410328
 10
11.0337027769
 20
23.4150961479
 10
11.0614810322
 20
23.4115022877
 10
11.0883718699
 20
23.4072652609
 10
11.114804124
 20
23.4023643345
 10
11.1415521544
 20
23.3966505935
 10
11.1691092712
 20
23.3899563482
 10
11.196898048
 20
23.3823585078
 10
11.2240947239
 20
23.3740791752
 10
11.2502652274
 20
23.365303969
 10
11.2758513595
 20
23.3559366527
 10
11.3013574214
 20
23.3457994238
 10
11.3270581079
 20
23.334750729
 10
11.3526217439
 20
23.3228999373
 10
11.3665133985
 20
23.3160878768
  0
LWPOLYLINE
  5
2B0
100
AcDbEntity
  8
0
100
AcDbPolyline
 62
7
  6
CONTINUOUS
 90
6
 70
0
 10
0.0417582712
 20
17.3434820152
 10
0.0699799636
 20
17.3551537892
 10
0.09984414
 20
17.3633892326
 10
0.1308456856
 20
17.3678969137
 10
0.1625405239
 20
17.3684748121
 10
0.1941894011
 20
17.3650137142
  0
LWPOLYLINE
  5
2B1
100
AcDbEntity
  8
0
100
AcDbPolyline
 62
250
  6
CONTINUOUS
 90
14
 70
0
 10
0.0501393265
 20
17.347071204
 10
0.0570938655
 20
17.3493566574
 10
0.0642616709
 20
17.3511196905
 10
0.0716265061
 20
17.3523563096
 10
0.0791716882
 20
17.3530637136
 10
0.0868801255
 20
17.3532402998
 10
0.0947343567
 20
17.3528856685
 10
0.1027165903
 20
17.3520006227
 10
0.1108087447
 20
17.3505871675
 10
0.1189924893
 20
17.3486485046
 10
0.1272492862
 20
17.3461890255
 10
0.1355604318
 20
17.3432143015
 10
0.1439070995
 20
17.3397310709
 10
0.1522703823
 20
17.3357472241
  0
LINE
  5
2B2
100
AcDbEntity
  8
DRAFT
100
AcDbLine
 62
7
  6
CONTINUOUS
 10
-0.6296638781
 20
-19.4551623189
 11
1.1195891827
 21
-20.3297888493
  0
LINE
  5
2B3
100
AcDbEntity
  8
RACCORDO
100
AcDbLine
 62
250
  6
CONTINUOUS
 10
-19.9572798285
 20
-9.3511786385
 11
-5.3086193433
 21
-16.6755088811
  0
LWPOLYLINE
  5
2B4
100
AcDbEntity
  8
0
100
AcDbPolyline
 62
7
  6
CONTINUOUS
 90
4
 70
0
 10
2.0010710161
 20
-25.1808815984
 10
2.0219746228
 20
-25.200199348
 10
2.0404996597
 20
-25.2217067022
 10
2.0564645459
 20
-25.2451709345
  0
LINE
  5
2B5
100
AcDbEntity
  8
DRAFT
100
AcDbLine
 62
7
  6
CONTINUOUS
 10
-13.1977014851
 20
-15.7984288356
 11
-13.210029861
 21
-15.7582092104
  0
LWPOLYLINE
  5
2B6
100
AcDbEntity
  8
DRAFT
100
AcDbPolyline
 62
7
  6
CONTINUOUS
 90
25
 70
0
 10
-12.1370399939
 20
-15.4615444822
 10
-12.1250051702
 20
-15.5019115436
 10
-12.1139898747
 20
-15.5421906399
 10
-12.1039936368
 20
-15.582381532
 10
-12.0950052002
 20
-15.6225409452
 10
-12.0870348237
 20
-15.6626116459
 10
-12.0801144753
 20
-15.7024225378
 10
-12.0742484284
 20
-15.7419647166
 10
-12.0694317784
 20
-15.7812467571
 10
-12.0656830534
 20
-15.8201239434
 10
-12.0630069764
 20
-15.8585962106
 10
-12.0613984895
 20
-15.8966634399
 10
-12.0608617715
 20
-15.9341809944
 10
-12.0613997901
 20
-15.9711474533
 10
-12.0630095758
 20
-16.0075642196
 10
-12.065686735
 20
-16.0432910588
 10
-12.0694362722
 20
-16.0783232511
 10
-12.0742535149
 20
-16.1126656662
 10
-12.0801198767
 20
-16.1461926165
 10
-12.087040242
 20
-16.1789078662
 10
-12.0950103563
 20
-16.2108079524
 10
-12.1039982514
 20
-16.241756511
 10
-12.1139936663
 20
-16.2717082822
 10
-12.1250078555
 20
-16.3007090132
 10
-12.1370412876
 20
-16.3287589344
  0
LINE
  5
2B7
100
AcDbEntity
  8
SUPERFICI
100
AcDbLine
 62
7
  6
CONTINUOUS
 10
-12.1212040026
 20
-15.515447455
 11
-12.1370399939
 21
-15.4615444822
  0
LWPOLYLINE
  5
2B8
100
AcDbEntity
  8
DRAFT
100
AcDbPolyline
 62
7
  6
CONTINUOUS
 90
22
 70
0
 10
-13.210029861
 20
-15.7582092104
 10
-13.2213185326
 20
-15.7180671812
 10
-13.2315670302
 20
-15.6780025169
 10
-13.2407860396
 20
-15.6379583348
 10
-13.2489638793
 20
-15.5979910291
 10
-13.2560666923
 20
-15.5582703689
 10
-13.2620896188
 20
-15.518804824
 10
-13.2670368878
 20
-15.4795856228
 10
-13.2708886018
 20
-15.4407568374
 10
-13.2736397484
 20
-15.4023182577
 10
-13.2752950046
 20
-15.3642699421
 10
-13.2758493272
 20
-15.3267565268
 10
-13.2752997168
 20
-15.2897792093
 10
-13.2736491702
 20
-15.2533368078
 10
-13.2709019736
 20
-15.2175705563
 10
-13.267053368
 20
-15.182485322
 10
-13.2621084451
 20
-15.1480764201
 10
-13.256086591
 20
-15.1144709182
 10
-13.2489834035
 20
-15.08166538
 10
-13.2408039175
 20
-15.0496635717
 10
-13.2315820023
 20
-15.0186035269
 10
-13.2213293449
 20
-14.988531458
  0
LINE
  5
2B9
100
AcDbEntity
  8
0
100
AcDbLine
 62
7
  6
CONTINUOUS
 10
-14.5168957081
 20
21.84099227
 11
-14.5175653711
 21
21.8594699261
  0
LWPOLYLINE
  5
2BA
100
AcDbEntity
  8
0
100
AcDbPolyline
 62
250
  6
CONTINUOUS
 90
22
 70
0
 10
-14.4443423481
 20
21.7708939074
 10
-14.4441740959
 20
21.7615341592
 10
-14.4436696594
 20
21.75236048
 10
-14.442829999
 20
21.7433903324
 10
-14.4416567129
 20
21.7346407918
 10
-14.4401520346
 20
21.7261285132
 10
-14.4383188283
 20
21.7178697003
 10
-14.4361605836
 20
21.7098800743
 10
-14.4336814089
 20
21.7021748439
 10
-14.4308860234
 20
21.6947686763
 10
-14.4277797483
 20
21.6876756696
 10
-14.4243684966
 20
21.6809093259
 10
-14.4206587617
 20
21.6744825252
 10
-14.4166576054
 20
21.6684075012
 10
-14.4123726442
 20
21.6626958182
 10
-14.4078120345
 20
21.6573583487
 10
-14.4029844579
 20
21.6524052527
 10
-14.3978991039
 20
21.647845959
 10
-14.3925656528
 20
21.6436891462
 10
-14.3869942571
 20
21.6399427271
 10
-14.3811955222
 20
21.6366138333
 10
-14.3793690517
 20
21.6356754573
  0
LINE
  5
2BB
100
AcDbEntity
  8
0
100
AcDbLine
 62
7
  6
CONTINUOUS
 10
-14.6118642535
 20
20.8096380205
 11
-14.6118642535
 21
20.3796731844
  0
LINE
  5
2BC
100
AcDbEntity
  8
0
100
AcDbLine
 62
7
  6
CONTINUOUS
 10
-14.5175656528
 20
22.1992561892
 11
-14.5175656528
 21
21.8592822551
  0
LINE
  5
2BD
100
AcDbEntity
  8
0
100
AcDbLine
 62
250
  6
CONTINUOUS
 10
-14.4443423481
 20
22.1108678416
 11
-14.4443423481
 21
21.7708939074
  0
LINE
  5
2BE
100
AcDbEntity
  8
0
100
AcDbLine
 62
7
  6
CONTINUOUS
 10
-13.8145726985
 20
21.3532772808
 11
-13.8145726985
 21
20.8993031791
  0
LINE
  5
2BF
100
AcDbEntity
  8
0
100
AcDbLine
 62
250
  6
CONTINUOUS
 10
-13.7413493938
 20
21.3166656284
 11
-13.7413493938
 21
20.8075914843
  0
LWPOLYLINE
  5
2C0
100
AcDbEntity
  8
0
100
AcDbPolyline
 62
250
  6
CONTINUOUS
 90
34
 70
0
 10
-14.4443423481
 20
22.1108678416
 10
-14.4441435454
 20
22.1212323198
 10
-14.443547583
 20
22.1317723046
 10
-14.4425557999
 20
22.1424640903
 10
-14.4411704238
 20
22.1532836361
 10
-14.4393945697
 20
22.1642066005
 10
-14.4372322346
 20
22.1752083945
 10
-14.434688284
 20
22.1862642666
 10
-14.4317684392
 20
22.1973493556
 10
-14.4284792693
 20
22.2084387254
 10
-14.4248281723
 20
22.2195074352
 10
-14.4208233617
 20
22.2305305876
 10
-14.4164738495
 20
22.2414833809
 10
-14.4117894209
 20
22.2523411786
 10
-14.4067806128
 20
22.2630795617
 10
-14.4014586942
 20
22.2736743748
 10
-14.3958356338
 20
22.2841017946
 10
-14.3899240831
 20
22.2943383634
 10
-14.3837373514
 20
22.3043610403
 10
-14.3772893748
 20
22.3141472583
 10
-14.3705946415
 20
22.323675038
 10
-14.3636681653
 20
22.3329230131
 10
-14.3565254549
 20
22.3418704635
 10
-14.3491826374
 20
22.3504971743
 10
-14.3416563907
 20
22.3587835647
 10
-14.3339637565
 20
22.3667109132
 10
-14.3261219439
 20
22.374261526
 10
-14.3181484449
 20
22.3814185753
 10
-14.3100599675
 20
22.3881669483
 10
-14.3018758962
 20
22.3944903582
 10
-14.2936182254
 20
22.4003721342
 10
-14.2853068047
 20
22.4057988842
 10
-14.2769591723
 20
22.4107598982
 10
-14.2685940921
 20
22.4152446565
  0
LWPOLYLINE
  5
2C1
100
AcDbEntity
  8
0
100
AcDbPolyline
 62
7
  6
CONTINUOUS
 90
10
 70
0
 10
-2.0780217656
 20
16.2698636354
 10
-2.1060229913
 20
16.2531034578
 10
-2.1320066206
 20
16.2324742269
 10
-2.1552930274
 20
16.2082738317
 10
-2.1752385936
 20
16.1809907469
 10
-2.1913690979
 20
16.151163669
 10
-2.2033676509
 20
16.1192527653
 10
-2.2109748626
 20
16.0856074105
 10
-2.213878742
 20
16.0512295905
 10
-2.2139076579
 20
16.0474441128
  0
LINE
  5
2C2
100
AcDbEntity
  8
0
100
AcDbLine
 62
7
  6
CONTINUOUS
 10
-2.0780217656
 20
16.2698636354
 11
-0.4948481003
 21
17.0820616935
  0
LINE
  5
2C3
100
AcDbEntity
  8
0
100
AcDbLine
 62
250
  6
CONTINUOUS
 10
-1.9649360995
 20
16.2634156602
 11
-0.3821794963
 21
17.0753997576
  0
LINE
  5
2C4
100
AcDbEntity
  8
0
100
AcDbLine
 62
7
  6
CONTINUOUS
 10
8.7933165638
 20
20.0457535072
 11
13.0096963415
 21
22.1910631239
  0
LINE
  5
2C5
100
AcDbEntity
  8
DRAFT
100
AcDbLine
 62
7
  6
CONTINUOUS
 10
8.7933165638
 20
19.6355344642
 11
13.0157533284
 21
21.7535746566
  0
LINE
  5
2C6
100
AcDbEntity
  8
0
100
AcDbLine
 62
250
  6
CONTINUOUS
 10
-0.2863980291
 20
15.424146625
 11
1.3148827617
 21
16.2268686285
  0
LINE
  5
2C7
100
AcDbEntity
  8
0
100
AcDbLine
 62
250
  6
CONTINUOUS
 10
-0.1096243254
 20
15.1192570862
 11
1.4916564654
 21
15.9219790897
  0
LINE
  5
2C8
100
AcDbEntity
  8
0
100
AcDbLine
 62
7
  6
CONTINUOUS
 10
7.181291731
 20
19.2018475618
 11
1.8594358003
 21
16.544141886
  0
LINE
  5
2C9
100
AcDbEntity
  8
0
100
AcDbLine
 62
250
  6
CONTINUOUS
 10
1.3148827617
 20
16.2268686285
 11
1.8431499335
 21
16.4903074485
  0
LINE
  5
2CA
100
AcDbEntity
  8
0
100
AcDbLine
 62
250
  6
CONTINUOUS
 10
1.4916564654
 20
15.9219790897
 11
2.0199236372
 21
16.1854179097
  0
LINE
  5
2CB
100
AcDbEntity
  8
0
100
AcDbLine
 62
7
  6
CONTINUOUS
 10
11.9724043284
 20
22.773342642
 11
8.3993306299
 21
21.0679093252
  0
LWPOLYLINE
  5
2CC
100
AcDbEntity
  8
0
100
AcDbPolyline
 62
250
  6
CONTINUOUS
 90
34
 70
0
 10
-0.1096243254
 20
-26.5203209873
 10
-0.1140448509
 20
-26.5134022063
 10
-0.1188520462
 20
-26.5062983961
 10
-0.1240350618
 20
-26.4990255895
 10
-0.1295821999
 20
-26.491600201
 10
-0.1354809409
 20
-26.4840389891
 10
-0.1417179717
 20
-26.4763590191
 10
-0.1482792158
 20
-26.4685776241
 10
-0.1551498647
 20
-26.4607123664
 10
-0.1623144119
 20
-26.4527809974
 10
-0.1697566873
 20
-26.4448014177
 10
-0.1774598942
 20
-26.4367916367
 10
-0.1854066469
 20
-26.4287697321
 10
-0.1935790101
 20
-26.4207538088
 10
-0.2019585392
 20
-26.4127619582
 10
-0.2105263221
 20
-26.4048122176
 10
-0.2192630219
 20
-26.3969225289
 10
-0.2281489203
 20
-26.3891106989
 10
-0.2371639623
 20
-26.3813943582
 10
-0.2462878016
 20
-26.3737909223
 10
-0.2554998462
 20
-26.3663175515
 10
-0.264779305
 20
-26.358991113
 10
-0.2741052349
 20
-26.351828142
 10
-0.2834565878
 20
-26.344844805
 10
-0.2928122582
 20
-26.3380568628
 10
-0.3021511309
 20
-26.3314796356
 10
-0.3114521287
 20
-26.3251279677
 10
-0.3206942598
 20
-26.3190161944
 10
-0.3298566651
 20
-26.3131581096
 10
-0.3389186658
 20
-26.3075669348
 10
-0.3478598093
 20
-26.3022552889
 10
-0.3566599161
 20
-26.2972351598
 10
-0.3652991249
 20
-26.2925178779
 10
-0.3737579374
 20
-26.2881140896
  0
LINE
  5
2CD
100
AcDbEntity
  8
DRAFT
100
AcDbLine
 62
7
  6
CONTINUOUS
 10
-11.0056705369
 20
-16.8944443097
 11
-11.0179989103
 21
-16.854224685
  0
LWPOLYLINE
  5
2CE
100
AcDbEntity
  8
DRAFT
100
AcDbPolyline
 62
7
  6
CONTINUOUS
 90
25
 70
0
 10
-10.1217857467
 20
-16.4691716058
 10
-10.1097509204
 20
-16.5095386676
 10
-10.0987356226
 20
-16.5498177645
 10
-10.0887393827
 20
-16.5900086572
 10
-10.0797509441
 20
-16.6301680711
 10
-10.0717805659
 20
-16.6702387726
 10
-10.064860216
 20
-16.7100496653
 10
-10.0589941678
 20
-16.7495918449
 10
-10.0541775167
 20
-16.7888738862
 10
-10.050428791
 20
-16.8277510733
 10
-10.0477527134
 20
-16.8662233411
 10
-10.0461442261
 20
-16.9042905711
 10
-10.045607508
 20
-16.9418081262
 10
-10.0461455267
 20
-16.9787745855
 10
-10.0477553127
 20
-17.015191352
 10
-10.0504324725
 20
-17.0509181913
 10
-10.0541820106
 20
-17.0859503835
 10
-10.0589992543
 20
-17.1202927984
 10
-10.0648656174
 20
-17.1538197482
 10
-10.0717859842
 20
-17.1865349973
 10
-10.0797561002
 20
-17.2184350825
 10
-10.0887439972
 20
-17.24938364
 10
-10.0987394143
 20
-17.2793354097
 10
-10.1097536058
 20
-17.3083361389
 10
-10.1217870404
 20
-17.3363860579
  0
LINE
  5
2CF
100
AcDbEntity
  8
SUPERFICI
100
AcDbLine
 62
7
  6
CONTINUOUS
 10
-10.105949752
 20
-16.5230745792
 11
-10.1217857467
 21
-16.4691716058
  0
LWPOLYLINE
  5
2D0
100
AcDbEntity
  8
DRAFT
100
AcDbPolyline
 62
7
  6
CONTINUOUS
 90
22
 70
0
 10
-11.0179989103
 20
-16.854224685
 10
-11.0292875797
 20
-16.8140826562
 10
-11.0395360751
 20
-16.7740179926
 10
-11.0487550826
 20
-16.7339738111
 10
-11.0569329205
 20
-16.6940065063
 10
-11.0640357321
 20
-16.6542858469
 10
-11.0700586573
 20
-16.6148203028
 10
-11.0750059252
 20
-16.5756011024
 10
-11.0788576383
 20
-16.5367723178
 10
-11.0816087844
 20
-16.4983337387
 10
-11.0832640402
 20
-16.4602854238
 10
-11.0838183628
 20
-16.422772009
 10
-11.0832687524
 20
-16.385794692
 10
-11.0816182062
 20
-16.3493522907
 10
-11.0788710102
 20
-16.3135860393
 10
-11.0750224054
 20
-16.2785008049
 10
-11.0700774836
 20
-16.2440919028
 10
-11.0640556307
 20
-16.2104864004
 10
-11.0569524448
 20
-16.1776808615
 10
-11.0487729605
 20
-16.1456790524
 10
-11.0395510472
 20
-16.1146190063
 10
-11.0292983919
 20
-16.084546936
  0
LWPOLYLINE
  5
2D1
100
AcDbEntity
  8
0
100
AcDbPolyline
 62
250
  6
CONTINUOUS
 90
3
 70
0
 10
-14.5168803302
 20
21.850033044
 10
-14.5174769681
 20
21.8559530479
 10
-14.5175656528
 20
21.8592822551
  0
LWPOLYLINE
  5
2D2
100
AcDbEntity
  8
0
100
AcDbPolyline
 62
250
  6
CONTINUOUS
 90
22
 70
0
 10
-12.7658042777
 20
20.9316248722
 10
-12.7656359818
 20
20.9222639218
 10
-12.7651314146
 20
20.9130890908
 10
-12.7642915368
 20
20.9041178486
 10
-12.763117951
 20
20.8953672999
 10
-12.7616128901
 20
20.8868540819
 10
-12.7597792037
 20
20.878594339
 10
-12.7576203597
 20
20.8706037514
 10
-12.7551404723
 20
20.8628975978
 10
-12.7523442925
 20
20.8554906488
 10
-12.74923717
 20
20.8483970494
 10
-12.7458250079
 20
20.8416302532
 10
-12.7421142799
 20
20.8352030961
 10
-12.7381120192
 20
20.8291277762
 10
-12.73382587
 20
20.8234159124
 10
-12.7292640605
 20
20.8180784595
 10
-12.724435331
 20
20.8131256094
 10
-12.7193488452
 20
20.808566729
 10
-12.7140142302
 20
20.8044104358
 10
-12.70844096
 20
20.8006642188
 10
-12.7026402741
 20
20.797335736
 10
-12.7008389203
 20
20.7964103921
  0
LINE
  5
2D3
100
AcDbEntity
  8
0
100
AcDbLine
 62
250
  6
CONTINUOUS
 10
-12.7658042777
 20
20.9316248722
 11
-12.7658042777
 21
21.2715988064
  0
LINE
  5
2D4
100
AcDbEntity
  8
0
100
AcDbLine
 62
250
  6
CONTINUOUS
 10
-12.413282318
 20
20.9311121484
 11
-12.413282318
 21
21.2710860825
  0
LINE
  5
2D5
100
AcDbEntity
  8
0
100
AcDbLine
 62
250
  6
CONTINUOUS
 10
-12.0545836696
 20
19.9642086221
 11
-12.0545836696
 21
20.6449583678
  0
LINE
  5
2D6
100
AcDbEntity
  8
0
100
AcDbLine
 62
250
  6
CONTINUOUS
 10
-11.7020617099
 20
19.9749765038
 11
-11.7020617099
 21
20.7826086255
  0
LWPOLYLINE
  5
2D7
100
AcDbEntity
  8
0
100
AcDbPolyline
 62
250
  6
CONTINUOUS
 90
34
 70
0
 10
-12.7658042777
 20
21.2715988064
 10
-12.7656054749
 20
21.2819632846
 10
-12.7650095126
 20
21.2925032694
 10
-12.7640177295
 20
21.3031950551
 10
-12.7626323534
 20
21.3140146009
 10
-12.7608564993
 20
21.3249375653
 10
-12.7586941642
 20
21.3359393592
 10
-12.7561502136
 20
21.3469952314
 10
-12.7532303688
 20
21.3580803204
 10
-12.7499411989
 20
21.3691696902
 10
-12.7462901019
 20
21.3802384
 10
-12.7422852913
 20
21.3912615524
 10
-12.7379357791
 20
21.4022143456
 10
-12.7332513504
 20
21.4130721434
 10
-12.7282425424
 20
21.4238105265
 10
-12.7229206238
 20
21.4344053396
 10
-12.7172975634
 20
21.4448327594
 10
-12.7113860127
 20
21.4550693282
 10
-12.705199281
 20
21.4650920051
 10
-12.6987513044
 20
21.4748782231
 10
-12.6920565711
 20
21.4844060028
 10
-12.6851300949
 20
21.4936539779
 10
-12.6779873845
 20
21.5026014283
 10
-12.670644567
 20
21.5112281391
 10
-12.6631183203
 20
21.5195145295
 10
-12.6554256861
 20
21.527441878
 10
-12.6475838735
 20
21.5349924908
 10
-12.6396103745
 20
21.5421495401
 10
-12.6315218971
 20
21.5488979131
 10
-12.6233378258
 20
21.555221323
 10
-12.615080155
 20
21.561103099
 10
-12.6067687343
 20
21.566529849
 10
-12.5984211019
 20
21.571490863
 10
-12.5900560217
 20
21.5759756213
  0
LWPOLYLINE
  5
2D8
100
AcDbEntity
  8
0
100
AcDbPolyline
 62
250
  6
CONTINUOUS
 90
17
 70
0
 10
-10.2115909214
 20
22.0749799341
 10
-10.2121192744
 20
22.0690579521
 10
-10.2132085464
 20
22.063155175
 10
-10.2148562844
 20
22.057284869
 10
-10.2170587846
 20
22.0514602229
 10
-10.2198111163
 20
22.0456942933
 10
-10.2231070752
 20
22.0400000908
 10
-10.2269391667
 20
22.0343905334
 10
-10.2312986787
 20
22.0288783039
 10
-10.2361758244
 20
22.0234757156
 10
-10.2415597197
 20
22.0181948047
 10
-10.2474387547
 20
22.0130470343
 10
-10.2537992915
 20
22.0080444149
 10
-10.2606254512
 20
22.0031992604
 10
-10.2679010237
 20
21.9985226958
 10
-10.2756098573
 20
21.9940247459
 10
-10.2837343555
 20
21.9897153893
  0
LWPOLYLINE
  5
2D9
100
AcDbEntity
  8
0
100
AcDbPolyline
 62
250
  6
CONTINUOUS
 90
18
 70
0
 10
-5.1618456071
 20
18.6322022206
 10
-5.1573695195
 20
18.6416233316
 10
-5.1525936719
 20
18.6508986268
 10
-5.1475310211
 20
18.6600029409
 10
-5.1421953206
 20
18.6689115252
 10
-5.1366011072
 20
18.6776000952
 10
-5.1307636199
 20
18.6860449752
 10
-5.1246987494
 20
18.6942231732
 10
-5.1184229973
 20
18.7021124337
 10
-5.1119534488
 20
18.7096912756
 10
-5.105307712
 20
18.7169390693
 10
-5.0985038743
 20
18.7238360863
 10
-5.0915604588
 20
18.7303635478
 10
-5.0844963592
 20
18.7365036903
 10
-5.077330807
 20
18.7422397961
 10
-5.070083325
 20
18.7475562376
 10
-5.0627736466
 20
18.7524385427
 10
-5.0554216609
 20
18.7568734303
  0
LINE
  5
2DA
100
AcDbEntity
  8
0
100
AcDbLine
 62
7
  6
CONTINUOUS
 10
1.4916564654
 20
14.3198284287
 11
0.6015962827
 21
13.8231475074
  0
LINE
  5
2DB
100
AcDbEntity
  8
0
100
AcDbLine
 62
250
  6
CONTINUOUS
 10
1.8454789807
 20
14.1429171711
 11
0.7663049167
 21
13.553764329
  0
LINE
  5
2DC
100
AcDbEntity
  8
ASSI
100
AcDbLine
 62
7
  6
CONTINUOUS
 10
1.9487937389
 20
14.7933281847
 11
7.9919128726
 21
17.9879821471
  0
LINE
  5
2DD
100
AcDbEntity
  8
0
100
AcDbLine
 62
7
  6
CONTINUOUS
 10
8.4809712922
 20
18.740297973
 11
9.1132593585
 21
19.0737159727
  0
LINE
  5
2DE
100
AcDbEntity
  8
ASSI
100
AcDbLine
 62
7
  6
CONTINUOUS
 10
1.6028571193
 20
15.2407457039
 11
7.9919128726
 21
18.5894992287
  0
LWPOLYLINE
  5
2DF
100
AcDbEntity
  8
RACCORDO
100
AcDbPolyline
 62
250
  6
CONTINUOUS
 90
19
 70
0
 10
-2.7441472669
 20
11.7307695205
 10
-2.7996872992
 20
11.7028771362
 10
-2.8549940088
 20
11.669888769
 10
-2.9097392531
 20
11.6320050692
 10
-2.9636028464
 20
11.5894574267
 10
-3.0162605524
 20
11.5425023422
 10
-3.0673861818
 20
11.4914204363
 10
-3.1166748916
 20
11.4365227577
 10
-3.1638364341
 20
11.378140364
 10
-3.2085827156
 20
11.3166179408
 10
-3.2506475833
 20
11.2523264274
 10
-3.2897822307
 20
11.1856540755
 10
-3.3257475907
 20
11.1169954291
 10
-3.3583297783
 20
11.0467619687
 10
-3.3873348525
 20
10.9753787663
 10
-3.4125834348
 20
10.9032745577
 10
-3.4339232132
 20
10.830883118
 10
-3.4512295264
 20
10.7586405724
 10
-3.4643993577
 20
10.6869816372
  0
LINE
  5
2E0
100
AcDbEntity
  8
0
100
AcDbLine
 62
250
  6
CONTINUOUS
 10
2.5461502972
 20
14.4946499056
 11
1.8452143434
 21
14.1430494897
  0
LINE
  5
2E1
100
AcDbEntity
  8
0
100
AcDbLine
 62
250
  6
CONTINUOUS
 10
2.8996992004
 20
13.8848774079
 11
2.1987632466
 21
13.533276992
  0
LINE
  5
2E2
100
AcDbEntity
  8
0
100
AcDbLine
 62
7
  6
CONTINUOUS
 10
9.2415467872
 20
18.8506242414
 11
9.7365215341
 21
19.0981116148
  0
LINE
  5
2E3
100
AcDbEntity
  8
RACCORDO
100
AcDbLine
 62
7
  6
CONTINUOUS
 10
12.2046994466
 20
19.2786114671
 11
10.8932351355
 21
18.6228793116
  0
LINE
  5
2E4
100
AcDbEntity
  8
RACCORDO
100
AcDbLine
 62
7
  6
CONTINUOUS
 10
13.0532301543
 20
18.8543486835
 11
12.2314463286
 21
18.4434567707
  0
LWPOLYLINE
  5
2E5
100
AcDbEntity
  8
RACCORDO
100
AcDbPolyline
 62
250
  6
CONTINUOUS
 90
19
 70
0
 10
-2.4092122442
 20
11.1125337014
 10
-2.4374396316
 20
11.0986988607
 10
-2.4652782838
 20
11.0824987306
 10
-2.4927282007
 20
11.0639333112
 10
-2.5199683039
 20
11.0428553019
 10
-2.5468196718
 20
11.0194120034
 10
-2.5727455403
 20
10.9940453169
 10
-2.5977136788
 20
10.9667239638
 10
-2.6217563178
 20
10.9374792227
 10
-2.6444333848
 20
10.9068468312
 10
-2.6657157102
 20
10.874805382
 10
-2.6856324635
 20
10.8413762823
 10
-2.703831081
 20
10.8071594916
 10
-2.7202844813
 20
10.772119777
 10
-2.7350197458
 20
10.7362923714
 10
-2.7477655547
 20
10.700382933
 10
-2.7584314683
 20
10.6646266812
 10
-2.7671079263
 20
10.6287883967
 10
-2.7737949289
 20
10.5928680793
  0
LINE
  5
2E6
100
AcDbEntity
  8
DRAFT
100
AcDbLine
 62
7
  6
CONTINUOUS
 10
2.5875235008
 20
14.4709496159
 11
8.9712189835
 21
17.5718238715
  0
LINE
  5
2E7
100
AcDbEntity
  8
0
100
AcDbLine
 62
7
  6
CONTINUOUS
 10
16.6328555112
 20
20.4431170506
 11
13.0694246747
 21
18.7328623028
  0
LINE
  5
2E8
100
AcDbEntity
  8
DRAFT
100
AcDbLine
 62
7
  6
CONTINUOUS
 10
7.6029561709
 20
17.7823628236
 11
8.0953414248
 21
18.0097626509
  0
LWPOLYLINE
  5
2E9
100
AcDbEntity
  8
RACCORDO
100
AcDbPolyline
 62
7
  6
CONTINUOUS
 90
10
 70
0
 10
13.0532012584
 20
18.8543342356
 10
13.0645977227
 20
18.8595028908
 10
13.0758181252
 20
18.8635547872
 10
13.0868624659
 20
18.8664899247
 10
13.0978257248
 20
18.8683084561
 10
13.108612922
 20
18.8690102286
 10
13.1189391174
 20
18.8685947842
 10
13.1287093311
 20
18.8670619703
 10
13.1380185432
 20
18.8644119396
 10
13.1468667535
 20
18.860644692
  0
LINE
  5
2EA
100
AcDbEntity
  8
RACCORDO
100
AcDbLine
 62
250
  6
CONTINUOUS
 10
0.1343090466
 20
13.0065865344
 11
-2.7441472669
 21
11.7307695205
  0
LINE
  5
2EB
100
AcDbEntity
  8
RACCORDO
100
AcDbLine
 62
250
  6
CONTINUOUS
 10
0.4692440692
 20
12.3883507153
 11
-2.4092122442
 21
11.1125337014
  0
LINE
  5
2EC
100
AcDbEntity
  8
0
100
AcDbLine
 62
7
  6
CONTINUOUS
 10
-10.8120015272
 20
20.471657425
 11
-10.8120015272
 21
22.073808086
  0
LINE
  5
2ED
100
AcDbEntity
  8
0
100
AcDbLine
 62
250
  6
CONTINUOUS
 10
-10.2837343555
 20
22.3372469061
 11
-10.2837343555
 21
21.9897153893
  0
LINE
  5
2EE
100
AcDbEntity
  8
0
100
AcDbLine
 62
7
  6
CONTINUOUS
 10
-10.2115364985
 20
22.4251195382
 11
-10.2115364985
 21
22.0775880215
  0
LINE
  5
2EF
100
AcDbEntity
  8
DRAFT
100
AcDbLine
 62
7
  6
CONTINUOUS
 10
-9.9281180507
 20
18.0378000831
 11
-9.9281180507
 21
18.0580375264
  0
LINE
  5
2F0
100
AcDbEntity
  8
0
100
AcDbLine
 62
7
  6
CONTINUOUS
 10
-9.8865919713
 20
20.3263755388
 11
-9.8865919713
 21
18.880212773
  0
LINE
  5
2F1
100
AcDbEntity
  8
0
100
AcDbLine
 62
7
  6
CONTINUOUS
 10
-9.2271820969
 20
18.5505078358
 11
-9.2271820969
 21
19.9966706016
  0
LINE
  5
2F2
100
AcDbEntity
  8
RACCORDO
100
AcDbLine
 62
7
  6
CONTINUOUS
 10
-8.9208889244
 20
17.5341855199
 11
-8.9208889244
 21
17.5544229632
  0
LWPOLYLINE
  5
2F3
100
AcDbEntity
  8
0
100
AcDbPolyline
 62
250
  6
CONTINUOUS
 90
18
 70
0
 10
-10.2115364985
 20
22.4251195382
 10
-10.21159006
 20
22.4225321701
 10
-10.2121164874
 20
22.416609866
 10
-10.2132038997
 20
22.4107066932
 10
-10.2148498544
 20
22.4048359264
 10
-10.2170506516
 20
22.399010772
 10
-10.2198013445
 20
22.3932443311
 10
-10.2230957483
 20
22.3875495746
 10
-10.2269264528
 20
22.3819393157
 10
-10.2312848424
 20
22.376426174
 10
-10.2361611161
 20
22.3710225489
 10
-10.2415443055
 20
22.3657405962
 10
-10.2474223067
 20
22.3605921935
 10
-10.2537818968
 20
22.3555889236
 10
-10.2606087596
 20
22.3507420487
 10
-10.2678875337
 20
22.3460624727
 10
-10.2756018499
 20
22.341560717
 10
-10.2837343555
 20
22.3372469061
  0
LWPOLYLINE
  5
2F4
100
AcDbEntity
  8
DRAFT
100
AcDbPolyline
 62
7
  6
CONTINUOUS
 90
3
 70
0
 10
-15.2365837668
 20
-13.9809042485
 10
-15.2252896807
 20
-13.9517744497
 10
-15.2129546346
 20
-13.9235871619
  0
LWPOLYLINE
  5
2F5
100
AcDbEntity
  8
0
100
AcDbPolyline
 62
7
  6
CONTINUOUS
 90
25
 70
0
 10
-2.5388521873
 20
16.7958559471
 10
-2.5332741971
 20
16.8078828158
 10
-2.5281671011
 20
16.8203473555
 10
-2.5235308993
 20
16.8332495663
 10
-2.519360439
 20
16.8466088731
 10
-2.5156608729
 20
16.8604058509
 10
-2.5124476593
 20
16.874582225
 10
-2.5097228343
 20
16.8891395746
 10
-2.5074843618
 20
16.9040763205
 10
-2.5057415919
 20
16.919329451
 10
-2.5044965983
 20
16.9349002851
 10
-2.5037473073
 20
16.9507875038
 10
-2.5034968483
 20
16.9669241384
 10
-2.5037473073
 20
16.9833112321
 10
-2.5044965983
 20
16.9999477417
 10
-2.5057415919
 20
17.0167635694
 10
-2.5074843618
 20
17.0337594698
 10
-2.5097228343
 20
17.0509346883
 10
-2.5124476593
 20
17.0682168629
 10
-2.5156608729
 20
17.0856064506
 10
-2.519360439
 20
17.1031029945
 10
-2.5235308993
 20
17.1206327615
 10
-2.5281671011
 20
17.1381711741
 10
-2.5332741971
 20
17.1557428099
 10
-2.5388521873
 20
17.1733476688
  0
LWPOLYLINE
  5
2F6
100
AcDbEntity
  8
0
100
AcDbPolyline
 62
7
  6
CONTINUOUS
 90
31
 70
0
 10
2.7335949697
 20
19.399389895
 10
2.7419077693
 20
19.4100831997
 10
2.7496870958
 20
19.4213981226
 10
2.7569329494
 20
19.4333346638
 10
2.7636559397
 20
19.4459154541
 10
2.769845457
 20
19.4591178627
 10
2.7754696722
 20
19.4728739965
 10
2.7805256732
 20
19.4871867078
 10
2.7850163721
 20
19.5020531443
 10
2.7889186758
 20
19.5173968558
 10
2.7922295533
 20
19.5332203009
 10
2.7949520356
 20
19.549521021
 10
2.7970721224
 20
19.5662151904
 10
2.7985867108
 20
19.5833048357
 10
2.7994989039
 20
19.6007879302
 10
2.7998040106
 20
19.6185745679
 10
2.7994989039
 20
19.6366663123
 10
2.7985867108
 20
19.6550615998
 10
2.7970721224
 20
19.6736658335
 10
2.7949520356
 20
19.6924800898
 10
2.7922295533
 20
19.7115032922
 10
2.7889186758
 20
19.7306376148
 10
2.7850163721
 20
19.74988363
 10
2.7805256732
 20
19.7692407653
 10
2.7754696722
 20
19.7886094777
 10
2.769845457
 20
19.8079898266
 10
2.7636559397
 20
19.8273817525
 10
2.7569329494
 20
19.8466855332
 10
2.7496870958
 20
19.8658679279
 10
2.7419077693
 20
19.8849621774
 10
2.7335949697
 20
19.9039682816
  0
LWPOLYLINE
  5
2F7
100
AcDbEntity
  8
0
100
AcDbPolyline
 62
7
  6
CONTINUOUS
 90
41
 70
0
 10
0.6015962827
 20
14.6307796292
 10
0.5958575994
 20
14.6240668567
 10
0.5899318798
 20
14.617425625
 10
0.5838203982
 20
14.6108643686
 10
0.5775218218
 20
14.6043924558
 10
0.5710407666
 20
14.5980175302
 10
0.564387739
 20
14.591745547
 10
0.5575648543
 20
14.5855852291
 10
0.550574652
 20
14.5795451359
 10
0.5434285354
 20
14.5736311053
 10
0.536129351
 20
14.5678519381
 10
0.5286803333
 20
14.562216251
 10
0.5210937248
 20
14.5567297335
 10
0.5133731294
 20
14.5514012
 10
0.5055224939
 20
14.5462392544
 10
0.497554834
 20
14.5412494059
 10
0.4894745096
 20
14.536440399
 10
0.4812862228
 20
14.531820771
 10
0.4730037687
 20
14.5273958644
 10
0.4646322906
 20
14.5231742786
 10
0.4561772675
 20
14.519164403
 10
0.4476532808
 20
14.5153714091
 10
0.4390662807
 20
14.5118036611
 10
0.4304225512
 20
14.50846931
 10
0.421737483
 20
14.5053733403
 10
0.4130178606
 20
14.5025237747
 10
0.4042707964
 20
14.4999284154
 10
0.3955125146
 20
14.4975920171
 10
0.3867506632
 20
14.4955221338
 10
0.3779931963
 20
14.4937260825
 10
0.3692571736
 20
14.4922083047
 10
0.360551135
 20
14.4909757324
 10
0.35188387
 20
14.4900350318
 10
0.3432732201
 20
14.4893901959
 10
0.3347286661
 20
14.489047354
 10
0.3262597713
 20
14.4890123223
 10
0.3178849258
 20
14.4892884646
 10
0.3096145225
 20
14.4898809035
 10
0.3014588665
 20
14.4907944044
 10
0.2934366459
 20
14.4920315141
 10
0.2877284495
 20
14.4931292313
  0
LINE
  5
2F8
100
AcDbEntity
  8
0
100
AcDbLine
 62
250
  6
CONTINUOUS
 10
2.1987632466
 20
13.5330641445
 11
1.1195891827
 21
12.9439113024
  0
LINE
  5
2F9
100
AcDbEntity
  8
RACCORDO
100
AcDbLine
 62
250
  6
CONTINUOUS
 10
17.8009995549
 20
19.4390829812
 11
3.1988263333
 21
12.0101866534
  0
LWPOLYLINE
  5
2FA
100
AcDbEntity
  8
RACCORDO
100
AcDbPolyline
 62
250
  6
CONTINUOUS
 90
34
 70
0
 10
17.8009995549
 20
19.4390829812
 10
17.8198360702
 20
19.4484060825
 10
17.8382781869
 20
19.4574486196
 10
17.8563122097
 20
19.4662038772
 10
17.8739247467
 20
19.4746653539
 10
17.8911027185
 20
19.482826766
 10
17.9078333687
 20
19.4906820527
 10
17.924104273
 20
19.4982253808
 10
17.9399033487
 20
19.5054511485
 10
17.9552188631
 20
19.5123539899
 10
17.970039443
 20
19.518928779
 10
17.9843540824
 20
19.5251706332
 10
17.9981521513
 20
19.5310749173
 10
18.011423403
 20
19.5366372468
 10
18.0241579824
 20
19.541853491
 10
18.0363464327
 20
19.5467197764
 10
18.0479797025
 20
19.5512324892
 10
18.0590491531
 20
19.5553882782
 10
18.0695465642
 20
19.5591840573
 10
18.0794641403
 20
19.5626170078
 10
18.0887945165
 20
19.5656845804
 10
18.0975307642
 20
19.5683844969
 10
18.1056663957
 20
19.5707147526
 10
18.1131953694
 20
19.5726736168
 10
18.1201120943
 20
19.574259635
 10
18.1264114341
 20
19.5754716293
 10
18.1320887107
 20
19.5763086998
 10
18.1371397081
 20
19.5767702248
 10
18.1415606756
 20
19.5768558615
 10
18.1453483301
 20
19.5765655465
 10
18.1484998587
 20
19.5758994952
 10
18.1510129213
 20
19.5748582022
 10
18.1528856515
 20
19.573442441
 10
18.1538427868
 20
19.5721813678
  0
LINE
  5
2FB
100
AcDbEntity
  8
RACCORDO
100
AcDbLine
 62
7
  6
CONTINUOUS
 10
17.4581019789
 20
20.0304938168
 11
9.7239130675
 21
16.2736186105
  0
LWPOLYLINE
  5
2FC
100
AcDbEntity
  8
RACCORDO
100
AcDbPolyline
 62
7
  6
CONTINUOUS
 90
33
 70
0
 10
17.4581019789
 20
20.0304938168
 10
17.4734099519
 20
20.0377925013
 10
17.488540093
 20
20.0447266213
 10
17.5034850916
 20
20.0512951004
 10
17.5182364187
 20
20.0574975099
 10
17.532788243
 20
20.0633328306
 10
17.5471374265
 20
20.0687993756
 10
17.5612769151
 20
20.0738970047
 10
17.575199938
 20
20.0786256065
 10
17.5889039109
 20
20.0829837479
 10
17.6023820524
 20
20.0869718815
 10
17.6156278893
 20
20.0905905011
 10
17.6286394344
 20
20.0938384616
 10
17.6414101998
 20
20.0967167972
 10
17.6539340234
 20
20.0992265938
 10
17.6662095503
 20
20.1013670176
 10
17.6782306062
 20
20.1031396694
 10
17.6899913531
 20
20.1045462094
 10
17.7014910921
 20
20.1055861281
 10
17.7127239815
 20
20.1062615741
 10
17.7236845185
 20
20.1065747599
 10
17.7343726729
 20
20.106525504
 10
17.7447829507
 20
20.1061164795
 10
17.7549101956
 20
20.1053504261
 10
17.764755048
 20
20.1042274849
 10
17.7743123788
 20
20.1027508263
 10
17.7835773824
 20
20.1009236889
 10
17.7925513521
 20
20.0987465254
 10
17.8012295308
 20
20.0962229755
 10
17.8096074735
 20
20.0933567464
 10
17.8176871125
 20
20.0901485849
 10
17.8254640713
 20
20.0866025685
 10
17.8270008299
 20
20.0858441612
  0
LWPOLYLINE
  5
2FD
100
AcDbEntity
  8
0
100
AcDbPolyline
 62
7
  6
CONTINUOUS
 90
6
 70
0
 10
2.0564645459
 20
-25.2451709345
 10
2.0698237263
 20
-25.2706380725
 10
2.0802893275
 20
-25.2978445972
 10
2.0875506539
 20
-25.3262583094
 10
2.0914515494
 20
-25.3555551292
 10
2.0921212124
 20
-25.3740327852
  0
LWPOLYLINE
  5
2FE
100
AcDbEntity
  8
0
100
AcDbPolyline
 62
250
  6
CONTINUOUS
 90
13
 70
0
 10
2.0169982001
 20
-25.2362341705
 10
2.0123573082
 20
-25.2265882407
 10
2.0073321774
 20
-25.2172746582
 10
2.0019341544
 20
-25.2083144572
 10
1.9961754404
 20
-25.1997278878
 10
1.9900690471
 20
-25.1915343422
 10
1.9836287491
 20
-25.1837522942
 10
1.9768690676
 20
-25.1763992876
 10
1.9698050764
 20
-25.1694917488
 10
1.9624528872
 20
-25.163045461
 10
1.9548296659
 20
-25.1570753961
 10
1.9469528709
 20
-25.1515950492
 10
1.9388401453
 20
-25.1466165241
  0
LINE
  5
2FF
100
AcDbEntity
  8
0
100
AcDbLine
 62
7
  6
CONTINUOUS
 10
-8.5139044884
 20
20.1799766326
 11
-8.5139044884
 21
18.9463622809
  0
LINE
  5
300
100
AcDbEntity
  8
0
100
AcDbLine
 62
250
  6
CONTINUOUS
 10
-6.8894155249
 20
18.1341177992
 11
-6.8894155249
 21
19.3677321509
  0
LINE
  5
301
100
AcDbEntity
  8
0
100
AcDbLine
 62
250
  6
CONTINUOUS
 10
-6.6078123159
 20
18.1425015127
 11
-6.6078123159
 21
19.3671177841
  0
LWPOLYLINE
  5
302
100
AcDbEntity
  8
0
100
AcDbPolyline
 62
250
  6
CONTINUOUS
 90
31
 70
0
 10
-6.8894155249
 20
19.3677321509
 10
-6.8892239835
 20
19.3768395309
 10
-6.8886494385
 20
19.3861191551
 10
-6.8876927897
 20
19.3955461237
 10
-6.8863556876
 20
19.4050969011
 10
-6.8846412643
 20
19.4147439034
 10
-6.8825548458
 20
19.4244554194
 10
-6.8801026393
 20
19.4342030581
 10
-6.8772909374
 20
19.4439622321
 10
-6.8741273022
 20
19.4537066456
 10
-6.8706202457
 20
19.4634099613
 10
-6.8667793422
 20
19.4730455818
 10
-6.8626151485
 20
19.4825869914
 10
-6.8581390609
 20
19.4920081023
 10
-6.8533632134
 20
19.5012833976
 10
-6.8483005626
 20
19.5103877116
 10
-6.8429648621
 20
19.519296296
 10
-6.8373706487
 20
19.5279848659
 10
-6.8315331614
 20
19.5364297459
 10
-6.8254682908
 20
19.5446079439
 10
-6.8191925387
 20
19.5524972044
 10
-6.8127229903
 20
19.5600760464
 10
-6.8060772535
 20
19.56732384
 10
-6.7992734157
 20
19.574220857
 10
-6.7923300003
 20
19.5807483185
 10
-6.7852659007
 20
19.5868884611
 10
-6.7781003484
 20
19.5926245668
 10
-6.7708528664
 20
19.5979410084
 10
-6.763543188
 20
19.6028233134
 10
-6.7561912024
 20
19.607258201
 10
-6.7488169202
 20
19.6112336028
  0
LWPOLYLINE
  5
303
100
AcDbEntity
  8
DRAFT
100
AcDbPolyline
 62
7
  6
CONTINUOUS
 90
3
 70
0
 10
-13.2213293449
 20
-14.988531458
 10
-13.2100352564
 20
-14.959401661
 10
-13.1977002078
 20
-14.9312143752
  0
LWPOLYLINE
  5
304
100
AcDbEntity
  8
SUPERFICI
100
AcDbPolyline
 62
7
  6
CONTINUOUS
 90
18
 70
0
 10
-14.3290724153
 20
-15.2327433705
 10
-14.3132127767
 20
-15.1949807858
 10
-14.2991892541
 20
-15.1556134344
 10
-14.2870008715
 20
-15.1146408395
 10
-14.2766269103
 20
-15.0719569736
 10
-14.2680859778
 20
-15.0276668343
 10
-14.2614365964
 20
-14.9820867408
 10
-14.2566938127
 20
-14.9352153049
 10
-14.253841599
 20
-14.8870534611
 10
-14.2528929021
 20
-14.8379215333
 10
-14.2538582091
 20
-14.787813475
 10
-14.2567270554
 20
-14.7367353842
 10
-14.2614819836
 20
-14.6850263135
 10
-14.2681381834
 20
-14.6326770109
 10
-14.2766815037
 20
-14.5796972844
 10
-14.2870514974
 20
-14.5264552833
 10
-14.2992289135
 20
-14.473074181
 10
-14.313235127
 20
-14.4194318918
  0
LWPOLYLINE
  5
305
100
AcDbEntity
  8
SUPERFICI
100
AcDbPolyline
 62
7
  6
CONTINUOUS
 90
19
 70
0
 10
-15.2129546346
 20
-13.9235871619
 10
-15.2292137612
 20
-13.9615343787
 10
-15.2435961749
 20
-14.0010692869
 10
-15.2561008973
 20
-14.042191386
 10
-15.2667471422
 20
-14.0850063737
 10
-15.2755135783
 20
-14.129407468
 10
-15.2823389199
 20
-14.1750757006
 10
-15.2872069736
 20
-14.2220118972
 10
-15.2901329486
 20
-14.2702147032
 10
-15.2911037003
 20
-14.3193623949
 10
-15.2901087054
 20
-14.3694609774
 10
-15.2871585081
 20
-14.4205044158
 10
-15.2822725902
 20
-14.4721534384
 10
-15.2754368521
 20
-14.5244175632
 10
-15.2666664315
 20
-14.5772877546
 10
-15.2560256873
 20
-14.6303974241
 10
-15.2435369695
 20
-14.6836248164
 10
-15.2291800501
 20
-14.7370927223
 10
-15.2129559119
 20
-14.7908016222
  0
LWPOLYLINE
  5
306
100
AcDbEntity
  8
0
100
AcDbPolyline
 62
7
  6
CONTINUOUS
 90
7
 70
0
 10
2.0352842096
 20
15.7670512264
 10
2.0542041035
 20
15.7933924439
 10
2.069560527
 20
15.8219734165
 10
2.0810888708
 20
15.8523111327
 10
2.0886018734
 20
15.8839568982
 10
2.0919437028
 20
15.9163322504
 10
2.0921214933
 20
15.9257483223
  0
LINE
  5
307
100
AcDbEntity
  8
0
100
AcDbLine
 62
250
  6
CONTINUOUS
 10
1.4916564654
 20
15.1949342372
 11
2.0199236372
 21
15.837886393
  0
LINE
  5
308
100
AcDbEntity
  8
0
100
AcDbLine
 62
7
  6
CONTINUOUS
 10
1.4916564654
 20
15.1054037709
 11
2.0352842096
 21
15.7670512264
  0
LWPOLYLINE
  5
309
100
AcDbEntity
  8
0
100
AcDbPolyline
 62
7
  6
CONTINUOUS
 90
10
 70
0
 10
2.8299141464
 20
10.2758365622
 10
2.9144078691
 20
10.3225517908
 10
2.9991879805
 20
10.3692606775
 10
3.0842598085
 20
10.4159614648
 10
3.1696329067
 20
10.4626349108
 10
3.2553079681
 20
10.5092973624
 10
3.3412752027
 20
10.5560009526
 10
3.4275326703
 20
10.6027626326
 10
3.5140879049
 20
10.6495639467
 10
3.6009436956
 20
10.6964042687
  0
LWPOLYLINE
  5
30A
100
AcDbEntity
  8
RACCORDO
100
AcDbPolyline
 62
250
  6
CONTINUOUS
 90
30
 70
0
 10
18.2151500305
 20
18.0074494065
 10
18.2338111692
 20
18.0173787496
 10
18.2519242642
 20
18.0275586476
 10
18.2694758648
 20
18.0379815409
 10
18.2864529371
 20
18.0486396894
 10
18.3028428737
 20
18.0595251784
 10
18.3186335034
 20
18.0706299242
 10
18.3338131001
 20
18.0819456804
 10
18.3483703911
 20
18.0934640438
 10
18.3622945664
 20
18.1051764608
 10
18.3755752856
 20
18.1170742337
 10
18.3882026864
 20
18.1291485272
 10
18.4001673916
 20
18.1413903748
 10
18.4114605163
 20
18.1537906857
 10
18.422073674
 20
18.1663402513
 10
18.4319989834
 20
18.1790297522
 10
18.4412290738
 20
18.1918497652
 10
18.449757091
 20
18.20479077
 10
18.4575767021
 20
18.2178431567
 10
18.4646821
 20
18.2309972323
 10
18.4710680084
 20
18.2442432286
 10
18.476729685
 20
18.2575713091
 10
18.4816629254
 20
18.2709715763
 10
18.4858640662
 20
18.284434079
 10
18.4893299875
 20
18.2979488199
 10
18.4920581156
 20
18.3115057629
 10
18.4940464245
 20
18.3250948406
 10
18.4952934378
 20
18.3387059616
 10
18.4957982293
 20
18.3523290182
 10
18.4958102302
 20
18.3547768972
  0
LINE
  5
30B
100
AcDbEntity
  8
RACCORDO
100
AcDbLine
 62
250
  6
CONTINUOUS
 10
18.2151500305
 20
18.0074494065
 11
3.612976809
 21
10.5785530788
  0
LINE
  5
30C
100
AcDbEntity
  8
0
100
AcDbLine
 62
7
  6
CONTINUOUS
 10
2.8996992004
 20
10.9529724569
 11
3.6006351542
 21
11.3064807638
  0
LWPOLYLINE
  5
30D
100
AcDbEntity
  8
0
100
AcDbPolyline
 62
7
  6
CONTINUOUS
 90
10
 70
0
 10
3.6009436956
 20
9.8289333648
 10
3.5140879049
 20
9.7873983525
 10
3.4275326703
 20
9.7461185443
 10
3.3412752027
 20
9.7050961028
 10
3.2553079681
 20
9.6643188637
 10
3.1696329067
 20
9.6238030806
 10
3.0842598085
 20
9.5835948254
 10
2.9991879805
 20
9.5437123812
 10
2.9144078691
 20
9.5041448165
 10
2.8299141464
 20
9.4648957018
  0
LWPOLYLINE
  5
30E
100
AcDbEntity
  8
RACCORDO
100
AcDbPolyline
 62
250
  6
CONTINUOUS
 90
19
 70
0
 10
-4.3333233759
 20
-26.6323340821
 10
-4.3294642661
 20
-26.6639194832
 10
-4.323535548
 20
-26.6937534943
 10
-4.3155372216
 20
-26.7218361153
 10
-4.3053954106
 20
-26.7483368802
 10
-4.2931839914
 20
-26.773086255
 10
-4.2791245922
 20
-26.7955756382
 10
-4.2631824786
 20
-26.8157447881
 10
-4.245392385
 20
-26.8336539464
 10
-4.2260801431
 20
-26.8489752369
 10
-4.2052200765
 20
-26.8616576189
 10
-4.1828378616
 20
-26.871752133
 10
-4.159336359
 20
-26.8790840247
 10
-4.1346789032
 20
-26.8835979921
 10
-4.1089021598
 20
-26.8853493371
 10
-4.0825189857
 20
-26.8843292099
 10
-4.0557003331
 20
-26.8805346605
 10
-4.0282752498
 20
-26.873968639
 10
-4.0002437358
 20
-26.8646311452
  0
LWPOLYLINE
  5
30F
100
AcDbEntity
  8
RACCORDO
100
AcDbPolyline
 62
250
  6
CONTINUOUS
 90
12
 70
0
 10
-5.0294191884
 20
-26.6692972406
 10
-5.0218863259
 20
-26.7321884335
 10
-5.0101169963
 20
-26.7921108208
 10
-4.994180872
 20
-26.8487049211
 10
-4.9741700701
 20
-26.9016330429
 10
-4.9502053425
 20
-26.95057635
 10
-4.9224358249
 20
-26.9952372678
 10
-4.8910265289
 20
-27.0353485741
 10
-4.8561641604
 20
-27.0706720156
 10
-4.8180625718
 20
-27.1009943676
 10
-4.7769469066
 20
-27.1261352719
 10
-4.7699186589
 20
-27.1297601769
  0
LINE
  5
310
100
AcDbEntity
  8
0
100
AcDbLine
 62
7
  6
CONTINUOUS
 10
-5.6958982393
 20
18.6119180527
 11
-5.7044589437
 21
19.8195645038
  0
LINE
  5
311
100
AcDbEntity
  8
0
100
AcDbLine
 62
7
  6
CONTINUOUS
 10
-6.3925841448
 20
19.4743901614
 11
-6.3925841448
 21
18.2619487338
  0
LINE
  5
312
100
AcDbEntity
  8
0
100
AcDbLine
 62
7
  6
CONTINUOUS
 10
-5.2472246272
 20
18.5880580583
 11
-5.2472246272
 21
17.3571023843
  0
LINE
  5
313
100
AcDbEntity
  8
0
100
AcDbLine
 62
250
  6
CONTINUOUS
 10
-5.1886459835
 20
18.5173473801
 11
-5.1886459835
 21
17.2837330285
  0
LINE
  5
314
100
AcDbEntity
  8
0
100
AcDbLine
 62
7
  6
CONTINUOUS
 10
-4.2650929739
 20
17.51562604
 11
-4.2650929739
 21
16.0694632743
  0
LWPOLYLINE
  5
315
100
AcDbEntity
  8
RACCORDO
100
AcDbPolyline
 62
250
  6
CONTINUOUS
 90
10
 70
0
 10
-5.3086193433
 20
-16.6755088811
 10
-5.3320058236
 20
-17.8127139349
 10
-5.3417853989
 20
-18.9437679744
 10
-5.3379558152
 20
-20.0684353456
 10
-5.320517167
 20
-21.1864819082
 10
-5.2894731474
 20
-22.2976746446
 10
-5.2448310403
 20
-23.4017817047
 10
-5.1866000552
 20
-24.4985730419
 10
-5.114791333
 20
-25.5878204643
 10
-5.0294191884
 20
-26.6692972406
  0
LWPOLYLINE
  5
316
100
AcDbEntity
  8
RACCORDO
100
AcDbPolyline
 62
250
  6
CONTINUOUS
 90
10
 70
0
 10
-4.6110726811
 20
-16.6940166378
 10
-4.6343251597
 20
-17.8252830586
 10
-4.6440442971
 20
-18.9499739812
 10
-4.6402300935
 20
-20.0680894056
 10
-4.6228759314
 20
-21.1798649766
 10
-4.5919884282
 20
-22.2850650494
 10
-4.5475874359
 20
-23.3829826897
 10
-4.4896795717
 20
-24.4733822529
 10
-4.4182582184
 20
-25.5564993837
 10
-4.3333233759
 20
-26.6323340821
  0
LWPOLYLINE
  5
317
100
AcDbEntity
  8
0
100
AcDbPolyline
 62
250
  6
CONTINUOUS
 90
13
 70
0
 10
-5.1886459835
 20
18.5173473801
 10
-5.1884544421
 20
18.5264547602
 10
-5.187879897
 20
18.5357343843
 10
-5.1869232483
 20
18.545161353
 10
-5.1855861461
 20
18.5547121303
 10
-5.1838717228
 20
18.5643591327
 10
-5.1817853043
 20
18.5740706486
 10
-5.1793330978
 20
18.5838182874
 10
-5.176521396
 20
18.5935774613
 10
-5.1733577607
 20
18.6033218749
 10
-5.1698507042
 20
18.6130251906
 10
-5.1660098007
 20
18.622660811
 10
-5.1618456071
 20
18.6322022206
  0
LWPOLYLINE
  5
318
100
AcDbEntity
  8
RACCORDO
100
AcDbPolyline
 62
250
  6
CONTINUOUS
 90
5
 70
0
 10
-5.0607119693
 20
-9.2427904646
 10
-5.1323800247
 20
-11.1049939001
 10
-5.1975887966
 20
-12.9645496268
 10
-5.2563357161
 20
-14.8213990458
 10
-5.3086193433
 20
-16.6755088811
  0
LINE
  5
319
100
AcDbEntity
  8
RACCORDO
100
AcDbLine
 62
250
  6
CONTINUOUS
 10
-4.982585448
 20
-7.377947487
 11
-5.0607119693
 21
-9.2427904646
  0
LINE
  5
31A
100
AcDbEntity
  8
RACCORDO
100
AcDbLine
 62
250
  6
CONTINUOUS
 10
-4.8979986735
 20
-5.5104223295
 11
-4.982585448
 21
-7.377947487
  0
LINE
  5
31B
100
AcDbEntity
  8
RACCORDO
100
AcDbLine
 62
250
  6
CONTINUOUS
 10
-4.8069514928
 20
-3.6402227358
 11
-4.8979986735
 21
-5.5104223295
  0
LINE
  5
31C
100
AcDbEntity
  8
RACCORDO
100
AcDbLine
 62
250
  6
CONTINUOUS
 10
-4.7094462406
 20
-1.7674072026
 11
-4.8069514928
 21
-3.6402227358
  0
LINE
  5
31D
100
AcDbEntity
  8
RACCORDO
100
AcDbLine
 62
250
  6
CONTINUOUS
 10
-4.6054842617
 20
0.107991035
 11
-4.7094462406
 21
-1.7674072026
  0
LWPOLYLINE
  5
31E
100
AcDbEntity
  8
0
100
AcDbPolyline
 62
7
  6
CONTINUOUS
 90
10
 70
0
 10
-5.2472246272
 20
18.5880580583
 10
-5.2455870217
 20
18.6135960346
 10
-5.2406332256
 20
18.6389795979
 10
-5.2323688925
 20
18.6636993238
 10
-5.2208777937
 20
18.6872778556
 10
-5.2063617504
 20
18.7092000115
 10
-5.1891244003
 20
18.7289993737
 10
-5.1693510967
 20
18.7464408496
 10
-5.1474550036
 20
18.7611299248
 10
-5.1389429872
 20
18.7657874657
  0
LWPOLYLINE
  5
31F
100
AcDbEntity
  8
RACCORDO
100
AcDbPolyline
 62
250
  6
CONTINUOUS
 90
10
 70
0
 10
-3.4643993577
 20
10.6869816372
 10
-3.6449779199
 20
9.4959264915
 10
-3.8121791956
 20
8.3081990304
 10
-3.9659689864
 20
7.1240471277
 10
-4.1063162286
 20
5.9437181502
 10
-4.2331917693
 20
4.767458082
 10
-4.3465683656
 20
3.5955114752
 10
-4.4464223327
 20
2.4281224975
 10
-4.5327335563
 20
1.2655348781
 10
-4.6054842617
 20
0.107991035
  0
LWPOLYLINE
  5
320
100
AcDbEntity
  8
RACCORDO
100
AcDbPolyline
 62
250
  6
CONTINUOUS
 90
10
 70
0
 10
-2.7737949289
 20
10.5928680793
 10
-2.9534399363
 20
9.4080412702
 10
-3.1197173211
 20
8.2270071875
 10
-3.2726270831
 20
7.0497658311
 10
-3.4121960684
 20
5.8760677631
 10
-3.5383974309
 20
4.7061624214
 10
-3.6511506326
 20
3.5407981206
 10
-3.7504288274
 20
2.3802242989
 10
-3.8362588614
 20
1.2241915182
 10
-3.9086407345
 20
0.0726997783
  0
LWPOLYLINE
  5
321
100
AcDbEntity
  8
DRAFT
100
AcDbPolyline
 62
7
  6
CONTINUOUS
 90
3
 70
0
 10
-11.0292983919
 20
-16.084546936
 10
-11.0180043057
 20
-16.0554171371
 10
-11.0056692597
 20
-16.0272298493
  0
LWPOLYLINE
  5
322
100
AcDbEntity
  8
0
100
AcDbPolyline
 62
250
  6
CONTINUOUS
 90
30
 70
0
 10
-0.1096243254
 20
14.7792831521
 10
-0.1140408128
 20
14.7684010915
 10
-0.1188444151
 20
14.7577414943
 10
-0.1240245593
 20
14.7473285454
 10
-0.1295702359
 20
14.7371851579
 10
-0.1354688
 20
14.7273351913
 10
-0.1417057416
 20
14.7178031702
 10
-0.1482664382
 20
14.7086113411
 10
-0.1551365734
 20
14.6997796653
 10
-0.1623007884
 20
14.6913279096
 10
-0.1697430317
 20
14.6832750684
 10
-0.1774464268
 20
14.6756394593
 10
-0.185393438
 20
14.6684384838
 10
-0.193566065
 20
14.6616884451
 10
-0.2019459181
 20
14.6554045249
 10
-0.2105141002
 20
14.6496008957
 10
-0.2192512846
 20
14.6442906536
 10
-0.2281377374
 20
14.6394857977
 10
-0.2371533805
 20
14.6351971858
 10
-0.2462778559
 20
14.6314345014
 10
-0.2554905736
 20
14.6282062346
 10
-0.2647707377
 20
14.6255196726
 10
-0.2740974004
 20
14.6233808798
 10
-0.2834495082
 20
14.6217946842
 10
-0.2928059502
 20
14.6207646665
 10
-0.3021456169
 20
14.6202931514
 10
-0.3114474149
 20
14.6203812049
 10
-0.3206903145
 20
14.621028625
 10
-0.329853431
 20
14.6222339407
 10
-0.3364678189
 20
14.6234619913
  0
LWPOLYLINE
  5
323
100
AcDbEntity
  8
SUPERFICI
100
AcDbPolyline
 62
7
  6
CONTINUOUS
 90
18
 70
0
 10
-12.1370412876
 20
-16.3287589344
 10
-12.1211816523
 20
-16.290996347
 10
-12.1071581327
 20
-16.2516289935
 10
-12.0949697527
 20
-16.2106563969
 10
-12.0845957937
 20
-16.1679725298
 10
-12.076054863
 20
-16.1236823898
 10
-12.0694054831
 20
-16.0781022958
 10
-12.0646627004
 20
-16.0312308599
 10
-12.0618104874
 20
-15.9830690164
 10
-12.0608617907
 20
-15.9339370891
 10
-12.0618270975
 20
-15.8838290315
 10
-12.0646959431
 20
-15.8327509416
 10
-12.0694508703
 20
-15.7810418719
 10
-12.0761070686
 20
-15.7286925704
 10
-12.0846503871
 20
-15.675712845
 10
-12.0950203786
 20
-15.6224708449
 10
-12.107197792
 20
-15.5690897434
 10
-12.1212040026
 20
-15.515447455
  0
LWPOLYLINE
  5
324
100
AcDbEntity
  8
SUPERFICI
100
AcDbPolyline
 62
7
  6
CONTINUOUS
 90
19
 70
0
 10
-13.1977002078
 20
-14.9312143752
 10
-13.2139593377
 20
-14.9691615895
 10
-13.2283417544
 20
-15.0086964954
 10
-13.2408464794
 20
-15.0498185929
 10
-13.2514927265
 20
-15.0926335794
 10
-13.2602591645
 20
-15.137034673
 10
-13.2670845076
 20
-15.1827029051
 10
-13.2719525623
 20
-15.2296391017
 10
-13.2748785379
 20
-15.277841908
 10
-13.2758492898
 20
-15.3269896002
 10
-13.2748542947
 20
-15.3770881835
 10
-13.2719040968
 20
-15.4281316228
 10
-13.2670181778
 20
-15.4797806463
 10
-13.2601824383
 20
-15.5320447722
 10
-13.2514120158
 20
-15.5849149647
 10
-13.2407712693
 20
-15.6380246352
 10
-13.228282549
 20
-15.6912520284
 10
-13.2139256266
 20
-15.744719935
 10
-13.1977014851
 20
-15.7984288356
  0
LWPOLYLINE
  5
325
100
AcDbEntity
  8
RACCORDO
100
AcDbPolyline
 62
250
  6
CONTINUOUS
 90
47
 70
0
 10
8.6886441017
 20
18.6510465072
 10
8.7174108814
 20
18.6894994719
 10
8.7666940997
 20
18.7462801493
 10
8.8218277744
 20
18.8018707637
 10
8.8823312527
 20
18.855813286
 10
8.9482036043
 20
18.9080661855
 10
9.0194457596
 20
18.9586709929
 10
9.0955798573
 20
19.0072942715
 10
9.1765964863
 20
19.053922014
 10
9.2625050577
 20
19.0985682276
 10
9.3528559434
 20
19.1409414967
 10
9.4479062236
 20
19.1811006947
 10
9.5473988181
 20
19.2189869482
 10
9.6501128585
 20
19.2541322213
 10
9.7564537272
 20
19.2865099412
 10
9.8660160418
 20
19.3161466808
 10
9.9763627862
 20
19.342654123
 10
10.0874673031
 20
19.3658535164
 10
10.1993562498
 20
19.3859236125
 10
10.309672582
 20
19.4030123482
 10
10.4180630718
 20
19.4169862441
 10
10.5248809471
 20
19.4279787797
 10
10.6288288463
 20
19.4365383309
 10
10.7296646807
 20
19.4426409005
 10
10.8276305389
 20
19.4463104856
 10
10.9221553253
 20
19.4481674544
 10
11.0130770654
 20
19.4482333233
 10
11.1005577336
 20
19.4464865758
 10
11.1845121569
 20
19.4434830304
 10
11.2648162303
 20
19.4392642298
 10
11.3415940589
 20
19.4337886313
 10
11.4151327854
 20
19.4274874257
 10
11.485399319
 20
19.4204013919
 10
11.5524267506
 20
19.412489751
 10
11.6166014948
 20
19.4040613568
 10
11.6779092416
 20
19.3951507163
 10
11.736364301
 20
19.3857233225
 10
11.7923960175
 20
19.3759845087
 10
11.8460006011
 20
19.3659629869
 10
11.8971818417
 20
19.3556300452
 10
11.946380454
 20
19.3451048805
 10
11.9935995989
 20
19.3344103413
 10
12.0388361155
 20
19.3235235792
 10
12.0825212354
 20
19.3124952456
 10
12.1247987025
 20
19.3013422242
 10
12.1655247729
 20
19.2900476314
 10
12.2046994466
 20
19.2786114671
  0
LWPOLYLINE
  5
326
100
AcDbEntity
  8
RACCORDO
100
AcDbPolyline
 62
250
  6
CONTINUOUS
 90
9
 70
0
 10
8.6077530848
 20
18.6840921711
 10
8.6519815768
 20
18.7348922279
 10
8.7110604473
 20
18.7941514451
 10
8.7761532267
 20
18.8517593783
 10
8.8470290585
 20
18.907532846
 10
8.9235221963
 20
18.9613607815
 10
9.0055136
 20
19.0131619652
 10
9.092762197
 20
19.0627796045
 10
9.1132593585
 20
19.0737159727
  0
LWPOLYLINE
  5
327
100
AcDbEntity
  8
RACCORDO
100
AcDbPolyline
 62
250
  6
CONTINUOUS
 90
56
 70
0
 10
18.332704336
 20
12.5649496196
 10
18.3398017532
 20
12.5674973397
 10
18.3469756614
 20
12.5698150106
 10
18.3542250606
 20
12.5719040332
 10
18.3615474318
 20
12.573782143
 10
18.3689429362
 20
12.5754347717
 10
18.3764141276
 20
12.5768154131
 10
18.3839703967
 20
12.5779282809
 10
18.3915984243
 20
12.5787741352
 10
18.3992659046
 20
12.5793022024
 10
18.4069728734
 20
12.579511979
 10
18.414713585
 20
12.5794108853
 10
18.4224462945
 20
12.5789608461
 10
18.4301590039
 20
12.5781635726
 10
18.4378562545
 20
12.577026143
 10
18.4455202681
 20
12.5755194375
 10
18.4531381608
 20
12.5736525882
 10
18.460713238
 20
12.5714276763
 10
18.4682505844
 20
12.5688066499
 10
18.4757450328
 20
12.5658021465
 10
18.483188849
 20
12.5624167539
 10
18.4905809724
 20
12.5586000658
 10
18.4979185892
 20
12.5543648407
 10
18.5051870337
 20
12.5497192364
 10
18.5123645333
 20
12.5446094485
 10
18.5194446042
 20
12.5390502853
 10
18.5264108576
 20
12.5330548248
 10
18.5332233672
 20
12.5265706628
 10
18.5398707141
 20
12.5196186741
 10
18.5463354233
 20
12.5122141102
 10
18.5525646438
 20
12.5043009166
 10
18.5585409169
 20
12.4959164111
 10
18.5642458747
 20
12.4870695405
 10
18.5696192313
 20
12.4776694817
 10
18.574645065
 20
12.4677705861
 10
18.5792920896
 20
12.4573817614
 10
18.5834659408
 20
12.4463585103
 10
18.5871572033
 20
12.4347138373
 10
18.5903067522
 20
12.4225302037
 10
18.5927377999
 20
12.4097781252
 10
18.5944095209
 20
12.3964337527
 10
18.5952861394
 20
12.3826340762
 10
18.5952127046
 20
12.3685718905
 10
18.5941393963
 20
12.3542748603
 10
18.5920705404
 20
12.3397922235
 10
18.5889622224
 20
12.3253073499
 10
18.5847721412
 20
12.3108048651
 10
18.5795252733
 20
12.2963407488
 10
18.5733119902
 20
12.2821559673
 10
18.5661579158
 20
12.2682928394
 10
18.5580615546
 20
12.2546867955
 10
18.5490936141
 20
12.2413858405
 10
18.5392662556
 20
12.2283778424
 10
18.5285919857
 20
12.2156492619
 10
18.5171464937
 20
12.2032384138
 10
18.5049509378
 20
12.1911363386
  0
LINE
  5
328
100
AcDbEntity
  8
DRAFT
100
AcDbLine
 62
7
  6
CONTINUOUS
 10
-0.3165043894
 20
-6.3670912103
 11
-0.0315298189
 21
-6.5095784956
  0
LWPOLYLINE
  5
329
100
AcDbEntity
  8
0
100
AcDbPolyline
 62
250
  6
CONTINUOUS
 90
5
 70
0
 10
2.0315234676
 20
-25.2776958766
 10
2.0285152248
 20
-25.2669449618
 10
2.0250862841
 20
-25.2564353246
 10
2.0212443857
 20
-25.2461906872
 10
2.0169982001
 20
-25.2362341705
  0
LINE
  5
32A
100
AcDbEntity
  8
DRAFT
100
AcDbLine
 62
7
  6
CONTINUOUS
 10
-0.7861248665
 20
-17.5767085986
 11
-0.6296638781
 21
-19.4551623189
  0
LWPOLYLINE
  5
32B
100
AcDbEntity
  8
RACCORDO
100
AcDbPolyline
 62
250
  6
CONTINUOUS
 90
16
 70
0
 10
-2.4092122442
 20
11.1125337014
 10
-2.4101537158
 20
11.1592455094
 10
-2.4148524919
 20
11.2074246117
 10
-2.4232571712
 20
11.256543635
 10
-2.435275786
 20
11.3060649129
 10
-2.450776806
 20
11.3554463611
 10
-2.4695905747
 20
11.4041474115
 10
-2.4915111743
 20
11.4516349506
 10
-2.5162986708
 20
11.4973891335
 10
-2.543681732
 20
11.5409090666
 10
-2.5733606212
 20
11.5817183346
 10
-2.6050104623
 20
11.6193701836
 10
-2.6382847782
 20
11.6534523995
 10
-2.6728193176
 20
11.683591864
 10
-2.7082360467
 20
11.7094586324
 10
-2.7441472636
 20
11.730769522
  0
LWPOLYLINE
  5
32C
100
AcDbEntity
  8
0
100
AcDbPolyline
 62
7
  6
CONTINUOUS
 90
6
 70
0
 10
-2.6911532831
 20
23.1828808393
 10
-2.6911586591
 20
23.183237531
 10
-2.6916454203
 20
23.1860354187
 10
-2.6928994197
 20
23.1883283287
 10
-2.6948878009
 20
23.1901398
 10
-2.6961686454
 20
23.1908856462
  0
LINE
  5
32D
100
AcDbEntity
  8
0
100
AcDbLine
 62
250
  6
CONTINUOUS
 10
-3.1466880165
 20
20.5346299464
 11
-3.1544480412
 21
21.6275662708
  0
LINE
  5
32E
100
AcDbEntity
  8
0
100
AcDbLine
 62
7
  6
CONTINUOUS
 10
-2.1635694219
 20
21.7544637643
 11
-2.1618832181
 21
21.1852949769
  0
LINE
  5
32F
100
AcDbEntity
  8
0
100
AcDbLine
 62
7
  6
CONTINUOUS
 10
-3.6056830995
 20
15.7397583371
 11
-3.6056830995
 21
17.1859211028
  0
LINE
  5
330
100
AcDbEntity
  8
DRAFT
100
AcDbLine
 62
7
  6
CONTINUOUS
 10
-3.5641570201
 20
14.876057011
 11
-3.5641570201
 21
14.8558195677
  0
LINE
  5
331
100
AcDbEntity
  8
0
100
AcDbLine
 62
7
  6
CONTINUOUS
 10
-2.6911532831
 20
21.9346207873
 11
-2.6911532831
 21
23.18288491
  0
LINE
  5
332
100
AcDbEntity
  8
0
100
AcDbLine
 62
7
  6
CONTINUOUS
 10
-2.5388521873
 20
16.3350827551
 11
-2.5388521873
 21
17.7207234012
  0
LINE
  5
333
100
AcDbEntity
  8
0
100
AcDbLine
 62
7
  6
CONTINUOUS
 10
-2.2139076602
 20
16.0474271929
 11
-2.2139076602
 21
15.7074532588
  0
LINE
  5
334
100
AcDbEntity
  8
0
100
AcDbLine
 62
250
  6
CONTINUOUS
 10
-2.1406843555
 20
15.9590388453
 11
-2.1406843555
 21
15.6190649111
  0
LWPOLYLINE
  5
335
100
AcDbEntity
  8
0
100
AcDbPolyline
 62
250
  6
CONTINUOUS
 90
34
 70
0
 10
-2.1406843555
 20
15.9590388453
 10
-2.1404855527
 20
15.9694033235
 10
-2.1398895904
 20
15.9799433083
 10
-2.1388978072
 20
15.9906350939
 10
-2.1375124312
 20
16.0014546398
 10
-2.1357365771
 20
16.0123776041
 10
-2.133574242
 20
16.0233793981
 10
-2.1310302913
 20
16.0344352703
 10
-2.1281104466
 20
16.0455203593
 10
-2.1248212766
 20
16.056609729
 10
-2.1211701797
 20
16.0676784389
 10
-2.1171653691
 20
16.0787015913
 10
-2.1128158569
 20
16.0896543845
 10
-2.1081314282
 20
16.1005121822
 10
-2.1031226201
 20
16.1112505653
 10
-2.0978007016
 20
16.1218453785
 10
-2.0921776412
 20
16.1322727983
 10
-2.0862660905
 20
16.1425093671
 10
-2.0800793587
 20
16.1525320439
 10
-2.0736313821
 20
16.1623182619
 10
-2.0669366489
 20
16.1718460417
 10
-2.0600101727
 20
16.1810940167
 10
-2.0528674622
 20
16.1900414671
 10
-2.0455246448
 20
16.1986681779
 10
-2.0379983981
 20
16.2069545683
 10
-2.0303057638
 20
16.2148819169
 10
-2.0224639512
 20
16.2224325297
 10
-2.0144904523
 20
16.229589579
 10
-2.0064019748
 20
16.236337952
 10
-1.9982179035
 20
16.2426613619
 10
-1.9899602327
 20
16.2485431378
 10
-1.9816488121
 20
16.2539698879
 10
-1.9733011797
 20
16.2589309019
 10
-1.9649360995
 20
16.2634156602
  0
LWPOLYLINE
  5
336
100
AcDbEntity
  8
RACCORDO
100
AcDbPolyline
 62
250
  6
CONTINUOUS
 90
8
 70
0
 10
-4.109909199
 20
-3.6718080716
 10
-4.2008640662
 20
-5.5400933651
 10
-4.2853663744
 20
-7.4057413355
 10
-4.3634157726
 20
-9.2687435516
 10
-4.4350112077
 20
-11.1290747193
 10
-4.5001523286
 20
-12.9867264073
 10
-4.5588394864
 20
-14.8417070468
 10
-4.6110726811
 20
-16.6940166378
  0
LWPOLYLINE
  5
337
100
AcDbEntity
  8
RACCORDO
100
AcDbPolyline
 62
250
  6
CONTINUOUS
 90
3
 70
0
 10
-3.9086407345
 20
0.0726997783
 10
-4.0125014218
 20
-1.8008770238
 10
-4.109909199
 20
-3.6718080716
  0
LWPOLYLINE
  5
338
100
AcDbEntity
  8
SUPERFICI
100
AcDbPolyline
 62
7
  6
CONTINUOUS
 90
18
 70
0
 10
-10.1217870404
 20
-17.3363860579
 10
-10.1059274018
 20
-17.2986234732
 10
-10.0919038792
 20
-17.2592561219
 10
-10.0797154966
 20
-17.218283527
 10
-10.0693415354
 20
-17.1755996611
 10
-10.0608006028
 20
-17.1313095218
 10
-10.0541512214
 20
-17.0857294283
 10
-10.0494084377
 20
-17.0388579924
 10
-10.0465562241
 20
-16.9906961485
 10
-10.0456075272
 20
-16.9415642207
 10
-10.0465728342
 20
-16.8914561624
 10
-10.0494416805
 20
-16.8403780716
 10
-10.0541966086
 20
-16.788669001
 10
-10.0608528084
 20
-16.7363196984
 10
-10.0693961288
 20
-16.6833399718
 10
-10.0797661225
 20
-16.6300979707
 10
-10.0919435385
 20
-16.5767168685
 10
-10.105949752
 20
-16.5230745792
  0
LWPOLYLINE
  5
339
100
AcDbEntity
  8
SUPERFICI
100
AcDbPolyline
 62
7
  6
CONTINUOUS
 90
19
 70
0
 10
-11.0056692597
 20
-16.0272298493
 10
-11.0219283863
 20
-16.0651770662
 10
-11.0363108
 20
-16.1047119743
 10
-11.0488155223
 20
-16.1458340735
 10
-11.0594617672
 20
-16.1886490612
 10
-11.0682282034
 20
-16.2330501555
 10
-11.075053545
 20
-16.278718388
 10
-11.0799215987
 20
-16.3256545847
 10
-11.0828475736
 20
-16.3738573907
 10
-11.0838183254
 20
-16.4230050824
 10
-11.0828233304
 20
-16.4731036649
 10
-11.0798731332
 20
-16.5241471033
 10
-11.0749872153
 20
-16.5757961258
 10
-11.0681514772
 20
-16.6280602506
 10
-11.0593810566
 20
-16.680930442
 10
-11.0487403123
 20
-16.7340401116
 10
-11.0362515946
 20
-16.7872675038
 10
-11.0218946752
 20
-16.8407354097
 10
-11.0056705369
 20
-16.8944443097
  0
LINE
  5
33A
100
AcDbEntity
  8
RACCORDO
100
AcDbLine
 62
250
  6
CONTINUOUS
 10
-19.2541447469
 20
7.4323212776
 11
-4.6054842617
 21
0.107991035
  0
LWPOLYLINE
  5
33B
100
AcDbEntity
  8
0
100
AcDbPolyline
 62
250
  6
CONTINUOUS
 90
3
 70
0
 10
-2.213223679
 20
15.6982130917
 10
-2.2138194775
 20
15.704133486
 10
-2.2139076602
 20
15.7074532588
  0
LINE
  5
33C
100
AcDbEntity
  8
0
100
AcDbLine
 62
7
  6
CONTINUOUS
 10
-0.0315298189
 20
-6.5095784956
 11
1.1195891827
 21
-20.3297888493
  0
LINE
  5
33D
100
AcDbEntity
  8
0
100
AcDbLine
 62
7
  6
CONTINUOUS
 10
-2.2119503057
 20
15.6762307346
 11
-2.213907654
 21
15.7074810876
  0
LWPOLYLINE
  5
33E
100
AcDbEntity
  8
0
100
AcDbPolyline
 62
250
  6
CONTINUOUS
 90
20
 70
0
 10
-0.4621462851
 20
-26.8597821976
 10
-0.4619475372
 20
-26.8699464845
 10
-0.4613517404
 20
-26.8798891684
 10
-0.4603602344
 20
-26.8895878923
 10
-0.4589752488
 20
-26.899020848
 10
-0.4571998977
 20
-26.9081668247
 10
-0.4550381731
 20
-26.917005257
 10
-0.4524949358
 20
-26.925516271
 10
-0.4495759046
 20
-26.9336807292
 10
-0.4462876431
 20
-26.941480273
 10
-0.4426375451
 20
-26.9488973646
 10
-0.4386338182
 20
-26.9559153261
 10
-0.4342854651
 20
-26.9625183771
 10
-0.4296022634
 20
-26.9686916701
 10
-0.4245947436
 20
-26.9744213241
 10
-0.4192741656
 20
-26.9796944554
 10
-0.4136524929
 20
-26.984499207
 10
-0.4077423664
 20
-26.9888247751
 10
-0.4015570755
 20
-26.9926614334
 10
-0.3971729886
 20
-26.9950006477
  0
LWPOLYLINE
  5
33F
100
AcDbEntity
  8
0
100
AcDbPolyline
 62
250
  6
CONTINUOUS
 90
20
 70
0
 10
-2.1406843555
 20
15.6190649111
 10
-2.1405160596
 20
15.6097039607
 10
-2.1400114924
 20
15.6005291297
 10
-2.1391716145
 20
15.5915578875
 10
-2.1379980288
 20
15.5828073388
 10
-2.1364929679
 20
15.5742941207
 10
-2.1346592815
 20
15.5660343779
 10
-2.1325004375
 20
15.5580437903
 10
-2.1300205501
 20
15.5503376367
 10
-2.1272243703
 20
15.5429306877
 10
-2.1241172478
 20
15.5358370883
 10
-2.1207050857
 20
15.5290702921
 10
-2.1169943577
 20
15.522643135
 10
-2.1129920969
 20
15.5165678151
 10
-2.1087059478
 20
15.5108559513
 10
-2.1041441383
 20
15.5055184983
 10
-2.0993154088
 20
15.5005656482
 10
-2.094228923
 20
15.4960067679
 10
-2.088894308
 20
15.4918504747
 10
-2.0833349394
 20
15.488113602
  0
LWPOLYLINE
  5
340
100
AcDbEntity
  8
0
100
AcDbPolyline
 62
250
  6
CONTINUOUS
 90
22
 70
0
 10
-0.4621462851
 20
14.7797958759
 10
-0.4619784528
 20
14.7704477065
 10
-0.4614750461
 20
14.7612820299
 10
-0.4606366791
 20
14.7523164604
 10
-0.4594644525
 20
14.743567281
 10
-0.4579603339
 20
14.7350524068
 10
-0.4561275308
 20
14.726791073
 10
-0.4539698059
 20
14.7187999339
 10
-0.4514910718
 20
14.7110932197
 10
-0.4486960144
 20
14.7036855206
 10
-0.4455899175
 20
14.6965908926
 10
-0.4421787073
 20
14.6898229192
 10
-0.4384689229
 20
14.6833945861
 10
-0.4344676597
 20
14.6773181721
 10
-0.4301825138
 20
14.6716051979
 10
-0.4256216137
 20
14.6662665022
 10
-0.4207936077
 20
14.6613122237
 10
-0.4157077146
 20
14.6567518375
 10
-0.4103736844
 20
14.6525940824
 10
-0.4048017199
 20
14.6488468898
 10
-0.3990023996
 20
14.6455173535
 10
-0.3971754592
 20
14.6445786611
  0
LINE
  5
341
100
AcDbEntity
  8
0
100
AcDbLine
 62
7
  6
CONTINUOUS
 10
-1.5109147059
 20
15.2014482844
 11
-1.5109147059
 21
14.7474741828
  0
LINE
  5
342
100
AcDbEntity
  8
0
100
AcDbLine
 62
250
  6
CONTINUOUS
 10
-1.4376914012
 20
15.1648366321
 11
-1.4376914012
 21
14.6557624879
  0
LINE
  5
343
100
AcDbEntity
  8
RACCORDO
100
AcDbLine
 62
7
  6
CONTINUOUS
 10
-0.6296638781
 20
-19.4551623189
 11
-0.6296638781
 21
-19.8016648103
  0
LINE
  5
344
100
AcDbEntity
  8
0
100
AcDbLine
 62
250
  6
CONTINUOUS
 10
-0.4621462851
 20
-26.8597821976
 11
-0.4621462851
 21
-26.5198082635
  0
LINE
  5
345
100
AcDbEntity
  8
0
100
AcDbLine
 62
250
  6
CONTINUOUS
 10
-0.4621462851
 20
14.7797958759
 11
-0.4621462851
 21
15.11976981
  0
LINE
  5
346
100
AcDbEntity
  8
0
100
AcDbLine
 62
250
  6
CONTINUOUS
 10
-0.1096243254
 20
-26.8602949214
 11
-0.1096243254
 21
-26.5203209873
  0
LINE
  5
347
100
AcDbEntity
  8
0
100
AcDbLine
 62
250
  6
CONTINUOUS
 10
-0.1096243254
 20
14.7792831521
 11
-0.1096243254
 21
15.1192570862
  0
LINE
  5
348
100
AcDbEntity
  8
0
100
AcDbLine
 62
250
  6
CONTINUOUS
 10
0.249074323
 20
-25.5433117863
 11
0.249074323
 21
-24.8493990591
  0
LINE
  5
349
100
AcDbEntity
  8
0
100
AcDbLine
 62
250
  6
CONTINUOUS
 10
0.249074323
 20
13.8123796258
 11
0.249074323
 21
14.4931293715
  0
LINE
  5
34A
100
AcDbEntity
  8
0
100
AcDbLine
 62
250
  6
CONTINUOUS
 10
-1.7188583191
 20
20.5382924871
 11
-1.7151889824
 21
21.0550887042
  0
LWPOLYLINE
  5
34B
100
AcDbEntity
  8
0
100
AcDbPolyline
 62
250
  6
CONTINUOUS
 90
25
 70
0
 10
-0.4621462851
 20
-26.5198082635
 10
-0.4619779892
 20
-26.5102790172
 10
-0.461473422
 20
-26.500599619
 10
-0.4606335441
 20
-26.4907884989
 10
-0.4594599584
 20
-26.4808643644
 10
-0.4579548975
 20
-26.4708460855
 10
-0.4561212111
 20
-26.4607526563
 10
-0.453962367
 20
-26.4506032246
 10
-0.4514824796
 20
-26.4404171836
 10
-0.4486862999
 20
-26.4302140549
 10
-0.4455791774
 20
-26.4200133329
 10
-0.4421670153
 20
-26.4098343746
 10
-0.4384562873
 20
-26.3996964896
 10
-0.4344540265
 20
-26.3896189089
 10
-0.4301678774
 20
-26.3796208959
 10
-0.4256060679
 20
-26.3697216335
 10
-0.4207773384
 20
-26.3599400539
 10
-0.4156908526
 20
-26.3502946877
 10
-0.4103562376
 20
-26.3408037795
 10
-0.4047829674
 20
-26.3314842924
 10
-0.3989822815
 20
-26.3223551236
 10
-0.3929673563
 20
-26.313436725
 10
-0.3867505914
 20
-26.3047468387
 10
-0.3803433289
 20
-26.2963006975
 10
-0.3737579374
 20
-26.2881140896
  0
LWPOLYLINE
  5
34C
100
AcDbEntity
  8
0
100
AcDbPolyline
 62
250
  6
CONTINUOUS
 90
34
 70
0
 10
-0.4621462851
 20
15.11976981
 10
-0.4619475372
 20
15.1301328449
 10
-0.4613517404
 20
15.1406713255
 10
-0.4603602344
 20
15.1513615554
 10
-0.4589752488
 20
15.1621794967
 10
-0.4571998977
 20
15.1731008245
 10
-0.4550381731
 20
15.1841009814
 10
-0.4524949358
 20
15.1951552327
 10
-0.4495759046
 20
15.2062387221
 10
-0.4462876431
 20
15.2173265274
 10
-0.4426375451
 20
15.228393717
 10
-0.4386338182
 20
15.2394154053
 10
-0.4342854651
 20
15.2503668094
 10
-0.4296022634
 20
15.2612233042
 10
-0.4245947436
 20
15.2719604779
 10
-0.4192741656
 20
15.2825541873
 10
-0.4136524929
 20
15.2929806116
 10
-0.4077423664
 20
15.3032163062
 10
-0.4015570755
 20
15.3132382554
 10
-0.3951105282
 20
15.323023924
 10
-0.3884172201
 20
15.3325513082
 10
-0.3814922016
 20
15.341798985
 10
-0.3743510442
 20
15.3507461603
 10
-0.3670098052
 20
15.3593727157
 10
-0.359484992
 20
15.3676592537
 10
-0.3517935247
 20
15.3755871414
 10
-0.3439526982
 20
15.3831385524
 10
-0.3359801431
 20
15.3902965067
 10
-0.3278937864
 20
15.3970449091
 10
-0.3197118108
 20
15.4033685854
 10
-0.3114526141
 20
15.4092533163
 10
-0.3031347677
 20
15.4146858695
 10
-0.294776975
 20
15.4196540295
 10
-0.2863980291
 20
15.424146625
  0
LINE
  5
34D
100
AcDbEntity
  8
RACCORDO
100
AcDbLine
 62
7
  6
CONTINUOUS
 10
-1.1294757452
 20
-25.7723307406
 11
0.4692440692
 21
12.3883507153
  0
LWPOLYLINE
  5
34E
100
AcDbEntity
  8
RACCORDO
100
AcDbPolyline
 62
250
  6
CONTINUOUS
 90
10
 70
0
 10
-4.0002437358
 20
-26.8646311452
 10
-4.0050505492
 20
-26.9101811085
 10
-4.013572475
 20
-26.9532539082
 10
-4.0257162266
 20
-26.9933780409
 10
-4.0413488704
 20
-27.0301142814
 10
-4.0602992812
 20
-27.0630604905
 10
-4.0823600152
 20
-27.0918560171
 10
-4.1072895812
 20
-27.1161856465
 10
-4.1348150835
 20
-27.1357830503
 10
-4.1666244819
 20
-27.1512027298
  0
LINE
  5
34F
100
AcDbEntity
  8
DRAFT
100
AcDbLine
 62
7
  6
CONTINUOUS
 10
18.4958102302
 20
12.1750775842
 11
19.4109870168
 21
12.767006203
  0
LWPOLYLINE
  5
350
100
AcDbEntity
  8
RACCORDO
100
AcDbPolyline
 62
250
  6
CONTINUOUS
 90
16
 70
0
 10
-3.9086407345
 20
0.0726997783
 10
-3.9476529665
 20
0.0591870157
 10
-3.9898983827
 20
0.0477322931
 10
-4.0349294173
 20
0.0384569668
 10
-4.0822689918
 20
0.0314593037
 10
-4.1314155707
 20
0.0268134399
 10
-4.1818484737
 20
0.0245685958
 10
-4.233033393
 20
0.0247485541
 10
-4.2844280536
 20
0.0273514084
 10
-4.3354879583
 20
0.0323495829
 10
-4.3856721565
 20
0.0396901247
 10
-4.4344489752
 20
0.0492952651
 10
-4.4813016517
 20
0.0610632429
 10
-4.5257338086
 20
0.0748693833
 10
-4.5672747126
 20
0.0905674179
 10
-4.6054842614
 20
0.1079910351
  0
LWPOLYLINE
  5
351
100
AcDbEntity
  8
0
100
AcDbPolyline
 62
250
  6
CONTINUOUS
 90
5
 70
0
 10
2.0392282187
 20
-25.3226200115
 10
2.0379609514
 20
-25.3111512501
 10
2.036251667
 20
-25.2998239927
 10
2.0341042234
 20
-25.2886638051
 10
2.0315234676
 20
-25.2776958766
  0
LINE
  5
352
100
AcDbEntity
  8
0
100
AcDbLine
 62
7
  6
CONTINUOUS
 10
0.6807299288
 20
22.2891107389
 11
0.6840374117
 21
21.8232786838
  0
LINE
  5
353
100
AcDbEntity
  8
0
100
AcDbLine
 62
250
  6
CONTINUOUS
 10
0.6015962827
 20
-25.6688245102
 11
0.6015962827
 21
-25.0256600389
  0
LINE
  5
354
100
AcDbEntity
  8
0
100
AcDbLine
 62
250
  6
CONTINUOUS
 10
0.6015962827
 20
13.8231475074
 11
0.6015962827
 21
14.6307796292
  0
LINE
  5
355
100
AcDbEntity
  8
0
100
AcDbLine
 62
7
  6
CONTINUOUS
 10
1.1195891827
 20
12.9439113024
 11
1.1195891827
 21
8.4222545564
  0
LINE
  5
356
100
AcDbEntity
  8
0
100
AcDbLine
 62
7
  6
CONTINUOUS
 10
1.1195891827
 20
-20.3297888493
 11
1.1195891827
 21
-24.8514455953
  0
LINE
  5
357
100
AcDbEntity
  8
0
100
AcDbLine
 62
7
  6
CONTINUOUS
 10
1.4916564654
 20
-24.911900527
 11
1.4916564654
 21
-26.0802603218
  0
LINE
  5
358
100
AcDbEntity
  8
0
100
AcDbLine
 62
7
  6
CONTINUOUS
 10
1.4916564654
 20
14.3198284287
 11
1.4916564654
 21
15.9219790897
  0
LINE
  5
359
100
AcDbEntity
  8
0
100
AcDbLine
 62
250
  6
CONTINUOUS
 10
2.0199236372
 20
16.1854179097
 11
2.0199236372
 21
15.837886393
  0
LINE
  5
35A
100
AcDbEntity
  8
0
100
AcDbLine
 62
250
  6
CONTINUOUS
 10
2.0199236372
 20
-25.4617177464
 11
2.0199236372
 21
-25.8092492631
  0
LINE
  5
35B
100
AcDbEntity
  8
0
100
AcDbLine
 62
7
  6
CONTINUOUS
 10
2.0921214942
 20
16.2732905419
 11
2.0921214942
 21
15.9257590252
  0
LINE
  5
35C
100
AcDbEntity
  8
0
100
AcDbLine
 62
7
  6
CONTINUOUS
 10
2.0921214942
 20
-25.3738451142
 11
2.0921214942
 21
-25.721376631
  0
LINE
  5
35D
100
AcDbEntity
  8
0
100
AcDbLine
 62
7
  6
CONTINUOUS
 10
2.1987632466
 20
13.533276992
 11
2.1987632466
 21
-24.3986650053
  0
LINE
  5
35E
100
AcDbEntity
  8
0
100
AcDbLine
 62
250
  6
CONTINUOUS
 10
2.0921214942
 20
-25.721376631
 11
2.0921213492
 21
-25.7215112547
  0
LWPOLYLINE
  5
35F
100
AcDbEntity
  8
0
100
AcDbPolyline
 62
7
  6
CONTINUOUS
 90
23
 70
0
 10
2.1987632466
 20
-24.3984521578
 10
2.1986783444
 20
-24.4156446305
 10
2.197971259
 20
-24.432544351
 10
2.1966446132
 20
-24.4491234604
 10
2.1946946672
 20
-24.4653551289
 10
2.1921332811
 20
-24.4812123463
 10
2.1889869743
 20
-24.4966672572
 10
2.1852651866
 20
-24.5116929934
 10
2.1809699909
 20
-24.526264925
 10
2.1761168598
 20
-24.5403584519
 10
2.1707118082
 20
-24.5539559558
 10
2.1647641705
 20
-24.5670262822
 10
2.1582973253
 20
-24.5795275296
 10
2.1513306611
 20
-24.5914293649
 10
2.1438706789
 20
-24.6027250637
 10
2.1359228194
 20
-24.6134096044
 10
2.1274919888
 20
-24.6234729372
 10
2.1185984085
 20
-24.6328869694
 10
2.1092717504
 20
-24.6416216711
 10
2.0995389419
 20
-24.6496563502
 10
2.0894077368
 20
-24.6569887299
 10
2.0788800464
 20
-24.6636178536
 10
2.0700504734
 20
-24.6684750628
  0
LWPOLYLINE
  5
360
100
AcDbEntity
  8
0
100
AcDbPolyline
 62
250
  6
CONTINUOUS
 90
19
 70
0
 10
2.0199236372
 20
-25.8092492631
 10
2.0197708553
 20
-25.8194279071
 10
2.0192155459
 20
-25.8293843944
 10
2.0182589658
 20
-25.8390961643
 10
2.01690328
 20
-25.8485412156
 10
2.0151515592
 20
-25.8576981404
 10
2.0130077751
 20
-25.866546174
 10
2.010476787
 20
-25.8750652644
 10
2.0075643293
 20
-25.8832361132
 10
2.0042770029
 20
-25.8910402044
 10
2.0006222567
 20
-25.898459857
 10
1.9966083731
 20
-25.9054782587
 10
1.9922444512
 20
-25.9120795029
 10
1.9875403814
 20
-25.9182486331
 10
1.9825068231
 20
-25.9239716742
 10
1.9771551848
 20
-25.929235659
 10
1.9714975911
 20
-25.9340286653
 10
1.9655468655
 20
-25.9383398326
 10
1.9593165043
 20
-25.9421593889
  0
LWPOLYLINE
  5
361
100
AcDbEntity
  8
0
100
AcDbPolyline
 62
7
  6
CONTINUOUS
 90
20
 70
0
 10
1.4916564654
 20
-26.0802603218
 10
1.4914560865
 20
-26.090461913
 10
1.4908559176
 20
-26.1004400778
 10
1.4898572139
 20
-26.1101722651
 10
1.4884620556
 20
-26.1196365213
 10
1.4866735947
 20
-26.1288114092
 10
1.4844960488
 20
-26.1376760565
 10
1.4819342902
 20
-26.1462104118
 10
1.4789940293
 20
-26.1543951877
 10
1.475682055
 20
-26.1622117735
 10
1.4720058311
 20
-26.1696424808
 10
1.4679736122
 20
-26.1766705124
 10
1.4635946204
 20
-26.183279899
 10
1.4588787592
 20
-26.1894556758
 10
1.4538366596
 20
-26.1951838781
 10
1.4484797892
 20
-26.2004515038
 10
1.4428202898
 20
-26.2052466165
 10
1.4368709518
 20
-26.2095583687
 10
1.4306452552
 20
-26.2133769909
 10
1.4275513637
 20
-26.2150380939
  0
LWPOLYLINE
  5
362
100
AcDbEntity
  8
0
100
AcDbPolyline
 62
250
  6
CONTINUOUS
 90
18
 70
0
 10
2.0921214942
 20
16.2732905419
 10
2.0920679326
 20
16.2707031738
 10
2.0915415052
 20
16.2647808697
 10
2.0904540929
 20
16.2588776969
 10
2.0888081382
 20
16.2530069301
 10
2.086607341
 20
16.2471817757
 10
2.0838566482
 20
16.2414153347
 10
2.0805622443
 20
16.2357205783
 10
2.0767315398
 20
16.2301103194
 10
2.0723731502
 20
16.2245971777
 10
2.0674968766
 20
16.2191935526
 10
2.0621136871
 20
16.2139115999
 10
2.056235686
 20
16.2087631972
 10
2.0498760958
 20
16.2037599273
 10
2.043049233
 20
16.1989130524
 10
2.0357704589
 20
16.1942334764
 10
2.0280561428
 20
16.1897317206
 10
2.0199236372
 20
16.1854179097
  0
LWPOLYLINE
  5
363
100
AcDbEntity
  8
0
100
AcDbPolyline
 62
250
  6
CONTINUOUS
 90
20
 70
0
 10
-0.1096243254
 20
-26.8602949214
 10
-0.1098726553
 20
-26.8705213394
 10
-0.1105186357
 20
-26.8805231622
 10
-0.1115608044
 20
-26.8902777264
 10
-0.1129968024
 20
-26.8997629339
 10
-0.1148233771
 20
-26.9089572856
 10
-0.1170363871
 20
-26.9178399321
 10
-0.119630816
 20
-26.9263907429
 10
-0.1226007857
 20
-26.9345903477
 10
-0.1259395651
 20
-26.9424201655
 10
-0.1296395887
 20
-26.9498624567
 10
-0.1336924715
 20
-26.9569003581
 10
-0.1380890261
 20
-26.9635179186
 10
-0.1428192882
 20
-26.9697001449
 10
-0.1478725389
 20
-26.9754330322
 10
-0.1532373252
 20
-26.9807035911
 10
-0.1589014928
 20
-26.9854998843
 10
-0.1648522034
 20
-26.989811044
 10
-0.1710759606
 20
-26.9936272983
 10
-0.1757217782
 20
-26.9960653915
  0
LINE
  5
364
100
AcDbEntity
  8
0
100
AcDbLine
 62
7
  6
CONTINUOUS
 10
1.1195891827
 20
8.4222545564
 11
-0.0315298189
 21
-6.5095784956
  0
LWPOLYLINE
  5
365
100
AcDbEntity
  8
0
100
AcDbPolyline
 62
250
  6
CONTINUOUS
 90
17
 70
0
 10
2.0920670713
 20
15.9231509377
 10
2.0915387182
 20
15.9172289558
 10
2.0904494462
 20
15.9113261787
 10
2.0888017082
 20
15.9054558727
 10
2.086599208
 20
15.8996312266
 10
2.0838468764
 20
15.8938652969
 10
2.0805509174
 20
15.8881710945
 10
2.076718826
 20
15.8825615371
 10
2.072359314
 20
15.8770493076
 10
2.0674821682
 20
15.8716467193
 10
2.062098273
 20
15.8663658084
 10
2.0562192379
 20
15.861218038
 10
2.0498587011
 20
15.8562154186
 10
2.0430325414
 20
15.8513702641
 10
2.035756969
 20
15.8466936995
 10
2.0280481354
 20
15.8421957496
 10
2.0199236372
 20
15.837886393
  0
LWPOLYLINE
  5
366
100
AcDbEntity
  8
RACCORDO
100
AcDbPolyline
 62
7
  6
CONTINUOUS
 90
136
 70
0
 10
18.3326942298
 20
12.5649412817
 10
18.3920602259
 20
12.6136439595
 10
18.4495494823
 20
12.6611316372
 10
18.5051619989
 20
12.7074043146
 10
18.5588427272
 20
12.7524274235
 10
18.6106467158
 20
12.7962355321
 10
18.6607391102
 20
12.8389323457
 10
18.7091273085
 20
12.8805229237
 10
18.7558039127
 20
12.9210022067
 10
18.8009118744
 20
12.9604587222
 10
18.8444554219
 20
12.9988950235
 10
18.8864303269
 20
13.0363085573
 10
18.9269668565
 20
13.0727801904
 10
18.9660689041
 20
13.1083122879
 10
19.0037325762
 20
13.1429024847
 10
19.0400764595
 20
13.1766245525
 10
19.0751041496
 20
13.2094807014
 10
19.1088120509
 20
13.2414687214
 10
19.1413079624
 20
13.2726557535
 10
19.1725952046
 20
13.3030438782
 10
19.2026704569
 20
13.3326310151
 10
19.2316315573
 20
13.3614780644
 10
19.2594815735
 20
13.389587009
 10
19.2862174377
 20
13.4169558659
 10
19.3119277846
 20
13.4436395862
 10
19.3366154432
 20
13.46964009
 10
19.3602775844
 20
13.4949554572
 10
19.3829943555
 20
13.5196348788
 10
19.4047683506
 20
13.5436802506
 10
19.4255969755
 20
13.5670896768
 10
19.4455525945
 20
13.5899066602
 10
19.464637554
 20
13.6121331149
 10
19.4828495076
 20
13.6337671268
 10
19.5002537796
 20
13.6548464563
 10
19.5168524278
 20
13.6753730737
 10
19.5326433944
 20
13.6953450087
 10
19.5476858313
 20
13.7147941118
 10
19.5619814259
 20
13.7337224294
 10
19.5755284908
 20
13.7521279152
 10
19.5883811149
 20
13.7700362801
 10
19.6005404824
 20
13.7874496205
 10
19.6120054092
 20
13.80436584
 10
19.6228264321
 20
13.8208043607
 10
19.6330039845
 20
13.8367670834
 10
19.6425376329
 20
13.8522521072
 10
19.6514766132
 20
13.8672731512
 10
19.6598206501
 20
13.8818320482
 10
19.6675700189
 20
13.8959269654
 10
19.6747747812
 20
13.9095661236
 10
19.6814335839
 20
13.9227503724
 10
19.6875477801
 20
13.9354788622
 10
19.6931714913
 20
13.9477572643
 10
19.6983000498
 20
13.9595763702
 10
19.7029381234
 20
13.9709453884
 10
19.7071538373
 20
13.9818976159
 10
19.7109452117
 20
13.9924194499
 10
19.7143142266
 20
14.0025244933
 10
19.7173349463
 20
14.0122868517
 10
19.7200127522
 20
14.0217043899
 10
19.722342263
 20
14.030779243
 10
19.7243813992
 20
14.039591923
 10
19.7261375791
 20
14.0481475244
 10
19.7276033844
 20
14.0564409526
 10
19.7288144807
 20
14.0645374355
 10
19.7297771341
 20
14.0724412455
 10
19.7304850784
 20
14.0801481103
 10
19.7309551807
 20
14.08771044
 10
19.7311930627
 20
14.0951314484
 10
19.7311931027
 20
14.1024079219
 10
19.7309553022
 20
14.1095826295
 10
19.7304852833
 20
14.1166581777
 10
19.7297774239
 20
14.12363196
 10
19.7288148589
 20
14.1305389268
 10
19.7276038542
 20
14.1373812967
 10
19.7261381438
 20
14.144156851
 10
19.7243820649
 20
14.1508938837
 10
19.7223430367
 20
14.1575949795
 10
19.7200136401
 20
14.1642575538
 10
19.7173359543
 20
14.1709021461
 10
19.7143153637
 20
14.1775364625
 10
19.7109464839
 20
14.1841527968
 10
19.7071552422
 20
14.1907485703
 10
19.7029396574
 20
14.1973353411
 10
19.6983017106
 20
14.203901551
 10
19.6931732724
 20
14.210409947
 10
19.6875496736
 20
14.2168649048
 10
19.6814355834
 20
14.2232620488
 10
19.6747768806
 20
14.2295509987
 10
19.6675722133
 20
14.2357295016
 10
19.6598229334
 20
14.2417998105
 10
19.6514789754
 20
14.2477183044
 10
19.6425400629
 20
14.253482866
 10
19.6330064723
 20
14.2590956126
 10
19.6228289672
 20
14.264519275
 10
19.6120079812
 20
14.2697524009
 10
19.6005430808
 20
14.2747964426
 10
19.588383729
 20
14.279618488
 10
19.5755311095
 20
14.2842176667
 10
19.5619840386
 20
14.2885948491
 10
19.5476884277
 20
14.2927197339
 10
19.5326459644
 20
14.2965920221
 10
19.5168549612
 20
14.3002120127
 10
19.5002562675
 20
14.3035503021
 10
19.4828519407
 20
14.3066070508
 10
19.4646399233
 20
14.3093820983
 10
19.4455548923
 20
14.3118455593
 10
19.4255991943
 20
14.3139979495
 10
19.4047704826
 20
14.3158387533
 10
19.382996395
 20
14.3173365381
 10
19.3602795256
 20
14.3184920945
 10
19.3366172803
 20
14.3193046319
 10
19.3119295138
 20
14.319740347
 10
19.2862190553
 20
14.3198002492
 10
19.2594830757
 20
14.3194833289
 10
19.2316329424
 20
14.3187527542
 10
19.2026717233
 20
14.3176097187
 10
19.1725963506
 20
14.3160530286
 10
19.1413089889
 20
14.314042271
 10
19.1088129584
 20
14.3115788037
 10
19.0751049389
 20
14.3086612688
 10
19.0400771338
 20
14.3052451793
 10
19.0037331389
 20
14.3013320485
 10
18.9660693584
 20
14.296920363
 10
18.9269672085
 20
14.2919610958
 10
18.8864305826
 20
14.2864559134
 10
18.8444555874
 20
14.2804031492
 10
18.800911959
 20
14.2737487759
 10
18.7558039255
 20
14.2664946185
 10
18.7091272588
 20
14.2586388521
 10
18.6607390106
 20
14.2501219747
 10
18.6106465744
 20
14.2409465869
 10
18.5588425567
 20
14.2311100882
 10
18.5051618281
 20
14.2205451746
 10
18.4495493454
 20
14.2092294117
 10
18.3920601518
 20
14.197185234
 10
18.3326942473
 20
14.1844126415
  0
LWPOLYLINE
  5
367
100
AcDbEntity
  8
0
100
AcDbPolyline
 62
250
  6
CONTINUOUS
 90
16
 70
0
 10
-10.2837343555
 20
21.9897153893
 10
-10.2797616417
 20
21.9830205141
 10
-10.2761991831
 20
21.9765390723
 10
-10.2730550198
 20
21.9702856919
 10
-10.2703362481
 20
21.9642744865
 10
-10.2680490041
 20
21.9585190231
 10
-10.2661984499
 20
21.9530322914
 10
-10.2647887622
 20
21.9478266747
 10
-10.2638231225
 20
21.9429139216
 10
-10.2633037102
 20
21.93830512
 10
-10.2632316976
 20
21.9340106717
 10
-10.2636072472
 20
21.930040269
 10
-10.2644295114
 20
21.9264028728
 10
-10.2656966345
 20
21.9231066926
 10
-10.2674057566
 20
21.9201591677
 10
-10.2683737831
 20
21.9188802227
  0
LINE
  5
368
100
AcDbEntity
  8
0
100
AcDbLine
 62
250
  6
CONTINUOUS
 10
2.7684584788
 20
18.9817580252
 11
2.7684584788
 21
19.4561594005
  0
LINE
  5
369
100
AcDbEntity
  8
0
100
AcDbLine
 62
250
  6
CONTINUOUS
 10
2.7684584788
 20
19.812335267
 11
2.7684584788
 21
20.3655059901
  0
LINE
  5
36A
100
AcDbEntity
  8
ASSI
100
AcDbLine
 62
7
  6
CONTINUOUS
 10
2.829605605
 20
-20.4994289984
 11
2.829605605
 21
-19.6884881381
  0
LINE
  5
36B
100
AcDbEntity
  8
ASSI
100
AcDbLine
 62
7
  6
CONTINUOUS
 10
2.829605605
 20
9.4650499725
 11
2.829605605
 21
10.2759908329
  0
LINE
  5
36C
100
AcDbEntity
  8
0
100
AcDbLine
 62
7
  6
CONTINUOUS
 10
2.8299141464
 20
10.2758365622
 11
2.8299141464
 21
9.4648957018
  0
LINE
  5
36D
100
AcDbEntity
  8
0
100
AcDbLine
 62
7
  6
CONTINUOUS
 10
2.8299141464
 20
-20.4995832691
 11
2.8299141464
 21
-19.6886424087
  0
LINE
  5
36E
100
AcDbEntity
  8
0
100
AcDbLine
 62
7
  6
CONTINUOUS
 10
2.89929333
 20
19.1393974808
 11
2.89929333
 21
20.3876616035
  0
LINE
  5
36F
100
AcDbEntity
  8
0
100
AcDbLine
 62
7
  6
CONTINUOUS
 10
2.8996992004
 20
13.8848774079
 11
2.8996992004
 21
10.9529724569
  0
LINE
  5
370
100
AcDbEntity
  8
0
100
AcDbLine
 62
7
  6
CONTINUOUS
 10
2.8996992004
 20
-21.1050828616
 11
2.8996992004
 21
-24.0369878126
  0
LINE
  5
371
100
AcDbEntity
  8
ASSI
100
AcDbLine
 62
7
  6
CONTINUOUS
 10
3.6006351542
 20
11.3064807638
 11
3.6006351542
 21
10.6965585393
  0
LINE
  5
372
100
AcDbEntity
  8
ASSI
100
AcDbLine
 62
7
  6
CONTINUOUS
 10
3.6006351542
 20
9.8290876355
 11
3.6006351542
 21
-19.2679204316
  0
LINE
  5
373
100
AcDbEntity
  8
ASSI
100
AcDbLine
 62
7
  6
CONTINUOUS
 10
3.6006351542
 20
-20.1353913355
 11
3.6006351542
 21
-20.7453135599
  0
LINE
  5
374
100
AcDbEntity
  8
0
100
AcDbLine
 62
7
  6
CONTINUOUS
 10
3.6009436956
 20
10.6964042687
 11
3.6009436956
 21
9.8289333648
  0
LINE
  5
375
100
AcDbEntity
  8
0
100
AcDbLine
 62
7
  6
CONTINUOUS
 10
3.6009436956
 20
-20.1355456062
 11
3.6009436956
 21
-19.2680747023
  0
LINE
  5
376
100
AcDbEntity
  8
RACCORDO
100
AcDbLine
 62
7
  6
CONTINUOUS
 10
3.612976809
 20
10.5785530788
 11
3.612976809
 21
-20.0297275297
  0
LWPOLYLINE
  5
377
100
AcDbEntity
  8
0
100
AcDbPolyline
 62
250
  6
CONTINUOUS
 90
18
 70
0
 10
2.0921213492
 20
-25.7215112547
 10
2.0920679326
 20
-25.7239639991
 10
2.0915415052
 20
-25.7298863032
 10
2.0904540929
 20
-25.735789476
 10
2.0888081382
 20
-25.7416602428
 10
2.086607341
 20
-25.7474853972
 10
2.0838566482
 20
-25.7532518381
 10
2.0805622443
 20
-25.7589465946
 10
2.0767315398
 20
-25.7645568535
 10
2.0723731502
 20
-25.7700699952
 10
2.0674968766
 20
-25.7754736203
 10
2.0621136871
 20
-25.780755573
 10
2.056235686
 20
-25.7859039757
 10
2.0498760958
 20
-25.7909072456
 10
2.043049233
 20
-25.7957541204
 10
2.0357704589
 20
-25.8004336965
 10
2.0280561428
 20
-25.8049354522
 10
2.0199236372
 20
-25.8092492631
  0
LWPOLYLINE
  5
378
100
AcDbEntity
  8
0
100
AcDbPolyline
 62
250
  6
CONTINUOUS
 90
18
 70
0
 10
2.0921212124
 20
-25.3740327852
 10
2.0920674798
 20
-25.3764433969
 10
2.0915401044
 20
-25.3823650446
 10
2.0904518692
 20
-25.3882675347
 10
2.0888052209
 20
-25.3941375942
 10
2.0866038621
 20
-25.3999620233
 10
2.0838527433
 20
-25.4057277239
 10
2.0805580503
 20
-25.4114217317
 10
2.0767271898
 20
-25.417031245
 10
2.0723687711
 20
-25.4225436549
 10
2.0674925973
 20
-25.4279465603
 10
2.0621096458
 20
-25.4332277992
 10
2.0562320325
 20
-25.4383754896
 10
2.0498729694
 20
-25.4433780642
 10
2.0430467458
 20
-25.4482242835
 10
2.0357687068
 20
-25.4529032527
 10
2.0280552223
 20
-25.4574044476
 10
2.0199236372
 20
-25.4617177464
  0
LINE
  5
379
100
AcDbEntity
  8
RACCORDO
100
AcDbLine
 62
250
  6
CONTINUOUS
 10
18.5049509378
 20
12.1911363386
 11
18.4958102302
 21
12.182788117
  0
LWPOLYLINE
  5
37A
100
AcDbEntity
  8
RACCORDO
100
AcDbPolyline
 62
250
  6
CONTINUOUS
 90
57
 70
0
 10
18.2151500305
 20
12.4275899878
 10
18.2210124241
 20
12.4328279198
 10
18.2268467774
 20
12.4378413792
 10
18.232652012
 20
12.4426304502
 10
18.2384212185
 20
12.4471967309
 10
18.2441592331
 20
12.451538723
 10
18.249882079
 20
12.4556520808
 10
18.2555902414
 20
12.4595402783
 10
18.2612799113
 20
12.4632004149
 10
18.2669598064
 20
12.4666189336
 10
18.2726297048
 20
12.4697979564
 10
18.2782856834
 20
12.4727361536
 10
18.2839303677
 20
12.4754149788
 10
18.2895597688
 20
12.4778345273
 10
18.2951732734
 20
12.4799955261
 10
18.3007779962
 20
12.4818805576
 10
18.3063592379
 20
12.4834912422
 10
18.3119263976
 20
12.4848268718
 10
18.3175205064
 20
12.4858672923
 10
18.323132401
 20
12.4866233468
 10
18.3287616377
 20
12.4870863654
 10
18.3344578037
 20
12.4872083904
 10
18.340230541
 20
12.4869960962
 10
18.3460535869
 20
12.4864468091
 10
18.3519196512
 20
12.4854993908
 10
18.3578240497
 20
12.4841501166
 10
18.3637533366
 20
12.482406453
 10
18.3696872464
 20
12.4802238144
 10
18.3756154466
 20
12.4775975266
 10
18.3815300054
 20
12.4745352612
 10
18.3874150066
 20
12.4710105425
 10
18.3932524329
 20
12.4670274681
 10
18.3990418409
 20
12.4625841911
 10
18.4047921566
 20
12.4576454717
 10
18.4104869475
 20
12.4522190889
 10
18.4161190787
 20
12.4462998135
 10
18.4217062009
 20
12.4398338001
 10
18.4272335187
 20
12.4328227823
 10
18.4326831338
 20
12.4252682452
 10
18.4380611933
 20
12.4171169788
 10
18.4433483682
 20
12.4083664746
 10
18.4485216361
 20
12.3990224627
 10
18.4535749269
 20
12.3890447479
 10
18.4584821616
 20
12.3784310714
 10
18.463217206
 20
12.3671860754
 10
18.4677667977
 20
12.3552802738
 10
18.4720961392
 20
12.3427185103
 10
18.4761762406
 20
12.3294966896
 10
18.479991803
 20
12.3155722507
 10
18.4834962266
 20
12.3009633255
 10
18.4866539046
 20
12.285650142
 10
18.4894444965
 20
12.2695337985
 10
18.491810925
 20
12.2525803543
 10
18.4936874982
 20
12.2348184287
 10
18.495015085
 20
12.2162424036
 10
18.4957202565
 20
12.1966897403
 10
18.4958102298
 20
12.1867560858
  0
LWPOLYLINE
  5
37B
100
AcDbEntity
  8
0
100
AcDbPolyline
 62
7
  6
CONTINUOUS
 90
4
 70
0
 10
-2.1874066556
 20
15.5954345147
 10
-2.1985468458
 20
15.6211720454
 10
-2.2067783861
 20
15.6481759378
 10
-2.2119503057
 20
15.6762307346
  0
LWPOLYLINE
  5
37C
100
AcDbEntity
  8
0
100
AcDbPolyline
 62
7
  6
CONTINUOUS
 90
5
 70
0
 10
2.89929333
 20
20.3876579683
 10
2.8990563454
 20
20.3899099412
 10
2.8981036354
 20
20.392307758
 10
2.8964556237
 20
20.3942370021
 10
2.8942783795
 20
20.3956673704
  0
LINE
  5
37D
100
AcDbEntity
  8
ASSI
100
AcDbLine
 62
7
  6
CONTINUOUS
 10
8.1320108202
 20
18.9032142987
 11
8.1321714483
 21
18.886256804
  0
LINE
  5
37E
100
AcDbEntity
  8
RACCORDO
100
AcDbLine
 62
7
  6
CONTINUOUS
 10
7.9616835133
 20
17.9720016012
 11
7.9616835133
 21
17.9480349981
  0
LINE
  5
37F
100
AcDbEntity
  8
ASSI
100
AcDbLine
 62
250
  6
CONTINUOUS
 10
7.9919128726
 20
-18.7569780764
 11
7.9919128726
 21
-18.9722401858
  0
LINE
  5
380
100
AcDbEntity
  8
ASSI
100
AcDbLine
 62
250
  6
CONTINUOUS
 10
7.9919128726
 20
17.9879821471
 11
7.9919128726
 21
18.5894992287
  0
LINE
  5
381
100
AcDbEntity
  8
ASSI
100
AcDbLine
 62
7
  6
CONTINUOUS
 10
8.1322429725
 20
18.8862387782
 11
8.1322429725
 21
18.1642528364
  0
LINE
  5
382
100
AcDbEntity
  8
ASSI
100
AcDbLine
 62
7
  6
CONTINUOUS
 10
8.1322429725
 20
-18.92165055
 11
8.1322429725
 21
-18.682769208
  0
LINE
  5
383
100
AcDbEntity
  8
0
100
AcDbLine
 62
250
  6
CONTINUOUS
 10
8.7933165638
 20
19.6355344642
 11
8.7933165638
 21
20.0457535072
  0
LWPOLYLINE
  5
384
100
AcDbEntity
  8
0
100
AcDbPolyline
 62
7
  6
CONTINUOUS
 90
38
 70
0
 10
8.004755299
 20
19.0820032687
 10
8.0049395573
 20
19.0979201379
 10
8.0062370459
 20
19.1271347778
 10
8.0087759249
 20
19.1563290336
 10
8.0125550477
 20
19.1854897197
 10
8.0175727074
 20
19.2146036652
 10
8.0238266377
 20
19.2436577207
 10
8.0313140141
 20
19.2726387636
 10
8.0400314546
 20
19.3015337045
 10
8.0499750221
 20
19.3303294927
 10
8.0611402255
 20
19.3590131224
 10
8.0735220219
 20
19.3875716383
 10
8.0871148189
 20
19.4159921418
 10
8.1019124773
 20
19.4442617965
 10
8.1179083136
 20
19.4723678342
 10
8.1350951032
 20
19.5002975606
 10
8.1534650834
 20
19.528038361
 10
8.1730099573
 20
19.5555777061
 10
8.1937208974
 20
19.5829031575
 10
8.2155885494
 20
19.6100023733
 10
8.2386030365
 20
19.6368631141
 10
8.2627539641
 20
19.663473248
 10
8.2880304243
 20
19.6898207563
 10
8.3144210007
 20
19.7158937389
 10
8.3419137737
 20
19.7416804197
 10
8.3704963262
 20
19.767169152
 10
8.4001557484
 20
19.7923484237
 10
8.4308786446
 20
19.8172068622
 10
8.4626511384
 20
19.84173324
 10
8.4954588796
 20
19.8659164797
 10
8.5292870502
 20
19.8897456586
 10
8.5641203716
 20
19.9132100142
 10
8.5999431109
 20
19.9362989485
 10
8.6367390885
 20
19.9590020333
 10
8.6744916853
 20
19.9813090145
 10
8.7131838499
 20
20.003209817
 10
8.7527981068
 20
20.0246945492
 10
8.7933165638
 20
20.0457535072
  0
LWPOLYLINE
  5
385
100
AcDbEntity
  8
RACCORDO
100
AcDbPolyline
 62
7
  6
CONTINUOUS
 90
19
 70
0
 10
18.2151500305
 20
12.4275824329
 10
18.2204157053
 20
12.4359864427
 10
18.2258212279
 20
12.4443218267
 10
18.2313665984
 20
12.4525885849
 10
18.2370486059
 20
12.4607929927
 10
18.2428704612
 20
12.4689287748
 10
18.2488417971
 20
12.4769771053
 10
18.2549625545
 20
12.4849370351
 10
18.2612327925
 20
12.4928095133
 10
18.267662321
 20
12.5005785618
 10
18.2742535759
 20
12.5082460999
 10
18.2810041213
 20
12.5158102082
 10
18.2879164602
 20
12.5232491502
 10
18.2949950913
 20
12.5305656638
 10
18.3022355158
 20
12.5377570112
 10
18.3096267412
 20
12.5447932416
 10
18.3171651032
 20
12.5516643718
 10
18.3248542661
 20
12.5583803851
 10
18.3326942298
 20
12.5649412817
  0
LINE
  5
386
100
AcDbEntity
  8
RACCORDO
100
AcDbLine
 62
250
  6
CONTINUOUS
 10
-18.1491542485
 20
18.0293590826
 11
-3.4643993577
 21
10.6869816372
  0
LINE
  5
387
100
AcDbEntity
  8
DRAFT
100
AcDbLine
 62
7
  6
CONTINUOUS
 10
0.3198392816
 20
8.8221295069
 11
1.1195891827
 21
8.4222545564
  0
LINE
  5
388
100
AcDbEntity
  8
RACCORDO
100
AcDbLine
 62
250
  6
CONTINUOUS
 10
-17.4467287145
 20
19.0820602443
 11
-2.7441472669
 21
11.7307695205
  0
LINE
  5
389
100
AcDbEntity
  8
0
100
AcDbLine
 62
7
  6
CONTINUOUS
 10
3.6006351542
 20
11.3064807638
 11
2.8996992004
 21
12.5154164553
  0
LINE
  5
38A
100
AcDbEntity
  8
RACCORDO
100
AcDbLine
 62
7
  6
CONTINUOUS
 10
2.8996992004
 20
12.5261046418
 11
3.1988263333
 21
12.0101866534
  0
LWPOLYLINE
  5
38B
100
AcDbEntity
  8
0
100
AcDbPolyline
 62
7
  6
CONTINUOUS
 90
4
 70
0
 10
8.0081999153
 20
19.0138762895
 10
8.0060705347
 20
19.0394824895
 10
8.0048840452
 20
19.0686983091
 10
8.004755299
 20
19.0820032687
  0
LINE
  5
38C
100
AcDbEntity
  8
DRAFT
100
AcDbLine
 62
7
  6
CONTINUOUS
 10
9.4760267617
 20
19.9779925565
 11
9.4760267617
 21
19.5449798546
  0
LINE
  5
38D
100
AcDbEntity
  8
0
100
AcDbLine
 62
7
  6
CONTINUOUS
 10
10.4434904742
 20
18.7446271447
 11
10.4434904742
 21
18.2923025044
  0
LINE
  5
38E
100
AcDbEntity
  8
0
100
AcDbLine
 62
7
  6
CONTINUOUS
 10
10.8932351355
 20
18.6228793116
 11
10.8932351355
 21
18.2832547218
  0
LINE
  5
38F
100
AcDbEntity
  8
DRAFT
100
AcDbLine
 62
7
  6
CONTINUOUS
 10
10.9315319943
 20
19.9185699906
 11
10.9315319943
 21
19.4748166946
  0
LINE
  5
390
100
AcDbEntity
  8
ASSI
100
AcDbLine
 62
7
  6
CONTINUOUS
 10
8.1321641218
 20
-18.9216966825
 11
8.1320108202
 21
-18.9233912971
  0
LWPOLYLINE
  5
391
100
AcDbEntity
  8
0
100
AcDbPolyline
 62
7
  6
CONTINUOUS
 90
4
 70
0
 10
2.0721495868
 20
-25.8192902491
 10
2.0830310661
 20
-25.7881791034
 10
2.0897425605
 20
-25.7557831352
 10
2.0921213492
 20
-25.7215112547
  0
LWPOLYLINE
  5
392
100
AcDbEntity
  8
0
100
AcDbPolyline
 62
250
  6
CONTINUOUS
 90
13
 70
0
 10
2.0199236372
 20
-25.4617177464
 10
2.0238964219
 20
-25.4506021346
 10
2.0274589359
 20
-25.4393132803
 10
2.0306031385
 20
-25.4278766626
 10
2.0333219318
 20
-25.4163181008
 10
2.0356091812
 20
-25.4046636764
 10
2.037459727
 20
-25.3929396743
 10
2.0388693919
 20
-25.3811725402
 10
2.0398349894
 20
-25.3693888482
 10
2.040354337
 20
-25.3576152205
 10
2.0404262636
 20
-25.345878241
 10
2.0400506081
 20
-25.3342043901
 10
2.0392282187
 20
-25.3226200115
  0
LWPOLYLINE
  5
393
100
AcDbEntity
  8
RACCORDO
100
AcDbPolyline
 62
7
  6
CONTINUOUS
 90
19
 70
0
 10
18.3326942473
 20
14.1844126415
 10
18.3248571215
 20
14.1828552992
 10
18.317169596
 20
14.181609121
 10
18.3096316708
 20
14.180674107
 10
18.3022393637
 20
14.1800563407
 10
18.294996657
 20
14.1797497384
 10
18.2879154971
 20
14.1797360497
 10
18.2810004854
 20
14.1800173236
 10
18.2742470206
 20
14.1805915111
 10
18.2676532441
 20
14.1814342138
 10
18.2612216719
 20
14.182546122
 10
18.2549497882
 20
14.1839265454
 10
18.2488281869
 20
14.1855490156
 10
18.2428569054
 20
14.1874144499
 10
18.2370359062
 20
14.1895219309
 10
18.231355671
 20
14.191842239
 10
18.2258130269
 20
14.1943656343
 10
18.2204111467
 20
14.1971018566
 10
18.2151500305
 20
14.2000509059
  0
LWPOLYLINE
  5
394
100
AcDbEntity
  8
RACCORDO
100
AcDbPolyline
 62
250
  6
CONTINUOUS
 90
16
 70
0
 10
-2.7737949289
 20
10.5928680793
 10
-2.8121626403
 20
10.585397469
 10
-2.8537715595
 20
10.5799216211
 10
-2.898180701
 20
10.5764985706
 10
-2.9449194017
 20
10.5751645961
 10
-2.993492309
 20
10.5759338355
 10
-3.0433846308
 20
10.5787981362
 10
-3.0940675914
 20
10.5837271414
 10
-3.1450040355
 20
10.5906686117
 10
-3.1956541216
 20
10.5995489792
 10
-3.2454810428
 20
10.6102741266
 10
-3.2939567166
 20
10.6227303853
 10
-3.3405673812
 20
10.6367857398
 10
-3.3848190412
 20
10.6522912268
 10
-3.4262427023
 20
10.6690825137
 10
-3.4643993426
 20
10.6869816409
  0
LWPOLYLINE
  5
395
100
AcDbEntity
  8
0
100
AcDbPolyline
 62
250
  6
CONTINUOUS
 90
16
 70
0
 10
2.0199236372
 20
15.837886393
 10
2.0238963509
 20
15.8311915178
 10
2.0274588096
 20
15.8247100759
 10
2.0306029728
 20
15.8184566956
 10
2.0333217445
 20
15.8124454902
 10
2.0356089885
 20
15.8066900268
 10
2.0374595427
 20
15.8012032951
 10
2.0388692304
 20
15.7959976783
 10
2.0398348702
 20
15.7910849253
 10
2.0403542825
 20
15.7864761237
 10
2.0404262951
 20
15.7821816754
 10
2.0400507455
 20
15.7782112727
 10
2.0392284812
 20
15.7745738765
 10
2.0379613582
 20
15.7712776963
 10
2.0362522361
 20
15.7683301714
 10
2.0352842096
 20
15.7670512264
  0
LINE
  5
396
100
AcDbEntity
  8
DRAFT
100
AcDbLine
 62
7
  6
CONTINUOUS
 10
13.0157533284
 20
22.0805407044
 11
13.0157533284
 21
21.7535746566
  0
LWPOLYLINE
  5
397
100
AcDbEntity
  8
0
100
AcDbPolyline
 62
7
  6
CONTINUOUS
 90
4
 70
0
 10
-0.3971754592
 20
14.6445786611
 10
-0.3826508574
 20
14.6378879905
 10
-0.3522439176
 20
14.6272945719
 10
-0.3364694816
 20
14.6234623384
  0
LWPOLYLINE
  5
398
100
AcDbEntity
  8
0
100
AcDbPolyline
 62
250
  6
CONTINUOUS
 90
34
 70
0
 10
-0.4621462851
 20
14.7797958759
 10
-0.4535672932
 20
14.7757051279
 10
-0.444610096
 20
14.7718223261
 10
-0.4352948345
 20
14.7681562013
 10
-0.4256424548
 20
14.7647149971
 10
-0.4156746609
 20
14.7615064512
 10
-0.4054138662
 20
14.7585377785
 10
-0.3948831428
 20
14.755815654
 10
-0.3841061699
 20
14.7533461988
 10
-0.3731071804
 20
14.7511349656
 10
-0.3619109062
 20
14.7491869265
 10
-0.3505425231
 20
14.7475064618
 10
-0.3390275938
 20
14.7460973502
 10
-0.3273920103
 20
14.7449627602
 10
-0.3156619362
 20
14.7441052429
 10
-0.3038637476
 20
14.7435267267
 10
-0.2920239734
 20
14.7432285122
 10
-0.2801692363
 20
14.7432112702
 10
-0.2683261926
 20
14.7434750392
 10
-0.2565214723
 20
14.7440192264
 10
-0.2447816191
 20
14.7448426079
 10
-0.2331330311
 20
14.7459433324
 10
-0.2216019009
 20
14.7473189247
 10
-0.2102141572
 20
14.7489662919
 10
-0.1989954062
 20
14.7508817295
 10
-0.1879708741
 20
14.7530609308
 10
-0.1771653503
 20
14.7554989954
 10
-0.166603132
 20
14.7581904413
 10
-0.1563079691
 20
14.7611292166
 10
-0.1463030109
 20
14.7643087132
 10
-0.1366107545
 20
14.7677217817
 10
-0.1272529936
 20
14.7713607476
 10
-0.1182507699
 20
14.7752174284
 10
-0.1096243254
 20
14.7792831521
  0
LWPOLYLINE
  5
399
100
AcDbEntity
  8
0
100
AcDbPolyline
 62
250
  6
CONTINUOUS
 90
34
 70
0
 10
-12.7658042777
 20
20.9316248722
 10
-12.7572246573
 20
20.9275338384
 10
-12.7482667788
 20
20.9236507812
 10
-12.7389507876
 20
20.9199844334
 10
-12.7292976459
 20
20.9165430439
 10
-12.7193290519
 20
20.9133343478
 10
-12.7090673875
 20
20.910365551
 10
-12.6985357022
 20
20.9076433266
 10
-12.6877577021
 20
20.9051738065
 10
-12.6767576629
 20
20.9029625546
 10
-12.6655603362
 20
20.9010145459
 10
-12.6541908915
 20
20.8993341588
 10
-12.6426748985
 20
20.8979251723
 10
-12.6310382563
 20
20.8967907551
 10
-12.6193071349
 20
20.8959334585
 10
-12.6075079165
 20
20.8953552105
 10
-12.595667128
 20
20.8950573112
 10
-12.5838114075
 20
20.8950404313
 10
-12.5719674436
 20
20.8953046079
 10
-12.5601618895
 20
20.8958492439
 10
-12.5484212774
 20
20.8966731129
 10
-12.5367719852
 20
20.897774363
 10
-12.5252401259
 20
20.8991505288
 10
-12.5138517211
 20
20.9007985083
 10
-12.5026326062
 20
20.902714554
 10
-12.4916081473
 20
20.90489431
 10
-12.4808029707
 20
20.9073328829
 10
-12.4702411489
 20
20.9100248305
 10
-12.459945608
 20
20.912964348
 10
-12.4499403693
 20
20.9161446164
 10
-12.4402500603
 20
20.9195576963
 10
-12.430896931
 20
20.9231954825
 10
-12.4219010313
 20
20.9270498993
 10
-12.413282318
 20
20.9311121484
  0
LWPOLYLINE
  5
39A
100
AcDbEntity
  8
0
100
AcDbPolyline
 62
250
  6
CONTINUOUS
 90
34
 70
0
 10
-0.4621462851
 20
15.11976981
 10
-0.4535813533
 20
15.1156854555
 10
-0.44463557
 20
15.1118067857
 10
-0.4353285411
 20
15.1081427677
 10
-0.425679356
 20
15.1047014403
 10
-0.4157105689
 20
15.1014913527
 10
-0.4054485774
 20
15.0985212151
 10
-0.3949180159
 20
15.0957980866
 10
-0.3841410952
 20
15.0933276416
 10
-0.3731418578
 20
15.0911153995
 10
-0.3619448876
 20
15.0891663263
 10
-0.3505754949
 20
15.0874848488
 10
-0.3390594772
 20
15.0860747886
 10
-0.3274228408
 20
15.0849393238
 10
-0.3156916569
 20
15.0840809919
 10
-0.3038922344
 20
15.0835017182
 10
-0.2920510787
 20
15.083202808
 10
-0.2801948535
 20
15.0831849385
 10
-0.2683502453
 20
15.0834481522
 10
-0.2565438997
 20
15.0839918583
 10
-0.2448023661
 20
15.0848148357
 10
-0.2331520573
 20
15.0859152343
 10
-0.2216191754
 20
15.0872905807
 10
-0.2102296625
 20
15.0889377826
 10
-0.1990091447
 20
15.0908531349
 10
-0.1879828613
 20
15.0930323297
 10
-0.1771756112
 20
15.0954704665
 10
-0.1666117057
 20
15.0981620612
 10
-0.1563149003
 20
15.1011010618
 10
-0.1463083605
 20
15.1042808569
 10
-0.1366146108
 20
15.1076942883
 10
-0.1272554587
 20
15.1113336753
 10
-0.1182519472
 20
15.1151908334
 10
-0.1096243254
 20
15.1192570862
  0
LWPOLYLINE
  5
39B
100
AcDbEntity
  8
0
100
AcDbPolyline
 62
250
  6
CONTINUOUS
 90
34
 70
0
 10
-12.7658042777
 20
21.2715988064
 10
-12.7572240748
 20
21.2675075077
 10
-12.7482655515
 20
21.2636242083
 10
-12.7389488557
 20
21.2599576436
 10
-12.7292949349
 20
21.2565160592
 10
-12.7193255071
 20
21.2533071995
 10
-12.7090630144
 20
21.2503382882
 10
-12.6985305455
 20
21.2476160044
 10
-12.6877517851
 20
21.2451464689
 10
-12.6767509807
 20
21.2429352367
 10
-12.665552874
 20
21.2409872803
 10
-12.6541826543
 20
21.239306981
 10
-12.6426659048
 20
21.2378981185
 10
-12.6310285314
 20
21.2367638605
 10
-12.6192967076
 20
21.2359067566
 10
-12.6074968244
 20
21.2353287336
 10
-12.5956554163
 20
21.2350310899
 10
-12.5837991226
 20
21.2350144938
 10
-12.5719546321
 20
21.2352789803
 10
-12.5601486174
 20
21.2358239495
 10
-12.5484075979
 20
21.2366481731
 10
-12.5367579038
 20
21.2377498022
 10
-12.52522563
 20
21.2391263758
 10
-12.5138368254
 20
21.2407747909
 10
-12.5026173466
 20
21.2426912982
 10
-12.4915925642
 20
21.2448715412
 10
-12.4807871086
 20
21.247310626
 10
-12.4702250707
 20
21.2500031061
 10
-12.4599286769
 20
21.2529433866
 10
-12.4499226961
 20
21.2561244675
 10
-12.4402337553
 20
21.2595376679
 10
-12.4308845351
 20
21.2631744785
 10
-12.4218941584
 20
21.2670269225
 10
-12.413282318
 20
21.2710860825
  0
LINE
  5
39C
100
AcDbEntity
  8
RACCORDO
100
AcDbLine
 62
7
  6
CONTINUOUS
 10
-14.7151756661
 20
20.4313288908
 11
0.1343090466
 21
13.0065865344
  0
LINE
  5
39D
100
AcDbEntity
  8
DRAFT
100
AcDbLine
 62
7
  6
CONTINUOUS
 10
-9.9281180507
 20
18.0580375264
 11
-3.5641570201
 21
14.876057011
  0
LINE
  5
39E
100
AcDbEntity
  8
0
100
AcDbLine
 62
7
  6
CONTINUOUS
 10
0.7663049167
 20
13.553764329
 11
0.249074323
 21
13.8123796258
  0
LINE
  5
39F
100
AcDbEntity
  8
0
100
AcDbLine
 62
7
  6
CONTINUOUS
 10
-1.4376914012
 20
14.6557624879
 11
-3.6056830995
 21
15.7397583371
  0
LINE
  5
3A0
100
AcDbEntity
  8
0
100
AcDbLine
 62
7
  6
CONTINUOUS
 10
-4.2650929739
 20
16.0694632743
 11
-9.2271820969
 21
18.5505078358
  0
LINE
  5
3A1
100
AcDbEntity
  8
0
100
AcDbLine
 62
7
  6
CONTINUOUS
 10
-9.8865919713
 20
18.880212773
 11
-12.0545836696
 21
19.9642086221
  0
LINE
  5
3A2
100
AcDbEntity
  8
0
100
AcDbLine
 62
7
  6
CONTINUOUS
 10
-13.7413493938
 20
20.8075914843
 11
-14.2585799875
 21
21.0662067811
  0
LINE
  5
3A3
100
AcDbEntity
  8
0
100
AcDbLine
 62
7
  6
CONTINUOUS
 10
-14.3793690517
 20
21.6356754573
 11
-12.7008309813
 21
20.7964064221
  0
LINE
  5
3A4
100
AcDbEntity
  8
0
100
AcDbLine
 62
7
  6
CONTINUOUS
 10
-2.075711059
 20
15.483846461
 11
-0.3971729886
 21
14.6445774258
  0
LINE
  5
3A5
100
AcDbEntity
  8
0
100
AcDbLine
 62
250
  6
CONTINUOUS
 10
-14.4443423481
 20
21.7708939074
 11
-12.7658042777
 21
20.9316248722
  0
LINE
  5
3A6
100
AcDbEntity
  8
0
100
AcDbLine
 62
250
  6
CONTINUOUS
 10
-2.1406843555
 20
15.6190649111
 11
-0.4621462851
 21
14.7797958759
  0
LINE
  5
3A7
100
AcDbEntity
  8
0
100
AcDbLine
 62
7
  6
CONTINUOUS
 10
-4.2650929739
 20
16.8219565237
 11
-5.1886459835
 21
17.2837330285
  0
LINE
  5
3A8
100
AcDbEntity
  8
0
100
AcDbLine
 62
7
  6
CONTINUOUS
 10
-6.8894155249
 20
18.1341177992
 11
-8.5139044884
 21
18.9463622809
  0
LINE
  5
3A9
100
AcDbEntity
  8
0
100
AcDbLine
 62
250
  6
CONTINUOUS
 10
-0.4621462851
 20
15.11976981
 11
-2.1406843555
 21
15.9590388453
  0
LINE
  5
3AA
100
AcDbEntity
  8
0
100
AcDbLine
 62
250
  6
CONTINUOUS
 10
-12.7658042777
 20
21.2715988064
 11
-14.4443423481
 21
22.1108678416
  0
LINE
  5
3AB
100
AcDbEntity
  8
0
100
AcDbLine
 62
7
  6
CONTINUOUS
 10
-6.3925841448
 20
18.2619487338
 11
-5.2472246272
 21
17.6892689751
  0
LINE
  5
3AC
100
AcDbEntity
  8
0
100
AcDbLine
 62
7
  6
CONTINUOUS
 10
1.8452143434
 20
14.1430494897
 11
1.4916564654
 21
14.3198284287
  0
LINE
  5
3AD
100
AcDbEntity
  8
0
100
AcDbLine
 62
7
  6
CONTINUOUS
 10
-2.1870365885
 20
16.1591749557
 11
-2.5388521873
 21
16.3350827551
  0
LINE
  5
3AE
100
AcDbEntity
  8
0
100
AcDbLine
 62
7
  6
CONTINUOUS
 10
-9.8865919713
 20
20.0089526471
 11
-10.8120015272
 21
20.471657425
  0
LINE
  5
3AF
100
AcDbEntity
  8
0
100
AcDbLine
 62
250
  6
CONTINUOUS
 10
-0.2863980291
 20
15.424146625
 11
-1.9649360995
 21
16.2634156602
  0
LINE
  5
3B0
100
AcDbEntity
  8
0
100
AcDbLine
 62
250
  6
CONTINUOUS
 10
-12.5900560217
 20
21.5759756213
 11
-14.2685940921
 21
22.4152446565
  0
LINE
  5
3B1
100
AcDbEntity
  8
0
100
AcDbLine
 62
7
  6
CONTINUOUS
 10
-9.8865919713
 20
20.3263755388
 11
-9.2271820969
 21
19.9966706016
  0
LINE
  5
3B2
100
AcDbEntity
  8
0
100
AcDbLine
 62
7
  6
CONTINUOUS
 10
-4.2650929739
 20
17.51562604
 11
-3.6056830995
 21
17.1859211028
  0
LWPOLYLINE
  5
3B3
100
AcDbEntity
  8
0
100
AcDbPolyline
 62
250
  6
CONTINUOUS
 90
16
 70
0
 10
-14.4443423481
 20
21.7708939074
 10
-14.452521717
 20
21.7751822338
 10
-14.460285954
 20
21.7796598878
 10
-14.4676175174
 20
21.7843168439
 10
-14.4744999889
 20
21.7891427859
 10
-14.4809176188
 20
21.7941267899
 10
-14.4868554724
 20
21.7992573123
 10
-14.4923000708
 20
21.8045226865
 10
-14.4972393211
 20
21.8099111955
 10
-14.5016621259
 20
21.8154107345
 10
-14.5055585427
 20
21.8210089472
 10
-14.5089197982
 20
21.8266932365
 10
-14.5117383233
 20
21.8324508045
 10
-14.514007779
 20
21.8382686973
 10
-14.5157230665
 20
21.844133839
 10
-14.5168803302
 20
21.850033044
  0
LWPOLYLINE
  5
3B4
100
AcDbEntity
  8
0
100
AcDbPolyline
 62
250
  6
CONTINUOUS
 90
16
 70
0
 10
-2.1406843555
 20
15.6190649111
 10
-2.1488664232
 20
15.6233547213
 10
-2.1566325375
 20
15.6278336606
 10
-2.1639652332
 20
15.6324916562
 10
-2.1708480121
 20
15.637318227
 10
-2.1772654044
 20
15.642302524
 10
-2.183202998
 20
15.6474333562
 10
-2.1886474468
 20
15.6526991989
 10
-2.1935864869
 20
15.6580881989
 10
-2.1980089907
 20
15.6635882185
 10
-2.2019050081
 20
15.6691868819
 10
-2.2052657824
 20
15.6748716042
 10
-2.2080837554
 20
15.6806296007
 10
-2.2103525897
 20
15.6864479218
 10
-2.2120671829
 20
15.6923134825
 10
-2.213223679
 20
15.6982130917
  0
LWPOLYLINE
  5
3B5
100
AcDbEntity
  8
0
100
AcDbPolyline
 62
250
  6
CONTINUOUS
 90
18
 70
0
 10
-14.4443423481
 20
22.1108678416
 10
-14.4525249455
 20
22.115157943
 10
-14.4602915442
 20
22.1196372047
 10
-14.4676246736
 20
22.1242955526
 10
-14.4745078424
 20
22.129122513
 10
-14.4809255619
 20
22.1341072269
 10
-14.4868633844
 20
22.1392384732
 10
-14.4923079521
 20
22.1445047077
 10
-14.497247023
 20
22.1498940879
 10
-14.5016694875
 20
22.1553944901
 10
-14.5055654002
 20
22.1609935434
 10
-14.5089259988
 20
22.1666786533
 10
-14.5117437238
 20
22.172437028
 10
-14.5140122399
 20
22.1782557147
 10
-14.5157264476
 20
22.1841216266
 10
-14.5168824936
 20
22.1900215682
 10
-14.517477781
 20
22.1959422723
 10
-14.5175656528
 20
22.1992561892
  0
LWPOLYLINE
  5
3B6
100
AcDbEntity
  8
0
100
AcDbPolyline
 62
250
  6
CONTINUOUS
 90
18
 70
0
 10
-2.1406843555
 20
15.9590388453
 10
-2.1488669528
 20
15.9633289467
 10
-2.1566335515
 20
15.9678082084
 10
-2.163966681
 20
15.9724665563
 10
-2.1708498498
 20
15.9772935167
 10
-2.1772675693
 20
15.9822782305
 10
-2.1832053917
 20
15.9874094769
 10
-2.1886499594
 20
15.9926757114
 10
-2.1935890303
 20
15.9980650916
 10
-2.1980114948
 20
16.0035654938
 10
-2.2019074075
 20
16.0091645471
 10
-2.2052680061
 20
16.014849657
 10
-2.2080857312
 20
16.0206080317
 10
-2.2103542473
 20
16.0264267184
 10
-2.2120684549
 20
16.0322926303
 10
-2.213224501
 20
16.0381925719
 10
-2.2138197884
 20
16.044113276
 10
-2.2139076602
 20
16.0474271929
  0
LWPOLYLINE
  5
3B7
100
AcDbEntity
  8
0
100
AcDbPolyline
 62
250
  6
CONTINUOUS
 90
34
 70
0
 10
-12.5900560217
 20
21.5759756213
 10
-12.5816927389
 20
21.5715006501
 10
-12.5733460712
 20
21.5665465535
 10
-12.5650349256
 20
21.5611245535
 10
-12.5567781287
 20
21.5552469323
 10
-12.5485943841
 20
21.5489270039
 10
-12.5405022297
 20
21.5421790845
 10
-12.5325199961
 20
21.5350184595
 10
-12.5246657648
 20
21.5274613493
 10
-12.5169573275
 20
21.5195248726
 10
-12.5094121455
 20
21.5112270073
 10
-12.5020473103
 20
21.5025865497
 10
-12.4948795048
 20
21.4936230727
 10
-12.4879249659
 20
21.4843568803
 10
-12.481199447
 20
21.4748089626
 10
-12.4747181831
 20
21.4650009478
 10
-12.4684958555
 20
21.4549550532
 10
-12.4625465593
 20
21.4446940351
 10
-12.4568837709
 20
21.4342411369
 10
-12.4515203179
 20
21.4236200367
 10
-12.4464683496
 20
21.4128547939
 10
-12.4417393099
 20
21.401969794
 10
-12.4373439112
 20
21.390989694
 10
-12.43329211
 20
21.3799393664
 10
-12.4295930845
 20
21.3688438424
 10
-12.4262552138
 20
21.3577282562
 10
-12.4232860591
 20
21.3466177868
 10
-12.420692346
 20
21.335537602
 10
-12.4184799499
 20
21.3245128009
 10
-12.4166538824
 20
21.3135683572
 10
-12.41521828
 20
21.3027290625
 10
-12.4141763946
 20
21.2920194702
 10
-12.4135305863
 20
21.2814638399
 10
-12.413282318
 20
21.2710860825
  0
LWPOLYLINE
  5
3B8
100
AcDbEntity
  8
0
100
AcDbPolyline
 62
250
  6
CONTINUOUS
 90
34
 70
0
 10
-0.2863980291
 20
15.424146625
 10
-0.2780484936
 20
15.4196794105
 10
-0.2697119121
 20
15.414732401
 10
-0.2614071564
 20
15.4093161669
 10
-0.2531518902
 20
15.4034414913
 10
-0.2449660795
 20
15.3971218407
 10
-0.2368718319
 20
15.3903739619
 10
-0.2288886732
 20
15.3832142459
 10
-0.221033474
 20
15.3756579378
 10
-0.2133238879
 20
15.3677220052
 10
-0.2057772909
 20
15.359424294
 10
-0.1984108952
 20
15.3507836886
 10
-0.1912415533
 20
15.3418199438
 10
-0.1842855717
 20
15.33255346
 10
-0.1775586414
 20
15.3230051535
 10
-0.1710759606
 20
15.313196596
 10
-0.1648522034
 20
15.3031499805
 10
-0.1589014928
 20
15.292888095
 10
-0.1532373252
 20
15.2824342082
 10
-0.1478725389
 20
15.271812011
 10
-0.1428192882
 20
15.2610455655
 10
-0.1380890261
 20
15.2501592692
 10
-0.1336924715
 20
15.2391777868
 10
-0.1296395887
 20
15.2281260019
 10
-0.1259395651
 20
15.2170289644
 10
-0.1226007857
 20
15.2059118203
 10
-0.119630816
 20
15.1947997579
 10
-0.1170363871
 20
15.1837179589
 10
-0.1148233771
 20
15.1726915283
 10
-0.1129968024
 20
15.1617454558
 10
-0.1115608044
 20
15.1509045625
 10
-0.1105186357
 20
15.1401934182
 10
-0.1098726553
 20
15.129636286
 10
-0.1096243254
 20
15.1192570862
  0
LWPOLYLINE
  5
3B9
100
AcDbEntity
  8
0
100
AcDbPolyline
 62
7
  6
CONTINUOUS
 90
40
 70
0
 10
1.8454789807
 20
14.1429171711
 10
1.8594452328
 20
14.135403493
 10
1.8734230517
 20
14.1272052973
 10
1.8873900676
 20
14.1183331099
 10
1.9013295783
 20
14.1087953609
 10
1.9152130596
 20
14.0986076826
 10
1.9290004653
 20
14.0877951861
 10
1.942661286
 20
14.0763815783
 10
1.9561814948
 20
14.0643789361
 10
1.9695459533
 20
14.0517973959
 10
1.9827418171
 20
14.0386460926
 10
1.9957374034
 20
14.0249539853
 10
2.0084902509
 20
14.0107637035
 10
2.0209680583
 20
13.9961132981
 10
2.0331631105
 20
13.9810141836
 10
2.045070437
 20
13.9654707002
 10
2.0566801414
 20
13.9494926588
 10
2.0679616811
 20
13.9331189308
 10
2.0788800464
 20
13.9163983661
 10
2.0894077368
 20
13.8993756663
 10
2.0995389419
 20
13.8820625928
 10
2.1092717504
 20
13.8644593752
 10
2.1185984085
 20
13.8465754922
 10
2.1274919888
 20
13.8284569314
 10
2.1359228194
 20
13.8101590222
 10
2.1438706789
 20
13.7917289509
 10
2.1513306611
 20
13.7731794246
 10
2.1582973253
 20
13.7545146892
 10
2.1647641705
 20
13.7357480843
 10
2.1707118082
 20
13.7169259252
 10
2.1761168598
 20
13.698101884
 10
2.1809699909
 20
13.6793176044
 10
2.1852651866
 20
13.6605913758
 10
2.1889869743
 20
13.6419416864
 10
2.1921332811
 20
13.623401638
 10
2.1946946672
 20
13.6049967526
 10
2.1966446132
 20
13.5867340508
 10
2.197971259
 20
13.5686351157
 10
2.1986783444
 20
13.5507357681
 10
2.1987632466
 20
13.5330641445
  0
LWPOLYLINE
  5
3BA
100
AcDbEntity
  8
0
100
AcDbPolyline
 62
7
  6
CONTINUOUS
 90
7
 70
0
 10
-2.0755991642
 20
15.4837906069
 10
-2.0958497535
 20
15.4951072748
 10
-2.1181853109
 20
15.5107348967
 10
-2.138823254
 20
15.5288348526
 10
-2.157364532
 20
15.5491043041
 10
-2.1735966056
 20
15.5713263101
 10
-2.1874066556
 20
15.5954345147
  0
LWPOLYLINE
  5
3BB
100
AcDbEntity
  8
0
100
AcDbPolyline
 62
7
  6
CONTINUOUS
 90
10
 70
0
 10
-14.3793690517
 20
21.6356754573
 10
-14.4036940031
 20
21.6495946993
 10
-14.4265151747
 20
21.6663187393
 10
-14.4474187814
 20
21.6856364889
 10
-14.4659438183
 20
21.7071438431
 10
-14.4819087045
 20
21.7306080754
 10
-14.495267885
 20
21.7560752133
 10
-14.5057334861
 20
21.7832817381
 10
-14.5129948126
 20
21.8116954502
 10
-14.5168957081
 20
21.84099227
  0
LWPOLYLINE
  5
3BC
100
AcDbEntity
  8
0
100
AcDbPolyline
 62
250
  6
CONTINUOUS
 90
3
 70
0
 10
-2.0833210378
 20
15.4881042577
 10
-2.0775203519
 20
15.4847757749
 10
-2.075711059
 20
15.483846461
  0
LWPOLYLINE
  5
3BD
100
AcDbEntity
  8
RACCORDO
100
AcDbPolyline
 62
250
  6
CONTINUOUS
 90
16
 70
0
 10
-4.6110726811
 20
-16.6940166378
 10
-4.6501572154
 20
-16.7092552142
 10
-4.6924741677
 20
-16.7224174666
 10
-4.737575214
 20
-16.7333639484
 10
-4.7849825345
 20
-16.7419786879
 10
-4.8341938756
 20
-16.7481704167
 10
-4.8846878713
 20
-16.7518735372
 10
-4.9359295663
 20
-16.7530488168
 10
-4.9873760842
 20
-16.7516838042
 10
-5.0384823784
 20
-16.7477929608
 10
-5.0887070069
 20
-16.7414175079
 10
-5.1375178684
 20
-16.7326249898
 10
-5.1843978395
 20
-16.7215085583
 10
-5.2288502539
 20
-16.7081859855
 10
-5.2704041633
 20
-16.6927984166
 10
-5.3086193279
 20
-16.675508874
  0
LINE
  5
3BE
100
AcDbEntity
  8
0
100
AcDbLine
 62
7
  6
CONTINUOUS
 10
-0.3364678189
 20
14.6234619913
 11
0.2877277781
 21
14.4931293715
  0
LINE
  5
3BF
100
AcDbEntity
  8
0
100
AcDbLine
 62
250
  6
CONTINUOUS
 10
-0.1096243254
 20
14.7792831521
 11
0.6015962827
 21
14.6307796292
  0
LWPOLYLINE
  5
3C0
100
AcDbEntity
  8
0
100
AcDbPolyline
 62
250
  6
CONTINUOUS
 90
16
 70
0
 10
-5.0480473787
 20
18.7608488321
 10
-5.0548347534
 20
18.7639880846
 10
-5.0616048938
 20
18.7667287149
 10
-5.06834246
 20
18.7690645116
 10
-5.0750321894
 20
18.7709901817
 10
-5.0816589201
 20
18.7725013587
 10
-5.0882076249
 20
18.7735946152
 10
-5.0946634625
 20
18.7742674746
 10
-5.1010118084
 20
18.7745184135
 10
-5.1072382768
 20
18.7743468639
 10
-5.1133287612
 20
18.7737532154
 10
-5.1192694605
 20
18.7727388139
 10
-5.1250469097
 20
18.7713059602
 10
-5.1306480175
 20
18.7694579034
 10
-5.1360600953
 20
18.7671988324
 10
-5.1389339481
 20
18.7657921306
  0
LWPOLYLINE
  5
3C1
100
AcDbEntity
  8
0
100
AcDbPolyline
 62
7
  6
CONTINUOUS
 90
17
 70
0
 10
-4.8369510211
 20
18.8697728181
 10
-4.8431194185
 20
18.8726923403
 10
-4.8492762686
 20
18.8752765394
 10
-4.8554097556
 20
18.8775205438
 10
-4.861508026
 20
18.879420172
 10
-4.8675594682
 20
18.8809718071
 10
-4.8735527347
 20
18.8821724034
 10
-4.8794763473
 20
18.8830197091
 10
-4.8853189397
 20
18.883512155
 10
-4.8910695368
 20
18.8836487243
 10
-4.8967171355
 20
18.8834291836
 10
-4.902250906
 20
18.8828539887
 10
-4.9076604338
 20
18.8819241694
 10
-4.9129353794
 20
18.8806415149
 10
-4.918065635
 20
18.8790084987
 10
-4.9230415253
 20
18.87702818
 10
-4.9255431378
 20
18.8758728928
  0
LWPOLYLINE
  5
3C2
100
AcDbEntity
  8
0
100
AcDbPolyline
 62
250
  6
CONTINUOUS
 90
31
 70
0
 10
-6.8894155249
 20
19.3677321509
 10
-6.8818635187
 20
19.3641478138
 10
-6.8739486507
 20
19.3607648584
 10
-6.8656923745
 20
19.3575924543
 10
-6.8571170694
 20
19.3546392006
 10
-6.8482459794
 20
19.3519131022
 10
-6.8391031502
 20
19.3494215485
 10
-6.8297133639
 20
19.347171293
 10
-6.8201020722
 20
19.3451684351
 10
-6.8102953272
 20
19.3434184036
 10
-6.8003197108
 20
19.3419259423
 10
-6.7902022625
 20
19.3406950965
 10
-6.7799704063
 20
19.3397292025
 10
-6.7696518763
 20
19.3390308784
 10
-6.7592746417
 20
19.338602017
 10
-6.7488668306
 20
19.3384437809
 10
-6.7384566541
 20
19.3385565989
 10
-6.7280723296
 20
19.3389401653
 10
-6.7177420047
 20
19.3395934403
 10
-6.7074936802
 20
19.3405146532
 10
-6.6973551351
 20
19.341701307
 10
-6.6873538505
 20
19.3431501853
 10
-6.6775169355
 20
19.3448573606
 10
-6.6678710538
 20
19.3468182056
 10
-6.6584423511
 20
19.3490274053
 10
-6.6492563847
 20
19.3514789715
 10
-6.6403380537
 20
19.3541662591
 10
-6.6317115318
 20
19.357081984
 10
-6.6234002019
 20
19.360218243
 10
-6.6154265922
 20
19.3635665349
 10
-6.6078123159
 20
19.3671177841
  0
LINE
  5
3C3
100
AcDbEntity
  8
0
100
AcDbLine
 62
7
  6
CONTINUOUS
 10
0.2546325908
 20
17.3463491113
 11
0.2632051999
 21
17.3422569956
  0
LWPOLYLINE
  5
3C4
100
AcDbEntity
  8
0
100
AcDbPolyline
 62
250
  6
CONTINUOUS
 90
16
 70
0
 10
0.2630453419
 20
17.3423371152
 10
0.260965665
 20
17.3433451085
 10
0.2542709317
 20
17.346178155
 10
0.2473444555
 20
17.3484996538
 10
0.2402017451
 20
17.3503043938
 10
0.2328589276
 20
17.3515882871
 10
0.2253326809
 20
17.3523484308
 10
0.2176400467
 20
17.3525831451
 10
0.2097982341
 20
17.3522919454
 10
0.2018247351
 20
17.3514754956
 10
0.1937362577
 20
17.3501353912
 10
0.1855521864
 20
17.3482747299
 10
0.1772945156
 20
17.345898835
 10
0.1689830949
 20
17.3430141644
 10
0.1606354626
 20
17.339627546
 10
0.1522703823
 20
17.3357472241
  0
LWPOLYLINE
  5
3C5
100
AcDbEntity
  8
0
100
AcDbPolyline
 62
250
  6
CONTINUOUS
 90
16
 70
0
 10
1.953924893
 20
16.4968973397
 10
1.9518624326
 20
16.4978972466
 10
1.9451691245
 20
16.5007313228
 10
1.938244106
 20
16.5030539811
 10
1.9311029486
 20
16.5048599989
 10
1.9237617096
 20
16.5061453153
 10
1.9162368964
 20
16.5069070401
 10
1.9085454291
 20
16.5071434606
 10
1.9007046026
 20
16.506854045
 10
1.8927320475
 20
16.5060394443
 10
1.8846456908
 20
16.50470149
 10
1.8764637152
 20
16.5028431906
 10
1.8682045185
 20
16.5004687248
 10
1.8598866721
 20
16.4975834317
 10
1.8515288794
 20
16.4941937989
 10
1.8431499335
 20
16.4903074485
  0
LWPOLYLINE
  5
3C6
100
AcDbEntity
  8
0
100
AcDbPolyline
 62
250
  6
CONTINUOUS
 90
16
 70
0
 10
-10.3497330996
 20
22.648726336
 10
-10.35179556
 20
22.649726243
 10
-10.3584888681
 20
22.6525603191
 10
-10.3654138866
 20
22.6548829774
 10
-10.3725550441
 20
22.6566889953
 10
-10.379896283
 20
22.6579743117
 10
-10.3874210962
 20
22.6587360365
 10
-10.3951125635
 20
22.6589724569
 10
-10.40295339
 20
22.6586830414
 10
-10.4109259451
 20
22.6578684406
 10
-10.4190123019
 20
22.6565304863
 10
-10.4271942775
 20
22.654672187
 10
-10.4354534742
 20
22.6522977211
 10
-10.4437713205
 20
22.649412428
 10
-10.4521291132
 20
22.6460227953
 10
-10.4605080592
 20
22.6421364449
  0
LWPOLYLINE
  5
3C7
100
AcDbEntity
  8
0
100
AcDbPolyline
 62
250
  6
CONTINUOUS
 90
3
 70
0
 10
-12.0406126507
 20
23.4941661116
 10
-12.0426751112
 20
23.4951660185
 10
-12.0493684193
 20
23.4980000947
  0
LINE
  5
3C8
100
AcDbEntity
  8
0
100
AcDbLine
 62
7
  6
CONTINUOUS
 10
-5.2472246272
 20
18.3875812467
 11
-5.6958982393
 21
18.6119180527
  0
LINE
  5
3C9
100
AcDbEntity
  8
0
100
AcDbLine
 62
7
  6
CONTINUOUS
 10
2.5461502972
 20
14.4946499056
 11
1.4916564654
 21
15.0218968215
  0
LINE
  5
3CA
100
AcDbEntity
  8
0
100
AcDbLine
 62
7
  6
CONTINUOUS
 10
-10.1090085729
 20
20.8222293407
 11
-10.8120015272
 21
21.1737258178
  0
LINE
  5
3CB
100
AcDbEntity
  8
0
100
AcDbLine
 62
7
  6
CONTINUOUS
 10
-5.6966785239
 20
18.7219917031
 11
-5.2472246272
 21
18.4972647548
  0
LINE
  5
3CC
100
AcDbEntity
  8
0
100
AcDbLine
 62
250
  6
CONTINUOUS
 10
-3.7336469088
 20
17.7898478428
 11
-5.1886459835
 21
18.5173473801
  0
LINE
  5
3CD
100
AcDbEntity
  8
0
100
AcDbLine
 62
250
  6
CONTINUOUS
 10
-6.8894155249
 20
19.3677321509
 11
-8.5139044884
 21
20.1799766326
  0
LINE
  5
3CE
100
AcDbEntity
  8
0
100
AcDbLine
 62
250
  6
CONTINUOUS
 10
-3.4247854007
 20
17.9492178431
 11
-5.0480473787
 21
18.7608488321
  0
LINE
  5
3CF
100
AcDbEntity
  8
0
100
AcDbLine
 62
250
  6
CONTINUOUS
 10
-6.7488169202
 20
19.6112336028
 11
-8.3720788981
 21
20.4228645918
  0
LINE
  5
3D0
100
AcDbEntity
  8
0
100
AcDbLine
 62
7
  6
CONTINUOUS
 10
-8.8321025399
 20
20.8673485774
 11
-6.5340037061
 21
19.7182991605
  0
LINE
  5
3D1
100
AcDbEntity
  8
0
100
AcDbLine
 62
7
  6
CONTINUOUS
 10
-4.8369510211
 20
18.8697728181
 11
-2.5388521873
 21
17.7207234012
  0
LINE
  5
3D2
100
AcDbEntity
  8
0
100
AcDbLine
 62
7
  6
CONTINUOUS
 10
1.3148827617
 20
16.2268686285
 11
-0.3821794963
 21
17.0753997576
  0
LINE
  5
3D3
100
AcDbEntity
  8
0
100
AcDbLine
 62
7
  6
CONTINUOUS
 10
-10.9887752309
 20
22.3786976248
 11
-12.685837489
 21
23.2272287539
  0
LINE
  5
3D4
100
AcDbEntity
  8
0
100
AcDbLine
 62
7
  6
CONTINUOUS
 10
-7.4920501651
 20
20.8853339407
 11
-5.8471019207
 21
20.0628598185
  0
LINE
  5
3D5
100
AcDbEntity
  8
0
100
AcDbLine
 62
7
  6
CONTINUOUS
 10
-4.1379546861
 20
19.2082862012
 11
-2.4930064417
 21
18.385812079
  0
LINE
  5
3D6
100
AcDbEntity
  8
0
100
AcDbLine
 62
250
  6
CONTINUOUS
 10
-12.1513876103
 20
23.4875762204
 11
-10.4605080592
 21
22.6421364449
  0
LINE
  5
3D7
100
AcDbEntity
  8
0
100
AcDbLine
 62
250
  6
CONTINUOUS
 10
0.1522703823
 20
17.3357472241
 11
1.8431499335
 21
16.4903074485
  0
LINE
  5
3D8
100
AcDbEntity
  8
0
100
AcDbLine
 62
7
  6
CONTINUOUS
 10
-12.0406126507
 20
23.4941661116
 11
-10.3497330996
 21
22.648726336
  0
LINE
  5
3D9
100
AcDbEntity
  8
0
100
AcDbLine
 62
7
  6
CONTINUOUS
 10
0.2630453419
 20
17.3423371152
 11
1.953924893
 21
16.4968973397
  0
LWPOLYLINE
  5
3DA
100
AcDbEntity
  8
0
100
AcDbPolyline
 62
250
  6
CONTINUOUS
 90
34
 70
0
 10
-10.4605080592
 20
22.6421364449
 10
-10.4520631417
 20
22.6377169213
 10
-10.4436359997
 20
22.6328151921
 10
-10.4352457161
 20
22.6274417219
 10
-10.4269101435
 20
22.6216071996
 10
-10.4186494492
 20
22.6153249907
 10
-10.4104859463
 20
22.6086117396
 10
-10.4024393264
 20
22.6014837542
 10
-10.3945265932
 20
22.5939562131
 10
-10.3867655298
 20
22.5860460191
 10
-10.3791736284
 20
22.5777709601
 10
-10.3717682051
 20
22.5691498686
 10
-10.3645662018
 20
22.5602024545
 10
-10.3575839991
 20
22.5509490812
 10
-10.350837347
 20
22.5414106355
 10
-10.3443414884
 20
22.5316086669
 10
-10.3381111272
 20
22.5215653535
 10
-10.3321604015
 20
22.5113034756
 10
-10.3265028079
 20
22.5008463018
 10
-10.3211511696
 20
22.4902175306
 10
-10.3161176113
 20
22.4794412388
 10
-10.3114135414
 20
22.4685418465
 10
-10.3070496195
 20
22.4575440478
 10
-10.3030357359
 20
22.4464727632
 10
-10.2993809897
 20
22.435353087
 10
-10.2960936633
 20
22.4242102164
 10
-10.2931812057
 20
22.4130693979
 10
-10.2906502175
 20
22.4019558786
 10
-10.2885064334
 20
22.390894835
 10
-10.2867547126
 20
22.3799113356
 10
-10.2853990268
 20
22.3690302862
 10
-10.2844424467
 20
22.3582763476
 10
-10.2838871374
 20
22.3476738799
 10
-10.2837343555
 20
22.3372469061
  0
LWPOLYLINE
  5
3DB
100
AcDbEntity
  8
0
100
AcDbPolyline
 62
250
  6
CONTINUOUS
 90
34
 70
0
 10
1.8431499335
 20
16.4903074485
 10
1.8515948509
 20
16.485887925
 10
1.8600219929
 20
16.4809861958
 10
1.8684122765
 20
16.4756127256
 10
1.8767478492
 20
16.4697782032
 10
1.8850085434
 20
16.4634959944
 10
1.8931720464
 20
16.4567827433
 10
1.9012186662
 20
16.4496547579
 10
1.9091313995
 20
16.4421272168
 10
1.9168924629
 20
16.4342170228
 10
1.9244843642
 20
16.4259419638
 10
1.9318897875
 20
16.4173208722
 10
1.9390917908
 20
16.4083734582
 10
1.9460739936
 20
16.3991200849
 10
1.9528206456
 20
16.3895816392
 10
1.9593165043
 20
16.3797796706
 10
1.9655468655
 20
16.3697363572
 10
1.9714975911
 20
16.3594744793
 10
1.9771551848
 20
16.3490173055
 10
1.9825068231
 20
16.3383885342
 10
1.9875403814
 20
16.3276122425
 10
1.9922444512
 20
16.3167128502
 10
1.9966083731
 20
16.3057150514
 10
2.0006222567
 20
16.2946437669
 10
2.0042770029
 20
16.2835240907
 10
2.0075643293
 20
16.2723812201
 10
2.010476787
 20
16.2612404016
 10
2.0130077751
 20
16.2501268822
 10
2.0151515592
 20
16.2390658387
 10
2.01690328
 20
16.2280823393
 10
2.0182589658
 20
16.2172012899
 10
2.0192155459
 20
16.2064473513
 10
2.0197708553
 20
16.1958448835
 10
2.0199236372
 20
16.1854179097
  0
LWPOLYLINE
  5
3DC
100
AcDbEntity
  8
0
100
AcDbPolyline
 62
250
  6
CONTINUOUS
 90
16
 70
0
 10
-5.1886459835
 20
18.5173473801
 10
-5.1958146576
 20
18.5211233832
 10
-5.2025805685
 20
18.5250808173
 10
-5.2089253766
 20
18.5292089554
 10
-5.214831884
 20
18.5334966079
 10
-5.2202840807
 20
18.5379321529
 10
-5.2252671882
 20
18.5425035675
 10
-5.2297676993
 20
18.5471984607
 10
-5.2337734151
 20
18.5520041065
 10
-5.2372734779
 20
18.556907479
 10
-5.2402584006
 20
18.5618952872
 10
-5.2427200922
 20
18.5669540114
 10
-5.2446518802
 20
18.5720699395
 10
-5.2460485285
 20
18.5772292045
 10
-5.2469062512
 20
18.5824178218
 10
-5.2472246272
 20
18.5880580583
  0
LWPOLYLINE
  5
3DD
100
AcDbEntity
  8
0
100
AcDbPolyline
 62
7
  6
CONTINUOUS
 90
37
 70
0
 10
-6.5340037061
 20
19.7182991605
 10
-6.5278349941
 20
19.715050128
 10
-6.5216782093
 20
19.7114775098
 10
-6.5155449716
 20
19.7075881518
 10
-6.5094467718
 20
19.7033895449
 10
-6.5033952137
 20
19.6988896799
 10
-6.4974019925
 20
19.6940970323
 10
-6.491478444
 20
19.6890207574
 10
-6.4856357518
 20
19.683670561
 10
-6.4798851904
 20
19.6780565511
 10
-6.4742376482
 20
19.67218944
 10
-6.4687037957
 20
19.6660804335
 10
-6.4632942934
 20
19.6597410992
 10
-6.4580193958
 20
19.6531835232
 10
-6.4528890773
 20
19.6464202199
 10
-6.4479132019
 20
19.6394640183
 10
-6.4431012145
 20
19.632328172
 10
-6.4384622224
 20
19.6250262894
 10
-6.4340051238
 20
19.6175722414
 10
-6.429738392
 20
19.6099802217
 10
-6.4256701116
 20
19.6022647
 10
-6.4218080621
 20
19.5944403512
 10
-6.4181596002
 20
19.5865220663
 10
-6.414731649
 20
19.5785249283
 10
-6.4115307358
 20
19.5704641644
 10
-6.4085629748
 20
19.5623551076
 10
-6.4058340093
 20
19.5542131961
 10
-6.4033490025
 20
19.546053948
 10
-6.4011127214
 20
19.5378928761
 10
-6.3991294327
 20
19.5297455089
 10
-6.3974028476
 20
19.5216273897
 10
-6.395936304
 20
19.5135539451
 10
-6.3947326195
 20
19.5055405284
 10
-6.3937939896
 20
19.4976024413
 10
-6.3931222048
 20
19.4897547914
 10
-6.392718647
 20
19.4820124629
 10
-6.3925841448
 20
19.4743901614
  0
LWPOLYLINE
  5
3DE
100
AcDbEntity
  8
0
100
AcDbPolyline
 62
7
  6
CONTINUOUS
 90
34
 70
0
 10
-10.9887752309
 20
22.3786976248
 10
-10.9803641555
 20
22.3742467104
 10
-10.9719719379
 20
22.36931554
 10
-10.9636176901
 20
22.3639152304
 10
-10.9553205162
 20
22.3580579218
 10
-10.9470992178
 20
22.3517568769
 10
-10.938972252
 20
22.3450264519
 10
-10.9309580866
 20
22.337881861
 10
-10.9230749673
 20
22.3303392417
 10
-10.9153406251
 20
22.3224157447
 10
-10.9077726175
 20
22.3141292986
 10
-10.9003881606
 20
22.3054986372
 10
-10.893203898
 20
22.2965433576
 10
-10.8862361194
 20
22.2872837371
 10
-10.8795006602
 20
22.2777407251
 10
-10.8730127374
 20
22.2679359653
 10
-10.8667870408
 20
22.2578916713
 10
-10.8608377029
 20
22.2476305812
 10
-10.8551782035
 20
22.2371759443
 10
-10.8498213331
 20
22.2265514579
 10
-10.8447792334
 20
22.2157811857
 10
-10.8400633723
 20
22.2048895083
 10
-10.8356843805
 20
22.1939011243
 10
-10.8316521615
 20
22.1828409325
 10
-10.8279759376
 20
22.1717339481
 10
-10.8246639633
 20
22.1606053673
 10
-10.8217237025
 20
22.1494804172
 10
-10.8191619438
 20
22.1383842373
 10
-10.8169843979
 20
22.1273420087
 10
-10.815195937
 20
22.1163787725
 10
-10.8138007787
 20
22.1055192808
 10
-10.8128020751
 20
22.0947881355
 10
-10.8122019061
 20
22.0842097332
 10
-10.8120015272
 20
22.073808086
  0
LWPOLYLINE
  5
3DF
100
AcDbEntity
  8
0
100
AcDbPolyline
 62
7
  6
CONTINUOUS
 90
34
 70
0
 10
1.3148827617
 20
16.2268686285
 10
1.3232938372
 20
16.2224177141
 10
1.3316860548
 20
16.2174865437
 10
1.3400403025
 20
16.2120862341
 10
1.3483374765
 20
16.2062289254
 10
1.3565587749
 20
16.1999278806
 10
1.3646857407
 20
16.1931974555
 10
1.372699906
 20
16.1860528647
 10
1.3805830254
 20
16.1785102454
 10
1.3883173676
 20
16.1705867484
 10
1.3958853751
 20
16.1623003022
 10
1.4032698321
 20
16.1536696409
 10
1.4104540946
 20
16.1447143613
 10
1.4174218733
 20
16.1354547408
 10
1.4241573325
 20
16.1259117288
 10
1.4306452552
 20
16.116106969
 10
1.4368709518
 20
16.106062675
 10
1.4428202898
 20
16.0958015849
 10
1.4484797892
 20
16.085346948
 10
1.4538366596
 20
16.0747224616
 10
1.4588787592
 20
16.0639521893
 10
1.4635946204
 20
16.053060512
 10
1.4679736122
 20
16.042072128
 10
1.4720058311
 20
16.0310119362
 10
1.475682055
 20
16.0199049518
 10
1.4789940293
 20
16.008776371
 10
1.4819342902
 20
15.9976514208
 10
1.4844960488
 20
15.986555241
 10
1.4866735947
 20
15.9755130123
 10
1.4884620556
 20
15.9645497762
 10
1.4898572139
 20
15.9536902845
 10
1.4908559176
 20
15.9429591392
 10
1.4914560865
 20
15.9323807369
 10
1.4916564654
 20
15.9219790897
  0
LWPOLYLINE
  5
3E0
100
AcDbEntity
  8
0
100
AcDbPolyline
 62
250
  6
CONTINUOUS
 90
34
 70
0
 10
-6.7488169202
 20
19.6112336028
 10
-6.7421451336
 20
19.6076432747
 10
-6.7354865911
 20
19.6036695636
 10
-6.7288563799
 20
19.5993214716
 10
-6.7222695192
 20
19.5946088466
 10
-6.7157409378
 20
19.5895423675
 10
-6.7092854402
 20
19.5841335229
 10
-6.7029176566
 20
19.5783945717
 10
-6.6966520121
 20
19.5723385153
 10
-6.6905027049
 20
19.5659790779
 10
-6.684483667
 20
19.5593306683
 10
-6.6786085373
 20
19.5524083523
 10
-6.6728906324
 20
19.5452278215
 10
-6.6673429085
 20
19.5378053488
 10
-6.6619779334
 20
19.5301577514
 10
-6.6568078628
 20
19.522302359
 10
-6.6518444065
 20
19.5142569655
 10
-6.6470988133
 20
19.5060398065
 10
-6.6425818444
 20
19.4976695198
 10
-6.6383037433
 20
19.4891650968
 10
-6.6342741871
 20
19.4805457838
 10
-6.6305022794
 20
19.4718310551
 10
-6.6269965385
 20
19.4630405773
 10
-6.6237649442
 20
19.4541943439
 10
-6.6208148772
 20
19.4453125769
 10
-6.6181530383
 20
19.4364155138
 10
-6.6157854036
 20
19.4275231999
 10
-6.6137172872
 20
19.4186556218
 10
-6.6119531252
 20
19.4098315065
 10
-6.6104972595
 20
19.4010722279
 10
-6.6093534311
 20
19.3924014913
 10
-6.6085239111
 20
19.3838400705
 10
-6.6080099601
 20
19.3754058753
 10
-6.6078123159
 20
19.3671177841
  0
LWPOLYLINE
  5
3E1
100
AcDbEntity
  8
0
100
AcDbPolyline
 62
7
  6
CONTINUOUS
 90
10
 70
0
 10
-10.3497330996
 20
22.648726336
 10
-10.3214270039
 20
22.6321673884
 10
-10.2951198986
 20
22.6116809851
 10
-10.271504904
 20
22.5875633534
 10
-10.2512429008
 20
22.5603104748
 10
-10.2348139167
 20
22.5304610344
 10
-10.2225374111
 20
22.4984641783
 10
-10.2146859889
 20
22.4646765418
 10
-10.2115864693
 20
22.4301178283
 10
-10.2115365035
 20
22.4251445548
  0
LWPOLYLINE
  5
3E2
100
AcDbEntity
  8
0
100
AcDbPolyline
 62
7
  6
CONTINUOUS
 90
10
 70
0
 10
1.953924893
 20
16.4968973397
 10
1.9822309888
 20
16.480338392
 10
2.008538094
 20
16.4598519887
 10
2.0321530887
 20
16.4357343571
 10
2.0524150918
 20
16.4084814784
 10
2.0688440759
 20
16.3786320381
 10
2.0811205816
 20
16.3466351819
 10
2.0889720038
 20
16.3128475455
 10
2.0920715233
 20
16.278288832
 10
2.0921214892
 20
16.2733155585
  0
LINE
  5
3E3
100
AcDbEntity
  8
0
100
AcDbLine
 62
250
  6
CONTINUOUS
 10
8.7933165638
 20
20.0457535072
 11
8.3993306299
 21
21.0679093252
  0
LINE
  5
3E4
100
AcDbEntity
  8
0
100
AcDbLine
 62
7
  6
CONTINUOUS
 10
9.938020892
 20
18.502387189
 11
9.7365215341
 21
19.0981116148
  0
LWPOLYLINE
  5
3E5
100
AcDbEntity
  8
RACCORDO
100
AcDbPolyline
 62
250
  6
CONTINUOUS
 90
37
 70
0
 10
18.2151500305
 20
18.0074494065
 10
18.2149201017
 20
18.0454516808
 10
18.2140116184
 20
18.083769232
 10
18.2124249724
 20
18.1223838009
 10
18.2101608474
 20
18.161276898
 10
18.2072203223
 20
18.2004300832
 10
18.2036048593
 20
18.2398249793
 10
18.1993161325
 20
18.2794429438
 10
18.1943561472
 20
18.3192649932
 10
18.1887273428
 20
18.3592720827
 10
18.182432392
 20
18.3994451063
 10
18.1754742505
 20
18.4397649919
 10
18.1678562658
 20
18.4802126292
 10
18.1595820522
 20
18.5207687689
 10
18.1506555223
 20
18.5614141012
 10
18.1410809386
 20
18.6021293506
 10
18.130862846
 20
18.6428951734
 10
18.1200060946
 20
18.6836921366
 10
18.1085158678
 20
18.7245007965
 10
18.09639764
 20
18.7653017404
 10
18.0836571697
 20
18.8060755518
 10
18.0703005221
 20
18.8468027892
 10
18.0563340804
 20
18.8874640548
 10
18.0417644837
 20
18.9280400321
 10
18.0265986198
 20
18.9685114514
 10
18.0108437291
 20
19.0088590687
 10
17.9945073177
 20
19.0490636931
 10
17.9775970919
 20
19.0891062238
 10
17.9601211027
 20
19.1289676855
 10
17.9420877059
 20
19.1686290604
 10
17.9235054771
 20
19.208071317
 10
17.9043833578
 20
19.2472755973
 10
17.8847304252
 20
19.2862233794
 10
17.8645558441
 20
19.324896305
 10
17.8438691728
 20
19.3632760421
 10
17.8226803684
 20
19.4013442982
 10
17.8009995549
 20
19.4390829812
  0
LINE
  5
3E6
100
AcDbEntity
  8
RACCORDO
100
AcDbLine
 62
250
  6
CONTINUOUS
 10
18.2151500305
 20
-12.3376308393
 11
18.2151500305
 21
12.4275824329
  0
LINE
  5
3E7
100
AcDbEntity
  8
RACCORDO
100
AcDbLine
 62
250
  6
CONTINUOUS
 10
18.2151500305
 20
14.2000509059
 11
18.2151500305
 21
18.0074494065
  0
LWPOLYLINE
  5
3E8
100
AcDbEntity
  8
RACCORDO
100
AcDbPolyline
 62
7
  6
CONTINUOUS
 90
7
 70
0
 10
18.495810748
 20
12.1867636193
 10
18.4958628235
 20
12.1885361469
 10
18.4960632948
 20
12.1906075668
 10
18.4963372299
 20
12.1922096494
 10
18.4966084088
 20
12.1933314955
 10
18.4967902276
 20
12.1939156215
 10
18.4968114604
 20
12.19397316
  0
LINE
  5
3E9
100
AcDbEntity
  8
0
100
AcDbLine
 62
250
  6
CONTINUOUS
 10
0.2485600947
 20
-25.5430546721
 11
-0.3737579374
 21
-26.2881140896
  0
LINE
  5
3EA
100
AcDbEntity
  8
0
100
AcDbLine
 62
250
  6
CONTINUOUS
 10
0.6015962827
 20
-25.6688245102
 11
-0.1096243254
 21
-26.5203209873
  0
LINE
  5
3EB
100
AcDbEntity
  8
RACCORDO
100
AcDbLine
 62
250
  6
CONTINUOUS
 10
-0.6296638781
 20
-19.8016648103
 11
-0.8842641945
 21
-19.9192476735
  0
LINE
  5
3EC
100
AcDbEntity
  8
RACCORDO
100
AcDbLine
 62
7
  6
CONTINUOUS
 10
-0.8188797139
 20
-20.1837567039
 11
-0.8968543192
 21
-20.2197679606
  0
LWPOLYLINE
  5
3ED
100
AcDbEntity
  8
0
100
AcDbPolyline
 62
7
  6
CONTINUOUS
 90
41
 70
0
 10
-12.0159305292
 20
20.6449612465
 10
-12.0101124201
 20
20.6438413616
 10
-12.0020791318
 20
20.6426060764
 10
-11.993918193
 20
20.6417003022
 10
-11.9856417056
 20
20.6411106567
 10
-11.9772635778
 20
20.6408377318
 10
-11.9687974226
 20
20.6408813404
 10
-11.9602544012
 20
20.6412267392
 10
-11.9516477241
 20
20.6418737071
 10
-11.9429902712
 20
20.6428214973
 10
-11.934292194
 20
20.6440544543
 10
-11.9255659153
 20
20.6455716636
 10
-11.9168235164
 20
20.6473718967
 10
-11.9080741315
 20
20.6494389663
 10
-11.8993293237
 20
20.6517713852
 10
-11.8906003619
 20
20.6543675066
 10
-11.8818954633
 20
20.6572108934
 10
-11.8732253136
 20
20.6602995905
 10
-11.8646003577
 20
20.6636315859
 10
-11.856028019
 20
20.6671903808
 10
-11.8475181114
 20
20.6709736373
 10
-11.8390802562
 20
20.6749790249
 10
-11.8307212024
 20
20.6791900973
 10
-11.8224499095
 20
20.6836042004
 10
-11.8142751818
 20
20.6882187267
 10
-11.8062031916
 20
20.6930173476
 10
-11.7982420665
 20
20.6979971425
 10
-11.7903998009
 20
20.7031552659
 10
-11.7826820564
 20
20.7084755468
 10
-11.7750961494
 20
20.7139548358
 10
-11.7676492709
 20
20.7195900861
 10
-11.7603466042
 20
20.7253653178
 10
-11.7531946747
 20
20.73127718
 10
-11.7461998711
 20
20.7373224626
 10
-11.7393668933
 20
20.7434854254
 10
-11.7327014893
 20
20.7497625406
 10
-11.7262092488
 20
20.7561504714
 10
-11.7198943595
 20
20.7626337853
 10
-11.7137615108
 20
20.7692049898
 10
-11.7078158069
 20
20.7758644785
 10
-11.7020617099
 20
20.7826086255
  0
LINE
  5
3EE
100
AcDbEntity
  8
0
100
AcDbLine
 62
7
  6
CONTINUOUS
 10
-12.6401258116
 20
20.7752909876
 11
-12.0159302145
 21
20.6449583678
  0
LINE
  5
3EF
100
AcDbEntity
  8
0
100
AcDbLine
 62
250
  6
CONTINUOUS
 10
-12.413282318
 20
20.9311121484
 11
-11.7020617099
 21
20.7826086255
  0
LWPOLYLINE
  5
3F0
100
AcDbEntity
  8
0
100
AcDbPolyline
 62
7
  6
CONTINUOUS
 90
10
 70
0
 10
-12.6401258116
 20
20.7752909876
 10
-12.6477039043
 20
20.7769965772
 10
-12.6552411466
 20
20.7789411072
 10
-12.662726796
 20
20.7811232328
 10
-12.6701760903
 20
20.7835498621
 10
-12.6775506037
 20
20.7862105794
 10
-12.6847643318
 20
20.7890706408
 10
-12.6917878095
 20
20.7921089953
 10
-12.6986420304
 20
20.7953252749
 10
-12.7008389203
 20
20.7964103921
  0
LWPOLYLINE
  5
3F1
100
AcDbEntity
  8
0
100
AcDbPolyline
 62
7
  6
CONTINUOUS
 90
3
 70
0
 10
0.1941894011
 20
17.3650137142
 10
0.2249414458
 20
17.3576202153
 10
0.2546325908
 20
17.3463491113
  0
LWPOLYLINE
  5
3F2
100
AcDbEntity
  8
0
100
AcDbPolyline
 62
7
  6
CONTINUOUS
 90
6
 70
0
 10
-12.0406126507
 20
23.4941661116
 10
-12.0688063629
 20
23.5061627501
 10
-12.0986901119
 20
23.514717535
 10
-12.1297561226
 20
23.5195302513
 10
-12.1615542161
 20
23.5203921864
 10
-12.1933403825
 20
23.5171869568
  0
LWPOLYLINE
  5
3F3
100
AcDbEntity
  8
RACCORDO
100
AcDbPolyline
 62
7
  6
CONTINUOUS
 90
3
 70
0
 10
-1.8499357638
 20
20.6038312094
 10
-1.8522306982
 20
20.6049245644
 10
-1.8550666962
 20
20.6061317878
  0
LINE
  5
3F4
100
AcDbEntity
  8
RACCORDO
100
AcDbLine
 62
7
  6
CONTINUOUS
 10
-0.6270482407
 20
19.3055896278
 11
-3.0691822732
 21
20.5266566441
  0
LINE
  5
3F5
100
AcDbEntity
  8
RACCORDO
100
AcDbLine
 62
250
  6
CONTINUOUS
 10
0.0138824115
 20
19.6215204048
 11
-1.9341771229
 21
20.595550172
  0
LINE
  5
3F6
100
AcDbEntity
  8
RACCORDO
100
AcDbLine
 62
7
  6
CONTINUOUS
 10
0.0646432587
 20
19.6465416982
 11
-1.8499357587
 21
20.6038312069
  0
LINE
  5
3F7
100
AcDbEntity
  8
0
100
AcDbLine
 62
7
  6
CONTINUOUS
 10
-1.7151889824
 20
21.0550887042
 11
0.5869695741
 21
19.9040094259
  0
LINE
  5
3F8
100
AcDbEntity
  8
DRAFT
100
AcDbLine
 62
7
  6
CONTINUOUS
 10
9.7239130675
 20
16.2736186105
 11
8.9712189835
 21
17.5718238715
  0
LWPOLYLINE
  5
3F9
100
AcDbEntity
  8
RACCORDO
100
AcDbPolyline
 62
7
  6
CONTINUOUS
 90
31
 70
0
 10
18.4958102205
 20
18.3547768972
 10
18.4955297222
 20
18.3888431531
 10
18.4944012515
 20
18.4313264088
 10
18.4924159756
 20
18.4738736317
 10
18.489580218
 20
18.5164900527
 10
18.4859014495
 20
18.5591551815
 10
18.4813905966
 20
18.601819484
 10
18.4760556145
 20
18.6444768512
 10
18.4699037446
 20
18.6871195282
 10
18.4629495221
 20
18.7296933948
 10
18.4552015428
 20
18.7721918732
 10
18.4466673254
 20
18.8146083752
 10
18.4373652186
 20
18.8568871768
 10
18.427304743
 20
18.8990195092
 10
18.4164935691
 20
18.9410011085
 10
18.4049519007
 20
18.982781622
 10
18.3926917821
 20
19.0243448047
 10
18.3797192062
 20
19.0656941585
 10
18.3660472706
 20
19.106807667
 10
18.3516850708
 20
19.1476756172
 10
18.3366391456
 20
19.1882944428
 10
18.3209189892
 20
19.2286500285
 10
18.3045313851
 20
19.2687352571
 10
18.287482174
 20
19.3085431796
 10
18.2697801366
 20
19.348059053
 10
18.2514311222
 20
19.3872745222
 10
18.2324394706
 20
19.4261823757
 10
18.2128119588
 20
19.464769939
 10
18.1925529372
 20
19.5030281333
 10
18.1716656418
 20
19.540949226
 10
18.1538427805
 20
19.5721813642
  0
LINE
  5
3FA
100
AcDbEntity
  8
RACCORDO
100
AcDbLine
 62
7
  6
CONTINUOUS
 10
18.4958102302
 20
-11.9903016541
 11
18.4958102302
 21
12.1867464745
  0
LINE
  5
3FB
100
AcDbEntity
  8
RACCORDO
100
AcDbLine
 62
7
  6
CONTINUOUS
 10
18.4958102302
 20
15.1355454603
 11
18.4958102302
 21
18.3547785918
  0
LINE
  5
3FC
100
AcDbEntity
  8
RACCORDO
100
AcDbLine
 62
7
  6
CONTINUOUS
 10
18.4958102287
 20
15.1356529012
 11
18.4958102302
 21
15.1355461083
  0
LWPOLYLINE
  5
3FD
100
AcDbEntity
  8
RACCORDO
100
AcDbPolyline
 62
250
  6
CONTINUOUS
 90
57
 70
0
 10
18.4958102302
 20
15.1355461083
 10
18.4957115765
 20
15.1110880493
 10
18.4949898965
 20
15.065090247
 10
18.4936480938
 20
15.0213079454
 10
18.4917604685
 20
14.9793957506
 10
18.4893850852
 20
14.939202329
 10
18.4865864201
 20
14.9007783894
 10
18.4834219269
 20
14.8640785083
 10
18.4799123043
 20
14.8288066442
 10
18.4760936391
 20
14.7949150125
 10
18.4720121901
 20
14.762452971
 10
18.4676824586
 20
14.731270713
 10
18.4631329431
 20
14.7013475503
 10
18.458398568
 20
14.6727034249
 10
18.4534925903
 20
14.6452498308
 10
18.448440967
 20
14.6189877002
 10
18.4432697328
 20
14.5939137225
 10
18.4379852529
 20
14.5699333747
 10
18.4326106101
 20
14.5470540551
 10
18.4271650045
 20
14.5252651351
 10
18.4216423803
 20
14.5044456963
 10
18.4160605869
 20
14.4845972566
 10
18.4104344302
 20
14.4657150706
 10
18.4047464869
 20
14.4476698238
 10
18.3990039665
 20
14.4304435878
 10
18.3932232463
 20
14.4140517224
 10
18.3873954666
 20
14.3984157452
 10
18.3815213712
 20
14.3835147057
 10
18.3756187136
 20
14.3693672808
 10
18.3697025767
 20
14.3559545963
 10
18.3637810928
 20
14.34327915
 10
18.3578643093
 20
14.3313354582
 10
18.3519707731
 20
14.3200923111
 10
18.3461130928
 20
14.3095590518
 10
18.3402964973
 20
14.2997226772
 10
18.3345285627
 20
14.2905182478
 10
18.3288351092
 20
14.2819662741
 10
18.323206744
 20
14.2740423071
 10
18.317595299
 20
14.2666147793
 10
18.3120018208
 20
14.2596674154
 10
18.3064348555
 20
14.2532143235
 10
18.3008530137
 20
14.2471709588
 10
18.2952467636
 20
14.2415191881
 10
18.2896308794
 20
14.2362762552
 10
18.2839981837
 20
14.2314114424
 10
18.2783490734
 20
14.2269223963
 10
18.2726876971
 20
14.222810673
 10
18.2670119488
 20
14.2190515938
 10
18.2613257562
 20
14.2156453958
 10
18.2556293241
 20
14.2125910582
 10
18.2499144559
 20
14.2098621906
 10
18.2441849688
 20
14.2074578889
 10
18.2384403885
 20
14.2053784788
 10
18.2326652462
 20
14.2035997511
 10
18.2268549129
 20
14.2021136769
 10
18.2210161407
 20
14.2009281651
 10
18.2151500305
 20
14.200043122
  0
LINE
  5
3FE
100
AcDbEntity
  8
0
100
AcDbLine
 62
7
  6
CONTINUOUS
 10
2.8996992004
 20
-21.2533132976
 11
3.6006351542
 21
-20.7453135599
  0
LINE
  5
3FF
100
AcDbEntity
  8
RACCORDO
100
AcDbLine
 62
7
  6
CONTINUOUS
 10
3.1988263333
 20
-21.0472106287
 11
2.8996992004
 21
-21.2640014842
  0
LINE
  5
400
100
AcDbEntity
  8
DRAFT
100
AcDbLine
 62
7
  6
CONTINUOUS
 10
9.7239130675
 20
-17.6935936962
 11
8.9712189835
 21
-18.2391048732
  0
LWPOLYLINE
  5
401
100
AcDbEntity
  8
0
100
AcDbPolyline
 62
7
  6
CONTINUOUS
 90
10
 70
0
 10
2.8299141464
 20
-19.6886424087
 10
2.9144078691
 20
-19.6419271802
 10
2.9991879805
 20
-19.5952182934
 10
3.0842598085
 20
-19.5485175062
 10
3.1696329067
 20
-19.5018440601
 10
3.2553079681
 20
-19.4551816086
 10
3.3412752027
 20
-19.4084780183
 10
3.4275326703
 20
-19.3617163383
 10
3.5140879049
 20
-19.3149150242
 10
3.6009436956
 20
-19.2680747023
  0
LWPOLYLINE
  5
402
100
AcDbEntity
  8
RACCORDO
100
AcDbPolyline
 62
7
  6
CONTINUOUS
 90
7
 70
0
 10
17.4581019789
 20
-13.6036271979
 10
17.4734126129
 20
-13.5952500325
 10
17.4885422577
 20
-13.5864100125
 10
17.5034850916
 20
-13.5771133607
 10
17.5182359686
 20
-13.5673660845
 10
17.532788984
 20
-13.5571750651
 10
17.875567149
 20
-13.3087518055
  0
LWPOLYLINE
  5
403
100
AcDbEntity
  8
DRAFT
100
AcDbPolyline
 62
250
  6
CONTINUOUS
 90
6
 70
0
 10
17.8009995549
 20
-13.3551139383
 10
17.8169296514
 20
-13.3464078116
 10
17.8325801071
 20
-13.3372530669
 10
17.8479426363
 20
-13.3276545509
 10
17.8630091057
 20
-13.3176173453
 10
17.875567149
 20
-13.3087518055
  0
LWPOLYLINE
  5
404
100
AcDbEntity
  8
DRAFT
100
AcDbPolyline
 62
250
  6
CONTINUOUS
 90
30
 70
0
 10
18.2151500305
 20
-12.3376308393
 10
18.2337483114
 20
-12.3277358656
 10
18.2518023348
 20
-12.3175920212
 10
18.2692987853
 20
-12.3072067878
 10
18.2862247585
 20
-12.2965878248
 10
18.3025677709
 20
-12.285742964
 10
18.3183157689
 20
-12.2746802041
 10
18.3334571377
 20
-12.2634077041
 10
18.3479807101
 20
-12.251933778
 10
18.3618757743
 20
-12.2402668883
 10
18.3751320822
 20
-12.2284156397
 10
18.3877398567
 20
-12.216388773
 10
18.3996897992
 20
-12.2041951584
 10
18.4109730961
 20
-12.1918437892
 10
18.4215814255
 20
-12.179343775
 10
18.4315069634
 20
-12.1667043351
 10
18.4407423894
 20
-12.1539347914
 10
18.4492808919
 20
-12.1410445621
 10
18.4571161735
 20
-12.1280431542
 10
18.4642424554
 20
-12.1149401566
 10
18.4706544816
 20
-12.1017452334
 10
18.4763475231
 20
-12.0884681164
 10
18.481317381
 20
-12.0751185978
 10
18.4855603898
 20
-12.0617065235
 10
18.4890734203
 20
-12.0482417854
 10
18.4918538813
 20
-12.0347343142
 10
18.4938997222
 20
-12.0211940723
 10
18.4952094341
 20
-12.007631046
 10
18.495782051
 20
-11.9940552386
 10
18.4958102302
 20
-11.9903027746
  0
LINE
  5
405
100
AcDbEntity
  8
RACCORDO
100
AcDbLine
 62
7
  6
CONTINUOUS
 10
17.4581019789
 20
-13.6036271979
 11
9.7239130675
 21
-17.6935936962
  0
LINE
  5
406
100
AcDbEntity
  8
DRAFT
100
AcDbLine
 62
7
  6
CONTINUOUS
 10
2.8996992004
 20
-21.4498245481
 11
8.9712189835
 21
-18.2391048732
  0
LINE
  5
407
100
AcDbEntity
  8
RACCORDO
100
AcDbLine
 62
250
  6
CONTINUOUS
 10
3.612976809
 20
-20.0297275297
 11
18.2151500305
 21
-12.3376308393
  0
LINE
  5
408
100
AcDbEntity
  8
RACCORDO
100
AcDbLine
 62
250
  6
CONTINUOUS
 10
3.1988263333
 20
-21.0472106287
 11
17.8009995549
 21
-13.3551139383
  0
LINE
  5
409
100
AcDbEntity
  8
0
100
AcDbLine
 62
7
  6
CONTINUOUS
 10
2.8996992004
 20
-21.1050828616
 11
3.6006351542
 21
-20.7453135599
  0
LINE
  5
40A
100
AcDbEntity
  8
ASSI
100
AcDbLine
 62
7
  6
CONTINUOUS
 10
7.9919128726
 20
-18.9722401858
 11
2.8996992004
 21
-21.5763538413
  0
LWPOLYLINE
  5
40B
100
AcDbEntity
  8
0
100
AcDbPolyline
 62
7
  6
CONTINUOUS
 90
10
 70
0
 10
3.6009436956
 20
-20.1355456062
 10
3.5140879049
 20
-20.1770806184
 10
3.4275326703
 20
-20.2183604267
 10
3.3412752027
 20
-20.2593828682
 10
3.2553079681
 20
-20.3001601072
 10
3.1696329067
 20
-20.3406758904
 10
3.0842598085
 20
-20.3808841455
 10
2.9991879805
 20
-20.4207665898
 10
2.9144078691
 20
-20.4603341544
 10
2.8299141464
 20
-20.4995832691
  0
LWPOLYLINE
  5
40C
100
AcDbEntity
  8
0
100
AcDbPolyline
 62
7
  6
CONTINUOUS
 90
10
 70
0
 10
2.8488474838
 20
20.392365566
 10
2.8414842242
 20
20.3904133304
 10
2.8337088472
 20
20.3881813162
 10
2.8255202311
 20
20.3856827139
 10
2.8169289554
 20
20.3829225001
 10
2.8079546607
 20
20.3799068452
 10
2.7986061622
 20
20.3766514343
 10
2.7888960653
 20
20.3731648594
 10
2.7788417258
 20
20.3694482608
 10
2.7684584788
 20
20.3655059901
  0
LWPOLYLINE
  5
40D
100
AcDbEntity
  8
RACCORDO
100
AcDbPolyline
 62
250
  6
CONTINUOUS
 90
19
 70
0
 10
3.0483719048
 20
20.6411114372
 10
3.0632958486
 20
20.6444507499
 10
3.0819703531
 20
20.6479700607
 10
3.1005084856
 20
20.6508001369
 10
3.1188964794
 20
20.6529388771
 10
3.1371206795
 20
20.6543846929
 10
3.1551675527
 20
20.6551365106
 10
3.1730236971
 20
20.655193772
 10
3.1906758526
 20
20.6545564346
 10
3.2081109108
 20
20.6532249715
 10
3.2253159242
 20
20.6512003717
 10
3.2422781163
 20
20.6484841385
 10
3.2589848909
 20
20.6450782891
 10
3.2754238413
 20
20.6409853526
 10
3.2915827601
 20
20.6362083685
 10
3.3074496475
 20
20.6307508843
 10
3.3230127205
 20
20.6246169525
 10
3.3382604221
 20
20.6178111285
 10
3.3455439124
 20
20.61426718
  0
LWPOLYLINE
  5
40E
100
AcDbEntity
  8
0
100
AcDbPolyline
 62
250
  6
CONTINUOUS
 90
14
 70
0
 10
-12.0493684193
 20
23.4980000947
 10
-12.0562934377
 20
23.500322753
 10
-12.0634345952
 20
23.5021287708
 10
-12.0707758342
 20
23.5034140872
 10
-12.0783006474
 20
23.504175812
 10
-12.0859921147
 20
23.5044122325
 10
-12.0938329412
 20
23.5041228169
 10
-12.1018054963
 20
23.5033082162
 10
-12.109891853
 20
23.5019702619
 10
-12.1180738286
 20
23.5001119625
 10
-12.1263330253
 20
23.4977374967
 10
-12.1346508717
 20
23.4948522035
 10
-12.1430086644
 20
23.4914625708
 10
-12.1513876103
 20
23.4875762204
  0
LWPOLYLINE
  5
40F
100
AcDbEntity
  8
RACCORDO
100
AcDbPolyline
 62
7
  6
CONTINUOUS
 90
19
 70
0
 10
-1.8559520297
 20
20.6064774572
 10
-1.8597678598
 20
20.6078057546
 10
-1.8636732695
 20
20.6089077552
 10
-1.8676638747
 20
20.6097823564
 10
-1.8717344823
 20
20.6104283797
 10
-1.8758798463
 20
20.6108449455
 10
-1.8800953483
 20
20.6110318133
 10
-1.8843755073
 20
20.6109886334
 10
-1.8887148081
 20
20.6107153555
 10
-1.893108457
 20
20.6102126037
 10
-1.8975507451
 20
20.6094808585
 10
-1.9020359492
 20
20.6085208979
 10
-1.9065591618
 20
20.6073342028
 10
-1.9111145091
 20
20.6059220769
 10
-1.9156961223
 20
20.6042861154
 10
-1.9202990409
 20
20.602428639
 10
-1.924917634
 20
20.6003519222
 10
-1.9295456076
 20
20.5980581936
 10
-1.934176977
 20
20.595550099
  0
LWPOLYLINE
  5
410
100
AcDbEntity
  8
0
100
AcDbPolyline
 62
7
  6
CONTINUOUS
 90
10
 70
0
 10
2.8942783795
 20
20.3956673704
 10
2.8912132984
 20
20.3968035996
 10
2.8876900364
 20
20.397461884
 10
2.8836055216
 20
20.3977480204
 10
2.8789954622
 20
20.3976707925
 10
2.8738897343
 20
20.3972360126
 10
2.8682988334
 20
20.3964792989
 10
2.862252392
 20
20.3954123747
 10
2.855773302
 20
20.3940347709
 10
2.8488474838
 20
20.392365566
  0
LWPOLYLINE
  5
411
100
AcDbEntity
  8
RACCORDO
100
AcDbPolyline
 62
7
  6
CONTINUOUS
 90
51
 70
0
 10
-1.8550666962
 20
20.6061317878
 10
-1.8656378649
 20
20.6102840332
 10
-1.8885992381
 20
20.6188986679
 10
-1.9118698401
 20
20.6270915074
 10
-1.9354358149
 20
20.6348674972
 10
-1.9592911744
 20
20.6422331016
 10
-1.9834179204
 20
20.6491901099
 10
-2.0077981688
 20
20.6557406592
 10
-2.0324253434
 20
20.6618892256
 10
-2.0572815588
 20
20.6676368733
 10
-2.082349477
 20
20.6729850471
 10
-2.1076226098
 20
20.6779368566
 10
-2.1330836042
 20
20.6824929427
 10
-2.1587149342
 20
20.6866540976
 10
-2.1845091754
 20
20.6904222313
 10
-2.2104487795
 20
20.6937976577
 10
-2.2365166159
 20
20.6967808343
 10
-2.2627053017
 20
20.6993728905
 10
-2.2889972739
 20
20.7015739407
 10
-2.3153755546
 20
20.7033841462
 10
-2.3418332299
 20
20.7048039996
 10
-2.3683530752
 20
20.7058334519
 10
-2.3949178375
 20
20.7064723675
 10
-2.4215203597
 20
20.7067206121
 10
-2.4481434581
 20
20.7065779602
 10
-2.4747697793
 20
20.7060440431
 10
-2.5013919399
 20
20.705118153
 10
-2.5279928137
 20
20.7037998625
 10
-2.5545547978
 20
20.7020885827
 10
-2.5810700656
 20
20.6999830526
 10
-2.607521318
 20
20.6974826172
 10
-2.6338907999
 20
20.6945864555
 10
-2.6601705164
 20
20.6912926989
 10
-2.6863444512
 20
20.6876001682
 10
-2.7123930759
 20
20.683507938
 10
-2.7383039672
 20
20.67901419
 10
-2.764060685
 20
20.6741174987
 10
-2.7896437564
 20
20.6688167907
 10
-2.8150374746
 20
20.6631105086
 10
-2.8402239413
 20
20.6569972818
 10
-2.8651850188
 20
20.6504756334
 10
-2.8899062384
 20
20.6435432402
 10
-2.9143697056
 20
20.6361981999
 10
-2.9385571106
 20
20.6284386446
 10
-2.9624549676
 20
20.6202610882
 10
-2.9860444373
 20
20.6116631064
 10
-3.0093078998
 20
20.6026417037
 10
-3.0322354261
 20
20.5931903294
 10
-3.0548117184
 20
20.5833033803
 10
-3.0770134338
 20
20.5729787288
 10
-3.0925925353
 20
20.5653532017
  0
LWPOLYLINE
  5
412
100
AcDbEntity
  8
0
100
AcDbPolyline
 62
7
  6
CONTINUOUS
 90
7
 70
0
 10
-2.6961686454
 20
23.1908856462
 10
-2.6975693289
 20
23.1914972202
 10
-2.7009002456
 20
23.192404273
 10
-2.7048439638
 20
23.1928791285
 10
-2.7093663122
 20
23.1929687118
 10
-2.7144321319
 20
23.1926936236
 10
-2.7200031392
 20
23.1920479273
  0
LINE
  5
413
100
AcDbEntity
  8
0
100
AcDbLine
 62
7
  6
CONTINUOUS
 10
-1.0700002559
 20
21.731236458
 11
1.5928280848
 21
20.3998222876
  0
LINE
  5
414
100
AcDbEntity
  8
0
100
AcDbLine
 62
250
  6
CONTINUOUS
 10
2.7356398818
 20
20.3510325351
 11
2.119168057
 21
20.6592684474
  0
LINE
  5
415
100
AcDbEntity
  8
0
100
AcDbLine
 62
250
  6
CONTINUOUS
 10
-2.8794073092
 20
23.1585561306
 11
-3.4958791339
 21
23.4667920429
  0
LINE
  5
416
100
AcDbEntity
  8
0
100
AcDbLine
 62
7
  6
CONTINUOUS
 10
2.8942784312
 20
20.3956680021
 11
2.3790287679
 21
20.6532928338
  0
LINE
  5
417
100
AcDbEntity
  8
0
100
AcDbLine
 62
7
  6
CONTINUOUS
 10
-2.7201263148
 20
23.2028703752
 11
-3.2114178452
 21
23.4485161403
  0
LINE
  5
418
100
AcDbEntity
  8
DRAFT
100
AcDbLine
 62
7
  6
CONTINUOUS
 10
8.0953414248
 20
18.0097626509
 11
8.9712189835
 21
17.5718238715
  0
LINE
  5
419
100
AcDbEntity
  8
0
100
AcDbLine
 62
7
  6
CONTINUOUS
 10
3.5903907585
 20
20.3701020104
 11
0.6840374117
 21
21.8232786838
  0
LINE
  5
41A
100
AcDbEntity
  8
RACCORDO
100
AcDbLine
 62
7
  6
CONTINUOUS
 10
3.3480452678
 20
20.6130248046
 11
0.683169946
 21
21.9454541632
  0
LINE
  5
41B
100
AcDbEntity
  8
0
100
AcDbLine
 62
250
  6
CONTINUOUS
 10
-2.9876697576
 20
24.286328306
 11
-0.0284338181
 21
22.8067103363
  0
LINE
  5
41C
100
AcDbEntity
  8
0
100
AcDbLine
 62
250
  6
CONTINUOUS
 10
4.2220557915
 20
20.6814655315
 11
7.181291731
 21
19.2018475618
  0
LINE
  5
41D
100
AcDbEntity
  8
0
100
AcDbLine
 62
7
  6
CONTINUOUS
 10
-2.6984735913
 20
24.3896397065
 11
0.4160568407
 21
22.8323744904
  0
LINE
  5
41E
100
AcDbEntity
  8
0
100
AcDbLine
 62
7
  6
CONTINUOUS
 10
4.6637648091
 20
20.7085205062
 11
7.7782952412
 21
19.1512552902
  0
LINE
  5
41F
100
AcDbEntity
  8
0
100
AcDbLine
 62
7
  6
CONTINUOUS
 10
9.9485157274
 20
18.4971397713
 11
10.1459063945
 21
18.3148461804
  0
LWPOLYLINE
  5
420
100
AcDbEntity
  8
RACCORDO
100
AcDbPolyline
 62
250
  6
CONTINUOUS
 90
34
 70
0
 10
17.8645558441
 20
-13.3038679658
 10
17.8847304252
 20
-13.2851883339
 10
17.9043833578
 20
-13.2657244078
 10
17.9235054771
 20
-13.2454853039
 10
17.9420877059
 20
-13.2244806013
 10
17.9601211027
 20
-13.2027203694
 10
17.9775970919
 20
-13.1802149989
 10
17.9945073177
 20
-13.1569752466
 10
18.0108437291
 20
-13.133012158
 10
18.0265986198
 20
-13.1083370831
 10
18.0417644837
 20
-13.0829617679
 10
18.0563340804
 20
-13.0568982998
 10
18.0703005221
 20
-13.030159033
 10
18.0836571697
 20
-13.0027566691
 10
18.09639764
 20
-12.9747042715
 10
18.1085158678
 20
-12.9460152072
 10
18.1200060946
 20
-12.9167031222
 10
18.130862846
 20
-12.886781967
 10
18.1410809386
 20
-12.8562660108
 10
18.1506555223
 20
-12.8251697879
 10
18.1595820522
 20
-12.793508073
 10
18.1678562658
 20
-12.7612959068
 10
18.1754742505
 20
-12.7285486023
 10
18.182432392
 20
-12.6952817339
 10
18.1887273428
 20
-12.6615111085
 10
18.1943561472
 20
-12.6272527213
 10
18.1993161325
 20
-12.592522911
 10
18.2036048593
 20
-12.5573383481
 10
18.2072203223
 20
-12.5217158578
 10
18.2101608474
 20
-12.4856722743
 10
18.2124249724
 20
-12.4492245896
 10
18.2140116184
 20
-12.412390072
 10
18.2149201017
 20
-12.3751862645
 10
18.2151500305
 20
-12.3376308393
  0
LWPOLYLINE
  5
421
100
AcDbEntity
  8
RACCORDO
100
AcDbPolyline
 62
250
  6
CONTINUOUS
 90
4
 70
0
 10
17.8009995549
 20
-13.3551139383
 10
17.8226803684
 20
-13.3388391488
 10
17.8438691728
 20
-13.3217544369
 10
17.8645558441
 20
-13.3038679658
  0
LWPOLYLINE
  5
422
100
AcDbEntity
  8
RACCORDO
100
AcDbPolyline
 62
7
  6
CONTINUOUS
 90
40
 70
0
 10
17.8755691887
 20
-13.3087503118
 10
17.9037134387
 20
-13.2878041035
 10
17.9313680388
 20
-13.2661138916
 10
17.9585496992
 20
-13.2436613957
 10
17.9852386452
 20
-13.2204554436
 10
18.0114129131
 20
-13.1965078297
 10
18.0370714354
 20
-13.171811609
 10
18.0621952674
 20
-13.1463757926
 10
18.0867635012
 20
-13.1202123059
 10
18.1107710789
 20
-13.0933163272
 10
18.1341991568
 20
-13.0656979097
 10
18.157027647
 20
-13.0373696509
 10
18.1792489225
 20
-13.008328738
 10
18.2008439997
 20
-12.9785866378
 10
18.2217946517
 20
-12.9481555156
 10
18.2420937635
 20
-12.9170312394
 10
18.2617225428
 20
-12.88522647
 10
18.2806641949
 20
-12.8527523663
 10
18.2989136384
 20
-12.8195996688
 10
18.3164495876
 20
-12.7857869859
 10
18.3332588613
 20
-12.7513189678
 10
18.3493456655
 20
-12.7161613295
 10
18.364697582
 20
-12.6803082271
 10
18.3792885396
 20
-12.6437855124
 10
18.393100875
 20
-12.6066029266
 10
18.406121115
 20
-12.568758854
 10
18.4183275952
 20
-12.5302750346
 10
18.4296945321
 20
-12.4911948613
 10
18.4402082967
 20
-12.4515286952
 10
18.4498551611
 20
-12.4112870151
 10
18.4586153748
 20
-12.3705124406
 10
18.4664786918
 20
-12.3292129238
 10
18.4734338009
 20
-12.2874003692
 10
18.4794652822
 20
-12.2451224511
 10
18.4845651722
 20
-12.2023884414
 10
18.4887250789
 20
-12.1592079488
 10
18.4919344216
 20
-12.1156277256
 10
18.4941864771
 20
-12.0716683482
 10
18.495475888
 20
-12.0273272702
 10
18.4958102205
 20
-11.9903027746
  0
LINE
  5
423
100
AcDbEntity
  8
RACCORDO
100
AcDbLine
 62
250
  6
CONTINUOUS
 10
17.4581019789
 20
-13.6036271979
 11
17.8009995549
 21
-13.3551139383
  0
LWPOLYLINE
  5
424
100
AcDbEntity
  8
RACCORDO
100
AcDbPolyline
 62
250
  6
CONTINUOUS
 90
16
 70
0
 10
-4.333323376
 20
-26.632334082
 10
-4.3722555098
 20
-26.6532844718
 10
-4.4144227079
 20
-26.6720972435
 10
-4.4593780793
 20
-26.6885730181
 10
-4.5066451841
 20
-26.7025371843
 10
-4.5557230822
 20
-26.7138417489
 10
-4.6060916428
 20
-26.7223669053
 10
-4.6572170563
 20
-26.7280223033
 10
-4.7085574922
 20
-26.7307480067
 10
-4.7595688411
 20
-26.7305151283
 10
-4.8097104812
 20
-26.727326136
 10
-4.8584510079
 20
-26.7212148272
 10
-4.9052738659
 20
-26.71224597
 10
-4.9496828232
 20
-26.7005146172
 10
-4.9912072308
 20
-26.6861450984
 10
-5.0294070102
 20
-26.6692897026
  0
LINE
  5
425
100
AcDbEntity
  8
0
100
AcDbLine
 62
250
  6
CONTINUOUS
 10
2.1987632466
 20
-24.3986650053
 11
2.8996992004
 21
-24.0369878126
  0
LINE
  5
426
100
AcDbEntity
  8
0
100
AcDbLine
 62
7
  6
CONTINUOUS
 10
7.181291731
 20
-19.4851873588
 11
2.8996992004
 21
-21.6848076181
  0
LINE
  5
427
100
AcDbEntity
  8
0
100
AcDbLine
 62
7
  6
CONTINUOUS
 10
0.6840374117
 20
21.8232786838
 11
-1.0700002559
 21
21.731236458
  0
LWPOLYLINE
  5
428
100
AcDbEntity
  8
RACCORDO
100
AcDbPolyline
 62
7
  6
CONTINUOUS
 90
36
 70
0
 10
3.8503322066
 20
20.498233663
 10
3.8439931798
 20
20.4986579091
 10
3.823114193
 20
20.5002738504
 10
3.8024214292
 20
20.5020926756
 10
3.7819333196
 20
20.5041096282
 10
3.7616681055
 20
20.5063195536
 10
3.7416627355
 20
20.5087143469
 10
3.7219338879
 20
20.5112874668
 10
3.7024983746
 20
20.5140321429
 10
3.6833919746
 20
20.5169380422
 10
3.6646292901
 20
20.5199970076
 10
3.6462250855
 20
20.5232006978
 10
3.6282135922
 20
20.5265366375
 10
3.6106071482
 20
20.5299953012
 10
3.5934177442
 20
20.5335669067
 10
3.5766767787
 20
20.5372371202
 10
3.5603965572
 20
20.540994704
 10
3.5445831296
 20
20.5448293922
 10
3.5292562176
 20
20.5487273152
 10
3.5144250294
 20
20.552676654
 10
3.500093124
 20
20.556666651
 10
3.4862701533
 20
20.5606844974
 10
3.4729605811
 20
20.5647186657
 10
3.460168013
 20
20.5687576128
 10
3.4478996218
 20
20.5727882222
 10
3.4361571693
 20
20.5767987468
 10
3.4249424991
 20
20.5807773478
 10
3.4142616986
 20
20.5847102798
 10
3.4041134172
 20
20.5885860498
 10
3.3944979211
 20
20.592392314
 10
3.3854217982
 20
20.5961139304
 10
3.3768824707
 20
20.5997389926
 10
3.3688756802
 20
20.6032560716
 10
3.3614034713
 20
20.6066506706
 10
3.3544626557
 20
20.6099103723
 10
3.3480452678
 20
20.6130248046
  0
LWPOLYLINE
  5
429
100
AcDbEntity
  8
RACCORDO
100
AcDbPolyline
 62
250
  6
CONTINUOUS
 90
5
 70
0
 10
3.6282547468
 20
20.3887661189
 10
3.608402824
 20
20.3912795377
 10
3.574244902
 20
20.3960220297
 10
3.5403206377
 20
20.4011521577
 10
3.5224302198
 20
20.4040822797
  0
LWPOLYLINE
  5
42A
100
AcDbEntity
  8
0
100
AcDbPolyline
 62
7
  6
CONTINUOUS
 90
16
 70
0
 10
-2.1618832181
 20
21.1852949769
 10
-2.1283880369
 20
21.1803418848
 10
-2.0953331551
 20
21.1748328921
 10
-2.0627185728
 20
21.168767999
 10
-2.0305106163
 20
21.1621396865
 10
-1.9987429593
 20
21.1549554736
 10
-1.9675166229
 20
21.1472379166
 10
-1.9368252119
 20
21.1389828551
 10
-1.9066751214
 20
21.1301944494
 10
-1.877186558
 20
21.1209077379
 10
-1.8483699117
 20
21.1111234522
 10
-1.8202147924
 20
21.1008408606
 10
-1.7928102362
 20
21.0900928057
 10
-1.7661859218
 20
21.0788902351
 10
-1.7403121706
 20
21.0672222013
 10
-1.7151889824
 20
21.0550887042
  0
LWPOLYLINE
  5
42B
100
AcDbEntity
  8
0
100
AcDbPolyline
 62
7
  6
CONTINUOUS
 90
8
 70
0
 10
2.2719070071
 20
20.6920622288
 10
2.2873155558
 20
20.6884197272
 10
2.3031660351
 20
20.6839436817
 10
2.3194455766
 20
20.6786175534
 10
2.3361466898
 20
20.6724295906
 10
2.3532449497
 20
20.6653579834
 10
2.3706982577
 20
20.6573723735
 10
2.37902752
 20
20.6532910764
  0
LWPOLYLINE
  5
42C
100
AcDbEntity
  8
RACCORDO
100
AcDbPolyline
 62
7
  6
CONTINUOUS
 90
9
 70
0
 10
12.2862979343
 20
19.2897265413
 10
12.2801811937
 20
19.291326039
 10
12.27041098
 20
19.2928588529
 10
12.2600847845
 20
19.2932742973
 10
12.2492975874
 20
19.2925725248
 10
12.2383343285
 20
19.2907539935
 10
12.2272899877
 20
19.2878188559
 10
12.2160695852
 20
19.2837669595
 10
12.204673121
 20
19.2785983043
  0
LINE
  5
42D
100
AcDbEntity
  8
0
100
AcDbLine
 62
7
  6
CONTINUOUS
 10
10.8932351355
 20
18.6228793116
 11
10.4434904742
 21
18.7446271447
  0
LWPOLYLINE
  5
42E
100
AcDbEntity
  8
RACCORDO
100
AcDbPolyline
 62
7
  6
CONTINUOUS
 90
28
 70
0
 10
12.2862877981
 20
19.2897025889
 10
12.1775724515
 20
19.3209884347
 10
12.0627174085
 20
19.3503421117
 10
11.9454559846
 20
19.3766691819
 10
11.8260828198
 20
19.3999312736
 10
11.7048624481
 20
19.4201018264
 10
11.5820330786
 20
19.4371611017
 10
11.4578842812
 20
19.4510849433
 10
11.3327008182
 20
19.4618556122
 10
11.2067203007
 20
19.4694630119
 10
11.0802339145
 20
19.4738963906
 10
10.9535311916
 20
19.4751509453
 10
10.8268494461
 20
19.4732261723
 10
10.7004781763
 20
19.4681248373
 10
10.5747085858
 20
19.4598556251
 10
10.4497789864
 20
19.4484277497
 10
10.3259801118
 20
19.4338579174
 10
10.2035953594
 20
19.4161678958
 10
10.0828469232
 20
19.3953737205
 10
9.9640120021
 20
19.3715021204
 10
9.8473761787
 20
19.3445870687
 10
9.7331646057
 20
19.3146523014
 10
9.6216494275
 20
19.2817351975
 10
9.5131032311
 20
19.2458785627
 10
9.4077363395
 20
19.2071069451
 10
9.3057895571
 20
19.1654541367
 10
9.2075434196
 20
19.1209733622
 10
9.1132593585
 20
19.0737159727
  0
LWPOLYLINE
  5
42F
100
AcDbEntity
  8
RACCORDO
100
AcDbPolyline
 62
7
  6
CONTINUOUS
 90
3
 70
0
 10
12.298338616
 20
19.2849087607
 10
12.2894904057
 20
19.2886760083
 10
12.2862979343
 20
19.2897265413
  0
LWPOLYLINE
  5
430
100
AcDbEntity
  8
RACCORDO
100
AcDbPolyline
 62
250
  6
CONTINUOUS
 90
11
 70
0
 10
5.0133187593
 20
20.5604500213
 10
4.9941768233
 20
20.5700202643
 10
4.97504005
 20
20.578921266
 10
4.9559229663
 20
20.5871462698
 10
4.9368400835
 20
20.5946890321
 10
4.9178058875
 20
20.6015438273
 10
4.8988348269
 20
20.6077054521
 10
4.8799413025
 20
20.6131692291
 10
4.8611396562
 20
20.6179310108
 10
4.8424441601
 20
20.6219871828
 10
4.8336684704
 20
20.6235686756
  0
LINE
  5
431
100
AcDbEntity
  8
0
100
AcDbLine
 62
7
  6
CONTINUOUS
 10
9.9485157274
 20
18.4971397713
 11
9.2415467872
 21
18.8506242414
  0
LINE
  5
432
100
AcDbEntity
  8
0
100
AcDbLine
 62
7
  6
CONTINUOUS
 10
10.4434904742
 20
18.7446271447
 11
9.7365215341
 21
19.0981116148
  0
LINE
  5
433
100
AcDbEntity
  8
DRAFT
100
AcDbLine
 62
7
  6
CONTINUOUS
 10
9.043712511
 20
19.7611369799
 11
9.4760267617
 21
19.5449798546
  0
LINE
  5
434
100
AcDbEntity
  8
RACCORDO
100
AcDbLine
 62
7
  6
CONTINUOUS
 10
13.1468667535
 20
18.860644692
 11
13.2392789146
 21
18.8143831835
  0
LWPOLYLINE
  5
435
100
AcDbEntity
  8
RACCORDO
100
AcDbPolyline
 62
7
  6
CONTINUOUS
 90
10
 70
0
 10
13.1089226862
 20
18.873312347
 10
13.0114456325
 20
18.9233677786
 10
12.9158324307
 20
18.9723436543
 10
12.8220830807
 20
19.0202399739
 10
12.7302119994
 20
19.0670581616
 10
12.64020477
 20
19.1127967934
 10
12.552018142
 20
19.1574515964
 10
12.4656376986
 20
19.2010211465
 10
12.3810778566
 20
19.243506868
 10
12.298338616
 20
19.2849087607
  0
LWPOLYLINE
  5
436
100
AcDbEntity
  8
RACCORDO
100
AcDbPolyline
 62
250
  6
CONTINUOUS
 90
6
 70
0
 10
13.0532301543
 20
18.8543486835
 10
13.0760905837
 20
18.8347699501
 10
13.098668122
 20
18.8144169036
 10
13.1209627692
 20
18.7932895439
 10
13.1430082675
 20
18.771459657
 10
13.1451689138
 20
18.7692154553
  0
LWPOLYLINE
  5
437
100
AcDbEntity
  8
RACCORDO
100
AcDbPolyline
 62
250
  6
CONTINUOUS
 90
57
 70
0
 10
18.4958102302
 20
15.8361768835
 10
18.5051446427
 20
15.8062201458
 10
18.5173439193
 20
15.7636853037
 10
18.528789306
 20
15.7201421541
 10
18.5394623039
 20
15.6755998371
 10
18.5492945951
 20
15.6300789441
 10
18.5582856118
 20
15.5834792671
 10
18.5664071834
 20
15.5358975954
 10
18.5735579652
 20
15.487655533
 10
18.5797230696
 20
15.4386847104
 10
18.5849034056
 20
15.3890611214
 10
18.5890415346
 20
15.339334213
 10
18.5921224904
 20
15.2894451223
 10
18.5941727059
 20
15.2394729706
 10
18.5952259254
 20
15.1901879998
 10
18.5952742269
 20
15.1415743117
 10
18.5943706905
 20
15.0936790769
 10
18.5926733379
 20
15.0473803684
 10
18.5902202545
 20
15.0029643819
 10
18.5870519941
 20
14.9601821702
 10
18.5833448288
 20
14.9191139272
 10
18.5791575548
 20
14.8799080113
 10
18.5744996713
 20
14.8424428499
 10
18.5694648563
 20
14.8063905163
 10
18.5640841291
 20
14.7717142877
 10
18.5583735236
 20
14.7384668591
 10
18.5523932002
 20
14.7064509734
 10
18.5461617387
 20
14.6756388507
 10
18.539696297
 20
14.6460686665
 10
18.5330488246
 20
14.617640381
 10
18.5262363016
 20
14.5903539913
 10
18.5192704881
 20
14.5642166855
 10
18.5121916669
 20
14.5391382677
 10
18.5050162744
 20
14.5151280404
 10
18.4977506767
 20
14.492181695
 10
18.4904167906
 20
14.4701879291
 10
18.4830292713
 20
14.4491538003
 10
18.475590891
 20
14.4290756764
 10
18.4681028201
 20
14.4098256541
 10
18.4605726973
 20
14.391396589
 10
18.4530057431
 20
14.3737979426
 10
18.4453972128
 20
14.3569262977
 10
18.4377439961
 20
14.3407615721
 10
18.4300587512
 20
14.3253254798
 10
18.4223589636
 20
14.3105770752
 10
18.4146405715
 20
14.2965078909
 10
18.4069150583
 20
14.2831277231
 10
18.3992223755
 20
14.2704229552
 10
18.3915682123
 20
14.2584053495
 10
18.3839525468
 20
14.2470643408
 10
18.3764059939
 20
14.2363527717
 10
18.3689409497
 20
14.2262855664
 10
18.3615489185
 20
14.2168488354
 10
18.3542283924
 20
14.2079520846
 10
18.3469795593
 20
14.1995653928
 10
18.3398045845
 20
14.1917194876
 10
18.3327044655
 20
14.1844147683
  0
LWPOLYLINE
  5
438
100
AcDbEntity
  8
0
100
AcDbPolyline
 62
7
  6
CONTINUOUS
 90
7
 70
0
 10
1.9560629686
 20
-25.9439014114
 10
1.9659873696
 20
-25.9385337241
 10
1.9929039165
 20
-25.9207874158
 10
2.0173729693
 20
-25.8996654821
 10
2.0389757151
 20
-25.8754818408
 10
2.0573527959
 20
-25.848559518
 10
2.0721495868
 20
-25.8192902491
  0
LINE
  5
439
100
AcDbEntity
  8
0
100
AcDbLine
 62
7
  6
CONTINUOUS
 10
2.0700504222
 20
-24.6684750843
 11
2.7718837987
 21
-24.3063348288
  0
LINE
  5
43A
100
AcDbEntity
  8
0
100
AcDbLine
 62
250
  6
CONTINUOUS
 10
1.4916564654
 20
-26.0802603218
 11
2.0199236372
 21
-25.8092492631
  0
LINE
  5
43B
100
AcDbEntity
  8
0
100
AcDbLine
 62
7
  6
CONTINUOUS
 10
1.4275513657
 20
-26.2150380929
 11
1.9562355996
 21
-25.9438130734
  0
LWPOLYLINE
  5
43C
100
AcDbEntity
  8
0
100
AcDbPolyline
 62
7
  6
CONTINUOUS
 90
3
 70
0
 10
2.0700504734
 20
-24.6684750628
 10
2.0679616811
 20
-24.6695365483
 10
2.0565155786
 20
-24.6747956151
  0
LINE
  5
43D
100
AcDbEntity
  8
0
100
AcDbLine
 62
7
  6
CONTINUOUS
 10
1.4275513637
 20
-26.2150380939
 11
1.4258149527
 21
-26.2159063138
  0
LINE
  5
43E
100
AcDbEntity
  8
0
100
AcDbLine
 62
250
  6
CONTINUOUS
 10
-0.1096243254
 20
-26.8602949214
 11
1.4916564654
 21
-26.0802603218
  0
LINE
  5
43F
100
AcDbEntity
  8
0
100
AcDbLine
 62
7
  6
CONTINUOUS
 10
-0.175885918
 20
-26.9961455476
 11
1.4258149519
 21
-26.2159063142
  0
LINE
  5
440
100
AcDbEntity
  8
0
100
AcDbLine
 62
250
  6
CONTINUOUS
 10
1.1195891827
 20
-24.8514455953
 11
2.1987632466
 21
-24.3984521578
  0
LINE
  5
441
100
AcDbEntity
  8
0
100
AcDbLine
 62
7
  6
CONTINUOUS
 10
0.978323429
 20
-25.1273768849
 11
2.0565157205
 21
-24.6747955556
  0
LINE
  5
442
100
AcDbEntity
  8
RACCORDO
100
AcDbLine
 62
250
  6
CONTINUOUS
 10
-4.0002437358
 20
-26.8646311452
 11
-1.1294757452
 21
-25.7723307406
  0
LINE
  5
443
100
AcDbEntity
  8
RACCORDO
100
AcDbLine
 62
7
  6
CONTINUOUS
 10
-1.2921167945
 20
-26.0574794055
 11
-4.1669884457
 21
-27.1513408106
  0
LWPOLYLINE
  5
444
100
AcDbEntity
  8
0
100
AcDbPolyline
 62
7
  6
CONTINUOUS
 90
7
 70
0
 10
-3.4405908178
 20
23.4878981771
 10
-3.4289847978
 20
23.4904331015
 10
-3.4170184779
 20
23.4923768536
 10
-3.4046988793
 20
23.4937180518
 10
-3.3920269928
 20
23.4944370774
 10
-3.3790200065
 20
23.4945266745
 10
-3.3656828315
 20
23.4939788643
  0
LINE
  5
445
100
AcDbEntity
  8
0
100
AcDbLine
 62
7
  6
CONTINUOUS
 10
-2.7200031392
 20
23.1920479273
 11
-2.726042909
 21
23.1910371868
  0
LWPOLYLINE
  5
446
100
AcDbEntity
  8
0
100
AcDbPolyline
 62
7
  6
CONTINUOUS
 90
11
 70
0
 10
-3.3656828315
 20
23.4939788643
 10
-3.3519966373
 20
23.4927711098
 10
-3.3379880266
 20
23.4909007448
 10
-3.3236539417
 20
23.4883530337
 10
-3.308926943
 20
23.485081836
 10
-3.2938090412
 20
23.4810770891
 10
-3.2783207208
 20
23.4763225592
 10
-3.2624188058
 20
23.4707556787
 10
-3.2461064241
 20
23.4643572103
 10
-3.2294096679
 20
23.4571136269
 10
-3.2114182001
 20
23.4485156409
  0
LWPOLYLINE
  5
447
100
AcDbEntity
  8
DRAFT
100
AcDbPolyline
 62
7
  6
CONTINUOUS
 90
10
 70
0
 10
13.2189906974
 20
19.6001552561
 10
13.255096317
 20
19.5844475313
 10
13.2906309194
 20
19.5684390438
 10
13.3255945045
 20
19.5521297937
 10
13.3599972417
 20
19.5355146963
 10
13.3938289617
 20
19.5185988363
 10
13.4270591565
 20
19.5013974677
 10
13.4596776567
 20
19.4839156752
 10
13.4916946316
 20
19.466148374
 10
13.5231100813
 20
19.4480955642
  0
LINE
  5
448
100
AcDbEntity
  8
DRAFT
100
AcDbLine
 62
7
  6
CONTINUOUS
 10
13.0354528564
 20
19.6762643241
 11
13.6669841774
 21
19.3604986636
  0
LINE
  5
449
100
AcDbEntity
  8
DRAFT
100
AcDbLine
 62
7
  6
CONTINUOUS
 10
13.2189906974
 20
19.6001552561
 11
13.5231100813
 21
19.4480955642
  0
LINE
  5
44A
100
AcDbEntity
  8
RACCORDO
100
AcDbLine
 62
7
  6
CONTINUOUS
 10
13.1166811148
 20
18.8687258749
 11
13.1089226862
 21
18.873312347
  0
LWPOLYLINE
  5
44B
100
AcDbEntity
  8
RACCORDO
100
AcDbPolyline
 62
250
  6
CONTINUOUS
 90
4
 70
0
 10
13.1468667535
 20
18.860644692
 10
13.1713897438
 20
18.8401403136
 10
13.1957555055
 20
18.8188620492
 10
13.2139533292
 20
18.8022282675
  0
LWPOLYLINE
  5
44C
100
AcDbEntity
  8
0
100
AcDbPolyline
 62
7
  6
CONTINUOUS
 90
3
 70
0
 10
-12.1933403825
 20
23.5171869568
 10
-12.2242602944
 20
23.510013703
 10
-12.2541465224
 20
23.498924921
  0
LWPOLYLINE
  5
44D
100
AcDbEntity
  8
RACCORDO
100
AcDbPolyline
 62
250
  6
CONTINUOUS
 90
25
 70
0
 10
11.3592272169
 20
23.319633171
 10
11.3439795153
 20
23.326438995
 10
11.3284164422
 20
23.3325729268
 10
11.3125495549
 20
23.338030411
 10
11.2963906361
 20
23.3428073951
 10
11.2799516856
 20
23.3469003316
 10
11.263244911
 20
23.350306181
 10
11.2462827189
 20
23.3530224142
 10
11.2290777055
 20
23.355047014
 10
11.2116426474
 20
23.3563784771
 10
11.1939904918
 20
23.3570158145
 10
11.1761343474
 20
23.3569585531
 10
11.1580874743
 20
23.3562067354
 10
11.1398632741
 20
23.3547609196
 10
11.1214752803
 20
23.3526221794
 10
11.1029371479
 20
23.3497921032
 10
11.0842626433
 20
23.3462727924
 10
11.0654656345
 20
23.3420668606
 10
11.0465600801
 20
23.3371774311
 10
11.0275600195
 20
23.3316081349
 10
11.0084795623
 20
23.3253631077
 10
10.9893328778
 20
23.318446987
 10
10.9701341842
 20
23.310864909
 10
10.9508977388
 20
23.302622504
 10
10.9316378266
 20
23.2937258929
  0
LINE
  5
44E
100
AcDbEntity
  8
DRAFT
100
AcDbLine
 62
7
  6
CONTINUOUS
 10
13.0157533284
 20
21.7535746566
 11
16.1245688991
 21
20.1991668713
  0
LINE
  5
44F
100
AcDbEntity
  8
0
100
AcDbLine
 62
250
  6
CONTINUOUS
 10
17.4581019789
 20
20.0304938168
 11
16.6328555112
 21
20.4431170506
  0
LWPOLYLINE
  5
450
100
AcDbEntity
  8
RACCORDO
100
AcDbPolyline
 62
250
  6
CONTINUOUS
 90
26
 70
0
 10
11.9724043284
 20
22.773342642
 10
10.9124958943
 20
23.3032961341
 10
10.8933591248
 20
23.3121971343
 10
10.8742420445
 20
23.3204221368
 10
10.8551591652
 20
23.3279648983
 10
10.8361249725
 20
23.3348196929
 10
10.817153915
 20
23.3409813173
 10
10.7982603935
 20
23.3464450942
 10
10.77945875
 20
23.3512068762
 10
10.7607632566
 20
23.3552630486
 10
10.7421881049
 20
23.3586105324
 10
10.7237473952
 20
23.3612467866
 10
10.7054551255
 20
23.3631698099
 10
10.6873251815
 20
23.3643781427
 10
10.6693713255
 20
23.3648708677
 10
10.6516071859
 20
23.364647611
 10
10.6340462475
 20
23.3637085418
 10
10.6167018407
 20
23.3620543732
 10
10.5995871313
 20
23.3596863608
 10
10.582715111
 20
23.356606302
 10
10.5660985873
 20
23.352816535
 10
10.5497501736
 20
23.3483199366
 10
10.5336822798
 20
23.34311992
 10
10.5179071029
 20
23.3372204325
 10
10.5024366178
 20
23.3306259525
 10
10.5000184016
 20
23.3295195992
  0
LINE
  5
451
100
AcDbEntity
  8
RACCORDO
100
AcDbLine
 62
7
  6
CONTINUOUS
 10
17.8270003615
 20
20.0858443954
 11
16.9795616221
 21
20.5095637651
  0
LINE
  5
452
100
AcDbEntity
  8
RACCORDO
100
AcDbLine
 62
7
  6
CONTINUOUS
 10
12.4954439787
 20
22.7516225867
 11
11.3665107072
 21
23.3160892225
  0
LWPOLYLINE
  5
453
100
AcDbEntity
  8
RACCORDO
100
AcDbPolyline
 62
7
  6
CONTINUOUS
 90
12
 70
0
 10
17.8270008299
 20
20.0858441612
 10
17.8329342682
 20
20.0827228406
 10
17.8401002464
 20
20.0785104214
 10
17.8469580159
 20
20.0739697927
 10
17.8535038586
 20
20.0691055009
 10
17.8597408934
 20
20.0639188185
 10
17.8656655175
 20
20.0584145979
 10
17.8712743774
 20
20.0525977554
 10
17.8765711289
 20
20.0464697937
 10
17.8815525556
 20
20.0400359027
 10
17.8862156673
 20
20.033301335
 10
17.890791893
 20
20.0258772678
  0
LWPOLYLINE
  5
454
100
AcDbEntity
  8
RACCORDO
100
AcDbPolyline
 62
7
  6
CONTINUOUS
 90
104
 70
0
 10
18.4958102302
 20
17.6552496599
 10
18.5085315516
 20
17.6459948518
 10
18.5533531643
 20
17.6121265303
 10
18.5978370122
 20
17.577251618
 10
18.6419946731
 20
17.5413668304
 10
18.6858252511
 20
17.504476639
 10
18.7292970044
 20
17.4666113052
 10
18.7723746259
 20
17.4278064683
 10
18.8150375474
 20
17.3880864461
 10
18.8572752551
 20
17.347466642
 10
18.8990677574
 20
17.3059717123
 10
18.9403938842
 20
17.2636284418
 10
18.9812446387
 20
17.2204516572
 10
19.0216177614
 20
17.1764482802
 10
19.0615085859
 20
17.1316265972
 10
19.1008910592
 20
17.08601892
 10
19.1397309853
 20
17.0396692973
 10
19.1779998845
 20
16.9926178321
 10
19.2156985117
 20
16.9448695898
 10
19.2528362498
 20
16.8964164276
 10
19.2894119528
 20
16.8472612874
 10
19.3253971491
 20
16.7974437124
 10
19.3607601011
 20
16.7470106716
 10
19.3954773895
 20
16.6960002288
 10
19.4295464131
 20
16.6444207533
 10
19.4629669857
 20
16.5922753878
 10
19.4957309579
 20
16.5395782777
 10
19.5278196561
 20
16.4863607208
 10
19.5592167936
 20
16.4326514768
 10
19.5899081383
 20
16.3784768793
 10
19.6198830725
 20
16.3238574981
 10
19.6491311067
 20
16.2688138179
 10
19.677639711
 20
16.2133705101
 10
19.7053976484
 20
16.1575503305
 10
19.7323963311
 20
16.1013708873
 10
19.7586249927
 20
16.0448542916
 10
19.7840714759
 20
15.9880262039
 10
19.8087251823
 20
15.9309095313
 10
19.8325757019
 20
15.8735272272
 10
19.8556119048
 20
15.8159046026
 10
19.8778225742
 20
15.7580681231
 10
19.8991950402
 20
15.700049428
 10
19.919722391
 20
15.6418655746
 10
19.9394017148
 20
15.5835209232
 10
19.9582284942
 20
15.5250218616
 10
19.9761866707
 20
15.4664105961
 10
19.9932570982
 20
15.4077450413
 10
20.009424969
 20
15.3490755871
 10
20.0246904258
 20
15.290400763
 10
20.0390566978
 20
15.2317004325
 10
20.0525208887
 20
15.1729708158
 10
20.0650669591
 20
15.1142646118
 10
20.0766787012
 20
15.0556459071
 10
20.0873456066
 20
14.997161795
 10
20.0970661522
 20
14.9388134133
 10
20.1058385364
 20
14.880595362
 10
20.1136576698
 20
14.8225151159
 10
20.120513895
 20
14.7646137323
 10
20.1263985638
 20
14.7069355607
 10
20.1313059821
 20
14.649506951
 10
20.1352311664
 20
14.5923490019
 10
20.1381685687
 20
14.5354969323
 10
20.1401137172
 20
14.4789838884
 10
20.1410632142
 20
14.4228229201
 10
20.1410130806
 20
14.3670183736
 10
20.1399577668
 20
14.3115599438
 10
20.1378925796
 20
14.2565049117
 10
20.1348185623
 20
14.2019564664
 10
20.130740136
 20
14.147982286
 10
20.1256556651
 20
14.0945550797
 10
20.1195582967
 20
14.0416342211
 10
20.1124360702
 20
13.9891773768
 10
20.1042935135
 20
13.9372723577
 10
20.0951528787
 20
13.8860702399
 10
20.0850326535
 20
13.8356486604
 10
20.0739282042
 20
13.7859621593
 10
20.0618316331
 20
13.7369737019
 10
20.0487321166
 20
13.6886536245
 10
20.0346443384
 20
13.6410699818
 10
20.0196012391
 20
13.5943298573
 10
20.0036195498
 20
13.5484683752
 10
19.986701806
 20
13.5034775023
 10
19.9688670908
 20
13.4593937319
 10
19.9501310736
 20
13.4162391393
 10
19.9305012554
 20
13.3740155461
 10
19.9099859657
 20
13.3327281509
 10
19.8885771027
 20
13.2923531131
 10
19.8663047993
 20
13.2529402717
 10
19.8432419886
 20
13.2145992533
 10
19.8194490858
 20
13.1773968805
 10
19.7949082586
 20
13.1412730555
 10
19.7695765562
 20
13.1061470366
 10
19.7434366306
 20
13.0719893279
 10
19.7165335479
 20
13.038853547
 10
19.6889158773
 20
13.0067874099
 10
19.6606187125
 20
12.9758149579
 10
19.6316465893
 20
12.9459248438
 10
19.6020053049
 20
12.9171098272
 10
19.571717262
 20
12.8893796817
 10
19.5408000169
 20
12.8627386275
 10
19.5092508022
 20
12.8371745574
 10
19.4770815007
 20
12.8126897447
 10
19.4443199968
 20
12.7892980218
 10
19.4109870166
 20
12.7670062029
  0
LWPOLYLINE
  5
455
100
AcDbEntity
  8
RACCORDO
100
AcDbPolyline
 62
250
  6
CONTINUOUS
 90
104
 70
0
 10
18.4958102302
 20
17.5650280758
 10
18.5056265253
 20
17.557158567
 10
18.5477827848
 20
17.5222103126
 10
18.5896927493
 20
17.4863075086
 10
18.6313380601
 20
17.4494658822
 10
18.6727004705
 20
17.4117015753
 10
18.713761853
 20
17.3730311381
 10
18.7545042141
 20
17.3334715165
 10
18.7949097017
 20
17.2930400439
 10
18.8349606087
 20
17.2517544389
 10
18.8746393797
 20
17.2096327979
 10
18.9139286226
 20
17.1666935847
 10
18.952811126
 20
17.12295561
 10
18.9912698618
 20
17.0784380282
 10
19.0292879855
 20
17.0331603368
 10
19.0668488286
 20
16.9871423855
 10
19.1039359174
 20
16.9404043578
 10
19.1405329897
 20
16.892966749
 10
19.1766240201
 20
16.844850333
 10
19.212193212
 20
16.7960761696
 10
19.2472249918
 20
16.7466656122
 10
19.2817039944
 20
16.6966403304
 10
19.3156150897
 20
16.6460222764
 10
19.3489434039
 20
16.5948336545
 10
19.3816743483
 20
16.5430968737
 10
19.4137936032
 20
16.4908345683
 10
19.4452871091
 20
16.4380696128
 10
19.4761410484
 20
16.384825154
 10
19.5063418768
 20
16.3311245655
 10
19.5358763453
 20
16.2769914088
 10
19.5647315292
 20
16.2224493768
 10
19.5928948083
 20
16.1675223241
 10
19.620353856
 20
16.1122342878
 10
19.6470966224
 20
16.0566095258
 10
19.6731113658
 20
16.0006724612
 10
19.698386673
 20
15.9444476387
 10
19.7229114847
 20
15.8879596641
 10
19.7466750755
 20
15.8312332409
 10
19.7696670442
 20
15.7742931933
 10
19.7918773009
 20
15.7171645051
 10
19.8132960938
 20
15.6598722592
 10
19.8339140268
 20
15.6024415937
 10
19.8537220785
 20
15.5448976427
 10
19.8727115852
 20
15.4872655746
 10
19.8908742343
 20
15.4295706129
 10
19.9082020555
 20
15.3718380702
 10
19.9246874425
 20
15.3140932892
 10
19.9403231649
 20
15.2563616016
 10
19.9551023802
 20
15.1986682776
 10
19.9690186225
 20
15.1410385585
 10
19.9820657981
 20
15.0834976733
 10
19.9942381829
 20
15.0260708612
 10
20.0055304355
 20
14.9687833207
 10
20.015937605
 20
14.9116601752
 10
20.0254551357
 20
14.8547264357
 10
20.0340788617
 20
14.7980070234
 10
20.0418050056
 20
14.7415267771
 10
20.0486301786
 20
14.6853104625
 10
20.0545513875
 20
14.6293827334
 10
20.0595660372
 20
14.5737681077
 10
20.0636719317
 20
14.518490945
 10
20.0668672729
 20
14.463575456
 10
20.0691506606
 20
14.4090456994
 10
20.0705210935
 20
14.3549255757
 10
20.0709779711
 20
14.3012388042
 10
20.070521093
 20
14.2480089104
 10
20.0691506596
 20
14.1952592197
 10
20.0668672715
 20
14.143012851
 10
20.0636719298
 20
14.0912927035
 10
20.0595660348
 20
14.0401214358
 10
20.0545513846
 20
13.9895214601
 10
20.0486301753
 20
13.9395149402
 10
20.0418050017
 20
13.8901237989
 10
20.0340788574
 20
13.8413696968
 10
20.0254551309
 20
13.7932740108
 10
20.0159375997
 20
13.7458578025
 10
20.0055304298
 20
13.6991418269
 10
19.9942381767
 20
13.6531465394
 10
19.9820657915
 20
13.6078921125
 10
19.9690186154
 20
13.5633984034
 10
19.9551023726
 20
13.519684927
 10
19.9403231568
 20
13.4767708186
 10
19.924687434
 20
13.4346748539
 10
19.9082020466
 20
13.3934154604
 10
19.890874225
 20
13.3530107396
 10
19.8727115755
 20
13.3134784276
 10
19.8537220682
 20
13.2748358665
 10
19.833914016
 20
13.2370999675
 10
19.8132960825
 20
13.2002872355
 10
19.7918772893
 20
13.1644137832
 10
19.7696670324
 20
13.1294953524
 10
19.7466750633
 20
13.0955472743
 10
19.722911472
 20
13.0625844423
 10
19.6983866597
 20
13.0306212796
 10
19.673111352
 20
12.9996717647
 10
19.6470966083
 20
12.9697494443
 10
19.6203538418
 20
12.9408674497
 10
19.5928947939
 20
12.9130384618
 10
19.5647315142
 20
12.8862746886
 10
19.5358763296
 20
12.8605878409
 10
19.5063418606
 20
12.8359891532
 10
19.476141032
 20
12.8124893939
 10
19.4452870927
 20
12.7900988753
 10
19.4109870172
 20
12.7670062032
  0
LINE
  5
456
100
AcDbEntity
  8
RACCORDO
100
AcDbLine
 62
250
  6
CONTINUOUS
 10
17.8009995549
 20
19.4390829812
 11
17.4581019789
 21
20.0304938168
  0
LINE
  5
457
100
AcDbEntity
  8
RACCORDO
100
AcDbLine
 62
7
  6
CONTINUOUS
 10
18.1538428037
 20
19.5721813386
 11
17.8907916981
 21
20.0258773839
  0
ELLIPSE
  5
458
100
AcDbEntity
  8
RACCORDO
100
AcDbEllipse
 62
7
  6
CONTINUOUS
 10
0.1155567996
 20
12.5648852571
 30
0.0
 11
-0.1996736685
 21
0.4584064956
 31
0.0
 40
0.6381227599
 41
-2.2220345828
 42
-0.6519234887
  0
ELLIPSE
  5
459
100
AcDbEntity
  8
RACCORDO
100
AcDbEllipse
 62
7
  6
CONTINUOUS
 10
-1.4831376476
 20
-25.5951906964
 30
0.0
 11
-0.1999840611
 21
0.4586318226
 31
0.0
 40
0.6372798266
 41
-3.1719489325
 42
-2.2231487507
  0
ELLIPSE
  5
45A
100
AcDbEntity
  8
RACCORDO
100
AcDbEllipse
 62
7
  6
CONTINUOUS
 10
-14.7334432144
 20
19.9893852642
 30
0.0
 11
-0.1999840611
 21
0.4586318226
 31
0.0
 40
0.6372798266
 41
-0.6516671913
 42
0.0303562708
  0
ELLIPSE
  5
45B
100
AcDbEntity
  8
DRAFT
100
AcDbEllipse
 62
7
  6
CONTINUOUS
 10
10.754755299
 20
18.6716633147
 30
0.0
 11
2.7499924258
 21
-0.0130015067
 31
0.0
 40
0.4964289597
 41
2.3672681657
 42
2.9293761949
  0
ELLIPSE
  5
45C
100
AcDbEntity
  8
0
100
AcDbEllipse
 62
7
  6
CONTINUOUS
 10
12.3148173746
 20
21.7239019001
 30
0.0
 11
0.4410298232
 21
0.8975092442
 31
0.0
 40
0.607010042
 41
-0.8902711325
 42
-0.7587130969
  0
ELLIPSE
  5
45D
100
AcDbEntity
  8
DRAFT
100
AcDbEllipse
 62
7
  6
CONTINUOUS
 10
11.4265067411
 20
18.5697398649
 30
0.0
 11
2.7583876426
 21
-0.0130411979
 31
0.0
 40
0.4964289597
 41
0.8884696282
 42
2.3585415194
  0
ELLIPSE
  5
45E
100
AcDbEntity
  8
DRAFT
100
AcDbEllipse
 62
7
  6
CONTINUOUS
 10
11.4265067411
 20
18.5697398649
 30
0.0
 11
2.7583876426
 21
-0.0130411979
 31
0.0
 40
0.4964289597
 41
0.4412294433
 42
0.6870207571
  0
ELLIPSE
  5
45F
100
AcDbEntity
  8
0
100
AcDbEllipse
 62
7
  6
CONTINUOUS
 10
16.2122054452
 20
19.7752078648
 30
0.0
 11
0.79574694
 21
0.7129684349
 31
0.0
 40
0.2882345029
 41
0.1134874795
 42
0.7807533904
  0
ELLIPSE
  5
460
100
AcDbEntity
  8
RACCORDO
100
AcDbEllipse
 62
7
  6
CONTINUOUS
 10
2.1985478222
 20
11.2855490167
 30
0.0
 11
-0.894612936
 21
1.7887945813
 31
0.0
 40
0.6124635976
 41
4.0276245976
 42
4.1592894158
  0
ELLIPSE
  5
461
100
AcDbEntity
  8
RACCORDO
100
AcDbEllipse
 62
7
  6
CONTINUOUS
 10
2.1985478222
 20
11.2855490167
 30
0.0
 11
-0.894612936
 21
1.7887945813
 31
0.0
 40
0.6124635976
 41
-1.5634955031
 42
-1.470288718
  0
ELLIPSE
  5
462
100
AcDbEntity
  8
RACCORDO
100
AcDbEllipse
 62
7
  6
CONTINUOUS
 10
2.1985478222
 20
-19.3222944808
 30
0.0
 11
-0.894811907
 21
1.788971565
 31
0.0
 40
0.6123121697
 41
-3.0410143285
 42
-2.9478075435
  0
ELLIPSE
  5
463
100
AcDbEntity
  8
RACCORDO
100
AcDbEllipse
 62
7
  6
CONTINUOUS
 10
2.1985478222
 20
-19.3222944808
 30
0.0
 11
-0.894811907
 21
1.788971565
 31
0.0
 40
0.6123121697
 41
3.8957781521
 42
4.0274429702
  0
ELLIPSE
  5
464
100
AcDbEntity
  8
DRAFT
100
AcDbEllipse
 62
7
  6
CONTINUOUS
 10
11.4265067411
 20
20.5502279775
 30
0.0
 11
2.7583515655
 21
-1.4175703156
 31
0.0
 40
0.0109499087
 41
-0.8804952881
 42
-0.85781018
  0
ELLIPSE
  5
465
100
AcDbEntity
  8
DRAFT
100
AcDbEllipse
 62
7
  6
CONTINUOUS
 10
11.4265067411
 20
20.5502279775
 30
0.0
 11
2.7583515655
 21
-1.4175703156
 31
0.0
 40
0.0109499087
 41
-0.7017315251
 42
-0.679046417
  0
ELLIPSE
  5
466
100
AcDbEntity
  8
DRAFT
100
AcDbEllipse
 62
7
  6
CONTINUOUS
 10
11.4265067411
 20
19.0027525668
 30
0.0
 11
2.7583876426
 21
-0.0130411979
 31
0.0
 40
0.4964289597
 41
0.1877225706
 42
2.3585415194
  0
ELLIPSE
  5
467
100
AcDbEntity
  8
0
100
AcDbEllipse
 62
7
  6
CONTINUOUS
 10
10.7312222107
 20
19.8988755502
 30
0.0
 11
3.3022643479
 21
-0.04629945
 31
0.0
 40
0.4892378494
 41
2.3616770883
 42
5.5059722822
  0
ELLIPSE
  5
468
100
AcDbEntity
  8
0
100
AcDbEllipse
 62
7
  6
CONTINUOUS
 10
12.3683729646
 20
21.6971241051
 30
0.0
 11
-0.3106730325
 21
1.1082908718
 31
0.0
 40
0.6760995073
 41
4.9783291412
 42
6.4001141399
  0
ELLIPSE
  5
469
100
AcDbEntity
  8
0
100
AcDbEllipse
 62
7
  6
CONTINUOUS
 10
-3.4979479792
 20
23.0327642129
 30
0.0
 11
0.2257019663
 21
0.4461636818
 31
0.0
 40
0.6159267166
 41
0.5882567743
 42
0.6817883054
  0
ELLIPSE
  5
46A
100
AcDbEntity
  8
RACCORDO
100
AcDbEllipse
 62
7
  6
CONTINUOUS
 10
7.6322429725
 20
18.1615807898
 30
0.0
 11
0.499996712
 21
0.0035883639
 31
0.0
 40
0.5053247124
 41
-0.7715714568
 42
-0.0036265893
  0
ELLIPSE
  5
46B
100
AcDbEntity
  8
0
100
AcDbEllipse
 62
7
  6
CONTINUOUS
 10
-4.1367024859
 20
19.0356775436
 30
0.0
 11
-0.0909679979
 21
0.1781462259
 31
0.0
 40
0.6079022756
 41
-0.6898048156
 42
-0.0128425411
  0
ELLIPSE
  5
46C
100
AcDbEntity
  8
0
100
AcDbEllipse
 62
7
  6
CONTINUOUS
 10
4.2117713113
 20
19.8164832664
 30
0.0
 11
0.4547905863
 21
0.8906238433
 31
0.0
 40
0.6079814556
 41
0.0051544747
 42
0.6840559135
  0
ELLIPSE
  5
46D
100
AcDbEntity
  8
ASSI
100
AcDbEllipse
 62
7
  6
CONTINUOUS
 10
-3.6989291001
 20
23.7718334721
 30
0.0
 11
1.004787277
 21
0.6140102217
 31
0.0
 40
0.0864918533
 41
0.054007136
 42
0.7329085821
  0
ELLIPSE
  5
46E
100
AcDbEntity
  8
ASSI
100
AcDbEllipse
 62
7
  6
CONTINUOUS
 10
7.884323559
 20
-18.9748062821
 30
0.0
 11
0.9927147821
 21
0.620457446
 31
0.0
 40
0.0764819879
 41
-2.4043514965
 42
-1.3666868807
  0
ELLIPSE
  5
46F
100
AcDbEntity
  8
ASSI
100
AcDbEllipse
 62
7
  6
CONTINUOUS
 10
26.2945546783
 20
-8.5013159034
 30
0.0
 11
24.0955625974
 21
12.2610436036
 31
0.0
 40
0.0085648092
 41
-2.9166229256
 42
-2.803161766
  0
ELLIPSE
  5
470
100
AcDbEntity
  8
ASSI
100
AcDbEllipse
 62
7
  6
CONTINUOUS
 10
26.2945546783
 20
22.1559833905
 30
0.0
 11
24.0955625974
 21
12.2610436036
 31
0.0
 40
0.0085648092
 41
2.794445403
 42
2.9079065627
  0
ELLIPSE
  5
471
100
AcDbEntity
  8
ASSI
100
AcDbEllipse
 62
7
  6
CONTINUOUS
 10
26.2945546783
 20
21.4631630675
 30
0.0
 11
24.0955625974
 21
12.2610436036
 31
0.0
 40
0.0085648092
 41
-2.9166229256
 42
-2.803161766
  0
ELLIPSE
  5
472
100
AcDbEntity
  8
ASSI
100
AcDbEllipse
 62
7
  6
CONTINUOUS
 10
26.2945546783
 20
-7.8084955804
 30
0.0
 11
24.0955625974
 21
12.2610436036
 31
0.0
 40
0.0085648092
 41
2.794445403
 42
2.9079065627
  0
ELLIPSE
  5
473
100
AcDbEntity
  8
0
100
AcDbEllipse
 62
7
  6
CONTINUOUS
 10
2.5461323471
 20
-23.8601824021
 30
0.0
 11
-0.2236315662
 21
0.4472293059
 31
0.0
 40
0.6123445654
 41
-3.1338271467
 42
-2.2555748796
  0
ELLIPSE
  5
474
100
AcDbEntity
  8
0
100
AcDbEllipse
 62
7
  6
CONTINUOUS
 10
2.5461323471
 20
14.0616388507
 30
0.0
 11
-0.223611546
 21
0.4472115081
 31
0.0
 40
0.6124054886
 41
-2.2555017776
 42
-0.6847562194
  0
ELLIPSE
  5
475
100
AcDbEntity
  8
0
100
AcDbEllipse
 62
7
  6
CONTINUOUS
 10
-5.8458856229
 20
19.8902691121
 30
0.0
 11
-0.090948378
 21
0.1781282571
 31
0.0
 40
0.6080538059
 41
-2.2606249166
 42
-0.6898793584
  0
ELLIPSE
  5
476
100
AcDbEntity
  8
0
100
AcDbEllipse
 62
7
  6
CONTINUOUS
 10
2.1140258169
 20
20.2267773149
 30
0.0
 11
0.2273952932
 21
0.4453119217
 31
0.0
 40
0.6079814556
 41
0.2357074224
 42
0.6840559135
  0
ELLIPSE
  5
477
100
AcDbEntity
  8
ASSI
100
AcDbEllipse
 62
7
  6
CONTINUOUS
 10
7.6322429725
 20
-19.2316156124
 30
0.0
 11
0.499443764
 21
0.3120915671
 31
0.0
 40
0.0755486457
 41
-0.0471742161
 42
0.720771186
  0
ELLIPSE
  5
478
100
AcDbEntity
  8
0
100
AcDbEllipse
 62
7
  6
CONTINUOUS
 10
-5.0472246272
 20
17.3635210002
 30
0.0
 11
0.199943508
 21
0.008945986
 31
0.0
 40
0.5313301283
 41
3.1178240564
 42
3.9032222197
  0
ELLIPSE
  5
479
100
AcDbEntity
  8
0
100
AcDbEllipse
 62
7
  6
CONTINUOUS
 10
-6.7479941687
 20
18.213905771
 30
0.0
 11
0.199943508
 21
0.008945986
 31
0.0
 40
0.5313301283
 41
-2.3799630874
 42
-0.8178934069
  0
ELLIPSE
  5
47A
100
AcDbEntity
  8
0
100
AcDbEllipse
 62
7
  6
CONTINUOUS
 10
-1.2609147059
 20
14.7554974526
 30
0.0
 11
0.249929385
 21
0.0111824824
 31
0.0
 40
0.5313301283
 41
3.1178240551
 42
3.9032222197
  0
ELLIPSE
  5
47B
100
AcDbEntity
  8
0
100
AcDbEllipse
 62
7
  6
CONTINUOUS
 10
-2.8783788264
 20
22.7229796365
 30
0.0
 11
0.2197467797
 21
0.4491356978
 31
0.0
 40
0.6167074461
 41
0.2252343201
 42
0.6735828111
  0
ELLIPSE
  5
47C
100
AcDbEntity
  8
0
100
AcDbEllipse
 62
7
  6
CONTINUOUS
 10
-3.144195993
 20
64.8542537025
 30
0.0
 11
-0.3192264997
 21
45.1189143812
 31
0.0
 40
0.0071249215
 41
3.4474731796
 42
3.5354687861
  0
ELLIPSE
  5
47D
100
AcDbEntity
  8
0
100
AcDbEllipse
 62
7
  6
CONTINUOUS
 10
-13.5645726985
 20
20.907326449
 30
0.0
 11
0.249929385
 21
0.0111824824
 31
0.0
 40
0.5313301283
 41
3.1178240551
 42
3.9032222197
  0
ELLIPSE
  5
47E
100
AcDbEntity
  8
0
100
AcDbEllipse
 62
7
  6
CONTINUOUS
 10
-11.8778069743
 20
20.0639435868
 30
0.0
 11
0.249929385
 21
0.0111824824
 31
0.0
 40
0.5313301283
 41
-2.3799630874
 42
-0.8149845248
  0
ELLIPSE
  5
47F
100
AcDbEntity
  8
0
100
AcDbEllipse
 62
7
  6
CONTINUOUS
 10
2.44625062
 20
19.1410115264
 30
0.0
 11
0.4530414621
 21
-0.0021419047
 31
0.0
 40
0.4964289597
 41
-0.77723337
 42
0.0023470288
  0
ELLIPSE
  5
480
100
AcDbEntity
  8
0
100
AcDbEllipse
 62
7
  6
CONTINUOUS
 10
-2.43282281
 20
21.2667172764
 30
0.0
 11
1.0205811965
 21
-0.0048251373
 31
0.0
 40
0.4964289597
 41
1.3061600176
 42
2.3584907469
  0
ELLIPSE
  5
481
100
AcDbEntity
  8
0
100
AcDbEllipse
 62
7
  6
CONTINUOUS
 10
-3.144195993
 20
21.9362348329
 30
0.0
 11
0.4530414621
 21
-0.0021419047
 31
0.0
 40
0.4964289597
 41
-0.4806702637
 42
0.0023470293
  0
ELLIPSE
  5
482
100
AcDbEntity
  8
0
100
AcDbEllipse
 62
7
  6
CONTINUOUS
 10
-14.2582570068
 20
20.6324383456
 30
0.0
 11
-0.2234618187
 21
0.4480306886
 31
0.0
 40
0.6116748051
 41
-0.6831523234
 42
0.886730614
  0
ELLIPSE
  5
483
100
AcDbEntity
  8
0
100
AcDbEllipse
 62
7
  6
CONTINUOUS
 10
-8.3712489666
 20
20.250070228
 30
0.0
 11
0.0907039967
 21
0.1782526758
 31
0.0
 40
0.6176975122
 41
0.6948951487
 42
2.2598737113
  0
ELLIPSE
  5
484
100
AcDbEntity
  8
0
100
AcDbEllipse
 62
7
  6
CONTINUOUS
 10
51.8365488992
 20
44.4905004028
 30
0.0
 11
60.4168605605
 21
30.5632322457
 31
0.0
 40
0.005706723
 41
2.5167363259
 42
2.6876789752
  0
ELLIPSE
  5
485
100
AcDbEntity
  8
0
100
AcDbEllipse
 62
7
  6
CONTINUOUS
 10
2.7335949697
 20
19.9169927385
 30
0.0
 11
0.221538876
 21
0.4482453432
 31
0.0
 40
0.6088015717
 41
0.5825560023
 42
0.6760875334
  0
ELLIPSE
  5
486
100
AcDbEntity
  8
0
100
AcDbEllipse
 62
7
  6
CONTINUOUS
 10
51.8365488992
 20
44.4905004028
 30
0.0
 11
60.4168605605
 21
30.5632322457
 31
0.0
 40
0.005706723
 41
-2.6934527084
 42
-2.5225100591
  0
ELLIPSE
  5
487
100
AcDbEntity
  8
0
100
AcDbEllipse
 62
7
  6
CONTINUOUS
 10
0.4258510183
 20
13.9121145905
 30
0.0
 11
0.249929385
 21
0.0111824824
 31
0.0
 40
0.5313301283
 41
-2.3799630874
 42
-0.8149845248
  0
ELLIPSE
  5
488
100
AcDbEntity
  8
ASSI
100
AcDbEllipse
 62
7
  6
CONTINUOUS
 10
7.6322429725
 20
19.1962038406
 30
0.0
 11
-0.3739417019
 21
0.598522373
 31
0.0
 40
0.554557473
 41
-3.1836090632
 42
-2.415663759
  0
ELLIPSE
  5
489
100
AcDbEntity
  8
0
100
AcDbEllipse
 62
7
  6
CONTINUOUS
 10
0.765981936
 20
-24.6742459204
 30
0.0
 11
-0.2234618187
 21
0.4480306886
 31
0.0
 40
0.6116748051
 41
2.4584403302
 42
4.0283232676
  0
ELLIPSE
  5
48A
100
AcDbEntity
  8
0
100
AcDbEllipse
 62
7
  6
CONTINUOUS
 10
0.765981936
 20
13.1203188742
 30
0.0
 11
-0.2230998035
 21
0.4477110033
 31
0.0
 40
0.6127700112
 41
-2.2535417632
 42
-0.6836588258
  0
ELLIPSE
  5
48B
100
AcDbEntity
  8
0
100
AcDbEllipse
 62
7
  6
CONTINUOUS
 10
-0.0263768524
 20
21.9355573483
 30
0.0
 11
0.4394935595
 21
0.8982713957
 31
0.0
 40
0.6167074461
 41
5.3917895557
 42
6.9567681183
  0
ELLIPSE
  5
48C
100
AcDbEntity
  8
ASSI
100
AcDbEllipse
 62
7
  6
CONTINUOUS
 10
7.884323559
 20
17.9802071426
 30
0.0
 11
-0.7356038977
 21
1.2035991204
 31
0.0
 40
0.5552491559
 41
5.1980061968
 42
6.2356708126
  0
ELLIPSE
  5
48D
100
AcDbEntity
  8
RACCORDO
100
AcDbEllipse
 62
7
  6
CONTINUOUS
 10
-1.1247140235
 20
-19.5539550637
 30
0.0
 11
-0.313181275
 21
0.626269159
 31
0.0
 40
0.6121897086
 41
-3.1606090032
 42
-2.2557347926
  0
ENDSEC
  0
SECTION
  2
OBJECTS
  0
DICTIONARY
  5
C
100
AcDbDictionary
280
0
281
1
  3
ACAD_GROUP
350
D
  3
ACAD_MLINESTYLE
350
17
  3
ACAD_LAYOUT
350
1A
  3
ACAD_PLOTSETTINGS
350
19
  3
ACAD_PLOTSTYLENAME
350
E
  0
DICTIONARY
  5
D
102
{ACAD_REACTORS
330
C
102
}
100
AcDbDictionary
280
0
281
1
  0
ACDBDICTIONARYWDFLT
  5
E
102
{ACAD_REACTORS
330
C
102
}
100
AcDbDictionary
281
1
  3
Normal
350
F
100
AcDbDictionaryWithDefault
340
F
  0
DICTIONARY
  5
17
102
{ACAD_REACTORS
330
C
102
}
100
AcDbDictionary
280
0
281
1
  3
Standard
350
18
  0
DICTIONARY
  5
19
102
{ACAD_REACTORS
330
C
102
}
100
AcDbDictionary
281
1
  0
DICTIONARY
  5
1A
102
{ACAD_REACTORS
330
C
102
}
100
AcDbDictionary
281
1
  3
Model
350
48E
  3
Layout1
350
48F
  0
ACDBPLACEHOLDER
  5
F
102
{ACAD_REACTORS
330
E
102
}
  0
MLINESTYLE
  5
18
102
{ACAD_REACTORS
330
17
102
}
100
AcDbMlineStyle
  2
STANDARD
 70
0
  3

 62
256
 51
90.0
 52
90.0
 71
2
 49
0.5
 62
256
  6
BYLAYER
 49
-0.5
 62
256
  6
BYLAYER
  0
LAYOUT
  5
48E
102
{ACAD_REACTORS
330
1A
102
}
100
AcDbPlotSettings
  1

  2
none_device
  4
ANSI_A_(11.00_x_8.50_Inches)
  6

 40
0.0
 41
0.0
 42
0.0
 43
0.0
 44
279.4
 45
215.9
 46
0.0
 47
0.0
 48
0.0
 49
0.0
140
0.0
141
0.0
142
1.0
143
1.0
 70
1024
 72
1
 73
0
 74
0
  7

 75
0
147
1.0
148
0.0
149
0.0
100
AcDbLayout
  1
Model
 70
0
 71
0
 10
0.0
 20
0.0
 11
279.4
 21
215.9
 12
0.0
 22
0.0
 32
0.0
 14
0.0
 24
0.0
 34
0.0
 15
0.0
 25
0.0
 35
0.0
146
0.0
 13
0.0
 23
0.0
 33
0.0
 16
1.0
 26
0.0
 36
0.0
 17
0.0
 27
1.0
 37
0.0
 76
0
330
224
345
0
346
0
  0
LAYOUT
  5
48F
102
{ACAD_REACTORS
330
1A
102
}
100
AcDbPlotSettings
  1

  2
none_device
  4
ANSI_A_(11.00_x_8.50_Inches)
  6

 40
0.0
 41
0.0
 42
0.0
 43
0.0
 44
279.4
 45
215.9
 46
0.0
 47
0.0
 48
0.0
 49
0.0
140
0.0
141
0.0
142
1.0
143
1.0
 70
0
 72
1
 73
0
 74
0
  7

 75
0
147
1.0
148
0.0
149
0.0
100
AcDbLayout
  1
Layout1
 70
0
 71
1
 10
0.0
 20
0.0
 11
279.4
 21
215.9
 12
0.0
 22
0.0
 32
0.0
 14
0.0
 24
0.0
 34
0.0
 15
0.0
 25
0.0
 35
0.0
146
0.0
 13
0.0
 23
0.0
 33
0.0
 16
1.0
 26
0.0
 36
0.0
 17
0.0
 27
1.0
 37
0.0
 76
0
330
225
345
0
346
0
  0
ENDSEC
  0
EOF
