  0
SECTION
  2
HEADER
  9
$ACADVER
  1
AC1024
  9
$DWGCODEPAGE
  3
ANSI_1252
  9
$EXTMAX
 10
297.0
 20
210.0
 30
0.0
  9
$EXTMIN
 10
0.0
 20
0.0
 30
0.0
  9
$LIMMIN
 10
0.0
 20
0.0
  9
$LIMMAX
 10
297.0
 20
210.0
  9
$VIEWCTR
 10
148.5
 20
105.0
  9
$VIEWSIZE
 40
210.0
  9
$CLAYER
  8
0
  9
$LTSCALE
 40
16.335
  9
$CELTYPE
  6
BYLAYER
  9
$DIMSCALE
 40
1.0
  9
$DIMASZ
 40
3.0
  9
$DIMEXO
 40
0.5
  9
$DIMDLI
 40
11.286
  9
$DIMEXE
 40
1.5
  9
$DIMCEN
 40
2.673
  9
$DIMLFAC
 40
1.0
  9
$DIMBLK
  1
_FILLED
  9
$DIMALT
 70
0
  9
$DIMALTF
 40
0.0393700787
  9
$DIMTXT
 40
3.0
  9
$DIMTOL
 70
1
  9
$DIMLIM
 70
0
  9
$DIMTFAC
 40
1.0
  9
$DIMTP
 40
0.01
  9
$DIMTM
 40
0.01
  9
$DIMGAP
 40
0.625
  9
$DIMDSEP
 70
44
  9
$AUNITS
 70
0
  9
$PDMODE
 70
3
  9
$PDSIZE
 40
3.0
  9
$HANDSEED
  5
4BD
  9
$TILEMODE
 70
1
  9
$MEASUREMENT
 70
1
  9
$INSUNITS
 70
4
  0
ENDSEC
  0
SECTION
  2
CLASSES
  0
CLASS
  1
ACDBDICTIONARYWDFLT
  2
AcDbDictionaryWithDefault
  3
AutoCAD 2000
 90
0
 91
1
280
0
281
0
  0
CLASS
  1
ACDBPLACEHOLDER
  2
AcDbPlaceHolder
  3
AutoCAD 2000
 90
0
 91
1
280
0
281
0
  0
CLASS
  1
LAYOUT
  2
AcDbLayout
  3
AutoCAD 2000
 90
0
 91
0
280
0
281
0
  0
ENDSEC
  0
SECTION
  2
TABLES
  0
TABLE
  2
VPORT
  5
8
100
AcDbSymbolTable
 70
2
  0
VPORT
  5
1F4
100
AcDbSymbolTableRecord
100
AcDbViewportTableRecord
  2
*ACTIVE
 70
0
 10
0.0
 20
0.0
 11
1.0
 21
1.0
 12
148.5
 22
105.0
 13
0.0
 23
0.0
 14
1.0
 24
1.0
 15
0.0
 25
0.0
 16
0.0
 26
0.0
 36
1.0
 17
0.0
 27
0.0
 37
0.0
 40
210.0
 41
1.4142857143
 42
50.0
 43
0.0
 44
0.0
 50
0.0
 51
0.0
 71
0
 72
100
 73
1
 74
1
 75
0
 76
0
 77
0
 78
0
  0
ENDTAB
  0
TABLE
  2
LTYPE
  5
5
100
AcDbSymbolTable
 70
6
  0
LTYPE
  5
14
100
AcDbSymbolTableRecord
100
AcDbLinetypeTableRecord
  2
BYBLOCK
 70
0
  3

 72
65
 73
0
 40
0.0
  0
LTYPE
  5
15
100
AcDbSymbolTableRecord
100
AcDbLinetypeTableRecord
  2
BYLAYER
 70
0
  3

 72
65
 73
0
 40
0.0
  0
LTYPE
  5
16
100
AcDbSymbolTableRecord
100
AcDbLinetypeTableRecord
  2
CONTINUOUS
 70
64
  3
Solid line
 72
65
 73
0
 40
0.0
  0
LTYPE
  5
1F5
100
AcDbSymbolTableRecord
100
AcDbLinetypeTableRecord
  2
CENTER
 70
64
  3
____ _ ____ _ ____ _ ____ _ ____ _ ____ _ ____
 72
65
 73
4
 40
0.6
 49
0.375
 74
0
 49
-0.075
 74
0
 49
0.075
 74
0
 49
-0.075
 74
0
  0
LTYPE
  5
1F6
100
AcDbSymbolTableRecord
100
AcDbLinetypeTableRecord
  2
HIDDEN
 70
64
  3
- - - - - - - - - - - - - - - - - - - -
 72
65
 73
2
 40
0.2
 49
0.1
 74
0
 49
-0.1
 74
0
  0
LTYPE
  5
1F7
100
AcDbSymbolTableRecord
100
AcDbLinetypeTableRecord
  2
PHANTOM
 70
64
  3
_____ _ _ _____ _ _ _____ _ _ _____
 72
65
 73
6
 40
0.8
 49
0.45
 74
0
 49
-0.05
 74
0
 49
0.1
 74
0
 49
-0.05
 74
0
 49
0.1
 74
0
 49
-0.05
 74
0
  0
LTYPE
  5
1F8
100
AcDbSymbolTableRecord
100
AcDbLinetypeTableRecord
  2
DOT
 70
64
  3
. . . . . . . . . . . . . . . . . . . .
 72
65
 73
2
 40
0.2
 49
0.1
 74
0
 49
-0.1
 74
0
  0
LTYPE
  5
1F9
100
AcDbSymbolTableRecord
100
AcDbLinetypeTableRecord
  2
DASHED
 70
64
  3
- - - - - - - - - - - - - - - - - - - -
 72
65
 73
2
 40
0.2
 49
0.1
 74
0
 49
-0.1
 74
0
  0
ENDTAB
  0
TABLE
  2
LAYER
  5
2
100
AcDbSymbolTable
 70
36
  0
LAYER
  5
10
100
AcDbSymbolTableRecord
100
AcDbLayerTableRecord
  2
0
 70
0
 62
7
  6
CONTINUOUS
370
-3
390
F
  0
LAYER
  5
1FA
100
AcDbSymbolTableRecord
100
AcDbLayerTableRecord
  2
DEFAULT_1
 70
0
 62
7
  6
CENTER
370
-3
390
F
  0
LAYER
  5
1FB
100
AcDbSymbolTableRecord
100
AcDbLayerTableRecord
  2
DEFAULT_2
 70
0
 62
7
  6
HIDDEN
370
-3
390
F
  0
LAYER
  5
1FC
100
AcDbSymbolTableRecord
100
AcDbLayerTableRecord
  2
DEFAULT_3
 70
0
 62
7
  6
PHANTOM
370
-3
390
F
  0
LAYER
  5
1FD
100
AcDbSymbolTableRecord
100
AcDbLayerTableRecord
  2
ASSI
 70
0
 62
7
  6
CONTINUOUS
370
-3
390
F
  0
LAYER
  5
1FE
100
AcDbSymbolTableRecord
100
AcDbLayerTableRecord
  2
COLOR9
 70
0
 62
7
  6
CONTINUOUS
370
-3
390
F
  0
LAYER
  5
1FF
100
AcDbSymbolTableRecord
100
AcDbLayerTableRecord
  2
COLORE_TOP
 70
0
 62
7
  6
CONTINUOUS
370
-3
390
F
  0
LAYER
  5
200
100
AcDbSymbolTableRecord
100
AcDbLayerTableRecord
  2
COORDINATE
 70
0
 62
7
  6
CONTINUOUS
370
-3
390
F
  0
LAYER
  5
201
100
AcDbSymbolTableRecord
100
AcDbLayerTableRecord
  2
COORD_ORIGINE
 70
0
 62
7
  6
CONTINUOUS
370
-3
390
F
  0
LAYER
  5
202
100
AcDbSymbolTableRecord
100
AcDbLayerTableRecord
  2
COPY
 70
0
 62
7
  6
CONTINUOUS
370
-3
390
F
  0
LAYER
  5
203
100
AcDbSymbolTableRecord
100
AcDbLayerTableRecord
  2
COPY_PUBLISH
 70
0
 62
7
  6
CONTINUOUS
370
-3
390
F
  0
LAYER
  5
204
100
AcDbSymbolTableRecord
100
AcDbLayerTableRecord
  2
COSMETICHE
 70
0
 62
7
  6
CONTINUOUS
370
-3
390
F
  0
LAYER
  5
205
100
AcDbSymbolTableRecord
100
AcDbLayerTableRecord
  2
COSMETICI
 70
0
 62
7
  6
CONTINUOUS
370
-3
390
F
  0
LAYER
  5
206
100
AcDbSymbolTableRecord
100
AcDbLayerTableRecord
  2
CURVE
 70
0
 62
7
  6
CONTINUOUS
370
-3
390
F
  0
LAYER
  5
207
100
AcDbSymbolTableRecord
100
AcDbLayerTableRecord
  2
DRAFT
 70
0
 62
7
  6
CONTINUOUS
370
-3
390
F
  0
LAYER
  5
208
100
AcDbSymbolTableRecord
100
AcDbLayerTableRecord
  2
IGES
 70
0
 62
7
  6
CONTINUOUS
370
-3
390
F
  0
LAYER
  5
209
100
AcDbSymbolTableRecord
100
AcDbLayerTableRecord
  2
IMPIANTO
 70
0
 62
7
  6
CONTINUOUS
370
-3
390
F
  0
LAYER
  5
20A
100
AcDbSymbolTableRecord
100
AcDbLayerTableRecord
  2
IMPORTED
 70
0
 62
7
  6
CONTINUOUS
370
-3
390
F
  0
LAYER
  5
20B
100
AcDbSymbolTableRecord
100
AcDbLayerTableRecord
  2
IMPORT_IGES
 70
0
 62
7
  6
CONTINUOUS
370
-3
390
F
  0
LAYER
  5
20C
100
AcDbSymbolTableRecord
100
AcDbLayerTableRecord
  2
INCISIONI_LASER
 70
0
 62
7
  6
CONTINUOUS
370
-3
390
F
  0
LAYER
  5
20D
100
AcDbSymbolTableRecord
100
AcDbLayerTableRecord
  2
INTFCLR_3
 70
0
 62
7
  6
CONTINUOUS
370
-3
390
F
  0
LAYER
  5
20E
100
AcDbSymbolTableRecord
100
AcDbLayerTableRecord
  2
INTF_1
 70
0
 62
7
  6
CONTINUOUS
370
-3
390
F
  0
LAYER
  5
20F
100
AcDbSymbolTableRecord
100
AcDbLayerTableRecord
  2
INTF_11
 70
0
 62
7
  6
CONTINUOUS
370
-3
390
F
  0
LAYER
  5
210
100
AcDbSymbolTableRecord
100
AcDbLayerTableRecord
  2
INTF_12
 70
0
 62
7
  6
CONTINUOUS
370
-3
390
F
  0
LAYER
  5
211
100
AcDbSymbolTableRecord
100
AcDbLayerTableRecord
  2
INTF_2
 70
0
 62
7
  6
CONTINUOUS
370
-3
390
F
  0
LAYER
  5
212
100
AcDbSymbolTableRecord
100
AcDbLayerTableRecord
  2
INTF_6
 70
0
 62
7
  6
CONTINUOUS
370
-3
390
F
  0
LAYER
  5
213
100
AcDbSymbolTableRecord
100
AcDbLayerTableRecord
  2
INTF_YELLOW
 70
0
 62
7
  6
CONTINUOUS
370
-3
390
F
  0
LAYER
  5
214
100
AcDbSymbolTableRecord
100
AcDbLayerTableRecord
  2
NOTE
 70
0
 62
7
  6
CONTINUOUS
370
-3
390
F
  0
LAYER
  5
215
100
AcDbSymbolTableRecord
100
AcDbLayerTableRecord
  2
PIANI
 70
0
 62
7
  6
CONTINUOUS
370
-3
390
F
  0
LAYER
  5
216
100
AcDbSymbolTableRecord
100
AcDbLayerTableRecord
  2
PIANI_ORIGINE
 70
0
 62
7
  6
CONTINUOUS
370
-3
390
F
  0
LAYER
  5
217
100
AcDbSymbolTableRecord
100
AcDbLayerTableRecord
  2
PIANI_RIFERIMENTO
 70
0
 62
7
  6
CONTINUOUS
370
-3
390
F
  0
LAYER
  5
218
100
AcDbSymbolTableRecord
100
AcDbLayerTableRecord
  2
PIANI_SFORMO
 70
0
 62
7
  6
CONTINUOUS
370
-3
390
F
  0
LAYER
  5
219
100
AcDbSymbolTableRecord
100
AcDbLayerTableRecord
  2
PUNTI
 70
0
 62
7
  6
CONTINUOUS
370
-3
390
F
  0
LAYER
  5
21A
100
AcDbSymbolTableRecord
100
AcDbLayerTableRecord
  2
RACCORDO
 70
0
 62
7
  6
CONTINUOUS
370
-3
390
F
  0
LAYER
  5
21B
100
AcDbSymbolTableRecord
100
AcDbLayerTableRecord
  2
RGB__255__255__255__
 70
0
 62
7
  6
CONTINUOUS
370
-3
390
F
  0
LAYER
  5
21C
100
AcDbSymbolTableRecord
100
AcDbLayerTableRecord
  2
RINTRACCIABILITA
 70
0
 62
7
  6
CONTINUOUS
370
-3
390
F
  0
LAYER
  5
21D
100
AcDbSymbolTableRecord
100
AcDbLayerTableRecord
  2
SIMBOLI
 70
0
 62
7
  6
CONTINUOUS
370
-3
390
F
  0
LAYER
  5
21E
100
AcDbSymbolTableRecord
100
AcDbLayerTableRecord
  2
SMUSSO
 70
0
 62
7
  6
CONTINUOUS
370
-3
390
F
  0
LAYER
  5
21F
100
AcDbSymbolTableRecord
100
AcDbLayerTableRecord
  2
SNAPLINE
 70
0
 62
7
  6
CONTINUOUS
370
-3
390
F
  0
LAYER
  5
220
100
AcDbSymbolTableRecord
100
AcDbLayerTableRecord
  2
SUPERFICI
 70
0
 62
7
  6
CONTINUOUS
370
-3
390
F
  0
LAYER
  5
221
100
AcDbSymbolTableRecord
100
AcDbLayerTableRecord
  2
TRASH
 70
0
 62
7
  6
CONTINUOUS
370
-3
390
F
  0
LAYER
  5
222
100
AcDbSymbolTableRecord
100
AcDbLayerTableRecord
  2
XSEC_DATUMS
 70
0
 62
7
  6
CONTINUOUS
370
-3
390
F
  0
ENDTAB
  0
TABLE
  2
STYLE
  5
3
100
AcDbSymbolTable
 70
1
  0
STYLE
  5
11
100
AcDbSymbolTableRecord
100
AcDbTextStyleTableRecord
  2
STANDARD
 70
0
 40
0.0
 41
0.8
 50
0.0
 71
0
 42
0.2
  3
txt
  4

  0
STYLE
  5
223
100
AcDbSymbolTableRecord
100
AcDbTextStyleTableRecord
  2
TEXTSTYLE_1
 70
0
 40
0.0
 41
0.8
 50
0.0
 71
0
 42
0.2
  3
gdt
  4

  0
ENDTAB
  0
TABLE
  2
VIEW
  5
6
100
AcDbSymbolTable
 70
0
  0
ENDTAB
  0
TABLE
  2
UCS
  5
7
100
AcDbSymbolTable
 70
0
  0
ENDTAB
  0
TABLE
  2
APPID
  5
9
100
AcDbSymbolTable
 70
1
  0
APPID
  5
224
100
AcDbSymbolTableRecord
100
AcDbRegAppTableRecord
  2
ACAD
 70
0
  0
ENDTAB
  0
TABLE
  2
BLOCK_RECORD
  5
1
100
AcDbSymbolTable
 70
0
  0
BLOCK_RECORD
  5
225
100
AcDbSymbolTableRecord
100
AcDbBlockTableRecord
  2
*Model_Space
  0
BLOCK_RECORD
  5
226
100
AcDbSymbolTableRecord
100
AcDbBlockTableRecord
  2
*Paper_Space
  0
BLOCK_RECORD
  5
227
100
AcDbSymbolTableRecord
100
AcDbBlockTableRecord
  2
_FILLED
  0
ENDTAB
  0
TABLE
  2
DIMSTYLE
  5
A
100
AcDbSymbolTable
 70
1
100
AcDbDimStyleTable
 71
0
  0
DIMSTYLE
105
228
100
AcDbSymbolTableRecord
100
AcDbDimStyleTableRecord
  2
STANDARD
 70
0
  3

  4

 40
1.0
 41
3.0
 42
0.5
 43
0.38
 44
1.5
 45
0.0
 46
0.0
 47
0.01
 48
0.01
140
3.0
141
0.09
142
0.0
143
25.4
144
1.0
145
0.0
146
1.0
147
0.625
 71
1
 72
0
 73
0
 74
0
 75
0
 76
0
 77
1
 78
8
 79
2
170
0
171
1
172
0
173
0
174
0
175
0
176
0
177
0
178
0
270
2
179
2
271
2
272
2
273
2
274
2
275
0
280
0
281
0
282
0
283
1
284
8
285
0
286
0
287
3
288
0
340
11
278
44
341
227
342
227
343
227
344
227
  0
ENDTAB
  0
ENDSEC
  0
SECTION
  2
BLOCKS
  0
BLOCK
  5
20
100
AcDbEntity
  8
0
100
AcDbBlockBegin
  2
*Model_Space
 70
0
 10
0.0
 20
0.0
 30
0.0
  3
*Model_Space
  1

  0
ENDBLK
  5
21
100
AcDbEntity
  8
0
100
AcDbBlockEnd
  0
BLOCK
  5
1C
100
AcDbEntity
  8
0
100
AcDbBlockBegin
  2
*Paper_Space
 70
0
 10
0.0
 20
0.0
 30
0.0
  3
*Paper_Space
  1

  0
ENDBLK
  5
1D
100
AcDbEntity
  8
0
100
AcDbBlockEnd
  0
BLOCK
  5
229
100
AcDbEntity
  8
0
100
AcDbBlockBegin
  2
_FILLED
 70
64
 10
0.0
 20
0.0
  3
_FILLED
  1

  0
SOLID
  5
22A
100
AcDbEntity
  8
0
  6
BYBLOCK
 62
0
100
AcDbTrace
 10
0.0
 20
0.0
 11
-1.0
 21
0.3166666667
 12
-1.0
 22
-0.3166666667
 13
-1.0
 23
-0.3166666667
  0
ENDBLK
  5
22B
100
AcDbEntity
  8
0
  6
BYBLOCK
 62
0
100
AcDbBlockEnd
  0
ENDSEC
  0
SECTION
  2
ENTITIES
  0
LWPOLYLINE
  5
22C
100
AcDbEntity
  8
RACCORDO
100
AcDbPolyline
 62
250
  6
CONTINUOUS
 90
11
 70
0
 10
-19.5396110048
 20
-19.7801796394
 10
-19.5796167845
 20
-19.7555936778
 10
-19.6166831452
 20
-19.7257889398
 10
-19.6505836516
 20
-19.6909464293
 10
-19.6811217925
 20
-19.6512707006
 10
-19.708112599
 20
-19.6069991383
 10
-19.7313893224
 20
-19.5583998333
 10
-19.7508149561
 20
-19.5057642956
 10
-19.7662727911
 20
-19.44940934
 10
-19.7776666673
 20
-19.3896746793
 10
-19.7849269124
 20
-19.3269197952
  0
LWPOLYLINE
  5
22D
100
AcDbEntity
  8
RACCORDO
100
AcDbPolyline
 62
250
  6
CONTINUOUS
 90
4
 70
0
 10
-17.6788195574
 20
18.9811688048
 10
-17.6254638804
 20
19.0197472883
 10
-17.571575163
 20
19.0534446515
 10
-17.5174815476
 20
19.0820602443
  0
LWPOLYLINE
  5
22E
100
AcDbEntity
  8
0
100
AcDbPolyline
 62
7
  6
CONTINUOUS
 90
10
 70
0
 10
-14.292367777
 20
22.4914510933
 10
-14.3203690027
 20
22.4746909157
 10
-14.3463526319
 20
22.4540616849
 10
-14.3696390387
 20
22.4298612896
 10
-14.3895846049
 20
22.4025782048
 10
-14.4057151093
 20
22.372751127
 10
-14.4177136622
 20
22.3408402233
 10
-14.4253208739
 20
22.3071948684
 10
-14.4282247534
 20
22.2728170485
 10
-14.4282536692
 20
22.2690315708
  0
LINE
  5
22F
100
AcDbEntity
  8
0
100
AcDbLine
 62
7
  6
CONTINUOUS
 10
-14.4031719687
 20
21.1444119851
 11
-13.8329714547
 21
21.4768911111
  0
LINE
  5
230
100
AcDbEntity
  8
0
100
AcDbLine
 62
250
  6
CONTINUOUS
 10
-14.1692680062
 20
21.1359652427
 11
-13.7252607172
 21
21.3948621601
  0
LWPOLYLINE
  5
231
100
AcDbEntity
  8
RACCORDO
100
AcDbPolyline
 62
7
  6
CONTINUOUS
 90
14
 70
0
 10
-17.7481128984
 20
19.0928767351
 10
-17.8128200123
 20
19.0575348832
 10
-17.8818663257
 20
19.0119614271
 10
-17.9481735011
 20
18.9597049403
 10
-18.0113608535
 20
18.9011394809
 10
-18.0706103182
 20
18.8371554861
 10
-18.1259054386
 20
18.7679118584
 10
-18.1770300064
 20
18.6936693984
 10
-18.2230270019
 20
18.6158208635
 10
-18.2638019893
 20
18.5346905335
 10
-18.2991374729
 20
18.450550451
 10
-18.3283353055
 20
18.3650139331
 10
-18.3512009161
 20
18.2787834573
 10
-18.3679202625
 20
18.190341764
  0
LINE
  5
232
100
AcDbEntity
  8
0
100
AcDbLine
 62
7
  6
CONTINUOUS
 10
-14.292367777
 20
22.4914510933
 11
-12.709196082
 21
23.3036481406
  0
LINE
  5
233
100
AcDbEntity
  8
0
100
AcDbLine
 62
250
  6
CONTINUOUS
 10
-14.1792821108
 20
22.4850031182
 11
-12.5965255077
 21
23.2969872155
  0
LINE
  5
234
100
AcDbEntity
  8
0
100
AcDbLine
 62
250
  6
CONTINUOUS
 10
-12.5007440404
 20
21.6457340829
 11
-10.8994632496
 21
22.4484560864
  0
LINE
  5
235
100
AcDbEntity
  8
0
100
AcDbLine
 62
250
  6
CONTINUOUS
 10
-12.3239703367
 20
21.3408445441
 11
-10.7226895459
 21
22.1435665476
  0
LINE
  5
236
100
AcDbEntity
  8
0
100
AcDbLine
 62
7
  6
CONTINUOUS
 10
-12.7091941123
 20
23.3036491511
 11
-12.7074576949
 21
23.3045173742
  0
LINE
  5
237
100
AcDbEntity
  8
0
100
AcDbLine
 62
250
  6
CONTINUOUS
 10
-10.8994632496
 20
22.4484560864
 11
-10.3711960778
 21
22.7118949065
  0
LINE
  5
238
100
AcDbEntity
  8
0
100
AcDbLine
 62
250
  6
CONTINUOUS
 10
-10.7226895459
 20
22.1435665476
 11
-10.1944223742
 21
22.4070053677
  0
LINE
  5
239
100
AcDbEntity
  8
RACCORDO
100
AcDbLine
 62
7
  6
CONTINUOUS
 10
-17.7481732996
 20
19.0928604785
 11
-15.0130199027
 21
20.4439075409
  0
LINE
  5
23A
100
AcDbEntity
  8
RACCORDO
100
AcDbLine
 62
250
  6
CONTINUOUS
 10
-17.5174815476
 20
19.0820602443
 11
-14.7859284993
 21
20.4313288908
  0
LWPOLYLINE
  5
23B
100
AcDbEntity
  8
0
100
AcDbPolyline
 62
250
  6
CONTINUOUS
 90
16
 70
0
 10
-14.292367777
 20
22.4914510933
 10
-14.2889700527
 20
22.4931087177
 10
-14.2822248317
 20
22.4959212654
 10
-14.2752440928
 20
22.4982198189
 10
-14.2680436488
 20
22.4999991713
 10
-14.2606398104
 20
22.501255292
 10
-14.253049349
 20
22.5019853356
 10
-14.2452894585
 20
22.5021876484
 10
-14.237377717
 20
22.5018617722
 10
-14.2293320463
 20
22.5010084451
 10
-14.2211706717
 20
22.4996296
 10
-14.2129120804
 20
22.4977283604
 10
-14.20457498
 20
22.495309033
 10
-14.196178256
 20
22.4923770982
 10
-14.1877409288
 20
22.4889391974
 10
-14.1792821108
 20
22.4850031182
  0
LINE
  5
23C
100
AcDbEntity
  8
0
100
AcDbLine
 62
7
  6
CONTINUOUS
 10
-12.7074549309
 20
23.3045187206
 11
-12.1725877401
 21
23.5650694731
  0
LINE
  5
23D
100
AcDbEntity
  8
0
100
AcDbLine
 62
250
  6
CONTINUOUS
 10
-12.5965255077
 20
23.2969872155
 11
-12.062075629
 21
23.5573346821
  0
LWPOLYLINE
  5
23E
100
AcDbEntity
  8
0
100
AcDbPolyline
 62
7
  6
CONTINUOUS
 90
16
 70
0
 10
-12.7074576949
 20
23.3045173742
 10
-12.7058000686
 20
23.3053048816
 10
-12.6990645798
 20
23.3081124196
 10
-12.6920968405
 20
23.3104042811
 10
-12.6849125835
 20
23.312175301
 10
-12.6775280678
 20
23.313421476
 10
-12.6699601135
 20
23.3141399412
 10
-12.662225792
 20
23.3143291063
 10
-12.6543425861
 20
23.313988563
 10
-12.6463284866
 20
23.3131190214
 10
-12.6382015562
 20
23.3117224984
 10
-12.6299801452
 20
23.3098021885
 10
-12.6216830484
 20
23.3073623618
 10
-12.6133290551
 20
23.3044085509
 10
-12.6049369059
 20
23.3009475379
 10
-12.5965255077
 20
23.2969872155
  0
LWPOLYLINE
  5
23F
100
AcDbEntity
  8
0
100
AcDbPolyline
 62
250
  6
CONTINUOUS
 90
16
 70
0
 10
-12.1725877289
 20
23.5650694786
 10
-12.1709150167
 20
23.5658639227
 10
-12.1641880864
 20
23.5686655771
 10
-12.1572321048
 20
23.5709498582
 10
-12.1500627629
 20
23.5727115997
 10
-12.1426963671
 20
23.5739467817
 10
-12.1351497702
 20
23.5746525916
 10
-12.1274401841
 20
23.5748274608
 10
-12.1195849849
 20
23.5744710357
 10
-12.1116018262
 20
23.5735841318
 10
-12.1035075786
 20
23.5721685077
 10
-12.0953217679
 20
23.570227464
 10
-12.0870665016
 20
23.567766567
 10
-12.078761746
 20
23.5647925175
 10
-12.0704251645
 20
23.561312385
 10
-12.062075629
 20
23.5573346821
  0
LINE
  5
240
100
AcDbEntity
  8
0
100
AcDbLine
 62
7
  6
CONTINUOUS
 10
-12.1648345411
 20
23.5686833826
 11
-12.1727518799
 21
23.564989317
  0
LWPOLYLINE
  5
241
100
AcDbEntity
  8
RACCORDO
100
AcDbPolyline
 62
250
  6
CONTINUOUS
 90
8
 70
0
 10
-17.7481182793
 20
19.0928876459
 10
-17.7323456642
 20
19.0998663861
 10
-17.6999891357
 20
19.1096575442
 10
-17.6657360694
 20
19.1143575296
 10
-17.6299614219
 20
19.1139148931
 10
-17.5930568064
 20
19.10833448
 10
-17.5554262052
 20
19.0976773771
 10
-17.5174815476
 20
19.0820602443
  0
LWPOLYLINE
  5
242
100
AcDbEntity
  8
0
100
AcDbPolyline
 62
7
  6
CONTINUOUS
 90
16
 70
0
 10
0.690908264
 20
-25.5990660486
 10
0.6851695807
 20
-25.5978483592
 10
0.6792438611
 20
-25.5965302849
 10
0.6731323795
 20
-25.5951157088
 10
0.6668338031
 20
-25.5936124441
 10
0.6603527479
 20
-25.5920209989
 10
0.6536997203
 20
-25.5903345495
 10
0.6468768356
 20
-25.5885578796
 10
0.6398866334
 20
-25.5866955646
 10
0.6327405167
 20
-25.5847406918
 10
0.6254413324
 20
-25.582698545
 10
0.6179923146
 20
-25.5805742265
 10
0.6104057061
 20
-25.5783607746
 10
0.6026851107
 20
-25.5760639655
 10
0.5948344752
 20
-25.573689418
 10
0.5868668153
 20
-25.57123016
  0
LWPOLYLINE
  5
243
100
AcDbEntity
  8
0
100
AcDbPolyline
 62
7
  6
CONTINUOUS
 90
9
 70
0
 10
-0.3078610073
 20
-26.9252421861
 10
-0.2796672952
 20
-26.9372388246
 10
-0.2497835461
 20
-26.9457936095
 10
-0.2187175354
 20
-26.9506063258
 10
-0.186919442
 20
-26.9514682609
 10
-0.1551332756
 20
-26.9482630313
 10
-0.1242133636
 20
-26.9410897775
 10
-0.0943271357
 20
-26.9300009956
 10
-0.0864097968
 20
-26.9263069299
  0
LWPOLYLINE
  5
244
100
AcDbEntity
  8
RACCORDO
100
AcDbPolyline
 62
7
  6
CONTINUOUS
 90
11
 70
0
 10
-4.8407581753
 20
-27.1297061421
 10
-4.8071235829
 20
-27.1454716973
 10
-4.7482394395
 20
-27.1680908854
 10
-4.6871979352
 20
-27.1854343449
 10
-4.6243476505
 20
-27.1973257236
 10
-4.5597657543
 20
-27.2036331172
 10
-4.4938703648
 20
-27.204179535
 10
-4.4271628371
 20
-27.1988357494
 10
-4.359732915
 20
-27.1874450697
 10
-4.2918492421
 20
-27.1698420804
 10
-4.2377476205
 20
-27.1513241063
  0
LINE
  5
245
100
AcDbEntity
  8
RACCORDO
100
AcDbLine
 62
7
  6
CONTINUOUS
 10
-19.5311444029
 20
-19.7845233878
 11
-19.5320135604
 21
-19.7840902509
  0
LINE
  5
246
100
AcDbEntity
  8
ASSI
100
AcDbLine
 62
7
  6
CONTINUOUS
 10
-19.5320474634
 20
-19.7840732994
 11
-4.8398552973
 21
-27.1301693825
  0
LINE
  5
247
100
AcDbEntity
  8
RACCORDO
100
AcDbLine
 62
250
  6
CONTINUOUS
 10
-19.7849269124
 20
-19.3269197952
 11
-5.1001720216
 21
-26.6692972406
  0
LINE
  5
248
100
AcDbEntity
  8
RACCORDO
100
AcDbLine
 62
7
  6
CONTINUOUS
 10
-4.840671492
 20
-27.1297601769
 11
-4.8398912462
 21
-27.130151408
  0
LINE
  5
249
100
AcDbEntity
  8
RACCORDO
100
AcDbLine
 62
250
  6
CONTINUOUS
 10
-19.5320135604
 20
-19.7840902509
 11
-19.5396110048
 21
-19.7801796394
  0
LINE
  5
24A
100
AcDbEntity
  8
0
100
AcDbLine
 62
7
  6
CONTINUOUS
 10
-10.7226895459
 20
20.5414158867
 11
-11.6127497286
 21
20.0447349654
  0
LINE
  5
24B
100
AcDbEntity
  8
0
100
AcDbLine
 62
7
  6
CONTINUOUS
 10
-8.7427905586
 20
20.9371070391
 11
-9.79727999
 21
20.3961340004
  0
LINE
  5
24C
100
AcDbEntity
  8
0
100
AcDbLine
 62
7
  6
CONTINUOUS
 10
-3.4065671526
 20
23.5365505045
 11
-8.7427905586
 21
20.9371070391
  0
LINE
  5
24D
100
AcDbEntity
  8
0
100
AcDbLine
 62
7
  6
CONTINUOUS
 10
-2.8983577762
 20
24.3560867677
 11
-10.0196965916
 21
20.8919878023
  0
LWPOLYLINE
  5
24E
100
AcDbEntity
  8
0
100
AcDbPolyline
 62
7
  6
CONTINUOUS
 90
3
 70
0
 10
-3.373364455
 20
23.5508319093
 10
-3.3625122571
 20
23.5545341904
 10
-3.3512788365
 20
23.5576566387
  0
LINE
  5
24F
100
AcDbEntity
  8
0
100
AcDbLine
 62
250
  6
CONTINUOUS
 10
2.1092356185
 20
-25.3919592848
 11
1.5809684467
 21
-25.2834570077
  0
LINE
  5
250
100
AcDbEntity
  8
0
100
AcDbLine
 62
250
  6
CONTINUOUS
 10
2.0198218231
 20
-25.0723924788
 11
1.5809684467
 21
-24.9822551521
  0
LWPOLYLINE
  5
251
100
AcDbEntity
  8
0
100
AcDbPolyline
 62
7
  6
CONTINUOUS
 90
3
 70
0
 10
0.5868668153
 20
-25.57123016
 10
0.5705982041
 20
-25.5660823977
 10
0.56231575
 20
-25.5633931101
  0
LWPOLYLINE
  5
252
100
AcDbEntity
  8
0
100
AcDbPolyline
 62
7
  6
CONTINUOUS
 90
3
 70
0
 10
0.56231575
 20
-25.5633931101
 10
0.5454892488
 20
-25.5578035789
 10
0.5369652621
 20
-25.5549031937
  0
LWPOLYLINE
  5
253
100
AcDbEntity
  8
0
100
AcDbPolyline
 62
7
  6
CONTINUOUS
 90
3
 70
0
 10
0.5369652621
 20
-25.5549031937
 10
0.5197345326
 20
-25.5489129911
 10
0.5110494643
 20
-25.545823772
  0
LWPOLYLINE
  5
254
100
AcDbEntity
  8
0
100
AcDbPolyline
 62
7
  6
CONTINUOUS
 90
3
 70
0
 10
0.5110494643
 20
-25.545823772
 10
0.4935827777
 20
-25.5394808543
 10
0.4848244959
 20
-25.536228616
  0
LWPOLYLINE
  5
255
100
AcDbEntity
  8
0
100
AcDbPolyline
 62
7
  6
CONTINUOUS
 90
17
 70
0
 10
0.4848244959
 20
-25.536228616
 10
0.4673051776
 20
-25.5295882643
 10
0.4585691549
 20
-25.5262026152
 10
0.4498631163
 20
-25.5227796595
 10
0.4411958513
 20
-25.5193279219
 10
0.4325852014
 20
-25.5158424939
 10
0.4240406475
 20
-25.5123318281
 10
0.4155717526
 20
-25.5088048023
 10
0.4071969072
 20
-25.505257381
 10
0.3989265038
 20
-25.5016981453
 10
0.3907708479
 20
-25.4981362459
 10
0.3827486272
 20
-25.4945686942
 10
0.3748814131
 20
-25.4910102501
 10
0.3671696405
 20
-25.487463539
 10
0.3596017483
 20
-25.4839098201
 10
0.352183213
 20
-25.4803515799
 10
0.3449353329
 20
-25.4768098374
  0
LWPOLYLINE
  5
256
100
AcDbEntity
  8
0
100
AcDbPolyline
 62
250
  6
CONTINUOUS
 90
34
 70
0
 10
-0.3728343037
 20
-26.790023736
 10
-0.364269372
 20
-26.7941080905
 10
-0.3553235887
 20
-26.7979867603
 10
-0.3460165597
 20
-26.8016507783
 10
-0.3363673747
 20
-26.8050921057
 10
-0.3263985876
 20
-26.8083021933
 10
-0.3161365961
 20
-26.8112723309
 10
-0.3056060346
 20
-26.8139954594
 10
-0.2948291139
 20
-26.8164659044
 10
-0.2838298765
 20
-26.8186781465
 10
-0.2726329063
 20
-26.8206272197
 10
-0.2612635136
 20
-26.8223086972
 10
-0.2497474959
 20
-26.8237187574
 10
-0.2381108595
 20
-26.8248542222
 10
-0.2263796756
 20
-26.8257125541
 10
-0.2145802531
 20
-26.8262918278
 10
-0.2027390974
 20
-26.8265907381
 10
-0.1908828722
 20
-26.8266086076
 10
-0.1790382639
 20
-26.8263453939
 10
-0.1672319184
 20
-26.8258016877
 10
-0.1554903848
 20
-26.8249787104
 10
-0.1438400759
 20
-26.8238783117
 10
-0.1323071941
 20
-26.8225029653
 10
-0.1209176812
 20
-26.8208557634
 10
-0.1096971634
 20
-26.8189404112
 10
-0.09867088
 20
-26.8167612164
 10
-0.0878636299
 20
-26.8143230795
 10
-0.0772997244
 20
-26.8116314848
 10
-0.067002919
 20
-26.8086924842
 10
-0.0569963792
 20
-26.8055126892
 10
-0.0473026295
 20
-26.8020992577
 10
-0.0379434774
 20
-26.7984598707
 10
-0.0289399659
 20
-26.7946027126
 10
-0.0203123441
 20
-26.7905364598
  0
LWPOLYLINE
  5
257
100
AcDbEntity
  8
0
100
AcDbPolyline
 62
250
  6
CONTINUOUS
 90
34
 70
0
 10
-0.3728343037
 20
-26.4500498019
 10
-0.3642546833
 20
-26.4541408357
 10
-0.3552968048
 20
-26.4580238929
 10
-0.3459808137
 20
-26.4616902407
 10
-0.336327672
 20
-26.4651316302
 10
-0.326359078
 20
-26.4683403263
 10
-0.3160974135
 20
-26.4713091231
 10
-0.3055657282
 20
-26.4740313475
 10
-0.2947877281
 20
-26.4765008676
 10
-0.2837876889
 20
-26.4787121195
 10
-0.2725903622
 20
-26.4806601281
 10
-0.2612209175
 20
-26.4823405153
 10
-0.2497049245
 20
-26.4837495018
 10
-0.2380682824
 20
-26.484883919
 10
-0.226337161
 20
-26.4857412155
 10
-0.2145379425
 20
-26.4863194636
 10
-0.202697154
 20
-26.4866173629
 10
-0.1908414336
 20
-26.4866342428
 10
-0.1789974697
 20
-26.4863700662
 10
-0.1671919155
 20
-26.4858254302
 10
-0.1554513035
 20
-26.4850015612
 10
-0.1438020113
 20
-26.4839003111
 10
-0.132270152
 20
-26.4825241453
 10
-0.1208817471
 20
-26.4808761658
 10
-0.1096626323
 20
-26.4789601201
 10
-0.0986381733
 20
-26.4767803641
 10
-0.0878329967
 20
-26.4743417912
 10
-0.0772711749
 20
-26.4716498436
 10
-0.0669756341
 20
-26.4687103261
 10
-0.0569703953
 20
-26.4655300577
 10
-0.0472800863
 20
-26.4621169778
 10
-0.0379269571
 20
-26.4584791916
 10
-0.0289310573
 20
-26.4546247748
 10
-0.0203123441
 20
-26.4505625257
  0
LINE
  5
258
100
AcDbEntity
  8
0
100
AcDbLine
 62
7
  6
CONTINUOUS
 10
-1.7493115132
 20
-26.2045169332
 11
-0.3078610073
 21
-26.9252421861
  0
LINE
  5
259
100
AcDbEntity
  8
0
100
AcDbLine
 62
250
  6
CONTINUOUS
 10
-1.6326358837
 20
-26.160122946
 11
-0.3728343037
 21
-26.790023736
  0
LINE
  5
25A
100
AcDbEntity
  8
0
100
AcDbLine
 62
250
  6
CONTINUOUS
 10
-0.3728343037
 20
-26.4500498019
 11
-1.2782442362
 21
-25.9973448356
  0
LINE
  5
25B
100
AcDbEntity
  8
0
100
AcDbLine
 62
250
  6
CONTINUOUS
 10
-0.2844459561
 20
-26.218355628
 11
-1.1954820088
 21
-25.7628376016
  0
LINE
  5
25C
100
AcDbEntity
  8
0
100
AcDbLine
 62
7
  6
CONTINUOUS
 10
0.3449353329
 20
-25.4768098374
 11
-1.1563998665
 21
-24.7261602393
  0
LWPOLYLINE
  5
25D
100
AcDbEntity
  8
RACCORDO
100
AcDbPolyline
 62
250
  6
CONTINUOUS
 90
9
 70
0
 10
-19.931441862
 20
-19.148918503
 10
-19.9308312992
 20
-19.1549970206
 10
-19.924761079
 20
-19.1833059103
 10
-19.9134792315
 20
-19.2108295338
 10
-19.8971053257
 20
-19.2372761867
 10
-19.8758128975
 20
-19.2623655785
 10
-19.8498276115
 20
-19.2858318035
 10
-19.8194248685
 20
-19.3074261586
 10
-19.7849268869
 20
-19.3269197794
  0
LINE
  5
25E
100
AcDbEntity
  8
RACCORDO
100
AcDbLine
 62
7
  6
CONTINUOUS
 10
-19.9314613409
 20
-19.148674893
 11
-19.931441862
 21
-19.148918503
  0
LWPOLYLINE
  5
25F
100
AcDbEntity
  8
RACCORDO
100
AcDbPolyline
 62
250
  6
CONTINUOUS
 90
10
 70
0
 10
-19.7849269124
 20
-19.3269197952
 10
-19.8635384969
 20
-18.2488232989
 10
-19.9292735503
 20
-17.1626127109
 10
-19.9821177579
 20
-16.0685147625
 10
-20.0220591437
 20
-14.966758063
 10
-20.0490893333
 20
-13.8575722416
 10
-20.0632035482
 20
-12.7411878957
 10
-20.0643989303
 20
-11.6178376252
 10
-20.0526745501
 20
-10.4877559882
 10
-20.0280326616
 20
-9.3511786385
  0
LWPOLYLINE
  5
260
100
AcDbEntity
  8
RACCORDO
100
AcDbPolyline
 62
250
  6
CONTINUOUS
 90
9
 70
0
 10
-20.1744899204
 20
-9.1753036251
 10
-20.1734821764
 20
-9.1940071844
 10
-20.1675103873
 20
-9.2186553837
 10
-20.1563172983
 20
-9.2429887906
 10
-20.1400214936
 20
-9.2667496064
 10
-20.1187956181
 20
-9.2896860988
 10
-20.0928645479
 20
-9.3115552688
 10
-20.0625030078
 20
-9.332125425
 10
-20.0280326611
 20
-9.3511786382
  0
LWPOLYLINE
  5
261
100
AcDbEntity
  8
RACCORDO
100
AcDbPolyline
 62
250
  6
CONTINUOUS
 90
10
 70
0
 10
-18.3679202625
 20
18.190341764
 10
-18.368457429
 20
18.1855533738
 10
-18.3672569271
 20
18.1664273538
 10
-18.3608234229
 20
18.1467668222
 10
-18.3492250985
 20
18.1267801408
 10
-18.3325848728
 20
18.1066791281
 10
-18.3110790985
 20
18.0866768143
 10
-18.2849356934
 20
18.0669851836
 10
-18.2544317246
 20
18.0478129275
 10
-18.2198904728
 20
18.0293632331
  0
LWPOLYLINE
  5
262
100
AcDbEntity
  8
RACCORDO
100
AcDbPolyline
 62
7
  6
CONTINUOUS
 90
10
 70
0
 10
-18.3679180427
 20
18.1904441784
 10
-18.5331611905
 20
17.0567659831
 10
-18.6970049692
 20
15.849633512
 10
-18.8477716437
 20
14.6464444713
 10
-18.9854212337
 20
13.4474902078
 10
-19.1099255733
 20
12.2530120737
 10
-19.2212597703
 20
11.0632323565
 10
-19.3193983054
 20
9.8783908055
 10
-19.4043175434
 20
8.6987724949
 10
-19.4714533693
 20
7.6058810858
  0
LWPOLYLINE
  5
263
100
AcDbEntity
  8
RACCORDO
100
AcDbPolyline
 62
250
  6
CONTINUOUS
 90
16
 70
0
 10
-18.2199070817
 20
18.0293590826
 10
-18.2070098772
 20
18.1011543312
 10
-18.1900790182
 20
18.1735846039
 10
-18.1692175216
 20
18.2462151846
 10
-18.1445541315
 20
18.3186119893
 10
-18.1162370771
 20
18.3903392015
 10
-18.084433488
 20
18.4609619612
 10
-18.049338889
 20
18.5300559881
 10
-18.0111655813
 20
18.5972090098
 10
-17.9701356328
 20
18.6620179828
 10
-17.9264993425
 20
18.7240954016
 10
-17.8805213706
 20
18.7830695806
 10
-17.8324683333
 20
18.8385850955
 10
-17.7826312119
 20
18.8903112554
 10
-17.7313141159
 20
18.9379366449
 10
-17.6788195574
 20
18.9811688048
  0
LWPOLYLINE
  5
264
100
AcDbEntity
  8
0
100
AcDbPolyline
 62
7
  6
CONTINUOUS
 90
7
 70
0
 10
-10.1790618018
 20
21.9886386843
 10
-10.1601419079
 20
22.0149799018
 10
-10.1447854843
 20
22.0435608744
 10
-10.1332571405
 20
22.0738985906
 10
-10.125744138
 20
22.1055443562
 10
-10.1224023085
 20
22.1379197083
 10
-10.1222245181
 20
22.1473357802
  0
LINE
  5
265
100
AcDbEntity
  8
0
100
AcDbLine
 62
250
  6
CONTINUOUS
 10
-10.7226895459
 20
21.4165216952
 11
-10.1944223742
 21
22.0594738509
  0
LINE
  5
266
100
AcDbEntity
  8
0
100
AcDbLine
 62
7
  6
CONTINUOUS
 10
-10.7226895459
 20
21.3269912288
 11
-10.1790618018
 21
21.9886386843
  0
LINE
  5
267
100
AcDbEntity
  8
0
100
AcDbLine
 62
7
  6
CONTINUOUS
 10
-9.1378701156
 20
18.6202662974
 11
-8.424592507
 21
19.0161207425
  0
LINE
  5
268
100
AcDbEntity
  8
0
100
AcDbLine
 62
250
  6
CONTINUOUS
 10
-6.4446917248
 20
19.7880576222
 11
-5.7577899394
 21
20.1326182801
  0
LINE
  5
269
100
AcDbEntity
  8
0
100
AcDbLine
 62
250
  6
CONTINUOUS
 10
-6.3032721635
 20
19.5441486231
 11
-5.6151469623
 21
19.8893229654
  0
LINE
  5
26A
100
AcDbEntity
  8
0
100
AcDbLine
 62
7
  6
CONTINUOUS
 10
-9.1378701156
 20
20.0664290632
 11
-8.2827669168
 21
20.4926230534
  0
LINE
  5
26B
100
AcDbEntity
  8
0
100
AcDbLine
 62
250
  6
CONTINUOUS
 10
-6.6595049389
 20
19.6809920645
 11
-6.4446917248
 21
19.7880576222
  0
LINE
  5
26C
100
AcDbEntity
  8
0
100
AcDbLine
 62
250
  6
CONTINUOUS
 10
-6.5185003345
 20
19.4368762457
 11
-6.3032721635
 21
19.5441486231
  0
LINE
  5
26D
100
AcDbEntity
  8
0
100
AcDbLine
 62
7
  6
CONTINUOUS
 10
-7.4027381838
 20
20.9550924023
 11
-2.7900953279
 21
23.2283145922
  0
LINE
  5
26E
100
AcDbEntity
  8
0
100
AcDbLine
 62
7
  6
CONTINUOUS
 10
-3.0651360599
 20
21.6973247324
 11
-2.6536704913
 21
21.9001049367
  0
LINE
  5
26F
100
AcDbEntity
  8
0
100
AcDbLine
 62
7
  6
CONTINUOUS
 10
0.0608781632
 20
22.8764687979
 11
-2.0742574406
 21
21.8242222259
  0
LINE
  5
270
100
AcDbEntity
  8
RACCORDO
100
AcDbLine
 62
7
  6
CONTINUOUS
 10
-2.9270744931
 20
20.6693081523
 11
-2.9238664529
 21
20.6707237819
  0
LWPOLYLINE
  5
271
100
AcDbEntity
  8
RACCORDO
100
AcDbPolyline
 62
7
  6
CONTINUOUS
 90
5
 70
0
 10
-3.0653612793
 20
20.6039888872
 10
-3.0605181146
 20
20.6060465115
 10
-3.0530917547
 20
20.608364374
 10
-3.0449453366
 20
20.6098967386
 10
-3.0360270016
 20
20.6105476522
  0
LINE
  5
272
100
AcDbEntity
  8
RACCORDO
100
AcDbLine
 62
7
  6
CONTINUOUS
 10
-2.8540258631
 20
20.6968249191
 11
-2.9238668142
 21
20.6707236117
  0
LINE
  5
273
100
AcDbEntity
  8
RACCORDO
100
AcDbLine
 62
7
  6
CONTINUOUS
 10
-2.778986753
 20
20.7197524842
 11
-2.8540258631
 21
20.6968249191
  0
LWPOLYLINE
  5
274
100
AcDbEntity
  8
RACCORDO
100
AcDbPolyline
 62
7
  6
CONTINUOUS
 90
6
 70
0
 10
-2.9238664529
 20
20.6707237819
 10
-2.9106381783
 20
20.6746658069
 10
-2.8948545582
 20
20.6760044423
 10
-2.8782172256
 20
20.6741106171
 10
-2.8610286246
 20
20.6690094082
 10
-2.843594002
 20
20.6607837881
  0
LWPOLYLINE
  5
275
100
AcDbEntity
  8
0
100
AcDbPolyline
 62
250
  6
CONTINUOUS
 90
5
 70
0
 10
2.0432368744
 20
-25.0804798549
 10
2.0390483091
 20
-25.0785131991
 10
2.0328284224
 20
-25.0760375592
 10
2.0264155246
 20
-25.0739960237
 10
2.0198218231
 20
-25.0723924788
  0
LINE
  5
276
100
AcDbEntity
  8
0
100
AcDbLine
 62
7
  6
CONTINUOUS
 10
0.855616898
 20
-25.0382558943
 11
0.3383863044
 21
-24.7796405975
  0
LINE
  5
277
100
AcDbEntity
  8
0
100
AcDbLine
 62
250
  6
CONTINUOUS
 10
1.5809684467
 20
-24.8529657906
 11
2.0198218231
 21
-25.0723924788
  0
LINE
  5
278
100
AcDbEntity
  8
0
100
AcDbLine
 62
7
  6
CONTINUOUS
 10
1.5809684467
 20
-24.849345641
 11
2.0432368744
 21
-25.0804798549
  0
LINE
  5
279
100
AcDbEntity
  8
SUPERFICI
100
AcDbLine
 62
7
  6
CONTINUOUS
 10
-15.283708745
 20
-14.7908016222
 11
-14.3998252485
 21
-15.2327433705
  0
LINE
  5
27A
100
AcDbEntity
  8
DRAFT
100
AcDbLine
 62
7
  6
CONTINUOUS
 10
-15.283708745
 20
-14.7908016222
 11
-14.3998252485
 21
-15.2327433705
  0
LINE
  5
27B
100
AcDbEntity
  8
SUPERFICI
100
AcDbLine
 62
7
  6
CONTINUOUS
 10
-13.2684543182
 20
-15.7984288356
 11
-12.2077941207
 21
-16.3287589344
  0
LINE
  5
27C
100
AcDbEntity
  8
DRAFT
100
AcDbLine
 62
7
  6
CONTINUOUS
 10
-13.2684543182
 20
-15.7984288356
 11
-12.2077941207
 21
-16.3287589344
  0
LINE
  5
27D
100
AcDbEntity
  8
SUPERFICI
100
AcDbLine
 62
7
  6
CONTINUOUS
 10
-11.0764233701
 20
-16.8944443097
 11
-10.1925398735
 21
-17.3363860579
  0
LINE
  5
27E
100
AcDbEntity
  8
DRAFT
100
AcDbLine
 62
7
  6
CONTINUOUS
 10
-11.0764233701
 20
-16.8944443097
 11
-10.1925398735
 21
-17.3363860579
  0
LINE
  5
27F
100
AcDbEntity
  8
0
100
AcDbLine
 62
250
  6
CONTINUOUS
 10
2.0281521266
 20
-25.0768580625
 11
2.0198218231
 21
-25.0723924788
  0
LINE
  5
280
100
AcDbEntity
  8
0
100
AcDbLine
 62
7
  6
CONTINUOUS
 10
2.0432368744
 20
-25.0804798549
 11
2.0675618258
 21
-25.0943990968
  0
LWPOLYLINE
  5
281
100
AcDbEntity
  8
RACCORDO
100
AcDbPolyline
 62
7
  6
CONTINUOUS
 90
11
 70
0
 10
-19.931430888
 20
-19.14891762
 10
-19.9231227501
 20
-19.2198600322
 10
-19.9051876693
 20
-19.3067790309
 10
-19.8795852194
 20
-19.3882084982
 10
-19.8470789525
 20
-19.4634687768
 10
-19.808186792
 20
-19.5326376883
 10
-19.7629905488
 20
-19.5961304673
 10
-19.712182479
 20
-19.6533239887
 10
-19.6563920586
 20
-19.7038656802
 10
-19.5953751322
 20
-19.7480262563
 10
-19.5312271339
 20
-19.7844707893
  0
LWPOLYLINE
  5
282
100
AcDbEntity
  8
RACCORDO
100
AcDbPolyline
 62
250
  6
CONTINUOUS
 90
9
 70
0
 10
-19.4714533693
 20
7.6058810858
 10
-19.4705341152
 20
7.5850280383
 10
-19.4645159337
 20
7.5614871715
 10
-19.4532824119
 20
7.5381188549
 10
-19.4369525626
 20
7.5151706626
 10
-19.415699391
 20
7.4928857175
 10
-19.3897480626
 20
7.471500116
 10
-19.3593735168
 20
7.4512404262
 10
-19.3248975545
 20
7.4323212881
  0
LWPOLYLINE
  5
283
100
AcDbEntity
  8
RACCORDO
100
AcDbPolyline
 62
7
  6
CONTINUOUS
 90
10
 70
0
 10
-20.1744899017
 20
-9.1753034665
 10
-20.1982021506
 20
-10.2550547546
 10
-20.2106524416
 20
-11.401794278
 10
-20.2098024749
 20
-12.5417123295
 10
-20.1956482811
 20
-13.6745320709
 10
-20.1681916955
 20
-14.8000261671
 10
-20.1274354027
 20
-15.9179863845
 10
-20.0733837139
 20
-17.0281875131
 10
-20.0060489806
 20
-18.1303624304
 10
-19.9314613409
 20
-19.148674893
  0
LWPOLYLINE
  5
284
100
AcDbEntity
  8
RACCORDO
100
AcDbPolyline
 62
250
  6
CONTINUOUS
 90
10
 70
0
 10
-20.0280326616
 20
-9.3511786385
 10
-19.9744298587
 20
-7.4977283911
 10
-19.9146935574
 20
-5.6413736629
 10
-19.8488251976
 20
-3.7821477302
 10
-19.7768273481
 20
-1.9201091918
 10
-19.6987008266
 20
-0.0552662142
 10
-19.614443846
 20
1.8124238402
 10
-19.5240562532
 20
3.6829532278
 10
-19.4275403829
 20
5.556263452
 10
-19.32489758
 20
7.4323212776
  0
LWPOLYLINE
  5
285
100
AcDbEntity
  8
RACCORDO
100
AcDbPolyline
 62
7
  6
CONTINUOUS
 90
10
 70
0
 10
-19.4714533871
 20
7.6058811953
 10
-19.5710401554
 20
5.7872819856
 10
-19.6685882918
 20
3.8969621721
 10
-19.7598983753
 20
2.0094262609
 10
-19.844968401
 20
0.1247131009
 10
-19.9237969107
 20
-1.7571450131
 10
-19.9963826062
 20
-3.6361183154
 10
-20.0627241392
 20
-5.5121746077
 10
-20.12282017
 20
-7.3852753923
 10
-20.1744899204
 20
-9.1753036251
  0
LWPOLYLINE
  5
286
100
AcDbEntity
  8
RACCORDO
100
AcDbPolyline
 62
250
  6
CONTINUOUS
 90
10
 70
0
 10
-19.32489758
 20
7.4323212776
 10
-19.253402282
 20
8.5904928244
 10
-19.1690358629
 20
9.754052846
 10
-19.0718160973
 20
10.9227589245
 10
-18.9617639351
 20
12.0963677483
 10
-18.8389022255
 20
13.2746347321
 10
-18.7032557053
 20
14.4573140706
 10
-18.5548526919
 20
15.644159362
 10
-18.3937250847
 20
16.8349236573
 10
-18.2199070817
 20
18.0293590826
  0
LWPOLYLINE
  5
287
100
AcDbEntity
  8
0
100
AcDbPolyline
 62
250
  6
CONTINUOUS
 90
30
 70
0
 10
-12.3239703367
 20
21.00087061
 10
-12.3283908622
 20
20.9899791152
 10
-12.3331980575
 20
20.9793128464
 10
-12.3383810731
 20
20.9688958766
 10
-12.3439282112
 20
20.9587517163
 10
-12.3498269522
 20
20.9489032604
 10
-12.356063983
 20
20.9393727362
 10
-12.3626252271
 20
20.9301816535
 10
-12.369495876
 20
20.9213507561
 10
-12.3766604232
 20
20.9128999748
 10
-12.3841026986
 20
20.9048483825
 10
-12.3918059055
 20
20.8972141511
 10
-12.3997526583
 20
20.8900145107
 10
-12.4079250215
 20
20.8832657105
 10
-12.4163045506
 20
20.876982982
 10
-12.4248723335
 20
20.871180505
 10
-12.4336090332
 20
20.8658713755
 10
-12.4424949316
 20
20.8610675757
 10
-12.4515099736
 20
20.8567799475
 10
-12.4606338129
 20
20.8530181679
 10
-12.4698458575
 20
20.8497907271
 10
-12.4791253164
 20
20.847104909
 10
-12.4884512462
 20
20.8449667756
 10
-12.4978025991
 20
20.8433811523
 10
-12.5071582695
 20
20.8423516179
 10
-12.5164971423
 20
20.841880496
 10
-12.5257981401
 20
20.8419688499
 10
-12.5350402711
 20
20.8426164801
 10
-12.5442026765
 20
20.843821925
 10
-12.5508138303
 20
20.8450494492
  0
LWPOLYLINE
  5
288
100
AcDbEntity
  8
RACCORDO
100
AcDbPolyline
 62
250
  6
CONTINUOUS
 90
16
 70
0
 10
-2.9548019438
 20
19.8874071031
 10
-2.9136230245
 20
19.9169532331
 10
-2.8704276522
 20
19.9435633692
 10
-2.8252158268
 20
19.9672375116
 10
-2.7774388588
 20
19.9881324796
 10
-2.7276454377
 20
20.0060914539
 10
-2.6774816325
 20
20.0206439761
 10
-2.6269758415
 20
20.0316624741
 10
-2.5760996664
 20
20.0392745202
 10
-2.5264139811
 20
20.043392372
 10
-2.4780590267
 20
20.0439305675
 10
-2.4308945621
 20
20.0409745688
 10
-2.3860607371
 20
20.0346930207
 10
-2.3439376018
 20
20.0251421379
 10
-2.3041451061
 20
20.0122657057
 10
-2.26668325
 20
19.996063724
  0
LINE
  5
289
100
AcDbEntity
  8
0
100
AcDbLine
 62
7
  6
CONTINUOUS
 10
-6.3032721635
 20
18.3317071955
 11
-6.5185003345
 21
18.2122599743
  0
LINE
  5
28A
100
AcDbEntity
  8
0
100
AcDbLine
 62
250
  6
CONTINUOUS
 10
-4.9661096796
 20
18.8266318919
 11
-4.9587353974
 21
18.8306072937
  0
LINE
  5
28B
100
AcDbEntity
  8
0
100
AcDbLine
 62
7
  6
CONTINUOUS
 10
-4.83793494
 20
18.9447793586
 11
-5.0496219668
 21
18.8355505922
  0
LINE
  5
28C
100
AcDbEntity
  8
0
100
AcDbLine
 62
250
  6
CONTINUOUS
 10
-4.7476390398
 20
18.9395312797
 11
-4.9587353974
 21
18.8306072937
  0
LINE
  5
28D
100
AcDbEntity
  8
0
100
AcDbLine
 62
7
  6
CONTINUOUS
 10
-5.606586258
 20
18.6816765143
 11
-6.3032721635
 21
18.3317071955
  0
LINE
  5
28E
100
AcDbEntity
  8
0
100
AcDbLine
 62
7
  6
CONTINUOUS
 10
-2.0725712368
 20
21.2550534385
 11
-0.9806882746
 21
21.8009949196
  0
LINE
  5
28F
100
AcDbEntity
  8
0
100
AcDbLine
 62
7
  6
CONTINUOUS
 10
-4.8362311521
 20
18.9456313565
 11
-4.8379324548
 21
18.944780641
  0
LINE
  5
290
100
AcDbEntity
  8
0
100
AcDbLine
 62
7
  6
CONTINUOUS
 10
-4.1369539471
 20
19.2842807613
 11
-4.8362293842
 21
18.9456322133
  0
LINE
  5
291
100
AcDbEntity
  8
0
100
AcDbLine
 62
250
  6
CONTINUOUS
 10
-4.0486427048
 20
19.2780446628
 11
-4.7476390398
 21
18.9395312797
  0
LINE
  5
292
100
AcDbEntity
  8
RACCORDO
100
AcDbLine
 62
7
  6
CONTINUOUS
 10
-2.9271280085
 20
20.6692828748
 11
-3.0652428107
 21
20.6040457895
  0
LINE
  5
293
100
AcDbEntity
  8
RACCORDO
100
AcDbLine
 62
250
  6
CONTINUOUS
 10
-2.843594002
 20
20.6607837881
 11
-2.9798702911
 21
20.5964151053
  0
LINE
  5
294
100
AcDbEntity
  8
RACCORDO
100
AcDbLine
 62
7
  6
CONTINUOUS
 10
-2.7819948138
 20
18.8011691874
 11
-2.9466424008
 21
18.7270445108
  0
LWPOLYLINE
  5
295
100
AcDbEntity
  8
RACCORDO
100
AcDbPolyline
 62
250
  6
CONTINUOUS
 90
11
 70
0
 10
-2.0101278791
 20
20.7146037613
 10
-2.0010354186
 20
20.7186942124
 10
-1.9919767443
 20
20.7220509976
 10
-1.9829896227
 20
20.7246579697
 10
-1.974108435
 20
20.7265025738
 10
-1.9653739707
 20
20.7275737195
 10
-1.9568326223
 20
20.7278647335
 10
-1.9485157969
 20
20.7273742395
 10
-1.9404625729
 20
20.7261042271
 10
-1.9327265926
 20
20.7240667109
 10
-1.9253529498
 20
20.721283342
  0
LINE
  5
296
100
AcDbEntity
  8
DRAFT
100
AcDbLine
 62
7
  6
CONTINUOUS
 10
-8.2318001032
 20
17.3066063957
 11
-8.3974361301
 21
17.2370827062
  0
LINE
  5
297
100
AcDbEntity
  8
SUPERFICI
100
AcDbLine
 62
7
  6
CONTINUOUS
 10
-15.2837074677
 20
-13.9235871619
 11
-14.3998239547
 21
-14.3655289184
  0
LINE
  5
298
100
AcDbEntity
  8
DRAFT
100
AcDbLine
 62
7
  6
CONTINUOUS
 10
-15.2837074677
 20
-13.9235871619
 11
-14.3998239547
 21
-14.3655289184
  0
LINE
  5
299
100
AcDbEntity
  8
SUPERFICI
100
AcDbLine
 62
7
  6
CONTINUOUS
 10
-13.2684530409
 20
-14.9312143752
 11
-12.207792827
 21
-15.4615444822
  0
LINE
  5
29A
100
AcDbEntity
  8
DRAFT
100
AcDbLine
 62
7
  6
CONTINUOUS
 10
-13.2684530409
 20
-14.9312143752
 11
-12.207792827
 21
-15.4615444822
  0
LINE
  5
29B
100
AcDbEntity
  8
SUPERFICI
100
AcDbLine
 62
7
  6
CONTINUOUS
 10
-11.0764220928
 20
-16.0272298493
 11
-10.1925385798
 21
-16.4691716058
  0
LINE
  5
29C
100
AcDbEntity
  8
DRAFT
100
AcDbLine
 62
7
  6
CONTINUOUS
 10
-11.0764220928
 20
-16.0272298493
 11
-10.1925385798
 21
-16.4691716058
  0
LINE
  5
29D
100
AcDbEntity
  8
0
100
AcDbLine
 62
7
  6
CONTINUOUS
 10
2.0675618258
 20
-25.0943990968
 11
2.0903829974
 21
-25.1111231368
  0
LINE
  5
29E
100
AcDbEntity
  8
DRAFT
100
AcDbLine
 62
7
  6
CONTINUOUS
 10
-15.283708745
 20
-14.7908016222
 11
-15.2960371184
 21
-14.7505819975
  0
LWPOLYLINE
  5
29F
100
AcDbEntity
  8
DRAFT
100
AcDbPolyline
 62
7
  6
CONTINUOUS
 90
25
 70
0
 10
-14.3998239547
 20
-14.3655289184
 10
-14.3877891285
 20
-14.4058959802
 10
-14.3767738307
 20
-14.446175077
 10
-14.3667775907
 20
-14.4863659697
 10
-14.3577891522
 20
-14.5265253836
 10
-14.3498187739
 20
-14.5665960852
 10
-14.3428984241
 20
-14.6064069779
 10
-14.3370323759
 20
-14.6459491574
 10
-14.3322157248
 20
-14.6852311988
 10
-14.3284669991
 20
-14.7241083858
 10
-14.3257909215
 20
-14.7625806537
 10
-14.3241824342
 20
-14.8006478836
 10
-14.3236457161
 20
-14.8381654387
 10
-14.3241837348
 20
-14.875131898
 10
-14.3257935208
 20
-14.9115486645
 10
-14.3284706806
 20
-14.9472755039
 10
-14.3322202186
 20
-14.9823076961
 10
-14.3370374624
 20
-15.016650111
 10
-14.3429038255
 20
-15.0501770607
 10
-14.3498241922
 20
-15.0828923098
 10
-14.3577943083
 20
-15.1147923951
 10
-14.3667822053
 20
-15.1457409525
 10
-14.3767776224
 20
-15.1756927222
 10
-14.3877918138
 20
-15.2046934514
 10
-14.3998252485
 20
-15.2327433705
  0
LINE
  5
2A0
100
AcDbEntity
  8
SUPERFICI
100
AcDbLine
 62
7
  6
CONTINUOUS
 10
-14.3839879601
 20
-14.4194318918
 11
-14.3998239547
 21
-14.3655289184
  0
LWPOLYLINE
  5
2A1
100
AcDbEntity
  8
DRAFT
100
AcDbPolyline
 62
7
  6
CONTINUOUS
 90
22
 70
0
 10
-15.2960371184
 20
-14.7505819975
 10
-15.3073257877
 20
-14.7104399688
 10
-15.3175742831
 20
-14.6703753051
 10
-15.3267932907
 20
-14.6303311237
 10
-15.3349711286
 20
-14.5903638188
 10
-15.3420739401
 20
-14.5506431595
 10
-15.3480968653
 20
-14.5111776153
 10
-15.3530441333
 20
-14.471958415
 10
-15.3568958464
 20
-14.4331296303
 10
-15.3596469925
 20
-14.3946910513
 10
-15.3613022483
 20
-14.3566427363
 10
-15.3618565708
 20
-14.3191293215
 10
-15.3613069605
 20
-14.2821520045
 10
-15.3596564143
 20
-14.2457096033
 10
-15.3569092183
 20
-14.2099433519
 10
-15.3530606135
 20
-14.1748581175
 10
-15.3481156916
 20
-14.1404492153
 10
-15.3420938388
 20
-14.1068437129
 10
-15.3349906529
 20
-14.0740381741
 10
-15.3268111685
 20
-14.0420363649
 10
-15.3175892552
 20
-14.0109763188
 10
-15.3073365999
 20
-13.9809042485
  0
LWPOLYLINE
  5
2A2
100
AcDbEntity
  8
RACCORDO
100
AcDbPolyline
 62
250
  6
CONTINUOUS
 90
10
 70
0
 10
-2.0101278791
 20
20.7146037613
 10
-2.0048707516
 20
20.7201312668
 10
-1.9996362836
 20
20.7248942244
 10
-1.9944470772
 20
20.7288698529
 10
-1.9893236392
 20
20.7320397539
 10
-1.9842904026
 20
20.7343860821
 10
-1.9793752075
 20
20.7358949332
 10
-1.974597086
 20
20.7365603954
 10
-1.9699788823
 20
20.7363792157
 10
-1.9679395674
 20
20.7360175487
  0
LWPOLYLINE
  5
2A3
100
AcDbEntity
  8
RACCORDO
100
AcDbPolyline
 62
250
  6
CONTINUOUS
 90
10
 70
0
 10
-2.26668325
 20
19.996063724
 10
-2.2857241385
 20
19.9780041589
 10
-2.303572194
 20
19.9572936936
 10
-2.3198604904
 20
19.9343581006
 10
-2.3342541676
 20
19.9096688973
 10
-2.3464573157
 20
19.8837336523
 10
-2.3562190585
 20
19.8570855508
 10
-2.3633387108
 20
19.8302724332
 10
-2.3676699045
 20
19.8038455322
 10
-2.3691235976
 20
19.7783481406
  0
LWPOLYLINE
  5
2A4
100
AcDbEntity
  8
RACCORDO
100
AcDbPolyline
 62
250
  6
CONTINUOUS
 90
16
 70
0
 10
-2.7819948138
 20
19.6660877153
 10
-2.7577654784
 20
19.6889507178
 10
-2.7317241502
 20
19.7099700296
 10
-2.7041689128
 20
19.7290689822
 10
-2.6753999855
 20
19.7462997661
 10
-2.6457423032
 20
19.7615058368
 10
-2.6155444665
 20
19.7743266059
 10
-2.5851297334
 20
19.7847206157
 10
-2.5548129582
 20
19.7927350263
 10
-2.5249250559
 20
19.7981742427
 10
-2.4958133121
 20
19.8010511357
 10
-2.4677031546
 20
19.801462
 10
-2.4407336851
 20
19.7993410597
 10
-2.415129312
 20
19.794705872
 10
-2.3911819724
 20
19.7876782566
 10
-2.3691235976
 20
19.7783481406
  0
LINE
  5
2A5
100
AcDbEntity
  8
RACCORDO
100
AcDbLine
 62
7
  6
CONTINUOUS
 10
-3.0799740092
 20
20.5943693583
 11
-5.3097069537
 21
18.6429203703
  0
LINE
  5
2A6
100
AcDbEntity
  8
RACCORDO
100
AcDbLine
 62
250
  6
CONTINUOUS
 10
-2.9805291655
 20
20.5967445425
 11
-4.9113607496
 21
18.9068922442
  0
LINE
  5
2A7
100
AcDbEntity
  8
RACCORDO
100
AcDbLine
 62
250
  6
CONTINUOUS
 10
-5.15411206
 20
18.6944377437
 11
-5.2481459318
 21
18.6121398593
  0
LWPOLYLINE
  5
2A8
100
AcDbEntity
  8
RACCORDO
100
AcDbPolyline
 62
7
  6
CONTINUOUS
 90
5
 70
0
 10
-3.0800712481
 20
20.5942837598
 10
-3.0789904448
 20
20.5952152804
 10
-3.0734420801
 20
20.5993980167
 10
-3.0672876201
 20
20.6030356653
 10
-3.0653612793
 20
20.6039888872
  0
LINE
  5
2A9
100
AcDbEntity
  8
RACCORDO
100
AcDbLine
 62
250
  6
CONTINUOUS
 10
-3.8554014814
 20
19.1814240511
 11
-2.9548019438
 21
19.8874071031
  0
LINE
  5
2AA
100
AcDbEntity
  8
RACCORDO
100
AcDbLine
 62
250
  6
CONTINUOUS
 10
-3.5775118184
 20
19.0424792196
 11
-2.7819948138
 21
19.6660877153
  0
LINE
  5
2AB
100
AcDbEntity
  8
0
100
AcDbLine
 62
7
  6
CONTINUOUS
 10
-2.449540206
 20
16.4048412167
 11
-3.5163711182
 21
15.8095167987
  0
LINE
  5
2AC
100
AcDbEntity
  8
0
100
AcDbLine
 62
7
  6
CONTINUOUS
 10
-3.3354734194
 20
18.0189763047
 11
-4.1757809925
 21
17.5853845016
  0
LINE
  5
2AD
100
AcDbEntity
  8
0
100
AcDbLine
 62
7
  6
CONTINUOUS
 10
-2.449540206
 20
17.7904818628
 11
-3.5163711182
 21
17.2556795645
  0
LINE
  5
2AE
100
AcDbEntity
  8
0
100
AcDbLine
 62
7
  6
CONTINUOUS
 10
-0.4055361196
 20
17.1518201548
 11
-0.4037997022
 21
17.1526883778
  0
LINE
  5
2AF
100
AcDbEntity
  8
0
100
AcDbLine
 62
7
  6
CONTINUOUS
 10
2.8249518631
 20
20.4207909967
 11
-2.449540206
 21
17.7904818628
  0
LINE
  5
2B0
100
AcDbEntity
  8
0
100
AcDbLine
 62
7
  6
CONTINUOUS
 10
-2.449540206
 20
16.4048412167
 11
2.8577704601
 21
19.0515164868
  0
LINE
  5
2B1
100
AcDbEntity
  8
0
100
AcDbLine
 62
7
  6
CONTINUOUS
 10
2.2084800384
 20
20.729026909
 11
-2.4036944604
 21
18.4555705406
  0
LINE
  5
2B2
100
AcDbEntity
  8
0
100
AcDbLine
 62
7
  6
CONTINUOUS
 10
2.9886053113
 20
20.099201234
 11
4.3113677729
 21
20.7512239931
  0
LWPOLYLINE
  5
2B3
100
AcDbEntity
  8
0
100
AcDbPolyline
 62
250
  6
CONTINUOUS
 90
16
 70
0
 10
-1.9887097843
 20
16.339622097
 10
-1.9853120601
 20
16.3412797214
 10
-1.9785668391
 20
16.3440922691
 10
-1.9715861001
 20
16.3463908226
 10
-1.9643856562
 20
16.348170175
 10
-1.9569818178
 20
16.3494262957
 10
-1.9493913563
 20
16.3501563393
 10
-1.9416314659
 20
16.3503586521
 10
-1.9337197244
 20
16.3500327759
 10
-1.9256740537
 20
16.3491794487
 10
-1.917512679
 20
16.3478006037
 10
-1.9092540877
 20
16.3458993641
 10
-1.9009169874
 20
16.3434800367
 10
-1.8925202634
 20
16.3405481019
 10
-1.8840829362
 20
16.337110201
 10
-1.8756241182
 20
16.3331741218
  0
LINE
  5
2B4
100
AcDbEntity
  8
0
100
AcDbLine
 62
7
  6
CONTINUOUS
 10
-0.4037969383
 20
17.1526897242
 11
0.1310702526
 21
17.4132404768
  0
LINE
  5
2B5
100
AcDbEntity
  8
0
100
AcDbLine
 62
250
  6
CONTINUOUS
 10
-0.292867515
 20
17.1451582192
 11
0.2415823637
 21
17.4055056857
  0
LWPOLYLINE
  5
2B6
100
AcDbEntity
  8
0
100
AcDbPolyline
 62
250
  6
CONTINUOUS
 90
3
 70
0
 10
0.1310702526
 20
17.4132404768
 10
0.132725789
 20
17.4140269689
 10
0.1394513078
 20
17.4168296656
  0
LWPOLYLINE
  5
2B7
100
AcDbEntity
  8
0
100
AcDbPolyline
 62
7
  6
CONTINUOUS
 90
16
 70
0
 10
-0.4037997022
 20
17.1526883778
 10
-0.402142076
 20
17.1534758853
 10
-0.3954065871
 20
17.1562834232
 10
-0.3884388479
 20
17.1585752848
 10
-0.3812545909
 20
17.1603463046
 10
-0.3738700752
 20
17.1615924797
 10
-0.3663021209
 20
17.1623109449
 10
-0.3585677993
 20
17.16250011
 10
-0.3506845934
 20
17.1621595667
 10
-0.3426704939
 20
17.1612900251
 10
-0.3345435636
 20
17.1598935021
 10
-0.3263221525
 20
17.1579731922
 10
-0.3180250558
 20
17.1555333655
 10
-0.3096710624
 20
17.1525795546
 10
-0.3012789133
 20
17.1491185416
 10
-0.292867515
 20
17.1451582192
  0
LINE
  5
2B8
100
AcDbEntity
  8
RACCORDO
100
AcDbLine
 62
7
  6
CONTINUOUS
 10
10.5388386176
 20
23.3029198043
 11
4.9063421574
 21
20.7016462844
  0
LINE
  5
2B9
100
AcDbEntity
  8
RACCORDO
100
AcDbLine
 62
250
  6
CONTINUOUS
 10
10.9272961002
 20
23.2707054686
 11
5.12635628
 21
20.5916392231
  0
LINE
  5
2BA
100
AcDbEntity
  8
DRAFT
100
AcDbLine
 62
7
  6
CONTINUOUS
 10
-4.0335927573
 20
15.2075027227
 11
-4.1935379438
 21
15.135133613
  0
LWPOLYLINE
  5
2BB
100
AcDbEntity
  8
RACCORDO
100
AcDbPolyline
 62
250
  6
CONTINUOUS
 90
9
 70
0
 10
10.9272961002
 20
23.2707054686
 10
10.9813025017
 20
23.2937369845
 10
11.0350225749
 20
23.3109786211
 10
11.0880584193
 20
23.3222433927
 10
11.1400443446
 20
23.3273873093
 10
11.1905455944
 20
23.3262991703
 10
11.2390737306
 20
23.318943775
 10
11.2852560233
 20
23.3053496256
 10
11.3186671137
 20
23.2908397543
  0
LWPOLYLINE
  5
2BC
100
AcDbEntity
  8
RACCORDO
100
AcDbPolyline
 62
7
  6
CONTINUOUS
 90
12
 70
0
 10
10.5388386176
 20
23.3029198043
 10
10.6044660937
 20
23.3301394538
 10
10.6731649243
 20
23.3524152232
 10
10.7444724069
 20
23.3693146055
 10
10.8180290563
 20
23.3804789299
 10
10.8930570386
 20
23.3855506528
 10
10.9684429961
 20
23.384329806
 10
11.0436285048
 20
23.376779671
 10
11.1179859364
 20
23.3629330395
 10
11.1905073078
 20
23.3430234226
 10
11.2608593394
 20
23.3172339719
 10
11.3186994683
 20
23.2908235768
  0
LWPOLYLINE
  5
2BD
100
AcDbEntity
  8
0
100
AcDbPolyline
 62
7
  6
CONTINUOUS
 90
6
 70
0
 10
0.1310702526
 20
17.4132404768
 10
0.1592919449
 20
17.4249122508
 10
0.1891561213
 20
17.4331476942
 10
0.2201576669
 20
17.4376553753
 10
0.2518525052
 20
17.4382332737
 10
0.2835013825
 20
17.4347721758
  0
LWPOLYLINE
  5
2BE
100
AcDbEntity
  8
RACCORDO
100
AcDbPolyline
 62
250
  6
CONTINUOUS
 90
9
 70
0
 10
10.5388386176
 20
23.3029198043
 10
10.5667512431
 20
23.3143187838
 10
10.6132656562
 20
23.3272978368
 10
10.6620846088
 20
23.3338754301
 10
10.7128367033
 20
23.3340015236
 10
10.7651358353
 20
23.3276751582
 10
10.8185841311
 20
23.3149444625
 10
10.8727749745
 20
23.2959062873
 10
10.9272961002
 20
23.2707054686
  0
LWPOLYLINE
  5
2BF
100
AcDbEntity
  8
0
100
AcDbPolyline
 62
250
  6
CONTINUOUS
 90
14
 70
0
 10
0.1394513078
 20
17.4168296656
 10
0.1464058468
 20
17.419115119
 10
0.1535736522
 20
17.4208781521
 10
0.1609384874
 20
17.4221147713
 10
0.1684836695
 20
17.4228221752
 10
0.1761921068
 20
17.4229987614
 10
0.184046338
 20
17.4226441301
 10
0.1920285716
 20
17.4217590844
 10
0.200120726
 20
17.4203456292
 10
0.2083044706
 20
17.4184069662
 10
0.2165612675
 20
17.4159474871
 10
0.2248724131
 20
17.4129727631
 10
0.2332190808
 20
17.4094895325
 10
0.2415823637
 20
17.4055056857
  0
LINE
  5
2C0
100
AcDbEntity
  8
DRAFT
100
AcDbLine
 62
7
  6
CONTINUOUS
 10
-0.5403518968
 20
-19.3854038573
 11
1.208901164
 21
-20.2600303877
  0
LINE
  5
2C1
100
AcDbEntity
  8
RACCORDO
100
AcDbLine
 62
250
  6
CONTINUOUS
 10
-20.0280326616
 20
-9.3511786385
 11
-5.3793721765
 21
-16.6755088811
  0
LWPOLYLINE
  5
2C2
100
AcDbEntity
  8
0
100
AcDbPolyline
 62
7
  6
CONTINUOUS
 90
4
 70
0
 10
2.0903829974
 20
-25.1111231368
 10
2.1112866041
 20
-25.1304408864
 10
2.129811641
 20
-25.1519482406
 10
2.1457765272
 20
-25.1754124729
  0
LINE
  5
2C3
100
AcDbEntity
  8
DRAFT
100
AcDbLine
 62
7
  6
CONTINUOUS
 10
-13.2684543182
 20
-15.7984288356
 11
-13.2807826941
 21
-15.7582092104
  0
LINE
  5
2C4
100
AcDbEntity
  8
DRAFT
100
AcDbLine
 62
7
  6
CONTINUOUS
 10
-11.0764233701
 20
-16.8944443097
 11
-11.0887517435
 21
-16.854224685
  0
LWPOLYLINE
  5
2C5
100
AcDbEntity
  8
DRAFT
100
AcDbPolyline
 62
7
  6
CONTINUOUS
 90
25
 70
0
 10
-12.207792827
 20
-15.4615444822
 10
-12.1957580033
 20
-15.5019115436
 10
-12.1847427078
 20
-15.5421906399
 10
-12.17474647
 20
-15.582381532
 10
-12.1657580333
 20
-15.6225409452
 10
-12.1577876568
 20
-15.6626116459
 10
-12.1508673084
 20
-15.7024225378
 10
-12.1450012615
 20
-15.7419647166
 10
-12.1401846115
 20
-15.7812467571
 10
-12.1364358866
 20
-15.8201239434
 10
-12.1337598096
 20
-15.8585962106
 10
-12.1321513227
 20
-15.8966634399
 10
-12.1316146047
 20
-15.9341809944
 10
-12.1321526232
 20
-15.9711474533
 10
-12.1337624089
 20
-16.0075642196
 10
-12.1364395681
 20
-16.0432910588
 10
-12.1401891053
 20
-16.0783232511
 10
-12.1450063481
 20
-16.1126656662
 10
-12.1508727099
 20
-16.1461926165
 10
-12.1577930751
 20
-16.1789078662
 10
-12.1657631894
 20
-16.2108079524
 10
-12.1747510845
 20
-16.241756511
 10
-12.1847464995
 20
-16.2717082822
 10
-12.1957606886
 20
-16.3007090132
 10
-12.2077941207
 20
-16.3287589344
  0
LINE
  5
2C6
100
AcDbEntity
  8
SUPERFICI
100
AcDbLine
 62
7
  6
CONTINUOUS
 10
-12.1919568357
 20
-15.515447455
 11
-12.207792827
 21
-15.4615444822
  0
LWPOLYLINE
  5
2C7
100
AcDbEntity
  8
DRAFT
100
AcDbPolyline
 62
7
  6
CONTINUOUS
 90
22
 70
0
 10
-13.2807826941
 20
-15.7582092104
 10
-13.2920713658
 20
-15.7180671812
 10
-13.3023198633
 20
-15.6780025169
 10
-13.3115388728
 20
-15.6379583348
 10
-13.3197167124
 20
-15.5979910291
 10
-13.3268195255
 20
-15.5582703689
 10
-13.3328424519
 20
-15.518804824
 10
-13.3377897209
 20
-15.4795856228
 10
-13.3416414349
 20
-15.4407568374
 10
-13.3443925816
 20
-15.4023182577
 10
-13.3460478377
 20
-15.3642699421
 10
-13.3466021604
 20
-15.3267565268
 10
-13.3460525499
 20
-15.2897792093
 10
-13.3444020034
 20
-15.2533368078
 10
-13.3416548068
 20
-15.2175705563
 10
-13.3378062012
 20
-15.182485322
 10
-13.3328612782
 20
-15.1480764201
 10
-13.3268394241
 20
-15.1144709182
 10
-13.3197362367
 20
-15.08166538
 10
-13.3115567506
 20
-15.0496635717
 10
-13.3023348354
 20
-15.0186035269
 10
-13.292082178
 20
-14.988531458
  0
LINE
  5
2C8
100
AcDbEntity
  8
0
100
AcDbLine
 62
7
  6
CONTINUOUS
 10
-14.4275837267
 20
21.9107507316
 11
-14.4282533897
 21
21.9292283877
  0
LWPOLYLINE
  5
2C9
100
AcDbEntity
  8
0
100
AcDbPolyline
 62
250
  6
CONTINUOUS
 90
22
 70
0
 10
-14.3550303668
 20
21.8406523691
 10
-14.3548621146
 20
21.8312926208
 10
-14.3543576781
 20
21.8221189416
 10
-14.3535180177
 20
21.813148794
 10
-14.3523447316
 20
21.8043992534
 10
-14.3508400533
 20
21.7958869748
 10
-14.349006847
 20
21.787628162
 10
-14.3468486023
 20
21.7796385359
 10
-14.3443694276
 20
21.7719333055
 10
-14.3415740421
 20
21.7645271379
 10
-14.338467767
 20
21.7574341313
 10
-14.3350565153
 20
21.7506677875
 10
-14.3313467804
 20
21.7442409868
 10
-14.3273456241
 20
21.7381659628
 10
-14.3230606628
 20
21.7324542798
 10
-14.3185000532
 20
21.7271168103
 10
-14.3136724766
 20
21.7221637144
 10
-14.3085871226
 20
21.7176044206
 10
-14.3032536715
 20
21.7134476078
 10
-14.2976822758
 20
21.7097011887
 10
-14.2918835409
 20
21.706372295
 10
-14.2900570704
 20
21.705433919
  0
LINE
  5
2CA
100
AcDbEntity
  8
0
100
AcDbLine
 62
7
  6
CONTINUOUS
 10
-14.5225522721
 20
20.8793964821
 11
-14.5225522721
 21
20.2996407772
  0
LINE
  5
2CB
100
AcDbEntity
  8
0
100
AcDbLine
 62
7
  6
CONTINUOUS
 10
-14.4282536715
 20
22.2690146508
 11
-14.4282536715
 21
21.9290407167
  0
LINE
  5
2CC
100
AcDbEntity
  8
0
100
AcDbLine
 62
250
  6
CONTINUOUS
 10
-14.3550303668
 20
22.1806263032
 11
-14.3550303668
 21
21.8406523691
  0
LINE
  5
2CD
100
AcDbEntity
  8
0
100
AcDbLine
 62
7
  6
CONTINUOUS
 10
-13.7252607172
 20
21.4230357424
 11
-13.7252607172
 21
20.9690820004
  0
LINE
  5
2CE
100
AcDbEntity
  8
0
100
AcDbLine
 62
250
  6
CONTINUOUS
 10
-13.6520374125
 20
21.38642409
 11
-13.6520374125
 21
20.8773499459
  0
LWPOLYLINE
  5
2CF
100
AcDbEntity
  8
0
100
AcDbPolyline
 62
250
  6
CONTINUOUS
 90
34
 70
0
 10
-14.3550303668
 20
22.1806263032
 10
-14.354831564
 20
22.1909907814
 10
-14.3542356017
 20
22.2015307662
 10
-14.3532438186
 20
22.2122225519
 10
-14.3518584425
 20
22.2230420977
 10
-14.3500825884
 20
22.2339650621
 10
-14.3479202533
 20
22.2449668561
 10
-14.3453763027
 20
22.2560227282
 10
-14.3424564579
 20
22.2671078172
 10
-14.339167288
 20
22.278197187
 10
-14.335516191
 20
22.2892658968
 10
-14.3315113804
 20
22.3002890492
 10
-14.3271618682
 20
22.3112418425
 10
-14.3224774395
 20
22.3220996402
 10
-14.3174686315
 20
22.3328380233
 10
-14.3121467129
 20
22.3434328364
 10
-14.3065236525
 20
22.3538602562
 10
-14.3006121018
 20
22.364096825
 10
-14.2944253701
 20
22.3741195019
 10
-14.2879773935
 20
22.3839057199
 10
-14.2812826602
 20
22.3934334996
 10
-14.274356184
 20
22.4026814747
 10
-14.2672134736
 20
22.4116289251
 10
-14.2598706561
 20
22.4202556359
 10
-14.2523444094
 20
22.4285420263
 10
-14.2446517752
 20
22.4364693748
 10
-14.2368099626
 20
22.4440199877
 10
-14.2288364636
 20
22.4511770369
 10
-14.2207479862
 20
22.4579254099
 10
-14.2125639149
 20
22.4642488198
 10
-14.2043062441
 20
22.4701305958
 10
-14.1959948234
 20
22.4755573458
 10
-14.187647191
 20
22.4805183598
 10
-14.1792821108
 20
22.4850031182
  0
LINE
  5
2D0
100
AcDbEntity
  8
RACCORDO
100
AcDbLine
 62
250
  6
CONTINUOUS
 10
-1.4571587044
 20
19.1888618275
 11
-1.4902586292
 21
19.1551354458
  0
LWPOLYLINE
  5
2D1
100
AcDbEntity
  8
RACCORDO
100
AcDbPolyline
 62
250
  6
CONTINUOUS
 90
5
 70
0
 10
-1.5082776514
 20
19.6168609247
 10
-1.5273191039
 20
19.5988007303
 10
-1.5451674957
 20
19.57808967
 10
-1.5614559115
 20
19.55515361
 10
-1.5758495123
 20
19.5304641614
  0
LINE
  5
2D2
100
AcDbEntity
  8
RACCORDO
100
AcDbLine
 62
250
  6
CONTINUOUS
 10
-1.4902586292
 20
19.1551354458
 11
-2.0660389285
 21
18.6220094122
  0
LINE
  5
2D3
100
AcDbEntity
  8
RACCORDO
100
AcDbLine
 62
7
  6
CONTINUOUS
 10
-1.5870590003
 20
19.154975206
 11
-2.2726684047
 21
18.5201565663
  0
LWPOLYLINE
  5
2D4
100
AcDbEntity
  8
0
100
AcDbPolyline
 62
7
  6
CONTINUOUS
 90
10
 70
0
 10
-1.9887097843
 20
16.339622097
 10
-2.01671101
 20
16.3228619194
 10
-2.0426946393
 20
16.3022326886
 10
-2.0659810461
 20
16.2780322933
 10
-2.0859266123
 20
16.2507492085
 10
-2.1020571166
 20
16.2209221306
 10
-2.1140556696
 20
16.1890112269
 10
-2.1216628813
 20
16.1553658721
 10
-2.1245667607
 20
16.1209880522
 10
-2.1245956766
 20
16.1172025744
  0
LWPOLYLINE
  5
2D5
100
AcDbEntity
  8
0
100
AcDbPolyline
 62
7
  6
CONTINUOUS
 90
13
 70
0
 10
8.8826285451
 20
20.0722106986
 10
8.753643727
 20
20.0018569802
 10
8.6347304427
 20
19.9271989316
 10
8.5264616093
 20
19.8485962507
 10
8.4293588593
 20
19.7664276405
 10
8.3438900279
 20
19.6810889843
 10
8.2704668988
 20
19.5929914387
 10
8.2094432202
 20
19.5025594522
 10
8.1611130004
 20
19.4102287207
 10
8.1257090916
 20
19.316444088
 10
8.1034020675
 20
19.2216574028
 10
8.0942994021
 20
19.1263253417
 10
8.0940672803
 20
19.1084604602
  0
LINE
  5
2D6
100
AcDbEntity
  8
0
100
AcDbLine
 62
7
  6
CONTINUOUS
 10
-1.9887097843
 20
16.339622097
 11
-0.4055380894
 21
17.1518191443
  0
LINE
  5
2D7
100
AcDbEntity
  8
0
100
AcDbLine
 62
250
  6
CONTINUOUS
 10
-1.8756241182
 20
16.3331741218
 11
-0.292867515
 21
17.1451582192
  0
LINE
  5
2D8
100
AcDbEntity
  8
0
100
AcDbLine
 62
7
  6
CONTINUOUS
 10
12.8947845236
 20
22.1136104913
 11
8.8826285451
 21
20.0722106986
  0
LINE
  5
2D9
100
AcDbEntity
  8
0
100
AcDbLine
 62
250
  6
CONTINUOUS
 10
-0.1970860478
 20
15.4939050866
 11
1.4041947431
 21
16.2966270901
  0
LINE
  5
2DA
100
AcDbEntity
  8
0
100
AcDbLine
 62
250
  6
CONTINUOUS
 10
-0.0203123441
 20
15.1890155478
 11
1.5809684467
 21
15.9917375513
  0
LINE
  5
2DB
100
AcDbEntity
  8
0
100
AcDbLine
 62
7
  6
CONTINUOUS
 10
7.2706037123
 20
19.2716060234
 11
1.9487477816
 21
16.6139003476
  0
LINE
  5
2DC
100
AcDbEntity
  8
0
100
AcDbLine
 62
250
  6
CONTINUOUS
 10
1.4041947431
 20
16.2966270901
 11
1.9324619148
 21
16.5600659102
  0
LINE
  5
2DD
100
AcDbEntity
  8
0
100
AcDbLine
 62
250
  6
CONTINUOUS
 10
1.5809684467
 20
15.9917375513
 11
2.1092356185
 21
16.2551763713
  0
LINE
  5
2DE
100
AcDbEntity
  8
DRAFT
100
AcDbLine
 62
7
  6
CONTINUOUS
 10
12.8947845236
 20
21.705759224
 11
8.8826285451
 21
19.7508864164
  0
LINE
  5
2DF
100
AcDbEntity
  8
RACCORDO
100
AcDbLine
 62
7
  6
CONTINUOUS
 10
11.8984549339
 20
22.7851260517
 11
8.4680510334
 21
21.1477892388
  0
LWPOLYLINE
  5
2E0
100
AcDbEntity
  8
0
100
AcDbPolyline
 62
250
  6
CONTINUOUS
 90
34
 70
0
 10
-0.0203123441
 20
-26.4505625257
 10
-0.0247328696
 20
-26.4436437447
 10
-0.0295400649
 20
-26.4365399344
 10
-0.0347230805
 20
-26.4292671279
 10
-0.0402702185
 20
-26.4218417394
 10
-0.0461689596
 20
-26.4142805275
 10
-0.0524059904
 20
-26.4066005575
 10
-0.0589672344
 20
-26.3988191625
 10
-0.0658378834
 20
-26.3909539048
 10
-0.0730024305
 20
-26.3830225358
 10
-0.080444706
 20
-26.3750429561
 10
-0.0881479129
 20
-26.3670331751
 10
-0.0960946656
 20
-26.3590112705
 10
-0.1042670288
 20
-26.3509953472
 10
-0.1126465579
 20
-26.3430034966
 10
-0.1212143408
 20
-26.335053756
 10
-0.1299510406
 20
-26.3271640673
 10
-0.138836939
 20
-26.3193522373
 10
-0.147851981
 20
-26.3116358966
 10
-0.1569758203
 20
-26.3040324606
 10
-0.1661878649
 20
-26.2965590899
 10
-0.1754673237
 20
-26.2892326514
 10
-0.1847932536
 20
-26.2820696804
 10
-0.1941446065
 20
-26.2750863434
 10
-0.2035002769
 20
-26.2682984012
 10
-0.2128391496
 20
-26.261721174
 10
-0.2221401474
 20
-26.255369506
 10
-0.2313822785
 20
-26.2492577328
 10
-0.2405446838
 20
-26.243399648
 10
-0.2496066845
 20
-26.2378084732
 10
-0.258547828
 20
-26.2324968273
 10
-0.2673479348
 20
-26.2274766982
 10
-0.2759871436
 20
-26.2227594163
 10
-0.2844459561
 20
-26.218355628
  0
LWPOLYLINE
  5
2E1
100
AcDbEntity
  8
DRAFT
100
AcDbPolyline
 62
7
  6
CONTINUOUS
 90
25
 70
0
 10
-10.1925385798
 20
-16.4691716058
 10
-10.1805037536
 20
-16.5095386676
 10
-10.1694884558
 20
-16.5498177645
 10
-10.1594922158
 20
-16.5900086572
 10
-10.1505037772
 20
-16.6301680711
 10
-10.142533399
 20
-16.6702387726
 10
-10.1356130492
 20
-16.7100496653
 10
-10.1297470009
 20
-16.7495918449
 10
-10.1249303499
 20
-16.7888738862
 10
-10.1211816241
 20
-16.8277510733
 10
-10.1185055465
 20
-16.8662233411
 10
-10.1168970593
 20
-16.9042905711
 10
-10.1163603411
 20
-16.9418081262
 10
-10.1168983598
 20
-16.9787745855
 10
-10.1185081459
 20
-17.015191352
 10
-10.1211853057
 20
-17.0509181913
 10
-10.1249348437
 20
-17.0859503835
 10
-10.1297520875
 20
-17.1202927984
 10
-10.1356184506
 20
-17.1538197482
 10
-10.1425388173
 20
-17.1865349973
 10
-10.1505089334
 20
-17.2184350825
 10
-10.1594968304
 20
-17.24938364
 10
-10.1694922474
 20
-17.2793354097
 10
-10.1805064389
 20
-17.3083361389
 10
-10.1925398735
 20
-17.3363860579
  0
LINE
  5
2E2
100
AcDbEntity
  8
SUPERFICI
100
AcDbLine
 62
7
  6
CONTINUOUS
 10
-10.1767025852
 20
-16.5230745792
 11
-10.1925385798
 21
-16.4691716058
  0
LWPOLYLINE
  5
2E3
100
AcDbEntity
  8
DRAFT
100
AcDbPolyline
 62
7
  6
CONTINUOUS
 90
22
 70
0
 10
-11.0887517435
 20
-16.854224685
 10
-11.1000404128
 20
-16.8140826562
 10
-11.1102889082
 20
-16.7740179926
 10
-11.1195079158
 20
-16.7339738111
 10
-11.1276857537
 20
-16.6940065063
 10
-11.1347885652
 20
-16.6542858469
 10
-11.1408114904
 20
-16.6148203028
 10
-11.1457587584
 20
-16.5756011024
 10
-11.1496104715
 20
-16.5367723178
 10
-11.1523616176
 20
-16.4983337387
 10
-11.1540168734
 20
-16.4602854238
 10
-11.1545711959
 20
-16.422772009
 10
-11.1540215856
 20
-16.385794692
 10
-11.1523710394
 20
-16.3493522907
 10
-11.1496238434
 20
-16.3135860393
 10
-11.1457752386
 20
-16.2785008049
 10
-11.1408303167
 20
-16.2440919028
 10
-11.1348084639
 20
-16.2104864004
 10
-11.1277052779
 20
-16.1776808615
 10
-11.1195257936
 20
-16.1456790524
 10
-11.1103038803
 20
-16.1146190063
 10
-11.100051225
 20
-16.084546936
  0
LWPOLYLINE
  5
2E4
100
AcDbEntity
  8
0
100
AcDbPolyline
 62
250
  6
CONTINUOUS
 90
3
 70
0
 10
-14.4275683489
 20
21.9197915056
 10
-14.4281649868
 20
21.9257115095
 10
-14.4282536715
 20
21.9290407166
  0
LWPOLYLINE
  5
2E5
100
AcDbEntity
  8
0
100
AcDbPolyline
 62
250
  6
CONTINUOUS
 90
22
 70
0
 10
-12.6764922964
 20
21.0013833339
 10
-12.6763240005
 20
20.9920223835
 10
-12.6758194333
 20
20.9828475525
 10
-12.6749795555
 20
20.9738763102
 10
-12.6738059697
 20
20.9651257615
 10
-12.6723009088
 20
20.9566125435
 10
-12.6704672224
 20
20.9483528006
 10
-12.6683083784
 20
20.940362213
 10
-12.665828491
 20
20.9326560594
 10
-12.6630323112
 20
20.9252491105
 10
-12.6599251887
 20
20.918155511
 10
-12.6565130266
 20
20.9113887148
 10
-12.6528022986
 20
20.9049615578
 10
-12.6488000379
 20
20.8988862378
 10
-12.6445138887
 20
20.893174374
 10
-12.6399520792
 20
20.8878369211
 10
-12.6351233497
 20
20.882884071
 10
-12.6300368639
 20
20.8783251906
 10
-12.6247022489
 20
20.8741688974
 10
-12.6191289787
 20
20.8704226804
 10
-12.6133282928
 20
20.8670941976
 10
-12.611526939
 20
20.8661688537
  0
LINE
  5
2E6
100
AcDbEntity
  8
0
100
AcDbLine
 62
250
  6
CONTINUOUS
 10
-12.6764922964
 20
21.0013833339
 11
-12.6764922964
 21
21.341357268
  0
LINE
  5
2E7
100
AcDbEntity
  8
0
100
AcDbLine
 62
250
  6
CONTINUOUS
 10
-12.3239703367
 20
21.00087061
 11
-12.3239703367
 21
21.3408445441
  0
LINE
  5
2E8
100
AcDbEntity
  8
0
100
AcDbLine
 62
250
  6
CONTINUOUS
 10
-11.9652716883
 20
20.0339670838
 11
-11.9652716883
 21
20.7146951506
  0
LINE
  5
2E9
100
AcDbEntity
  8
0
100
AcDbLine
 62
250
  6
CONTINUOUS
 10
-11.6127497286
 20
20.0447349654
 11
-11.6127497286
 21
20.8523670871
  0
LWPOLYLINE
  5
2EA
100
AcDbEntity
  8
0
100
AcDbPolyline
 62
250
  6
CONTINUOUS
 90
34
 70
0
 10
-12.6764922964
 20
21.341357268
 10
-12.6762934936
 20
21.3517217462
 10
-12.6756975313
 20
21.362261731
 10
-12.6747057481
 20
21.3729535167
 10
-12.6733203721
 20
21.3837730625
 10
-12.671544518
 20
21.3946960269
 10
-12.6693821829
 20
21.4056978209
 10
-12.6668382323
 20
21.416753693
 10
-12.6639183875
 20
21.427838782
 10
-12.6606292175
 20
21.4389281518
 10
-12.6569781206
 20
21.4499968616
 10
-12.65297331
 20
21.461020014
 10
-12.6486237978
 20
21.4719728073
 10
-12.6439393691
 20
21.482830605
 10
-12.6389305611
 20
21.4935689881
 10
-12.6336086425
 20
21.5041638012
 10
-12.6279855821
 20
21.514591221
 10
-12.6220740314
 20
21.5248277898
 10
-12.6158872997
 20
21.5348504667
 10
-12.6094393231
 20
21.5446366847
 10
-12.6027445898
 20
21.5541644644
 10
-12.5958181136
 20
21.5634124395
 10
-12.5886754032
 20
21.5723598899
 10
-12.5813325857
 20
21.5809866007
 10
-12.573806339
 20
21.5892729911
 10
-12.5661137048
 20
21.5972003396
 10
-12.5582718922
 20
21.6047509524
 10
-12.5502983932
 20
21.6119080017
 10
-12.5422099158
 20
21.6186563747
 10
-12.5340258445
 20
21.6249797846
 10
-12.5257681737
 20
21.6308615606
 10
-12.517456753
 20
21.6362883106
 10
-12.5091091206
 20
21.6412493246
 10
-12.5007440404
 20
21.6457340829
  0
LWPOLYLINE
  5
2EB
100
AcDbEntity
  8
0
100
AcDbPolyline
 62
250
  6
CONTINUOUS
 90
17
 70
0
 10
-10.12227894
 20
22.1447383957
 10
-10.1228072931
 20
22.1388164137
 10
-10.1238965651
 20
22.1329136366
 10
-10.1255443031
 20
22.1270433306
 10
-10.1277468033
 20
22.1212186845
 10
-10.130499135
 20
22.1154527549
 10
-10.1337950939
 20
22.1097585524
 10
-10.1376271853
 20
22.104148995
 10
-10.1419866974
 20
22.0986367655
 10
-10.1468638431
 20
22.0932341772
 10
-10.1522477384
 20
22.0879532663
 10
-10.1581267734
 20
22.0828054959
 10
-10.1644873102
 20
22.0778028765
 10
-10.1713134699
 20
22.072957722
 10
-10.1785890424
 20
22.0682811574
 10
-10.186297876
 20
22.0637832075
 10
-10.1944223742
 20
22.0594738509
  0
LWPOLYLINE
  5
2EC
100
AcDbEntity
  8
0
100
AcDbPolyline
 62
250
  6
CONTINUOUS
 90
18
 70
0
 10
-5.0725336257
 20
18.7019606823
 10
-5.0680575381
 20
18.7113817932
 10
-5.0632816906
 20
18.7206570885
 10
-5.0582190398
 20
18.7297614025
 10
-5.0528833393
 20
18.7386699868
 10
-5.0472891259
 20
18.7473585568
 10
-5.0414516386
 20
18.7558034368
 10
-5.035386768
 20
18.7639816348
 10
-5.0291110159
 20
18.7718708953
 10
-5.0226414675
 20
18.7794497373
 10
-5.0159957307
 20
18.7866975309
 10
-5.0091918929
 20
18.7935945479
 10
-5.0022484775
 20
18.8001220094
 10
-4.9951843779
 20
18.8062621519
 10
-4.9880188256
 20
18.8119982577
 10
-4.9807713436
 20
18.8173146992
 10
-4.9734616652
 20
18.8221970043
 10
-4.9661096796
 20
18.8266318919
  0
LINE
  5
2ED
100
AcDbEntity
  8
0
100
AcDbLine
 62
7
  6
CONTINUOUS
 10
1.5809684467
 20
14.3895868903
 11
0.690908264
 21
13.8929059691
  0
LINE
  5
2EE
100
AcDbEntity
  8
0
100
AcDbLine
 62
250
  6
CONTINUOUS
 10
1.934790962
 20
14.2126756327
 11
0.855616898
 21
13.6235227906
  0
LINE
  5
2EF
100
AcDbEntity
  8
ASSI
100
AcDbLine
 62
7
  6
CONTINUOUS
 10
2.0381057202
 20
14.8630866464
 11
8.0812248539
 21
18.0577406087
  0
LINE
  5
2F0
100
AcDbEntity
  8
0
100
AcDbLine
 62
7
  6
CONTINUOUS
 10
8.551797685
 20
18.8003086183
 11
9.2025713398
 21
19.1434744344
  0
LINE
  5
2F1
100
AcDbEntity
  8
RACCORDO
100
AcDbLine
 62
250
  6
CONTINUOUS
 10
9.2024435577
 20
19.1434070475
 11
9.2025713398
 21
19.1434744344
  0
LINE
  5
2F2
100
AcDbEntity
  8
ASSI
100
AcDbLine
 62
7
  6
CONTINUOUS
 10
1.6921691006
 20
15.3105041655
 11
8.0812248539
 21
18.6592576904
  0
LWPOLYLINE
  5
2F3
100
AcDbEntity
  8
RACCORDO
100
AcDbPolyline
 62
250
  6
CONTINUOUS
 90
19
 70
0
 10
-2.8149001
 20
11.7307695205
 10
-2.8704401324
 20
11.7028771362
 10
-2.925746842
 20
11.669888769
 10
-2.9804920862
 20
11.6320050692
 10
-3.0343556795
 20
11.5894574267
 10
-3.0870133856
 20
11.5425023422
 10
-3.1381390149
 20
11.4914204363
 10
-3.1874277248
 20
11.4365227577
 10
-3.2345892673
 20
11.378140364
 10
-3.2793355488
 20
11.3166179408
 10
-3.3214004164
 20
11.2523264274
 10
-3.3605350639
 20
11.1856540755
 10
-3.3965004238
 20
11.1169954291
 10
-3.4290826115
 20
11.0467619687
 10
-3.4580876856
 20
10.9753787663
 10
-3.4833362679
 20
10.9032745577
 10
-3.5046760464
 20
10.830883118
 10
-3.5219823596
 20
10.7586405724
 10
-3.5351521908
 20
10.6869816372
  0
LINE
  5
2F4
100
AcDbEntity
  8
0
100
AcDbLine
 62
250
  6
CONTINUOUS
 10
2.6354622785
 20
14.5644083672
 11
1.9345263247
 21
14.2128079514
  0
LINE
  5
2F5
100
AcDbEntity
  8
0
100
AcDbLine
 62
250
  6
CONTINUOUS
 10
2.9890111817
 20
13.9546358695
 11
2.2880752279
 21
13.6030354536
  0
LINE
  5
2F6
100
AcDbEntity
  8
0
100
AcDbLine
 62
7
  6
CONTINUOUS
 10
9.3308587685
 20
18.920382703
 11
9.8258335154
 21
19.1678700764
  0
LINE
  5
2F7
100
AcDbEntity
  8
RACCORDO
100
AcDbLine
 62
7
  6
CONTINUOUS
 10
12.2940114279
 20
19.3483699287
 11
10.9825471169
 21
18.6926377732
  0
LINE
  5
2F8
100
AcDbEntity
  8
RACCORDO
100
AcDbLine
 62
7
  6
CONTINUOUS
 10
13.1425421356
 20
18.9241071451
 11
12.2636494844
 21
18.4846608196
  0
LWPOLYLINE
  5
2F9
100
AcDbEntity
  8
RACCORDO
100
AcDbPolyline
 62
250
  6
CONTINUOUS
 90
19
 70
0
 10
-2.4799650774
 20
11.1125337014
 10
-2.5081924648
 20
11.0986988607
 10
-2.5360311169
 20
11.0824987306
 10
-2.5634810339
 20
11.0639333112
 10
-2.590721137
 20
11.0428553019
 10
-2.6175725049
 20
11.0194120034
 10
-2.6434983734
 20
10.9940453169
 10
-2.6684665119
 20
10.9667239638
 10
-2.692509151
 20
10.9374792227
 10
-2.715186218
 20
10.9068468312
 10
-2.7364685433
 20
10.874805382
 10
-2.7563852966
 20
10.8413762823
 10
-2.7745839141
 20
10.8071594916
 10
-2.7910373144
 20
10.772119777
 10
-2.8057725789
 20
10.7362923714
 10
-2.8185183879
 20
10.700382933
 10
-2.8291843014
 20
10.6646266812
 10
-2.8378607595
 20
10.6287883967
 10
-2.844547762
 20
10.5928680793
  0
LINE
  5
2FA
100
AcDbEntity
  8
DRAFT
100
AcDbLine
 62
7
  6
CONTINUOUS
 10
9.0605309649
 20
17.6415823331
 11
2.6768354821
 21
14.5407080775
  0
LINE
  5
2FB
100
AcDbEntity
  8
RACCORDO
100
AcDbLine
 62
7
  6
CONTINUOUS
 10
16.600118013
 20
20.4342945122
 11
13.1789719432
 21
18.7923287839
  0
LINE
  5
2FC
100
AcDbEntity
  8
DRAFT
100
AcDbLine
 62
7
  6
CONTINUOUS
 10
8.1846534061
 20
18.0795211125
 11
7.6922681522
 21
17.8521212852
  0
LWPOLYLINE
  5
2FD
100
AcDbEntity
  8
RACCORDO
100
AcDbPolyline
 62
7
  6
CONTINUOUS
 90
10
 70
0
 10
13.1425132397
 20
18.9240926972
 10
13.153909704
 20
18.9292613524
 10
13.1651301065
 20
18.9333132488
 10
13.1761744472
 20
18.9362483864
 10
13.1871377061
 20
18.9380669177
 10
13.1979249033
 20
18.9387686902
 10
13.2082510987
 20
18.9383532458
 10
13.2180213125
 20
18.9368204319
 10
13.2273305245
 20
18.9341704012
 10
13.2361787348
 20
18.9304031536
  0
LWPOLYLINE
  5
2FE
100
AcDbEntity
  8
RACCORDO
100
AcDbPolyline
 62
7
  6
CONTINUOUS
 90
9
 70
0
 10
17.405789949
 20
20.0314585442
 10
17.4619358267
 20
20.0567215825
 10
17.5151685376
 20
20.0761740749
 10
17.5650389981
 20
20.0898036859
 10
17.6110097679
 20
20.0977113734
 10
17.6528017294
 20
20.0999443513
 10
17.6903946395
 20
20.096487337
 10
17.723428928
 20
20.0875507329
 10
17.7379908785
 20
20.081177675
  0
LINE
  5
2FF
100
AcDbEntity
  8
RACCORDO
100
AcDbLine
 62
250
  6
CONTINUOUS
 10
0.0635562135
 20
13.0065865344
 11
-2.8149001
 21
11.7307695205
  0
LINE
  5
300
100
AcDbEntity
  8
RACCORDO
100
AcDbLine
 62
250
  6
CONTINUOUS
 10
0.3984912361
 20
12.3883507153
 11
-2.4799650774
 21
11.1125337014
  0
LINE
  5
301
100
AcDbEntity
  8
0
100
AcDbLine
 62
7
  6
CONTINUOUS
 10
-10.7226895459
 20
20.5414158867
 11
-10.7226895459
 21
22.1435665476
  0
LINE
  5
302
100
AcDbEntity
  8
0
100
AcDbLine
 62
250
  6
CONTINUOUS
 10
-10.1944223742
 20
22.4070053677
 11
-10.1944223742
 21
22.0594738509
  0
LINE
  5
303
100
AcDbEntity
  8
0
100
AcDbLine
 62
7
  6
CONTINUOUS
 10
-10.1222245172
 20
22.4948779998
 11
-10.1222245172
 21
22.1473464831
  0
LINE
  5
304
100
AcDbEntity
  8
DRAFT
100
AcDbLine
 62
7
  6
CONTINUOUS
 10
-9.8388060694
 20
17.9577676758
 11
-9.8388060694
 21
18.127795988
  0
LINE
  5
305
100
AcDbEntity
  8
0
100
AcDbLine
 62
7
  6
CONTINUOUS
 10
-9.79727999
 20
20.3961340004
 11
-9.79727999
 21
18.9499712346
  0
LINE
  5
306
100
AcDbEntity
  8
0
100
AcDbLine
 62
7
  6
CONTINUOUS
 10
-9.1378701156
 20
18.6202662974
 11
-9.1378701156
 21
20.0664290632
  0
LINE
  5
307
100
AcDbEntity
  8
RACCORDO
100
AcDbLine
 62
7
  6
CONTINUOUS
 10
-8.8315769431
 20
17.4541531127
 11
-8.8315769431
 21
17.6241814248
  0
LWPOLYLINE
  5
308
100
AcDbEntity
  8
0
100
AcDbPolyline
 62
250
  6
CONTINUOUS
 90
18
 70
0
 10
-10.1222245172
 20
22.4948780175
 10
-10.1222780787
 20
22.4922906317
 10
-10.1228045061
 20
22.4863683276
 10
-10.1238919184
 20
22.4804651548
 10
-10.1255378731
 20
22.474594388
 10
-10.1277386703
 20
22.4687692336
 10
-10.1304893632
 20
22.4630027927
 10
-10.133783767
 20
22.4573080362
 10
-10.1376144715
 20
22.4516977773
 10
-10.1419728611
 20
22.4461846356
 10
-10.1468491347
 20
22.4407810106
 10
-10.1522323242
 20
22.4354990578
 10
-10.1581103254
 20
22.4303506551
 10
-10.1644699155
 20
22.4253473852
 10
-10.1712967783
 20
22.4205005104
 10
-10.1785755524
 20
22.4158209343
 10
-10.1862898686
 20
22.4113191786
 10
-10.1944223742
 20
22.4070053677
  0
LWPOLYLINE
  5
309
100
AcDbEntity
  8
DRAFT
100
AcDbPolyline
 62
7
  6
CONTINUOUS
 90
3
 70
0
 10
-15.3073365999
 20
-13.9809042485
 10
-15.2960425138
 20
-13.9517744497
 10
-15.2837074677
 20
-13.9235871619
  0
LWPOLYLINE
  5
30A
100
AcDbEntity
  8
0
100
AcDbPolyline
 62
7
  6
CONTINUOUS
 90
25
 70
0
 10
-2.449540206
 20
16.8656144087
 10
-2.4439622158
 20
16.8776412774
 10
-2.4388551198
 20
16.8901058171
 10
-2.434218918
 20
16.903008028
 10
-2.4300484577
 20
16.9163673347
 10
-2.4263488916
 20
16.9301643125
 10
-2.423135678
 20
16.9443406866
 10
-2.420410853
 20
16.9588980362
 10
-2.4181723805
 20
16.9738347821
 10
-2.4164296106
 20
16.9890879127
 10
-2.415184617
 20
17.0046587467
 10
-2.414435326
 20
17.0205459654
 10
-2.414184867
 20
17.0366826
 10
-2.414435326
 20
17.0530696937
 10
-2.415184617
 20
17.0697062033
 10
-2.4164296106
 20
17.086522031
 10
-2.4181723805
 20
17.1035179314
 10
-2.420410853
 20
17.1206931499
 10
-2.423135678
 20
17.1379753245
 10
-2.4263488916
 20
17.1553649122
 10
-2.4300484577
 20
17.1728614561
 10
-2.434218918
 20
17.1903912232
 10
-2.4388551198
 20
17.2079296357
 10
-2.4439622158
 20
17.2255012715
 10
-2.449540206
 20
17.2431061304
  0
LWPOLYLINE
  5
30B
100
AcDbEntity
  8
RACCORDO
100
AcDbPolyline
 62
250
  6
CONTINUOUS
 90
6
 70
0
 10
-1.5758495123
 20
19.5304641614
 10
-1.5880524517
 20
19.5045289245
 10
-1.5978139379
 20
19.4778810435
 10
-1.6049333461
 20
19.4510683313
 10
-1.6092643597
 20
19.4246420149
 10
-1.6107179968
 20
19.3991453402
  0
LWPOLYLINE
  5
30C
100
AcDbEntity
  8
0
100
AcDbPolyline
 62
7
  6
CONTINUOUS
 90
31
 70
0
 10
2.822906951
 20
19.4691483567
 10
2.8312197506
 20
19.4798416613
 10
2.8389990772
 20
19.4911565842
 10
2.8462449307
 20
19.5030931254
 10
2.852967921
 20
19.5156739157
 10
2.8591574383
 20
19.5288763243
 10
2.8647816535
 20
19.5426324581
 10
2.8698376545
 20
19.5569451694
 10
2.8743283534
 20
19.5718116059
 10
2.8782306571
 20
19.5871553174
 10
2.8815415346
 20
19.6029787625
 10
2.8842640169
 20
19.6192794826
 10
2.8863841037
 20
19.635973652
 10
2.8878986922
 20
19.6530632973
 10
2.8888108852
 20
19.6705463918
 10
2.8891159919
 20
19.6883330295
 10
2.8888108852
 20
19.7064247739
 10
2.8878986922
 20
19.7248200614
 10
2.8863841037
 20
19.7434242952
 10
2.8842640169
 20
19.7622385514
 10
2.8815415346
 20
19.7812617538
 10
2.8782306571
 20
19.8003960764
 10
2.8743283534
 20
19.8196420916
 10
2.8698376545
 20
19.838999227
 10
2.8647816535
 20
19.8583679393
 10
2.8591574383
 20
19.8777482882
 10
2.852967921
 20
19.8971402141
 10
2.8462449307
 20
19.9164439948
 10
2.8389990772
 20
19.9356263895
 10
2.8312197506
 20
19.954720639
 10
2.822906951
 20
19.9737267432
  0
LWPOLYLINE
  5
30D
100
AcDbEntity
  8
0
100
AcDbPolyline
 62
7
  6
CONTINUOUS
 90
41
 70
0
 10
0.690908264
 20
14.7005380908
 10
0.6851695807
 20
14.6938253183
 10
0.6792438611
 20
14.6871840866
 10
0.6731323795
 20
14.6806228302
 10
0.6668338031
 20
14.6741509174
 10
0.6603527479
 20
14.6677759918
 10
0.6536997203
 20
14.6615040086
 10
0.6468768356
 20
14.6553436907
 10
0.6398866334
 20
14.6493035976
 10
0.6327405167
 20
14.6433895669
 10
0.6254413324
 20
14.6376103997
 10
0.6179923146
 20
14.6319747126
 10
0.6104057061
 20
14.6264881951
 10
0.6026851107
 20
14.6211596616
 10
0.5948344752
 20
14.615997716
 10
0.5868668153
 20
14.6110078675
 10
0.5787864909
 20
14.6061988606
 10
0.5705982041
 20
14.6015792327
 10
0.56231575
 20
14.597154326
 10
0.5539442719
 20
14.5929327402
 10
0.5454892488
 20
14.5889228646
 10
0.5369652621
 20
14.5851298707
 10
0.528378262
 20
14.5815621227
 10
0.5197345326
 20
14.5782277716
 10
0.5110494643
 20
14.5751318019
 10
0.5023298419
 20
14.5722822363
 10
0.4935827777
 20
14.569686877
 10
0.4848244959
 20
14.5673504787
 10
0.4760626445
 20
14.5652805954
 10
0.4673051776
 20
14.5634845441
 10
0.4585691549
 20
14.5619667663
 10
0.4498631163
 20
14.560734194
 10
0.4411958513
 20
14.5597934934
 10
0.4325852014
 20
14.5591486575
 10
0.4240406475
 20
14.5588058156
 10
0.4155717526
 20
14.5587707839
 10
0.4071969072
 20
14.5590469263
 10
0.3989265038
 20
14.5596393652
 10
0.3907708479
 20
14.560552866
 10
0.3827486272
 20
14.5617899757
 10
0.3770810916
 20
14.5628792077
  0
LINE
  5
30E
100
AcDbEntity
  8
0
100
AcDbLine
 62
250
  6
CONTINUOUS
 10
2.2880752279
 20
13.6028226061
 11
1.208901164
 21
13.013669764
  0
LINE
  5
30F
100
AcDbEntity
  8
RACCORDO
100
AcDbLine
 62
250
  6
CONTINUOUS
 10
17.82533316
 20
19.3078535427
 11
3.2880752279
 21
12.0800539235
  0
LINE
  5
310
100
AcDbEntity
  8
RACCORDO
100
AcDbLine
 62
7
  6
CONTINUOUS
 10
17.405789949
 20
20.0314585442
 11
9.8132250488
 21
16.3433770721
  0
LWPOLYLINE
  5
311
100
AcDbEntity
  8
0
100
AcDbPolyline
 62
7
  6
CONTINUOUS
 90
6
 70
0
 10
2.1457765272
 20
-25.1754124729
 10
2.1591357076
 20
-25.2008796108
 10
2.1696013088
 20
-25.2280861356
 10
2.1768626352
 20
-25.2564998477
 10
2.1807635307
 20
-25.2857966675
 10
2.1814331937
 20
-25.3042743236
  0
LWPOLYLINE
  5
312
100
AcDbEntity
  8
0
100
AcDbPolyline
 62
250
  6
CONTINUOUS
 90
13
 70
0
 10
2.1063101815
 20
-25.1664757089
 10
2.1016692895
 20
-25.156829779
 10
2.0966441587
 20
-25.1475161966
 10
2.0912461357
 20
-25.1385559956
 10
2.0854874217
 20
-25.1299694262
 10
2.0793810284
 20
-25.1217758805
 10
2.0729407304
 20
-25.1139938326
 10
2.0661810489
 20
-25.106640826
 10
2.0591170577
 20
-25.0997332872
 10
2.0517648685
 20
-25.0932869994
 10
2.0441416472
 20
-25.0873169345
 10
2.0362648522
 20
-25.0818365876
 10
2.0281521266
 20
-25.0768580625
  0
LINE
  5
313
100
AcDbEntity
  8
0
100
AcDbLine
 62
7
  6
CONTINUOUS
 10
-8.424592507
 20
20.2497350942
 11
-8.424592507
 21
19.0161207425
  0
LINE
  5
314
100
AcDbEntity
  8
0
100
AcDbLine
 62
250
  6
CONTINUOUS
 10
-6.8001035436
 20
18.2038762608
 11
-6.8001035436
 21
19.4374906125
  0
LINE
  5
315
100
AcDbEntity
  8
0
100
AcDbLine
 62
250
  6
CONTINUOUS
 10
-6.5185003345
 20
18.2122599743
 11
-6.5185003345
 21
19.4368762457
  0
LWPOLYLINE
  5
316
100
AcDbEntity
  8
0
100
AcDbPolyline
 62
250
  6
CONTINUOUS
 90
31
 70
0
 10
-6.8001035436
 20
19.4374906125
 10
-6.7999120022
 20
19.4465979925
 10
-6.7993374572
 20
19.4558776167
 10
-6.7983808084
 20
19.4653045853
 10
-6.7970437063
 20
19.4748553627
 10
-6.795329283
 20
19.484502365
 10
-6.7932428645
 20
19.494213881
 10
-6.7907906579
 20
19.5039615198
 10
-6.7879789561
 20
19.5137206937
 10
-6.7848153209
 20
19.5234651072
 10
-6.7813082643
 20
19.533168423
 10
-6.7774673608
 20
19.5428040434
 10
-6.7733031672
 20
19.552345453
 10
-6.7688270796
 20
19.5617665639
 10
-6.7640512321
 20
19.5710418592
 10
-6.7589885813
 20
19.5801461732
 10
-6.7536528808
 20
19.5890547576
 10
-6.7480586674
 20
19.5977433275
 10
-6.7422211801
 20
19.6061882076
 10
-6.7361563095
 20
19.6143664055
 10
-6.7298805574
 20
19.622255666
 10
-6.723411009
 20
19.629834508
 10
-6.7167652722
 20
19.6370823017
 10
-6.7099614344
 20
19.6439793187
 10
-6.7030180189
 20
19.6505067802
 10
-6.6959539194
 20
19.6566469227
 10
-6.6887883671
 20
19.6623830285
 10
-6.6815408851
 20
19.66769947
 10
-6.6742312067
 20
19.6725817751
 10
-6.6668792211
 20
19.6770166626
 10
-6.6595049389
 20
19.6809920645
  0
LWPOLYLINE
  5
317
100
AcDbEntity
  8
DRAFT
100
AcDbPolyline
 62
7
  6
CONTINUOUS
 90
3
 70
0
 10
-13.292082178
 20
-14.988531458
 10
-13.2807880895
 20
-14.959401661
 10
-13.2684530409
 20
-14.9312143752
  0
LWPOLYLINE
  5
318
100
AcDbEntity
  8
SUPERFICI
100
AcDbPolyline
 62
7
  6
CONTINUOUS
 90
18
 70
0
 10
-14.3998252485
 20
-15.2327433705
 10
-14.3839656099
 20
-15.1949807858
 10
-14.3699420872
 20
-15.1556134344
 10
-14.3577537047
 20
-15.1146408395
 10
-14.3473797435
 20
-15.0719569736
 10
-14.3388388109
 20
-15.0276668343
 10
-14.3321894295
 20
-14.9820867408
 10
-14.3274466458
 20
-14.9352153049
 10
-14.3245944321
 20
-14.8870534611
 10
-14.3236457352
 20
-14.8379215333
 10
-14.3246110422
 20
-14.787813475
 10
-14.3274798885
 20
-14.7367353842
 10
-14.3322348167
 20
-14.6850263135
 10
-14.3388910165
 20
-14.6326770109
 10
-14.3474343369
 20
-14.5796972844
 10
-14.3578043306
 20
-14.5264552833
 10
-14.3699817466
 20
-14.473074181
 10
-14.3839879601
 20
-14.4194318918
  0
LWPOLYLINE
  5
319
100
AcDbEntity
  8
SUPERFICI
100
AcDbPolyline
 62
7
  6
CONTINUOUS
 90
19
 70
0
 10
-15.2837074677
 20
-13.9235871619
 10
-15.2999665943
 20
-13.9615343787
 10
-15.3143490081
 20
-14.0010692869
 10
-15.3268537304
 20
-14.042191386
 10
-15.3374999753
 20
-14.0850063737
 10
-15.3462664114
 20
-14.129407468
 10
-15.353091753
 20
-14.1750757006
 10
-15.3579598067
 20
-14.2220118972
 10
-15.3608857817
 20
-14.2702147032
 10
-15.3618565334
 20
-14.3193623949
 10
-15.3608615385
 20
-14.3694609774
 10
-15.3579113412
 20
-14.4205044158
 10
-15.3530254234
 20
-14.4721534384
 10
-15.3461896853
 20
-14.5244175632
 10
-15.3374192647
 20
-14.5772877546
 10
-15.3267785204
 20
-14.6303974241
 10
-15.3142898026
 20
-14.6836248164
 10
-15.2999328832
 20
-14.7370927223
 10
-15.283708745
 20
-14.7908016222
  0
LWPOLYLINE
  5
31A
100
AcDbEntity
  8
0
100
AcDbPolyline
 62
7
  6
CONTINUOUS
 90
7
 70
0
 10
2.1245961909
 20
15.836809688
 10
2.1435160848
 20
15.8631509055
 10
2.1588725083
 20
15.8917318781
 10
2.1704008521
 20
15.9220695943
 10
2.1779138547
 20
15.9537153598
 10
2.1812556841
 20
15.986090712
 10
2.1814334746
 20
15.9955067839
  0
LINE
  5
31B
100
AcDbEntity
  8
0
100
AcDbLine
 62
250
  6
CONTINUOUS
 10
1.5809684467
 20
15.2646926988
 11
2.1092356185
 21
15.9076448546
  0
LINE
  5
31C
100
AcDbEntity
  8
0
100
AcDbLine
 62
7
  6
CONTINUOUS
 10
1.5809684467
 20
15.1751622325
 11
2.1245961909
 21
15.836809688
  0
LWPOLYLINE
  5
31D
100
AcDbEntity
  8
0
100
AcDbPolyline
 62
7
  6
CONTINUOUS
 90
10
 70
0
 10
2.9192261277
 20
10.3455950238
 10
3.0037198504
 20
10.3923102524
 10
3.0884999618
 20
10.4390191391
 10
3.1735717899
 20
10.4857199264
 10
3.258944888
 20
10.5323933724
 10
3.3446199494
 20
10.579055824
 10
3.4305871841
 20
10.6257594143
 10
3.5168446517
 20
10.6725210942
 10
3.6033998862
 20
10.7193224083
 10
3.6902556769
 20
10.7661627303
  0
LINE
  5
31E
100
AcDbEntity
  8
RACCORDO
100
AcDbLine
 62
250
  6
CONTINUOUS
 10
18.1642966439
 20
18.1361260363
 11
3.7022887903
 21
10.648202271
  0
LINE
  5
31F
100
AcDbEntity
  8
0
100
AcDbLine
 62
7
  6
CONTINUOUS
 10
2.9890111817
 20
11.0227309185
 11
3.6899471355
 21
11.3762392254
  0
LWPOLYLINE
  5
320
100
AcDbEntity
  8
0
100
AcDbPolyline
 62
7
  6
CONTINUOUS
 90
8
 70
0
 10
3.6902556769
 20
9.8986918264
 10
3.6033998862
 20
9.8571568142
 10
3.5168446517
 20
9.8158770059
 10
3.4305871841
 20
9.7748545644
 10
3.3446199494
 20
9.7340773253
 10
3.258944888
 20
9.6935615422
 10
3.1735717899
 20
9.653353287
 10
3.0884999618
 20
9.6134708428
  0
LWPOLYLINE
  5
321
100
AcDbEntity
  8
0
100
AcDbPolyline
 62
7
  6
CONTINUOUS
 90
3
 70
0
 10
3.0884999618
 20
9.6134708428
 10
3.0037198504
 20
9.5739032781
 10
2.9192261277
 20
9.5346541634
  0
LWPOLYLINE
  5
322
100
AcDbEntity
  8
RACCORDO
100
AcDbPolyline
 62
250
  6
CONTINUOUS
 90
32
 70
0
 10
18.2719559341
 20
12.5898289144
 10
18.292047039
 20
12.5957755998
 10
18.3113668387
 20
12.599626706
 10
18.3298924579
 20
12.601409246
 10
18.3475874578
 20
12.6010253426
 10
18.3644261902
 20
12.5986424901
 10
18.3804033824
 20
12.5946831046
 10
18.3954431267
 20
12.5892219106
 10
18.4095567697
 20
12.5822544838
 10
18.4228793
 20
12.5740747804
 10
18.4353944175
 20
12.5647798909
 10
18.4470501956
 20
12.55435054
 10
18.457930341
 20
12.5429057851
 10
18.4680339999
 20
12.5305217032
 10
18.4772827862
 20
12.5172187947
 10
18.4856410208
 20
12.5030385792
 10
18.4930895388
 20
12.4880585513
 10
18.4995576685
 20
12.4723187326
 10
18.5049278319
 20
12.4558122344
 10
18.5091753441
 20
12.4386560182
 10
18.5122250855
 20
12.4208742582
 10
18.5138713795
 20
12.4023391512
 10
18.5141048306
 20
12.3832117396
 10
18.512810582
 20
12.3635199573
 10
18.509594351
 20
12.3429799402
 10
18.5044528227
 20
12.3217870672
 10
18.4972154665
 20
12.3000284569
 10
18.4871906889
 20
12.2773269879
 10
18.474383945
 20
12.2539600753
 10
18.4585566366
 20
12.2300611262
 10
18.4385953128
 20
12.2051245444
 10
18.4168908236
 20
12.1820848136
  0
LWPOLYLINE
  5
323
100
AcDbEntity
  8
RACCORDO
100
AcDbPolyline
 62
250
  6
CONTINUOUS
 90
19
 70
0
 10
-4.4040762091
 20
-26.6323340821
 10
-4.4002170993
 20
-26.6639194832
 10
-4.3942883812
 20
-26.6937534943
 10
-4.3862900547
 20
-26.7218361153
 10
-4.3761482438
 20
-26.7483368802
 10
-4.3639368245
 20
-26.773086255
 10
-4.3498774253
 20
-26.7955756382
 10
-4.3339353117
 20
-26.8157447881
 10
-4.3161452182
 20
-26.8336539464
 10
-4.2968329763
 20
-26.8489752369
 10
-4.2759729097
 20
-26.8616576189
 10
-4.2535906947
 20
-26.871752133
 10
-4.2300891921
 20
-26.8790840247
 10
-4.2054317364
 20
-26.8835979921
 10
-4.179654993
 20
-26.8853493371
 10
-4.1532718188
 20
-26.8843292099
 10
-4.1264531662
 20
-26.8805346605
 10
-4.0990280829
 20
-26.873968639
 10
-4.0709965689
 20
-26.8646311452
  0
LWPOLYLINE
  5
324
100
AcDbEntity
  8
RACCORDO
100
AcDbPolyline
 62
250
  6
CONTINUOUS
 90
12
 70
0
 10
-5.1001720216
 20
-26.6692972406
 10
-5.092639159
 20
-26.7321884335
 10
-5.0808698295
 20
-26.7921108208
 10
-5.0649337051
 20
-26.8487049211
 10
-5.0449229032
 20
-26.9016330429
 10
-5.0209581756
 20
-26.95057635
 10
-4.993188658
 20
-26.9952372678
 10
-4.961779362
 20
-27.0353485741
 10
-4.9269169936
 20
-27.0706720156
 10
-4.888815405
 20
-27.1009943676
 10
-4.8476997398
 20
-27.1261352719
 10
-4.840671492
 20
-27.1297601769
  0
LINE
  5
325
100
AcDbEntity
  8
0
100
AcDbLine
 62
7
  6
CONTINUOUS
 10
-5.606586258
 20
18.6816765143
 11
-5.6151469623
 21
19.8893229654
  0
LINE
  5
326
100
AcDbEntity
  8
0
100
AcDbLine
 62
7
  6
CONTINUOUS
 10
-6.3032721635
 20
19.5441486231
 11
-6.3032721635
 21
18.3317071955
  0
LINE
  5
327
100
AcDbEntity
  8
0
100
AcDbLine
 62
7
  6
CONTINUOUS
 10
-5.1579126459
 20
18.6578165199
 11
-5.1579126459
 21
17.4268630412
  0
LINE
  5
328
100
AcDbEntity
  8
0
100
AcDbLine
 62
250
  6
CONTINUOUS
 10
-5.0993340022
 20
18.5871058417
 11
-5.0993340022
 21
17.3534914901
  0
LWPOLYLINE
  5
329
100
AcDbEntity
  8
RACCORDO
100
AcDbPolyline
 62
250
  6
CONTINUOUS
 90
10
 70
0
 10
-5.3793721765
 20
-16.6755088811
 10
-5.4027586567
 20
-17.8127139349
 10
-5.412538232
 20
-18.9437679744
 10
-5.4087086483
 20
-20.0684353456
 10
-5.3912700001
 20
-21.1864819082
 10
-5.3602259805
 20
-22.2976746446
 10
-5.3155838734
 20
-23.4017817047
 10
-5.2573528884
 20
-24.4985730419
 10
-5.1855441661
 20
-25.5878204643
 10
-5.1001720216
 20
-26.6692972406
  0
LWPOLYLINE
  5
32A
100
AcDbEntity
  8
RACCORDO
100
AcDbPolyline
 62
250
  6
CONTINUOUS
 90
10
 70
0
 10
-4.6818255142
 20
-16.6940166378
 10
-4.7050779928
 20
-17.8252830586
 10
-4.7147971303
 20
-18.9499739812
 10
-4.7109829266
 20
-20.0680894056
 10
-4.6936287646
 20
-21.1798649766
 10
-4.6627412614
 20
-22.2850650494
 10
-4.618340269
 20
-23.3829826897
 10
-4.5604324048
 20
-24.4733822529
 10
-4.4890110515
 20
-25.5564993837
 10
-4.4040762091
 20
-26.6323340821
  0
LWPOLYLINE
  5
32B
100
AcDbEntity
  8
0
100
AcDbPolyline
 62
250
  6
CONTINUOUS
 90
13
 70
0
 10
-5.0993340022
 20
18.5871058417
 10
-5.0991424608
 20
18.5962132218
 10
-5.0985679157
 20
18.6054928459
 10
-5.0976112669
 20
18.6149198146
 10
-5.0962741648
 20
18.624470592
 10
-5.0945597415
 20
18.6341175943
 10
-5.092473323
 20
18.6438291102
 10
-5.0900211165
 20
18.653576749
 10
-5.0872094146
 20
18.6633359229
 10
-5.0840457794
 20
18.6730803365
 10
-5.0805387229
 20
18.6827836522
 10
-5.0766978194
 20
18.6924192727
 10
-5.0725336257
 20
18.7019606823
  0
LWPOLYLINE
  5
32C
100
AcDbEntity
  8
RACCORDO
100
AcDbPolyline
 62
250
  6
CONTINUOUS
 90
5
 70
0
 10
-5.1314648024
 20
-9.2427904646
 10
-5.2031328578
 20
-11.1049939001
 10
-5.2683416298
 20
-12.9645496268
 10
-5.3270885492
 20
-14.8213990458
 10
-5.3793721765
 20
-16.6755088811
  0
LINE
  5
32D
100
AcDbEntity
  8
RACCORDO
100
AcDbLine
 62
7
  6
CONTINUOUS
 10
-4.0398440776
 20
15.0582866799
 11
-4.0335927573
 21
15.2075027227
  0
LWPOLYLINE
  5
32E
100
AcDbEntity
  8
RACCORDO
100
AcDbPolyline
 62
250
  6
CONTINUOUS
 90
4
 70
0
 10
-4.8777043259
 20
-3.6402227358
 10
-4.9687515067
 20
-5.5104223295
 10
-5.0533382811
 20
-7.377947487
 10
-5.1314648024
 20
-9.2427904646
  0
LINE
  5
32F
100
AcDbEntity
  8
RACCORDO
100
AcDbLine
 62
250
  6
CONTINUOUS
 10
-4.7801990737
 20
-1.7674072026
 11
-4.8777043259
 21
-3.6402227358
  0
LINE
  5
330
100
AcDbEntity
  8
RACCORDO
100
AcDbLine
 62
250
  6
CONTINUOUS
 10
-4.6762370948
 20
0.107991035
 11
-4.7801990737
 21
-1.7674072026
  0
LWPOLYLINE
  5
331
100
AcDbEntity
  8
0
100
AcDbPolyline
 62
7
  6
CONTINUOUS
 90
10
 70
0
 10
-5.1579126459
 20
18.6578165199
 10
-5.1562750403
 20
18.6833544963
 10
-5.1513212442
 20
18.7087380595
 10
-5.1430569111
 20
18.7334577854
 10
-5.1315658124
 20
18.7570363172
 10
-5.1170497691
 20
18.7789584732
 10
-5.099812419
 20
18.7987578353
 10
-5.0800391154
 20
18.8161993112
 10
-5.0581430223
 20
18.8308883864
 10
-5.0496310058
 20
18.8355459273
  0
LWPOLYLINE
  5
332
100
AcDbEntity
  8
RACCORDO
100
AcDbPolyline
 62
250
  6
CONTINUOUS
 90
10
 70
0
 10
-3.5351521908
 20
10.6869816372
 10
-3.7157307531
 20
9.4959264915
 10
-3.8829320287
 20
8.3081990304
 10
-4.0367218196
 20
7.1240471277
 10
-4.1770690617
 20
5.9437181502
 10
-4.3039446024
 20
4.767458082
 10
-4.4173211987
 20
3.5955114752
 10
-4.5171751658
 20
2.4281224975
 10
-4.6034863894
 20
1.2655348781
 10
-4.6762370948
 20
0.107991035
  0
LWPOLYLINE
  5
333
100
AcDbEntity
  8
RACCORDO
100
AcDbPolyline
 62
250
  6
CONTINUOUS
 90
10
 70
0
 10
-2.844547762
 20
10.5928680793
 10
-3.0241927695
 20
9.4080412702
 10
-3.1904701542
 20
8.2270071875
 10
-3.3433799162
 20
7.0497658311
 10
-3.4829489015
 20
5.8760677631
 10
-3.6091502641
 20
4.7061624214
 10
-3.7219034658
 20
3.5407981206
 10
-3.8211816606
 20
2.3802242989
 10
-3.9070116945
 20
1.2241915182
 10
-3.9793935677
 20
0.0726997783
  0
LWPOLYLINE
  5
334
100
AcDbEntity
  8
RACCORDO
100
AcDbPolyline
 62
7
  6
CONTINUOUS
 90
9
 70
0
 10
-1.5231975843
 20
19.2518569394
 10
-1.5247805784
 20
19.2440398618
 10
-1.5282029388
 20
19.2337682546
 10
-1.5339666774
 20
19.2212119055
 10
-1.5422854329
 20
19.206970486
 10
-1.5529640471
 20
19.1919112324
 10
-1.5657786014
 20
19.1765418593
 10
-1.5806218852
 20
19.1610913562
 10
-1.5870588222
 20
19.1549750129
  0
LWPOLYLINE
  5
335
100
AcDbEntity
  8
DRAFT
100
AcDbPolyline
 62
7
  6
CONTINUOUS
 90
3
 70
0
 10
-11.100051225
 20
-16.084546936
 10
-11.0887571389
 20
-16.0554171371
 10
-11.0764220928
 20
-16.0272298493
  0
LWPOLYLINE
  5
336
100
AcDbEntity
  8
0
100
AcDbPolyline
 62
250
  6
CONTINUOUS
 90
30
 70
0
 10
-0.0203123441
 20
14.8490416137
 10
-0.0247288315
 20
14.8381595531
 10
-0.0295324338
 20
14.8274999559
 10
-0.034712578
 20
14.817087007
 10
-0.0402582546
 20
14.8069436196
 10
-0.0461568187
 20
14.7970936529
 10
-0.0523937603
 20
14.7875616318
 10
-0.0589544569
 20
14.7783698027
 10
-0.065824592
 20
14.7695381269
 10
-0.072988807
 20
14.7610863712
 10
-0.0804310504
 20
14.75303353
 10
-0.0881344455
 20
14.7453979209
 10
-0.0960814567
 20
14.7381969454
 10
-0.1042540837
 20
14.7314469068
 10
-0.1126339368
 20
14.7251629866
 10
-0.1212021189
 20
14.7193593573
 10
-0.1299393033
 20
14.7140491153
 10
-0.1388257561
 20
14.7092442593
 10
-0.1478413992
 20
14.7049556474
 10
-0.1569658746
 20
14.701192963
 10
-0.1661785922
 20
14.6979646963
 10
-0.1754587564
 20
14.6952781343
 10
-0.184785419
 20
14.6931393414
 10
-0.1941375269
 20
14.6915531459
 10
-0.2034939689
 20
14.6905231281
 10
-0.2128336356
 20
14.690051613
 10
-0.2221354336
 20
14.6901396665
 10
-0.2313783332
 20
14.6907870866
 10
-0.2405414497
 20
14.6919924024
 10
-0.2471558524
 20
14.693220456
  0
LWPOLYLINE
  5
337
100
AcDbEntity
  8
SUPERFICI
100
AcDbPolyline
 62
7
  6
CONTINUOUS
 90
18
 70
0
 10
-12.2077941207
 20
-16.3287589344
 10
-12.1919344855
 20
-16.290996347
 10
-12.1779109658
 20
-16.2516289935
 10
-12.1657225858
 20
-16.2106563969
 10
-12.1553486269
 20
-16.1679725298
 10
-12.1468076962
 20
-16.1236823898
 10
-12.1401583162
 20
-16.0781022958
 10
-12.1354155335
 20
-16.0312308599
 10
-12.1325633205
 20
-15.9830690164
 10
-12.1316146238
 20
-15.9339370891
 10
-12.1325799306
 20
-15.8838290315
 10
-12.1354487763
 20
-15.8327509416
 10
-12.1402037034
 20
-15.7810418719
 10
-12.1468599017
 20
-15.7286925704
 10
-12.1554032202
 20
-15.675712845
 10
-12.1657732117
 20
-15.6224708449
 10
-12.1779506252
 20
-15.5690897434
 10
-12.1919568357
 20
-15.515447455
  0
LWPOLYLINE
  5
338
100
AcDbEntity
  8
SUPERFICI
100
AcDbPolyline
 62
7
  6
CONTINUOUS
 90
19
 70
0
 10
-13.2684530409
 20
-14.9312143752
 10
-13.2847121709
 20
-14.9691615895
 10
-13.2990945876
 20
-15.0086964954
 10
-13.3115993125
 20
-15.0498185929
 10
-13.3222455597
 20
-15.0926335794
 10
-13.3310119976
 20
-15.137034673
 10
-13.3378373407
 20
-15.1827029051
 10
-13.3427053955
 20
-15.2296391017
 10
-13.345631371
 20
-15.277841908
 10
-13.346602123
 20
-15.3269896002
 10
-13.3456071278
 20
-15.3770881835
 10
-13.3426569299
 20
-15.4281316228
 10
-13.337771011
 20
-15.4797806463
 10
-13.3309352714
 20
-15.5320447722
 10
-13.322164849
 20
-15.5849149647
 10
-13.3115241025
 20
-15.6380246352
 10
-13.2990353821
 20
-15.6912520284
 10
-13.2846784598
 20
-15.744719935
 10
-13.2684543182
 20
-15.7984288356
  0
LWPOLYLINE
  5
339
100
AcDbEntity
  8
RACCORDO
100
AcDbPolyline
 62
250
  6
CONTINUOUS
 90
10
 70
0
 10
8.6861362189
 20
18.7408735808
 10
8.688430907
 20
18.7439335915
 10
8.7412935581
 20
18.8046506895
 10
8.8003724286
 20
18.8639099068
 10
8.865465208
 20
18.9215178399
 10
8.9363410398
 20
18.9772913076
 10
9.0128341776
 20
19.0311192431
 10
9.0948255814
 20
19.0829204268
 10
9.1820741783
 20
19.1325380661
 10
9.2024435577
 20
19.1434070475
  0
LINE
  5
33A
100
AcDbEntity
  8
DRAFT
100
AcDbLine
 62
7
  6
CONTINUOUS
 10
-0.3811105753
 20
-6.2203736651
 11
0.0577821624
 21
-6.439820034
  0
LWPOLYLINE
  5
33B
100
AcDbEntity
  8
0
100
AcDbPolyline
 62
250
  6
CONTINUOUS
 90
5
 70
0
 10
2.1208354489
 20
-25.207937415
 10
2.1178272061
 20
-25.1971865002
 10
2.1143982655
 20
-25.186676863
 10
2.110556367
 20
-25.1764322256
 10
2.1063101815
 20
-25.1664757089
  0
LINE
  5
33C
100
AcDbEntity
  8
DRAFT
100
AcDbLine
 62
7
  6
CONTINUOUS
 10
-0.8013667248
 20
-16.2516880357
 11
-0.5403518968
 21
-19.3854038573
  0
LWPOLYLINE
  5
33D
100
AcDbEntity
  8
RACCORDO
100
AcDbPolyline
 62
250
  6
CONTINUOUS
 90
16
 70
0
 10
-2.4799650774
 20
11.1125337014
 10
-2.4809065489
 20
11.1592455094
 10
-2.485605325
 20
11.2074246117
 10
-2.4940100043
 20
11.256543635
 10
-2.5060286191
 20
11.3060649129
 10
-2.5215296391
 20
11.3554463611
 10
-2.5403434078
 20
11.4041474115
 10
-2.5622640074
 20
11.4516349506
 10
-2.5870515039
 20
11.4973891335
 10
-2.6144345651
 20
11.5409090666
 10
-2.6441134543
 20
11.5817183346
 10
-2.6757632954
 20
11.6193701836
 10
-2.7090376113
 20
11.6534523995
 10
-2.7435721508
 20
11.683591864
 10
-2.7789888798
 20
11.7094586324
 10
-2.8149000968
 20
11.730769522
  0
LWPOLYLINE
  5
33E
100
AcDbEntity
  8
0
100
AcDbPolyline
 62
7
  6
CONTINUOUS
 90
6
 70
0
 10
-2.6018413715
 20
23.2526798949
 10
-2.6018466778
 20
23.2529959926
 10
-2.602333439
 20
23.2557938803
 10
-2.6035874384
 20
23.2580867903
 10
-2.6055758196
 20
23.2598982616
 10
-2.6068839789
 20
23.2606578033
  0
LINE
  5
33F
100
AcDbEntity
  8
0
100
AcDbLine
 62
250
  6
CONTINUOUS
 10
-3.0573736012
 20
20.604045601
 11
-3.0651360599
 21
21.6973247324
  0
LINE
  5
340
100
AcDbEntity
  8
0
100
AcDbLine
 62
7
  6
CONTINUOUS
 10
-2.0742574406
 20
21.8242222259
 11
-2.0725712368
 21
21.2550534385
  0
LINE
  5
341
100
AcDbEntity
  8
0
100
AcDbLine
 62
7
  6
CONTINUOUS
 10
-4.1757809925
 20
17.5853845016
 11
-4.1757809925
 21
16.1392217359
  0
LINE
  5
342
100
AcDbEntity
  8
0
100
AcDbLine
 62
7
  6
CONTINUOUS
 10
-3.5163711182
 20
15.8095167987
 11
-3.5163711182
 21
17.2556795645
  0
LINE
  5
343
100
AcDbEntity
  8
DRAFT
100
AcDbLine
 62
7
  6
CONTINUOUS
 10
-3.4748450387
 20
14.9458154727
 11
-3.4748450387
 21
14.7757871605
  0
LINE
  5
344
100
AcDbEntity
  8
RACCORDO
100
AcDbLine
 62
250
  6
CONTINUOUS
 10
-2.7819948138
 20
19.6660877153
 11
-2.7819948138
 21
18.8011691874
  0
LINE
  5
345
100
AcDbEntity
  8
0
100
AcDbLine
 62
7
  6
CONTINUOUS
 10
-2.6018413017
 20
22.0043801082
 11
-2.6018413017
 21
23.2521466993
  0
LINE
  5
346
100
AcDbEntity
  8
0
100
AcDbLine
 62
7
  6
CONTINUOUS
 10
-2.449540206
 20
16.4048412167
 11
-2.449540206
 21
17.7904818628
  0
LINE
  5
347
100
AcDbEntity
  8
RACCORDO
100
AcDbLine
 62
250
  6
CONTINUOUS
 10
-2.3691235976
 20
19.7783481406
 11
-2.3691235976
 21
18.7957634807
  0
LINE
  5
348
100
AcDbEntity
  8
0
100
AcDbLine
 62
7
  6
CONTINUOUS
 10
-2.1245956789
 20
16.1171856545
 11
-2.1245956789
 21
15.7772117204
  0
LINE
  5
349
100
AcDbEntity
  8
0
100
AcDbLine
 62
250
  6
CONTINUOUS
 10
-2.0513723742
 20
16.0287973069
 11
-2.0513723742
 21
15.6888233727
  0
LWPOLYLINE
  5
34A
100
AcDbEntity
  8
0
100
AcDbPolyline
 62
250
  6
CONTINUOUS
 90
34
 70
0
 10
-2.0513723742
 20
16.0287973069
 10
-2.0511735714
 20
16.0391617851
 10
-2.0505776091
 20
16.0497017699
 10
-2.0495858259
 20
16.0603935556
 10
-2.0482004499
 20
16.0712131014
 10
-2.0464245958
 20
16.0821360658
 10
-2.0442622606
 20
16.0931378597
 10
-2.04171831
 20
16.1041937319
 10
-2.0387984653
 20
16.1152788209
 10
-2.0355092953
 20
16.1263681907
 10
-2.0318581984
 20
16.1374369005
 10
-2.0278533878
 20
16.1484600529
 10
-2.0235038756
 20
16.1594128461
 10
-2.0188194469
 20
16.1702706439
 10
-2.0138106388
 20
16.181009027
 10
-2.0084887203
 20
16.1916038401
 10
-2.0028656599
 20
16.2020312599
 10
-1.9969541092
 20
16.2122678287
 10
-1.9907673774
 20
16.2222905056
 10
-1.9843194008
 20
16.2320767235
 10
-1.9776246676
 20
16.2416045033
 10
-1.9706981914
 20
16.2508524784
 10
-1.9635554809
 20
16.2597999288
 10
-1.9562126634
 20
16.2684266395
 10
-1.9486864168
 20
16.27671303
 10
-1.9409937825
 20
16.2846403785
 10
-1.9331519699
 20
16.2921909913
 10
-1.925178471
 20
16.2993480406
 10
-1.9170899935
 20
16.3060964136
 10
-1.9089059222
 20
16.3124198235
 10
-1.9006482514
 20
16.3183015995
 10
-1.8923368307
 20
16.3237283495
 10
-1.8839891984
 20
16.3286893635
 10
-1.8756241182
 20
16.3331741218
  0
LWPOLYLINE
  5
34B
100
AcDbEntity
  8
RACCORDO
100
AcDbPolyline
 62
250
  6
CONTINUOUS
 90
8
 70
0
 10
-4.1806620321
 20
-3.6718080716
 10
-4.2716168994
 20
-5.5400933651
 10
-4.3561192076
 20
-7.4057413355
 10
-4.4341686058
 20
-9.2687435516
 10
-4.5057640409
 20
-11.1290747193
 10
-4.5709051618
 20
-12.9867264073
 10
-4.6295923196
 20
-14.8417070468
 10
-4.6818255142
 20
-16.6940166378
  0
LWPOLYLINE
  5
34C
100
AcDbEntity
  8
RACCORDO
100
AcDbPolyline
 62
250
  6
CONTINUOUS
 90
3
 70
0
 10
-3.9793935677
 20
0.0726997783
 10
-4.0832542549
 20
-1.8008770238
 10
-4.1806620321
 20
-3.6718080716
  0
LINE
  5
34D
100
AcDbEntity
  8
RACCORDO
100
AcDbLine
 62
7
  6
CONTINUOUS
 10
-1.5228549983
 20
19.2567272921
 11
-1.5231975843
 21
19.2518569394
  0
LWPOLYLINE
  5
34E
100
AcDbEntity
  8
SUPERFICI
100
AcDbPolyline
 62
7
  6
CONTINUOUS
 90
18
 70
0
 10
-10.1925398735
 20
-17.3363860579
 10
-10.1766802349
 20
-17.2986234732
 10
-10.1626567123
 20
-17.2592561219
 10
-10.1504683297
 20
-17.218283527
 10
-10.1400943685
 20
-17.1755996611
 10
-10.131553436
 20
-17.1313095218
 10
-10.1249040546
 20
-17.0857294283
 10
-10.1201612709
 20
-17.0388579924
 10
-10.1173090572
 20
-16.9906961485
 10
-10.1163603603
 20
-16.9415642207
 10
-10.1173256673
 20
-16.8914561624
 10
-10.1201945136
 20
-16.8403780716
 10
-10.1249494418
 20
-16.788669001
 10
-10.1316056416
 20
-16.7363196984
 10
-10.1401489619
 20
-16.6833399718
 10
-10.1505189556
 20
-16.6300979707
 10
-10.1626963717
 20
-16.5767168685
 10
-10.1767025852
 20
-16.5230745792
  0
LWPOLYLINE
  5
34F
100
AcDbEntity
  8
SUPERFICI
100
AcDbPolyline
 62
7
  6
CONTINUOUS
 90
19
 70
0
 10
-11.0764220928
 20
-16.0272298493
 10
-11.0926812194
 20
-16.0651770662
 10
-11.1070636331
 20
-16.1047119743
 10
-11.1195683555
 20
-16.1458340735
 10
-11.1302146004
 20
-16.1886490612
 10
-11.1389810365
 20
-16.2330501555
 10
-11.1458063781
 20
-16.278718388
 10
-11.1506744318
 20
-16.3256545847
 10
-11.1536004068
 20
-16.3738573907
 10
-11.1545711585
 20
-16.4230050824
 10
-11.1535761636
 20
-16.4731036649
 10
-11.1506259663
 20
-16.5241471033
 10
-11.1457400484
 20
-16.5757961258
 10
-11.1389043103
 20
-16.6280602506
 10
-11.1301338897
 20
-16.680930442
 10
-11.1194931455
 20
-16.7340401116
 10
-11.1070044277
 20
-16.7872675038
 10
-11.0926475083
 20
-16.8407354097
 10
-11.0764233701
 20
-16.8944443097
  0
LWPOLYLINE
  5
350
100
AcDbEntity
  8
RACCORDO
100
AcDbPolyline
 62
250
  6
CONTINUOUS
 90
47
 70
0
 10
8.7677900884
 20
18.7072159388
 10
8.8067228627
 20
18.7592579335
 10
8.856006081
 20
18.816038611
 10
8.9111397557
 20
18.8716292253
 10
8.971643234
 20
18.9255717476
 10
9.0375155856
 20
18.9778246471
 10
9.1087577409
 20
19.0284294546
 10
9.1848918386
 20
19.0770527331
 10
9.2659084676
 20
19.1236804756
 10
9.351817039
 20
19.1683266892
 10
9.4421679247
 20
19.2106999583
 10
9.5372182049
 20
19.2508591563
 10
9.6367107994
 20
19.2887454098
 10
9.7394248398
 20
19.3238906829
 10
9.8457657085
 20
19.3562684028
 10
9.9553280231
 20
19.3859051424
 10
10.0656747675
 20
19.4124125846
 10
10.1767792844
 20
19.435611978
 10
10.2886682312
 20
19.4556820741
 10
10.3989845633
 20
19.4727708099
 10
10.5073750532
 20
19.4867447057
 10
10.6141929284
 20
19.4977372413
 10
10.7181408276
 20
19.5062967925
 10
10.818976662
 20
19.5123993621
 10
10.9169425203
 20
19.5160689473
 10
11.0114673066
 20
19.5179259161
 10
11.1023890467
 20
19.5179917849
 10
11.1898697149
 20
19.5162450374
 10
11.2738241382
 20
19.513241492
 10
11.3541282116
 20
19.5090226914
 10
11.4309060402
 20
19.5035470929
 10
11.5044447667
 20
19.4972458873
 10
11.5747113004
 20
19.4901598535
 10
11.6417387319
 20
19.4822482126
 10
11.7059134761
 20
19.4738198184
 10
11.7672212229
 20
19.4649091779
 10
11.8256762823
 20
19.4554817841
 10
11.8817079988
 20
19.4457429703
 10
11.9353125824
 20
19.4357214486
 10
11.986493823
 20
19.4253885068
 10
12.0356924353
 20
19.4148633421
 10
12.0829115802
 20
19.4041688029
 10
12.1281480968
 20
19.3932820408
 10
12.1718332167
 20
19.3822537072
 10
12.2141106838
 20
19.3711006859
 10
12.2548367542
 20
19.359806093
 10
12.2940114279
 20
19.3483699287
  0
LINE
  5
351
100
AcDbEntity
  8
RACCORDO
100
AcDbLine
 62
250
  6
CONTINUOUS
 10
-19.32489758
 20
7.4323212776
 11
-4.6762370948
 21
0.107991035
  0
LWPOLYLINE
  5
352
100
AcDbEntity
  8
ASSI
100
AcDbPolyline
 62
7
  6
CONTINUOUS
 90
7
 70
0
 10
-1.0081374709
 20
-21.1872073848
 10
-1.0071686321
 20
-21.1938107338
 10
-1.0008683541
 20
-21.278756574
 10
-1.0008683541
 20
-21.3616617021
 10
-1.0071686321
 20
-21.4403072644
 10
-1.0199393249
 20
-21.5145782326
 10
-1.0222002043
 20
-21.5228781424
  0
LWPOLYLINE
  5
353
100
AcDbEntity
  8
0
100
AcDbPolyline
 62
250
  6
CONTINUOUS
 90
3
 70
0
 10
-2.1239116977
 20
15.7679715534
 10
-2.1245074962
 20
15.7738919476
 10
-2.1245956789
 20
15.7772117279
  0
LINE
  5
354
100
AcDbEntity
  8
RACCORDO
100
AcDbLine
 62
7
  6
CONTINUOUS
 10
-0.5265723092
 20
-9.6924760574
 11
-0.5101290922
 21
-9.8898915445
  0
LINE
  5
355
100
AcDbEntity
  8
0
100
AcDbLine
 62
7
  6
CONTINUOUS
 10
0.0577821624
 20
-6.439820034
 11
1.208901164
 21
-20.2600303877
  0
LINE
  5
356
100
AcDbEntity
  8
0
100
AcDbLine
 62
7
  6
CONTINUOUS
 10
-2.1226383243
 20
15.7459891962
 11
-2.1245956727
 21
15.7772395492
  0
LWPOLYLINE
  5
357
100
AcDbEntity
  8
0
100
AcDbPolyline
 62
250
  6
CONTINUOUS
 90
20
 70
0
 10
-0.3728343037
 20
-26.790023736
 10
-0.3726355558
 20
-26.8001880229
 10
-0.3720397591
 20
-26.8101307067
 10
-0.3710482531
 20
-26.8198294307
 10
-0.3696632675
 20
-26.8292623863
 10
-0.3678879163
 20
-26.8384083631
 10
-0.3657261918
 20
-26.8472467954
 10
-0.3631829545
 20
-26.8557578094
 10
-0.3602639233
 20
-26.8639222675
 10
-0.3569756618
 20
-26.8717218113
 10
-0.3533255638
 20
-26.8791389029
 10
-0.3493218369
 20
-26.8861568644
 10
-0.3449734838
 20
-26.8927599155
 10
-0.3402902821
 20
-26.8989332085
 10
-0.3352827623
 20
-26.9046628625
 10
-0.3299621842
 20
-26.9099359938
 10
-0.3243405116
 20
-26.9147407454
 10
-0.3184303851
 20
-26.9190663135
 10
-0.3122450942
 20
-26.9229029717
 10
-0.3078610073
 20
-26.9252421861
  0
LWPOLYLINE
  5
358
100
AcDbEntity
  8
0
100
AcDbPolyline
 62
250
  6
CONTINUOUS
 90
20
 70
0
 10
-2.0513723742
 20
15.6888233727
 10
-2.0512040783
 20
15.6794624223
 10
-2.0506995111
 20
15.6702875913
 10
-2.0498596332
 20
15.6613163491
 10
-2.0486860475
 20
15.6525658004
 10
-2.0471809866
 20
15.6440525824
 10
-2.0453473002
 20
15.6357928395
 10
-2.0431884561
 20
15.6278022519
 10
-2.0407085687
 20
15.6200960983
 10
-2.037912389
 20
15.6126891493
 10
-2.0348052665
 20
15.6055955499
 10
-2.0313931043
 20
15.5988287537
 10
-2.0276823764
 20
15.5924015966
 10
-2.0236801156
 20
15.5863262767
 10
-2.0193939665
 20
15.5806144129
 10
-2.014832157
 20
15.5752769599
 10
-2.0100034274
 20
15.5703241099
 10
-2.0049169417
 20
15.5657652295
 10
-1.9995823267
 20
15.5616089363
 10
-1.9940229581
 20
15.5578720636
  0
LWPOLYLINE
  5
359
100
AcDbEntity
  8
0
100
AcDbPolyline
 62
250
  6
CONTINUOUS
 90
22
 70
0
 10
-0.3728343037
 20
14.8495543375
 10
-0.3726664715
 20
14.8402061681
 10
-0.3721630648
 20
14.8310404915
 10
-0.3713246978
 20
14.822074922
 10
-0.3701524711
 20
14.8133257427
 10
-0.3686483526
 20
14.8048108684
 10
-0.3668155495
 20
14.7965495346
 10
-0.3646578246
 20
14.7885583956
 10
-0.3621790905
 20
14.7808516813
 10
-0.3593840331
 20
14.7734439822
 10
-0.3562779362
 20
14.7663493542
 10
-0.352866726
 20
14.7595813808
 10
-0.3491569416
 20
14.7531530477
 10
-0.3451556783
 20
14.7470766337
 10
-0.3408705325
 20
14.7413636596
 10
-0.3363096324
 20
14.7360249638
 10
-0.3314816264
 20
14.7310706854
 10
-0.3263957332
 20
14.7265102992
 10
-0.3210617031
 20
14.722352544
 10
-0.3154897386
 20
14.7186053514
 10
-0.3096904182
 20
14.7152758151
 10
-0.3078634779
 20
14.7143371228
  0
LINE
  5
35A
100
AcDbEntity
  8
RACCORDO
100
AcDbLine
 62
7
  6
CONTINUOUS
 10
-1.5228500697
 20
19.2567844193
 11
-1.5228500342
 21
19.256685443
  0
LINE
  5
35B
100
AcDbEntity
  8
RACCORDO
100
AcDbLine
 62
250
  6
CONTINUOUS
 10
-1.6107179989
 20
19.3991453412
 11
-1.6107179989
 21
19.1330691559
  0
LINE
  5
35C
100
AcDbEntity
  8
0
100
AcDbLine
 62
7
  6
CONTINUOUS
 10
-1.4216027246
 20
15.2712067461
 11
-1.4216027246
 21
14.8172530041
  0
LINE
  5
35D
100
AcDbEntity
  8
0
100
AcDbLine
 62
250
  6
CONTINUOUS
 10
-1.3483794199
 20
15.2345950937
 11
-1.3483794199
 21
14.7255209495
  0
LINE
  5
35E
100
AcDbEntity
  8
RACCORDO
100
AcDbLine
 62
7
  6
CONTINUOUS
 10
-0.5403518968
 20
-19.3854038573
 11
-0.5403518968
 21
-19.7319063487
  0
LINE
  5
35F
100
AcDbEntity
  8
0
100
AcDbLine
 62
250
  6
CONTINUOUS
 10
-0.3728343037
 20
-26.790023736
 11
-0.3728343037
 21
-26.4500498019
  0
LINE
  5
360
100
AcDbEntity
  8
0
100
AcDbLine
 62
250
  6
CONTINUOUS
 10
-0.3728343037
 20
14.8495543375
 11
-0.3728343037
 21
15.1895282717
  0
LINE
  5
361
100
AcDbEntity
  8
0
100
AcDbLine
 62
250
  6
CONTINUOUS
 10
-0.0203123441
 20
-26.7905364598
 11
-0.0203123441
 21
-26.4505625257
  0
LINE
  5
362
100
AcDbEntity
  8
0
100
AcDbLine
 62
250
  6
CONTINUOUS
 10
-0.0203123441
 20
14.8490416137
 11
-0.0203123441
 21
15.1890155478
  0
LINE
  5
363
100
AcDbEntity
  8
0
100
AcDbLine
 62
250
  6
CONTINUOUS
 10
-1.629790878
 20
20.5736094544
 11
-1.6258770011
 21
21.1248471658
  0
LWPOLYLINE
  5
364
100
AcDbEntity
  8
0
100
AcDbPolyline
 62
250
  6
CONTINUOUS
 90
25
 70
0
 10
-0.3728343037
 20
-26.4500498019
 10
-0.3726660079
 20
-26.4405205556
 10
-0.3721614407
 20
-26.4308411574
 10
-0.3713215628
 20
-26.4210300373
 10
-0.3701479771
 20
-26.4111059028
 10
-0.3686429162
 20
-26.4010876239
 10
-0.3668092298
 20
-26.3909941947
 10
-0.3646503857
 20
-26.380844763
 10
-0.3621704983
 20
-26.370658722
 10
-0.3593743186
 20
-26.3604555933
 10
-0.356267196
 20
-26.3502548713
 10
-0.3528550339
 20
-26.340075913
 10
-0.349144306
 20
-26.329938028
 10
-0.3451420452
 20
-26.3198604473
 10
-0.340855896
 20
-26.3098624343
 10
-0.3362940866
 20
-26.2999631719
 10
-0.331465357
 20
-26.2901815923
 10
-0.3263788712
 20
-26.2805362261
 10
-0.3210442563
 20
-26.2710453179
 10
-0.3154709861
 20
-26.2617258308
 10
-0.3096703001
 20
-26.252596662
 10
-0.3036553749
 20
-26.2436782634
 10
-0.2974386101
 20
-26.2349883771
 10
-0.2910313476
 20
-26.2265422359
 10
-0.2844459561
 20
-26.218355628
  0
LWPOLYLINE
  5
365
100
AcDbEntity
  8
0
100
AcDbPolyline
 62
250
  6
CONTINUOUS
 90
34
 70
0
 10
-0.3728343037
 20
15.1895282717
 10
-0.3726355558
 20
15.1998913065
 10
-0.3720397591
 20
15.2104297871
 10
-0.3710482531
 20
15.221120017
 10
-0.3696632675
 20
15.2319379583
 10
-0.3678879163
 20
15.2428592861
 10
-0.3657261918
 20
15.253859443
 10
-0.3631829545
 20
15.2649136943
 10
-0.3602639233
 20
15.2759971837
 10
-0.3569756618
 20
15.287084989
 10
-0.3533255638
 20
15.2981521786
 10
-0.3493218369
 20
15.309173867
 10
-0.3449734838
 20
15.3201252711
 10
-0.3402902821
 20
15.3309817658
 10
-0.3352827623
 20
15.3417189395
 10
-0.3299621842
 20
15.3523126489
 10
-0.3243405116
 20
15.3627390732
 10
-0.3184303851
 20
15.3729747678
 10
-0.3122450942
 20
15.382996717
 10
-0.3057985469
 20
15.3927823856
 10
-0.2991052388
 20
15.4023097698
 10
-0.2921802203
 20
15.4115574466
 10
-0.2850390629
 20
15.4205046219
 10
-0.2776978239
 20
15.4291311773
 10
-0.2701730107
 20
15.4374177153
 10
-0.2624815434
 20
15.445345603
 10
-0.2546407169
 20
15.452897014
 10
-0.2466681618
 20
15.4600549683
 10
-0.2385818051
 20
15.4668033708
 10
-0.2303998294
 20
15.4731270471
 10
-0.2221406327
 20
15.4790117779
 10
-0.2138227864
 20
15.4844443311
 10
-0.2054649937
 20
15.4894124911
 10
-0.1970860478
 20
15.4939050866
  0
LINE
  5
366
100
AcDbEntity
  8
RACCORDO
100
AcDbLine
 62
7
  6
CONTINUOUS
 10
-1.2002285783
 20
-25.7723307406
 11
0.3984912361
 21
12.3883507153
  0
LWPOLYLINE
  5
367
100
AcDbEntity
  8
RACCORDO
100
AcDbPolyline
 62
250
  6
CONTINUOUS
 90
10
 70
0
 10
-4.0709965689
 20
-26.8646311452
 10
-4.0758033823
 20
-26.9101811085
 10
-4.0843253081
 20
-26.9532539082
 10
-4.0964690597
 20
-26.9933780409
 10
-4.1121017035
 20
-27.0301142814
 10
-4.1310521143
 20
-27.0630604905
 10
-4.1531128484
 20
-27.0918560171
 10
-4.1780424143
 20
-27.1161856465
 10
-4.2055679167
 20
-27.1357830503
 10
-4.237377315
 20
-27.1512027298
  0
LINE
  5
368
100
AcDbEntity
  8
DRAFT
100
AcDbLine
 62
7
  6
CONTINUOUS
 10
18.4168908236
 20
12.167164596
 11
19.4876139175
 21
12.8596992532
  0
LWPOLYLINE
  5
369
100
AcDbEntity
  8
RACCORDO
100
AcDbPolyline
 62
250
  6
CONTINUOUS
 90
16
 70
0
 10
-3.9793935677
 20
0.0726997783
 10
-4.0184057996
 20
0.0591870157
 10
-4.0606512159
 20
0.0477322931
 10
-4.1056822504
 20
0.0384569668
 10
-4.153021825
 20
0.0314593037
 10
-4.2021684038
 20
0.0268134399
 10
-4.2526013068
 20
0.0245685958
 10
-4.3037862262
 20
0.0247485541
 10
-4.3551808868
 20
0.0273514084
 10
-4.4062407915
 20
0.0323495829
 10
-4.4564249897
 20
0.0396901247
 10
-4.5052018083
 20
0.0492952651
 10
-4.5520544848
 20
0.0610632429
 10
-4.5964866418
 20
0.0748693833
 10
-4.6380275457
 20
0.0905674179
 10
-4.6762370945
 20
0.1079910351
  0
LWPOLYLINE
  5
36A
100
AcDbEntity
  8
0
100
AcDbPolyline
 62
250
  6
CONTINUOUS
 90
5
 70
0
 10
2.1285402
 20
-25.2528615499
 10
2.1272729328
 20
-25.2413927885
 10
2.1255636483
 20
-25.230065531
 10
2.1234162047
 20
-25.2189053435
 10
2.1208354489
 20
-25.207937415
  0
LINE
  5
36B
100
AcDbEntity
  8
0
100
AcDbLine
 62
7
  6
CONTINUOUS
 10
0.7700419101
 20
22.3588692005
 11
0.773349393
 21
21.8930371454
  0
LINE
  5
36C
100
AcDbEntity
  8
0
100
AcDbLine
 62
250
  6
CONTINUOUS
 10
0.3383863044
 20
-25.4735533247
 11
0.3383863044
 21
-24.7796405975
  0
LINE
  5
36D
100
AcDbEntity
  8
0
100
AcDbLine
 62
250
  6
CONTINUOUS
 10
0.3383863044
 20
13.8821380874
 11
0.3383863044
 21
14.5628664751
  0
LINE
  5
36E
100
AcDbEntity
  8
0
100
AcDbLine
 62
250
  6
CONTINUOUS
 10
0.690908264
 20
-25.5990660486
 11
0.690908264
 21
-24.9559015773
  0
LINE
  5
36F
100
AcDbEntity
  8
0
100
AcDbLine
 62
250
  6
CONTINUOUS
 10
0.690908264
 20
13.8929059691
 11
0.690908264
 21
14.7005380908
  0
LINE
  5
370
100
AcDbEntity
  8
0
100
AcDbLine
 62
7
  6
CONTINUOUS
 10
1.208901164
 20
13.013669764
 11
1.208901164
 21
8.492013018
  0
LINE
  5
371
100
AcDbEntity
  8
0
100
AcDbLine
 62
7
  6
CONTINUOUS
 10
1.208901164
 20
-20.2600303877
 11
1.208901164
 21
-24.7816871337
  0
LINE
  5
372
100
AcDbEntity
  8
0
100
AcDbLine
 62
7
  6
CONTINUOUS
 10
1.5809684467
 20
-24.8421420654
 11
1.5809684467
 21
-26.0105018602
  0
LINE
  5
373
100
AcDbEntity
  8
0
100
AcDbLine
 62
7
  6
CONTINUOUS
 10
1.5809684467
 20
14.3895868903
 11
1.5809684467
 21
15.9917375513
  0
LINE
  5
374
100
AcDbEntity
  8
0
100
AcDbLine
 62
250
  6
CONTINUOUS
 10
2.1092356185
 20
16.2551763713
 11
2.1092356185
 21
15.9076448546
  0
LINE
  5
375
100
AcDbEntity
  8
0
100
AcDbLine
 62
250
  6
CONTINUOUS
 10
2.1092356185
 20
-25.3919592848
 11
2.1092356185
 21
-25.7394908015
  0
LINE
  5
376
100
AcDbEntity
  8
0
100
AcDbLine
 62
7
  6
CONTINUOUS
 10
2.1814334755
 20
16.3430490035
 11
2.1814334755
 21
15.9955174868
  0
LINE
  5
377
100
AcDbEntity
  8
0
100
AcDbLine
 62
7
  6
CONTINUOUS
 10
2.1814334755
 20
-25.3040866526
 11
2.1814334755
 21
-25.6516181693
  0
LINE
  5
378
100
AcDbEntity
  8
0
100
AcDbLine
 62
7
  6
CONTINUOUS
 10
2.2880752279
 20
13.6030354536
 11
2.2880752279
 21
-24.3289065437
  0
LINE
  5
379
100
AcDbEntity
  8
0
100
AcDbLine
 62
250
  6
CONTINUOUS
 10
2.1814334755
 20
-25.6516181517
 11
2.1814333305
 21
-25.6517527931
  0
LWPOLYLINE
  5
37A
100
AcDbEntity
  8
0
100
AcDbPolyline
 62
7
  6
CONTINUOUS
 90
23
 70
0
 10
2.2880752279
 20
-24.3286936962
 10
2.2879903257
 20
-24.3458861689
 10
2.2872832403
 20
-24.3627858894
 10
2.2859565945
 20
-24.3793649987
 10
2.2840066485
 20
-24.3955966673
 10
2.2814452624
 20
-24.4114538847
 10
2.2782989556
 20
-24.4269087956
 10
2.2745771679
 20
-24.4419345317
 10
2.2702819722
 20
-24.4565064633
 10
2.2654288411
 20
-24.4705999903
 10
2.2600237895
 20
-24.4841974942
 10
2.2540761518
 20
-24.4972678206
 10
2.2476093067
 20
-24.509769068
 10
2.2406426424
 20
-24.5216709033
 10
2.2331826602
 20
-24.532966602
 10
2.2252348008
 20
-24.5436511428
 10
2.2168039701
 20
-24.5537144756
 10
2.2079103899
 20
-24.5631285078
 10
2.1985837317
 20
-24.5718632095
 10
2.1888509232
 20
-24.5798978886
 10
2.1787197181
 20
-24.5872302683
 10
2.1681920277
 20
-24.593859392
 10
2.1593661474
 20
-24.5987146957
  0
LWPOLYLINE
  5
37B
100
AcDbEntity
  8
0
100
AcDbPolyline
 62
250
  6
CONTINUOUS
 90
19
 70
0
 10
2.1092356185
 20
-25.7394908015
 10
2.1090828366
 20
-25.7496694455
 10
2.1085275272
 20
-25.7596259328
 10
2.1075709472
 20
-25.7693377027
 10
2.1062152614
 20
-25.778782754
 10
2.1044635406
 20
-25.7879396788
 10
2.1023197564
 20
-25.7967877124
 10
2.0997887683
 20
-25.8053068028
 10
2.0968763106
 20
-25.8134776516
 10
2.0935889843
 20
-25.8212817428
 10
2.0899342381
 20
-25.8287013954
 10
2.0859203544
 20
-25.8357197971
 10
2.0815564326
 20
-25.8423210413
 10
2.0768523627
 20
-25.8484901715
 10
2.0718188044
 20
-25.8542132126
 10
2.0664671661
 20
-25.8594771974
 10
2.0608095725
 20
-25.8642702037
 10
2.0548588468
 20
-25.868581371
 10
2.0486284856
 20
-25.8724009273
  0
LWPOLYLINE
  5
37C
100
AcDbEntity
  8
0
100
AcDbPolyline
 62
7
  6
CONTINUOUS
 90
20
 70
0
 10
1.5809684467
 20
-26.0105018602
 10
1.5807680679
 20
-26.0207034514
 10
1.5801678989
 20
-26.0306816162
 10
1.5791691953
 20
-26.0404138035
 10
1.5777740369
 20
-26.0498780597
 10
1.575985576
 20
-26.0590529475
 10
1.5738080301
 20
-26.0679175949
 10
1.5712462715
 20
-26.0764519502
 10
1.5683060107
 20
-26.0846367261
 10
1.5649940364
 20
-26.0924533119
 10
1.5613178124
 20
-26.0998840191
 10
1.5572855935
 20
-26.1069120508
 10
1.5529066017
 20
-26.1135214374
 10
1.5481907405
 20
-26.1196972142
 10
1.5431486409
 20
-26.1254254165
 10
1.5377917705
 20
-26.1306930422
 10
1.5321322711
 20
-26.1354881549
 10
1.5261829332
 20
-26.139799907
 10
1.5199572365
 20
-26.1436185292
 10
1.5168633437
 20
-26.145279633
  0
LWPOLYLINE
  5
37D
100
AcDbEntity
  8
0
100
AcDbPolyline
 62
250
  6
CONTINUOUS
 90
18
 70
0
 10
2.1814334755
 20
16.3430490212
 10
2.181379914
 20
16.3404616354
 10
2.1808534865
 20
16.3345393313
 10
2.1797660742
 20
16.3286361585
 10
2.1781201196
 20
16.3227653917
 10
2.1759193223
 20
16.3169402373
 10
2.1731686295
 20
16.3111737964
 10
2.1698742256
 20
16.3054790399
 10
2.1660435212
 20
16.299868781
 10
2.1616851315
 20
16.2943556393
 10
2.1568088579
 20
16.2889520142
 10
2.1514256685
 20
16.2836700615
 10
2.1455476673
 20
16.2785216588
 10
2.1391880771
 20
16.2735183889
 10
2.1323612143
 20
16.268671514
 10
2.1250824403
 20
16.263991938
 10
2.1173681241
 20
16.2594901822
 10
2.1092356185
 20
16.2551763713
  0
LWPOLYLINE
  5
37E
100
AcDbEntity
  8
0
100
AcDbPolyline
 62
250
  6
CONTINUOUS
 90
20
 70
0
 10
-0.0203123441
 20
-26.7905364598
 10
-0.020560674
 20
-26.8007628778
 10
-0.0212066544
 20
-26.8107647006
 10
-0.022248823
 20
-26.8205192648
 10
-0.0236848211
 20
-26.8300044723
 10
-0.0255113958
 20
-26.839198824
 10
-0.0277244057
 20
-26.8480814705
 10
-0.0303188346
 20
-26.8566322813
 10
-0.0332888044
 20
-26.8648318861
 10
-0.0366275837
 20
-26.8726617039
 10
-0.0403276074
 20
-26.8801039951
 10
-0.0443804902
 20
-26.8871418964
 10
-0.0487770448
 20
-26.8937594569
 10
-0.0535073069
 20
-26.8999416833
 10
-0.0585605576
 20
-26.9056745706
 10
-0.0639253439
 20
-26.9109451294
 10
-0.0695895115
 20
-26.9157414226
 10
-0.075540222
 20
-26.9200525824
 10
-0.0817639792
 20
-26.9238688367
 10
-0.0864097968
 20
-26.9263069299
  0
LINE
  5
37F
100
AcDbEntity
  8
0
100
AcDbLine
 62
7
  6
CONTINUOUS
 10
1.208901164
 20
8.492013018
 11
0.0577821624
 21
-6.439820034
  0
LWPOLYLINE
  5
380
100
AcDbEntity
  8
0
100
AcDbPolyline
 62
250
  6
CONTINUOUS
 90
17
 70
0
 10
2.1813790526
 20
15.9929093993
 10
2.1808506996
 20
15.9869874174
 10
2.1797614275
 20
15.9810846403
 10
2.1781136895
 20
15.9752143343
 10
2.1759111893
 20
15.9693896882
 10
2.1731588577
 20
15.9636237585
 10
2.1698628987
 20
15.9579295561
 10
2.1660308073
 20
15.9523199987
 10
2.1616712953
 20
15.9468077692
 10
2.1567941496
 20
15.9414051809
 10
2.1514102543
 20
15.93612427
 10
2.1455312193
 20
15.9309764996
 10
2.1391706824
 20
15.9259738802
 10
2.1323445227
 20
15.9211287257
 10
2.1250689503
 20
15.9164521611
 10
2.1173601167
 20
15.9119542112
 10
2.1092356185
 20
15.9076448546
  0
LWPOLYLINE
  5
381
100
AcDbEntity
  8
RACCORDO
100
AcDbPolyline
 62
7
  6
CONTINUOUS
 90
76
 70
0
 10
18.271955934
 20
12.5898289143
 10
18.3339693623
 20
12.64144712
 10
18.3942792553
 20
12.6920777605
 10
18.452885613
 20
12.741720836
 10
18.5097492021
 20
12.790345395
 10
18.5649092558
 20
12.8379823889
 10
18.6184834742
 20
12.8847246718
 10
18.6704786979
 20
12.9305751873
 10
18.7208880862
 20
12.9755309918
 10
18.7698088168
 20
13.0196761078
 10
18.8172457533
 20
13.0630110664
 10
18.8631940321
 20
13.1055353365
 10
18.9077362398
 20
13.1473313472
 10
18.9508781291
 20
13.1883991446
 10
18.9926139474
 20
13.2287386826
 10
19.0330090231
 20
13.2684322528
 10
19.0720708441
 20
13.3074793762
 10
19.1097919226
 20
13.3458805318
 10
19.1462151235
 20
13.3837194479
 10
19.1813511483
 20
13.4209950417
 10
19.2151892956
 20
13.457708396
 10
19.2477403259
 20
13.493946488
 10
19.2790224043
 20
13.5297095182
 10
19.3090173657
 20
13.5649972862
 10
19.3376814757
 20
13.5998961679
 10
19.3650454864
 20
13.6344087488
 10
19.3910786456
 20
13.6685324434
 10
19.4156449628
 20
13.7023458711
 10
19.4388134156
 20
13.7358942367
 10
19.4605150263
 20
13.7691323353
 10
19.4804068709
 20
13.8020031717
 10
19.4985650947
 20
13.8346238121
 10
19.5149135523
 20
13.8668771903
 10
19.5288808839
 20
13.8983551119
 10
19.5404203304
 20
13.9290709696
 10
19.5495786509
 20
13.9590113706
 10
19.555924763
 20
13.9877279432
 10
19.5593494186
 20
14.0151803195
 10
19.5599618658
 20
14.0414088674
 10
19.5576587661
 20
14.0660863179
 10
19.5522746397
 20
14.0891749361
 10
19.5439749665
 20
14.110712457
 10
19.5331528478
 20
14.1304848163
 10
19.5197320711
 20
14.1483630225
 10
19.503788849
 20
14.1644760671
 10
19.4859449208
 20
14.1789968617
 10
19.4662804476
 20
14.191874923
 10
19.4447152683
 20
14.2031607342
 10
19.4216306387
 20
14.2131786566
 10
19.3971008606
 20
14.2219571171
 10
19.371051632
 20
14.2294676887
 10
19.3436413033
 20
14.2359494525
 10
19.3149051983
 20
14.2414340251
 10
19.2848079931
 20
14.2458897899
 10
19.2534020664
 20
14.2494609772
 10
19.2207067995
 20
14.2521679686
 10
19.1867028111
 20
14.2539903824
 10
19.1513843365
 20
14.2550113046
 10
19.1147635953
 20
14.2552438972
 10
19.0768283679
 20
14.2546749981
 10
19.0375362303
 20
14.2533482058
 10
18.9968927344
 20
14.2512721085
 10
18.9548923284
 20
14.2484381181
 10
18.9114759328
 20
14.2448640691
 10
18.8666476852
 20
14.2405556802
 10
18.820403448
 20
14.2355072327
 10
18.7726717283
 20
14.2297194049
 10
18.7234631357
 20
14.2231976109
 10
18.6727670606
 20
14.2159364366
 10
18.6204801817
 20
14.2079203182
 10
18.5666093927
 20
14.1991542988
 10
18.5111477998
 20
14.1896333353
 10
18.4539714004
 20
14.1793267338
 10
18.3950388603
 20
14.1682242632
 10
18.3343915138
 20
14.1563361546
 10
18.2720293607
 20
14.1436624081
  0
LWPOLYLINE
  5
382
100
AcDbEntity
  8
0
100
AcDbPolyline
 62
250
  6
CONTINUOUS
 90
16
 70
0
 10
-10.1944223742
 20
22.0594738509
 10
-10.1904496604
 20
22.0527789758
 10
-10.1868872018
 20
22.0462975339
 10
-10.1837430385
 20
22.0400441535
 10
-10.1810242668
 20
22.0340329482
 10
-10.1787370228
 20
22.0282774848
 10
-10.1768864686
 20
22.0227907531
 10
-10.1754767809
 20
22.0175851363
 10
-10.1745111412
 20
22.0126723832
 10
-10.1739917289
 20
22.0080635816
 10
-10.1739197163
 20
22.0037691333
 10
-10.1742952659
 20
21.9997987306
 10
-10.1751175301
 20
21.9961613344
 10
-10.1763846532
 20
21.9928651543
 10
-10.1780937752
 20
21.9899176293
 10
-10.1790618018
 20
21.9886386843
  0
LINE
  5
383
100
AcDbEntity
  8
DRAFT
100
AcDbLine
 62
7
  6
CONTINUOUS
 10
3.6991426952
 20
10.7639198659
 11
3.6900783317
 21
10.8811272526
  0
LINE
  5
384
100
AcDbEntity
  8
DRAFT
100
AcDbLine
 62
7
  6
CONTINUOUS
 10
3.7022887903
 20
10.648202271
 11
3.6991426952
 21
10.7639198659
  0
LINE
  5
385
100
AcDbEntity
  8
0
100
AcDbLine
 62
250
  6
CONTINUOUS
 10
2.8577704601
 20
19.0515164868
 11
2.8577704601
 21
19.5259178621
  0
LINE
  5
386
100
AcDbEntity
  8
0
100
AcDbLine
 62
250
  6
CONTINUOUS
 10
2.8577704601
 20
19.8820937286
 11
2.8577704601
 21
20.4352644517
  0
LINE
  5
387
100
AcDbEntity
  8
ASSI
100
AcDbLine
 62
7
  6
CONTINUOUS
 10
2.9189175863
 20
-20.4296705368
 11
2.9189175863
 21
-19.6187296764
  0
LINE
  5
388
100
AcDbEntity
  8
ASSI
100
AcDbLine
 62
7
  6
CONTINUOUS
 10
2.9189175863
 20
9.5348084341
 11
2.9189175863
 21
10.3457492945
  0
LINE
  5
389
100
AcDbEntity
  8
0
100
AcDbLine
 62
7
  6
CONTINUOUS
 10
2.9192261277
 20
10.3455950238
 11
2.9192261277
 21
9.5346541634
  0
LINE
  5
38A
100
AcDbEntity
  8
0
100
AcDbLine
 62
7
  6
CONTINUOUS
 10
2.9192261277
 20
-20.4298248075
 11
2.9192261277
 21
-19.6188839471
  0
LINE
  5
38B
100
AcDbEntity
  8
0
100
AcDbLine
 62
7
  6
CONTINUOUS
 10
2.9886053113
 20
19.2091586794
 11
2.9886053113
 21
20.457028354
  0
LINE
  5
38C
100
AcDbEntity
  8
0
100
AcDbLine
 62
7
  6
CONTINUOUS
 10
2.9890111817
 20
13.9546358695
 11
2.9890111817
 21
11.0227309185
  0
LINE
  5
38D
100
AcDbEntity
  8
0
100
AcDbLine
 62
7
  6
CONTINUOUS
 10
2.9890111817
 20
-21.0353244
 11
2.9890111817
 21
-23.967229351
  0
LINE
  5
38E
100
AcDbEntity
  8
ASSI
100
AcDbLine
 62
7
  6
CONTINUOUS
 10
3.6899471355
 20
11.3762392254
 11
3.6899471355
 21
10.766317001
  0
LINE
  5
38F
100
AcDbEntity
  8
ASSI
100
AcDbLine
 62
7
  6
CONTINUOUS
 10
3.6899471355
 20
9.8988460971
 11
3.6899471355
 21
-19.19816197
  0
LINE
  5
390
100
AcDbEntity
  8
ASSI
100
AcDbLine
 62
7
  6
CONTINUOUS
 10
3.6899471355
 20
-20.0656328739
 11
3.6899471355
 21
-20.6755550983
  0
LINE
  5
391
100
AcDbEntity
  8
0
100
AcDbLine
 62
7
  6
CONTINUOUS
 10
3.6902556769
 20
10.7661627303
 11
3.6902556769
 21
9.8986918264
  0
LINE
  5
392
100
AcDbEntity
  8
0
100
AcDbLine
 62
7
  6
CONTINUOUS
 10
3.6902556769
 20
-20.0657871445
 11
3.6902556769
 21
-19.1983162407
  0
LINE
  5
393
100
AcDbEntity
  8
DRAFT
100
AcDbLine
 62
7
  6
CONTINUOUS
 10
3.7022887903
 20
-19.9598597986
 11
3.7022887903
 21
10.648202271
  0
LWPOLYLINE
  5
394
100
AcDbEntity
  8
0
100
AcDbPolyline
 62
250
  6
CONTINUOUS
 90
18
 70
0
 10
2.1814333305
 20
-25.6517527931
 10
2.181379914
 20
-25.6542055375
 10
2.1808534865
 20
-25.6601278416
 10
2.1797660742
 20
-25.6660310144
 10
2.1781201196
 20
-25.6719017812
 10
2.1759193223
 20
-25.6777269356
 10
2.1731686295
 20
-25.6834933765
 10
2.1698742256
 20
-25.689188133
 10
2.1660435212
 20
-25.6947983919
 10
2.1616851315
 20
-25.7003115336
 10
2.1568088579
 20
-25.7057151586
 10
2.1514256685
 20
-25.7109971114
 10
2.1455476673
 20
-25.7161455141
 10
2.1391880771
 20
-25.721148784
 10
2.1323612143
 20
-25.7259956588
 10
2.1250824403
 20
-25.7306752349
 10
2.1173681241
 20
-25.7351769906
 10
2.1092356185
 20
-25.7394908015
  0
LWPOLYLINE
  5
395
100
AcDbEntity
  8
0
100
AcDbPolyline
 62
250
  6
CONTINUOUS
 90
18
 70
0
 10
2.1814331937
 20
-25.3042743236
 10
2.1813794611
 20
-25.3066849352
 10
2.1808520857
 20
-25.312606583
 10
2.1797638505
 20
-25.3185090731
 10
2.1781172022
 20
-25.3243791326
 10
2.1759158434
 20
-25.3302035617
 10
2.1731647246
 20
-25.3359692623
 10
2.1698700316
 20
-25.3416632701
 10
2.1660391711
 20
-25.3472727834
 10
2.1616807524
 20
-25.3527851933
 10
2.1568045786
 20
-25.3581880987
 10
2.1514216272
 20
-25.3634693376
 10
2.1455440138
 20
-25.368617028
 10
2.1391849507
 20
-25.3736196026
 10
2.1323587271
 20
-25.3784658219
 10
2.1250806881
 20
-25.3831447911
 10
2.1173672036
 20
-25.3876459859
 10
2.1092356185
 20
-25.3919592848
  0
LINE
  5
396
100
AcDbEntity
  8
DRAFT
100
AcDbLine
 62
7
  6
CONTINUOUS
 10
3.6991426952
 20
-20.0724312985
 11
3.7022887903
 21
-19.9598597986
  0
LWPOLYLINE
  5
397
100
AcDbEntity
  8
RACCORDO
100
AcDbPolyline
 62
250
  6
CONTINUOUS
 90
28
 70
0
 10
18.1642966439
 20
12.4607710429
 10
18.1805751198
 20
12.4752369317
 10
18.1966277464
 20
12.4873912754
 10
18.2124213209
 20
12.4972372641
 10
18.2279524246
 20
12.504824784
 10
18.243152844
 20
12.5101093024
 10
18.2579008433
 20
12.5129475887
 10
18.2721944009
 20
12.5131656458
 10
18.2859804003
 20
12.5109313329
 10
18.2990910802
 20
12.5066030437
 10
18.3114742954
 20
12.5001058307
 10
18.3231773715
 20
12.4914917046
 10
18.3342025157
 20
12.4813032645
 10
18.3445190983
 20
12.469598871
 10
18.3541533563
 20
12.456298677
 10
18.36317577
 20
12.4417417366
 10
18.3715651874
 20
12.4259756331
 10
18.3793039915
 20
12.4089377923
 10
18.3864324726
 20
12.3908078096
 10
18.3929175718
 20
12.3715897656
 10
18.3987136574
 20
12.3512665208
 10
18.4038086853
 20
12.3299888714
 10
18.4081486685
 20
12.3077547419
 10
18.4116789659
 20
12.2845485573
 10
18.4143563553
 20
12.2605010481
 10
18.4161075786
 20
12.2356281566
 10
18.4168648518
 20
12.2098868296
 10
18.4168904598
 20
12.2048262072
  0
LWPOLYLINE
  5
398
100
AcDbEntity
  8
0
100
AcDbPolyline
 62
7
  6
CONTINUOUS
 90
4
 70
0
 10
-2.0980946743
 20
15.6651929763
 10
-2.1092348645
 20
15.690930507
 10
-2.1174664048
 20
15.7179343994
 10
-2.1226383243
 20
15.7459891962
  0
LWPOLYLINE
  5
399
100
AcDbEntity
  8
0
100
AcDbPolyline
 62
7
  6
CONTINUOUS
 90
5
 70
0
 10
2.9886052415
 20
20.4574570617
 10
2.9883683268
 20
20.4596684028
 10
2.9874156167
 20
20.4620662196
 10
2.985767605
 20
20.4639954638
 10
2.9835872385
 20
20.4654274076
  0
LINE
  5
39A
100
AcDbEntity
  8
DRAFT
100
AcDbLine
 62
7
  6
CONTINUOUS
 10
3.6900783317
 20
-20.1805743217
 11
3.6991426952
 21
-20.0724312985
  0
LINE
  5
39B
100
AcDbEntity
  8
0
100
AcDbLine
 62
7
  6
CONTINUOUS
 10
8.0940672803
 20
19.1084604602
 11
8.0958256022
 21
19.0773106602
  0
LINE
  5
39C
100
AcDbEntity
  8
ASSI
100
AcDbLine
 62
7
  6
CONTINUOUS
 10
8.2213228015
 20
18.9729727603
 11
8.2214824573
 21
18.9557171224
  0
LINE
  5
39D
100
AcDbEntity
  8
RACCORDO
100
AcDbLine
 62
7
  6
CONTINUOUS
 10
8.0509954946
 20
18.0417600629
 11
8.0509954946
 21
18.0177934597
  0
LINE
  5
39E
100
AcDbEntity
  8
ASSI
100
AcDbLine
 62
250
  6
CONTINUOUS
 10
8.0812248539
 20
-18.6872196148
 11
8.0812248539
 21
-18.9024817242
  0
LINE
  5
39F
100
AcDbEntity
  8
ASSI
100
AcDbLine
 62
250
  6
CONTINUOUS
 10
8.0812248539
 20
18.0577406087
 11
8.0812248539
 21
18.6592576904
  0
LINE
  5
3A0
100
AcDbEntity
  8
ASSI
100
AcDbLine
 62
7
  6
CONTINUOUS
 10
8.2215549538
 20
18.9568658988
 11
8.2215549538
 21
18.2340038423
  0
LINE
  5
3A1
100
AcDbEntity
  8
ASSI
100
AcDbLine
 62
7
  6
CONTINUOUS
 10
8.2215549538
 20
-18.8527659204
 11
8.2215549538
 21
-18.6130107464
  0
LINE
  5
3A2
100
AcDbEntity
  8
0
100
AcDbLine
 62
250
  6
CONTINUOUS
 10
8.8826285451
 20
20.0722106986
 11
8.8826285451
 21
19.7508864164
  0
LWPOLYLINE
  5
3A3
100
AcDbEntity
  8
RACCORDO
100
AcDbPolyline
 62
7
  6
CONTINUOUS
 90
7
 70
0
 10
18.1642966439
 20
12.4607710429
 10
18.1792947594
 20
12.4850551632
 10
18.1954709147
 20
12.5082294935
 10
18.2128251098
 20
12.5302940337
 10
18.2313573448
 20
12.551248784
 10
18.2510676195
 20
12.5710937442
 10
18.271955934
 20
12.5898289143
  0
LINE
  5
3A4
100
AcDbEntity
  8
RACCORDO
100
AcDbLine
 62
250
  6
CONTINUOUS
 10
-0.5101290922
 20
-9.8898915445
 11
-0.5353305207
 21
-9.9015303994
  0
LINE
  5
3A5
100
AcDbEntity
  8
RACCORDO
100
AcDbLine
 62
250
  6
CONTINUOUS
 10
-18.2199070817
 20
18.0293590826
 11
-3.5351521908
 21
10.6869816372
  0
LINE
  5
3A6
100
AcDbEntity
  8
DRAFT
100
AcDbLine
 62
7
  6
CONTINUOUS
 10
0.2552330957
 20
8.9688470521
 11
1.208901164
 21
8.492013018
  0
LINE
  5
3A7
100
AcDbEntity
  8
RACCORDO
100
AcDbLine
 62
250
  6
CONTINUOUS
 10
-17.5174815476
 20
19.0820602443
 11
-2.8149001
 21
11.7307695205
  0
LINE
  5
3A8
100
AcDbEntity
  8
0
100
AcDbLine
 62
7
  6
CONTINUOUS
 10
3.6899471355
 20
11.3762392254
 11
2.9890111817
 21
12.5851749169
  0
LINE
  5
3A9
100
AcDbEntity
  8
DRAFT
100
AcDbLine
 62
7
  6
CONTINUOUS
 10
2.9890111817
 20
12.5958631034
 11
3.2880752279
 21
12.0800539235
  0
LWPOLYLINE
  5
3AA
100
AcDbEntity
  8
DRAFT
100
AcDbPolyline
 62
7
  6
CONTINUOUS
 90
3
 70
0
 10
3.3713210568
 20
11.9257879206
 10
3.3517519879
 20
11.9647785618
 10
3.2880752279
 20
12.0800539235
  0
LINE
  5
3AB
100
AcDbEntity
  8
DRAFT
100
AcDbLine
 62
7
  6
CONTINUOUS
 10
9.565338743
 20
19.6505157176
 11
9.565338743
 21
20.0835284195
  0
LINE
  5
3AC
100
AcDbEntity
  8
0
100
AcDbLine
 62
7
  6
CONTINUOUS
 10
10.5328024555
 20
18.8143856064
 11
10.5328024555
 21
18.3485108399
  0
LINE
  5
3AD
100
AcDbEntity
  8
RACCORDO
100
AcDbLine
 62
250
  6
CONTINUOUS
 10
10.9501356364
 20
19.5435008301
 11
10.9501356364
 21
20.0022323963
  0
LINE
  5
3AE
100
AcDbEntity
  8
0
100
AcDbLine
 62
7
  6
CONTINUOUS
 10
10.9825471169
 20
18.6926377732
 11
10.9825471169
 21
18.3394522194
  0
LINE
  5
3AF
100
AcDbEntity
  8
RACCORDO
100
AcDbLine
 62
250
  6
CONTINUOUS
 10
11.0911485578
 20
19.5444311082
 11
11.0911485578
 21
20.0132282934
  0
LINE
  5
3B0
100
AcDbEntity
  8
ASSI
100
AcDbLine
 62
7
  6
CONTINUOUS
 10
8.2214749601
 20
-18.8519088542
 11
8.2213228015
 21
-18.8536328354
  0
LWPOLYLINE
  5
3B1
100
AcDbEntity
  8
0
100
AcDbPolyline
 62
7
  6
CONTINUOUS
 90
4
 70
0
 10
2.1614615681
 20
-25.7495317875
 10
2.1723430474
 20
-25.7184206418
 10
2.1790545418
 20
-25.6860246735
 10
2.1814333305
 20
-25.6517527931
  0
LWPOLYLINE
  5
3B2
100
AcDbEntity
  8
0
100
AcDbPolyline
 62
250
  6
CONTINUOUS
 90
13
 70
0
 10
2.1092356185
 20
-25.3919592848
 10
2.1132084032
 20
-25.380843673
 10
2.1167709172
 20
-25.3695548187
 10
2.1199151198
 20
-25.358118201
 10
2.1226339131
 20
-25.3465596392
 10
2.1249211625
 20
-25.3349052148
 10
2.1267717083
 20
-25.3231812126
 10
2.1281813733
 20
-25.3114140786
 10
2.1291469707
 20
-25.2996303866
 10
2.1296663184
 20
-25.2878567589
 10
2.1297382449
 20
-25.2761197794
 10
2.1293625894
 20
-25.2644459285
 10
2.1285402
 20
-25.2528615499
  0
LWPOLYLINE
  5
3B3
100
AcDbEntity
  8
RACCORDO
100
AcDbPolyline
 62
250
  6
CONTINUOUS
 90
16
 70
0
 10
-2.844547762
 20
10.5928680793
 10
-2.8829154734
 20
10.585397469
 10
-2.9245243926
 20
10.5799216211
 10
-2.9689335341
 20
10.5764985706
 10
-3.0156722348
 20
10.5751645961
 10
-3.0642451421
 20
10.5759338355
 10
-3.1141374639
 20
10.5787981362
 10
-3.1648204245
 20
10.5837271414
 10
-3.2157568687
 20
10.5906686117
 10
-3.2664069547
 20
10.5995489792
 10
-3.3162338759
 20
10.6102741266
 10
-3.3647095497
 20
10.6227303853
 10
-3.4113202144
 20
10.6367857398
 10
-3.4555718743
 20
10.6522912268
 10
-3.4969955354
 20
10.6690825137
 10
-3.5351521758
 20
10.6869816409
  0
LWPOLYLINE
  5
3B4
100
AcDbEntity
  8
RACCORDO
100
AcDbPolyline
 62
7
  6
CONTINUOUS
 90
7
 70
0
 10
18.2720293607
 20
14.1436624081
 10
18.2510574146
 20
14.140772676
 10
18.2312920658
 20
14.1402102583
 10
18.2127333143
 20
14.141975155
 10
18.1953811602
 20
14.1460673662
 10
18.1792356034
 20
14.1524868918
 10
18.1642966439
 20
14.1612337317
  0
LWPOLYLINE
  5
3B5
100
AcDbEntity
  8
0
100
AcDbPolyline
 62
250
  6
CONTINUOUS
 90
16
 70
0
 10
2.1092356185
 20
15.9076448546
 10
2.1132083322
 20
15.9009499794
 10
2.1167707909
 20
15.8944685376
 10
2.1199149541
 20
15.8882151572
 10
2.1226337258
 20
15.8822039518
 10
2.1249209698
 20
15.8764484884
 10
2.126771524
 20
15.8709617567
 10
2.1281812118
 20
15.86575614
 10
2.1291468515
 20
15.8608433869
 10
2.1296662638
 20
15.8562345853
 10
2.1297382764
 20
15.851940137
 10
2.1293627268
 20
15.8479697343
 10
2.1285404625
 20
15.8443323381
 10
2.1272733395
 20
15.8410361579
 10
2.1255642174
 20
15.838088633
 10
2.1245961909
 20
15.836809688
  0
LINE
  5
3B6
100
AcDbEntity
  8
0
100
AcDbLine
 62
7
  6
CONTINUOUS
 10
12.8947845236
 20
22.1136104913
 11
12.8947845236
 21
21.705759224
  0
LWPOLYLINE
  5
3B7
100
AcDbEntity
  8
RACCORDO
100
AcDbPolyline
 62
250
  6
CONTINUOUS
 90
16
 70
0
 10
-4.6818255142
 20
-16.6940166378
 10
-4.7209100485
 20
-16.7092552142
 10
-4.7632270008
 20
-16.7224174666
 10
-4.8083280472
 20
-16.7333639484
 10
-4.8557353677
 20
-16.7419786879
 10
-4.9049467088
 20
-16.7481704167
 10
-4.9554407044
 20
-16.7518735372
 10
-5.0066823994
 20
-16.7530488168
 10
-5.0581289173
 20
-16.7516838042
 10
-5.1092352115
 20
-16.7477929608
 10
-5.15945984
 20
-16.7414175079
 10
-5.2082707015
 20
-16.7326249898
 10
-5.2551506727
 20
-16.7215085583
 10
-5.299603087
 20
-16.7081859855
 10
-5.3411569965
 20
-16.6927984166
 10
-5.3793721611
 20
-16.675508874
  0
LWPOLYLINE
  5
3B8
100
AcDbEntity
  8
0
100
AcDbPolyline
 62
7
  6
CONTINUOUS
 90
4
 70
0
 10
-0.3078634779
 20
14.7143371228
 10
-0.293338876
 20
14.7076464521
 10
-0.2629319363
 20
14.6970530335
 10
-0.2471575002
 20
14.6932208001
  0
LWPOLYLINE
  5
3B9
100
AcDbEntity
  8
0
100
AcDbPolyline
 62
250
  6
CONTINUOUS
 90
34
 70
0
 10
-0.3728343037
 20
14.8495543375
 10
-0.3642553118
 20
14.8454635895
 10
-0.3552981147
 20
14.8415807877
 10
-0.3459828532
 20
14.8379146629
 10
-0.3363304735
 20
14.8344734587
 10
-0.3263626796
 20
14.8312649128
 10
-0.3161018848
 20
14.8282962401
 10
-0.3055711615
 20
14.8255741156
 10
-0.2947941886
 20
14.8231046604
 10
-0.2837951991
 20
14.8208934272
 10
-0.2725989249
 20
14.8189453881
 10
-0.2612305418
 20
14.8172649234
 10
-0.2497156124
 20
14.8158558118
 10
-0.238080029
 20
14.8147212218
 10
-0.2263499549
 20
14.8138637045
 10
-0.2145517662
 20
14.8132851883
 10
-0.202711992
 20
14.8129869738
 10
-0.190857255
 20
14.8129697318
 10
-0.1790142113
 20
14.8132335009
 10
-0.1672094909
 20
14.813777688
 10
-0.1554696378
 20
14.8146010695
 10
-0.1438210498
 20
14.815701794
 10
-0.1322899196
 20
14.8170773863
 10
-0.1209021759
 20
14.8187247535
 10
-0.1096834249
 20
14.8206401912
 10
-0.0986588928
 20
14.8228193924
 10
-0.087853369
 20
14.825257457
 10
-0.0772911507
 20
14.827948903
 10
-0.0669959877
 20
14.8308876782
 10
-0.0569910296
 20
14.8340671748
 10
-0.0472987732
 20
14.8374802433
 10
-0.0379410123
 20
14.8411192092
 10
-0.0289387885
 20
14.84497589
 10
-0.0203123441
 20
14.8490416137
  0
LWPOLYLINE
  5
3BA
100
AcDbEntity
  8
0
100
AcDbPolyline
 62
250
  6
CONTINUOUS
 90
34
 70
0
 10
-12.6764922964
 20
21.0013833339
 10
-12.667912676
 20
20.9972923
 10
-12.6589547975
 20
20.9934092428
 10
-12.6496388063
 20
20.989742895
 10
-12.6399856646
 20
20.9863015055
 10
-12.6300170706
 20
20.9830928094
 10
-12.6197554061
 20
20.9801240126
 10
-12.6092237209
 20
20.9774017882
 10
-12.5984457208
 20
20.9749322681
 10
-12.5874456816
 20
20.9727210162
 10
-12.5762483549
 20
20.9707730076
 10
-12.5648789102
 20
20.9690926204
 10
-12.5533629172
 20
20.9676836339
 10
-12.541726275
 20
20.9665492168
 10
-12.5299951536
 20
20.9656919202
 10
-12.5181959351
 20
20.9651136721
 10
-12.5063551467
 20
20.9648157728
 10
-12.4944994262
 20
20.9647988929
 10
-12.4826554623
 20
20.9650630695
 10
-12.4708499082
 20
20.9656077055
 10
-12.4591092961
 20
20.9664315745
 10
-12.4474600039
 20
20.9675328246
 10
-12.4359281446
 20
20.9689089904
 10
-12.4245397397
 20
20.9705569699
 10
-12.4133206249
 20
20.9724730156
 10
-12.402296166
 20
20.9746527716
 10
-12.3914909894
 20
20.9770913445
 10
-12.3809291676
 20
20.9797832921
 10
-12.3706336267
 20
20.9827228096
 10
-12.360628388
 20
20.985903078
 10
-12.3509380789
 20
20.9893161579
 10
-12.3415849497
 20
20.9929539441
 10
-12.33258905
 20
20.9968083609
 10
-12.3239703367
 20
21.00087061
  0
LWPOLYLINE
  5
3BB
100
AcDbEntity
  8
0
100
AcDbPolyline
 62
250
  6
CONTINUOUS
 90
34
 70
0
 10
-0.3728343037
 20
15.1895282717
 10
-0.364269372
 20
15.1854439171
 10
-0.3553235887
 20
15.1815652473
 10
-0.3460165597
 20
15.1779012293
 10
-0.3363673747
 20
15.1744599019
 10
-0.3263985876
 20
15.1712498143
 10
-0.3161365961
 20
15.1682796767
 10
-0.3056060346
 20
15.1655565482
 10
-0.2948291139
 20
15.1630861032
 10
-0.2838298765
 20
15.1608738611
 10
-0.2726329063
 20
15.1589247879
 10
-0.2612635136
 20
15.1572433104
 10
-0.2497474959
 20
15.1558332503
 10
-0.2381108595
 20
15.1546977854
 10
-0.2263796756
 20
15.1538394536
 10
-0.2145802531
 20
15.1532601798
 10
-0.2027390974
 20
15.1529612696
 10
-0.1908828722
 20
15.1529434001
 10
-0.1790382639
 20
15.1532066138
 10
-0.1672319184
 20
15.1537503199
 10
-0.1554903848
 20
15.1545732973
 10
-0.1438400759
 20
15.1556736959
 10
-0.1323071941
 20
15.1570490423
 10
-0.1209176812
 20
15.1586962442
 10
-0.1096971634
 20
15.1606115965
 10
-0.09867088
 20
15.1627907913
 10
-0.0878636299
 20
15.1652289281
 10
-0.0772997244
 20
15.1679205228
 10
-0.067002919
 20
15.1708595234
 10
-0.0569963792
 20
15.1740393185
 10
-0.0473026295
 20
15.1774527499
 10
-0.0379434774
 20
15.1810921369
 10
-0.0289399659
 20
15.184949295
 10
-0.0203123441
 20
15.1890155478
  0
LWPOLYLINE
  5
3BC
100
AcDbEntity
  8
0
100
AcDbPolyline
 62
250
  6
CONTINUOUS
 90
34
 70
0
 10
-12.6764922964
 20
21.341357268
 10
-12.6679120935
 20
21.3372659693
 10
-12.6589535702
 20
21.33338267
 10
-12.6496368744
 20
21.3297161052
 10
-12.6399829535
 20
21.3262745208
 10
-12.6300135258
 20
21.3230656611
 10
-12.6197510331
 20
21.3200967499
 10
-12.6092185642
 20
21.317374466
 10
-12.5984398038
 20
21.3149049305
 10
-12.5874389993
 20
21.3126936983
 10
-12.5762408927
 20
21.310745742
 10
-12.564870673
 20
21.3090654426
 10
-12.5533539235
 20
21.3076565801
 10
-12.5417165501
 20
21.3065223221
 10
-12.5299847263
 20
21.3056652182
 10
-12.5181848431
 20
21.3050871952
 10
-12.506343435
 20
21.3047895515
 10
-12.4944871413
 20
21.3047729554
 10
-12.4826426508
 20
21.3050374419
 10
-12.4708366361
 20
21.3055824112
 10
-12.4590956166
 20
21.3064066347
 10
-12.4474459225
 20
21.3075082638
 10
-12.4359136487
 20
21.3088848374
 10
-12.4245248441
 20
21.3105332525
 10
-12.4133053653
 20
21.3124497598
 10
-12.4022805829
 20
21.3146300028
 10
-12.3914751273
 20
21.3170690877
 10
-12.3809130894
 20
21.3197615677
 10
-12.3706166955
 20
21.3227018482
 10
-12.3606107148
 20
21.3258829291
 10
-12.350921774
 20
21.3292961295
 10
-12.3415725538
 20
21.3329329401
 10
-12.3325821771
 20
21.3367853841
 10
-12.3239703367
 20
21.3408445441
  0
LINE
  5
3BD
100
AcDbEntity
  8
RACCORDO
100
AcDbLine
 62
7
  6
CONTINUOUS
 10
-14.7859284993
 20
20.4313288908
 11
0.0635562135
 21
13.0065865344
  0
LINE
  5
3BE
100
AcDbEntity
  8
DRAFT
100
AcDbLine
 62
7
  6
CONTINUOUS
 10
-4.0335927573
 20
15.2075027227
 11
-8.2318001032
 21
17.3066063957
  0
LINE
  5
3BF
100
AcDbEntity
  8
DRAFT
100
AcDbLine
 62
7
  6
CONTINUOUS
 10
-9.8388060694
 20
18.127795988
 11
-3.4748450387
 21
14.9458154727
  0
LINE
  5
3C0
100
AcDbEntity
  8
0
100
AcDbLine
 62
7
  6
CONTINUOUS
 10
0.855616898
 20
13.6235227906
 11
0.3383863044
 21
13.8821380874
  0
LINE
  5
3C1
100
AcDbEntity
  8
0
100
AcDbLine
 62
7
  6
CONTINUOUS
 10
-1.3483794199
 20
14.7255209495
 11
-3.5163711182
 21
15.8095167987
  0
LINE
  5
3C2
100
AcDbEntity
  8
0
100
AcDbLine
 62
7
  6
CONTINUOUS
 10
-4.1757809925
 20
16.1392217359
 11
-9.1378701156
 21
18.6202662974
  0
LINE
  5
3C3
100
AcDbEntity
  8
0
100
AcDbLine
 62
7
  6
CONTINUOUS
 10
-9.79727999
 20
18.9499712346
 11
-11.9652716883
 21
20.0339670838
  0
LINE
  5
3C4
100
AcDbEntity
  8
0
100
AcDbLine
 62
7
  6
CONTINUOUS
 10
-13.6520374125
 20
20.8773499459
 11
-14.1692680062
 21
21.1359652427
  0
LINE
  5
3C5
100
AcDbEntity
  8
0
100
AcDbLine
 62
7
  6
CONTINUOUS
 10
-14.2900570704
 20
21.705433919
 11
-12.611519
 21
20.8661648838
  0
LINE
  5
3C6
100
AcDbEntity
  8
0
100
AcDbLine
 62
7
  6
CONTINUOUS
 10
-1.9863990777
 20
15.5536049226
 11
-0.3078610073
 21
14.7143358874
  0
LINE
  5
3C7
100
AcDbEntity
  8
0
100
AcDbLine
 62
250
  6
CONTINUOUS
 10
-14.3550303668
 20
21.8406523691
 11
-12.6764922964
 21
21.0013833339
  0
LINE
  5
3C8
100
AcDbEntity
  8
0
100
AcDbLine
 62
250
  6
CONTINUOUS
 10
-2.0513723742
 20
15.6888233727
 11
-0.3728343037
 21
14.8495543375
  0
LINE
  5
3C9
100
AcDbEntity
  8
0
100
AcDbLine
 62
7
  6
CONTINUOUS
 10
-4.1757809925
 20
16.8917149853
 11
-5.0993340022
 21
17.3534914901
  0
LINE
  5
3CA
100
AcDbEntity
  8
0
100
AcDbLine
 62
7
  6
CONTINUOUS
 10
-6.8001035436
 20
18.2038762608
 11
-8.424592507
 21
19.0161207425
  0
LINE
  5
3CB
100
AcDbEntity
  8
0
100
AcDbLine
 62
250
  6
CONTINUOUS
 10
-0.3728343037
 20
15.1895282717
 11
-2.0513723742
 21
16.0287973069
  0
LINE
  5
3CC
100
AcDbEntity
  8
0
100
AcDbLine
 62
250
  6
CONTINUOUS
 10
-12.6764922964
 20
21.341357268
 11
-14.3550303668
 21
22.1806263032
  0
LINE
  5
3CD
100
AcDbEntity
  8
0
100
AcDbLine
 62
7
  6
CONTINUOUS
 10
-6.3032721635
 20
18.3317071955
 11
-5.1579126459
 21
17.7590274367
  0
LINE
  5
3CE
100
AcDbEntity
  8
0
100
AcDbLine
 62
7
  6
CONTINUOUS
 10
1.9345263247
 20
14.2128079514
 11
1.5809684467
 21
14.3895868903
  0
LINE
  5
3CF
100
AcDbEntity
  8
0
100
AcDbLine
 62
7
  6
CONTINUOUS
 10
-2.0977246072
 20
16.2289334173
 11
-2.449540206
 21
16.4048412167
  0
LINE
  5
3D0
100
AcDbEntity
  8
0
100
AcDbLine
 62
7
  6
CONTINUOUS
 10
-9.79727999
 20
20.0787111087
 11
-10.7226895459
 21
20.5414158867
  0
LINE
  5
3D1
100
AcDbEntity
  8
0
100
AcDbLine
 62
250
  6
CONTINUOUS
 10
-0.1970860478
 20
15.4939050866
 11
-1.8756241182
 21
16.3331741218
  0
LINE
  5
3D2
100
AcDbEntity
  8
0
100
AcDbLine
 62
250
  6
CONTINUOUS
 10
-12.5007440404
 20
21.6457340829
 11
-14.1792821108
 21
22.4850031182
  0
LWPOLYLINE
  5
3D3
100
AcDbEntity
  8
0
100
AcDbPolyline
 62
250
  6
CONTINUOUS
 90
16
 70
0
 10
-14.3550303668
 20
21.8406523691
 10
-14.3632097357
 20
21.8449406954
 10
-14.3709739726
 20
21.8494183494
 10
-14.378305536
 20
21.8540753055
 10
-14.3851880076
 20
21.8589012476
 10
-14.3916056375
 20
21.8638852515
 10
-14.3975434911
 20
21.869015774
 10
-14.4029880894
 20
21.8742811482
 10
-14.4079273397
 20
21.8796696571
 10
-14.4123501446
 20
21.8851691961
 10
-14.4162465613
 20
21.8907674088
 10
-14.4196078168
 20
21.8964516981
 10
-14.422426342
 20
21.9022092661
 10
-14.4246957977
 20
21.9080271589
 10
-14.4264110852
 20
21.9138923006
 10
-14.4275683489
 20
21.9197915056
  0
LWPOLYLINE
  5
3D4
100
AcDbEntity
  8
0
100
AcDbPolyline
 62
250
  6
CONTINUOUS
 90
16
 70
0
 10
-2.0513723742
 20
15.6888233727
 10
-2.0595544418
 20
15.693113183
 10
-2.0673205562
 20
15.6975921222
 10
-2.0746532519
 20
15.7022501178
 10
-2.0815360308
 20
15.7070766886
 10
-2.0879534231
 20
15.7120609856
 10
-2.0938910167
 20
15.7171918179
 10
-2.0993354655
 20
15.7224576605
 10
-2.1042745056
 20
15.7278466605
 10
-2.1086970094
 20
15.7333466801
 10
-2.1125930267
 20
15.7389453435
 10
-2.1159538011
 20
15.7446300659
 10
-2.1187717741
 20
15.7503880623
 10
-2.1210406084
 20
15.7562063834
 10
-2.1227552015
 20
15.7620719441
 10
-2.1239116977
 20
15.7679715534
  0
LWPOLYLINE
  5
3D5
100
AcDbEntity
  8
0
100
AcDbPolyline
 62
250
  6
CONTINUOUS
 90
18
 70
0
 10
-14.3550303668
 20
22.1806263032
 10
-14.3632129642
 20
22.1849164046
 10
-14.3709795629
 20
22.1893956663
 10
-14.3783126923
 20
22.1940540142
 10
-14.3851958611
 20
22.1988809746
 10
-14.3916135806
 20
22.2038656885
 10
-14.397551403
 20
22.2089969348
 10
-14.4029959708
 20
22.2142631693
 10
-14.4079350417
 20
22.2196525495
 10
-14.4123575062
 20
22.2251529517
 10
-14.4162534189
 20
22.230752005
 10
-14.4196140175
 20
22.2364371149
 10
-14.4224317425
 20
22.2421954896
 10
-14.4247002586
 20
22.2480141763
 10
-14.4264144663
 20
22.2538800882
 10
-14.4275705123
 20
22.2597800298
 10
-14.4281657997
 20
22.2657007339
 10
-14.4282536715
 20
22.2690146694
  0
LWPOLYLINE
  5
3D6
100
AcDbEntity
  8
0
100
AcDbPolyline
 62
250
  6
CONTINUOUS
 90
18
 70
0
 10
-2.0513723742
 20
16.0287973069
 10
-2.0595549715
 20
16.0330874083
 10
-2.0673215702
 20
16.03756667
 10
-2.0746546997
 20
16.0422250179
 10
-2.0815378684
 20
16.0470519783
 10
-2.087955588
 20
16.0520366922
 10
-2.0938934104
 20
16.0571679385
 10
-2.0993379781
 20
16.062434173
 10
-2.104277049
 20
16.0678235532
 10
-2.1086995135
 20
16.0733239554
 10
-2.1125954262
 20
16.0789230087
 10
-2.1159560248
 20
16.0846081186
 10
-2.1187737499
 20
16.0903664933
 10
-2.1210422659
 20
16.09618518
 10
-2.1227564736
 20
16.1020510919
 10
-2.1239125196
 20
16.1079510335
 10
-2.124507807
 20
16.1138717376
 10
-2.1245956789
 20
16.1171856731
  0
LWPOLYLINE
  5
3D7
100
AcDbEntity
  8
0
100
AcDbPolyline
 62
250
  6
CONTINUOUS
 90
34
 70
0
 10
-12.5007440404
 20
21.6457340829
 10
-12.4923807576
 20
21.6412591118
 10
-12.4840340899
 20
21.6363050151
 10
-12.4757229442
 20
21.6308830151
 10
-12.4674661474
 20
21.6250053939
 10
-12.4592824027
 20
21.6186854655
 10
-12.4511902484
 20
21.6119375461
 10
-12.4432080148
 20
21.6047769211
 10
-12.4353537835
 20
21.5972198109
 10
-12.4276453462
 20
21.5892833343
 10
-12.4201001642
 20
21.5809854689
 10
-12.412735329
 20
21.5723450114
 10
-12.4055675235
 20
21.5633815343
 10
-12.3986129846
 20
21.5541153419
 10
-12.3918874657
 20
21.5445674242
 10
-12.3854062017
 20
21.5347594094
 10
-12.3791838742
 20
21.5247135148
 10
-12.3732345779
 20
21.5144524967
 10
-12.3675717896
 20
21.5039995985
 10
-12.3622083366
 20
21.4933784984
 10
-12.3571563683
 20
21.4826132555
 10
-12.3524273286
 20
21.4717282556
 10
-12.3480319299
 20
21.4607481556
 10
-12.3439801286
 20
21.449697828
 10
-12.3402811031
 20
21.4386023041
 10
-12.3369432325
 20
21.4274867178
 10
-12.3339740777
 20
21.4163762484
 10
-12.3313803647
 20
21.4052960636
 10
-12.3291679686
 20
21.3942712626
 10
-12.3273419011
 20
21.3833268189
 10
-12.3259062987
 20
21.3724875241
 10
-12.3248644133
 20
21.3617779318
 10
-12.324218605
 20
21.3512223015
 10
-12.3239703367
 20
21.3408445441
  0
LWPOLYLINE
  5
3D8
100
AcDbEntity
  8
0
100
AcDbPolyline
 62
250
  6
CONTINUOUS
 90
34
 70
0
 10
-0.1970860478
 20
15.4939050866
 10
-0.1887365123
 20
15.4894378721
 10
-0.1803999308
 20
15.4844908626
 10
-0.1720951751
 20
15.4790746285
 10
-0.1638399089
 20
15.4731999529
 10
-0.1556540982
 20
15.4668803023
 10
-0.1475598506
 20
15.4601324235
 10
-0.1395766919
 20
15.4529727076
 10
-0.1317214926
 20
15.4454163994
 10
-0.1240119066
 20
15.4374804668
 10
-0.1164653096
 20
15.4291827556
 10
-0.1090989139
 20
15.4205421502
 10
-0.101929572
 20
15.4115784055
 10
-0.0949735904
 20
15.4023119216
 10
-0.08824666
 20
15.3927636151
 10
-0.0817639792
 20
15.3829550576
 10
-0.075540222
 20
15.3729084421
 10
-0.0695895115
 20
15.3626465566
 10
-0.0639253439
 20
15.3521926698
 10
-0.0585605576
 20
15.3415704726
 10
-0.0535073069
 20
15.3308040271
 10
-0.0487770448
 20
15.3199177308
 10
-0.0443804902
 20
15.3089362485
 10
-0.0403276074
 20
15.2978844635
 10
-0.0366275837
 20
15.2867874261
 10
-0.0332888044
 20
15.275670282
 10
-0.0303188346
 20
15.2645582195
 10
-0.0277244057
 20
15.2534764205
 10
-0.0255113958
 20
15.2424499899
 10
-0.0236848211
 20
15.2315039174
 10
-0.022248823
 20
15.2206630241
 10
-0.0212066544
 20
15.2099518798
 10
-0.020560674
 20
15.1993947476
 10
-0.0203123441
 20
15.1890155478
  0
LWPOLYLINE
  5
3D9
100
AcDbEntity
  8
0
100
AcDbPolyline
 62
7
  6
CONTINUOUS
 90
40
 70
0
 10
1.934790962
 20
14.2126756327
 10
1.9487572141
 20
14.2051619546
 10
1.962735033
 20
14.196963759
 10
1.976702049
 20
14.1880915715
 10
1.9906415596
 20
14.1785538226
 10
2.0045250409
 20
14.1683661442
 10
2.0183124467
 20
14.1575536477
 10
2.0319732673
 20
14.1461400399
 10
2.0454934761
 20
14.1341373977
 10
2.0588579346
 20
14.1215558575
 10
2.0720537984
 20
14.1084045542
 10
2.0850493847
 20
14.0947124469
 10
2.0978022322
 20
14.0805221652
 10
2.1102800396
 20
14.0658717597
 10
2.1224750918
 20
14.0507726453
 10
2.1343824183
 20
14.0352291618
 10
2.1459921227
 20
14.0192511204
 10
2.1572736624
 20
14.0028773924
 10
2.1681920277
 20
13.9861568277
 10
2.1787197181
 20
13.9691341279
 10
2.1888509232
 20
13.9518210544
 10
2.1985837317
 20
13.9342178368
 10
2.2079103899
 20
13.9163339538
 10
2.2168039701
 20
13.898215393
 10
2.2252348008
 20
13.8799174838
 10
2.2331826602
 20
13.8614874125
 10
2.2406426424
 20
13.8429378862
 10
2.2476093067
 20
13.8242731508
 10
2.2540761518
 20
13.8055065459
 10
2.2600237895
 20
13.7866843869
 10
2.2654288411
 20
13.7678603456
 10
2.2702819722
 20
13.749076066
 10
2.2745771679
 20
13.7303498375
 10
2.2782989556
 20
13.711700148
 10
2.2814452624
 20
13.6931600996
 10
2.2840066485
 20
13.6747552143
 10
2.2859565945
 20
13.6564925125
 10
2.2872832403
 20
13.6383935773
 10
2.2879903257
 20
13.6204942297
 10
2.2880752279
 20
13.6028226061
  0
LWPOLYLINE
  5
3DA
100
AcDbEntity
  8
0
100
AcDbPolyline
 62
7
  6
CONTINUOUS
 90
7
 70
0
 10
-1.9862871829
 20
15.5535490685
 10
-2.0065377722
 20
15.5648657364
 10
-2.0288733296
 20
15.5804933583
 10
-2.0495112727
 20
15.5985933142
 10
-2.0680525507
 20
15.6188627657
 10
-2.0842846243
 20
15.6410847717
 10
-2.0980946743
 20
15.6651929763
  0
LWPOLYLINE
  5
3DB
100
AcDbEntity
  8
0
100
AcDbPolyline
 62
7
  6
CONTINUOUS
 90
10
 70
0
 10
-14.2900570704
 20
21.705433919
 10
-14.3143820218
 20
21.7193531609
 10
-14.3372031934
 20
21.7360772009
 10
-14.3581068001
 20
21.7553949505
 10
-14.376631837
 20
21.7769023047
 10
-14.3925967232
 20
21.800366537
 10
-14.4059559037
 20
21.8258336749
 10
-14.4164215048
 20
21.8530401997
 10
-14.4236828312
 20
21.8814539119
 10
-14.4275837267
 20
21.9107507316
  0
LWPOLYLINE
  5
3DC
100
AcDbEntity
  8
0
100
AcDbPolyline
 62
250
  6
CONTINUOUS
 90
3
 70
0
 10
-1.9940090565
 20
15.5578627193
 10
-1.9882083706
 20
15.5545342365
 10
-1.986397799
 20
15.5536042833
  0
LINE
  5
3DD
100
AcDbEntity
  8
0
100
AcDbLine
 62
7
  6
CONTINUOUS
 10
-0.2471558376
 20
14.6932204529
 11
0.3771420482
 21
14.5628664751
  0
LINE
  5
3DE
100
AcDbEntity
  8
0
100
AcDbLine
 62
250
  6
CONTINUOUS
 10
-0.0203123441
 20
14.8490416137
 11
0.690908264
 21
14.7005380908
  0
LWPOLYLINE
  5
3DF
100
AcDbEntity
  8
0
100
AcDbPolyline
 62
250
  6
CONTINUOUS
 90
16
 70
0
 10
-4.9587353974
 20
18.8306072937
 10
-4.9655227721
 20
18.8337465462
 10
-4.9722929125
 20
18.8364871765
 10
-4.9790304787
 20
18.8388229733
 10
-4.9857202081
 20
18.8407486433
 10
-4.9923469387
 20
18.8422598203
 10
-4.9988956436
 20
18.8433530769
 10
-5.0053514812
 20
18.8440259362
 10
-5.0116998271
 20
18.8442768751
 10
-5.0179262955
 20
18.8441053255
 10
-5.0240167799
 20
18.843511677
 10
-5.0299574791
 20
18.8424972755
 10
-5.0357349283
 20
18.8410644218
 10
-5.0413360362
 20
18.839216365
 10
-5.046748114
 20
18.836957294
 10
-5.0496219717
 20
18.8355505896
  0
LWPOLYLINE
  5
3E0
100
AcDbEntity
  8
0
100
AcDbPolyline
 62
7
  6
CONTINUOUS
 90
17
 70
0
 10
-4.7476390398
 20
18.9395312797
 10
-4.7538074372
 20
18.9424508019
 10
-4.7599642872
 20
18.945035001
 10
-4.7660977743
 20
18.9472790054
 10
-4.7721960447
 20
18.9491786337
 10
-4.7782474869
 20
18.9507302687
 10
-4.7842407534
 20
18.951930865
 10
-4.790164366
 20
18.9527781707
 10
-4.7960069584
 20
18.9532706167
 10
-4.8017575555
 20
18.9534071859
 10
-4.8074051542
 20
18.9531876452
 10
-4.8129389247
 20
18.9526124503
 10
-4.8183484525
 20
18.951682631
 10
-4.823623398
 20
18.9503999765
 10
-4.8287536537
 20
18.9487669603
 10
-4.833729544
 20
18.9467866416
 10
-4.8362311521
 20
18.9456313565
  0
LWPOLYLINE
  5
3E1
100
AcDbEntity
  8
0
100
AcDbPolyline
 62
250
  6
CONTINUOUS
 90
31
 70
0
 10
-6.8001035436
 20
19.4374906125
 10
-6.7925515374
 20
19.4339062754
 10
-6.7846366693
 20
19.43052332
 10
-6.7763803932
 20
19.4273509159
 10
-6.7678050881
 20
19.4243976622
 10
-6.7589339981
 20
19.4216715639
 10
-6.7497911688
 20
19.4191800101
 10
-6.7404013826
 20
19.4169297546
 10
-6.7307900909
 20
19.4149268967
 10
-6.7209833459
 20
19.4131768653
 10
-6.7110077295
 20
19.4116844039
 10
-6.7008902811
 20
19.4104535581
 10
-6.6906584249
 20
19.4094876641
 10
-6.680339895
 20
19.40878934
 10
-6.6699626604
 20
19.4083604786
 10
-6.6595548493
 20
19.4082022425
 10
-6.6491446727
 20
19.4083150606
 10
-6.6387603483
 20
19.4086986269
 10
-6.6284300233
 20
19.4093519019
 10
-6.6181816989
 20
19.4102731148
 10
-6.6080431538
 20
19.4114597687
 10
-6.5980418691
 20
19.4129086469
 10
-6.5882049542
 20
19.4146158222
 10
-6.5785590725
 20
19.4165766672
 10
-6.5691303698
 20
19.4187858669
 10
-6.5599444034
 20
19.4212374331
 10
-6.5510260724
 20
19.4239247207
 10
-6.5423995505
 20
19.4268404457
 10
-6.5340882205
 20
19.4299767046
 10
-6.5261146109
 20
19.4333249965
 10
-6.5185003345
 20
19.4368762457
  0
LINE
  5
3E2
100
AcDbEntity
  8
0
100
AcDbLine
 62
7
  6
CONTINUOUS
 10
0.3439445722
 20
17.4161075729
 11
0.3525171812
 21
17.4120154572
  0
LWPOLYLINE
  5
3E3
100
AcDbEntity
  8
0
100
AcDbPolyline
 62
250
  6
CONTINUOUS
 90
16
 70
0
 10
0.352357312
 20
17.4120955825
 10
0.3502776463
 20
17.4131035701
 10
0.343582913
 20
17.4159366166
 10
0.3366564368
 20
17.4182581154
 10
0.3295137264
 20
17.4200628554
 10
0.3221709089
 20
17.4213467487
 10
0.3146446622
 20
17.4221068924
 10
0.306952028
 20
17.4223416067
 10
0.2991102154
 20
17.422050407
 10
0.2911367164
 20
17.4212339573
 10
0.283048239
 20
17.4198938528
 10
0.2748641677
 20
17.4180331915
 10
0.2666064969
 20
17.4156572966
 10
0.2582950762
 20
17.412772626
 10
0.2499474439
 20
17.4093860076
 10
0.2415823637
 20
17.4055056857
  0
LWPOLYLINE
  5
3E4
100
AcDbEntity
  8
0
100
AcDbPolyline
 62
250
  6
CONTINUOUS
 90
16
 70
0
 10
2.0432368744
 20
16.5666558013
 10
2.0411744139
 20
16.5676557082
 10
2.0344811058
 20
16.5704897844
 10
2.0275560874
 20
16.5728124427
 10
2.0204149299
 20
16.5746184606
 10
2.0130736909
 20
16.575903777
 10
2.0055488777
 20
16.5766655018
 10
1.9978574104
 20
16.5769019222
 10
1.9900165839
 20
16.5766125066
 10
1.9820440288
 20
16.5757979059
 10
1.9739576721
 20
16.5744599516
 10
1.9657756965
 20
16.5726016523
 10
1.9575164998
 20
16.5702271864
 10
1.9491986534
 20
16.5673418933
 10
1.9408408607
 20
16.5639522606
 10
1.9324619148
 20
16.5600659102
  0
LWPOLYLINE
  5
3E5
100
AcDbEntity
  8
0
100
AcDbPolyline
 62
250
  6
CONTINUOUS
 90
16
 70
0
 10
-10.2604211183
 20
22.7184847976
 10
-10.2624835787
 20
22.7194847046
 10
-10.2691768868
 20
22.7223187807
 10
-10.2761019053
 20
22.724641439
 10
-10.2832430627
 20
22.7264474569
 10
-10.2905843017
 20
22.7277327733
 10
-10.2981091149
 20
22.7284944981
 10
-10.3058005822
 20
22.7287309185
 10
-10.3136414087
 20
22.728441503
 10
-10.3216139638
 20
22.7276269022
 10
-10.3297003206
 20
22.7262889479
 10
-10.3378822962
 20
22.7244306486
 10
-10.3461414929
 20
22.7220561828
 10
-10.3544593392
 20
22.7191708896
 10
-10.3628171319
 20
22.7157812569
 10
-10.3711960778
 20
22.7118949065
  0
LWPOLYLINE
  5
3E6
100
AcDbEntity
  8
0
100
AcDbPolyline
 62
250
  6
CONTINUOUS
 90
3
 70
0
 10
-11.9513006694
 20
23.5639245732
 10
-11.9533631299
 20
23.5649244801
 10
-11.9600564379
 20
23.5677585563
  0
LINE
  5
3E7
100
AcDbEntity
  8
0
100
AcDbLine
 62
7
  6
CONTINUOUS
 10
-9.79727999
 20
20.3961340004
 11
-9.1378701156
 21
20.0664290632
  0
LINE
  5
3E8
100
AcDbEntity
  8
0
100
AcDbLine
 62
7
  6
CONTINUOUS
 10
-4.1757809925
 20
17.5853845016
 11
-3.5163711182
 21
17.2556795645
  0
LINE
  5
3E9
100
AcDbEntity
  8
0
100
AcDbLine
 62
7
  6
CONTINUOUS
 10
-5.1579126459
 20
18.4573397083
 11
-5.606586258
 21
18.6816765143
  0
LINE
  5
3EA
100
AcDbEntity
  8
0
100
AcDbLine
 62
7
  6
CONTINUOUS
 10
2.6354622785
 20
14.5644083672
 11
1.5809684467
 21
15.0916552831
  0
LINE
  5
3EB
100
AcDbEntity
  8
0
100
AcDbLine
 62
7
  6
CONTINUOUS
 10
-10.0196965916
 20
20.8919878023
 11
-10.7226895459
 21
21.2434842794
  0
LINE
  5
3EC
100
AcDbEntity
  8
0
100
AcDbLine
 62
7
  6
CONTINUOUS
 10
-5.6073665426
 20
18.7917501647
 11
-5.1579126459
 21
18.5670232164
  0
LINE
  5
3ED
100
AcDbEntity
  8
0
100
AcDbLine
 62
250
  6
CONTINUOUS
 10
-3.6443349275
 20
17.8596063044
 11
-5.0993340022
 21
18.5871058417
  0
LINE
  5
3EE
100
AcDbEntity
  8
0
100
AcDbLine
 62
250
  6
CONTINUOUS
 10
-6.8001035436
 20
19.4374906125
 11
-8.424592507
 21
20.2497350942
  0
LINE
  5
3EF
100
AcDbEntity
  8
0
100
AcDbLine
 62
250
  6
CONTINUOUS
 10
-3.3354734194
 20
18.0189763047
 11
-4.9587353974
 21
18.8306072937
  0
LINE
  5
3F0
100
AcDbEntity
  8
0
100
AcDbLine
 62
250
  6
CONTINUOUS
 10
-6.6595049389
 20
19.6809920645
 11
-8.2827669168
 21
20.4926230534
  0
LINE
  5
3F1
100
AcDbEntity
  8
0
100
AcDbLine
 62
7
  6
CONTINUOUS
 10
-8.7427905586
 20
20.9371070391
 11
-6.4446917248
 21
19.7880576222
  0
LINE
  5
3F2
100
AcDbEntity
  8
0
100
AcDbLine
 62
7
  6
CONTINUOUS
 10
-4.7476390398
 20
18.9395312797
 11
-2.449540206
 21
17.7904818628
  0
LINE
  5
3F3
100
AcDbEntity
  8
0
100
AcDbLine
 62
7
  6
CONTINUOUS
 10
1.4041947431
 20
16.2966270901
 11
-0.292867515
 21
17.1451582192
  0
LINE
  5
3F4
100
AcDbEntity
  8
0
100
AcDbLine
 62
7
  6
CONTINUOUS
 10
-10.8994632496
 20
22.4484560864
 11
-12.5965255077
 21
23.2969872155
  0
LINE
  5
3F5
100
AcDbEntity
  8
0
100
AcDbLine
 62
7
  6
CONTINUOUS
 10
-7.4027381838
 20
20.9550924023
 11
-5.7577899394
 21
20.1326182801
  0
LINE
  5
3F6
100
AcDbEntity
  8
0
100
AcDbLine
 62
7
  6
CONTINUOUS
 10
-4.0486427048
 20
19.2780446628
 11
-2.4036944604
 21
18.4555705406
  0
LINE
  5
3F7
100
AcDbEntity
  8
0
100
AcDbLine
 62
250
  6
CONTINUOUS
 10
-12.062075629
 20
23.5573346821
 11
-10.3711960778
 21
22.7118949065
  0
LINE
  5
3F8
100
AcDbEntity
  8
0
100
AcDbLine
 62
250
  6
CONTINUOUS
 10
0.2415823637
 20
17.4055056857
 11
1.9324619148
 21
16.5600659102
  0
LINE
  5
3F9
100
AcDbEntity
  8
0
100
AcDbLine
 62
7
  6
CONTINUOUS
 10
-11.9513006694
 20
23.5639245732
 11
-10.2604211183
 21
22.7184847976
  0
LINE
  5
3FA
100
AcDbEntity
  8
0
100
AcDbLine
 62
7
  6
CONTINUOUS
 10
0.3523573232
 20
17.4120955768
 11
2.0432368744
 21
16.5666558013
  0
LINE
  5
3FB
100
AcDbEntity
  8
RACCORDO
100
AcDbLine
 62
7
  6
CONTINUOUS
 10
-2.113206832
 20
18.667805098
 11
-2.3691235976
 21
18.7957634807
  0
LWPOLYLINE
  5
3FC
100
AcDbEntity
  8
0
100
AcDbPolyline
 62
250
  6
CONTINUOUS
 90
34
 70
0
 10
-10.3711960778
 20
22.7118949065
 10
-10.3627511604
 20
22.7074753829
 10
-10.3543240184
 20
22.7025736537
 10
-10.3459337348
 20
22.6972001836
 10
-10.3375981622
 20
22.6913656612
 10
-10.3293374679
 20
22.6850834523
 10
-10.3211739649
 20
22.6783702012
 10
-10.3131273451
 20
22.6712422158
 10
-10.3052146119
 20
22.6637146747
 10
-10.2974535485
 20
22.6558044808
 10
-10.2898616471
 20
22.6475294217
 10
-10.2824562238
 20
22.6389083302
 10
-10.2752542205
 20
22.6299609161
 10
-10.2682720178
 20
22.6207075428
 10
-10.2615253657
 20
22.6111690971
 10
-10.255029507
 20
22.6013671286
 10
-10.2487991458
 20
22.5913238151
 10
-10.2428484202
 20
22.5810619372
 10
-10.2371908265
 20
22.5706047634
 10
-10.2318391882
 20
22.5599759922
 10
-10.2268056299
 20
22.5491997004
 10
-10.2221015601
 20
22.5383003081
 10
-10.2177376382
 20
22.5273025094
 10
-10.2137237546
 20
22.5162312248
 10
-10.2100690084
 20
22.5051115486
 10
-10.206781682
 20
22.493968678
 10
-10.2038692244
 20
22.4828278595
 10
-10.2013382362
 20
22.4717143402
 10
-10.1991944521
 20
22.4606532967
 10
-10.1974427313
 20
22.4496697972
 10
-10.1960870455
 20
22.4387887478
 10
-10.1951304654
 20
22.4280348092
 10
-10.1945751561
 20
22.4174323415
 10
-10.1944223742
 20
22.4070053677
  0
LWPOLYLINE
  5
3FD
100
AcDbEntity
  8
0
100
AcDbPolyline
 62
250
  6
CONTINUOUS
 90
34
 70
0
 10
1.9324619148
 20
16.5600659102
 10
1.9409068323
 20
16.5556463866
 10
1.9493339742
 20
16.5507446574
 10
1.9577242578
 20
16.5453711872
 10
1.9660598305
 20
16.5395366648
 10
1.9743205248
 20
16.533254456
 10
1.9824840277
 20
16.5265412049
 10
1.9905306476
 20
16.5194132195
 10
1.9984433808
 20
16.5118856784
 10
2.0062044442
 20
16.5039754844
 10
2.0137963455
 20
16.4957004254
 10
2.0212017689
 20
16.4870793339
 10
2.0284037721
 20
16.4781319198
 10
2.0353859749
 20
16.4688785465
 10
2.042132627
 20
16.4593401008
 10
2.0486284856
 20
16.4495381322
 10
2.0548588468
 20
16.4394948188
 10
2.0608095725
 20
16.4292329409
 10
2.0664671661
 20
16.4187757671
 10
2.0718188044
 20
16.4081469959
 10
2.0768523627
 20
16.3973707041
 10
2.0815564326
 20
16.3864713118
 10
2.0859203544
 20
16.375473513
 10
2.0899342381
 20
16.3644022285
 10
2.0935889843
 20
16.3532825523
 10
2.0968763106
 20
16.3421396817
 10
2.0997887683
 20
16.3309988632
 10
2.1023197564
 20
16.3198853438
 10
2.1044635406
 20
16.3088243003
 10
2.1062152614
 20
16.2978408009
 10
2.1075709472
 20
16.2869597515
 10
2.1085275272
 20
16.2762058129
 10
2.1090828366
 20
16.2656033452
 10
2.1092356185
 20
16.2551763713
  0
LWPOLYLINE
  5
3FE
100
AcDbEntity
  8
0
100
AcDbPolyline
 62
250
  6
CONTINUOUS
 90
16
 70
0
 10
-5.0993340022
 20
18.5871058417
 10
-5.1065026763
 20
18.5908818449
 10
-5.1132685872
 20
18.5948392789
 10
-5.1196133953
 20
18.598967417
 10
-5.1255199027
 20
18.6032550695
 10
-5.1309720994
 20
18.6076906145
 10
-5.1359552068
 20
18.6122620291
 10
-5.1404557179
 20
18.6169569223
 10
-5.1444614338
 20
18.6217625681
 10
-5.1479614966
 20
18.6266659406
 10
-5.1509464192
 20
18.6316537488
 10
-5.1534081109
 20
18.636712473
 10
-5.1553398989
 20
18.6418284011
 10
-5.1567365472
 20
18.6469876661
 10
-5.1575942698
 20
18.6521762834
 10
-5.1579126459
 20
18.6578165199
  0
LWPOLYLINE
  5
3FF
100
AcDbEntity
  8
0
100
AcDbPolyline
 62
7
  6
CONTINUOUS
 90
37
 70
0
 10
-6.4446917248
 20
19.7880576222
 10
-6.4385230128
 20
19.7848085897
 10
-6.432366228
 20
19.7812359714
 10
-6.4262329903
 20
19.7773466134
 10
-6.4201347905
 20
19.7731480065
 10
-6.4140832324
 20
19.7686481415
 10
-6.4080900112
 20
19.7638554939
 10
-6.4021664627
 20
19.758779219
 10
-6.3963237704
 20
19.7534290227
 10
-6.3905732091
 20
19.7478150127
 10
-6.3849256669
 20
19.7419479016
 10
-6.3793918143
 20
19.7358388951
 10
-6.3739823121
 20
19.7294995608
 10
-6.3687074145
 20
19.7229419848
 10
-6.363577096
 20
19.7161786815
 10
-6.3586012206
 20
19.70922248
 10
-6.3537892331
 20
19.7020866336
 10
-6.349150241
 20
19.694784751
 10
-6.3446931425
 20
19.687330703
 10
-6.3404264107
 20
19.6797386833
 10
-6.3363581303
 20
19.6720231616
 10
-6.3324960808
 20
19.6641988128
 10
-6.3288476189
 20
19.656280528
 10
-6.3254196676
 20
19.6482833899
 10
-6.3222187545
 20
19.640222626
 10
-6.3192509935
 20
19.6321135692
 10
-6.316522028
 20
19.6239716577
 10
-6.3140370212
 20
19.6158124096
 10
-6.3118007401
 20
19.6076513377
 10
-6.3098174514
 20
19.5995039705
 10
-6.3080908662
 20
19.5913858514
 10
-6.3066243227
 20
19.5833124067
 10
-6.3054206382
 20
19.57529899
 10
-6.3044820083
 20
19.567360903
 10
-6.3038102235
 20
19.559513253
 10
-6.3034066656
 20
19.5517709245
 10
-6.3032721635
 20
19.5441486231
  0
LWPOLYLINE
  5
400
100
AcDbEntity
  8
0
100
AcDbPolyline
 62
7
  6
CONTINUOUS
 90
34
 70
0
 10
-10.8994632496
 20
22.4484560864
 10
-10.8910521741
 20
22.444005172
 10
-10.8826599565
 20
22.4390740016
 10
-10.8743057088
 20
22.433673692
 10
-10.8660085348
 20
22.4278163834
 10
-10.8577872365
 20
22.4215153385
 10
-10.8496602707
 20
22.4147849135
 10
-10.8416461053
 20
22.4076403226
 10
-10.8337629859
 20
22.4000977033
 10
-10.8260286438
 20
22.3921742063
 10
-10.8184606362
 20
22.3838877602
 10
-10.8110761793
 20
22.3752570988
 10
-10.8038919167
 20
22.3663018192
 10
-10.796924138
 20
22.3570421987
 10
-10.7901886788
 20
22.3474991867
 10
-10.7837007561
 20
22.3376944269
 10
-10.7774750595
 20
22.3276501329
 10
-10.7715257216
 20
22.3173890428
 10
-10.7658662222
 20
22.3069344059
 10
-10.7605093518
 20
22.2963099196
 10
-10.7554672521
 20
22.2855396473
 10
-10.750751391
 20
22.2746479699
 10
-10.7463723992
 20
22.2636595859
 10
-10.7423401802
 20
22.2525993941
 10
-10.7386639563
 20
22.2414924097
 10
-10.735351982
 20
22.2303638289
 10
-10.7324117211
 20
22.2192388788
 10
-10.7298499625
 20
22.2081426989
 10
-10.7276724166
 20
22.1971004703
 10
-10.7258839557
 20
22.1861372342
 10
-10.7244887974
 20
22.1752777424
 10
-10.7234900938
 20
22.1645465971
 10
-10.7228899248
 20
22.1539681948
 10
-10.7226895459
 20
22.1435665476
  0
LWPOLYLINE
  5
401
100
AcDbEntity
  8
0
100
AcDbPolyline
 62
7
  6
CONTINUOUS
 90
34
 70
0
 10
1.4041947431
 20
16.2966270901
 10
1.4126058185
 20
16.2921761757
 10
1.4209980361
 20
16.2872450053
 10
1.4293522838
 20
16.2818446957
 10
1.4376494578
 20
16.2759873871
 10
1.4458707562
 20
16.2696863422
 10
1.453997722
 20
16.2629559171
 10
1.4620118873
 20
16.2558113263
 10
1.4698950067
 20
16.248268707
 10
1.4776293489
 20
16.24034521
 10
1.4851973564
 20
16.2320587639
 10
1.4925818134
 20
16.2234281025
 10
1.4997660759
 20
16.2144728229
 10
1.5067338546
 20
16.2052132024
 10
1.5134693138
 20
16.1956701904
 10
1.5199572365
 20
16.1858654306
 10
1.5261829332
 20
16.1758211366
 10
1.5321322711
 20
16.1655600465
 10
1.5377917705
 20
16.1551054096
 10
1.5431486409
 20
16.1444809232
 10
1.5481907405
 20
16.1337106509
 10
1.5529066017
 20
16.1228189736
 10
1.5572855935
 20
16.1118305896
 10
1.5613178124
 20
16.1007703978
 10
1.5649940364
 20
16.0896634134
 10
1.5683060107
 20
16.0785348326
 10
1.5712462715
 20
16.0674098825
 10
1.5738080301
 20
16.0563137026
 10
1.575985576
 20
16.045271474
 10
1.5777740369
 20
16.0343082378
 10
1.5791691953
 20
16.0234487461
 10
1.5801678989
 20
16.0127176008
 10
1.5807680679
 20
16.0021391985
 10
1.5809684467
 20
15.9917375513
  0
LWPOLYLINE
  5
402
100
AcDbEntity
  8
0
100
AcDbPolyline
 62
250
  6
CONTINUOUS
 90
34
 70
0
 10
-6.6595049389
 20
19.6809920645
 10
-6.6528331523
 20
19.6774017363
 10
-6.6461746098
 20
19.6734280252
 10
-6.6395443986
 20
19.6690799332
 10
-6.6329575378
 20
19.6643673082
 10
-6.6264289564
 20
19.6593008291
 10
-6.6199734589
 20
19.6538919845
 10
-6.6136056753
 20
19.6481530333
 10
-6.6073400308
 20
19.642096977
 10
-6.6011907236
 20
19.6357375396
 10
-6.5951716857
 20
19.6290891299
 10
-6.589296556
 20
19.6221668139
 10
-6.583578651
 20
19.6149862831
 10
-6.5780309271
 20
19.6075638104
 10
-6.5726659521
 20
19.599916213
 10
-6.5674958815
 20
19.5920608206
 10
-6.5625324251
 20
19.5840154271
 10
-6.557786832
 20
19.5757982681
 10
-6.553269863
 20
19.5674279814
 10
-6.548991762
 20
19.5589235584
 10
-6.5449622058
 20
19.5503042454
 10
-6.5411902981
 20
19.5415895167
 10
-6.5376845572
 20
19.5327990389
 10
-6.5344529629
 20
19.5239528055
 10
-6.5315028959
 20
19.5150710385
 10
-6.5288410569
 20
19.5061739755
 10
-6.5264734223
 20
19.4972816615
 10
-6.5244053059
 20
19.4884140834
 10
-6.5226411438
 20
19.4795899681
 10
-6.5211852781
 20
19.4708306895
 10
-6.5200414497
 20
19.462159953
 10
-6.5192119298
 20
19.4535985322
 10
-6.5186979788
 20
19.4451643369
 10
-6.5185003345
 20
19.4368762457
  0
LWPOLYLINE
  5
403
100
AcDbEntity
  8
RACCORDO
100
AcDbPolyline
 62
250
  6
CONTINUOUS
 90
9
 70
0
 10
-1.6107179989
 20
19.3991453412
 10
-1.5908368225
 20
19.3875313504
 10
-1.5731750907
 20
19.3737868684
 10
-1.5579235158
 20
19.358022183
 10
-1.5452589321
 20
19.3403284206
 10
-1.5353152362
 20
19.3208641355
 10
-1.5282006231
 20
19.2998507835
 10
-1.5240242064
 20
19.2773861703
 10
-1.5228500697
 20
19.2567844193
  0
LWPOLYLINE
  5
404
100
AcDbEntity
  8
0
100
AcDbPolyline
 62
7
  6
CONTINUOUS
 90
10
 70
0
 10
-10.2604211183
 20
22.7184847976
 10
-10.2321150226
 20
22.70192585
 10
-10.2058079173
 20
22.6814394467
 10
-10.1821929227
 20
22.657321815
 10
-10.1619309195
 20
22.6300689364
 10
-10.1455019354
 20
22.600219496
 10
-10.1332254298
 20
22.5682226399
 10
-10.1253740076
 20
22.5344350034
 10
-10.122274488
 20
22.4998762899
 10
-10.1222245222
 20
22.4949030165
  0
LWPOLYLINE
  5
405
100
AcDbEntity
  8
0
100
AcDbPolyline
 62
7
  6
CONTINUOUS
 90
10
 70
0
 10
2.0432368744
 20
16.5666558013
 10
2.0715429701
 20
16.5500968536
 10
2.0978500753
 20
16.5296104503
 10
2.12146507
 20
16.5054928187
 10
2.1417270731
 20
16.47823994
 10
2.1581560572
 20
16.4483904997
 10
2.1704325629
 20
16.4163936436
 10
2.1782839851
 20
16.3826060071
 10
2.1813835046
 20
16.3480472936
 10
2.1814334705
 20
16.3430740201
  0
LWPOLYLINE
  5
406
100
AcDbEntity
  8
RACCORDO
100
AcDbPolyline
 62
250
  6
CONTINUOUS
 90
13
 70
0
 10
-2.9548019438
 20
19.8874071031
 10
-2.9370910081
 20
19.8762852272
 10
-2.9190228947
 20
19.8628807391
 10
-2.9009011334
 20
19.8474188711
 10
-2.8830301481
 20
19.8301594117
 10
-2.8657101284
 20
19.8113923274
 10
-2.8492319899
 20
19.7914328867
 10
-2.8338725198
 20
19.7706164026
 10
-2.8198896829
 20
19.7492925439
 10
-2.8075182902
 20
19.7278194421
 10
-2.7969661164
 20
19.7065577662
 10
-2.7884103957
 20
19.6858646668
 10
-2.7819948122
 20
19.6660877166
  0
LINE
  5
407
100
AcDbEntity
  8
0
100
AcDbLine
 62
250
  6
CONTINUOUS
 10
8.4680510334
 20
21.1477892388
 11
8.8826285451
 21
20.0722106986
  0
LINE
  5
408
100
AcDbEntity
  8
0
100
AcDbLine
 62
7
  6
CONTINUOUS
 10
10.0273328733
 20
18.5721456506
 11
9.8258335154
 21
19.1678700764
  0
LINE
  5
409
100
AcDbEntity
  8
RACCORDO
100
AcDbLine
 62
250
  6
CONTINUOUS
 10
18.1642966439
 20
18.1361260363
 11
18.1642966439
 21
14.1612337317
  0
LINE
  5
40A
100
AcDbEntity
  8
RACCORDO
100
AcDbLine
 62
250
  6
CONTINUOUS
 10
18.1642966439
 20
12.4607710429
 11
18.1642966439
 21
-12.4719360333
  0
LWPOLYLINE
  5
40B
100
AcDbEntity
  8
RACCORDO
100
AcDbPolyline
 62
250
  6
CONTINUOUS
 90
29
 70
0
 10
18.4168905856
 20
15.0417707735
 10
18.4165622148
 20
14.9983164662
 10
18.4153558988
 20
14.9465905168
 10
18.4133249402
 20
14.8962734062
 10
18.4105185861
 20
14.8473738928
 10
18.4069893824
 20
14.7999083383
 10
18.4027884427
 20
14.7538779884
 10
18.3979391816
 20
14.7092681197
 10
18.3924831253
 20
14.6660939092
 10
18.3864567323
 20
14.6243524258
 10
18.3798504767
 20
14.5840029401
 10
18.3726874617
 20
14.5450180729
 10
18.3649935084
 20
14.5074363512
 10
18.3567382353
 20
14.4713186927
 10
18.3479296208
 20
14.4366192081
 10
18.3385856646
 20
14.4033964861
 10
18.3286717664
 20
14.37187146
 10
18.3181905357
 20
14.3420131646
 10
18.3071513984
 20
14.3138677172
 10
18.2955162701
 20
14.2877749586
 10
18.2832729588
 20
14.2637178612
 10
18.2704353137
 20
14.2417322216
 10
18.2569980194
 20
14.2222391728
 10
18.2429485601
 20
14.2053021188
 10
18.2283030061
 20
14.1908775799
 10
18.21310287
 20
14.1792253017
 10
18.1973690264
 20
14.1704367692
 10
18.1810973734
 20
14.1644368339
 10
18.1642966439
 20
14.1612337317
  0
LWPOLYLINE
  5
40C
100
AcDbEntity
  8
RACCORDO
100
AcDbPolyline
 62
250
  6
CONTINUOUS
 90
10
 70
0
 10
18.4168908236
 20
18.448722303
 10
18.4141844706
 20
18.4138507137
 10
18.4048342581
 20
18.375311716
 10
18.3888755059
 20
18.3373190784
 10
18.3664269874
 20
18.3001555618
 10
18.3376557763
 20
18.2640977567
 10
18.3027760029
 20
18.229414024
 10
18.2620472608
 20
18.1963624983
 10
18.2157726745
 20
18.1651891663
 10
18.1642966439
 20
18.1361260363
  0
LINE
  5
40D
100
AcDbEntity
  8
0
100
AcDbLine
 62
250
  6
CONTINUOUS
 10
0.337872076
 20
-25.4732962105
 11
-0.2844459561
 21
-26.218355628
  0
LINE
  5
40E
100
AcDbEntity
  8
0
100
AcDbLine
 62
250
  6
CONTINUOUS
 10
0.690908264
 20
-25.5990660486
 11
-0.0203123441
 21
-26.4505625257
  0
LWPOLYLINE
  5
40F
100
AcDbEntity
  8
DRAFT
100
AcDbPolyline
 62
7
  6
CONTINUOUS
 90
3
 70
0
 10
3.2880752279
 20
-20.9774978888
 10
3.3517519879
 20
-20.9258992871
 10
3.3713210568
 20
-20.9064777147
  0
LINE
  5
410
100
AcDbEntity
  8
RACCORDO
100
AcDbLine
 62
250
  6
CONTINUOUS
 10
-0.5403518968
 20
-19.7319063487
 11
-0.955194951
 21
-19.9234946185
  0
LINE
  5
411
100
AcDbEntity
  8
RACCORDO
100
AcDbLine
 62
7
  6
CONTINUOUS
 10
-0.7296243823
 20
-20.114024405
 11
-0.9677850756
 21
-20.2240149055
  0
LWPOLYLINE
  5
412
100
AcDbEntity
  8
0
100
AcDbPolyline
 62
7
  6
CONTINUOUS
 90
41
 70
0
 10
-11.9265883375
 20
20.7147133978
 10
-11.9208004388
 20
20.7135998232
 10
-11.9127671505
 20
20.712364538
 10
-11.9046062117
 20
20.7114587638
 10
-11.8963297243
 20
20.7108691183
 10
-11.8879515965
 20
20.7105961934
 10
-11.8794854412
 20
20.710639802
 10
-11.8709424199
 20
20.7109852008
 10
-11.8623357428
 20
20.7116321687
 10
-11.8536782898
 20
20.7125799589
 10
-11.8449802127
 20
20.7138129159
 10
-11.836253934
 20
20.7153301252
 10
-11.8275115351
 20
20.7171303583
 10
-11.8187621502
 20
20.7191974279
 10
-11.8100173424
 20
20.7215298468
 10
-11.8012883806
 20
20.7241259682
 10
-11.792583482
 20
20.726969355
 10
-11.7839133322
 20
20.7300580521
 10
-11.7752883763
 20
20.7333900475
 10
-11.7667160377
 20
20.7369488424
 10
-11.7582061301
 20
20.7407320989
 10
-11.7497682749
 20
20.7447374866
 10
-11.7414092211
 20
20.748948559
 10
-11.7331379281
 20
20.753362662
 10
-11.7249632005
 20
20.7579771883
 10
-11.7168912103
 20
20.7627758092
 10
-11.7089300852
 20
20.7677556041
 10
-11.7010878196
 20
20.7729137275
 10
-11.6933700751
 20
20.7782340084
 10
-11.6857841681
 20
20.7837132974
 10
-11.6783372896
 20
20.7893485477
 10
-11.6710346228
 20
20.7951237794
 10
-11.6638826933
 20
20.8010356416
 10
-11.6568878898
 20
20.8070809242
 10
-11.650054912
 20
20.813243887
 10
-11.6433895079
 20
20.8195210022
 10
-11.6368972675
 20
20.825908933
 10
-11.6305823782
 20
20.8323922469
 10
-11.6244495295
 20
20.8389634514
 10
-11.6185038256
 20
20.8456229402
 10
-11.6127497286
 20
20.8523670871
  0
LINE
  5
413
100
AcDbEntity
  8
0
100
AcDbLine
 62
7
  6
CONTINUOUS
 10
-12.5508138303
 20
20.8450494492
 11
-11.926514408
 21
20.7146951506
  0
LINE
  5
414
100
AcDbEntity
  8
0
100
AcDbLine
 62
250
  6
CONTINUOUS
 10
-12.3239703367
 20
21.00087061
 11
-11.6127497286
 21
20.8523670871
  0
LWPOLYLINE
  5
415
100
AcDbEntity
  8
0
100
AcDbPolyline
 62
7
  6
CONTINUOUS
 90
10
 70
0
 10
-12.5508138303
 20
20.8450494492
 10
-12.5583919229
 20
20.8467550388
 10
-12.5659291653
 20
20.8486995688
 10
-12.5734148147
 20
20.8508816944
 10
-12.580864109
 20
20.8533083237
 10
-12.5882386224
 20
20.855969041
 10
-12.5954523505
 20
20.8588291025
 10
-12.6024758281
 20
20.8618674569
 10
-12.609330049
 20
20.8650837365
 10
-12.611526939
 20
20.8661688537
  0
LWPOLYLINE
  5
416
100
AcDbEntity
  8
0
100
AcDbPolyline
 62
7
  6
CONTINUOUS
 90
3
 70
0
 10
0.2835013825
 20
17.4347721758
 10
0.3142534271
 20
17.4273786769
 10
0.3439445722
 20
17.4161075729
  0
LWPOLYLINE
  5
417
100
AcDbEntity
  8
RACCORDO
100
AcDbPolyline
 62
250
  6
CONTINUOUS
 90
8
 70
0
 10
-1.4902586292
 20
19.1551354458
 10
-1.5090833023
 20
19.1622815064
 10
-1.5269369626
 20
19.1668381581
 10
-1.5435197067
 20
19.1687288589
 10
-1.5585529795
 20
19.167921849
 10
-1.5717842541
 20
19.1644306845
 10
-1.5829912732
 20
19.1583140094
 10
-1.5870590003
 20
19.154975206
  0
LWPOLYLINE
  5
418
100
AcDbEntity
  8
0
100
AcDbPolyline
 62
7
  6
CONTINUOUS
 90
6
 70
0
 10
-11.9513006694
 20
23.5639245732
 10
-11.9794943816
 20
23.5759212117
 10
-12.0093781306
 20
23.5844759966
 10
-12.0404441413
 20
23.5892887129
 10
-12.0722422347
 20
23.590150648
 10
-12.1040284012
 20
23.5869454184
  0
LWPOLYLINE
  5
419
100
AcDbEntity
  8
RACCORDO
100
AcDbPolyline
 62
7
  6
CONTINUOUS
 90
16
 70
0
 10
-2.3691235976
 20
18.7957634807
 10
-2.3920913206
 20
18.8060700668
 10
-2.4164723952
 20
18.8150249067
 10
-2.4422668214
 20
18.8226280005
 10
-2.4697656422
 20
18.8289291712
 10
-2.4986778147
 20
18.8338785958
 10
-2.5281302098
 20
18.8373268048
 10
-2.5581393079
 20
18.8392280014
 10
-2.5886886285
 20
18.8396279825
 10
-2.618855602
 20
18.8385146688
 10
-2.6486285643
 20
18.8358418951
 10
-2.6780191793
 20
18.8316558266
 10
-2.7061398696
 20
18.8260828799
 10
-2.7326947758
 20
18.8191651939
 10
-2.7579797573
 20
18.8108606298
 10
-2.7819948138
 20
18.8011691874
  0
LINE
  5
41A
100
AcDbEntity
  8
RACCORDO
100
AcDbLine
 62
250
  6
CONTINUOUS
 10
-1.9253529498
 20
20.721283342
 11
-1.9219121204
 21
20.7196700751
  0
LINE
  5
41B
100
AcDbEntity
  8
RACCORDO
100
AcDbLine
 62
250
  6
CONTINUOUS
 10
-2.3691235976
 20
19.7783481406
 11
-1.6107179989
 21
19.3991453412
  0
LINE
  5
41C
100
AcDbEntity
  8
RACCORDO
100
AcDbLine
 62
250
  6
CONTINUOUS
 10
-2.26668325
 20
19.996063724
 11
-1.5082776514
 21
19.6168609247
  0
LINE
  5
41D
100
AcDbEntity
  8
RACCORDO
100
AcDbLine
 62
7
  6
CONTINUOUS
 10
-2.9798702911
 20
20.5964151053
 11
-0.5377362594
 21
19.3753480894
  0
LINE
  5
41E
100
AcDbEntity
  8
RACCORDO
100
AcDbLine
 62
250
  6
CONTINUOUS
 10
0.0696206191
 20
19.6747295122
 11
-2.0101278791
 21
20.7146037613
  0
LINE
  5
41F
100
AcDbEntity
  8
RACCORDO
100
AcDbLine
 62
7
  6
CONTINUOUS
 10
0.1191451964
 20
19.6991414172
 11
-1.9219192784
 21
20.7196736546
  0
LINE
  5
420
100
AcDbEntity
  8
0
100
AcDbLine
 62
7
  6
CONTINUOUS
 10
-1.6258770011
 20
21.1248471658
 11
0.6762815554
 21
19.9737678875
  0
LWPOLYLINE
  5
421
100
AcDbEntity
  8
RACCORDO
100
AcDbPolyline
 62
250
  6
CONTINUOUS
 90
15
 70
0
 10
-1.5082776514
 20
19.6168609247
 10
-1.474695675
 20
19.5976177987
 10
-1.4453790869
 20
19.5759943959
 10
-1.4203278872
 20
19.5519907161
 10
-1.3993386951
 20
19.5253583674
 10
-1.3826148914
 20
19.4963457418
 10
-1.3707666183
 20
19.4656980154
 10
-1.3639098247
 20
19.4333380678
 10
-1.3619285616
 20
19.3993430193
 10
-1.3650851245
 20
19.364689407
 10
-1.3735478637
 20
19.3293233184
 10
-1.3871484289
 20
19.293298666
 10
-1.4056440636
 20
19.2577537251
 10
-1.4289538492
 20
19.2230679206
 10
-1.4571587044
 20
19.1888618275
  0
LINE
  5
422
100
AcDbEntity
  8
DRAFT
100
AcDbLine
 62
7
  6
CONTINUOUS
 10
9.8132250488
 20
16.3433770721
 11
9.0605309649
 21
17.6415823331
  0
LWPOLYLINE
  5
423
100
AcDbEntity
  8
RACCORDO
100
AcDbPolyline
 62
7
  6
CONTINUOUS
 90
10
 70
0
 10
18.4168908236
 20
18.448722303
 10
18.4130859275
 20
18.5626599993
 10
18.4019398385
 20
18.6759241963
 10
18.3838015133
 20
18.7883114698
 10
18.3588464122
 20
18.9000482465
 10
18.3272994127
 20
19.010680414
 10
18.2896781465
 20
19.1189868031
 10
18.2463769111
 20
19.2244707742
 10
18.1974241294
 20
19.3273976547
 10
18.1428920839
 20
19.4276420644
  0
LINE
  5
424
100
AcDbEntity
  8
RACCORDO
100
AcDbLine
 62
7
  6
CONTINUOUS
 10
18.4168904598
 20
12.2048262072
 11
18.4168907854
 21
12.2043671395
  0
LINE
  5
425
100
AcDbEntity
  8
RACCORDO
100
AcDbLine
 62
7
  6
CONTINUOUS
 10
18.4168908236
 20
18.448722303
 11
18.4168908236
 21
15.0430368563
  0
LINE
  5
426
100
AcDbEntity
  8
RACCORDO
100
AcDbLine
 62
7
  6
CONTINUOUS
 10
18.4168908236
 20
12.2040761869
 11
18.4168908236
 21
-12.1593397666
  0
LINE
  5
427
100
AcDbEntity
  8
RACCORDO
100
AcDbLine
 62
7
  6
CONTINUOUS
 10
18.4168906734
 20
15.0420183536
 11
18.4168905856
 21
15.0417707735
  0
LWPOLYLINE
  5
428
100
AcDbEntity
  8
RACCORDO
100
AcDbPolyline
 62
250
  6
CONTINUOUS
 90
11
 70
0
 10
18.4168908236
 20
-12.1593397666
 10
18.4160881839
 20
-12.1783404718
 10
18.4101056306
 20
-12.2144925283
 10
18.3983186414
 20
-12.2502861821
 10
18.3808038124
 20
-12.2854888329
 10
18.3576749614
 20
-12.3198717211
 10
18.3290823882
 20
-12.353211414
 10
18.2952118976
 20
-12.3852912579
 10
18.2562835925
 20
-12.4159027864
 10
18.2125504433
 20
-12.4448470744
 10
18.1642966439
 20
-12.4719360315
  0
LINE
  5
429
100
AcDbEntity
  8
0
100
AcDbLine
 62
7
  6
CONTINUOUS
 10
2.9890111817
 20
-21.183554836
 11
3.6899471355
 21
-20.6755550983
  0
LINE
  5
42A
100
AcDbEntity
  8
DRAFT
100
AcDbLine
 62
7
  6
CONTINUOUS
 10
3.2880752279
 20
-20.9774978888
 11
2.9890111817
 21
-21.1942430225
  0
LINE
  5
42B
100
AcDbEntity
  8
DRAFT
100
AcDbLine
 62
7
  6
CONTINUOUS
 10
9.8132250488
 20
-17.6238352346
 11
9.0605309649
 21
-18.1693464116
  0
LWPOLYLINE
  5
42C
100
AcDbEntity
  8
0
100
AcDbPolyline
 62
7
  6
CONTINUOUS
 90
10
 70
0
 10
2.9192261277
 20
-19.6188839471
 10
3.0037198504
 20
-19.5721687186
 10
3.0884999618
 20
-19.5254598318
 10
3.1735717899
 20
-19.4787590445
 10
3.258944888
 20
-19.4320855985
 10
3.3446199494
 20
-19.385423147
 10
3.4305871841
 20
-19.3387195567
 10
3.5168446517
 20
-19.2919578767
 10
3.6033998862
 20
-19.2451565626
 10
3.6902556769
 20
-19.1983162407
  0
LINE
  5
42D
100
AcDbEntity
  8
RACCORDO
100
AcDbLine
 62
7
  6
CONTINUOUS
 10
17.405789949
 20
-13.6087618463
 11
9.8132250488
 21
-17.6238352346
  0
LINE
  5
42E
100
AcDbEntity
  8
DRAFT
100
AcDbLine
 62
7
  6
CONTINUOUS
 10
9.0605309649
 20
-18.1693464116
 11
2.9890111817
 21
-21.3800660865
  0
LINE
  5
42F
100
AcDbEntity
  8
RACCORDO
100
AcDbLine
 62
250
  6
CONTINUOUS
 10
17.82533316
 20
-13.3047000558
 11
3.2880752279
 21
-20.9774978888
  0
LINE
  5
430
100
AcDbEntity
  8
RACCORDO
100
AcDbLine
 62
250
  6
CONTINUOUS
 10
18.1642966439
 20
-12.4719360333
 11
3.7022887903
 21
-19.9598597986
  0
LINE
  5
431
100
AcDbEntity
  8
0
100
AcDbLine
 62
7
  6
CONTINUOUS
 10
7.2706037123
 20
-19.4154288971
 11
2.9890111817
 21
-21.6150491564
  0
LINE
  5
432
100
AcDbEntity
  8
0
100
AcDbLine
 62
7
  6
CONTINUOUS
 10
2.9890111817
 20
-21.0353244
 11
3.6899471355
 21
-20.6755550983
  0
LINE
  5
433
100
AcDbEntity
  8
ASSI
100
AcDbLine
 62
7
  6
CONTINUOUS
 10
8.0812248539
 20
-18.9024817242
 11
2.9890111817
 21
-21.5065953797
  0
LWPOLYLINE
  5
434
100
AcDbEntity
  8
0
100
AcDbPolyline
 62
7
  6
CONTINUOUS
 90
10
 70
0
 10
3.6902556769
 20
-20.0657871445
 10
3.6033998862
 20
-20.1073221568
 10
3.5168446517
 20
-20.1486019651
 10
3.4305871841
 20
-20.1896244065
 10
3.3446199494
 20
-20.2304016456
 10
3.258944888
 20
-20.2709174287
 10
3.1735717899
 20
-20.3111256839
 10
3.0884999618
 20
-20.3510081281
 10
3.0037198504
 20
-20.3905756928
 10
2.9192261277
 20
-20.4298248075
  0
LWPOLYLINE
  5
435
100
AcDbEntity
  8
0
100
AcDbPolyline
 62
7
  6
CONTINUOUS
 90
10
 70
0
 10
2.9381594651
 20
20.4621240277
 10
2.9307962055
 20
20.460171792
 10
2.9230208286
 20
20.4579397778
 10
2.9148322124
 20
20.4554411755
 10
2.9062409367
 20
20.4526809617
 10
2.8972666421
 20
20.4496653068
 10
2.8879181435
 20
20.4464098959
 10
2.8782080466
 20
20.442923321
 10
2.8681537071
 20
20.4392067224
 10
2.8577704601
 20
20.4352644517
  0
LWPOLYLINE
  5
436
100
AcDbEntity
  8
RACCORDO
100
AcDbPolyline
 62
7
  6
CONTINUOUS
 90
6
 70
0
 10
-3.0360270016
 20
20.6105476522
 10
-3.0263469913
 20
20.6102102383
 10
-3.0159357948
 20
20.6087553677
 10
-3.0048147552
 20
20.6060781412
 10
-2.9929983142
 20
20.6021009647
 10
-2.9805291655
 20
20.5967445425
  0
LWPOLYLINE
  5
437
100
AcDbEntity
  8
RACCORDO
100
AcDbPolyline
 62
7
  6
CONTINUOUS
 90
10
 70
0
 10
-2.0473564019
 20
20.7515504115
 10
-2.1284788602
 20
20.7632707662
 10
-2.2107524794
 20
20.7711740174
 10
-2.2935455409
 20
20.7752629809
 10
-2.3764247117
 20
20.7755612781
 10
-2.4591545416
 20
20.7720692827
 10
-2.5412052879
 20
20.764773685
 10
-2.6220377195
 20
20.7536693861
 10
-2.7014359227
 20
20.7386893333
 10
-2.778986753
 20
20.7197524842
  0
LWPOLYLINE
  5
438
100
AcDbEntity
  8
RACCORDO
100
AcDbPolyline
 62
250
  6
CONTINUOUS
 90
13
 70
0
 10
-2.0101278791
 20
20.7146037613
 10
-2.079850109
 20
20.728178506
 10
-2.1505919079
 20
20.7384420071
 10
-2.2223532758
 20
20.7453942647
 10
-2.2957926521
 20
20.7490446393
 10
-2.3702515973
 20
20.7493837703
 10
-2.4437547931
 20
20.7463835757
 10
-2.5162793033
 20
20.739939014
 10
-2.587848064
 20
20.7301551267
 10
-2.6565545653
 20
20.7173189562
 10
-2.7217633037
 20
20.7015261833
 10
-2.7841097826
 20
20.6826811273
 10
-2.843594002
 20
20.6607837881
  0
LINE
  5
439
100
AcDbEntity
  8
RACCORDO
100
AcDbLine
 62
7
  6
CONTINUOUS
 10
-1.9679327098
 20
20.7360160243
 11
-2.0473564019
 21
20.7515504115
  0
LWPOLYLINE
  5
43A
100
AcDbEntity
  8
RACCORDO
100
AcDbPolyline
 62
7
  6
CONTINUOUS
 90
7
 70
0
 10
-1.9679395674
 20
20.7360175487
 10
-1.9600788847
 20
20.7341015432
 10
-1.9509828318
 20
20.7314564002
 10
-1.9420194481
 20
20.7283824882
 10
-1.9331991651
 20
20.724882137
 10
-1.9245417037
 20
20.7209610115
 10
-1.9219011455
 20
20.719664585
  0
LWPOLYLINE
  5
43B
100
AcDbEntity
  8
0
100
AcDbPolyline
 62
250
  6
CONTINUOUS
 90
14
 70
0
 10
-11.9600564379
 20
23.5677585563
 10
-11.9669814564
 20
23.5700812146
 10
-11.9741226139
 20
23.5718872325
 10
-11.9814638529
 20
23.5731725488
 10
-11.9889886661
 20
23.5739342737
 10
-11.9966801333
 20
23.5741706941
 10
-12.0045209599
 20
23.5738812785
 10
-12.012493515
 20
23.5730666778
 10
-12.0205798717
 20
23.5717287235
 10
-12.0287618473
 20
23.5698704242
 10
-12.037021044
 20
23.5674959583
 10
-12.0453388904
 20
23.5646106652
 10
-12.0536966831
 20
23.5612210325
 10
-12.062075629
 20
23.5573346821
  0
LWPOLYLINE
  5
43C
100
AcDbEntity
  8
0
100
AcDbPolyline
 62
7
  6
CONTINUOUS
 90
10
 70
0
 10
2.9835872385
 20
20.4654274076
 10
2.9805252797
 20
20.4665620612
 10
2.9770020177
 20
20.4672203457
 10
2.9729175029
 20
20.4675064821
 10
2.9683074435
 20
20.4674292541
 10
2.9632017156
 20
20.4669944742
 10
2.9576108147
 20
20.4662377605
 10
2.9515643733
 20
20.4651708363
 10
2.9450852834
 20
20.4637932325
 10
2.9381594651
 20
20.4621240277
  0
LWPOLYLINE
  5
43D
100
AcDbEntity
  8
0
100
AcDbPolyline
 62
7
  6
CONTINUOUS
 90
7
 70
0
 10
-2.6068839789
 20
23.2606578033
 10
-2.6082573476
 20
23.2612556818
 10
-2.6115882643
 20
23.2621627346
 10
-2.6155319825
 20
23.2626375901
 10
-2.6200543309
 20
23.2627271734
 10
-2.6251201506
 20
23.2624520852
 10
-2.6306911578
 20
23.2618063889
  0
LINE
  5
43E
100
AcDbEntity
  8
0
100
AcDbLine
 62
7
  6
CONTINUOUS
 10
-0.9806882746
 20
21.8009949196
 11
1.6821400661
 21
20.4695807493
  0
LINE
  5
43F
100
AcDbEntity
  8
0
100
AcDbLine
 62
250
  6
CONTINUOUS
 10
2.8249518631
 20
20.4207909967
 11
2.2084800384
 21
20.729026909
  0
LINE
  5
440
100
AcDbEntity
  8
0
100
AcDbLine
 62
250
  6
CONTINUOUS
 10
-2.7900953279
 20
23.2283145922
 11
-3.4065671526
 21
23.5365505045
  0
LINE
  5
441
100
AcDbEntity
  8
0
100
AcDbLine
 62
7
  6
CONTINUOUS
 10
2.9835626935
 20
20.4654403232
 11
2.468574606
 21
20.722934367
  0
LINE
  5
442
100
AcDbEntity
  8
0
100
AcDbLine
 62
7
  6
CONTINUOUS
 10
-2.6308143335
 20
23.2726288368
 11
-3.1220771683
 21
23.5182602542
  0
LINE
  5
443
100
AcDbEntity
  8
DRAFT
100
AcDbLine
 62
7
  6
CONTINUOUS
 10
9.0605309649
 20
17.6415823331
 11
8.1846534061
 21
18.0795211125
  0
LINE
  5
444
100
AcDbEntity
  8
0
100
AcDbLine
 62
7
  6
CONTINUOUS
 10
3.6797027398
 20
20.439860472
 11
0.773349393
 21
21.8930371454
  0
LINE
  5
445
100
AcDbEntity
  8
RACCORDO
100
AcDbLine
 62
7
  6
CONTINUOUS
 10
3.439147026
 20
20.5874933838
 11
0.7731544757
 21
21.920489659
  0
LINE
  5
446
100
AcDbEntity
  8
0
100
AcDbLine
 62
250
  6
CONTINUOUS
 10
-2.8983577762
 20
24.3560867677
 11
0.0608781632
 21
22.8764687979
  0
LINE
  5
447
100
AcDbEntity
  8
0
100
AcDbLine
 62
250
  6
CONTINUOUS
 10
4.3113677729
 20
20.7512239931
 11
7.2706037123
 21
19.2716060234
  0
LINE
  5
448
100
AcDbEntity
  8
0
100
AcDbLine
 62
7
  6
CONTINUOUS
 10
10.0378277087
 20
18.5668982329
 11
10.2517201626
 21
18.3693649653
  0
LINE
  5
449
100
AcDbEntity
  8
RACCORDO
100
AcDbLine
 62
7
  6
CONTINUOUS
 10
12.8856690649
 20
22.1375042923
 11
12.8947845236
 21
22.1136104913
  0
LWPOLYLINE
  5
44A
100
AcDbEntity
  8
RACCORDO
100
AcDbPolyline
 62
250
  6
CONTINUOUS
 90
11
 70
0
 10
17.9251471807
 20
-13.2152111264
 10
17.9692590922
 20
-13.1618737538
 10
18.0092501874
 20
-13.1031043935
 10
18.0449493159
 20
-13.0391547555
 10
18.0762037383
 20
-12.9702986146
 10
18.1028796104
 20
-12.8968310329
 10
18.1248628243
 20
-12.8190664986
 10
18.1420594218
 20
-12.7373373162
 10
18.1543957162
 20
-12.651993142
 10
18.1618187458
 20
-12.5633996064
 10
18.1642966439
 20
-12.4719360333
  0
LWPOLYLINE
  5
44B
100
AcDbEntity
  8
RACCORDO
100
AcDbPolyline
 62
250
  6
CONTINUOUS
 90
3
 70
0
 10
17.82533316
 20
-13.3047000558
 10
17.8771033114
 20
-13.2628879792
 10
17.9251471807
 20
-13.2152111264
  0
LWPOLYLINE
  5
44C
100
AcDbEntity
  8
RACCORDO
100
AcDbPolyline
 62
7
  6
CONTINUOUS
 90
13
 70
0
 10
17.8924439947
 20
-13.2629741363
 10
17.9669987189
 20
-13.2042505577
 10
18.0377915677
 20
-13.1386361621
 10
18.104167009
 20
-13.0663145943
 10
18.1654276394
 20
-12.9876402977
 10
18.2210559147
 20
-12.9028798455
 10
18.2706990264
 20
-12.8120691942
 10
18.3139001964
 20
-12.7153720398
 10
18.350079518
 20
-12.613344265
 10
18.3788088724
 20
-12.5064207568
 10
18.3997447065
 20
-12.3948942454
 10
18.4125495223
 20
-12.2790811765
 10
18.4168908236
 20
-12.1593397666
  0
LINE
  5
44D
100
AcDbEntity
  8
RACCORDO
100
AcDbLine
 62
250
  6
CONTINUOUS
 10
17.82533316
 20
-13.3047000558
 11
17.405789949
 21
-13.6087618463
  0
LINE
  5
44E
100
AcDbEntity
  8
RACCORDO
100
AcDbLine
 62
7
  6
CONTINUOUS
 10
17.8924439946
 20
-13.2629741363
 11
17.4760631551
 21
-13.5647440143
  0
LWPOLYLINE
  5
44F
100
AcDbEntity
  8
RACCORDO
100
AcDbPolyline
 62
250
  6
CONTINUOUS
 90
3
 70
0
 10
17.8924439946
 20
-13.2629741363
 10
17.8741555342
 20
-13.2756787663
 10
17.82533316
 20
-13.3047000558
  0
LWPOLYLINE
  5
450
100
AcDbEntity
  8
RACCORDO
100
AcDbPolyline
 62
7
  6
CONTINUOUS
 90
3
 70
0
 10
17.405789949
 20
-13.6087618463
 10
17.4621817944
 20
-13.5745698344
 10
17.474916136
 20
-13.5655750768
  0
LWPOLYLINE
  5
451
100
AcDbEntity
  8
RACCORDO
100
AcDbPolyline
 62
250
  6
CONTINUOUS
 90
16
 70
0
 10
-4.4040762091
 20
-26.632334082
 10
-4.4430083429
 20
-26.6532844718
 10
-4.485175541
 20
-26.6720972435
 10
-4.5301309125
 20
-26.6885730181
 10
-4.5773980173
 20
-26.7025371843
 10
-4.6264759154
 20
-26.7138417489
 10
-4.6768444759
 20
-26.7223669053
 10
-4.7279698895
 20
-26.7280223033
 10
-4.7793103254
 20
-26.7307480067
 10
-4.8303216742
 20
-26.7305151283
 10
-4.8804633143
 20
-26.727326136
 10
-4.929203841
 20
-26.7212148272
 10
-4.976026699
 20
-26.71224597
 10
-5.0204356564
 20
-26.7005146172
 10
-5.061960064
 20
-26.6861450984
 10
-5.1001598433
 20
-26.6692897026
  0
LINE
  5
452
100
AcDbEntity
  8
0
100
AcDbLine
 62
250
  6
CONTINUOUS
 10
2.2880752279
 20
-24.3289065437
 11
2.9890111817
 21
-23.967229351
  0
LINE
  5
453
100
AcDbEntity
  8
0
100
AcDbLine
 62
7
  6
CONTINUOUS
 10
2.1593760805
 20
-24.5987095655
 11
2.8611989289
 21
-24.2365747424
  0
LINE
  5
454
100
AcDbEntity
  8
0
100
AcDbLine
 62
7
  6
CONTINUOUS
 10
0.773349393
 20
21.8930371454
 11
-0.9806882746
 21
21.8009949196
  0
LWPOLYLINE
  5
455
100
AcDbEntity
  8
RACCORDO
100
AcDbPolyline
 62
250
  6
CONTINUOUS
 90
4
 70
0
 10
3.316051362
 20
20.6216861609
 10
3.3612439079
 20
20.6152233815
 10
3.4160899775
 20
20.5979608005
 10
3.4390759654
 20
20.5875289037
  0
LWPOLYLINE
  5
456
100
AcDbEntity
  8
0
100
AcDbPolyline
 62
7
  6
CONTINUOUS
 90
16
 70
0
 10
-2.0725712368
 20
21.2550534385
 10
-2.0390760555
 20
21.2501003464
 10
-2.0060211738
 20
21.2445913537
 10
-1.9734065915
 20
21.2385264606
 10
-1.941198635
 20
21.2318981481
 10
-1.909430978
 20
21.2247139352
 10
-1.8782046416
 20
21.2169963782
 10
-1.8475132306
 20
21.2087413167
 10
-1.8173631401
 20
21.1999529111
 10
-1.7878745767
 20
21.1906661995
 10
-1.7590579303
 20
21.1808819138
 10
-1.730902811
 20
21.1705993222
 10
-1.7034982549
 20
21.1598512673
 10
-1.6768739405
 20
21.1486486967
 10
-1.6510001892
 20
21.1369806629
 10
-1.6258770011
 20
21.1248471658
  0
LWPOLYLINE
  5
457
100
AcDbEntity
  8
RACCORDO
100
AcDbPolyline
 62
7
  6
CONTINUOUS
 90
10
 70
0
 10
3.7831999832
 20
20.4908768564
 10
3.7386636572
 20
20.4977534428
 10
3.6806036006
 20
20.5089224083
 10
3.6267120332
 20
20.5214201417
 10
3.5782236053
 20
20.5346568537
 10
3.5353988924
 20
20.5481976537
 10
3.4983587781
 20
20.5616047019
 10
3.4677062591
 20
20.574178789
 10
3.4433902058
 20
20.5853875768
 10
3.4390724038
 20
20.5875217728
  0
LWPOLYLINE
  5
458
100
AcDbEntity
  8
0
100
AcDbPolyline
 62
7
  6
CONTINUOUS
 90
8
 70
0
 10
2.3612189884
 20
20.7618206904
 10
2.3766275371
 20
20.7581781889
 10
2.3924780165
 20
20.7537021433
 10
2.4087575579
 20
20.748376015
 10
2.4254586711
 20
20.7421880523
 10
2.442556931
 20
20.735116445
 10
2.4600102391
 20
20.7271308351
 10
2.4682009274
 20
20.7231188254
  0
LWPOLYLINE
  5
459
100
AcDbEntity
  8
RACCORDO
100
AcDbPolyline
 62
7
  6
CONTINUOUS
 90
9
 70
0
 10
12.3756099156
 20
19.3594850029
 10
12.369493175
 20
19.3610845006
 10
12.3597229613
 20
19.3626173145
 10
12.3493967659
 20
19.3630327589
 10
12.3386095687
 20
19.3623309864
 10
12.3276463098
 20
19.3605124551
 10
12.3166019691
 20
19.3575773175
 10
12.3053815666
 20
19.3535254212
 10
12.2939851023
 20
19.3483567659
  0
LINE
  5
45A
100
AcDbEntity
  8
0
100
AcDbLine
 62
7
  6
CONTINUOUS
 10
10.9825471169
 20
18.6926377732
 11
10.5328024555
 21
18.8143856064
  0
LWPOLYLINE
  5
45B
100
AcDbEntity
  8
RACCORDO
100
AcDbPolyline
 62
7
  6
CONTINUOUS
 90
28
 70
0
 10
12.3755997794
 20
19.3594610505
 10
12.2668844328
 20
19.3907468963
 10
12.1520293898
 20
19.4201005733
 10
12.0347679659
 20
19.4464276435
 10
11.9153948011
 20
19.4696897352
 10
11.7941744294
 20
19.489860288
 10
11.6713450599
 20
19.5069195633
 10
11.5471962626
 20
19.5208434049
 10
11.4220127995
 20
19.5316140739
 10
11.296032282
 20
19.5392214736
 10
11.1695458958
 20
19.5436548523
 10
11.0428431729
 20
19.5449094069
 10
10.9161614274
 20
19.5429846339
 10
10.7897901577
 20
19.5378832989
 10
10.6640205671
 20
19.5296140867
 10
10.5390909677
 20
19.5181862113
 10
10.4152920931
 20
19.503616379
 10
10.2929073407
 20
19.4859263574
 10
10.1721589046
 20
19.4651321821
 10
10.0533239835
 20
19.4412605821
 10
9.93668816
 20
19.4143455303
 10
9.822476587
 20
19.384410763
 10
9.7109614088
 20
19.3514936591
 10
9.6024152124
 20
19.3156370243
 10
9.4970483208
 20
19.2768654067
 10
9.3951015384
 20
19.2352125983
 10
9.296855401
 20
19.1907318238
 10
9.2025713398
 20
19.1434744344
  0
LWPOLYLINE
  5
45C
100
AcDbEntity
  8
RACCORDO
100
AcDbPolyline
 62
7
  6
CONTINUOUS
 90
3
 70
0
 10
12.3876505974
 20
19.3546672223
 10
12.3788023871
 20
19.3584344699
 10
12.3756099156
 20
19.3594850029
  0
LINE
  5
45D
100
AcDbEntity
  8
0
100
AcDbLine
 62
7
  6
CONTINUOUS
 10
-2.6097065945
 20
24.4596706604
 11
0.5053753147
 21
22.9021297057
  0
LINE
  5
45E
100
AcDbEntity
  8
0
100
AcDbLine
 62
7
  6
CONTINUOUS
 10
4.7530702978
 20
20.7782822142
 11
7.868152207
 21
19.2207412596
  0
LINE
  5
45F
100
AcDbEntity
  8
0
100
AcDbLine
 62
7
  6
CONTINUOUS
 10
10.0378277087
 20
18.5668982329
 11
9.3308587685
 21
18.920382703
  0
LINE
  5
460
100
AcDbEntity
  8
0
100
AcDbLine
 62
7
  6
CONTINUOUS
 10
10.5328024555
 20
18.8143856064
 11
9.8258335154
 21
19.1678700764
  0
LINE
  5
461
100
AcDbEntity
  8
DRAFT
100
AcDbLine
 62
7
  6
CONTINUOUS
 10
9.565338743
 20
19.6505157176
 11
9.1267282705
 21
19.8698209538
  0
LINE
  5
462
100
AcDbEntity
  8
RACCORDO
100
AcDbLine
 62
7
  6
CONTINUOUS
 10
13.2361787348
 20
18.9304031536
 11
13.34895362
 21
18.8739108275
  0
LWPOLYLINE
  5
463
100
AcDbEntity
  8
RACCORDO
100
AcDbPolyline
 62
7
  6
CONTINUOUS
 90
10
 70
0
 10
13.1982346675
 20
18.9430708086
 10
13.1007576138
 20
18.9931262403
 10
13.005144412
 20
19.0421021159
 10
12.911395062
 20
19.0899984355
 10
12.8195239807
 20
19.1368166233
 10
12.7295167513
 20
19.182555255
 10
12.6413301233
 20
19.227210058
 10
12.5549496799
 20
19.2707796082
 10
12.4703898379
 20
19.3132653296
 10
12.3876505974
 20
19.3546672223
  0
LINE
  5
464
100
AcDbEntity
  8
RACCORDO
100
AcDbLine
 62
250
  6
CONTINUOUS
 10
13.2102747505
 20
18.8630480055
 11
13.2323202489
 21
18.8412181186
  0
LINE
  5
465
100
AcDbEntity
  8
RACCORDO
100
AcDbLine
 62
250
  6
CONTINUOUS
 10
13.2323202489
 20
18.8412181186
 11
13.247653288
 21
18.8252921278
  0
LWPOLYLINE
  5
466
100
AcDbEntity
  8
RACCORDO
100
AcDbPolyline
 62
250
  6
CONTINUOUS
 90
35
 70
0
 10
18.4168908236
 20
15.734041858
 10
18.4284883499
 20
15.6971669375
 10
18.4484258574
 20
15.624253066
 10
18.4647398544
 20
15.5532813156
 10
18.4783356147
 20
15.4842149806
 10
18.4893933716
 20
15.4172361113
 10
18.4979207466
 20
15.3523126099
 10
18.504520428
 20
15.2890610467
 10
18.5093328419
 20
15.2275023584
 10
18.5123523814
 20
15.1677075527
 10
18.5139245195
 20
15.1093488477
 10
18.5141406984
 20
15.0523781184
 10
18.5130097513
 20
14.996901725
 10
18.5107319233
 20
14.9428136232
 10
18.5073707777
 20
14.8900991097
 10
18.5029482016
 20
14.8388129853
 10
18.4975932846
 20
14.7889490488
 10
18.4913645451
 20
14.7405328052
 10
18.4842807769
 20
14.6935668504
 10
18.4764066933
 20
14.6480078052
 10
18.4678000091
 20
14.6038711792
 10
18.4584709735
 20
14.5611600691
 10
18.448409055
 20
14.5198100408
 10
18.4376594633
 20
14.479782484
 10
18.4262359085
 20
14.441127448
 10
18.4140799392
 20
14.4039117718
 10
18.4012274957
 20
14.3680847216
 10
18.387697608
 20
14.3337040357
 10
18.3734104155
 20
14.3009984729
 10
18.3583989576
 20
14.269930828
 10
18.3426828593
 20
14.2405431833
 10
18.326167775
 20
14.2131833131
 10
18.308839497
 20
14.1879690498
 10
18.290758662
 20
14.1647880739
 10
18.2719428331
 20
14.1436435408
  0
LWPOLYLINE
  5
467
100
AcDbEntity
  8
0
100
AcDbPolyline
 62
7
  6
CONTINUOUS
 90
7
 70
0
 10
2.0453749499
 20
-25.8741429498
 10
2.055299351
 20
-25.8687752625
 10
2.0822158978
 20
-25.8510289542
 10
2.1066849506
 20
-25.8299070205
 10
2.1282876964
 20
-25.8057233792
 10
2.1466647772
 20
-25.7788010564
 10
2.1614615681
 20
-25.7495317875
  0
LINE
  5
468
100
AcDbEntity
  8
0
100
AcDbLine
 62
250
  6
CONTINUOUS
 10
1.5809684467
 20
-26.0105018602
 11
2.1092356185
 21
-25.7394908015
  0
LINE
  5
469
100
AcDbEntity
  8
0
100
AcDbLine
 62
7
  6
CONTINUOUS
 10
1.5168653174
 20
-26.1452786204
 11
2.045547581
 21
-25.8740546118
  0
LWPOLYLINE
  5
46A
100
AcDbEntity
  8
0
100
AcDbPolyline
 62
7
  6
CONTINUOUS
 90
3
 70
0
 10
2.1593661474
 20
-24.5987146957
 10
2.1572736624
 20
-24.5997780867
 10
2.1458257591
 20
-24.6050379094
  0
LINE
  5
46B
100
AcDbEntity
  8
0
100
AcDbLine
 62
7
  6
CONTINUOUS
 10
1.5168633437
 20
-26.145279633
 11
1.5151269319
 21
-26.1461478532
  0
LINE
  5
46C
100
AcDbEntity
  8
0
100
AcDbLine
 62
250
  6
CONTINUOUS
 10
-0.0203123441
 20
-26.7905364598
 11
1.5809684467
 21
-26.0105018602
  0
LINE
  5
46D
100
AcDbEntity
  8
0
100
AcDbLine
 62
7
  6
CONTINUOUS
 10
-0.0865739367
 20
-26.926387086
 11
1.5151241663
 21
-26.1461492004
  0
LINE
  5
46E
100
AcDbEntity
  8
0
100
AcDbLine
 62
250
  6
CONTINUOUS
 10
1.208901164
 20
-24.7816871337
 11
2.2880752279
 21
-24.3286936962
  0
LINE
  5
46F
100
AcDbEntity
  8
0
100
AcDbLine
 62
7
  6
CONTINUOUS
 10
1.0676052848
 20
-25.0576310687
 11
2.1458076115
 21
-24.605045527
  0
LINE
  5
470
100
AcDbEntity
  8
RACCORDO
100
AcDbLine
 62
250
  6
CONTINUOUS
 10
-4.0709965689
 20
-26.8646311452
 11
-1.2002285783
 21
-25.7723307406
  0
LINE
  5
471
100
AcDbEntity
  8
RACCORDO
100
AcDbLine
 62
7
  6
CONTINUOUS
 10
-1.3629050162
 20
-26.0574928705
 11
-4.2377412788
 21
-27.1513408106
  0
LWPOLYLINE
  5
472
100
AcDbEntity
  8
0
100
AcDbPolyline
 62
7
  6
CONTINUOUS
 90
7
 70
0
 10
-3.3512788365
 20
23.5576566387
 10
-3.3396728165
 20
23.5601915631
 10
-3.3277064966
 20
23.5621353152
 10
-3.315386898
 20
23.5634765134
 10
-3.3027150115
 20
23.564195539
 10
-3.2897080252
 20
23.5642851361
 10
-3.2763708502
 20
23.563737326
  0
LINE
  5
473
100
AcDbEntity
  8
0
100
AcDbLine
 62
7
  6
CONTINUOUS
 10
-2.6306911578
 20
23.2618063889
 11
-2.6367309277
 21
23.2607956484
  0
LWPOLYLINE
  5
474
100
AcDbEntity
  8
0
100
AcDbPolyline
 62
7
  6
CONTINUOUS
 90
11
 70
0
 10
-3.2763708502
 20
23.563737326
 10
-3.262684656
 20
23.5625295714
 10
-3.2486760453
 20
23.5606592065
 10
-3.2343419604
 20
23.5581114954
 10
-3.2196149617
 20
23.5548402977
 10
-3.2044970599
 20
23.5508355508
 10
-3.1890087395
 20
23.5460810208
 10
-3.1731068245
 20
23.5405141403
 10
-3.1567944428
 20
23.534115672
 10
-3.1400976866
 20
23.5268720885
 10
-3.1221277196
 20
23.5182848678
  0
LINE
  5
475
100
AcDbEntity
  8
RACCORDO
100
AcDbLine
 62
7
  6
CONTINUOUS
 10
13.795251723
 20
19.410779343
 11
13.0687543343
 21
19.7740280374
  0
LINE
  5
476
100
AcDbEntity
  8
DRAFT
100
AcDbLine
 62
7
  6
CONTINUOUS
 10
13.6124220626
 20
19.5178540258
 11
13.3083026787
 21
19.6699137178
  0
LWPOLYLINE
  5
477
100
AcDbEntity
  8
DRAFT
100
AcDbPolyline
 62
7
  6
CONTINUOUS
 90
10
 70
0
 10
13.6124220626
 20
19.5178540258
 10
13.5810066082
 20
19.535906838
 10
13.5489896309
 20
19.5536741404
 10
13.5163711308
 20
19.571155933
 10
13.4831409401
 20
19.5883572997
 10
13.4493092265
 20
19.6052731565
 10
13.4149064932
 20
19.6218882518
 10
13.379942908
 20
19.6381975019
 10
13.3444083032
 20
19.6542059905
 10
13.3083026787
 20
19.6699137178
  0
LINE
  5
478
100
AcDbEntity
  8
RACCORDO
100
AcDbLine
 62
7
  6
CONTINUOUS
 10
13.2059930962
 20
18.9384843365
 11
13.1982346675
 21
18.9430708086
  0
LWPOLYLINE
  5
479
100
AcDbEntity
  8
RACCORDO
100
AcDbPolyline
 62
7
  6
CONTINUOUS
 90
35
 70
0
 10
18.4168908236
 20
17.8161299297
 10
18.5336643523
 20
17.7390278235
 10
18.6734610258
 20
17.6345141773
 10
18.8101988816
 20
17.5199855802
 10
18.9430643251
 20
17.3962690757
 10
19.0714497783
 20
17.2641223006
 10
19.1950313785
 20
17.1240548947
 10
19.3134115398
 20
16.976649391
 10
19.4261659229
 20
16.8225385014
 10
19.5328414889
 20
16.6624317174
 10
19.632998501
 20
16.4970759602
 10
19.7262144448
 20
16.3272581985
 10
19.8121675674
 20
16.1536401679
 10
19.8905829491
 20
15.9768022092
 10
19.9611496241
 20
15.7974116454
 10
20.0235242064
 20
15.6162770853
 10
20.0774089425
 20
15.4341817903
 10
20.1225456656
 20
15.2518772073
 10
20.1587045683
 20
15.0701003703
 10
20.1856803123
 20
14.8895769105
 10
20.2033001176
 20
14.7108744582
 10
20.2113730187
 20
14.5348779424
 10
20.2097729569
 20
14.3626977017
 10
20.1984255848
 20
14.1947817263
 10
20.1772909826
 20
14.03200479
 10
20.1465616285
 20
13.8759111496
 10
20.1064571362
 20
13.7271691848
 10
20.057130788
 20
13.5860762544
 10
19.9989356683
 20
13.4534101645
 10
19.9321272846
 20
13.3295128137
 10
19.857058571
 20
13.2148537155
 10
19.7744688655
 20
13.1102560774
 10
19.6850296945
 20
13.016128738
 10
19.5892053861
 20
12.9325481781
 10
19.4876139167
 20
12.8596992526
  0
LWPOLYLINE
  5
47A
100
AcDbEntity
  8
RACCORDO
100
AcDbPolyline
 62
250
  6
CONTINUOUS
 90
34
 70
0
 10
18.4168908236
 20
17.7375194088
 10
18.4949859143
 20
17.6820076053
 10
18.6321267843
 20
17.5725519961
 10
18.7666692759
 20
17.4530265226
 10
18.8979858547
 20
17.3239886738
 10
19.0254640133
 20
17.1860403255
 10
19.1485091501
 20
17.0398249149
 10
19.2665473455
 20
16.8860244361
 10
19.37902804
 20
16.725356254
 10
19.4854265946
 20
16.5585697667
 10
19.5852467377
 20
16.3864429111
 10
19.678022879
 20
16.2097785364
 10
19.7633222843
 20
16.0294006555
 10
19.8407470931
 20
15.8461506016
 10
19.9099361749
 20
15.6608831037
 10
19.9705668126
 20
15.4744623007
 10
20.0223562081
 20
15.2877577109
 10
20.0650628011
 20
15.1016401767
 10
20.0984873961
 20
14.9169778024
 10
20.1224740916
 20
14.7346319046
 10
20.1369110069
 20
14.5554529956
 10
20.1417308042
 20
14.3802768156
 10
20.1369110026
 20
14.2099204351
 10
20.122474083
 20
14.0451784439
 10
20.0984873833
 20
13.8868192446
 10
20.0650627839
 20
13.7355814684
 10
20.0223561867
 20
13.5921705306
 10
19.970566787
 20
13.45725534
 10
19.9099361453
 20
13.3314651787
 10
19.8407470595
 20
13.2153867669
 10
19.7633222468
 20
13.1095615265
 10
19.6780228377
 20
13.0144830556
 10
19.5852466927
 20
12.9305948272
 10
19.4876139167
 20
12.8596992526
  0
LWPOLYLINE
  5
47B
100
AcDbEntity
  8
RACCORDO
100
AcDbPolyline
 62
250
  6
CONTINUOUS
 90
5
 70
0
 10
13.2361787348
 20
18.9304031536
 10
13.2607017251
 20
18.9098987752
 10
13.2850674868
 20
18.8886205108
 10
13.3092042369
 20
18.8665582335
 10
13.3173530644
 20
18.8587442639
  0
LWPOLYLINE
  5
47C
100
AcDbEntity
  8
RACCORDO
100
AcDbPolyline
 62
250
  6
CONTINUOUS
 90
4
 70
0
 10
13.1425421356
 20
18.9241071451
 10
13.165402565
 20
18.9045284117
 10
13.1879801033
 20
18.8841753652
 10
13.2102747505
 20
18.8630480055
  0
LINE
  5
47D
100
AcDbEntity
  8
RACCORDO
100
AcDbLine
 62
250
  6
CONTINUOUS
 10
17.405789949
 20
20.0314585442
 11
17.82533316
 21
19.3078535427
  0
LWPOLYLINE
  5
47E
100
AcDbEntity
  8
RACCORDO
100
AcDbPolyline
 62
250
  6
CONTINUOUS
 90
13
 70
0
 10
17.82533316
 20
19.3078535427
 10
17.8771024094
 20
19.2142730253
 10
17.9251457599
 20
19.1185535707
 10
17.9692574823
 20
19.0211050643
 10
18.0092486835
 20
18.9223447951
 10
18.0449481148
 20
18.8226956701
 10
18.0762029051
 20
18.7225844034
 10
18.1028792167
 20
18.6224396867
 10
18.1248628176
 20
18.5226903551
 10
18.1420595704
 20
18.4237635516
 10
18.1543958362
 20
18.3260828964
 10
18.1618187894
 20
18.2300666726
 10
18.1642966439
 20
18.1361260363
  0
LWPOLYLINE
  5
47F
100
AcDbEntity
  8
0
100
AcDbPolyline
 62
7
  6
CONTINUOUS
 90
3
 70
0
 10
-12.1040284012
 20
23.5869454184
 10
-12.1349483131
 20
23.5797721646
 10
-12.1648345411
 20
23.5686833826
  0
LINE
  5
480
100
AcDbEntity
  8
DRAFT
100
AcDbLine
 62
7
  6
CONTINUOUS
 10
16.0070220964
 20
20.1496404376
 11
12.8947845236
 21
21.705759224
  0
LINE
  5
481
100
AcDbEntity
  8
RACCORDO
100
AcDbLine
 62
250
  6
CONTINUOUS
 10
17.405789949
 20
20.0314585442
 11
16.600118013
 21
20.4342945122
  0
LINE
  5
482
100
AcDbEntity
  8
RACCORDO
100
AcDbLine
 62
250
  6
CONTINUOUS
 10
11.8984549339
 20
22.7851260517
 11
10.9272961002
 21
23.2707054686
  0
LINE
  5
483
100
AcDbEntity
  8
RACCORDO
100
AcDbLine
 62
7
  6
CONTINUOUS
 10
17.7360653266
 20
20.0821406483
 11
16.9103064265
 21
20.4950200984
  0
LINE
  5
484
100
AcDbEntity
  8
RACCORDO
100
AcDbLine
 62
7
  6
CONTINUOUS
 10
12.3710377054
 20
22.7646544589
 11
11.3186816927
 21
23.2908324652
  0
LWPOLYLINE
  5
485
100
AcDbEntity
  8
RACCORDO
100
AcDbPolyline
 62
7
  6
CONTINUOUS
 90
4
 70
0
 10
17.7379908785
 20
20.081177675
 10
17.7516343546
 20
20.0733629331
 10
17.7751700511
 20
20.0539906547
 10
17.7953481938
 20
20.0271128231
  0
LWPOLYLINE
  5
486
100
AcDbEntity
  8
RACCORDO
100
AcDbPolyline
 62
250
  6
CONTINUOUS
 90
12
 70
0
 10
18.1428920839
 20
19.4276420644
 10
18.1415329472
 20
19.4292391785
 10
18.1336140291
 20
19.4317607816
 10
18.1199694367
 20
19.4308919724
 10
18.10070072
 20
19.4266392171
 10
18.075951287
 20
19.4190341668
 10
18.045905336
 20
19.4081334222
 10
18.0107864846
 20
19.3940181126
 10
17.9708561055
 20
19.3767932915
 10
17.9264113816
 20
19.3565871551
 10
17.8777830937
 20
19.3335500882
 10
17.825333159
 20
19.3078535445
  0
LINE
  5
487
100
AcDbEntity
  8
RACCORDO
100
AcDbLine
 62
7
  6
CONTINUOUS
 10
17.7960543134
 20
20.0258487303
 11
18.1428920839
 21
19.4276420644
  0
ELLIPSE
  5
488
100
AcDbEntity
  8
RACCORDO
100
AcDbEllipse
 62
7
  6
CONTINUOUS
 10
0.0448039664
 20
12.5648852571
 30
0.0
 11
-0.1996736685
 21
0.4584064956
 31
0.0
 40
0.6381227599
 41
-2.2220345828
 42
-0.6519234887
  0
ELLIPSE
  5
489
100
AcDbEntity
  8
RACCORDO
100
AcDbEllipse
 62
7
  6
CONTINUOUS
 10
-1.5538904808
 20
-25.5951906964
 30
0.0
 11
-0.1999840611
 21
0.4586318226
 31
0.0
 40
0.6372798266
 41
-3.1720661614
 42
-2.2231487507
  0
ELLIPSE
  5
48A
100
AcDbEntity
  8
RACCORDO
100
AcDbEllipse
 62
7
  6
CONTINUOUS
 10
-14.8041960476
 20
19.9893852642
 30
0.0
 11
-0.1999840611
 21
0.4586318226
 31
0.0
 40
0.6372798266
 41
-0.6516671913
 42
0.0303399174
  0
ELLIPSE
  5
48B
100
AcDbEntity
  8
0
100
AcDbEllipse
 62
7
  6
CONTINUOUS
 10
10.8203284613
 20
19.9685355446
 30
0.0
 11
3.3311333813
 21
-0.0467042088
 31
0.0
 40
0.4892378494
 41
-2.4679914484
 42
-0.7772130249
  0
ELLIPSE
  5
48C
100
AcDbEntity
  8
DRAFT
100
AcDbEllipse
 62
7
  6
CONTINUOUS
 10
11.5158187224
 20
18.6752757279
 30
0.0
 11
2.7583300471
 21
-0.038763314
 31
0.0
 40
0.4892375088
 41
0.4291477653
 42
0.6564870977
  0
ELLIPSE
  5
48D
100
AcDbEntity
  8
DRAFT
100
AcDbEllipse
 62
7
  6
CONTINUOUS
 10
10.8440672803
 20
18.7867734119
 30
0.0
 11
2.7499350056
 21
-0.0386453369
 31
0.0
 40
0.4892375088
 41
8.654981679
 42
9.2596989469
  0
ELLIPSE
  5
48E
100
AcDbEntity
  8
DRAFT
100
AcDbEllipse
 62
7
  6
CONTINUOUS
 10
11.5158187224
 20
18.6752757279
 30
0.0
 11
2.7583300471
 21
-0.038763314
 31
0.0
 40
0.4892375088
 41
0.9280596999
 42
2.3630697256
  0
ELLIPSE
  5
48F
100
AcDbEntity
  8
RACCORDO
100
AcDbEllipse
 62
7
  6
CONTINUOUS
 10
16.2215329535
 20
19.8331762449
 30
0.0
 11
0.716172246
 21
0.6416715914
 31
0.0
 40
0.2882345029
 41
0.1142323894
 42
0.7807533904
  0
ELLIPSE
  5
490
100
AcDbEntity
  8
DRAFT
100
AcDbEllipse
 62
7
  6
CONTINUOUS
 10
11.5158187224
 20
20.6199864391
 30
0.0
 11
2.7583515655
 21
-1.4175703156
 31
0.0
 40
0.0109499087
 41
-0.9155571536
 42
-0.85781018
  0
ELLIPSE
  5
491
100
AcDbEntity
  8
DRAFT
100
AcDbEllipse
 62
7
  6
CONTINUOUS
 10
11.5158187224
 20
20.6199864391
 30
0.0
 11
2.7583515655
 21
-1.4175703156
 31
0.0
 40
0.0109499087
 41
-0.7017315251
 42
-0.6439845515
  0
ELLIPSE
  5
492
100
AcDbEntity
  8
DRAFT
100
AcDbEllipse
 62
7
  6
CONTINUOUS
 10
11.5158187224
 20
19.1082884298
 30
0.0
 11
2.7583300471
 21
-0.038763314
 31
0.0
 40
0.4892375088
 41
0.1708839954
 42
2.3630697256
  0
ELLIPSE
  5
493
100
AcDbEntity
  8
RACCORDO
100
AcDbEllipse
 62
7
  6
CONTINUOUS
 10
12.2548267064
 20
21.8165293685
 30
0.0
 11
-0.2796057293
 21
0.9974617846
 31
0.0
 40
0.6760995073
 41
4.8467711056
 42
6.4001141399
  0
ELLIPSE
  5
494
100
AcDbEntity
  8
0
100
AcDbEllipse
 62
7
  6
CONTINUOUS
 10
10.8203284613
 20
19.9685355446
 30
0.0
 11
3.3311333813
 21
-0.0467042088
 31
0.0
 40
0.4892378494
 41
2.3616770883
 42
3.6719184414
  0
ELLIPSE
  5
495
100
AcDbEntity
  8
0
100
AcDbEllipse
 62
7
  6
CONTINUOUS
 10
-3.4086359978
 20
23.1025226746
 30
0.0
 11
0.2257019663
 21
0.4461636818
 31
0.0
 40
0.6159267166
 41
0.5882567743
 42
0.6817883054
  0
ELLIPSE
  5
496
100
AcDbEntity
  8
RACCORDO
100
AcDbEllipse
 62
7
  6
CONTINUOUS
 10
7.7215549538
 20
18.2313392514
 30
0.0
 11
0.499996712
 21
0.0035883639
 31
0.0
 40
0.5053247124
 41
-0.7715714568
 42
-0.0038735433
  0
ELLIPSE
  5
497
100
AcDbEntity
  8
0
100
AcDbEllipse
 62
7
  6
CONTINUOUS
 10
-4.0473905046
 20
19.1054360052
 30
0.0
 11
-0.0909679979
 21
0.1781462259
 31
0.0
 40
0.6079022756
 41
-0.6898048156
 42
-0.0128958448
  0
ELLIPSE
  5
498
100
AcDbEntity
  8
0
100
AcDbEllipse
 62
7
  6
CONTINUOUS
 10
4.3010832926
 20
19.886241728
 30
0.0
 11
0.4547905863
 21
0.8906238433
 31
0.0
 40
0.6079814556
 41
0.0051546174
 42
0.6840559135
  0
ELLIPSE
  5
499
100
AcDbEntity
  8
ASSI
100
AcDbEllipse
 62
7
  6
CONTINUOUS
 10
-3.6096171188
 20
23.8415919337
 30
0.0
 11
1.004787277
 21
0.6140102217
 31
0.0
 40
0.0864918533
 41
0.0544314379
 42
0.7329085821
  0
ELLIPSE
  5
49A
100
AcDbEntity
  8
ASSI
100
AcDbEllipse
 62
7
  6
CONTINUOUS
 10
7.9736355403
 20
-18.9050478205
 30
0.0
 11
0.9927147821
 21
0.620457446
 31
0.0
 40
0.0764819879
 41
-2.4043514965
 42
-1.3666868807
  0
ELLIPSE
  5
49B
100
AcDbEntity
  8
ASSI
100
AcDbEllipse
 62
7
  6
CONTINUOUS
 10
26.3838666596
 20
-8.4315574418
 30
0.0
 11
24.0955625974
 21
12.2610436036
 31
0.0
 40
0.0085648092
 41
-2.9166229256
 42
-2.803161766
  0
ELLIPSE
  5
49C
100
AcDbEntity
  8
ASSI
100
AcDbEllipse
 62
7
  6
CONTINUOUS
 10
26.3838666596
 20
22.2257418522
 30
0.0
 11
24.0955625974
 21
12.2610436036
 31
0.0
 40
0.0085648092
 41
2.794445403
 42
2.9079065627
  0
ELLIPSE
  5
49D
100
AcDbEntity
  8
ASSI
100
AcDbEllipse
 62
7
  6
CONTINUOUS
 10
26.3838666596
 20
21.5329215291
 30
0.0
 11
24.0955625974
 21
12.2610436036
 31
0.0
 40
0.0085648092
 41
-2.9166229256
 42
-2.803161766
  0
ELLIPSE
  5
49E
100
AcDbEntity
  8
ASSI
100
AcDbEllipse
 62
7
  6
CONTINUOUS
 10
26.3838666596
 20
-7.7387371188
 30
0.0
 11
24.0955625974
 21
12.2610436036
 31
0.0
 40
0.0085648092
 41
2.794445403
 42
2.9079065627
  0
ELLIPSE
  5
49F
100
AcDbEntity
  8
0
100
AcDbEllipse
 62
7
  6
CONTINUOUS
 10
2.6354443284
 20
-23.7904239405
 30
0.0
 11
-0.2236315662
 21
0.4472293059
 31
0.0
 40
0.6123445654
 41
-3.1338150222
 42
-2.2555748796
  0
ELLIPSE
  5
4A0
100
AcDbEntity
  8
0
100
AcDbEllipse
 62
7
  6
CONTINUOUS
 10
2.6354443284
 20
14.1313973123
 30
0.0
 11
-0.223611546
 21
0.4472115081
 31
0.0
 40
0.6124054886
 41
-2.2555017776
 42
-0.6847562194
  0
ELLIPSE
  5
4A1
100
AcDbEntity
  8
0
100
AcDbEllipse
 62
7
  6
CONTINUOUS
 10
-5.7565736416
 20
19.9600275737
 30
0.0
 11
-0.090948378
 21
0.1781282571
 31
0.0
 40
0.6080538059
 41
-2.2606249166
 42
-0.6898793584
  0
ELLIPSE
  5
4A2
100
AcDbEntity
  8
0
100
AcDbEllipse
 62
7
  6
CONTINUOUS
 10
2.2033377982
 20
20.2965357765
 30
0.0
 11
0.2273952932
 21
0.4453119217
 31
0.0
 40
0.6079814556
 41
0.2357074224
 42
0.6840559135
  0
ELLIPSE
  5
4A3
100
AcDbEntity
  8
ASSI
100
AcDbEllipse
 62
7
  6
CONTINUOUS
 10
7.7215549538
 20
-19.1618571508
 30
0.0
 11
0.499443764
 21
0.3120915671
 31
0.0
 40
0.0755486457
 41
-0.0466009711
 42
0.720771186
  0
ELLIPSE
  5
4A4
100
AcDbEntity
  8
0
100
AcDbEllipse
 62
7
  6
CONTINUOUS
 10
-4.9579126459
 20
17.4332794618
 30
0.0
 11
0.199943508
 21
0.008945986
 31
0.0
 40
0.5313301283
 41
3.1178423524
 42
3.9032222197
  0
ELLIPSE
  5
4A5
100
AcDbEntity
  8
0
100
AcDbEllipse
 62
7
  6
CONTINUOUS
 10
-6.6586821874
 20
18.2836642326
 30
0.0
 11
0.199943508
 21
0.008945986
 31
0.0
 40
0.5313301283
 41
-2.3799630874
 42
-0.8178934069
  0
ELLIPSE
  5
4A6
100
AcDbEntity
  8
0
100
AcDbEllipse
 62
7
  6
CONTINUOUS
 10
-1.1716027246
 20
14.8252559142
 30
0.0
 11
0.249929385
 21
0.0111824824
 31
0.0
 40
0.5313301283
 41
3.1178197826
 42
3.9032222197
  0
ELLIPSE
  5
4A7
100
AcDbEntity
  8
0
100
AcDbEllipse
 62
7
  6
CONTINUOUS
 10
-2.789066845
 20
22.7927380981
 30
0.0
 11
0.2197467797
 21
0.4491356978
 31
0.0
 40
0.6167074461
 41
0.2252343201
 42
0.6735828111
  0
ELLIPSE
  5
4A8
100
AcDbEntity
  8
0
100
AcDbEllipse
 62
7
  6
CONTINUOUS
 10
-3.0548840117
 20
64.9240121641
 30
0.0
 11
-0.3192264997
 21
45.1189143812
 31
0.0
 40
0.0071249215
 41
3.4474731796
 42
3.5354687861
  0
ELLIPSE
  5
4A9
100
AcDbEntity
  8
0
100
AcDbEllipse
 62
7
  6
CONTINUOUS
 10
-13.4752607172
 20
20.9770849106
 30
0.0
 11
0.249929385
 21
0.0111824824
 31
0.0
 40
0.5313301283
 41
3.1178197826
 42
3.9032222197
  0
ELLIPSE
  5
4AA
100
AcDbEntity
  8
0
100
AcDbEllipse
 62
7
  6
CONTINUOUS
 10
-11.788494993
 20
20.1337020485
 30
0.0
 11
0.249929385
 21
0.0111824824
 31
0.0
 40
0.5313301283
 41
-2.3799630874
 42
-0.8149845248
  0
ELLIPSE
  5
4AB
100
AcDbEntity
  8
RACCORDO
100
AcDbEllipse
 62
7
  6
CONTINUOUS
 10
-0.7222997883
 20
-9.7837331563
 30
0.0
 11
-0.1571758788
 21
0.2571581498
 31
0.0
 40
0.5601087126
 41
-2.9466728429
 42
-2.3018722735
  0
ELLIPSE
  5
4AC
100
AcDbEntity
  8
0
100
AcDbEllipse
 62
7
  6
CONTINUOUS
 10
2.5355626013
 20
19.210769988
 30
0.0
 11
0.4530414621
 21
-0.0021419047
 31
0.0
 40
0.4964289597
 41
-0.77723337
 42
0.0023234052
  0
ELLIPSE
  5
4AD
100
AcDbEntity
  8
0
100
AcDbEllipse
 62
7
  6
CONTINUOUS
 10
-2.3435108286
 20
21.336475738
 30
0.0
 11
1.0205811965
 21
-0.0048251373
 31
0.0
 40
0.4964289597
 41
1.3061600176
 42
2.3584907469
  0
ELLIPSE
  5
4AE
100
AcDbEntity
  8
0
100
AcDbEllipse
 62
7
  6
CONTINUOUS
 10
-3.0548840117
 20
22.0059932945
 30
0.0
 11
0.4530414621
 21
-0.0021419047
 31
0.0
 40
0.4964289597
 41
-0.4806702637
 42
0.0023660984
  0
ELLIPSE
  5
4AF
100
AcDbEntity
  8
0
100
AcDbEllipse
 62
7
  6
CONTINUOUS
 10
-14.1689450255
 20
20.7021968072
 30
0.0
 11
-0.2234618187
 21
0.4480306886
 31
0.0
 40
0.6116748051
 41
-0.6831523234
 42
0.886730614
  0
ELLIPSE
  5
4B0
100
AcDbEntity
  8
0
100
AcDbEllipse
 62
7
  6
CONTINUOUS
 10
-8.2819369853
 20
20.3198286896
 30
0.0
 11
0.0907039967
 21
0.1782526758
 31
0.0
 40
0.6176975122
 41
0.6948951487
 42
2.2598737113
  0
ELLIPSE
  5
4B1
100
AcDbEntity
  8
0
100
AcDbEllipse
 62
7
  6
CONTINUOUS
 10
0.5151629997
 20
13.9818730521
 30
0.0
 11
0.249929385
 21
0.0111824824
 31
0.0
 40
0.5313301283
 41
-2.3799630874
 42
-0.8149845248
  0
ELLIPSE
  5
4B2
100
AcDbEntity
  8
0
100
AcDbEllipse
 62
7
  6
CONTINUOUS
 10
51.9258608805
 20
44.5602588644
 30
0.0
 11
60.4168605605
 21
30.5632322457
 31
0.0
 40
0.005706723
 41
2.5167363259
 42
2.6876789752
  0
ELLIPSE
  5
4B3
100
AcDbEntity
  8
0
100
AcDbEllipse
 62
7
  6
CONTINUOUS
 10
2.822906951
 20
19.9867512001
 30
0.0
 11
0.221538876
 21
0.4482453432
 31
0.0
 40
0.6088015717
 41
0.5825560023
 42
0.6760875334
  0
ELLIPSE
  5
4B4
100
AcDbEntity
  8
0
100
AcDbEllipse
 62
7
  6
CONTINUOUS
 10
51.9258608805
 20
44.5602588644
 30
0.0
 11
60.4168605605
 21
30.5632322457
 31
0.0
 40
0.005706723
 41
-2.6934527084
 42
-2.5225100591
  0
ELLIPSE
  5
4B5
100
AcDbEntity
  8
ASSI
100
AcDbEllipse
 62
7
  6
CONTINUOUS
 10
7.7215549538
 20
19.2659623022
 30
0.0
 11
-0.3739417019
 21
0.598522373
 31
0.0
 40
0.554557473
 41
-3.1836090632
 42
-2.4162040327
  0
ELLIPSE
  5
4B6
100
AcDbEntity
  8
0
100
AcDbEllipse
 62
7
  6
CONTINUOUS
 10
0.8552939173
 20
-24.6044874588
 30
0.0
 11
-0.2234618187
 21
0.4480306886
 31
0.0
 40
0.6116748051
 41
2.4584403302
 42
4.0283232676
  0
ELLIPSE
  5
4B7
100
AcDbEntity
  8
0
100
AcDbEllipse
 62
7
  6
CONTINUOUS
 10
0.8552939173
 20
13.1900773358
 30
0.0
 11
-0.2230998035
 21
0.4477110033
 31
0.0
 40
0.6127700112
 41
-2.2535417632
 42
-0.6836588258
  0
ELLIPSE
  5
4B8
100
AcDbEntity
  8
0
100
AcDbEllipse
 62
7
  6
CONTINUOUS
 10
0.0629351289
 20
22.0053158099
 30
0.0
 11
0.4394935595
 21
0.8982713957
 31
0.0
 40
0.6167074461
 41
5.3917895557
 42
6.9567681183
  0
ELLIPSE
  5
4B9
100
AcDbEntity
  8
RACCORDO
100
AcDbEllipse
 62
7
  6
CONTINUOUS
 10
-1.0354020422
 20
-19.4841966021
 30
0.0
 11
-0.313181275
 21
0.626269159
 31
0.0
 40
0.6121897086
 41
-3.1606751969
 42
-2.2557347926
  0
ELLIPSE
  5
4BA
100
AcDbEntity
  8
ASSI
100
AcDbEllipse
 62
7
  6
CONTINUOUS
 10
7.9736355403
 20
18.0499656042
 30
0.0
 11
-0.7356038977
 21
1.2035991204
 31
0.0
 40
0.5552491559
 41
5.1980061968
 42
6.2356708126
  0
ENDSEC
  0
SECTION
  2
OBJECTS
  0
DICTIONARY
  5
C
100
AcDbDictionary
280
0
281
1
  3
ACAD_GROUP
350
D
  3
ACAD_MLINESTYLE
350
17
  3
ACAD_LAYOUT
350
1A
  3
ACAD_PLOTSETTINGS
350
19
  3
ACAD_PLOTSTYLENAME
350
E
  0
DICTIONARY
  5
D
102
{ACAD_REACTORS
330
C
102
}
100
AcDbDictionary
280
0
281
1
  0
ACDBDICTIONARYWDFLT
  5
E
102
{ACAD_REACTORS
330
C
102
}
100
AcDbDictionary
281
1
  3
Normal
350
F
100
AcDbDictionaryWithDefault
340
F
  0
DICTIONARY
  5
17
102
{ACAD_REACTORS
330
C
102
}
100
AcDbDictionary
280
0
281
1
  3
Standard
350
18
  0
DICTIONARY
  5
19
102
{ACAD_REACTORS
330
C
102
}
100
AcDbDictionary
281
1
  0
DICTIONARY
  5
1A
102
{ACAD_REACTORS
330
C
102
}
100
AcDbDictionary
281
1
  3
Model
350
4BB
  3
Layout1
350
4BC
  0
ACDBPLACEHOLDER
  5
F
102
{ACAD_REACTORS
330
E
102
}
  0
MLINESTYLE
  5
18
102
{ACAD_REACTORS
330
17
102
}
100
AcDbMlineStyle
  2
STANDARD
 70
0
  3

 62
256
 51
90.0
 52
90.0
 71
2
 49
0.5
 62
256
  6
BYLAYER
 49
-0.5
 62
256
  6
BYLAYER
  0
LAYOUT
  5
4BB
102
{ACAD_REACTORS
330
1A
102
}
100
AcDbPlotSettings
  1

  2
none_device
  4
ISO_A4_(297.00_x_210.00_MM)
  6

 40
0.0
 41
0.0
 42
0.0
 43
0.0
 44
297.0
 45
210.0
 46
0.0
 47
0.0
 48
0.0
 49
0.0
140
0.0
141
0.0
142
1.0
143
1.0
 70
1024
 72
1
 73
0
 74
0
  7

 75
0
147
1.0
148
0.0
149
0.0
100
AcDbLayout
  1
Model
 70
0
 71
0
 10
0.0
 20
0.0
 11
297.0
 21
210.0
 12
0.0
 22
0.0
 32
0.0
 14
0.0
 24
0.0
 34
0.0
 15
0.0
 25
0.0
 35
0.0
146
0.0
 13
0.0
 23
0.0
 33
0.0
 16
1.0
 26
0.0
 36
0.0
 17
0.0
 27
1.0
 37
0.0
 76
0
330
225
345
0
346
0
  0
LAYOUT
  5
4BC
102
{ACAD_REACTORS
330
1A
102
}
100
AcDbPlotSettings
  1

  2
none_device
  4
ISO_A4_(297.00_x_210.00_MM)
  6

 40
0.0
 41
0.0
 42
0.0
 43
0.0
 44
297.0
 45
210.0
 46
0.0
 47
0.0
 48
0.0
 49
0.0
140
0.0
141
0.0
142
1.0
143
1.0
 70
0
 72
1
 73
0
 74
0
  7

 75
0
147
1.0
148
0.0
149
0.0
100
AcDbLayout
  1
Layout1
 70
0
 71
1
 10
0.0
 20
0.0
 11
297.0
 21
210.0
 12
0.0
 22
0.0
 32
0.0
 14
0.0
 24
0.0
 34
0.0
 15
0.0
 25
0.0
 35
0.0
146
0.0
 13
0.0
 23
0.0
 33
0.0
 16
1.0
 26
0.0
 36
0.0
 17
0.0
 27
1.0
 37
0.0
 76
0
330
226
345
0
346
0
  0
ENDSEC
  0
EOF
