  0
SECTION
  2
HEADER
  9
$ACADVER
  1
AC1024
  9
$DWGCODEPAGE
  3
ANSI_1252
  9
$EXTMAX
 10
558.8
 20
431.8
 30
0.0
  9
$EXTMIN
 10
0.0
 20
0.0
 30
0.0
  9
$LIMMIN
 10
0.0
 20
0.0
  9
$LIMMAX
 10
558.8
 20
431.8
  9
$VIEWCTR
 10
279.4
 20
215.9
  9
$VIEWSIZE
 40
431.8
  9
$CLAYER
  8
0
  9
$LTSCALE
 40
30.734
  9
$CELTYPE
  6
BYLAYER
  9
$DIMSCALE
 40
1.0
  9
$DIMASZ
 40
3.0
  9
$DIMEXO
 40
0.5
  9
$DIMDLI
 40
21.2344
  9
$DIMEXE
 40
1.5
  9
$DIMCEN
 40
5.0292
  9
$DIMLFAC
 40
1.0
  9
$DIMBLK
  1
_FILLED
  9
$DIMALT
 70
0
  9
$DIMALTF
 40
0.0393700787
  9
$DIMTXT
 40
3.0
  9
$DIMTOL
 70
1
  9
$DIMLIM
 70
0
  9
$DIMTFAC
 40
1.0
  9
$DIMTP
 40
0.01
  9
$DIMTM
 40
0.01
  9
$DIMGAP
 40
0.625
  9
$DIMDSEP
 70
44
  9
$AUNITS
 70
0
  9
$PDMODE
 70
3
  9
$PDSIZE
 40
3.0
  9
$HANDSEED
  5
4E6
  9
$TILEMODE
 70
1
  9
$MEASUREMENT
 70
1
  9
$INSUNITS
 70
4
  0
ENDSEC
  0
SECTION
  2
CLASSES
  0
CLASS
  1
ACDBDICTIONARYWDFLT
  2
AcDbDictionaryWithDefault
  3
AutoCAD 2000
 90
0
 91
1
280
0
281
0
  0
CLASS
  1
ACDBPLACEHOLDER
  2
AcDbPlaceHolder
  3
AutoCAD 2000
 90
0
 91
1
280
0
281
0
  0
CLASS
  1
LAYOUT
  2
AcDbLayout
  3
AutoCAD 2000
 90
0
 91
0
280
0
281
0
  0
ENDSEC
  0
SECTION
  2
TABLES
  0
TABLE
  2
VPORT
  5
8
100
AcDbSymbolTable
 70
2
  0
VPORT
  5
1F4
100
AcDbSymbolTableRecord
100
AcDbViewportTableRecord
  2
*ACTIVE
 70
0
 10
0.0
 20
0.0
 11
1.0
 21
1.0
 12
279.4
 22
215.9
 13
0.0
 23
0.0
 14
1.0
 24
1.0
 15
0.0
 25
0.0
 16
0.0
 26
0.0
 36
1.0
 17
0.0
 27
0.0
 37
0.0
 40
431.8
 41
1.2941176471
 42
50.0
 43
0.0
 44
0.0
 50
0.0
 51
0.0
 71
0
 72
100
 73
1
 74
1
 75
0
 76
0
 77
0
 78
0
  0
ENDTAB
  0
TABLE
  2
LTYPE
  5
5
100
AcDbSymbolTable
 70
6
  0
LTYPE
  5
14
100
AcDbSymbolTableRecord
100
AcDbLinetypeTableRecord
  2
BYBLOCK
 70
0
  3

 72
65
 73
0
 40
0.0
  0
LTYPE
  5
15
100
AcDbSymbolTableRecord
100
AcDbLinetypeTableRecord
  2
BYLAYER
 70
0
  3

 72
65
 73
0
 40
0.0
  0
LTYPE
  5
16
100
AcDbSymbolTableRecord
100
AcDbLinetypeTableRecord
  2
CONTINUOUS
 70
64
  3
Solid line
 72
65
 73
0
 40
0.0
  0
LTYPE
  5
1F5
100
AcDbSymbolTableRecord
100
AcDbLinetypeTableRecord
  2
CENTER
 70
64
  3
____ _ ____ _ ____ _ ____ _ ____ _ ____ _ ____
 72
65
 73
4
 40
0.6
 49
0.375
 74
0
 49
-0.075
 74
0
 49
0.075
 74
0
 49
-0.075
 74
0
  0
LTYPE
  5
1F6
100
AcDbSymbolTableRecord
100
AcDbLinetypeTableRecord
  2
HIDDEN
 70
64
  3
- - - - - - - - - - - - - - - - - - - -
 72
65
 73
2
 40
0.2
 49
0.1
 74
0
 49
-0.1
 74
0
  0
LTYPE
  5
1F7
100
AcDbSymbolTableRecord
100
AcDbLinetypeTableRecord
  2
PHANTOM
 70
64
  3
_____ _ _ _____ _ _ _____ _ _ _____
 72
65
 73
6
 40
0.8
 49
0.45
 74
0
 49
-0.05
 74
0
 49
0.1
 74
0
 49
-0.05
 74
0
 49
0.1
 74
0
 49
-0.05
 74
0
  0
LTYPE
  5
1F8
100
AcDbSymbolTableRecord
100
AcDbLinetypeTableRecord
  2
DOT
 70
64
  3
. . . . . . . . . . . . . . . . . . . .
 72
65
 73
2
 40
0.2
 49
0.1
 74
0
 49
-0.1
 74
0
  0
LTYPE
  5
1F9
100
AcDbSymbolTableRecord
100
AcDbLinetypeTableRecord
  2
DASHED
 70
64
  3
- - - - - - - - - - - - - - - - - - - -
 72
65
 73
2
 40
0.2
 49
0.1
 74
0
 49
-0.1
 74
0
  0
ENDTAB
  0
TABLE
  2
LAYER
  5
2
100
AcDbSymbolTable
 70
36
  0
LAYER
  5
10
100
AcDbSymbolTableRecord
100
AcDbLayerTableRecord
  2
0
 70
0
 62
7
  6
CONTINUOUS
370
-3
390
F
  0
LAYER
  5
1FA
100
AcDbSymbolTableRecord
100
AcDbLayerTableRecord
  2
DEFAULT_1
 70
0
 62
7
  6
CENTER
370
-3
390
F
  0
LAYER
  5
1FB
100
AcDbSymbolTableRecord
100
AcDbLayerTableRecord
  2
DEFAULT_2
 70
0
 62
7
  6
HIDDEN
370
-3
390
F
  0
LAYER
  5
1FC
100
AcDbSymbolTableRecord
100
AcDbLayerTableRecord
  2
DEFAULT_3
 70
0
 62
7
  6
PHANTOM
370
-3
390
F
  0
LAYER
  5
1FD
100
AcDbSymbolTableRecord
100
AcDbLayerTableRecord
  2
ASSI
 70
0
 62
7
  6
CONTINUOUS
370
-3
390
F
  0
LAYER
  5
1FE
100
AcDbSymbolTableRecord
100
AcDbLayerTableRecord
  2
COLOR9
 70
0
 62
7
  6
CONTINUOUS
370
-3
390
F
  0
LAYER
  5
1FF
100
AcDbSymbolTableRecord
100
AcDbLayerTableRecord
  2
COLORE_TOP
 70
0
 62
7
  6
CONTINUOUS
370
-3
390
F
  0
LAYER
  5
200
100
AcDbSymbolTableRecord
100
AcDbLayerTableRecord
  2
COORDINATE
 70
0
 62
7
  6
CONTINUOUS
370
-3
390
F
  0
LAYER
  5
201
100
AcDbSymbolTableRecord
100
AcDbLayerTableRecord
  2
COORD_ORIGINE
 70
0
 62
7
  6
CONTINUOUS
370
-3
390
F
  0
LAYER
  5
202
100
AcDbSymbolTableRecord
100
AcDbLayerTableRecord
  2
COPY
 70
0
 62
7
  6
CONTINUOUS
370
-3
390
F
  0
LAYER
  5
203
100
AcDbSymbolTableRecord
100
AcDbLayerTableRecord
  2
COPY-PUBBLISH
 70
0
 62
7
  6
CONTINUOUS
370
-3
390
F
  0
LAYER
  5
204
100
AcDbSymbolTableRecord
100
AcDbLayerTableRecord
  2
COSMETICHE
 70
0
 62
7
  6
CONTINUOUS
370
-3
390
F
  0
LAYER
  5
205
100
AcDbSymbolTableRecord
100
AcDbLayerTableRecord
  2
COSMETICI
 70
0
 62
7
  6
CONTINUOUS
370
-3
390
F
  0
LAYER
  5
206
100
AcDbSymbolTableRecord
100
AcDbLayerTableRecord
  2
CURVE
 70
0
 62
7
  6
CONTINUOUS
370
-3
390
F
  0
LAYER
  5
207
100
AcDbSymbolTableRecord
100
AcDbLayerTableRecord
  2
DRAFT
 70
0
 62
7
  6
CONTINUOUS
370
-3
390
F
  0
LAYER
  5
208
100
AcDbSymbolTableRecord
100
AcDbLayerTableRecord
  2
IGES
 70
0
 62
7
  6
CONTINUOUS
370
-3
390
F
  0
LAYER
  5
209
100
AcDbSymbolTableRecord
100
AcDbLayerTableRecord
  2
IMPIANTO
 70
0
 62
7
  6
CONTINUOUS
370
-3
390
F
  0
LAYER
  5
20A
100
AcDbSymbolTableRecord
100
AcDbLayerTableRecord
  2
IMPORTED
 70
0
 62
7
  6
CONTINUOUS
370
-3
390
F
  0
LAYER
  5
20B
100
AcDbSymbolTableRecord
100
AcDbLayerTableRecord
  2
INTFCLR_3
 70
0
 62
7
  6
CONTINUOUS
370
-3
390
F
  0
LAYER
  5
20C
100
AcDbSymbolTableRecord
100
AcDbLayerTableRecord
  2
INTF_1
 70
0
 62
7
  6
CONTINUOUS
370
-3
390
F
  0
LAYER
  5
20D
100
AcDbSymbolTableRecord
100
AcDbLayerTableRecord
  2
INTF_12
 70
0
 62
7
  6
CONTINUOUS
370
-3
390
F
  0
LAYER
  5
20E
100
AcDbSymbolTableRecord
100
AcDbLayerTableRecord
  2
INTF_2
 70
0
 62
7
  6
CONTINUOUS
370
-3
390
F
  0
LAYER
  5
20F
100
AcDbSymbolTableRecord
100
AcDbLayerTableRecord
  2
INTF_YELLOW
 70
0
 62
7
  6
CONTINUOUS
370
-3
390
F
  0
LAYER
  5
210
100
AcDbSymbolTableRecord
100
AcDbLayerTableRecord
  2
NOTE
 70
0
 62
7
  6
CONTINUOUS
370
-3
390
F
  0
LAYER
  5
211
100
AcDbSymbolTableRecord
100
AcDbLayerTableRecord
  2
PIANI
 70
0
 62
7
  6
CONTINUOUS
370
-3
390
F
  0
LAYER
  5
212
100
AcDbSymbolTableRecord
100
AcDbLayerTableRecord
  2
PIANI_ORIGINE
 70
0
 62
7
  6
CONTINUOUS
370
-3
390
F
  0
LAYER
  5
213
100
AcDbSymbolTableRecord
100
AcDbLayerTableRecord
  2
PIANI_RIFERIMENTO
 70
0
 62
7
  6
CONTINUOUS
370
-3
390
F
  0
LAYER
  5
214
100
AcDbSymbolTableRecord
100
AcDbLayerTableRecord
  2
PIANI_SFORMO
 70
0
 62
7
  6
CONTINUOUS
370
-3
390
F
  0
LAYER
  5
215
100
AcDbSymbolTableRecord
100
AcDbLayerTableRecord
  2
PUNTI
 70
0
 62
7
  6
CONTINUOUS
370
-3
390
F
  0
LAYER
  5
216
100
AcDbSymbolTableRecord
100
AcDbLayerTableRecord
  2
RACCORDO
 70
0
 62
7
  6
CONTINUOUS
370
-3
390
F
  0
LAYER
  5
217
100
AcDbSymbolTableRecord
100
AcDbLayerTableRecord
  2
RGB__255__255__255__
 70
0
 62
7
  6
CONTINUOUS
370
-3
390
F
  0
LAYER
  5
218
100
AcDbSymbolTableRecord
100
AcDbLayerTableRecord
  2
RINTRACCIABILITA
 70
0
 62
7
  6
CONTINUOUS
370
-3
390
F
  0
LAYER
  5
219
100
AcDbSymbolTableRecord
100
AcDbLayerTableRecord
  2
SMUSSO
 70
0
 62
7
  6
CONTINUOUS
370
-3
390
F
  0
LAYER
  5
21A
100
AcDbSymbolTableRecord
100
AcDbLayerTableRecord
  2
SNAPLINE
 70
0
 62
7
  6
CONTINUOUS
370
-3
390
F
  0
LAYER
  5
21B
100
AcDbSymbolTableRecord
100
AcDbLayerTableRecord
  2
SUPERFICI
 70
0
 62
7
  6
CONTINUOUS
370
-3
390
F
  0
LAYER
  5
21C
100
AcDbSymbolTableRecord
100
AcDbLayerTableRecord
  2
TRASH
 70
0
 62
7
  6
CONTINUOUS
370
-3
390
F
  0
LAYER
  5
21D
100
AcDbSymbolTableRecord
100
AcDbLayerTableRecord
  2
XSEC_DATUMS
 70
0
 62
7
  6
CONTINUOUS
370
-3
390
F
  0
ENDTAB
  0
TABLE
  2
STYLE
  5
3
100
AcDbSymbolTable
 70
1
  0
STYLE
  5
11
100
AcDbSymbolTableRecord
100
AcDbTextStyleTableRecord
  2
STANDARD
 70
0
 40
0.0
 41
0.8
 50
0.0
 71
0
 42
0.2
  3
txt
  4

  0
STYLE
  5
21E
100
AcDbSymbolTableRecord
100
AcDbTextStyleTableRecord
  2
TEXTSTYLE_1
 70
0
 40
0.0
 41
0.8
 50
0.0
 71
0
 42
0.2
  3
gdt
  4

  0
ENDTAB
  0
TABLE
  2
VIEW
  5
6
100
AcDbSymbolTable
 70
0
  0
ENDTAB
  0
TABLE
  2
UCS
  5
7
100
AcDbSymbolTable
 70
0
  0
ENDTAB
  0
TABLE
  2
APPID
  5
9
100
AcDbSymbolTable
 70
1
  0
APPID
  5
21F
100
AcDbSymbolTableRecord
100
AcDbRegAppTableRecord
  2
ACAD
 70
0
  0
ENDTAB
  0
TABLE
  2
BLOCK_RECORD
  5
1
100
AcDbSymbolTable
 70
0
  0
BLOCK_RECORD
  5
220
100
AcDbSymbolTableRecord
100
AcDbBlockTableRecord
  2
*Model_Space
  0
BLOCK_RECORD
  5
221
100
AcDbSymbolTableRecord
100
AcDbBlockTableRecord
  2
*Paper_Space
  0
BLOCK_RECORD
  5
222
100
AcDbSymbolTableRecord
100
AcDbBlockTableRecord
  2
_FILLED
  0
ENDTAB
  0
TABLE
  2
DIMSTYLE
  5
A
100
AcDbSymbolTable
 70
1
100
AcDbDimStyleTable
 71
0
  0
DIMSTYLE
105
223
100
AcDbSymbolTableRecord
100
AcDbDimStyleTableRecord
  2
STANDARD
 70
0
  3

  4

 40
1.0
 41
3.0
 42
0.5
 43
0.38
 44
1.5
 45
0.0
 46
0.0
 47
0.01
 48
0.01
140
3.0
141
0.09
142
0.0
143
25.4
144
1.0
145
0.0
146
1.0
147
0.625
 71
1
 72
0
 73
0
 74
0
 75
0
 76
0
 77
1
 78
8
 79
2
170
0
171
1
172
0
173
0
174
0
175
0
176
0
177
0
178
0
270
2
179
2
271
2
272
2
273
2
274
2
275
0
280
0
281
0
282
0
283
1
284
8
285
0
286
0
287
3
288
0
340
11
278
44
341
222
342
222
343
222
344
222
  0
ENDTAB
  0
ENDSEC
  0
SECTION
  2
BLOCKS
  0
BLOCK
  5
20
100
AcDbEntity
  8
0
100
AcDbBlockBegin
  2
*Model_Space
 70
0
 10
0.0
 20
0.0
 30
0.0
  3
*Model_Space
  1

  0
ENDBLK
  5
21
100
AcDbEntity
  8
0
100
AcDbBlockEnd
  0
BLOCK
  5
1C
100
AcDbEntity
  8
0
100
AcDbBlockBegin
  2
*Paper_Space
 70
0
 10
0.0
 20
0.0
 30
0.0
  3
*Paper_Space
  1

  0
ENDBLK
  5
1D
100
AcDbEntity
  8
0
100
AcDbBlockEnd
  0
BLOCK
  5
224
100
AcDbEntity
  8
0
100
AcDbBlockBegin
  2
_FILLED
 70
64
 10
0.0
 20
0.0
  3
_FILLED
  1

  0
SOLID
  5
225
100
AcDbEntity
  8
0
  6
BYBLOCK
 62
0
100
AcDbTrace
 10
0.0
 20
0.0
 11
-1.0
 21
0.3166666667
 12
-1.0
 22
-0.3166666667
 13
-1.0
 23
-0.3166666667
  0
ENDBLK
  5
226
100
AcDbEntity
  8
0
  6
BYBLOCK
 62
0
100
AcDbBlockEnd
  0
ENDSEC
  0
SECTION
  2
ENTITIES
  0
LWPOLYLINE
  5
227
100
AcDbEntity
  8
RACCORDO
100
AcDbPolyline
 62
250
  6
CONTINUOUS
 90
10
 70
0
 10
-18.9658867976
 20
-19.9427131631
 10
-19.0049893517
 20
-19.9164025415
 10
-19.0410765058
 20
-19.8849287822
 10
-19.0739387197
 20
-19.8484763463
 10
-19.1033771461
 20
-19.807263314
 10
-19.1292102818
 20
-19.7615392862
 10
-19.151285673
 20
-19.7115783766
 10
-19.1694706555
 20
-19.6576812952
 10
-19.1836527129
 20
-19.600173014
 10
-19.1937454188
 20
-19.5393996311
  0
LWPOLYLINE
  5
228
100
AcDbEntity
  8
RACCORDO
100
AcDbPolyline
 62
7
  6
CONTINUOUS
 90
14
 70
0
 10
-18.7567402819
 20
18.1747362902
 10
-18.822525527
 20
18.1342436918
 10
-18.8896374244
 20
18.0848760572
 10
-18.9536272164
 20
18.0292603883
 10
-19.0141963251
 20
17.9677878083
 10
-19.0706267542
 20
17.9013409279
 10
-19.1228925843
 20
17.8301127762
 10
-19.170793443
 20
17.7543706237
 10
-19.2134885861
 20
17.675439424
 10
-19.2508790813
 20
17.5936395889
 10
-19.2827476451
 20
17.5092350901
 10
-19.3084995942
 20
17.423672474
 10
-19.3279397491
 20
17.3375625629
 10
-19.340987315
 20
17.2507660133
  0
LINE
  5
229
100
AcDbEntity
  8
0
100
AcDbLine
 62
7
  6
CONTINUOUS
 10
-14.5563048632
 20
20.717654232
 11
-13.9861055366
 21
21.0501326657
  0
LINE
  5
22A
100
AcDbEntity
  8
0
100
AcDbLine
 62
250
  6
CONTINUOUS
 10
-14.3224020881
 20
20.7092067973
 11
-13.8783947991
 21
20.9681037147
  0
LINE
  5
22B
100
AcDbEntity
  8
RACCORDO
100
AcDbLine
 62
7
  6
CONTINUOUS
 10
-18.7568780806
 20
18.1746726862
 11
-16.021629282
 21
19.7059293212
  0
LINE
  5
22C
100
AcDbEntity
  8
RACCORDO
100
AcDbLine
 62
250
  6
CONTINUOUS
 10
-18.5218899593
 20
18.1666237043
 11
-15.790336911
 21
19.6958113713
  0
LINE
  5
22D
100
AcDbEntity
  8
0
100
AcDbLine
 62
7
  6
CONTINUOUS
 10
-14.4455018589
 20
22.0646926479
 11
-12.8623281935
 21
22.876890706
  0
LINE
  5
22E
100
AcDbEntity
  8
0
100
AcDbLine
 62
250
  6
CONTINUOUS
 10
-14.3324161927
 20
22.0582446727
 11
-12.7496595896
 21
22.8702287701
  0
LINE
  5
22F
100
AcDbEntity
  8
0
100
AcDbLine
 62
250
  6
CONTINUOUS
 10
-12.6538781223
 20
21.2189756375
 11
-11.0525973315
 21
22.021697641
  0
LINE
  5
230
100
AcDbEntity
  8
0
100
AcDbLine
 62
7
  6
CONTINUOUS
 10
-12.8623281955
 20
22.876890705
 11
-12.8605917789
 21
22.8777589277
  0
LINE
  5
231
100
AcDbEntity
  8
0
100
AcDbLine
 62
250
  6
CONTINUOUS
 10
-11.0525973315
 20
22.021697641
 11
-10.5243301597
 21
22.2851364611
  0
LWPOLYLINE
  5
232
100
AcDbEntity
  8
0
100
AcDbPolyline
 62
250
  6
CONTINUOUS
 90
16
 70
0
 10
-14.4455018589
 20
22.0646926479
 10
-14.4421041346
 20
22.0663502723
 10
-14.4353589136
 20
22.06916282
 10
-14.4283781747
 20
22.0714613735
 10
-14.4211777307
 20
22.0732407259
 10
-14.4137738923
 20
22.0744968466
 10
-14.4061834309
 20
22.0752268902
 10
-14.3984235404
 20
22.075429203
 10
-14.3905117989
 20
22.0751033268
 10
-14.3824661282
 20
22.0742499996
 10
-14.3743047536
 20
22.0728711546
 10
-14.3660461623
 20
22.070969915
 10
-14.3577090619
 20
22.0685505876
 10
-14.3493123379
 20
22.0656186528
 10
-14.3408750107
 20
22.0621807519
 10
-14.3324161927
 20
22.0582446727
  0
LINE
  5
233
100
AcDbEntity
  8
0
100
AcDbLine
 62
7
  6
CONTINUOUS
 10
-12.8605917797
 20
22.8777589273
 11
-12.325721822
 21
23.1383110277
  0
LINE
  5
234
100
AcDbEntity
  8
0
100
AcDbLine
 62
250
  6
CONTINUOUS
 10
-12.7496595896
 20
22.8702287701
 11
-12.2152097109
 21
23.1305762366
  0
LWPOLYLINE
  5
235
100
AcDbEntity
  8
0
100
AcDbPolyline
 62
7
  6
CONTINUOUS
 90
16
 70
0
 10
-12.8605917789
 20
22.8777589277
 10
-12.8589341505
 20
22.8785464362
 10
-12.8521986617
 20
22.8813539741
 10
-12.8452309224
 20
22.8836458357
 10
-12.8380466654
 20
22.8854168555
 10
-12.8306621497
 20
22.8866630306
 10
-12.8230941954
 20
22.8873814958
 10
-12.8153598739
 20
22.8875706609
 10
-12.807476668
 20
22.8872301176
 10
-12.7994625685
 20
22.886360576
 10
-12.7913356381
 20
22.884964053
 10
-12.7831142271
 20
22.8830437431
 10
-12.7748171303
 20
22.8806039164
 10
-12.766463137
 20
22.8776501055
 10
-12.7580709878
 20
22.8741890925
 10
-12.7496595896
 20
22.8702287701
  0
LWPOLYLINE
  5
236
100
AcDbEntity
  8
0
100
AcDbPolyline
 62
250
  6
CONTINUOUS
 90
16
 70
0
 10
-12.325721822
 20
23.1383110277
 10
-12.3240490986
 20
23.1391054772
 10
-12.3173221683
 20
23.1419071317
 10
-12.3103661867
 20
23.1441914128
 10
-12.3031968448
 20
23.1459531543
 10
-12.295830449
 20
23.1471883363
 10
-12.2882838521
 20
23.1478941462
 10
-12.280574266
 20
23.1480690154
 10
-12.2727190668
 20
23.1477125903
 10
-12.2647359081
 20
23.1468256864
 10
-12.2566416605
 20
23.1454100623
 10
-12.2484558498
 20
23.1434690186
 10
-12.2402005835
 20
23.1410081215
 10
-12.2318958279
 20
23.1380340721
 10
-12.2235592464
 20
23.1345539396
 10
-12.2152097109
 20
23.1305762366
  0
LINE
  5
237
100
AcDbEntity
  8
0
100
AcDbLine
 62
250
  6
CONTINUOUS
 10
1.9561015366
 20
-25.8187177302
 11
1.4278343648
 21
-25.7102154531
  0
LINE
  5
238
100
AcDbEntity
  8
0
100
AcDbLine
 62
250
  6
CONTINUOUS
 10
1.8666877412
 20
-25.4991509242
 11
1.4278343648
 21
-25.4090135975
  0
LWPOLYLINE
  5
239
100
AcDbEntity
  8
0
100
AcDbPolyline
 62
7
  6
CONTINUOUS
 90
16
 70
0
 10
0.5377741821
 20
-26.025824494
 10
0.5320354988
 20
-26.0246068047
 10
0.5261097792
 20
-26.0232887303
 10
0.5199982976
 20
-26.0218741543
 10
0.5136997212
 20
-26.0203708895
 10
0.507218666
 20
-26.0187794444
 10
0.5005656384
 20
-26.0170929949
 10
0.4937427537
 20
-26.0153163251
 10
0.4867525515
 20
-26.0134540101
 10
0.4796064348
 20
-26.0114991373
 10
0.4723072505
 20
-26.0094569904
 10
0.4648582327
 20
-26.007332672
 10
0.4572716242
 20
-26.0051192201
 10
0.4495510288
 20
-26.0028224109
 10
0.4417003933
 20
-26.0004478634
 10
0.4337327334
 20
-25.9979886054
  0
LWPOLYLINE
  5
23A
100
AcDbEntity
  8
0
100
AcDbPolyline
 62
7
  6
CONTINUOUS
 90
3
 70
0
 10
0.4337327334
 20
-25.9979886054
 10
0.4174641222
 20
-25.9928408432
 10
0.4091816681
 20
-25.9901515556
  0
LWPOLYLINE
  5
23B
100
AcDbEntity
  8
RACCORDO
100
AcDbPolyline
 62
7
  6
CONTINUOUS
 90
12
 70
0
 10
-4.2542057447
 20
-27.2994156649
 10
-4.2287039501
 20
-27.3115525248
 10
-4.1718772906
 20
-27.3342608639
 10
-4.1126475215
 20
-27.3521016801
 10
-4.0515159536
 20
-27.364804923
 10
-3.9888314483
 20
-27.3721930151
 10
-3.9247298718
 20
-27.3741183283
 10
-3.8595919752
 20
-27.3704306797
 10
-3.7938805116
 20
-27.3610255296
 10
-3.7277388043
 20
-27.3457622504
 10
-3.6614210444
 20
-27.3245013173
 10
-3.6077437196
 20
-27.3028025371
  0
LWPOLYLINE
  5
23C
100
AcDbEntity
  8
0
100
AcDbPolyline
 62
250
  6
CONTINUOUS
 90
34
 70
0
 10
-0.5259683856
 20
-27.2167821814
 10
-0.5174034539
 20
-27.2208665359
 10
-0.5084576706
 20
-27.2247452057
 10
-0.4991506416
 20
-27.2284092237
 10
-0.4895014566
 20
-27.2318505511
 10
-0.4795326695
 20
-27.2350606388
 10
-0.469270678
 20
-27.2380307763
 10
-0.4587401165
 20
-27.2407539049
 10
-0.4479631958
 20
-27.2432243498
 10
-0.4369639584
 20
-27.2454365919
 10
-0.4257669882
 20
-27.2473856652
 10
-0.4143975955
 20
-27.2490671427
 10
-0.4028815778
 20
-27.2504772028
 10
-0.3912449414
 20
-27.2516126676
 10
-0.3795137575
 20
-27.2524709995
 10
-0.367714335
 20
-27.2530502733
 10
-0.3558731793
 20
-27.2533491835
 10
-0.3440169541
 20
-27.253367053
 10
-0.3321723458
 20
-27.2531038393
 10
-0.3203660003
 20
-27.2525601331
 10
-0.3086244667
 20
-27.2517371558
 10
-0.2969741578
 20
-27.2506367572
 10
-0.285441276
 20
-27.2492614108
 10
-0.2740517631
 20
-27.2476142088
 10
-0.2628312453
 20
-27.2456988566
 10
-0.2518049619
 20
-27.2435196618
 10
-0.2409977118
 20
-27.241081525
 10
-0.2304338063
 20
-27.2383899302
 10
-0.2201370009
 20
-27.2354509297
 10
-0.2101304611
 20
-27.2322711346
 10
-0.2004367114
 20
-27.2288577032
 10
-0.1910775593
 20
-27.2252183161
 10
-0.1820740478
 20
-27.2213611581
 10
-0.173446426
 20
-27.2172949053
  0
LINE
  5
23D
100
AcDbEntity
  8
RACCORDO
100
AcDbLine
 62
7
  6
CONTINUOUS
 10
-18.9441043642
 20
-19.9544669083
 11
-18.9449797993
 21
-19.954030655
  0
LINE
  5
23E
100
AcDbEntity
  8
ASSI
100
AcDbLine
 62
7
  6
CONTINUOUS
 10
-18.9449798586
 20
-19.9540306253
 11
-4.253626008
 21
-27.2997075506
  0
LINE
  5
23F
100
AcDbEntity
  8
RACCORDO
100
AcDbLine
 62
250
  6
CONTINUOUS
 10
-19.1937454188
 20
-19.5393996311
 11
-4.5089905279
 21
-26.8817770766
  0
LINE
  5
240
100
AcDbEntity
  8
0
100
AcDbLine
 62
7
  6
CONTINUOUS
 10
-1.9918111925
 20
-26.5865925799
 11
-0.4609950892
 21
-27.3520006315
  0
LINE
  5
241
100
AcDbEntity
  8
RACCORDO
100
AcDbLine
 62
7
  6
CONTINUOUS
 10
-4.2541462788
 20
-27.2994469235
 11
-4.2536260664
 21
-27.2997075214
  0
LINE
  5
242
100
AcDbEntity
  8
RACCORDO
100
AcDbLine
 62
250
  6
CONTINUOUS
 10
-18.9449797993
 20
-19.954030655
 11
-18.9658867976
 21
-19.9427131631
  0
LINE
  5
243
100
AcDbEntity
  8
0
100
AcDbLine
 62
7
  6
CONTINUOUS
 10
-10.8758236278
 20
20.1146574412
 11
-11.7658838105
 21
19.61797652
  0
LINE
  5
244
100
AcDbEntity
  8
0
100
AcDbLine
 62
250
  6
CONTINUOUS
 10
-12.4771044186
 20
20.9140860987
 11
-10.8758236278
 21
21.7168081022
  0
LINE
  5
245
100
AcDbEntity
  8
0
100
AcDbLine
 62
250
  6
CONTINUOUS
 10
-10.8758236278
 20
21.7168081022
 11
-10.3475564561
 21
21.9802469222
  0
LINE
  5
246
100
AcDbEntity
  8
0
100
AcDbLine
 62
7
  6
CONTINUOUS
 10
-3.5597012345
 20
23.1097920591
 11
-8.8959246405
 21
20.5103485936
  0
LINE
  5
247
100
AcDbEntity
  8
0
100
AcDbLine
 62
7
  6
CONTINUOUS
 10
-3.0514918581
 20
23.9293283222
 11
-10.1728306735
 21
20.4652293569
  0
LWPOLYLINE
  5
248
100
AcDbEntity
  8
RACCORDO
100
AcDbPolyline
 62
250
  6
CONTINUOUS
 90
8
 70
0
 10
-18.7567460133
 20
18.1747465512
 10
-18.7332219815
 20
18.1858473355
 10
-18.7019198049
 20
18.19516338
 10
-18.6685455917
 20
18.1994792467
 10
-18.6334646785
 20
18.1987476912
 10
-18.597061084
 20
18.1929767215
 10
-18.5597333061
 20
18.1822295105
 10
-18.5218899593
 20
18.1666237043
  0
LINE
  5
249
100
AcDbEntity
  8
RACCORDO
100
AcDbLine
 62
7
  6
CONTINUOUS
 10
3.512678417
 20
26.4272551234
 11
-2.1811443792
 21
23.7420640663
  0
LWPOLYLINE
  5
24A
100
AcDbEntity
  8
0
100
AcDbPolyline
 62
7
  6
CONTINUOUS
 90
3
 70
0
 10
-3.5264985369
 20
23.1240734639
 10
-3.515646339
 20
23.127775745
 10
-3.5044129184
 20
23.1308981933
  0
LWPOLYLINE
  5
24B
100
AcDbEntity
  8
0
100
AcDbPolyline
 62
7
  6
CONTINUOUS
 90
3
 70
0
 10
0.4091816681
 20
-25.9901515556
 10
0.3923551669
 20
-25.9845620243
 10
0.3838311802
 20
-25.9816616391
  0
LWPOLYLINE
  5
24C
100
AcDbEntity
  8
0
100
AcDbPolyline
 62
7
  6
CONTINUOUS
 90
3
 70
0
 10
0.3838311802
 20
-25.9816616391
 10
0.3666004507
 20
-25.9756714366
 10
0.3579153824
 20
-25.9725822175
  0
LWPOLYLINE
  5
24D
100
AcDbEntity
  8
0
100
AcDbPolyline
 62
7
  6
CONTINUOUS
 90
3
 70
0
 10
0.3579153824
 20
-25.9725822175
 10
0.3404486958
 20
-25.9662392997
 10
0.331690414
 20
-25.9629870614
  0
LWPOLYLINE
  5
24E
100
AcDbEntity
  8
0
100
AcDbPolyline
 62
7
  6
CONTINUOUS
 90
17
 70
0
 10
0.331690414
 20
-25.9629870614
 10
0.3141710957
 20
-25.9563467098
 10
0.305435073
 20
-25.9529610606
 10
0.2967290344
 20
-25.9495381049
 10
0.2880617694
 20
-25.9460863674
 10
0.2794511195
 20
-25.9426009394
 10
0.2709065656
 20
-25.9390902735
 10
0.2624376707
 20
-25.9355632478
 10
0.2540628253
 20
-25.9320158264
 10
0.2457924219
 20
-25.9284565907
 10
0.237636766
 20
-25.9248946913
 10
0.2296145453
 20
-25.9213271396
 10
0.2217473312
 20
-25.9177686955
 10
0.2140355586
 20
-25.9142219844
 10
0.2064676664
 20
-25.9106682656
 10
0.1990491311
 20
-25.9071100253
 10
0.191801251
 20
-25.9035682829
  0
LWPOLYLINE
  5
24F
100
AcDbEntity
  8
0
100
AcDbPolyline
 62
250
  6
CONTINUOUS
 90
34
 70
0
 10
-0.5259683856
 20
-26.8768082473
 10
-0.5173887652
 20
-26.8808992811
 10
-0.5084308867
 20
-26.8847823383
 10
-0.4991148956
 20
-26.8884486862
 10
-0.4894617539
 20
-26.8918900756
 10
-0.4794931599
 20
-26.8950987718
 10
-0.4692314954
 20
-26.8980675686
 10
-0.4586998101
 20
-26.900789793
 10
-0.44792181
 20
-26.903259313
 10
-0.4369217708
 20
-26.9054705649
 10
-0.4257244441
 20
-26.9074185736
 10
-0.4143549994
 20
-26.9090989607
 10
-0.4028390064
 20
-26.9105079472
 10
-0.3912023643
 20
-26.9116423644
 10
-0.3794712429
 20
-26.912499661
 10
-0.3676720244
 20
-26.9130779091
 10
-0.3558312359
 20
-26.9133758083
 10
-0.3439755155
 20
-26.9133926882
 10
-0.3321315516
 20
-26.9131285117
 10
-0.3203259974
 20
-26.9125838757
 10
-0.3085853854
 20
-26.9117600066
 10
-0.2969360932
 20
-26.9106587565
 10
-0.2854042339
 20
-26.9092825907
 10
-0.274015829
 20
-26.9076346113
 10
-0.2627967142
 20
-26.9057185655
 10
-0.2517722552
 20
-26.9035388095
 10
-0.2409670786
 20
-26.9011002367
 10
-0.2304052568
 20
-26.898408289
 10
-0.220109716
 20
-26.8954687715
 10
-0.2101044772
 20
-26.8922885031
 10
-0.2004141682
 20
-26.8888754233
 10
-0.191061039
 20
-26.885237637
 10
-0.1820651392
 20
-26.8813832202
 10
-0.173446426
 20
-26.8773209711
  0
LINE
  5
250
100
AcDbEntity
  8
0
100
AcDbLine
 62
250
  6
CONTINUOUS
 10
-1.8828962444
 20
-26.538318252
 11
-0.5259683856
 21
-27.2167821814
  0
LINE
  5
251
100
AcDbEntity
  8
0
100
AcDbLine
 62
250
  6
CONTINUOUS
 10
-0.5259683856
 20
-26.8768082473
 11
-1.5224602091
 21
-26.3785623356
  0
LINE
  5
252
100
AcDbEntity
  8
0
100
AcDbLine
 62
250
  6
CONTINUOUS
 10
-0.437580038
 20
-26.6451140735
 11
-1.2299668964
 21
-26.2489206443
  0
LINE
  5
253
100
AcDbEntity
  8
0
100
AcDbLine
 62
7
  6
CONTINUOUS
 10
0.191801251
 20
-25.9035682829
 11
-0.5874199615
 21
-25.5139756781
  0
LINE
  5
254
100
AcDbEntity
  8
0
100
AcDbLine
 62
7
  6
CONTINUOUS
 10
0.7024828161
 20
-25.4650143397
 11
0.1852522225
 21
-25.2063990429
  0
LWPOLYLINE
  5
255
100
AcDbEntity
  8
RACCORDO
100
AcDbPolyline
 62
250
  6
CONTINUOUS
 90
8
 70
0
 10
-19.3400461193
 20
-19.3639117576
 10
-19.3340401116
 20
-19.3918612496
 10
-19.3226268437
 20
-19.420561256
 10
-19.3061420507
 20
-19.4479869726
 10
-19.2847604442
 20
-19.4738477326
 10
-19.2587086335
 20
-19.4978694549
 10
-19.2282627246
 20
-19.5197975491
 10
-19.1937453935
 20
-19.5393996138
  0
LWPOLYLINE
  5
256
100
AcDbEntity
  8
RACCORDO
100
AcDbPolyline
 62
250
  6
CONTINUOUS
 90
9
 70
0
 10
-20.0151957807
 20
-9.6328494027
 10
-20.014165878
 20
-9.6473830152
 10
-20.0082018316
 20
-9.6734828462
 10
-19.9970152813
 20
-9.6990715156
 10
-19.980724742
 20
-9.7238779258
 10
-19.9595028029
 20
-9.7476392671
 10
-19.9335742982
 20
-9.7701038016
 10
-19.9032139257
 20
-9.7910335303
 10
-19.8687433363
 20
-9.8102067147
  0
LWPOLYLINE
  5
257
100
AcDbEntity
  8
RACCORDO
100
AcDbPolyline
 62
7
  6
CONTINUOUS
 90
10
 70
0
 10
-20.0151957688
 20
-9.6328492199
 10
-19.993209474
 20
-10.690156865
 10
-19.9568518231
 20
-11.8120812208
 10
-19.9071992835
 20
-12.9263173891
 10
-19.8442595806
 20
-14.0325944972
 10
-19.768044229
 20
-15.1306907973
 10
-19.6785647519
 20
-16.2204035789
 10
-19.5758350628
 20
-17.3015133511
 10
-19.4598791011
 20
-18.3737599611
 10
-19.3401027748
 20
-19.3634712588
  0
LWPOLYLINE
  5
258
100
AcDbEntity
  8
RACCORDO
100
AcDbPolyline
 62
7
  6
CONTINUOUS
 90
10
 70
0
 10
-20.0151975981
 20
6.8202879525
 10
-20.0390909232
 20
5.0354372618
 10
-20.057834071
 20
3.1806565701
 10
-20.0703261
 20
1.3290769057
 10
-20.0765666212
 20
-0.5192636137
 10
-20.0765555236
 20
-2.3643333234
 10
-20.0702927512
 20
-4.2061030497
 10
-20.0577783007
 20
-6.0445412305
 10
-20.0390124473
 20
-7.8796101426
 10
-20.0151957807
 20
-9.6328494027
  0
LWPOLYLINE
  5
259
100
AcDbEntity
  8
RACCORDO
100
AcDbPolyline
 62
250
  6
CONTINUOUS
 90
10
 70
0
 10
-19.340987315
 20
17.2507660133
 10
-19.3412095746
 20
17.2484464128
 10
-19.3402459788
 20
17.2275993019
 10
-19.3340242035
 20
17.2064080874
 10
-19.322610187
 20
17.1850973532
 10
-19.3061248947
 20
17.1638929501
 10
-19.2847430374
 20
17.1430196021
 10
-19.2586912196
 20
17.1226985246
 10
-19.2282455379
 20
17.1031450799
 10
-19.1937286551
 20
17.0845664949
  0
LWPOLYLINE
  5
25A
100
AcDbEntity
  8
RACCORDO
100
AcDbPolyline
 62
7
  6
CONTINUOUS
 90
10
 70
0
 10
-19.3409855361
 20
17.2509019471
 10
-19.4612488179
 20
16.1301141817
 10
-19.5769403842
 20
14.9376342993
 10
-19.6794448439
 20
13.7500093474
 10
-19.768733677
 20
12.5675271373
 10
-19.8447883018
 20
11.3904255022
 10
-19.9075926658
 20
10.2189231658
 10
-19.9571307947
 20
9.053256182
 10
-19.9933905616
 20
7.8937049871
 10
-20.0151975756
 20
6.8202878215
  0
LWPOLYLINE
  5
25B
100
AcDbEntity
  8
RACCORDO
100
AcDbPolyline
 62
250
  6
CONTINUOUS
 90
19
 70
0
 10
-19.1937454188
 20
17.0845611967
 10
-19.1836526527
 20
17.1557002826
 10
-19.1694705861
 20
17.2277660253
 10
-19.1512857194
 20
17.3003258887
 10
-19.1292107375
 20
17.3729462069
 10
-19.1033782943
 20
17.4451898115
 10
-19.0739405322
 20
17.5166187041
 10
-19.0410787225
 20
17.5868036975
 10
-19.0049918269
 20
17.6553259488
 10
-18.9658894824
 20
17.7217742394
 10
-18.9240104031
 20
17.7857512209
 10
-18.879608689
 20
17.8468738029
 10
-18.832941544
 20
17.9047737789
 10
-18.7842916209
 20
17.9591062486
 10
-18.7339558182
 20
18.0095441039
 10
-18.682230689
 20
18.0557778928
 10
-18.6294279367
 20
18.0975290936
 10
-18.5758723168
 20
18.1345512397
 10
-18.5218899593
 20
18.1666237043
  0
LINE
  5
25C
100
AcDbEntity
  8
0
100
AcDbLine
 62
250
  6
CONTINUOUS
 10
-10.8758236278
 20
20.9897632497
 11
-10.3475564561
 21
21.6327154055
  0
LINE
  5
25D
100
AcDbEntity
  8
0
100
AcDbLine
 62
7
  6
CONTINUOUS
 10
-10.8758236278
 20
20.9002327834
 11
-10.3321958837
 21
21.5618802389
  0
LINE
  5
25E
100
AcDbEntity
  8
0
100
AcDbLine
 62
7
  6
CONTINUOUS
 10
-9.2910041975
 20
18.193507852
 11
-8.5777265889
 21
18.5893622971
  0
LWPOLYLINE
  5
25F
100
AcDbEntity
  8
0
100
AcDbPolyline
 62
7
  6
CONTINUOUS
 90
38
 70
0
 10
1.3048732608
 20
23.4010641246
 10
1.2643548038
 20
23.3800051666
 10
1.2247405469
 20
23.3585204344
 10
1.1860483822
 20
23.3366196319
 10
1.1482957855
 20
23.3143126507
 10
1.1114998078
 20
23.2916095659
 10
1.0756770685
 20
23.2685206316
 10
1.0408437472
 20
23.245056276
 10
1.0070155765
 20
23.2212270971
 10
0.9742078353
 20
23.1970438574
 10
0.9424353415
 20
23.1725174796
 10
0.9117124454
 20
23.1476590411
 10
0.8820530231
 20
23.1224797695
 10
0.8534704707
 20
23.0969910371
 10
0.8259776976
 20
23.0712043563
 10
0.7995871213
 20
23.0451313737
 10
0.7743106611
 20
23.0187838654
 10
0.7501597335
 20
22.9921737316
 10
0.7271452463
 20
22.9653129907
 10
0.7052775944
 20
22.9382137749
 10
0.6845666543
 20
22.9108883235
 10
0.6650217803
 20
22.8833489785
 10
0.6466518001
 20
22.855608178
 10
0.6294650106
 20
22.8276784516
 10
0.6134691743
 20
22.7995724139
 10
0.5986715159
 20
22.7713027592
 10
0.5850787188
 20
22.7428822557
 10
0.5726969225
 20
22.7143237398
 10
0.5615317191
 20
22.6856401101
 10
0.5515881516
 20
22.6568443219
 10
0.542870711
 20
22.627949381
 10
0.5353833347
 20
22.5989683381
 10
0.5291294044
 20
22.5699142826
 10
0.5241117447
 20
22.5408003371
 10
0.5203326219
 20
22.5116396511
 10
0.5177937428
 20
22.4824453952
 10
0.5164962543
 20
22.4532307553
 10
0.5163119959
 20
22.4373138862
  0
LINE
  5
260
100
AcDbEntity
  8
0
100
AcDbLine
 62
7
  6
CONTINUOUS
 10
-8.8959246405
 20
20.5103485936
 11
-9.9504140719
 21
19.9693755549
  0
LINE
  5
261
100
AcDbEntity
  8
RACCORDO
100
AcDbLine
 62
7
  6
CONTINUOUS
 10
5.5212530385
 20
25.5463737413
 11
1.3048732608
 21
23.4010641246
  0
LINE
  5
262
100
AcDbEntity
  8
0
100
AcDbLine
 62
250
  6
CONTINUOUS
 10
-6.5978258067
 20
19.3612991767
 11
-5.9109240213
 21
19.7058598347
  0
LINE
  5
263
100
AcDbEntity
  8
0
100
AcDbLine
 62
7
  6
CONTINUOUS
 10
-9.2910041975
 20
19.6396706178
 11
-8.4359009987
 21
20.065864608
  0
LINE
  5
264
100
AcDbEntity
  8
0
100
AcDbLine
 62
250
  6
CONTINUOUS
 10
-6.8126390208
 20
19.254233619
 11
-6.5978258067
 21
19.3612991767
  0
LINE
  5
265
100
AcDbEntity
  8
0
100
AcDbLine
 62
7
  6
CONTINUOUS
 10
-7.5558722657
 20
20.5283339568
 11
-2.9432294098
 21
22.8015561467
  0
LINE
  5
266
100
AcDbEntity
  8
0
100
AcDbLine
 62
7
  6
CONTINUOUS
 10
-3.2182701418
 20
21.270566287
 11
-2.8068045732
 21
21.4733464913
  0
LINE
  5
267
100
AcDbEntity
  8
0
100
AcDbLine
 62
7
  6
CONTINUOUS
 10
-0.0922559187
 20
22.4497103525
 11
-2.2273915225
 21
21.3974637805
  0
LINE
  5
268
100
AcDbEntity
  8
RACCORDO
100
AcDbLine
 62
7
  6
CONTINUOUS
 10
4.4839610254
 20
26.1286532594
 11
0.9108873269
 21
24.4232199426
  0
LINE
  5
269
100
AcDbEntity
  8
RACCORDO
100
AcDbLine
 62
250
  6
CONTINUOUS
 10
3.9515631675
 20
26.3948521884
 11
-1.9347668061
 21
23.6188752798
  0
LWPOLYLINE
  5
26A
100
AcDbEntity
  8
RACCORDO
100
AcDbPolyline
 62
250
  6
CONTINUOUS
 90
26
 70
0
 10
3.9515631675
 20
26.3948521884
 10
3.9708357719
 20
26.4037544501
 10
3.9900848841
 20
26.4120016447
 10
4.0092961906
 20
26.4195876383
 10
4.0284553983
 20
26.4265067857
 10
4.0475482682
 20
26.4327539437
 10
4.0665606258
 20
26.4383244716
 10
4.085478353
 20
26.443214228
 10
4.104287362
 20
26.4474195666
 10
4.1229736288
 20
26.45093735
 10
4.1415232453
 20
26.4537649605
 10
4.1599224313
 20
26.4559002984
 10
4.1781575075
 20
26.4573417759
 10
4.1962149157
 20
26.4580883208
 10
4.2140812269
 20
26.4581393778
 10
4.2317431534
 20
26.4574949085
 10
4.2491875611
 20
26.4561553924
 10
4.266401479
 20
26.4541218255
 10
4.2833721068
 20
26.45139572
 10
4.3000868254
 20
26.4479791029
 10
4.3165332056
 20
26.4438745149
 10
4.3326990179
 20
26.4390850081
 10
4.3485722414
 20
26.4336141441
 10
4.3641410728
 20
26.4274659909
 10
4.3793939351
 20
26.4206451202
 10
4.386436048
 20
26.417215518
  0
LINE
  5
26B
100
AcDbEntity
  8
RACCORDO
100
AcDbLine
 62
250
  6
CONTINUOUS
 10
-2.6206055188
 20
20.1914051951
 11
-2.6108920488
 21
20.1943433888
  0
LWPOLYLINE
  5
26C
100
AcDbEntity
  8
RACCORDO
100
AcDbPolyline
 62
250
  6
CONTINUOUS
 90
3
 70
0
 10
-2.6108920488
 20
20.1943433888
 10
-2.6009919113
 20
20.1972484474
 10
-2.5959714004
 20
20.1986871854
  0
LWPOLYLINE
  5
26D
100
AcDbEntity
  8
0
100
AcDbPolyline
 62
250
  6
CONTINUOUS
 90
5
 70
0
 10
1.8901027925
 20
-25.5072383003
 10
1.8859142272
 20
-25.5052716445
 10
1.8796943405
 20
-25.5027960046
 10
1.8732814427
 20
-25.5007544691
 10
1.8666877412
 20
-25.4991509242
  0
LINE
  5
26E
100
AcDbEntity
  8
0
100
AcDbLine
 62
250
  6
CONTINUOUS
 10
1.4278343648
 20
-25.279724236
 11
1.8666877412
 21
-25.4991509242
  0
LINE
  5
26F
100
AcDbEntity
  8
0
100
AcDbLine
 62
7
  6
CONTINUOUS
 10
1.4278343648
 20
-25.2761040865
 11
1.8901027925
 21
-25.5072383003
  0
LINE
  5
270
100
AcDbEntity
  8
SUPERFICI
100
AcDbLine
 62
7
  6
CONTINUOUS
 10
-14.994764022
 20
-15.1830517004
 11
-14.1108805255
 21
-15.6249934486
  0
LINE
  5
271
100
AcDbEntity
  8
DRAFT
100
AcDbLine
 62
7
  6
CONTINUOUS
 10
-14.994764022
 20
-15.1830517004
 11
-14.1108805255
 21
-15.6249934486
  0
LINE
  5
272
100
AcDbEntity
  8
SUPERFICI
100
AcDbLine
 62
7
  6
CONTINUOUS
 10
-12.9795095952
 20
-16.1906789137
 11
-11.9188493978
 21
-16.7210090125
  0
LINE
  5
273
100
AcDbEntity
  8
DRAFT
100
AcDbLine
 62
7
  6
CONTINUOUS
 10
-12.9795095952
 20
-16.1906789137
 11
-11.9188493978
 21
-16.7210090125
  0
LINE
  5
274
100
AcDbEntity
  8
SUPERFICI
100
AcDbLine
 62
7
  6
CONTINUOUS
 10
-10.7874786471
 20
-17.2866943878
 11
-9.9035951506
 21
-17.7286361361
  0
LINE
  5
275
100
AcDbEntity
  8
DRAFT
100
AcDbLine
 62
7
  6
CONTINUOUS
 10
-10.7874786471
 20
-17.2866943878
 11
-9.9035951506
 21
-17.7286361361
  0
LINE
  5
276
100
AcDbEntity
  8
0
100
AcDbLine
 62
250
  6
CONTINUOUS
 10
1.8750180447
 20
-25.5036165079
 11
1.8666877412
 21
-25.4991509242
  0
LWPOLYLINE
  5
277
100
AcDbEntity
  8
RACCORDO
100
AcDbPolyline
 62
7
  6
CONTINUOUS
 90
11
 70
0
 10
-19.3400348146
 20
-19.3639102991
 10
-19.3328097432
 20
-19.4108484284
 10
-19.3133675282
 20
-19.4950516261
 10
-19.2866525302
 20
-19.5739077748
 10
-19.253393137
 20
-19.6467337737
 10
-19.2140980284
 20
-19.7136093075
 10
-19.1688480997
 20
-19.7749320546
 10
-19.118298772
 20
-19.8301181314
 10
-19.0630692369
 20
-19.8788497187
 10
-19.0029467405
 20
-19.9213969696
 10
-18.9441706079
 20
-19.9544319286
  0
LINE
  5
278
100
AcDbEntity
  8
RACCORDO
100
AcDbLine
 62
7
  6
CONTINUOUS
 10
-19.3401027748
 20
-19.3634712588
 11
-19.3400461193
 21
-19.3639117576
  0
LWPOLYLINE
  5
279
100
AcDbEntity
  8
RACCORDO
100
AcDbPolyline
 62
250
  6
CONTINUOUS
 90
10
 70
0
 10
-19.1937454188
 20
-19.5393996311
 10
-19.3201380619
 20
-18.4919851882
 10
-19.433729227
 20
-17.4356486294
 10
-19.5344946242
 20
-16.3706104604
 10
-19.6224122866
 20
-15.2970932332
 10
-19.6974638424
 20
-14.2153206938
 10
-19.7596345118
 20
-13.1255177314
 10
-19.8089114228
 20
-12.0279114077
 10
-19.8452836215
 20
-10.9227309141
 10
-19.8687433368
 20
-9.810206715
  0
LWPOLYLINE
  5
27A
100
AcDbEntity
  8
RACCORDO
100
AcDbPolyline
 62
250
  6
CONTINUOUS
 90
9
 70
0
 10
-20.0151975756
 20
6.8202878215
 10
-20.0141658524
 20
6.8027224886
 10
-20.0082018047
 20
6.7777082825
 10
-19.9970152535
 20
6.7530657843
 10
-19.9807247139
 20
6.7290560674
 10
-19.9595027749
 20
6.7059335009
 10
-19.9335742708
 20
6.6839430552
 10
-19.9032138993
 20
6.6633177067
 10
-19.8687433112
 20
6.6442759691
  0
LWPOLYLINE
  5
27B
100
AcDbEntity
  8
RACCORDO
100
AcDbPolyline
 62
250
  6
CONTINUOUS
 90
10
 70
0
 10
-19.8687433368
 20
-9.810206715
 10
-19.893297871
 20
-7.9949458344
 10
-19.9117135582
 20
-6.1763736346
 10
-19.9239904449
 20
-4.3545227428
 10
-19.9301286472
 20
-2.5294506176
 10
-19.9301286504
 20
-0.7011653011
 10
-19.9239904535
 20
1.1303750087
 10
-19.9117135695
 20
2.9651627556
 10
-19.8932978801
 20
4.8031405983
 10
-19.8687433368
 20
6.6442759569
  0
LWPOLYLINE
  5
27C
100
AcDbEntity
  8
RACCORDO
100
AcDbPolyline
 62
250
  6
CONTINUOUS
 90
10
 70
0
 10
-19.8687433368
 20
6.6442759569
 10
-19.8452836209
 20
7.781515284
 10
-19.8089114218
 20
8.9250127847
 10
-19.7596345106
 20
10.0745302233
 10
-19.6974638414
 20
11.2298282898
 10
-19.6224122861
 20
12.3906662152
 10
-19.534494624
 20
13.556801825
 10
-19.4337292269
 20
14.7279921664
 10
-19.3201380618
 20
15.9039935554
 10
-19.1937454188
 20
17.0845611967
  0
LWPOLYLINE
  5
27D
100
AcDbEntity
  8
0
100
AcDbPolyline
 62
250
  6
CONTINUOUS
 90
30
 70
0
 10
-12.4771044186
 20
20.5741121646
 10
-12.4815249441
 20
20.5632206698
 10
-12.4863321394
 20
20.5525544009
 10
-12.491515155
 20
20.5421374311
 10
-12.4970622931
 20
20.5319932709
 10
-12.5029610341
 20
20.522144815
 10
-12.5091980649
 20
20.5126142908
 10
-12.515759309
 20
20.5034232081
 10
-12.5226299579
 20
20.4945923107
 10
-12.5297945051
 20
20.4861415294
 10
-12.5372367805
 20
20.4780899371
 10
-12.5449399874
 20
20.4704557057
 10
-12.5528867402
 20
20.4632560653
 10
-12.5610591034
 20
20.456507265
 10
-12.5694386325
 20
20.4502245366
 10
-12.5780064154
 20
20.4444220596
 10
-12.5867431151
 20
20.43911293
 10
-12.5956290135
 20
20.4343091302
 10
-12.6046440555
 20
20.4300215021
 10
-12.6137678948
 20
20.4262597225
 10
-12.6229799394
 20
20.4230322816
 10
-12.6322593983
 20
20.4203464636
 10
-12.6415853281
 20
20.4182083301
 10
-12.650936681
 20
20.4166227069
 10
-12.6602923514
 20
20.4155931725
 10
-12.6696312242
 20
20.4151220506
 10
-12.678932222
 20
20.4152104045
 10
-12.688174353
 20
20.4158580347
 10
-12.6973367584
 20
20.4170634796
 10
-12.7039479121
 20
20.4182910038
  0
LINE
  5
27E
100
AcDbEntity
  8
0
100
AcDbLine
 62
7
  6
CONTINUOUS
 10
-6.4564062454
 20
17.90494875
 11
-6.6716344164
 21
17.7855015289
  0
LINE
  5
27F
100
AcDbEntity
  8
0
100
AcDbLine
 62
250
  6
CONTINUOUS
 10
-5.1192437615
 20
18.3998734465
 11
-5.1118694793
 21
18.4038488483
  0
LINE
  5
280
100
AcDbEntity
  8
0
100
AcDbLine
 62
7
  6
CONTINUOUS
 10
1.0666693679
 20
22.0620623276
 11
1.6955267335
 21
22.3936712511
  0
LINE
  5
281
100
AcDbEntity
  8
0
100
AcDbLine
 62
7
  6
CONTINUOUS
 10
-4.9910665223
 20
18.518022203
 11
-5.2027560487
 21
18.4087921467
  0
LINE
  5
282
100
AcDbEntity
  8
0
100
AcDbLine
 62
250
  6
CONTINUOUS
 10
-4.9007731217
 20
18.5127728342
 11
-5.1118694793
 21
18.4038488483
  0
LINE
  5
283
100
AcDbEntity
  8
0
100
AcDbLine
 62
7
  6
CONTINUOUS
 10
-5.7597203399
 20
18.2549180689
 11
-6.4564062454
 21
17.90494875
  0
LINE
  5
284
100
AcDbEntity
  8
0
100
AcDbLine
 62
250
  6
CONTINUOUS
 10
-6.4564062454
 20
19.1173901776
 11
-5.7682810442
 21
19.46256452
  0
LINE
  5
285
100
AcDbEntity
  8
DRAFT
100
AcDbLine
 62
7
  6
CONTINUOUS
 10
5.5273100253
 20
25.1088852741
 11
1.3048732608
 21
22.9908450816
  0
LINE
  5
286
100
AcDbEntity
  8
0
100
AcDbLine
 62
7
  6
CONTINUOUS
 10
-2.2257053187
 20
20.8282949931
 11
-1.1338223565
 21
21.3742364742
  0
LINE
  5
287
100
AcDbEntity
  8
0
100
AcDbLine
 62
7
  6
CONTINUOUS
 10
1.8238141623
 20
22.1705795197
 11
2.3187889091
 21
22.4180668932
  0
LINE
  5
288
100
AcDbEntity
  8
0
100
AcDbLine
 62
7
  6
CONTINUOUS
 10
-4.9893652384
 20
18.518872909
 11
-4.9910665426
 21
18.5180221925
  0
LINE
  5
289
100
AcDbEntity
  8
RACCORDO
100
AcDbLine
 62
7
  6
CONTINUOUS
 10
4.7869668217
 20
22.5985667455
 11
3.4755025106
 21
21.9428345899
  0
LWPOLYLINE
  5
28A
100
AcDbEntity
  8
RACCORDO
100
AcDbPolyline
 62
7
  6
CONTINUOUS
 90
6
 70
0
 10
-3.1331222567
 20
20.0831833204
 10
-3.1418230224
 20
20.0788369097
 10
-3.1499247834
 20
20.0741579913
 10
-3.1577420577
 20
20.0690004963
 10
-3.1652693409
 20
20.0633685349
 10
-3.1711317895
 20
20.0584764527
  0
LINE
  5
28B
100
AcDbEntity
  8
0
100
AcDbLine
 62
250
  6
CONTINUOUS
 10
-6.6716344164
 20
19.0101178003
 11
-6.4564062454
 21
19.1173901776
  0
LINE
  5
28C
100
AcDbEntity
  8
0
100
AcDbLine
 62
7
  6
CONTINUOUS
 10
-4.2900943319
 20
18.8575192635
 11
-4.9893652197
 21
18.5188729186
  0
LINE
  5
28D
100
AcDbEntity
  8
0
100
AcDbLine
 62
250
  6
CONTINUOUS
 10
-4.2017767867
 20
18.8512862173
 11
-4.9007731217
 21
18.5127728342
  0
LINE
  5
28E
100
AcDbEntity
  8
DRAFT
100
AcDbLine
 62
7
  6
CONTINUOUS
 10
-9.1919060214
 20
16.6734589183
 11
-9.4736016747
 21
16.5374437532
  0
LINE
  5
28F
100
AcDbEntity
  8
RACCORDO
100
AcDbLine
 62
250
  6
CONTINUOUS
 10
-2.8622158313
 20
20.0909219787
 11
-2.8081283169
 21
20.1169911982
  0
LINE
  5
290
100
AcDbEntity
  8
RACCORDO
100
AcDbLine
 62
250
  6
CONTINUOUS
 10
-2.8729144854
 20
20.0858419882
 11
-2.8622158313
 21
20.0909219787
  0
LINE
  5
291
100
AcDbEntity
  8
RACCORDO
100
AcDbLine
 62
250
  6
CONTINUOUS
 10
-2.8081283169
 20
20.1169911982
 11
-2.7957996324
 21
20.1228279816
  0
LINE
  5
292
100
AcDbEntity
  8
RACCORDO
100
AcDbLine
 62
250
  6
CONTINUOUS
 10
-2.8808415616
 20
20.0821338987
 11
-2.8729144854
 21
20.0858419882
  0
LINE
  5
293
100
AcDbEntity
  8
RACCORDO
100
AcDbLine
 62
250
  6
CONTINUOUS
 10
-2.7957996324
 20
20.1228279816
 11
-2.7862837693
 21
20.1272691382
  0
LINE
  5
294
100
AcDbEntity
  8
RACCORDO
100
AcDbLine
 62
250
  6
CONTINUOUS
 10
-2.9209261873
 20
20.063617567
 11
-2.8808415616
 21
20.0821338987
  0
LINE
  5
295
100
AcDbEntity
  8
RACCORDO
100
AcDbLine
 62
7
  6
CONTINUOUS
 10
-3.0823895905
 20
20.1065748678
 11
-3.133123253
 21
20.0831828602
  0
LINE
  5
296
100
AcDbEntity
  8
RACCORDO
100
AcDbLine
 62
250
  6
CONTINUOUS
 10
-2.7862837693
 20
20.1272691382
 11
-2.7765196907
 21
20.1317585669
  0
LWPOLYLINE
  5
297
100
AcDbEntity
  8
RACCORDO
100
AcDbPolyline
 62
250
  6
CONTINUOUS
 90
17
 70
0
 10
-1.9289533483
 20
20.1909231023
 10
-1.9231399028
 20
20.1935589698
 10
-1.9173404719
 20
20.1958952261
 10
-1.9115648695
 20
20.1979279177
 10
-1.9058228695
 20
20.1996536049
 10
-1.9001241888
 20
20.2010693673
 10
-1.894478471
 20
20.2021728091
 10
-1.88889527
 20
20.2029620629
 10
-1.8833840342
 20
20.2034357933
 10
-1.8779540899
 20
20.2035931985
 10
-1.8726146259
 20
20.2034340121
 10
-1.8673746781
 20
20.2029585035
 10
-1.8622431136
 20
20.2021674775
 10
-1.8572286165
 20
20.2010622726
 10
-1.8523396724
 20
20.1996447592
 10
-1.8475845549
 20
20.1979173359
 10
-1.8430315447
 20
20.195909489
  0
LWPOLYLINE
  5
298
100
AcDbEntity
  8
RACCORDO
100
AcDbPolyline
 62
7
  6
CONTINUOUS
 90
10
 70
0
 10
5.6354686335
 20
22.1742895139
 10
5.6468650978
 20
22.1794581692
 10
5.6580855002
 20
22.1835100656
 10
5.669129841
 20
22.1864452031
 10
5.6800930999
 20
22.1882637344
 10
5.690880297
 20
22.1889655069
 10
5.7012064925
 20
22.1885500625
 10
5.7109767062
 20
22.1870172487
 10
5.7202859182
 20
22.1843672179
 10
5.7291341285
 20
22.1805999703
  0
LINE
  5
299
100
AcDbEntity
  8
RACCORDO
100
AcDbLine
 62
250
  6
CONTINUOUS
 10
-2.7765196907
 20
20.1317585669
 11
-2.7698651891
 21
20.1347754731
  0
LWPOLYLINE
  5
29A
100
AcDbEntity
  8
RACCORDO
100
AcDbPolyline
 62
250
  6
CONTINUOUS
 90
22
 70
0
 10
-3.099276902
 20
20.0988142267
 10
-3.0961485889
 20
20.1002241587
 10
-3.0869001264
 20
20.1039980529
 10
-3.0774405121
 20
20.1072805083
 10
-3.0677798718
 20
20.1100680115
 10
-3.0579285461
 20
20.1123575787
 10
-3.0478970801
 20
20.1141467591
 10
-3.0376962116
 20
20.1154336376
 10
-3.0273368597
 20
20.1162168366
 10
-3.0168301132
 20
20.1164955178
 10
-3.0061872185
 20
20.116269383
 10
-2.9954195679
 20
20.1155386741
 10
-2.9845386873
 20
20.1143041733
 10
-2.9735562237
 20
20.112567202
 10
-2.9624839327
 20
20.1103296196
 10
-2.9513336663
 20
20.1075938211
 10
-2.9401173599
 20
20.1043627349
 10
-2.9288470194
 20
20.1006398198
 10
-2.9175347089
 20
20.0964290605
 10
-2.906192537
 20
20.0917349646
 10
-2.8948326446
 20
20.0865625564
 10
-2.8834671914
 20
20.0809173727
  0
LINE
  5
29B
100
AcDbEntity
  8
RACCORDO
100
AcDbLine
 62
250
  6
CONTINUOUS
 10
-2.7698651891
 20
20.1347754731
 11
-2.7630894003
 21
20.1378093327
  0
LINE
  5
29C
100
AcDbEntity
  8
RACCORDO
100
AcDbLine
 62
250
  6
CONTINUOUS
 10
-2.7630894003
 20
20.1378093327
 11
-2.7561875042
 21
20.1408579964
  0
LINE
  5
29D
100
AcDbEntity
  8
RACCORDO
100
AcDbLine
 62
250
  6
CONTINUOUS
 10
-2.7561875042
 20
20.1408579964
 11
-2.7491561648
 21
20.1439200698
  0
LINE
  5
29E
100
AcDbEntity
  8
RACCORDO
100
AcDbLine
 62
250
  6
CONTINUOUS
 10
-2.7491561648
 20
20.1439200698
 11
-2.7419900911
 21
20.1469935654
  0
LINE
  5
29F
100
AcDbEntity
  8
RACCORDO
100
AcDbLine
 62
250
  6
CONTINUOUS
 10
-2.7419900911
 20
20.1469935654
 11
-2.7346847072
 21
20.1500761119
  0
LINE
  5
2A0
100
AcDbEntity
  8
RACCORDO
100
AcDbLine
 62
250
  6
CONTINUOUS
 10
-2.7346847072
 20
20.1500761119
 11
-2.7272369795
 21
20.1531661088
  0
LINE
  5
2A1
100
AcDbEntity
  8
RACCORDO
100
AcDbLine
 62
250
  6
CONTINUOUS
 10
-2.7272369795
 20
20.1531661088
 11
-2.7196424842
 21
20.156261082
  0
LINE
  5
2A2
100
AcDbEntity
  8
RACCORDO
100
AcDbLine
 62
250
  6
CONTINUOUS
 10
-2.7196424842
 20
20.156261082
 11
-2.7118967987
 21
20.1593584874
  0
LINE
  5
2A3
100
AcDbEntity
  8
RACCORDO
100
AcDbLine
 62
250
  6
CONTINUOUS
 10
-2.7118967987
 20
20.1593584874
 11
-2.7039970693
 21
20.1624565754
  0
LINE
  5
2A4
100
AcDbEntity
  8
RACCORDO
100
AcDbLine
 62
250
  6
CONTINUOUS
 10
-2.7039970693
 20
20.1624565754
 11
-2.6959390743
 21
20.165552672
  0
LINE
  5
2A5
100
AcDbEntity
  8
RACCORDO
100
AcDbLine
 62
250
  6
CONTINUOUS
 10
-2.6959390743
 20
20.165552672
 11
-2.6877191248
 21
20.1686438292
  0
LINE
  5
2A6
100
AcDbEntity
  8
RACCORDO
100
AcDbLine
 62
250
  6
CONTINUOUS
 10
-2.6877191248
 20
20.1686438292
 11
-2.6793348172
 21
20.1717280493
  0
LINE
  5
2A7
100
AcDbEntity
  8
RACCORDO
100
AcDbLine
 62
250
  6
CONTINUOUS
 10
-2.6793348172
 20
20.1717280493
 11
-2.6707828258
 21
20.1748022166
  0
LINE
  5
2A8
100
AcDbEntity
  8
RACCORDO
100
AcDbLine
 62
250
  6
CONTINUOUS
 10
-2.6707828258
 20
20.1748022166
 11
-2.6620590392
 21
20.1778634185
  0
LINE
  5
2A9
100
AcDbEntity
  8
RACCORDO
100
AcDbLine
 62
250
  6
CONTINUOUS
 10
-2.6620590392
 20
20.1778634185
 11
-2.6531610502
 21
20.1809095739
  0
LINE
  5
2AA
100
AcDbEntity
  8
RACCORDO
100
AcDbLine
 62
250
  6
CONTINUOUS
 10
-2.6531610502
 20
20.1809095739
 11
-2.6440854617
 21
20.1839374495
  0
LINE
  5
2AB
100
AcDbEntity
  8
RACCORDO
100
AcDbLine
 62
250
  6
CONTINUOUS
 10
-2.6440854617
 20
20.1839374495
 11
-2.6348299722
 21
20.1869433789
  0
LWPOLYLINE
  5
2AC
100
AcDbEntity
  8
RACCORDO
100
AcDbPolyline
 62
250
  6
CONTINUOUS
 90
3
 70
0
 10
-2.6348299722
 20
20.1869433789
 10
-2.6253929807
 20
20.1899249315
 10
-2.6206055188
 20
20.1914051951
  0
LINE
  5
2AD
100
AcDbEntity
  8
SUPERFICI
100
AcDbLine
 62
7
  6
CONTINUOUS
 10
-15.0318206394
 20
-14.3355545913
 11
-14.1479371264
 21
-14.7774963478
  0
LINE
  5
2AE
100
AcDbEntity
  8
DRAFT
100
AcDbLine
 62
7
  6
CONTINUOUS
 10
-15.0318206394
 20
-14.3355545913
 11
-14.1479371264
 21
-14.7774963478
  0
LINE
  5
2AF
100
AcDbEntity
  8
SUPERFICI
100
AcDbLine
 62
7
  6
CONTINUOUS
 10
-13.0165662126
 20
-15.3431818047
 11
-11.9559059986
 21
-15.8735119117
  0
LINE
  5
2B0
100
AcDbEntity
  8
DRAFT
100
AcDbLine
 62
7
  6
CONTINUOUS
 10
-13.0165662126
 20
-15.3431818047
 11
-11.9559059986
 21
-15.8735119117
  0
LINE
  5
2B1
100
AcDbEntity
  8
SUPERFICI
100
AcDbLine
 62
7
  6
CONTINUOUS
 10
-10.8245352644
 20
-16.4391972788
 11
-9.9406517514
 21
-16.8811390353
  0
LINE
  5
2B2
100
AcDbEntity
  8
DRAFT
100
AcDbLine
 62
7
  6
CONTINUOUS
 10
-10.8245352644
 20
-16.4391972788
 11
-9.9406517514
 21
-16.8811390353
  0
LINE
  5
2B3
100
AcDbEntity
  8
DRAFT
100
AcDbLine
 62
7
  6
CONTINUOUS
 10
-0.5874199615
 20
-19.8651953113
 11
1.0557670821
 21
-20.6867888331
  0
LINE
  5
2B4
100
AcDbEntity
  8
DRAFT
100
AcDbLine
 62
7
  6
CONTINUOUS
 10
-14.994764022
 20
-15.1830517004
 11
-15.0085538276
 21
-15.1436192309
  0
LWPOLYLINE
  5
2B5
100
AcDbEntity
  8
DRAFT
100
AcDbPolyline
 62
7
  6
CONTINUOUS
 90
25
 70
0
 10
-14.1479371264
 20
-14.7774963478
 10
-14.1344406408
 20
-14.8170952778
 10
-14.1219452208
 20
-14.8565957394
 10
-14.1104503967
 20
-14.8959974637
 10
-14.0999427154
 20
-14.9353559869
 10
-14.0904346342
 20
-14.9746152016
 10
-14.0819647144
 20
-15.013607465
 10
-14.0745375048
 20
-15.0523239982
 10
-14.0681478268
 20
-15.0907732109
 10
-14.062819977
 20
-15.1288134256
 10
-14.0585585731
 20
-15.1664445109
 10
-14.0553586635
 20
-15.2036663936
 10
-14.0532305114
 20
-15.2403376633
 10
-14.0521770818
 20
-15.2764568977
 10
-14.0521954086
 20
-15.3120255014
 10
-14.0532871914
 20
-15.3469064928
 10
-14.0554575366
 20
-15.381095217
 10
-14.0587016701
 20
-15.4145965
 10
-14.0630067933
 20
-15.4472877645
 10
-14.0683775379
 20
-15.4791726597
 10
-14.0748099019
 20
-15.5102478779
 10
-14.0822784619
 20
-15.5403805914
 10
-14.0907751384
 20
-15.5695267445
 10
-14.1003090035
 20
-15.5977309435
 10
-14.1108805255
 20
-15.6249934486
  0
LINE
  5
2B6
100
AcDbEntity
  8
SUPERFICI
100
AcDbLine
 62
7
  6
CONTINUOUS
 10
-14.1301442471
 20
-14.8303707601
 11
-14.1479371264
 21
-14.7774963478
  0
LWPOLYLINE
  5
2B7
100
AcDbEntity
  8
DRAFT
100
AcDbPolyline
 62
7
  6
CONTINUOUS
 90
22
 70
0
 10
-15.0085538276
 20
-15.1436192309
 10
-15.021322389
 20
-15.104273499
 10
-15.0330692367
 20
-15.065014244
 10
-15.0438072462
 20
-15.0257857273
 10
-15.0535225472
 20
-14.9866431355
 10
-15.062174717
 20
-14.9477526898
 10
-15.0697586239
 20
-14.9091226941
 10
-15.0762787689
 20
-14.8707445024
 10
-15.0817095034
 20
-14.8327590958
 10
-15.0860459243
 20
-14.7951663119
 10
-15.0892925988
 20
-14.7579661399
 10
-15.0914384044
 20
-14.7212999703
 10
-15.0924803542
 20
-14.6851690074
 10
-15.0924214316
 20
-14.6495720619
 10
-15.0912598027
 20
-14.6146471224
 10
-15.0889906093
 20
-14.5803990139
 10
-15.0856190413
 20
-14.5468231146
 10
-15.0811586606
 20
-14.5140434238
 10
-15.0756053185
 20
-14.4820566598
 10
-15.0689637949
 20
-14.4508664741
 10
-15.0612613721
 20
-14.4206074497
 10
-15.0525075407
 20
-14.3913246743
  0
LINE
  5
2B8
100
AcDbEntity
  8
RACCORDO
100
AcDbLine
 62
7
  6
CONTINUOUS
 10
-5.3440388445
 20
18.1567608293
 11
-5.3110467278
 21
18.1856353333
  0
LINE
  5
2B9
100
AcDbEntity
  8
RACCORDO
100
AcDbLine
 62
7
  6
CONTINUOUS
 10
-4.857099578
 20
18.5829271741
 11
-3.1711309945
 21
20.0584768332
  0
LINE
  5
2BA
100
AcDbEntity
  8
RACCORDO
100
AcDbLine
 62
250
  6
CONTINUOUS
 10
-4.3156799395
 20
18.8451285396
 11
-2.9225311121
 21
20.0644040927
  0
LINE
  5
2BB
100
AcDbEntity
  8
0
100
AcDbLine
 62
7
  6
CONTINUOUS
 10
-3.4886075013
 20
17.5922178593
 11
-4.3289150744
 21
17.1586260562
  0
LINE
  5
2BC
100
AcDbEntity
  8
0
100
AcDbLine
 62
7
  6
CONTINUOUS
 10
-2.6026742879
 20
17.3637234173
 11
-3.6695052001
 21
16.828921119
  0
LINE
  5
2BD
100
AcDbEntity
  8
RACCORDO
100
AcDbLine
 62
7
  6
CONTINUOUS
 10
5.6354975294
 20
22.1743039619
 11
5.0549169675
 21
21.884013681
  0
LINE
  5
2BE
100
AcDbEntity
  8
0
100
AcDbLine
 62
7
  6
CONTINUOUS
 10
2.6718177812
 20
19.9940325512
 11
-2.6026742879
 21
17.3637234173
  0
LINE
  5
2BF
100
AcDbEntity
  8
0
100
AcDbLine
 62
7
  6
CONTINUOUS
 10
2.0553459565
 20
20.3022684636
 11
-2.5568285423
 21
18.0288120951
  0
LINE
  5
2C0
100
AcDbEntity
  8
0
100
AcDbLine
 62
7
  6
CONTINUOUS
 10
2.8354712294
 20
19.6724427886
 11
4.158233691
 21
20.3244655477
  0
LINE
  5
2C1
100
AcDbEntity
  8
RACCORDO
100
AcDbLine
 62
7
  6
CONTINUOUS
 10
9.1444122082
 20
23.798427668
 11
5.5809813717
 21
22.0881729202
  0
LWPOLYLINE
  5
2C2
100
AcDbEntity
  8
0
100
AcDbPolyline
 62
250
  6
CONTINUOUS
 90
14
 70
0
 10
-0.0136827741
 20
16.9900712201
 10
-0.0067282351
 20
16.9923566736
 10
0.0004395703
 20
16.9941197067
 10
0.0078044055
 20
16.9953563258
 10
0.0153495876
 20
16.9960637297
 10
0.0230580249
 20
16.996240316
 10
0.0309122561
 20
16.9958856846
 10
0.0388944897
 20
16.9950006389
 10
0.0469866441
 20
16.9935871837
 10
0.0551703887
 20
16.9916485208
 10
0.0634271856
 20
16.9891890417
 10
0.0717383312
 20
16.9862143177
 10
0.080084999
 20
16.9827310871
 10
0.0884482818
 20
16.9787472403
  0
LINE
  5
2C3
100
AcDbEntity
  8
RACCORDO
100
AcDbLine
 62
250
  6
CONTINUOUS
 10
-19.8687433368
 20
-9.810206715
 11
-5.2200828516
 21
-17.1345369576
  0
LINE
  5
2C4
100
AcDbEntity
  8
DRAFT
100
AcDbLine
 62
7
  6
CONTINUOUS
 10
-12.9795095952
 20
-16.1906789137
 11
-12.9932994033
 21
-16.1512464438
  0
LINE
  5
2C5
100
AcDbEntity
  8
DRAFT
100
AcDbLine
 62
7
  6
CONTINUOUS
 10
-10.7874786471
 20
-17.2866943878
 11
-10.8012684527
 21
-17.2472619184
  0
LWPOLYLINE
  5
2C6
100
AcDbEntity
  8
DRAFT
100
AcDbPolyline
 62
7
  6
CONTINUOUS
 90
25
 70
0
 10
-11.9559059986
 20
-15.8735119117
 10
-11.9424095155
 20
-15.9131108412
 10
-11.9299140979
 20
-15.9526113023
 10
-11.9184192759
 20
-15.9920130259
 10
-11.9079115965
 20
-16.0313715484
 10
-11.898403517
 20
-16.0706307623
 10
-11.8899335987
 20
-16.1096230249
 10
-11.8825063904
 20
-16.1483395573
 10
-11.8761167135
 20
-16.1867887693
 10
-11.8707888644
 20
-16.2248289832
 10
-11.8665274612
 20
-16.2624600678
 10
-11.863327552
 20
-16.2996819498
 10
-11.8611994
 20
-16.336353219
 10
-11.8601459703
 20
-16.372472453
 10
-11.8601642967
 20
-16.4080410565
 10
-11.861256079
 20
-16.4429220478
 10
-11.8634264234
 20
-16.477110772
 10
-11.8666705559
 20
-16.5106120553
 10
-11.8709756778
 20
-16.5433033202
 10
-11.8763464208
 20
-16.5751882161
 10
-11.8827787831
 20
-16.6062634352
 10
-11.8902473412
 20
-16.63639615
 10
-11.8987440156
 20
-16.6655423045
 10
-11.9082778784
 20
-16.6937465053
 10
-11.9188493978
 20
-16.7210090125
  0
LINE
  5
2C7
100
AcDbEntity
  8
SUPERFICI
100
AcDbLine
 62
7
  6
CONTINUOUS
 10
-11.9381131226
 20
-15.9263863233
 11
-11.9559059986
 21
-15.8735119117
  0
LWPOLYLINE
  5
2C8
100
AcDbEntity
  8
DRAFT
100
AcDbPolyline
 62
7
  6
CONTINUOUS
 90
22
 70
0
 10
-12.9932994033
 20
-16.1512464438
 10
-13.006067967
 20
-16.1119007114
 10
-13.0178148168
 20
-16.0726414557
 10
-13.0285528282
 20
-16.0334129383
 10
-13.038268131
 20
-15.9942703458
 10
-13.0469203023
 20
-15.9553798992
 10
-13.0545042104
 20
-15.9167499028
 10
-13.0610243565
 20
-15.8783717102
 10
-13.0664550918
 20
-15.8403863029
 10
-13.0707915133
 20
-15.8027935183
 10
-13.0740381882
 20
-15.7655933457
 10
-13.076183994
 20
-15.7289271756
 10
-13.0772259436
 20
-15.6927962122
 10
-13.0771670207
 20
-15.6571992665
 10
-13.0760053912
 20
-15.6222743268
 10
-13.0737361971
 20
-15.5880262184
 10
-13.070364628
 20
-15.5544503194
 10
-13.065904246
 20
-15.5216706291
 10
-13.0603509024
 20
-15.4896838657
 10
-13.0537093771
 20
-15.458493681
 10
-13.0460069523
 20
-15.4282346578
 10
-13.0372531188
 20
-15.3989518839
  0
LWPOLYLINE
  5
2C9
100
AcDbEntity
  8
DRAFT
100
AcDbPolyline
 62
7
  6
CONTINUOUS
 90
22
 70
0
 10
-10.8012684527
 20
-17.2472619184
 10
-10.8140370141
 20
-17.2079161865
 10
-10.8257838618
 20
-17.1686569315
 10
-10.8365218712
 20
-17.1294284148
 10
-10.8462371723
 20
-17.090285823
 10
-10.8548893421
 20
-17.0513953773
 10
-10.862473249
 20
-17.0127653816
 10
-10.868993394
 20
-16.9743871899
 10
-10.8744241285
 20
-16.9364017833
 10
-10.8787605493
 20
-16.8988089994
 10
-10.8820072239
 20
-16.8616088274
 10
-10.8841530295
 20
-16.8249426578
 10
-10.8851949793
 20
-16.7888116948
 10
-10.8851360566
 20
-16.7532147494
 10
-10.8839744278
 20
-16.7182898098
 10
-10.8817052344
 20
-16.6840417014
 10
-10.8783336664
 20
-16.650465802
 10
-10.8738732857
 20
-16.6176861113
 10
-10.8683199436
 20
-16.5856993472
 10
-10.86167842
 20
-16.5545091615
 10
-10.8539759971
 20
-16.5242501372
 10
-10.8452221657
 20
-16.4949673618
  0
LINE
  5
2CA
100
AcDbEntity
  8
0
100
AcDbLine
 62
250
  6
CONTINUOUS
 10
-14.5812380834
 20
21.4983479509
 11
-14.5813877534
 21
21.5022822713
  0
LWPOLYLINE
  5
2CB
100
AcDbEntity
  8
0
100
AcDbPolyline
 62
250
  6
CONTINUOUS
 90
22
 70
0
 10
-14.5081644487
 20
21.4138939236
 10
-14.5079961965
 20
21.4045341754
 10
-14.50749176
 20
21.3953604962
 10
-14.5066520996
 20
21.3863903486
 10
-14.5054788135
 20
21.3776408079
 10
-14.5039741352
 20
21.3691285294
 10
-14.5021409289
 20
21.3608697165
 10
-14.4999826842
 20
21.3528800905
 10
-14.4975035095
 20
21.3451748601
 10
-14.494708124
 20
21.3377686925
 10
-14.4916018489
 20
21.3306756858
 10
-14.4881905972
 20
21.3239093421
 10
-14.4844808623
 20
21.3174825413
 10
-14.480479706
 20
21.3114075174
 10
-14.4761947447
 20
21.3056958344
 10
-14.4716341351
 20
21.3003583648
 10
-14.4668065585
 20
21.2954052689
 10
-14.4617212045
 20
21.2908459751
 10
-14.4563877534
 20
21.2866891624
 10
-14.4508163577
 20
21.2829427433
 10
-14.4450176228
 20
21.2796138495
 10
-14.4431911523
 20
21.2786754735
  0
LINE
  5
2CC
100
AcDbEntity
  8
0
100
AcDbLine
 62
7
  6
CONTINUOUS
 10
-14.675686354
 20
20.4526380367
 11
-14.675686354
 21
19.1384860928
  0
LINE
  5
2CD
100
AcDbEntity
  8
0
100
AcDbLine
 62
7
  6
CONTINUOUS
 10
-14.5813877534
 20
21.8422562054
 11
-14.5813877534
 21
21.5022822713
  0
LINE
  5
2CE
100
AcDbEntity
  8
0
100
AcDbLine
 62
250
  6
CONTINUOUS
 10
-14.5081644487
 20
21.7538678578
 11
-14.5081644487
 21
21.4138939236
  0
LINE
  5
2CF
100
AcDbEntity
  8
0
100
AcDbLine
 62
7
  6
CONTINUOUS
 10
-13.8783947991
 20
20.996277297
 11
-13.8783947991
 21
20.5423031953
  0
LINE
  5
2D0
100
AcDbEntity
  8
0
100
AcDbLine
 62
250
  6
CONTINUOUS
 10
-13.8051714944
 20
20.9596656446
 11
-13.8051714944
 21
20.4505915004
  0
LWPOLYLINE
  5
2D1
100
AcDbEntity
  8
0
100
AcDbPolyline
 62
250
  6
CONTINUOUS
 90
34
 70
0
 10
-14.5081644487
 20
21.7538678578
 10
-14.5079656459
 20
21.764232336
 10
-14.5073696836
 20
21.7747723208
 10
-14.5063779005
 20
21.7854641064
 10
-14.5049925244
 20
21.7962836523
 10
-14.5032166703
 20
21.8072066166
 10
-14.5010543352
 20
21.8182084106
 10
-14.4985103846
 20
21.8292642828
 10
-14.4955905398
 20
21.8403493718
 10
-14.4923013699
 20
21.8514387416
 10
-14.4886502729
 20
21.8625074514
 10
-14.4846454623
 20
21.8735306038
 10
-14.4802959501
 20
21.884483397
 10
-14.4756115214
 20
21.8953411948
 10
-14.4706027134
 20
21.9060795778
 10
-14.4652807948
 20
21.916674391
 10
-14.4596577344
 20
21.9271018108
 10
-14.4537461837
 20
21.9373383796
 10
-14.447559452
 20
21.9473610565
 10
-14.4411114754
 20
21.9571472744
 10
-14.4344167421
 20
21.9666750542
 10
-14.4274902659
 20
21.9759230293
 10
-14.4203475555
 20
21.9848704797
 10
-14.413004738
 20
21.9934971904
 10
-14.4054784913
 20
22.0017835808
 10
-14.3977858571
 20
22.0097109294
 10
-14.3899440445
 20
22.0172615422
 10
-14.3819705455
 20
22.0244185915
 10
-14.3738820681
 20
22.0311669645
 10
-14.3656979968
 20
22.0374903744
 10
-14.357440326
 20
22.0433721504
 10
-14.3491289053
 20
22.0487989004
 10
-14.3407812729
 20
22.0537599144
 10
-14.3324161927
 20
22.0582446727
  0
LWPOLYLINE
  5
2D2
100
AcDbEntity
  8
RACCORDO
100
AcDbPolyline
 62
250
  6
CONTINUOUS
 90
9
 70
0
 10
1.1941104488
 20
22.0087451377
 10
1.2342489518
 20
22.0548475063
 10
1.2933278223
 20
22.1141067235
 10
1.3584206017
 20
22.1717146567
 10
1.4292964336
 20
22.2274881243
 10
1.5057895714
 20
22.2813160599
 10
1.5877809751
 20
22.3331172435
 10
1.6750295721
 20
22.3827348829
 10
1.6955267335
 20
22.3936712511
  0
LINE
  5
2D3
100
AcDbEntity
  8
0
100
AcDbLine
 62
7
  6
CONTINUOUS
 10
-2.6026742879
 20
15.9780827713
 11
-3.6695052001
 21
15.3827583533
  0
LWPOLYLINE
  5
2D4
100
AcDbEntity
  8
0
100
AcDbPolyline
 62
7
  6
CONTINUOUS
 90
38
 70
0
 10
8.7294944632
 20
19.6887535233
 10
8.6889760062
 20
19.6676945653
 10
8.6493617493
 20
19.6462098332
 10
8.6106695847
 20
19.6243090307
 10
8.5729169879
 20
19.6020020495
 10
8.5361210103
 20
19.5792989647
 10
8.500298271
 20
19.5562100304
 10
8.4654649496
 20
19.5327456748
 10
8.431636779
 20
19.5089164959
 10
8.3988290378
 20
19.4847332562
 10
8.367056544
 20
19.4602068783
 10
8.3363336478
 20
19.4353484399
 10
8.3066742256
 20
19.4101691682
 10
8.2780916732
 20
19.3846804359
 10
8.2505989001
 20
19.3588937551
 10
8.2242083237
 20
19.3328207725
 10
8.1989318636
 20
19.3064732642
 10
8.1747809359
 20
19.2798631303
 10
8.1517664488
 20
19.2530023895
 10
8.1298987968
 20
19.2259031736
 10
8.1091878567
 20
19.1985777223
 10
8.0896429828
 20
19.1710383772
 10
8.0712730026
 20
19.1432975768
 10
8.054086213
 20
19.1153678504
 10
8.0380903767
 20
19.0872618127
 10
8.0232927183
 20
19.0589921579
 10
8.0096999213
 20
19.0305716544
 10
7.9973181249
 20
19.0020131385
 10
7.9861529215
 20
18.9733295089
 10
7.976209354
 20
18.9445337207
 10
7.9674919135
 20
18.9156387798
 10
7.9600045372
 20
18.8866577369
 10
7.9537506068
 20
18.8576036814
 10
7.9487329471
 20
18.8284897358
 10
7.9449538243
 20
18.7993290498
 10
7.9424149453
 20
18.770134794
 10
7.9411174567
 20
18.7409201541
 10
7.9409331984
 20
18.7250032849
  0
LINE
  5
2D5
100
AcDbEntity
  8
DRAFT
100
AcDbLine
 62
7
  6
CONTINUOUS
 10
-4.9936986755
 20
14.5743552453
 11
-5.2657290058
 21
14.4335074187
  0
LINE
  5
2D6
100
AcDbEntity
  8
0
100
AcDbLine
 62
7
  6
CONTINUOUS
 10
-2.1418438662
 20
15.9128636515
 11
-0.5586702009
 21
16.7250617097
  0
LINE
  5
2D7
100
AcDbEntity
  8
0
100
AcDbLine
 62
250
  6
CONTINUOUS
 10
-2.0287582001
 20
15.9064156764
 11
-0.4460015969
 21
16.7183997737
  0
LINE
  5
2D8
100
AcDbEntity
  8
RACCORDO
100
AcDbLine
 62
7
  6
CONTINUOUS
 10
12.9458742409
 20
21.83406314
 11
8.7294944632
 21
19.6887535233
  0
LINE
  5
2D9
100
AcDbEntity
  8
DRAFT
100
AcDbLine
 62
7
  6
CONTINUOUS
 10
12.9519312278
 20
21.3965746728
 11
8.7294944632
 21
19.2785344804
  0
LINE
  5
2DA
100
AcDbEntity
  8
0
100
AcDbLine
 62
250
  6
CONTINUOUS
 10
-0.3502201297
 20
15.0671466412
 11
1.2510606612
 21
15.8698686447
  0
LINE
  5
2DB
100
AcDbEntity
  8
0
100
AcDbLine
 62
7
  6
CONTINUOUS
 10
-0.5586702029
 20
16.7250617087
 11
-0.5569337862
 21
16.7259299314
  0
LINE
  5
2DC
100
AcDbEntity
  8
0
100
AcDbLine
 62
7
  6
CONTINUOUS
 10
7.1174696304
 20
18.8448475779
 11
1.7956136997
 21
16.1871419022
  0
LINE
  5
2DD
100
AcDbEntity
  8
0
100
AcDbLine
 62
7
  6
CONTINUOUS
 10
-2.6026742879
 20
15.9780827713
 11
2.7046363782
 21
18.6247580414
  0
LINE
  5
2DE
100
AcDbEntity
  8
0
100
AcDbLine
 62
250
  6
CONTINUOUS
 10
1.2510606612
 20
15.8698686447
 11
1.7793278329
 21
16.1333074647
  0
LINE
  5
2DF
100
AcDbEntity
  8
0
100
AcDbLine
 62
250
  6
CONTINUOUS
 10
1.4278343648
 20
15.5649791059
 11
1.9561015366
 21
15.8284179259
  0
LWPOLYLINE
  5
2E0
100
AcDbEntity
  8
0
100
AcDbPolyline
 62
250
  6
CONTINUOUS
 90
16
 70
0
 10
-2.1418438662
 20
15.9128636515
 10
-2.138446142
 20
15.9145212759
 10
-2.131700921
 20
15.9173338237
 10
-2.124720182
 20
15.9196323771
 10
-2.1175197381
 20
15.9214117295
 10
-2.1101158997
 20
15.9226678502
 10
-2.1025254382
 20
15.9233978939
 10
-2.0947655478
 20
15.9236002067
 10
-2.0868538063
 20
15.9232743304
 10
-2.0788081356
 20
15.9224210033
 10
-2.0706467609
 20
15.9210421582
 10
-2.0623881696
 20
15.9191409187
 10
-2.0540510693
 20
15.9167215913
 10
-2.0456543453
 20
15.9137896564
 10
-2.037217018
 20
15.9103517556
 10
-2.0287582001
 20
15.9064156764
  0
LINE
  5
2E1
100
AcDbEntity
  8
0
100
AcDbLine
 62
7
  6
CONTINUOUS
 10
-0.556933787
 20
16.725929931
 11
-0.0220638293
 21
16.9864820314
  0
LINE
  5
2E2
100
AcDbEntity
  8
0
100
AcDbLine
 62
250
  6
CONTINUOUS
 10
-0.4460015969
 20
16.7183997737
 11
0.0884482818
 21
16.9787472403
  0
LINE
  5
2E3
100
AcDbEntity
  8
RACCORDO
100
AcDbLine
 62
7
  6
CONTINUOUS
 10
11.9085822279
 20
22.4163426582
 11
8.3355085294
 21
20.7109093414
  0
LWPOLYLINE
  5
2E4
100
AcDbEntity
  8
0
100
AcDbPolyline
 62
250
  6
CONTINUOUS
 90
3
 70
0
 10
-0.0220638293
 20
16.9864820314
 10
-0.0204082929
 20
16.9872685234
 10
-0.0136827741
 20
16.9900712201
  0
LWPOLYLINE
  5
2E5
100
AcDbEntity
  8
0
100
AcDbPolyline
 62
7
  6
CONTINUOUS
 90
16
 70
0
 10
-0.5569337862
 20
16.7259299314
 10
-0.5552761579
 20
16.7267174399
 10
-0.548540669
 20
16.7295249778
 10
-0.5415729298
 20
16.7318168394
 10
-0.5343886728
 20
16.7335878592
 10
-0.5270041571
 20
16.7348340343
 10
-0.5194362027
 20
16.7355524995
 10
-0.5117018812
 20
16.7357416646
 10
-0.5038186753
 20
16.7354011213
 10
-0.4958045758
 20
16.7345315797
 10
-0.4876776455
 20
16.7331350566
 10
-0.4794562344
 20
16.7312147468
 10
-0.4711591377
 20
16.7287749201
 10
-0.4628051443
 20
16.7258211092
 10
-0.4544129952
 20
16.7223600962
 10
-0.4460015969
 20
16.7183997737
  0
LWPOLYLINE
  5
2E6
100
AcDbEntity
  8
0
100
AcDbPolyline
 62
250
  6
CONTINUOUS
 90
34
 70
0
 10
-0.173446426
 20
-26.8773209711
 10
-0.1778669515
 20
-26.8704021901
 10
-0.1826741468
 20
-26.8632983799
 10
-0.1878571624
 20
-26.8560255733
 10
-0.1934043004
 20
-26.8486001848
 10
-0.1993030415
 20
-26.8410389729
 10
-0.2055400723
 20
-26.8333590029
 10
-0.2121013163
 20
-26.8255776079
 10
-0.2189719653
 20
-26.8177123503
 10
-0.2261365124
 20
-26.8097809812
 10
-0.2335787879
 20
-26.8018014015
 10
-0.2412819948
 20
-26.7937916206
 10
-0.2492287475
 20
-26.7857697159
 10
-0.2574011107
 20
-26.7777537926
 10
-0.2657806398
 20
-26.769761942
 10
-0.2743484227
 20
-26.7618122014
 10
-0.2830851225
 20
-26.7539225128
 10
-0.2919710209
 20
-26.7461106827
 10
-0.3009860629
 20
-26.738394342
 10
-0.3101099022
 20
-26.7307909061
 10
-0.3193219468
 20
-26.7233175354
 10
-0.3286014056
 20
-26.7159910968
 10
-0.3379273355
 20
-26.7088281259
 10
-0.3472786884
 20
-26.7018447888
 10
-0.3566343588
 20
-26.6950568467
 10
-0.3659732315
 20
-26.6884796194
 10
-0.3752742293
 20
-26.6821279515
 10
-0.3845163604
 20
-26.6760161782
 10
-0.3936787657
 20
-26.6701580935
 10
-0.4027407664
 20
-26.6645669186
 10
-0.4116819099
 20
-26.6592552727
 10
-0.4204820167
 20
-26.6542351437
 10
-0.4291212255
 20
-26.6495178617
 10
-0.437580038
 20
-26.6451140735
  0
LWPOLYLINE
  5
2E7
100
AcDbEntity
  8
DRAFT
100
AcDbPolyline
 62
7
  6
CONTINUOUS
 90
25
 70
0
 10
-9.9406517514
 20
-16.8811390353
 10
-9.9271552659
 20
-16.9207379652
 10
-9.9146598459
 20
-16.9602384269
 10
-9.9031650218
 20
-16.9996401512
 10
-9.8926573405
 20
-17.0389986744
 10
-9.8831492593
 20
-17.0782578891
 10
-9.8746793395
 20
-17.1172501524
 10
-9.8672521299
 20
-17.1559666856
 10
-9.8608624519
 20
-17.1944158984
 10
-9.855534602
 20
-17.2324561131
 10
-9.8512731982
 20
-17.2700871984
 10
-9.8480732886
 20
-17.3073090811
 10
-9.8459451365
 20
-17.3439803508
 10
-9.8448917068
 20
-17.3800995851
 10
-9.8449100336
 20
-17.4156681889
 10
-9.8460018165
 20
-17.4505491803
 10
-9.8481721617
 20
-17.4847379044
 10
-9.8514162952
 20
-17.5182391875
 10
-9.8557214184
 20
-17.5509304519
 10
-9.861092163
 20
-17.5828153471
 10
-9.8675245269
 20
-17.6138905653
 10
-9.874993087
 20
-17.6440232789
 10
-9.8834897635
 20
-17.6731694319
 10
-9.8930236286
 20
-17.7013736309
 10
-9.9035951506
 20
-17.7286361361
  0
LINE
  5
2E8
100
AcDbEntity
  8
SUPERFICI
100
AcDbLine
 62
7
  6
CONTINUOUS
 10
-9.9228588721
 20
-16.9340134476
 11
-9.9406517514
 21
-16.8811390353
  0
LWPOLYLINE
  5
2E9
100
AcDbEntity
  8
0
100
AcDbPolyline
 62
250
  6
CONTINUOUS
 90
22
 70
0
 10
-12.8296263783
 20
20.5746248884
 10
-12.8294580824
 20
20.565263938
 10
-12.8289535152
 20
20.556089107
 10
-12.8281136374
 20
20.5471178648
 10
-12.8269400516
 20
20.5383673161
 10
-12.8254349907
 20
20.529854098
 10
-12.8236013043
 20
20.5215943552
 10
-12.8214424603
 20
20.5136037676
 10
-12.8189625729
 20
20.505897614
 10
-12.8161663931
 20
20.498490665
 10
-12.8130592706
 20
20.4913970656
 10
-12.8096471085
 20
20.4846302694
 10
-12.8059363805
 20
20.4782031123
 10
-12.8019341198
 20
20.4721277924
 10
-12.7976479706
 20
20.4664159286
 10
-12.7930861611
 20
20.4610784756
 10
-12.7882574316
 20
20.4561256255
 10
-12.7831709458
 20
20.4515667452
 10
-12.7778363308
 20
20.447410452
 10
-12.7722630606
 20
20.443664235
 10
-12.7664623747
 20
20.4403357522
 10
-12.7646610209
 20
20.4394104083
  0
LINE
  5
2EA
100
AcDbEntity
  8
0
100
AcDbLine
 62
250
  6
CONTINUOUS
 10
-12.8296263783
 20
20.5746248884
 11
-12.8296263783
 21
20.9145988226
  0
LINE
  5
2EB
100
AcDbEntity
  8
0
100
AcDbLine
 62
250
  6
CONTINUOUS
 10
-12.4771044186
 20
20.5741121646
 11
-12.4771044186
 21
20.9140860987
  0
LINE
  5
2EC
100
AcDbEntity
  8
0
100
AcDbLine
 62
250
  6
CONTINUOUS
 10
-12.1184057702
 20
19.6072086383
 11
-12.1184057702
 21
20.287958384
  0
LINE
  5
2ED
100
AcDbEntity
  8
0
100
AcDbLine
 62
250
  6
CONTINUOUS
 10
-11.7658838105
 20
19.61797652
 11
-11.7658838105
 21
20.4256086417
  0
LWPOLYLINE
  5
2EE
100
AcDbEntity
  8
0
100
AcDbPolyline
 62
250
  6
CONTINUOUS
 90
34
 70
0
 10
-12.8296263783
 20
20.9145988226
 10
-12.8294275755
 20
20.9249633008
 10
-12.8288316132
 20
20.9355032856
 10
-12.82783983
 20
20.9461950712
 10
-12.826454454
 20
20.9570146171
 10
-12.8246785999
 20
20.9679375814
 10
-12.8225162648
 20
20.9789393754
 10
-12.8199723142
 20
20.9899952476
 10
-12.8170524694
 20
21.0010803366
 10
-12.8137632994
 20
21.0121697063
 10
-12.8101122025
 20
21.0232384162
 10
-12.8061073919
 20
21.0342615686
 10
-12.8017578797
 20
21.0452143618
 10
-12.797073451
 20
21.0560721595
 10
-12.792064643
 20
21.0668105426
 10
-12.7867427244
 20
21.0774053558
 10
-12.781119664
 20
21.0878327756
 10
-12.7752081133
 20
21.0980693444
 10
-12.7690213816
 20
21.1080920212
 10
-12.762573405
 20
21.1178782392
 10
-12.7558786717
 20
21.127406019
 10
-12.7489521955
 20
21.136653994
 10
-12.7418094851
 20
21.1456014445
 10
-12.7344666676
 20
21.1542281552
 10
-12.7269404209
 20
21.1625145456
 10
-12.7192477867
 20
21.1704418942
 10
-12.7114059741
 20
21.177992507
 10
-12.7034324751
 20
21.1851495563
 10
-12.6953439976
 20
21.1918979293
 10
-12.6871599264
 20
21.1982213392
 10
-12.6789022555
 20
21.2041031151
 10
-12.6705908349
 20
21.2095298652
 10
-12.6622432025
 20
21.2144908792
 10
-12.6538781223
 20
21.2189756375
  0
LWPOLYLINE
  5
2EF
100
AcDbEntity
  8
0
100
AcDbPolyline
 62
250
  6
CONTINUOUS
 90
18
 70
0
 10
-5.2256677076
 20
18.2752022368
 10
-5.22119162
 20
18.2846233477
 10
-5.2164157725
 20
18.293898643
 10
-5.2113531217
 20
18.303002957
 10
-5.2060174212
 20
18.3119115414
 10
-5.2004232078
 20
18.3206001114
 10
-5.1945857205
 20
18.3290449914
 10
-5.1885208499
 20
18.3372231893
 10
-5.1822450978
 20
18.3451124499
 10
-5.1757755494
 20
18.3526912918
 10
-5.1691298126
 20
18.3599390855
 10
-5.1623259748
 20
18.3668361025
 10
-5.1553825594
 20
18.373363564
 10
-5.1483184598
 20
18.3795037065
 10
-5.1411529075
 20
18.3852398123
 10
-5.1339054255
 20
18.3905562538
 10
-5.1265957471
 20
18.3954385589
 10
-5.1192437615
 20
18.3998734465
  0
LWPOLYLINE
  5
2F0
100
AcDbEntity
  8
RACCORDO
100
AcDbPolyline
 62
250
  6
CONTINUOUS
 90
47
 70
0
 10
1.2756586947
 20
21.9773474594
 10
1.2996782565
 20
22.0094547503
 10
1.3489614748
 20
22.0662354277
 10
1.4040951494
 20
22.1218260421
 10
1.4645986278
 20
22.1757685644
 10
1.5304709794
 20
22.2280214639
 10
1.6017131347
 20
22.2786262713
 10
1.6778472324
 20
22.3272495498
 10
1.7588638614
 20
22.3738772923
 10
1.8447724328
 20
22.418523506
 10
1.9351233185
 20
22.4608967751
 10
2.0301735986
 20
22.5010559731
 10
2.1296661932
 20
22.5389422265
 10
2.2323802335
 20
22.5740874997
 10
2.3387211023
 20
22.6064652196
 10
2.4482834169
 20
22.6361019591
 10
2.5586301613
 20
22.6626094013
 10
2.6697346782
 20
22.6858087948
 10
2.7816236249
 20
22.7058788908
 10
2.891939957
 20
22.7229676266
 10
3.0003304469
 20
22.7369415225
 10
3.1071483222
 20
22.747934058
 10
3.2110962213
 20
22.7564936093
 10
3.3119320557
 20
22.7625961788
 10
3.409897914
 20
22.766265764
 10
3.5044227004
 20
22.7681227328
 10
3.5953444405
 20
22.7681886017
 10
3.6828251086
 20
22.7664418542
 10
3.766779532
 20
22.7634383088
 10
3.8470836054
 20
22.7592195082
 10
3.923861434
 20
22.7537439097
 10
3.9974001604
 20
22.747442704
 10
4.0676666941
 20
22.7403566703
 10
4.1346941257
 20
22.7324450294
 10
4.1988688698
 20
22.7240166352
 10
4.2601766167
 20
22.7151059946
 10
4.3186316761
 20
22.7056786008
 10
4.3746633926
 20
22.695939787
 10
4.4282679761
 20
22.6859182653
 10
4.4794492168
 20
22.6755853236
 10
4.5286478291
 20
22.6650601588
 10
4.575866974
 20
22.6543656197
 10
4.6211034906
 20
22.6434788575
 10
4.6647886104
 20
22.6324505239
 10
4.7070660775
 20
22.6212975026
 10
4.7477921479
 20
22.6100029098
 10
4.7869668217
 20
22.5985667455
  0
LWPOLYLINE
  5
2F1
100
AcDbEntity
  8
RACCORDO
100
AcDbPolyline
 62
7
  6
CONTINUOUS
 90
6
 70
0
 10
8.9884167152
 20
18.6514236457
 10
8.8787409823
 20
18.5888496265
 10
8.7665867461
 20
18.5246886941
 10
8.6519540065
 20
18.4589408486
 10
8.5348634666
 20
18.3916094978
 10
8.4748678761
 20
18.3570287082
  0
LWPOLYLINE
  5
2F2
100
AcDbEntity
  8
RACCORDO
100
AcDbPolyline
 62
250
  6
CONTINUOUS
 90
19
 70
0
 10
-3.8193085117
 20
10.8153329805
 10
-3.8747372862
 20
10.7839837244
 10
-3.9297108982
 20
10.7476705744
 10
-3.9839032178
 20
10.7066141572
 10
-4.0369973819
 20
10.6610648857
 10
-4.0886737946
 20
10.6112973355
 10
-4.1386122256
 20
10.5576091197
 10
-4.1865150432
 20
10.50032698
 10
-4.2321003278
 20
10.4397961833
 10
-4.2750893984
 20
10.3763741973
 10
-4.315226662
 20
10.3104433663
 10
-4.3522748973
 20
10.2424017849
 10
-4.386007468
 20
10.172652172
 10
-4.4162238286
 20
10.1016125787
 10
-4.4427442915
 20
10.0297129839
 10
-4.4654044658
 20
9.9573852619
 10
-4.4840676142
 20
9.8850645394
 10
-4.4986251351
 20
9.8131865238
 10
-4.5089905279
 20
9.7421837513
  0
LINE
  5
2F3
100
AcDbEntity
  8
0
100
AcDbLine
 62
7
  6
CONTINUOUS
 10
1.4278343648
 20
13.9628284449
 11
0.5377741821
 21
13.4661475236
  0
LINE
  5
2F4
100
AcDbEntity
  8
RACCORDO
100
AcDbLine
 62
7
  6
CONTINUOUS
 10
8.4461467384
 20
18.3927935497
 11
8.4236384735
 21
18.3803042508
  0
LINE
  5
2F5
100
AcDbEntity
  8
0
100
AcDbLine
 62
250
  6
CONTINUOUS
 10
1.7816568801
 20
13.7859171873
 11
0.7024828161
 21
13.1967643452
  0
LINE
  5
2F6
100
AcDbEntity
  8
ASSI
100
AcDbLine
 62
7
  6
CONTINUOUS
 10
1.8849716383
 20
14.4363282009
 11
7.928090772
 21
17.6309821633
  0
LINE
  5
2F7
100
AcDbEntity
  8
0
100
AcDbLine
 62
7
  6
CONTINUOUS
 10
8.4458354356
 20
18.3926294138
 11
9.2615692922
 21
18.8227820061
  0
LINE
  5
2F8
100
AcDbEntity
  8
DRAFT
100
AcDbLine
 62
7
  6
CONTINUOUS
 10
2.5014070107
 20
14.1274086852
 11
8.7839709352
 21
17.4277021581
  0
LINE
  5
2F9
100
AcDbEntity
  8
ASSI
100
AcDbLine
 62
7
  6
CONTINUOUS
 10
1.5390350187
 20
14.88374572
 11
7.928090772
 21
18.2324992449
  0
LINE
  5
2FA
100
AcDbEntity
  8
RACCORDO
100
AcDbLine
 62
250
  6
CONTINUOUS
 10
-0.9408521982
 20
12.2710690149
 11
-3.8193085117
 21
10.8153329805
  0
LINE
  5
2FB
100
AcDbEntity
  8
0
100
AcDbLine
 62
250
  6
CONTINUOUS
 10
2.4823281966
 20
14.1376499218
 11
1.7813922428
 21
13.7860495059
  0
LINE
  5
2FC
100
AcDbEntity
  8
0
100
AcDbLine
 62
250
  6
CONTINUOUS
 10
-0.173446426
 20
14.7622571024
 11
1.4278343648
 21
15.5649791059
  0
LINE
  5
2FD
100
AcDbEntity
  8
0
100
AcDbLine
 62
7
  6
CONTINUOUS
 10
-10.8758236278
 20
20.1146574412
 11
-10.8758236278
 21
21.7168081022
  0
LINE
  5
2FE
100
AcDbEntity
  8
0
100
AcDbLine
 62
250
  6
CONTINUOUS
 10
-10.3475564561
 20
21.9802469222
 11
-10.3475564561
 21
21.6327154055
  0
LINE
  5
2FF
100
AcDbEntity
  8
0
100
AcDbLine
 62
7
  6
CONTINUOUS
 10
-10.2753585991
 20
22.0681195544
 11
-10.2753585991
 21
21.7205880377
  0
LINE
  5
300
100
AcDbEntity
  8
DRAFT
100
AcDbLine
 62
7
  6
CONTINUOUS
 10
-9.9919401513
 20
16.7966129915
 11
-9.9919401513
 21
17.7010375426
  0
LINE
  5
301
100
AcDbEntity
  8
0
100
AcDbLine
 62
7
  6
CONTINUOUS
 10
-9.9504140719
 20
19.9693755549
 11
-9.9504140719
 21
18.5232127892
  0
LINE
  5
302
100
AcDbEntity
  8
0
100
AcDbLine
 62
7
  6
CONTINUOUS
 10
-9.2910041975
 20
18.193507852
 11
-9.2910041975
 21
19.6396706178
  0
LINE
  5
303
100
AcDbEntity
  8
RACCORDO
100
AcDbLine
 62
7
  6
CONTINUOUS
 10
-8.984711025
 20
16.5698614201
 11
-8.984711025
 21
17.1974229794
  0
LWPOLYLINE
  5
304
100
AcDbEntity
  8
0
100
AcDbPolyline
 62
250
  6
CONTINUOUS
 90
18
 70
0
 10
-10.2753585991
 20
22.0681195544
 10
-10.2754121606
 20
22.0655321863
 10
-10.275938588
 20
22.0596098822
 10
-10.2770260003
 20
22.0537067094
 10
-10.278671955
 20
22.0478359426
 10
-10.2808727522
 20
22.0420107882
 10
-10.2836234451
 20
22.0362443473
 10
-10.2869178489
 20
22.0305495908
 10
-10.2907485534
 20
22.0249393319
 10
-10.295106943
 20
22.0194261902
 10
-10.2999832166
 20
22.0140225651
 10
-10.3053664061
 20
22.0087406124
 10
-10.3112444073
 20
22.0035922097
 10
-10.3176039974
 20
21.9985889398
 10
-10.3244308602
 20
21.9937420649
 10
-10.3317096343
 20
21.9890624889
 10
-10.3394239505
 20
21.9845607331
 10
-10.3475564561
 20
21.9802469222
  0
LWPOLYLINE
  5
305
100
AcDbEntity
  8
0
100
AcDbPolyline
 62
250
  6
CONTINUOUS
 90
18
 70
0
 10
-10.2753586
 20
21.7205773348
 10
-10.2754130219
 20
21.7179799502
 10
-10.275941375
 20
21.7120579683
 10
-10.277030647
 20
21.7061551912
 10
-10.278678385
 20
21.7002848852
 10
-10.2808808852
 20
21.6944602391
 10
-10.2836332169
 20
21.6886943094
 10
-10.2869291758
 20
21.683000107
 10
-10.2907612672
 20
21.6773905496
 10
-10.2951207793
 20
21.6718783201
 10
-10.299997925
 20
21.6664757318
 10
-10.3053818203
 20
21.6611948209
 10
-10.3112608553
 20
21.6560470505
 10
-10.3176213921
 20
21.6510444311
 10
-10.3244475518
 20
21.6461992766
 10
-10.3317231243
 20
21.641522712
 10
-10.3394319579
 20
21.6370247621
 10
-10.3475564561
 20
21.6327154055
  0
LWPOLYLINE
  5
306
100
AcDbEntity
  8
DRAFT
100
AcDbPolyline
 62
7
  6
CONTINUOUS
 90
3
 70
0
 10
-15.0525075407
 20
-14.3913246743
 10
-15.0426938064
 20
-14.3629736318
 10
-15.0318206394
 20
-14.3355545913
  0
LWPOLYLINE
  5
307
100
AcDbEntity
  8
SUPERFICI
100
AcDbPolyline
 62
7
  6
CONTINUOUS
 90
19
 70
0
 10
-15.0318206394
 20
-14.3355545913
 10
-15.0461189737
 20
-14.3724711918
 10
-15.0585120346
 20
-14.4109590265
 10
-15.0689988454
 20
-14.4510175334
 10
-15.0775936642
 20
-14.4927497286
 10
-15.0842801196
 20
-14.5360513779
 10
-15.0890118007
 20
-14.5806113271
 10
-15.0917728042
 20
-14.6264305243
 10
-15.0925780521
 20
-14.673507431
 10
-15.0914284081
 20
-14.7215277448
 10
-15.0883133174
 20
-14.7704974549
 10
-15.0832433574
 20
-14.8204105444
 10
-15.076252113
 20
-14.8709352794
 10
-15.0673254007
 20
-14.9220811664
 10
-15.0564784423
 20
-14.973839248
 10
-15.0437899508
 20
-15.0258506725
 10
-15.0292870601
 20
-15.0779963206
 10
-15.0129447566
 20
-15.1303964822
 10
-14.994764022
 20
-15.1830517004
  0
LWPOLYLINE
  5
308
100
AcDbEntity
  8
0
100
AcDbPolyline
 62
7
  6
CONTINUOUS
 90
25
 70
0
 10
-2.6026742879
 20
16.4388559632
 10
-2.5970962977
 20
16.450882832
 10
-2.5919892017
 20
16.4633473717
 10
-2.5873529999
 20
16.4762495825
 10
-2.5831825396
 20
16.4896088893
 10
-2.5794829735
 20
16.503405867
 10
-2.5762697599
 20
16.5175822412
 10
-2.5735449349
 20
16.5321395908
 10
-2.5713064624
 20
16.5470763367
 10
-2.5695636925
 20
16.5623294672
 10
-2.5683186989
 20
16.5779003013
 10
-2.5675694079
 20
16.59378752
 10
-2.5673189489
 20
16.6099241546
 10
-2.5675694079
 20
16.6263112483
 10
-2.5683186989
 20
16.6429477579
 10
-2.5695636925
 20
16.6597635856
 10
-2.5713064624
 20
16.676759486
 10
-2.5735449349
 20
16.6939347045
 10
-2.5762697599
 20
16.711216879
 10
-2.5794829735
 20
16.7286064668
 10
-2.5831825396
 20
16.7461030107
 10
-2.5873529999
 20
16.7636327777
 10
-2.5919892017
 20
16.7811711903
 10
-2.5970962977
 20
16.7987428261
 10
-2.6026742879
 20
16.816347685
  0
LWPOLYLINE
  5
309
100
AcDbEntity
  8
0
100
AcDbPolyline
 62
7
  6
CONTINUOUS
 90
31
 70
0
 10
2.6697728691
 20
19.0423899112
 10
2.6780856687
 20
19.0530832159
 10
2.6858649953
 20
19.0643981388
 10
2.6931108488
 20
19.0763346799
 10
2.6998338391
 20
19.0889154703
 10
2.7060233564
 20
19.1021178789
 10
2.7116475716
 20
19.1158740126
 10
2.7167035727
 20
19.130186724
 10
2.7211942715
 20
19.1450531605
 10
2.7250965752
 20
19.160396872
 10
2.7284074527
 20
19.1762203171
 10
2.731129935
 20
19.1925210372
 10
2.7332500218
 20
19.2092152066
 10
2.7347646103
 20
19.2263048519
 10
2.7356768033
 20
19.2437879464
 10
2.73598191
 20
19.2615745841
 10
2.7356768033
 20
19.2796663285
 10
2.7347646103
 20
19.298061616
 10
2.7332500218
 20
19.3166658497
 10
2.731129935
 20
19.335480106
 10
2.7284074527
 20
19.3545033084
 10
2.7250965752
 20
19.3736376309
 10
2.7211942715
 20
19.3928836461
 10
2.7167035727
 20
19.4122407815
 10
2.7116475716
 20
19.4316094939
 10
2.7060233564
 20
19.4509898428
 10
2.6998338391
 20
19.4703817687
 10
2.6931108488
 20
19.4896855494
 10
2.6858649953
 20
19.5088679441
 10
2.6780856687
 20
19.5279621935
 10
2.6697728691
 20
19.5469682978
  0
LWPOLYLINE
  5
30A
100
AcDbEntity
  8
0
100
AcDbPolyline
 62
7
  6
CONTINUOUS
 90
41
 70
0
 10
0.5377741821
 20
14.2737796454
 10
0.5320354988
 20
14.2670668729
 10
0.5261097792
 20
14.2604256411
 10
0.5199982976
 20
14.2538643848
 10
0.5136997212
 20
14.247392472
 10
0.507218666
 20
14.2410175464
 10
0.5005656384
 20
14.2347455632
 10
0.4937427537
 20
14.2285852453
 10
0.4867525515
 20
14.2225451521
 10
0.4796064348
 20
14.2166311215
 10
0.4723072505
 20
14.2108519543
 10
0.4648582327
 20
14.2052162672
 10
0.4572716242
 20
14.1997297497
 10
0.4495510288
 20
14.1944012162
 10
0.4417003933
 20
14.1892392706
 10
0.4337327334
 20
14.1842494221
 10
0.425652409
 20
14.1794404152
 10
0.4174641222
 20
14.1748207872
 10
0.4091816681
 20
14.1703958806
 10
0.40081019
 20
14.1661742948
 10
0.3923551669
 20
14.1621644192
 10
0.3838311802
 20
14.1583714253
 10
0.3752441802
 20
14.1548036773
 10
0.3666004507
 20
14.1514693262
 10
0.3579153824
 20
14.1483733565
 10
0.34919576
 20
14.1455237909
 10
0.3404486958
 20
14.1429284316
 10
0.331690414
 20
14.1405920333
 10
0.3229285626
 20
14.1385221499
 10
0.3141710957
 20
14.1367260987
 10
0.305435073
 20
14.1352083209
 10
0.2967290344
 20
14.1339757486
 10
0.2880617694
 20
14.1330350479
 10
0.2794511195
 20
14.1323902121
 10
0.2709065656
 20
14.1320473702
 10
0.2624376707
 20
14.1320123385
 10
0.2540628253
 20
14.1322884808
 10
0.2457924219
 20
14.1328809197
 10
0.237636766
 20
14.1337944206
 10
0.2296145453
 20
14.1350315303
 10
0.2239063489
 20
14.1361292475
  0
LWPOLYLINE
  5
30B
100
AcDbEntity
  8
RACCORDO
100
AcDbPolyline
 62
250
  6
CONTINUOUS
 90
5
 70
0
 10
8.9884167152
 20
18.6514236457
 10
9.0645671832
 20
18.7055605973
 10
9.1462255089
 20
18.7576531684
 10
9.2331726329
 20
18.8075613786
 10
9.2615692922
 20
18.8227820061
  0
LWPOLYLINE
  5
30C
100
AcDbEntity
  8
RACCORDO
100
AcDbPolyline
 62
250
  6
CONTINUOUS
 90
44
 70
0
 10
9.1128907174
 20
18.6692325273
 10
9.1857430208
 20
18.719646754
 10
9.2632054507
 20
18.7679012322
 10
9.3452780071
 20
18.813995962
 10
9.4322002454
 20
18.8580395
 10
9.5237326102
 20
18.8999232894
 10
9.6191564358
 20
18.9393216609
 10
9.7185019496
 20
18.9762155317
 10
9.8217389241
 20
19.0106239846
 10
9.9280580111
 20
19.0422785977
 10
10.037477811
 20
19.0711567456
 10
10.1499797234
 20
19.0972810538
 10
10.2646985982
 20
19.1204509768
 10
10.3816490782
 20
19.1406445895
 10
10.5008165207
 20
19.1578838171
 10
10.6212918474
 20
19.1720338892
 10
10.7431046854
 20
19.1830715754
 10
10.8662254076
 20
19.1910201061
 10
10.9896560553
 20
19.1958144021
 10
11.1134084158
 20
19.197424542
 10
11.2374707017
 20
19.1958804472
 10
11.3608095923
 20
19.1912068029
 10
11.4833493855
 20
19.1833865118
 10
11.6051657834
 20
19.1724366712
 10
11.7254525714
 20
19.158433258
 10
11.8441803799
 20
19.14137463
 10
11.9613785785
 20
19.1212624294
 10
12.0763290614
 20
19.0981775602
 10
12.1892470317
 20
19.0720283131
 10
12.2999172863
 20
19.0429063973
 10
12.4069761104
 20
19.0111678436
 10
12.5105463223
 20
18.9766176679
 10
12.6105051037
 20
18.9394508543
 10
12.705120285
 20
18.9006083858
 10
12.7940564832
 20
18.8600269438
 10
12.8776490814
 20
18.8177698469
 10
12.955172059
 20
18.7749680344
 10
13.026234368
 20
18.7317253309
 10
13.0912270565
 20
18.6879379119
 10
13.1505972487
 20
18.6444252422
 10
13.2041993078
 20
18.6012869466
 10
13.2521788704
 20
18.5584234004
 10
13.2954199709
 20
18.5163551945
 10
13.2963203801
 20
18.5153911974
  0
LINE
  5
30D
100
AcDbEntity
  8
0
100
AcDbLine
 62
7
  6
CONTINUOUS
 10
11.1601632806
 20
18.5565657326
 11
10.8551066757
 21
18.3513214467
  0
LWPOLYLINE
  5
30E
100
AcDbEntity
  8
RACCORDO
100
AcDbPolyline
 62
250
  6
CONTINUOUS
 90
19
 70
0
 10
-3.465876275
 20
10.2057525429
 10
-3.4940471606
 20
10.1901833089
 10
-3.5217209888
 20
10.1723305414
 10
-3.5488977595
 20
10.1521942405
 10
-3.5757534916
 20
10.1296174617
 10
-3.6021121662
 20
10.1047571495
 10
-3.627445727
 20
10.0780841369
 10
-3.6517199984
 20
10.0495701916
 10
-3.6749691559
 20
10.019243546
 10
-3.6967676698
 20
9.9876597304
 10
-3.7170849047
 20
9.9547999383
 10
-3.735951496
 20
9.9206829762
 10
-3.7530338198
 20
9.8859207944
 10
-3.7683027784
 20
9.8504809222
 10
-3.7817874695
 20
9.8143958303
 10
-3.7932415625
 20
9.7783748806
 10
-3.8025829472
 20
9.7426545274
 10
-3.8098937338
 20
9.7069983165
 10
-3.8151739223
 20
9.6714062479
  0
LINE
  5
30F
100
AcDbEntity
  8
0
100
AcDbLine
 62
250
  6
CONTINUOUS
 10
2.134941146
 20
13.1760641607
 11
1.0557670821
 21
12.5869113186
  0
LINE
  5
310
100
AcDbEntity
  8
RACCORDO
100
AcDbLine
 62
250
  6
CONTINUOUS
 10
17.7371774543
 20
19.0820829974
 11
3.1350042328
 21
11.6531866696
  0
LINE
  5
311
100
AcDbEntity
  8
RACCORDO
100
AcDbLine
 62
250
  6
CONTINUOUS
 10
-0.5874199615
 20
11.6614885773
 11
-3.465876275
 21
10.2057525429
  0
LINE
  5
312
100
AcDbEntity
  8
0
100
AcDbLine
 62
250
  6
CONTINUOUS
 10
2.8358770998
 20
13.5278774241
 11
2.134941146
 21
13.1762770082
  0
LINE
  5
313
100
AcDbEntity
  8
RACCORDO
100
AcDbLine
 62
250
  6
CONTINUOUS
 10
9.5294978709
 20
16.1418583993
 11
17.1014312686
 21
19.8199181378
  0
LINE
  5
314
100
AcDbEntity
  8
RACCORDO
100
AcDbLine
 62
250
  6
CONTINUOUS
 10
9.8671662047
 20
15.5594666722
 11
17.6013551162
 21
19.3163418785
  0
LINE
  5
315
100
AcDbEntity
  8
RACCORDO
100
AcDbLine
 62
7
  6
CONTINUOUS
 10
16.5690334107
 20
20.0861170668
 11
13.0056025741
 21
18.375862319
  0
LWPOLYLINE
  5
316
100
AcDbEntity
  8
0
100
AcDbPolyline
 62
250
  6
CONTINUOUS
 90
13
 70
0
 10
1.9531760996
 20
-25.5932341543
 10
1.9485352076
 20
-25.5835882245
 10
1.9435100768
 20
-25.574274642
 10
1.9381120538
 20
-25.565314441
 10
1.9323533398
 20
-25.5567278716
 10
1.9262469465
 20
-25.548534326
 10
1.9198066485
 20
-25.540752278
 10
1.913046967
 20
-25.5333992714
 10
1.9059829758
 20
-25.5264917326
 10
1.8986307866
 20
-25.5200454448
 10
1.8910075653
 20
-25.5140753799
 10
1.8831307703
 20
-25.508595033
 10
1.8750180447
 20
-25.5036165079
  0
LWPOLYLINE
  5
317
100
AcDbEntity
  8
RACCORDO
100
AcDbPolyline
 62
250
  6
CONTINUOUS
 90
11
 70
0
 10
-4.5089905279
 20
-26.8817770766
 10
-4.4986252046
 20
-26.9426867682
 10
-4.4840676938
 20
-27.000382776
 10
-4.4654044221
 20
-27.0545190021
 10
-4.4427438626
 20
-27.1047724958
 10
-4.4162227227
 20
-27.1508405258
 10
-4.3860055853
 20
-27.1924429135
 10
-4.3522722162
 20
-27.229330927
 10
-4.3152232001
 20
-27.2612856173
 10
-4.2750854181
 20
-27.2881138529
 10
-4.2541462788
 20
-27.2994469235
  0
LINE
  5
318
100
AcDbEntity
  8
0
100
AcDbLine
 62
7
  6
CONTINUOUS
 10
-8.5777265889
 20
19.8229766488
 11
-8.5777265889
 21
18.5893622971
  0
LINE
  5
319
100
AcDbEntity
  8
0
100
AcDbLine
 62
250
  6
CONTINUOUS
 10
-6.9532376255
 20
17.7771178154
 11
-6.9532376255
 21
19.0107321671
  0
LINE
  5
31A
100
AcDbEntity
  8
0
100
AcDbLine
 62
250
  6
CONTINUOUS
 10
-6.6716344164
 20
17.7855015289
 11
-6.6716344164
 21
19.0101178003
  0
LWPOLYLINE
  5
31B
100
AcDbEntity
  8
0
100
AcDbPolyline
 62
250
  6
CONTINUOUS
 90
31
 70
0
 10
-6.9532376255
 20
19.0107321671
 10
-6.9530460841
 20
19.0198395471
 10
-6.9524715391
 20
19.0291191712
 10
-6.9515148903
 20
19.0385461399
 10
-6.9501777882
 20
19.0480969173
 10
-6.9484633649
 20
19.0577439196
 10
-6.9463769464
 20
19.0674554355
 10
-6.9439247398
 20
19.0772030743
 10
-6.941113038
 20
19.0869622483
 10
-6.9379494028
 20
19.0967066618
 10
-6.9344423462
 20
19.1064099775
 10
-6.9306014427
 20
19.116045598
 10
-6.9264372491
 20
19.1255870076
 10
-6.9219611615
 20
19.1350081185
 10
-6.917185314
 20
19.1442834138
 10
-6.9121226632
 20
19.1533877278
 10
-6.9067869627
 20
19.1622963121
 10
-6.9011927493
 20
19.1709848821
 10
-6.895355262
 20
19.1794297621
 10
-6.8892903914
 20
19.1876079601
 10
-6.8830146393
 20
19.1954972206
 10
-6.8765450909
 20
19.2030760626
 10
-6.8698993541
 20
19.2103238562
 10
-6.8630955163
 20
19.2172208732
 10
-6.8561521008
 20
19.2237483347
 10
-6.8490880013
 20
19.2298884772
 10
-6.841922449
 20
19.235624583
 10
-6.834674967
 20
19.2409410245
 10
-6.8273652886
 20
19.2458233296
 10
-6.820013303
 20
19.2502582172
 10
-6.8126390208
 20
19.254233619
  0
LWPOLYLINE
  5
31C
100
AcDbEntity
  8
DRAFT
100
AcDbPolyline
 62
7
  6
CONTINUOUS
 90
3
 70
0
 10
-13.0372531188
 20
-15.3989518839
 10
-13.0274393822
 20
-15.3706008431
 10
-13.0165662126
 20
-15.3431818047
  0
LWPOLYLINE
  5
31D
100
AcDbEntity
  8
SUPERFICI
100
AcDbPolyline
 62
7
  6
CONTINUOUS
 90
18
 70
0
 10
-14.1108805255
 20
-15.6249934486
 10
-14.0969815834
 20
-15.5882867522
 10
-14.0849472879
 20
-15.5499892075
 10
-14.074776664
 20
-15.5101002754
 10
-14.0664539379
 20
-15.4685165152
 10
-14.0599927738
 20
-15.4253402032
 10
-14.0554368624
 20
-15.3808796671
 10
-14.0528009674
 20
-15.3351333364
 10
-14.0520693437
 20
-15.2881022647
 10
-14.0532409527
 20
-15.2400993032
 10
-14.0563263165
 20
-15.1911184244
 10
-14.0613149337
 20
-15.1411657078
 10
-14.0681752534
 20
-15.0905727408
 10
-14.0769225576
 20
-15.0393303538
 10
-14.0875425999
 20
-14.9874483373
 10
-14.0999605571
 20
-14.9352872913
 10
-14.1141523846
 20
-14.8829679296
 10
-14.1301442471
 20
-14.8303707601
  0
LWPOLYLINE
  5
31E
100
AcDbEntity
  8
SUPERFICI
100
AcDbPolyline
 62
7
  6
CONTINUOUS
 90
19
 70
0
 10
-13.0165662126
 20
-15.3431818047
 10
-13.0308645502
 20
-15.3800984025
 10
-13.0432576142
 20
-15.4185862351
 10
-13.0537444276
 20
-15.4586447403
 10
-13.0623392487
 20
-15.5003769343
 10
-13.0690257059
 20
-15.5436785829
 10
-13.0737573885
 20
-15.5882385317
 10
-13.076518393
 20
-15.6340577289
 10
-13.0773236415
 20
-15.6811346359
 10
-13.0761739976
 20
-15.7291549501
 10
-13.0730589067
 20
-15.7781246609
 10
-13.067988946
 20
-15.8280377514
 10
-13.0609977006
 20
-15.8785624873
 10
-13.0520709868
 20
-15.9297083754
 10
-13.0412240265
 20
-15.9814664581
 10
-13.0285355328
 20
-16.0334778836
 10
-13.0140326395
 20
-16.0856235325
 10
-12.9976903331
 20
-16.1380236949
 10
-12.9795095952
 20
-16.1906789137
  0
LINE
  5
31F
100
AcDbEntity
  8
0
100
AcDbLine
 62
250
  6
CONTINUOUS
 10
1.4278343648
 20
14.8379342534
 11
1.9561015366
 21
15.4808864092
  0
LINE
  5
320
100
AcDbEntity
  8
0
100
AcDbLine
 62
7
  6
CONTINUOUS
 10
1.4278343648
 20
14.7484037871
 11
1.971462109
 21
15.4100512426
  0
LWPOLYLINE
  5
321
100
AcDbEntity
  8
0
100
AcDbPolyline
 62
7
  6
CONTINUOUS
 90
10
 70
0
 10
2.7660920458
 20
9.9188365784
 10
2.8505857685
 20
9.9655518069
 10
2.9353658799
 20
10.0122606937
 10
3.020437708
 20
10.058961481
 10
3.1058108061
 20
10.105634927
 10
3.1914858675
 20
10.1522973785
 10
3.2774531022
 20
10.1990009688
 10
3.3637105698
 20
10.2457626488
 10
3.4502658043
 20
10.2925639629
 10
3.537121595
 20
10.3394042848
  0
LWPOLYLINE
  5
322
100
AcDbEntity
  8
RACCORDO
100
AcDbPolyline
 62
250
  6
CONTINUOUS
 90
30
 70
0
 10
18.15132793
 20
17.6504494227
 10
18.1699890685
 20
17.6603756518
 10
18.1881021634
 20
17.670552478
 10
18.2056537639
 20
17.6809723418
 10
18.2226308361
 20
17.6916275062
 10
18.2390207726
 20
17.7025100533
 10
18.2548114023
 20
17.7136118898
 10
18.2699909989
 20
17.7249247693
 10
18.2845482899
 20
17.7364402887
 10
18.2984724651
 20
17.7481498848
 10
18.3117531843
 20
17.7600448598
 10
18.3243805851
 20
17.7721163785
 10
18.3363452903
 20
17.7843554653
 10
18.347638415
 20
17.796753029
 10
18.3582515727
 20
17.8092998614
 10
18.3681768821
 20
17.8219866344
 10
18.3774069726
 20
17.8348039245
 10
18.3859349898
 20
17.8477422118
 10
18.3937546009
 20
17.8607918783
 10
18.4008599989
 20
17.8739432309
 10
18.4072459073
 20
17.8871865018
 10
18.4129075839
 20
17.9005118482
 10
18.4178408244
 20
17.9139093719
 10
18.4220419652
 20
17.9273691226
 10
18.4255078866
 20
17.9408810983
 10
18.4282360148
 20
17.9544352624
 10
18.4302243238
 20
17.9680215479
 10
18.4314713371
 20
17.9816298606
 10
18.4319761287
 20
17.995250092
 10
18.4319881293
 20
17.9976865915
  0
LINE
  5
323
100
AcDbEntity
  8
RACCORDO
100
AcDbLine
 62
250
  6
CONTINUOUS
 10
18.15132793
 20
17.6504494227
 11
3.5491547084
 21
10.221553095
  0
LINE
  5
324
100
AcDbEntity
  8
0
100
AcDbLine
 62
7
  6
CONTINUOUS
 10
2.8358770998
 20
10.5959724731
 11
3.5368130536
 21
10.94948078
  0
LINE
  5
325
100
AcDbEntity
  8
0
100
AcDbLine
 62
7
  6
CONTINUOUS
 10
3.537121595
 20
9.471933381
 11
3.3637105698
 21
9.3891185604
  0
LWPOLYLINE
  5
326
100
AcDbEntity
  8
0
100
AcDbPolyline
 62
7
  6
CONTINUOUS
 90
8
 70
0
 10
3.3637105698
 20
9.3891185604
 10
3.2774531022
 20
9.348096119
 10
3.1914858675
 20
9.3073188799
 10
3.1058108061
 20
9.2668030968
 10
3.020437708
 20
9.2265948416
 10
2.9353658799
 20
9.1867123974
 10
2.8505857685
 20
9.1471448327
 10
2.7660920458
 20
9.107895718
  0
LWPOLYLINE
  5
327
100
AcDbEntity
  8
RACCORDO
100
AcDbPolyline
 62
250
  6
CONTINUOUS
 90
19
 70
0
 10
-3.8151739223
 20
-26.8240474409
 10
-3.8098935091
 20
-26.8546377188
 10
-3.802579092
 20
-26.8833661307
 10
-3.7932306708
 20
-26.9102326767
 10
-3.7817657349
 20
-26.9353976929
 10
-3.7682667951
 20
-26.9587008432
 10
-3.7529813836
 20
-26.9796611192
 10
-3.7358766804
 20
-26.9982171238
 10
-3.7169855056
 20
-27.0144302542
 10
-3.6966538516
 20
-27.0280036943
 10
-3.6748577351
 20
-27.0388856969
 10
-3.6516211395
 20
-27.0471280092
 10
-3.6273620073
 20
-27.0525890576
 10
-3.6020453401
 20
-27.055212133
 10
-3.5757061364
 20
-27.0550539444
 10
-3.5488673342
 20
-27.052143046
 10
-3.5217032463
 20
-27.0464889557
 10
-3.4940395599
 20
-27.0380821554
 10
-3.465876275
 20
-27.0269226453
  0
LWPOLYLINE
  5
328
100
AcDbEntity
  8
RACCORDO
100
AcDbPolyline
 62
250
  6
CONTINUOUS
 90
10
 70
0
 10
-5.2200828516
 20
-17.1345369576
 10
-5.195367728
 20
-18.2476888608
 10
-5.1570507245
 20
-19.3538417569
 10
-5.1051396119
 20
-20.4527651814
 10
-5.0396445092
 20
-21.5442303604
 10
-4.9605791234
 20
-22.6280098148
 10
-4.8679607398
 20
-23.7038774026
 10
-4.7618085651
 20
-24.7716089603
 10
-4.6421437312
 20
-25.8309823535
 10
-4.5089905279
 20
-26.8817770766
  0
LWPOLYLINE
  5
329
100
AcDbEntity
  8
RACCORDO
100
AcDbPolyline
 62
250
  6
CONTINUOUS
 90
10
 70
0
 10
-4.5224159954
 20
-17.1309085248
 10
-4.4978179603
 20
-18.2382467964
 10
-4.4597112198
 20
-19.3381767307
 10
-4.4080957737
 20
-20.4306983277
 10
-4.3429548206
 20
-21.5160414165
 10
-4.264305162
 20
-22.593976168
 10
-4.1721972025
 20
-23.6638130949
 10
-4.0666477434
 20
-24.7253223681
 10
-3.9476399834
 20
-25.7787338168
 10
-3.8151739223
 20
-26.8240474409
  0
LINE
  5
32A
100
AcDbEntity
  8
0
100
AcDbLine
 62
7
  6
CONTINUOUS
 10
-5.7597203399
 20
18.2549180689
 11
-5.7682810442
 21
19.46256452
  0
LWPOLYLINE
  5
32B
100
AcDbEntity
  8
RACCORDO
100
AcDbPolyline
 62
250
  6
CONTINUOUS
 90
5
 70
0
 10
-5.2847661016
 20
-9.8521318904
 10
-5.2782981051
 20
-11.6773689127
 10
-5.2653616305
 20
-13.4995495984
 10
-5.2459565615
 20
-15.3186164892
 10
-5.2200828516
 20
-17.1345369576
  0
LINE
  5
32C
100
AcDbEntity
  8
0
100
AcDbLine
 62
7
  6
CONTINUOUS
 10
-6.4564062454
 20
19.1173901776
 11
-6.4564062454
 21
17.90494875
  0
LINE
  5
32D
100
AcDbEntity
  8
0
100
AcDbLine
 62
7
  6
CONTINUOUS
 10
-5.3110467278
 20
18.2310580744
 11
-5.3110467278
 21
17.0001024005
  0
LINE
  5
32E
100
AcDbEntity
  8
0
100
AcDbLine
 62
250
  6
CONTINUOUS
 10
-5.2524680841
 20
18.1603473963
 11
-5.2524680841
 21
16.9267330447
  0
LINE
  5
32F
100
AcDbEntity
  8
RACCORDO
100
AcDbLine
 62
7
  6
CONTINUOUS
 10
-4.9936986755
 20
14.2974922536
 11
-4.9936986755
 21
14.5743552453
  0
LINE
  5
330
100
AcDbEntity
  8
0
100
AcDbLine
 62
7
  6
CONTINUOUS
 10
-4.3289150744
 20
17.1586260562
 11
-4.3289150744
 21
15.7124632904
  0
LWPOLYLINE
  5
331
100
AcDbEntity
  8
RACCORDO
100
AcDbPolyline
 62
250
  6
CONTINUOUS
 90
4
 70
0
 10
-5.2653616423
 20
-4.3580132081
 10
-5.2782981142
 20
-6.192471161
 10
-5.2847661049
 20
-8.0238465738
 10
-5.2847661016
 20
-9.8521318904
  0
LWPOLYLINE
  5
332
100
AcDbEntity
  8
RACCORDO
100
AcDbPolyline
 62
250
  6
CONTINUOUS
 90
8
 70
0
 10
-4.5676504068
 20
-4.3672027328
 10
-4.5805745215
 20
-6.1997830067
 10
-4.5870365732
 20
-8.0293175968
 10
-4.5870365643
 20
-9.855798237
 10
-4.5805745014
 20
-11.6792001297
 10
-4.5676503867
 20
-13.4995150089
 10
-4.548264218
 20
-15.3167511406
 10
-4.5224159954
 20
-17.1309085248
  0
LINE
  5
333
100
AcDbEntity
  8
RACCORDO
100
AcDbLine
 62
250
  6
CONTINUOUS
 10
-5.2459565709
 20
-2.5205300563
 11
-5.2653616423
 21
-4.3580132081
  0
LINE
  5
334
100
AcDbEntity
  8
RACCORDO
100
AcDbLine
 62
250
  6
CONTINUOUS
 10
-5.2200828516
 20
-0.6800542857
 11
-5.2459565709
 21
-2.5205300563
  0
LWPOLYLINE
  5
335
100
AcDbEntity
  8
RACCORDO
100
AcDbPolyline
 62
250
  6
CONTINUOUS
 90
3
 70
0
 10
-4.5224159954
 20
-0.6928803356
 10
-4.5482642314
 20
-2.5315685091
 10
-4.5676504068
 20
-4.3672027328
  0
LWPOLYLINE
  5
336
100
AcDbEntity
  8
0
100
AcDbPolyline
 62
250
  6
CONTINUOUS
 90
13
 70
0
 10
-5.2524680841
 20
18.1603473963
 10
-5.2522765427
 20
18.1694547764
 10
-5.2517019976
 20
18.1787344005
 10
-5.2507453488
 20
18.1881613692
 10
-5.2494082467
 20
18.1977121465
 10
-5.2476938234
 20
18.2073591489
 10
-5.2456074049
 20
18.2170706648
 10
-5.2431551984
 20
18.2268183036
 10
-5.2403434965
 20
18.2365774775
 10
-5.2371798613
 20
18.2463218911
 10
-5.2336728048
 20
18.2560252068
 10
-5.2298319013
 20
18.2656608272
 10
-5.2256677076
 20
18.2752022368
  0
LWPOLYLINE
  5
337
100
AcDbEntity
  8
RACCORDO
100
AcDbPolyline
 62
250
  6
CONTINUOUS
 90
10
 70
0
 10
-4.5089905279
 20
9.7421837513
 10
-4.6421437302
 20
8.5649963896
 10
-4.7618085636
 20
7.3920318348
 10
-4.8679607383
 20
6.2235348821
 10
-4.9605791223
 20
5.0597496333
 10
-5.0396445087
 20
3.9009186235
 10
-5.105139612
 20
2.747282774
 10
-5.1570507248
 20
1.5990824361
 10
-5.1953677283
 20
0.4565573378
 10
-5.2200828516
 20
-0.6800542857
  0
LWPOLYLINE
  5
338
100
AcDbEntity
  8
RACCORDO
100
AcDbPolyline
 62
250
  6
CONTINUOUS
 90
10
 70
0
 10
-3.8151739223
 20
9.6714062479
 10
-3.9476410538
 20
8.5003754225
 10
-4.0666495453
 20
7.3340211507
 10
-4.1721993966
 20
6.1723434325
 10
-4.264307314
 20
5.0150965301
 10
-4.3429565912
 20
3.8625261813
 10
-4.4080971099
 20
2.715369599
 10
-4.4597121637
 20
1.573872521
 10
-4.4978184588
 20
0.4377892094
 10
-4.5224159954
 20
-0.6928803356
  0
LWPOLYLINE
  5
339
100
AcDbEntity
  8
DRAFT
100
AcDbPolyline
 62
7
  6
CONTINUOUS
 90
3
 70
0
 10
-10.8452221657
 20
-16.4949673618
 10
-10.8354084315
 20
-16.4666163192
 10
-10.8245352644
 20
-16.4391972788
  0
LWPOLYLINE
  5
33A
100
AcDbEntity
  8
SUPERFICI
100
AcDbPolyline
 62
7
  6
CONTINUOUS
 90
18
 70
0
 10
-11.9188493978
 20
-16.7210090125
 10
-11.904950459
 20
-16.6843023135
 10
-11.8929161665
 20
-16.6460047666
 10
-11.8827455453
 20
-16.6061158328
 10
-11.8744228214
 20
-16.5645320714
 10
-11.8679616592
 20
-16.5213557587
 10
-11.8634057492
 20
-16.4768952222
 10
-11.8607698552
 20
-16.4311488914
 10
-11.8600382321
 20
-16.38411782
 10
-11.8612098413
 20
-16.336114859
 10
-11.8642952048
 20
-16.287133981
 10
-11.8692838214
 20
-16.2371812652
 10
-11.8761441401
 20
-16.1865882992
 10
-11.8848914427
 20
-16.1353459132
 10
-11.8955114832
 20
-16.0834638978
 10
-11.9079294381
 20
-16.0313028529
 10
-11.922121263
 20
-15.978983492
 10
-11.9381131226
 20
-15.9263863233
  0
LWPOLYLINE
  5
33B
100
AcDbEntity
  8
0
100
AcDbPolyline
 62
250
  6
CONTINUOUS
 90
30
 70
0
 10
-0.173446426
 20
14.4222831683
 10
-0.1778629134
 20
14.4114011077
 10
-0.1826665157
 20
14.4007415105
 10
-0.1878466599
 20
14.3903285615
 10
-0.1933923365
 20
14.3801851741
 10
-0.1992909006
 20
14.3703352075
 10
-0.2055278422
 20
14.3608031864
 10
-0.2120885388
 20
14.3516113573
 10
-0.2189586739
 20
14.3427796815
 10
-0.2261228889
 20
14.3343279258
 10
-0.2335651323
 20
14.3262750846
 10
-0.2412685274
 20
14.3186394755
 10
-0.2492155386
 20
14.3114385
 10
-0.2573881656
 20
14.3046884613
 10
-0.2657680187
 20
14.2984045411
 10
-0.2743362008
 20
14.2926009119
 10
-0.2830733852
 20
14.2872906698
 10
-0.291959838
 20
14.2824858138
 10
-0.3009754811
 20
14.278197202
 10
-0.3100999565
 20
14.2744345176
 10
-0.3193126741
 20
14.2712062508
 10
-0.3285928383
 20
14.2685196888
 10
-0.3379195009
 20
14.266380896
 10
-0.3472716088
 20
14.2647947004
 10
-0.3566280508
 20
14.2637646827
 10
-0.3659677175
 20
14.2632931676
 10
-0.3752695155
 20
14.2633812211
 10
-0.3845124151
 20
14.2640286412
 10
-0.3936755316
 20
14.2652339569
 10
-0.4002899195
 20
14.2664620075
  0
LWPOLYLINE
  5
33C
100
AcDbEntity
  8
RACCORDO
100
AcDbPolyline
 62
250
  6
CONTINUOUS
 90
56
 70
0
 10
18.2688776111
 20
12.2079458269
 10
18.2759821965
 20
12.2104966787
 10
18.2831609525
 20
12.2128165272
 10
18.2904128805
 20
12.2149067705
 10
18.2977347159
 20
12.2167847683
 10
18.3051273694
 20
12.2184363204
 10
18.3125956377
 20
12.2198160366
 10
18.3201496592
 20
12.2209284826
 10
18.3277753702
 20
12.2217740628
 10
18.335440469
 20
12.2223020594
 10
18.343144723
 20
12.222512028
 10
18.3508826623
 20
12.2224113207
 10
18.3586133572
 20
12.2219617335
 10
18.3663252823
 20
12.2211649701
 10
18.3740224988
 20
12.220028127
 10
18.3816866121
 20
12.2185219983
 10
18.3893047393
 20
12.2166555896
 10
18.3968801823
 20
12.2144311115
 10
18.404417415
 20
12.2118107943
 10
18.4119109639
 20
12.208807339
 10
18.4193534235
 20
12.2054232422
 10
18.4267440827
 20
12.2016081372
 10
18.4340801325
 20
12.1973748524
 10
18.4413469244
 20
12.1927314494
 10
18.448523045
 20
12.1876239248
 10
18.4556021065
 20
12.1820670794
 10
18.4625676306
 20
12.1760739908
 10
18.4693797599
 20
12.1695920816
 10
18.4760270151
 20
12.1626423786
 10
18.4824919811
 20
12.1552399811
 10
18.4887220287
 20
12.1473282394
 10
18.4947001331
 20
12.1389435889
 10
18.5004074065
 20
12.1300959657
 10
18.5057824305
 20
12.1206966614
 10
18.5108092761
 20
12.110798494
 10
18.5154567777
 20
12.1004117546
 10
18.5196300409
 20
12.0893979072
 10
18.5233185945
 20
12.0777775094
 10
18.5264655658
 20
12.0656238595
 10
18.5288978206
 20
12.0528894004
 10
18.530575517
 20
12.0395400971
 10
18.5314599299
 20
12.0257257967
 10
18.5313938776
 20
12.0116557425
 10
18.5303285568
 20
11.9973672912
 10
18.5282686902
 20
11.9828979613
 10
18.5251672342
 20
11.9684154435
 10
18.5209781193
 20
11.9538952709
 10
18.5157280309
 20
11.9394056043
 10
18.509512546
 20
11.9252034365
 10
18.5023612829
 20
11.9113376354
 10
18.4942702762
 20
11.8977347301
 10
18.4853063722
 20
11.8844346254
 10
18.4754793819
 20
11.8714222512
 10
18.4648036824
 20
11.858687799
 10
18.4533569858
 20
11.846272206
 10
18.441161658
 20
11.8341675375
  0
LINE
  5
33D
100
AcDbEntity
  8
DRAFT
100
AcDbLine
 62
7
  6
CONTINUOUS
 10
-0.5874199615
 20
-6.6205444583
 11
-0.0953519195
 21
-6.8665784794
  0
LWPOLYLINE
  5
33E
100
AcDbEntity
  8
0
100
AcDbPolyline
 62
250
  6
CONTINUOUS
 90
5
 70
0
 10
1.967701367
 20
-25.6346958604
 10
1.9646931242
 20
-25.6239449457
 10
1.9612641836
 20
-25.6134353084
 10
1.9574222851
 20
-25.6031906711
 10
1.9531760996
 20
-25.5932341543
  0
LWPOLYLINE
  5
33F
100
AcDbEntity
  8
RACCORDO
100
AcDbPolyline
 62
250
  6
CONTINUOUS
 90
16
 70
0
 10
-3.465876275
 20
10.2057525429
 10
-3.4687516111
 20
10.2515007078
 10
-3.4753629499
 20
10.2987332755
 10
-3.4856379542
 20
10.3469332341
 10
-3.4994641828
 20
10.3955729778
 10
-3.5166903176
 20
10.4441200725
 10
-3.537127817
 20
10.4920430837
 10
-3.5605529881
 20
10.5388174155
 10
-3.5867094257
 20
10.5839310306
 10
-3.6153108105
 20
10.6268900485
 10
-3.6460440682
 20
10.6672241947
 10
-3.6785727795
 20
10.704491917
 10
-3.7125408447
 20
10.7382852067
 10
-3.7475764173
 20
10.7682341094
 10
-3.7832959778
 20
10.7940107664
 10
-3.8193085084
 20
10.8153329821
  0
LWPOLYLINE
  5
340
100
AcDbEntity
  8
0
100
AcDbPolyline
 62
7
  6
CONTINUOUS
 90
6
 70
0
 10
-2.7549753837
 20
22.8258808555
 10
-2.7549807597
 20
22.8262375472
 10
-2.7554675209
 20
22.8290354349
 10
-2.7567215203
 20
22.8313283449
 10
-2.7587099015
 20
22.8331398162
 10
-2.759990746
 20
22.8338856624
  0
LINE
  5
341
100
AcDbEntity
  8
0
100
AcDbLine
 62
250
  6
CONTINUOUS
 10
-3.2094261438
 20
20.0249611467
 11
-3.2182701418
 21
21.270566287
  0
LINE
  5
342
100
AcDbEntity
  8
0
100
AcDbLine
 62
7
  6
CONTINUOUS
 10
-2.2273915225
 20
21.3974637805
 11
-2.2257053187
 21
20.8282949931
  0
LINE
  5
343
100
AcDbEntity
  8
0
100
AcDbLine
 62
7
  6
CONTINUOUS
 10
-3.6695052001
 20
15.3827583533
 11
-3.6695052001
 21
16.828921119
  0
LINE
  5
344
100
AcDbEntity
  8
DRAFT
100
AcDbLine
 62
7
  6
CONTINUOUS
 10
-3.6279791206
 20
14.5190570272
 11
-3.6279791206
 21
13.6146324761
  0
LINE
  5
345
100
AcDbEntity
  8
0
100
AcDbLine
 62
7
  6
CONTINUOUS
 10
-2.7549753836
 20
21.5776208035
 11
-2.7549753836
 21
22.8258849262
  0
LINE
  5
346
100
AcDbEntity
  8
0
100
AcDbLine
 62
7
  6
CONTINUOUS
 10
-2.6026742879
 20
15.9780827713
 11
-2.6026742879
 21
17.3637234173
  0
LINE
  5
347
100
AcDbEntity
  8
0
100
AcDbLine
 62
7
  6
CONTINUOUS
 10
-2.2777297608
 20
15.6904272091
 11
-2.2777297608
 21
15.350453275
  0
LINE
  5
348
100
AcDbEntity
  8
0
100
AcDbLine
 62
250
  6
CONTINUOUS
 10
-2.204506456
 20
15.6020388614
 11
-2.204506456
 21
15.2620649273
  0
LINE
  5
349
100
AcDbEntity
  8
0
100
AcDbLine
 62
7
  6
CONTINUOUS
 10
-2.7899435967
 20
22.8262396482
 11
-2.7898650096
 21
22.834037203
  0
LWPOLYLINE
  5
34A
100
AcDbEntity
  8
0
100
AcDbPolyline
 62
250
  6
CONTINUOUS
 90
34
 70
0
 10
-2.204506456
 20
15.6020388614
 10
-2.2043076533
 20
15.6124033397
 10
-2.203711691
 20
15.6229433245
 10
-2.2027199078
 20
15.6336351101
 10
-2.2013345318
 20
15.644454656
 10
-2.1995586777
 20
15.6553776203
 10
-2.1973963425
 20
15.6663794143
 10
-2.1948523919
 20
15.6774352865
 10
-2.1919325472
 20
15.6885203755
 10
-2.1886433772
 20
15.6996097452
 10
-2.1849922803
 20
15.7106784551
 10
-2.1809874697
 20
15.7217016075
 10
-2.1766379575
 20
15.7326544007
 10
-2.1719535288
 20
15.7435121984
 10
-2.1669447207
 20
15.7542505815
 10
-2.1616228022
 20
15.7648453947
 10
-2.1559997418
 20
15.7752728144
 10
-2.1500881911
 20
15.7855093832
 10
-2.1439014593
 20
15.7955320601
 10
-2.1374534827
 20
15.8053182781
 10
-2.1307587495
 20
15.8148460579
 10
-2.1238322733
 20
15.8240940329
 10
-2.1166895628
 20
15.8330414833
 10
-2.1093467453
 20
15.8416681941
 10
-2.1018204986
 20
15.8499545845
 10
-2.0941278644
 20
15.857881933
 10
-2.0862860518
 20
15.8654325459
 10
-2.0783125529
 20
15.8725895952
 10
-2.0702240754
 20
15.8793379682
 10
-2.0620400041
 20
15.8856613781
 10
-2.0537823333
 20
15.891543154
 10
-2.0454709126
 20
15.8969699041
 10
-2.0371232803
 20
15.9019309181
 10
-2.0287582001
 20
15.9064156764
  0
LWPOLYLINE
  5
34B
100
AcDbEntity
  8
SUPERFICI
100
AcDbPolyline
 62
7
  6
CONTINUOUS
 90
18
 70
0
 10
-9.9035951506
 20
-17.7286361361
 10
-9.8896962084
 20
-17.6919294397
 10
-9.8776619129
 20
-17.653631895
 10
-9.8674912891
 20
-17.6137429629
 10
-9.859168563
 20
-17.5721592027
 10
-9.8527073989
 20
-17.5289828907
 10
-9.8481514875
 20
-17.4845223546
 10
-9.8455155925
 20
-17.4387760238
 10
-9.8447839687
 20
-17.3917449522
 10
-9.8459555778
 20
-17.3437419907
 10
-9.8490409415
 20
-17.2947611119
 10
-9.8540295588
 20
-17.2448083953
 10
-9.8608898785
 20
-17.1942154283
 10
-9.8696371827
 20
-17.1429730412
 10
-9.880257225
 20
-17.0910910247
 10
-9.8926751822
 20
-17.0389299788
 10
-9.9068670096
 20
-16.9866106171
 10
-9.9228588721
 20
-16.9340134476
  0
LWPOLYLINE
  5
34C
100
AcDbEntity
  8
SUPERFICI
100
AcDbPolyline
 62
7
  6
CONTINUOUS
 90
19
 70
0
 10
-10.8245352644
 20
-16.4391972788
 10
-10.8388335987
 20
-16.4761138792
 10
-10.8512266597
 20
-16.5146017139
 10
-10.8617134705
 20
-16.5546602208
 10
-10.8703082893
 20
-16.5963924161
 10
-10.8769947447
 20
-16.6396940653
 10
-10.8817264258
 20
-16.6842540146
 10
-10.8844874293
 20
-16.7300732118
 10
-10.8852926772
 20
-16.7771501185
 10
-10.8841430332
 20
-16.8251704323
 10
-10.8810279425
 20
-16.8741401423
 10
-10.8759579824
 20
-16.9240532319
 10
-10.8689667381
 20
-16.9745779669
 10
-10.8600400258
 20
-17.0257238539
 10
-10.8491930674
 20
-17.0774819355
 10
-10.8365045759
 20
-17.12949336
 10
-10.8220016852
 20
-17.181639008
 10
-10.8056593816
 20
-17.2340391696
 10
-10.7874786471
 20
-17.2866943878
  0
LINE
  5
34D
100
AcDbEntity
  8
RACCORDO
100
AcDbLine
 62
250
  6
CONTINUOUS
 10
-19.8687433368
 20
6.6442759569
 11
-5.2200828516
 21
-0.6800542857
  0
LWPOLYLINE
  5
34E
100
AcDbEntity
  8
0
100
AcDbPolyline
 62
250
  6
CONTINUOUS
 90
3
 70
0
 10
-2.2770457796
 20
15.3412131079
 10
-2.2776415781
 20
15.3471335022
 10
-2.2777297608
 20
15.350453275
  0
LINE
  5
34F
100
AcDbEntity
  8
0
100
AcDbLine
 62
7
  6
CONTINUOUS
 10
-0.0953519195
 20
-6.8665784794
 11
1.0557670821
 21
-20.6867888331
  0
LWPOLYLINE
  5
350
100
AcDbEntity
  8
0
100
AcDbPolyline
 62
250
  6
CONTINUOUS
 90
20
 70
0
 10
-0.5259683856
 20
-27.2167821814
 10
-0.5257696377
 20
-27.2269464683
 10
-0.525173841
 20
-27.2368891522
 10
-0.524182335
 20
-27.2465878761
 10
-0.5227973494
 20
-27.2560208318
 10
-0.5210219982
 20
-27.2651668085
 10
-0.5188602737
 20
-27.2740052408
 10
-0.5163170364
 20
-27.2825162549
 10
-0.5133980052
 20
-27.290680713
 10
-0.5101097437
 20
-27.2984802568
 10
-0.5064596457
 20
-27.3058973484
 10
-0.5024559188
 20
-27.3129153099
 10
-0.4981075657
 20
-27.3195183609
 10
-0.493424364
 20
-27.3256916539
 10
-0.4884168442
 20
-27.3314213079
 10
-0.4830962661
 20
-27.3366944392
 10
-0.4774745935
 20
-27.3414991908
 10
-0.471564467
 20
-27.3458247589
 10
-0.4653791761
 20
-27.3496614172
 10
-0.4609950892
 20
-27.3520006315
  0
LWPOLYLINE
  5
351
100
AcDbEntity
  8
0
100
AcDbPolyline
 62
250
  6
CONTINUOUS
 90
20
 70
0
 10
-2.204506456
 20
15.2620649273
 10
-2.2043381602
 20
15.2527039769
 10
-2.203833593
 20
15.2435291459
 10
-2.2029937151
 20
15.2345579037
 10
-2.2018201294
 20
15.2258073549
 10
-2.2003150685
 20
15.2172941369
 10
-2.1984813821
 20
15.2090343941
 10
-2.196322538
 20
15.2010438064
 10
-2.1938426506
 20
15.1933376528
 10
-2.1910464709
 20
15.1859307039
 10
-2.1879393484
 20
15.1788371045
 10
-2.1845271862
 20
15.1720703083
 10
-2.1808164583
 20
15.1656431512
 10
-2.1768141975
 20
15.1595678313
 10
-2.1725280484
 20
15.1538559675
 10
-2.1679662389
 20
15.1485185145
 10
-2.1631375093
 20
15.1435656644
 10
-2.1580510236
 20
15.139006784
 10
-2.1527164086
 20
15.1348504909
 10
-2.14715704
 20
15.1311136182
  0
LWPOLYLINE
  5
352
100
AcDbEntity
  8
0
100
AcDbPolyline
 62
250
  6
CONTINUOUS
 90
22
 70
0
 10
-0.5259683856
 20
14.4227958921
 10
-0.5258005534
 20
14.4134477227
 10
-0.5252971467
 20
14.4042820461
 10
-0.5244587797
 20
14.3953164766
 10
-0.523286553
 20
14.3865672972
 10
-0.5217824345
 20
14.378052423
 10
-0.5199496314
 20
14.3697910892
 10
-0.5177919065
 20
14.3617999501
 10
-0.5153131724
 20
14.3540932359
 10
-0.512518115
 20
14.3466855368
 10
-0.5094120181
 20
14.3395909088
 10
-0.5060008079
 20
14.3328229354
 10
-0.5022910235
 20
14.3263946023
 10
-0.4982897602
 20
14.3203181883
 10
-0.4940046144
 20
14.3146052141
 10
-0.4894437143
 20
14.3092665184
 10
-0.4846157083
 20
14.3043122399
 10
-0.4795298151
 20
14.2997518537
 10
-0.474195785
 20
14.2955940986
 10
-0.4686238205
 20
14.2918469059
 10
-0.4628245001
 20
14.2885173697
 10
-0.4609975598
 20
14.2875786773
  0
LINE
  5
353
100
AcDbEntity
  8
0
100
AcDbLine
 62
7
  6
CONTINUOUS
 10
-1.5747368065
 20
14.8444483006
 11
-1.5747368065
 21
14.390474199
  0
LINE
  5
354
100
AcDbEntity
  8
0
100
AcDbLine
 62
250
  6
CONTINUOUS
 10
-1.5015135018
 20
14.8078366483
 11
-1.5015135018
 21
14.2987625041
  0
LINE
  5
355
100
AcDbEntity
  8
RACCORDO
100
AcDbLine
 62
7
  6
CONTINUOUS
 10
-0.5874199615
 20
-25.7511056314
 11
-0.5874199615
 21
11.6614885773
  0
LINE
  5
356
100
AcDbEntity
  8
0
100
AcDbLine
 62
250
  6
CONTINUOUS
 10
-0.5259683856
 20
-27.2167821814
 11
-0.5259683856
 21
-26.8768082473
  0
LINE
  5
357
100
AcDbEntity
  8
0
100
AcDbLine
 62
250
  6
CONTINUOUS
 10
-0.5259683856
 20
14.4227958921
 11
-0.5259683856
 21
14.7627698262
  0
LINE
  5
358
100
AcDbEntity
  8
0
100
AcDbLine
 62
250
  6
CONTINUOUS
 10
-0.173446426
 20
-27.2172949053
 11
-0.173446426
 21
-26.8773209711
  0
LINE
  5
359
100
AcDbEntity
  8
0
100
AcDbLine
 62
250
  6
CONTINUOUS
 10
-0.173446426
 20
14.4222831683
 11
-0.173446426
 21
14.7622571024
  0
LINE
  5
35A
100
AcDbEntity
  8
0
100
AcDbLine
 62
250
  6
CONTINUOUS
 10
0.1852522225
 20
-25.9003117701
 11
0.1852522225
 21
-25.2063990429
  0
LINE
  5
35B
100
AcDbEntity
  8
0
100
AcDbLine
 62
250
  6
CONTINUOUS
 10
0.1852522225
 20
13.455379642
 11
0.1852522225
 21
14.1361293877
  0
LINE
  5
35C
100
AcDbEntity
  8
0
100
AcDbLine
 62
250
  6
CONTINUOUS
 10
-1.7827904077
 20
20.1658015861
 11
-1.779011083
 21
20.6980887204
  0
LWPOLYLINE
  5
35D
100
AcDbEntity
  8
0
100
AcDbPolyline
 62
250
  6
CONTINUOUS
 90
25
 70
0
 10
-0.5259683856
 20
-26.8768082473
 10
-0.5258000898
 20
-26.867279001
 10
-0.5252955226
 20
-26.8575996028
 10
-0.5244556447
 20
-26.8477884827
 10
-0.523282059
 20
-26.8378643482
 10
-0.5217769981
 20
-26.8278460693
 10
-0.5199433117
 20
-26.8177526401
 10
-0.5177844676
 20
-26.8076032084
 10
-0.5153045802
 20
-26.7974171674
 10
-0.5125084005
 20
-26.7872140387
 10
-0.5094012779
 20
-26.7770133168
 10
-0.5059891158
 20
-26.7668343584
 10
-0.5022783879
 20
-26.7566964734
 10
-0.4982761271
 20
-26.7466188927
 10
-0.4939899779
 20
-26.7366208798
 10
-0.4894281685
 20
-26.7267216173
 10
-0.4845994389
 20
-26.7169400377
 10
-0.4795129531
 20
-26.7072946715
 10
-0.4741783382
 20
-26.6978037634
 10
-0.468605068
 20
-26.6884842762
 10
-0.462804382
 20
-26.6793551075
 10
-0.4567894568
 20
-26.6704367088
 10
-0.450572692
 20
-26.6617468225
 10
-0.4441654295
 20
-26.6533006813
 10
-0.437580038
 20
-26.6451140735
  0
LWPOLYLINE
  5
35E
100
AcDbEntity
  8
0
100
AcDbPolyline
 62
250
  6
CONTINUOUS
 90
34
 70
0
 10
-0.5259683856
 20
14.7627698262
 10
-0.5257696377
 20
14.773132861
 10
-0.525173841
 20
14.7836713417
 10
-0.524182335
 20
14.7943615715
 10
-0.5227973494
 20
14.8051795129
 10
-0.5210219982
 20
14.8161008407
 10
-0.5188602737
 20
14.8271009976
 10
-0.5163170364
 20
14.8381552489
 10
-0.5133980052
 20
14.8492387382
 10
-0.5101097437
 20
14.8603265436
 10
-0.5064596457
 20
14.8713937331
 10
-0.5024559188
 20
14.8824154215
 10
-0.4981075657
 20
14.8933668256
 10
-0.493424364
 20
14.9042233204
 10
-0.4884168442
 20
14.9149604941
 10
-0.4830962661
 20
14.9255542035
 10
-0.4774745935
 20
14.9359806278
 10
-0.471564467
 20
14.9462163224
 10
-0.4653791761
 20
14.9562382716
 10
-0.4589326288
 20
14.9660239402
 10
-0.4522393207
 20
14.9755513244
 10
-0.4453143022
 20
14.9847990012
 10
-0.4381731448
 20
14.9937461765
 10
-0.4308319058
 20
15.0023727319
 10
-0.4233070926
 20
15.0106592699
 10
-0.4156156253
 20
15.0185871576
 10
-0.4077747988
 20
15.0261385686
 10
-0.3998022437
 20
15.0332965229
 10
-0.391715887
 20
15.0400449253
 10
-0.3835339113
 20
15.0463686016
 10
-0.3752747146
 20
15.0522533325
 10
-0.3669568683
 20
15.0576858857
 10
-0.3585990756
 20
15.0626540457
 10
-0.3502201297
 20
15.0671466412
  0
LWPOLYLINE
  5
35F
100
AcDbEntity
  8
RACCORDO
100
AcDbPolyline
 62
250
  6
CONTINUOUS
 90
10
 70
0
 10
-3.465876275
 20
-27.0269226453
 10
-3.4687516978
 20
-27.071627588
 10
-3.4753632365
 20
-27.1138580539
 10
-3.4856385168
 20
-27.1531517606
 10
-3.4994650586
 20
-27.1890785729
 10
-3.5166915075
 20
-27.2212452125
 10
-3.5371292914
 20
-27.2492995618
 10
-3.5605546848
 20
-27.2729345196
 10
-3.5867112578
 20
-27.2918913618
 10
-3.6074481577
 20
-27.3026906908
  0
LINE
  5
360
100
AcDbEntity
  8
0
100
AcDbLine
 62
7
  6
CONTINUOUS
 10
11.1601632806
 20
18.5565657326
 11
11.5029294017
 21
19.0261723635
  0
LINE
  5
361
100
AcDbEntity
  8
0
100
AcDbLine
 62
7
  6
CONTINUOUS
 10
11.8177407498
 20
18.4365741995
 11
12.1605068708
 21
18.9061808304
  0
LINE
  5
362
100
AcDbEntity
  8
DRAFT
100
AcDbLine
 62
7
  6
CONTINUOUS
 10
18.4319881296
 20
11.8180776003
 11
19.3471649162
 21
12.4100062192
  0
LWPOLYLINE
  5
363
100
AcDbEntity
  8
RACCORDO
100
AcDbPolyline
 62
250
  6
CONTINUOUS
 90
16
 70
0
 10
-4.5224159954
 20
-0.6928803356
 10
-4.5615140915
 20
-0.7087600149
 10
-4.603844328
 20
-0.722550226
 10
-4.6489582401
 20
-0.7341048693
 10
-4.6963778714
 20
-0.7433015301
 10
-4.7456008382
 20
-0.750042775
 10
-4.796105651
 20
-0.7542571843
 10
-4.8473572401
 20
-0.7559001087
 10
-4.8988126241
 20
-0.7549541424
 10
-4.9499266625
 20
-0.7514293074
 10
-5.0001578313
 20
-0.7453629472
 10
-5.0489739597
 20
-0.7368193316
 10
-5.0958578687
 20
-0.7258889752
 10
-5.14031285
 20
-0.712687679
 10
-5.1818679283
 20
-0.6973553032
 10
-5.2200828513
 20
-0.6800542856
  0
LWPOLYLINE
  5
364
100
AcDbEntity
  8
RACCORDO
100
AcDbPolyline
 62
7
  6
CONTINUOUS
 90
16
 70
0
 10
18.2688780001
 20
1.8762633153
 10
18.259916785
 20
1.8744960678
 10
18.2510946777
 20
1.8731426687
 10
18.2424116783
 20
1.872203118
 10
18.2338573129
 20
1.8716789729
 10
18.2254420555
 20
1.8715686762
 10
18.2171973273
 20
1.8718675566
 10
18.2091269533
 20
1.8725824145
 10
18.2012271087
 20
1.8737064495
 10
18.1935177402
 20
1.8752145894
 10
18.1860045151
 20
1.8771125109
 10
18.1786817662
 20
1.8793945372
 10
18.1715524387
 20
1.8820185658
 10
18.1646175144
 20
1.8849705625
 10
18.1578760115
 20
1.8882645614
 10
18.15132793
 20
1.8919005625
  0
LWPOLYLINE
  5
365
100
AcDbEntity
  8
0
100
AcDbPolyline
 62
250
  6
CONTINUOUS
 90
5
 70
0
 10
1.9754061181
 20
-25.6796199954
 10
1.9741388509
 20
-25.6681512339
 10
1.9724295664
 20
-25.6568239765
 10
1.9702821228
 20
-25.6456637889
 10
1.967701367
 20
-25.6346958604
  0
LWPOLYLINE
  5
366
100
AcDbEntity
  8
0
100
AcDbPolyline
 62
7
  6
CONTINUOUS
 90
4
 70
0
 10
0.5163119959
 20
22.4373138862
 10
0.5164407422
 20
22.4240089265
 10
0.5176272317
 20
22.3947931069
 10
0.5197566124
 20
22.3691869049
  0
LINE
  5
367
100
AcDbEntity
  8
0
100
AcDbLine
 62
7
  6
CONTINUOUS
 10
0.6169078282
 20
21.9321107551
 11
0.6202153111
 21
21.4662786999
  0
LINE
  5
368
100
AcDbEntity
  8
0
100
AcDbLine
 62
250
  6
CONTINUOUS
 10
0.5377741821
 20
-26.025824494
 11
0.5377741821
 21
-25.3826600227
  0
LINE
  5
369
100
AcDbEntity
  8
0
100
AcDbLine
 62
250
  6
CONTINUOUS
 10
0.5377741821
 20
13.4661475236
 11
0.5377741821
 21
14.2737796454
  0
LINE
  5
36A
100
AcDbEntity
  8
0
100
AcDbLine
 62
7
  6
CONTINUOUS
 10
1.0557670821
 20
12.5869113186
 11
1.0557670821
 21
8.0652545726
  0
LINE
  5
36B
100
AcDbEntity
  8
0
100
AcDbLine
 62
7
  6
CONTINUOUS
 10
1.0557670821
 20
-20.6867888331
 11
1.0557670821
 21
-25.2084455791
  0
LINE
  5
36C
100
AcDbEntity
  8
0
100
AcDbLine
 62
250
  6
CONTINUOUS
 10
1.3048732608
 20
22.9908450816
 11
1.3048732608
 21
23.4010641246
  0
LINE
  5
36D
100
AcDbEntity
  8
0
100
AcDbLine
 62
7
  6
CONTINUOUS
 10
1.4278343648
 20
-25.2689005108
 11
1.4278343648
 21
-26.4372603056
  0
LINE
  5
36E
100
AcDbEntity
  8
0
100
AcDbLine
 62
7
  6
CONTINUOUS
 10
1.4278343648
 20
13.9628284449
 11
1.4278343648
 21
15.5649791059
  0
LINE
  5
36F
100
AcDbEntity
  8
0
100
AcDbLine
 62
250
  6
CONTINUOUS
 10
1.9561015366
 20
15.8284179259
 11
1.9561015366
 21
15.4808864092
  0
LINE
  5
370
100
AcDbEntity
  8
0
100
AcDbLine
 62
250
  6
CONTINUOUS
 10
1.9561015366
 20
-25.8187177302
 11
1.9561015366
 21
-26.166249247
  0
LINE
  5
371
100
AcDbEntity
  8
DRAFT
100
AcDbLine
 62
7
  6
CONTINUOUS
 10
1.9875834587
 20
23.3333031739
 11
1.9875834587
 21
22.900290472
  0
LINE
  5
372
100
AcDbEntity
  8
0
100
AcDbLine
 62
7
  6
CONTINUOUS
 10
2.0282993936
 20
15.9162905581
 11
2.0282993936
 21
15.5687590413
  0
LINE
  5
373
100
AcDbEntity
  8
0
100
AcDbLine
 62
7
  6
CONTINUOUS
 10
2.0282993936
 20
-25.730845098
 11
2.0282993936
 21
-26.0783766148
  0
LINE
  5
374
100
AcDbEntity
  8
0
100
AcDbLine
 62
7
  6
CONTINUOUS
 10
2.134941146
 20
13.1762770082
 11
2.134941146
 21
-24.7556649891
  0
LINE
  5
375
100
AcDbEntity
  8
0
100
AcDbLine
 62
250
  6
CONTINUOUS
 10
2.0282993936
 20
-26.0783766148
 11
2.0282992486
 21
-26.0785112385
  0
LWPOLYLINE
  5
376
100
AcDbEntity
  8
0
100
AcDbPolyline
 62
7
  6
CONTINUOUS
 90
23
 70
0
 10
2.134941146
 20
-24.7554521416
 10
2.1348562438
 20
-24.7726446143
 10
2.1341491584
 20
-24.7895443348
 10
2.1328225126
 20
-24.8061234442
 10
2.1308725666
 20
-24.8223551127
 10
2.1283111805
 20
-24.8382123301
 10
2.1251648737
 20
-24.853667241
 10
2.121443086
 20
-24.8686929772
 10
2.1171478903
 20
-24.8832649088
 10
2.1122947592
 20
-24.8973584357
 10
2.1068897076
 20
-24.9109559396
 10
2.1009420699
 20
-24.9240262661
 10
2.0944752248
 20
-24.9365275134
 10
2.0875085605
 20
-24.9484293487
 10
2.0800485783
 20
-24.9597250475
 10
2.0721007189
 20
-24.9704095882
 10
2.0636698882
 20
-24.980472921
 10
2.054776308
 20
-24.9898869532
 10
2.0454496498
 20
-24.9986216549
 10
2.0357168413
 20
-25.006656334
 10
2.0255856362
 20
-25.0139887137
 10
2.0150579458
 20
-25.0206178374
 10
2.0062283728
 20
-25.0254750466
  0
LWPOLYLINE
  5
377
100
AcDbEntity
  8
0
100
AcDbPolyline
 62
250
  6
CONTINUOUS
 90
20
 70
0
 10
1.9561015366
 20
-26.166249247
 10
1.9559487547
 20
-26.1764278909
 10
1.9553934453
 20
-26.1863843782
 10
1.9544368653
 20
-26.1960961481
 10
1.9530811795
 20
-26.2055411994
 10
1.9513294587
 20
-26.2146981242
 10
1.9491856745
 20
-26.2235461578
 10
1.9466546864
 20
-26.2320652482
 10
1.9437422287
 20
-26.240236097
 10
1.9404549024
 20
-26.2480401883
 10
1.9368001562
 20
-26.2554598408
 10
1.9327862725
 20
-26.2624782425
 10
1.9284223507
 20
-26.2690794867
 10
1.9237182808
 20
-26.2752486169
 10
1.9186847225
 20
-26.280971658
 10
1.9133330842
 20
-26.2862356428
 10
1.9076754906
 20
-26.2910286491
 10
1.9017247649
 20
-26.2953398164
 10
1.8954944037
 20
-26.2991593727
 10
1.8924134991
 20
-26.3008130572
  0
LWPOLYLINE
  5
378
100
AcDbEntity
  8
0
100
AcDbPolyline
 62
7
  6
CONTINUOUS
 90
20
 70
0
 10
1.4278343648
 20
-26.4372603056
 10
1.427633986
 20
-26.4474618968
 10
1.427033817
 20
-26.4574400616
 10
1.4260351134
 20
-26.4671722489
 10
1.424639955
 20
-26.4766365051
 10
1.4228514941
 20
-26.485811393
 10
1.4206739482
 20
-26.4946760403
 10
1.4181121896
 20
-26.5032103956
 10
1.4151719288
 20
-26.5113951715
 10
1.4118599545
 20
-26.5192117573
 10
1.4081837305
 20
-26.5266424646
 10
1.4041515116
 20
-26.5336704962
 10
1.3997725198
 20
-26.5402798829
 10
1.3950566586
 20
-26.5464556596
 10
1.390014559
 20
-26.5521838619
 10
1.3846576886
 20
-26.5574514876
 10
1.3789981892
 20
-26.5622466003
 10
1.3730488513
 20
-26.5665583525
 10
1.3668231546
 20
-26.5703769747
 10
1.3637292631
 20
-26.5720380777
  0
LWPOLYLINE
  5
379
100
AcDbEntity
  8
0
100
AcDbPolyline
 62
250
  6
CONTINUOUS
 90
18
 70
0
 10
2.0282993936
 20
15.9162905581
 10
2.0282458321
 20
15.91370319
 10
2.0277194046
 20
15.9077808858
 10
2.0266319923
 20
15.9018777131
 10
2.0249860377
 20
15.8960069463
 10
2.0227852404
 20
15.8901817918
 10
2.0200345476
 20
15.8844153509
 10
2.0167401437
 20
15.8787205945
 10
2.0129094393
 20
15.8731103356
 10
2.0085510496
 20
15.8675971939
 10
2.003674776
 20
15.8621935688
 10
1.9982915866
 20
15.8569116161
 10
1.9924135854
 20
15.8517632134
 10
1.9860539952
 20
15.8467599435
 10
1.9792271324
 20
15.8419130686
 10
1.9719483584
 20
15.8372334926
 10
1.9642340422
 20
15.8327317368
 10
1.9561015366
 20
15.8284179259
  0
LWPOLYLINE
  5
37A
100
AcDbEntity
  8
0
100
AcDbPolyline
 62
250
  6
CONTINUOUS
 90
18
 70
0
 10
2.0282993927
 20
15.5687483384
 10
2.0282449707
 20
15.5661509539
 10
2.0277166177
 20
15.560228972
 10
2.0266273456
 20
15.5543261949
 10
2.0249796076
 20
15.5484558889
 10
2.0227771074
 20
15.5426312428
 10
2.0200247758
 20
15.5368653131
 10
2.0167288168
 20
15.5311711107
 10
2.0128967254
 20
15.5255615533
 10
2.0085372134
 20
15.5200493238
 10
2.0036600677
 20
15.5146467355
 10
1.9982761724
 20
15.5093658246
 10
1.9923971374
 20
15.5042180542
 10
1.9860366005
 20
15.4992154348
 10
1.9792104408
 20
15.4943702803
 10
1.9719348684
 20
15.4896937157
 10
1.9642260348
 20
15.4851957658
 10
1.9561015366
 20
15.4808864092
  0
LWPOLYLINE
  5
37B
100
AcDbEntity
  8
0
100
AcDbPolyline
 62
250
  6
CONTINUOUS
 90
20
 70
0
 10
-0.173446426
 20
-27.2172949053
 10
-0.1736947559
 20
-27.2275213232
 10
-0.1743407363
 20
-27.237523146
 10
-0.1753829049
 20
-27.2472777102
 10
-0.176818903
 20
-27.2567629177
 10
-0.1786454777
 20
-27.2659572694
 10
-0.1808584876
 20
-27.2748399159
 10
-0.1834529165
 20
-27.2833907267
 10
-0.1864228863
 20
-27.2915903315
 10
-0.1897616656
 20
-27.2994201493
 10
-0.1934616893
 20
-27.3068624406
 10
-0.1975145721
 20
-27.3139003419
 10
-0.2019111267
 20
-27.3205179024
 10
-0.2066413888
 20
-27.3267001287
 10
-0.2116946395
 20
-27.332433016
 10
-0.2170594258
 20
-27.3377035749
 10
-0.2227235934
 20
-27.3424998681
 10
-0.2286743039
 20
-27.3468110279
 10
-0.2348980611
 20
-27.3506272821
 10
-0.2395438787
 20
-27.3530653753
  0
LINE
  5
37C
100
AcDbEntity
  8
0
100
AcDbLine
 62
7
  6
CONTINUOUS
 10
1.0557670821
 20
8.0652545726
 11
-0.0953519195
 21
-6.8665784794
  0
LWPOLYLINE
  5
37D
100
AcDbEntity
  8
RACCORDO
100
AcDbPolyline
 62
7
  6
CONTINUOUS
 90
136
 70
0
 10
18.2688776111
 20
12.2079458269
 10
18.3282744869
 20
12.2566739946
 10
18.3857917319
 20
12.3041850756
 10
18.441429346
 20
12.3504790698
 10
18.495132244
 20
12.3955214225
 10
18.5469555111
 20
12.4393466883
 10
18.5970644032
 20
12.482058532
 10
18.6454661664
 20
12.5236618805
 10
18.6921535545
 20
12.5641518069
 10
18.7372700857
 20
12.6036171944
 10
18.7808199658
 20
12.6420605675
 10
18.8227989889
 20
12.6794794016
 10
18.8633380554
 20
12.7159550073
 10
18.9024410861
 20
12.7514897616
 10
18.9401041601
 20
12.7860812874
 10
18.9764464156
 20
12.8198037633
 10
19.0114715124
 20
12.8526594485
 10
19.0451757906
 20
12.8846460838
 10
19.0776674084
 20
12.9158310708
 10
19.1089497101
 20
12.9462165043
 10
19.1390193514
 20
12.9758002894
 10
19.1679744577
 20
13.0046435428
 10
19.1958181076
 20
13.0327482494
 10
19.2225472225
 20
13.0601124242
 10
19.2482506925
 20
13.0867912297
 10
19.2729313637
 20
13.1127865934
 10
19.2965863899
 20
13.1380965876
 10
19.3192961237
 20
13.1627705922
 10
19.3410631749
 20
13.1868105092
 10
19.3618849336
 20
13.2102144366
 10
19.3818339219
 20
13.233026047
 10
19.4009125038
 20
13.2552472628
 10
19.4191183153
 20
13.2768761617
 10
19.4365167869
 20
13.2979506497
 10
19.4531099962
 20
13.3184727096
 10
19.4688958656
 20
13.3384403585
 10
19.4839335917
 20
13.3578855541
 10
19.4982248789
 20
13.3768103534
 10
19.5117680229
 20
13.3952126993
 10
19.524617107
 20
13.4131183781
 10
19.5367733414
 20
13.4305295157
 10
19.548235516
 20
13.4474439861
 10
19.5590540834
 20
13.4638811973
 10
19.5692294965
 20
13.4798430843
 10
19.5787613024
 20
13.495327712
 10
19.5876985955
 20
13.5103486838
 10
19.5960411135
 20
13.5249078808
 10
19.6037891188
 20
13.5390034218
 10
19.6109924927
 20
13.5526432672
 10
19.6176498039
 20
13.5658281231
 10
19.6237624837
 20
13.5785572833
 10
19.6293847077
 20
13.5908365897
 10
19.6345118458
 20
13.6026569006
 10
19.6391485281
 20
13.6140273578
 10
19.6433628201
 20
13.6249812282
 10
19.6471527806
 20
13.6355050807
 10
19.6505203508
 20
13.6456123464
 10
19.6535394196
 20
13.6553765862
 10
19.6562152939
 20
13.6647955211
 10
19.6585426668
 20
13.6738714301
 10
19.6605795066
 20
13.6826847111
 10
19.6623332125
 20
13.69124036
 10
19.6637963852
 20
13.699533381
 10
19.6650047955
 20
13.7076291837
 10
19.6659647294
 20
13.7155320178
 10
19.6666699009
 20
13.7232376336
 10
19.6671372222
 20
13.7307986922
 10
19.6673723539
 20
13.7382183655
 10
19.6673696354
 20
13.7454934815
 10
19.6671289973
 20
13.7526671853
 10
19.6666560897
 20
13.7597422085
 10
19.6659452623
 20
13.7667158194
 10
19.6649794953
 20
13.7736229684
 10
19.6637651101
 20
13.7804657875
 10
19.6622957851
 20
13.7872421447
 10
19.6605355355
 20
13.7939805946
 10
19.6584920206
 20
13.8006834793
 10
19.6561575811
 20
13.8073484566
 10
19.6534732541
 20
13.8139970557
 10
19.6504442193
 20
13.8206376691
 10
19.6470652969
 20
13.8272619042
 10
19.6432619854
 20
13.8338661116
 10
19.6390318678
 20
13.8404620824
 10
19.6343773611
 20
13.8470380256
 10
19.6292312147
 20
13.8535549186
 10
19.6235890258
 20
13.8600165017
 10
19.6174551972
 20
13.8664190346
 10
19.6107756874
 20
13.8727122731
 10
19.6035492171
 20
13.878893932
 10
19.5957770655
 20
13.8849662965
 10
19.5874090282
 20
13.890885978
 10
19.5784447016
 20
13.8966509517
 10
19.5688844893
 20
13.9022632425
 10
19.5586793968
 20
13.9076855366
 10
19.5478299372
 20
13.9129163313
 10
19.5363355975
 20
13.9179571293
 10
19.5241458434
 20
13.9227751259
 10
19.5112618799
 20
13.9273694593
 10
19.497682502
 20
13.9317409912
 10
19.4833535609
 20
13.9358595018
 10
19.4682767715
 20
13.9397247023
 10
19.452450419
 20
13.9433368814
 10
19.4358152089
 20
13.9466666859
 10
19.4183732294
 20
13.9497142893
 10
19.4001223924
 20
13.952479518
 10
19.3809971398
 20
13.9549324983
 10
19.3609998258
 20
13.9570737611
 10
19.3401280962
 20
13.9589027755
 10
19.3183093303
 20
13.9603880749
 10
19.2955462058
 20
13.9615304637
 10
19.271836045
 20
13.9623291374
 10
19.2470981954
 20
13.9627502166
 10
19.2213352782
 20
13.9627947159
 10
19.1945446721
 20
13.9624616207
 10
19.1666378603
 20
13.9617140075
 10
19.1376188303
 20
13.9605531513
 10
19.1074835947
 20
13.9589777773
 10
19.0761316748
 20
13.9569471376
 10
19.0435644255
 20
13.9544624272
 10
19.0097804918
 20
13.9515224512
 10
18.9746753305
 20
13.9480828768
 10
18.9382440425
 20
13.9441437514
 10
18.9004915269
 20
13.9397050276
 10
18.8613279371
 20
13.9347222305
 10
18.8207620277
 20
13.9291970332
 10
18.7787850441
 20
13.9231277626
 10
18.7352808767
 20
13.9164649247
 10
18.6902644292
 20
13.9092122324
 10
18.6437207978
 20
13.9013659729
 10
18.5954891617
 20
13.8928655138
 10
18.5455696946
 20
13.8837124783
 10
18.4939622228
 20
13.8739052432
 10
18.4405054045
 20
13.8633783065
 10
18.3851454589
 20
13.8521098341
 10
18.3279361667
 20
13.8401216601
 10
18.268877528
 20
13.8274137844
  0
LWPOLYLINE
  5
37E
100
AcDbEntity
  8
0
100
AcDbPolyline
 62
250
  6
CONTINUOUS
 90
16
 70
0
 10
-10.3475564561
 20
21.6327154055
 10
-10.3435837423
 20
21.6260205303
 10
-10.3400212837
 20
21.6195390885
 10
-10.3368771204
 20
21.6132857081
 10
-10.3341583487
 20
21.6072745027
 10
-10.3318711047
 20
21.6015190393
 10
-10.3300205505
 20
21.5960323076
 10
-10.3286108628
 20
21.5908266909
 10
-10.3276452231
 20
21.5859139378
 10
-10.3271258108
 20
21.5813051362
 10
-10.3270537982
 20
21.5770106879
 10
-10.3274293478
 20
21.5730402852
 10
-10.328251612
 20
21.569402889
 10
-10.3295187351
 20
21.5661067088
 10
-10.3312278571
 20
21.5631591839
 10
-10.3321958837
 20
21.5618802389
  0
LINE
  5
37F
100
AcDbEntity
  8
0
100
AcDbLine
 62
250
  6
CONTINUOUS
 10
2.7046363782
 20
18.6247580414
 11
2.7046363782
 21
19.0991594167
  0
LINE
  5
380
100
AcDbEntity
  8
0
100
AcDbLine
 62
250
  6
CONTINUOUS
 10
2.7046363782
 20
19.4553352832
 11
2.7046363782
 21
20.0085060063
  0
LINE
  5
381
100
AcDbEntity
  8
ASSI
100
AcDbLine
 62
7
  6
CONTINUOUS
 10
2.7657835044
 20
-20.8564289823
 11
2.7657835044
 21
-20.0454881219
  0
LINE
  5
382
100
AcDbEntity
  8
ASSI
100
AcDbLine
 62
7
  6
CONTINUOUS
 10
2.7657835044
 20
9.1080499887
 11
2.7657835044
 21
9.9189908491
  0
LINE
  5
383
100
AcDbEntity
  8
0
100
AcDbLine
 62
7
  6
CONTINUOUS
 10
2.7660920458
 20
9.9188365784
 11
2.7660920458
 21
9.107895718
  0
LINE
  5
384
100
AcDbEntity
  8
0
100
AcDbLine
 62
7
  6
CONTINUOUS
 10
2.7660920458
 20
-20.8565832529
 11
2.7660920458
 21
-20.0456423926
  0
LINE
  5
385
100
AcDbEntity
  8
0
100
AcDbLine
 62
7
  6
CONTINUOUS
 10
2.8354712294
 20
18.782397497
 11
2.8354712294
 21
20.0306616197
  0
LINE
  5
386
100
AcDbEntity
  8
0
100
AcDbLine
 62
7
  6
CONTINUOUS
 10
2.8358770998
 20
13.5278774241
 11
2.8358770998
 21
10.5959724731
  0
LINE
  5
387
100
AcDbEntity
  8
0
100
AcDbLine
 62
7
  6
CONTINUOUS
 10
2.8358770998
 20
-21.4620828454
 11
2.8358770998
 21
-24.3939877964
  0
LINE
  5
388
100
AcDbEntity
  8
0
100
AcDbLine
 62
7
  6
CONTINUOUS
 10
3.0257578493
 20
22.0645824231
 11
3.0257578493
 21
21.6442068331
  0
LINE
  5
389
100
AcDbEntity
  8
DRAFT
100
AcDbLine
 62
7
  6
CONTINUOUS
 10
3.4430886912
 20
23.273880608
 11
3.4430886912
 21
22.7936976113
  0
LINE
  5
38A
100
AcDbEntity
  8
0
100
AcDbLine
 62
7
  6
CONTINUOUS
 10
3.4755025106
 20
21.9428345899
 11
3.4755025106
 21
21.6398945104
  0
LINE
  5
38B
100
AcDbEntity
  8
ASSI
100
AcDbLine
 62
7
  6
CONTINUOUS
 10
3.5368130536
 20
10.94948078
 11
3.5368130536
 21
10.3395585555
  0
LINE
  5
38C
100
AcDbEntity
  8
ASSI
100
AcDbLine
 62
7
  6
CONTINUOUS
 10
3.5368130536
 20
9.4720876517
 11
3.5368130536
 21
-19.6249204154
  0
LINE
  5
38D
100
AcDbEntity
  8
ASSI
100
AcDbLine
 62
7
  6
CONTINUOUS
 10
3.5368130536
 20
-20.4923913193
 11
3.5368130536
 21
-21.1023135437
  0
LINE
  5
38E
100
AcDbEntity
  8
0
100
AcDbLine
 62
7
  6
CONTINUOUS
 10
3.537121595
 20
10.3394042848
 11
3.537121595
 21
9.471933381
  0
LINE
  5
38F
100
AcDbEntity
  8
0
100
AcDbLine
 62
7
  6
CONTINUOUS
 10
3.537121595
 20
-20.49254559
 11
3.537121595
 21
-19.6250746861
  0
LINE
  5
390
100
AcDbEntity
  8
RACCORDO
100
AcDbLine
 62
7
  6
CONTINUOUS
 10
3.5491547084
 20
10.221553095
 11
3.5491547084
 21
-20.3867275135
  0
LWPOLYLINE
  5
391
100
AcDbEntity
  8
0
100
AcDbPolyline
 62
250
  6
CONTINUOUS
 90
18
 70
0
 10
2.0282992486
 20
-26.0785112385
 10
2.0282458321
 20
-26.0809639829
 10
2.0277194046
 20
-26.086886287
 10
2.0266319923
 20
-26.0927894598
 10
2.0249860377
 20
-26.0986602266
 10
2.0227852404
 20
-26.104485381
 10
2.0200345476
 20
-26.1102518219
 10
2.0167401437
 20
-26.1159465784
 10
2.0129094393
 20
-26.1215568373
 10
2.0085510496
 20
-26.127069979
 10
2.003674776
 20
-26.1324736041
 10
1.9982915866
 20
-26.1377555568
 10
1.9924135854
 20
-26.1429039595
 10
1.9860539952
 20
-26.1479072294
 10
1.9792271324
 20
-26.1527541043
 10
1.9719483584
 20
-26.1574336803
 10
1.9642340422
 20
-26.161935436
 10
1.9561015366
 20
-26.166249247
  0
LWPOLYLINE
  5
392
100
AcDbEntity
  8
0
100
AcDbPolyline
 62
250
  6
CONTINUOUS
 90
18
 70
0
 10
2.0282991118
 20
-25.731032769
 10
2.0282453792
 20
-25.7334433807
 10
2.0277180038
 20
-25.7393650284
 10
2.0266297686
 20
-25.7452675186
 10
2.0249831203
 20
-25.751137578
 10
2.0227817615
 20
-25.7569620071
 10
2.0200306427
 20
-25.7627277077
 10
2.0167359497
 20
-25.7684217155
 10
2.0129050892
 20
-25.7740312288
 10
2.0085466705
 20
-25.7795436387
 10
2.0036704967
 20
-25.7849465441
 10
1.9982875453
 20
-25.7902277831
 10
1.9924099319
 20
-25.7953754734
 10
1.9860508688
 20
-25.800378048
 10
1.9792246452
 20
-25.8052242673
 10
1.9719466062
 20
-25.8099032365
 10
1.9642331217
 20
-25.8144044314
 10
1.9561015366
 20
-25.8187177302
  0
LINE
  5
393
100
AcDbEntity
  8
RACCORDO
100
AcDbLine
 62
250
  6
CONTINUOUS
 10
18.441161658
 20
11.8341675375
 11
18.4319881296
 21
11.8257876334
  0
LWPOLYLINE
  5
394
100
AcDbEntity
  8
RACCORDO
100
AcDbPolyline
 62
250
  6
CONTINUOUS
 90
57
 70
0
 10
18.15132793
 20
12.0705824491
 10
18.1571898494
 20
12.0758233861
 10
18.1630240112
 20
12.0808392057
 10
18.1688293294
 20
12.0856299955
 10
18.174598962
 20
12.0901971565
 10
18.1803376609
 20
12.0945393951
 10
18.1860612214
 20
12.0986529694
 10
18.1917700627
 20
12.1025415648
 10
18.1974604396
 20
12.1062020698
 10
18.2031410427
 20
12.1096208952
 10
18.2088115502
 20
12.1128001307
 10
18.2144681391
 20
12.1157384783
 10
18.2201137
 20
12.1184174592
 10
18.2257443553
 20
12.1208372464
 10
18.2313593563
 20
12.1229984977
 10
18.2369657055
 20
12.1248836453
 10
18.2425491048
 20
12.1264942785
 10
18.2481185259
 20
12.1278297287
 10
18.2537136994
 20
12.128869777
 10
18.2593246959
 20
12.1296250988
 10
18.2649519565
 20
12.1300871506
 10
18.2706462488
 20
12.1302083491
 10
18.276417687
 20
12.1299954693
 10
18.2822395197
 20
12.1294457429
 10
18.2881041609
 20
12.1284981251
 10
18.2940066477
 20
12.1271489883
 10
18.299933857
 20
12.1254056897
 10
18.3058661106
 20
12.1232234338
 10
18.3117933392
 20
12.1205974787
 10
18.317707295
 20
12.1175355796
 10
18.3235917624
 20
12.1140112836
 10
18.3294287346
 20
12.1100285957
 10
18.3352177531
 20
12.1055857635
 10
18.3409674516
 20
12.1006478383
 10
18.3466612999
 20
12.0952226818
 10
18.3522923181
 20
12.0893049705
 10
18.357878263
 20
12.0828408806
 10
18.3634043294
 20
12.0758322249
 10
18.3688526738
 20
12.068280403
 10
18.3742296209
 20
12.0601319842
 10
18.3795158549
 20
12.0513844911
 10
18.3846883478
 20
12.0420436254
 10
18.3897411435
 20
12.0320688889
 10
18.3946481878
 20
12.0214579506
 10
18.3993832863
 20
12.0102155346
 10
18.4039331468
 20
11.9983120851
 10
18.4082631309
 20
11.9857518491
 10
18.4123440267
 20
11.9725313394
 10
18.4161600806
 20
11.958609717
 10
18.419664848
 20
11.9440049165
 10
18.4228228365
 20
11.9286973468
 10
18.4256135423
 20
11.9125903698
 10
18.4279796811
 20
11.8956549207
 10
18.4298568551
 20
11.8779147159
 10
18.431187061
 20
11.8593517786
 10
18.4318962346
 20
11.839795093
 10
18.4319881293
 20
11.8297558659
  0
LWPOLYLINE
  5
395
100
AcDbEntity
  8
0
100
AcDbPolyline
 62
7
  6
CONTINUOUS
 90
5
 70
0
 10
2.8354712294
 20
20.0306579845
 10
2.8352342449
 20
20.0329099574
 10
2.8342815348
 20
20.0353077742
 10
2.8326335231
 20
20.0372370183
 10
2.8304562789
 20
20.0386673866
  0
LINE
  5
396
100
AcDbEntity
  8
RACCORDO
100
AcDbLine
 62
7
  6
CONTINUOUS
 10
5.5273100253
 20
25.4358513218
 11
5.5273100253
 21
25.1088852741
  0
LWPOLYLINE
  5
397
100
AcDbEntity
  8
RACCORDO
100
AcDbPolyline
 62
250
  6
CONTINUOUS
 90
56
 70
0
 10
18.2688779702
 20
0.256795548
 10
18.2759442007
 20
0.259331077
 10
18.2830740041
 20
0.2616374449
 10
18.2902664188
 20
0.2637159944
 10
18.2975019332
 20
0.2655818009
 10
18.3047978278
 20
0.2672227721
 10
18.3122077645
 20
0.2686002044
 10
18.3197566617
 20
0.269726073
 10
18.3274155285
 20
0.2705936175
 10
18.3351561108
 20
0.2711372986
 10
18.3429933001
 20
0.27135531
 10
18.3509058671
 20
0.2712572123
 10
18.3588105577
 20
0.2707953545
 10
18.3666874171
 20
0.269966873
 10
18.3745484361
 20
0.268784014
 10
18.3823577066
 20
0.2672223155
 10
18.3900935611
 20
0.2652918442
 10
18.3977679114
 20
0.2629939088
 10
18.4053939061
 20
0.2602924178
 10
18.412965367
 20
0.2572027532
 10
18.4204752453
 20
0.2537251284
 10
18.427932795
 20
0.2498037928
 10
18.435345073
 20
0.2454448853
 10
18.4426864426
 20
0.240664529
 10
18.449914473
 20
0.2354251034
 10
18.4570197132
 20
0.229737714
 10
18.4639888959
 20
0.2236189659
 10
18.4707719684
 20
0.2170417813
 10
18.4773467085
 20
0.2100392029
 10
18.4837090294
 20
0.2026111527
 10
18.4898322819
 20
0.1946856544
 10
18.4957030223
 20
0.1863047152
 10
18.5012997575
 20
0.1774715522
 10
18.5065754893
 20
0.1680666046
 10
18.5115218587
 20
0.1581315771
 10
18.516097443
 20
0.1476914714
 10
18.5201940774
 20
0.1366168629
 10
18.5237988962
 20
0.1249183865
 10
18.5268556752
 20
0.1126818268
 10
18.5291855383
 20
0.0998984242
 10
18.5307464858
 20
0.0865544262
 10
18.5315067572
 20
0.0727730747
 10
18.5313173189
 20
0.0587318074
 10
18.5301281401
 20
0.0444491086
 10
18.5279435096
 20
0.0299838852
 10
18.52472551
 20
0.0155325667
 10
18.5204323598
 20
0.0010803583
 10
18.5150908798
 20
-0.013320881
 10
18.5088005808
 20
-0.0274260033
 10
18.5015942567
 20
-0.0411863413
 10
18.4934660188
 20
-0.054677446
 10
18.4844768994
 20
-0.0678708657
 10
18.4746344422
 20
-0.0807844311
 10
18.463954506
 20
-0.0934242375
 10
18.452513703
 20
-0.1057496217
 10
18.4403334121
 20
-0.117768864
  0
LINE
  5
398
100
AcDbEntity
  8
RACCORDO
100
AcDbLine
 62
250
  6
CONTINUOUS
 10
-19.1937454188
 20
17.0845611967
 11
-4.5089905279
 21
9.7421837513
  0
LWPOLYLINE
  5
399
100
AcDbEntity
  8
0
100
AcDbPolyline
 62
7
  6
CONTINUOUS
 90
4
 70
0
 10
7.9409331984
 20
18.7250032849
 10
7.9410619446
 20
18.7116983253
 10
7.9422484341
 20
18.6824825057
 10
7.9443778147
 20
18.6568763057
  0
LINE
  5
39A
100
AcDbEntity
  8
ASSI
100
AcDbLine
 62
7
  6
CONTINUOUS
 10
8.0681887197
 20
18.5462143149
 11
8.0683493477
 21
18.5292568202
  0
LINE
  5
39B
100
AcDbEntity
  8
ASSI
100
AcDbLine
 62
250
  6
CONTINUOUS
 10
7.928090772
 20
-19.1351595634
 11
7.928090772
 21
-19.3292401696
  0
LINE
  5
39C
100
AcDbEntity
  8
ASSI
100
AcDbLine
 62
250
  6
CONTINUOUS
 10
7.928090772
 20
17.6309821633
 11
7.928090772
 21
18.2324992449
  0
LINE
  5
39D
100
AcDbEntity
  8
ASSI
100
AcDbLine
 62
7
  6
CONTINUOUS
 10
8.0684208719
 20
18.5292387943
 11
8.0684208719
 21
17.8072528526
  0
LINE
  5
39E
100
AcDbEntity
  8
ASSI
100
AcDbLine
 62
7
  6
CONTINUOUS
 10
8.0684208719
 20
-19.2786505338
 11
8.0684208719
 21
-19.0614427627
  0
LINE
  5
39F
100
AcDbEntity
  8
0
100
AcDbLine
 62
250
  6
CONTINUOUS
 10
8.7294944632
 20
19.2785344804
 11
8.7294944632
 21
19.6887535233
  0
LINE
  5
3A0
100
AcDbEntity
  8
0
100
AcDbLine
 62
7
  6
CONTINUOUS
 10
11.3361107246
 20
17.9524283109
 11
11.5029294017
 21
19.0261723635
  0
LWPOLYLINE
  5
3A1
100
AcDbEntity
  8
RACCORDO
100
AcDbPolyline
 62
7
  6
CONTINUOUS
 90
16
 70
0
 10
18.15132793
 20
12.070582227
 10
18.157876
 20
12.0809989615
 10
18.1646174888
 20
12.0912739809
 10
18.1715523963
 20
12.101407285
 10
18.1786817039
 20
12.1114139225
 10
18.1860044303
 20
12.1212788449
 10
18.1935176312
 20
12.1309569066
 10
18.2012269741
 20
12.1404483012
 10
18.2091267917
 20
12.1497528351
 10
18.2171971369
 20
12.1588247819
 10
18.2254418346
 20
12.1676613016
 10
18.2338570601
 20
12.1762652341
 10
18.2424113926
 20
12.1845993735
 10
18.2510943584
 20
12.1926513177
 10
18.2599164313
 20
12.2004334689
 10
18.2688776111
 20
12.2079458269
  0
LINE
  5
3A2
100
AcDbEntity
  8
DRAFT
100
AcDbLine
 62
7
  6
CONTINUOUS
 10
-0.5874199615
 20
8.8868480944
 11
1.0557670821
 21
8.0652545726
  0
LINE
  5
3A3
100
AcDbEntity
  8
RACCORDO
100
AcDbLine
 62
250
  6
CONTINUOUS
 10
-18.5218899593
 20
18.1666237043
 11
-3.8193085117
 21
10.8153329805
  0
LINE
  5
3A4
100
AcDbEntity
  8
0
100
AcDbLine
 62
7
  6
CONTINUOUS
 10
3.5368130536
 20
10.94948078
 11
2.8358770998
 21
12.1584164715
  0
LINE
  5
3A5
100
AcDbEntity
  8
RACCORDO
100
AcDbLine
 62
7
  6
CONTINUOUS
 10
2.8358770998
 20
12.169104658
 11
3.1350042328
 21
11.6531866696
  0
LINE
  5
3A6
100
AcDbEntity
  8
DRAFT
100
AcDbLine
 62
7
  6
CONTINUOUS
 10
9.4122046611
 20
19.6209925726
 11
9.4122046611
 21
19.1879798708
  0
LINE
  5
3A7
100
AcDbEntity
  8
0
100
AcDbLine
 62
7
  6
CONTINUOUS
 10
10.8551066757
 20
18.3513214467
 11
10.8551066757
 21
17.9266995702
  0
LINE
  5
3A8
100
AcDbEntity
  8
DRAFT
100
AcDbLine
 62
7
  6
CONTINUOUS
 10
10.8677098937
 20
19.2178772206
 11
10.8677098937
 21
19.5615700068
  0
LINE
  5
3A9
100
AcDbEntity
  8
0
100
AcDbLine
 62
7
  6
CONTINUOUS
 10
11.1601632806
 20
17.9388423208
 11
11.1601632806
 21
18.5565657326
  0
LINE
  5
3AA
100
AcDbEntity
  8
RACCORDO
100
AcDbLine
 62
250
  6
CONTINUOUS
 10
11.4121153218
 20
-16.244696571
 11
11.4121153218
 21
-8.0717835902
  0
LINE
  5
3AB
100
AcDbEntity
  8
ASSI
100
AcDbLine
 62
7
  6
CONTINUOUS
 10
8.0683420212
 20
-19.2786966663
 11
8.0681887197
 21
-19.2803912809
  0
LINE
  5
3AC
100
AcDbEntity
  8
0
100
AcDbLine
 62
7
  6
CONTINUOUS
 10
11.7866874006
 20
18.1813311343
 11
11.8177407498
 21
18.4365741995
  0
LWPOLYLINE
  5
3AD
100
AcDbEntity
  8
0
100
AcDbPolyline
 62
250
  6
CONTINUOUS
 90
13
 70
0
 10
1.9561015366
 20
-25.8187177302
 10
1.9600743213
 20
-25.8076021185
 10
1.9636368353
 20
-25.7963132641
 10
1.9667810379
 20
-25.7848766464
 10
1.9694998312
 20
-25.7733180846
 10
1.9717870806
 20
-25.7616636602
 10
1.9736376264
 20
-25.7499396581
 10
1.9750472914
 20
-25.738172524
 10
1.9760128888
 20
-25.726388832
 10
1.9765322365
 20
-25.7146152043
 10
1.976604163
 20
-25.7028782248
 10
1.9762285075
 20
-25.691204374
 10
1.9754061181
 20
-25.6796199954
  0
LWPOLYLINE
  5
3AE
100
AcDbEntity
  8
RACCORDO
100
AcDbPolyline
 62
7
  6
CONTINUOUS
 90
136
 70
0
 10
18.2688779702
 20
0.256795548
 10
18.3282748279
 20
0.305523703
 10
18.3857920555
 20
0.3530347717
 10
18.441429653
 20
0.3993287542
 10
18.4951325352
 20
0.4443710955
 10
18.5469557873
 20
0.4881963505
 10
18.597064665
 20
0.5309081838
 10
18.6454664143
 20
0.5725115223
 10
18.6921537892
 20
0.6130014391
 10
18.7372703077
 20
0.6524668173
 10
18.7808201757
 20
0.6909101814
 10
18.8227991872
 20
0.728329007
 10
18.8633382427
 20
0.7648046044
 10
18.9024412627
 20
0.8003393507
 10
18.9401043267
 20
0.8349308689
 10
18.9764465724
 20
0.8686533374
 10
19.01147166
 20
0.9015090155
 10
19.0451759294
 20
0.9334956441
 10
19.0776675388
 20
0.9646806245
 10
19.1089498325
 20
0.9950660517
 10
19.1390194661
 20
1.0246498308
 10
19.1679745652
 20
1.0534930784
 10
19.1958182081
 20
1.0815977793
 10
19.2225473164
 20
1.1089619488
 10
19.2482507801
 20
1.1356407491
 10
19.2729314453
 20
1.1616361078
 10
19.2965864659
 20
1.1869460973
 10
19.3192961942
 20
1.2116200972
 10
19.3410632403
 20
1.2356600099
 10
19.3618849941
 20
1.259063933
 10
19.3818339778
 20
1.2818755393
 10
19.4009125554
 20
1.3040967512
 10
19.4191183628
 20
1.3257256464
 10
19.4365168304
 20
1.3468001307
 10
19.4531100361
 20
1.3673221872
 10
19.4688959019
 20
1.3872898328
 10
19.4839336247
 20
1.4067350252
 10
19.4982249089
 20
1.4256598214
 10
19.51176805
 20
1.4440621644
 10
19.5246171314
 20
1.4619678403
 10
19.5367733633
 20
1.4793789752
 10
19.5482355355
 20
1.496293443
 10
19.5590541007
 20
1.5127306517
 10
19.5692295117
 20
1.5286925363
 10
19.5787613157
 20
1.5441771617
 10
19.5876986071
 20
1.5591981314
 10
19.5960411235
 20
1.5737573262
 10
19.6037891273
 20
1.5878528653
 10
19.6109924998
 20
1.6014927088
 10
19.6176498098
 20
1.6146775629
 10
19.6237624886
 20
1.6274067214
 10
19.6293847116
 20
1.6396860262
 10
19.6345118489
 20
1.6515063356
 10
19.6391485304
 20
1.6628767914
 10
19.6433628217
 20
1.6738306605
 10
19.6471527817
 20
1.6843545117
 10
19.6505203515
 20
1.6944617763
 10
19.65353942
 20
1.7042260151
 10
19.656215294
 20
1.713644949
 10
19.6585426666
 20
1.7227208571
 10
19.6605795062
 20
1.7315341372
 10
19.662333212
 20
1.7400897853
 10
19.6637963847
 20
1.7483828055
 10
19.665004795
 20
1.7564786075
 10
19.6659647289
 20
1.7643814409
 10
19.6666699005
 20
1.7720870561
 10
19.6671372219
 20
1.779648114
 10
19.6673723538
 20
1.7870677866
 10
19.6673696356
 20
1.794342902
 10
19.6671289977
 20
1.8015166052
 10
19.6666560904
 20
1.8085916277
 10
19.6659452634
 20
1.815565238
 10
19.6649794968
 20
1.8224723865
 10
19.6637651121
 20
1.8293152049
 10
19.6622957877
 20
1.8360915615
 10
19.6605355388
 20
1.8428300109
 10
19.6584920246
 20
1.8495328949
 10
19.6561575859
 20
1.8561978716
 10
19.6534732599
 20
1.86284647
 10
19.6504442261
 20
1.8694870828
 10
19.6470653049
 20
1.8761113172
 10
19.6432619948
 20
1.8827155239
 10
19.6390318786
 20
1.8893114942
 10
19.6343773735
 20
1.8958874368
 10
19.6292312289
 20
1.9024043292
 10
19.6235890419
 20
1.9088659119
 10
19.6174552155
 20
1.9152684443
 10
19.6107757078
 20
1.9215616825
 10
19.60354924
 20
1.9277433411
 10
19.595777091
 20
1.9338157053
 10
19.5874090563
 20
1.9397353867
 10
19.5784447327
 20
1.9455003604
 10
19.5688845235
 20
1.9511126512
 10
19.5586794342
 20
1.9565349454
 10
19.5478299782
 20
1.9617657403
 10
19.536335642
 20
1.9668065386
 10
19.5241458918
 20
1.9716245355
 10
19.5112619324
 20
1.9762188693
 10
19.4976825588
 20
1.9805904017
 10
19.4833536221
 20
1.9847089129
 10
19.4682768376
 20
1.9885741141
 10
19.45245049
 20
1.992186294
 10
19.4358152852
 20
1.9955160994
 10
19.4183733111
 20
1.9985637037
 10
19.4001224799
 20
2.0013289335
 10
19.3809972333
 20
2.003781915
 10
19.3609999256
 20
2.0059231792
 10
19.3401282026
 20
2.007752195
 10
19.3183094437
 20
2.009237496
 10
19.2955463264
 20
2.0103798864
 10
19.2718361732
 20
2.011178562
 10
19.2470983315
 20
2.0115996431
 10
19.2213354226
 20
2.0116441445
 10
19.1945448252
 20
2.0113110514
 10
19.1666380225
 20
2.0105634407
 10
19.137619002
 20
2.009402587
 10
19.1074837762
 20
2.0078272157
 10
19.0761318666
 20
2.0057965788
 10
19.0435646281
 20
2.0033118715
 10
19.0097807058
 20
2.0003718988
 10
18.9746755563
 20
1.9969323278
 10
18.9382442805
 20
1.9929932061
 10
18.9004917776
 20
1.9885544861
 10
18.861328201
 20
1.9835716931
 10
18.8207623051
 20
1.9780464999
 10
18.7787853356
 20
1.9719772338
 10
18.735281183
 20
1.9653144006
 10
18.6902647509
 20
1.9580617132
 10
18.6437211357
 20
1.9502154589
 10
18.5954895165
 20
1.9417150053
 10
18.5455700669
 20
1.9325619756
 10
18.4939626134
 20
1.9227547466
 10
18.4405058142
 20
1.9122278162
 10
18.3851458886
 20
1.9009593506
 10
18.3279366172
 20
1.8889711836
 10
18.2688780001
 20
1.8762633153
  0
LWPOLYLINE
  5
3AF
100
AcDbEntity
  8
RACCORDO
100
AcDbPolyline
 62
250
  6
CONTINUOUS
 90
105
 70
0
 10
19.3471649165
 20
0.4588556471
 10
19.3521723392
 20
0.4621133965
 10
19.3835667042
 20
0.4834237157
 10
19.4143228306
 20
0.5058484702
 10
19.4444273163
 20
0.5293778883
 10
19.4738670336
 20
0.5540017133
 10
19.5026291078
 20
0.5797091806
 10
19.5307009522
 20
0.6064890401
 10
19.5580702926
 20
0.6343295781
 10
19.5847251981
 20
0.6632186539
 10
19.6106540569
 20
0.6931436826
 10
19.635845563
 20
0.7240916205
 10
19.6602886977
 20
0.7560489358
 10
19.6839727628
 20
0.7890016416
 10
19.7068874024
 20
0.8229353242
 10
19.7290226287
 20
0.8578351872
 10
19.750368799
 20
0.8936860273
 10
19.7709166047
 20
0.9304722166
 10
19.7906570581
 20
0.9681776705
 10
19.8095815201
 20
1.0067858879
 10
19.8276817175
 20
1.0462799843
 10
19.8449497603
 20
1.0866427376
 10
19.8613781243
 20
1.1278565604
 10
19.8769596438
 20
1.1699034826
 10
19.8916875043
 20
1.2127651221
 10
19.9055552628
 20
1.2564227281
 10
19.9185568585
 20
1.300857214
 10
19.9306866226
 20
1.3460491988
 10
19.9419392675
 20
1.3919789816
 10
19.952309883
 20
1.4386265282
 10
19.9617939351
 20
1.4859714513
 10
19.970387277
 20
1.5339930509
 10
19.9780861547
 20
1.5826703415
 10
19.9848872102
 20
1.6319820838
 10
19.9907874769
 20
1.6819067669
 10
19.9957843789
 20
1.7324226033
 10
19.9998757326
 20
1.7835075244
 10
20.0030597502
 20
1.835139211
 10
20.0053350415
 20
1.8872951121
 10
20.0067006136
 20
1.9399524598
 10
20.0071558705
 20
1.993088266
 10
20.0067006135
 20
2.0466793292
 10
20.0053350412
 20
2.100702249
 10
20.0030597498
 20
2.1551334414
 10
19.9998757321
 20
2.2099491456
 10
19.9957843783
 20
2.2651254205
 10
19.9907874762
 20
2.320638159
 10
19.9848872094
 20
2.3764631088
 10
19.9780861537
 20
2.4325759067
 10
19.9703872759
 20
2.488952075
 10
19.9617939339
 20
2.5455670164
 10
19.9523098817
 20
2.6023959917
 10
19.941939266
 20
2.6594141539
 10
19.9306866211
 20
2.7165965816
 10
19.9185568568
 20
2.7739183306
 10
19.905555261
 20
2.8313544121
 10
19.8916875024
 20
2.8888797767
 10
19.8769596418
 20
2.9464692767
 10
19.8613781222
 20
3.0040977184
 10
19.844949758
 20
3.0617399053
 10
19.8276817151
 20
3.1193707014
 10
19.8095815176
 20
3.1769649952
 10
19.7906570555
 20
3.2344976747
 10
19.770916602
 20
3.2919435818
 10
19.7503687962
 20
3.3492775768
 10
19.7290226259
 20
3.4064745872
 10
19.7068873994
 20
3.4635096766
 10
19.6839727597
 20
3.5203579988
 10
19.6602886945
 20
3.5769947697
 10
19.6358455598
 20
3.6333952196
 10
19.6106540535
 20
3.6895346636
 10
19.5847251946
 20
3.7453885511
 10
19.558070289
 20
3.8009325325
 10
19.5307009485
 20
3.856142411
 10
19.502629104
 20
3.9109941148
 10
19.4738670297
 20
3.9654636561
 10
19.4444273124
 20
4.0195271984
 10
19.4143228266
 20
4.0731611023
 10
19.3835667
 20
4.1263419831
 10
19.3521723349
 20
4.1790466675
 10
19.3201534202
 20
4.2312521708
 10
19.2875239536
 20
4.282935667
 10
19.2542982089
 20
4.3340745475
 10
19.2204907115
 20
4.3846464581
 10
19.1861162077
 20
4.4346293431
 10
19.1511896833
 20
4.4840014118
 10
19.1157263738
 20
4.5327411256
 10
19.0797417778
 20
4.5808271813
 10
19.0432516275
 20
4.6282385559
 10
19.0062718685
 20
4.6749545332
 10
18.9688186366
 20
4.7209547305
 10
18.9309082707
 20
4.7662190804
 10
18.892557316
 20
4.8107278272
 10
18.853782526
 20
4.8544615266
 10
18.8146008406
 20
4.8974010718
 10
18.7750293725
 20
4.9395277094
 10
18.7350853966
 20
4.9808230496
 10
18.6947863516
 20
5.0212690639
 10
18.6541498342
 20
5.0608480912
 10
18.6131935879
 20
5.0995428501
 10
18.571935492
 20
5.1373364483
 10
18.5303935566
 20
5.1742123875
 10
18.4885859256
 20
5.210154561
 10
18.4465308654
 20
5.2451472655
 10
18.4319881296
 20
5.2568504655
  0
LINE
  5
3B0
100
AcDbEntity
  8
DRAFT
100
AcDbLine
 62
7
  6
CONTINUOUS
 10
18.4319881296
 20
-0.1330729719
 11
19.3471649162
 21
0.4588556469
  0
LWPOLYLINE
  5
3B1
100
AcDbEntity
  8
RACCORDO
100
AcDbPolyline
 62
250
  6
CONTINUOUS
 90
16
 70
0
 10
-3.8151739223
 20
9.6714062479
 10
-3.8538731975
 20
9.6614787227
 10
-3.895810032
 20
9.6535783537
 10
-3.9405399649
 20
9.6477888715
 10
-3.9875889334
 20
9.6441716352
 10
-4.0364582965
 20
9.6427649813
 10
-4.0866301202
 20
9.6435838182
 10
-4.1375726665
 20
9.6466194674
 10
-4.188746029
 20
9.6518397562
 10
-4.2396078551
 20
9.6591893581
 10
-4.289619094
 20
9.6685903796
 10
-4.3382497095
 20
9.6799431855
 10
-4.384984298
 20
9.6931274551
 10
-4.4293275504
 20
9.7080034572
 10
-4.4708095019
 20
9.7244135307
 10
-4.5089905127
 20
9.7421837561
  0
LWPOLYLINE
  5
3B2
100
AcDbEntity
  8
RACCORDO
100
AcDbPolyline
 62
7
  6
CONTINUOUS
 90
16
 70
0
 10
18.268877528
 20
13.8274137844
 10
18.2599163548
 20
13.8256465756
 10
18.2510942886
 20
13.8242932083
 10
18.2424113295
 20
13.8233536825
 10
18.233857004
 20
13.8228295544
 10
18.2254417855
 20
13.8227192677
 10
18.2171970945
 20
13.8230181542
 10
18.2091267554
 20
13.8237330145
 10
18.2012269438
 20
13.8248570478
 10
18.1935176064
 20
13.8263651837
 10
18.1860044109
 20
13.8282630972
 10
18.1786816896
 20
13.8305451132
 10
18.1715523864
 20
13.8331691356
 10
18.1646174828
 20
13.8361211322
 10
18.1578759973
 20
13.8394151351
 10
18.15132793
 20
13.8430511444
  0
LINE
  5
3B3
100
AcDbEntity
  8
RACCORDO
100
AcDbLine
 62
7
  6
CONTINUOUS
 10
-15.790336911
 20
19.6958113713
 11
-0.9408521982
 21
12.2710690149
  0
LINE
  5
3B4
100
AcDbEntity
  8
DRAFT
100
AcDbLine
 62
7
  6
CONTINUOUS
 10
-4.9936986755
 20
14.5743552453
 11
-9.1919060214
 21
16.6734589183
  0
LINE
  5
3B5
100
AcDbEntity
  8
DRAFT
100
AcDbLine
 62
7
  6
CONTINUOUS
 10
-9.9919401513
 20
17.7010375426
 11
-3.6279791206
 21
14.5190570272
  0
LWPOLYLINE
  5
3B6
100
AcDbEntity
  8
0
100
AcDbPolyline
 62
250
  6
CONTINUOUS
 90
16
 70
0
 10
1.9561015366
 20
15.4808864092
 10
1.9600742503
 20
15.474191534
 10
1.963636709
 20
15.4677100921
 10
1.9667808722
 20
15.4614567118
 10
1.9694996439
 20
15.4554455064
 10
1.9717868879
 20
15.449690043
 10
1.9736374421
 20
15.4442033113
 10
1.9750471299
 20
15.4389976945
 10
1.9760127696
 20
15.4340849415
 10
1.9765321819
 20
15.4294761399
 10
1.9766041945
 20
15.4251816916
 10
1.9762286449
 20
15.4212112888
 10
1.9754063806
 20
15.4175738927
 10
1.9741392576
 20
15.4142777125
 10
1.9724301355
 20
15.4113301875
 10
1.971462109
 20
15.4100512426
  0
LINE
  5
3B7
100
AcDbEntity
  8
0
100
AcDbLine
 62
250
  6
CONTINUOUS
 10
0.9108873269
 20
24.4232199426
 11
1.3048732608
 21
23.4010641246
  0
LINE
  5
3B8
100
AcDbEntity
  8
0
100
AcDbLine
 62
7
  6
CONTINUOUS
 10
2.5202882671
 20
21.8223424674
 11
2.3187889091
 21
22.4180668932
  0
LWPOLYLINE
  5
3B9
100
AcDbEntity
  8
RACCORDO
100
AcDbPolyline
 62
250
  6
CONTINUOUS
 90
25
 70
0
 10
11.6927755214
 20
-8.6112228207
 10
11.6927674574
 20
-8.6095340107
 10
11.6922460179
 20
-8.5971517356
 10
11.6908806943
 20
-8.5838130648
 10
11.68862965
 20
-8.5694977886
 10
11.6854507459
 20
-8.5541983739
 10
11.6813033786
 20
-8.5378803296
 10
11.6761463711
 20
-8.5205147121
 10
11.6699400604
 20
-8.502094836
 10
11.6626492257
 20
-8.4826177477
 10
11.6542305062
 20
-8.4620330414
 10
11.6446532746
 20
-8.4403473323
 10
11.6339129678
 20
-8.4176425538
 10
11.6219905003
 20
-8.3938901504
 10
11.6088584066
 20
-8.3690703223
 10
11.5945144956
 20
-8.3432786456
 10
11.5789357741
 20
-8.3164626728
 10
11.562116039
 20
-8.2886218975
 10
11.5440942489
 20
-8.2599317603
 10
11.5248552909
 20
-8.2303312928
 10
11.5044148548
 20
-8.1998290514
 10
11.4828857651
 20
-8.1687119369
 10
11.4603275571
 20
-8.1370642088
 10
11.4367291037
 20
-8.1047615021
 10
11.4121153218
 20
-8.0717836327
  0
LINE
  5
3BA
100
AcDbEntity
  8
RACCORDO
100
AcDbLine
 62
7
  6
CONTINUOUS
 10
11.6927755215
 20
-15.8973673858
 11
11.6927755215
 21
-8.6112302072
  0
LINE
  5
3BB
100
AcDbEntity
  8
0
100
AcDbLine
 62
7
  6
CONTINUOUS
 10
11.7866874006
 20
18.1813311343
 11
11.7866874006
 21
18.0098023143
  0
LINE
  5
3BC
100
AcDbEntity
  8
RACCORDO
100
AcDbLine
 62
7
  6
CONTINUOUS
 10
12.9519312278
 20
21.7235407205
 11
12.9519312278
 21
21.3965746728
  0
LWPOLYLINE
  5
3BD
100
AcDbEntity
  8
RACCORDO
100
AcDbPolyline
 62
7
  6
CONTINUOUS
 90
35
 70
0
 10
11.6927753758
 20
-8.6112323912
 10
11.6929573928
 20
-8.5979949958
 10
11.6935823551
 20
-8.5833600953
 10
11.6946753182
 20
-8.5684762353
 10
11.6962502454
 20
-8.5534400697
 10
11.6983230401
 20
-8.5382681858
 10
11.700908962
 20
-8.5229798479
 10
11.7040051219
 20
-8.5076753586
 10
11.7076151499
 20
-8.492384325
 10
11.7117469186
 20
-8.4771146014
 10
11.7163905852
 20
-8.4619319631
 10
11.721543387
 20
-8.4468622767
 10
11.7272068506
 20
-8.4319162944
 10
11.7333697777
 20
-8.4171351451
 10
11.740027792
 20
-8.4025367671
 10
11.7471762146
 20
-8.3881383041
 10
11.7547981364
 20
-8.3739776538
 10
11.7628847438
 20
-8.3600721714
 10
11.771428094
 20
-8.3464364159
 10
11.7804080799
 20
-8.3331016613
 10
11.7898132487
 20
-8.3200823857
 10
11.7996321384
 20
-8.3073920219
 10
11.8098409083
 20
-8.2950576119
 10
11.8204256852
 20
-8.2830908884
 10
11.8313722137
 20
-8.27150311
 10
11.8426527985
 20
-8.2603175881
 10
11.8542524231
 20
-8.2495422368
 10
11.8661537023
 20
-8.2391864294
 10
11.8783221979
 20
-8.2292719721
 10
11.8907405673
 20
-8.2198036808
 10
11.9033898767
 20
-8.2107869028
 10
11.9162301244
 20
-8.2022396875
 10
11.9292342056
 20
-8.1941678567
 10
11.9423896785
 20
-8.1865671656
 10
11.9480357296
 20
-8.1834720573
  0
LINE
  5
3BE
100
AcDbEntity
  8
RACCORDO
100
AcDbLine
 62
250
  6
CONTINUOUS
 10
18.4403334121
 20
-0.117768864
 11
18.4319881296
 21
-0.1253539268
  0
LWPOLYLINE
  5
3BF
100
AcDbEntity
  8
RACCORDO
100
AcDbPolyline
 62
250
  6
CONTINUOUS
 90
57
 70
0
 10
18.15132793
 20
0.1194318769
 10
18.157139443
 20
0.1246299469
 10
18.1629302412
 20
0.129610595
 10
18.1686990873
 20
0.13437399
 10
18.1744397677
 20
0.138922856
 10
18.1801560749
 20
0.1432547432
 10
18.1858613338
 20
0.1473622385
 10
18.1915558728
 20
0.1512486612
 10
18.1972358391
 20
0.1549113614
 10
18.202907565
 20
0.1583342587
 10
18.2085706823
 20
0.1615190082
 10
18.214221347
 20
0.1644647805
 10
18.2198602741
 20
0.1671518996
 10
18.2254841575
 20
0.1695801317
 10
18.231091743
 20
0.1717505218
 10
18.2366864546
 20
0.173645415
 10
18.242254988
 20
0.1752654514
 10
18.2478056703
 20
0.1766107937
 10
18.2533725891
 20
0.1776636674
 10
18.2589396451
 20
0.1784344174
 10
18.2645145898
 20
0.178914464
 10
18.2701624508
 20
0.1790592241
 10
18.2758850821
 20
0.17888234
 10
18.2816640787
 20
0.178374198
 10
18.2875284518
 20
0.1774570062
 10
18.2934883297
 20
0.1761273683
 10
18.2995101996
 20
0.1743940069
 10
18.3055565416
 20
0.1721974272
 10
18.3116207204
 20
0.1695241263
 10
18.3176873395
 20
0.1663915331
 10
18.3237094953
 20
0.1627852732
 10
18.3296599944
 20
0.1587109403
 10
18.335548783
 20
0.1541647186
 10
18.3413853463
 20
0.1491176929
 10
18.3471506377
 20
0.1435817856
 10
18.352841126
 20
0.1375472475
 10
18.358483397
 20
0.1309537718
 10
18.364065043
 20
0.1238005704
 10
18.3695644916
 20
0.1160917381
 10
18.3749867644
 20
0.1077754852
 10
18.3803206341
 20
0.0988307757
 10
18.3855329352
 20
0.0892819807
 10
18.3905930538
 20
0.0791454058
 10
18.3954675113
 20
0.0684413442
 10
18.4001463678
 20
0.0571503913
 10
18.4046294742
 20
0.0452293346
 10
18.4088817529
 20
0.0326950914
 10
18.412879464
 20
0.0195308959
 10
18.4166225959
 20
0.0056440954
 10
18.4200662452
 20
-0.0089609464
 10
18.4231681325
 20
-0.0242898006
 10
18.4259057691
 20
-0.0404491055
 10
18.4282219898
 20
-0.0574984868
 10
18.4300435567
 20
-0.0753834886
 10
18.4313040698
 20
-0.0940405345
 10
18.431932652
 20
-0.1135930736
 10
18.4319881293
 20
-0.121392243
  0
LWPOLYLINE
  5
3C0
100
AcDbEntity
  8
RACCORDO
100
AcDbPolyline
 62
250
  6
CONTINUOUS
 90
32
 70
0
 10
17.9068119501
 20
-4.9685754649
 10
17.9136404039
 20
-4.964799655
 10
17.9281805521
 20
-4.9561259845
 10
17.9423440396
 20
-4.9467936879
 10
17.9561201145
 20
-4.936809849
 10
17.969498319
 20
-4.9261820467
 10
17.9824684973
 20
-4.9149183481
 10
17.9950208036
 20
-4.9030273035
 10
18.0071457089
 20
-4.8905179394
 10
18.0188340088
 20
-4.8773997517
 10
18.0300768306
 20
-4.8636826983
 10
18.0408656393
 20
-4.8493771919
 10
18.0511922449
 20
-4.834494092
 10
18.0610488084
 20
-4.8190446961
 10
18.0704278472
 20
-4.8030407324
 10
18.0793222414
 20
-4.7864943494
 10
18.0877252392
 20
-4.7694181075
 10
18.0956304615
 20
-4.7518249697
 10
18.1030319074
 20
-4.733728291
 10
18.1099239582
 20
-4.7151418086
 10
18.116301382
 20
-4.696079632
 10
18.1221593376
 20
-4.6765562313
 10
18.1274933782
 20
-4.6565864267
 10
18.1322994543
 20
-4.6361853781
 10
18.1365739177
 20
-4.6153685721
 10
18.1403135235
 20
-4.5941518108
 10
18.1435154329
 20
-4.5725512002
 10
18.1461772155
 20
-4.5505831368
 10
18.1482968504
 20
-4.5282642975
 10
18.1498727285
 20
-4.505611627
 10
18.1509036537
 20
-4.4826423222
 10
18.1513888436
 20
-4.4593738184
  0
LINE
  5
3C1
100
AcDbEntity
  8
RACCORDO
100
AcDbLine
 62
250
  6
CONTINUOUS
 10
18.15132793
 20
-4.4358237791
 11
11.4121153218
 21
-8.0717835902
  0
LINE
  5
3C2
100
AcDbEntity
  8
RACCORDO
100
AcDbLine
 62
7
  6
CONTINUOUS
 10
17.9068119501
 20
-4.9685754649
 11
11.9480366637
 21
-8.1834714363
  0
LWPOLYLINE
  5
3C3
100
AcDbEntity
  8
RACCORDO
100
AcDbPolyline
 62
250
  6
CONTINUOUS
 90
29
 70
0
 10
18.15132793
 20
-4.4358237791
 10
18.1699892453
 20
-4.4258943395
 10
18.188102509
 20
-4.4157143386
 10
18.2056542693
 20
-4.4052913364
 10
18.2226314927
 20
-4.3946330726
 10
18.2390215704
 20
-4.3837474624
 10
18.2548123281
 20
-4.3726425916
 10
18.2699920387
 20
-4.3613267073
 10
18.2845494302
 20
-4.3498082123
 10
18.298473692
 20
-4.3380956607
 10
18.3117544836
 20
-4.3261977504
 10
18.3243819425
 20
-4.314123317
 10
18.336346691
 20
-4.3018813276
 10
18.3476398439
 20
-4.2894808734
 10
18.3582530147
 20
-4.2769311633
 10
18.3681783219
 20
-4.264241517
 10
18.3774083949
 20
-4.2514213581
 10
18.3859363794
 20
-4.2384802072
 10
18.3937559422
 20
-4.2254276749
 10
18.4008612766
 20
-4.2122734543
 10
18.4072471061
 20
-4.199027314
 10
18.4129086885
 20
-4.1856990911
 10
18.4178418197
 20
-4.1722986835
 10
18.4220428364
 20
-4.1588360425
 10
18.425508619
 20
-4.1453211662
 10
18.4282365939
 20
-4.1317640909
 10
18.4302247356
 20
-4.1181748844
 10
18.4314715678
 20
-4.1045636386
 10
18.4319601769
 20
-4.0913721098
  0
LWPOLYLINE
  5
3C4
100
AcDbEntity
  8
RACCORDO
100
AcDbPolyline
 62
250
  6
CONTINUOUS
 90
28
 70
0
 10
11.9480297675
 20
-8.183475157
 10
11.9452645207
 20
-8.1847289778
 10
11.9408364229
 20
-8.1860784096
 10
11.9353738724
 20
-8.187117492
 10
11.9288362137
 20
-8.187818824
 10
11.9211977901
 20
-8.1881504726
 10
11.9123909219
 20
-8.1881055143
 10
11.9023746854
 20
-8.187662107
 10
11.8911186016
 20
-8.1867918891
 10
11.8785701387
 20
-8.1854816765
 10
11.8646816177
 20
-8.1837141398
 10
11.8494232202
 20
-8.1814650086
 10
11.8327690244
 20
-8.1787147193
 10
11.8146540744
 20
-8.1754514457
 10
11.795061418
 20
-8.1716573726
 10
11.7740425849
 20
-8.1673142279
 10
11.7515591247
 20
-8.1624280499
 10
11.7275775265
 20
-8.156989841
 10
11.7021650873
 20
-8.1509710471
 10
11.6752643543
 20
-8.1443807803
 10
11.6468654286
 20
-8.1372251354
 10
11.6171172505
 20
-8.1294830814
 10
11.5859603882
 20
-8.1211728217
 10
11.5534031113
 20
-8.1123161691
 10
11.5197175021
 20
-8.1029155258
 10
11.4849946166
 20
-8.0929988424
 10
11.4491294734
 20
-8.0826094156
 10
11.4121153559
 20
-8.0717835718
  0
LWPOLYLINE
  5
3C5
100
AcDbEntity
  8
RACCORDO
100
AcDbPolyline
 62
250
  6
CONTINUOUS
 90
16
 70
0
 10
-4.5224159954
 20
-17.1309085248
 10
-4.5615140919
 20
-17.1484801856
 10
-4.6038443284
 20
-17.1639444526
 10
-4.6489582401
 20
-17.1771374907
 10
-4.6963778708
 20
-17.1879195272
 10
-4.7456008367
 20
-17.1961763325
 10
-4.7961056484
 20
-17.2018204305
 10
-4.8473572362
 20
-17.2047920252
 10
-4.8988126189
 20
-17.2050596343
 10
-4.9499266558
 20
-17.2026204226
 10
-5.0001578231
 20
-17.1975002321
 10
-5.0489739499
 20
-17.1897533084
 10
-5.0958578575
 20
-17.1794617256
 10
-5.1403128373
 20
-17.1667345173
 10
-5.1818679144
 20
-17.1517065209
 10
-5.2200828363
 20
-17.1345369496
  0
LINE
  5
3C6
100
AcDbEntity
  8
0
100
AcDbLine
 62
7
  6
CONTINUOUS
 10
-0.4002899195
 20
14.2664620075
 11
0.2239056775
 21
14.1361293877
  0
LWPOLYLINE
  5
3C7
100
AcDbEntity
  8
0
100
AcDbPolyline
 62
250
  6
CONTINUOUS
 90
34
 70
0
 10
-0.5259683856
 20
14.4227958921
 10
-0.5173893937
 20
14.418705144
 10
-0.5084321966
 20
14.4148223422
 10
-0.4991169351
 20
14.4111562175
 10
-0.4894645554
 20
14.4077150132
 10
-0.4794967615
 20
14.4045064674
 10
-0.4692359667
 20
14.4015377946
 10
-0.4587052434
 20
14.3988156702
 10
-0.4479282705
 20
14.396346215
 10
-0.436929281
 20
14.3941349818
 10
-0.4257330068
 20
14.3921869426
 10
-0.4143646237
 20
14.390506478
 10
-0.4028496943
 20
14.3890973664
 10
-0.3912141109
 20
14.3879627764
 10
-0.3794840368
 20
14.3871052591
 10
-0.3676858481
 20
14.3865267429
 10
-0.3558460739
 20
14.3862285284
 10
-0.3439913369
 20
14.3862112864
 10
-0.3321482932
 20
14.3864750554
 10
-0.3203435728
 20
14.3870192426
 10
-0.3086037197
 20
14.3878426241
 10
-0.2969551317
 20
14.3889433485
 10
-0.2854240015
 20
14.3903189409
 10
-0.2740362578
 20
14.391966308
 10
-0.2628175068
 20
14.3938817457
 10
-0.2517929747
 20
14.3960609469
 10
-0.2409874509
 20
14.3984990116
 10
-0.2304252326
 20
14.4011904575
 10
-0.2201300696
 20
14.4041292328
 10
-0.2101251115
 20
14.4073087293
 10
-0.2004328551
 20
14.4107217978
 10
-0.1910750942
 20
14.4143607637
 10
-0.1820728704
 20
14.4182174446
 10
-0.173446426
 20
14.4222831683
  0
LWPOLYLINE
  5
3C8
100
AcDbEntity
  8
0
100
AcDbPolyline
 62
250
  6
CONTINUOUS
 90
34
 70
0
 10
-12.8296263783
 20
20.5746248884
 10
-12.8210467579
 20
20.5705338546
 10
-12.8120888794
 20
20.5666507974
 10
-12.8027728882
 20
20.5629844495
 10
-12.7931197465
 20
20.5595430601
 10
-12.7831511525
 20
20.5563343639
 10
-12.772889488
 20
20.5533655672
 10
-12.7623578028
 20
20.5506433428
 10
-12.7515798027
 20
20.5481738227
 10
-12.7405797635
 20
20.5459625708
 10
-12.7293824368
 20
20.5440145621
 10
-12.7180129921
 20
20.542334175
 10
-12.7064969991
 20
20.5409251885
 10
-12.6948603569
 20
20.5397907713
 10
-12.6831292355
 20
20.5389334747
 10
-12.671330017
 20
20.5383552267
 10
-12.6594892286
 20
20.5380573274
 10
-12.6476335081
 20
20.5380404475
 10
-12.6357895442
 20
20.538304624
 10
-12.6239839901
 20
20.53884926
 10
-12.612243378
 20
20.5396731291
 10
-12.6005940858
 20
20.5407743792
 10
-12.5890622265
 20
20.542150545
 10
-12.5776738216
 20
20.5437985245
 10
-12.5664547068
 20
20.5457145702
 10
-12.5554302479
 20
20.5478943262
 10
-12.5446250713
 20
20.550332899
 10
-12.5340632495
 20
20.5530248467
 10
-12.5237677086
 20
20.5559643642
 10
-12.5137624699
 20
20.5591446326
 10
-12.5040721608
 20
20.5625577125
 10
-12.4947190316
 20
20.5661954987
 10
-12.4857231319
 20
20.5700499155
 10
-12.4771044186
 20
20.5741121646
  0
LWPOLYLINE
  5
3C9
100
AcDbEntity
  8
0
100
AcDbPolyline
 62
250
  6
CONTINUOUS
 90
34
 70
0
 10
-0.5259683856
 20
14.7627698262
 10
-0.5174034539
 20
14.7586854717
 10
-0.5084576706
 20
14.7548068019
 10
-0.4991506416
 20
14.7511427839
 10
-0.4895014566
 20
14.7477014565
 10
-0.4795326695
 20
14.7444913689
 10
-0.469270678
 20
14.7415212313
 10
-0.4587401165
 20
14.7387981028
 10
-0.4479631958
 20
14.7363276578
 10
-0.4369639584
 20
14.7341154157
 10
-0.4257669882
 20
14.7321663425
 10
-0.4143975955
 20
14.730484865
 10
-0.4028815778
 20
14.7290748048
 10
-0.3912449414
 20
14.72793934
 10
-0.3795137575
 20
14.7270810081
 10
-0.367714335
 20
14.7265017344
 10
-0.3558731793
 20
14.7262028241
 10
-0.3440169541
 20
14.7261849546
 10
-0.3321723458
 20
14.7264481684
 10
-0.3203660003
 20
14.7269918745
 10
-0.3086244667
 20
14.7278148518
 10
-0.2969741578
 20
14.7289152505
 10
-0.285441276
 20
14.7302905969
 10
-0.2740517631
 20
14.7319377988
 10
-0.2628312453
 20
14.733853151
 10
-0.2518049619
 20
14.7360323458
 10
-0.2409977118
 20
14.7384704827
 10
-0.2304338063
 20
14.7411620774
 10
-0.2201370009
 20
14.744101078
 10
-0.2101304611
 20
14.747280873
 10
-0.2004367114
 20
14.7506943045
 10
-0.1910775593
 20
14.7543336915
 10
-0.1820740478
 20
14.7581908496
 10
-0.173446426
 20
14.7622571024
  0
LWPOLYLINE
  5
3CA
100
AcDbEntity
  8
0
100
AcDbPolyline
 62
250
  6
CONTINUOUS
 90
34
 70
0
 10
-12.8296263783
 20
20.9145988226
 10
-12.8210461754
 20
20.9105075239
 10
-12.8120876521
 20
20.9066242245
 10
-12.8027709563
 20
20.9029576598
 10
-12.7931170354
 20
20.8995160754
 10
-12.7831476077
 20
20.8963072156
 10
-12.772885115
 20
20.8933383044
 10
-12.7623526461
 20
20.8906160206
 10
-12.7515738857
 20
20.8881464851
 10
-12.7405730812
 20
20.8859352529
 10
-12.7293749746
 20
20.8839872965
 10
-12.7180047549
 20
20.8823069972
 10
-12.7064880054
 20
20.8808981347
 10
-12.694850632
 20
20.8797638767
 10
-12.6831188082
 20
20.8789067728
 10
-12.671318925
 20
20.8783287498
 10
-12.6594775169
 20
20.8780311061
 10
-12.6476212232
 20
20.87801451
 10
-12.6357767327
 20
20.8782789965
 10
-12.623970718
 20
20.8788239657
 10
-12.6122296985
 20
20.8796481893
 10
-12.6005800044
 20
20.8807498184
 10
-12.5890477306
 20
20.882126392
 10
-12.577658926
 20
20.8837748071
 10
-12.5664394472
 20
20.8856913144
 10
-12.5554146648
 20
20.8878715574
 10
-12.5446092092
 20
20.8903106422
 10
-12.5340471713
 20
20.8930031223
 10
-12.5237507774
 20
20.8959434028
 10
-12.5137447967
 20
20.8991244837
 10
-12.5040558559
 20
20.9025376841
 10
-12.4947066357
 20
20.9061744947
 10
-12.485716259
 20
20.9100269387
 10
-12.4771044186
 20
20.9140860987
  0
LINE
  5
3CB
100
AcDbEntity
  8
0
100
AcDbLine
 62
7
  6
CONTINUOUS
 10
0.7024828161
 20
13.1967643452
 11
0.1852522225
 21
13.455379642
  0
LINE
  5
3CC
100
AcDbEntity
  8
0
100
AcDbLine
 62
7
  6
CONTINUOUS
 10
-1.5015135018
 20
14.2987625041
 11
-3.6695052001
 21
15.3827583533
  0
LINE
  5
3CD
100
AcDbEntity
  8
0
100
AcDbLine
 62
7
  6
CONTINUOUS
 10
-4.3289150744
 20
15.7124632904
 11
-9.2910041975
 21
18.193507852
  0
LINE
  5
3CE
100
AcDbEntity
  8
0
100
AcDbLine
 62
7
  6
CONTINUOUS
 10
-9.9504140719
 20
18.5232127892
 11
-12.1184057702
 21
19.6072086383
  0
LINE
  5
3CF
100
AcDbEntity
  8
0
100
AcDbLine
 62
7
  6
CONTINUOUS
 10
-13.8051714944
 20
20.4505915004
 11
-14.3224020881
 21
20.7092067973
  0
LINE
  5
3D0
100
AcDbEntity
  8
0
100
AcDbLine
 62
7
  6
CONTINUOUS
 10
-14.4431911523
 20
21.2786754735
 11
-12.7646530819
 21
20.4394064383
  0
LINE
  5
3D1
100
AcDbEntity
  8
0
100
AcDbLine
 62
7
  6
CONTINUOUS
 10
-2.1395331596
 20
15.1268464772
 11
-0.4609950892
 21
14.287577442
  0
LINE
  5
3D2
100
AcDbEntity
  8
0
100
AcDbLine
 62
250
  6
CONTINUOUS
 10
-14.5081644487
 20
21.4138939236
 11
-12.8296263783
 21
20.5746248884
  0
LINE
  5
3D3
100
AcDbEntity
  8
0
100
AcDbLine
 62
250
  6
CONTINUOUS
 10
-2.204506456
 20
15.2620649273
 11
-0.5259683856
 21
14.4227958921
  0
LINE
  5
3D4
100
AcDbEntity
  8
0
100
AcDbLine
 62
7
  6
CONTINUOUS
 10
-4.3289150744
 20
16.4649565398
 11
-5.2524680841
 21
16.9267330447
  0
LINE
  5
3D5
100
AcDbEntity
  8
0
100
AcDbLine
 62
7
  6
CONTINUOUS
 10
-6.9532376255
 20
17.7771178154
 11
-8.5777265889
 21
18.5893622971
  0
LINE
  5
3D6
100
AcDbEntity
  8
0
100
AcDbLine
 62
250
  6
CONTINUOUS
 10
-0.5259683856
 20
14.7627698262
 11
-2.204506456
 21
15.6020388614
  0
LINE
  5
3D7
100
AcDbEntity
  8
0
100
AcDbLine
 62
250
  6
CONTINUOUS
 10
-12.8296263783
 20
20.9145988226
 11
-14.5081644487
 21
21.7538678578
  0
LINE
  5
3D8
100
AcDbEntity
  8
0
100
AcDbLine
 62
7
  6
CONTINUOUS
 10
-6.4564062454
 20
17.90494875
 11
-5.3110467278
 21
17.3322689912
  0
LINE
  5
3D9
100
AcDbEntity
  8
0
100
AcDbLine
 62
7
  6
CONTINUOUS
 10
1.7813922428
 20
13.7860495059
 11
1.4278343648
 21
13.9628284449
  0
LINE
  5
3DA
100
AcDbEntity
  8
0
100
AcDbLine
 62
7
  6
CONTINUOUS
 10
-2.2508586891
 20
15.8021749719
 11
-2.6026742879
 21
15.9780827713
  0
LINE
  5
3DB
100
AcDbEntity
  8
0
100
AcDbLine
 62
7
  6
CONTINUOUS
 10
-9.9504140719
 20
19.6519526633
 11
-10.8758236278
 21
20.1146574412
  0
LINE
  5
3DC
100
AcDbEntity
  8
0
100
AcDbLine
 62
250
  6
CONTINUOUS
 10
-0.3502201297
 20
15.0671466412
 11
-2.0287582001
 21
15.9064156764
  0
LINE
  5
3DD
100
AcDbEntity
  8
0
100
AcDbLine
 62
250
  6
CONTINUOUS
 10
-12.6538781223
 20
21.2189756375
 11
-14.3324161927
 21
22.0582446727
  0
LINE
  5
3DE
100
AcDbEntity
  8
0
100
AcDbLine
 62
7
  6
CONTINUOUS
 10
-9.9504140719
 20
19.9693755549
 11
-9.2910041975
 21
19.6396706178
  0
LINE
  5
3DF
100
AcDbEntity
  8
0
100
AcDbLine
 62
7
  6
CONTINUOUS
 10
-4.3289150744
 20
17.1586260562
 11
-3.6695052001
 21
16.828921119
  0
LINE
  5
3E0
100
AcDbEntity
  8
0
100
AcDbLine
 62
7
  6
CONTINUOUS
 10
-5.3110467278
 20
18.0305812628
 11
-5.7597203399
 21
18.2549180689
  0
LINE
  5
3E1
100
AcDbEntity
  8
0
100
AcDbLine
 62
7
  6
CONTINUOUS
 10
2.4823281966
 20
14.1376499218
 11
1.4278343648
 21
14.6648968377
  0
LINE
  5
3E2
100
AcDbEntity
  8
0
100
AcDbLine
 62
7
  6
CONTINUOUS
 10
-10.1728306735
 20
20.4652293569
 11
-10.8758236278
 21
20.816725834
  0
LINE
  5
3E3
100
AcDbEntity
  8
0
100
AcDbLine
 62
7
  6
CONTINUOUS
 10
-5.7605006245
 20
18.3649917193
 11
-5.3110467278
 21
18.140264771
  0
LWPOLYLINE
  5
3E4
100
AcDbEntity
  8
0
100
AcDbPolyline
 62
250
  6
CONTINUOUS
 90
17
 70
0
 10
-14.5081644487
 20
21.4138939236
 10
-14.5163438176
 20
21.41818225
 10
-14.5241080545
 20
21.4226599039
 10
-14.5314396179
 20
21.4273168601
 10
-14.5383220895
 20
21.4321428021
 10
-14.5447397194
 20
21.4371268061
 10
-14.550677573
 20
21.4422573285
 10
-14.5561221713
 20
21.4475227027
 10
-14.5610614216
 20
21.4529112117
 10
-14.5654842265
 20
21.4584107507
 10
-14.5693806432
 20
21.4640089634
 10
-14.5727418987
 20
21.4696932527
 10
-14.5755604239
 20
21.4754508206
 10
-14.5778298796
 20
21.4812687135
 10
-14.5795451671
 20
21.4871338552
 10
-14.5807024308
 20
21.4930330602
 10
-14.5812380834
 20
21.4983479509
  0
LWPOLYLINE
  5
3E5
100
AcDbEntity
  8
0
100
AcDbPolyline
 62
250
  6
CONTINUOUS
 90
16
 70
0
 10
-2.204506456
 20
15.2620649273
 10
-2.2126885237
 20
15.2663547375
 10
-2.2204546381
 20
15.2708336768
 10
-2.2277873338
 20
15.2754916724
 10
-2.2346701127
 20
15.2803182432
 10
-2.241087505
 20
15.2853025402
 10
-2.2470250986
 20
15.2904333724
 10
-2.2524695474
 20
15.2956992151
 10
-2.2574085875
 20
15.3010882151
 10
-2.2618310913
 20
15.3065882347
 10
-2.2657271086
 20
15.3121868981
 10
-2.269087883
 20
15.3178716204
 10
-2.271905856
 20
15.3236296169
 10
-2.2741746903
 20
15.329447938
 10
-2.2758892834
 20
15.3353134987
 10
-2.2770457796
 20
15.3412131079
  0
LWPOLYLINE
  5
3E6
100
AcDbEntity
  8
0
100
AcDbPolyline
 62
250
  6
CONTINUOUS
 90
18
 70
0
 10
-14.5081644487
 20
21.7538678578
 10
-14.5163470461
 20
21.7581579592
 10
-14.5241136448
 20
21.7626372209
 10
-14.5314467742
 20
21.7672955688
 10
-14.538329943
 20
21.7721225292
 10
-14.5447476625
 20
21.7771072431
 10
-14.5506854849
 20
21.7822384894
 10
-14.5561300527
 20
21.7875047239
 10
-14.5610691236
 20
21.7928941041
 10
-14.565491588
 20
21.7983945063
 10
-14.5693875007
 20
21.8039935596
 10
-14.5727480994
 20
21.8096786695
 10
-14.5755658244
 20
21.8154370442
 10
-14.5778343405
 20
21.8212557309
 10
-14.5795485482
 20
21.8271216428
 10
-14.5807045942
 20
21.8330215844
 10
-14.5812998816
 20
21.8389422885
 10
-14.5813877534
 20
21.8422562054
  0
LWPOLYLINE
  5
3E7
100
AcDbEntity
  8
0
100
AcDbPolyline
 62
250
  6
CONTINUOUS
 90
18
 70
0
 10
-2.204506456
 20
15.6020388614
 10
-2.2126890534
 20
15.6063289629
 10
-2.2204556521
 20
15.6108082245
 10
-2.2277887816
 20
15.6154665724
 10
-2.2346719503
 20
15.6202935329
 10
-2.2410896699
 20
15.6252782467
 10
-2.2470274923
 20
15.6304094931
 10
-2.25247206
 20
15.6356757275
 10
-2.2574111309
 20
15.6410651077
 10
-2.2618335954
 20
15.64656551
 10
-2.2657295081
 20
15.6521645633
 10
-2.2690901067
 20
15.6578496731
 10
-2.2719078318
 20
15.6636080479
 10
-2.2741763478
 20
15.6694267346
 10
-2.2758905555
 20
15.6752926465
 10
-2.2770466015
 20
15.6811925881
 10
-2.2776418889
 20
15.6871132921
 10
-2.2777297608
 20
15.6904272091
  0
LWPOLYLINE
  5
3E8
100
AcDbEntity
  8
0
100
AcDbPolyline
 62
250
  6
CONTINUOUS
 90
16
 70
0
 10
-5.2524680841
 20
18.1603473963
 10
-5.2596367582
 20
18.1641233994
 10
-5.2664026691
 20
18.1680808335
 10
-5.2727474772
 20
18.1722089715
 10
-5.2786539846
 20
18.1764966241
 10
-5.2841061813
 20
18.1809321691
 10
-5.2890892887
 20
18.1855035837
 10
-5.2935897998
 20
18.1901984769
 10
-5.2975955157
 20
18.1950041227
 10
-5.3010955785
 20
18.1999074952
 10
-5.3040805011
 20
18.2048953034
 10
-5.3065421928
 20
18.2099540276
 10
-5.3084739808
 20
18.2150699557
 10
-5.3098706291
 20
18.2202292206
 10
-5.3107283517
 20
18.225417838
 10
-5.3110467278
 20
18.2310580744
  0
LWPOLYLINE
  5
3E9
100
AcDbEntity
  8
0
100
AcDbPolyline
 62
250
  6
CONTINUOUS
 90
34
 70
0
 10
-12.6538781223
 20
21.2189756375
 10
-12.6455148395
 20
21.2145006663
 10
-12.6371681717
 20
21.2095465697
 10
-12.6288570261
 20
21.2041245697
 10
-12.6206002293
 20
21.1982469485
 10
-12.6124164846
 20
21.1919270201
 10
-12.6043243303
 20
21.1851791006
 10
-12.5963420967
 20
21.1780184756
 10
-12.5884878654
 20
21.1704613655
 10
-12.5807794281
 20
21.1625248888
 10
-12.5732342461
 20
21.1542270235
 10
-12.5658694109
 20
21.1455865659
 10
-12.5587016054
 20
21.1366230888
 10
-12.5517470665
 20
21.1273568964
 10
-12.5450215476
 20
21.1178089788
 10
-12.5385402836
 20
21.108000964
 10
-12.5323179561
 20
21.0979550694
 10
-12.5263686598
 20
21.0876940512
 10
-12.5207058715
 20
21.077241153
 10
-12.5153424185
 20
21.0666200529
 10
-12.5102904502
 20
21.0558548101
 10
-12.5055614105
 20
21.0449698102
 10
-12.5011660118
 20
21.0339897102
 10
-12.4971142105
 20
21.0229393825
 10
-12.493415185
 20
21.0118438586
 10
-12.4900773144
 20
21.0007282723
 10
-12.4871081596
 20
20.989617803
 10
-12.4845144466
 20
20.9785376182
 10
-12.4823020505
 20
20.9675128171
 10
-12.480475983
 20
20.9565683734
 10
-12.4790403806
 20
20.9457290787
 10
-12.4779984952
 20
20.9350194864
 10
-12.4773526869
 20
20.9244638561
 10
-12.4771044186
 20
20.9140860987
  0
LWPOLYLINE
  5
3EA
100
AcDbEntity
  8
0
100
AcDbPolyline
 62
250
  6
CONTINUOUS
 90
34
 70
0
 10
-0.3502201297
 20
15.0671466412
 10
-0.3418705942
 20
15.0626794267
 10
-0.3335340127
 20
15.0577324172
 10
-0.325229257
 20
15.0523161831
 10
-0.3169739908
 20
15.0464415075
 10
-0.30878818
 20
15.0401218569
 10
-0.3006939325
 20
15.0333739781
 10
-0.2927107738
 20
15.0262142621
 10
-0.2848555745
 20
15.018657954
 10
-0.2771459885
 20
15.0107220214
 10
-0.2695993915
 20
15.0024243102
 10
-0.2622329958
 20
14.9937837048
 10
-0.2550636539
 20
14.98481996
 10
-0.2481076723
 20
14.9755534762
 10
-0.2413807419
 20
14.9660051696
 10
-0.2348980611
 20
14.9561966121
 10
-0.2286743039
 20
14.9461499967
 10
-0.2227235934
 20
14.9358881112
 10
-0.2170594258
 20
14.9254342244
 10
-0.2116946395
 20
14.9148120272
 10
-0.2066413888
 20
14.9040455816
 10
-0.2019111267
 20
14.8931592854
 10
-0.1975145721
 20
14.882177803
 10
-0.1934616893
 20
14.8711260181
 10
-0.1897616656
 20
14.8600289806
 10
-0.1864228863
 20
14.8489118365
 10
-0.1834529165
 20
14.837799774
 10
-0.1808584876
 20
14.8267179751
 10
-0.1786454777
 20
14.8156915445
 10
-0.176818903
 20
14.8047454719
 10
-0.1753829049
 20
14.7939045787
 10
-0.1743407363
 20
14.7831934344
 10
-0.1736947559
 20
14.7726363022
 10
-0.173446426
 20
14.7622571024
  0
LWPOLYLINE
  5
3EB
100
AcDbEntity
  8
0
100
AcDbPolyline
 62
7
  6
CONTINUOUS
 90
40
 70
0
 10
1.7816568801
 20
13.7859171873
 10
1.7956231322
 20
13.7784035092
 10
1.8096009511
 20
13.7702053135
 10
1.8235679671
 20
13.7613331261
 10
1.8375074777
 20
13.7517953771
 10
1.851390959
 20
13.7416076988
 10
1.8651783648
 20
13.7307952023
 10
1.8788391854
 20
13.7193815945
 10
1.8923593942
 20
13.7073789523
 10
1.9057238527
 20
13.6947974121
 10
1.9189197165
 20
13.6816461088
 10
1.9319153028
 20
13.6679540015
 10
1.9446681503
 20
13.6537637197
 10
1.9571459577
 20
13.6391133142
 10
1.9693410099
 20
13.6240141998
 10
1.9812483364
 20
13.6084707164
 10
1.9928580408
 20
13.5924926749
 10
2.0041395805
 20
13.5761189469
 10
2.0150579458
 20
13.5593983823
 10
2.0255856362
 20
13.5423756824
 10
2.0357168413
 20
13.525062609
 10
2.0454496498
 20
13.5074593913
 10
2.054776308
 20
13.4895755083
 10
2.0636698882
 20
13.4714569476
 10
2.0721007189
 20
13.4531590384
 10
2.0800485783
 20
13.4347289671
 10
2.0875085605
 20
13.4161794408
 10
2.0944752248
 20
13.3975147054
 10
2.1009420699
 20
13.3787481005
 10
2.1068897076
 20
13.3599259414
 10
2.1122947592
 20
13.3411019002
 10
2.1171478903
 20
13.3223176205
 10
2.121443086
 20
13.303591392
 10
2.1251648737
 20
13.2849417026
 10
2.1283111805
 20
13.2664016542
 10
2.1308725666
 20
13.2479967688
 10
2.1328225126
 20
13.229734067
 10
2.1341491584
 20
13.2116351319
 10
2.1348562438
 20
13.1937357843
 10
2.134941146
 20
13.1760641607
  0
LWPOLYLINE
  5
3EC
100
AcDbEntity
  8
0
100
AcDbPolyline
 62
250
  6
CONTINUOUS
 90
34
 70
0
 10
-6.8126390208
 20
19.254233619
 10
-6.8059672342
 20
19.2506432909
 10
-6.7993086917
 20
19.2466695797
 10
-6.7926784805
 20
19.2423214878
 10
-6.7860916197
 20
19.2376088628
 10
-6.7795630383
 20
19.2325423837
 10
-6.7731075408
 20
19.2271335391
 10
-6.7667397572
 20
19.2213945879
 10
-6.7604741127
 20
19.2153385315
 10
-6.7543248055
 20
19.2089790941
 10
-6.7483057676
 20
19.2023306844
 10
-6.7424306379
 20
19.1954083685
 10
-6.7367127329
 20
19.1882278377
 10
-6.731165009
 20
19.180805365
 10
-6.725800034
 20
19.1731577676
 10
-6.7206299634
 20
19.1653023752
 10
-6.715666507
 20
19.1572569817
 10
-6.7109209139
 20
19.1490398227
 10
-6.7064039449
 20
19.140669536
 10
-6.7021258439
 20
19.1321651129
 10
-6.6980962877
 20
19.1235458
 10
-6.69432438
 20
19.1148310713
 10
-6.6908186391
 20
19.1060405935
 10
-6.6875870448
 20
19.09719436
 10
-6.6846369778
 20
19.0883125931
 10
-6.6819751388
 20
19.07941553
 10
-6.6796075042
 20
19.070523216
 10
-6.6775393878
 20
19.0616556379
 10
-6.6757752257
 20
19.0528315227
 10
-6.67431936
 20
19.0440722441
 10
-6.6731755316
 20
19.0354015075
 10
-6.6723460117
 20
19.0268400867
 10
-6.6718320607
 20
19.0184058915
 10
-6.6716344164
 20
19.0101178003
  0
LWPOLYLINE
  5
3ED
100
AcDbEntity
  8
0
100
AcDbPolyline
 62
250
  6
CONTINUOUS
 90
3
 70
0
 10
-2.1471431384
 20
15.1311042739
 10
-2.1413424525
 20
15.1277757911
 10
-2.1395331596
 20
15.1268464772
  0
LWPOLYLINE
  5
3EE
100
AcDbEntity
  8
RACCORDO
100
AcDbPolyline
 62
7
  6
CONTINUOUS
 90
16
 70
0
 10
18.15132793
 20
0.1194316638
 10
18.15787601
 20
0.1298484002
 10
18.1646175113
 20
0.140123428
 10
18.1715524339
 20
0.1502567471
 10
18.1786817597
 20
0.1602634083
 10
18.1860045067
 20
0.1701283607
 10
18.1935177299
 20
0.1798064522
 10
18.2012270963
 20
0.1892978746
 10
18.2091269388
 20
0.198602436
 10
18.2171973105
 20
0.2076744088
 10
18.2254420364
 20
0.2165109532
 10
18.2338572916
 20
0.2251149089
 10
18.2424116547
 20
0.2334490671
 10
18.2510946519
 20
0.2415010249
 10
18.2599167571
 20
0.2492831852
 10
18.2688779702
 20
0.256795548
  0
LINE
  5
3EF
100
AcDbEntity
  8
0
100
AcDbLine
 62
250
  6
CONTINUOUS
 10
-0.173446426
 20
14.4222831683
 11
0.5377741821
 21
14.2737796454
  0
LWPOLYLINE
  5
3F0
100
AcDbEntity
  8
0
100
AcDbPolyline
 62
250
  6
CONTINUOUS
 90
16
 70
0
 10
-5.1118694793
 20
18.4038488483
 10
-5.118656854
 20
18.4069881008
 10
-5.1254269944
 20
18.4097287311
 10
-5.1321645606
 20
18.4120645278
 10
-5.13885429
 20
18.4139901979
 10
-5.1454810206
 20
18.4155013748
 10
-5.1520297255
 20
18.4165946314
 10
-5.1584855631
 20
18.4172674908
 10
-5.164833909
 20
18.4175184297
 10
-5.1710603774
 20
18.4173468801
 10
-5.1771508618
 20
18.4167532315
 10
-5.183091561
 20
18.4157388301
 10
-5.1888690102
 20
18.4143059764
 10
-5.1944701181
 20
18.4124579195
 10
-5.1998821959
 20
18.4101988486
 10
-5.2027560487
 20
18.4087921467
  0
LWPOLYLINE
  5
3F1
100
AcDbEntity
  8
0
100
AcDbPolyline
 62
7
  6
CONTINUOUS
 90
17
 70
0
 10
-4.9007731217
 20
18.5127728342
 10
-4.9069415191
 20
18.5156923564
 10
-4.9130983691
 20
18.5182765556
 10
-4.9192318562
 20
18.52052056
 10
-4.9253301266
 20
18.5224201882
 10
-4.9313815688
 20
18.5239718233
 10
-4.9373748353
 20
18.5251724195
 10
-4.9432984479
 20
18.5260197253
 10
-4.9491410403
 20
18.5265121712
 10
-4.9548916374
 20
18.5266487405
 10
-4.9605392361
 20
18.5264291998
 10
-4.9660730066
 20
18.5258540049
 10
-4.9714825344
 20
18.5249241855
 10
-4.9767574799
 20
18.5236415311
 10
-4.9818877356
 20
18.5220085149
 10
-4.9868636259
 20
18.5200281962
 10
-4.9893652384
 20
18.518872909
  0
LWPOLYLINE
  5
3F2
100
AcDbEntity
  8
0
100
AcDbPolyline
 62
250
  6
CONTINUOUS
 90
31
 70
0
 10
-6.9532376255
 20
19.0107321671
 10
-6.9456856193
 20
19.00714783
 10
-6.9377707512
 20
19.0037648746
 10
-6.9295144751
 20
19.0005924705
 10
-6.92093917
 20
18.9976392168
 10
-6.91206808
 20
18.9949131184
 10
-6.9029252507
 20
18.9924215647
 10
-6.8935354645
 20
18.9901713092
 10
-6.8839241728
 20
18.9881684512
 10
-6.8741174278
 20
18.9864184198
 10
-6.8641418114
 20
18.9849259585
 10
-6.854024363
 20
18.9836951127
 10
-6.8437925068
 20
18.9827292187
 10
-6.8334739769
 20
18.9820308946
 10
-6.8230967423
 20
18.9816020332
 10
-6.8126889312
 20
18.9814437971
 10
-6.8022787546
 20
18.9815566151
 10
-6.7918944302
 20
18.9819401815
 10
-6.7815641052
 20
18.9825934565
 10
-6.7713157808
 20
18.9835146694
 10
-6.7611772357
 20
18.9847013232
 10
-6.751175951
 20
18.9861502014
 10
-6.7413390361
 20
18.9878573768
 10
-6.7316931543
 20
18.9898182218
 10
-6.7222644517
 20
18.9920274215
 10
-6.7130784853
 20
18.9944789877
 10
-6.7041601543
 20
18.9971662753
 10
-6.6955336324
 20
19.0000820002
 10
-6.6872223024
 20
19.0032182592
 10
-6.6792486928
 20
19.0065665511
 10
-6.6716344164
 20
19.0101178003
  0
LWPOLYLINE
  5
3F3
100
AcDbEntity
  8
0
100
AcDbPolyline
 62
250
  6
CONTINUOUS
 90
16
 70
0
 10
0.1992232413
 20
16.9853371314
 10
0.1971435644
 20
16.9863451247
 10
0.1904488311
 20
16.9891781712
 10
0.1835223549
 20
16.99149967
 10
0.1763796445
 20
16.99330441
 10
0.169036827
 20
16.9945883033
 10
0.1615105803
 20
16.995348447
 10
0.1538179461
 20
16.9955831613
 10
0.1459761335
 20
16.9952919616
 10
0.1380026345
 20
16.9944755118
 10
0.1299141571
 20
16.9931354074
 10
0.1217300858
 20
16.991274746
 10
0.113472415
 20
16.9888988512
 10
0.1051609943
 20
16.9860141805
 10
0.096813362
 20
16.9826275622
 10
0.0884482818
 20
16.9787472403
  0
LWPOLYLINE
  5
3F4
100
AcDbEntity
  8
0
100
AcDbPolyline
 62
250
  6
CONTINUOUS
 90
16
 70
0
 10
1.8901027925
 20
16.1398973558
 10
1.888040332
 20
16.1408972628
 10
1.8813470239
 20
16.143731339
 10
1.8744220055
 20
16.1460539973
 10
1.867280848
 20
16.1478600151
 10
1.859939609
 20
16.1491453315
 10
1.8524147958
 20
16.1499070563
 10
1.8447233285
 20
16.1501434768
 10
1.836882502
 20
16.1498540612
 10
1.8289099469
 20
16.1490394604
 10
1.8208235902
 20
16.1477015062
 10
1.8126416146
 20
16.1458432068
 10
1.8043824179
 20
16.143468741
 10
1.7960645715
 20
16.1405834478
 10
1.7877067788
 20
16.1371938151
 10
1.7793278329
 20
16.1333074647
  0
LWPOLYLINE
  5
3F5
100
AcDbEntity
  8
0
100
AcDbPolyline
 62
250
  6
CONTINUOUS
 90
16
 70
0
 10
-10.4135552002
 20
22.2917263522
 10
-10.4156176606
 20
22.2927262591
 10
-10.4223109687
 20
22.2955603353
 10
-10.4292359872
 20
22.2978829936
 10
-10.4363771446
 20
22.2996890115
 10
-10.4437183836
 20
22.3009743278
 10
-10.4512431968
 20
22.3017360527
 10
-10.4589346641
 20
22.3019724731
 10
-10.4667754906
 20
22.3016830575
 10
-10.4747480457
 20
22.3008684568
 10
-10.4828344024
 20
22.2995305025
 10
-10.4910163781
 20
22.2976722032
 10
-10.4992755748
 20
22.2952977373
 10
-10.5075934211
 20
22.2924124442
 10
-10.5159512138
 20
22.2890228115
 10
-10.5243301597
 20
22.2851364611
  0
LWPOLYLINE
  5
3F6
100
AcDbEntity
  8
0
100
AcDbPolyline
 62
250
  6
CONTINUOUS
 90
3
 70
0
 10
-12.1044347513
 20
23.1371661277
 10
-12.1064972118
 20
23.1381660347
 10
-12.1131905198
 20
23.1410001109
  0
LINE
  5
3F7
100
AcDbEntity
  8
0
100
AcDbLine
 62
250
  6
CONTINUOUS
 10
-3.7974690094
 20
17.432847859
 11
-5.2524680841
 21
18.1603473963
  0
LINE
  5
3F8
100
AcDbEntity
  8
0
100
AcDbLine
 62
250
  6
CONTINUOUS
 10
-6.9532376255
 20
19.0107321671
 11
-8.5777265889
 21
19.8229766488
  0
LINE
  5
3F9
100
AcDbEntity
  8
0
100
AcDbLine
 62
250
  6
CONTINUOUS
 10
-3.4886075013
 20
17.5922178593
 11
-5.1118694793
 21
18.4038488483
  0
LINE
  5
3FA
100
AcDbEntity
  8
0
100
AcDbLine
 62
250
  6
CONTINUOUS
 10
-6.8126390208
 20
19.254233619
 11
-8.4359009987
 21
20.065864608
  0
LINE
  5
3FB
100
AcDbEntity
  8
0
100
AcDbLine
 62
7
  6
CONTINUOUS
 10
-8.8959246405
 20
20.5103485936
 11
-6.5978258067
 21
19.3612991767
  0
LINE
  5
3FC
100
AcDbEntity
  8
0
100
AcDbLine
 62
7
  6
CONTINUOUS
 10
-4.9007731217
 20
18.5127728342
 11
-2.6026742879
 21
17.3637234173
  0
LINE
  5
3FD
100
AcDbEntity
  8
0
100
AcDbLine
 62
7
  6
CONTINUOUS
 10
1.2510606612
 20
15.8698686447
 11
-0.4460015969
 21
16.7183997737
  0
LINE
  5
3FE
100
AcDbEntity
  8
0
100
AcDbLine
 62
7
  6
CONTINUOUS
 10
-11.0525973315
 20
22.021697641
 11
-12.7496595896
 21
22.8702287701
  0
LINE
  5
3FF
100
AcDbEntity
  8
0
100
AcDbLine
 62
7
  6
CONTINUOUS
 10
-7.5558722657
 20
20.5283339568
 11
-5.9109240213
 21
19.7058598347
  0
LINE
  5
400
100
AcDbEntity
  8
0
100
AcDbLine
 62
7
  6
CONTINUOUS
 10
-4.2017767867
 20
18.8512862173
 11
-2.5568285423
 21
18.0288120951
  0
LINE
  5
401
100
AcDbEntity
  8
0
100
AcDbLine
 62
250
  6
CONTINUOUS
 10
-12.2152097109
 20
23.1305762366
 11
-10.5243301597
 21
22.2851364611
  0
LINE
  5
402
100
AcDbEntity
  8
0
100
AcDbLine
 62
250
  6
CONTINUOUS
 10
0.0884482818
 20
16.9787472403
 11
1.7793278329
 21
16.1333074647
  0
LINE
  5
403
100
AcDbEntity
  8
0
100
AcDbLine
 62
7
  6
CONTINUOUS
 10
-12.1044347513
 20
23.1371661277
 11
-10.4135552002
 21
22.2917263522
  0
LINE
  5
404
100
AcDbEntity
  8
0
100
AcDbLine
 62
7
  6
CONTINUOUS
 10
0.1992232413
 20
16.9853371314
 11
1.8901027925
 21
16.1398973558
  0
LWPOLYLINE
  5
405
100
AcDbEntity
  8
0
100
AcDbPolyline
 62
250
  6
CONTINUOUS
 90
34
 70
0
 10
-10.5243301597
 20
22.2851364611
 10
-10.5158852423
 20
22.2807169375
 10
-10.5074581003
 20
22.2758152083
 10
-10.4990678167
 20
22.2704417381
 10
-10.4907322441
 20
22.2646072157
 10
-10.4824715498
 20
22.2583250069
 10
-10.4743080468
 20
22.2516117558
 10
-10.466261427
 20
22.2444837704
 10
-10.4583486938
 20
22.2369562293
 10
-10.4505876304
 20
22.2290460353
 10
-10.442995729
 20
22.2207709763
 10
-10.4355903057
 20
22.2121498848
 10
-10.4283883024
 20
22.2032024707
 10
-10.4214060997
 20
22.1939490974
 10
-10.4146594476
 20
22.1844106517
 10
-10.4081635889
 20
22.1746086831
 10
-10.4019332277
 20
22.1645653697
 10
-10.3959825021
 20
22.1543034918
 10
-10.3903249084
 20
22.143846318
 10
-10.3849732701
 20
22.1332175468
 10
-10.3799397118
 20
22.122441255
 10
-10.375235642
 20
22.1115418627
 10
-10.3708717201
 20
22.1005440639
 10
-10.3668578365
 20
22.0894727794
 10
-10.3632030903
 20
22.0783531032
 10
-10.3599157639
 20
22.0672102326
 10
-10.3570033063
 20
22.0560694141
 10
-10.3544723181
 20
22.0449558947
 10
-10.352328534
 20
22.0338948512
 10
-10.3505768132
 20
22.0229113518
 10
-10.3492211274
 20
22.0120303024
 10
-10.3482645473
 20
22.0012763638
 10
-10.347709238
 20
21.9906738961
 10
-10.3475564561
 20
21.9802469222
  0
LWPOLYLINE
  5
406
100
AcDbEntity
  8
0
100
AcDbPolyline
 62
250
  6
CONTINUOUS
 90
34
 70
0
 10
1.7793278329
 20
16.1333074647
 10
1.7877727504
 20
16.1288879412
 10
1.7961998923
 20
16.123986212
 10
1.804590176
 20
16.1186127418
 10
1.8129257486
 20
16.1127782194
 10
1.8211864429
 20
16.1064960106
 10
1.8293499458
 20
16.0997827595
 10
1.8373965657
 20
16.0926547741
 10
1.8453092989
 20
16.085127233
 10
1.8530703623
 20
16.077217039
 10
1.8606622636
 20
16.06894198
 10
1.868067687
 20
16.0603208884
 10
1.8752696902
 20
16.0513734743
 10
1.882251893
 20
16.0421201011
 10
1.8889985451
 20
16.0325816554
 10
1.8954944037
 20
16.0227796868
 10
1.9017247649
 20
16.0127363733
 10
1.9076754906
 20
16.0024744954
 10
1.9133330842
 20
15.9920173216
 10
1.9186847225
 20
15.9813885504
 10
1.9237182808
 20
15.9706122587
 10
1.9284223507
 20
15.9597128663
 10
1.9327862725
 20
15.9487150676
 10
1.9368001562
 20
15.9376437831
 10
1.9404549024
 20
15.9265241069
 10
1.9437422287
 20
15.9153812363
 10
1.9466546864
 20
15.9042404177
 10
1.9491856745
 20
15.8931268984
 10
1.9513294587
 20
15.8820658549
 10
1.9530811795
 20
15.8710823554
 10
1.9544368653
 20
15.860201306
 10
1.9553934453
 20
15.8494473674
 10
1.9559487547
 20
15.8388448997
 10
1.9561015366
 20
15.8284179259
  0
LWPOLYLINE
  5
407
100
AcDbEntity
  8
0
100
AcDbPolyline
 62
7
  6
CONTINUOUS
 90
37
 70
0
 10
-6.5978258067
 20
19.3612991767
 10
-6.5916570947
 20
19.3580501442
 10
-6.5855003099
 20
19.354477526
 10
-6.5793670722
 20
19.350588168
 10
-6.5732688724
 20
19.3463895611
 10
-6.5672173143
 20
19.341889696
 10
-6.5612240931
 20
19.3370970485
 10
-6.5553005446
 20
19.3320207736
 10
-6.5494578523
 20
19.3266705772
 10
-6.543707291
 20
19.3210565673
 10
-6.5380597488
 20
19.3151894561
 10
-6.5325258962
 20
19.3090804497
 10
-6.527116394
 20
19.3027411153
 10
-6.5218414964
 20
19.2961835393
 10
-6.5167111779
 20
19.2894202361
 10
-6.5117353025
 20
19.2824640345
 10
-6.506923315
 20
19.2753281882
 10
-6.5022843229
 20
19.2680263055
 10
-6.4978272243
 20
19.2605722575
 10
-6.4935604926
 20
19.2529802379
 10
-6.4894922122
 20
19.2452647162
 10
-6.4856301627
 20
19.2374403674
 10
-6.4819817008
 20
19.2295220825
 10
-6.4785537495
 20
19.2215249445
 10
-6.4753528364
 20
19.2134641805
 10
-6.4723850754
 20
19.2053551238
 10
-6.4696561099
 20
19.1972132122
 10
-6.4671711031
 20
19.1890539642
 10
-6.464934822
 20
19.1808928923
 10
-6.4629515333
 20
19.1727455251
 10
-6.4612249481
 20
19.1646274059
 10
-6.4597584046
 20
19.1565539613
 10
-6.4585547201
 20
19.1485405446
 10
-6.4576160902
 20
19.1406024575
 10
-6.4569443054
 20
19.1327548076
 10
-6.4565407475
 20
19.1250124791
 10
-6.4564062454
 20
19.1173901776
  0
LWPOLYLINE
  5
408
100
AcDbEntity
  8
0
100
AcDbPolyline
 62
7
  6
CONTINUOUS
 90
34
 70
0
 10
-11.0525973315
 20
22.021697641
 10
-11.044186256
 20
22.0172467266
 10
-11.0357940384
 20
22.0123155562
 10
-11.0274397907
 20
22.0069152466
 10
-11.0191426167
 20
22.0010579379
 10
-11.0109213184
 20
21.9947568931
 10
-11.0027943526
 20
21.988026468
 10
-10.9947801872
 20
21.9808818772
 10
-10.9868970678
 20
21.9733392579
 10
-10.9791627257
 20
21.9654157609
 10
-10.9715947181
 20
21.9571293148
 10
-10.9642102612
 20
21.9484986534
 10
-10.9570259986
 20
21.9395433738
 10
-10.9500582199
 20
21.9302837533
 10
-10.9433227607
 20
21.9207407413
 10
-10.936834838
 20
21.9109359815
 10
-10.9306091414
 20
21.9008916875
 10
-10.9246598035
 20
21.8906305974
 10
-10.9190003041
 20
21.8801759605
 10
-10.9136434337
 20
21.8695514741
 10
-10.908601334
 20
21.8587812018
 10
-10.9038854729
 20
21.8478895245
 10
-10.8995064811
 20
21.8369011405
 10
-10.8954742621
 20
21.8258409487
 10
-10.8917980382
 20
21.8147339643
 10
-10.8884860639
 20
21.8036053835
 10
-10.885545803
 20
21.7924804334
 10
-10.8829840444
 20
21.7813842535
 10
-10.8808064985
 20
21.7703420249
 10
-10.8790180376
 20
21.7593787887
 10
-10.8776228793
 20
21.748519297
 10
-10.8766241757
 20
21.7377881517
 10
-10.8760240067
 20
21.7272097494
 10
-10.8758236278
 20
21.7168081022
  0
LWPOLYLINE
  5
409
100
AcDbEntity
  8
0
100
AcDbPolyline
 62
7
  6
CONTINUOUS
 90
34
 70
0
 10
1.2510606612
 20
15.8698686447
 10
1.2594717366
 20
15.8654177303
 10
1.2678639542
 20
15.8604865599
 10
1.2762182019
 20
15.8550862503
 10
1.2845153759
 20
15.8492289416
 10
1.2927366743
 20
15.8429278968
 10
1.3008636401
 20
15.8361974717
 10
1.3088778054
 20
15.8290528809
 10
1.3167609248
 20
15.8215102615
 10
1.324495267
 20
15.8135867646
 10
1.3320632745
 20
15.8053003184
 10
1.3394477315
 20
15.7966696571
 10
1.346631994
 20
15.7877143774
 10
1.3535997727
 20
15.7784547569
 10
1.3603352319
 20
15.768911745
 10
1.3668231546
 20
15.7591069852
 10
1.3730488513
 20
15.7490626912
 10
1.3789981892
 20
15.7388016011
 10
1.3846576886
 20
15.7283469642
 10
1.390014559
 20
15.7177224778
 10
1.3950566586
 20
15.7069522055
 10
1.3997725198
 20
15.6960605282
 10
1.4041515116
 20
15.6850721442
 10
1.4081837305
 20
15.6740119524
 10
1.4118599545
 20
15.6629049679
 10
1.4151719288
 20
15.6517763872
 10
1.4181121896
 20
15.640651437
 10
1.4206739482
 20
15.6295552572
 10
1.4228514941
 20
15.6185130285
 10
1.424639955
 20
15.6075497924
 10
1.4260351134
 20
15.5966903007
 10
1.427033817
 20
15.5859591554
 10
1.427633986
 20
15.5753807531
 10
1.4278343648
 20
15.5649791059
  0
LWPOLYLINE
  5
40A
100
AcDbEntity
  8
RACCORDO
100
AcDbPolyline
 62
7
  6
CONTINUOUS
 90
104
 70
0
 10
18.4319881296
 20
5.3470991037
 10
18.4447094745
 20
5.3378442783
 10
18.4895310863
 20
5.3039759568
 10
18.5340149333
 20
5.2691010446
 10
18.5781725933
 20
5.2332162571
 10
18.6220031704
 20
5.196326066
 10
18.6654749228
 20
5.1584607323
 10
18.7085525434
 20
5.1196558957
 10
18.751215464
 20
5.0799358737
 10
18.7934531709
 20
5.03931607
 10
18.8352456722
 20
4.9978211406
 10
18.8765717983
 20
4.9554778705
 10
18.9174225519
 20
4.9123010864
 10
18.9577956737
 20
4.8682977098
 10
18.9976864974
 20
4.8234760274
 10
19.0370689699
 20
4.7778683507
 10
19.0759088952
 20
4.7315187286
 10
19.1141777936
 20
4.684467264
 10
19.1518764201
 20
4.6367190223
 10
19.1890141573
 20
4.5882658607
 10
19.2255898596
 20
4.5391107213
 10
19.2615750552
 20
4.4892931469
 10
19.2969380065
 20
4.4388601069
 10
19.3316552942
 20
4.3878496648
 10
19.3657243172
 20
4.3362701901
 10
19.3991448891
 20
4.2841248254
 10
19.4319088607
 20
4.2314277162
 10
19.4639975583
 20
4.1782101601
 10
19.4953946952
 20
4.124500917
 10
19.5260860394
 20
4.0703263204
 10
19.556060973
 20
4.0157069401
 10
19.5853090067
 20
3.9606632608
 10
19.6138176106
 20
3.9052199539
 10
19.6415755475
 20
3.8493997752
 10
19.6685742297
 20
3.7932203329
 10
19.6948028909
 20
3.7367037382
 10
19.7202493737
 20
3.6798756514
 10
19.7449030798
 20
3.6227589798
 10
19.768753599
 20
3.5653766767
 10
19.7917898016
 20
3.5077540531
 10
19.8140004708
 20
3.4499175746
 10
19.8353729365
 20
3.3918988805
 10
19.8559002871
 20
3.3337150281
 10
19.8755796107
 20
3.2753703778
 10
19.89440639
 20
3.2168713171
 10
19.9123645664
 20
3.1582600527
 10
19.9294349938
 20
3.0995944988
 10
19.9456028645
 20
3.0409250456
 10
19.9608683213
 20
2.9822502225
 10
19.9752345933
 20
2.923549893
 10
19.9886987842
 20
2.8648202772
 10
20.0012448547
 20
2.8061140742
 10
20.0128565969
 20
2.7474953705
 10
20.0235235024
 20
2.6890112593
 10
20.0332440482
 20
2.6306628785
 10
20.0420164327
 20
2.5724448282
 10
20.0498355663
 20
2.5143645829
 10
20.0566917918
 20
2.4564632002
 10
20.0625764609
 20
2.3987850295
 10
20.0674838795
 20
2.3413564207
 10
20.0714090642
 20
2.2841984723
 10
20.0743464669
 20
2.2273464035
 10
20.0762916158
 20
2.1708333604
 10
20.0772411134
 20
2.1146723929
 10
20.0771909803
 20
2.0588678472
 10
20.0761356671
 20
2.003409418
 10
20.0740704804
 20
1.9483543866
 10
20.0709964637
 20
1.893805942
 10
20.0669180382
 20
1.8398317621
 10
20.0618335679
 20
1.7864045564
 10
20.0557362003
 20
1.7334836983
 10
20.0486139746
 20
1.6810268546
 10
20.0404714186
 20
1.6291218359
 10
20.0313307847
 20
1.5779197185
 10
20.0212105603
 20
1.5274981394
 10
20.010106112
 20
1.4778116386
 10
19.9980095417
 20
1.4288231815
 10
19.9849100262
 20
1.3805031043
 10
19.970822249
 20
1.3329194618
 10
19.9557791506
 20
1.2861793374
 10
19.9397974624
 20
1.2403178555
 10
19.9228797196
 20
1.1953269825
 10
19.9050450054
 20
1.1512432122
 10
19.8863089893
 20
1.1080886194
 10
19.8666791721
 20
1.0658650262
 10
19.8461638836
 20
1.0245776308
 10
19.8247550217
 20
0.9842025928
 10
19.8024827194
 20
0.9447897511
 10
19.7794199099
 20
0.9064487324
 10
19.7556270082
 20
0.8692463593
 10
19.7310861821
 20
0.8331225339
 10
19.7057544809
 20
0.7979965145
 10
19.6796145565
 20
0.7638388054
 10
19.6527114749
 20
0.730703024
 10
19.6250938055
 20
0.6986368863
 10
19.5967966419
 20
0.6676644337
 10
19.5678245199
 20
0.637774319
 10
19.5381832367
 20
0.6089593017
 10
19.507895195
 20
0.5812291555
 10
19.4769779512
 20
0.5545881006
 10
19.4454287377
 20
0.5290240297
 10
19.4132594374
 20
0.5045392161
 10
19.3804979347
 20
0.4811474924
 10
19.3471649162
 20
0.4588556469
  0
LINE
  5
40B
100
AcDbEntity
  8
0
100
AcDbLine
 62
250
  6
CONTINUOUS
 10
8.3355085294
 20
20.7109093414
 11
8.7294944632
 21
19.6887535233
  0
LINE
  5
40C
100
AcDbEntity
  8
RACCORDO
100
AcDbLine
 62
250
  6
CONTINUOUS
 10
18.1513888436
 20
-4.4593738184
 11
18.15132793
 21
0.1194316638
  0
LINE
  5
40D
100
AcDbEntity
  8
RACCORDO
100
AcDbLine
 62
250
  6
CONTINUOUS
 10
18.15132793
 20
1.8919005625
 11
18.15132793
 21
12.070582227
  0
LINE
  5
40E
100
AcDbEntity
  8
RACCORDO
100
AcDbLine
 62
250
  6
CONTINUOUS
 10
18.15132793
 20
13.8430511444
 11
18.15132793
 21
17.6504494227
  0
LWPOLYLINE
  5
40F
100
AcDbEntity
  8
RACCORDO
100
AcDbPolyline
 62
250
  6
CONTINUOUS
 90
57
 70
0
 10
18.4319881296
 20
14.7785460866
 10
18.4318884104
 20
14.7539565446
 10
18.4311645262
 20
14.7079501884
 10
18.4298216696
 20
14.6641939564
 10
18.4279347358
 20
14.6223259852
 10
18.4255606721
 20
14.5821673397
 10
18.4227626385
 20
14.5437573558
 10
18.4195982915
 20
14.5070620214
 10
18.4160886384
 20
14.4717919099
 10
18.412269773
 20
14.4379002928
 10
18.4081877662
 20
14.4054354868
 10
18.4038575062
 20
14.3742511253
 10
18.3993076679
 20
14.3443275679
 10
18.3945730667
 20
14.3156837014
 10
18.3896670461
 20
14.2882312902
 10
18.3846156712
 20
14.2619716533
 10
18.3794449349
 20
14.2369010823
 10
18.3741610476
 20
14.2129241502
 10
18.3687870915
 20
14.1900481965
 10
18.3633422677
 20
14.1682626495
 10
18.3578203211
 20
14.1474458698
 10
18.3522390468
 20
14.1275992091
 10
18.3466132621
 20
14.1087180958
 10
18.3409254122
 20
14.0906730103
 10
18.3351825429
 20
14.073445642
 10
18.3294011346
 20
14.0570517471
 10
18.3235726125
 20
14.0414138028
 10
18.3176976983
 20
14.0265109019
 10
18.3117941671
 20
14.012361679
 10
18.3058775054
 20
13.9989480772
 10
18.2999561371
 20
13.986273163
 10
18.2940398805
 20
13.9743308667
 10
18.2881469075
 20
13.9630890644
 10
18.2822895966
 20
13.9525566657
 10
18.2764733977
 20
13.9427211031
 10
18.2707061798
 20
13.9335178278
 10
18.2650143253
 20
13.9249680466
 10
18.2593879224
 20
13.9170465993
 10
18.2537774281
 20
13.9096202144
 10
18.2481829361
 20
13.9026714813
 10
18.2426138294
 20
13.8962156838
 10
18.2370300225
 20
13.8901700406
 10
18.2314223987
 20
13.8845170025
 10
18.2258053474
 20
13.8792732193
 10
18.2201718531
 20
13.8744079496
 10
18.2145224936
 20
13.8699189491
 10
18.2088612689
 20
13.8658076525
 10
18.2031857335
 20
13.8620490145
 10
18.1974997108
 20
13.858643164
 10
18.1918035111
 20
13.8555891877
 10
18.1860888994
 20
13.852860657
 10
18.180359628
 20
13.8504563611
 10
18.174615287
 20
13.8483769326
 10
18.1688405672
 20
13.846599043
 10
18.163030898
 20
13.8451149543
 10
18.1571929838
 20
13.8439322794
 10
18.15132793
 20
13.8430509221
  0
LWPOLYLINE
  5
410
100
AcDbEntity
  8
RACCORDO
100
AcDbPolyline
 62
7
  6
CONTINUOUS
 90
7
 70
0
 10
18.4319886473
 20
11.829763545
 10
18.4320408338
 20
11.8315380161
 10
18.432241365
 20
11.8336088425
 10
18.4325152858
 20
11.835210414
 10
18.432786401
 20
11.8363318422
 10
18.4329681444
 20
11.8369156872
 10
18.4329893567
 20
11.8369731679
  0
LINE
  5
411
100
AcDbEntity
  8
0
100
AcDbLine
 62
250
  6
CONTINUOUS
 10
0.1847379941
 20
-25.900054656
 11
-0.437580038
 21
-26.6451140735
  0
LINE
  5
412
100
AcDbEntity
  8
0
100
AcDbLine
 62
250
  6
CONTINUOUS
 10
0.5377741821
 20
-26.025824494
 11
-0.173446426
 21
-26.8773209711
  0
LWPOLYLINE
  5
413
100
AcDbEntity
  8
0
100
AcDbPolyline
 62
7
  6
CONTINUOUS
 90
41
 70
0
 10
-12.0797526298
 20
20.2879612627
 10
-12.0739345207
 20
20.2868413778
 10
-12.0659012324
 20
20.2856060926
 10
-12.0577402936
 20
20.2847003184
 10
-12.0494638062
 20
20.2841106729
 10
-12.0410856784
 20
20.2838377479
 10
-12.0326195231
 20
20.2838813566
 10
-12.0240765018
 20
20.2842267554
 10
-12.0154698247
 20
20.2848737233
 10
-12.0068123717
 20
20.2858215135
 10
-11.9981142946
 20
20.2870544705
 10
-11.9893880159
 20
20.2885716798
 10
-11.980645617
 20
20.2903719129
 10
-11.9718962321
 20
20.2924389825
 10
-11.9631514243
 20
20.2947714014
 10
-11.9544224625
 20
20.2973675228
 10
-11.9457175639
 20
20.3002109096
 10
-11.9370474141
 20
20.3032996067
 10
-11.9284224582
 20
20.3066316021
 10
-11.9198501196
 20
20.310190397
 10
-11.911340212
 20
20.3139736535
 10
-11.9029023568
 20
20.3179790411
 10
-11.894543303
 20
20.3221901135
 10
-11.88627201
 20
20.3266042166
 10
-11.8780972824
 20
20.3312187428
 10
-11.8700252922
 20
20.3360173637
 10
-11.862064167
 20
20.3409971587
 10
-11.8542219015
 20
20.346155282
 10
-11.846504157
 20
20.351475563
 10
-11.83891825
 20
20.356954852
 10
-11.8314713715
 20
20.3625901022
 10
-11.8241687047
 20
20.368365334
 10
-11.8170167752
 20
20.3742771962
 10
-11.8100219717
 20
20.3803224788
 10
-11.8031889939
 20
20.3864854416
 10
-11.7965235898
 20
20.3927625568
 10
-11.7900313494
 20
20.3991504876
 10
-11.7837164601
 20
20.4056338015
 10
-11.7775836114
 20
20.4122050059
 10
-11.7716379075
 20
20.4188644947
 10
-11.7658838105
 20
20.4256086417
  0
LINE
  5
414
100
AcDbEntity
  8
0
100
AcDbLine
 62
7
  6
CONTINUOUS
 10
-12.7039479121
 20
20.4182910038
 11
-12.0797523151
 21
20.287958384
  0
LINE
  5
415
100
AcDbEntity
  8
0
100
AcDbLine
 62
250
  6
CONTINUOUS
 10
-12.4771044186
 20
20.5741121646
 11
-11.7658838105
 21
20.4256086417
  0
LWPOLYLINE
  5
416
100
AcDbEntity
  8
0
100
AcDbPolyline
 62
250
  6
CONTINUOUS
 90
14
 70
0
 10
-12.1131905198
 20
23.1410001109
 10
-12.1201155383
 20
23.1433227692
 10
-12.1272566958
 20
23.145128787
 10
-12.1345979348
 20
23.1464141034
 10
-12.142122748
 20
23.1471758282
 10
-12.1498142152
 20
23.1474122487
 10
-12.1576550418
 20
23.1471228331
 10
-12.1656275969
 20
23.1463082323
 10
-12.1737139536
 20
23.144970278
 10
-12.1818959292
 20
23.1431119787
 10
-12.1901551259
 20
23.1407375129
 10
-12.1984729723
 20
23.1378522197
 10
-12.206830765
 20
23.134462587
 10
-12.2152097109
 20
23.1305762366
  0
LWPOLYLINE
  5
417
100
AcDbEntity
  8
RACCORDO
100
AcDbPolyline
 62
7
  6
CONTINUOUS
 90
21
 70
0
 10
-2.9225311121
 20
20.0644040927
 10
-2.9343681565
 20
20.0698781239
 10
-2.9461390486
 20
20.074896152
 10
-2.9578312387
 20
20.0794524633
 10
-2.96943138
 20
20.0835419782
 10
-2.9809277899
 20
20.0871599839
 10
-2.9923104489
 20
20.0903019891
 10
-3.003566699
 20
20.0929643933
 10
-3.0146844328
 20
20.0951439826
 10
-3.0256545143
 20
20.0968373834
 10
-3.036464589
 20
20.0980425421
 10
-3.0471026847
 20
20.0987577159
 10
-3.057560334
 20
20.0989805712
 10
-3.0678251071
 20
20.0987106581
 10
-3.0778857616
 20
20.0979478256
 10
-3.0877357165
 20
20.0966907081
 10
-3.0973637772
 20
20.0949402202
 10
-3.10675819
 20
20.092697726
 10
-3.115911764
 20
20.0899633055
 10
-3.1248116214
 20
20.0867404918
 10
-3.1331222567
 20
20.0831833204
  0
LWPOLYLINE
  5
418
100
AcDbEntity
  8
RACCORDO
100
AcDbPolyline
 62
7
  6
CONTINUOUS
 90
64
 70
0
 10
-1.841975113
 20
20.195393935
 10
-1.8524163649
 20
20.2004894178
 10
-1.8699224466
 20
20.2084967069
 10
-1.8878997844
 20
20.2160723648
 10
-1.9063168883
 20
20.2232101993
 10
-1.9251646826
 20
20.2299159243
 10
-1.9444556522
 20
20.2362028219
 10
-1.9641671273
 20
20.2420722952
 10
-1.9842766457
 20
20.2475275568
 10
-2.0047928136
 20
20.2525803323
 10
-2.0256635345
 20
20.2572274859
 10
-2.04690037
 20
20.261481253
 10
-2.0686055017
 20
20.2653665839
 10
-2.0907304051
 20
20.2688763569
 10
-2.1132938234
 20
20.272014891
 10
-2.136499581
 20
20.2748044193
 10
-2.1604240106
 20
20.2772394093
 10
-2.1849672617
 20
20.2792950397
 10
-2.2100668992
 20
20.2809549866
 10
-2.2358257261
 20
20.282212893
 10
-2.2621131614
 20
20.2830488018
 10
-2.2885133699
 20
20.283448384
 10
-2.3149893608
 20
20.2834194515
 10
-2.3415507886
 20
20.2829690605
 10
-2.3678526181
 20
20.2821161126
 10
-2.3938047443
 20
20.2808845882
 10
-2.4194791051
 20
20.2792905003
 10
-2.4447760317
 20
20.2773582824
 10
-2.4696756265
 20
20.2751086956
 10
-2.4941867005
 20
20.2725590232
 10
-2.518253574
 20
20.2697328834
 10
-2.5418575985
 20
20.2666507165
 10
-2.5650123416
 20
20.2633281623
 10
-2.5877105174
 20
20.2597827557
 10
-2.6099444498
 20
20.2560317874
 10
-2.6317201792
 20
20.252089778
 10
-2.6530498959
 20
20.2479692326
 10
-2.6739340115
 20
20.2436841461
 10
-2.6943720746
 20
20.2392483475
 10
-2.7143733422
 20
20.234673127
 10
-2.7339400891
 20
20.229970833
 10
-2.7530707949
 20
20.2251545034
 10
-2.7717673411
 20
20.2202361845
 10
-2.7900394012
 20
20.2152255429
 10
-2.8078782532
 20
20.2101370821
 10
-2.825257242
 20
20.2049910318
 10
-2.842164327
 20
20.1998041441
 10
-2.8586142553
 20
20.1945849706
 10
-2.8746191528
 20
20.1893422628
 10
-2.8901588336
 20
20.1840953091
 10
-2.905254721
 20
20.1788494861
 10
-2.9199764616
 20
20.1735918353
 10
-2.9343226062
 20
20.1683331564
 10
-2.9482877607
 20
20.163085853
 10
-2.9619280818
 20
20.1578386185
 10
-2.9752262668
 20
20.1526074754
 10
-2.9881823819
 20
20.1474020994
 10
-3.0008685792
 20
20.14220244
 10
-3.0132473944
 20
20.1370325629
 10
-3.025319589
 20
20.1319015107
 10
-3.0371970475
 20
20.1267701435
 10
-3.0488335693
 20
20.1216665707
 10
-3.0601958495
 20
20.1166148302
 10
-3.0823895905
 20
20.1065748678
  0
LINE
  5
419
100
AcDbEntity
  8
RACCORDO
100
AcDbLine
 62
7
  6
CONTINUOUS
 10
-2.9209261873
 20
20.063617567
 11
-0.6908703413
 21
18.948589644
  0
LINE
  5
41A
100
AcDbEntity
  8
RACCORDO
100
AcDbLine
 62
250
  6
CONTINUOUS
 10
-0.0631372091
 20
19.2580150327
 11
-1.931512637
 21
20.1921891272
  0
LINE
  5
41B
100
AcDbEntity
  8
RACCORDO
100
AcDbLine
 62
7
  6
CONTINUOUS
 10
-0.0148355233
 20
19.2818241438
 11
-1.8419787719
 21
20.1953957681
  0
LINE
  5
41C
100
AcDbEntity
  8
0
100
AcDbLine
 62
7
  6
CONTINUOUS
 10
-1.779011083
 20
20.6980887204
 11
0.5231474735
 21
19.5470094421
  0
LINE
  5
41D
100
AcDbEntity
  8
0
100
AcDbLine
 62
7
  6
CONTINUOUS
 10
2.5307831024
 20
21.8170950497
 11
2.6935707411
 21
21.6667579358
  0
LINE
  5
41E
100
AcDbEntity
  8
RACCORDO
100
AcDbLine
 62
7
  6
CONTINUOUS
 10
9.8671662047
 20
15.5594666722
 11
8.7839709352
 21
17.4277021581
  0
LWPOLYLINE
  5
41F
100
AcDbEntity
  8
RACCORDO
100
AcDbPolyline
 62
7
  6
CONTINUOUS
 90
31
 70
0
 10
18.4319881187
 20
17.9976865906
 10
18.431700827
 20
18.032254226
 10
18.4305637557
 20
18.0747453261
 10
18.4285696795
 20
18.1173001311
 10
18.4257249278
 20
18.159923852
 10
18.4220369849
 20
18.202596001
 10
18.4175167916
 20
18.2452670668
 10
18.4121723073
 20
18.2879309459
 10
18.4060107846
 20
18.3305798795
 10
18.3990467653
 20
18.373159762
 10
18.3912888527
 20
18.4156640112
 10
18.3827445709
 20
18.4580860361
 10
18.3734322724
 20
18.5003701305
 10
18.3633614901
 20
18.5425075183
 10
18.3525398861
 20
18.5844939358
 10
18.340987673
 20
18.626279055
 10
18.3287169013
 20
18.6678466201
 10
18.3157335516
 20
18.7092001353
 10
18.3020507215
 20
18.750317627
 10
18.2876774927
 20
18.7911893719
 10
18.2726204068
 20
18.8318118044
 10
18.2568889346
 20
18.8721708617
 10
18.2404898441
 20
18.9122594189
 10
18.2234289845
 20
18.9520705221
 10
18.2057150851
 20
18.9915894792
 10
18.1873539822
 20
19.0308079628
 10
18.168350031
 20
19.0697186965
 10
18.148710026
 20
19.1083089312
 10
18.1284383152
 20
19.146569599
 10
18.1075380057
 20
19.184493123
 10
18.0900206752
 20
19.2151813772
  0
LINE
  5
420
100
AcDbEntity
  8
RACCORDO
100
AcDbLine
 62
7
  6
CONTINUOUS
 10
18.4319881296
 20
-4.0884945939
 11
18.4319881296
 21
-0.1214031181
  0
LINE
  5
421
100
AcDbEntity
  8
RACCORDO
100
AcDbLine
 62
7
  6
CONTINUOUS
 10
18.4319881296
 20
2.8273936598
 11
18.4319881296
 21
11.8297465186
  0
LINE
  5
422
100
AcDbEntity
  8
RACCORDO
100
AcDbLine
 62
7
  6
CONTINUOUS
 10
18.4319881296
 20
14.7785454235
 11
18.4319881296
 21
17.9976991575
  0
LINE
  5
423
100
AcDbEntity
  8
RACCORDO
100
AcDbLine
 62
7
  6
CONTINUOUS
 10
18.4319881282
 20
14.7786516515
 11
18.4319881296
 21
14.7785460866
  0
LWPOLYLINE
  5
424
100
AcDbEntity
  8
RACCORDO
100
AcDbPolyline
 62
250
  6
CONTINUOUS
 90
57
 70
0
 10
18.4319881296
 20
2.8273940381
 10
18.4319342544
 20
2.8093169266
 10
18.4313088894
 20
2.7632761491
 10
18.4300500661
 20
2.719222487
 10
18.4282286322
 20
2.6769143014
 10
18.425911361
 20
2.6364008337
 10
18.4231718767
 20
2.5978061184
 10
18.4200674379
 20
2.561011307
 10
18.4166207171
 20
2.5257003896
 10
18.4128742736
 20
2.4918590023
 10
18.4088730768
 20
2.459502708
 10
18.4046168642
 20
2.4283613116
 10
18.400129358
 20
2.3983923428
 10
18.3954457182
 20
2.3696381262
 10
18.3905657971
 20
2.3419567631
 10
18.3854989788
 20
2.3152851136
 10
18.3802791923
 20
2.2896854575
 10
18.374938402
 20
2.2652040306
 10
18.3695104665
 20
2.2418945167
 10
18.364006295
 20
2.2196998377
 10
18.3584208667
 20
2.1985000402
 10
18.3527760292
 20
2.1783071218
 10
18.3470841654
 20
2.1591057261
 10
18.3413181543
 20
2.1407360769
 10
18.3354814625
 20
2.1231686274
 10
18.3295932865
 20
2.1064307272
 10
18.3236438387
 20
2.090449081
 10
18.3176231167
 20
2.0751811655
 10
18.3115583957
 20
2.0606677144
 10
18.3054964431
 20
2.0469599002
 10
18.2994527018
 20
2.0340788362
 10
18.2934337617
 20
2.0219994773
 10
18.2874768349
 20
2.0107024901
 10
18.2816153458
 20
2.0002267397
 10
18.2758392124
 20
1.9905280426
 10
18.2701192963
 20
1.9814626194
 10
18.2644739143
 20
1.973032067
 10
18.2589012581
 20
1.9652307705
 10
18.253336377
 20
1.9579058073
 10
18.2477714912
 20
1.9510296273
 10
18.2422227051
 20
1.9446280215
 10
18.2366560718
 20
1.938629653
 10
18.2310633004
 20
1.9330192752
 10
18.2254576522
 20
1.9278113329
 10
18.2198357346
 20
1.9229796196
 10
18.2141988143
 20
1.9185230593
 10
18.2085501803
 20
1.9144419172
 10
18.2028891048
 20
1.9107121017
 10
18.197219426
 20
1.9073340463
 10
18.1915415127
 20
1.9043064927
 10
18.1858490285
 20
1.9016029436
 10
18.180145821
 20
1.8992224718
 10
18.1744315622
 20
1.897165336
 10
18.1686929325
 20
1.8954071043
 10
18.16292614
 20
1.8939396118
 10
18.157137394
 20
1.8927707497
 10
18.15132793
 20
1.8919003499
  0
LINE
  5
425
100
AcDbEntity
  8
RACCORDO
100
AcDbLine
 62
250
  6
CONTINUOUS
 10
18.4319601769
 20
-4.0913721098
 11
18.4319881296
 21
-4.0884945939
  0
LWPOLYLINE
  5
426
100
AcDbEntity
  8
RACCORDO
100
AcDbPolyline
 62
7
  6
CONTINUOUS
 90
7
 70
0
 10
18.4319886342
 20
-0.1213884086
 10
18.4320408166
 20
-0.1196135515
 10
18.4322412175
 20
-0.1175425883
 10
18.43251518
 20
-0.115940736
 10
18.4327862933
 20
-0.1148191353
 10
18.432968021
 20
-0.1142351978
 10
18.4329892614
 20
-0.1141776395
  0
LWPOLYLINE
  5
427
100
AcDbEntity
  8
RACCORDO
100
AcDbPolyline
 62
250
  6
CONTINUOUS
 90
34
 70
0
 10
11.0615211353
 20
-17.2109336975
 10
11.0816957165
 20
-17.1922540656
 10
11.1013486492
 20
-17.1727901394
 10
11.1204707684
 20
-17.1525510355
 10
11.1390529972
 20
-17.1315463329
 10
11.157086394
 20
-17.1097861011
 10
11.1745623832
 20
-17.0872807306
 10
11.1914726089
 20
-17.0640409783
 10
11.2078090204
 20
-17.0400778897
 10
11.223563911
 20
-17.0154028148
 10
11.2387297749
 20
-16.9900274996
 10
11.2532993717
 20
-16.9639640315
 10
11.2672658134
 20
-16.9372247647
 10
11.280622461
 20
-16.9098224008
 10
11.2933629313
 20
-16.8817700032
 10
11.305481159
 20
-16.8530809389
 10
11.3169713858
 20
-16.823768854
 10
11.3278281373
 20
-16.7938476988
 10
11.3380462299
 20
-16.7633317426
 10
11.3476208135
 20
-16.7322355197
 10
11.3565473434
 20
-16.7005738049
 10
11.364821557
 20
-16.6683616386
 10
11.3724395417
 20
-16.6356143342
 10
11.3793976832
 20
-16.6023474657
 10
11.385692634
 20
-16.5685768403
 10
11.3913214384
 20
-16.5343184532
 10
11.3962814237
 20
-16.4995886429
 10
11.4005701506
 20
-16.4644040801
 10
11.4041856135
 20
-16.4287815898
 10
11.4071261386
 20
-16.3927380062
 10
11.4093902637
 20
-16.3562903215
 10
11.4109769096
 20
-16.3194558039
 10
11.411885393
 20
-16.2822519963
 10
11.4121153218
 20
-16.244696571
  0
LWPOLYLINE
  5
428
100
AcDbEntity
  8
RACCORDO
100
AcDbPolyline
 62
250
  6
CONTINUOUS
 90
4
 70
0
 10
10.9979648462
 20
-17.26217967
 10
11.0196456597
 20
-17.2459048805
 10
11.0408344641
 20
-17.2288201686
 10
11.0615211353
 20
-17.2109336975
  0
LWPOLYLINE
  5
429
100
AcDbEntity
  8
RACCORDO
100
AcDbPolyline
 62
7
  6
CONTINUOUS
 90
40
 70
0
 10
11.0725435525
 20
-17.2158094682
 10
11.0921772378
 20
-17.2013141393
 10
11.1202724343
 20
-17.1796191015
 10
11.1478754793
 20
-17.1571548744
 10
11.1749583209
 20
-17.1339390453
 10
11.2015079158
 20
-17.1099777123
 10
11.227525572
 20
-17.0852633014
 10
11.2529913653
 20
-17.0598071573
 10
11.2778859666
 20
-17.0336210531
 10
11.3022101409
 20
-17.0066950847
 10
11.3259446614
 20
-16.9790401791
 10
11.3490697061
 20
-16.9506691874
 10
11.3715834661
 20
-16.9215723203
 10
11.3934673846
 20
-16.8917596618
 10
11.4147015066
 20
-16.8612449533
 10
11.4352804826
 20
-16.8300208526
 10
11.4551854286
 20
-16.798098887
 10
11.4743979426
 20
-16.7654913631
 10
11.4929122828
 20
-16.7321891309
 10
11.5107088805
 20
-16.6982059918
 10
11.5277710502
 20
-16.6635515265
 10
11.5440956515
 20
-16.6282067335
 10
11.5596663907
 20
-16.5921768196
 10
11.5744623492
 20
-16.555478165
 10
11.5884720656
 20
-16.5181049803
 10
11.6016832302
 20
-16.4800503356
 10
11.614071361
 20
-16.4413414879
 10
11.6256098419
 20
-16.4020220444
 10
11.6362846305
 20
-16.3621017511
 10
11.6460811352
 20
-16.3215920794
 10
11.6549783958
 20
-16.2805382926
 10
11.6629657621
 20
-16.238948728
 10
11.6700315507
 20
-16.1968353813
 10
11.6761596194
 20
-16.1542481682
 10
11.6813418208
 20
-16.1111964505
 10
11.685569497
 20
-16.067690252
 10
11.6888316598
 20
-16.0237790801
 10
11.6911215111
 20
-15.9794845585
 10
11.6924337084
 20
-15.9348034837
 10
11.6927755118
 20
-15.8973685095
  0
LINE
  5
42A
100
AcDbEntity
  8
0
100
AcDbLine
 62
7
  6
CONTINUOUS
 10
2.8358770998
 20
-21.6103132814
 11
3.5368130536
 21
-21.1023135437
  0
LINE
  5
42B
100
AcDbEntity
  8
RACCORDO
100
AcDbLine
 62
7
  6
CONTINUOUS
 10
3.1350042328
 20
-21.4042106125
 11
2.8358770998
 21
-21.621001468
  0
LINE
  5
42C
100
AcDbEntity
  8
RACCORDO
100
AcDbLine
 62
7
  6
CONTINUOUS
 10
8.7839709352
 20
-18.6855571797
 11
9.8671662047
 21
-17.9005169634
  0
LINE
  5
42D
100
AcDbEntity
  8
RACCORDO
100
AcDbLine
 62
250
  6
CONTINUOUS
 10
10.7920102991
 20
-17.4114441717
 11
10.9979648462
 21
-17.26217967
  0
LINE
  5
42E
100
AcDbEntity
  8
RACCORDO
100
AcDbLine
 62
7
  6
CONTINUOUS
 10
10.8665778932
 20
-17.3650820389
 11
11.0725324402
 21
-17.2158175372
  0
LWPOLYLINE
  5
42F
100
AcDbEntity
  8
RACCORDO
100
AcDbPolyline
 62
250
  6
CONTINUOUS
 90
4
 70
0
 10
10.7472223692
 20
-17.4393788657
 10
10.7623703676
 20
-17.4309075687
 10
10.7774007987
 20
-17.4215421851
 10
10.7920102991
 20
-17.4114441717
  0
LWPOLYLINE
  5
430
100
AcDbEntity
  8
0
100
AcDbPolyline
 62
7
  6
CONTINUOUS
 90
10
 70
0
 10
2.7660920458
 20
-20.0456423926
 10
2.8505857685
 20
-19.998927164
 10
2.9353658799
 20
-19.9522182773
 10
3.020437708
 20
-19.90551749
 10
3.1058108061
 20
-19.858844044
 10
3.1914858675
 20
-19.8121815924
 10
3.2774531022
 20
-19.7654780021
 10
3.3637105698
 20
-19.7187163221
 10
3.4502658043
 20
-19.671915008
 10
3.537121595
 20
-19.6250746861
  0
LWPOLYLINE
  5
431
100
AcDbEntity
  8
RACCORDO
100
AcDbPolyline
 62
250
  6
CONTINUOUS
 90
5
 70
0
 10
10.9979648462
 20
-17.26217967
 10
11.0168013615
 20
-17.2518194622
 10
11.0352434783
 20
-17.240831225
 10
11.0532775013
 20
-17.2292231185
 10
11.0725324402
 20
-17.2158175372
  0
LWPOLYLINE
  5
432
100
AcDbEntity
  8
RACCORDO
100
AcDbPolyline
 62
250
  6
CONTINUOUS
 90
5
 70
0
 10
10.7920102991
 20
-17.4114441717
 10
10.8108468144
 20
-17.4010839639
 10
10.8292889311
 20
-17.3900957268
 10
10.847322954
 20
-17.3784876203
 10
10.8665778932
 20
-17.3650820389
  0
LWPOLYLINE
  5
433
100
AcDbEntity
  8
RACCORDO
100
AcDbPolyline
 62
250
  6
CONTINUOUS
 90
29
 70
0
 10
11.4121153218
 20
-16.244696571
 10
11.4307764603
 20
-16.2347672281
 10
11.4488895553
 20
-16.2245873301
 10
11.4664411558
 20
-16.2141644369
 10
11.4834182279
 20
-16.2035062884
 10
11.4998081645
 20
-16.1926207995
 10
11.5155987941
 20
-16.1815160537
 10
11.5307783907
 20
-16.1702002976
 10
11.5453356818
 20
-16.1586819343
 10
11.559259857
 20
-16.1469695174
 10
11.5725405761
 20
-16.1350717445
 10
11.5851679769
 20
-16.1229974511
 10
11.5971326822
 20
-16.1107556036
 10
11.6084258068
 20
-16.0983552927
 10
11.6190389645
 20
-16.0858057272
 10
11.6289642739
 20
-16.0731162263
 10
11.6381943644
 20
-16.0602962134
 10
11.6467223816
 20
-16.0473552086
 10
11.6545419927
 20
-16.0343028221
 10
11.6616473907
 20
-16.0211487465
 10
11.6680332991
 20
-16.0079027502
 10
11.6736949757
 20
-15.9945746698
 10
11.6786282162
 20
-15.9811744026
 10
11.682829357
 20
-15.9677119
 10
11.6862952784
 20
-15.9541971591
 10
11.6890234066
 20
-15.9406402161
 10
11.6910117156
 20
-15.9270511384
 10
11.6922587289
 20
-15.9134400175
 10
11.6927635205
 20
-15.8998169609
  0
LINE
  5
434
100
AcDbEntity
  8
RACCORDO
100
AcDbLine
 62
250
  6
CONTINUOUS
 10
10.7920102991
 20
-17.4114441717
 11
9.8671662047
 21
-17.9005169634
  0
LINE
  5
435
100
AcDbEntity
  8
RACCORDO
100
AcDbLine
 62
7
  6
CONTINUOUS
 10
10.7472223692
 20
-17.4393788657
 11
9.8454741025
 21
-17.9162382032
  0
LINE
  5
436
100
AcDbEntity
  8
RACCORDO
100
AcDbLine
 62
250
  6
CONTINUOUS
 10
3.5491547084
 20
-20.3867275135
 11
11.4121153218
 21
-16.244696571
  0
LINE
  5
437
100
AcDbEntity
  8
RACCORDO
100
AcDbLine
 62
250
  6
CONTINUOUS
 10
3.1350042328
 20
-21.4042106125
 11
10.9979648462
 21
-17.26217967
  0
LINE
  5
438
100
AcDbEntity
  8
DRAFT
100
AcDbLine
 62
7
  6
CONTINUOUS
 10
2.8358770998
 20
-21.8101501798
 11
8.7839709352
 21
-18.6855571797
  0
LINE
  5
439
100
AcDbEntity
  8
0
100
AcDbLine
 62
7
  6
CONTINUOUS
 10
2.8358770998
 20
-21.4620828454
 11
3.5368130536
 21
-21.1023135437
  0
LINE
  5
43A
100
AcDbEntity
  8
0
100
AcDbLine
 62
7
  6
CONTINUOUS
 10
3.537121595
 20
-20.49254559
 11
3.3637105698
 21
-20.5753604105
  0
LWPOLYLINE
  5
43B
100
AcDbEntity
  8
0
100
AcDbPolyline
 62
7
  6
CONTINUOUS
 90
8
 70
0
 10
3.3637105698
 20
-20.5753604105
 10
3.2774531022
 20
-20.616382852
 10
3.1914858675
 20
-20.657160091
 10
3.1058108061
 20
-20.6976758742
 10
3.020437708
 20
-20.7378841294
 10
2.9353658799
 20
-20.7777665736
 10
2.8505857685
 20
-20.8173341382
 10
2.7660920458
 20
-20.8565832529
  0
LINE
  5
43C
100
AcDbEntity
  8
RACCORDO
100
AcDbLine
 62
250
  6
CONTINUOUS
 10
-2.5959714004
 20
20.1986871854
 11
-2.5857888551
 21
20.2015357797
  0
LWPOLYLINE
  5
43D
100
AcDbEntity
  8
RACCORDO
100
AcDbPolyline
 62
250
  6
CONTINUOUS
 90
3
 70
0
 10
-2.5857888551
 20
20.2015357797
 10
-2.5754169539
 20
20.2043415541
 10
-2.5701598876
 20
20.2057278529
  0
LWPOLYLINE
  5
43E
100
AcDbEntity
  8
0
100
AcDbPolyline
 62
7
  6
CONTINUOUS
 90
10
 70
0
 10
2.7850253832
 20
20.0353655822
 10
2.7776621236
 20
20.0334133465
 10
2.7698867467
 20
20.0311813323
 10
2.7616981305
 20
20.0286827301
 10
2.7531068548
 20
20.0259225163
 10
2.7441325602
 20
20.0229068614
 10
2.7347840616
 20
20.0196514505
 10
2.7250739647
 20
20.0161648756
 10
2.7150196252
 20
20.012448277
 10
2.7046363782
 20
20.0085060063
  0
LWPOLYLINE
  5
43F
100
AcDbEntity
  8
RACCORDO
100
AcDbPolyline
 62
250
  6
CONTINUOUS
 90
4
 70
0
 10
-2.5701598876
 20
20.2057278529
 10
-2.5595032922
 20
20.2084628381
 10
-2.5541037631
 20
20.2098115244
 10
-2.5486569004
 20
20.2111461332
  0
LWPOLYLINE
  5
440
100
AcDbEntity
  8
RACCORDO
100
AcDbPolyline
 62
250
  6
CONTINUOUS
 90
128
 70
0
 10
-2.5486569004
 20
20.2111461332
 10
-2.5376210224
 20
20.2137731541
 10
-2.5320324411
 20
20.2150639606
 10
-2.5263966843
 20
20.2163391425
 10
-2.5207139521
 20
20.2175986593
 10
-2.5149852031
 20
20.2188408014
 10
-2.509210276
 20
20.2200655914
 10
-2.5033893322
 20
20.2212730068
 10
-2.4975238147
 20
20.2224612713
 10
-2.4916139043
 20
20.2236303402
 10
-2.4856594202
 20
20.2247802581
 10
-2.4796612632
 20
20.2259093821
 10
-2.4736192015
 20
20.227017749
 10
-2.4675334669
 20
20.228105322
 10
-2.4614056553
 20
20.2291703467
 10
-2.4552274485
 20
20.2302139975
 10
-2.4490071646
 20
20.2312351001
 10
-2.4427713542
 20
20.2322283779
 10
-2.4365235893
 20
20.2331928834
 10
-2.4302602978
 20
20.2341295641
 10
-2.4239973142
 20
20.235035986
 10
-2.4177371311
 20
20.235911588
 10
-2.4114772559
 20
20.2367569312
 10
-2.4052260447
 20
20.2375712647
 10
-2.3989845976
 20
20.2383543491
 10
-2.3927518146
 20
20.2391064238
 10
-2.3865327521
 20
20.2398274566
 10
-2.3803277859
 20
20.2405173501
 10
-2.3741365401
 20
20.2411762016
 10
-2.3679629438
 20
20.2418042712
 10
-2.3618073909
 20
20.2424014875
 10
-2.3556694875
 20
20.242967922
 10
-2.3495519804
 20
20.243504049
 10
-2.3434551455
 20
20.2440098315
 10
-2.3373787068
 20
20.2444853066
 10
-2.3313245842
 20
20.2449310599
 10
-2.3252924005
 20
20.2453471014
 10
-2.3192825329
 20
20.245733421
 10
-2.3132980318
 20
20.2460905746
 10
-2.3073390888
 20
20.2464185283
 10
-2.3014055124
 20
20.2467173159
 10
-2.2954997783
 20
20.2469875947
 10
-2.2896220553
 20
20.2472293435
 10
-2.2837721747
 20
20.2474425835
 10
-2.2779521068
 20
20.2476280354
 10
-2.2721617728
 20
20.2477856889
 10
-2.2664012516
 20
20.2479155543
 10
-2.2606727497
 20
20.2480183834
 10
-2.2549762444
 20
20.2480941594
 10
-2.2493117585
 20
20.248142899
 10
-2.2436815667
 20
20.2481654037
 10
-2.2380857944
 20
20.2481616575
 10
-2.2325243162
 20
20.2481316764
 10
-2.2269990307
 20
20.2480763101
 10
-2.2215101303
 20
20.2479955521
 10
-2.2160574226
 20
20.247889409
 10
-2.2106422294
 20
20.2477587497
 10
-2.2052646052
 20
20.2476035718
 10
-2.1999244955
 20
20.2474238778
 10
-2.1946230574
 20
20.2472205437
 10
-2.1893600082
 20
20.2469935456
 10
-2.1841356306
 20
20.2467429074
 10
-2.1789519303
 20
20.2464695775
 10
-2.1738091173
 20
20.2461735502
 10
-2.1687069815
 20
20.2458548311
 10
-2.1636468995
 20
20.2455143848
 10
-2.1586290839
 20
20.2451522189
 10
-2.1536533221
 20
20.2447683259
 10
-2.1487203522
 20
20.2443636476
 10
-2.1438302579
 20
20.2439381904
 10
-2.1389829557
 20
20.243491948
 10
-2.1341789334
 20
20.243025844
 10
-2.1294182434
 20
20.2425398845
 10
-2.1247008334
 20
20.2420340634
 10
-2.1200270345
 20
20.2415092861
 10
-2.1153969034
 20
20.2409655609
 10
-2.1108103834
 20
20.2404028795
 10
-2.1062676361
 20
20.2398221213
 10
-2.1017687408
 20
20.239223301
 10
-2.0973136182
 20
20.238606404
 10
-2.092902192
 20
20.237972266
 10
-2.0885345137
 20
20.2373209012
 10
-2.0842105319
 20
20.2366522956
 10
-2.0799300159
 20
20.2359672425
 10
-2.0756930031
 20
20.235265756
 10
-2.0714994561
 20
20.2345478221
 10
-2.067349032
 20
20.2338141927
 10
-2.0632417803
 20
20.233064886
 10
-2.0591776516
 20
20.2322998838
 10
-2.0551561543
 20
20.2315198835
 10
-2.0511773253
 20
20.2307249033
 10
-2.0472411277
 20
20.2299149251
 10
-2.0433469599
 20
20.2290905914
 10
-2.0394948629
 20
20.2282519237
 10
-2.0356847956
 20
20.2273989006
 10
-2.0319160335
 20
20.2265320992
 10
-2.0281886185
 20
20.2256515448
 10
-2.0245025088
 20
20.2247572122
 10
-2.020856854
 20
20.223849603
 10
-2.0172516705
 20
20.2229287389
 10
-2.0136869419
 20
20.2219945983
 10
-2.0101617694
 20
20.2210476177
 10
-2.0066761532
 20
20.2200878158
 10
-2.0032300929
 20
20.2191151739
 10
-1.9998226887
 20
20.2181300728
 10
-1.9964539502
 20
20.2171325351
 10
-1.9931238676
 20
20.2161225382
 10
-1.9898315113
 20
20.2151003957
 10
-1.9865768885
 20
20.2140661311
 10
-1.983359992
 20
20.2130197208
 10
-1.9801798698
 20
20.2119614073
 10
-1.9770365137
 20
20.2108912108
 10
-1.9739299318
 20
20.2098091111
 10
-1.9708591965
 20
20.2087152903
 10
-1.9678242846
 20
20.2076097632
 10
-1.9648252192
 20
20.2064925151
 10
-1.9618611423
 20
20.2053636839
 10
-1.9589320183
 20
20.2042232787
 10
-1.9560378828
 20
20.2030712903
 10
-1.953177984
 20
20.2019078293
 10
-1.9503522964
 20
20.2007329059
 10
-1.9475608457
 20
20.1995465098
 10
-1.9448029571
 20
20.1983487203
 10
-1.9420786181
 20
20.1971395556
 10
-1.9393878414
 20
20.1959189975
 10
-1.9367299898
 20
20.1946870706
 10
-1.9341048509
 20
20.1934437832
 10
-1.931512637
 20
20.1921891272
  0
LWPOLYLINE
  5
441
100
AcDbEntity
  8
RACCORDO
100
AcDbPolyline
 62
7
  6
CONTINUOUS
 90
10
 70
0
 10
9.1128519911
 20
18.6692395939
 10
9.0977117073
 20
18.6714727423
 10
9.0828053229
 20
18.6726344818
 10
9.0681328377
 20
18.6727248126
 10
9.0535680703
 20
18.6717194223
 10
9.0392372022
 20
18.6696426232
 10
9.0255187782
 20
18.6665673523
 10
9.0125389798
 20
18.6625179219
 10
9.0001716255
 20
18.6574700197
 10
8.9884167152
 20
18.6514236457
  0
LWPOLYLINE
  5
442
100
AcDbEntity
  8
0
100
AcDbPolyline
 62
7
  6
CONTINUOUS
 90
16
 70
0
 10
-2.2257053187
 20
20.8282949931
 10
-2.1922101374
 20
20.8233419009
 10
-2.1591552557
 20
20.8178329083
 10
-2.1265406734
 20
20.8117680152
 10
-2.0943327169
 20
20.8051397027
 10
-2.0625650599
 20
20.7979554898
 10
-2.0313387235
 20
20.7902379328
 10
-2.0006473125
 20
20.7819828712
 10
-1.970497222
 20
20.7731944656
 10
-1.9410086586
 20
20.7639077541
 10
-1.9121920122
 20
20.7541234684
 10
-1.8840368929
 20
20.7438408768
 10
-1.8566323368
 20
20.7330928219
 10
-1.8300080224
 20
20.7218902513
 10
-1.8041342711
 20
20.7102222175
 10
-1.779011083
 20
20.6980887204
  0
LINE
  5
443
100
AcDbEntity
  8
RACCORDO
100
AcDbLine
 62
7
  6
CONTINUOUS
 10
12.2269300319
 20
18.1009978036
 11
11.7866874006
 21
18.1813311343
  0
LINE
  5
444
100
AcDbEntity
  8
RACCORDO
100
AcDbLine
 62
7
  6
CONTINUOUS
 10
10.8551066757
 20
18.3513214467
 11
9.1128907174
 21
18.6692325273
  0
LWPOLYLINE
  5
445
100
AcDbEntity
  8
0
100
AcDbPolyline
 62
7
  6
CONTINUOUS
 90
8
 70
0
 10
2.2080849065
 20
20.335062245
 10
2.2234934552
 20
20.3314197434
 10
2.2393439346
 20
20.3269436979
 10
2.255623476
 20
20.3216175696
 10
2.2723245893
 20
20.3154296068
 10
2.2894228491
 20
20.3083579996
 10
2.3068761572
 20
20.3003723897
 10
2.3152054194
 20
20.2962910926
  0
LWPOLYLINE
  5
446
100
AcDbEntity
  8
0
100
AcDbPolyline
 62
7
  6
CONTINUOUS
 90
10
 70
0
 10
2.8304562789
 20
20.0386673866
 10
2.8273911978
 20
20.0398036158
 10
2.8238679358
 20
20.0404619002
 10
2.819783421
 20
20.0407480366
 10
2.8151733616
 20
20.0406708087
 10
2.8100676337
 20
20.0402360288
 10
2.8044767328
 20
20.0394793151
 10
2.7984302914
 20
20.0384123909
 10
2.7919512015
 20
20.0370347871
 10
2.7850253832
 20
20.0353655822
  0
LWPOLYLINE
  5
447
100
AcDbEntity
  8
0
100
AcDbPolyline
 62
7
  6
CONTINUOUS
 90
7
 70
0
 10
-2.759990746
 20
22.8338856624
 10
-2.7613914295
 20
22.8344972364
 10
-2.7647223462
 20
22.8354042892
 10
-2.7686660644
 20
22.8358791446
 10
-2.7731884128
 20
22.8359687279
 10
-2.7782542325
 20
22.8356936398
 10
-2.7838252397
 20
22.8350479434
  0
LINE
  5
448
100
AcDbEntity
  8
0
100
AcDbLine
 62
7
  6
CONTINUOUS
 10
-1.1338223565
 20
21.3742364742
 11
1.5290059842
 21
20.0428223038
  0
LINE
  5
449
100
AcDbEntity
  8
0
100
AcDbLine
 62
250
  6
CONTINUOUS
 10
2.6718177812
 20
19.9940325512
 11
2.0553459565
 21
20.3022684636
  0
LINE
  5
44A
100
AcDbEntity
  8
0
100
AcDbLine
 62
250
  6
CONTINUOUS
 10
-2.9432294098
 20
22.8015561467
 11
-3.5597012345
 21
23.1097920591
  0
LINE
  5
44B
100
AcDbEntity
  8
0
100
AcDbLine
 62
7
  6
CONTINUOUS
 10
2.8304563306
 20
20.0386680183
 11
2.3152066673
 21
20.29629285
  0
LINE
  5
44C
100
AcDbEntity
  8
0
100
AcDbLine
 62
7
  6
CONTINUOUS
 10
-2.7599902824
 20
22.8338913248
 11
-3.2752399457
 21
23.0915161565
  0
LINE
  5
44D
100
AcDbEntity
  8
0
100
AcDbLine
 62
7
  6
CONTINUOUS
 10
3.5265686579
 20
20.0131020265
 11
0.6202153111
 21
21.4662786999
  0
LINE
  5
44E
100
AcDbEntity
  8
DRAFT
100
AcDbLine
 62
7
  6
CONTINUOUS
 10
8.0663623688
 20
17.7865064413
 11
8.7839709352
 21
17.4277021581
  0
LINE
  5
44F
100
AcDbEntity
  8
0
100
AcDbLine
 62
250
  6
CONTINUOUS
 10
-3.0514918581
 20
23.9293283222
 11
-0.0922559187
 21
22.4497103525
  0
LINE
  5
450
100
AcDbEntity
  8
0
100
AcDbLine
 62
250
  6
CONTINUOUS
 10
4.158233691
 20
20.3244655477
 11
7.1174696304
 21
18.8448475779
  0
LINE
  5
451
100
AcDbEntity
  8
0
100
AcDbLine
 62
7
  6
CONTINUOUS
 10
-2.7622956919
 20
24.0326397227
 11
0.3522347402
 21
22.4753745066
  0
LINE
  5
452
100
AcDbEntity
  8
0
100
AcDbLine
 62
7
  6
CONTINUOUS
 10
4.5999427085
 20
20.3515205224
 11
7.7144731406
 21
18.7942553064
  0
LINE
  5
453
100
AcDbEntity
  8
0
100
AcDbLine
 62
7
  6
CONTINUOUS
 10
2.5307831024
 20
21.8170950497
 11
1.8238141623
 21
22.1705795197
  0
LWPOLYLINE
  5
454
100
AcDbEntity
  8
RACCORDO
100
AcDbPolyline
 62
250
  6
CONTINUOUS
 90
3
 70
0
 10
5.6354975294
 20
22.1743039619
 10
5.6583579588
 20
22.1547252284
 10
5.6796517946
 20
22.1355294053
  0
LWPOLYLINE
  5
455
100
AcDbEntity
  8
RACCORDO
100
AcDbPolyline
 62
250
  6
CONTINUOUS
 90
57
 70
0
 10
18.4319881296
 20
3.5279867316
 10
18.4402538148
 20
3.5016290246
 10
18.4524333136
 20
3.4594780603
 10
18.4638744047
 20
3.4163173287
 10
18.4745556076
 20
3.3721749417
 10
18.4844002599
 20
3.3271345325
 10
18.4933923667
 20
3.2812171051
 10
18.5015245762
 20
3.2344011407
 10
18.5087362498
 20
3.1867087434
 10
18.5150332579
 20
3.1378842977
 10
18.5203827938
 20
3.0881833957
 10
18.5246854093
 20
3.0384055954
 10
18.5279144992
 20
2.988585316
 10
18.5301108756
 20
2.9387098747
 10
18.5313106876
 20
2.8895248915
 10
18.5315092572
 20
2.8410428123
 10
18.53075686
 20
2.7932828131
 10
18.5292019869
 20
2.7470127421
 10
18.5268760957
 20
2.7024434235
 10
18.523821404
 20
2.659399767
 10
18.5202171868
 20
2.6180756184
 10
18.5161196887
 20
2.578634553
 10
18.5115419285
 20
2.5409404054
 10
18.5065927989
 20
2.5047351835
 10
18.5013140761
 20
2.4700402483
 10
18.4957139649
 20
2.4368512314
 10
18.4898394083
 20
2.4048679213
 10
18.4837120623
 20
2.3740561943
 10
18.4773452884
 20
2.3444604859
 10
18.4707652421
 20
2.3158960763
 10
18.4639755497
 20
2.2883088273
 10
18.4569988989
 20
2.2617595336
 10
18.4498862383
 20
2.2362348926
 10
18.4426507405
 20
2.2117457974
 10
18.4353020265
 20
2.188286363
 10
18.4278838655
 20
2.1658177348
 10
18.4204225264
 20
2.1443824621
 10
18.4129104178
 20
2.1239417001
 10
18.4053378637
 20
2.1043339931
 10
18.3977119481
 20
2.0855455064
 10
18.3900388393
 20
2.0675924502
 10
18.3823048632
 20
2.0503579254
 10
18.3744980413
 20
2.0338042151
 10
18.3666401039
 20
2.0179706567
 10
18.3587666111
 20
2.0028557332
 10
18.3508655125
 20
1.9884460138
 10
18.3429568103
 20
1.9747563462
 10
18.3351235643
 20
1.9618276802
 10
18.3273870048
 20
1.9497011937
 10
18.3197322277
 20
1.9383371232
 10
18.3121872727
 20
1.9276549853
 10
18.3047810351
 20
1.9176833323
 10
18.2974886841
 20
1.9083947523
 10
18.290256619
 20
1.8996246012
 10
18.2830675792
 20
1.8913181994
 10
18.2759410529
 20
1.8835309772
 10
18.2688780001
 20
1.8762633153
  0
LWPOLYLINE
  5
456
100
AcDbEntity
  8
RACCORDO
100
AcDbPolyline
 62
250
  6
CONTINUOUS
 90
16
 70
0
 10
-3.8151739224
 20
-26.8240474408
 10
-3.8538728583
 20
-26.8471904119
 10
-3.8958091959
 20
-26.868166169
 10
-3.9405384912
 20
-26.8867524094
 10
-3.9875867
 20
-26.902752155
 10
-4.0364552021
 20
-26.9159958394
 10
-4.0866260859
 20
-26.9263431051
 10
-4.1375676369
 20
-26.9336842911
 10
-4.1887399732
 20
-26.937941595
 10
-4.2396007667
 20
-26.9390698976
 10
-4.2896109914
 20
-26.937057241
 10
-4.3382406355
 20
-26.9319249556
 10
-4.3849743186
 20
-26.9237274339
 10
-4.429316754
 20
-26.9125515539
 10
-4.4707979976
 20
-26.8985157582
 10
-4.5089784283
 20
-26.8817687992
  0
LINE
  5
457
100
AcDbEntity
  8
0
100
AcDbLine
 62
7
  6
CONTINUOUS
 10
7.1174696304
 20
-19.8421873426
 11
2.8358770998
 21
-22.0418076019
  0
LINE
  5
458
100
AcDbEntity
  8
ASSI
100
AcDbLine
 62
7
  6
CONTINUOUS
 10
7.928090772
 20
-19.3292401696
 11
2.8358770998
 21
-21.9333538251
  0
LINE
  5
459
100
AcDbEntity
  8
0
100
AcDbLine
 62
7
  6
CONTINUOUS
 10
0.6202153111
 20
21.4662786999
 11
-1.1338223565
 21
21.3742364742
  0
LINE
  5
45A
100
AcDbEntity
  8
0
100
AcDbLine
 62
7
  6
CONTINUOUS
 10
11.5029294017
 20
19.0261723635
 11
12.1605068708
 21
18.9061808304
  0
LINE
  5
45B
100
AcDbEntity
  8
0
100
AcDbLine
 62
7
  6
CONTINUOUS
 10
3.4755025106
 20
21.9428345899
 11
3.0257578493
 21
22.0645824231
  0
LWPOLYLINE
  5
45C
100
AcDbEntity
  8
RACCORDO
100
AcDbPolyline
 62
7
  6
CONTINUOUS
 90
3
 70
0
 10
4.8806059911
 20
22.6048640391
 10
4.8717577808
 20
22.6086312866
 10
4.8685653094
 20
22.6096818197
  0
LWPOLYLINE
  5
45D
100
AcDbEntity
  8
DRAFT
100
AcDbPolyline
 62
7
  6
CONTINUOUS
 90
10
 70
0
 10
13.1551685968
 20
19.2431552723
 10
13.1912742164
 20
19.2274475475
 10
13.2268088188
 20
19.21143906
 10
13.2617724039
 20
19.1951298099
 10
13.2961751412
 20
19.1785147125
 10
13.3300068611
 20
19.1615988525
 10
13.3632370559
 20
19.1443974839
 10
13.3958555561
 20
19.1269156913
 10
13.427872531
 20
19.1091483902
 10
13.4592879807
 20
19.0910955804
  0
LWPOLYLINE
  5
45E
100
AcDbEntity
  8
RACCORDO
100
AcDbPolyline
 62
7
  6
CONTINUOUS
 90
31
 70
0
 10
12.968825242
 20
18.8227820061
 10
12.8673440674
 20
18.8734548617
 10
12.7612825796
 20
18.9209283673
 10
12.6509632518
 20
18.9651365375
 10
12.5367134487
 20
19.0060182722
 10
12.4188493249
 20
19.0435222666
 10
12.2976939738
 20
19.0775994778
 10
12.1736185529
 20
19.1081946401
 10
12.0469399379
 20
19.1352739495
 10
11.9179230923
 20
19.1588155018
 10
11.7869166382
 20
19.1787830272
 10
11.6542755824
 20
19.1951468085
 10
11.52028462
 20
19.2078905031
 10
11.3853004611
 20
19.2169936282
 10
11.2496816495
 20
19.2224433173
 10
11.1137205393
 20
19.224234419
 10
10.9777761093
 20
19.2223641711
 10
10.842207765
 20
19.2168376028
 10
10.707308201
 20
19.2076621769
 10
10.5734338083
 20
19.1948529639
 10
10.4409407841
 20
19.1784327718
 10
10.3101158964
 20
19.1584207908
 10
10.1813095919
 20
19.1348488142
 10
10.0548693696
 20
19.107755739
 10
9.9310661125
 20
19.0771681698
 10
9.81023406
 20
19.0431294319
 10
9.6927154962
 20
19.0056921098
 10
9.5787742258
 20
18.9648875591
 10
9.468709209
 20
18.9207577328
 10
9.36286651
 20
18.8733678851
 10
9.2615692922
 20
18.8227820061
  0
LINE
  5
45F
100
AcDbEntity
  8
0
100
AcDbLine
 62
7
  6
CONTINUOUS
 10
3.0257578493
 20
22.0645824231
 11
2.3187889091
 21
22.4180668932
  0
LINE
  5
460
100
AcDbEntity
  8
DRAFT
100
AcDbLine
 62
7
  6
CONTINUOUS
 10
8.9798904104
 20
19.4041369961
 11
9.4122046611
 21
19.1879798708
  0
LINE
  5
461
100
AcDbEntity
  8
SMUSSO
100
AcDbLine
 62
7
  6
CONTINUOUS
 10
1.9875834587
 20
22.900290472
 11
1.5552692079
 21
23.1164475974
  0
LINE
  5
462
100
AcDbEntity
  8
RACCORDO
100
AcDbLine
 62
7
  6
CONTINUOUS
 10
5.7291341285
 20
22.1805999703
 11
5.7508837081
 21
22.1697168847
  0
LWPOLYLINE
  5
463
100
AcDbEntity
  8
RACCORDO
100
AcDbPolyline
 62
7
  6
CONTINUOUS
 90
10
 70
0
 10
5.6911900613
 20
22.1932676253
 10
5.5937130076
 20
22.243323057
 10
5.4980998057
 20
22.2922989326
 10
5.4043504558
 20
22.3401952522
 10
5.3124793745
 20
22.38701344
 10
5.2224721451
 20
22.4327520717
 10
5.1342855171
 20
22.4774068748
 10
5.0479050737
 20
22.5209764249
 10
4.9633452317
 20
22.5634621463
 10
4.8806059911
 20
22.6048640391
  0
LINE
  5
464
100
AcDbEntity
  8
0
100
AcDbLine
 62
7
  6
CONTINUOUS
 10
13.4300449008
 20
18.5795717602
 11
12.968825242
 21
18.8227820061
  0
LWPOLYLINE
  5
465
100
AcDbEntity
  8
RACCORDO
100
AcDbPolyline
 62
250
  6
CONTINUOUS
 90
8
 70
0
 10
12.968825242
 20
18.8227820061
 10
12.9944985884
 20
18.8090427894
 10
13.0753046659
 20
18.7629862707
 10
13.1492676905
 20
18.7165830233
 10
13.2168382429
 20
18.6699633893
 10
13.2780963805
 20
18.6234959772
 10
13.3332896474
 20
18.5774554825
 10
13.3649922198
 20
18.5483499793
  0
LINE
  5
466
100
AcDbEntity
  8
RACCORDO
100
AcDbLine
 62
7
  6
CONTINUOUS
 10
5.6989484899
 20
22.1886811532
 11
5.6911900613
 21
22.1932676253
  0
LINE
  5
467
100
AcDbEntity
  8
RACCORDO
100
AcDbLine
 62
250
  6
CONTINUOUS
 10
5.7291341285
 20
22.1805999703
 11
5.745335115
 21
22.167053859
  0
LWPOLYLINE
  5
468
100
AcDbEntity
  8
RACCORDO
100
AcDbPolyline
 62
250
  6
CONTINUOUS
 90
57
 70
0
 10
18.4319881296
 20
15.4791772698
 10
18.4413291748
 20
15.4491979244
 10
18.4535278066
 20
15.406663538
 10
18.4649718317
 20
15.3631245767
 10
18.4756432969
 20
15.3185875429
 10
18.4854753306
 20
15.2730650945
 10
18.494468292
 20
15.2264512598
 10
18.5025926853
 20
15.1788483447
 10
18.5097452666
 20
15.1305869557
 10
18.515910494
 20
15.0816029841
 10
18.5210900931
 20
15.0319682695
 10
18.5252270683
 20
14.9822287198
 10
18.5283065925
 20
14.9323242467
 10
18.5303548823
 20
14.8823351694
 10
18.5314055201
 20
14.8330317865
 10
18.5314497904
 20
14.7843871171
 10
18.5305413797
 20
14.7364593458
 10
18.5288409431
 20
14.6901600316
 10
18.5263893261
 20
14.6458054467
 10
18.5232258997
 20
14.6031171316
 10
18.5195232521
 20
14.5621192515
 10
18.5153378518
 20
14.5229344657
 10
18.510680342
 20
14.4854664991
 10
18.5056452845
 20
14.4494076743
 10
18.5002638066
 20
14.4147261234
 10
18.4945517871
 20
14.3814696731
 10
18.4885702887
 20
14.3494468499
 10
18.4823382543
 20
14.3186321283
 10
18.4758725561
 20
14.28906145
 10
18.469225133
 20
14.2606338429
 10
18.4624130138
 20
14.233349299
 10
18.4554479326
 20
14.2072150168
 10
18.4483700273
 20
14.1821398857
 10
18.4411958073
 20
14.1581332731
 10
18.4339315662
 20
14.1351908057
 10
18.4265988389
 20
14.1132000679
 10
18.4192122595
 20
14.0921679092
 10
18.411774605
 20
14.0720909019
 10
18.404286692
 20
14.0528406461
 10
18.3967558489
 20
14.0344093078
 10
18.3891875891
 20
14.0168070332
 10
18.3815777277
 20
13.9999319715
 10
18.3739231336
 20
13.9837642271
 10
18.3662364911
 20
13.9683253282
 10
18.3585359282
 20
13.9535753403
 10
18.3508178013
 20
13.9395065639
 10
18.3430931868
 20
13.9261280309
 10
18.3354014384
 20
13.9134248365
 10
18.327747945
 20
13.9014081969
 10
18.3201329828
 20
13.8900680926
 10
18.3125874618
 20
13.8793577139
 10
18.3051246943
 20
13.8692928331
 10
18.2977352693
 20
13.8598587136
 10
18.2904152251
 20
13.8509626649
 10
18.28316393
 20
13.8425740317
 10
18.2759843654
 20
13.8347242722
 10
18.268877528
 20
13.8274137844
  0
LINE
  5
469
100
AcDbEntity
  8
0
100
AcDbLine
 62
250
  6
CONTINUOUS
 10
2.134941146
 20
-24.7556649891
 11
2.8358770998
 21
-24.3939877964
  0
LINE
  5
46A
100
AcDbEntity
  8
0
100
AcDbLine
 62
7
  6
CONTINUOUS
 10
2.0062283217
 20
-25.0254750681
 11
2.7080616981
 21
-24.6633348127
  0
LINE
  5
46B
100
AcDbEntity
  8
0
100
AcDbLine
 62
250
  6
CONTINUOUS
 10
1.4278343648
 20
-26.4372603056
 11
1.9561015366
 21
-26.166249247
  0
LINE
  5
46C
100
AcDbEntity
  8
0
100
AcDbLine
 62
7
  6
CONTINUOUS
 10
1.3637292651
 20
-26.5720380767
 11
1.8924134991
 21
-26.3008130572
  0
LWPOLYLINE
  5
46D
100
AcDbEntity
  8
0
100
AcDbPolyline
 62
7
  6
CONTINUOUS
 90
3
 70
0
 10
2.0062283728
 20
-25.0254750466
 10
2.0041395805
 20
-25.0265365321
 10
1.992693478
 20
-25.0317955989
  0
LINE
  5
46E
100
AcDbEntity
  8
0
100
AcDbLine
 62
7
  6
CONTINUOUS
 10
1.3637292631
 20
-26.5720380777
 11
1.3619928521
 21
-26.5729062976
  0
LINE
  5
46F
100
AcDbEntity
  8
0
100
AcDbLine
 62
250
  6
CONTINUOUS
 10
-0.173446426
 20
-27.2172949053
 11
1.4278343648
 21
-26.4372603056
  0
LINE
  5
470
100
AcDbEntity
  8
0
100
AcDbLine
 62
7
  6
CONTINUOUS
 10
-0.2397080186
 20
-27.3531455314
 11
1.3619928513
 21
-26.572906298
  0
LINE
  5
471
100
AcDbEntity
  8
RACCORDO
100
AcDbLine
 62
250
  6
CONTINUOUS
 10
-3.465876275
 20
-27.0269226453
 11
-0.5874199615
 21
-25.7511056314
  0
LINE
  5
472
100
AcDbEntity
  8
RACCORDO
100
AcDbLine
 62
7
  6
CONTINUOUS
 10
-0.7251741679
 20
-26.0251815698
 11
-3.607736748
 21
-27.3028183089
  0
LINE
  5
473
100
AcDbEntity
  8
0
100
AcDbLine
 62
250
  6
CONTINUOUS
 10
1.0557670821
 20
-25.2084455791
 11
2.134941146
 21
-24.7554521416
  0
LINE
  5
474
100
AcDbEntity
  8
0
100
AcDbLine
 62
7
  6
CONTINUOUS
 10
0.9145013284
 20
-25.4843768687
 11
1.9926936199
 21
-25.0317955394
  0
LWPOLYLINE
  5
475
100
AcDbEntity
  8
0
100
AcDbPolyline
 62
7
  6
CONTINUOUS
 90
17
 70
0
 10
-3.5044129184
 20
23.1308981933
 10
-3.4928068984
 20
23.1334331177
 10
-3.4808405785
 20
23.1353768698
 10
-3.4685209799
 20
23.1367180679
 10
-3.4558490934
 20
23.1374370936
 10
-3.4428421071
 20
23.1375266907
 10
-3.4295049321
 20
23.1369788805
 10
-3.4158187379
 20
23.135771126
 10
-3.4018101272
 20
23.133900761
 10
-3.3874760423
 20
23.1313530499
 10
-3.3727490436
 20
23.1280818522
 10
-3.3576311418
 20
23.1240771053
 10
-3.3421428214
 20
23.1193225753
 10
-3.3262409064
 20
23.1137556949
 10
-3.3099285247
 20
23.1073572265
 10
-3.2932317685
 20
23.100113643
 10
-3.2752403007
 20
23.0915156571
  0
LINE
  5
476
100
AcDbEntity
  8
0
100
AcDbLine
 62
7
  6
CONTINUOUS
 10
-2.7838252397
 20
22.8350479434
 11
-2.7898650096
 21
22.834037203
  0
LWPOLYLINE
  5
477
100
AcDbEntity
  8
RACCORDO
100
AcDbPolyline
 62
7
  6
CONTINUOUS
 90
9
 70
0
 10
4.8685653094
 20
22.6096818197
 10
4.8624485688
 20
22.6112813174
 10
4.8526783551
 20
22.6128141313
 10
4.8423521596
 20
22.6132295756
 10
4.8315649625
 20
22.6125278031
 10
4.8206017035
 20
22.6107092718
 10
4.8095573628
 20
22.6077741343
 10
4.7983369603
 20
22.6037222379
 10
4.7869404961
 20
22.5985535827
  0
LWPOLYLINE
  5
478
100
AcDbEntity
  8
RACCORDO
100
AcDbPolyline
 62
7
  6
CONTINUOUS
 90
28
 70
0
 10
4.8685551731
 20
22.6096578672
 10
4.7598398265
 20
22.640943713
 10
4.6449847836
 20
22.67029739
 10
4.5277233596
 20
22.6966244602
 10
4.4083501948
 20
22.7198865519
 10
4.2871298232
 20
22.7400571048
 10
4.1643004537
 20
22.7571163801
 10
4.0401516563
 20
22.7710402216
 10
3.9149681932
 20
22.7818108906
 10
3.7889876757
 20
22.7894182903
 10
3.6625012896
 20
22.793851669
 10
3.5357985667
 20
22.7951062237
 10
3.4091168212
 20
22.7931814506
 10
3.2827455514
 20
22.7880801156
 10
3.1569759608
 20
22.7798109035
 10
3.0320463615
 20
22.768383028
 10
2.9082474869
 20
22.7538131958
 10
2.7858627345
 20
22.7361231742
 10
2.6651142983
 20
22.7153289988
 10
2.5462793772
 20
22.6914573988
 10
2.4296435538
 20
22.664542347
 10
2.3154319807
 20
22.6346075797
 10
2.2039168026
 20
22.6016904758
 10
2.0953706062
 20
22.565833841
 10
1.9900037146
 20
22.5270622234
 10
1.8880569321
 20
22.4854094151
 10
1.7898107947
 20
22.4409286405
 10
1.6955267335
 20
22.3936712511
  0
LWPOLYLINE
  5
479
100
AcDbEntity
  8
DRAFT
100
AcDbPolyline
 62
7
  6
CONTINUOUS
 90
10
 70
0
 10
5.7305473943
 20
22.9554658736
 10
5.766653014
 20
22.9397581487
 10
5.8021876163
 20
22.9237496612
 10
5.8371512015
 20
22.9074404111
 10
5.8715539387
 20
22.8908253138
 10
5.9053856587
 20
22.8739094538
 10
5.9386158534
 20
22.8567080851
 10
5.9712343536
 20
22.8392262926
 10
6.0032513286
 20
22.8214589914
 10
6.0346667783
 20
22.8034061816
  0
LINE
  5
47A
100
AcDbEntity
  8
DRAFT
100
AcDbLine
 62
7
  6
CONTINUOUS
 10
5.5470095533
 20
23.0315749415
 11
6.1785408744
 21
22.715809281
  0
LINE
  5
47B
100
AcDbEntity
  8
DRAFT
100
AcDbLine
 62
7
  6
CONTINUOUS
 10
12.9716307558
 20
19.3192643403
 11
13.6031620768
 21
19.0034986797
  0
LINE
  5
47C
100
AcDbEntity
  8
DRAFT
100
AcDbLine
 62
7
  6
CONTINUOUS
 10
13.1551685968
 20
19.2431552723
 11
13.4592879807
 21
19.0910955804
  0
LINE
  5
47D
100
AcDbEntity
  8
DRAFT
100
AcDbLine
 62
7
  6
CONTINUOUS
 10
6.0346667783
 20
22.8034061816
 11
5.7305473943
 21
22.9554658736
  0
LINE
  5
47E
100
AcDbEntity
  8
DRAFT
100
AcDbLine
 62
7
  6
CONTINUOUS
 10
16.0607467985
 20
19.8421668875
 11
12.9519312278
 21
21.3965746728
  0
LINE
  5
47F
100
AcDbEntity
  8
DRAFT
100
AcDbLine
 62
7
  6
CONTINUOUS
 10
8.6361255961
 20
23.5544774887
 11
5.5273100253
 21
25.1088852741
  0
LWPOLYLINE
  5
480
100
AcDbEntity
  8
RACCORDO
100
AcDbPolyline
 62
7
  6
CONTINUOUS
 90
104
 70
0
 10
18.4319881296
 20
17.2982496759
 10
18.4447094743
 20
17.2889948507
 10
18.4895310861
 20
17.2551265292
 10
18.5340149331
 20
17.220251617
 10
18.5781725931
 20
17.1843668295
 10
18.6220031702
 20
17.1474766383
 10
18.6654749227
 20
17.1096113047
 10
18.7085525432
 20
17.0708064681
 10
18.7512154639
 20
17.0310864461
 10
18.7934531707
 20
16.9904666424
 10
18.8352456721
 20
16.948971713
 10
18.8765717981
 20
16.9066284429
 10
18.9174225518
 20
16.8634516587
 10
18.9577956736
 20
16.8194482822
 10
18.9976864973
 20
16.7746265998
 10
19.0370689698
 20
16.729018923
 10
19.0759088951
 20
16.6826693009
 10
19.1141777935
 20
16.6356178363
 10
19.15187642
 20
16.5878695946
 10
19.1890141573
 20
16.5394164331
 10
19.2255898595
 20
16.4902612936
 10
19.2615750551
 20
16.4404437192
 10
19.2969380065
 20
16.3900106792
 10
19.3316552941
 20
16.3390002371
 10
19.3657243171
 20
16.2874207624
 10
19.399144889
 20
16.2352753977
 10
19.4319088607
 20
16.1825782884
 10
19.4639975583
 20
16.1293607324
 10
19.4953946952
 20
16.0756514892
 10
19.5260860394
 20
16.0214768926
 10
19.556060973
 20
15.9668575123
 10
19.5853090067
 20
15.911813833
 10
19.6138176106
 20
15.8563705261
 10
19.6415755475
 20
15.8005503474
 10
19.6685742297
 20
15.7443709051
 10
19.6948028909
 20
15.6878543104
 10
19.7202493737
 20
15.6310262236
 10
19.7449030798
 20
15.573909552
 10
19.768753599
 20
15.5165272489
 10
19.7917898016
 20
15.4589046253
 10
19.8140004708
 20
15.4010681467
 10
19.8353729366
 20
15.3430494526
 10
19.8559002872
 20
15.2848656002
 10
19.8755796108
 20
15.2265209499
 10
19.89440639
 20
15.1680218892
 10
19.9123645664
 20
15.1094106248
 10
19.9294349938
 20
15.050745071
 10
19.9456028645
 20
14.9920756177
 10
19.9608683213
 20
14.9334007946
 10
19.9752345934
 20
14.874700465
 10
19.9886987843
 20
14.8159708493
 10
20.0012448547
 20
14.7572646462
 10
20.012856597
 20
14.6986459425
 10
20.0235235025
 20
14.6401618313
 10
20.0332440482
 20
14.5818134505
 10
20.0420164327
 20
14.5235954002
 10
20.0498355663
 20
14.465515155
 10
20.0566917918
 20
14.4076137722
 10
20.0625764609
 20
14.3499356015
 10
20.0674838796
 20
14.2925069927
 10
20.0714090642
 20
14.2353490443
 10
20.0743464669
 20
14.1784969755
 10
20.0762916159
 20
14.1219839324
 10
20.0772411134
 20
14.0658229648
 10
20.0771909803
 20
14.0100184191
 10
20.076135667
 20
13.95455999
 10
20.0740704804
 20
13.8995049586
 10
20.0709964637
 20
13.8449565139
 10
20.0669180382
 20
13.790982334
 10
20.0618335679
 20
13.7375551284
 10
20.0557362002
 20
13.6846342703
 10
20.0486139745
 20
13.6321774265
 10
20.0404714186
 20
13.5802724078
 10
20.0313307846
 20
13.5290702905
 10
20.0212105603
 20
13.4786487113
 10
20.0101061119
 20
13.4289622105
 10
19.9980095416
 20
13.3799737534
 10
19.9849100261
 20
13.3316536762
 10
19.9708222489
 20
13.2840700337
 10
19.9557791505
 20
13.2373299094
 10
19.9397974623
 20
13.1914684274
 10
19.9228797195
 20
13.1464775544
 10
19.9050450053
 20
13.1023937841
 10
19.8863089891
 20
13.0592391914
 10
19.866679172
 20
13.0170155981
 10
19.8461638834
 20
12.9757282028
 10
19.8247550215
 20
12.9353531647
 10
19.8024827193
 20
12.895940323
 10
19.7794199097
 20
12.8575993044
 10
19.755627008
 20
12.8203969312
 10
19.7310861819
 20
12.7842731058
 10
19.7057544807
 20
12.7491470865
 10
19.6796145562
 20
12.7149893773
 10
19.6527114747
 20
12.6818535959
 10
19.6250938053
 20
12.6497874582
 10
19.5967966417
 20
12.6188150057
 10
19.5678245196
 20
12.5889248909
 10
19.5381832365
 20
12.5601098736
 10
19.5078951947
 20
12.5323797274
 10
19.4769779509
 20
12.5057386726
 10
19.4454287373
 20
12.4801746016
 10
19.4132594371
 20
12.4556897881
 10
19.3804979344
 20
12.4322980644
 10
19.3471649162
 20
12.4100062191
  0
LWPOLYLINE
  5
481
100
AcDbEntity
  8
RACCORDO
100
AcDbPolyline
 62
250
  6
CONTINUOUS
 90
105
 70
0
 10
18.4319881296
 20
17.2080010376
 10
18.4465308742
 20
17.1962978305
 10
18.4885859344
 20
17.1613051257
 10
18.5303935654
 20
17.1253629518
 10
18.571935501
 20
17.0884870123
 10
18.6131935969
 20
17.0506934138
 10
18.6541498433
 20
17.0119986546
 10
18.6947863607
 20
16.9724196269
 10
18.7350854058
 20
16.9319736124
 10
18.7750293816
 20
16.890678272
 10
18.8146008497
 20
16.8485516341
 10
18.8537825351
 20
16.8056120885
 10
18.8925573253
 20
16.7618783887
 10
18.9309082801
 20
16.7173696414
 10
18.9688186458
 20
16.6721052914
 10
19.0062718776
 20
16.626105094
 10
19.0432516365
 20
16.5793891164
 10
19.0797417868
 20
16.5319777414
 10
19.115726383
 20
16.4838916851
 10
19.1511896926
 20
16.4351519709
 10
19.1861162168
 20
16.385779902
 10
19.2204907204
 20
16.335797017
 10
19.2542982177
 20
16.2852251063
 10
19.2875239624
 20
16.2340862254
 10
19.3201534291
 20
16.1824027285
 10
19.3521723438
 20
16.1301972247
 10
19.3835667088
 20
16.0774925403
 10
19.414322835
 20
16.0243116595
 10
19.4444273207
 20
15.9706777555
 10
19.473867038
 20
15.9166142128
 10
19.5026291123
 20
15.8621446708
 10
19.5307009567
 20
15.8072929666
 10
19.558070297
 20
15.7520830881
 10
19.5847252024
 20
15.6965391067
 10
19.6106540611
 20
15.6406852192
 10
19.6358455672
 20
15.5845457748
 10
19.6602887019
 20
15.5281453243
 10
19.683972767
 20
15.4715085531
 10
19.7068874065
 20
15.4146602307
 10
19.7290226327
 20
15.3576251414
 10
19.7503688028
 20
15.300428131
 10
19.7709166084
 20
15.2430941356
 10
19.7906570618
 20
15.1856482281
 10
19.8095815237
 20
15.1281155483
 10
19.827681721
 20
15.0705212544
 10
19.8449497636
 20
15.0128904583
 10
19.8613781275
 20
14.9552482714
 10
19.8769596469
 20
14.8976198294
 10
19.8916875073
 20
14.8400303292
 10
19.9055552656
 20
14.7825049644
 10
19.9185568612
 20
14.7250688827
 10
19.9306866251
 20
14.6677471338
 10
19.9419392698
 20
14.610564706
 10
19.9523098852
 20
14.5535465437
 10
19.9617939371
 20
14.4967175683
 10
19.9703872788
 20
14.4401026268
 10
19.9780861564
 20
14.3837264584
 10
19.9848872117
 20
14.3276136604
 10
19.9907874782
 20
14.2717887105
 10
19.99578438
 20
14.216275972
 10
19.9998757335
 20
14.1610996972
 10
20.0030597508
 20
14.106283993
 10
20.0053350419
 20
14.0518528006
 10
20.0067006138
 20
13.9978298807
 10
20.0071558705
 20
13.9442388174
 10
20.0067006132
 20
13.8911030113
 10
20.0053350408
 20
13.8384456638
 10
20.0030597491
 20
13.7862897628
 10
19.9998757312
 20
13.7346580763
 10
19.9957843771
 20
13.6835731551
 10
19.9907874747
 20
13.6330573188
 10
19.9848872077
 20
13.5831326358
 10
19.9780861518
 20
13.5338208937
 10
19.9703872737
 20
13.4851436033
 10
19.9617939314
 20
13.4371220039
 10
19.9523098789
 20
13.3897770808
 10
19.941939263
 20
13.3431295343
 10
19.9306866177
 20
13.2971997517
 10
19.9185568532
 20
13.2520077671
 10
19.9055552571
 20
13.2075732815
 10
19.8916874982
 20
13.1639156757
 10
19.8769596373
 20
13.1210540365
 10
19.8613781174
 20
13.0790071145
 10
19.8449497529
 20
13.0377932919
 10
19.8276817097
 20
12.9974305388
 10
19.8095815119
 20
12.9579364427
 10
19.7906570495
 20
12.9193282256
 10
19.7709165958
 20
12.8816227722
 10
19.7503687896
 20
12.8448365833
 10
19.7290226189
 20
12.8089857434
 10
19.7068873921
 20
12.7740858806
 10
19.683972752
 20
12.7401521983
 10
19.6602886866
 20
12.7071994929
 10
19.6358455516
 20
12.6752421782
 10
19.6106540451
 20
12.6442942408
 10
19.5847251858
 20
12.6143692124
 10
19.5580702797
 20
12.5854801367
 10
19.5307009388
 20
12.5576395991
 10
19.5026290941
 20
12.5308597402
 10
19.4738670197
 20
12.5051522736
 10
19.4444273022
 20
12.4805284491
 10
19.4143228159
 20
12.4569990313
 10
19.3835666889
 20
12.4345742772
 10
19.3521723233
 20
12.4132639583
 10
19.3471649167
 20
12.4100062194
  0
LWPOLYLINE
  5
482
100
AcDbEntity
  8
RACCORDO
100
AcDbPolyline
 62
250
  6
CONTINUOUS
 90
28
 70
0
 10
17.6013551162
 20
19.3163418785
 10
17.5867456157
 20
19.3413361977
 10
17.5717151846
 20
19.3659976988
 10
17.5562765361
 20
19.3903055224
 10
17.5404427286
 20
19.4142391085
 10
17.5242271548
 20
19.4377782131
 10
17.5076435302
 20
19.4609029263
 10
17.4907058818
 20
19.4835936887
 10
17.4734285359
 20
19.5058313076
 10
17.4558261062
 20
19.5275969739
 10
17.4379134812
 20
19.5488722775
 10
17.419705812
 20
19.5696392233
 10
17.4012184992
 20
19.589880246
 10
17.3824671798
 20
19.6095782251
 10
17.3634677143
 20
19.6287164995
 10
17.3442361728
 20
19.6472788816
 10
17.3247888221
 20
19.6652496708
 10
17.3051421111
 20
19.6826136668
 10
17.2853126577
 20
19.6993561827
 10
17.2653172341
 20
19.7154630573
 10
17.245172753
 20
19.7309206668
 10
17.2248962533
 20
19.7457159368
 10
17.2045048853
 20
19.7598363531
 10
17.1840158966
 20
19.7732699722
 10
17.1634466174
 20
19.7860054315
 10
17.1428144457
 20
19.7980319591
 10
17.1221368329
 20
19.8093393826
 10
17.1014312686
 20
19.8199181378
  0
LINE
  5
483
100
AcDbEntity
  8
RACCORDO
100
AcDbLine
 62
250
  6
CONTINUOUS
 10
17.6013551162
 20
19.3163418785
 11
17.7371774543
 21
19.0820829974
  0
LWPOLYLINE
  5
484
100
AcDbEntity
  8
RACCORDO
100
AcDbPolyline
 62
250
  6
CONTINUOUS
 90
37
 70
0
 10
17.7371774543
 20
19.0820829974
 10
17.7588582621
 20
19.0443443258
 10
17.7800470622
 20
19.0062760784
 10
17.8007337309
 20
18.9678963475
 10
17.8209083111
 20
18.9292234245
 10
17.8405612441
 20
18.8902756422
 10
17.859683364
 20
18.8510713609
 10
17.8782655941
 20
18.8116291026
 10
17.8962989924
 20
18.771967725
 10
17.9137749827
 20
18.7321062617
 10
17.9306852084
 20
18.6920637317
 10
17.9470216195
 20
18.6518591091
 10
17.96277651
 20
18.6115114927
 10
17.9779423745
 20
18.5710400726
 10
17.9925119722
 20
18.5304640936
 10
18.0064784148
 20
18.489802826
 10
18.0198350634
 20
18.4490755861
 10
18.0325755348
 20
18.408301772
 10
18.0446937633
 20
18.367500826
 10
18.0561839906
 20
18.3266921651
 10
18.0670407423
 20
18.2858952015
 10
18.077258835
 20
18.2451293787
 10
18.0868334187
 20
18.2044141299
 10
18.0957599486
 20
18.1637687985
 10
18.1040341623
 20
18.1232126592
 10
18.1116521473
 20
18.0827650215
 10
18.1186102891
 20
18.0424451349
 10
18.1249052402
 20
18.0022721102
 10
18.130534045
 20
17.9622650192
 10
18.1354940307
 20
17.9224429683
 10
18.1397827578
 20
17.882825003
 10
18.1433982208
 20
17.8434301083
 10
18.1463387458
 20
17.8042769251
 10
18.148602871
 20
17.7653838284
 10
18.1501895173
 20
17.7267692574
 10
18.151098001
 20
17.6884517023
 10
18.15132793
 20
17.6504494227
  0
LWPOLYLINE
  5
485
100
AcDbEntity
  8
RACCORDO
100
AcDbPolyline
 62
250
  6
CONTINUOUS
 90
26
 70
0
 10
17.5363041491
 20
19.8422814674
 10
17.5292548529
 20
19.8457144756
 10
17.5140021432
 20
19.8525348986
 10
17.4984334821
 20
19.8586826286
 10
17.4825604461
 20
19.8641530945
 10
17.4663948379
 20
19.8689422285
 10
17.4499486777
 20
19.8730464696
 10
17.4332341945
 20
19.876462766
 10
17.4162638165
 20
19.8791885774
 10
17.3990501624
 20
19.8812218771
 10
17.3816060319
 20
19.8825611531
 10
17.363944395
 20
19.8832054096
 10
17.3460783852
 20
19.8831541674
 10
17.3280212893
 20
19.8824074649
 10
17.3097865358
 20
19.8809658576
 10
17.2913876819
 20
19.8788304178
 10
17.2728384062
 20
19.876002733
 10
17.2541524882
 20
19.8724849033
 10
17.235343835
 20
19.868279546
 10
17.2164264698
 20
19.8633897986
 10
17.1974144798
 20
19.8578193071
 10
17.1783219819
 20
19.8515722128
 10
17.1591631501
 20
19.8446531561
 10
17.1399522224
 20
19.8370672801
 10
17.120703491
 20
19.8288202294
 10
17.1014312686
 20
19.8199181378
  0
LWPOLYLINE
  5
486
100
AcDbEntity
  8
RACCORDO
100
AcDbPolyline
 62
250
  6
CONTINUOUS
 90
24
 70
0
 10
3.9515631675
 20
26.3948521884
 10
3.9311444085
 20
26.4048355948
 10
3.9107324821
 20
26.4140729409
 10
3.8903446534
 20
26.4225564135
 10
3.8699981668
 20
26.430278837
 10
3.8497102321
 20
26.4372336797
 10
3.8294980094
 20
26.4434150588
 10
3.8093785946
 20
26.448817746
 10
3.7893690055
 20
26.4534371716
 10
3.7694861666
 20
26.4572694283
 10
3.7497468953
 20
26.4603112747
 10
3.7301678879
 20
26.4625601379
 10
3.7107657046
 20
26.4640141157
 10
3.6915567565
 20
26.4646719785
 10
3.6725572909
 20
26.4645331696
 10
3.6537833782
 20
26.4635978065
 10
3.6352508979
 20
26.4618666804
 10
3.6169755252
 20
26.4593412555
 10
3.5989727181
 20
26.4560236679
 10
3.5812577037
 20
26.4519167237
 10
3.5638454659
 20
26.4470238966
 10
3.5467507325
 20
26.4413493252
 10
3.5299879626
 20
26.4348978092
 10
3.512678417
 20
26.4272551234
  0
LINE
  5
487
100
AcDbEntity
  8
RACCORDO
100
AcDbLine
 62
250
  6
CONTINUOUS
 10
16.5690334107
 20
20.0861170668
 11
17.1014312686
 21
19.8199181378
  0
LINE
  5
488
100
AcDbEntity
  8
RACCORDO
100
AcDbLine
 62
250
  6
CONTINUOUS
 10
11.9085822279
 20
22.4163426582
 11
9.1444122082
 21
23.798427668
  0
LINE
  5
489
100
AcDbEntity
  8
RACCORDO
100
AcDbLine
 62
250
  6
CONTINUOUS
 10
4.4839610254
 20
26.1286532594
 11
3.9515631675
 21
26.3948521884
  0
LINE
  5
48A
100
AcDbEntity
  8
RACCORDO
100
AcDbLine
 62
7
  6
CONTINUOUS
 10
16.9157395215
 20
20.1525637813
 11
17.5363041491
 21
19.8422814674
  0
LINE
  5
48B
100
AcDbEntity
  8
RACCORDO
100
AcDbLine
 62
7
  6
CONTINUOUS
 10
12.4316218782
 20
22.3946226029
 11
9.491118319
 21
23.8648743825
  0
LINE
  5
48C
100
AcDbEntity
  8
RACCORDO
100
AcDbLine
 62
7
  6
CONTINUOUS
 10
5.0070006757
 20
26.1069332042
 11
4.386436048
 21
26.417215518
  0
LWPOLYLINE
  5
48D
100
AcDbEntity
  8
RACCORDO
100
AcDbPolyline
 62
250
  6
CONTINUOUS
 90
34
 70
0
 10
18.0900206864
 20
19.2151813837
 10
18.0890635512
 20
19.2164424568
 10
18.0871908211
 20
19.2178582182
 10
18.0846777587
 20
19.2188995111
 10
18.0815262301
 20
19.2195655625
 10
18.0777385758
 20
19.2198558776
 10
18.0733176084
 20
19.219770241
 10
18.068266611
 20
19.219308716
 10
18.0625893345
 20
19.2184716456
 10
18.0562899949
 20
19.2172596514
 10
18.04937327
 20
19.2156736332
 10
18.0418442964
 20
19.213714769
 10
18.0337086649
 20
19.2113845135
 10
18.0249724173
 20
19.2086845969
 10
18.0156420411
 20
19.2056170244
 10
18.005724465
 20
19.202184074
 10
17.995227054
 20
19.1983882949
 10
17.9841576034
 20
19.1942325059
 10
17.9725243336
 20
19.1897197931
 10
17.9603358833
 20
19.1848535078
 10
17.9476013039
 20
19.1796372635
 10
17.9343300521
 20
19.174074934
 10
17.9205319831
 20
19.1681706499
 10
17.9062173437
 20
19.1619287957
 10
17.8913967637
 20
19.1553540066
 10
17.8760812492
 20
19.1484511652
 10
17.8602821735
 20
19.1412253974
 10
17.844011269
 20
19.1336820693
 10
17.8272806187
 20
19.1258267825
 10
17.8101026467
 20
19.1176653704
 10
17.7924901097
 20
19.1092038937
 10
17.7744560866
 20
19.1004486359
 10
17.7560139698
 20
19.0914060988
 10
17.7371774543
 20
19.0820829974
  0
LWPOLYLINE
  5
48E
100
AcDbEntity
  8
RACCORDO
100
AcDbPolyline
 62
250
  6
CONTINUOUS
 90
34
 70
0
 10
17.9541983649
 20
19.449440236
 10
17.9532412128
 20
19.4507013383
 10
17.9513684825
 20
19.4521170996
 10
17.94885542
 20
19.4531583925
 10
17.9457038913
 20
19.4538244438
 10
17.9419162369
 20
19.4541147589
 10
17.9374952694
 20
19.4540291221
 10
17.9324442719
 20
19.4535675972
 10
17.9267669953
 20
19.4527305267
 10
17.9204676556
 20
19.4515185324
 10
17.9135509307
 20
19.4499325142
 10
17.9060219569
 20
19.4479736499
 10
17.8978863255
 20
19.4456433943
 10
17.8891500778
 20
19.4429434777
 10
17.8798197015
 20
19.4398759052
 10
17.8699021254
 20
19.4364429547
 10
17.8594047144
 20
19.4326471755
 10
17.8483352638
 20
19.4284913865
 10
17.8367019939
 20
19.4239786738
 10
17.8245135437
 20
19.4191123884
 10
17.8117789643
 20
19.4138961442
 10
17.7985077125
 20
19.4083338147
 10
17.7847096437
 20
19.4024295306
 10
17.7703950042
 20
19.3961876763
 10
17.7555744244
 20
19.3896128873
 10
17.7402589099
 20
19.3827100459
 10
17.7244598343
 20
19.3754842782
 10
17.7081889299
 20
19.3679409501
 10
17.6914582797
 20
19.3600856633
 10
17.6742803079
 20
19.3519242512
 10
17.656667771
 20
19.3434627746
 10
17.6386337481
 20
19.3347075169
 10
17.6201916314
 20
19.3256649799
 10
17.6013551162
 20
19.3163418785
  0
LINE
  5
48F
100
AcDbEntity
  8
RACCORDO
100
AcDbLine
 62
7
  6
CONTINUOUS
 10
17.9541983649
 20
19.449440236
 11
18.0900207031
 21
19.2151813548
  0
ARC
  5
490
100
AcDbEntity
  8
RACCORDO
100
AcDbCircle
 62
7
  6
CONTINUOUS
 10
3.9392224525
 20
25.522788327
 40
1.0
100
AcDbArc
 50
63.4349373369
 51
115.2504241015
  0
ARC
  5
491
100
AcDbEntity
  8
RACCORDO
100
AcDbCircle
 62
7
  6
CONTINUOUS
 10
17.0890905536
 20
18.9478542764
 40
1.0
100
AcDbArc
 50
30.1049818266
 51
63.4349150214
  0
ARC
  5
492
100
AcDbEntity
  8
RACCORDO
100
AcDbCircle
 62
7
  6
CONTINUOUS
 10
17.4319881296
 20
-4.0884945939
 40
1.0
100
AcDbArc
 50
298.3477792501
 51
0.0000847913
  0
ARC
  5
493
100
AcDbEntity
  8
RACCORDO
100
AcDbCircle
 62
7
  6
CONTINUOUS
 10
10.2797457366
 20
-16.555373437
 40
1.0
100
AcDbArc
 50
297.8702635617
 51
305.9325291988
  0
ARC
  5
494
100
AcDbEntity
  8
0
100
AcDbCircle
 62
7
  6
CONTINUOUS
 10
1.7782993936
 20
-25.730845098
 40
0.25
100
AcDbArc
 50
359.9569889429
 51
63.4349488229
  0
ARC
  5
495
100
AcDbEntity
  8
0
100
AcDbCircle
 62
7
  6
CONTINUOUS
 10
1.7782993936
 20
15.5687590413
 40
0.25
100
AcDbArc
 50
320.5925343592
 51
359.9975470757
  0
ARC
  5
496
100
AcDbEntity
  8
0
100
AcDbCircle
 62
7
  6
CONTINUOUS
 10
-0.3491916903
 20
14.5111842398
 40
0.25
100
AcDbArc
 50
243.4343157743
 51
258.2056474496
  0
ARC
  5
497
100
AcDbEntity
  8
0
100
AcDbCircle
 62
7
  6
CONTINUOUS
 10
-2.0277297608
 20
15.350453275
 40
0.25
100
AcDbArc
 50
179.9936221035
 51
243.463610595
  0
ARC
  5
498
100
AcDbEntity
  8
0
100
AcDbCircle
 62
7
  6
CONTINUOUS
 10
-10.5253585991
 20
21.7205880377
 40
0.25
100
AcDbArc
 50
320.5925343592
 51
359.9975470757
  0
ARC
  5
499
100
AcDbEntity
  8
0
100
AcDbCircle
 62
7
  6
CONTINUOUS
 10
-12.652849683
 20
20.6630132361
 40
0.25
100
AcDbArc
 50
243.4329145254
 51
258.2060367178
  0
ARC
  5
49A
100
AcDbEntity
  8
0
100
AcDbCircle
 62
7
  6
CONTINUOUS
 10
-14.3313877534
 20
21.5022822713
 40
0.25
100
AcDbArc
 50
179.9569889429
 51
243.4349488229
  0
ARC
  5
49B
100
AcDbEntity
  8
0
100
AcDbCircle
 62
7
  6
CONTINUOUS
 10
-14.3313877534
 20
21.8422562054
 40
0.25
100
AcDbArc
 50
117.1586821941
 51
179.9961222374
  0
ARC
  5
49C
100
AcDbEntity
  8
0
100
AcDbCircle
 62
7
  6
CONTINUOUS
 10
0.0874198424
 20
16.7617303337
 40
0.25
100
AcDbArc
 50
63.3939681258
 51
115.9721801256
  0
ARC
  5
49D
100
AcDbEntity
  8
0
100
AcDbCircle
 62
7
  6
CONTINUOUS
 10
-2.0277297608
 20
15.6904272091
 40
0.25
100
AcDbArc
 50
117.1586821941
 51
179.9961222374
  0
ARC
  5
49E
100
AcDbEntity
  8
0
100
AcDbCircle
 62
7
  6
CONTINUOUS
 10
1.7782993936
 20
15.9162905581
 40
0.25
100
AcDbArc
 50
0.0057333847
 51
63.4349488229
  0
ARC
  5
49F
100
AcDbEntity
  8
0
100
AcDbCircle
 62
7
  6
CONTINUOUS
 10
1.7782993936
 20
-26.0783766148
 40
0.25
100
AcDbArc
 50
297.114238938
 51
359.9691465041
  0
ARC
  5
4A0
100
AcDbEntity
  8
0
100
AcDbCircle
 62
7
  6
CONTINUOUS
 10
-12.2162381502
 20
22.91355933
 40
0.25
100
AcDbArc
 50
63.4349488229
 51
116.0140441013
  0
ARC
  5
4A1
100
AcDbEntity
  8
0
100
AcDbCircle
 62
7
  6
CONTINUOUS
 10
-10.5253585991
 20
22.0681195544
 40
0.25
100
AcDbArc
 50
0.0057333847
 51
63.4349488229
  0
ARC
  5
4A2
100
AcDbEntity
  8
0
100
AcDbCircle
 62
7
  6
CONTINUOUS
 10
-0.3491916903
 20
-27.1283938338
 40
0.25
100
AcDbArc
 50
243.4349488229
 51
296.0140441013
  0
ARC
  5
4A3
100
AcDbEntity
  8
0
100
AcDbCircle
 62
7
  6
CONTINUOUS
 10
-5.1110467278
 20
18.2310580744
 40
0.2
100
AcDbArc
 50
117.296276241
 51
180.0
  0
ELLIPSE
  5
4A4
100
AcDbEntity
  8
RACCORDO
100
AcDbEllipse
 62
7
  6
CONTINUOUS
 10
-0.9410945476
 20
11.8380290542
 30
0.0
 11
-0.2235482059
 21
0.4472467618
 31
0.0
 40
0.6127837007
 41
-2.2550219623
 42
-0.6849108682
  0
ELLIPSE
  5
4A5
100
AcDbEntity
  8
RACCORDO
100
AcDbEllipse
 62
7
  6
CONTINUOUS
 10
-0.9410945476
 20
-25.5739715223
 30
0.0
 11
-0.2238185272
 21
0.4474870472
 31
0.0
 40
0.6119614214
 41
-3.1701059984
 42
-2.2560086979
  0
ELLIPSE
  5
4A6
100
AcDbEntity
  8
RACCORDO
100
AcDbEllipse
 62
7
  6
CONTINUOUS
 10
-15.7900945616
 20
19.2625290612
 30
0.0
 11
-0.2238185272
 21
0.4474870472
 31
0.0
 40
0.6119614214
 41
-0.6845271385
 42
0.028513344
  0
ELLIPSE
  5
4A7
100
AcDbEntity
  8
0
100
AcDbEllipse
 62
7
  6
CONTINUOUS
 10
-3.5617700797
 20
22.6757642291
 30
0.0
 11
0.2257019663
 21
0.4461636818
 31
0.0
 40
0.6159267166
 41
0.5882567743
 42
0.6817883054
  0
ELLIPSE
  5
4A8
100
AcDbEntity
  8
RACCORDO
100
AcDbEllipse
 62
7
  6
CONTINUOUS
 10
7.5684208719
 20
17.804580806
 30
0.0
 11
0.499996712
 21
0.0035883639
 31
0.0
 40
0.5053247124
 41
-0.7715714568
 42
-0.0036265893
  0
ELLIPSE
  5
4A9
100
AcDbEntity
  8
0
100
AcDbEllipse
 62
7
  6
CONTINUOUS
 10
-4.2005245865
 20
18.6786775598
 30
0.0
 11
-0.0909679979
 21
0.1781462259
 31
0.0
 40
0.6079022756
 41
-0.6898048156
 42
-0.0128425411
  0
ELLIPSE
  5
4AA
100
AcDbEntity
  8
0
100
AcDbEllipse
 62
7
  6
CONTINUOUS
 10
4.1479492107
 20
19.4594832826
 30
0.0
 11
0.4547905863
 21
0.8906238433
 31
0.0
 40
0.6079814556
 41
0.0051544747
 42
0.6840559135
  0
ELLIPSE
  5
4AB
100
AcDbEntity
  8
ASSI
100
AcDbEllipse
 62
7
  6
CONTINUOUS
 10
-3.7627512007
 20
23.4148334883
 30
0.0
 11
1.004787277
 21
0.6140102217
 31
0.0
 40
0.0864918533
 41
0.054007136
 42
0.7329085821
  0
ELLIPSE
  5
4AC
100
AcDbEntity
  8
ASSI
100
AcDbEllipse
 62
7
  6
CONTINUOUS
 10
7.8205014584
 20
-19.3318062659
 30
0.0
 11
0.9927147821
 21
0.620457446
 31
0.0
 40
0.0764819879
 41
-2.4043514965
 42
-1.3666868807
  0
ELLIPSE
  5
4AD
100
AcDbEntity
  8
ASSI
100
AcDbEllipse
 62
7
  6
CONTINUOUS
 10
26.2307325777
 20
-8.8583158872
 30
0.0
 11
24.0955625974
 21
12.2610436036
 31
0.0
 40
0.0085648092
 41
-2.9166229256
 42
-2.803161766
  0
ELLIPSE
  5
4AE
100
AcDbEntity
  8
ASSI
100
AcDbEllipse
 62
7
  6
CONTINUOUS
 10
26.2307325777
 20
21.7989834067
 30
0.0
 11
24.0955625974
 21
12.2610436036
 31
0.0
 40
0.0085648092
 41
2.794445403
 42
2.9079065627
  0
ELLIPSE
  5
4AF
100
AcDbEntity
  8
ASSI
100
AcDbEllipse
 62
7
  6
CONTINUOUS
 10
26.2307325777
 20
21.1061630837
 30
0.0
 11
24.0955625974
 21
12.2610436036
 31
0.0
 40
0.0085648092
 41
-2.9166229256
 42
-2.803161766
  0
ELLIPSE
  5
4B0
100
AcDbEntity
  8
ASSI
100
AcDbEllipse
 62
7
  6
CONTINUOUS
 10
26.2307325777
 20
-8.1654955642
 30
0.0
 11
24.0955625974
 21
12.2610436036
 31
0.0
 40
0.0085648092
 41
2.794445403
 42
2.9079065627
  0
ELLIPSE
  5
4B1
100
AcDbEntity
  8
0
100
AcDbEllipse
 62
7
  6
CONTINUOUS
 10
2.4823102465
 20
-24.2171823859
 30
0.0
 11
-0.2236315662
 21
0.4472293059
 31
0.0
 40
0.6123445654
 41
-3.1338271467
 42
-2.2555748796
  0
ELLIPSE
  5
4B2
100
AcDbEntity
  8
0
100
AcDbEllipse
 62
7
  6
CONTINUOUS
 10
2.4823102465
 20
13.7046388669
 30
0.0
 11
-0.223611546
 21
0.4472115081
 31
0.0
 40
0.6124054886
 41
-2.2555017776
 42
-0.6847562194
  0
ELLIPSE
  5
4B3
100
AcDbEntity
  8
0
100
AcDbEllipse
 62
7
  6
CONTINUOUS
 10
-5.9097077235
 20
19.5332691283
 30
0.0
 11
-0.090948378
 21
0.1781282571
 31
0.0
 40
0.6080538059
 41
-2.2606249166
 42
-0.6898793584
  0
ELLIPSE
  5
4B4
100
AcDbEntity
  8
0
100
AcDbEllipse
 62
7
  6
CONTINUOUS
 10
2.0502037163
 20
19.8697773311
 30
0.0
 11
0.2273952932
 21
0.4453119217
 31
0.0
 40
0.6079814556
 41
0.2357074224
 42
0.6840559135
  0
ELLIPSE
  5
4B5
100
AcDbEntity
  8
ASSI
100
AcDbEllipse
 62
7
  6
CONTINUOUS
 10
7.5684208719
 20
-19.5886155962
 30
0.0
 11
0.499443764
 21
0.3120915671
 31
0.0
 40
0.0755486457
 41
-0.0471742161
 42
0.720771186
  0
ELLIPSE
  5
4B6
100
AcDbEntity
  8
0
100
AcDbEllipse
 62
7
  6
CONTINUOUS
 10
-5.1110467278
 20
17.0065210164
 30
0.0
 11
0.199943508
 21
0.008945986
 31
0.0
 40
0.5313301283
 41
3.1178240564
 42
3.9032222197
  0
ELLIPSE
  5
4B7
100
AcDbEntity
  8
0
100
AcDbEllipse
 62
7
  6
CONTINUOUS
 10
-6.8118162693
 20
17.8569057872
 30
0.0
 11
0.199943508
 21
0.008945986
 31
0.0
 40
0.5313301283
 41
-2.3799630874
 42
-0.8178934069
  0
ELLIPSE
  5
4B8
100
AcDbEntity
  8
0
100
AcDbEllipse
 62
7
  6
CONTINUOUS
 10
-1.3247368065
 20
14.3984974688
 30
0.0
 11
0.249929385
 21
0.0111824824
 31
0.0
 40
0.5313301283
 41
3.1178240551
 42
3.9032222197
  0
ELLIPSE
  5
4B9
100
AcDbEntity
  8
0
100
AcDbEllipse
 62
7
  6
CONTINUOUS
 10
-2.9422009269
 20
22.3659796527
 30
0.0
 11
0.2197467797
 21
0.4491356978
 31
0.0
 40
0.6167074461
 41
0.2252343201
 42
0.6735828111
  0
ELLIPSE
  5
4BA
100
AcDbEntity
  8
0
100
AcDbEllipse
 62
7
  6
CONTINUOUS
 10
-3.2080180936
 20
64.4972537187
 30
0.0
 11
-0.3192264997
 21
45.1189143812
 31
0.0
 40
0.0071249215
 41
3.4474731796
 42
3.5350182695
  0
ELLIPSE
  5
4BB
100
AcDbEntity
  8
0
100
AcDbEllipse
 62
7
  6
CONTINUOUS
 10
-13.6283947991
 20
20.5503264651
 30
0.0
 11
0.249929385
 21
0.0111824824
 31
0.0
 40
0.5313301283
 41
3.1178240551
 42
3.9032222197
  0
ELLIPSE
  5
4BC
100
AcDbEntity
  8
0
100
AcDbEllipse
 62
7
  6
CONTINUOUS
 10
-11.9416290749
 20
19.706943603
 30
0.0
 11
0.249929385
 21
0.0111824824
 31
0.0
 40
0.5313301283
 41
-2.3799630874
 42
-0.8149845248
  0
ELLIPSE
  5
4BD
100
AcDbEntity
  8
0
100
AcDbEllipse
 62
7
  6
CONTINUOUS
 10
2.3824285194
 20
18.7840115426
 30
0.0
 11
0.4530414621
 21
-0.0021419047
 31
0.0
 40
0.4964289597
 41
-0.77723337
 42
0.0023470288
  0
ELLIPSE
  5
4BE
100
AcDbEntity
  8
0
100
AcDbEllipse
 62
7
  6
CONTINUOUS
 10
-2.4966449105
 20
20.9097172926
 30
0.0
 11
1.0205811965
 21
-0.0048251373
 31
0.0
 40
0.4964289597
 41
1.3061600176
 42
2.3584907469
  0
ELLIPSE
  5
4BF
100
AcDbEntity
  8
0
100
AcDbEllipse
 62
7
  6
CONTINUOUS
 10
-3.2080180936
 20
21.5792348491
 30
0.0
 11
0.4530414621
 21
-0.0021419047
 31
0.0
 40
0.4964289597
 41
-0.4806702637
 42
0.0023470293
  0
ELLIPSE
  5
4C0
100
AcDbEntity
  8
0
100
AcDbEllipse
 62
7
  6
CONTINUOUS
 10
-14.3220791074
 20
20.2754383618
 30
0.0
 11
-0.2234618187
 21
0.4480306886
 31
0.0
 40
0.6116748051
 41
-0.6831523234
 42
0.886730614
  0
ELLIPSE
  5
4C1
100
AcDbEntity
  8
0
100
AcDbEllipse
 62
7
  6
CONTINUOUS
 10
-8.4350710672
 20
19.8930702441
 30
0.0
 11
0.0907039967
 21
0.1782526758
 31
0.0
 40
0.6176975122
 41
0.6948951487
 42
2.2598737113
  0
ELLIPSE
  5
4C2
100
AcDbEntity
  8
0
100
AcDbEllipse
 62
7
  6
CONTINUOUS
 10
51.7727267986
 20
44.1335004189
 30
0.0
 11
60.4168605605
 21
30.5632322457
 31
0.0
 40
0.005706723
 41
2.5167363259
 42
2.6876789752
  0
ELLIPSE
  5
4C3
100
AcDbEntity
  8
0
100
AcDbEllipse
 62
7
  6
CONTINUOUS
 10
2.6697728691
 20
19.5599927547
 30
0.0
 11
0.221538876
 21
0.4482453432
 31
0.0
 40
0.6088015717
 41
0.5825560023
 42
0.6760875334
  0
ELLIPSE
  5
4C4
100
AcDbEntity
  8
0
100
AcDbEllipse
 62
7
  6
CONTINUOUS
 10
51.7727267986
 20
44.1335004189
 30
0.0
 11
60.4168605605
 21
30.5632322457
 31
0.0
 40
0.005706723
 41
-2.6934527084
 42
-2.5225100591
  0
ELLIPSE
  5
4C5
100
AcDbEntity
  8
0
100
AcDbEllipse
 62
7
  6
CONTINUOUS
 10
0.3620289178
 20
13.5551146067
 30
0.0
 11
0.249929385
 21
0.0111824824
 31
0.0
 40
0.5313301283
 41
-2.3799630874
 42
-0.8149845248
  0
ELLIPSE
  5
4C6
100
AcDbEntity
  8
ASSI
100
AcDbEllipse
 62
7
  6
CONTINUOUS
 10
7.5684208719
 20
18.8392038568
 30
0.0
 11
-0.3739417019
 21
0.598522373
 31
0.0
 40
0.554557473
 41
-3.1836090632
 42
-2.415663759
  0
ELLIPSE
  5
4C7
100
AcDbEntity
  8
0
100
AcDbEllipse
 62
7
  6
CONTINUOUS
 10
0.7021598354
 20
-25.0312459042
 30
0.0
 11
-0.2234618187
 21
0.4480306886
 31
0.0
 40
0.6116748051
 41
2.4584403302
 42
4.0283232676
  0
ELLIPSE
  5
4C8
100
AcDbEntity
  8
0
100
AcDbEllipse
 62
7
  6
CONTINUOUS
 10
0.7021598354
 20
12.7633188904
 30
0.0
 11
-0.2230998035
 21
0.4477110033
 31
0.0
 40
0.6127700112
 41
-2.2535417632
 42
-0.6836588258
  0
ELLIPSE
  5
4C9
100
AcDbEntity
  8
0
100
AcDbEllipse
 62
7
  6
CONTINUOUS
 10
-0.090198953
 20
21.5785573645
 30
0.0
 11
0.4394935595
 21
0.8982713957
 31
0.0
 40
0.6167074461
 41
5.3917895557
 42
6.9567681183
  0
ELLIPSE
  5
4CA
100
AcDbEntity
  8
ASSI
100
AcDbEllipse
 62
7
  6
CONTINUOUS
 10
7.8205014584
 20
17.6232071587
 30
0.0
 11
-0.7356038977
 21
1.2035991204
 31
0.0
 40
0.5552491559
 41
5.1980061968
 42
6.2356708126
  0
ELLIPSE
  5
4CB
100
AcDbEntity
  8
DRAFT
100
AcDbEllipse
 62
7
  6
CONTINUOUS
 10
3.2663119959
 20
22.0269739321
 30
0.0
 11
2.7499924258
 21
-0.0130015067
 31
0.0
 40
0.4964289597
 41
2.3672681657
 42
2.9293761837
  0
ELLIPSE
  5
4CC
100
AcDbEntity
  8
DRAFT
100
AcDbEllipse
 62
7
  6
CONTINUOUS
 10
10.6909331984
 20
18.3146633309
 30
0.0
 11
2.7499924258
 21
-0.0130015067
 31
0.0
 40
0.4964289597
 41
2.3672681657
 42
2.9293761949
  0
ELLIPSE
  5
4CD
100
AcDbEntity
  8
DRAFT
100
AcDbEllipse
 62
7
  6
CONTINUOUS
 10
11.3626846405
 20
18.2127398811
 30
0.0
 11
2.7583876426
 21
-0.0130411979
 31
0.0
 40
0.4964289597
 41
0.8884696282
 42
2.3585415194
  0
ELLIPSE
  5
4CE
100
AcDbEntity
  8
DRAFT
100
AcDbEllipse
 62
7
  6
CONTINUOUS
 10
11.3626846405
 20
18.2127398811
 30
0.0
 11
2.7583876426
 21
-0.0130411979
 31
0.0
 40
0.4964289597
 41
0.4412294433
 42
0.6870207571
  0
ELLIPSE
  5
4CF
100
AcDbEntity
  8
DRAFT
100
AcDbEllipse
 62
7
  6
CONTINUOUS
 10
3.9380634381
 20
21.9250504823
 30
0.0
 11
2.7583876426
 21
-0.0130411979
 31
0.0
 40
0.4964289597
 41
0.4412294433
 42
0.6870207571
  0
ELLIPSE
  5
4D0
100
AcDbEntity
  8
DRAFT
100
AcDbEllipse
 62
7
  6
CONTINUOUS
 10
3.9380634381
 20
21.9250504823
 30
0.0
 11
2.7583876426
 21
-0.0130411979
 31
0.0
 40
0.4964289597
 41
0.8884696282
 42
2.3585415194
  0
ELLIPSE
  5
4D1
100
AcDbEntity
  8
RACCORDO
100
AcDbEllipse
 62
7
  6
CONTINUOUS
 10
16.1483833446
 20
19.418207881
 30
0.0
 11
0.79574694
 21
0.7129684349
 31
0.0
 40
0.2882345029
 41
0.1134874791
 42
0.7807533904
  0
ELLIPSE
  5
4D2
100
AcDbEntity
  8
RACCORDO
100
AcDbEllipse
 62
7
  6
CONTINUOUS
 10
8.7237621421
 20
23.1305184822
 30
0.0
 11
0.79574694
 21
0.7129684349
 31
0.0
 40
0.2882345029
 41
0.1134874791
 42
0.7807533904
  0
ELLIPSE
  5
4D3
100
AcDbEntity
  8
RACCORDO
100
AcDbEllipse
 62
7
  6
CONTINUOUS
 10
12.250995274
 20
21.3669019163
 30
0.0
 11
0.4410298232
 21
0.8975092442
 31
0.0
 40
0.607010042
 41
-0.8902711325
 42
-0.7587130969
  0
ELLIPSE
  5
4D4
100
AcDbEntity
  8
RACCORDO
100
AcDbEllipse
 62
7
  6
CONTINUOUS
 10
4.8263740715
 20
25.0792125175
 30
0.0
 11
0.4410298232
 21
0.8975092442
 31
0.0
 40
0.607010042
 41
-0.8902711325
 42
-0.7587130969
  0
ELLIPSE
  5
4D5
100
AcDbEntity
  8
RACCORDO
100
AcDbEllipse
 62
7
  6
CONTINUOUS
 10
4.8799296616
 20
25.0524347225
 30
0.0
 11
-0.3106730325
 21
1.1082908718
 31
0.0
 40
0.6760995073
 41
4.9783291412
 42
6.4001141399
  0
ELLIPSE
  5
4D6
100
AcDbEntity
  8
RACCORDO
100
AcDbEllipse
 62
7
  6
CONTINUOUS
 10
12.304550864
 20
21.3401241212
 30
0.0
 11
-0.3106730325
 21
1.1082908718
 31
0.0
 40
0.6760995073
 41
4.9783291412
 42
6.4001141399
  0
ELLIPSE
  5
4D7
100
AcDbEntity
  8
RACCORDO
100
AcDbEllipse
 62
7
  6
CONTINUOUS
 10
2.1347257216
 20
10.9285490328
 30
0.0
 11
-0.894612936
 21
1.7887945813
 31
0.0
 40
0.6124635976
 41
4.0276245976
 42
4.1592894158
  0
ELLIPSE
  5
4D8
100
AcDbEntity
  8
RACCORDO
100
AcDbEllipse
 62
7
  6
CONTINUOUS
 10
2.1347257216
 20
10.9285490328
 30
0.0
 11
-0.894612936
 21
1.7887945813
 31
0.0
 40
0.6124635976
 41
-1.5634955031
 42
-1.470288718
  0
ELLIPSE
  5
4D9
100
AcDbEntity
  8
RACCORDO
100
AcDbEllipse
 62
7
  6
CONTINUOUS
 10
2.1347257216
 20
-19.6792944646
 30
0.0
 11
-0.894811907
 21
1.788971565
 31
0.0
 40
0.6123121697
 41
-3.0410143285
 42
-2.9478075435
  0
ELLIPSE
  5
4DA
100
AcDbEntity
  8
RACCORDO
100
AcDbEllipse
 62
7
  6
CONTINUOUS
 10
2.1347257216
 20
-19.6792944646
 30
0.0
 11
-0.894811907
 21
1.788971565
 31
0.0
 40
0.6123121697
 41
3.8957781521
 42
4.0274429702
  0
ELLIPSE
  5
4DB
100
AcDbEntity
  8
0
100
AcDbEllipse
 62
7
  6
CONTINUOUS
 10
10.6674001102
 20
19.5418755664
 30
0.0
 11
3.3022643479
 21
-0.04629945
 31
0.0
 40
0.4892378494
 41
2.3616770883
 42
5.5059722822
  0
ELLIPSE
  5
4DC
100
AcDbEntity
  8
RACCORDO
100
AcDbEllipse
 62
7
  6
CONTINUOUS
 10
-4.1035237796
 20
19.0842725539
 30
0.0
 11
1.2141619185
 21
0.9541526469
 31
0.0
 40
0.2329077568
 41
0.1095198182
 42
0.114024621
  0
ELLIPSE
  5
4DD
100
AcDbEntity
  8
DRAFT
100
AcDbEllipse
 62
7
  6
CONTINUOUS
 10
11.3626846405
 20
20.1932279937
 30
0.0
 11
2.7583515655
 21
-1.4175703156
 31
0.0
 40
0.0109499087
 41
-0.8804952881
 42
-0.85781018
  0
ELLIPSE
  5
4DE
100
AcDbEntity
  8
DRAFT
100
AcDbEllipse
 62
7
  6
CONTINUOUS
 10
3.9380634381
 20
23.9055385949
 30
0.0
 11
2.7583515655
 21
-1.4175703156
 31
0.0
 40
0.0109499087
 41
-0.7017315251
 42
-0.679046417
  0
ELLIPSE
  5
4DF
100
AcDbEntity
  8
DRAFT
100
AcDbEllipse
 62
7
  6
CONTINUOUS
 10
3.9380634381
 20
22.3580631842
 30
0.0
 11
2.7583876426
 21
-0.0130411979
 31
0.0
 40
0.4964289597
 41
0.1877225706
 42
2.3585415194
  0
ELLIPSE
  5
4E0
100
AcDbEntity
  8
DRAFT
100
AcDbEllipse
 62
7
  6
CONTINUOUS
 10
11.3626846405
 20
18.645752583
 30
0.0
 11
2.7583876426
 21
-0.0130411979
 31
0.0
 40
0.4964289597
 41
0.1877225706
 42
2.3585415194
  0
ELLIPSE
  5
4E1
100
AcDbEntity
  8
DRAFT
100
AcDbEllipse
 62
7
  6
CONTINUOUS
 10
3.9380634381
 20
23.9055385949
 30
0.0
 11
2.7583515655
 21
-1.4175703156
 31
0.0
 40
0.0109499087
 41
-0.8804952881
 42
-0.85781018
  0
ELLIPSE
  5
4E2
100
AcDbEntity
  8
DRAFT
100
AcDbEllipse
 62
7
  6
CONTINUOUS
 10
11.3626846405
 20
20.1932279937
 30
0.0
 11
2.7583515655
 21
-1.4175703156
 31
0.0
 40
0.0109499087
 41
-0.7017315251
 42
-0.679046417
  0
ELLIPSE
  5
4E3
100
AcDbEntity
  8
0
100
AcDbEllipse
 62
7
  6
CONTINUOUS
 10
3.2427789077
 20
23.2541861676
 30
0.0
 11
3.3022643479
 21
-0.04629945
 31
0.0
 40
0.4892378494
 41
2.3616770883
 42
5.5059722822
  0
ENDSEC
  0
SECTION
  2
OBJECTS
  0
DICTIONARY
  5
C
100
AcDbDictionary
280
0
281
1
  3
ACAD_GROUP
350
D
  3
ACAD_MLINESTYLE
350
17
  3
ACAD_LAYOUT
350
1A
  3
ACAD_PLOTSETTINGS
350
19
  3
ACAD_PLOTSTYLENAME
350
E
  0
DICTIONARY
  5
D
102
{ACAD_REACTORS
330
C
102
}
100
AcDbDictionary
280
0
281
1
  0
ACDBDICTIONARYWDFLT
  5
E
102
{ACAD_REACTORS
330
C
102
}
100
AcDbDictionary
281
1
  3
Normal
350
F
100
AcDbDictionaryWithDefault
340
F
  0
DICTIONARY
  5
17
102
{ACAD_REACTORS
330
C
102
}
100
AcDbDictionary
280
0
281
1
  3
Standard
350
18
  0
DICTIONARY
  5
19
102
{ACAD_REACTORS
330
C
102
}
100
AcDbDictionary
281
1
  0
DICTIONARY
  5
1A
102
{ACAD_REACTORS
330
C
102
}
100
AcDbDictionary
281
1
  3
Model
350
4E4
  3
Layout1
350
4E5
  0
ACDBPLACEHOLDER
  5
F
102
{ACAD_REACTORS
330
E
102
}
  0
MLINESTYLE
  5
18
102
{ACAD_REACTORS
330
17
102
}
100
AcDbMlineStyle
  2
STANDARD
 70
0
  3

 62
256
 51
90.0
 52
90.0
 71
2
 49
0.5
 62
256
  6
BYLAYER
 49
-0.5
 62
256
  6
BYLAYER
  0
LAYOUT
  5
4E4
102
{ACAD_REACTORS
330
1A
102
}
100
AcDbPlotSettings
  1

  2
none_device
  4
ANSI_C_(22.00_x_17.00_Inches)
  6

 40
0.0
 41
0.0
 42
0.0
 43
0.0
 44
558.8
 45
431.8
 46
0.0
 47
0.0
 48
0.0
 49
0.0
140
0.0
141
0.0
142
1.0
143
1.0
 70
1024
 72
1
 73
0
 74
0
  7

 75
0
147
1.0
148
0.0
149
0.0
100
AcDbLayout
  1
Model
 70
0
 71
0
 10
0.0
 20
0.0
 11
558.8
 21
431.8
 12
0.0
 22
0.0
 32
0.0
 14
0.0
 24
0.0
 34
0.0
 15
0.0
 25
0.0
 35
0.0
146
0.0
 13
0.0
 23
0.0
 33
0.0
 16
1.0
 26
0.0
 36
0.0
 17
0.0
 27
1.0
 37
0.0
 76
0
330
220
345
0
346
0
  0
LAYOUT
  5
4E5
102
{ACAD_REACTORS
330
1A
102
}
100
AcDbPlotSettings
  1

  2
none_device
  4
ANSI_C_(22.00_x_17.00_Inches)
  6

 40
0.0
 41
0.0
 42
0.0
 43
0.0
 44
558.8
 45
431.8
 46
0.0
 47
0.0
 48
0.0
 49
0.0
140
0.0
141
0.0
142
1.0
143
1.0
 70
0
 72
1
 73
0
 74
0
  7

 75
0
147
1.0
148
0.0
149
0.0
100
AcDbLayout
  1
Layout1
 70
0
 71
1
 10
0.0
 20
0.0
 11
558.8
 21
431.8
 12
0.0
 22
0.0
 32
0.0
 14
0.0
 24
0.0
 34
0.0
 15
0.0
 25
0.0
 35
0.0
146
0.0
 13
0.0
 23
0.0
 33
0.0
 16
1.0
 26
0.0
 36
0.0
 17
0.0
 27
1.0
 37
0.0
 76
0
330
221
345
0
346
0
  0
ENDSEC
  0
EOF
