  0
SECTION
  2
HEADER
  9
$ACADVER
  1
AC1024
  9
$DWGCODEPAGE
  3
ANSI_1252
  9
$EXTMAX
 10
279.4
 20
215.9
 30
0.0
  9
$EXTMIN
 10
0.0
 20
0.0
 30
0.0
  9
$LIMMIN
 10
0.0
 20
0.0
  9
$LIMMAX
 10
279.4
 20
215.9
  9
$VIEWCTR
 10
139.7
 20
107.95
  9
$VIEWSIZE
 40
215.9
  9
$CLAYER
  8
0
  9
$LTSCALE
 40
15.367
  9
$CELTYPE
  6
BYLAYER
  9
$DIMSCALE
 40
1.0
  9
$DIMASZ
 40
3.0
  9
$DIMEXO
 40
0.5
  9
$DIMDLI
 40
10.6172
  9
$DIMEXE
 40
1.5
  9
$DIMCEN
 40
2.5146
  9
$DIMLFAC
 40
1.0
  9
$DIMBLK
  1
_FILLED
  9
$DIMALT
 70
0
  9
$DIMALTF
 40
0.0393700787
  9
$DIMTXT
 40
3.0
  9
$DIMTOL
 70
1
  9
$DIMLIM
 70
0
  9
$DIMTFAC
 40
1.0
  9
$DIMTP
 40
0.01
  9
$DIMTM
 40
0.01
  9
$DIMGAP
 40
0.625
  9
$DIMDSEP
 70
44
  9
$AUNITS
 70
0
  9
$PDMODE
 70
3
  9
$PDSIZE
 40
3.0
  9
$HANDSEED
  5
5AD
  9
$TILEMODE
 70
1
  9
$MEASUREMENT
 70
1
  9
$INSUNITS
 70
4
  0
ENDSEC
  0
SECTION
  2
CLASSES
  0
CLASS
  1
ACDBDICTIONARYWDFLT
  2
AcDbDictionaryWithDefault
  3
AutoCAD 2000
 90
0
 91
1
280
0
281
0
  0
CLASS
  1
ACDBPLACEHOLDER
  2
AcDbPlaceHolder
  3
AutoCAD 2000
 90
0
 91
1
280
0
281
0
  0
CLASS
  1
LAYOUT
  2
AcDbLayout
  3
AutoCAD 2000
 90
0
 91
0
280
0
281
0
  0
ENDSEC
  0
SECTION
  2
TABLES
  0
TABLE
  2
VPORT
  5
8
100
AcDbSymbolTable
 70
2
  0
VPORT
  5
1F4
100
AcDbSymbolTableRecord
100
AcDbViewportTableRecord
  2
*ACTIVE
 70
0
 10
0.0
 20
0.0
 11
1.0
 21
1.0
 12
139.7
 22
107.95
 13
0.0
 23
0.0
 14
1.0
 24
1.0
 15
0.0
 25
0.0
 16
0.0
 26
0.0
 36
1.0
 17
0.0
 27
0.0
 37
0.0
 40
215.9
 41
1.2941176471
 42
50.0
 43
0.0
 44
0.0
 50
0.0
 51
0.0
 71
0
 72
100
 73
1
 74
1
 75
0
 76
0
 77
0
 78
0
  0
ENDTAB
  0
TABLE
  2
LTYPE
  5
5
100
AcDbSymbolTable
 70
6
  0
LTYPE
  5
14
100
AcDbSymbolTableRecord
100
AcDbLinetypeTableRecord
  2
BYBLOCK
 70
0
  3

 72
65
 73
0
 40
0.0
  0
LTYPE
  5
15
100
AcDbSymbolTableRecord
100
AcDbLinetypeTableRecord
  2
BYLAYER
 70
0
  3

 72
65
 73
0
 40
0.0
  0
LTYPE
  5
16
100
AcDbSymbolTableRecord
100
AcDbLinetypeTableRecord
  2
CONTINUOUS
 70
64
  3
Solid line
 72
65
 73
0
 40
0.0
  0
LTYPE
  5
1F5
100
AcDbSymbolTableRecord
100
AcDbLinetypeTableRecord
  2
CENTER
 70
64
  3
____ _ ____ _ ____ _ ____ _ ____ _ ____ _ ____
 72
65
 73
4
 40
0.6
 49
0.375
 74
0
 49
-0.075
 74
0
 49
0.075
 74
0
 49
-0.075
 74
0
  0
LTYPE
  5
1F6
100
AcDbSymbolTableRecord
100
AcDbLinetypeTableRecord
  2
HIDDEN
 70
64
  3
- - - - - - - - - - - - - - - - - - - -
 72
65
 73
2
 40
0.2
 49
0.1
 74
0
 49
-0.1
 74
0
  0
LTYPE
  5
1F7
100
AcDbSymbolTableRecord
100
AcDbLinetypeTableRecord
  2
PHANTOM
 70
64
  3
_____ _ _ _____ _ _ _____ _ _ _____
 72
65
 73
6
 40
0.8
 49
0.45
 74
0
 49
-0.05
 74
0
 49
0.1
 74
0
 49
-0.05
 74
0
 49
0.1
 74
0
 49
-0.05
 74
0
  0
LTYPE
  5
1F8
100
AcDbSymbolTableRecord
100
AcDbLinetypeTableRecord
  2
DOT
 70
64
  3
. . . . . . . . . . . . . . . . . . . .
 72
65
 73
2
 40
0.2
 49
0.1
 74
0
 49
-0.1
 74
0
  0
LTYPE
  5
1F9
100
AcDbSymbolTableRecord
100
AcDbLinetypeTableRecord
  2
DASHED
 70
64
  3
- - - - - - - - - - - - - - - - - - - -
 72
65
 73
2
 40
0.2
 49
0.1
 74
0
 49
-0.1
 74
0
  0
ENDTAB
  0
TABLE
  2
LAYER
  5
2
100
AcDbSymbolTable
 70
36
  0
LAYER
  5
10
100
AcDbSymbolTableRecord
100
AcDbLayerTableRecord
  2
0
 70
0
 62
7
  6
CONTINUOUS
370
-3
390
F
  0
LAYER
  5
1FA
100
AcDbSymbolTableRecord
100
AcDbLayerTableRecord
  2
DEFAULT_1
 70
0
 62
7
  6
CENTER
370
-3
390
F
  0
LAYER
  5
1FB
100
AcDbSymbolTableRecord
100
AcDbLayerTableRecord
  2
DEFAULT_2
 70
0
 62
7
  6
HIDDEN
370
-3
390
F
  0
LAYER
  5
1FC
100
AcDbSymbolTableRecord
100
AcDbLayerTableRecord
  2
DEFAULT_3
 70
0
 62
7
  6
PHANTOM
370
-3
390
F
  0
LAYER
  5
1FD
100
AcDbSymbolTableRecord
100
AcDbLayerTableRecord
  2
ASSI
 70
0
 62
7
  6
CONTINUOUS
370
-3
390
F
  0
LAYER
  5
1FE
100
AcDbSymbolTableRecord
100
AcDbLayerTableRecord
  2
COLOR9
 70
0
 62
7
  6
CONTINUOUS
370
-3
390
F
  0
LAYER
  5
1FF
100
AcDbSymbolTableRecord
100
AcDbLayerTableRecord
  2
COLORE_TOP
 70
0
 62
7
  6
CONTINUOUS
370
-3
390
F
  0
LAYER
  5
200
100
AcDbSymbolTableRecord
100
AcDbLayerTableRecord
  2
COORDINATE
 70
0
 62
7
  6
CONTINUOUS
370
-3
390
F
  0
LAYER
  5
201
100
AcDbSymbolTableRecord
100
AcDbLayerTableRecord
  2
COORD_ORIGINE
 70
0
 62
7
  6
CONTINUOUS
370
-3
390
F
  0
LAYER
  5
202
100
AcDbSymbolTableRecord
100
AcDbLayerTableRecord
  2
COPY
 70
0
 62
7
  6
CONTINUOUS
370
-3
390
F
  0
LAYER
  5
203
100
AcDbSymbolTableRecord
100
AcDbLayerTableRecord
  2
COPY-PUBBLISH
 70
0
 62
7
  6
CONTINUOUS
370
-3
390
F
  0
LAYER
  5
204
100
AcDbSymbolTableRecord
100
AcDbLayerTableRecord
  2
COPY_0
 70
0
 62
7
  6
CONTINUOUS
370
-3
390
F
  0
LAYER
  5
205
100
AcDbSymbolTableRecord
100
AcDbLayerTableRecord
  2
COSMETICHE
 70
0
 62
7
  6
CONTINUOUS
370
-3
390
F
  0
LAYER
  5
206
100
AcDbSymbolTableRecord
100
AcDbLayerTableRecord
  2
COSMETICI
 70
0
 62
7
  6
CONTINUOUS
370
-3
390
F
  0
LAYER
  5
207
100
AcDbSymbolTableRecord
100
AcDbLayerTableRecord
  2
CURVA_CENTRALE
 70
0
 62
7
  6
CONTINUOUS
370
-3
390
F
  0
LAYER
  5
208
100
AcDbSymbolTableRecord
100
AcDbLayerTableRecord
  2
CURVE
 70
0
 62
7
  6
CONTINUOUS
370
-3
390
F
  0
LAYER
  5
209
100
AcDbSymbolTableRecord
100
AcDbLayerTableRecord
  2
DRAFT
 70
0
 62
7
  6
CONTINUOUS
370
-3
390
F
  0
LAYER
  5
20A
100
AcDbSymbolTableRecord
100
AcDbLayerTableRecord
  2
IGS_SIMBOLO
 70
0
 62
7
  6
CONTINUOUS
370
-3
390
F
  0
LAYER
  5
20B
100
AcDbSymbolTableRecord
100
AcDbLayerTableRecord
  2
IMPIANTO
 70
0
 62
7
  6
CONTINUOUS
370
-3
390
F
  0
LAYER
  5
20C
100
AcDbSymbolTableRecord
100
AcDbLayerTableRecord
  2
IMPORTED
 70
0
 62
7
  6
CONTINUOUS
370
-3
390
F
  0
LAYER
  5
20D
100
AcDbSymbolTableRecord
100
AcDbLayerTableRecord
  2
INTFCLR_3
 70
0
 62
7
  6
CONTINUOUS
370
-3
390
F
  0
LAYER
  5
20E
100
AcDbSymbolTableRecord
100
AcDbLayerTableRecord
  2
INTF_1
 70
0
 62
7
  6
CONTINUOUS
370
-3
390
F
  0
LAYER
  5
20F
100
AcDbSymbolTableRecord
100
AcDbLayerTableRecord
  2
INTF_12
 70
0
 62
7
  6
CONTINUOUS
370
-3
390
F
  0
LAYER
  5
210
100
AcDbSymbolTableRecord
100
AcDbLayerTableRecord
  2
INTF_2
 70
0
 62
7
  6
CONTINUOUS
370
-3
390
F
  0
LAYER
  5
211
100
AcDbSymbolTableRecord
100
AcDbLayerTableRecord
  2
INTF_6
 70
0
 62
7
  6
CONTINUOUS
370
-3
390
F
  0
LAYER
  5
212
100
AcDbSymbolTableRecord
100
AcDbLayerTableRecord
  2
NOTE
 70
0
 62
7
  6
CONTINUOUS
370
-3
390
F
  0
LAYER
  5
213
100
AcDbSymbolTableRecord
100
AcDbLayerTableRecord
  2
PIANI
 70
0
 62
7
  6
CONTINUOUS
370
-3
390
F
  0
LAYER
  5
214
100
AcDbSymbolTableRecord
100
AcDbLayerTableRecord
  2
PIANI_ORIGINE
 70
0
 62
7
  6
CONTINUOUS
370
-3
390
F
  0
LAYER
  5
215
100
AcDbSymbolTableRecord
100
AcDbLayerTableRecord
  2
PIANI_RIFERIMENTO
 70
0
 62
7
  6
CONTINUOUS
370
-3
390
F
  0
LAYER
  5
216
100
AcDbSymbolTableRecord
100
AcDbLayerTableRecord
  2
PIANI_SFORMO
 70
0
 62
7
  6
CONTINUOUS
370
-3
390
F
  0
LAYER
  5
217
100
AcDbSymbolTableRecord
100
AcDbLayerTableRecord
  2
PUNTI
 70
0
 62
7
  6
CONTINUOUS
370
-3
390
F
  0
LAYER
  5
218
100
AcDbSymbolTableRecord
100
AcDbLayerTableRecord
  2
RACCORDO
 70
0
 62
7
  6
CONTINUOUS
370
-3
390
F
  0
LAYER
  5
219
100
AcDbSymbolTableRecord
100
AcDbLayerTableRecord
  2
RGB__255__255__255__
 70
0
 62
7
  6
CONTINUOUS
370
-3
390
F
  0
LAYER
  5
21A
100
AcDbSymbolTableRecord
100
AcDbLayerTableRecord
  2
RINTRACCIABILITA
 70
0
 62
7
  6
CONTINUOUS
370
-3
390
F
  0
LAYER
  5
21B
100
AcDbSymbolTableRecord
100
AcDbLayerTableRecord
  2
SMUSSO
 70
0
 62
7
  6
CONTINUOUS
370
-3
390
F
  0
LAYER
  5
21C
100
AcDbSymbolTableRecord
100
AcDbLayerTableRecord
  2
SNAPLINE
 70
0
 62
7
  6
CONTINUOUS
370
-3
390
F
  0
LAYER
  5
21D
100
AcDbSymbolTableRecord
100
AcDbLayerTableRecord
  2
SUPERFICI
 70
0
 62
7
  6
CONTINUOUS
370
-3
390
F
  0
LAYER
  5
21E
100
AcDbSymbolTableRecord
100
AcDbLayerTableRecord
  2
TRASH
 70
0
 62
7
  6
CONTINUOUS
370
-3
390
F
  0
LAYER
  5
21F
100
AcDbSymbolTableRecord
100
AcDbLayerTableRecord
  2
XSEC_DATUMS
 70
0
 62
7
  6
CONTINUOUS
370
-3
390
F
  0
ENDTAB
  0
TABLE
  2
STYLE
  5
3
100
AcDbSymbolTable
 70
1
  0
STYLE
  5
11
100
AcDbSymbolTableRecord
100
AcDbTextStyleTableRecord
  2
STANDARD
 70
0
 40
0.0
 41
0.8
 50
0.0
 71
0
 42
0.2
  3
txt
  4

  0
STYLE
  5
220
100
AcDbSymbolTableRecord
100
AcDbTextStyleTableRecord
  2
TEXTSTYLE_1
 70
0
 40
0.0
 41
0.8
 50
0.0
 71
0
 42
0.2
  3
gdt
  4

  0
ENDTAB
  0
TABLE
  2
VIEW
  5
6
100
AcDbSymbolTable
 70
0
  0
ENDTAB
  0
TABLE
  2
UCS
  5
7
100
AcDbSymbolTable
 70
0
  0
ENDTAB
  0
TABLE
  2
APPID
  5
9
100
AcDbSymbolTable
 70
1
  0
APPID
  5
221
100
AcDbSymbolTableRecord
100
AcDbRegAppTableRecord
  2
ACAD
 70
0
  0
ENDTAB
  0
TABLE
  2
BLOCK_RECORD
  5
1
100
AcDbSymbolTable
 70
0
  0
BLOCK_RECORD
  5
222
100
AcDbSymbolTableRecord
100
AcDbBlockTableRecord
  2
*Model_Space
  0
BLOCK_RECORD
  5
223
100
AcDbSymbolTableRecord
100
AcDbBlockTableRecord
  2
*Paper_Space
  0
BLOCK_RECORD
  5
224
100
AcDbSymbolTableRecord
100
AcDbBlockTableRecord
  2
_FILLED
  0
ENDTAB
  0
TABLE
  2
DIMSTYLE
  5
A
100
AcDbSymbolTable
 70
1
100
AcDbDimStyleTable
 71
0
  0
DIMSTYLE
105
225
100
AcDbSymbolTableRecord
100
AcDbDimStyleTableRecord
  2
STANDARD
 70
0
  3

  4

 40
1.0
 41
3.0
 42
0.5
 43
0.38
 44
1.5
 45
0.0
 46
0.0
 47
0.01
 48
0.01
140
3.0
141
0.09
142
0.0
143
25.4
144
1.0
145
0.0
146
1.0
147
0.625
 71
1
 72
0
 73
0
 74
0
 75
0
 76
0
 77
1
 78
8
 79
2
170
0
171
1
172
0
173
0
174
0
175
0
176
0
177
0
178
0
270
2
179
2
271
2
272
2
273
2
274
2
275
0
280
0
281
0
282
0
283
1
284
8
285
0
286
0
287
3
288
0
340
11
278
44
341
224
342
224
343
224
344
224
  0
ENDTAB
  0
ENDSEC
  0
SECTION
  2
BLOCKS
  0
BLOCK
  5
20
100
AcDbEntity
  8
0
100
AcDbBlockBegin
  2
*Model_Space
 70
0
 10
0.0
 20
0.0
 30
0.0
  3
*Model_Space
  1

  0
ENDBLK
  5
21
100
AcDbEntity
  8
0
100
AcDbBlockEnd
  0
BLOCK
  5
1C
100
AcDbEntity
  8
0
100
AcDbBlockBegin
  2
*Paper_Space
 70
0
 10
0.0
 20
0.0
 30
0.0
  3
*Paper_Space
  1

  0
ENDBLK
  5
1D
100
AcDbEntity
  8
0
100
AcDbBlockEnd
  0
BLOCK
  5
226
100
AcDbEntity
  8
0
100
AcDbBlockBegin
  2
_FILLED
 70
64
 10
0.0
 20
0.0
  3
_FILLED
  1

  0
SOLID
  5
227
100
AcDbEntity
  8
0
  6
BYBLOCK
 62
0
100
AcDbTrace
 10
0.0
 20
0.0
 11
-1.0
 21
0.3166666667
 12
-1.0
 22
-0.3166666667
 13
-1.0
 23
-0.3166666667
  0
ENDBLK
  5
228
100
AcDbEntity
  8
0
  6
BYBLOCK
 62
0
100
AcDbBlockEnd
  0
ENDSEC
  0
SECTION
  2
ENTITIES
  0
LWPOLYLINE
  5
229
100
AcDbEntity
  8
RACCORDO
100
AcDbPolyline
 62
7
  6
CONTINUOUS
 90
14
 70
0
 10
-17.0996140706
 20
19.9904874682
 10
-17.1710100548
 20
19.9461907574
 10
-17.2370846382
 20
19.8969406487
 10
-17.3000309709
 20
19.8416745523
 10
-17.3595853006
 20
19.7807744137
 10
-17.4150849137
 20
19.7150742886
 10
-17.4665055137
 20
19.6447705508
 10
-17.5136621216
 20
19.5701204379
 10
-17.5557712581
 20
19.4923623975
 10
-17.5927378615
 20
19.4118010056
 10
-17.6243523732
 20
19.3286907889
 10
-17.6500480117
 20
19.2443854401
 10
-17.6696328379
 20
19.1594582688
 10
-17.683850114
 20
19.0665340912
  0
LWPOLYLINE
  5
22A
100
AcDbEntity
  8
0
100
AcDbPolyline
 62
7
  6
CONTINUOUS
 90
10
 70
0
 10
-12.7883663002
 20
23.8804496673
 10
-12.816367526
 20
23.8636894897
 10
-12.8423511552
 20
23.8430602589
 10
-12.865637562
 20
23.8188598636
 10
-12.8855831282
 20
23.7915767788
 10
-12.9017136325
 20
23.7617497009
 10
-12.9137121855
 20
23.7298387972
 10
-12.9213193972
 20
23.6961934424
 10
-12.9242232767
 20
23.6618156225
 10
-12.9242521925
 20
23.6580301447
  0
LINE
  5
22B
100
AcDbEntity
  8
0
100
AcDbLine
 62
7
  6
CONTINUOUS
 10
-12.8991693046
 20
22.5334112514
 11
-12.328969978
 21
22.8658896851
  0
LINE
  5
22C
100
AcDbEntity
  8
0
100
AcDbLine
 62
7
  6
CONTINUOUS
 10
-12.7883663002
 20
23.8804496673
 11
-11.2051926349
 21
24.6926477254
  0
LINE
  5
22D
100
AcDbEntity
  8
0
100
AcDbLine
 62
250
  6
CONTINUOUS
 10
-12.6752806341
 20
23.8740016921
 11
-11.0925240309
 21
24.6859857895
  0
LINE
  5
22E
100
AcDbEntity
  8
0
100
AcDbLine
 62
7
  6
CONTINUOUS
 10
-11.2051926369
 20
24.6926477244
 11
-11.2034562203
 21
24.6935159471
  0
LWPOLYLINE
  5
22F
100
AcDbEntity
  8
0
100
AcDbPolyline
 62
250
  6
CONTINUOUS
 90
16
 70
0
 10
-12.7883663002
 20
23.8804496673
 10
-12.784968576
 20
23.8821072917
 10
-12.778223355
 20
23.8849198394
 10
-12.7712426161
 20
23.8872183929
 10
-12.7640421721
 20
23.8889977453
 10
-12.7566383337
 20
23.890253866
 10
-12.7490478722
 20
23.8909839096
 10
-12.7412879818
 20
23.8911862224
 10
-12.7333762403
 20
23.8908603462
 10
-12.7253305696
 20
23.890007019
 10
-12.7171691949
 20
23.888628174
 10
-12.7089106036
 20
23.8867269344
 10
-12.7005735033
 20
23.884307607
 10
-12.6921767793
 20
23.8813756722
 10
-12.6837394521
 20
23.8779377713
 10
-12.6752806341
 20
23.8740016921
  0
LINE
  5
230
100
AcDbEntity
  8
0
100
AcDbLine
 62
7
  6
CONTINUOUS
 10
-11.2034562211
 20
24.6935159467
 11
-10.6685862634
 21
24.9540680471
  0
LINE
  5
231
100
AcDbEntity
  8
0
100
AcDbLine
 62
250
  6
CONTINUOUS
 10
-11.0925240309
 20
24.6859857895
 11
-10.5580741523
 21
24.946333256
  0
LWPOLYLINE
  5
232
100
AcDbEntity
  8
0
100
AcDbPolyline
 62
7
  6
CONTINUOUS
 90
16
 70
0
 10
-11.2034562203
 20
24.6935159471
 10
-11.2017985919
 20
24.6943034556
 10
-11.1950631031
 20
24.6971109935
 10
-11.1880953638
 20
24.6994028551
 10
-11.1809111068
 20
24.7011738749
 10
-11.1735265911
 20
24.70242005
 10
-11.1659586368
 20
24.7031385152
 10
-11.1582243153
 20
24.7033276803
 10
-11.1503411093
 20
24.702987137
 10
-11.1423270099
 20
24.7021175954
 10
-11.1342000795
 20
24.7007210724
 10
-11.1259786685
 20
24.6988007625
 10
-11.1176815717
 20
24.6963609358
 10
-11.1093275784
 20
24.6934071249
 10
-11.1009354292
 20
24.6899461119
 10
-11.0925240309
 20
24.6859857895
  0
LWPOLYLINE
  5
233
100
AcDbEntity
  8
0
100
AcDbPolyline
 62
250
  6
CONTINUOUS
 90
16
 70
0
 10
-10.6685862634
 20
24.9540680471
 10
-10.66691354
 20
24.9548624966
 10
-10.6601866097
 20
24.9576641511
 10
-10.653230628
 20
24.9599484322
 10
-10.6460612862
 20
24.9617101737
 10
-10.6386948904
 20
24.9629453557
 10
-10.6311482934
 20
24.9636511656
 10
-10.6234387074
 20
24.9638260348
 10
-10.6155835081
 20
24.9634696097
 10
-10.6076003495
 20
24.9625827058
 10
-10.5995061019
 20
24.9611670817
 10
-10.5913202911
 20
24.959226038
 10
-10.5830650249
 20
24.9567651409
 10
-10.5747602692
 20
24.9537910915
 10
-10.5664236877
 20
24.950310959
 10
-10.5580741523
 20
24.946333256
  0
LINE
  5
234
100
AcDbEntity
  8
0
100
AcDbLine
 62
7
  6
CONTINUOUS
 10
-10.6608330644
 20
24.9576819566
 11
-10.6687504032
 21
24.953987891
  0
LINE
  5
235
100
AcDbEntity
  8
0
100
AcDbLine
 62
250
  6
CONTINUOUS
 10
-12.6652665295
 20
22.5249638167
 11
-12.2212592405
 21
22.7838607341
  0
LINE
  5
236
100
AcDbEntity
  8
RACCORDO
100
AcDbLine
 62
7
  6
CONTINUOUS
 10
-17.0997425219
 20
19.9904297057
 11
-14.3644937234
 21
21.5216863406
  0
LINE
  5
237
100
AcDbEntity
  8
RACCORDO
100
AcDbLine
 62
250
  6
CONTINUOUS
 10
-16.8647544007
 20
19.9823807237
 11
-14.1332013523
 21
21.5115683907
  0
LINE
  5
238
100
AcDbEntity
  8
0
100
AcDbLine
 62
7
  6
CONTINUOUS
 10
-9.2186880692
 20
21.9304144606
 11
-10.1087482519
 21
21.4337335394
  0
LINE
  5
239
100
AcDbEntity
  8
0
100
AcDbLine
 62
250
  6
CONTINUOUS
 10
-10.9967425637
 20
23.0347326569
 11
-9.3954617729
 21
23.8374546604
  0
LINE
  5
23A
100
AcDbEntity
  8
0
100
AcDbLine
 62
250
  6
CONTINUOUS
 10
-10.81996886
 20
22.7298431181
 11
-9.2186880692
 21
23.5325651216
  0
LINE
  5
23B
100
AcDbEntity
  8
0
100
AcDbLine
 62
250
  6
CONTINUOUS
 10
-9.3954617729
 20
23.8374546604
 11
-8.8671946011
 21
24.1008934805
  0
LINE
  5
23C
100
AcDbEntity
  8
0
100
AcDbLine
 62
250
  6
CONTINUOUS
 10
-9.2186880692
 20
23.5325651216
 11
-8.6904208974
 21
23.7960039416
  0
LINE
  5
23D
100
AcDbEntity
  8
0
100
AcDbLine
 62
7
  6
CONTINUOUS
 10
-1.3943562995
 20
25.7450853416
 11
-8.5156951149
 21
22.2809863763
  0
LWPOLYLINE
  5
23E
100
AcDbEntity
  8
RACCORDO
100
AcDbPolyline
 62
250
  6
CONTINUOUS
 90
8
 70
0
 10
-17.0996200652
 20
19.9904982001
 10
-17.0760864229
 20
20.0016043549
 10
-17.0447842462
 20
20.0109203994
 10
-17.0114100331
 20
20.0152362662
 10
-16.9763291198
 20
20.0145047106
 10
-16.9399255253
 20
20.0087337409
 10
-16.9025977474
 20
19.9979865299
 10
-16.8647544007
 20
19.9823807237
  0
LWPOLYLINE
  5
23F
100
AcDbEntity
  8
RACCORDO
100
AcDbPolyline
 62
7
  6
CONTINUOUS
 90
36
 70
0
 10
5.1697825769
 20
28.2429973335
 10
5.186460613
 20
28.2506769786
 10
5.2108976035
 20
28.2612697195
 10
5.2354098955
 20
28.2711312447
 10
5.2598686133
 20
28.2802326003
 10
5.284330788
 20
28.2886185078
 10
5.3090506211
 20
28.2963837793
 10
5.334110883
 20
28.3035460944
 10
5.3593871018
 20
28.3100620925
 10
5.3848316755
 20
28.3159176446
 10
5.4104035127
 20
28.3211037031
 10
5.4360975829
 20
28.3256201131
 10
5.4619198908
 20
28.3294673372
 10
5.4878477085
 20
28.3326406709
 10
5.5138597979
 20
28.3351365589
 10
5.5399651999
 20
28.3369540056
 10
5.5661421304
 20
28.3380887424
 10
5.5923694772
 20
28.3385373922
 10
5.6186576887
 20
28.3382966777
 10
5.6449895536
 20
28.3373621329
 10
5.6713395096
 20
28.3357302715
 10
5.6977053813
 20
28.3333964461
 10
5.7240711666
 20
28.3303564927
 10
5.7504093692
 20
28.326608188
 10
5.7767002607
 20
28.3221492672
 10
5.8029312057
 20
28.3169764964
 10
5.8290706468
 20
28.3110908873
 10
5.8550707193
 20
28.3044996593
 10
5.8808837279
 20
28.2972137544
 10
5.9065146803
 20
28.2892308047
 10
5.931994086
 20
28.2805370795
 10
5.957312946
 20
28.2711286054
 10
5.9824346566
 20
28.2610120525
 10
6.0073466154
 20
28.2501858277
 10
6.0320341941
 20
28.2386488202
 10
6.043571786
 20
28.2329724477
  0
LWPOLYLINE
  5
240
100
AcDbEntity
  8
0
100
AcDbPolyline
 62
7
  6
CONTINUOUS
 90
3
 70
0
 10
-1.8693629782
 20
24.9398304833
 10
-1.8585107804
 20
24.9435327644
 10
-1.8472773598
 20
24.9466552127
  0
LWPOLYLINE
  5
241
100
AcDbEntity
  8
RACCORDO
100
AcDbPolyline
 62
7
  6
CONTINUOUS
 90
12
 70
0
 10
-2.5970413851
 20
-25.4836731427
 10
-2.5705481281
 20
-25.4962550405
 10
-2.5143297339
 20
-25.5186477123
 10
-2.4557866804
 20
-25.5362745167
 10
-2.3954147783
 20
-25.5488786547
 10
-2.3335417615
 20
-25.5562973224
 10
-2.270268329
 20
-25.5583921033
 10
-2.2059608238
 20
-25.5550149958
 10
-2.1410671125
 20
-25.5460624585
 10
-2.0757008731
 20
-25.5313913104
 10
-2.0100994873
 20
-25.5108508183
 10
-1.9506122005
 20
-25.4870467019
  0
LINE
  5
242
100
AcDbEntity
  8
RACCORDO
100
AcDbLine
 62
7
  6
CONTINUOUS
 10
-17.2869201444
 20
-18.1387340522
 11
-17.2878442529
 21
-18.1382736295
  0
LINE
  5
243
100
AcDbEntity
  8
ASSI
100
AcDbLine
 62
7
  6
CONTINUOUS
 10
-17.2878443051
 20
-18.1382736034
 11
-2.5964904443
 21
-25.4839505338
  0
LINE
  5
244
100
AcDbEntity
  8
RACCORDO
100
AcDbLine
 62
250
  6
CONTINUOUS
 10
-17.5366098602
 20
-17.7236426117
 11
-2.8518549693
 21
-25.0660200572
  0
LINE
  5
245
100
AcDbEntity
  8
RACCORDO
100
AcDbLine
 62
7
  6
CONTINUOUS
 10
-2.5969822979
 20
-25.4837041675
 11
-2.5964904956
 21
-25.4839505081
  0
LINE
  5
246
100
AcDbEntity
  8
RACCORDO
100
AcDbLine
 62
250
  6
CONTINUOUS
 10
-17.2878442529
 20
-18.1382736295
 11
-17.3087511536
 21
-18.1269561945
  0
LWPOLYLINE
  5
247
100
AcDbEntity
  8
RACCORDO
100
AcDbPolyline
 62
250
  6
CONTINUOUS
 90
10
 70
0
 10
-17.3087511536
 20
-18.1269561945
 10
-17.3478536534
 20
-18.1006456311
 10
-17.3839407644
 20
-18.0691719425
 10
-17.4168029656
 20
-18.0327195665
 10
-17.4462414128
 20
-17.9915065623
 10
-17.4720745861
 20
-17.9457825319
 10
-17.4941500183
 20
-17.8958215956
 10
-17.5123350391
 20
-17.8419244648
 10
-17.52651713
 20
-17.7844161048
 10
-17.5366098602
 20
-17.7236426117
  0
LWPOLYLINE
  5
248
100
AcDbEntity
  8
RACCORDO
100
AcDbPolyline
 62
7
  6
CONTINUOUS
 90
7
 70
0
 10
-17.5972879234
 20
-17.8289899546
 10
-17.5589307277
 20
-17.8948536838
 10
-17.5148343635
 20
-17.9553555821
 10
-17.4656210191
 20
-18.0099466304
 10
-17.4118779676
 20
-18.0583325025
 10
-17.3534052775
 20
-18.1007887334
 10
-17.2869859365
 20
-18.1386993396
  0
LINE
  5
249
100
AcDbEntity
  8
0
100
AcDbLine
 62
250
  6
CONTINUOUS
 10
-9.2186880692
 20
22.8055202691
 11
-8.6904208974
 21
23.4484724249
  0
LINE
  5
24A
100
AcDbEntity
  8
0
100
AcDbLine
 62
7
  6
CONTINUOUS
 10
-9.2186880692
 20
22.7159898028
 11
-8.6750603251
 21
23.3776372583
  0
LINE
  5
24B
100
AcDbEntity
  8
0
100
AcDbLine
 62
7
  6
CONTINUOUS
 10
-7.6338686389
 20
20.0092648714
 11
-6.9205910303
 21
20.4051193165
  0
LINE
  5
24C
100
AcDbEntity
  8
0
100
AcDbLine
 62
7
  6
CONTINUOUS
 10
-7.2387890819
 20
22.326105613
 11
-8.2932785133
 21
21.7851325743
  0
LINE
  5
24D
100
AcDbEntity
  8
RACCORDO
100
AcDbLine
 62
7
  6
CONTINUOUS
 10
7.1783885971
 20
27.3621307607
 11
2.9620088194
 21
25.216821144
  0
LINE
  5
24E
100
AcDbEntity
  8
0
100
AcDbLine
 62
250
  6
CONTINUOUS
 10
-4.9406902481
 20
21.1770561961
 11
-4.2537884627
 21
21.5216168541
  0
LINE
  5
24F
100
AcDbEntity
  8
0
100
AcDbLine
 62
7
  6
CONTINUOUS
 10
-7.6338686389
 20
21.4554276372
 11
-6.7787654401
 21
21.8816216274
  0
LINE
  5
250
100
AcDbEntity
  8
0
100
AcDbLine
 62
250
  6
CONTINUOUS
 10
-5.1555034621
 20
21.0699906384
 11
-4.9406902481
 21
21.1770561961
  0
LINE
  5
251
100
AcDbEntity
  8
0
100
AcDbLine
 62
7
  6
CONTINUOUS
 10
-5.8987367071
 20
22.3440909762
 11
-1.2860938512
 21
24.6173131661
  0
LINE
  5
252
100
AcDbEntity
  8
0
100
AcDbLine
 62
7
  6
CONTINUOUS
 10
-1.5611345832
 20
23.0863233063
 11
-1.1496690146
 21
23.2891035107
  0
LINE
  5
253
100
AcDbEntity
  8
0
100
AcDbLine
 62
7
  6
CONTINUOUS
 10
-1.9025656759
 20
24.9255490785
 11
-7.2387890819
 21
22.326105613
  0
LINE
  5
254
100
AcDbEntity
  8
RACCORDO
100
AcDbLine
 62
7
  6
CONTINUOUS
 10
6.141096584
 20
27.9444102788
 11
2.5680228855
 21
26.238976962
  0
LINE
  5
255
100
AcDbEntity
  8
RACCORDO
100
AcDbLine
 62
7
  6
CONTINUOUS
 10
5.1698139756
 20
28.2430121428
 11
-0.5240088206
 21
25.5578210857
  0
LINE
  5
256
100
AcDbEntity
  8
RACCORDO
100
AcDbLine
 62
250
  6
CONTINUOUS
 10
5.6086987261
 20
28.2106092078
 11
-0.2776312475
 21
25.4346322992
  0
LWPOLYLINE
  5
257
100
AcDbEntity
  8
RACCORDO
100
AcDbPolyline
 62
250
  6
CONTINUOUS
 90
25
 70
0
 10
5.6086987261
 20
28.2106092078
 10
5.6279713306
 20
28.2195114695
 10
5.6472204428
 20
28.2277586641
 10
5.6664317492
 20
28.2353446577
 10
5.6855909569
 20
28.2422638051
 10
5.7046838268
 20
28.2485109631
 10
5.7236961844
 20
28.254081491
 10
5.7426139116
 20
28.2589712474
 10
5.7614229206
 20
28.263176586
 10
5.7801091874
 20
28.2666943694
 10
5.7986588039
 20
28.2695219799
 10
5.8170579899
 20
28.2716573178
 10
5.8352930661
 20
28.2730987953
 10
5.8533504744
 20
28.2738453402
 10
5.8712167856
 20
28.2738963972
 10
5.8888787121
 20
28.2732519279
 10
5.9063231197
 20
28.2719124118
 10
5.9235370376
 20
28.2698788449
 10
5.9405076655
 20
28.2671527394
 10
5.957222384
 20
28.2637361223
 10
5.9736687642
 20
28.2596315343
 10
5.9898345765
 20
28.2548420275
 10
6.0057078
 20
28.2493711635
 10
6.0212766314
 20
28.2432230103
 10
6.0365294937
 20
28.2364021396
  0
LINE
  5
258
100
AcDbEntity
  8
RACCORDO
100
AcDbLine
 62
250
  6
CONTINUOUS
 10
-1.0049234805
 20
21.9936204379
 11
-0.9960254916
 21
21.9966665933
  0
LINE
  5
259
100
AcDbEntity
  8
RACCORDO
100
AcDbLine
 62
250
  6
CONTINUOUS
 10
-0.9960254916
 20
21.9966665933
 11
-0.9869499031
 21
21.9996944689
  0
LINE
  5
25A
100
AcDbEntity
  8
RACCORDO
100
AcDbLine
 62
250
  6
CONTINUOUS
 10
-0.9869499031
 20
21.9996944689
 11
-0.9776944136
 21
22.0027003983
  0
LINE
  5
25B
100
AcDbEntity
  8
RACCORDO
100
AcDbLine
 62
250
  6
CONTINUOUS
 10
-0.9776944136
 20
22.0027003983
 11
-0.9682574221
 21
22.0056819509
  0
LINE
  5
25C
100
AcDbEntity
  8
RACCORDO
100
AcDbLine
 62
250
  6
CONTINUOUS
 10
-0.9682574221
 20
22.0056819509
 11
-0.9586365428
 21
22.0086354592
  0
LINE
  5
25D
100
AcDbEntity
  8
RACCORDO
100
AcDbLine
 62
250
  6
CONTINUOUS
 10
-0.9586365428
 20
22.0086354592
 11
-0.948829739
 21
22.0115570853
  0
LINE
  5
25E
100
AcDbEntity
  8
RACCORDO
100
AcDbLine
 62
250
  6
CONTINUOUS
 10
-0.948829739
 20
22.0115570853
 11
-0.9388358418
 21
22.0144442048
  0
LINE
  5
25F
100
AcDbEntity
  8
0
100
AcDbLine
 62
250
  6
CONTINUOUS
 10
3.6132370952
 20
-24.0029607108
 11
3.0849699235
 21
-23.8944584337
  0
LINE
  5
260
100
AcDbEntity
  8
0
100
AcDbLine
 62
250
  6
CONTINUOUS
 10
3.5238232999
 20
-23.6833939048
 11
3.0849699235
 21
-23.5932565781
  0
LWPOLYLINE
  5
261
100
AcDbEntity
  8
0
100
AcDbPolyline
 62
7
  6
CONTINUOUS
 90
16
 70
0
 10
2.1949097407
 20
-24.2100674746
 10
2.1891710574
 20
-24.2088497853
 10
2.1832453378
 20
-24.2075317109
 10
2.1771338562
 20
-24.2061171349
 10
2.1708352799
 20
-24.2046138701
 10
2.1643542246
 20
-24.203022425
 10
2.157701197
 20
-24.2013359755
 10
2.1508783124
 20
-24.1995593057
 10
2.1438881101
 20
-24.1976969907
 10
2.1367419934
 20
-24.1957421179
 10
2.1294428091
 20
-24.193699971
 10
2.1219937913
 20
-24.1915756526
 10
2.1144071828
 20
-24.1893622007
 10
2.1066865874
 20
-24.1870653915
 10
2.0988359519
 20
-24.184690844
 10
2.090868292
 20
-24.182231586
  0
LWPOLYLINE
  5
262
100
AcDbEntity
  8
0
100
AcDbPolyline
 62
7
  6
CONTINUOUS
 90
3
 70
0
 10
2.090868292
 20
-24.182231586
 10
2.0745996808
 20
-24.1770838238
 10
2.0663172267
 20
-24.1743945362
  0
LWPOLYLINE
  5
263
100
AcDbEntity
  8
0
100
AcDbPolyline
 62
7
  6
CONTINUOUS
 90
3
 70
0
 10
2.0663172267
 20
-24.1743945362
 10
2.0494907256
 20
-24.1688050049
 10
2.0409667388
 20
-24.1659046197
  0
LWPOLYLINE
  5
264
100
AcDbEntity
  8
0
100
AcDbPolyline
 62
7
  6
CONTINUOUS
 90
3
 70
0
 10
2.0409667388
 20
-24.1659046197
 10
2.0237360093
 20
-24.1599144172
 10
2.0150509411
 20
-24.1568251981
  0
LWPOLYLINE
  5
265
100
AcDbEntity
  8
0
100
AcDbPolyline
 62
7
  6
CONTINUOUS
 90
3
 70
0
 10
2.0150509411
 20
-24.1568251981
 10
1.9975842544
 20
-24.1504822803
 10
1.9888259726
 20
-24.147230042
  0
LWPOLYLINE
  5
266
100
AcDbEntity
  8
0
100
AcDbPolyline
 62
7
  6
CONTINUOUS
 90
17
 70
0
 10
1.9888259726
 20
-24.147230042
 10
1.9713066543
 20
-24.1405896904
 10
1.9625706316
 20
-24.1372040412
 10
1.953864593
 20
-24.1337810855
 10
1.945197328
 20
-24.130329348
 10
1.9365866781
 20
-24.12684392
 10
1.9280421242
 20
-24.1233332541
 10
1.9195732293
 20
-24.1198062284
 10
1.9111983839
 20
-24.116258807
 10
1.9029279805
 20
-24.1126995713
 10
1.8947723246
 20
-24.1091376719
 10
1.8867501039
 20
-24.1055701202
 10
1.8788828898
 20
-24.1020116761
 10
1.8711711172
 20
-24.098464965
 10
1.863603225
 20
-24.0949112462
 10
1.8561846897
 20
-24.0913530059
 10
1.8489368096
 20
-24.0878112635
  0
LWPOLYLINE
  5
267
100
AcDbEntity
  8
0
100
AcDbPolyline
 62
7
  6
CONTINUOUS
 90
9
 70
0
 10
1.1961404694
 20
-25.5362436121
 10
1.2243341815
 20
-25.5482402507
 10
1.2542179306
 20
-25.5567950356
 10
1.2852839413
 20
-25.5616077518
 10
1.3170820347
 20
-25.5624696869
 10
1.3488682012
 20
-25.5592644574
 10
1.3797881131
 20
-25.5520912035
 10
1.4096743411
 20
-25.5410024216
 10
1.4175916799
 20
-25.5373083559
  0
LWPOLYLINE
  5
268
100
AcDbEntity
  8
0
100
AcDbPolyline
 62
250
  6
CONTINUOUS
 90
34
 70
0
 10
1.131167173
 20
-25.401025162
 10
1.1397321047
 20
-25.4051095165
 10
1.148677888
 20
-25.4089881863
 10
1.157984917
 20
-25.4126522043
 10
1.167634102
 20
-25.4160935317
 10
1.1776028891
 20
-25.4193036194
 10
1.1878648806
 20
-25.4222737569
 10
1.1983954421
 20
-25.4249968855
 10
1.2091723628
 20
-25.4274673304
 10
1.2201716002
 20
-25.4296795725
 10
1.2313685704
 20
-25.4316286458
 10
1.2427379632
 20
-25.4333101233
 10
1.2542539809
 20
-25.4347201834
 10
1.2658906172
 20
-25.4358556482
 10
1.2776218011
 20
-25.4367139801
 10
1.2894212236
 20
-25.4372932539
 10
1.3012623794
 20
-25.4375921641
 10
1.3131186045
 20
-25.4376100336
 10
1.3249632128
 20
-25.4373468199
 10
1.3367695583
 20
-25.4368031137
 10
1.3485110919
 20
-25.4359801364
 10
1.3601614008
 20
-25.4348797378
 10
1.3716942826
 20
-25.4335043914
 10
1.3830837956
 20
-25.4318571894
 10
1.3943043133
 20
-25.4299418372
 10
1.4053305967
 20
-25.4277626424
 10
1.4161378469
 20
-25.4253245056
 10
1.4267017523
 20
-25.4226329108
 10
1.4369985577
 20
-25.4196939103
 10
1.4470050976
 20
-25.4165141152
 10
1.4566988472
 20
-25.4131006838
 10
1.4660579994
 20
-25.4094612967
 10
1.4750615108
 20
-25.4056041387
 10
1.4836891326
 20
-25.4015378859
  0
LWPOLYLINE
  5
269
100
AcDbEntity
  8
0
100
AcDbPolyline
 62
250
  6
CONTINUOUS
 90
34
 70
0
 10
1.131167173
 20
-25.0610512279
 10
1.1397467934
 20
-25.0651422617
 10
1.1487046719
 20
-25.0690253189
 10
1.1580206631
 20
-25.0726916668
 10
1.1676738047
 20
-25.0761330562
 10
1.1776423987
 20
-25.0793417524
 10
1.1879040632
 20
-25.0823105492
 10
1.1984357485
 20
-25.0850327736
 10
1.2092137486
 20
-25.0875022936
 10
1.2202137878
 20
-25.0897135455
 10
1.2314111145
 20
-25.0916615542
 10
1.2427805592
 20
-25.0933419413
 10
1.2542965522
 20
-25.0947509278
 10
1.2659331943
 20
-25.095885345
 10
1.2776643158
 20
-25.0967426416
 10
1.2894635342
 20
-25.0973208897
 10
1.3013043227
 20
-25.0976187889
 10
1.3131600431
 20
-25.0976356688
 10
1.3250040071
 20
-25.0973714923
 10
1.3368095612
 20
-25.0968268563
 10
1.3485501733
 20
-25.0960029872
 10
1.3601994655
 20
-25.0949017371
 10
1.3717313247
 20
-25.0935255713
 10
1.3831197296
 20
-25.0918775919
 10
1.3943388444
 20
-25.0899615461
 10
1.4053633034
 20
-25.0877817901
 10
1.41616848
 20
-25.0853432173
 10
1.4267303018
 20
-25.0826512696
 10
1.4370258427
 20
-25.0797117521
 10
1.4470310814
 20
-25.0765314837
 10
1.4567213904
 20
-25.0731184039
 10
1.4660745196
 20
-25.0694806176
 10
1.4750704194
 20
-25.0656262008
 10
1.4836891326
 20
-25.0615639517
  0
LINE
  5
26A
100
AcDbEntity
  8
0
100
AcDbLine
 62
7
  6
CONTINUOUS
 10
-0.3346756339
 20
-24.7708355605
 11
1.1961404694
 21
-25.5362436121
  0
LINE
  5
26B
100
AcDbEntity
  8
0
100
AcDbLine
 62
250
  6
CONTINUOUS
 10
-0.2257606858
 20
-24.7225612326
 11
1.131167173
 21
-25.401025162
  0
LINE
  5
26C
100
AcDbEntity
  8
0
100
AcDbLine
 62
250
  6
CONTINUOUS
 10
1.131167173
 20
-25.0610512279
 11
0.1346753495
 21
-24.5628053162
  0
LINE
  5
26D
100
AcDbEntity
  8
0
100
AcDbLine
 62
250
  6
CONTINUOUS
 10
1.2195555206
 20
-24.8293570541
 11
0.4271686622
 21
-24.4331636249
  0
LWPOLYLINE
  5
26E
100
AcDbEntity
  8
RACCORDO
100
AcDbPolyline
 62
250
  6
CONTINUOUS
 90
9
 70
0
 10
-18.358060222
 20
-7.817092383
 10
-18.3570303193
 20
-7.8316259958
 10
-18.351066273
 20
-7.8577258268
 10
-18.3398797226
 20
-7.8833144962
 10
-18.3235891834
 20
-7.9081209064
 10
-18.3023672443
 20
-7.9318822477
 10
-18.2764387396
 20
-7.9543467822
 10
-18.2460783671
 20
-7.9752765109
 10
-18.2116077777
 20
-7.9944496953
  0
LWPOLYLINE
  5
26F
100
AcDbEntity
  8
RACCORDO
100
AcDbPolyline
 62
250
  6
CONTINUOUS
 90
10
 70
0
 10
-17.683850114
 20
19.0665340912
 10
-17.6840735847
 20
19.0642034883
 10
-17.6831099493
 20
19.0433563921
 10
-17.6768881418
 20
19.0221651929
 10
-17.6654741005
 20
19.0008544744
 10
-17.6489887911
 20
18.9796500868
 10
-17.6276069245
 20
18.9587767538
 10
-17.6015551049
 20
18.9384556904
 10
-17.5711094288
 20
18.9189022584
 10
-17.5365925585
 20
18.9003236846
  0
LWPOLYLINE
  5
270
100
AcDbEntity
  8
RACCORDO
100
AcDbPolyline
 62
7
  6
CONTINUOUS
 90
10
 70
0
 10
-17.6838499784
 20
19.066658952
 10
-17.8046755715
 20
17.9403752243
 10
-17.9201547905
 20
16.7495731519
 10
-18.0224834895
 20
15.5636133698
 10
-18.1116332792
 20
14.3827823771
 10
-18.1875856625
 20
13.2073169983
 10
-18.2503246445
 20
12.0374351912
 10
-18.2998343091
 20
10.8733719814
 10
-18.3361025787
 20
9.7154064882
 10
-18.3580620155
 20
8.6360448602
  0
LWPOLYLINE
  5
271
100
AcDbEntity
  8
RACCORDO
100
AcDbPolyline
 62
250
  6
CONTINUOUS
 90
19
 70
0
 10
-17.5366098602
 20
18.9003182161
 10
-17.5265170703
 20
18.9714574544
 10
-17.5123349725
 20
19.0435233057
 10
-17.4941500755
 20
19.1160832309
 10
-17.4720750746
 20
19.1887035552
 10
-17.4462426298
 20
19.2609471179
 10
-17.4168048801
 20
19.3323759428
 10
-17.3839430993
 20
19.402560842
 10
-17.3478562529
 20
19.4710829788
 10
-17.3087539689
 20
19.5375311667
 10
-17.2668749653
 20
19.6015080576
 10
-17.2224733353
 20
19.6626305636
 10
-17.1758062501
 20
19.7205305067
 10
-17.127156343
 20
19.7748629945
 10
-17.0768205229
 20
19.8253008971
 10
-17.0250953556
 20
19.8715347428
 10
-16.9722925488
 20
19.9132860015
 10
-16.9187368537
 20
19.9503082059
 10
-16.8647544007
 20
19.9823807237
  0
LWPOLYLINE
  5
272
100
AcDbEntity
  8
0
100
AcDbPolyline
 62
7
  6
CONTINUOUS
 90
7
 70
0
 10
-8.6750603251
 20
23.3776372583
 10
-8.6561404312
 20
23.4039784758
 10
-8.6407840076
 20
23.4325594484
 10
-8.6292556638
 20
23.4628971646
 10
-8.6217426613
 20
23.4945429301
 10
-8.6184008318
 20
23.5269182823
 10
-8.6182230414
 20
23.5363343542
  0
LINE
  5
273
100
AcDbEntity
  8
0
100
AcDbLine
 62
7
  6
CONTINUOUS
 10
-4.7992706868
 20
19.7207057694
 11
-5.0144988578
 21
19.6012585483
  0
LINE
  5
274
100
AcDbEntity
  8
0
100
AcDbLine
 62
250
  6
CONTINUOUS
 10
-3.4621082029
 20
20.2156304659
 11
-3.4547339207
 21
20.2196058677
  0
LINE
  5
275
100
AcDbEntity
  8
0
100
AcDbLine
 62
7
  6
CONTINUOUS
 10
2.6496635575
 20
23.911365615
 11
3.281951614
 21
24.2447836096
  0
LWPOLYLINE
  5
276
100
AcDbEntity
  8
0
100
AcDbPolyline
 62
7
  6
CONTINUOUS
 90
38
 70
0
 10
2.9620088194
 20
25.216821144
 10
2.9214903624
 20
25.195762186
 10
2.8818761055
 20
25.1742774538
 10
2.8431839409
 20
25.1523766513
 10
2.8054313441
 20
25.1300696701
 10
2.7686353664
 20
25.1073665853
 10
2.7328126271
 20
25.084277651
 10
2.6979793058
 20
25.0608132954
 10
2.6641511351
 20
25.0369841165
 10
2.631343394
 20
25.0128008768
 10
2.5995709001
 20
24.988274499
 10
2.568848004
 20
24.9634160605
 10
2.5391885817
 20
24.9382367889
 10
2.5106060293
 20
24.9127480565
 10
2.4831132562
 20
24.8869613757
 10
2.4567226799
 20
24.8608883931
 10
2.4314462197
 20
24.8345408848
 10
2.4072952921
 20
24.807930751
 10
2.384280805
 20
24.7810700101
 10
2.362413153
 20
24.7539707943
 10
2.3417022129
 20
24.7266453429
 10
2.3221573389
 20
24.6991059979
 10
2.3037873587
 20
24.6713651974
 10
2.2866005692
 20
24.643435471
 10
2.2706047329
 20
24.6153294333
 10
2.2558070745
 20
24.5870597786
 10
2.2422142775
 20
24.5586392751
 10
2.2298324811
 20
24.5300807592
 10
2.2186672777
 20
24.5013971295
 10
2.2087237102
 20
24.4726013413
 10
2.2000062696
 20
24.4437064004
 10
2.1925188933
 20
24.4147253575
 10
2.186264963
 20
24.385671302
 10
2.1812473033
 20
24.3565573565
 10
2.1774681805
 20
24.3273966705
 10
2.1749293015
 20
24.2982024146
 10
2.1736318129
 20
24.2689877747
 10
2.1734475545
 20
24.2530709056
  0
LINE
  5
277
100
AcDbEntity
  8
0
100
AcDbLine
 62
7
  6
CONTINUOUS
 10
-3.3339309637
 20
20.3337792223
 11
-3.5456204901
 21
20.2245491661
  0
LINE
  5
278
100
AcDbEntity
  8
0
100
AcDbLine
 62
250
  6
CONTINUOUS
 10
-3.2436375631
 20
20.3285298536
 11
-3.4547339207
 21
20.2196058677
  0
LINE
  5
279
100
AcDbEntity
  8
0
100
AcDbLine
 62
7
  6
CONTINUOUS
 10
-4.1025847813
 20
20.0706750883
 11
-4.7992706868
 21
19.7207057694
  0
LINE
  5
27A
100
AcDbEntity
  8
0
100
AcDbLine
 62
250
  6
CONTINUOUS
 10
-4.7992706868
 20
20.933147197
 11
-4.1111454856
 21
21.2783215394
  0
LINE
  5
27B
100
AcDbEntity
  8
DRAFT
100
AcDbLine
 62
7
  6
CONTINUOUS
 10
7.184445584
 20
26.9246422935
 11
2.9620088194
 21
24.806602101
  0
LINE
  5
27C
100
AcDbEntity
  8
0
100
AcDbLine
 62
7
  6
CONTINUOUS
 10
-0.5685697601
 20
22.6440520125
 11
0.5233132021
 21
23.1899934936
  0
LINE
  5
27D
100
AcDbEntity
  8
0
100
AcDbLine
 62
7
  6
CONTINUOUS
 10
3.4102390428
 20
24.0216918782
 11
3.9052137896
 21
24.2691792516
  0
LINE
  5
27E
100
AcDbEntity
  8
0
100
AcDbLine
 62
7
  6
CONTINUOUS
 10
-3.3322296797
 20
20.3346299284
 11
-3.3339309839
 21
20.3337792119
  0
LINE
  5
27F
100
AcDbEntity
  8
RACCORDO
100
AcDbLine
 62
7
  6
CONTINUOUS
 10
6.3733917022
 20
24.4496791039
 11
5.0619273911
 21
23.7939469484
  0
LWPOLYLINE
  5
280
100
AcDbEntity
  8
RACCORDO
100
AcDbPolyline
 62
7
  6
CONTINUOUS
 90
6
 70
0
 10
-1.475986698
 20
21.8989403398
 10
-1.4846874638
 20
21.8945939291
 10
-1.4927892248
 20
21.8899150107
 10
-1.500606499
 20
21.8847575157
 10
-1.5081337822
 20
21.8791255543
 10
-1.5139962309
 20
21.8742334721
  0
LINE
  5
281
100
AcDbEntity
  8
0
100
AcDbLine
 62
250
  6
CONTINUOUS
 10
-5.0144988578
 20
20.8258748197
 11
-4.7992706868
 21
20.933147197
  0
LINE
  5
282
100
AcDbEntity
  8
0
100
AcDbLine
 62
7
  6
CONTINUOUS
 10
1.5648796399
 20
24.2654673719
 11
-0.5702559638
 21
23.2132207999
  0
LINE
  5
283
100
AcDbEntity
  8
0
100
AcDbLine
 62
7
  6
CONTINUOUS
 10
-2.6329587733
 20
20.6732762829
 11
-3.3322296611
 21
20.334629938
  0
LINE
  5
284
100
AcDbEntity
  8
0
100
AcDbLine
 62
250
  6
CONTINUOUS
 10
-2.5446412281
 20
20.6670432367
 11
-3.2436375631
 21
20.3285298536
  0
LINE
  5
285
100
AcDbEntity
  8
DRAFT
100
AcDbLine
 62
7
  6
CONTINUOUS
 10
-7.5347704628
 20
18.4892159377
 11
-7.8164661161
 21
18.3532007726
  0
LINE
  5
286
100
AcDbEntity
  8
RACCORDO
100
AcDbLine
 62
250
  6
CONTINUOUS
 10
-1.2050802727
 20
21.9066789981
 11
-1.1509927583
 21
21.9327482176
  0
LINE
  5
287
100
AcDbEntity
  8
RACCORDO
100
AcDbLine
 62
250
  6
CONTINUOUS
 10
-1.2157789268
 20
21.9015990076
 11
-1.2050802727
 21
21.9066789981
  0
LINE
  5
288
100
AcDbEntity
  8
RACCORDO
100
AcDbLine
 62
250
  6
CONTINUOUS
 10
-1.1509927583
 20
21.9327482176
 11
-1.1386640738
 21
21.938585001
  0
LINE
  5
289
100
AcDbEntity
  8
RACCORDO
100
AcDbLine
 62
250
  6
CONTINUOUS
 10
-1.223706003
 20
21.8978909181
 11
-1.2157789268
 21
21.9015990076
  0
LINE
  5
28A
100
AcDbEntity
  8
RACCORDO
100
AcDbLine
 62
250
  6
CONTINUOUS
 10
-1.1386640738
 20
21.938585001
 11
-1.1291482106
 21
21.9430261576
  0
LINE
  5
28B
100
AcDbEntity
  8
RACCORDO
100
AcDbLine
 62
250
  6
CONTINUOUS
 10
-1.2637906287
 20
21.8793745864
 11
-1.223706003
 21
21.8978909181
  0
LINE
  5
28C
100
AcDbEntity
  8
RACCORDO
100
AcDbLine
 62
7
  6
CONTINUOUS
 10
-1.4252540319
 20
21.9223318872
 11
-1.4759876944
 21
21.8989398796
  0
LINE
  5
28D
100
AcDbEntity
  8
RACCORDO
100
AcDbLine
 62
250
  6
CONTINUOUS
 10
-1.1291482106
 20
21.9430261576
 11
-1.1193841321
 21
21.9475155863
  0
LWPOLYLINE
  5
28E
100
AcDbEntity
  8
RACCORDO
100
AcDbPolyline
 62
250
  6
CONTINUOUS
 90
17
 70
0
 10
-0.2718177896
 20
22.0066801217
 10
-0.2660043442
 20
22.0093159892
 10
-0.2602049133
 20
22.0116522455
 10
-0.2544293109
 20
22.0136849371
 10
-0.2486873109
 20
22.0154106243
 10
-0.2429886301
 20
22.0168263867
 10
-0.2373429123
 20
22.0179298285
 10
-0.2317597114
 20
22.0187190823
 10
-0.2262484756
 20
22.0191928127
 10
-0.2208185313
 20
22.0193502179
 10
-0.2154790673
 20
22.0191910315
 10
-0.2102391195
 20
22.0187155229
 10
-0.205107555
 20
22.0179244969
 10
-0.2000930578
 20
22.016819292
 10
-0.1952041138
 20
22.0154017786
 10
-0.1904489962
 20
22.0136743553
 10
-0.1858959861
 20
22.0116665084
  0
LWPOLYLINE
  5
28F
100
AcDbEntity
  8
RACCORDO
100
AcDbPolyline
 62
7
  6
CONTINUOUS
 90
10
 70
0
 10
7.221893514
 20
24.0254018724
 10
7.2332899783
 20
24.0305705276
 10
7.2445103807
 20
24.034622424
 10
7.2555547215
 20
24.0375575616
 10
7.2665179804
 20
24.0393760929
 10
7.2773051775
 20
24.0400778654
 10
7.287631373
 20
24.039662421
 10
7.2974015867
 20
24.0381296071
 10
7.3067107987
 20
24.0354795764
 10
7.315559009
 20
24.0317123288
  0
LINE
  5
290
100
AcDbEntity
  8
RACCORDO
100
AcDbLine
 62
250
  6
CONTINUOUS
 10
-1.1193841321
 20
21.9475155863
 11
-1.1127296305
 21
21.9505324925
  0
LWPOLYLINE
  5
291
100
AcDbEntity
  8
RACCORDO
100
AcDbPolyline
 62
250
  6
CONTINUOUS
 90
22
 70
0
 10
-1.4421413434
 20
21.9145712461
 10
-1.4390130302
 20
21.9159811781
 10
-1.4297645678
 20
21.9197550723
 10
-1.4203049535
 20
21.9230375277
 10
-1.4106443131
 20
21.9258250309
 10
-1.4007929875
 20
21.9281145981
 10
-1.3907615215
 20
21.9299037785
 10
-1.380560653
 20
21.931190657
 10
-1.3702013011
 20
21.931973856
 10
-1.3596945546
 20
21.9322525372
 10
-1.3490516599
 20
21.9320264024
 10
-1.3382840093
 20
21.9312956935
 10
-1.3274031287
 20
21.9300611927
 10
-1.3164206651
 20
21.9283242214
 10
-1.3053483741
 20
21.926086639
 10
-1.2941981077
 20
21.9233508405
 10
-1.2829818013
 20
21.9201197543
 10
-1.2717114608
 20
21.9163968392
 10
-1.2603991502
 20
21.9121860799
 10
-1.2490569784
 20
21.907491984
 10
-1.237697086
 20
21.9023195758
 10
-1.2263316328
 20
21.8966743921
  0
LINE
  5
292
100
AcDbEntity
  8
RACCORDO
100
AcDbLine
 62
250
  6
CONTINUOUS
 10
-1.1127296305
 20
21.9505324925
 11
-1.1059538417
 21
21.9535663521
  0
LINE
  5
293
100
AcDbEntity
  8
RACCORDO
100
AcDbLine
 62
250
  6
CONTINUOUS
 10
-1.1059538417
 20
21.9535663521
 11
-1.0990519455
 21
21.9566150158
  0
LINE
  5
294
100
AcDbEntity
  8
RACCORDO
100
AcDbLine
 62
250
  6
CONTINUOUS
 10
-1.0990519455
 20
21.9566150158
 11
-1.0920206062
 21
21.9596770892
  0
LINE
  5
295
100
AcDbEntity
  8
RACCORDO
100
AcDbLine
 62
250
  6
CONTINUOUS
 10
-1.0920206062
 20
21.9596770892
 11
-1.0848545325
 21
21.9627505848
  0
LINE
  5
296
100
AcDbEntity
  8
RACCORDO
100
AcDbLine
 62
250
  6
CONTINUOUS
 10
-1.0848545325
 20
21.9627505848
 11
-1.0775491486
 21
21.9658331313
  0
LINE
  5
297
100
AcDbEntity
  8
RACCORDO
100
AcDbLine
 62
250
  6
CONTINUOUS
 10
-1.0775491486
 20
21.9658331313
 11
-1.0701014209
 21
21.9689231282
  0
LINE
  5
298
100
AcDbEntity
  8
RACCORDO
100
AcDbLine
 62
250
  6
CONTINUOUS
 10
-1.0701014209
 20
21.9689231282
 11
-1.0625069256
 21
21.9720181014
  0
LINE
  5
299
100
AcDbEntity
  8
RACCORDO
100
AcDbLine
 62
250
  6
CONTINUOUS
 10
-1.0625069256
 20
21.9720181014
 11
-1.0547612401
 21
21.9751155068
  0
LINE
  5
29A
100
AcDbEntity
  8
RACCORDO
100
AcDbLine
 62
250
  6
CONTINUOUS
 10
-1.0547612401
 20
21.9751155068
 11
-1.0468615107
 21
21.9782135948
  0
LINE
  5
29B
100
AcDbEntity
  8
RACCORDO
100
AcDbLine
 62
250
  6
CONTINUOUS
 10
-1.0468615107
 20
21.9782135948
 11
-1.0388035157
 21
21.9813096914
  0
LINE
  5
29C
100
AcDbEntity
  8
RACCORDO
100
AcDbLine
 62
250
  6
CONTINUOUS
 10
-1.0388035157
 20
21.9813096914
 11
-1.0305835662
 21
21.9844008486
  0
LINE
  5
29D
100
AcDbEntity
  8
RACCORDO
100
AcDbLine
 62
250
  6
CONTINUOUS
 10
-1.0305835662
 20
21.9844008486
 11
-1.0221992586
 21
21.9874850687
  0
LINE
  5
29E
100
AcDbEntity
  8
RACCORDO
100
AcDbLine
 62
250
  6
CONTINUOUS
 10
-1.0221992586
 20
21.9874850687
 11
-1.0136472671
 21
21.990559236
  0
LINE
  5
29F
100
AcDbEntity
  8
RACCORDO
100
AcDbLine
 62
250
  6
CONTINUOUS
 10
-1.0136472671
 20
21.990559236
 11
-1.0049234805
 21
21.9936204379
  0
LINE
  5
2A0
100
AcDbEntity
  8
DRAFT
100
AcDbLine
 62
7
  6
CONTINUOUS
 10
-10.4888549528
 20
-16.9271043901
 11
-10.5357313022
 21
-16.9150610793
  0
LINE
  5
2A1
100
AcDbEntity
  8
DRAFT
100
AcDbLine
 62
7
  6
CONTINUOUS
 10
-10.5357313022
 20
-16.9150610793
 11
-10.5834487371
 21
-16.8988195282
  0
LWPOLYLINE
  5
2A2
100
AcDbEntity
  8
DRAFT
100
AcDbPolyline
 62
7
  6
CONTINUOUS
 90
4
 70
0
 10
-10.5834487371
 20
-16.8988195282
 10
-10.6313194878
 20
-16.8786566585
 10
-10.6800329072
 20
-16.85429651
 10
-10.7287762837
 20
-16.8261229368
  0
LWPOLYLINE
  5
2A3
100
AcDbEntity
  8
0
100
AcDbPolyline
 62
250
  6
CONTINUOUS
 90
5
 70
0
 10
3.5472383511
 20
-23.6914812809
 10
3.5430497858
 20
-23.6895146251
 10
3.5368298991
 20
-23.6870389852
 10
3.5304170014
 20
-23.6849974497
 10
3.5238232999
 20
-23.6833939048
  0
LINE
  5
2A4
100
AcDbEntity
  8
0
100
AcDbLine
 62
7
  6
CONTINUOUS
 10
1.8489368096
 20
-24.0878112635
 11
1.0697155971
 21
-23.6982186587
  0
LINE
  5
2A5
100
AcDbEntity
  8
0
100
AcDbLine
 62
7
  6
CONTINUOUS
 10
2.3596183748
 20
-23.6492573203
 11
1.8423877811
 21
-23.3906420235
  0
LINE
  5
2A6
100
AcDbEntity
  8
0
100
AcDbLine
 62
250
  6
CONTINUOUS
 10
3.0849699235
 20
-23.4639672166
 11
3.5238232999
 21
-23.6833939048
  0
LINE
  5
2A7
100
AcDbEntity
  8
0
100
AcDbLine
 62
7
  6
CONTINUOUS
 10
3.0849699235
 20
-23.4603470671
 11
3.5472383511
 21
-23.6914812809
  0
LINE
  5
2A8
100
AcDbEntity
  8
0
100
AcDbLine
 62
250
  6
CONTINUOUS
 10
3.5321536034
 20
-23.6878594885
 11
3.5238232999
 21
-23.6833939048
  0
LINE
  5
2A9
100
AcDbEntity
  8
0
100
AcDbLine
 62
7
  6
CONTINUOUS
 10
3.5472383511
 20
-23.6914812809
 11
3.5715633025
 21
-23.7054005228
  0
LWPOLYLINE
  5
2AA
100
AcDbEntity
  8
DRAFT
100
AcDbPolyline
 62
7
  6
CONTINUOUS
 90
4
 70
0
 10
-10.7287762837
 20
-16.8261229368
 10
-10.7773741577
 20
-16.7942231462
 10
-10.8260004036
 20
-16.7585089687
 10
-10.8746534369
 20
-16.7189794424
  0
LWPOLYLINE
  5
2AB
100
AcDbEntity
  8
SUPERFICI
100
AcDbPolyline
 62
7
  6
CONTINUOUS
 90
10
 70
0
 10
-10.8746529343
 20
-16.7189798087
 10
-10.8271200371
 20
-16.7578017045
 10
-10.7792037888
 20
-16.7930768476
 10
-10.7309057361
 20
-16.8248061767
 10
-10.6818784216
 20
-16.8532000871
 10
-10.6324708643
 20
-16.8780491315
 10
-10.5837285598
 20
-16.8987240205
 10
-10.5359994772
 20
-16.9150146694
 10
-10.4889340581
 20
-16.9271301979
 10
-10.4425306976
 20
-16.935069632
  0
LWPOLYLINE
  5
2AC
100
AcDbEntity
  8
DRAFT
100
AcDbPolyline
 62
7
  6
CONTINUOUS
 90
4
 70
0
 10
-10.8746534369
 20
-16.7189794424
 10
-10.8845093551
 20
-16.7095570231
 10
-10.8935034533
 20
-16.6994592413
 10
-10.9016355048
 20
-16.6886859597
  0
LWPOLYLINE
  5
2AD
100
AcDbEntity
  8
RACCORDO
100
AcDbPolyline
 62
250
  6
CONTINUOUS
 90
8
 70
0
 10
-17.6829156369
 20
-17.5481156225
 10
-17.6769045516
 20
-17.5761042297
 10
-17.6654912837
 20
-17.604804236
 10
-17.6490064908
 20
-17.6322299526
 10
-17.6276248842
 20
-17.6580907124
 10
-17.6015730735
 20
-17.6821124347
 10
-17.5711271647
 20
-17.7040405288
 10
-17.5366098336
 20
-17.7236425936
  0
LWPOLYLINE
  5
2AE
100
AcDbEntity
  8
RACCORDO
100
AcDbPolyline
 62
7
  6
CONTINUOUS
 90
5
 70
0
 10
-17.682903815
 20
-17.5481140983
 10
-17.675272864
 20
-17.597299992
 10
-17.6560512174
 20
-17.6799316038
 10
-17.629823819
 20
-17.7573760465
 10
-17.5972879234
 20
-17.8289899546
  0
LINE
  5
2AF
100
AcDbEntity
  8
RACCORDO
100
AcDbLine
 62
7
  6
CONTINUOUS
 10
-17.6829672188
 20
-17.5477142091
 11
-17.6829156369
 21
-17.5481156225
  0
LWPOLYLINE
  5
2B0
100
AcDbEntity
  8
RACCORDO
100
AcDbPolyline
 62
250
  6
CONTINUOUS
 90
10
 70
0
 10
-17.5366098602
 20
-17.7236426117
 10
-17.6630025033
 20
-16.6762281686
 10
-17.7765936684
 20
-15.6198916097
 10
-17.8773590656
 20
-14.5548534407
 10
-17.965276728
 20
-13.4813362136
 10
-18.0403282837
 20
-12.3995636744
 10
-18.1024989531
 20
-11.3097607121
 10
-18.1517758642
 20
-10.2121543884
 10
-18.1881480628
 20
-9.1069738948
 10
-18.2116077782
 20
-7.9944496956
  0
LWPOLYLINE
  5
2B1
100
AcDbEntity
  8
RACCORDO
100
AcDbPolyline
 62
250
  6
CONTINUOUS
 90
9
 70
0
 10
-18.3580620155
 20
8.6360448602
 10
-18.3570302925
 20
8.6184795082
 10
-18.3510662448
 20
8.5934653021
 10
-18.3398796935
 20
8.568822804
 10
-18.3235891539
 20
8.5448130871
 10
-18.3023672149
 20
8.5216905207
 10
-18.2764387108
 20
8.4997000751
 10
-18.2460783394
 20
8.4790747267
 10
-18.2116077514
 20
8.4600329891
  0
LWPOLYLINE
  5
2B2
100
AcDbEntity
  8
RACCORDO
100
AcDbPolyline
 62
7
  6
CONTINUOUS
 90
10
 70
0
 10
-18.3580602092
 20
-7.8170922212
 10
-18.3359371268
 20
-8.8795773926
 10
-18.2995782327
 20
-9.9999110518
 10
-18.2499614447
 20
-11.1125770916
 10
-18.1870944532
 20
-12.2173058742
 10
-18.1109887303
 20
-13.3138765939
 10
-18.0216557613
 20
-14.4020872488
 10
-17.9191093867
 20
-15.4817193017
 10
-17.8033734256
 20
-16.5525138193
 10
-17.6829672188
 20
-17.5477142091
  0
LWPOLYLINE
  5
2B3
100
AcDbEntity
  8
RACCORDO
100
AcDbPolyline
 62
250
  6
CONTINUOUS
 90
10
 70
0
 10
-18.2116077782
 20
-7.9944496956
 10
-18.2361623127
 20
-6.1791887939
 10
-18.2545779998
 20
-4.3606165864
 10
-18.2668548864
 20
-2.5387657007
 10
-18.2729930886
 20
-0.7136936063
 10
-18.2729930919
 20
1.1145916655
 10
-18.2668548953
 20
2.9461319502
 10
-18.2545780115
 20
4.7809197031
 10
-18.236162322
 20
6.6188975717
 10
-18.2116077782
 20
8.4600329763
  0
LWPOLYLINE
  5
2B4
100
AcDbEntity
  8
RACCORDO
100
AcDbPolyline
 62
7
  6
CONTINUOUS
 90
10
 70
0
 10
-18.3580620395
 20
8.6360449716
 10
-18.3820175211
 20
6.8459158195
 10
-18.4007294747
 20
4.9927381519
 10
-18.4132010576
 20
3.1427560776
 10
-18.4194318818
 20
1.2960076069
 10
-18.4194218368
 20
-0.5474756787
 10
-18.4131708669
 20
-2.3876646684
 10
-18.4006789683
 20
-4.2245278857
 10
-18.3819464153
 20
-6.0580277168
 10
-18.358060222
 20
-7.817092383
  0
LWPOLYLINE
  5
2B5
100
AcDbEntity
  8
RACCORDO
100
AcDbPolyline
 62
250
  6
CONTINUOUS
 90
10
 70
0
 10
-18.2116077782
 20
8.4600329763
 10
-18.1881480623
 20
9.5972723037
 10
-18.1517758632
 20
10.7407698044
 10
-18.1024989519
 20
11.8902872431
 10
-18.0403282827
 20
13.0455853095
 10
-17.9652767274
 20
14.2064232347
 10
-17.8773590654
 20
15.3725588444
 10
-17.7765936683
 20
16.5437491857
 10
-17.6630025032
 20
17.7197505748
 10
-17.5366098602
 20
18.9003182161
  0
LWPOLYLINE
  5
2B6
100
AcDbEntity
  8
0
100
AcDbPolyline
 62
250
  6
CONTINUOUS
 90
30
 70
0
 10
-10.81996886
 20
22.389869184
 10
-10.8243893855
 20
22.3789776892
 10
-10.8291965808
 20
22.3683114203
 10
-10.8343795964
 20
22.3578944505
 10
-10.8399267345
 20
22.3477502903
 10
-10.8458254755
 20
22.3379018344
 10
-10.8520625063
 20
22.3283713102
 10
-10.8586237504
 20
22.3191802275
 10
-10.8654943993
 20
22.3103493301
 10
-10.8726589465
 20
22.3018985488
 10
-10.8801012219
 20
22.2938469565
 10
-10.8878044288
 20
22.2862127251
 10
-10.8957511815
 20
22.2790130847
 10
-10.9039235447
 20
22.2722642844
 10
-10.9123030738
 20
22.265981556
 10
-10.9208708568
 20
22.260179079
 10
-10.9296075565
 20
22.2548699494
 10
-10.9384934549
 20
22.2500661496
 10
-10.9475084969
 20
22.2457785215
 10
-10.9566323362
 20
22.2420167419
 10
-10.9658443808
 20
22.238789301
 10
-10.9751238396
 20
22.236103483
 10
-10.9844497695
 20
22.2339653495
 10
-10.9938011224
 20
22.2323797263
 10
-11.0031567928
 20
22.2313501919
 10
-11.0124956655
 20
22.23087907
 10
-11.0217966633
 20
22.2309674239
 10
-11.0310387944
 20
22.2316150541
 10
-11.0402011997
 20
22.232820499
 10
-11.0468123535
 20
22.2340480232
  0
LINE
  5
2B7
100
AcDbEntity
  8
RACCORDO
100
AcDbLine
 62
7
  6
CONTINUOUS
 10
-3.6869032859
 20
19.9725178487
 11
-3.6539111692
 21
20.0013923527
  0
LINE
  5
2B8
100
AcDbEntity
  8
RACCORDO
100
AcDbLine
 62
7
  6
CONTINUOUS
 10
-3.1999640194
 20
20.3986841935
 11
-1.5139954359
 21
21.8742338526
  0
LINE
  5
2B9
100
AcDbEntity
  8
RACCORDO
100
AcDbLine
 62
250
  6
CONTINUOUS
 10
-2.6585443808
 20
20.660885559
 11
-1.2653955535
 21
21.8801611121
  0
LINE
  5
2BA
100
AcDbEntity
  8
0
100
AcDbLine
 62
7
  6
CONTINUOUS
 10
-1.8314719427
 20
19.4079748787
 11
-2.6717795158
 21
18.9743830756
  0
LINE
  5
2BB
100
AcDbEntity
  8
0
100
AcDbLine
 62
7
  6
CONTINUOUS
 10
-0.9455387293
 20
19.1794804367
 11
-2.0123696414
 21
18.6446781384
  0
LINE
  5
2BC
100
AcDbEntity
  8
RACCORDO
100
AcDbLine
 62
7
  6
CONTINUOUS
 10
7.2219224099
 20
24.0254163204
 11
6.4001385803
 21
23.6145244055
  0
LINE
  5
2BD
100
AcDbEntity
  8
0
100
AcDbLine
 62
7
  6
CONTINUOUS
 10
4.3289533398
 20
21.8097895706
 11
-0.9455387293
 21
19.1794804367
  0
LINE
  5
2BE
100
AcDbEntity
  8
0
100
AcDbLine
 62
7
  6
CONTINUOUS
 10
3.7124815151
 20
22.118025483
 11
-0.8996929837
 21
19.8445691145
  0
LINE
  5
2BF
100
AcDbEntity
  8
0
100
AcDbLine
 62
7
  6
CONTINUOUS
 10
4.492606788
 20
21.488199808
 11
5.8153692496
 21
22.1402225671
  0
LINE
  5
2C0
100
AcDbEntity
  8
RACCORDO
100
AcDbLine
 62
7
  6
CONTINUOUS
 10
10.8015477668
 20
25.6141846874
 11
7.2381169303
 21
23.9039299396
  0
LWPOLYLINE
  5
2C1
100
AcDbEntity
  8
0
100
AcDbPolyline
 62
7
  6
CONTINUOUS
 90
6
 70
0
 10
1.6350717293
 20
18.8022390508
 10
1.6632934216
 20
18.8139108248
 10
1.693157598
 20
18.8221462682
 10
1.7241591436
 20
18.8266539493
 10
1.7558539819
 20
18.8272318477
 10
1.7875028592
 20
18.8237707497
  0
LWPOLYLINE
  5
2C2
100
AcDbEntity
  8
0
100
AcDbPolyline
 62
250
  6
CONTINUOUS
 90
14
 70
0
 10
1.6434527846
 20
18.8058282395
 10
1.6504073235
 20
18.808113693
 10
1.6575751289
 20
18.8098767261
 10
1.6649399642
 20
18.8111133452
 10
1.6724851462
 20
18.8118207491
 10
1.6801935835
 20
18.8119973354
 10
1.6880478147
 20
18.811642704
 10
1.6960300483
 20
18.8107576583
 10
1.7041222027
 20
18.8093442031
 10
1.7123059473
 20
18.8074055402
 10
1.7205627442
 20
18.8049460611
 10
1.7288738898
 20
18.801971337
 10
1.7372205576
 20
18.7984881065
 10
1.7455838404
 20
18.7945042597
  0
LWPOLYLINE
  5
2C3
100
AcDbEntity
  8
SUPERFICI
100
AcDbPolyline
 62
7
  6
CONTINUOUS
 90
4
 70
0
 10
-10.4425306976
 20
-16.935069632
 10
-10.4337716991
 20
-16.9353190416
 10
-10.4259053867
 20
-16.9339410384
 10
-10.4245262377
 20
-16.9335002429
  0
LINE
  5
2C4
100
AcDbEntity
  8
DRAFT
100
AcDbLine
 62
7
  6
CONTINUOUS
 10
-10.4425301863
 20
-16.9350697692
 11
-10.4888549528
 21
-16.9271043901
  0
LWPOLYLINE
  5
2C5
100
AcDbEntity
  8
SUPERFICI
100
AcDbPolyline
 62
7
  6
CONTINUOUS
 90
4
 70
0
 10
-10.7875176806
 20
-12.8358870382
 10
-10.8363466686
 20
-12.8074157718
 10
-10.8857274715
 20
-12.7825795021
 10
-10.934910411
 20
-12.7619101182
  0
LINE
  5
2C6
100
AcDbEntity
  8
0
100
AcDbLine
 62
7
  6
CONTINUOUS
 10
3.5715633025
 20
-23.7054005228
 11
3.5943844741
 21
-23.7221245628
  0
LWPOLYLINE
  5
2C7
100
AcDbEntity
  8
SUPERFICI
100
AcDbPolyline
 62
7
  6
CONTINUOUS
 90
4
 70
0
 10
-10.6453678665
 20
-12.9424794781
 10
-10.6922019038
 20
-12.9033150662
 10
-10.7395846618
 20
-12.8677839747
 10
-10.7875176806
 20
-12.8358870382
  0
LWPOLYLINE
  5
2C8
100
AcDbEntity
  8
DRAFT
100
AcDbPolyline
 62
7
  6
CONTINUOUS
 90
10
 70
0
 10
-10.6453680898
 20
-12.9424792076
 10
-10.6357124652
 20
-12.9520185559
 10
-10.6269739435
 20
-12.9622522448
 10
-10.6191522995
 20
-12.9731801523
 10
-10.6121558821
 20
-12.9849890587
 10
-10.60607573
 20
-12.9974918512
 10
-10.6011857186
 20
-13.0101276043
 10
-10.59757703
 20
-13.0227092828
 10
-10.5951580057
 20
-13.0354236628
 10
-10.5939283661
 20
-13.0482705922
  0
LINE
  5
2C9
100
AcDbEntity
  8
DRAFT
100
AcDbLine
 62
7
  6
CONTINUOUS
 10
-10.9016355048
 20
-16.6886859597
 11
-10.9090049091
 21
-16.6770502341
  0
LINE
  5
2CA
100
AcDbEntity
  8
DRAFT
100
AcDbLine
 62
7
  6
CONTINUOUS
 10
-10.9090049091
 20
-16.6770502341
 11
-10.9155116498
 21
-16.6647386346
  0
LINE
  5
2CB
100
AcDbEntity
  8
DRAFT
100
AcDbLine
 62
7
  6
CONTINUOUS
 10
-10.9155116498
 20
-16.6647386346
 11
-10.9208564443
 21
-16.6523113367
  0
LWPOLYLINE
  5
2CC
100
AcDbEntity
  8
SUPERFICI
100
AcDbPolyline
 62
7
  6
CONTINUOUS
 90
25
 70
0
 10
-12.0439960393
 20
8.7317510976
 10
-12.0720407242
 20
8.6353558347
 10
-12.0980298052
 20
8.5375002789
 10
-12.1219615554
 20
8.4381853655
 10
-12.143846855
 20
8.3373509805
 10
-12.1636711994
 20
8.2350591998
 10
-12.1813954248
 20
8.1314939747
 10
-12.1970126587
 20
8.0266661178
 10
-12.2105275933
 20
7.9205661822
 10
-12.2219195923
 20
7.8133472219
 10
-12.2311856782
 20
7.7050048101
 10
-12.2383276639
 20
7.5955443112
 10
-12.2433332007
 20
7.4851329829
 10
-12.2461991145
 20
7.373768572
 10
-12.2469285615
 20
7.2614537668
 10
-12.2455198394
 20
7.1483627237
 10
-12.2419708111
 20
7.0344987205
 10
-12.2362847671
 20
6.9198583834
 10
-12.2284692568
 20
6.804605388
 10
-12.2185201503
 20
6.688722171
 10
-12.2064437394
 20
6.5722257249
 10
-12.1922644025
 20
6.455331008
 10
-12.1759917306
 20
6.3381091313
 10
-12.1576197821
 20
6.220487701
 10
-12.1371502948
 20
6.102466107
  0
LINE
  5
2CD
100
AcDbEntity
  8
DRAFT
100
AcDbLine
 62
7
  6
CONTINUOUS
 10
-12.0439963718
 20
8.7317498532
 11
-12.0147123859
 21
8.8147477396
  0
LINE
  5
2CE
100
AcDbEntity
  8
DRAFT
100
AcDbLine
 62
7
  6
CONTINUOUS
 10
-12.0147123859
 20
8.8147477396
 11
-11.9802465269
 21
8.8911859809
  0
LWPOLYLINE
  5
2CF
100
AcDbEntity
  8
SUPERFICI
100
AcDbPolyline
 62
7
  6
CONTINUOUS
 90
3
 70
0
 10
-11.5718830668
 20
8.4466515203
 10
-11.5566004887
 20
8.4736855256
 10
-11.5398135551
 20
8.4990547236
  0
LINE
  5
2D0
100
AcDbEntity
  8
DRAFT
100
AcDbLine
 62
7
  6
CONTINUOUS
 10
-11.9802465269
 20
8.8911859809
 11
-11.9406096155
 21
8.9610598784
  0
LINE
  5
2D1
100
AcDbEntity
  8
DRAFT
100
AcDbLine
 62
7
  6
CONTINUOUS
 10
-11.9406096155
 20
8.9610598784
 11
-11.8955320168
 21
9.0246474497
  0
LWPOLYLINE
  5
2D2
100
AcDbEntity
  8
SUPERFICI
100
AcDbPolyline
 62
7
  6
CONTINUOUS
 90
4
 70
0
 10
-11.5398135551
 20
8.4990547236
 10
-11.5216899384
 20
8.5225095183
 10
-11.5022219629
 20
8.5440252115
 10
-11.4814196035
 20
8.5636255156
  0
LINE
  5
2D3
100
AcDbEntity
  8
DRAFT
100
AcDbLine
 62
7
  6
CONTINUOUS
 10
-11.8955320168
 20
9.0246474497
 11
-11.8453029454
 21
9.0816622333
  0
LINE
  5
2D4
100
AcDbEntity
  8
DRAFT
100
AcDbLine
 62
7
  6
CONTINUOUS
 10
-11.8453029454
 20
9.0816622333
 11
-11.7907737384
 21
9.1312519129
  0
LINE
  5
2D5
100
AcDbEntity
  8
DRAFT
100
AcDbLine
 62
7
  6
CONTINUOUS
 10
-11.7907737384
 20
9.1312519129
 11
-11.7491670236
 21
9.1620467208
  0
LWPOLYLINE
  5
2D6
100
AcDbEntity
  8
SUPERFICI
100
AcDbPolyline
 62
7
  6
CONTINUOUS
 90
12
 70
0
 10
-11.7491889329
 20
9.1620889372
 10
-11.7769816906
 20
9.142074994
 10
-11.812422513
 20
9.1129348272
 10
-11.8461030018
 20
9.0809022514
 10
-11.8780386841
 20
9.0459924689
 10
-11.9080074974
 20
9.0084449132
 10
-11.9360062009
 20
8.9682121791
 10
-11.9620329005
 20
8.9253438736
 10
-11.9858687156
 20
8.8802244669
 10
-12.0074397414
 20
8.8329825334
 10
-12.0268161817
 20
8.783491118
 10
-12.0439960393
 20
8.7317510976
  0
LWPOLYLINE
  5
2D7
100
AcDbEntity
  8
DRAFT
100
AcDbPolyline
 62
7
  6
CONTINUOUS
 90
10
 70
0
 10
-11.7491670236
 20
9.1620467208
 10
-11.7318350652
 20
9.1733450979
 10
-11.6686186767
 20
9.2080036977
 10
-11.602341606
 20
9.2345736811
 10
-11.5330372673
 20
9.2529037272
 10
-11.4606933804
 20
9.2631363403
 10
-11.3864599492
 20
9.2650576246
 10
-11.310725621
 20
9.2585940858
 10
-11.2331165564
 20
9.2438130944
 10
-11.1536377443
 20
9.2207125928
  0
LWPOLYLINE
  5
2D8
100
AcDbEntity
  8
0
100
AcDbPolyline
 62
7
  6
CONTINUOUS
 90
10
 70
0
 10
-0.4847083076
 20
17.7286206709
 10
-0.5127095333
 20
17.7118604933
 10
-0.5386931626
 20
17.6912312625
 10
-0.5619795694
 20
17.6670308673
 10
-0.5819251355
 20
17.6397477825
 10
-0.5980556399
 20
17.6099207046
 10
-0.6100541928
 20
17.5780098009
 10
-0.6176614046
 20
17.5443644461
 10
-0.620565284
 20
17.5099866261
 10
-0.6205941998
 20
17.5062011484
  0
LINE
  5
2D9
100
AcDbEntity
  8
0
100
AcDbLine
 62
7
  6
CONTINUOUS
 10
-0.9455387293
 20
17.7938397907
 11
-2.0123696414
 21
17.1985153727
  0
LWPOLYLINE
  5
2DA
100
AcDbEntity
  8
0
100
AcDbPolyline
 62
7
  6
CONTINUOUS
 90
38
 70
0
 10
10.3866300218
 20
21.5045105427
 10
10.3461115648
 20
21.4834515847
 10
10.306497308
 20
21.4619668526
 10
10.2678051433
 20
21.4400660501
 10
10.2300525466
 20
21.4177590689
 10
10.1932565689
 20
21.3950559841
 10
10.1574338296
 20
21.3719670498
 10
10.1226005082
 20
21.3485026942
 10
10.0887723376
 20
21.3246735153
 10
10.0559645964
 20
21.3004902756
 10
10.0241921026
 20
21.2759638977
 10
9.9934692064
 20
21.2511054593
 10
9.9638097842
 20
21.2259261876
 10
9.9352272318
 20
21.2004374553
 10
9.9077344587
 20
21.1746507745
 10
9.8813438823
 20
21.1485777919
 10
9.8560674222
 20
21.1222302836
 10
9.8319164946
 20
21.0956201497
 10
9.8089020074
 20
21.0687594089
 10
9.7870343555
 20
21.041660193
 10
9.7663234154
 20
21.0143347417
 10
9.7467785414
 20
20.9867953966
 10
9.7284085612
 20
20.9590545962
 10
9.7112217717
 20
20.9311248698
 10
9.6952259354
 20
20.9030188321
 10
9.680428277
 20
20.8747491773
 10
9.6668354799
 20
20.8463286738
 10
9.6544536835
 20
20.8177701579
 10
9.6432884802
 20
20.7890865283
 10
9.6333449127
 20
20.7602907401
 10
9.6246274721
 20
20.7313957992
 10
9.6171400958
 20
20.7024147563
 10
9.6108861655
 20
20.6733607008
 10
9.6058685058
 20
20.6442467552
 10
9.602089383
 20
20.6150860692
 10
9.5995505039
 20
20.5858918134
 10
9.5982530153
 20
20.5566771735
 10
9.598068757
 20
20.5407603043
  0
LINE
  5
2DB
100
AcDbEntity
  8
DRAFT
100
AcDbLine
 62
7
  6
CONTINUOUS
 10
-3.3365631169
 20
16.3901122647
 11
-3.6085934472
 21
16.2492644381
  0
LINE
  5
2DC
100
AcDbEntity
  8
0
100
AcDbLine
 62
7
  6
CONTINUOUS
 10
-0.4847083076
 20
17.7286206709
 11
1.0984653578
 21
18.5408187291
  0
LINE
  5
2DD
100
AcDbEntity
  8
0
100
AcDbLine
 62
250
  6
CONTINUOUS
 10
-0.3716226415
 20
17.7221726958
 11
1.2111339617
 21
18.5341567931
  0
LINE
  5
2DE
100
AcDbEntity
  8
RACCORDO
100
AcDbLine
 62
7
  6
CONTINUOUS
 10
14.6030097996
 20
23.6498201594
 11
10.3866300218
 21
21.5045105427
  0
LINE
  5
2DF
100
AcDbEntity
  8
DRAFT
100
AcDbLine
 62
7
  6
CONTINUOUS
 10
14.6090667864
 20
23.2123316922
 11
10.3866300218
 21
21.0942914998
  0
LINE
  5
2E0
100
AcDbEntity
  8
0
100
AcDbLine
 62
250
  6
CONTINUOUS
 10
1.306915429
 20
16.8829036606
 11
2.9081962198
 21
17.6856256641
  0
LINE
  5
2E1
100
AcDbEntity
  8
0
100
AcDbLine
 62
250
  6
CONTINUOUS
 10
1.4836891326
 20
16.5780141218
 11
3.0849699235
 21
17.3807361253
  0
LINE
  5
2E2
100
AcDbEntity
  8
0
100
AcDbLine
 62
7
  6
CONTINUOUS
 10
1.0984653558
 20
18.5408187281
 11
1.1002017724
 21
18.5416869508
  0
LINE
  5
2E3
100
AcDbEntity
  8
0
100
AcDbLine
 62
7
  6
CONTINUOUS
 10
8.774605189
 20
20.6606045973
 11
3.4527492583
 21
18.0028989216
  0
LINE
  5
2E4
100
AcDbEntity
  8
0
100
AcDbLine
 62
7
  6
CONTINUOUS
 10
-0.9455387293
 20
17.7938397907
 11
4.3617719369
 21
20.4405150608
  0
LINE
  5
2E5
100
AcDbEntity
  8
0
100
AcDbLine
 62
250
  6
CONTINUOUS
 10
2.9081962198
 20
17.6856256641
 11
3.4364633915
 21
17.9490644841
  0
LINE
  5
2E6
100
AcDbEntity
  8
0
100
AcDbLine
 62
250
  6
CONTINUOUS
 10
3.0849699235
 20
17.3807361253
 11
3.6132370952
 21
17.6441749453
  0
LWPOLYLINE
  5
2E7
100
AcDbEntity
  8
0
100
AcDbPolyline
 62
250
  6
CONTINUOUS
 90
16
 70
0
 10
-0.4847083076
 20
17.7286206709
 10
-0.4813105833
 20
17.7302782953
 10
-0.4745653624
 20
17.7330908431
 10
-0.4675846234
 20
17.7353893965
 10
-0.4603841794
 20
17.7371687489
 10
-0.452980341
 20
17.7384248696
 10
-0.4453898796
 20
17.7391549133
 10
-0.4376299892
 20
17.7393572261
 10
-0.4297182477
 20
17.7390313498
 10
-0.421672577
 20
17.7381780227
 10
-0.4135112023
 20
17.7367991776
 10
-0.405252611
 20
17.7348979381
 10
-0.3969155107
 20
17.7324786107
 10
-0.3885187866
 20
17.7295466758
 10
-0.3800814594
 20
17.726108775
 10
-0.3716226415
 20
17.7221726958
  0
LINE
  5
2E8
100
AcDbEntity
  8
0
100
AcDbLine
 62
7
  6
CONTINUOUS
 10
1.1002017716
 20
18.5416869504
 11
1.6350717293
 21
18.8022390508
  0
LINE
  5
2E9
100
AcDbEntity
  8
0
100
AcDbLine
 62
250
  6
CONTINUOUS
 10
1.2111339617
 20
18.5341567931
 11
1.7455838404
 21
18.7945042597
  0
LINE
  5
2EA
100
AcDbEntity
  8
RACCORDO
100
AcDbLine
 62
7
  6
CONTINUOUS
 10
13.5657177865
 20
24.2320996776
 11
9.992644088
 21
22.5266663608
  0
LWPOLYLINE
  5
2EB
100
AcDbEntity
  8
0
100
AcDbPolyline
 62
250
  6
CONTINUOUS
 90
3
 70
0
 10
1.6350717293
 20
18.8022390508
 10
1.6367272657
 20
18.8030255428
 10
1.6434527846
 20
18.8058282395
  0
LWPOLYLINE
  5
2EC
100
AcDbEntity
  8
0
100
AcDbPolyline
 62
7
  6
CONTINUOUS
 90
16
 70
0
 10
1.1002017724
 20
18.5416869508
 10
1.1018594007
 20
18.5424744593
 10
1.1085948896
 20
18.5452819972
 10
1.1155626288
 20
18.5475738588
 10
1.1227468859
 20
18.5493448786
 10
1.1301314015
 20
18.5505910537
 10
1.1376993559
 20
18.5513095189
 10
1.1454336774
 20
18.551498684
 10
1.1533168833
 20
18.5511581407
 10
1.1613309828
 20
18.5502885991
 10
1.1694579132
 20
18.548892076
 10
1.1776793242
 20
18.5469717662
 10
1.1859764209
 20
18.5445319395
 10
1.1943304143
 20
18.5415781286
 10
1.2027225634
 20
18.5381171156
 10
1.2111339617
 20
18.5341567931
  0
LWPOLYLINE
  5
2ED
100
AcDbEntity
  8
DRAFT
100
AcDbPolyline
 62
7
  6
CONTINUOUS
 90
3
 70
0
 10
-10.4245728854
 20
-16.9334076973
 10
-10.4333457678
 20
-16.9351527589
 10
-10.4425301863
 20
-16.9350697692
  0
LINE
  5
2EE
100
AcDbEntity
  8
SUPERFICI
100
AcDbLine
 62
7
  6
CONTINUOUS
 10
-11.0302846915
 20
-12.7340601674
 11
-11.077386725
 21
-12.7264786174
  0
LINE
  5
2EF
100
AcDbEntity
  8
DRAFT
100
AcDbLine
 62
7
  6
CONTINUOUS
 10
-11.0773872033
 20
-12.7264784926
 11
-11.0303732352
 21
-12.7340841479
  0
LWPOLYLINE
  5
2F0
100
AcDbEntity
  8
DRAFT
100
AcDbPolyline
 62
7
  6
CONTINUOUS
 90
9
 70
0
 10
-11.0303732352
 20
-12.7340841479
 10
-10.9829775257
 20
-12.7458538536
 10
-10.9352016526
 20
-12.7617884645
 10
-10.8868695186
 20
-12.7819771393
 10
-10.8381587986
 20
-12.8063315737
 10
-10.7896009396
 20
-12.8345860015
 10
-10.741372565
 20
-12.8666515492
 10
-10.6932954741
 20
-12.9026162362
 10
-10.6453680898
 20
-12.9424792076
  0
LWPOLYLINE
  5
2F1
100
AcDbEntity
  8
SUPERFICI
100
AcDbPolyline
 62
7
  6
CONTINUOUS
 90
3
 70
0
 10
-10.934910411
 20
-12.7619101182
 10
-10.9826972749
 20
-12.7459021288
 10
-11.0302846915
 20
-12.7340601674
  0
LINE
  5
2F2
100
AcDbEntity
  8
DRAFT
100
AcDbLine
 62
7
  6
CONTINUOUS
 10
1.0697155971
 20
-18.0494382919
 11
2.7129026407
 21
-18.8710318137
  0
LINE
  5
2F3
100
AcDbEntity
  8
RACCORDO
100
AcDbLine
 62
250
  6
CONTINUOUS
 10
-18.2116077782
 20
-7.9944496956
 11
-3.562947293
 21
-15.3187799382
  0
LWPOLYLINE
  5
2F4
100
AcDbEntity
  8
0
100
AcDbPolyline
 62
7
  6
CONTINUOUS
 90
4
 70
0
 10
3.5943844741
 20
-23.7221245628
 10
3.6152880808
 20
-23.7414423124
 10
3.6338131177
 20
-23.7629496666
 10
3.6497780039
 20
-23.7864138989
  0
LWPOLYLINE
  5
2F5
100
AcDbEntity
  8
SUPERFICI
100
AcDbPolyline
 62
7
  6
CONTINUOUS
 90
4
 70
0
 10
-10.6181707475
 20
-12.9747102105
 10
-10.6261667872
 20
-12.9634156051
 10
-10.6352324187
 20
-12.952671987
 10
-10.6453678665
 20
-12.9424794781
  0
LINE
  5
2F6
100
AcDbEntity
  8
SUPERFICI
100
AcDbLine
 62
7
  6
CONTINUOUS
 10
-10.6111963774
 20
-12.9867693395
 11
-10.6181707475
 21
-12.9747102105
  0
LINE
  5
2F7
100
AcDbEntity
  8
SUPERFICI
100
AcDbLine
 62
7
  6
CONTINUOUS
 10
-10.6052909918
 20
-12.9993791263
 11
-10.6111963774
 21
-12.9867693395
  0
LINE
  5
2F8
100
AcDbEntity
  8
SUPERFICI
100
AcDbLine
 62
7
  6
CONTINUOUS
 10
-10.6005973436
 20
-13.0118984127
 11
-10.6052909918
 21
-12.9993791263
  0
LWPOLYLINE
  5
2F9
100
AcDbEntity
  8
DRAFT
100
AcDbPolyline
 62
7
  6
CONTINUOUS
 90
4
 70
0
 10
-10.9208564443
 20
-16.6523113367
 10
-10.924939423
 20
-16.6399549997
 10
-10.9278599791
 20
-16.627482676
 10
-10.9296178329
 20
-16.6148941965
  0
LWPOLYLINE
  5
2FA
100
AcDbEntity
  8
SUPERFICI
100
AcDbPolyline
 62
7
  6
CONTINUOUS
 90
4
 70
0
 10
-10.5939283414
 20
-13.0482714384
 10
-10.594940043
 20
-13.0362378354
 10
-10.5971629806
 20
-13.0241134591
 10
-10.6005973436
 20
-13.0118984127
  0
LINE
  5
2FB
100
AcDbEntity
  8
DRAFT
100
AcDbLine
 62
7
  6
CONTINUOUS
 10
-10.9592422604
 20
-16.1938138549
 11
-10.9296178329
 21
-16.6148941965
  0
LINE
  5
2FC
100
AcDbEntity
  8
0
100
AcDbLine
 62
7
  6
CONTINUOUS
 10
-12.92358225
 20
23.2997493056
 11
-12.924251913
 21
23.3182269616
  0
LWPOLYLINE
  5
2FD
100
AcDbEntity
  8
0
100
AcDbPolyline
 62
250
  6
CONTINUOUS
 90
22
 70
0
 10
-12.8510288901
 20
23.229650943
 10
-12.8508606378
 20
23.2202911948
 10
-12.8503562014
 20
23.2111175156
 10
-12.8495165409
 20
23.202147368
 10
-12.8483432549
 20
23.1933978273
 10
-12.8468385766
 20
23.1848855488
 10
-12.8450053703
 20
23.1766267359
 10
-12.8428471256
 20
23.1686371099
 10
-12.8403679509
 20
23.1609318795
 10
-12.8375725654
 20
23.1535257119
 10
-12.8344662903
 20
23.1464327052
 10
-12.8310550386
 20
23.1396663615
 10
-12.8273453037
 20
23.1332395607
 10
-12.8233441474
 20
23.1271645368
 10
-12.8190591861
 20
23.1214528538
 10
-12.8144985765
 20
23.1161153842
 10
-12.8096709999
 20
23.1111622883
 10
-12.8045856459
 20
23.1066029945
 10
-12.7992521948
 20
23.1024461818
 10
-12.7936807991
 20
23.0986997627
 10
-12.7878820642
 20
23.0953708689
 10
-12.7860555937
 20
23.0944324929
  0
LINE
  5
2FE
100
AcDbEntity
  8
0
100
AcDbLine
 62
7
  6
CONTINUOUS
 10
-13.0185507954
 20
22.2683950561
 11
-13.0185507954
 21
20.9542431122
  0
LINE
  5
2FF
100
AcDbEntity
  8
0
100
AcDbLine
 62
7
  6
CONTINUOUS
 10
-12.9242521948
 20
23.6580132248
 11
-12.9242521948
 21
23.3180392907
  0
LINE
  5
300
100
AcDbEntity
  8
0
100
AcDbLine
 62
250
  6
CONTINUOUS
 10
-12.8510288901
 20
23.5696248772
 11
-12.8510288901
 21
23.229650943
  0
LINE
  5
301
100
AcDbEntity
  8
0
100
AcDbLine
 62
7
  6
CONTINUOUS
 10
-12.2212592405
 20
22.8120343164
 11
-12.2212592405
 21
22.3580602147
  0
LINE
  5
302
100
AcDbEntity
  8
0
100
AcDbLine
 62
250
  6
CONTINUOUS
 10
-12.1480359358
 20
22.775422664
 11
-12.1480359358
 21
22.2663485198
  0
LWPOLYLINE
  5
303
100
AcDbEntity
  8
0
100
AcDbPolyline
 62
250
  6
CONTINUOUS
 90
34
 70
0
 10
-12.8510288901
 20
23.5696248772
 10
-12.8508300873
 20
23.5799893554
 10
-12.850234125
 20
23.5905293402
 10
-12.8492423418
 20
23.6012211258
 10
-12.8478569658
 20
23.6120406717
 10
-12.8460811117
 20
23.622963636
 10
-12.8439187766
 20
23.63396543
 10
-12.841374826
 20
23.6450213022
 10
-12.8384549812
 20
23.6561063912
 10
-12.8351658112
 20
23.667195761
 10
-12.8315147143
 20
23.6782644708
 10
-12.8275099037
 20
23.6892876232
 10
-12.8231603915
 20
23.7002404164
 10
-12.8184759628
 20
23.7110982142
 10
-12.8134671548
 20
23.7218365972
 10
-12.8081452362
 20
23.7324314104
 10
-12.8025221758
 20
23.7428588302
 10
-12.7966106251
 20
23.753095399
 10
-12.7904238934
 20
23.7631180759
 10
-12.7839759168
 20
23.7729042938
 10
-12.7772811835
 20
23.7824320736
 10
-12.7703547073
 20
23.7916800487
 10
-12.7632119968
 20
23.8006274991
 10
-12.7558691794
 20
23.8092542098
 10
-12.7483429327
 20
23.8175406002
 10
-12.7406502985
 20
23.8254679488
 10
-12.7328084859
 20
23.8330185616
 10
-12.7248349869
 20
23.8401756109
 10
-12.7167465094
 20
23.8469239839
 10
-12.7085624381
 20
23.8532473938
 10
-12.7003047673
 20
23.8591291698
 10
-12.6919933467
 20
23.8645559198
 10
-12.6836457143
 20
23.8695169338
 10
-12.6752806341
 20
23.8740016921
  0
LWPOLYLINE
  5
304
100
AcDbEntity
  8
0
100
AcDbPolyline
 62
250
  6
CONTINUOUS
 90
34
 70
0
 10
-11.1724908197
 20
22.730355842
 10
-11.1722920169
 20
22.7407203202
 10
-11.1716960546
 20
22.751260305
 10
-11.1707042714
 20
22.7619520906
 10
-11.1693188954
 20
22.7727716365
 10
-11.1675430413
 20
22.7836946008
 10
-11.1653807062
 20
22.7946963948
 10
-11.1628367555
 20
22.805752267
 10
-11.1599169108
 20
22.816837356
 10
-11.1566277408
 20
22.8279267257
 10
-11.1529766439
 20
22.8389954356
 10
-11.1489718333
 20
22.850018588
 10
-11.1446223211
 20
22.8609713812
 10
-11.1399378924
 20
22.8718291789
 10
-11.1349290843
 20
22.882567562
 10
-11.1296071658
 20
22.8931623752
 10
-11.1239841054
 20
22.903589795
 10
-11.1180725547
 20
22.9138263638
 10
-11.1118858229
 20
22.9238490406
 10
-11.1054378463
 20
22.9336352586
 10
-11.0987431131
 20
22.9431630384
 10
-11.0918166369
 20
22.9524110134
 10
-11.0846739264
 20
22.9613584639
 10
-11.077331109
 20
22.9699851746
 10
-11.0698048623
 20
22.978271565
 10
-11.062112228
 20
22.9861989136
 10
-11.0542704154
 20
22.9937495264
 10
-11.0462969165
 20
23.0009065757
 10
-11.038208439
 20
23.0076549487
 10
-11.0300243677
 20
23.0139783586
 10
-11.0217666969
 20
23.0198601345
 10
-11.0134552763
 20
23.0252868846
 10
-11.0051076439
 20
23.0302478986
 10
-10.9967425637
 20
23.0347326569
  0
LWPOLYLINE
  5
305
100
AcDbEntity
  8
SUPERFICI
100
AcDbPolyline
 62
7
  6
CONTINUOUS
 90
3
 70
0
 10
-10.9674357327
 20
8.7679448548
 10
-10.9625125854
 20
8.8172345526
 10
-10.9598082683
 20
8.8679050009
  0
LINE
  5
306
100
AcDbEntity
  8
SUPERFICI
100
AcDbLine
 62
7
  6
CONTINUOUS
 10
-10.974581183
 20
8.7202821707
 11
-10.967445598
 21
8.7678790498
  0
LINE
  5
307
100
AcDbEntity
  8
SUPERFICI
100
AcDbLine
 62
7
  6
CONTINUOUS
 10
-10.9839464215
 20
8.6739998764
 11
-10.974581183
 21
8.7202821707
  0
LINE
  5
308
100
AcDbEntity
  8
SUPERFICI
100
AcDbLine
 62
7
  6
CONTINUOUS
 10
-10.9955318049
 20
8.6290978416
 11
-10.9839464215
 21
8.6739998764
  0
LWPOLYLINE
  5
309
100
AcDbEntity
  8
SUPERFICI
100
AcDbPolyline
 62
7
  6
CONTINUOUS
 90
10
 70
0
 10
-10.5015898001
 20
8.8414541871
 10
-10.5133689299
 20
8.7964436091
 10
-10.5228793703
 20
8.7500812355
 10
-10.5301207752
 20
8.7023672284
 10
-10.5350894762
 20
8.6530550154
 10
-10.5377882052
 20
8.6023915957
 10
-10.5382272907
 20
8.551117042
 10
-10.5364111297
 20
8.4994776604
 10
-10.5323369912
 20
8.4472264881
 10
-10.5260055781
 20
8.394363249
  0
LWPOLYLINE
  5
30A
100
AcDbEntity
  8
DRAFT
100
AcDbPolyline
 62
7
  6
CONTINUOUS
 90
10
 70
0
 10
-11.6085304263
 20
8.3558107442
 10
-11.6705112193
 20
8.1240563043
 10
-11.7193164916
 20
7.8850697835
 10
-11.7549365303
 20
7.6388580542
 10
-11.7773875374
 20
7.3845510505
 10
-11.7866291444
 20
7.1230349265
 10
-11.782587483
 20
6.8569417696
 10
-11.7652543717
 20
6.5871433711
 10
-11.7346642434
 20
6.3127615165
 10
-11.690827843
 20
6.0337939264
  0
LINE
  5
30B
100
AcDbEntity
  8
DRAFT
100
AcDbLine
 62
7
  6
CONTINUOUS
 10
-12.1145743954
 20
8.4690939988
 11
-12.0439963718
 21
8.7317498532
  0
LWPOLYLINE
  5
30C
100
AcDbEntity
  8
SUPERFICI
100
AcDbPolyline
 62
7
  6
CONTINUOUS
 90
4
 70
0
 10
-11.6085292787
 20
8.355813603
 10
-11.5978206489
 20
8.3877566676
 10
-11.5856049246
 20
8.4180361125
 10
-11.5718830668
 20
8.4466515203
  0
LWPOLYLINE
  5
30D
100
AcDbEntity
  8
DRAFT
100
AcDbPolyline
 62
7
  6
CONTINUOUS
 90
7
 70
0
 10
-10.9955321023
 20
8.6290963635
 10
-10.9994210937
 20
8.6188931095
 10
-11.0042222289
 20
8.6102155764
 10
-11.0099358439
 20
8.6030636235
 10
-11.016669764
 20
8.5973799971
 10
-11.0243167215
 20
8.5932217172
 10
-11.0267383115
 20
8.592298095
  0
LWPOLYLINE
  5
30E
100
AcDbEntity
  8
DRAFT
100
AcDbPolyline
 62
7
  6
CONTINUOUS
 90
3
 70
0
 10
-10.5015894389
 20
8.8414559453
 10
-10.4968008971
 20
8.8532192901
 10
-10.4908917957
 20
8.862894176
  0
LWPOLYLINE
  5
30F
100
AcDbEntity
  8
0
100
AcDbPolyline
 62
250
  6
CONTINUOUS
 90
18
 70
0
 10
-3.568532149
 20
20.0909592562
 10
-3.5640560614
 20
20.1003803671
 10
-3.5592802139
 20
20.1096556624
 10
-3.5542175631
 20
20.1187599764
 10
-3.5488818626
 20
20.1276685608
 10
-3.5432876492
 20
20.1363571308
 10
-3.5374501619
 20
20.1448020108
 10
-3.5313852913
 20
20.1529802087
 10
-3.5251095392
 20
20.1608694693
 10
-3.5186399908
 20
20.1684483112
 10
-3.511994254
 20
20.1756961049
 10
-3.5051904162
 20
20.1825931219
 10
-3.4982470007
 20
20.1891205834
 10
-3.4911829012
 20
20.1952607259
 10
-3.4840173489
 20
20.2009968317
 10
-3.4767698669
 20
20.2063132732
 10
-3.4694601885
 20
20.2111955783
 10
-3.4621082029
 20
20.2156304659
  0
LWPOLYLINE
  5
310
100
AcDbEntity
  8
RACCORDO
100
AcDbPolyline
 62
250
  6
CONTINUOUS
 90
47
 70
0
 10
2.8573363618
 20
23.82211415
 10
2.886103137
 20
23.8605671087
 10
2.9353863553
 20
23.9173477862
 10
2.9905200299
 20
23.9729384005
 10
3.0510235083
 20
24.0268809228
 10
3.1168958599
 20
24.0791338223
 10
3.1881380152
 20
24.1297386298
 10
3.2642721129
 20
24.1783619083
 10
3.3452887419
 20
24.2249896508
 10
3.4311973133
 20
24.2696358644
 10
3.521548199
 20
24.3120091335
 10
3.6165984791
 20
24.3521683315
 10
3.7160910737
 20
24.390054585
 10
3.818805114
 20
24.4251998581
 10
3.9251459828
 20
24.457577578
 10
4.0347082974
 20
24.4872143176
 10
4.1450550418
 20
24.5137217598
 10
4.2561595587
 20
24.5369211532
 10
4.3680485054
 20
24.5569912493
 10
4.4783648375
 20
24.5740799851
 10
4.5867553274
 20
24.5880538809
 10
4.6935732027
 20
24.5990464165
 10
4.7975211018
 20
24.6076059677
 10
4.8983569362
 20
24.6137085373
 10
4.9963227945
 20
24.6173781225
 10
5.0908475809
 20
24.6192350913
 10
5.181769321
 20
24.6193009601
 10
5.2692499891
 20
24.6175542126
 10
5.3532044125
 20
24.6145506672
 10
5.4335084859
 20
24.6103318666
 10
5.5102863145
 20
24.6048562681
 10
5.5838250409
 20
24.5985550625
 10
5.6540915746
 20
24.5914690287
 10
5.7211190062
 20
24.5835573878
 10
5.7852937503
 20
24.5751289937
 10
5.8466014972
 20
24.5662183531
 10
5.9050565566
 20
24.5567909593
 10
5.9610882731
 20
24.5470521455
 10
6.0146928566
 20
24.5370306238
 10
6.0658740973
 20
24.526697682
 10
6.1150727096
 20
24.5161725173
 10
6.1622918545
 20
24.5054779781
 10
6.2075283711
 20
24.494591216
 10
6.2512134909
 20
24.4835628824
 10
6.293490958
 20
24.4724098611
 10
6.3342170284
 20
24.4611152682
 10
6.3733917022
 20
24.4496791039
  0
LWPOLYLINE
  5
311
100
AcDbEntity
  8
RACCORDO
100
AcDbPolyline
 62
250
  6
CONTINUOUS
 90
9
 70
0
 10
2.7764453352
 20
23.855159802
 10
2.8206738323
 20
23.9059598647
 10
2.8797527028
 20
23.965219082
 10
2.9448454822
 20
24.0228270151
 10
3.0157213141
 20
24.0786004828
 10
3.0922144519
 20
24.1324284183
 10
3.1742058556
 20
24.184229602
 10
3.2614544526
 20
24.2338472413
 10
3.281951614
 20
24.2447836096
  0
LWPOLYLINE
  5
312
100
AcDbEntity
  8
DRAFT
100
AcDbPolyline
 62
7
  6
CONTINUOUS
 90
3
 70
0
 10
-10.4908917957
 20
8.862894176
 10
-10.4838626778
 20
8.870480379
 10
-10.4801060364
 20
8.8733532453
  0
LWPOLYLINE
  5
313
100
AcDbEntity
  8
SUPERFICI
100
AcDbPolyline
 62
7
  6
CONTINUOUS
 90
5
 70
0
 10
-11.0155582057
 20
8.5982040312
 10
-11.0090312909
 20
8.6040151997
 10
-11.0035540616
 20
8.6110337698
 10
-10.9990543185
 20
8.6193946146
 10
-10.9955318049
 20
8.6290978416
  0
LWPOLYLINE
  5
314
100
AcDbEntity
  8
SUPERFICI
100
AcDbPolyline
 62
7
  6
CONTINUOUS
 90
3
 70
0
 10
-11.4814196035
 20
8.5636255156
 10
-11.4594774943
 20
8.5811332454
 10
-11.4363867552
 20
8.5965299761
  0
LWPOLYLINE
  5
315
100
AcDbEntity
  8
SUPERFICI
100
AcDbPolyline
 62
7
  6
CONTINUOUS
 90
5
 70
0
 10
-10.4800802515
 20
8.8733047021
 10
-10.4847268204
 20
8.8697300912
 10
-10.4915517407
 20
8.8622287898
 10
-10.4971728856
 20
8.8528034259
 10
-10.5015898001
 20
8.8414541871
  0
LWPOLYLINE
  5
316
100
AcDbEntity
  8
SUPERFICI
100
AcDbPolyline
 62
7
  6
CONTINUOUS
 90
3
 70
0
 10
-11.7011597792
 20
9.1915190802
 10
-11.7398015639
 20
9.1683356226
 10
-11.7491889329
 20
9.1620889372
  0
LINE
  5
317
100
AcDbEntity
  8
SUPERFICI
100
AcDbLine
 62
7
  6
CONTINUOUS
 10
-11.0230630317
 20
8.5937349592
 11
-11.0155582057
 21
8.5982040312
  0
LWPOLYLINE
  5
318
100
AcDbEntity
  8
DRAFT
100
AcDbPolyline
 62
7
  6
CONTINUOUS
 90
3
 70
0
 10
-10.4801060364
 20
8.8733532453
 10
-10.4755366588
 20
8.8760409916
 10
-10.4660914892
 20
8.8795125645
  0
LWPOLYLINE
  5
319
100
AcDbEntity
  8
RACCORDO
100
AcDbPolyline
 62
250
  6
CONTINUOUS
 90
19
 70
0
 10
-2.1621729531
 20
12.6310899999
 10
-2.2176018113
 20
12.5997406847
 10
-2.2725754904
 20
12.5634274723
 10
-2.3267678598
 20
12.522370995
 10
-2.379862061
 20
12.4768216662
 10
-2.4315384935
 20
12.4270540698
 10
-2.4814769144
 20
12.3733658388
 10
-2.5293796848
 20
12.3160837383
 10
-2.5749649011
 20
12.2555530255
 10
-2.6179539047
 20
12.1921311346
 10
-2.6580911025
 20
12.1262004037
 10
-2.6951392763
 20
12.0581589305
 10
-2.7288718084
 20
11.988409407
 10
-2.7590881536
 20
11.9173698798
 10
-2.785608618
 20
11.8454703269
 10
-2.8082688122
 20
11.7731425992
 10
-2.8269319929
 20
11.7008218159
 10
-2.8414895482
 20
11.6289436933
 10
-2.8518549693
 20
11.5579407707
  0
LINE
  5
31A
100
AcDbEntity
  8
0
100
AcDbLine
 62
7
  6
CONTINUOUS
 10
3.0849699235
 20
15.7785854643
 11
2.1949097407
 21
15.281904543
  0
LWPOLYLINE
  5
31B
100
AcDbEntity
  8
SUPERFICI
100
AcDbPolyline
 62
7
  6
CONTINUOUS
 90
4
 70
0
 10
-11.4363867552
 20
8.5965299761
 10
-11.4121586912
 20
8.6098330996
 10
-11.3870185174
 20
8.6209190295
 10
-11.375040371
 20
8.6253017439
  0
LINE
  5
31C
100
AcDbEntity
  8
0
100
AcDbLine
 62
250
  6
CONTINUOUS
 10
3.4387924387
 20
15.6016742067
 11
2.3596183748
 21
15.0125213646
  0
LINE
  5
31D
100
AcDbEntity
  8
ASSI
100
AcDbLine
 62
7
  6
CONTINUOUS
 10
3.542107197
 20
16.2520852203
 11
9.5852263307
 21
19.4467391827
  0
LINE
  5
31E
100
AcDbEntity
  8
0
100
AcDbLine
 62
7
  6
CONTINUOUS
 10
10.0742847503
 20
20.1990550086
 11
10.7065728165
 21
20.5324730083
  0
LINE
  5
31F
100
AcDbEntity
  8
DRAFT
100
AcDbLine
 62
7
  6
CONTINUOUS
 10
4.1585425693
 20
15.9431657046
 11
10.4411064938
 21
19.2434591775
  0
LINE
  5
320
100
AcDbEntity
  8
ASSI
100
AcDbLine
 62
7
  6
CONTINUOUS
 10
3.1961705774
 20
16.6995027394
 11
9.5852263307
 21
20.0482562643
  0
LINE
  5
321
100
AcDbEntity
  8
RACCORDO
100
AcDbLine
 62
250
  6
CONTINUOUS
 10
0.7162833604
 20
14.0868260343
 11
-2.1621729531
 21
12.6310899999
  0
LINE
  5
322
100
AcDbEntity
  8
0
100
AcDbLine
 62
250
  6
CONTINUOUS
 10
4.1394637552
 20
15.9534069412
 11
3.4385278014
 21
15.6018065253
  0
LINE
  5
323
100
AcDbEntity
  8
0
100
AcDbLine
 62
250
  6
CONTINUOUS
 10
4.4930126584
 20
15.3436344435
 11
3.7920767046
 21
14.9920340276
  0
LINE
  5
324
100
AcDbEntity
  8
0
100
AcDbLine
 62
7
  6
CONTINUOUS
 10
10.8348602453
 20
20.309381277
 11
11.3298349921
 21
20.5568686504
  0
LINE
  5
325
100
AcDbEntity
  8
RACCORDO
100
AcDbLine
 62
7
  6
CONTINUOUS
 10
13.7980129046
 20
20.7373685027
 11
12.4865485936
 21
20.0816363472
  0
LINE
  5
326
100
AcDbEntity
  8
RACCORDO
100
AcDbLine
 62
7
  6
CONTINUOUS
 10
14.6465436123
 20
20.3131057191
 11
13.8247597866
 21
19.9022138063
  0
LINE
  5
327
100
AcDbEntity
  8
RACCORDO
100
AcDbLine
 62
7
  6
CONTINUOUS
 10
18.2261689693
 20
21.9018740862
 11
14.6627381327
 21
20.1916193384
  0
LWPOLYLINE
  5
328
100
AcDbEntity
  8
RACCORDO
100
AcDbPolyline
 62
7
  6
CONTINUOUS
 90
10
 70
0
 10
14.6465147164
 20
20.3130912712
 10
14.6579111807
 20
20.3182599264
 10
14.6691315832
 20
20.3223118228
 10
14.6801759239
 20
20.3252469603
 10
14.6911391828
 20
20.3270654917
 10
14.70192638
 20
20.3277672641
 10
14.7122525754
 20
20.3273518198
 10
14.7220227892
 20
20.3258190059
 10
14.7313320012
 20
20.3231689752
 10
14.7401802115
 20
20.3194017276
  0
LWPOLYLINE
  5
329
100
AcDbEntity
  8
SUPERFICI
100
AcDbPolyline
 62
7
  6
CONTINUOUS
 90
3
 70
0
 10
-10.4671367739
 20
8.8792492853
 10
-10.4765333213
 20
8.8754518694
 10
-10.4800802515
 20
8.8733047021
  0
LINE
  5
32A
100
AcDbEntity
  8
SUPERFICI
100
AcDbLine
 62
7
  6
CONTINUOUS
 10
-11.0267237574
 20
8.5922618838
 11
-11.0230630317
 21
8.5937349592
  0
LWPOLYLINE
  5
32B
100
AcDbEntity
  8
DRAFT
100
AcDbPolyline
 62
7
  6
CONTINUOUS
 90
9
 70
0
 10
-11.3750123588
 20
8.6252296612
 10
-11.3808836274
 20
8.623155012
 10
-11.4243566803
 20
8.6034832942
 10
-11.4646774819
 20
8.577160403
 10
-11.5018917122
 20
8.5443016499
 10
-11.5349901925
 20
8.5056598133
 10
-11.5636332995
 20
8.4614872107
 10
-11.5881489333
 20
8.4115365616
 10
-11.6085304263
 20
8.3558107442
  0
LWPOLYLINE
  5
32C
100
AcDbEntity
  8
SUPERFICI
100
AcDbPolyline
 62
7
  6
CONTINUOUS
 90
10
 70
0
 10
-11.375040371
 20
8.6253017439
 10
-11.3609580563
 20
8.6297675623
 10
-11.333987782
 20
8.6363979283
 10
-11.3063610321
 20
8.6407456304
 10
-11.2780659741
 20
8.6427866943
 10
-11.2491163585
 20
8.6425442847
 10
-11.2198038985
 20
8.6400246142
 10
-11.1902262957
 20
8.6352295584
 10
-11.1602871771
 20
8.6281566822
 10
-11.1299870133
 20
8.6188057878
  0
LINE
  5
32D
100
AcDbEntity
  8
DRAFT
100
AcDbLine
 62
7
  6
CONTINUOUS
 10
-11.0867976687
 20
-12.7264866356
 11
-11.0773872033
 21
-12.7264784926
  0
LWPOLYLINE
  5
32E
100
AcDbEntity
  8
SUPERFICI
100
AcDbPolyline
 62
7
  6
CONTINUOUS
 90
5
 70
0
 10
-11.077386725
 20
-12.7264786174
 10
-11.0863080574
 20
-12.7262967342
 10
-11.0944037127
 20
-12.7277644183
 10
-11.1016734638
 20
-12.7308815464
 10
-11.1041897199
 20
-12.7324670967
  0
LWPOLYLINE
  5
32F
100
AcDbEntity
  8
0
100
AcDbPolyline
 62
250
  6
CONTINUOUS
 90
34
 70
0
 10
1.4836891326
 20
-25.0615639517
 10
1.4792686071
 20
-25.0546451707
 10
1.4744614118
 20
-25.0475413605
 10
1.4692783963
 20
-25.0402685539
 10
1.4637312582
 20
-25.0328431654
 10
1.4578325172
 20
-25.0252819535
 10
1.4515954863
 20
-25.0176019835
 10
1.4450342423
 20
-25.0098205885
 10
1.4381635933
 20
-25.0019553309
 10
1.4309990462
 20
-24.9940239618
 10
1.4235567707
 20
-24.9860443821
 10
1.4158535638
 20
-24.9780346012
 10
1.4079068111
 20
-24.9700126965
 10
1.3997344479
 20
-24.9619967732
 10
1.3913549188
 20
-24.9540049226
 10
1.3827871359
 20
-24.946055182
 10
1.3740504361
 20
-24.9381654934
 10
1.3651645378
 20
-24.9303536633
 10
1.3561494957
 20
-24.9226373226
 10
1.3470256564
 20
-24.9150338867
 10
1.3378136118
 20
-24.907560516
 10
1.328534153
 20
-24.9002340774
 10
1.3192082231
 20
-24.8930711065
 10
1.3098568702
 20
-24.8860877694
 10
1.3005011998
 20
-24.8792998273
 10
1.2911623271
 20
-24.8727226
 10
1.2818613293
 20
-24.8663709321
 10
1.2726191983
 20
-24.8602591588
 10
1.2634567929
 20
-24.8544010741
 10
1.2543947923
 20
-24.8488098992
 10
1.2454536487
 20
-24.8434982533
 10
1.2366535419
 20
-24.8384781243
 10
1.2280143331
 20
-24.8337608423
 10
1.2195555206
 20
-24.8293570541
  0
LWPOLYLINE
  5
330
100
AcDbEntity
  8
SUPERFICI
100
AcDbPolyline
 62
7
  6
CONTINUOUS
 90
10
 70
0
 10
-10.9296178927
 20
-16.6148933748
 10
-10.928088202
 20
-16.6267441578
 10
-10.9253703946
 20
-16.638677615
 10
-10.9214646673
 20
-16.6506938653
 10
-10.9163135432
 20
-16.6629988551
 10
-10.9099748251
 20
-16.6753868351
 10
-10.9026217918
 20
-16.6872404799
 10
-10.8943124713
 20
-16.6983541772
 10
-10.8849894438
 20
-16.708933908
 10
-10.8746529343
 20
-16.7189798087
  0
LWPOLYLINE
  5
331
100
AcDbEntity
  8
0
100
AcDbPolyline
 62
250
  6
CONTINUOUS
 90
3
 70
0
 10
-12.9235668722
 20
23.3087900796
 10
-12.9241635101
 20
23.3147100835
 10
-12.9242521948
 20
23.3180392907
  0
LINE
  5
332
100
AcDbEntity
  8
SUPERFICI
100
AcDbLine
 62
7
  6
CONTINUOUS
 10
-10.3993035038
 20
-16.8798428823
 11
-10.4289265035
 21
-16.4587689019
  0
LWPOLYLINE
  5
333
100
AcDbEntity
  8
SUPERFICI
100
AcDbPolyline
 62
7
  6
CONTINUOUS
 90
8
 70
0
 10
-10.4289265995
 20
-16.4587675379
 10
-10.456551913
 20
-16.0364979571
 10
-10.4821785932
 20
-15.6130474493
 10
-10.5058058066
 20
-15.188430217
 10
-10.5274328817
 20
-14.7626587914
 10
-10.5470592689
 20
-14.3357440089
 10
-10.5646843664
 20
-13.9076984406
 10
-10.5803075603
 20
-13.4785364153
  0
LWPOLYLINE
  5
334
100
AcDbEntity
  8
DRAFT
100
AcDbPolyline
 62
7
  6
CONTINUOUS
 90
4
 70
0
 10
-10.5364375579
 20
8.5013214856
 10
-10.5382539541
 20
8.5532085089
 10
-10.537802608
 20
8.6040632713
 10
-10.5350846754
 20
8.6538566955
  0
LWPOLYLINE
  5
335
100
AcDbEntity
  8
SUPERFICI
100
AcDbPolyline
 62
7
  6
CONTINUOUS
 90
10
 70
0
 10
-11.1242541924
 20
-12.7832509639
 10
-11.1106323618
 20
-13.2135243653
 10
-11.0950080591
 20
-13.6426946966
 10
-11.0773817945
 20
-14.070748452
 10
-11.0577541817
 20
-14.4976713235
 10
-11.0361258243
 20
-14.9234507185
 10
-11.0124972764
 20
-15.3480757375
 10
-10.9868692125
 20
-15.7715338287
 10
-10.959242467
 20
-16.1938108108
 10
-10.9296178927
 20
-16.6148933748
  0
LWPOLYLINE
  5
336
100
AcDbEntity
  8
DRAFT
100
AcDbPolyline
 62
7
  6
CONTINUOUS
 90
9
 70
0
 10
-11.1242542103
 20
-12.7832503542
 10
-11.1106324669
 20
-13.213521275
 10
-11.0950082246
 20
-13.6426904292
 10
-11.0773819753
 20
-14.0707443011
 10
-11.0577542742
 20
-14.4976694104
 10
-11.0361257395
 20
-14.9234523118
 10
-11.0124970523
 20
-15.3480795954
 10
-10.9868689569
 20
-15.7715378883
 10
-10.9592422604
 20
-16.1938138549
  0
LINE
  5
337
100
AcDbEntity
  8
SUPERFICI
100
AcDbLine
 62
7
  6
CONTINUOUS
 10
-10.5803075603
 20
-13.4785364153
 11
-10.5939283414
 21
-13.0482714384
  0
LWPOLYLINE
  5
338
100
AcDbEntity
  8
DRAFT
100
AcDbPolyline
 62
7
  6
CONTINUOUS
 90
10
 70
0
 10
-10.5939283661
 20
-13.0482705922
 10
-10.5803076655
 20
-13.4785333244
 10
-10.5646845251
 20
-13.9076943487
 10
-10.547059437
 20
-14.3357401501
 10
-10.5274329563
 20
-14.762657249
 10
-10.505805701
 20
-15.188432201
 10
-10.4821783524
 20
-15.613051597
 10
-10.4565516543
 20
-16.0365020649
 10
-10.4289264141
 20
-16.4587702698
 10
-10.3993035015
 20
-16.8798429139
  0
LWPOLYLINE
  5
339
100
AcDbEntity
  8
0
100
AcDbPolyline
 62
250
  6
CONTINUOUS
 90
22
 70
0
 10
-11.1724908197
 20
22.3903819078
 10
-11.1723225238
 20
22.3810209574
 10
-11.1718179566
 20
22.3718461264
 10
-11.1709780787
 20
22.3628748842
 10
-11.169804493
 20
22.3541243355
 10
-11.1682994321
 20
22.3456111174
 10
-11.1664657457
 20
22.3373513746
 10
-11.1643069017
 20
22.329360787
 10
-11.1618270142
 20
22.3216546334
 10
-11.1590308345
 20
22.3142476844
 10
-11.155923712
 20
22.307154085
 10
-11.1525115499
 20
22.3003872888
 10
-11.1488008219
 20
22.2939601317
 10
-11.1447985611
 20
22.2878848118
 10
-11.140512412
 20
22.282172948
 10
-11.1359506025
 20
22.276835495
 10
-11.131121873
 20
22.2718826449
 10
-11.1260353872
 20
22.2673237646
 10
-11.1207007722
 20
22.2631674714
 10
-11.115127502
 20
22.2594212544
 10
-11.1093268161
 20
22.2560927716
 10
-11.1075254623
 20
22.2551674277
  0
LWPOLYLINE
  5
33A
100
AcDbEntity
  8
DRAFT
100
AcDbPolyline
 62
7
  6
CONTINUOUS
 90
8
 70
0
 10
-10.3993035015
 20
-16.8798429139
 10
-10.3992526448
 20
-16.8916105255
 10
-10.4004739786
 20
-16.902043627
 10
-10.4029677838
 20
-16.9111423885
 10
-10.4068134886
 20
-16.9190052357
 10
-10.411932143
 20
-16.9255340322
 10
-10.4180865713
 20
-16.9304341709
 10
-10.4245728854
 20
-16.9334076973
  0
LINE
  5
33B
100
AcDbEntity
  8
0
100
AcDbLine
 62
250
  6
CONTINUOUS
 10
-11.1724908197
 20
22.3903819078
 11
-11.1724908197
 21
22.730355842
  0
LINE
  5
33C
100
AcDbEntity
  8
0
100
AcDbLine
 62
250
  6
CONTINUOUS
 10
-10.81996886
 20
22.389869184
 11
-10.81996886
 21
22.7298431181
  0
LINE
  5
33D
100
AcDbEntity
  8
0
100
AcDbLine
 62
250
  6
CONTINUOUS
 10
-10.4612702116
 20
21.4229656577
 11
-10.4612702116
 21
22.1037154034
  0
LINE
  5
33E
100
AcDbEntity
  8
0
100
AcDbLine
 62
250
  6
CONTINUOUS
 10
-10.1087482519
 20
21.4337335394
 11
-10.1087482519
 21
22.2413656611
  0
LINE
  5
33F
100
AcDbEntity
  8
0
100
AcDbLine
 62
7
  6
CONTINUOUS
 10
-9.2186880692
 20
21.9304144606
 11
-9.2186880692
 21
23.5325651216
  0
LWPOLYLINE
  5
340
100
AcDbEntity
  8
SUPERFICI
100
AcDbPolyline
 62
7
  6
CONTINUOUS
 90
5
 70
0
 10
-10.9598082683
 20
8.8679050009
 10
-10.9593145191
 20
8.9192165526
 10
-10.9610295311
 20
8.9709222525
 10
-10.964956757
 20
9.0232683356
 10
-10.9710968898
 20
9.0762544972
  0
LWPOLYLINE
  5
341
100
AcDbEntity
  8
DRAFT
100
AcDbPolyline
 62
7
  6
CONTINUOUS
 90
4
 70
0
 10
-11.1242542103
 20
-12.7832503542
 10
-11.1237521112
 20
-12.7712464742
 10
-11.122010574
 20
-12.7605909056
 10
-11.1190298792
 20
-12.7512838011
  0
LINE
  5
342
100
AcDbEntity
  8
SUPERFICI
100
AcDbLine
 62
7
  6
CONTINUOUS
 10
-11.1235804337
 20
-12.7706684223
 11
-11.1242541924
 21
-12.7832509639
  0
LWPOLYLINE
  5
343
100
AcDbEntity
  8
0
100
AcDbPolyline
 62
250
  6
CONTINUOUS
 90
17
 70
0
 10
-8.6182774633
 20
23.5337369696
 10
-8.6188058164
 20
23.5278149877
 10
-8.6198950884
 20
23.5219122106
 10
-8.6215428264
 20
23.5160419046
 10
-8.6237453266
 20
23.5102172585
 10
-8.6264976582
 20
23.5044513288
 10
-8.6297936172
 20
23.4987571264
 10
-8.6336257086
 20
23.493147569
 10
-8.6379852207
 20
23.4876353395
 10
-8.6428623664
 20
23.4822327512
 10
-8.6482462616
 20
23.4769518403
 10
-8.6541252967
 20
23.4718040699
 10
-8.6604858335
 20
23.4668014505
 10
-8.6673119932
 20
23.461956296
 10
-8.6745875656
 20
23.4572797314
 10
-8.6822963992
 20
23.4527817815
 10
-8.6904208974
 20
23.4484724249
  0
LWPOLYLINE
  5
344
100
AcDbEntity
  8
DRAFT
100
AcDbPolyline
 62
7
  6
CONTINUOUS
 90
5
 70
0
 10
-10.5350846754
 20
8.6538566955
 10
-10.530103936
 20
8.7025014568
 10
-10.5228617456
 20
8.7499683947
 10
-10.5133568938
 20
8.7962865718
 10
-10.5015894389
 20
8.8414559453
  0
LWPOLYLINE
  5
345
100
AcDbEntity
  8
SUPERFICI
100
AcDbPolyline
 62
7
  6
CONTINUOUS
 90
20
 70
0
 10
-9.5632251384
 20
5.0317223592
 10
-9.5415729387
 20
5.1299788925
 10
-9.5217452441
 20
5.229865097
 10
-9.5037512796
 20
5.3313201143
 10
-9.4876230952
 20
5.4341597538
 10
-9.4733654275
 20
5.538373983
 10
-9.4609713661
 20
5.6439734105
 10
-9.4504566853
 20
5.7508042569
 10
-9.4418233316
 20
5.8588713377
 10
-9.4350682107
 20
5.9681699312
 10
-9.4302006454
 20
6.078531448
 10
-9.4272237973
 20
6.1899571453
 10
-9.4261345122
 20
6.3024453357
 10
-9.426933787
 20
6.4158225017
 10
-9.42962481
 20
6.5300848883
 10
-9.4342055546
 20
6.6452353143
 10
-9.4406702922
 20
6.7611096426
 10
-9.4490248411
 20
6.8777236398
 10
-9.4592655427
 20
6.9950601825
 10
-9.47137363
 20
7.1129052921
  0
LWPOLYLINE
  5
346
100
AcDbEntity
  8
DRAFT
100
AcDbPolyline
 62
7
  6
CONTINUOUS
 90
9
 70
0
 10
-10.0513338441
 20
5.2140290307
 10
-9.9947599464
 20
5.4427876564
 10
-9.9500342437
 20
5.679505181
 10
-9.9171460109
 20
5.9241838748
 10
-9.8960488749
 20
6.1776956949
 10
-9.8867630002
 20
6.4391750889
 10
-9.889398153
 20
6.7060087084
 10
-9.9040066736
 20
6.9773166439
 10
-9.9305604129
 20
7.2539627068
  0
LWPOLYLINE
  5
347
100
AcDbEntity
  8
SUPERFICI
100
AcDbPolyline
 62
7
  6
CONTINUOUS
 90
3
 70
0
 10
-9.6120433799
 20
4.8399112889
 10
-9.5867147075
 20
4.9350333608
 10
-9.5632251384
 20
5.0317223592
  0
LWPOLYLINE
  5
348
100
AcDbEntity
  8
DRAFT
100
AcDbPolyline
 62
7
  6
CONTINUOUS
 90
22
 70
0
 10
-9.6120429954
 20
4.8399128819
 10
-9.6208593945
 20
4.8099401202
 10
-9.6304104514
 20
4.780743167
 10
-9.640696572
 20
4.7523218389
 10
-9.6517338434
 20
4.7246588166
 10
-9.6635069598
 20
4.6977710655
 10
-9.6759693045
 20
4.6717097967
 10
-9.6891191685
 20
4.6464733681
 10
-9.7029591727
 20
4.6220630041
 10
-9.7174493314
 20
4.5985341516
 10
-9.7325894064
 20
4.5758913787
 10
-9.7483806475
 20
4.5541296497
 10
-9.7647854138
 20
4.5332899522
 10
-9.7818042799
 20
4.5133788968
 10
-9.7994377311
 20
4.4943893798
 10
-9.817648063
 20
4.476341783
 10
-9.836436137
 20
4.4592349408
 10
-9.8558021427
 20
4.4430695273
 10
-9.875707416
 20
4.4278686601
 10
-9.8961502579
 20
4.413627228
 10
-9.9171334037
 20
4.4003498553
 10
-9.9386248925
 20
4.3880742375
  0
LWPOLYLINE
  5
349
100
AcDbEntity
  8
SUPERFICI
100
AcDbPolyline
 62
7
  6
CONTINUOUS
 90
11
 70
0
 10
-10.0513357208
 20
5.2140240898
 10
-10.0611837947
 20
5.1824944931
 10
-10.0725365675
 20
5.1526319793
 10
-10.0853950012
 20
5.1244361083
 10
-10.099813051
 20
5.0978245434
 10
-10.115738541
 20
5.0728788053
 10
-10.1330135213
 20
5.0498441059
 10
-10.1516486644
 20
5.0287442588
 10
-10.1716356007
 20
5.0095543841
 10
-10.192788305
 20
4.992446424
 10
-10.2027200866
 20
4.9854143281
  0
LWPOLYLINE
  5
34A
100
AcDbEntity
  8
DRAFT
100
AcDbPolyline
 62
7
  6
CONTINUOUS
 90
4
 70
0
 10
-10.1202348995
 20
5.0665182242
 10
-10.0931145614
 20
5.1099323663
 10
-10.0701497559
 20
5.1591016169
 10
-10.0513338441
 20
5.2140290307
  0
LWPOLYLINE
  5
34B
100
AcDbEntity
  8
0
100
AcDbPolyline
 62
7
  6
CONTINUOUS
 90
31
 70
0
 10
4.3269084278
 20
20.8581469306
 10
4.3352212273
 20
20.8688402353
 10
4.3430005539
 20
20.8801551582
 10
4.3502464074
 20
20.8920916993
 10
4.3569693977
 20
20.9046724897
 10
4.3631589151
 20
20.9178748983
 10
4.3687831302
 20
20.931631032
 10
4.3738391313
 20
20.9459437434
 10
4.3783298302
 20
20.9608101799
 10
4.3822321338
 20
20.9761538914
 10
4.3855430113
 20
20.9919773365
 10
4.3882654936
 20
21.0082780566
 10
4.3903855805
 20
21.024972226
 10
4.3919001689
 20
21.0420618713
 10
4.3928123619
 20
21.0595449658
 10
4.3931174687
 20
21.0773316035
 10
4.3928123619
 20
21.0954233479
 10
4.3919001689
 20
21.1138186354
 10
4.3903855805
 20
21.1324228691
 10
4.3882654936
 20
21.1512371254
 10
4.3855430113
 20
21.1702603278
 10
4.3822321338
 20
21.1893946503
 10
4.3783298302
 20
21.2086406655
 10
4.3738391313
 20
21.2279978009
 10
4.3687831302
 20
21.2473665133
 10
4.3631589151
 20
21.2667468622
 10
4.3569693977
 20
21.2861387881
 10
4.3502464074
 20
21.3054425688
 10
4.3430005539
 20
21.3246249635
 10
4.3352212273
 20
21.3437192129
 10
4.3269084278
 20
21.3627253172
  0
LINE
  5
34C
100
AcDbEntity
  8
DRAFT
100
AcDbLine
 62
7
  6
CONTINUOUS
 10
-10.1518379924
 20
5.0286098846
 11
-10.1202348995
 21
5.0665182242
  0
LINE
  5
34D
100
AcDbEntity
  8
DRAFT
100
AcDbLine
 62
7
  6
CONTINUOUS
 10
-10.1876082923
 20
4.9964512587
 11
-10.1518379924
 21
5.0286098846
  0
LINE
  5
34E
100
AcDbEntity
  8
DRAFT
100
AcDbLine
 62
7
  6
CONTINUOUS
 10
-10.2027399459
 20
4.9854505731
 11
-10.1876082923
 21
4.9964512587
  0
LINE
  5
34F
100
AcDbEntity
  8
SUPERFICI
100
AcDbLine
 62
7
  6
CONTINUOUS
 10
-10.2027200866
 20
4.9854143281
 11
-10.2151184394
 21
4.9774378559
  0
LWPOLYLINE
  5
350
100
AcDbEntity
  8
RACCORDO
100
AcDbPolyline
 62
250
  6
CONTINUOUS
 90
19
 70
0
 10
-1.8087407164
 20
12.0215095623
 10
-1.8369077395
 20
12.0059431971
 10
-1.8645789149
 20
11.9880925215
 10
-1.8917542428
 20
11.9679575353
 10
-1.9186100653
 20
11.9453812187
 10
-1.9449700402
 20
11.9205205916
 10
-1.9703051404
 20
11.8938467139
 10
-1.9945810927
 20
11.8653311362
 10
-2.0178321703
 20
11.8350023079
 10
-2.0396321657
 20
11.8034166373
 10
-2.0599501398
 20
11.7705555842
 10
-2.0788170317
 20
11.736437689
 10
-2.0958994524
 20
11.7016749802
 10
-2.1111683068
 20
11.6662351132
 10
-2.1246526899
 20
11.6301504327
 10
-2.1361064976
 20
11.5941300015
 10
-2.1454476951
 20
11.5584101741
 10
-2.1527583171
 20
11.522754596
 10
-2.1580383637
 20
11.4871632673
  0
LWPOLYLINE
  5
351
100
AcDbEntity
  8
SUPERFICI
100
AcDbPolyline
 62
7
  6
CONTINUOUS
 90
3
 70
0
 10
-10.2151184394
 20
4.9774378559
 10
-10.2386167694
 20
4.9645100715
 10
-10.2630662263
 20
4.9537807409
  0
LINE
  5
352
100
AcDbEntity
  8
0
100
AcDbLine
 62
250
  6
CONTINUOUS
 10
3.7920767046
 20
14.9918211801
 11
2.7129026407
 21
14.402668338
  0
LINE
  5
353
100
AcDbEntity
  8
RACCORDO
100
AcDbLine
 62
250
  6
CONTINUOUS
 10
19.3943130129
 20
20.8978400168
 11
4.7921397914
 21
13.468943689
  0
LINE
  5
354
100
AcDbEntity
  8
RACCORDO
100
AcDbLine
 62
250
  6
CONTINUOUS
 10
1.0697155971
 20
13.4772455967
 11
-1.8087407164
 21
12.0215095623
  0
LINE
  5
355
100
AcDbEntity
  8
RACCORDO
100
AcDbLine
 62
250
  6
CONTINUOUS
 10
11.1866334295
 20
17.9576154187
 11
18.7585668272
 21
21.6356751572
  0
LINE
  5
356
100
AcDbEntity
  8
RACCORDO
100
AcDbLine
 62
250
  6
CONTINUOUS
 10
11.5243017634
 20
17.3752236916
 11
19.2584906748
 21
21.1320988979
  0
LWPOLYLINE
  5
357
100
AcDbEntity
  8
SUPERFICI
100
AcDbPolyline
 62
7
  6
CONTINUOUS
 90
5
 70
0
 10
-11.6489300585
 20
5.8727557422
 10
-11.6617952672
 20
5.9129547594
 10
-11.6730438968
 20
5.9531269021
 10
-11.6827217332
 20
5.9934064737
 10
-11.6908278393
 20
6.0337939027
  0
LWPOLYLINE
  5
358
100
AcDbEntity
  8
DRAFT
100
AcDbPolyline
 62
7
  6
CONTINUOUS
 90
4
 70
0
 10
-12.0576768479
 20
5.8007534825
 10
-12.0893275976
 20
5.9005627084
 10
-12.1157741129
 20
6.0010039391
 10
-12.1371502984
 20
6.1024661299
  0
LWPOLYLINE
  5
359
100
AcDbEntity
  8
DRAFT
100
AcDbPolyline
 62
7
  6
CONTINUOUS
 90
13
 70
0
 10
-11.690827843
 20
6.0337939264
 10
-11.6750078347
 20
5.9615449742
 10
-11.6547925762
 20
5.8907820582
 10
-11.6301887066
 20
5.8215021235
 10
-11.6008989033
 20
5.7531435764
 10
-11.5672321639
 20
5.6862626155
 10
-11.530105843
 20
5.6225322813
 10
-11.489468005
 20
5.5620028358
 10
-11.4453831666
 20
5.5046181423
 10
-11.3989451595
 20
5.4518907882
 10
-11.350522136
 20
5.4043233044
 10
-11.2997554221
 20
5.3614087066
 10
-11.2466481052
 20
5.3231455415
  0
LWPOLYLINE
  5
35A
100
AcDbEntity
  8
SUPERFICI
100
AcDbPolyline
 62
7
  6
CONTINUOUS
 90
22
 70
0
 10
-12.1371502948
 20
6.102466107
 10
-12.128724832
 20
6.0589773166
 10
-12.1192937494
 20
6.0155364862
 10
-12.1088576717
 20
5.9721433328
 10
-12.0973969099
 20
5.9287534846
 10
-12.084932351
 20
5.8854107698
 10
-12.0715255843
 20
5.8422471571
 10
-12.0571785756
 20
5.7992605559
 10
-12.0418907473
 20
5.7564524196
 10
-12.0257200853
 20
5.7139599327
 10
-12.008667374
 20
5.6717922323
 10
-11.9907333698
 20
5.6299394673
 10
-11.9719761865
 20
5.5885102584
 10
-11.9523965153
 20
5.5475094175
 10
-11.9319952502
 20
5.5069313929
 10
-11.910830918
 20
5.4668692074
 10
-11.8889069477
 20
5.4273184693
 10
-11.8662214742
 20
5.3882828362
 10
-11.8428251735
 20
5.3498673598
 10
-11.8187354824
 20
5.3121068002
 10
-11.7939365231
 20
5.2749656617
 10
-11.7684290245
 20
5.2384435994
  0
LWPOLYLINE
  5
35B
100
AcDbEntity
  8
SUPERFICI
100
AcDbPolyline
 62
7
  6
CONTINUOUS
 90
3
 70
0
 10
-11.6908278393
 20
6.0337939027
 10
-11.7087636145
 20
6.1380871082
 10
-11.7248583968
 20
6.2420201795
  0
LWPOLYLINE
  5
35C
100
AcDbEntity
  8
DRAFT
100
AcDbPolyline
 62
7
  6
CONTINUOUS
 90
9
 70
0
 10
-12.1371502984
 20
6.1024661299
 10
-12.1871831277
 20
6.4181285161
 10
-12.2221223204
 20
6.7286515451
 10
-12.2419540596
 20
7.0340377328
 10
-12.2466388309
 20
7.335277868
 10
-12.2361824412
 20
7.6313885254
 10
-12.2106654831
 20
7.9193989249
 10
-12.1701348747
 20
8.1983072928
 10
-12.1145743954
 20
8.4690939988
  0
LWPOLYLINE
  5
35D
100
AcDbEntity
  8
SUPERFICI
100
AcDbPolyline
 62
7
  6
CONTINUOUS
 90
23
 70
0
 10
-11.7248583968
 20
6.2420201795
 10
-11.7391108342
 20
6.3455936058
 10
-11.7515262157
 20
6.4488702984
 10
-11.7620964148
 20
6.5517883739
 10
-11.7708004617
 20
6.6541608929
 10
-11.7776330882
 20
6.7559744704
 10
-11.782597863
 20
6.8572429785
 10
-11.7856880015
 20
6.9578199364
 10
-11.7869006333
 20
7.0577072313
 10
-11.7862377309
 20
7.1569030884
 10
-11.7837006399
 20
7.2552551418
 10
-11.7792865421
 20
7.352762064
 10
-11.772998258
 20
7.4494248873
 10
-11.7648464884
 20
7.5450943865
 10
-11.7548296507
 20
7.6397650431
 10
-11.7429502365
 20
7.7334416822
 10
-11.7292259175
 20
7.8259902155
 10
-11.7136522049
 20
7.9174202343
 10
-11.6962352778
 20
8.0077211226
 10
-11.6770097347
 20
8.0967280811
 10
-11.6559882457
 20
8.1843855927
 10
-11.6331609769
 20
8.270747672
 10
-11.6085292787
 20
8.355813603
  0
LWPOLYLINE
  5
35E
100
AcDbEntity
  8
DRAFT
100
AcDbPolyline
 62
7
  6
CONTINUOUS
 90
3
 70
0
 10
-10.5260055837
 20
8.3943633146
 10
-10.5323547444
 20
8.448373091
 10
-10.5364375579
 20
8.5013214856
  0
LWPOLYLINE
  5
35F
100
AcDbEntity
  8
DRAFT
100
AcDbPolyline
 62
7
  6
CONTINUOUS
 90
10
 70
0
 10
-10.9710968913
 20
9.0762545213
 10
-10.9649427885
 20
9.0221167277
 10
-10.9610074945
 20
8.9690706148
 10
-10.9592909508
 20
8.9171162257
 10
-10.9597950239
 20
8.8662247643
 10
-10.9625177009
 20
8.8164251248
 10
-10.9674532332
 20
8.7678038327
 10
-10.9745998086
 20
8.7203896987
 10
-10.9839594083
 20
8.6741538792
 10
-10.9955321023
 20
8.6290963635
  0
LINE
  5
360
100
AcDbEntity
  8
0
100
AcDbLine
 62
250
  6
CONTINUOUS
 10
-8.6904208974
 20
23.7960039416
 11
-8.6904208974
 21
23.4484724249
  0
LINE
  5
361
100
AcDbEntity
  8
0
100
AcDbLine
 62
7
  6
CONTINUOUS
 10
-8.6182230404
 20
23.8838765738
 11
-8.6182230404
 21
23.5363450571
  0
LINE
  5
362
100
AcDbEntity
  8
DRAFT
100
AcDbLine
 62
7
  6
CONTINUOUS
 10
-8.3348045927
 20
18.6123700109
 11
-8.3348045927
 21
19.516794562
  0
LINE
  5
363
100
AcDbEntity
  8
0
100
AcDbLine
 62
7
  6
CONTINUOUS
 10
-8.2932785133
 20
21.7851325743
 11
-8.2932785133
 21
20.3389698086
  0
LINE
  5
364
100
AcDbEntity
  8
0
100
AcDbLine
 62
7
  6
CONTINUOUS
 10
-7.6338686389
 20
20.0092648714
 11
-7.6338686389
 21
21.4554276372
  0
LINE
  5
365
100
AcDbEntity
  8
RACCORDO
100
AcDbLine
 62
7
  6
CONTINUOUS
 10
-7.3275754664
 20
18.3856184395
 11
-7.3275754664
 21
19.0131799988
  0
LINE
  5
366
100
AcDbEntity
  8
0
100
AcDbLine
 62
7
  6
CONTINUOUS
 10
-6.9205910303
 20
21.6387336682
 11
-6.9205910303
 21
20.4051193165
  0
LWPOLYLINE
  5
367
100
AcDbEntity
  8
0
100
AcDbPolyline
 62
250
  6
CONTINUOUS
 90
18
 70
0
 10
-8.6182230404
 20
23.8838765738
 10
-8.618276602
 20
23.8812892057
 10
-8.6188030294
 20
23.8753669016
 10
-8.6198904417
 20
23.8694637288
 10
-8.6215363964
 20
23.863592962
 10
-8.6237371936
 20
23.8577678076
 10
-8.6264878865
 20
23.8520013667
 10
-8.6297822903
 20
23.8463066102
 10
-8.6336129948
 20
23.8406963513
 10
-8.6379713844
 20
23.8351832096
 10
-8.642847658
 20
23.8297795845
 10
-8.6482308475
 20
23.8244976318
 10
-8.6541088486
 20
23.8193492291
 10
-8.6604684388
 20
23.8143459592
 10
-8.6672953016
 20
23.8094990843
 10
-8.6745740757
 20
23.8048195083
 10
-8.6822883918
 20
23.8003177525
 10
-8.6904208974
 20
23.7960039416
  0
LWPOLYLINE
  5
368
100
AcDbEntity
  8
0
100
AcDbPolyline
 62
7
  6
CONTINUOUS
 90
25
 70
0
 10
-0.9455387293
 20
18.2546129826
 10
-0.9399607391
 20
18.2666398514
 10
-0.9348536431
 20
18.2791043911
 10
-0.9302174413
 20
18.2920066019
 10
-0.926046981
 20
18.3053659087
 10
-0.9223474149
 20
18.3191628864
 10
-0.9191342013
 20
18.3333392606
 10
-0.9164093763
 20
18.3478966102
 10
-0.9141709037
 20
18.3628333561
 10
-0.9124281339
 20
18.3780864866
 10
-0.9111831403
 20
18.3936573207
 10
-0.9104338493
 20
18.4095445394
 10
-0.9101833902
 20
18.425681174
 10
-0.9104338493
 20
18.4420682677
 10
-0.9111831403
 20
18.4587047773
 10
-0.9124281339
 20
18.475520605
 10
-0.9141709037
 20
18.4925165054
 10
-0.9164093763
 20
18.5096917239
 10
-0.9191342013
 20
18.5269738984
 10
-0.9223474149
 20
18.5443634862
 10
-0.926046981
 20
18.5618600301
 10
-0.9302174413
 20
18.5793897971
 10
-0.9348536431
 20
18.5969282097
 10
-0.9399607391
 20
18.6144998455
 10
-0.9455387293
 20
18.6321047044
  0
LWPOLYLINE
  5
369
100
AcDbEntity
  8
0
100
AcDbPolyline
 62
7
  6
CONTINUOUS
 90
7
 70
0
 10
3.6285976676
 20
17.225808262
 10
3.6475175615
 20
17.2521494794
 10
3.662873985
 20
17.2807304521
 10
3.6744023288
 20
17.3110681682
 10
3.6819153314
 20
17.3427139338
 10
3.6852571608
 20
17.375089286
 10
3.6854349513
 20
17.3845053578
  0
LINE
  5
36A
100
AcDbEntity
  8
0
100
AcDbLine
 62
250
  6
CONTINUOUS
 10
3.0849699235
 20
16.6536912728
 11
3.6132370952
 21
17.2966434286
  0
LINE
  5
36B
100
AcDbEntity
  8
0
100
AcDbLine
 62
7
  6
CONTINUOUS
 10
3.0849699235
 20
16.5641608065
 11
3.6285976676
 21
17.225808262
  0
LWPOLYLINE
  5
36C
100
AcDbEntity
  8
0
100
AcDbPolyline
 62
7
  6
CONTINUOUS
 90
41
 70
0
 10
2.1949097407
 20
16.0895366648
 10
2.1891710574
 20
16.0828238923
 10
2.1832453378
 20
16.0761826605
 10
2.1771338562
 20
16.0696214042
 10
2.1708352799
 20
16.0631494914
 10
2.1643542246
 20
16.0567745658
 10
2.157701197
 20
16.0505025826
 10
2.1508783124
 20
16.0443422647
 10
2.1438881101
 20
16.0383021715
 10
2.1367419934
 20
16.0323881409
 10
2.1294428091
 20
16.0266089737
 10
2.1219937913
 20
16.0209732866
 10
2.1144071828
 20
16.0154867691
 10
2.1066865874
 20
16.0101582356
 10
2.0988359519
 20
16.00499629
 10
2.090868292
 20
16.0000064415
 10
2.0827879676
 20
15.9951974346
 10
2.0745996808
 20
15.9905778066
 10
2.0663172267
 20
15.9861529
 10
2.0579457486
 20
15.9819313142
 10
2.0494907256
 20
15.9779214386
 10
2.0409667388
 20
15.9741284447
 10
2.0323797388
 20
15.9705606967
 10
2.0237360093
 20
15.9672263456
 10
2.0150509411
 20
15.9641303759
 10
2.0063313186
 20
15.9612808103
 10
1.9975842544
 20
15.958685451
 10
1.9888259726
 20
15.9563490527
 10
1.9800641212
 20
15.9542791693
 10
1.9713066543
 20
15.9524831181
 10
1.9625706316
 20
15.9509653403
 10
1.953864593
 20
15.949732768
 10
1.945197328
 20
15.9487920673
 10
1.9365866781
 20
15.9481472315
 10
1.9280421242
 20
15.9478043896
 10
1.9195732293
 20
15.9477693579
 10
1.9111983839
 20
15.9480455002
 10
1.9029279805
 20
15.9486379391
 10
1.8947723246
 20
15.94955144
 10
1.8867501039
 20
15.9507885497
 10
1.8810419075
 20
15.9518862669
  0
LWPOLYLINE
  5
36D
100
AcDbEntity
  8
0
100
AcDbPolyline
 62
7
  6
CONTINUOUS
 90
10
 70
0
 10
4.4232276044
 20
11.7345935978
 10
4.5077213271
 20
11.7813088263
 10
4.5925014385
 20
11.8280177131
 10
4.6775732666
 20
11.8747185004
 10
4.7629463647
 20
11.9213919464
 10
4.8486214261
 20
11.9680543979
 10
4.9345886608
 20
12.0147579882
 10
5.0208461284
 20
12.0615196682
 10
5.1074013629
 20
12.1083209823
 10
5.1942571536
 20
12.1551613042
  0
LWPOLYLINE
  5
36E
100
AcDbEntity
  8
SUPERFICI
100
AcDbPolyline
 62
7
  6
CONTINUOUS
 90
20
 70
0
 10
-9.9541972233
 20
4.3799696341
 10
-9.9292229787
 20
4.3932839873
 10
-9.9048825155
 20
4.4079384416
 10
-9.881199307
 20
4.4239111482
 10
-9.8582454605
 20
4.4411357639
 10
-9.8360207475
 20
4.4596071556
 10
-9.8145238424
 20
4.4793311856
 10
-9.7938253384
 20
4.5002579407
 10
-9.7739318909
 20
4.5223888067
 10
-9.7548353203
 20
4.5457231087
 10
-9.7365840951
 20
4.5702077809
 10
-9.7191803087
 20
4.5958479956
 10
-9.7026203908
 20
4.6226392646
 10
-9.6869444635
 20
4.6505139603
 10
-9.6721452674
 20
4.6794676483
 10
-9.6582286932
 20
4.7095053915
 10
-9.6452547579
 20
4.7405737273
 10
-9.6332430944
 20
4.7726550037
 10
-9.6221728468
 20
4.8057674283
 10
-9.6120433799
 20
4.8399112889
  0
LWPOLYLINE
  5
36F
100
AcDbEntity
  8
RACCORDO
100
AcDbPolyline
 62
250
  6
CONTINUOUS
 90
30
 70
0
 10
19.8084634886
 20
19.4662064421
 10
19.8271246271
 20
19.4761326712
 10
19.845237722
 20
19.4863094974
 10
19.8627893225
 20
19.4967293612
 10
19.8797663947
 20
19.5073845256
 10
19.8961563312
 20
19.5182670727
 10
19.9119469609
 20
19.5293689092
 10
19.9271265575
 20
19.5406817887
 10
19.9416838485
 20
19.5521973081
 10
19.9556080237
 20
19.5639069042
 10
19.9688887429
 20
19.5758018792
 10
19.9815161437
 20
19.5878733979
 10
19.9934808489
 20
19.6001124847
 10
20.0047739736
 20
19.6125100484
 10
20.0153871313
 20
19.6250568808
 10
20.0253124407
 20
19.6377436538
 10
20.0345425312
 20
19.6505609439
 10
20.0430705484
 20
19.6634992312
 10
20.0508901595
 20
19.6765488977
 10
20.0579955575
 20
19.6897002503
 10
20.0643814659
 20
19.7029435212
 10
20.0700431425
 20
19.7162688676
 10
20.074976383
 20
19.7296663913
 10
20.0791775238
 20
19.743126142
 10
20.0826434452
 20
19.7566381177
 10
20.0853715734
 20
19.7701922818
 10
20.0873598824
 20
19.7837785673
 10
20.0886068957
 20
19.79738688
 10
20.0891116873
 20
19.8110071114
 10
20.0891236879
 20
19.8134436109
  0
LWPOLYLINE
  5
370
100
AcDbEntity
  8
DRAFT
100
AcDbPolyline
 62
7
  6
CONTINUOUS
 90
4
 70
0
 10
-9.9386248925
 20
4.3880742375
 10
-9.960614429
 20
4.3768127708
 10
-9.9831133394
 20
4.3665525724
 10
-10.0061221098
 20
4.3572934123
  0
LINE
  5
371
100
AcDbEntity
  8
RACCORDO
100
AcDbLine
 62
250
  6
CONTINUOUS
 10
19.8084634886
 20
19.4662064421
 11
5.206290267
 21
12.0373101144
  0
LINE
  5
372
100
AcDbEntity
  8
0
100
AcDbLine
 62
7
  6
CONTINUOUS
 10
4.4930126584
 20
12.4117294925
 11
5.1939486122
 21
12.7652377994
  0
LWPOLYLINE
  5
373
100
AcDbEntity
  8
0
100
AcDbPolyline
 62
7
  6
CONTINUOUS
 90
10
 70
0
 10
5.1942571536
 20
11.2876904004
 10
5.1074013629
 20
11.2461553881
 10
5.0208461284
 20
11.2048755798
 10
4.9345886608
 20
11.1638531384
 10
4.8486214261
 20
11.1230758993
 10
4.7629463647
 20
11.0825601162
 10
4.6775732666
 20
11.042351861
 10
4.5925014385
 20
11.0024694168
 10
4.5077213271
 20
10.9629018521
 10
4.4232276044
 20
10.9236527374
  0
LWPOLYLINE
  5
374
100
AcDbEntity
  8
SUPERFICI
100
AcDbPolyline
 62
7
  6
CONTINUOUS
 90
3
 70
0
 10
-10.0061229914
 20
4.357293081
 10
-9.9798303136
 20
4.3679727822
 10
-9.9541972233
 20
4.3799696341
  0
LINE
  5
375
100
AcDbEntity
  8
SUPERFICI
100
AcDbLine
 62
7
  6
CONTINUOUS
 10
-10.0212728319
 20
4.3518421119
 11
-10.0061229912
 21
4.357293081
  0
LINE
  5
376
100
AcDbEntity
  8
DRAFT
100
AcDbLine
 62
7
  6
CONTINUOUS
 10
-10.0061221098
 20
4.3572934123
 11
-10.0212818085
 21
4.3518620857
  0
LWPOLYLINE
  5
377
100
AcDbEntity
  8
SUPERFICI
100
AcDbPolyline
 62
7
  6
CONTINUOUS
 90
4
 70
0
 10
-10.2630662263
 20
4.9537807409
 10
-10.2884776775
 20
4.9452689187
 10
-10.3148425522
 20
4.9389544755
 10
-10.3419147679
 20
4.9348962369
  0
LINE
  5
378
100
AcDbEntity
  8
DRAFT
100
AcDbLine
 62
7
  6
CONTINUOUS
 10
-10.0212818085
 20
4.3518620857
 11
-10.0530293401
 21
4.3420199086
  0
LWPOLYLINE
  5
379
100
AcDbEntity
  8
DRAFT
100
AcDbPolyline
 62
7
  6
CONTINUOUS
 90
3
 70
0
 10
-11.8276958871
 20
5.3261973066
 10
-11.8825609975
 20
5.4163567485
 10
-11.9327894819
 20
5.5085111161
  0
LWPOLYLINE
  5
37A
100
AcDbEntity
  8
0
100
AcDbPolyline
 62
7
  6
CONTINUOUS
 90
6
 70
0
 10
3.6497780039
 20
-23.7864138989
 10
3.6631371844
 20
-23.8118810369
 10
3.6736027855
 20
-23.8390875616
 10
3.6808641119
 20
-23.8675012738
 10
3.6847650074
 20
-23.8967980936
 10
3.6854346704
 20
-23.9152757496
  0
LINE
  5
37B
100
AcDbEntity
  8
DRAFT
100
AcDbLine
 62
7
  6
CONTINUOUS
 10
-11.9327894819
 20
5.5085111161
 11
-11.9792521803
 21
5.6043809435
  0
LWPOLYLINE
  5
37C
100
AcDbEntity
  8
0
100
AcDbPolyline
 62
250
  6
CONTINUOUS
 90
13
 70
0
 10
3.6103116582
 20
-23.7774771349
 10
3.6056707663
 20
-23.7678312051
 10
3.6006456354
 20
-23.7585176226
 10
3.5952476124
 20
-23.7495574216
 10
3.5894888984
 20
-23.7409708522
 10
3.5833825051
 20
-23.7327773066
 10
3.5769422071
 20
-23.7249952586
 10
3.5701825256
 20
-23.717642252
 10
3.5631185344
 20
-23.7107347132
 10
3.5557663452
 20
-23.7042884254
 10
3.5481431239
 20
-23.6983183605
 10
3.5402663289
 20
-23.6928380136
 10
3.5321536034
 20
-23.6878594885
  0
LWPOLYLINE
  5
37D
100
AcDbEntity
  8
DRAFT
100
AcDbPolyline
 62
7
  6
CONTINUOUS
 90
3
 70
0
 10
-11.9792521803
 20
5.6043809435
 10
-12.0210583222
 20
5.7022550316
 10
-12.0576768479
 20
5.8007534825
  0
LWPOLYLINE
  5
37E
100
AcDbEntity
  8
DRAFT
100
AcDbPolyline
 62
7
  6
CONTINUOUS
 90
10
 70
0
 10
-9.9833745529
 20
7.6090576082
 10
-10.0020887484
 20
7.6806661955
 10
-10.0252183656
 20
7.7507628973
 10
-10.0530642315
 20
7.8199098344
 10
-10.0853372661
 20
7.8875398388
 10
-10.1211605189
 20
7.9519555895
 10
-10.1606016136
 20
8.0130984558
 10
-10.203605553
 20
8.0710217045
 10
-10.249113241
 20
8.1241951168
 10
-10.2967751881
 20
8.1721071259
  0
LWPOLYLINE
  5
37F
100
AcDbEntity
  8
SUPERFICI
100
AcDbPolyline
 62
7
  6
CONTINUOUS
 90
3
 70
0
 10
-10.9710968898
 20
9.0762544972
 10
-10.9745426663
 20
9.0926041658
 10
-10.9792532192
 20
9.107904401
  0
LWPOLYLINE
  5
380
100
AcDbEntity
  8
SUPERFICI
100
AcDbPolyline
 62
7
  6
CONTINUOUS
 90
22
 70
0
 10
-9.5303581781
 20
7.5353742636
 10
-9.5440485441
 20
7.6014201488
 10
-9.5599734875
 20
7.6674057233
 10
-9.5781883213
 20
7.7335095174
 10
-9.5986415275
 20
7.7995513415
 10
-9.6211755648
 20
7.8649919464
 10
-9.6458014324
 20
7.929798848
 10
-9.6725132243
 20
7.994002346
 10
-9.7011291563
 20
8.0571569035
 10
-9.7316669586
 20
8.1192595589
 10
-9.7641143938
 20
8.1803109463
 10
-9.7982454704
 20
8.239870617
 10
-9.8340792578
 20
8.2979318639
 10
-9.8716021868
 20
8.3544990856
 10
-9.9105397878
 20
8.409148298
 10
-9.9508972994
 20
8.4618551436
 10
-9.9926745343
 20
8.5126418757
 10
-10.0355890701
 20
8.5611543527
 10
-10.0796815904
 20
8.6073995916
 10
-10.1249155296
 20
8.6513688697
 10
-10.1708925325
 20
8.6926844636
 10
-10.2174808122
 20
8.7312200538
  0
LWPOLYLINE
  5
381
100
AcDbEntity
  8
SUPERFICI
100
AcDbPolyline
 62
7
  6
CONTINUOUS
 90
10
 70
0
 10
-10.5260055781
 20
8.394363249
 10
-10.5230438429
 20
8.3800564202
 10
-10.5191018066
 20
8.3665422686
 10
-10.5141798889
 20
8.3538206187
 10
-10.5081399231
 20
8.3417701166
 10
-10.5011207678
 20
8.3305118259
 10
-10.4935383441
 20
8.3204092113
 10
-10.4855314583
 20
8.3115833582
 10
-10.4769617636
 20
8.3039129883
 10
-10.4678293982
 20
8.2973980435
  0
LINE
  5
382
100
AcDbEntity
  8
DRAFT
100
AcDbLine
 62
7
  6
CONTINUOUS
 10
-9.9690690971
 20
7.5359400198
 11
-9.9833745529
 21
7.6090576082
  0
LINE
  5
383
100
AcDbEntity
  8
SUPERFICI
100
AcDbLine
 62
7
  6
CONTINUOUS
 10
-9.5189003488
 20
7.469268963
 11
-9.5303581781
 21
7.5353742636
  0
LWPOLYLINE
  5
384
100
AcDbEntity
  8
RACCORDO
100
AcDbPolyline
 62
250
  6
CONTINUOUS
 90
11
 70
0
 10
-2.8518549693
 20
-25.0660200572
 10
-2.8414896248
 20
-25.1269298575
 10
-2.8269320827
 20
-25.184625943
 10
-2.808268774
 20
-25.2387622178
 10
-2.785608175
 20
-25.2890157375
 10
-2.7590869981
 20
-25.3350837697
 10
-2.7288698372
 20
-25.3766861307
 10
-2.6951364715
 20
-25.4135740889
 10
-2.6580874859
 20
-25.4455287148
 10
-2.6179497494
 20
-25.4723568966
 10
-2.5969822979
 20
-25.4837041675
  0
LWPOLYLINE
  5
385
100
AcDbEntity
  8
SUPERFICI
100
AcDbPolyline
 62
7
  6
CONTINUOUS
 90
25
 70
0
 10
-9.9690691003
 20
7.5359400438
 10
-9.953285133
 20
7.4306727399
 10
-9.9391661845
 20
7.3258454534
 10
-9.9267109085
 20
7.2214588983
 10
-9.9159119465
 20
7.1174514803
 10
-9.9067738313
 20
7.0138862917
 10
-9.8993135524
 20
6.9109508661
 10
-9.8935344036
 20
6.8086590433
 10
-9.8894313888
 20
6.7069980135
 10
-9.8870099827
 20
6.6061149382
 10
-9.8862721021
 20
6.5060081702
 10
-9.8872149226
 20
6.4066800496
 10
-9.8898376681
 20
6.3082833404
 10
-9.8941431756
 20
6.2108188486
 10
-9.9001285948
 20
6.1142860682
 10
-9.9077855166
 20
6.0188353952
 10
-9.9171165361
 20
5.9244718892
 10
-9.928119958
 20
5.8311903772
 10
-9.9407818043
 20
5.739125514
 10
-9.9551082639
 20
5.6482668655
 10
-9.9710948362
 20
5.5586243836
 10
-9.988712443
 20
5.4703628734
 10
-10.0079525345
 20
5.3835368369
 10
-10.0288265084
 20
5.2980907395
 10
-10.0513357208
 20
5.2140240898
  0
LINE
  5
386
100
AcDbEntity
  8
DRAFT
100
AcDbLine
 62
7
  6
CONTINUOUS
 10
-9.9305604129
 20
7.2539627068
 11
-9.9690690971
 21
7.5359400198
  0
LWPOLYLINE
  5
387
100
AcDbEntity
  8
DRAFT
100
AcDbPolyline
 62
7
  6
CONTINUOUS
 90
10
 70
0
 10
-9.5189003482
 20
7.4692689583
 10
-9.4756928928
 20
7.1497159325
 10
-9.4459255923
 20
6.8362599351
 10
-9.4295861113
 20
6.5289101596
 10
-9.4267061623
 20
6.2266937141
 10
-9.4372233158
 20
5.9306049037
 10
-9.4610104737
 20
5.6435920901
 10
-9.4980463305
 20
5.3666312249
 10
-9.5483858991
 20
5.0987389939
 10
-9.6120429954
 20
4.8399128819
  0
LWPOLYLINE
  5
388
100
AcDbEntity
  8
SUPERFICI
100
AcDbPolyline
 62
7
  6
CONTINUOUS
 90
4
 70
0
 10
-9.47137363
 20
7.1129052921
 10
-9.4853442957
 20
7.2311868842
 10
-9.5011859614
 20
7.3499750856
 10
-9.5189003488
 20
7.469268963
  0
LINE
  5
389
100
AcDbEntity
  8
0
100
AcDbLine
 62
250
  6
CONTINUOUS
 10
-5.2961020669
 20
19.5928748348
 11
-5.2961020669
 21
20.8264891865
  0
LINE
  5
38A
100
AcDbEntity
  8
0
100
AcDbLine
 62
250
  6
CONTINUOUS
 10
-5.0144988578
 20
19.6012585483
 11
-5.0144988578
 21
20.8258748197
  0
LINE
  5
38B
100
AcDbEntity
  8
0
100
AcDbLine
 62
7
  6
CONTINUOUS
 10
-4.7992706868
 20
20.933147197
 11
-4.7992706868
 21
19.7207057694
  0
LWPOLYLINE
  5
38C
100
AcDbEntity
  8
0
100
AcDbPolyline
 62
250
  6
CONTINUOUS
 90
31
 70
0
 10
-5.2961020669
 20
20.8264891865
 10
-5.2959105255
 20
20.8355965665
 10
-5.2953359805
 20
20.8448761906
 10
-5.2943793317
 20
20.8543031593
 10
-5.2930422295
 20
20.8638539367
 10
-5.2913278062
 20
20.873500939
 10
-5.2892413878
 20
20.8832124549
 10
-5.2867891812
 20
20.8929600937
 10
-5.2839774794
 20
20.9027192677
 10
-5.2808138442
 20
20.9124636812
 10
-5.2773067876
 20
20.9221669969
 10
-5.2734658841
 20
20.9318026174
 10
-5.2693016905
 20
20.941344027
 10
-5.2648256029
 20
20.9507651379
 10
-5.2600497554
 20
20.9600404332
 10
-5.2549871045
 20
20.9691447472
 10
-5.2496514041
 20
20.9780533315
 10
-5.2440571907
 20
20.9867419015
 10
-5.2382197033
 20
20.9951867815
 10
-5.2321548328
 20
21.0033649795
 10
-5.2258790807
 20
21.01125424
 10
-5.2194095323
 20
21.018833082
 10
-5.2127637955
 20
21.0260808756
 10
-5.2059599577
 20
21.0329778926
 10
-5.1990165422
 20
21.0395053541
 10
-5.1919524427
 20
21.0456454966
 10
-5.1847868904
 20
21.0513816024
 10
-5.1775394084
 20
21.0566980439
 10
-5.17022973
 20
21.061580349
 10
-5.1628777443
 20
21.0660152366
 10
-5.1555034621
 20
21.0699906384
  0
LWPOLYLINE
  5
38D
100
AcDbEntity
  8
0
100
AcDbPolyline
 62
7
  6
CONTINUOUS
 90
10
 70
0
 10
-3.6539111692
 20
20.0468150938
 10
-3.6522735636
 20
20.0723530702
 10
-3.6473197675
 20
20.0977366335
 10
-3.6390554344
 20
20.1224563594
 10
-3.6275643357
 20
20.1460348912
 10
-3.6130482924
 20
20.1679570471
 10
-3.5958109423
 20
20.1877564093
 10
-3.5760376387
 20
20.2051978852
 10
-3.5541415456
 20
20.2198869603
 10
-3.5456295291
 20
20.2245445013
  0
LWPOLYLINE
  5
38E
100
AcDbEntity
  8
SUPERFICI
100
AcDbPolyline
 62
7
  6
CONTINUOUS
 90
4
 70
0
 10
-10.4033616481
 20
-16.9121516527
 10
-10.4007302864
 20
-16.902885097
 10
-10.3993776916
 20
-16.8921155795
 10
-10.3993035038
 20
-16.8798428823
  0
LWPOLYLINE
  5
38F
100
AcDbEntity
  8
0
100
AcDbPolyline
 62
250
  6
CONTINUOUS
 90
30
 70
0
 10
1.4836891326
 20
16.2380401877
 10
1.4792726452
 20
16.2271581271
 10
1.4744690429
 20
16.2164985299
 10
1.4692888987
 20
16.2060855809
 10
1.4637432221
 20
16.1959421935
 10
1.457844658
 20
16.1860922269
 10
1.4516077164
 20
16.1765602058
 10
1.4450470199
 20
16.1673683767
 10
1.4381768847
 20
16.1585367009
 10
1.4310126697
 20
16.1500849452
 10
1.4235704263
 20
16.142032104
 10
1.4158670312
 20
16.1343964949
 10
1.40792002
 20
16.1271955194
 10
1.399747393
 20
16.1204454807
 10
1.39136754
 20
16.1141615605
 10
1.3827993578
 20
16.1083579313
 10
1.3740621734
 20
16.1030476892
 10
1.3651757206
 20
16.0982428332
 10
1.3561600776
 20
16.0939542214
 10
1.3470356021
 20
16.090191537
 10
1.3378228845
 20
16.0869632702
 10
1.3285427203
 20
16.0842767082
 10
1.3192160577
 20
16.0821379154
 10
1.3098639499
 20
16.0805517198
 10
1.3005075078
 20
16.0795217021
 10
1.2911678411
 20
16.079050187
 10
1.2818660431
 20
16.0791382405
 10
1.2726231436
 20
16.0797856606
 10
1.2634600271
 20
16.0809909763
 10
1.2568456391
 20
16.0822190269
  0
LWPOLYLINE
  5
390
100
AcDbEntity
  8
RACCORDO
100
AcDbPolyline
 62
250
  6
CONTINUOUS
 90
9
 70
0
 10
10.2010665429
 20
20.1428492067
 10
10.2452950348
 20
20.1936492635
 10
10.3043739053
 20
20.2529084807
 10
10.3694666847
 20
20.3105164139
 10
10.4403425165
 20
20.3662898815
 10
10.5168356543
 20
20.4201178171
 10
10.5988270581
 20
20.4719190008
 10
10.6860756551
 20
20.5215366401
 10
10.7065728165
 20
20.5324730083
  0
LWPOLYLINE
  5
391
100
AcDbEntity
  8
RACCORDO
100
AcDbPolyline
 62
250
  6
CONTINUOUS
 90
56
 70
0
 10
19.9260131698
 20
14.0237028463
 10
19.9331177551
 20
14.0262536981
 10
19.9402965111
 20
14.0285735466
 10
19.9475484391
 20
14.0306637899
 10
19.9548702745
 20
14.0325417877
 10
19.962262928
 20
14.0341933398
 10
19.9697311963
 20
14.035573056
 10
19.9772852178
 20
14.036685502
 10
19.9849109289
 20
14.0375310822
 10
19.9925760276
 20
14.0380590788
 10
20.0002802817
 20
14.0382690474
 10
20.0080182209
 20
14.0381683401
 10
20.0157489158
 20
14.0377187529
 10
20.0234608409
 20
14.0369219895
 10
20.0311580574
 20
14.0357851464
 10
20.0388221707
 20
14.0342790177
 10
20.0464402979
 20
14.032412609
 10
20.0540157409
 20
14.0301881309
 10
20.0615529736
 20
14.0275678137
 10
20.0690465225
 20
14.0245643584
 10
20.0764889821
 20
14.0211802616
 10
20.0838796413
 20
14.0173651566
 10
20.0912156912
 20
14.0131318718
 10
20.098482483
 20
14.0084884688
 10
20.1056586036
 20
14.0033809442
 10
20.1127376651
 20
13.9978240988
 10
20.1197031892
 20
13.9918310102
 10
20.1265153186
 20
13.985349101
 10
20.1331625738
 20
13.978399398
 10
20.1396275397
 20
13.9709970005
 10
20.1458575873
 20
13.9630852588
 10
20.1518356917
 20
13.9547006083
 10
20.1575429652
 20
13.9458529851
 10
20.1629179892
 20
13.9364536808
 10
20.1679448347
 20
13.9265555134
 10
20.1725923363
 20
13.916168774
 10
20.1767655995
 20
13.9051549266
 10
20.1804541532
 20
13.8935345288
 10
20.1836011244
 20
13.8813808789
 10
20.1860333792
 20
13.8686464198
 10
20.1877110756
 20
13.8552971165
 10
20.1885954885
 20
13.8414828161
 10
20.1885294363
 20
13.8274127619
 10
20.1874641155
 20
13.8131243106
 10
20.1854042488
 20
13.7986549807
 10
20.1823027929
 20
13.7841724629
 10
20.1781136779
 20
13.7696522903
 10
20.1728635895
 20
13.7551626237
 10
20.1666481046
 20
13.7409604559
 10
20.1594968415
 20
13.7270946548
 10
20.1514058348
 20
13.7134917495
 10
20.1424419308
 20
13.7001916448
 10
20.1326149405
 20
13.6871792706
 10
20.121939241
 20
13.6744448184
 10
20.1104925445
 20
13.6620292254
 10
20.0982972166
 20
13.6499245569
  0
LWPOLYLINE
  5
392
100
AcDbEntity
  8
DRAFT
100
AcDbPolyline
 62
7
  6
CONTINUOUS
 90
4
 70
0
 10
-11.6266392994
 20
5.0614483542
 10
-11.6751271218
 20
5.1175233346
 10
-11.7223905921
 20
5.1765216408
 10
-11.7684290245
 20
5.2384435994
  0
LWPOLYLINE
  5
393
100
AcDbEntity
  8
SUPERFICI
100
AcDbPolyline
 62
7
  6
CONTINUOUS
 90
10
 70
0
 10
-11.7684290245
 20
5.2384435994
 10
-11.7226257632
 20
5.1767407259
 10
-11.675398664
 20
5.1177827747
 10
-11.6267483971
 20
5.0615694265
 10
-11.5764507409
 20
5.0078975822
 10
-11.5247310522
 20
4.9569697998
 10
-11.4722643067
 20
4.9093942744
 10
-11.4192757772
 20
4.8653736036
 10
-11.3655409921
 20
4.8247048075
 10
-11.3110602337
 20
4.7873877514
  0
LINE
  5
394
100
AcDbEntity
  8
DRAFT
100
AcDbLine
 62
7
  6
CONTINUOUS
 10
-11.7684290245
 20
5.2384435994
 11
-11.8276958871
 21
5.3261973066
  0
LINE
  5
395
100
AcDbEntity
  8
DRAFT
100
AcDbLine
 62
7
  6
CONTINUOUS
 10
-10.5022744659
 20
8.3321912154
 11
-10.509125636
 21
8.3436006012
  0
LINE
  5
396
100
AcDbEntity
  8
SUPERFICI
100
AcDbLine
 62
7
  6
CONTINUOUS
 10
-10.9852291611
 20
9.12215495
 11
-10.9926822153
 21
9.1355662406
  0
LWPOLYLINE
  5
397
100
AcDbEntity
  8
DRAFT
100
AcDbPolyline
 62
7
  6
CONTINUOUS
 90
5
 70
0
 10
-10.509125636
 20
8.3436006012
 10
-10.514953571
 20
8.3555700701
 10
-10.5196614824
 20
8.3679407868
 10
-10.523345599
 20
8.3808718213
 10
-10.5260055837
 20
8.3943633146
  0
LINE
  5
398
100
AcDbEntity
  8
SUPERFICI
100
AcDbLine
 62
7
  6
CONTINUOUS
 10
-10.9792532192
 20
9.107904401
 11
-10.9852291611
 21
9.12215495
  0
LWPOLYLINE
  5
399
100
AcDbEntity
  8
RACCORDO
100
AcDbPolyline
 62
250
  6
CONTINUOUS
 90
19
 70
0
 10
-2.1580383637
 20
-25.0082904215
 10
-2.1527592828
 20
-25.0388768915
 10
-2.145445881
 20
-25.0676027515
 10
-2.1360981583
 20
-25.0944680016
 10
-2.1246336293
 20
-25.119633382
 10
-2.1111347794
 20
-25.1429381524
 10
-2.0958490651
 20
-25.163900092
 10
-2.0787434588
 20
-25.1824575577
 10
-2.0598509881
 20
-25.1986721924
 10
-2.039518192
 20
-25.2122467044
 10
-2.0177212261
 20
-25.2231290664
 10
-1.9944839347
 20
-25.2313713056
 10
-1.9702243903
 20
-25.2368322116
 10
-1.9449076998
 20
-25.2394551439
 10
-1.9185687562
 20
-25.2392967429
 10
-1.8917303109
 20
-25.2363857195
 10
-1.8645666144
 20
-25.230731644
 10
-1.8369034162
 20
-25.2223249461
 10
-1.8087407164
 20
-25.2111656259
  0
LWPOLYLINE
  5
39A
100
AcDbEntity
  8
RACCORDO
100
AcDbPolyline
 62
250
  6
CONTINUOUS
 90
10
 70
0
 10
-3.562947293
 20
-15.3187799382
 10
-3.5382321694
 20
-16.4319318415
 10
-3.4999151659
 20
-17.5380847376
 10
-3.4480040533
 20
-18.637008162
 10
-3.3825089506
 20
-19.728473341
 10
-3.3034435649
 20
-20.8122527951
 10
-3.2108251812
 20
-21.8881203829
 10
-3.1046730065
 20
-22.9558519406
 10
-2.9850081726
 20
-24.0152253339
 10
-2.8518549693
 20
-25.0660200572
  0
LWPOLYLINE
  5
39B
100
AcDbEntity
  8
RACCORDO
100
AcDbPolyline
 62
250
  6
CONTINUOUS
 90
10
 70
0
 10
-2.8652804367
 20
-15.3151515054
 10
-2.8406824246
 20
-16.4224894409
 10
-2.8025756911
 20
-17.522419247
 10
-2.7509602361
 20
-18.6149409237
 10
-2.6858192447
 20
-19.7002844654
 10
-2.6071695319
 20
-20.7782198777
 10
-2.5150615429
 20
-21.8480571777
 10
-2.4095120927
 20
-22.9095663712
 10
-2.2905043663
 20
-23.9629774525
 10
-2.1580383637
 20
-25.0082904215
  0
LINE
  5
39C
100
AcDbEntity
  8
0
100
AcDbLine
 62
7
  6
CONTINUOUS
 10
-4.1025847813
 20
20.0706750883
 11
-4.1111454856
 21
21.2783215394
  0
LWPOLYLINE
  5
39D
100
AcDbEntity
  8
RACCORDO
100
AcDbPolyline
 62
250
  6
CONTINUOUS
 90
5
 70
0
 10
-3.6276305429
 20
-8.0363748791
 10
-3.6211625466
 20
-9.8616118705
 10
-3.6082260722
 20
-11.6837925503
 10
-3.5888210032
 20
-13.5028594486
 10
-3.562947293
 20
-15.3187799382
  0
LINE
  5
39E
100
AcDbEntity
  8
0
100
AcDbLine
 62
7
  6
CONTINUOUS
 10
-3.6539111692
 20
20.0468150938
 11
-3.6539111692
 21
18.8158594199
  0
LINE
  5
39F
100
AcDbEntity
  8
0
100
AcDbLine
 62
250
  6
CONTINUOUS
 10
-3.5953325254
 20
19.9761044157
 11
-3.5953325254
 21
18.7424900641
  0
LINE
  5
3A0
100
AcDbEntity
  8
RACCORDO
100
AcDbLine
 62
7
  6
CONTINUOUS
 10
-3.3365631169
 20
16.113249273
 11
-3.3365631169
 21
16.3901122647
  0
LINE
  5
3A1
100
AcDbEntity
  8
0
100
AcDbLine
 62
7
  6
CONTINUOUS
 10
-2.6717795158
 20
18.9743830756
 11
-2.6717795158
 21
17.5282203098
  0
LWPOLYLINE
  5
3A2
100
AcDbEntity
  8
RACCORDO
100
AcDbPolyline
 62
250
  6
CONTINUOUS
 90
4
 70
0
 10
-3.6082260843
 20
-2.5422562605
 10
-3.621162556
 20
-4.3767142194
 10
-3.6276305464
 20
-6.2080896073
 10
-3.6276305429
 20
-8.0363748791
  0
LWPOLYLINE
  5
3A3
100
AcDbEntity
  8
RACCORDO
100
AcDbPolyline
 62
250
  6
CONTINUOUS
 90
8
 70
0
 10
-2.9105148484
 20
-2.5514457442
 10
-2.9234389631
 20
-4.3840260317
 10
-2.9299010147
 20
-6.2135606377
 10
-2.9299010055
 20
-8.0400412927
 10
-2.9234389424
 20
-9.8634431878
 10
-2.9105148277
 20
-11.6837580535
 10
-2.8911286592
 20
-13.5009941594
 10
-2.8652804367
 20
-15.3151515054
  0
LINE
  5
3A4
100
AcDbEntity
  8
RACCORDO
100
AcDbLine
 62
250
  6
CONTINUOUS
 10
-3.5888210128
 20
-0.7047730829
 11
-3.6082260843
 21
-2.5422562605
  0
LINE
  5
3A5
100
AcDbEntity
  8
RACCORDO
100
AcDbLine
 62
250
  6
CONTINUOUS
 10
-3.562947293
 20
1.1357027337
 11
-3.5888210128
 21
-0.7047730829
  0
LWPOLYLINE
  5
3A6
100
AcDbEntity
  8
RACCORDO
100
AcDbPolyline
 62
250
  6
CONTINUOUS
 90
3
 70
0
 10
-2.8652804367
 20
1.1228766838
 10
-2.891128673
 20
-0.7158115057
 10
-2.9105148484
 20
-2.5514457442
  0
LWPOLYLINE
  5
3A7
100
AcDbEntity
  8
0
100
AcDbPolyline
 62
250
  6
CONTINUOUS
 90
13
 70
0
 10
-3.5953325254
 20
19.9761044157
 10
-3.595140984
 20
19.9852117958
 10
-3.594566439
 20
19.9944914199
 10
-3.5936097902
 20
20.0039183886
 10
-3.5922726881
 20
20.0134691659
 10
-3.5905582648
 20
20.0231161683
 10
-3.5884718463
 20
20.0328276842
 10
-3.5860196398
 20
20.042575323
 10
-3.5832079379
 20
20.0523344969
 10
-3.5800443027
 20
20.0620789105
 10
-3.5765372461
 20
20.0717822262
 10
-3.5726963427
 20
20.0814178466
 10
-3.568532149
 20
20.0909592562
  0
LWPOLYLINE
  5
3A8
100
AcDbEntity
  8
RACCORDO
100
AcDbPolyline
 62
250
  6
CONTINUOUS
 90
10
 70
0
 10
-2.8518549693
 20
11.5579407707
 10
-2.9850081716
 20
10.380753409
 10
-3.104673005
 20
9.2077888541
 10
-3.2108251796
 20
8.0392919015
 10
-3.3034435637
 20
6.8755066528
 10
-3.3825089501
 20
5.7166756432
 10
-3.4480040534
 20
4.5630397938
 10
-3.4999151662
 20
3.4148394559
 10
-3.5382321697
 20
2.2723143574
 10
-3.562947293
 20
1.1357027337
  0
LWPOLYLINE
  5
3A9
100
AcDbEntity
  8
RACCORDO
100
AcDbPolyline
 62
250
  6
CONTINUOUS
 90
10
 70
0
 10
-2.1580383637
 20
11.4871632673
 10
-2.2905054692
 20
10.316132801
 10
-2.4095139491
 20
9.1497786658
 10
-2.5150638034
 20
7.9881008617
 10
-2.607171749
 20
6.8308534741
 10
-2.6858210689
 20
5.6782824175
 10
-2.7509616127
 20
4.5311254358
 10
-2.8025766636
 20
3.3896284436
 10
-2.8406829382
 20
2.2535455262
 10
-2.8652804367
 20
1.1228766838
  0
LINE
  5
3AA
100
AcDbEntity
  8
DRAFT
100
AcDbLine
 62
7
  6
CONTINUOUS
 10
-11.1190298792
 20
-12.7512838011
 11
-11.114727003
 21
-12.7432248818
  0
LWPOLYLINE
  5
3AB
100
AcDbEntity
  8
SUPERFICI
100
AcDbPolyline
 62
7
  6
CONTINUOUS
 90
4
 70
0
 10
-11.1140063969
 20
-12.7421347706
 10
-11.1185242568
 20
-12.7501279489
 10
-11.1216703318
 20
-12.7596273503
 10
-11.1235804337
 20
-12.7706684223
  0
LWPOLYLINE
  5
3AC
100
AcDbEntity
  8
RACCORDO
100
AcDbPolyline
 62
250
  6
CONTINUOUS
 90
47
 70
0
 10
10.2819575598
 20
20.1098035427
 10
10.3107243394
 20
20.1482565075
 10
10.3600075577
 20
20.2050371849
 10
10.4151412324
 20
20.2606277993
 10
10.4756447107
 20
20.3145703216
 10
10.5415170623
 20
20.3668232211
 10
10.6127592176
 20
20.4174280285
 10
10.6888933153
 20
20.466051307
 10
10.7699099443
 20
20.5126790496
 10
10.8558185157
 20
20.5573252632
 10
10.9461694014
 20
20.5996985323
 10
11.0412196816
 20
20.6398577303
 10
11.1407122761
 20
20.6777439838
 10
11.2434263165
 20
20.7128892569
 10
11.3497671852
 20
20.7452669768
 10
11.4593294998
 20
20.7749037164
 10
11.5696762442
 20
20.8014111586
 10
11.6807807612
 20
20.824610552
 10
11.7926697079
 20
20.8446806481
 10
11.90298604
 20
20.8617693838
 10
12.0113765299
 20
20.8757432797
 10
12.1181944052
 20
20.8867358153
 10
12.2221423043
 20
20.8952953665
 10
12.3229781387
 20
20.901397936
 10
12.420943997
 20
20.9050675212
 10
12.5154687833
 20
20.90692449
 10
12.6063905234
 20
20.9069903589
 10
12.6938711916
 20
20.9052436114
 10
12.777825615
 20
20.902240066
 10
12.8581296883
 20
20.8980212654
 10
12.9349075169
 20
20.8925456669
 10
13.0084462434
 20
20.8862444613
 10
13.0787127771
 20
20.8791584275
 10
13.1457402086
 20
20.8712467866
 10
13.2099149528
 20
20.8628183924
 10
13.2712226996
 20
20.8539077519
 10
13.329677759
 20
20.8444803581
 10
13.3857094755
 20
20.8347415443
 10
13.4393140591
 20
20.8247200225
 10
13.4904952997
 20
20.8143870808
 10
13.539693912
 20
20.8038619161
 10
13.586913057
 20
20.7931673769
 10
13.6321495735
 20
20.7822806148
 10
13.6758346934
 20
20.7712522811
 10
13.7181121605
 20
20.7600992598
 10
13.7588382309
 20
20.748804667
 10
13.7980129046
 20
20.7373685027
  0
LWPOLYLINE
  5
3AD
100
AcDbEntity
  8
RACCORDO
100
AcDbPolyline
 62
250
  6
CONTINUOUS
 90
16
 70
0
 10
-2.8652804367
 20
1.1228766838
 10
-2.9043785329
 20
1.1069970045
 10
-2.9467087694
 20
1.0932067934
 10
-2.9918226814
 20
1.0816521501
 10
-3.0392423128
 20
1.0724554893
 10
-3.0884652795
 20
1.0657142444
 10
-3.1389700923
 20
1.0614998351
 10
-3.1902216814
 20
1.0598569107
 10
-3.2416770655
 20
1.060802877
 10
-3.2927911039
 20
1.064327712
 10
-3.3430222727
 20
1.0703940722
 10
-3.3918384011
 20
1.0789376878
 10
-3.4387223101
 20
1.0898680442
 10
-3.4831772914
 20
1.1030693404
 10
-3.5247323697
 20
1.1184017162
 10
-3.5629472927
 20
1.1357027338
  0
LINE
  5
3AE
100
AcDbEntity
  8
DRAFT
100
AcDbLine
 62
7
  6
CONTINUOUS
 10
1.0697155971
 20
-4.8047874389
 11
1.5617836392
 21
-5.05082146
  0
LWPOLYLINE
  5
3AF
100
AcDbEntity
  8
DRAFT
100
AcDbPolyline
 62
7
  6
CONTINUOUS
 90
3
 70
0
 10
-11.3110611973
 20
4.7873883295
 10
-11.3664265818
 20
4.8254776343
 10
-11.420684791
 20
4.8666016764
  0
LWPOLYLINE
  5
3B0
100
AcDbEntity
  8
DRAFT
100
AcDbPolyline
 62
7
  6
CONTINUOUS
 90
5
 70
0
 10
-11.420684791
 20
4.8666016764
 10
-11.473835549
 20
4.9107605873
 10
-11.5259166726
 20
4.9579920968
 10
-11.5768895799
 20
5.0082588402
 10
-11.6266392994
 20
5.0614483542
  0
LWPOLYLINE
  5
3B1
100
AcDbEntity
  8
SUPERFICI
100
AcDbPolyline
 62
7
  6
CONTINUOUS
 90
15
 70
0
 10
-11.3350841212
 20
5.3903598941
 10
-11.3636159791
 20
5.416409368
 10
-11.3916268294
 20
5.444235251
 10
-11.4188393642
 20
5.4735610141
 10
-11.4452386627
 20
5.5043954156
 10
-11.4708377275
 20
5.536730598
 10
-11.4954011394
 20
5.5702651063
 10
-11.5189188385
 20
5.6050100968
 10
-11.5413985891
 20
5.6409554875
 10
-11.5626318559
 20
5.6777678956
 10
-11.5826069208
 20
5.7154571776
 10
-11.6013330818
 20
5.7540146044
 10
-11.6186336403
 20
5.7930787666
 10
-11.634495788
 20
5.8326633602
 10
-11.6489300585
 20
5.8727557422
  0
LINE
  5
3B2
100
AcDbEntity
  8
DRAFT
100
AcDbLine
 62
7
  6
CONTINUOUS
 10
-10.486468901
 20
8.3126416344
 11
-10.4946899489
 21
8.3218186186
  0
LWPOLYLINE
  5
3B3
100
AcDbEntity
  8
SUPERFICI
100
AcDbPolyline
 62
7
  6
CONTINUOUS
 90
5
 70
0
 10
-11.0014016291
 20
9.1479274451
 10
-11.0107542525
 20
9.1586064481
 10
-11.02052925
 20
9.1673924562
 10
-11.0309380229
 20
9.17449603
 10
-11.0419806779
 20
9.1799171257
  0
LINE
  5
3B4
100
AcDbEntity
  8
DRAFT
100
AcDbLine
 62
7
  6
CONTINUOUS
 10
-10.4946899489
 20
8.3218186186
 11
-10.5022744659
 21
8.3321912154
  0
LINE
  5
3B5
100
AcDbEntity
  8
SUPERFICI
100
AcDbLine
 62
7
  6
CONTINUOUS
 10
-10.9926822153
 20
9.1355662406
 11
-11.0014016291
 21
9.1479274451
  0
LWPOLYLINE
  5
3B6
100
AcDbEntity
  8
0
100
AcDbPolyline
 62
250
  6
CONTINUOUS
 90
5
 70
0
 10
3.6248369257
 20
-23.818938841
 10
3.6218286828
 20
-23.8081879263
 10
3.6183997422
 20
-23.797678289
 10
3.6145578437
 20
-23.7874336517
 10
3.6103116582
 20
-23.7774771349
  0
LWPOLYLINE
  5
3B7
100
AcDbEntity
  8
RACCORDO
100
AcDbPolyline
 62
250
  6
CONTINUOUS
 90
16
 70
0
 10
-1.8087407164
 20
12.0215095623
 10
-1.811616048
 20
12.0672576874
 10
-1.8182273773
 20
12.1144902197
 10
-1.8285023686
 20
12.1626901488
 10
-1.8423285824
 20
12.2113298702
 10
-1.8595547023
 20
12.2598769505
 10
-1.8799921883
 20
12.3077999553
 10
-1.9034173488
 20
12.3545742888
 10
-1.92957378
 20
12.3996879129
 10
-1.9581751628
 20
12.4426469456
 10
-1.9889084237
 20
12.4829811111
 10
-2.0214371437
 20
12.5202488558
 10
-2.0554052223
 20
12.5540421687
 10
-2.0904408123
 20
12.5839910933
 10
-2.1261603942
 20
12.60976777
 10
-2.1621729497
 20
12.6310900016
  0
LWPOLYLINE
  5
3B8
100
AcDbEntity
  8
0
100
AcDbPolyline
 62
250
  6
CONTINUOUS
 90
20
 70
0
 10
-0.5473708974
 20
17.0778219467
 10
-0.5472026016
 20
17.0684609963
 10
-0.5466980343
 20
17.0592861653
 10
-0.5458581565
 20
17.0503149231
 10
-0.5446845708
 20
17.0415643743
 10
-0.5431795099
 20
17.0330511563
 10
-0.5413458235
 20
17.0247914135
 10
-0.5391869794
 20
17.0168008258
 10
-0.536707092
 20
17.0090946722
 10
-0.5339109123
 20
17.0016877233
 10
-0.5308037897
 20
16.9945941239
 10
-0.5273916276
 20
16.9878273277
 10
-0.5236808996
 20
16.9814001706
 10
-0.5196786389
 20
16.9753248507
 10
-0.5153924897
 20
16.9696129869
 10
-0.5108306803
 20
16.9642755339
 10
-0.5060019507
 20
16.9593226838
 10
-0.5009154649
 20
16.9547638034
 10
-0.49558085
 20
16.9506075103
 10
-0.4900214814
 20
16.9468706376
  0
LWPOLYLINE
  5
3B9
100
AcDbEntity
  8
0
100
AcDbPolyline
 62
7
  6
CONTINUOUS
 90
6
 70
0
 10
-1.097839825
 20
24.6416378749
 10
-1.0978452011
 20
24.6419945666
 10
-1.0983319623
 20
24.6447924543
 10
-1.0995859617
 20
24.6470853643
 10
-1.1015743429
 20
24.6488968356
 10
-1.1028551873
 20
24.6496426818
  0
LINE
  5
3BA
100
AcDbEntity
  8
0
100
AcDbLine
 62
250
  6
CONTINUOUS
 10
-1.5522905852
 20
21.8407181661
 11
-1.5611345832
 21
23.0863233063
  0
LINE
  5
3BB
100
AcDbEntity
  8
0
100
AcDbLine
 62
7
  6
CONTINUOUS
 10
-0.5702559638
 20
23.2132207999
 11
-0.5685697601
 21
22.6440520125
  0
LINE
  5
3BC
100
AcDbEntity
  8
0
100
AcDbLine
 62
7
  6
CONTINUOUS
 10
-2.0123696414
 20
17.1985153727
 11
-2.0123696414
 21
18.6446781384
  0
LINE
  5
3BD
100
AcDbEntity
  8
DRAFT
100
AcDbLine
 62
7
  6
CONTINUOUS
 10
-1.970843562
 20
16.3348140466
 11
-1.970843562
 21
15.4303894955
  0
LINE
  5
3BE
100
AcDbEntity
  8
0
100
AcDbLine
 62
7
  6
CONTINUOUS
 10
-1.097839825
 20
23.3933778229
 11
-1.097839825
 21
24.6416419456
  0
LINE
  5
3BF
100
AcDbEntity
  8
0
100
AcDbLine
 62
7
  6
CONTINUOUS
 10
-0.9455387293
 20
17.7938397907
 11
-0.9455387293
 21
19.1794804367
  0
LINE
  5
3C0
100
AcDbEntity
  8
0
100
AcDbLine
 62
7
  6
CONTINUOUS
 10
-0.6205942021
 20
17.5061842285
 11
-0.6205942021
 21
17.1662102944
  0
LINE
  5
3C1
100
AcDbEntity
  8
0
100
AcDbLine
 62
250
  6
CONTINUOUS
 10
-0.5473708974
 20
17.4177958808
 11
-0.5473708974
 21
17.0778219467
  0
LINE
  5
3C2
100
AcDbEntity
  8
0
100
AcDbLine
 62
7
  6
CONTINUOUS
 10
0.0823987521
 20
16.66020532
 11
0.0823987521
 21
16.2062312184
  0
LINE
  5
3C3
100
AcDbEntity
  8
0
100
AcDbLine
 62
250
  6
CONTINUOUS
 10
0.1556220568
 20
16.6235936677
 11
0.1556220568
 21
16.1145195235
  0
LINE
  5
3C4
100
AcDbEntity
  8
0
100
AcDbLine
 62
250
  6
CONTINUOUS
 10
-0.1256548491
 20
21.9815586055
 11
-0.1218755244
 21
22.5138457398
  0
LWPOLYLINE
  5
3C5
100
AcDbEntity
  8
0
100
AcDbPolyline
 62
250
  6
CONTINUOUS
 90
34
 70
0
 10
-0.5473708974
 20
17.4177958808
 10
-0.5471720947
 20
17.4281603591
 10
-0.5465761324
 20
17.4387003439
 10
-0.5455843492
 20
17.4493921295
 10
-0.5441989732
 20
17.4602116754
 10
-0.542423119
 20
17.4711346397
 10
-0.5402607839
 20
17.4821364337
 10
-0.5377168333
 20
17.4931923059
 10
-0.5347969886
 20
17.5042773949
 10
-0.5315078186
 20
17.5153667646
 10
-0.5278567216
 20
17.5264354745
 10
-0.5238519111
 20
17.5374586269
 10
-0.5195023988
 20
17.5484114201
 10
-0.5148179702
 20
17.5592692178
 10
-0.5098091621
 20
17.5700076009
 10
-0.5044872435
 20
17.5806024141
 10
-0.4988641832
 20
17.5910298338
 10
-0.4929526325
 20
17.6012664026
 10
-0.4867659007
 20
17.6112890795
 10
-0.4803179241
 20
17.6210752975
 10
-0.4736231908
 20
17.6306030773
 10
-0.4666967146
 20
17.6398510523
 10
-0.4595540042
 20
17.6487985027
 10
-0.4522111867
 20
17.6574252135
 10
-0.44468494
 20
17.6657116039
 10
-0.4369923058
 20
17.6736389524
 10
-0.4291504932
 20
17.6811895653
 10
-0.4211769942
 20
17.6883466146
 10
-0.4130885168
 20
17.6950949876
 10
-0.4049044455
 20
17.7014183975
 10
-0.3966467747
 20
17.7073001734
 10
-0.388335354
 20
17.7127269235
 10
-0.3799877217
 20
17.7176879375
 10
-0.3716226415
 20
17.7221726958
  0
LWPOLYLINE
  5
3C6
100
AcDbEntity
  8
RACCORDO
100
AcDbPolyline
 62
250
  6
CONTINUOUS
 90
10
 70
0
 10
-1.8087407164
 20
-25.2111656259
 10
-1.8116161392
 20
-25.2558705686
 10
-1.8182276779
 20
-25.2981010345
 10
-1.8285029582
 20
-25.3373947412
 10
-1.8423295
 20
-25.3733215535
 10
-1.8595559489
 20
-25.4054881931
 10
-1.8799937328
 20
-25.4335425424
 10
-1.9034191262
 20
-25.4571775002
 10
-1.9295756992
 20
-25.4761343424
 10
-1.9503125991
 20
-25.4869336714
  0
LINE
  5
3C7
100
AcDbEntity
  8
SUPERFICI
100
AcDbLine
 62
7
  6
CONTINUOUS
 10
-10.407401413
 20
-16.919957301
 11
-10.4033616481
 21
-16.9121516527
  0
LINE
  5
3C8
100
AcDbEntity
  8
DRAFT
100
AcDbLine
 62
7
  6
CONTINUOUS
 10
-11.114727003
 20
-12.7432248818
 11
-11.1091854474
 21
-12.7365146864
  0
LINE
  5
3C9
100
AcDbEntity
  8
DRAFT
100
AcDbLine
 62
7
  6
CONTINUOUS
 10
20.0891236882
 20
13.6338346197
 11
21.0043004748
 21
14.2257632386
  0
LWPOLYLINE
  5
3CA
100
AcDbEntity
  8
RACCORDO
100
AcDbPolyline
 62
7
  6
CONTINUOUS
 90
16
 70
0
 10
19.9260135588
 20
3.6920203347
 10
19.9170523436
 20
3.6902530872
 10
19.9082302363
 20
3.6888996881
 10
19.8995472369
 20
3.6879601374
 10
19.8909928715
 20
3.6874359923
 10
19.8825776141
 20
3.6873256956
 10
19.8743328859
 20
3.687624576
 10
19.8662625119
 20
3.6883394339
 10
19.8583626673
 20
3.6894634689
 10
19.8506532988
 20
3.6909716088
 10
19.8431400737
 20
3.6928695303
 10
19.8358173248
 20
3.6951515566
 10
19.8286879973
 20
3.6977755852
 10
19.821753073
 20
3.7007275819
 10
19.8150115701
 20
3.7040215808
 10
19.8084634886
 20
3.7076575819
  0
LWPOLYLINE
  5
3CB
100
AcDbEntity
  8
DRAFT
100
AcDbPolyline
 62
7
  6
CONTINUOUS
 90
5
 70
0
 10
-10.6573304651
 20
4.4387830466
 10
-10.7508455008
 20
4.4793321007
 10
-10.8443667635
 20
4.5229889995
 10
-10.9378733626
 20
4.569743242
 10
-11.0313024679
 20
4.619563401
  0
LWPOLYLINE
  5
3CC
100
AcDbEntity
  8
SUPERFICI
100
AcDbPolyline
 62
7
  6
CONTINUOUS
 90
3
 70
0
 10
-10.7599537451
 20
5.055450844
 10
-10.841373179
 20
5.0934580943
 10
-10.9228364597
 20
5.1341953081
  0
LINE
  5
3CD
100
AcDbEntity
  8
DRAFT
100
AcDbLine
 62
250
  6
CONTINUOUS
 10
-10.0061221098
 20
4.3572934123
 11
-3.562947293
 21
1.1357027337
  0
LINE
  5
3CE
100
AcDbEntity
  8
DRAFT
100
AcDbLine
 62
250
  6
CONTINUOUS
 10
-18.2116077782
 20
8.4600329763
 11
-11.7684290245
 21
5.2384435994
  0
LINE
  5
3CF
100
AcDbEntity
  8
SUPERFICI
100
AcDbLine
 62
250
  6
CONTINUOUS
 10
-11.7684290245
 20
5.2384435994
 11
-10.0061229912
 21
4.357293081
  0
LWPOLYLINE
  5
3D0
100
AcDbEntity
  8
SUPERFICI
100
AcDbPolyline
 62
7
  6
CONTINUOUS
 90
5
 70
0
 10
-10.9228364597
 20
5.1341953081
 10
-11.0041182189
 20
5.1775441517
 10
-11.0851431124
 20
5.2234652848
 10
-11.1659858203
 20
5.2719983609
 10
-11.2466456787
 20
5.3231436929
  0
LWPOLYLINE
  5
3D1
100
AcDbEntity
  8
DRAFT
100
AcDbPolyline
 62
7
  6
CONTINUOUS
 90
4
 70
0
 10
-11.0313024679
 20
4.619563401
 10
-11.1246330832
 20
4.6724390262
 10
-11.217886046
 20
4.7283806438
 10
-11.3110611973
 20
4.7873883295
  0
LWPOLYLINE
  5
3D2
100
AcDbEntity
  8
SUPERFICI
100
AcDbPolyline
 62
7
  6
CONTINUOUS
 90
10
 70
0
 10
-11.3110602337
 20
4.7873877514
 10
-11.2180051344
 20
4.7284412449
 10
-11.124795071
 20
4.6725232253
 10
-11.0314302022
 20
4.6196336168
 10
-10.9378268016
 20
4.5697321564
 10
-10.8440687544
 20
4.5228590313
 10
-10.750407557
 20
4.4791348788
 10
-10.6569269887
 20
4.4385999366
 10
-10.5635431117
 20
4.4012140426
 10
-10.4702557676
 20
4.3669772726
  0
LWPOLYLINE
  5
3D3
100
AcDbEntity
  8
DRAFT
100
AcDbPolyline
 62
7
  6
CONTINUOUS
 90
10
 70
0
 10
-11.2466481052
 20
5.3231455415
 10
-11.1657390862
 20
5.2718639826
 10
-11.0847528554
 20
5.2232518106
 10
-11.0036900781
 20
5.1773087117
 10
-10.9225339634
 20
5.1340258647
 10
-10.8413019675
 20
5.093411777
 10
-10.7600457939
 20
5.0554922846
 10
-10.6787824552
 20
5.0202761042
 10
-10.5974942728
 20
4.9877548332
 10
-10.516180581
 20
4.9579287855
  0
LWPOLYLINE
  5
3D4
100
AcDbEntity
  8
SUPERFICI
100
AcDbPolyline
 62
7
  6
CONTINUOUS
 90
4
 70
0
 10
-11.2466456787
 20
5.3231436929
 10
-11.2766445195
 20
5.3437734599
 10
-11.3061241577
 20
5.3661787862
 10
-11.3350841212
 20
5.3903598941
  0
LWPOLYLINE
  5
3D5
100
AcDbEntity
  8
DRAFT
100
AcDbPolyline
 62
7
  6
CONTINUOUS
 90
3
 70
0
 10
-10.2967751881
 20
8.1721071259
 10
-10.3469503714
 20
8.2152652958
 10
-10.3996418789
 20
8.2536683265
  0
LWPOLYLINE
  5
3D6
100
AcDbEntity
  8
0
100
AcDbPolyline
 62
250
  6
CONTINUOUS
 90
3
 70
0
 10
-0.619910221
 20
17.1569701273
 10
-0.6205060195
 20
17.1628905216
 10
-0.6205942021
 20
17.1662102944
  0
LINE
  5
3D7
100
AcDbEntity
  8
0
100
AcDbLine
 62
7
  6
CONTINUOUS
 10
1.5617836392
 20
-5.05082146
 11
2.7129026407
 21
-18.8710318137
  0
LINE
  5
3D8
100
AcDbEntity
  8
0
100
AcDbLine
 62
7
  6
CONTINUOUS
 10
-0.6186368476
 20
17.1349877702
 11
-0.6205941959
 21
17.1662381232
  0
LWPOLYLINE
  5
3D9
100
AcDbEntity
  8
0
100
AcDbPolyline
 62
250
  6
CONTINUOUS
 90
20
 70
0
 10
1.131167173
 20
-25.401025162
 10
1.1313659209
 20
-25.4111894489
 10
1.1319617176
 20
-25.4211321328
 10
1.1329532236
 20
-25.4308308567
 10
1.1343382093
 20
-25.4402638124
 10
1.1361135604
 20
-25.4494097891
 10
1.138275285
 20
-25.4582482214
 10
1.1408185222
 20
-25.4667592355
 10
1.1437375534
 20
-25.4749236936
 10
1.147025815
 20
-25.4827232374
 10
1.1506759129
 20
-25.490140329
 10
1.1546796398
 20
-25.4971582905
 10
1.1590279929
 20
-25.5037613415
 10
1.1637111946
 20
-25.5099346345
 10
1.1687187144
 20
-25.5156642885
 10
1.1740392925
 20
-25.5209374198
 10
1.1796609651
 20
-25.5257421714
 10
1.1855710916
 20
-25.5300677395
 10
1.1917563825
 20
-25.5339043978
 10
1.1961404694
 20
-25.5362436121
  0
LWPOLYLINE
  5
3DA
100
AcDbEntity
  8
0
100
AcDbPolyline
 62
250
  6
CONTINUOUS
 90
22
 70
0
 10
1.131167173
 20
16.2385529115
 10
1.1313350052
 20
16.2292047421
 10
1.1318384119
 20
16.2200390655
 10
1.1326767789
 20
16.211073496
 10
1.1338490056
 20
16.2023243166
 10
1.1353531241
 20
16.1938094424
 10
1.1371859272
 20
16.1855481086
 10
1.1393436522
 20
16.1775569695
 10
1.1418223863
 20
16.1698502553
 10
1.1446174436
 20
16.1624425562
 10
1.1477235405
 20
16.1553479282
 10
1.1511347508
 20
16.1485799548
 10
1.1548445352
 20
16.1421516217
 10
1.1588457984
 20
16.1360752077
 10
1.1631309443
 20
16.1303622335
 10
1.1676918443
 20
16.1250235378
 10
1.1725198504
 20
16.1200692593
 10
1.1776057435
 20
16.1155088731
 10
1.1829397736
 20
16.111351118
 10
1.1885117381
 20
16.1076039253
 10
1.1943110585
 20
16.1042743891
 10
1.1961379988
 20
16.1033356967
  0
LWPOLYLINE
  5
3DB
100
AcDbEntity
  8
0
100
AcDbPolyline
 62
7
  6
CONTINUOUS
 90
4
 70
0
 10
2.1734475545
 20
24.2530709056
 10
2.1735763008
 20
24.2397659459
 10
2.1747627903
 20
24.2105501263
 10
2.1768921711
 20
24.1849439243
  0
LINE
  5
3DC
100
AcDbEntity
  8
0
100
AcDbLine
 62
7
  6
CONTINUOUS
 10
2.2740433868
 20
23.7478677745
 11
2.2773508698
 21
23.2820357193
  0
LINE
  5
3DD
100
AcDbEntity
  8
RACCORDO
100
AcDbLine
 62
7
  6
CONTINUOUS
 10
1.0697155971
 20
-23.935348612
 11
1.0697155971
 21
13.4772455967
  0
LINE
  5
3DE
100
AcDbEntity
  8
0
100
AcDbLine
 62
250
  6
CONTINUOUS
 10
1.131167173
 20
-25.401025162
 11
1.131167173
 21
-25.0610512279
  0
LINE
  5
3DF
100
AcDbEntity
  8
0
100
AcDbLine
 62
250
  6
CONTINUOUS
 10
1.131167173
 20
16.2385529115
 11
1.131167173
 21
16.5785268456
  0
LINE
  5
3E0
100
AcDbEntity
  8
0
100
AcDbLine
 62
250
  6
CONTINUOUS
 10
1.4836891326
 20
-25.4015378859
 11
1.4836891326
 21
-25.0615639517
  0
LINE
  5
3E1
100
AcDbEntity
  8
0
100
AcDbLine
 62
250
  6
CONTINUOUS
 10
1.4836891326
 20
16.2380401877
 11
1.4836891326
 21
16.5780141218
  0
LINE
  5
3E2
100
AcDbEntity
  8
0
100
AcDbLine
 62
250
  6
CONTINUOUS
 10
1.8423877811
 20
-24.0845547507
 11
1.8423877811
 21
-23.3906420235
  0
LINE
  5
3E3
100
AcDbEntity
  8
0
100
AcDbLine
 62
250
  6
CONTINUOUS
 10
1.8423877811
 20
15.2711366614
 11
1.8423877811
 21
15.9518864071
  0
LINE
  5
3E4
100
AcDbEntity
  8
0
100
AcDbLine
 62
250
  6
CONTINUOUS
 10
2.1949097407
 20
-24.2100674746
 11
2.1949097407
 21
-23.5669030033
  0
LINE
  5
3E5
100
AcDbEntity
  8
0
100
AcDbLine
 62
250
  6
CONTINUOUS
 10
2.1949097407
 20
15.281904543
 11
2.1949097407
 21
16.0895366648
  0
LWPOLYLINE
  5
3E6
100
AcDbEntity
  8
0
100
AcDbPolyline
 62
250
  6
CONTINUOUS
 90
25
 70
0
 10
1.131167173
 20
-25.0610512279
 10
1.1313354689
 20
-25.0515219816
 10
1.1318400361
 20
-25.0418425834
 10
1.1326799139
 20
-25.0320314633
 10
1.1338534996
 20
-25.0221073288
 10
1.1353585606
 20
-25.0120890499
 10
1.1371922469
 20
-25.0019956207
 10
1.139351091
 20
-24.991846189
 10
1.1418309784
 20
-24.981660148
 10
1.1446271582
 20
-24.9714570193
 10
1.1477342807
 20
-24.9612562974
 10
1.1511464428
 20
-24.951077339
 10
1.1548571708
 20
-24.940939454
 10
1.1588594315
 20
-24.9308618733
 10
1.1631455807
 20
-24.9208638604
 10
1.1677073902
 20
-24.9109645979
 10
1.1725361197
 20
-24.9011830183
 10
1.1776226055
 20
-24.8915376521
 10
1.1829572204
 20
-24.882046744
 10
1.1885304906
 20
-24.8727272568
 10
1.1943311766
 20
-24.8635980881
 10
1.2003461018
 20
-24.8546796894
 10
1.2065628667
 20
-24.8459898031
 10
1.2129701292
 20
-24.8375436619
 10
1.2195555206
 20
-24.8293570541
  0
LWPOLYLINE
  5
3E7
100
AcDbEntity
  8
0
100
AcDbPolyline
 62
250
  6
CONTINUOUS
 90
34
 70
0
 10
1.131167173
 20
16.5785268456
 10
1.1313659209
 20
16.5888898804
 10
1.1319617176
 20
16.5994283611
 10
1.1329532236
 20
16.6101185909
 10
1.1343382093
 20
16.6209365323
 10
1.1361135604
 20
16.6318578601
 10
1.138275285
 20
16.642858017
 10
1.1408185222
 20
16.6539122683
 10
1.1437375534
 20
16.6649957576
 10
1.147025815
 20
16.676083563
 10
1.1506759129
 20
16.6871507525
 10
1.1546796398
 20
16.6981724409
 10
1.1590279929
 20
16.709123845
 10
1.1637111946
 20
16.7199803398
 10
1.1687187144
 20
16.7307175135
 10
1.1740392925
 20
16.7413112229
 10
1.1796609651
 20
16.7517376472
 10
1.1855710916
 20
16.7619733418
 10
1.1917563825
 20
16.771995291
 10
1.1982029298
 20
16.7817809596
 10
1.2048962379
 20
16.7913083438
 10
1.2118212564
 20
16.8005560206
 10
1.2189624139
 20
16.8095031959
 10
1.2263036528
 20
16.8181297513
 10
1.233828466
 20
16.8264162893
 10
1.2415199333
 20
16.834344177
 10
1.2493607598
 20
16.841895588
 10
1.2573333149
 20
16.8490535423
 10
1.2654196717
 20
16.8558019447
 10
1.2736016473
 20
16.862125621
 10
1.281860844
 20
16.8680103519
 10
1.2901786903
 20
16.8734429051
 10
1.298536483
 20
16.8784110651
 10
1.306915429
 20
16.8829036606
  0
LWPOLYLINE
  5
3E8
100
AcDbEntity
  8
0
100
AcDbPolyline
 62
250
  6
CONTINUOUS
 90
20
 70
0
 10
1.4836891326
 20
-25.4015378859
 10
1.4834408027
 20
-25.4117643038
 10
1.4827948224
 20
-25.4217661266
 10
1.4817526537
 20
-25.4315206908
 10
1.4803166556
 20
-25.4410058983
 10
1.4784900809
 20
-25.45020025
 10
1.476277071
 20
-25.4590828965
 10
1.4736826421
 20
-25.4676337073
 10
1.4707126724
 20
-25.4758333121
 10
1.467373893
 20
-25.4836631299
 10
1.4636738693
 20
-25.4911054212
 10
1.4596209865
 20
-25.4981433225
 10
1.4552244319
 20
-25.504760883
 10
1.4504941699
 20
-25.5109431093
 10
1.4454409191
 20
-25.5166759966
 10
1.4400761328
 20
-25.5219465555
 10
1.4344119652
 20
-25.5267428487
 10
1.4284612547
 20
-25.5310540085
 10
1.4222374975
 20
-25.5348702627
 10
1.4175916799
 20
-25.5373083559
  0
LINE
  5
3E9
100
AcDbEntity
  8
0
100
AcDbLine
 62
7
  6
CONTINUOUS
 10
2.7129026407
 20
9.881011592
 11
1.5617836392
 21
-5.05082146
  0
LWPOLYLINE
  5
3EA
100
AcDbEntity
  8
0
100
AcDbPolyline
 62
250
  6
CONTINUOUS
 90
17
 70
0
 10
3.6853805293
 20
17.3819079733
 10
3.6848521763
 20
17.3759859914
 10
3.6837629043
 20
17.3700832143
 10
3.6821151662
 20
17.3642129083
 10
3.679912666
 20
17.3583882622
 10
3.6771603344
 20
17.3526223325
 10
3.6738643755
 20
17.3469281301
 10
3.670032284
 20
17.3413185727
 10
3.665672772
 20
17.3358063432
 10
3.6607956263
 20
17.3304037549
 10
3.655411731
 20
17.325122844
 10
3.649532696
 20
17.3199750736
 10
3.6431721591
 20
17.3149724542
 10
3.6363459995
 20
17.3101272997
 10
3.629070427
 20
17.3054507351
 10
3.6213615934
 20
17.3009527852
 10
3.6132370952
 20
17.2966434286
  0
LWPOLYLINE
  5
3EB
100
AcDbEntity
  8
RACCORDO
100
AcDbPolyline
 62
7
  6
CONTINUOUS
 90
136
 70
0
 10
19.9260131698
 20
14.0237028463
 10
19.9854100456
 20
14.072431014
 10
20.0429272905
 20
14.119942095
 10
20.0985649046
 20
14.1662360892
 10
20.1522678026
 20
14.2112784419
 10
20.2040910697
 20
14.2551037077
 10
20.2541999619
 20
14.2978155514
 10
20.302601725
 20
14.3394188999
 10
20.3492891131
 20
14.3799088263
 10
20.3944056443
 20
14.4193742138
 10
20.4379555244
 20
14.4578175869
 10
20.4799345475
 20
14.495236421
 10
20.520473614
 20
14.5317120267
 10
20.5595766447
 20
14.567246781
 10
20.5972397187
 20
14.6018383068
 10
20.6335819742
 20
14.6355607827
 10
20.668607071
 20
14.6684164679
 10
20.7023113492
 20
14.7004031032
 10
20.734802967
 20
14.7315880902
 10
20.7660852687
 20
14.7619735237
 10
20.79615491
 20
14.7915573088
 10
20.8251100163
 20
14.8204005622
 10
20.8529536662
 20
14.8485052688
 10
20.8796827811
 20
14.8758694436
 10
20.9053862511
 20
14.9025482491
 10
20.9300669223
 20
14.9285436128
 10
20.9537219486
 20
14.953853607
 10
20.9764316823
 20
14.9785276116
 10
20.9981987335
 20
15.0025675286
 10
21.0190204922
 20
15.025971456
 10
21.0389694805
 20
15.0487830664
 10
21.0580480624
 20
15.0710042822
 10
21.076253874
 20
15.0926331811
 10
21.0936523455
 20
15.1137076691
 10
21.1102455549
 20
15.134229729
 10
21.1260314242
 20
15.1541973779
 10
21.1410691503
 20
15.1736425735
 10
21.1553604375
 20
15.1925673728
 10
21.1689035815
 20
15.2109697187
 10
21.1817526656
 20
15.2288753975
 10
21.1939089001
 20
15.2462865351
 10
21.2053710746
 20
15.2632010055
 10
21.2161896421
 20
15.2796382167
 10
21.2263650551
 20
15.2956001037
 10
21.235896861
 20
15.3110847314
 10
21.2448341541
 20
15.3261057032
 10
21.2531766721
 20
15.3406649002
 10
21.2609246774
 20
15.3547604412
 10
21.2681280513
 20
15.3684002866
 10
21.2747853625
 20
15.3815851425
 10
21.2808980424
 20
15.3943143027
 10
21.2865202664
 20
15.4065936091
 10
21.2916474045
 20
15.41841392
 10
21.2962840867
 20
15.4297843772
 10
21.3004983787
 20
15.4407382476
 10
21.3042883392
 20
15.4512621001
 10
21.3076559094
 20
15.4613693658
 10
21.3106749783
 20
15.4711336056
 10
21.3133508526
 20
15.4805525405
 10
21.3156782255
 20
15.4896284495
 10
21.3177150652
 20
15.4984417305
 10
21.3194687711
 20
15.5069973794
 10
21.3209319438
 20
15.5152904004
 10
21.3221403541
 20
15.5233862031
 10
21.323100288
 20
15.5312890372
 10
21.3238054595
 20
15.538994653
 10
21.3242727808
 20
15.5465557116
 10
21.3245079125
 20
15.5539753849
 10
21.3245051941
 20
15.5612505009
 10
21.3242645559
 20
15.5684242047
 10
21.3237916483
 20
15.5754992279
 10
21.323080821
 20
15.5824728388
 10
21.3221150539
 20
15.5893799878
 10
21.3209006687
 20
15.5962228069
 10
21.3194313437
 20
15.6029991641
 10
21.3176710941
 20
15.609737614
 10
21.3156275793
 20
15.6164404987
 10
21.3132931397
 20
15.623105476
 10
21.3106088127
 20
15.6297540751
 10
21.3075797779
 20
15.6363946885
 10
21.3042008555
 20
15.6430189236
 10
21.3003975441
 20
15.649623131
 10
21.2961674264
 20
15.6562191018
 10
21.2915129197
 20
15.662795045
 10
21.2863667733
 20
15.669311938
 10
21.2807245844
 20
15.6757735211
 10
21.2745907558
 20
15.682176054
 10
21.267911246
 20
15.6884692925
 10
21.2606847757
 20
15.6946509514
 10
21.2529126241
 20
15.7007233159
 10
21.2445445868
 20
15.7066429974
 10
21.2355802603
 20
15.7124079711
 10
21.2260200479
 20
15.7180202619
 10
21.2158149554
 20
15.723442556
 10
21.2049654959
 20
15.7286733507
 10
21.1934711561
 20
15.7337141487
 10
21.181281402
 20
15.7385321453
 10
21.1683974385
 20
15.7431264787
 10
21.1548180606
 20
15.7474980106
 10
21.1404891195
 20
15.7516165212
 10
21.1254123302
 20
15.7554817217
 10
21.1095859776
 20
15.7590939008
 10
21.0929507676
 20
15.7624237053
 10
21.075508788
 20
15.7654713087
 10
21.057257951
 20
15.7682365374
 10
21.0381326985
 20
15.7706895177
 10
21.0181353844
 20
15.7728307805
 10
20.9972636548
 20
15.7746597949
 10
20.975444889
 20
15.7761450943
 10
20.9526817644
 20
15.7772874831
 10
20.9289716037
 20
15.7780861568
 10
20.904233754
 20
15.778507236
 10
20.8784708368
 20
15.7785517353
 10
20.8516802307
 20
15.7782186401
 10
20.8237734189
 20
15.7774710269
 10
20.7947543889
 20
15.7763101707
 10
20.7646191533
 20
15.7747347967
 10
20.7332672334
 20
15.772704157
 10
20.7006999841
 20
15.7702194466
 10
20.6669160505
 20
15.7672794706
 10
20.6318108891
 20
15.7638398962
 10
20.5953796012
 20
15.7599007708
 10
20.5576270855
 20
15.755462047
 10
20.5184634957
 20
15.7504792499
 10
20.4778975863
 20
15.7449540526
 10
20.4359206027
 20
15.738884782
 10
20.3924164354
 20
15.7322219441
 10
20.3473999878
 20
15.7249692518
 10
20.3008563564
 20
15.7171229923
 10
20.2526247204
 20
15.7086225332
 10
20.2027052533
 20
15.6994694977
 10
20.1510977815
 20
15.6896622626
 10
20.0976409631
 20
15.6791353259
 10
20.0422810175
 20
15.6678668535
 10
19.9850717254
 20
15.6558786795
 10
19.9260130866
 20
15.6431708038
  0
LWPOLYLINE
  5
3EC
100
AcDbEntity
  8
DRAFT
100
AcDbPolyline
 62
7
  6
CONTINUOUS
 90
8
 70
0
 10
-10.516180581
 20
4.9579287855
 10
-10.4626395637
 20
4.9428685738
 10
-10.4112140223
 20
4.9346866793
 10
-10.3619008702
 20
4.9333845551
 10
-10.3143206416
 20
4.9390997242
 10
-10.2688433268
 20
4.9516991156
 10
-10.2265895175
 20
4.9707785238
 10
-10.2027399459
 20
4.9854505731
  0
LINE
  5
3ED
100
AcDbEntity
  8
DRAFT
100
AcDbLine
 62
7
  6
CONTINUOUS
 10
-10.4149092904
 20
4.3495730981
 11
-10.4702557677
 21
4.3669772726
  0
LWPOLYLINE
  5
3EE
100
AcDbEntity
  8
SUPERFICI
100
AcDbPolyline
 62
7
  6
CONTINUOUS
 90
18
 70
0
 10
-10.4702557676
 20
4.3669772726
 10
-10.4466061922
 20
4.3590502063
 10
-10.42306382
 20
4.3518628841
 10
-10.3996286338
 20
4.3454153143
 10
-10.3762957466
 20
4.3397051708
 10
-10.353070003
 20
4.3347347999
 10
-10.3299659791
 20
4.3305112199
 10
-10.3069726199
 20
4.3270350924
 10
-10.2841009224
 20
4.3243057834
 10
-10.2613985372
 20
4.3223283697
 10
-10.2388641455
 20
4.3211042541
 10
-10.2164989949
 20
4.3206320677
 10
-10.194354584
 20
4.3209127297
 10
-10.1724388846
 20
4.3219462338
 10
-10.1507438428
 20
4.3237326255
 10
-10.129296917
 20
4.3262729017
 10
-10.1080981597
 20
4.3295694941
 10
-10.0871474246
 20
4.3336200157
  0
LWPOLYLINE
  5
3EF
100
AcDbEntity
  8
SUPERFICI
100
AcDbPolyline
 62
7
  6
CONTINUOUS
 90
4
 70
0
 10
-10.5161805642
 20
4.9579287788
 10
-10.597395554
 20
4.987705647
 10
-10.678653059
 20
5.0202131067
 10
-10.7599537451
 20
5.055450844
  0
LWPOLYLINE
  5
3F0
100
AcDbEntity
  8
DRAFT
100
AcDbPolyline
 62
7
  6
CONTINUOUS
 90
3
 70
0
 10
-10.4702557677
 20
4.3669772726
 10
-10.5638006069
 20
4.401331412
 10
-10.6573304651
 20
4.4387830466
  0
LINE
  5
3F1
100
AcDbEntity
  8
DRAFT
100
AcDbLine
 62
7
  6
CONTINUOUS
 10
-10.4229794004
 20
8.8704169653
 11
-10.3984630028
 21
8.8552098136
  0
LINE
  5
3F2
100
AcDbEntity
  8
SUPERFICI
100
AcDbLine
 62
7
  6
CONTINUOUS
 10
-10.4025513217
 20
8.8577553112
 11
-10.4229793951
 21
8.8704169619
  0
LINE
  5
3F3
100
AcDbEntity
  8
SUPERFICI
100
AcDbLine
 62
7
  6
CONTINUOUS
 10
-10.3862150848
 20
8.8475264936
 11
-10.4025513217
 21
8.8577553112
  0
LINE
  5
3F4
100
AcDbEntity
  8
DRAFT
100
AcDbLine
 62
7
  6
CONTINUOUS
 10
-10.4576789382
 20
8.2910150648
 11
-10.4678283388
 21
8.297397372
  0
LINE
  5
3F5
100
AcDbEntity
  8
DRAFT
100
AcDbLine
 62
7
  6
CONTINUOUS
 10
-10.3984630028
 20
8.8552098136
 11
-10.3739766713
 21
8.8397917211
  0
LINE
  5
3F6
100
AcDbEntity
  8
SUPERFICI
100
AcDbLine
 62
7
  6
CONTINUOUS
 10
-10.4678293982
 20
8.2973980435
 11
-10.4450585843
 21
8.2830221985
  0
LINE
  5
3F7
100
AcDbEntity
  8
DRAFT
100
AcDbLine
 62
7
  6
CONTINUOUS
 10
-10.4349505766
 20
8.2765650515
 11
-10.4576789382
 21
8.2910150648
  0
LINE
  5
3F8
100
AcDbEntity
  8
SUPERFICI
100
AcDbLine
 62
7
  6
CONTINUOUS
 10
-10.3658250694
 20
8.8346015317
 11
-10.3862150848
 21
8.8475264936
  0
LINE
  5
3F9
100
AcDbEntity
  8
SUPERFICI
100
AcDbLine
 62
7
  6
CONTINUOUS
 10
-10.3495207218
 20
8.8241628937
 11
-10.3658250694
 21
8.8346015317
  0
LINE
  5
3FA
100
AcDbEntity
  8
DRAFT
100
AcDbLine
 62
7
  6
CONTINUOUS
 10
-10.3739766713
 20
8.8397917211
 11
-10.3495206068
 21
8.8241628197
  0
LINE
  5
3FB
100
AcDbEntity
  8
SUPERFICI
100
AcDbLine
 62
7
  6
CONTINUOUS
 10
-10.4450585843
 20
8.2830221985
 11
-10.4223295203
 21
8.2684457038
  0
LINE
  5
3FC
100
AcDbEntity
  8
DRAFT
100
AcDbLine
 62
7
  6
CONTINUOUS
 10
-10.4122777058
 20
8.261923791
 11
-10.4349505766
 21
8.2765650515
  0
LWPOLYLINE
  5
3FD
100
AcDbEntity
  8
DRAFT
100
AcDbPolyline
 62
7
  6
CONTINUOUS
 90
3
 70
0
 10
-10.3495206068
 20
8.8241628197
 10
-10.3250956726
 20
8.8083236128
 10
-10.3128948169
 20
8.8003251168
  0
LINE
  5
3FE
100
AcDbEntity
  8
SUPERFICI
100
AcDbLine
 62
7
  6
CONTINUOUS
 10
-10.3291473338
 20
8.8109606155
 11
-10.3495207218
 21
8.8241628937
  0
LINE
  5
3FF
100
AcDbEntity
  8
DRAFT
100
AcDbLine
 62
7
  6
CONTINUOUS
 10
-10.3996418789
 20
8.2536683265
 11
-10.4122777058
 21
8.261923791
  0
LINE
  5
400
100
AcDbEntity
  8
SUPERFICI
100
AcDbLine
 62
7
  6
CONTINUOUS
 10
-10.4223295203
 20
8.2684457038
 11
-10.3996421858
 21
8.2536685677
  0
LINE
  5
401
100
AcDbEntity
  8
SUPERFICI
100
AcDbLine
 62
7
  6
CONTINUOUS
 10
-10.3128962347
 20
8.8003261916
 11
-10.3291473338
 21
8.8109606155
  0
LWPOLYLINE
  5
402
100
AcDbEntity
  8
SUPERFICI
100
AcDbPolyline
 62
7
  6
CONTINUOUS
 90
22
 70
0
 10
-10.3996421858
 20
8.2536685677
 10
-10.3698099157
 20
8.2329446497
 10
-10.3405637133
 20
8.2104094582
 10
-10.3119031054
 20
8.1860631922
 10
-10.2837364447
 20
8.1598124828
 10
-10.2561540423
 20
8.1317512616
 10
-10.2294282321
 20
8.1021607336
 10
-10.2035728643
 20
8.0710326765
 10
-10.1785721656
 20
8.0383761246
 10
-10.1546540391
 20
8.0044981665
 10
-10.1318270321
 20
7.9693885664
 10
-10.1100802974
 20
7.9330585349
 10
-10.0896127953
 20
7.8958472685
 10
-10.0704344343
 20
7.8577459374
 10
-10.0525328834
 20
7.8187644033
 10
-10.0360740599
 20
7.7792697679
 10
-10.0210691039
 20
7.7392493104
 10
-10.0075046006
 20
7.6987167271
 10
-9.9955101387
 20
7.6580785324
 10
-9.9851284595
 20
7.6174704291
 10
-9.9763150921
 20
7.576757464
 10
-9.9690691003
 20
7.5359400438
  0
LWPOLYLINE
  5
403
100
AcDbEntity
  8
DRAFT
100
AcDbPolyline
 62
7
  6
CONTINUOUS
 90
16
 70
0
 10
-10.3128948169
 20
8.8003251168
 10
-10.2352779649
 20
8.7448697795
 10
-10.1603432364
 20
8.6833723617
 10
-10.0880856421
 20
8.6158349209
 10
-10.018146455
 20
8.5418234019
 10
-9.9508695951
 20
8.4617779835
 10
-9.8873027608
 20
8.3770126156
 10
-9.8274314476
 20
8.2873717461
 10
-9.7712490357
 20
8.1930197398
 10
-9.7198165655
 20
8.0957498176
 10
-9.6732449558
 20
7.9956222671
 10
-9.6314008842
 20
7.8925862751
 10
-9.5949830982
 20
7.7882667483
 10
-9.5642190774
 20
7.6832076786
 10
-9.5388617667
 20
7.5768735162
 10
-9.5189003482
 20
7.4692689583
  0
LWPOLYLINE
  5
404
100
AcDbEntity
  8
DRAFT
100
AcDbPolyline
 62
7
  6
CONTINUOUS
 90
3
 70
0
 10
-10.4678283388
 20
8.297397372
 10
-10.4775149824
 20
8.3045012393
 10
-10.486468901
 20
8.3126416344
  0
LWPOLYLINE
  5
405
100
AcDbEntity
  8
SUPERFICI
100
AcDbPolyline
 62
7
  6
CONTINUOUS
 90
3
 70
0
 10
-10.2174808122
 20
8.7312200538
 10
-10.264815033
 20
8.7671007726
 10
-10.3128962347
 20
8.8003261916
  0
LWPOLYLINE
  5
406
100
AcDbEntity
  8
0
100
AcDbPolyline
 62
250
  6
CONTINUOUS
 90
5
 70
0
 10
3.6325416767
 20
-23.863862976
 10
3.6312744095
 20
-23.8523942145
 10
3.629565125
 20
-23.8410669571
 10
3.6274176814
 20
-23.8299067695
 10
3.6248369257
 20
-23.818938841
  0
LINE
  5
407
100
AcDbEntity
  8
0
100
AcDbLine
 62
7
  6
CONTINUOUS
 10
2.7129026407
 20
14.402668338
 11
2.7129026407
 21
9.881011592
  0
LINE
  5
408
100
AcDbEntity
  8
0
100
AcDbLine
 62
7
  6
CONTINUOUS
 10
2.7129026407
 20
-18.8710318137
 11
2.7129026407
 21
-23.3926885597
  0
LINE
  5
409
100
AcDbEntity
  8
0
100
AcDbLine
 62
250
  6
CONTINUOUS
 10
2.9620088194
 20
24.806602101
 11
2.9620088194
 21
25.216821144
  0
LINE
  5
40A
100
AcDbEntity
  8
0
100
AcDbLine
 62
7
  6
CONTINUOUS
 10
3.0849699235
 20
-23.4531434914
 11
3.0849699235
 21
-24.6215032862
  0
LINE
  5
40B
100
AcDbEntity
  8
0
100
AcDbLine
 62
7
  6
CONTINUOUS
 10
3.0849699235
 20
15.7785854643
 11
3.0849699235
 21
17.3807361253
  0
LINE
  5
40C
100
AcDbEntity
  8
0
100
AcDbLine
 62
250
  6
CONTINUOUS
 10
3.6132370952
 20
17.6441749453
 11
3.6132370952
 21
17.2966434286
  0
LINE
  5
40D
100
AcDbEntity
  8
0
100
AcDbLine
 62
250
  6
CONTINUOUS
 10
3.6132370952
 20
-24.0029607108
 11
3.6132370952
 21
-24.3504922276
  0
LINE
  5
40E
100
AcDbEntity
  8
DRAFT
100
AcDbLine
 62
7
  6
CONTINUOUS
 10
3.6447190173
 20
25.1490601933
 11
3.6447190173
 21
24.7160474914
  0
LINE
  5
40F
100
AcDbEntity
  8
0
100
AcDbLine
 62
7
  6
CONTINUOUS
 10
3.6854349522
 20
17.7320475775
 11
3.6854349522
 21
17.3845160607
  0
LINE
  5
410
100
AcDbEntity
  8
0
100
AcDbLine
 62
7
  6
CONTINUOUS
 10
3.6854349522
 20
-23.9150880786
 11
3.6854349522
 21
-24.2626195954
  0
LINE
  5
411
100
AcDbEntity
  8
0
100
AcDbLine
 62
7
  6
CONTINUOUS
 10
3.7920767046
 20
14.9920340276
 11
3.7920767046
 21
-22.9399079697
  0
LINE
  5
412
100
AcDbEntity
  8
0
100
AcDbLine
 62
250
  6
CONTINUOUS
 10
4.3617719369
 20
20.4405150608
 11
4.3617719369
 21
20.9149164361
  0
LINE
  5
413
100
AcDbEntity
  8
0
100
AcDbLine
 62
250
  6
CONTINUOUS
 10
4.3617719369
 20
21.2710923026
 11
4.3617719369
 21
21.8242630257
  0
LINE
  5
414
100
AcDbEntity
  8
ASSI
100
AcDbLine
 62
7
  6
CONTINUOUS
 10
4.4229190631
 20
-19.0406719629
 11
4.4229190631
 21
-18.2297311025
  0
LINE
  5
415
100
AcDbEntity
  8
ASSI
100
AcDbLine
 62
7
  6
CONTINUOUS
 10
4.4229190631
 20
10.9238070081
 11
4.4229190631
 21
11.7347478685
  0
LINE
  5
416
100
AcDbEntity
  8
0
100
AcDbLine
 62
7
  6
CONTINUOUS
 10
4.4232276044
 20
11.7345935978
 11
4.4232276044
 21
10.9236527374
  0
LINE
  5
417
100
AcDbEntity
  8
0
100
AcDbLine
 62
7
  6
CONTINUOUS
 10
4.4232276044
 20
-19.0408262335
 11
4.4232276044
 21
-18.2298853732
  0
LINE
  5
418
100
AcDbEntity
  8
0
100
AcDbLine
 62
7
  6
CONTINUOUS
 10
4.492606788
 20
20.5981545164
 11
4.492606788
 21
21.8464186391
  0
LINE
  5
419
100
AcDbEntity
  8
0
100
AcDbLine
 62
7
  6
CONTINUOUS
 10
4.4930126584
 20
15.3436344435
 11
4.4930126584
 21
12.4117294925
  0
LINE
  5
41A
100
AcDbEntity
  8
0
100
AcDbLine
 62
7
  6
CONTINUOUS
 10
4.4930126584
 20
-19.646325826
 11
4.4930126584
 21
-22.578230777
  0
LINE
  5
41B
100
AcDbEntity
  8
0
100
AcDbLine
 62
7
  6
CONTINUOUS
 10
4.6121827298
 20
23.9156947816
 11
4.6121827298
 21
23.4633701417
  0
LINE
  5
41C
100
AcDbEntity
  8
0
100
AcDbLine
 62
7
  6
CONTINUOUS
 10
5.0619273911
 20
23.7939469484
 11
5.0619273911
 21
23.4543223654
  0
LINE
  5
41D
100
AcDbEntity
  8
0
100
AcDbLine
 62
250
  6
CONTINUOUS
 10
3.6854349522
 20
-24.2626195954
 11
3.6854348072
 21
-24.2627542191
  0
LWPOLYLINE
  5
41E
100
AcDbEntity
  8
0
100
AcDbPolyline
 62
7
  6
CONTINUOUS
 90
23
 70
0
 10
3.7920767046
 20
-22.9396951222
 10
3.7919918024
 20
-22.9568875949
 10
3.791284717
 20
-22.9737873154
 10
3.7899580713
 20
-22.9903664248
 10
3.7880081252
 20
-23.0065980933
 10
3.7854467391
 20
-23.0224553107
 10
3.7823004324
 20
-23.0379102216
 10
3.7785786446
 20
-23.0529359578
 10
3.774283449
 20
-23.0675078894
 10
3.7694303178
 20
-23.0816014163
 10
3.7640252662
 20
-23.0951989202
 10
3.7580776286
 20
-23.1082692467
 10
3.7516107834
 20
-23.120770494
 10
3.7446441192
 20
-23.1326723293
 10
3.737184137
 20
-23.1439680281
 10
3.7292362775
 20
-23.1546525688
 10
3.7208054469
 20
-23.1647159016
 10
3.7119118666
 20
-23.1741299338
 10
3.7025852084
 20
-23.1828646355
 10
3.6928523999
 20
-23.1908993146
 10
3.6827211948
 20
-23.1982316943
 10
3.6721935044
 20
-23.204860818
 10
3.6633639314
 20
-23.2097180272
  0
LWPOLYLINE
  5
41F
100
AcDbEntity
  8
0
100
AcDbPolyline
 62
250
  6
CONTINUOUS
 90
19
 70
0
 10
3.6132370952
 20
-24.3504922276
 10
3.6130843133
 20
-24.3606708715
 10
3.612529004
 20
-24.3706273588
 10
3.6115724239
 20
-24.3803391287
 10
3.6102167381
 20
-24.38978418
 10
3.6084650173
 20
-24.3989411048
 10
3.6063212331
 20
-24.4077891384
 10
3.603790245
 20
-24.4163082288
 10
3.6008777873
 20
-24.4244790776
 10
3.597590461
 20
-24.4322831689
 10
3.5939357148
 20
-24.4397028214
 10
3.5899218312
 20
-24.4467212231
 10
3.5855579093
 20
-24.4533224673
 10
3.5808538394
 20
-24.4594915975
 10
3.5758202811
 20
-24.4652146386
 10
3.5704686428
 20
-24.4704786234
 10
3.5648110492
 20
-24.4752716297
 10
3.5588603235
 20
-24.479582797
 10
3.5526299623
 20
-24.4834023533
  0
LWPOLYLINE
  5
420
100
AcDbEntity
  8
0
100
AcDbPolyline
 62
7
  6
CONTINUOUS
 90
20
 70
0
 10
3.0849699235
 20
-24.6215032862
 10
3.0847695446
 20
-24.6317048774
 10
3.0841693756
 20
-24.6416830422
 10
3.083170672
 20
-24.6514152295
 10
3.0817755137
 20
-24.6608794857
 10
3.0799870528
 20
-24.6700543736
 10
3.0778095068
 20
-24.6789190209
 10
3.0752477482
 20
-24.6874533762
 10
3.0723074874
 20
-24.6956381521
 10
3.0689955131
 20
-24.7034547379
 10
3.0653192891
 20
-24.7108854452
 10
3.0612870702
 20
-24.7179134768
 10
3.0569080784
 20
-24.7245228635
 10
3.0521922173
 20
-24.7306986402
 10
3.0471501176
 20
-24.7364268425
 10
3.0417932472
 20
-24.7416944682
 10
3.0361337478
 20
-24.7464895809
 10
3.0301844099
 20
-24.7508013331
 10
3.0239587132
 20
-24.7546199553
 10
3.0208648217
 20
-24.7562810583
  0
LWPOLYLINE
  5
421
100
AcDbEntity
  8
0
100
AcDbPolyline
 62
250
  6
CONTINUOUS
 90
18
 70
0
 10
3.6854349522
 20
17.7320475775
 10
3.6853813907
 20
17.7294602094
 10
3.6848549633
 20
17.7235379052
 10
3.6837675509
 20
17.7176347325
 10
3.6821215963
 20
17.7117639657
 10
3.679920799
 20
17.7059388112
 10
3.6771701062
 20
17.7001723703
 10
3.6738757023
 20
17.6944776139
 10
3.6700449979
 20
17.688867355
 10
3.6656866083
 20
17.6833542133
 10
3.6608103346
 20
17.6779505882
 10
3.6554271452
 20
17.6726686355
 10
3.649549144
 20
17.6675202328
 10
3.6431895539
 20
17.6625169629
 10
3.636362691
 20
17.657670088
 10
3.629083917
 20
17.652990512
 10
3.6213696008
 20
17.6484887562
 10
3.6132370952
 20
17.6441749453
  0
LWPOLYLINE
  5
422
100
AcDbEntity
  8
0
100
AcDbPolyline
 62
250
  6
CONTINUOUS
 90
18
 70
0
 10
3.6854348072
 20
-24.2627542191
 10
3.6853813907
 20
-24.2652069635
 10
3.6848549633
 20
-24.2711292676
 10
3.6837675509
 20
-24.2770324404
 10
3.6821215963
 20
-24.2829032072
 10
3.679920799
 20
-24.2887283616
 10
3.6771701062
 20
-24.2944948025
 10
3.6738757023
 20
-24.300189559
 10
3.6700449979
 20
-24.3057998179
 10
3.6656866083
 20
-24.3113129596
 10
3.6608103346
 20
-24.3167165847
 10
3.6554271452
 20
-24.3219985374
 10
3.649549144
 20
-24.3271469401
 10
3.6431895539
 20
-24.33215021
 10
3.636362691
 20
-24.3369970849
 10
3.629083917
 20
-24.3416766609
 10
3.6213696008
 20
-24.3461784166
 10
3.6132370952
 20
-24.3504922276
  0
LWPOLYLINE
  5
423
100
AcDbEntity
  8
0
100
AcDbPolyline
 62
250
  6
CONTINUOUS
 90
18
 70
0
 10
3.6854346704
 20
-23.9152757496
 10
3.6853809378
 20
-23.9176863613
 10
3.6848535625
 20
-23.923608009
 10
3.6837653272
 20
-23.9295104992
 10
3.6821186789
 20
-23.9353805586
 10
3.6799173202
 20
-23.9412049877
 10
3.6771662013
 20
-23.9469706883
 10
3.6738715083
 20
-23.9526646961
 10
3.6700406478
 20
-23.9582742094
 10
3.6656822291
 20
-23.9637866193
 10
3.6608060554
 20
-23.9691895247
 10
3.6554231039
 20
-23.9744707637
 10
3.6495454905
 20
-23.979618454
 10
3.6431864274
 20
-23.9846210286
 10
3.6363602038
 20
-23.9894672479
 10
3.6290821648
 20
-23.9941462171
 10
3.6213686803
 20
-23.998647412
 10
3.6132370952
 20
-24.0029607108
  0
LINE
  5
424
100
AcDbEntity
  8
SUPERFICI
100
AcDbLine
 62
7
  6
CONTINUOUS
 10
-10.412720561
 20
-16.9262603604
 11
-10.407401413
 21
-16.919957301
  0
LINE
  5
425
100
AcDbEntity
  8
RACCORDO
100
AcDbLine
 62
250
  6
CONTINUOUS
 10
20.0982972166
 20
13.6499245569
 11
20.0891236882
 21
13.6415446528
  0
LWPOLYLINE
  5
426
100
AcDbEntity
  8
RACCORDO
100
AcDbPolyline
 62
250
  6
CONTINUOUS
 90
57
 70
0
 10
19.8084634886
 20
13.8863394685
 10
19.814325408
 20
13.8915804055
 10
19.8201595698
 20
13.8965962251
 10
19.825964888
 20
13.9013870149
 10
19.8317345206
 20
13.9059541759
 10
19.8374732195
 20
13.9102964145
 10
19.84319678
 20
13.9144099888
 10
19.8489056213
 20
13.9182985842
 10
19.8545959982
 20
13.9219590892
 10
19.8602766014
 20
13.9253779146
 10
19.8659471089
 20
13.9285571501
 10
19.8716036978
 20
13.9314954977
 10
19.8772492586
 20
13.9341744786
 10
19.882879914
 20
13.9365942658
 10
19.8884949149
 20
13.9387555171
 10
19.8941012641
 20
13.9406406647
 10
19.8996846634
 20
13.9422512979
 10
19.9052540845
 20
13.9435867481
 10
19.910849258
 20
13.9446267964
 10
19.9164602545
 20
13.9453821182
 10
19.9220875152
 20
13.94584417
 10
19.9277818075
 20
13.9459653685
 10
19.9335532456
 20
13.9457524887
 10
19.9393750783
 20
13.9452027623
 10
19.9452397195
 20
13.9442551445
 10
19.9511422063
 20
13.9429060077
 10
19.9570694156
 20
13.9411627091
 10
19.9630016693
 20
13.9389804532
 10
19.9689288978
 20
13.9363544981
 10
19.9748428536
 20
13.933292599
 10
19.980727321
 20
13.929768303
 10
19.9865642932
 20
13.9257856151
 10
19.9923533117
 20
13.9213427829
 10
19.9981030102
 20
13.9164048577
 10
20.0037968585
 20
13.9109797012
 10
20.0094278767
 20
13.9050619899
 10
20.0150138216
 20
13.8985979
 10
20.020539888
 20
13.8915892443
 10
20.0259882324
 20
13.8840374224
 10
20.0313651796
 20
13.8758890036
 10
20.0366514135
 20
13.8671415105
 10
20.0418239064
 20
13.8578006448
 10
20.0468767021
 20
13.8478259083
 10
20.0517837465
 20
13.83721497
 10
20.0565188449
 20
13.825972554
 10
20.0610687055
 20
13.8140691045
 10
20.0653986896
 20
13.8015088685
 10
20.0694795853
 20
13.7882883588
 10
20.0732956392
 20
13.7743667364
 10
20.0768004066
 20
13.7597619359
 10
20.0799583952
 20
13.7444543662
 10
20.0827491009
 20
13.7283473892
 10
20.0851152397
 20
13.7114119401
 10
20.0869924137
 20
13.6936717353
 10
20.0883226196
 20
13.675108798
 10
20.0890317932
 20
13.6555521124
 10
20.0891236879
 20
13.6455128853
  0
LINE
  5
427
100
AcDbEntity
  8
DRAFT
100
AcDbLine
 62
7
  6
CONTINUOUS
 10
-11.1091854474
 20
-12.7365146864
 11
-11.1042059065
 21
-12.732439119
  0
LWPOLYLINE
  5
428
100
AcDbEntity
  8
SUPERFICI
100
AcDbPolyline
 62
7
  6
CONTINUOUS
 90
3
 70
0
 10
-11.1041897199
 20
-12.7324670967
 10
-11.1082531966
 20
-12.7356836069
 10
-11.1140063969
 20
-12.7421347706
  0
LWPOLYLINE
  5
429
100
AcDbEntity
  8
DRAFT
100
AcDbPolyline
 62
7
  6
CONTINUOUS
 90
4
 70
0
 10
-11.1042059065
 20
-12.732439119
 10
-11.1026553883
 20
-12.7314546522
 10
-11.0952204724
 20
-12.7281453963
 10
-11.0867976687
 20
-12.7264866356
  0
LWPOLYLINE
  5
42A
100
AcDbEntity
  8
RACCORDO
100
AcDbPolyline
 62
250
  6
CONTINUOUS
 90
56
 70
0
 10
19.9260135288
 20
2.0725525674
 10
19.9330797593
 20
2.0750880964
 10
19.9402095627
 20
2.0773944643
 10
19.9474019774
 20
2.0794730138
 10
19.9546374918
 20
2.0813388203
 10
19.9619333864
 20
2.0829797915
 10
19.9693433232
 20
2.0843572238
 10
19.9768922203
 20
2.0854830924
 10
19.9845510871
 20
2.0863506369
 10
19.9922916695
 20
2.086894318
 10
20.0001288587
 20
2.0871123294
 10
20.0080414257
 20
2.0870142317
 10
20.0159461164
 20
2.0865523739
 10
20.0238229757
 20
2.0857238924
 10
20.0316839947
 20
2.0845410334
 10
20.0394932652
 20
2.0829793349
 10
20.0472291197
 20
2.0810488636
 10
20.05490347
 20
2.0787509282
 10
20.0625294648
 20
2.0760494372
 10
20.0701009256
 20
2.0729597726
 10
20.077610804
 20
2.0694821478
 10
20.0850683537
 20
2.0655608122
 10
20.0924806316
 20
2.0612019047
 10
20.0998220012
 20
2.0564215484
 10
20.1070500316
 20
2.0511821228
 10
20.1141552718
 20
2.0454947334
 10
20.1211244545
 20
2.0393759853
 10
20.127907527
 20
2.0327988007
 10
20.1344822671
 20
2.0257962223
 10
20.140844588
 20
2.0183681721
 10
20.1469678405
 20
2.0104426738
 10
20.1528385809
 20
2.0020617346
 10
20.1584353161
 20
1.9932285716
 10
20.163711048
 20
1.983823624
 10
20.1686574173
 20
1.9738885965
 10
20.1732330017
 20
1.9634484908
 10
20.177329636
 20
1.9523738823
 10
20.1809344548
 20
1.9406754059
 10
20.1839912338
 20
1.9284388462
 10
20.1863210969
 20
1.9156554436
 10
20.1878820444
 20
1.9023114456
 10
20.1886423158
 20
1.8885300941
 10
20.1884528776
 20
1.8744888268
 10
20.1872636987
 20
1.860206128
 10
20.1850790682
 20
1.8457409046
 10
20.1818610686
 20
1.8312895861
 10
20.1775679184
 20
1.8168373777
 10
20.1722264384
 20
1.8024361384
 10
20.1659361395
 20
1.7883310161
 10
20.1587298153
 20
1.7745706781
 10
20.1506015775
 20
1.7610795734
 10
20.141612458
 20
1.7478861537
 10
20.1317700009
 20
1.7349725883
 10
20.1210900647
 20
1.7223327819
 10
20.1096492616
 20
1.7100073977
 10
20.0974689707
 20
1.6979881554
  0
LWPOLYLINE
  5
42B
100
AcDbEntity
  8
SUPERFICI
100
AcDbPolyline
 62
7
  6
CONTINUOUS
 90
5
 70
0
 10
-10.3982113535
 20
4.9335929793
 10
-10.4271379974
 20
4.9363135261
 10
-10.4563936486
 20
4.9412747846
 10
-10.4860743478
 20
4.9484799425
 10
-10.5161805642
 20
4.9579287788
  0
LINE
  5
42C
100
AcDbEntity
  8
DRAFT
100
AcDbLine
 62
7
  6
CONTINUOUS
 10
-11.1196882485
 20
8.6152145633
 11
-11.1299869907
 21
8.6188057798
  0
LINE
  5
42D
100
AcDbEntity
  8
DRAFT
100
AcDbLine
 62
7
  6
CONTINUOUS
 10
-11.1536377443
 20
9.2207125928
 11
-11.1288344389
 21
9.2120462144
  0
LINE
  5
42E
100
AcDbEntity
  8
SUPERFICI
100
AcDbLine
 62
7
  6
CONTINUOUS
 10
-11.1329648783
 20
9.213498827
 11
-11.1536377491
 21
9.2207125945
  0
LINE
  5
42F
100
AcDbEntity
  8
SUPERFICI
100
AcDbLine
 62
7
  6
CONTINUOUS
 10
-11.1299870133
 20
8.6188057878
 11
-11.106827057
 21
8.6106733077
  0
LINE
  5
430
100
AcDbEntity
  8
DRAFT
100
AcDbLine
 62
7
  6
CONTINUOUS
 10
-11.0991086601
 20
8.6079128447
 11
-11.1196882485
 21
8.6152145633
  0
LINE
  5
431
100
AcDbEntity
  8
SUPERFICI
100
AcDbLine
 62
7
  6
CONTINUOUS
 10
-11.1164511174
 20
9.207634714
 11
-11.1329648783
 21
9.213498827
  0
LINE
  5
432
100
AcDbEntity
  8
DRAFT
100
AcDbLine
 62
7
  6
CONTINUOUS
 10
-11.1288344389
 20
9.2120462144
 11
-11.104025219
 21
9.2031514804
  0
LINE
  5
433
100
AcDbEntity
  8
DRAFT
100
AcDbLine
 62
7
  6
CONTINUOUS
 10
-11.083643344
 20
8.6023061649
 11
-11.0991086601
 21
8.6079128447
  0
LINE
  5
434
100
AcDbEntity
  8
SUPERFICI
100
AcDbLine
 62
7
  6
CONTINUOUS
 10
-11.106827057
 20
8.6106733077
 11
-11.083662018
 21
8.6023130409
  0
LINE
  5
435
100
AcDbEntity
  8
SUPERFICI
100
AcDbLine
 62
7
  6
CONTINUOUS
 10
-11.0957589878
 20
9.2001312987
 11
-11.1164511174
 21
9.207634714
  0
LINE
  5
436
100
AcDbEntity
  8
SUPERFICI
100
AcDbLine
 62
7
  6
CONTINUOUS
 10
-11.0792146828
 20
9.1940300599
 11
-11.0957589878
 21
9.2001312987
  0
LINE
  5
437
100
AcDbEntity
  8
DRAFT
100
AcDbLine
 62
7
  6
CONTINUOUS
 10
-11.104025219
 20
9.2031514804
 11
-11.0792103017
 21
9.1940284549
  0
LINE
  5
438
100
AcDbEntity
  8
DRAFT
100
AcDbLine
 62
7
  6
CONTINUOUS
 10
-11.0707850841
 20
8.5975652599
 11
-11.083643344
 21
8.6023061649
  0
LINE
  5
439
100
AcDbEntity
  8
DRAFT
100
AcDbLine
 62
7
  6
CONTINUOUS
 10
-11.0604919998
 20
8.5937250092
 11
-11.0707850841
 21
8.5975652599
  0
LINE
  5
43A
100
AcDbEntity
  8
SUPERFICI
100
AcDbLine
 62
7
  6
CONTINUOUS
 10
-11.083662018
 20
8.6023130409
 11
-11.0604919169
 21
8.5937249786
  0
LWPOLYLINE
  5
43B
100
AcDbEntity
  8
DRAFT
100
AcDbPolyline
 62
7
  6
CONTINUOUS
 90
3
 70
0
 10
-11.0792103017
 20
9.1940284549
 10
-11.0543904869
 20
9.1846774225
 10
-11.0419787003
 20
9.1799163829
  0
LINE
  5
43C
100
AcDbEntity
  8
SUPERFICI
100
AcDbLine
 62
7
  6
CONTINUOUS
 10
-11.0585408611
 20
9.1862505585
 11
-11.0792146828
 21
9.1940300599
  0
LINE
  5
43D
100
AcDbEntity
  8
SUPERFICI
100
AcDbLine
 62
7
  6
CONTINUOUS
 10
-11.0419806779
 20
9.1799171257
 11
-11.0585408611
 21
9.1862505585
  0
LWPOLYLINE
  5
43E
100
AcDbEntity
  8
SUPERFICI
100
AcDbPolyline
 62
7
  6
CONTINUOUS
 90
3
 70
0
 10
-10.4229793951
 20
8.8704169619
 10
-10.4350369626
 20
8.8761996042
 10
-10.4463882803
 20
8.879623282
  0
LINE
  5
43F
100
AcDbEntity
  8
DRAFT
100
AcDbLine
 62
7
  6
CONTINUOUS
 10
-10.4345921408
 20
8.8761256825
 11
-10.4229794004
 21
8.8704169653
  0
LWPOLYLINE
  5
440
100
AcDbEntity
  8
DRAFT
100
AcDbPolyline
 62
7
  6
CONTINUOUS
 90
10
 70
0
 10
-11.0419787003
 20
9.1799163829
 10
-11.0303987539
 20
9.1740172616
 10
-11.0196253813
 20
9.1665396355
 10
-11.0096584661
 20
9.1574835525
 10
-11.0003376884
 20
9.1466177145
 10
-10.9918227813
 20
9.134173661
 10
-10.9845936459
 20
9.120845722
 10
-10.9788099999
 20
9.1068654436
 10
-10.9743112622
 20
9.0920016355
 10
-10.9710968913
 20
9.0762545213
  0
LWPOLYLINE
  5
441
100
AcDbEntity
  8
0
100
AcDbPolyline
 62
250
  6
CONTINUOUS
 90
16
 70
0
 10
-8.6904208974
 20
23.4484724249
 10
-8.6864481837
 20
23.4417775497
 10
-8.6828857251
 20
23.4352961079
 10
-8.6797415618
 20
23.4290427275
 10
-8.6770227901
 20
23.4230315221
 10
-8.6747355461
 20
23.4172760587
 10
-8.6728849919
 20
23.411789327
 10
-8.6714753042
 20
23.4065837103
 10
-8.6705096645
 20
23.4016709572
 10
-8.6699902521
 20
23.3970621556
 10
-8.6699182395
 20
23.3927677073
 10
-8.6702937891
 20
23.3887973046
 10
-8.6711160534
 20
23.3851599084
 10
-8.6723831765
 20
23.3818637282
 10
-8.6740922985
 20
23.3789162033
 10
-8.6750603251
 20
23.3776372583
  0
LWPOLYLINE
  5
442
100
AcDbEntity
  8
0
100
AcDbPolyline
 62
7
  6
CONTINUOUS
 90
5
 70
0
 10
4.492606788
 20
21.8464150039
 10
4.4923698035
 20
21.8486669768
 10
4.4914170934
 20
21.8510647936
 10
4.4897690817
 20
21.8529940377
 10
4.4875918375
 20
21.854424406
  0
LINE
  5
443
100
AcDbEntity
  8
DRAFT
100
AcDbLine
 62
7
  6
CONTINUOUS
 10
5.1002242498
 20
25.0896376274
 11
5.1002242498
 21
24.6458843314
  0
LINE
  5
444
100
AcDbEntity
  8
ASSI
100
AcDbLine
 62
7
  6
CONTINUOUS
 10
5.1939486122
 20
12.7652377994
 11
5.1939486122
 21
12.1553155749
  0
LINE
  5
445
100
AcDbEntity
  8
ASSI
100
AcDbLine
 62
7
  6
CONTINUOUS
 10
5.1939486122
 20
11.2878446711
 11
5.1939486122
 21
-17.809163396
  0
LINE
  5
446
100
AcDbEntity
  8
ASSI
100
AcDbLine
 62
7
  6
CONTINUOUS
 10
5.1939486122
 20
-18.6766342999
 11
5.1939486122
 21
-19.2865565243
  0
LINE
  5
447
100
AcDbEntity
  8
0
100
AcDbLine
 62
7
  6
CONTINUOUS
 10
5.1942571536
 20
12.1551613042
 11
5.1942571536
 21
11.2876904004
  0
LINE
  5
448
100
AcDbEntity
  8
0
100
AcDbLine
 62
7
  6
CONTINUOUS
 10
5.1942571536
 20
-18.6767885706
 11
5.1942571536
 21
-17.8093176667
  0
LINE
  5
449
100
AcDbEntity
  8
RACCORDO
100
AcDbLine
 62
7
  6
CONTINUOUS
 10
5.206290267
 20
12.0373101144
 11
5.206290267
 21
-18.5709704941
  0
LINE
  5
44A
100
AcDbEntity
  8
RACCORDO
100
AcDbLine
 62
7
  6
CONTINUOUS
 10
7.184445584
 20
27.2516083412
 11
7.184445584
 21
26.9246422935
  0
LINE
  5
44B
100
AcDbEntity
  8
SUPERFICI
100
AcDbLine
 62
7
  6
CONTINUOUS
 10
-10.4189315311
 20
-16.9309354832
 11
-10.412720561
 21
-16.9262603604
  0
LWPOLYLINE
  5
44C
100
AcDbEntity
  8
SUPERFICI
100
AcDbPolyline
 62
7
  6
CONTINUOUS
 90
5
 70
0
 10
-10.0871474246
 20
4.3336200157
 10
-10.0664718707
 20
4.3384182361
 10
-10.0460805174
 20
4.3439620945
 10
-10.0259642425
 20
4.3502537008
 10
-10.0212728319
 20
4.3518421119
  0
LWPOLYLINE
  5
44D
100
AcDbEntity
  8
DRAFT
100
AcDbPolyline
 62
7
  6
CONTINUOUS
 90
8
 70
0
 10
-10.0530293401
 20
4.3420199086
 10
-10.1012124761
 20
4.3308368093
 10
-10.1506721856
 20
4.3237437961
 10
-10.2015576711
 20
4.3207437744
 10
-10.2537208632
 20
4.3218332985
 10
-10.3067164534
 20
4.3270025568
 10
-10.360396279
 20
4.3362481483
 10
-10.4149092904
 20
4.3495730981
  0
LWPOLYLINE
  5
44E
100
AcDbEntity
  8
SUPERFICI
100
AcDbPolyline
 62
7
  6
CONTINUOUS
 90
3
 70
0
 10
-10.3419147679
 20
4.9348962369
 10
-10.3697084325
 20
4.9331169555
 10
-10.3982113535
 20
4.9335929793
  0
LWPOLYLINE
  5
44F
100
AcDbEntity
  8
DRAFT
100
AcDbPolyline
 62
7
  6
CONTINUOUS
 90
3
 70
0
 10
-11.0412756754
 20
8.5900519797
 10
-11.0505881472
 20
8.5910403225
 10
-11.0604919998
 20
8.5937250092
  0
LINE
  5
450
100
AcDbEntity
  8
DRAFT
100
AcDbLine
 62
7
  6
CONTINUOUS
 10
-11.1838476943
 20
8.6336519457
 11
-11.2357939031
 21
8.6415359791
  0
LWPOLYLINE
  5
451
100
AcDbEntity
  8
SUPERFICI
100
AcDbPolyline
 62
7
  6
CONTINUOUS
 90
12
 70
0
 10
-11.2027811222
 20
9.2360911416
 10
-11.2514938611
 20
9.2482330691
 10
-11.2997749284
 20
9.2571388045
 10
-11.3477541486
 20
9.2628182
 10
-11.3952988297
 20
9.2652625864
 10
-11.4420138751
 20
9.2644447277
 10
-11.4878705081
 20
9.2603377785
 10
-11.5328933883
 20
9.2529702895
 10
-11.5767675096
 20
9.2423981475
 10
-11.6194861768
 20
9.2285999905
 10
-11.6610510392
 20
9.2115992824
 10
-11.7011597792
 20
9.1915190802
  0
LWPOLYLINE
  5
452
100
AcDbEntity
  8
SUPERFICI
100
AcDbPolyline
 62
7
  6
CONTINUOUS
 90
5
 70
0
 10
-11.0604919169
 20
8.5937249786
 10
-11.0500084405
 20
8.5910746611
 10
-11.0402879035
 20
8.5901703774
 10
-11.0313301525
 20
8.5910121917
 10
-11.0267237574
 20
8.5922618838
  0
LINE
  5
453
100
AcDbEntity
  8
DRAFT
100
AcDbLine
 62
7
  6
CONTINUOUS
 10
-11.1299869907
 20
8.6188057798
 11
-11.1838476943
 21
8.6336519457
  0
LINE
  5
454
100
AcDbEntity
  8
DRAFT
100
AcDbLine
 62
7
  6
CONTINUOUS
 10
-10.4456189361
 20
8.879555031
 11
-10.4345921408
 21
8.8761256825
  0
LINE
  5
455
100
AcDbEntity
  8
SUPERFICI
100
AcDbLine
 62
7
  6
CONTINUOUS
 10
-11.1536377491
 20
9.2207125945
 11
-11.2027811222
 21
9.2360911416
  0
LWPOLYLINE
  5
456
100
AcDbEntity
  8
0
100
AcDbPolyline
 62
7
  6
CONTINUOUS
 90
4
 70
0
 10
-0.5940931976
 20
17.0541915502
 10
-0.6052333877
 20
17.079929081
 10
-0.613464928
 20
17.1069329733
 10
-0.6186368476
 20
17.1349877702
  0
LWPOLYLINE
  5
457
100
AcDbEntity
  8
0
100
AcDbPolyline
 62
7
  6
CONTINUOUS
 90
4
 70
0
 10
9.598068757
 20
20.5407603043
 10
9.5981975033
 20
20.5274553447
 10
9.5993839927
 20
20.4982395251
 10
9.6015133733
 20
20.4726333251
  0
LINE
  5
458
100
AcDbEntity
  8
ASSI
100
AcDbLine
 62
250
  6
CONTINUOUS
 10
9.5852263307
 20
-17.319402544
 11
9.5852263307
 21
-17.5134831502
  0
LINE
  5
459
100
AcDbEntity
  8
ASSI
100
AcDbLine
 62
250
  6
CONTINUOUS
 10
9.5852263307
 20
19.4467391827
 11
9.5852263307
 21
20.0482562643
  0
LINE
  5
45A
100
AcDbEntity
  8
ASSI
100
AcDbLine
 62
7
  6
CONTINUOUS
 10
9.7255564305
 20
20.3449958137
 11
9.7255564305
 21
19.623009872
  0
LINE
  5
45B
100
AcDbEntity
  8
ASSI
100
AcDbLine
 62
7
  6
CONTINUOUS
 10
9.7255564305
 20
-17.4628935144
 11
9.7255564305
 21
-17.2456857433
  0
LWPOLYLINE
  5
45C
100
AcDbEntity
  8
RACCORDO
100
AcDbPolyline
 62
7
  6
CONTINUOUS
 90
16
 70
0
 10
19.8084634886
 20
13.8863392464
 10
19.8150115586
 20
13.8967559809
 10
19.8217530474
 20
13.9070310003
 10
19.8286879549
 20
13.9171643044
 10
19.8358172625
 20
13.9271709419
 10
19.8431399889
 20
13.9370358643
 10
19.8506531898
 20
13.946713926
 10
19.8583625328
 20
13.9562053206
 10
19.8662623503
 20
13.9655098545
 10
19.8743326956
 20
13.9745818013
 10
19.8825773933
 20
13.983418321
 10
19.8909926187
 20
13.9920222535
 10
19.8995469512
 20
14.0003563929
 10
19.9082299171
 20
14.0084083371
 10
19.9170519899
 20
14.0161904883
 10
19.9260131698
 20
14.0237028463
  0
LWPOLYLINE
  5
45D
100
AcDbEntity
  8
RACCORDO
100
AcDbPolyline
 62
250
  6
CONTINUOUS
 90
105
 70
0
 10
21.0043004752
 20
2.2746126665
 10
21.0093078978
 20
2.2778704159
 10
21.0407022628
 20
2.2991807351
 10
21.0714583892
 20
2.3216054896
 10
21.1015628749
 20
2.3451349077
 10
21.1310025922
 20
2.3697587327
 10
21.1597646664
 20
2.3954662
 10
21.1878365108
 20
2.4222460595
 10
21.2152058512
 20
2.4500865975
 10
21.2418607567
 20
2.4789756733
 10
21.2677896155
 20
2.508900702
 10
21.2929811217
 20
2.5398486399
 10
21.3174242564
 20
2.5718059552
 10
21.3411083214
 20
2.604758661
 10
21.3640229611
 20
2.6386923436
 10
21.3861581873
 20
2.6735922066
 10
21.4075043576
 20
2.7094430467
 10
21.4280521633
 20
2.746229236
 10
21.4477926167
 20
2.7839346899
 10
21.4667170787
 20
2.8225429073
 10
21.4848172761
 20
2.8620370037
 10
21.5020853189
 20
2.902399757
 10
21.5185136829
 20
2.9436135798
 10
21.5340952024
 20
2.985660502
 10
21.5488230629
 20
3.0285221415
 10
21.5626908214
 20
3.0721797475
 10
21.5756924171
 20
3.1166142334
 10
21.5878221812
 20
3.1618062182
 10
21.5990748261
 20
3.207736001
 10
21.6094454416
 20
3.2543835476
 10
21.6189294937
 20
3.3017284707
 10
21.6275228356
 20
3.3497500703
 10
21.6352217133
 20
3.3984273609
 10
21.6420227688
 20
3.4477391032
 10
21.6479230355
 20
3.4976637863
 10
21.6529199376
 20
3.5481796227
 10
21.6570112912
 20
3.5992645438
 10
21.6601953088
 20
3.6508962304
 10
21.6624706001
 20
3.7030521315
 10
21.6638361722
 20
3.7557094792
 10
21.6642914291
 20
3.8088452854
 10
21.6638361721
 20
3.8624363486
 10
21.6624705998
 20
3.9164592684
 10
21.6601953084
 20
3.9708904608
 10
21.6570112907
 20
4.025706165
 10
21.652919937
 20
4.0808824399
 10
21.6479230348
 20
4.1363951784
 10
21.642022768
 20
4.1922201282
 10
21.6352217124
 20
4.2483329261
 10
21.6275228345
 20
4.3047090944
 10
21.6189294925
 20
4.3613240358
 10
21.6094454403
 20
4.4181530111
 10
21.5990748247
 20
4.4751711733
 10
21.5878221797
 20
4.532353601
 10
21.5756924154
 20
4.58967535
 10
21.5626908196
 20
4.6471114315
 10
21.548823061
 20
4.7046367961
 10
21.5340952004
 20
4.7622262961
 10
21.5185136808
 20
4.8198547378
 10
21.5020853167
 20
4.8774969247
 10
21.4848172738
 20
4.9351277208
 10
21.4667170763
 20
4.9927220146
 10
21.4477926141
 20
5.0502546941
 10
21.4280521607
 20
5.1077006012
 10
21.4075043548
 20
5.1650345962
 10
21.3861581845
 20
5.2222316066
 10
21.3640229581
 20
5.279266696
 10
21.3411083183
 20
5.3361150182
 10
21.3174242532
 20
5.3927517891
 10
21.2929811184
 20
5.449152239
 10
21.2677896121
 20
5.505291683
 10
21.2418607532
 20
5.5611455705
 10
21.2152058476
 20
5.6166895519
 10
21.1878365071
 20
5.6718994304
 10
21.1597646626
 20
5.7267511342
 10
21.1310025884
 20
5.7812206755
 10
21.101562871
 20
5.8352842178
 10
21.0714583852
 20
5.8889181217
 10
21.0407022587
 20
5.9420990025
 10
21.0093078935
 20
5.9948036869
 10
20.9772889788
 20
6.0470091902
 10
20.9446595123
 20
6.0986926864
 10
20.9114337676
 20
6.1498315669
 10
20.8776262702
 20
6.2004034775
 10
20.8432517663
 20
6.2503863625
 10
20.8083252419
 20
6.2997584312
 10
20.7728619324
 20
6.348498145
 10
20.7368773364
 20
6.3965842007
 10
20.7003871861
 20
6.4439955753
 10
20.6634074271
 20
6.4907115526
 10
20.6259541952
 20
6.5367117499
 10
20.5880438293
 20
6.5819760998
 10
20.5496928746
 20
6.6264848466
 10
20.5109180846
 20
6.670218546
 10
20.4717363992
 20
6.7131580912
 10
20.4321649311
 20
6.7552847288
 10
20.3922209552
 20
6.796580069
 10
20.3519219102
 20
6.8370260833
 10
20.3112853928
 20
6.8766051106
 10
20.2703291465
 20
6.9152998695
 10
20.2290710506
 20
6.9530934677
 10
20.1875291152
 20
6.9899694069
 10
20.1457214842
 20
7.0259115804
 10
20.103666424
 20
7.0609042849
 10
20.0891236882
 20
7.0726074849
  0
LINE
  5
45E
100
AcDbEntity
  8
DRAFT
100
AcDbLine
 62
7
  6
CONTINUOUS
 10
20.0891236882
 20
1.6826840475
 11
21.0043004748
 21
2.2746126663
  0
LINE
  5
45F
100
AcDbEntity
  8
DRAFT
100
AcDbLine
 62
7
  6
CONTINUOUS
 10
-11.2357939031
 20
8.6415359791
 11
-11.2858225304
 21
8.6424591794
  0
LINE
  5
460
100
AcDbEntity
  8
SUPERFICI
100
AcDbLine
 62
7
  6
CONTINUOUS
 10
-10.4463882803
 20
8.879623282
 11
-10.4570332214
 21
8.8806880476
  0
LINE
  5
461
100
AcDbEntity
  8
DRAFT
100
AcDbLine
 62
7
  6
CONTINUOUS
 10
-10.45605967
 20
8.8807050586
 11
-10.4456189361
 21
8.879555031
  0
LINE
  5
462
100
AcDbEntity
  8
RACCORDO
100
AcDbLine
 62
250
  6
CONTINUOUS
 10
-17.5366098602
 20
18.9003182161
 11
-2.8518549693
 21
11.5579407707
  0
LINE
  5
463
100
AcDbEntity
  8
ASSI
100
AcDbLine
 62
7
  6
CONTINUOUS
 10
9.7253242783
 20
20.3619713343
 11
9.7254849063
 21
20.3450138396
  0
LINE
  5
464
100
AcDbEntity
  8
0
100
AcDbLine
 62
250
  6
CONTINUOUS
 10
10.3866300218
 20
21.0942914998
 11
10.3866300218
 21
21.5045105427
  0
LINE
  5
465
100
AcDbEntity
  8
DRAFT
100
AcDbLine
 62
7
  6
CONTINUOUS
 10
11.0693402198
 20
21.436749592
 11
11.0693402198
 21
21.0037368902
  0
LINE
  5
466
100
AcDbEntity
  8
0
100
AcDbLine
 62
7
  6
CONTINUOUS
 10
12.0368039322
 20
20.2033841803
 11
12.0368039322
 21
19.7510595399
  0
LINE
  5
467
100
AcDbEntity
  8
ASSI
100
AcDbLine
 62
7
  6
CONTINUOUS
 10
9.7254775799
 20
-17.4629396469
 11
9.7253242783
 21
-17.4646342615
  0
LWPOLYLINE
  5
468
100
AcDbEntity
  8
0
100
AcDbPolyline
 62
7
  6
CONTINUOUS
 90
4
 70
0
 10
3.6654630448
 20
-24.3605332135
 10
3.6763445241
 20
-24.3294220678
 10
3.6830560185
 20
-24.2970260996
 10
3.6854348072
 20
-24.2627542191
  0
LWPOLYLINE
  5
469
100
AcDbEntity
  8
0
100
AcDbPolyline
 62
250
  6
CONTINUOUS
 90
13
 70
0
 10
3.6132370952
 20
-24.0029607108
 10
3.61720988
 20
-23.9918450991
 10
3.620772394
 20
-23.9805562447
 10
3.6239165966
 20
-23.969119627
 10
3.6266353898
 20
-23.9575610652
 10
3.6289226392
 20
-23.9459066408
 10
3.630773185
 20
-23.9341826387
 10
3.63218285
 20
-23.9224155046
 10
3.6331484474
 20
-23.9106318126
 10
3.6336677951
 20
-23.8988581849
 10
3.6337397216
 20
-23.8871212054
 10
3.6333640661
 20
-23.8754473546
 10
3.6325416767
 20
-23.863862976
  0
LWPOLYLINE
  5
46A
100
AcDbEntity
  8
RACCORDO
100
AcDbPolyline
 62
250
  6
CONTINUOUS
 90
57
 70
0
 10
19.8084634886
 20
1.9351888963
 10
19.8142750016
 20
1.9403869663
 10
19.8200657998
 20
1.9453676144
 10
19.8258346459
 20
1.9501310094
 10
19.8315753263
 20
1.9546798754
 10
19.8372916335
 20
1.9590117626
 10
19.8429968924
 20
1.9631192579
 10
19.8486914314
 20
1.9670056806
 10
19.8543713977
 20
1.9706683808
 10
19.8600431236
 20
1.9740912781
 10
19.8657062409
 20
1.9772760276
 10
19.8713569056
 20
1.9802217999
 10
19.8769958328
 20
1.982908919
 10
19.8826197161
 20
1.9853371511
 10
19.8882273016
 20
1.9875075412
 10
19.8938220132
 20
1.9894024344
 10
19.8993905467
 20
1.9910224708
 10
19.9049412289
 20
1.9923678131
 10
19.9105081477
 20
1.9934206868
 10
19.9160752037
 20
1.9941914368
 10
19.9216501484
 20
1.9946714834
 10
19.9272980094
 20
1.9948162435
 10
19.9330206407
 20
1.9946393594
 10
19.9387996374
 20
1.9941312174
 10
19.9446640104
 20
1.9932140256
 10
19.9506238883
 20
1.9918843877
 10
19.9566457582
 20
1.9901510263
 10
19.9626921003
 20
1.9879544466
 10
19.9687562791
 20
1.9852811457
 10
19.9748228981
 20
1.9821485525
 10
19.9808450539
 20
1.9785422926
 10
19.986795553
 20
1.9744679597
 10
19.9926843417
 20
1.969921738
 10
19.9985209049
 20
1.9648747123
 10
20.0042861963
 20
1.959338805
 10
20.0099766846
 20
1.9533042669
 10
20.0156189556
 20
1.9467107912
 10
20.0212006016
 20
1.9395575898
 10
20.0267000502
 20
1.9318487575
 10
20.032122323
 20
1.9235325046
 10
20.0374561927
 20
1.9145877951
 10
20.0426684938
 20
1.9050390001
 10
20.0477286125
 20
1.8949024252
 10
20.0526030699
 20
1.8841983636
 10
20.0572819265
 20
1.8729074107
 10
20.0617650328
 20
1.860986354
 10
20.0660173115
 20
1.8484521108
 10
20.0700150226
 20
1.8352879153
 10
20.0737581545
 20
1.8214011148
 10
20.0772018038
 20
1.806796073
 10
20.0803036911
 20
1.7914672188
 10
20.0830413277
 20
1.7753079139
 10
20.0853575484
 20
1.7582585326
 10
20.0871791153
 20
1.7403735308
 10
20.0884396284
 20
1.7217164849
 10
20.0890682106
 20
1.7021639458
 10
20.089123688
 20
1.6943647764
  0
LWPOLYLINE
  5
46B
100
AcDbEntity
  8
RACCORDO
100
AcDbPolyline
 62
7
  6
CONTINUOUS
 90
136
 70
0
 10
19.9260135288
 20
2.0725525674
 10
19.9854103865
 20
2.1212807224
 10
20.0429276141
 20
2.1687917911
 10
20.0985652116
 20
2.2150857736
 10
20.1522680938
 20
2.2601281149
 10
20.2040913459
 20
2.3039533699
 10
20.2542002236
 20
2.3466652032
 10
20.3026019729
 20
2.3882685417
 10
20.3492893478
 20
2.4287584585
 10
20.3944058663
 20
2.4682238367
 10
20.4379557343
 20
2.5066672008
 10
20.4799347459
 20
2.5440860264
 10
20.5204738013
 20
2.5805616238
 10
20.5595768213
 20
2.6160963701
 10
20.5972398853
 20
2.6506878883
 10
20.6335821311
 20
2.6844103568
 10
20.6686072186
 20
2.7172660349
 10
20.702311488
 20
2.7492526635
 10
20.7348030974
 20
2.7804376439
 10
20.7660853911
 20
2.8108230711
 10
20.7961550247
 20
2.8404068502
 10
20.8251101238
 20
2.8692500978
 10
20.8529537667
 20
2.8973547987
 10
20.879682875
 20
2.9247189682
 10
20.9053863388
 20
2.9513977685
 10
20.9300670039
 20
2.9773931272
 10
20.9537220245
 20
3.0027031167
 10
20.9764317528
 20
3.0273771166
 10
20.9981987989
 20
3.0514170293
 10
21.0190205527
 20
3.0748209524
 10
21.0389695365
 20
3.0976325587
 10
21.058048114
 20
3.1198537706
 10
21.0762539214
 20
3.1414826658
 10
21.093652389
 20
3.1625571501
 10
21.1102455947
 20
3.1830792066
 10
21.1260314606
 20
3.2030468522
 10
21.1410691834
 20
3.2224920446
 10
21.1553604675
 20
3.2414168408
 10
21.1689036086
 20
3.2598191838
 10
21.18175269
 20
3.2777248597
 10
21.1939089219
 20
3.2951359946
 10
21.2053710941
 20
3.3120504624
 10
21.2161896593
 20
3.3284876711
 10
21.2263650703
 20
3.3444495557
 10
21.2358968743
 20
3.3599341811
 10
21.2448341657
 20
3.3749551508
 10
21.2531766821
 20
3.3895143456
 10
21.2609246859
 20
3.4036098847
 10
21.2681280584
 20
3.4172497282
 10
21.2747853684
 20
3.4304345823
 10
21.2808980472
 20
3.4431637408
 10
21.2865202702
 20
3.4554430456
 10
21.2916474075
 20
3.467263355
 10
21.296284089
 20
3.4786338108
 10
21.3004983804
 20
3.4895876799
 10
21.3042883403
 20
3.5001115311
 10
21.3076559101
 20
3.5102187957
 10
21.3106749786
 20
3.5199830345
 10
21.3133508526
 20
3.5294019684
 10
21.3156782253
 20
3.5384778765
 10
21.3177150649
 20
3.5472911566
 10
21.3194687706
 20
3.5558468047
 10
21.3209319433
 20
3.5641398249
 10
21.3221403536
 20
3.5722356269
 10
21.3231002875
 20
3.5801384603
 10
21.3238054591
 20
3.5878440755
 10
21.3242727805
 20
3.5954051334
 10
21.3245079124
 20
3.602824806
 10
21.3245051942
 20
3.6100999214
 10
21.3242645563
 20
3.6172736246
 10
21.323791649
 20
3.6243486471
 10
21.3230808221
 20
3.6313222574
 10
21.3221150554
 20
3.6382294059
 10
21.3209006707
 20
3.6450722243
 10
21.3194313463
 20
3.6518485809
 10
21.3176710974
 20
3.6585870303
 10
21.3156275832
 20
3.6652899143
 10
21.3132931445
 20
3.671954891
 10
21.3106088185
 20
3.6786034894
 10
21.3075797847
 20
3.6852441022
 10
21.3042008635
 20
3.6918683366
 10
21.3003975534
 20
3.6984725433
 10
21.2961674372
 20
3.7050685136
 10
21.2915129321
 20
3.7116444562
 10
21.2863667875
 20
3.7181613486
 10
21.2807246005
 20
3.7246229313
 10
21.2745907741
 20
3.7310254637
 10
21.2679112665
 20
3.7373187019
 10
21.2606847986
 20
3.7435003605
 10
21.2529126496
 20
3.7495727247
 10
21.2445446149
 20
3.7554924061
 10
21.2355802913
 20
3.7612573798
 10
21.2260200821
 20
3.7668696706
 10
21.2158149928
 20
3.7722919648
 10
21.2049655368
 20
3.7775227597
 10
21.1934712007
 20
3.782563558
 10
21.1812814504
 20
3.7873815549
 10
21.168397491
 20
3.7919758887
 10
21.1548181174
 20
3.7963474211
 10
21.1404891808
 20
3.8004659323
 10
21.1254123962
 20
3.8043311335
 10
21.1095860486
 20
3.8079433134
 10
21.0929508438
 20
3.8112731188
 10
21.0755088698
 20
3.8143207231
 10
21.0572580385
 20
3.8170859529
 10
21.038132792
 20
3.8195389344
 10
21.0181354842
 20
3.8216801986
 10
20.9972637612
 20
3.8235092144
 10
20.9754450023
 20
3.8249945154
 10
20.952681885
 20
3.8261369058
 10
20.9289717319
 20
3.8269355814
 10
20.9042338902
 20
3.8273566625
 10
20.8784709812
 20
3.8274011639
 10
20.8516803838
 20
3.8270680708
 10
20.8237735811
 20
3.8263204601
 10
20.7947545606
 20
3.8251596064
 10
20.7646193348
 20
3.8235842351
 10
20.7332674253
 20
3.8215535982
 10
20.7007001868
 20
3.8190688909
 10
20.6669162644
 20
3.8161289182
 10
20.6318111149
 20
3.8126893472
 10
20.5953798392
 20
3.8087502255
 10
20.5576273362
 20
3.8043115055
 10
20.5184637596
 20
3.7993287125
 10
20.4778978637
 20
3.7938035193
 10
20.4359208942
 20
3.7877342532
 10
20.3924167416
 20
3.78107142
 10
20.3474003095
 20
3.7738187326
 10
20.3008566943
 20
3.7659724783
 10
20.2526250751
 20
3.7574720247
 10
20.2027056256
 20
3.748318995
 10
20.151098172
 20
3.738511766
 10
20.0976413728
 20
3.7279848356
 10
20.0422814472
 20
3.71671637
 10
19.9850721758
 20
3.704728203
 10
19.9260135588
 20
3.6920203347
  0
LWPOLYLINE
  5
46C
100
AcDbEntity
  8
RACCORDO
100
AcDbPolyline
 62
7
  6
CONTINUOUS
 90
41
 70
0
 10
19.563945967
 20
-3.1528192773
 10
19.5800661415
 20
-3.1439295784
 10
19.6032957387
 20
-3.1304246401
 10
19.6261695782
 20
-3.1162906031
 10
19.648669307
 20
-3.1015371284
 10
19.6707739187
 20
-3.0861765761
 10
19.6924703779
 20
-3.0702165849
 10
19.7137521021
 20
-3.0536596863
 10
19.7346092592
 20
-3.0365100391
 10
19.7550174637
 20
-3.0187841413
 10
19.774948881
 20
-3.0005038865
 10
19.794381079
 20
-2.9816889217
 10
19.813306374
 20
-2.9623457514
 10
19.8317195632
 20
-2.9424773497
 10
19.849607759
 20
-2.9220941623
 10
19.8669536024
 20
-2.9012124147
 10
19.8837446432
 20
-2.8798434449
 10
19.899967079
 20
-2.8580007595
 10
19.9156062086
 20
-2.8356999565
 10
19.9306485392
 20
-2.8129559796
 10
19.9450807336
 20
-2.7897845129
 10
19.9588899168
 20
-2.7662015628
 10
19.9720638329
 20
-2.742223145
 10
19.9845904762
 20
-2.7178659062
 10
19.9964580769
 20
-2.6931472642
 10
20.0076553668
 20
-2.6680849604
 10
20.0181718971
 20
-2.6426962556
 10
20.0279970814
 20
-2.6170001948
 10
20.0371203617
 20
-2.591017808
 10
20.0455332074
 20
-2.5647663943
 10
20.0532264178
 20
-2.5382670963
 10
20.0601900361
 20
-2.5115474321
 10
20.0664152513
 20
-2.4846366089
 10
20.0718982528
 20
-2.4575460029
 10
20.0766364506
 20
-2.4302765989
 10
20.0806255863
 20
-2.4028297964
 10
20.0838558848
 20
-2.3752454143
 10
20.0863188714
 20
-2.3475825257
 10
20.08801155
 20
-2.3198866961
 10
20.0889351409
 20
-2.2921555848
 10
20.0891236882
 20
-2.2727360946
  0
LINE
  5
46D
100
AcDbEntity
  8
RACCORDO
100
AcDbLine
 62
250
  6
CONTINUOUS
 10
19.8084634886
 20
-2.6200667597
 11
13.0692508804
 21
-6.2560265708
  0
LINE
  5
46E
100
AcDbEntity
  8
RACCORDO
100
AcDbLine
 62
7
  6
CONTINUOUS
 10
19.5639475087
 20
-3.1528184455
 11
13.6051722223
 21
-6.3677144169
  0
LWPOLYLINE
  5
46F
100
AcDbEntity
  8
RACCORDO
100
AcDbPolyline
 62
250
  6
CONTINUOUS
 90
29
 70
0
 10
19.8084634886
 20
-2.6200667597
 10
19.827124804
 20
-2.6101373201
 10
19.8452380676
 20
-2.5999573192
 10
19.8627898279
 20
-2.589534317
 10
19.8797670513
 20
-2.5788760532
 10
19.896157129
 20
-2.567990443
 10
19.9119478868
 20
-2.5568855722
 10
19.9271275974
 20
-2.5455696879
 10
19.9416849889
 20
-2.5340511929
 10
19.9556092506
 20
-2.5223386413
 10
19.9688900422
 20
-2.510440731
 10
19.9815175011
 20
-2.4983662976
 10
19.9934822496
 20
-2.4861243082
 10
20.0047754025
 20
-2.473723854
 10
20.0153885733
 20
-2.4611741439
 10
20.0253138805
 20
-2.4484844976
 10
20.0345439535
 20
-2.4356643387
 10
20.043071938
 20
-2.4227231878
 10
20.0508915008
 20
-2.4096706555
 10
20.0579968352
 20
-2.3965164349
 10
20.0643826647
 20
-2.3832702946
 10
20.0700442472
 20
-2.3699420717
 10
20.0749773784
 20
-2.3565416641
 10
20.079178395
 20
-2.3430790231
 10
20.0826441776
 20
-2.3295641468
 10
20.0853721525
 20
-2.3160070715
 10
20.0873602942
 20
-2.302417865
 10
20.0886071264
 20
-2.2888066192
 10
20.0890957356
 20
-2.2756150904
  0
LINE
  5
470
100
AcDbEntity
  8
SUPERFICI
100
AcDbLine
 62
7
  6
CONTINUOUS
 10
-10.4245262377
 20
-16.9335002429
 11
-10.4189315311
 21
-16.9309354832
  0
LWPOLYLINE
  5
471
100
AcDbEntity
  8
RACCORDO
100
AcDbPolyline
 62
250
  6
CONTINUOUS
 90
28
 70
0
 10
13.6051653261
 20
-6.3677181376
 10
13.6024000793
 20
-6.3689719584
 10
13.5979719815
 20
-6.3703213902
 10
13.592509431
 20
-6.3713604726
 10
13.5859717724
 20
-6.3720618046
 10
13.5783333487
 20
-6.3723934532
 10
13.5695264805
 20
-6.3723484949
 10
13.559510244
 20
-6.3719050876
 10
13.5482541602
 20
-6.3710348697
 10
13.5357056973
 20
-6.3697246571
 10
13.5218171763
 20
-6.3679571204
 10
13.5065587788
 20
-6.3657079892
 10
13.4899045831
 20
-6.3629576999
 10
13.4717896331
 20
-6.3596944263
 10
13.4521969766
 20
-6.3559003532
 10
13.4311781435
 20
-6.3515572085
 10
13.4086946833
 20
-6.3466710305
 10
13.3847130851
 20
-6.3412328216
 10
13.3593006459
 20
-6.3352140277
 10
13.3323999129
 20
-6.3286237609
 10
13.3040009872
 20
-6.321468116
 10
13.2742528091
 20
-6.313726062
 10
13.2430959468
 20
-6.3054158023
 10
13.21053867
 20
-6.2965591497
 10
13.1768530607
 20
-6.2871585064
 10
13.1421301752
 20
-6.277241823
 10
13.106265032
 20
-6.2668523962
 10
13.0692509145
 20
-6.2560265524
  0
LWPOLYLINE
  5
472
100
AcDbEntity
  8
DRAFT
100
AcDbPolyline
 62
7
  6
CONTINUOUS
 90
3
 70
0
 10
-11.0267383115
 20
8.592298095
 10
-11.0325544385
 20
8.590760042
 10
-11.0412756754
 20
8.5900519797
  0
LWPOLYLINE
  5
473
100
AcDbEntity
  8
RACCORDO
100
AcDbPolyline
 62
250
  6
CONTINUOUS
 90
16
 70
0
 10
-2.1580383637
 20
11.4871632673
 10
-2.1967376389
 20
11.4772357422
 10
-2.2386744733
 20
11.4693353732
 10
-2.2834044063
 20
11.4635458911
 10
-2.3304533748
 20
11.4599286548
 10
-2.3793227378
 20
11.4585220009
 10
-2.4294945615
 20
11.4593408378
 10
-2.4804371077
 20
11.4623764871
 10
-2.5316104701
 20
11.4675967759
 10
-2.5824722962
 20
11.4749463779
 10
-2.632483535
 20
11.4843473994
 10
-2.6811141504
 20
11.4957002053
 10
-2.7278487388
 20
11.5088844749
 10
-2.7721919912
 20
11.5237604769
 10
-2.8136739426
 20
11.5401705504
 10
-2.8518549534
 20
11.5579407757
  0
LWPOLYLINE
  5
474
100
AcDbEntity
  8
RACCORDO
100
AcDbPolyline
 62
7
  6
CONTINUOUS
 90
16
 70
0
 10
19.9260130866
 20
15.6431708038
 10
19.9170519134
 20
15.641403595
 10
19.9082298472
 20
15.6400502277
 10
19.8995468881
 20
15.6391107019
 10
19.8909925626
 20
15.6385865738
 10
19.8825773441
 20
15.6384762871
 10
19.8743326531
 20
15.6387751736
 10
19.866262314
 20
15.6394900339
 10
19.8583625024
 20
15.6406140672
 10
19.850653165
 20
15.6421222031
 10
19.8431399695
 20
15.6440201166
 10
19.8358172482
 20
15.6463021326
 10
19.828687945
 20
15.648926155
 10
19.8217530414
 20
15.6518781516
 10
19.8150115559
 20
15.6551721545
 10
19.8084634886
 20
15.6588081638
  0
LINE
  5
475
100
AcDbEntity
  8
SUPERFICI
100
AcDbLine
 62
7
  6
CONTINUOUS
 10
-10.4570332214
 20
8.8806880476
 11
-10.4671367739
 21
8.8792492853
  0
LWPOLYLINE
  5
476
100
AcDbEntity
  8
DRAFT
100
AcDbPolyline
 62
7
  6
CONTINUOUS
 90
3
 70
0
 10
-11.2858225304
 20
8.6424591794
 10
-11.3343166078
 20
8.6362855132
 10
-11.3750123588
 20
8.6252296612
  0
LINE
  5
477
100
AcDbEntity
  8
DRAFT
100
AcDbLine
 62
7
  6
CONTINUOUS
 10
-10.4660914892
 20
8.8795125645
 11
-10.45605967
 21
8.8807050586
  0
LINE
  5
478
100
AcDbEntity
  8
DRAFT
100
AcDbLine
 62
7
  6
CONTINUOUS
 10
1.0697155971
 20
10.7026051138
 11
2.7129026407
 21
9.881011592
  0
LINE
  5
479
100
AcDbEntity
  8
RACCORDO
100
AcDbLine
 62
250
  6
CONTINUOUS
 10
-16.8647544007
 20
19.9823807237
 11
-2.1621729531
 21
12.6310899999
  0
LWPOLYLINE
  5
47A
100
AcDbEntity
  8
0
100
AcDbPolyline
 62
250
  6
CONTINUOUS
 90
16
 70
0
 10
3.6132370952
 20
17.2966434286
 10
3.617209809
 20
17.2899485534
 10
3.6207722676
 20
17.2834671115
 10
3.6239164308
 20
17.2772137312
 10
3.6266352025
 20
17.2712025258
 10
3.6289224466
 20
17.2654470624
 10
3.6307730007
 20
17.2599603307
 10
3.6321826885
 20
17.2547547139
 10
3.6331483282
 20
17.2498419609
 10
3.6336677405
 20
17.2452331593
 10
3.6337397531
 20
17.240938711
 10
3.6333642035
 20
17.2369683082
 10
3.6325419393
 20
17.2333309121
 10
3.6312748162
 20
17.2300347319
 10
3.6295656941
 20
17.2270872069
 10
3.6285976676
 20
17.225808262
  0
LINE
  5
47B
100
AcDbEntity
  8
0
100
AcDbLine
 62
7
  6
CONTINUOUS
 10
5.1939486122
 20
12.7652377994
 11
4.4930126584
 21
13.9741734909
  0
LINE
  5
47C
100
AcDbEntity
  8
RACCORDO
100
AcDbLine
 62
7
  6
CONTINUOUS
 10
4.4930126584
 20
13.9848616774
 11
4.7921397914
 21
13.468943689
  0
LINE
  5
47D
100
AcDbEntity
  8
0
100
AcDbLine
 62
250
  6
CONTINUOUS
 10
2.5680228855
 20
26.238976962
 11
2.9620088194
 21
25.216821144
  0
LINE
  5
47E
100
AcDbEntity
  8
0
100
AcDbLine
 62
7
  6
CONTINUOUS
 10
4.1067131476
 20
23.6734548258
 11
3.9052137896
 21
24.2691792516
  0
LWPOLYLINE
  5
47F
100
AcDbEntity
  8
RACCORDO
100
AcDbPolyline
 62
250
  6
CONTINUOUS
 90
25
 70
0
 10
13.3499110801
 20
-6.7954658013
 10
13.349903016
 20
-6.7937769913
 10
13.3493815765
 20
-6.7813947162
 10
13.3480162529
 20
-6.7680560454
 10
13.3457652087
 20
-6.7537407692
 10
13.3425863045
 20
-6.7384413545
 10
13.3384389372
 20
-6.7221233102
 10
13.3332819298
 20
-6.7047576927
 10
13.327075619
 20
-6.6863378166
 10
13.3197847843
 20
-6.6668607283
 10
13.3113660648
 20
-6.646276022
 10
13.3017888332
 20
-6.6245903129
 10
13.2910485264
 20
-6.6018855344
 10
13.2791260589
 20
-6.578133131
 10
13.2659939653
 20
-6.5533133029
 10
13.2516500543
 20
-6.5275216262
 10
13.2360713327
 20
-6.5007056534
 10
13.2192515976
 20
-6.4728648781
 10
13.2012298075
 20
-6.4441747409
 10
13.1819908495
 20
-6.4145742734
 10
13.1615504135
 20
-6.384072032
 10
13.1400213237
 20
-6.3529549175
 10
13.1174631157
 20
-6.3213071894
 10
13.0938646623
 20
-6.2890044827
 10
13.0692508804
 20
-6.2560266133
  0
LINE
  5
480
100
AcDbEntity
  8
0
100
AcDbLine
 62
7
  6
CONTINUOUS
 10
12.4865485936
 20
20.0816363472
 11
12.4865485936
 21
19.7420117574
  0
LINE
  5
481
100
AcDbEntity
  8
DRAFT
100
AcDbLine
 62
7
  6
CONTINUOUS
 10
12.5248454523
 20
20.9335737302
 11
12.5248454523
 21
21.3773270262
  0
LINE
  5
482
100
AcDbEntity
  8
RACCORDO
100
AcDbLine
 62
250
  6
CONTINUOUS
 10
13.0692508804
 20
-14.4289395516
 11
13.0692508804
 21
-6.2560265708
  0
LINE
  5
483
100
AcDbEntity
  8
RACCORDO
100
AcDbLine
 62
7
  6
CONTINUOUS
 10
13.3499110801
 20
-14.0816103664
 11
13.3499110801
 21
-6.7954731878
  0
LWPOLYLINE
  5
484
100
AcDbEntity
  8
RACCORDO
100
AcDbPolyline
 62
7
  6
CONTINUOUS
 90
35
 70
0
 10
13.3499109344
 20
-6.7954753718
 10
13.3500929514
 20
-6.7822379764
 10
13.3507179137
 20
-6.7676030759
 10
13.3518108769
 20
-6.7527192159
 10
13.3533858041
 20
-6.7376830503
 10
13.3554585987
 20
-6.7225111664
 10
13.3580445206
 20
-6.7072228285
 10
13.3611406805
 20
-6.6919183392
 10
13.3647507085
 20
-6.6766273056
 10
13.3688824772
 20
-6.661357582
 10
13.3735261438
 20
-6.6461749437
 10
13.3786789456
 20
-6.6311052573
 10
13.3843424092
 20
-6.616159275
 10
13.3905053363
 20
-6.6013781257
 10
13.3971633506
 20
-6.5867797477
 10
13.4043117732
 20
-6.5723812847
 10
13.4119336951
 20
-6.5582206344
 10
13.4200203024
 20
-6.544315152
 10
13.4285636526
 20
-6.5306793965
 10
13.4375436385
 20
-6.5173446419
 10
13.4469488073
 20
-6.5043253663
 10
13.456767697
 20
-6.4916350025
 10
13.4669764669
 20
-6.4793005925
 10
13.4775612438
 20
-6.467333869
 10
13.4885077723
 20
-6.4557460906
 10
13.4997883571
 20
-6.4445605687
 10
13.5113879817
 20
-6.4337852174
 10
13.5232892609
 20
-6.42342941
 10
13.5354577566
 20
-6.4135149527
 10
13.5478761259
 20
-6.4040466614
 10
13.5605254353
 20
-6.3950298834
 10
13.5733656831
 20
-6.3864826681
 10
13.5863697642
 20
-6.3784108373
 10
13.5995252371
 20
-6.3708101462
 10
13.6051712882
 20
-6.3677150379
  0
LINE
  5
485
100
AcDbEntity
  8
RACCORDO
100
AcDbLine
 62
250
  6
CONTINUOUS
 10
20.0974689707
 20
1.6979881554
 11
20.0891236882
 21
1.6904030926
  0
LWPOLYLINE
  5
486
100
AcDbEntity
  8
RACCORDO
100
AcDbPolyline
 62
250
  6
CONTINUOUS
 90
32
 70
0
 10
19.5639475087
 20
-3.1528184455
 10
19.5707759625
 20
-3.1490426356
 10
19.5853161107
 20
-3.1403689651
 10
19.5994795982
 20
-3.1310366685
 10
19.6132556731
 20
-3.1210528296
 10
19.6266338776
 20
-3.1104250273
 10
19.6396040559
 20
-3.0991613287
 10
19.6521563622
 20
-3.0872702841
 10
19.6642812675
 20
-3.07476092
 10
19.6759695674
 20
-3.0616427323
 10
19.6872123892
 20
-3.0479256789
 10
19.6980011979
 20
-3.0336201725
 10
19.7083278036
 20
-3.0187370726
 10
19.718184367
 20
-3.0032876767
 10
19.7275634058
 20
-2.987283713
 10
19.7364578
 20
-2.97073733
 10
19.7448607978
 20
-2.9536610881
 10
19.7527660201
 20
-2.9360679503
 10
19.760167466
 20
-2.9179712716
 10
19.7670595168
 20
-2.8993847892
 10
19.7734369406
 20
-2.8803226126
 10
19.7792948963
 20
-2.8607992119
 10
19.7846289368
 20
-2.8408294073
 10
19.7894350129
 20
-2.8204283587
 10
19.7937094763
 20
-2.7996115527
 10
19.7974490821
 20
-2.7783947914
 10
19.8006509915
 20
-2.7567941808
 10
19.8033127741
 20
-2.7348261174
 10
19.805432409
 20
-2.7125072781
 10
19.8070082871
 20
-2.6898546076
 10
19.8080392123
 20
-2.6668853028
 10
19.8085244022
 20
-2.643616799
  0
LWPOLYLINE
  5
487
100
AcDbEntity
  8
RACCORDO
100
AcDbPolyline
 62
250
  6
CONTINUOUS
 90
16
 70
0
 10
-2.8652804367
 20
-15.3151515054
 10
-2.9043785333
 20
-15.3327231661
 10
-2.9467087697
 20
-15.3481874331
 10
-2.9918226814
 20
-15.3613804711
 10
-3.0392423122
 20
-15.3721625075
 10
-3.088465278
 20
-15.3804193128
 10
-3.1389700897
 20
-15.3860634108
 10
-3.1902216774
 20
-15.3890350055
 10
-3.24167706
 20
-15.3893026146
 10
-3.2927910969
 20
-15.3868634028
 10
-3.343022264
 20
-15.3817432123
 10
-3.3918383909
 20
-15.3739962886
 10
-3.4387222983
 20
-15.3637047058
 10
-3.4831772781
 20
-15.3509774975
 10
-3.5247323551
 20
-15.3359495011
 10
-3.5629472769
 20
-15.3187799298
  0
LINE
  5
488
100
AcDbEntity
  8
DRAFT
100
AcDbLine
 62
250
  6
CONTINUOUS
 10
-10.42601583
 20
-16.9292869739
 11
-10.4425301863
 21
-16.9350697692
  0
LINE
  5
489
100
AcDbEntity
  8
RACCORDO
100
AcDbLine
 62
7
  6
CONTINUOUS
 10
-14.1332013523
 20
21.5115683907
 11
0.7162833604
 21
14.0868260343
  0
LINE
  5
48A
100
AcDbEntity
  8
DRAFT
100
AcDbLine
 62
7
  6
CONTINUOUS
 10
-3.3365631169
 20
16.3901122647
 11
-7.5347704628
 21
18.4892159377
  0
LINE
  5
48B
100
AcDbEntity
  8
DRAFT
100
AcDbLine
 62
7
  6
CONTINUOUS
 10
-8.3348045927
 20
19.516794562
 11
-1.970843562
 21
16.3348140466
  0
LINE
  5
48C
100
AcDbEntity
  8
0
100
AcDbLine
 62
7
  6
CONTINUOUS
 10
2.3596183748
 20
15.0125213646
 11
1.8423877811
 21
15.2711366614
  0
LINE
  5
48D
100
AcDbEntity
  8
0
100
AcDbLine
 62
7
  6
CONTINUOUS
 10
0.1556220568
 20
16.1145195235
 11
-2.0123696414
 21
17.1985153727
  0
LINE
  5
48E
100
AcDbEntity
  8
0
100
AcDbLine
 62
7
  6
CONTINUOUS
 10
-2.6717795158
 20
17.5282203098
 11
-7.6338686389
 21
20.0092648714
  0
LINE
  5
48F
100
AcDbEntity
  8
0
100
AcDbLine
 62
7
  6
CONTINUOUS
 10
-8.2932785133
 20
20.3389698086
 11
-10.4612702116
 21
21.4229656577
  0
LINE
  5
490
100
AcDbEntity
  8
0
100
AcDbLine
 62
7
  6
CONTINUOUS
 10
-12.1480359358
 20
22.2663485198
 11
-12.6652665295
 21
22.5249638167
  0
LWPOLYLINE
  5
491
100
AcDbEntity
  8
0
100
AcDbPolyline
 62
7
  6
CONTINUOUS
 90
7
 70
0
 10
-0.4822857062
 20
16.9425476424
 10
-0.5025362954
 20
16.9538643104
 10
-0.5248718529
 20
16.9694919323
 10
-0.545509796
 20
16.9875918882
 10
-0.564051074
 20
17.0078613397
 10
-0.5802831475
 20
17.0300833457
 10
-0.5940931976
 20
17.0541915502
  0
LWPOLYLINE
  5
492
100
AcDbEntity
  8
0
100
AcDbPolyline
 62
7
  6
CONTINUOUS
 90
10
 70
0
 10
-12.7860555937
 20
23.0944324929
 10
-12.8103805451
 20
23.1083517349
 10
-12.8332017167
 20
23.1250757748
 10
-12.8541053234
 20
23.1443935244
 10
-12.8726303603
 20
23.1659008787
 10
-12.8885952465
 20
23.189365111
 10
-12.9019544269
 20
23.2148322489
 10
-12.9124200281
 20
23.2420387737
 10
-12.9196813545
 20
23.2704524858
 10
-12.92358225
 20
23.2997493056
  0
LWPOLYLINE
  5
493
100
AcDbEntity
  8
0
100
AcDbPolyline
 62
250
  6
CONTINUOUS
 90
3
 70
0
 10
-0.4900075798
 20
16.9468612933
 10
-0.4842068938
 20
16.9435328105
 10
-0.482397601
 20
16.9426034966
  0
LINE
  5
494
100
AcDbEntity
  8
RACCORDO
100
AcDbLine
 62
7
  6
CONTINUOUS
 10
14.6090667864
 20
23.5392977399
 11
14.6090667864
 21
23.2123316922
  0
LWPOLYLINE
  5
495
100
AcDbEntity
  8
RACCORDO
100
AcDbPolyline
 62
7
  6
CONTINUOUS
 90
16
 70
0
 10
19.8084634886
 20
1.9351886832
 10
19.8150115686
 20
1.9456054196
 10
19.8217530699
 20
1.9558804474
 10
19.8286879925
 20
1.9660137665
 10
19.8358173183
 20
1.9760204277
 10
19.8431400653
 20
1.9858853801
 10
19.8506532885
 20
1.9955634716
 10
19.8583626549
 20
2.005054894
 10
19.8662624974
 20
2.0143594554
 10
19.8743328692
 20
2.0234314282
 10
19.882577595
 20
2.0322679726
 10
19.8909928502
 20
2.0408719283
 10
19.8995472133
 20
2.0492060865
 10
19.9082302105
 20
2.0572580443
 10
19.9170523157
 20
2.0650402046
 10
19.9260135288
 20
2.0725525674
  0
LINE
  5
496
100
AcDbEntity
  8
0
100
AcDbLine
 62
250
  6
CONTINUOUS
 10
1.8418735527
 20
-24.0842976366
 11
1.2195555206
 21
-24.8293570541
  0
LINE
  5
497
100
AcDbEntity
  8
0
100
AcDbLine
 62
7
  6
CONTINUOUS
 10
1.2568456391
 20
16.0822190269
 11
1.8810412362
 21
15.9518864071
  0
LINE
  5
498
100
AcDbEntity
  8
0
100
AcDbLine
 62
250
  6
CONTINUOUS
 10
1.4836891326
 20
16.2380401877
 11
2.1949097407
 21
16.0895366648
  0
LWPOLYLINE
  5
499
100
AcDbEntity
  8
0
100
AcDbPolyline
 62
7
  6
CONTINUOUS
 90
4
 70
0
 10
1.1961379988
 20
16.1033356967
 10
1.2106626007
 20
16.0966450261
 10
1.2410695404
 20
16.0860516075
 10
1.2568439765
 20
16.082219374
  0
LWPOLYLINE
  5
49A
100
AcDbEntity
  8
0
100
AcDbPolyline
 62
250
  6
CONTINUOUS
 90
16
 70
0
 10
-3.4547339207
 20
20.2196058677
 10
-3.4615212954
 20
20.2227451202
 10
-3.4682914358
 20
20.2254857505
 10
-3.4750290019
 20
20.2278215472
 10
-3.4817187314
 20
20.2297472173
 10
-3.488345462
 20
20.2312583942
 10
-3.4948941669
 20
20.2323516508
 10
-3.5013500045
 20
20.2330245102
 10
-3.5076983504
 20
20.2332754491
 10
-3.5139248188
 20
20.2331038995
 10
-3.5200153031
 20
20.2325102509
 10
-3.5259560024
 20
20.2314958495
 10
-3.5317334516
 20
20.2300629958
 10
-3.5373345595
 20
20.2282149389
 10
-3.5427466373
 20
20.225955868
 10
-3.5456204901
 20
20.2245491661
  0
LWPOLYLINE
  5
49B
100
AcDbEntity
  8
0
100
AcDbPolyline
 62
250
  6
CONTINUOUS
 90
31
 70
0
 10
-5.2961020669
 20
20.8264891865
 10
-5.2885500607
 20
20.8229048494
 10
-5.2806351926
 20
20.819521894
 10
-5.2723789165
 20
20.8163494899
 10
-5.2638036114
 20
20.8133962362
 10
-5.2549325214
 20
20.8106701378
 10
-5.2457896921
 20
20.8081785841
 10
-5.2363999058
 20
20.8059283286
 10
-5.2267886142
 20
20.8039254706
 10
-5.2169818692
 20
20.8021754392
 10
-5.2070062528
 20
20.8006829779
 10
-5.1968888044
 20
20.7994521321
 10
-5.1866569482
 20
20.7984862381
 10
-5.1763384183
 20
20.797787914
 10
-5.1659611836
 20
20.7973590526
 10
-5.1555533725
 20
20.7972008165
 10
-5.145143196
 20
20.7973136345
 10
-5.1347588716
 20
20.7976972009
 10
-5.1244285466
 20
20.7983504759
 10
-5.1141802222
 20
20.7992716888
 10
-5.1040416771
 20
20.8004583426
 10
-5.0940403924
 20
20.8019072208
 10
-5.0842034774
 20
20.8036143962
 10
-5.0745575957
 20
20.8055752412
 10
-5.0651288931
 20
20.8077844409
 10
-5.0559429267
 20
20.8102360071
 10
-5.0470245957
 20
20.8129232947
 10
-5.0383980738
 20
20.8158390196
 10
-5.0300867438
 20
20.8189752786
 10
-5.0221131342
 20
20.8223235705
 10
-5.0144988578
 20
20.8258748197
  0
LWPOLYLINE
  5
49C
100
AcDbEntity
  8
0
100
AcDbPolyline
 62
250
  6
CONTINUOUS
 90
34
 70
0
 10
1.131167173
 20
16.2385529115
 10
1.1397461649
 20
16.2344621634
 10
1.148703362
 20
16.2305793616
 10
1.1580186235
 20
16.2269132369
 10
1.1676710033
 20
16.2234720326
 10
1.1776387972
 20
16.2202634868
 10
1.1878995919
 20
16.217294814
 10
1.1984303152
 20
16.2145726896
 10
1.2092072881
 20
16.2121032344
 10
1.2202062777
 20
16.2098920012
 10
1.2314025518
 20
16.207943962
 10
1.2427709349
 20
16.2062634974
 10
1.2542858643
 20
16.2048543858
 10
1.2659214477
 20
16.2037197958
 10
1.2776515218
 20
16.2028622785
 10
1.2894497105
 20
16.2022837623
 10
1.3012894847
 20
16.2019855478
 10
1.3131442218
 20
16.2019683058
 10
1.3249872654
 20
16.2022320748
 10
1.3367919858
 20
16.202776262
 10
1.3485318389
 20
16.2035996435
 10
1.3601804269
 20
16.2047003679
 10
1.3717115571
 20
16.2060759603
 10
1.3830993008
 20
16.2077233274
 10
1.3943180518
 20
16.2096387651
 10
1.405342584
 20
16.2118179663
 10
1.4161481077
 20
16.214256031
 10
1.426710326
 20
16.2169474769
 10
1.437005489
 20
16.2198862522
 10
1.4470104471
 20
16.2230657487
 10
1.4567027035
 20
16.2264788172
 10
1.4660604644
 20
16.2301177831
 10
1.4750626882
 20
16.233974464
 10
1.4836891326
 20
16.2380401877
  0
LWPOLYLINE
  5
49D
100
AcDbEntity
  8
0
100
AcDbPolyline
 62
250
  6
CONTINUOUS
 90
34
 70
0
 10
-11.1724908197
 20
22.3903819078
 10
-11.1639111992
 20
22.386290874
 10
-11.1549533208
 20
22.3824078168
 10
-11.1456373296
 20
22.3787414689
 10
-11.1359841879
 20
22.3753000795
 10
-11.1260155939
 20
22.3720913833
 10
-11.1157539294
 20
22.3691225866
 10
-11.1052222441
 20
22.3664003622
 10
-11.0944442441
 20
22.3639308421
 10
-11.0834442049
 20
22.3617195902
 10
-11.0722468781
 20
22.3597715815
 10
-11.0608774334
 20
22.3580911944
 10
-11.0493614405
 20
22.3566822079
 10
-11.0377247983
 20
22.3555477907
 10
-11.0259936769
 20
22.3546904941
 10
-11.0141944584
 20
22.3541122461
 10
-11.00235367
 20
22.3538143468
 10
-10.9904979495
 20
22.3537974669
 10
-10.9786539856
 20
22.3540616434
 10
-10.9668484315
 20
22.3546062794
 10
-10.9551078194
 20
22.3554301485
 10
-10.9434585272
 20
22.3565313986
 10
-10.9319266679
 20
22.3579075644
 10
-10.920538263
 20
22.3595555439
 10
-10.9093191482
 20
22.3614715896
 10
-10.8982946893
 20
22.3636513456
 10
-10.8874895127
 20
22.3660899184
 10
-10.8769276909
 20
22.3687818661
 10
-10.86663215
 20
22.3717213836
 10
-10.8566269113
 20
22.374901652
 10
-10.8469366022
 20
22.3783147319
 10
-10.837583473
 20
22.3819525181
 10
-10.8285875732
 20
22.3858069349
 10
-10.81996886
 20
22.389869184
  0
LWPOLYLINE
  5
49E
100
AcDbEntity
  8
0
100
AcDbPolyline
 62
250
  6
CONTINUOUS
 90
34
 70
0
 10
1.131167173
 20
16.5785268456
 10
1.1397321047
 20
16.5744424911
 10
1.148677888
 20
16.5705638213
 10
1.157984917
 20
16.5668998033
 10
1.167634102
 20
16.5634584759
 10
1.1776028891
 20
16.5602483883
 10
1.1878648806
 20
16.5572782507
 10
1.1983954421
 20
16.5545551222
 10
1.2091723628
 20
16.5520846772
 10
1.2201716002
 20
16.5498724351
 10
1.2313685704
 20
16.5479233619
 10
1.2427379632
 20
16.5462418844
 10
1.2542539809
 20
16.5448318242
 10
1.2658906172
 20
16.5436963594
 10
1.2776218011
 20
16.5428380275
 10
1.2894212236
 20
16.5422587538
 10
1.3012623794
 20
16.5419598435
 10
1.3131186045
 20
16.541941974
 10
1.3249632128
 20
16.5422051878
 10
1.3367695583
 20
16.5427488939
 10
1.3485110919
 20
16.5435718712
 10
1.3601614008
 20
16.5446722699
 10
1.3716942826
 20
16.5460476163
 10
1.3830837956
 20
16.5476948182
 10
1.3943043133
 20
16.5496101704
 10
1.4053305967
 20
16.5517893652
 10
1.4161378469
 20
16.5542275021
 10
1.4267017523
 20
16.5569190968
 10
1.4369985577
 20
16.5598580974
 10
1.4470050976
 20
16.5630378924
 10
1.4566988472
 20
16.5664513239
 10
1.4660579994
 20
16.5700907109
 10
1.4750615108
 20
16.573947869
 10
1.4836891326
 20
16.5780141218
  0
LWPOLYLINE
  5
49F
100
AcDbEntity
  8
0
100
AcDbPolyline
 62
250
  6
CONTINUOUS
 90
34
 70
0
 10
-11.1724908197
 20
22.730355842
 10
-11.1639106168
 20
22.7262645433
 10
-11.1549520935
 20
22.7223812439
 10
-11.1456353977
 20
22.7187146792
 10
-11.1359814768
 20
22.7152730948
 10
-11.1260120491
 20
22.712064235
 10
-11.1157495564
 20
22.7090953238
 10
-11.1052170875
 20
22.70637304
 10
-11.0944383271
 20
22.7039035045
 10
-11.0834375226
 20
22.7016922723
 10
-11.072239416
 20
22.6997443159
 10
-11.0608691963
 20
22.6980640166
 10
-11.0493524467
 20
22.6966551541
 10
-11.0377150734
 20
22.6955208961
 10
-11.0259832495
 20
22.6946637922
 10
-11.0141833664
 20
22.6940857692
 10
-11.0023419582
 20
22.6937881255
 10
-10.9904856646
 20
22.6937715294
 10
-10.9786411741
 20
22.6940360159
 10
-10.9668351594
 20
22.6945809851
 10
-10.9550941399
 20
22.6954052087
 10
-10.9434444458
 20
22.6965068378
 10
-10.931912172
 20
22.6978834114
 10
-10.9205233673
 20
22.6995318265
 10
-10.9093038886
 20
22.7014483338
 10
-10.8982791061
 20
22.7036285768
 10
-10.8874736506
 20
22.7060676616
 10
-10.8769116127
 20
22.7087601417
 10
-10.8666152188
 20
22.7117004222
 10
-10.8566092381
 20
22.7148815031
 10
-10.8469202973
 20
22.7182947035
 10
-10.8375710771
 20
22.7219315141
 10
-10.8285807004
 20
22.7257839581
 10
-10.81996886
 20
22.7298431181
  0
LINE
  5
4A0
100
AcDbEntity
  8
0
100
AcDbLine
 62
7
  6
CONTINUOUS
 10
-12.7860555937
 20
23.0944324929
 11
-11.1075175232
 21
22.2551634577
  0
LINE
  5
4A1
100
AcDbEntity
  8
0
100
AcDbLine
 62
7
  6
CONTINUOUS
 10
-0.482397601
 20
16.9426034966
 11
1.1961404694
 21
16.1033344614
  0
LINE
  5
4A2
100
AcDbEntity
  8
0
100
AcDbLine
 62
250
  6
CONTINUOUS
 10
-12.8510288901
 20
23.229650943
 11
-11.1724908197
 21
22.3903819078
  0
LINE
  5
4A3
100
AcDbEntity
  8
0
100
AcDbLine
 62
250
  6
CONTINUOUS
 10
-0.5473708974
 20
17.0778219467
 11
1.131167173
 21
16.2385529115
  0
LINE
  5
4A4
100
AcDbEntity
  8
0
100
AcDbLine
 62
7
  6
CONTINUOUS
 10
-2.6717795158
 20
18.2807135592
 11
-3.5953325254
 21
18.7424900641
  0
LINE
  5
4A5
100
AcDbEntity
  8
0
100
AcDbLine
 62
7
  6
CONTINUOUS
 10
-5.2961020669
 20
19.5928748348
 11
-6.9205910303
 21
20.4051193165
  0
LINE
  5
4A6
100
AcDbEntity
  8
0
100
AcDbLine
 62
250
  6
CONTINUOUS
 10
1.131167173
 20
16.5785268456
 11
-0.5473708974
 21
17.4177958808
  0
LINE
  5
4A7
100
AcDbEntity
  8
0
100
AcDbLine
 62
250
  6
CONTINUOUS
 10
-11.1724908197
 20
22.730355842
 11
-12.8510288901
 21
23.5696248772
  0
LINE
  5
4A8
100
AcDbEntity
  8
0
100
AcDbLine
 62
7
  6
CONTINUOUS
 10
-4.7992706868
 20
19.7207057694
 11
-3.6539111692
 21
19.1480260106
  0
LINE
  5
4A9
100
AcDbEntity
  8
0
100
AcDbLine
 62
7
  6
CONTINUOUS
 10
3.4385278014
 20
15.6018065253
 11
3.0849699235
 21
15.7785854643
  0
LINE
  5
4AA
100
AcDbEntity
  8
0
100
AcDbLine
 62
7
  6
CONTINUOUS
 10
-0.5937231305
 20
17.6179319913
 11
-0.9455387293
 21
17.7938397907
  0
LINE
  5
4AB
100
AcDbEntity
  8
0
100
AcDbLine
 62
7
  6
CONTINUOUS
 10
-8.2932785133
 20
21.4677096827
 11
-9.2186880692
 21
21.9304144606
  0
LINE
  5
4AC
100
AcDbEntity
  8
0
100
AcDbLine
 62
250
  6
CONTINUOUS
 10
1.306915429
 20
16.8829036606
 11
-0.3716226415
 21
17.7221726958
  0
LINE
  5
4AD
100
AcDbEntity
  8
0
100
AcDbLine
 62
250
  6
CONTINUOUS
 10
-10.9967425637
 20
23.0347326569
 11
-12.6752806341
 21
23.8740016921
  0
LINE
  5
4AE
100
AcDbEntity
  8
0
100
AcDbLine
 62
7
  6
CONTINUOUS
 10
-8.2932785133
 20
21.7851325743
 11
-7.6338686389
 21
21.4554276372
  0
LINE
  5
4AF
100
AcDbEntity
  8
0
100
AcDbLine
 62
7
  6
CONTINUOUS
 10
-2.6717795158
 20
18.9743830756
 11
-2.0123696414
 21
18.6446781384
  0
LINE
  5
4B0
100
AcDbEntity
  8
0
100
AcDbLine
 62
7
  6
CONTINUOUS
 10
-3.6539111692
 20
19.8463382822
 11
-4.1025847813
 21
20.0706750883
  0
LINE
  5
4B1
100
AcDbEntity
  8
0
100
AcDbLine
 62
7
  6
CONTINUOUS
 10
4.1394637552
 20
15.9534069412
 11
3.0849699235
 21
16.4806538571
  0
LINE
  5
4B2
100
AcDbEntity
  8
0
100
AcDbLine
 62
7
  6
CONTINUOUS
 10
-8.5156951149
 20
22.2809863763
 11
-9.2186880692
 21
22.6324828534
  0
LINE
  5
4B3
100
AcDbEntity
  8
0
100
AcDbLine
 62
7
  6
CONTINUOUS
 10
-4.1033650659
 20
20.1807487387
 11
-3.6539111692
 21
19.9560217904
  0
LINE
  5
4B4
100
AcDbEntity
  8
0
100
AcDbLine
 62
250
  6
CONTINUOUS
 10
-2.1403334508
 20
19.2486048784
 11
-3.5953325254
 21
19.9761044157
  0
LINE
  5
4B5
100
AcDbEntity
  8
0
100
AcDbLine
 62
250
  6
CONTINUOUS
 10
-5.2961020669
 20
20.8264891865
 11
-6.9205910303
 21
21.6387336682
  0
LINE
  5
4B6
100
AcDbEntity
  8
0
100
AcDbLine
 62
250
  6
CONTINUOUS
 10
-1.8314719427
 20
19.4079748787
 11
-3.4547339207
 21
20.2196058677
  0
LINE
  5
4B7
100
AcDbEntity
  8
0
100
AcDbLine
 62
250
  6
CONTINUOUS
 10
-5.1555034621
 20
21.0699906384
 11
-6.7787654401
 21
21.8816216274
  0
LINE
  5
4B8
100
AcDbEntity
  8
0
100
AcDbLine
 62
7
  6
CONTINUOUS
 10
-7.2387890819
 20
22.326105613
 11
-4.9406902481
 21
21.1770561961
  0
LINE
  5
4B9
100
AcDbEntity
  8
0
100
AcDbLine
 62
7
  6
CONTINUOUS
 10
-3.2436375631
 20
20.3285298536
 11
-0.9455387293
 21
19.1794804367
  0
LWPOLYLINE
  5
4BA
100
AcDbEntity
  8
0
100
AcDbPolyline
 62
250
  6
CONTINUOUS
 90
16
 70
0
 10
-12.8510288901
 20
23.229650943
 10
-12.859208259
 20
23.2339392694
 10
-12.8669724959
 20
23.2384169233
 10
-12.8743040593
 20
23.2430738795
 10
-12.8811865309
 20
23.2478998215
 10
-12.8876041608
 20
23.2528838255
 10
-12.8935420144
 20
23.2580143479
 10
-12.8989866127
 20
23.2632797221
 10
-12.903925863
 20
23.2686682311
 10
-12.9083486679
 20
23.2741677701
 10
-12.9122450846
 20
23.2797659828
 10
-12.9156063401
 20
23.2854502721
 10
-12.9184248653
 20
23.29120784
 10
-12.920694321
 20
23.2970257329
 10
-12.9224096084
 20
23.3028908746
 10
-12.9235668722
 20
23.3087900796
  0
LWPOLYLINE
  5
4BB
100
AcDbEntity
  8
0
100
AcDbPolyline
 62
250
  6
CONTINUOUS
 90
16
 70
0
 10
-0.5473708974
 20
17.0778219467
 10
-0.5555529651
 20
17.0821117569
 10
-0.5633190794
 20
17.0865906962
 10
-0.5706517752
 20
17.0912486918
 10
-0.5775345541
 20
17.0960752626
 10
-0.5839519464
 20
17.1010595596
 10
-0.58988954
 20
17.1061903918
 10
-0.5953339888
 20
17.1114562345
 10
-0.6002730289
 20
17.1168452345
 10
-0.6046955327
 20
17.1223452541
 10
-0.60859155
 20
17.1279439175
 10
-0.6119523243
 20
17.1336286398
 10
-0.6147702974
 20
17.1393866363
 10
-0.6170391316
 20
17.1452049574
 10
-0.6187537248
 20
17.1510705181
 10
-0.619910221
 20
17.1569701273
  0
LWPOLYLINE
  5
4BC
100
AcDbEntity
  8
0
100
AcDbPolyline
 62
250
  6
CONTINUOUS
 90
18
 70
0
 10
-12.8510288901
 20
23.5696248772
 10
-12.8592114875
 20
23.5739149786
 10
-12.8669780861
 20
23.5783942403
 10
-12.8743112156
 20
23.5830525882
 10
-12.8811943844
 20
23.5878795486
 10
-12.8876121039
 20
23.5928642625
 10
-12.8935499263
 20
23.5979955088
 10
-12.898994494
 20
23.6032617433
 10
-12.903933565
 20
23.6086511235
 10
-12.9083560294
 20
23.6141515257
 10
-12.9122519421
 20
23.619750579
 10
-12.9156125407
 20
23.6254356889
 10
-12.9184302658
 20
23.6311940636
 10
-12.9206987819
 20
23.6370127503
 10
-12.9224129896
 20
23.6428786622
 10
-12.9235690356
 20
23.6487786038
 10
-12.924164323
 20
23.6546993079
 10
-12.9242521948
 20
23.6580132248
  0
LWPOLYLINE
  5
4BD
100
AcDbEntity
  8
0
100
AcDbPolyline
 62
250
  6
CONTINUOUS
 90
18
 70
0
 10
-0.5473708974
 20
17.4177958808
 10
-0.5555534948
 20
17.4220859823
 10
-0.5633200935
 20
17.4265652439
 10
-0.570653223
 20
17.4312235918
 10
-0.5775363917
 20
17.4360505523
 10
-0.5839541112
 20
17.4410352661
 10
-0.5898919337
 20
17.4461665125
 10
-0.5953365014
 20
17.4514327469
 10
-0.6002755723
 20
17.4568221271
 10
-0.6046980368
 20
17.4623225294
 10
-0.6085939495
 20
17.4679215827
 10
-0.6119545481
 20
17.4736066925
 10
-0.6147722732
 20
17.4793650673
 10
-0.6170407892
 20
17.485183754
 10
-0.6187549969
 20
17.4910496659
 10
-0.6199110429
 20
17.4969496075
 10
-0.6205063303
 20
17.5028703115
 10
-0.6205942021
 20
17.5061842285
  0
LWPOLYLINE
  5
4BE
100
AcDbEntity
  8
0
100
AcDbPolyline
 62
250
  6
CONTINUOUS
 90
16
 70
0
 10
-3.5953325254
 20
19.9761044157
 10
-3.6025011996
 20
19.9798804188
 10
-3.6092671104
 20
19.9838378529
 10
-3.6156119186
 20
19.9879659909
 10
-3.621518426
 20
19.9922536435
 10
-3.6269706227
 20
19.9966891885
 10
-3.6319537301
 20
20.0012606031
 10
-3.6364542412
 20
20.0059554963
 10
-3.6404599571
 20
20.0107611421
 10
-3.6439600199
 20
20.0156645146
 10
-3.6469449425
 20
20.0206523228
 10
-3.6494066342
 20
20.025711047
 10
-3.6513384222
 20
20.0308269751
 10
-3.6527350704
 20
20.03598624
 10
-3.6535927931
 20
20.0411748574
 10
-3.6539111692
 20
20.0468150938
  0
LWPOLYLINE
  5
4BF
100
AcDbEntity
  8
0
100
AcDbPolyline
 62
7
  6
CONTINUOUS
 90
37
 70
0
 10
-4.9406902481
 20
21.1770561961
 10
-4.9345215361
 20
21.1738071636
 10
-4.9283647513
 20
21.1702345454
 10
-4.9222315136
 20
21.1663451874
 10
-4.9161333137
 20
21.1621465805
 10
-4.9100817557
 20
21.1576467154
 10
-4.9040885345
 20
21.1528540679
 10
-4.898164986
 20
21.147777793
 10
-4.8923222937
 20
21.1424275966
 10
-4.8865717324
 20
21.1368135867
 10
-4.8809241902
 20
21.1309464755
 10
-4.8753903376
 20
21.1248374691
 10
-4.8699808354
 20
21.1184981347
 10
-4.8647059378
 20
21.1119405587
 10
-4.8595756193
 20
21.1051772555
 10
-4.8545997439
 20
21.0982210539
 10
-4.8497877564
 20
21.0910852076
 10
-4.8451487643
 20
21.0837833249
 10
-4.8406916657
 20
21.0763292769
 10
-4.836424934
 20
21.0687372573
 10
-4.8323566536
 20
21.0610217356
 10
-4.8284946041
 20
21.0531973868
 10
-4.8248461421
 20
21.0452791019
 10
-4.8214181909
 20
21.0372819639
 10
-4.8182172778
 20
21.0292211999
 10
-4.8152495168
 20
21.0211121432
 10
-4.8125205512
 20
21.0129702316
 10
-4.8100355445
 20
21.0048109836
 10
-4.8077992634
 20
20.9966499117
 10
-4.8058159747
 20
20.9885025445
 10
-4.8040893895
 20
20.9803844253
 10
-4.802622846
 20
20.9723109807
 10
-4.8014191614
 20
20.964297564
 10
-4.8004805316
 20
20.9563594769
 10
-4.7998087468
 20
20.948511827
 10
-4.7994051889
 20
20.9407694985
 10
-4.7992706868
 20
20.933147197
  0
LWPOLYLINE
  5
4C0
100
AcDbEntity
  8
0
100
AcDbPolyline
 62
7
  6
CONTINUOUS
 90
34
 70
0
 10
-9.3954617729
 20
23.8374546604
 10
-9.3870506974
 20
23.833003746
 10
-9.3786584798
 20
23.8280725756
 10
-9.3703042321
 20
23.822672266
 10
-9.3620070581
 20
23.8168149573
 10
-9.3537857598
 20
23.8105139125
 10
-9.345658794
 20
23.8037834874
 10
-9.3376446286
 20
23.7966388966
 10
-9.3297615092
 20
23.7890962773
 10
-9.322027167
 20
23.7811727803
 10
-9.3144591595
 20
23.7728863342
 10
-9.3070747025
 20
23.7642556728
 10
-9.29989044
 20
23.7553003932
 10
-9.2929226613
 20
23.7460407727
 10
-9.2861872021
 20
23.7364977607
 10
-9.2796992794
 20
23.7266930009
 10
-9.2734735828
 20
23.7166487069
 10
-9.2675242448
 20
23.7063876168
 10
-9.2618647454
 20
23.6959329799
 10
-9.2565078751
 20
23.6853084935
 10
-9.2514657754
 20
23.6745382212
 10
-9.2467499142
 20
23.6636465439
 10
-9.2423709224
 20
23.6526581599
 10
-9.2383387035
 20
23.6415979681
 10
-9.2346624796
 20
23.6304909837
 10
-9.2313505053
 20
23.6193624029
 10
-9.2284102444
 20
23.6082374528
 10
-9.2258484858
 20
23.5971412729
 10
-9.2236709399
 20
23.5860990443
 10
-9.221882479
 20
23.5751358081
 10
-9.2204873207
 20
23.5642763164
 10
-9.219488617
 20
23.5535451711
 10
-9.2188884481
 20
23.5429667688
 10
-9.2186880692
 20
23.5325651216
  0
LWPOLYLINE
  5
4C1
100
AcDbEntity
  8
0
100
AcDbPolyline
 62
250
  6
CONTINUOUS
 90
34
 70
0
 10
-10.9967425637
 20
23.0347326569
 10
-10.9883792809
 20
23.0302576857
 10
-10.9800326131
 20
23.0253035891
 10
-10.9717214675
 20
23.0198815891
 10
-10.9634646706
 20
23.0140039679
 10
-10.955280926
 20
23.0076840395
 10
-10.9471887716
 20
23.00093612
 10
-10.9392065381
 20
22.993775495
 10
-10.9313523068
 20
22.9862183849
 10
-10.9236438695
 20
22.9782819082
 10
-10.9160986875
 20
22.9699840429
 10
-10.9087338522
 20
22.9613435853
 10
-10.9015660468
 20
22.9523801082
 10
-10.8946115079
 20
22.9431139158
 10
-10.887885989
 20
22.9335659982
 10
-10.881404725
 20
22.9237579834
 10
-10.8751823974
 20
22.9137120888
 10
-10.8692331012
 20
22.9034510706
 10
-10.8635703129
 20
22.8929981724
 10
-10.8582068598
 20
22.8823770723
 10
-10.8531548916
 20
22.8716118295
 10
-10.8484258519
 20
22.8607268296
 10
-10.8440304532
 20
22.8497467296
 10
-10.8399786519
 20
22.8386964019
 10
-10.8362796264
 20
22.827600878
 10
-10.8329417558
 20
22.8164852917
 10
-10.829972601
 20
22.8053748224
 10
-10.8273788879
 20
22.7942946376
 10
-10.8251664919
 20
22.7832698365
 10
-10.8233404244
 20
22.7723253928
 10
-10.821904822
 20
22.7614860981
 10
-10.8208629366
 20
22.7507765058
 10
-10.8202171283
 20
22.7402208755
 10
-10.81996886
 20
22.7298431181
  0
LWPOLYLINE
  5
4C2
100
AcDbEntity
  8
0
100
AcDbPolyline
 62
250
  6
CONTINUOUS
 90
34
 70
0
 10
1.306915429
 20
16.8829036606
 10
1.3152649644
 20
16.8784364461
 10
1.3236015459
 20
16.8734894366
 10
1.3319063016
 20
16.8680732025
 10
1.3401615678
 20
16.8621985269
 10
1.3483473786
 20
16.8558788763
 10
1.3564416262
 20
16.8491309975
 10
1.3644247848
 20
16.8419712815
 10
1.3722799841
 20
16.8344149734
 10
1.3799895701
 20
16.8264790408
 10
1.3875361671
 20
16.8181813296
 10
1.3949025629
 20
16.8095407242
 10
1.4020719047
 20
16.8005769794
 10
1.4090278864
 20
16.7913104956
 10
1.4157548167
 20
16.781762189
 10
1.4222374975
 20
16.7719536315
 10
1.4284612547
 20
16.7619070161
 10
1.4344119652
 20
16.7516451306
 10
1.4400761328
 20
16.7411912438
 10
1.4454409191
 20
16.7305690466
 10
1.4504941699
 20
16.719802601
 10
1.4552244319
 20
16.7089163048
 10
1.4596209865
 20
16.6979348224
 10
1.4636738693
 20
16.6868830375
 10
1.467373893
 20
16.675786
 10
1.4707126724
 20
16.6646688559
 10
1.4736826421
 20
16.6535567934
 10
1.476277071
 20
16.6424749945
 10
1.4784900809
 20
16.6314485639
 10
1.4803166556
 20
16.6205024913
 10
1.4817526537
 20
16.6096615981
 10
1.4827948224
 20
16.5989504538
 10
1.4834408027
 20
16.5883933216
 10
1.4836891326
 20
16.5780141218
  0
LWPOLYLINE
  5
4C3
100
AcDbEntity
  8
0
100
AcDbPolyline
 62
7
  6
CONTINUOUS
 90
40
 70
0
 10
3.4387924387
 20
15.6016742067
 10
3.4527586909
 20
15.5941605286
 10
3.4667365098
 20
15.5859623329
 10
3.4807035257
 20
15.5770901455
 10
3.4946430363
 20
15.5675523965
 10
3.5085265176
 20
15.5573647182
 10
3.5223139234
 20
15.5465522217
 10
3.5359747441
 20
15.5351386139
 10
3.5494949529
 20
15.5231359717
 10
3.5628594113
 20
15.5105544315
 10
3.5760552751
 20
15.4974031282
 10
3.5890508615
 20
15.4837110209
 10
3.6018037089
 20
15.4695207391
 10
3.6142815163
 20
15.4548703336
 10
3.6264765685
 20
15.4397712192
 10
3.638383895
 20
15.4242277358
 10
3.6499935995
 20
15.4082496943
 10
3.6612751391
 20
15.3918759663
 10
3.6721935044
 20
15.3751554017
 10
3.6827211948
 20
15.3581327018
 10
3.6928523999
 20
15.3408196284
 10
3.7025852084
 20
15.3232164107
 10
3.7119118666
 20
15.3053325277
 10
3.7208054469
 20
15.287213967
 10
3.7292362775
 20
15.2689160578
 10
3.737184137
 20
15.2504859865
 10
3.7446441192
 20
15.2319364602
 10
3.7516107834
 20
15.2132717248
 10
3.7580776286
 20
15.1945051199
 10
3.7640252662
 20
15.1756829608
 10
3.7694303178
 20
15.1568589196
 10
3.774283449
 20
15.1380746399
 10
3.7785786446
 20
15.1193484114
 10
3.7823004324
 20
15.100698722
 10
3.7854467391
 20
15.0821586736
 10
3.7880081252
 20
15.0637537882
 10
3.7899580713
 20
15.0454910864
 10
3.791284717
 20
15.0273921513
 10
3.7919918024
 20
15.0094928037
 10
3.7920767046
 20
14.9918211801
  0
LWPOLYLINE
  5
4C4
100
AcDbEntity
  8
0
100
AcDbPolyline
 62
250
  6
CONTINUOUS
 90
34
 70
0
 10
-5.1555034621
 20
21.0699906384
 10
-5.1488316756
 20
21.0664003103
 10
-5.1421731331
 20
21.0624265991
 10
-5.1355429219
 20
21.0580785072
 10
-5.1289560611
 20
21.0533658822
 10
-5.1224274797
 20
21.0482994031
 10
-5.1159719821
 20
21.0428905585
 10
-5.1096041986
 20
21.0371516073
 10
-5.1033385541
 20
21.0310955509
 10
-5.0971892469
 20
21.0247361135
 10
-5.091170209
 20
21.0180877038
 10
-5.0852950793
 20
21.0111653879
 10
-5.0795771743
 20
21.0039848571
 10
-5.0740294504
 20
20.9965623844
 10
-5.0686644754
 20
20.988914787
 10
-5.0634944048
 20
20.9810593946
 10
-5.0585309484
 20
20.9730140011
 10
-5.0537853552
 20
20.9647968421
 10
-5.0492683863
 20
20.9564265554
 10
-5.0449902853
 20
20.9479221323
 10
-5.0409607291
 20
20.9393028194
 10
-5.0371888214
 20
20.9305880907
 10
-5.0336830805
 20
20.9217976129
 10
-5.0304514862
 20
20.9129513794
 10
-5.0275014192
 20
20.9040696125
 10
-5.0248395802
 20
20.8951725494
 10
-5.0224719456
 20
20.8862802354
 10
-5.0204038292
 20
20.8774126573
 10
-5.0186396671
 20
20.8685885421
 10
-5.0171838014
 20
20.8598292635
 10
-5.016039973
 20
20.8511585269
 10
-5.0152104531
 20
20.8425971061
 10
-5.0146965021
 20
20.8341629109
 10
-5.0144988578
 20
20.8258748197
  0
LWPOLYLINE
  5
4C5
100
AcDbEntity
  8
0
100
AcDbPolyline
 62
7
  6
CONTINUOUS
 90
10
 70
0
 10
-8.7564196416
 20
24.1074833716
 10
-8.7281135458
 20
24.0909244239
 10
-8.7018064406
 20
24.0704380206
 10
-8.6781914459
 20
24.046320389
 10
-8.6579294428
 20
24.0190675103
 10
-8.6415004587
 20
23.98921807
 10
-8.629223953
 20
23.9572212138
 10
-8.6213725308
 20
23.9234335774
 10
-8.6182730113
 20
23.8888748639
 10
-8.6182230454
 20
23.8839015904
  0
LINE
  5
4C6
100
AcDbEntity
  8
0
100
AcDbLine
 62
250
  6
CONTINUOUS
 10
2.1949097407
 20
-24.2100674746
 11
1.4836891326
 21
-25.0615639517
  0
LINE
  5
4C7
100
AcDbEntity
  8
0
100
AcDbLine
 62
7
  6
CONTINUOUS
 10
4.4930126584
 20
-19.794556262
 11
5.1939486122
 21
-19.2865565243
  0
LINE
  5
4C8
100
AcDbEntity
  8
RACCORDO
100
AcDbLine
 62
7
  6
CONTINUOUS
 10
4.7921397914
 20
-19.5884535931
 11
4.4930126584
 21
-19.8052444486
  0
LWPOLYLINE
  5
4C9
100
AcDbEntity
  8
0
100
AcDbPolyline
 62
7
  6
CONTINUOUS
 90
10
 70
0
 10
4.4232276044
 20
-18.2298853732
 10
4.5077213271
 20
-18.1831701446
 10
4.5925014385
 20
-18.1364612579
 10
4.6775732666
 20
-18.0897604706
 10
4.7629463647
 20
-18.0430870246
 10
4.8486214261
 20
-17.996424573
 10
4.9345886608
 20
-17.9497209827
 10
5.0208461284
 20
-17.9029593027
 10
5.1074013629
 20
-17.8561579886
 10
5.1942571536
 20
-17.8093176667
  0
LWPOLYLINE
  5
4CA
100
AcDbEntity
  8
RACCORDO
100
AcDbPolyline
 62
250
  6
CONTINUOUS
 90
29
 70
0
 10
13.0692508804
 20
-14.4289395516
 10
13.0879120189
 20
-14.4190102087
 10
13.1060251139
 20
-14.4088303107
 10
13.1235767144
 20
-14.3984074175
 10
13.1405537866
 20
-14.387749269
 10
13.1569437231
 20
-14.3768637801
 10
13.1727343528
 20
-14.3657590343
 10
13.1879139494
 20
-14.3544432782
 10
13.2024712404
 20
-14.3429249149
 10
13.2163954156
 20
-14.331212498
 10
13.2296761347
 20
-14.3193147251
 10
13.2423035355
 20
-14.3072404317
 10
13.2542682408
 20
-14.2949985842
 10
13.2655613654
 20
-14.2825982733
 10
13.2761745231
 20
-14.2700487078
 10
13.2860998325
 20
-14.2573592069
 10
13.295329923
 20
-14.244539194
 10
13.3038579402
 20
-14.2315981892
 10
13.3116775513
 20
-14.2185458027
 10
13.3187829493
 20
-14.2053917271
 10
13.3251688577
 20
-14.1921457308
 10
13.3308305344
 20
-14.1788176504
 10
13.3357637748
 20
-14.1654173832
 10
13.3399649156
 20
-14.1519548806
 10
13.343430837
 20
-14.1384401397
 10
13.3461589652
 20
-14.1248831967
 10
13.3481472742
 20
-14.111294119
 10
13.3493942876
 20
-14.0976829981
 10
13.3498990792
 20
-14.0840599415
  0
LINE
  5
4CB
100
AcDbEntity
  8
RACCORDO
100
AcDbLine
 62
250
  6
CONTINUOUS
 10
5.206290267
 20
-18.5709704941
 11
13.0692508804
 21
-14.4289395516
  0
LWPOLYLINE
  5
4CC
100
AcDbEntity
  8
0
100
AcDbPolyline
 62
7
  6
CONTINUOUS
 90
10
 70
0
 10
5.1942571536
 20
-18.6767885706
 10
5.1074013629
 20
-18.7183235828
 10
5.0208461284
 20
-18.7596033911
 10
4.9345886608
 20
-18.8006258326
 10
4.8486214261
 20
-18.8414030716
 10
4.7629463647
 20
-18.8819188548
 10
4.6775732666
 20
-18.92212711
 10
4.5925014385
 20
-18.9620095542
 10
4.5077213271
 20
-19.0015771188
 10
4.4232276044
 20
-19.0408262335
  0
LWPOLYLINE
  5
4CD
100
AcDbEntity
  8
0
100
AcDbPolyline
 62
7
  6
CONTINUOUS
 90
10
 70
0
 10
-11.0468123535
 20
22.2340480232
 10
-11.0543904462
 20
22.2357536128
 10
-11.0619276886
 20
22.2376981428
 10
-11.069413338
 20
22.2398802684
 10
-11.0768626322
 20
22.2423068976
 10
-11.0842371457
 20
22.244967615
 10
-11.0914508737
 20
22.2478276764
 10
-11.0984743514
 20
22.2508660308
 10
-11.1053285723
 20
22.2540823105
 10
-11.1075254623
 20
22.2551674277
  0
LWPOLYLINE
  5
4CE
100
AcDbEntity
  8
0
100
AcDbPolyline
 62
7
  6
CONTINUOUS
 90
3
 70
0
 10
1.7875028592
 20
18.8237707497
 10
1.8182549038
 20
18.8163772509
 10
1.8479460489
 20
18.8051061469
  0
LWPOLYLINE
  5
4CF
100
AcDbEntity
  8
0
100
AcDbPolyline
 62
7
  6
CONTINUOUS
 90
6
 70
0
 10
-10.4472991927
 20
24.9529231471
 10
-10.4754929049
 20
24.9649197857
 10
-10.5053766539
 20
24.9734745706
 10
-10.5364426646
 20
24.9782872869
 10
-10.568240758
 20
24.9791492219
 10
-10.6000269245
 20
24.9759439924
  0
LWPOLYLINE
  5
4D0
100
AcDbEntity
  8
RACCORDO
100
AcDbPolyline
 62
7
  6
CONTINUOUS
 90
21
 70
0
 10
-1.2653955535
 20
21.8801611121
 10
-1.2772325979
 20
21.8856351433
 10
-1.28900349
 20
21.8906531714
 10
-1.3006956801
 20
21.8952094827
 10
-1.3122958214
 20
21.8992989976
 10
-1.3237922313
 20
21.9029170033
 10
-1.3351748903
 20
21.9060590085
 10
-1.3464311404
 20
21.9087214127
 10
-1.3575488742
 20
21.910901002
 10
-1.3685189557
 20
21.9125944028
 10
-1.3793290303
 20
21.9137995615
 10
-1.3899671261
 20
21.9145147353
 10
-1.4004247754
 20
21.9147375906
 10
-1.4106895485
 20
21.9144676775
 10
-1.420750203
 20
21.913704845
 10
-1.4306001579
 20
21.9124477275
 10
-1.4402282186
 20
21.9106972396
 10
-1.4496226314
 20
21.9084547454
 10
-1.4587762053
 20
21.9057203249
 10
-1.4676760628
 20
21.9024975112
 10
-1.475986698
 20
21.8989403398
  0
LWPOLYLINE
  5
4D1
100
AcDbEntity
  8
0
100
AcDbPolyline
 62
7
  6
CONTINUOUS
 90
17
 70
0
 10
-3.2436375631
 20
20.3285298536
 10
-3.2498059605
 20
20.3314493758
 10
-3.2559628105
 20
20.334033575
 10
-3.2620962976
 20
20.3362775794
 10
-3.268194568
 20
20.3381772076
 10
-3.2742460101
 20
20.3397288427
 10
-3.2802392766
 20
20.3409294389
 10
-3.2861628893
 20
20.3417767447
 10
-3.2920054817
 20
20.3422691906
 10
-3.2977560788
 20
20.3424057599
 10
-3.3034036775
 20
20.3421862192
 10
-3.308937448
 20
20.3416110243
 10
-3.3143469758
 20
20.3406812049
 10
-3.3196219213
 20
20.3393985505
 10
-3.324752177
 20
20.3377655343
 10
-3.3297280673
 20
20.3357852156
 10
-3.3322296797
 20
20.3346299284
  0
LINE
  5
4D2
100
AcDbEntity
  8
0
100
AcDbLine
 62
7
  6
CONTINUOUS
 10
1.8479460489
 20
18.8051061469
 11
1.8565186579
 21
18.8010140312
  0
LWPOLYLINE
  5
4D3
100
AcDbEntity
  8
0
100
AcDbPolyline
 62
250
  6
CONTINUOUS
 90
16
 70
0
 10
1.8563587999
 20
18.8010941508
 10
1.854279123
 20
18.8021021441
 10
1.8475843898
 20
18.8049351906
 10
1.8406579136
 20
18.8072566894
 10
1.8335152031
 20
18.8090614294
 10
1.8261723856
 20
18.8103453227
 10
1.818646139
 20
18.8111054664
 10
1.8109535047
 20
18.8113401807
 10
1.8031116921
 20
18.811048981
 10
1.7951381932
 20
18.8102325312
 10
1.7870497157
 20
18.8088924268
 10
1.7788656444
 20
18.8070317654
 10
1.7706079736
 20
18.8046558706
 10
1.762296553
 20
18.8017711999
 10
1.7539489206
 20
18.7983845816
 10
1.7455838404
 20
18.7945042597
  0
LWPOLYLINE
  5
4D4
100
AcDbEntity
  8
0
100
AcDbPolyline
 62
250
  6
CONTINUOUS
 90
16
 70
0
 10
3.5472383511
 20
17.9556543752
 10
3.5451758907
 20
17.9566542822
 10
3.5384825826
 20
17.9594883584
 10
3.5315575641
 20
17.9618110167
 10
3.5244164066
 20
17.9636170345
 10
3.5170751676
 20
17.9649023509
 10
3.5095503544
 20
17.9656640757
 10
3.5018588872
 20
17.9659004962
 10
3.4940180606
 20
17.9656110806
 10
3.4860455056
 20
17.9647964798
 10
3.4779591488
 20
17.9634585256
 10
3.4697771732
 20
17.9616002262
 10
3.4615179765
 20
17.9592257604
 10
3.4532001301
 20
17.9563404672
 10
3.4448423374
 20
17.9529508345
 10
3.4364633915
 20
17.9490644841
  0
LWPOLYLINE
  5
4D5
100
AcDbEntity
  8
0
100
AcDbPolyline
 62
250
  6
CONTINUOUS
 90
16
 70
0
 10
-8.7564196416
 20
24.1074833716
 10
-8.758482102
 20
24.1084832785
 10
-8.7651754101
 20
24.1113173547
 10
-8.7721004286
 20
24.113640013
 10
-8.779241586
 20
24.1154460309
 10
-8.786582825
 20
24.1167313472
 10
-8.7941076382
 20
24.1174930721
 10
-8.8017991055
 20
24.1177294925
 10
-8.809639932
 20
24.1174400769
 10
-8.8176124871
 20
24.1166254762
 10
-8.8256988438
 20
24.1152875219
 10
-8.8338808194
 20
24.1134292226
 10
-8.8421400161
 20
24.1110547567
 10
-8.8504578625
 20
24.1081694636
 10
-8.8588156552
 20
24.1047798309
 10
-8.8671946011
 20
24.1008934805
  0
LWPOLYLINE
  5
4D6
100
AcDbEntity
  8
0
100
AcDbPolyline
 62
250
  6
CONTINUOUS
 90
3
 70
0
 10
-10.4472991927
 20
24.9529231471
 10
-10.4493616531
 20
24.9539230541
 10
-10.4560549612
 20
24.9567571303
  0
LINE
  5
4D7
100
AcDbEntity
  8
0
100
AcDbLine
 62
7
  6
CONTINUOUS
 10
2.9081962198
 20
17.6856256641
 11
1.2111339617
 21
18.5341567931
  0
LINE
  5
4D8
100
AcDbEntity
  8
0
100
AcDbLine
 62
7
  6
CONTINUOUS
 10
-9.3954617729
 20
23.8374546604
 11
-11.0925240309
 21
24.6859857895
  0
LINE
  5
4D9
100
AcDbEntity
  8
0
100
AcDbLine
 62
7
  6
CONTINUOUS
 10
-5.8987367071
 20
22.3440909762
 11
-4.2537884627
 21
21.5216168541
  0
LINE
  5
4DA
100
AcDbEntity
  8
0
100
AcDbLine
 62
7
  6
CONTINUOUS
 10
-2.5446412281
 20
20.6670432367
 11
-0.8996929837
 21
19.8445691145
  0
LINE
  5
4DB
100
AcDbEntity
  8
0
100
AcDbLine
 62
250
  6
CONTINUOUS
 10
-10.5580741523
 20
24.946333256
 11
-8.8671946011
 21
24.1008934805
  0
LINE
  5
4DC
100
AcDbEntity
  8
0
100
AcDbLine
 62
250
  6
CONTINUOUS
 10
1.7455838404
 20
18.7945042597
 11
3.4364633915
 21
17.9490644841
  0
LINE
  5
4DD
100
AcDbEntity
  8
0
100
AcDbLine
 62
7
  6
CONTINUOUS
 10
-10.4472991927
 20
24.9529231471
 11
-8.7564196416
 21
24.1074833716
  0
LINE
  5
4DE
100
AcDbEntity
  8
0
100
AcDbLine
 62
7
  6
CONTINUOUS
 10
1.8563587999
 20
18.8010941508
 11
3.5472383511
 21
17.9556543752
  0
LINE
  5
4DF
100
AcDbEntity
  8
RACCORDO
100
AcDbLine
 62
7
  6
CONTINUOUS
 10
-1.2637906287
 20
21.8793745864
 11
0.9662652173
 21
20.7643466634
  0
LWPOLYLINE
  5
4E0
100
AcDbEntity
  8
0
100
AcDbPolyline
 62
250
  6
CONTINUOUS
 90
34
 70
0
 10
-8.8671946011
 20
24.1008934805
 10
-8.8587496837
 20
24.0964739569
 10
-8.8503225417
 20
24.0915722277
 10
-8.8419322581
 20
24.0861987575
 10
-8.8335966854
 20
24.0803642351
 10
-8.8253359912
 20
24.0740820263
 10
-8.8171724882
 20
24.0673687752
 10
-8.8091258684
 20
24.0602407898
 10
-8.8012131352
 20
24.0527132487
 10
-8.7934520717
 20
24.0448030547
 10
-8.7858601704
 20
24.0365279957
 10
-8.7784547471
 20
24.0279069042
 10
-8.7712527438
 20
24.0189594901
 10
-8.764270541
 20
24.0097061168
 10
-8.757523889
 20
24.0001676711
 10
-8.7510280303
 20
23.9903657025
 10
-8.7447976691
 20
23.9803223891
 10
-8.7388469435
 20
23.9700605112
 10
-8.7331893498
 20
23.9596033374
 10
-8.7278377115
 20
23.9489745662
 10
-8.7228041532
 20
23.9381982744
 10
-8.7181000834
 20
23.9272988821
 10
-8.7137361615
 20
23.9163010833
 10
-8.7097222779
 20
23.9052297988
 10
-8.7060675317
 20
23.8941101226
 10
-8.7027802053
 20
23.882967252
 10
-8.6998677476
 20
23.8718264335
 10
-8.6973367595
 20
23.8607129141
 10
-8.6951929754
 20
23.8496518706
 10
-8.6934412546
 20
23.8386683712
 10
-8.6920855688
 20
23.8277873218
 10
-8.6911289887
 20
23.8170333832
 10
-8.6905736793
 20
23.8064309155
 10
-8.6904208974
 20
23.7960039416
  0
LWPOLYLINE
  5
4E1
100
AcDbEntity
  8
0
100
AcDbPolyline
 62
250
  6
CONTINUOUS
 90
34
 70
0
 10
3.4364633915
 20
17.9490644841
 10
3.444908309
 20
17.9446449606
 10
3.4533354509
 20
17.9397432314
 10
3.4617257346
 20
17.9343697612
 10
3.4700613072
 20
17.9285352388
 10
3.4783220015
 20
17.92225303
 10
3.4864855044
 20
17.9155397789
 10
3.4945321243
 20
17.9084117935
 10
3.5024448575
 20
17.9008842524
 10
3.5102059209
 20
17.8929740584
 10
3.5177978222
 20
17.8846989994
 10
3.5252032456
 20
17.8760779078
 10
3.5324052489
 20
17.8671304937
 10
3.5393874516
 20
17.8578771205
 10
3.5461341037
 20
17.8483386748
 10
3.5526299623
 20
17.8385367062
 10
3.5588603235
 20
17.8284933927
 10
3.5648110492
 20
17.8182315148
 10
3.5704686428
 20
17.807774341
 10
3.5758202811
 20
17.7971455698
 10
3.5808538394
 20
17.7863692781
 10
3.5855579093
 20
17.7754698857
 10
3.5899218312
 20
17.764472087
 10
3.5939357148
 20
17.7534008025
 10
3.597590461
 20
17.7422811263
 10
3.6008777873
 20
17.7311382557
 10
3.603790245
 20
17.7199974371
 10
3.6063212331
 20
17.7088839178
 10
3.6084650173
 20
17.6978228743
 10
3.6102167381
 20
17.6868393748
 10
3.6115724239
 20
17.6759583254
 10
3.612529004
 20
17.6652043868
 10
3.6130843133
 20
17.6546019191
 10
3.6132370952
 20
17.6441749453
  0
LWPOLYLINE
  5
4E2
100
AcDbEntity
  8
0
100
AcDbPolyline
 62
7
  6
CONTINUOUS
 90
34
 70
0
 10
2.9081962198
 20
17.6856256641
 10
2.9166072952
 20
17.6811747497
 10
2.9249995128
 20
17.6762435793
 10
2.9333537606
 20
17.6708432697
 10
2.9416509345
 20
17.664985961
 10
2.9498722329
 20
17.6586849162
 10
2.9579991987
 20
17.6519544911
 10
2.9660133641
 20
17.6448099003
 10
2.9738964834
 20
17.6372672809
 10
2.9816308256
 20
17.629343784
 10
2.9891988332
 20
17.6210573378
 10
2.9965832901
 20
17.6124266765
 10
3.0037675527
 20
17.6034713968
 10
3.0107353313
 20
17.5942117763
 10
3.0174707905
 20
17.5846687644
 10
3.0239587132
 20
17.5748640046
 10
3.0301844099
 20
17.5648197106
 10
3.0361337478
 20
17.5545586205
 10
3.0417932472
 20
17.5441039836
 10
3.0471501176
 20
17.5334794972
 10
3.0521922173
 20
17.5227092249
 10
3.0569080784
 20
17.5118175476
 10
3.0612870702
 20
17.5008291636
 10
3.0653192891
 20
17.4897689718
 10
3.0689955131
 20
17.4786619873
 10
3.0723074874
 20
17.4675334066
 10
3.0752477482
 20
17.4564084564
 10
3.0778095068
 20
17.4453122766
 10
3.0799870528
 20
17.4342700479
 10
3.0817755137
 20
17.4233068118
 10
3.083170672
 20
17.4124473201
 10
3.0841693756
 20
17.4017161748
 10
3.0847695446
 20
17.3911377725
 10
3.0849699235
 20
17.3807361253
  0
LWPOLYLINE
  5
4E3
100
AcDbEntity
  8
0
100
AcDbPolyline
 62
7
  6
CONTINUOUS
 90
10
 70
0
 10
3.5472383511
 20
17.9556543752
 10
3.5755444468
 20
17.9390954276
 10
3.6018515521
 20
17.9186090243
 10
3.6254665467
 20
17.8944913927
 10
3.6457285498
 20
17.867238514
 10
3.662157534
 20
17.8373890737
 10
3.6744340396
 20
17.8053922175
 10
3.6822854618
 20
17.7716045811
 10
3.6853849813
 20
17.7370458676
 10
3.6854349472
 20
17.7320725941
  0
LWPOLYLINE
  5
4E4
100
AcDbEntity
  8
RACCORDO
100
AcDbPolyline
 62
7
  6
CONTINUOUS
 90
104
 70
0
 10
20.0891236882
 20
7.1628561231
 10
20.1018450332
 20
7.1536012977
 10
20.1466666449
 20
7.1197329762
 10
20.1911504919
 20
7.084858064
 10
20.2353081519
 20
7.0489732765
 10
20.279138729
 20
7.0120830854
 10
20.3226104815
 20
6.9742177517
 10
20.365688102
 20
6.9354129151
 10
20.4083510226
 20
6.8956928931
 10
20.4505887295
 20
6.8550730894
 10
20.4923812309
 20
6.81357816
 10
20.5337073569
 20
6.7712348899
 10
20.5745581105
 20
6.7280581058
 10
20.6149312323
 20
6.6840547292
 10
20.654822056
 20
6.6392330468
 10
20.6942045285
 20
6.5936253701
 10
20.7330444538
 20
6.547275748
 10
20.7713133522
 20
6.5002242834
 10
20.8090119787
 20
6.4524760417
 10
20.846149716
 20
6.4040228801
 10
20.8827254182
 20
6.3548677407
 10
20.9187106138
 20
6.3050501663
 10
20.9540735651
 20
6.2546171263
 10
20.9887908528
 20
6.2036066842
 10
21.0228598758
 20
6.1520272095
 10
21.0562804477
 20
6.0998818448
 10
21.0890444193
 20
6.0471847356
 10
21.1211331169
 20
5.9939671795
 10
21.1525302539
 20
5.9402579364
 10
21.183221598
 20
5.8860833398
 10
21.2131965316
 20
5.8314639595
 10
21.2424445653
 20
5.7764202802
 10
21.2709531692
 20
5.7209769733
 10
21.2987111061
 20
5.6651567946
 10
21.3257097883
 20
5.6089773523
 10
21.3519384495
 20
5.5524607576
 10
21.3773849323
 20
5.4956326708
 10
21.4020386384
 20
5.4385159992
 10
21.4258891576
 20
5.3811336961
 10
21.4489253602
 20
5.3235110725
 10
21.4711360294
 20
5.265674594
 10
21.4925084951
 20
5.2076558999
 10
21.5130358458
 20
5.1494720475
 10
21.5327151694
 20
5.0911273972
 10
21.5515419486
 20
5.0326283365
 10
21.569500125
 20
4.9740170721
 10
21.5865705524
 20
4.9153515182
 10
21.6027384231
 20
4.856682065
 10
21.6180038799
 20
4.7980072419
 10
21.632370152
 20
4.7393069124
 10
21.6458343428
 20
4.6805772966
 10
21.6583804133
 20
4.6218710936
 10
21.6699921555
 20
4.5632523899
 10
21.6806590611
 20
4.5047682787
 10
21.6903796068
 20
4.4464198979
 10
21.6991519913
 20
4.3882018476
 10
21.7069711249
 20
4.3301216023
 10
21.7138273504
 20
4.2722202196
 10
21.7197120195
 20
4.2145420489
 10
21.7246194382
 20
4.1571134401
 10
21.7285446228
 20
4.0999554917
 10
21.7314820255
 20
4.0431034229
 10
21.7334271745
 20
3.9865903798
 10
21.734376672
 20
3.9304294123
 10
21.7343265389
 20
3.8746248666
 10
21.7332712257
 20
3.8191664374
 10
21.731206039
 20
3.764111406
 10
21.7281320224
 20
3.7095629614
 10
21.7240535968
 20
3.6555887815
 10
21.7189691265
 20
3.6021615758
 10
21.7128717589
 20
3.5492407177
 10
21.7057495332
 20
3.496783874
 10
21.6976069772
 20
3.4448788553
 10
21.6884663433
 20
3.3936767379
 10
21.6783461189
 20
3.3432551588
 10
21.6672416706
 20
3.293568658
 10
21.6551451003
 20
3.2445802009
 10
21.6420455848
 20
3.1962601237
 10
21.6279578076
 20
3.1486764812
 10
21.6129147093
 20
3.1019363568
 10
21.596933021
 20
3.0560748749
 10
21.5800152782
 20
3.0110840019
 10
21.562180564
 20
2.9670002316
 10
21.5434445479
 20
2.9238456388
 10
21.5238147308
 20
2.8816220456
 10
21.5032994422
 20
2.8403346502
 10
21.4818905803
 20
2.7999596122
 10
21.4596182781
 20
2.7605467705
 10
21.4365554685
 20
2.7222057518
 10
21.4127625668
 20
2.6850033787
 10
21.3882217407
 20
2.6488795533
 10
21.3628900395
 20
2.6137535339
 10
21.3367501151
 20
2.5795958248
 10
21.3098470336
 20
2.5464600434
 10
21.2822293642
 20
2.5143939057
 10
21.2539322005
 20
2.4834214531
 10
21.2249600785
 20
2.4535313384
 10
21.1953187954
 20
2.4247163211
 10
21.1650307536
 20
2.3969861749
 10
21.1341135098
 20
2.37034512
 10
21.1025642963
 20
2.3447810491
 10
21.070394996
 20
2.3202962355
 10
21.0376334933
 20
2.2969045118
 10
21.0043004748
 20
2.2746126663
  0
LINE
  5
4E5
100
AcDbEntity
  8
RACCORDO
100
AcDbLine
 62
7
  6
CONTINUOUS
 10
11.5243017634
 20
17.3752236916
 11
10.4411064938
 21
19.2434591775
  0
LINE
  5
4E6
100
AcDbEntity
  8
0
100
AcDbLine
 62
250
  6
CONTINUOUS
 10
9.992644088
 20
22.5266663608
 11
10.3866300218
 21
21.5045105427
  0
LINE
  5
4E7
100
AcDbEntity
  8
0
100
AcDbLine
 62
7
  6
CONTINUOUS
 10
11.53133435
 20
19.9611442246
 11
11.3298349921
 21
20.5568686504
  0
LWPOLYLINE
  5
4E8
100
AcDbEntity
  8
RACCORDO
100
AcDbPolyline
 62
7
  6
CONTINUOUS
 90
31
 70
0
 10
20.0891236774
 20
19.81344361
 10
20.0888363856
 20
19.8480112454
 10
20.0876993144
 20
19.8905023455
 10
20.0857052382
 20
19.9330571505
 10
20.0828604864
 20
19.9756808714
 10
20.0791725435
 20
20.0183530204
 10
20.0746523502
 20
20.0610240862
 10
20.0693078659
 20
20.1036879653
 10
20.0631463433
 20
20.1463368989
 10
20.0561823239
 20
20.1889167814
 10
20.0484244113
 20
20.2314210306
 10
20.0398801295
 20
20.2738430555
 10
20.030567831
 20
20.3161271499
 10
20.0204970487
 20
20.3582645377
 10
20.0096754447
 20
20.4002509552
 10
19.9981232316
 20
20.4420360744
 10
19.9858524599
 20
20.4836036395
 10
19.9728691102
 20
20.5249571547
 10
19.9591862801
 20
20.5660746464
 10
19.9448130513
 20
20.6069463913
 10
19.9297559654
 20
20.6475688238
 10
19.9140244933
 20
20.6879278811
 10
19.8976254027
 20
20.7280164383
 10
19.8805645431
 20
20.7678275415
 10
19.8628506437
 20
20.8073464986
 10
19.8444895408
 20
20.8465649822
 10
19.8254855896
 20
20.8854757159
 10
19.8058455846
 20
20.9240659506
 10
19.7855738738
 20
20.9623266184
 10
19.7646735644
 20
21.0002501424
 10
19.7471562338
 20
21.0309383966
  0
LINE
  5
4E9
100
AcDbEntity
  8
RACCORDO
100
AcDbLine
 62
250
  6
CONTINUOUS
 10
19.8085244022
 20
-2.643616799
 11
19.8084634886
 21
1.9351886832
  0
LINE
  5
4EA
100
AcDbEntity
  8
RACCORDO
100
AcDbLine
 62
250
  6
CONTINUOUS
 10
19.8084634886
 20
3.7076575819
 11
19.8084634886
 21
13.8863392464
  0
LINE
  5
4EB
100
AcDbEntity
  8
RACCORDO
100
AcDbLine
 62
250
  6
CONTINUOUS
 10
19.8084634886
 20
15.6588081638
 11
19.8084634886
 21
19.4662064421
  0
LINE
  5
4EC
100
AcDbEntity
  8
RACCORDO
100
AcDbLine
 62
7
  6
CONTINUOUS
 10
20.0891236882
 20
-2.2727375745
 11
20.0891236882
 21
1.6943539013
  0
LINE
  5
4ED
100
AcDbEntity
  8
RACCORDO
100
AcDbLine
 62
7
  6
CONTINUOUS
 10
20.0891236882
 20
4.6431506792
 11
20.0891236882
 21
13.645503538
  0
LINE
  5
4EE
100
AcDbEntity
  8
RACCORDO
100
AcDbLine
 62
7
  6
CONTINUOUS
 10
20.0891236882
 20
16.5943024429
 11
20.0891236882
 21
19.8134561769
  0
LINE
  5
4EF
100
AcDbEntity
  8
RACCORDO
100
AcDbLine
 62
7
  6
CONTINUOUS
 10
20.0891236868
 20
16.5944086709
 11
20.0891236882
 21
16.594303106
  0
LWPOLYLINE
  5
4F0
100
AcDbEntity
  8
RACCORDO
100
AcDbPolyline
 62
250
  6
CONTINUOUS
 90
57
 70
0
 10
20.0891236882
 20
4.6431510575
 10
20.0890698131
 20
4.625073946
 10
20.088444448
 20
4.5790331685
 10
20.0871856247
 20
4.5349795064
 10
20.0853641909
 20
4.4926713208
 10
20.0830469196
 20
4.4521578531
 10
20.0803074353
 20
4.4135631378
 10
20.0772029965
 20
4.3767683264
 10
20.0737562757
 20
4.341457409
 10
20.0700098322
 20
4.3076160217
 10
20.0660086354
 20
4.2752597274
 10
20.0617524228
 20
4.244118331
 10
20.0572649166
 20
4.2141493622
 10
20.0525812769
 20
4.1853951456
 10
20.0477013557
 20
4.1577137825
 10
20.0426345374
 20
4.131042133
 10
20.0374147509
 20
4.1054424769
 10
20.0320739607
 20
4.08096105
 10
20.0266460251
 20
4.0576515361
 10
20.0211418536
 20
4.0354568571
 10
20.0155564253
 20
4.0142570596
 10
20.0099115878
 20
3.9940641412
 10
20.004219724
 20
3.9748627455
 10
19.9984537129
 20
3.9564930963
 10
19.9926170211
 20
3.9389256468
 10
19.9867288451
 20
3.9221877466
 10
19.9807793973
 20
3.9062061004
 10
19.9747586753
 20
3.8909381849
 10
19.9686939544
 20
3.8764247338
 10
19.9626320017
 20
3.8627169196
 10
19.9565882604
 20
3.8498358556
 10
19.9505693203
 20
3.8377564967
 10
19.9446123935
 20
3.8264595095
 10
19.9387509044
 20
3.8159837591
 10
19.932974771
 20
3.806285062
 10
19.9272548549
 20
3.7972196388
 10
19.921609473
 20
3.7887890864
 10
19.9160368167
 20
3.7809877899
 10
19.9104719356
 20
3.7736628267
 10
19.9049070498
 20
3.7667866467
 10
19.8993582637
 20
3.7603850409
 10
19.8937916305
 20
3.7543866724
 10
19.888198859
 20
3.7487762946
 10
19.8825932108
 20
3.7435683523
 10
19.8769712932
 20
3.738736639
 10
19.871334373
 20
3.7342800787
 10
19.8656857389
 20
3.7301989366
 10
19.8600246634
 20
3.7264691211
 10
19.8543549846
 20
3.7230910657
 10
19.8486770713
 20
3.7200635121
 10
19.8429845871
 20
3.717359963
 10
19.8372813796
 20
3.7149794912
 10
19.8315671208
 20
3.7129223554
 10
19.8258284911
 20
3.7111641237
 10
19.8200616986
 20
3.7096966312
 10
19.8142729526
 20
3.7085277691
 10
19.8084634886
 20
3.7076573693
  0
LWPOLYLINE
  5
4F1
100
AcDbEntity
  8
RACCORDO
100
AcDbPolyline
 62
250
  6
CONTINUOUS
 90
57
 70
0
 10
20.0891236882
 20
16.594303106
 10
20.089023969
 20
16.569713564
 10
20.0883000848
 20
16.5237072078
 10
20.0869572282
 20
16.4799509758
 10
20.0850702944
 20
16.4380830046
 10
20.0826962307
 20
16.3979243591
 10
20.0798981971
 20
16.3595143752
 10
20.0767338501
 20
16.3228190408
 10
20.073224197
 20
16.2875489293
 10
20.0694053316
 20
16.2536573122
 10
20.0653233248
 20
16.2211925062
 10
20.0609930648
 20
16.1900081447
 10
20.0564432265
 20
16.1600845873
 10
20.0517086253
 20
16.1314407208
 10
20.0468026047
 20
16.1039883096
 10
20.0417512298
 20
16.0777286727
 10
20.0365804935
 20
16.0526581017
 10
20.0312966062
 20
16.0286811696
 10
20.0259226501
 20
16.0058052159
 10
20.0204778264
 20
15.9840196689
 10
20.0149558798
 20
15.9632028892
 10
20.0093746054
 20
15.9433562285
 10
20.0037488207
 20
15.9244751152
 10
19.9980609708
 20
15.9064300297
 10
19.9923181015
 20
15.8892026614
 10
19.9865366932
 20
15.8728087665
 10
19.9807081712
 20
15.8571708222
 10
19.9748332569
 20
15.8422679213
 10
19.9689297257
 20
15.8281186984
 10
19.963013064
 20
15.8147050966
 10
19.9570916957
 20
15.8020301824
 10
19.9511754391
 20
15.7900878861
 10
19.9452824661
 20
15.7788460838
 10
19.9394251552
 20
15.7683136851
 10
19.9336089563
 20
15.7584781225
 10
19.9278417384
 20
15.7492748472
 10
19.9221498839
 20
15.740725066
 10
19.9165234811
 20
15.7328036187
 10
19.9109129867
 20
15.7253772338
 10
19.9053184948
 20
15.7184285007
 10
19.899749388
 20
15.7119727032
 10
19.8941655811
 20
15.70592706
 10
19.8885579573
 20
15.7002740219
 10
19.882940906
 20
15.6950302387
 10
19.8773074117
 20
15.690164969
 10
19.8716580522
 20
15.6856759685
 10
19.8659968275
 20
15.6815646719
 10
19.8603212921
 20
15.6778060339
 10
19.8546352695
 20
15.6744001834
 10
19.8489390698
 20
15.6713462071
 10
19.8432244581
 20
15.6686176764
 10
19.8374951867
 20
15.6662133805
 10
19.8317508456
 20
15.664133952
 10
19.8259761258
 20
15.6623560624
 10
19.8201664567
 20
15.6608719737
 10
19.8143285424
 20
15.6596892988
 10
19.8084634886
 20
15.6588079415
  0
LWPOLYLINE
  5
4F2
100
AcDbEntity
  8
RACCORDO
100
AcDbPolyline
 62
7
  6
CONTINUOUS
 90
7
 70
0
 10
20.0891242059
 20
13.6455205644
 10
20.0891763924
 20
13.6472950355
 10
20.0893769236
 20
13.6493658619
 10
20.0896508444
 20
13.6509674334
 10
20.0899219596
 20
13.6520888616
 10
20.090103703
 20
13.6526727066
 10
20.0901249153
 20
13.6527301873
  0
LWPOLYLINE
  5
4F3
100
AcDbEntity
  8
RACCORDO
100
AcDbPolyline
 62
7
  6
CONTINUOUS
 90
7
 70
0
 10
20.0891241929
 20
1.6943686108
 10
20.0891763752
 20
1.6961434679
 10
20.0893767761
 20
1.6982144311
 10
20.0896507387
 20
1.6998162834
 10
20.089921852
 20
1.7009378841
 10
20.0901035796
 20
1.7015218216
 10
20.09012482
 20
1.7015793799
  0
LWPOLYLINE
  5
4F4
100
AcDbEntity
  8
RACCORDO
100
AcDbPolyline
 62
250
  6
CONTINUOUS
 90
34
 70
0
 10
12.718656694
 20
-15.3951766781
 10
12.7388312751
 20
-15.3764970462
 10
12.7584842078
 20
-15.35703312
 10
12.777606327
 20
-15.3367940161
 10
12.7961885558
 20
-15.3157893135
 10
12.8142219526
 20
-15.2940290817
 10
12.8316979418
 20
-15.2715237112
 10
12.8486081676
 20
-15.2482839589
 10
12.864944579
 20
-15.2243208703
 10
12.8806994697
 20
-15.1996457954
 10
12.8958653335
 20
-15.1742704802
 10
12.9104349303
 20
-15.1482070121
 10
12.924401372
 20
-15.1214677453
 10
12.9377580196
 20
-15.0940653814
 10
12.9504984899
 20
-15.0660129838
 10
12.9626167176
 20
-15.0373239195
 10
12.9741069444
 20
-15.0080118346
 10
12.9849636959
 20
-14.9780906794
 10
12.9951817885
 20
-14.9475747232
 10
13.0047563721
 20
-14.9164785003
 10
13.013682902
 20
-14.8848167855
 10
13.0219571157
 20
-14.8526046192
 10
13.0295751004
 20
-14.8198573148
 10
13.0365332418
 20
-14.7865904463
 10
13.0428281926
 20
-14.7528198209
 10
13.048456997
 20
-14.7185614338
 10
13.0534169823
 20
-14.6838316235
 10
13.0577057092
 20
-14.6486470607
 10
13.0613211722
 20
-14.6130245704
 10
13.0642616972
 20
-14.5769809868
 10
13.0665258223
 20
-14.5405333021
 10
13.0681124682
 20
-14.5036987845
 10
13.0690209516
 20
-14.4664949769
 10
13.0692508804
 20
-14.4289395516
  0
LWPOLYLINE
  5
4F5
100
AcDbEntity
  8
RACCORDO
100
AcDbPolyline
 62
250
  6
CONTINUOUS
 90
4
 70
0
 10
12.6551004048
 20
-15.4464226506
 10
12.6767812183
 20
-15.4301478611
 10
12.6979700227
 20
-15.4130631492
 10
12.718656694
 20
-15.3951766781
  0
LWPOLYLINE
  5
4F6
100
AcDbEntity
  8
RACCORDO
100
AcDbPolyline
 62
7
  6
CONTINUOUS
 90
40
 70
0
 10
12.7296791111
 20
-15.4000524488
 10
12.7493127964
 20
-15.3855571199
 10
12.7774079929
 20
-15.3638620821
 10
12.8050110379
 20
-15.341397855
 10
12.8320938796
 20
-15.3181820259
 10
12.8586434744
 20
-15.2942206929
 10
12.8846611306
 20
-15.269506282
 10
12.9101269239
 20
-15.2440501379
 10
12.9350215252
 20
-15.2178640337
 10
12.9593456995
 20
-15.1909380653
 10
12.98308022
 20
-15.1632831597
 10
13.0062052647
 20
-15.134912168
 10
13.0287190248
 20
-15.1058153009
 10
13.0506029432
 20
-15.0760026424
 10
13.0718370652
 20
-15.0454879339
 10
13.0924160412
 20
-15.0142638332
 10
13.1123209872
 20
-14.9823418676
 10
13.1315335012
 20
-14.9497343437
 10
13.1500478414
 20
-14.9164321115
 10
13.1678444391
 20
-14.8824489724
 10
13.1849066089
 20
-14.8477945071
 10
13.2012312101
 20
-14.8124497141
 10
13.2168019493
 20
-14.7764198002
 10
13.2315979078
 20
-14.7397211456
 10
13.2456076242
 20
-14.7023479609
 10
13.2588187888
 20
-14.6642933162
 10
13.2712069196
 20
-14.6255844685
 10
13.2827454005
 20
-14.586265025
 10
13.2934201891
 20
-14.5463447317
 10
13.3032166938
 20
-14.50583506
 10
13.3121139544
 20
-14.4647812732
 10
13.3201013207
 20
-14.4231917086
 10
13.3271671094
 20
-14.3810783619
 10
13.333295178
 20
-14.3384911488
 10
13.3384773794
 20
-14.2954394311
 10
13.3427050556
 20
-14.2519332326
 10
13.3459672184
 20
-14.2080220607
 10
13.3482570697
 20
-14.1637275391
 10
13.3495692671
 20
-14.1190464643
 10
13.3499110705
 20
-14.0816114901
  0
LINE
  5
4F7
100
AcDbEntity
  8
RACCORDO
100
AcDbLine
 62
7
  6
CONTINUOUS
 10
10.4411064938
 20
-16.8698001603
 11
11.5243017634
 21
-16.084759944
  0
LINE
  5
4F8
100
AcDbEntity
  8
RACCORDO
100
AcDbLine
 62
250
  6
CONTINUOUS
 10
12.4491458577
 20
-15.5956871523
 11
12.6551004048
 21
-15.4464226506
  0
LINE
  5
4F9
100
AcDbEntity
  8
RACCORDO
100
AcDbLine
 62
7
  6
CONTINUOUS
 10
12.5237134518
 20
-15.5493250195
 11
12.7296679988
 21
-15.4000605178
  0
LWPOLYLINE
  5
4FA
100
AcDbEntity
  8
RACCORDO
100
AcDbPolyline
 62
7
  6
CONTINUOUS
 90
6
 70
0
 10
12.5237134518
 20
-15.5493250195
 10
12.5104484482
 20
-15.5587749619
 10
12.4970226577
 20
-15.5680134564
 10
12.4834411774
 20
-15.5770364407
 10
12.4697034007
 20
-15.5858436944
 10
12.4558208025
 20
-15.5944273837
  0
LWPOLYLINE
  5
4FB
100
AcDbEntity
  8
RACCORDO
100
AcDbPolyline
 62
250
  6
CONTINUOUS
 90
16
 70
0
 10
-2.1580383638
 20
-25.0082904214
 10
-2.1967372804
 20
-25.031433345
 10
-2.2386735921
 20
-25.0524090551
 10
-2.2834028554
 20
-25.0709952501
 10
-2.3304510272
 20
-25.0869949525
 10
-2.3793194883
 20
-25.1002385964
 10
-2.4294903278
 20
-25.1105858249
 10
-2.4804318325
 20
-25.1179269777
 10
-2.5316041214
 20
-25.1221842526
 10
-2.5824648677
 20
-25.123312531
 10
-2.6324750463
 20
-25.1212998551
 10
-2.6811046466
 20
-25.1161675556
 10
-2.7278382891
 20
-25.1079700249
 10
-2.7721806882
 20
-25.0967941411
 10
-2.8136619005
 20
-25.0827583469
 10
-2.8518423059
 20
-25.0660113942
  0
LINE
  5
4FC
100
AcDbEntity
  8
RACCORDO
100
AcDbLine
 62
7
  6
CONTINUOUS
 10
12.4558208025
 20
-15.5944273837
 11
12.4418169593
 21
-15.6027733993
  0
LWPOLYLINE
  5
4FD
100
AcDbEntity
  8
RACCORDO
100
AcDbPolyline
 62
7
  6
CONTINUOUS
 90
4
 70
0
 10
12.4418169593
 20
-15.6027733993
 10
12.4277037463
 20
-15.6108760353
 10
12.4134813302
 20
-15.6187366633
 10
12.4043523732
 20
-15.6236247836
  0
LWPOLYLINE
  5
4FE
100
AcDbEntity
  8
RACCORDO
100
AcDbPolyline
 62
250
  6
CONTINUOUS
 90
4
 70
0
 10
12.4043579278
 20
-15.6236218463
 10
12.4195059262
 20
-15.6151505493
 10
12.4345363573
 20
-15.6057851657
 10
12.4491458577
 20
-15.5956871523
  0
LWPOLYLINE
  5
4FF
100
AcDbEntity
  8
RACCORDO
100
AcDbPolyline
 62
250
  6
CONTINUOUS
 90
5
 70
0
 10
12.6551004048
 20
-15.4464226506
 10
12.6739369201
 20
-15.4360624428
 10
12.6923790369
 20
-15.4250742056
 10
12.7104130599
 20
-15.4134660991
 10
12.7296679988
 20
-15.4000605178
  0
LWPOLYLINE
  5
500
100
AcDbEntity
  8
RACCORDO
100
AcDbPolyline
 62
250
  6
CONTINUOUS
 90
5
 70
0
 10
12.4491458577
 20
-15.5956871523
 10
12.467982373
 20
-15.5853269445
 10
12.4864244897
 20
-15.5743387074
 10
12.5044585126
 20
-15.5627306009
 10
12.5237134518
 20
-15.5493250195
  0
LINE
  5
501
100
AcDbEntity
  8
RACCORDO
100
AcDbLine
 62
250
  6
CONTINUOUS
 10
12.4491458577
 20
-15.5956871523
 11
11.5243017634
 21
-16.084759944
  0
LINE
  5
502
100
AcDbEntity
  8
RACCORDO
100
AcDbLine
 62
7
  6
CONTINUOUS
 10
12.4043579278
 20
-15.6236218463
 11
11.5026096611
 21
-16.1004811838
  0
LINE
  5
503
100
AcDbEntity
  8
RACCORDO
100
AcDbLine
 62
250
  6
CONTINUOUS
 10
4.7921397914
 20
-19.5884535931
 11
12.6551004048
 21
-15.4464226506
  0
LINE
  5
504
100
AcDbEntity
  8
DRAFT
100
AcDbLine
 62
7
  6
CONTINUOUS
 10
4.4930126584
 20
-19.9943931604
 11
10.4411064938
 21
-16.8698001603
  0
LINE
  5
505
100
AcDbEntity
  8
0
100
AcDbLine
 62
7
  6
CONTINUOUS
 10
8.774605189
 20
-18.0264303232
 11
4.4930126584
 21
-20.2260505825
  0
LINE
  5
506
100
AcDbEntity
  8
0
100
AcDbLine
 62
7
  6
CONTINUOUS
 10
4.4930126584
 20
-19.646325826
 11
5.1939486122
 21
-19.2865565243
  0
LINE
  5
507
100
AcDbEntity
  8
ASSI
100
AcDbLine
 62
7
  6
CONTINUOUS
 10
9.5852263307
 20
-17.5134831502
 11
4.4930126584
 21
-20.1175968057
  0
LINE
  5
508
100
AcDbEntity
  8
RACCORDO
100
AcDbLine
 62
250
  6
CONTINUOUS
 10
-0.9388358418
 20
22.0144442048
 11
-0.9286532965
 21
22.0172927991
  0
LWPOLYLINE
  5
509
100
AcDbEntity
  8
RACCORDO
100
AcDbPolyline
 62
250
  6
CONTINUOUS
 90
3
 70
0
 10
-0.9286532965
 20
22.0172927991
 10
-0.9182813953
 20
22.0200985735
 10
-0.9130243289
 20
22.0214848723
  0
LWPOLYLINE
  5
50A
100
AcDbEntity
  8
0
100
AcDbPolyline
 62
7
  6
CONTINUOUS
 90
10
 70
0
 10
4.4421609418
 20
21.8511226016
 10
4.4347976823
 20
21.8491703659
 10
4.4270223053
 20
21.8469383517
 10
4.4188336892
 20
21.8444397495
 10
4.4102424134
 20
21.8416795357
 10
4.4012681188
 20
21.8386638808
 10
4.3919196202
 20
21.8354084699
 10
4.3822095233
 20
21.831921895
 10
4.3721551838
 20
21.8282052964
 10
4.3617719369
 20
21.8242630257
  0
LWPOLYLINE
  5
50B
100
AcDbEntity
  8
RACCORDO
100
AcDbPolyline
 62
250
  6
CONTINUOUS
 90
4
 70
0
 10
-0.9130243289
 20
22.0214848723
 10
-0.9023677336
 20
22.0242198575
 10
-0.8969682045
 20
22.0255685438
 10
-0.8915213418
 20
22.0269031526
  0
LWPOLYLINE
  5
50C
100
AcDbEntity
  8
RACCORDO
100
AcDbPolyline
 62
250
  6
CONTINUOUS
 90
128
 70
0
 10
-0.8915213418
 20
22.0269031526
 10
-0.8804854638
 20
22.0295301735
 10
-0.8748968825
 20
22.03082098
 10
-0.8692611257
 20
22.0320961619
 10
-0.8635783935
 20
22.0333556787
 10
-0.8578496445
 20
22.0345978208
 10
-0.8520747174
 20
22.0358226108
 10
-0.8462537735
 20
22.0370300262
 10
-0.840388256
 20
22.0382182907
 10
-0.8344783456
 20
22.0393873596
 10
-0.8285238616
 20
22.0405372775
 10
-0.8225257046
 20
22.0416664015
 10
-0.8164836429
 20
22.0427747684
 10
-0.8103979083
 20
22.0438623414
 10
-0.8042700967
 20
22.0449273661
 10
-0.7980918898
 20
22.0459710169
 10
-0.791871606
 20
22.0469921195
 10
-0.7856357956
 20
22.0479853973
 10
-0.7793880307
 20
22.0489499028
 10
-0.7731247392
 20
22.0498865835
 10
-0.7668617556
 20
22.0507930054
 10
-0.7606015725
 20
22.0516686074
 10
-0.7543416972
 20
22.0525139506
 10
-0.7480904861
 20
22.0533282841
 10
-0.741849039
 20
22.0541113685
 10
-0.735616256
 20
22.0548634432
 10
-0.7293971935
 20
22.055584476
 10
-0.7231922272
 20
22.0562743695
 10
-0.7170009815
 20
22.056933221
 10
-0.7108273852
 20
22.0575612906
 10
-0.7046718323
 20
22.0581585069
 10
-0.6985339289
 20
22.0587249414
 10
-0.6924164218
 20
22.0592610684
 10
-0.6863195868
 20
22.0597668509
 10
-0.6802431482
 20
22.060242326
 10
-0.6741890255
 20
22.0606880793
 10
-0.6681568419
 20
22.0611041208
 10
-0.6621469743
 20
22.0614904404
 10
-0.6561624732
 20
22.061847594
 10
-0.6502035302
 20
22.0621755477
 10
-0.6442699537
 20
22.0624743353
 10
-0.6383642197
 20
22.0627446141
 10
-0.6324864967
 20
22.0629863629
 10
-0.6266366161
 20
22.0631996029
 10
-0.6208165482
 20
22.0633850548
 10
-0.6150262142
 20
22.0635427083
 10
-0.609265693
 20
22.0636725737
 10
-0.6035371911
 20
22.0637754028
 10
-0.5978406858
 20
22.0638511788
 10
-0.5921761999
 20
22.0638999184
 10
-0.5865460081
 20
22.0639224231
 10
-0.5809502358
 20
22.0639186769
 10
-0.5753887576
 20
22.0638886958
 10
-0.5698634721
 20
22.0638333295
 10
-0.5643745717
 20
22.0637525715
 10
-0.558921864
 20
22.0636464284
 10
-0.5535066707
 20
22.0635157691
 10
-0.5481290466
 20
22.0633605912
 10
-0.5427889369
 20
22.0631808972
 10
-0.5374874988
 20
22.0629775631
 10
-0.5322244496
 20
22.062750565
 10
-0.527000072
 20
22.0624999268
 10
-0.5218163717
 20
22.0622265969
 10
-0.5166735586
 20
22.0619305696
 10
-0.5115714229
 20
22.0616118505
 10
-0.5065113409
 20
22.0612714042
 10
-0.5014935253
 20
22.0609092383
 10
-0.4965177634
 20
22.0605253453
 10
-0.4915847936
 20
22.060120667
 10
-0.4866946993
 20
22.0596952098
 10
-0.4818473971
 20
22.0592489674
 10
-0.4770433748
 20
22.0587828634
 10
-0.4722826848
 20
22.0582969039
 10
-0.4675652748
 20
22.0577910828
 10
-0.4628914759
 20
22.0572663055
 10
-0.4582613447
 20
22.0567225803
 10
-0.4536748248
 20
22.0561598989
 10
-0.4491320775
 20
22.0555791407
 10
-0.4446331822
 20
22.0549803204
 10
-0.4401780595
 20
22.0543634234
 10
-0.4357666334
 20
22.0537292854
 10
-0.4313989551
 20
22.0530779206
 10
-0.4270749733
 20
22.052409315
 10
-0.4227944573
 20
22.0517242619
 10
-0.4185574445
 20
22.0510227754
 10
-0.4143638974
 20
22.0503048415
 10
-0.4102134733
 20
22.0495712121
 10
-0.4061062217
 20
22.0488219054
 10
-0.4020420929
 20
22.0480569032
 10
-0.3980205957
 20
22.0472769029
 10
-0.3940417666
 20
22.0464819227
 10
-0.3901055691
 20
22.0456719445
 10
-0.3862114013
 20
22.0448476108
 10
-0.3823593043
 20
22.0440089431
 10
-0.3785492369
 20
22.04315592
 10
-0.3747804749
 20
22.0422891186
 10
-0.3710530599
 20
22.0414085642
 10
-0.3673669501
 20
22.0405142316
 10
-0.3637212954
 20
22.0396066224
 10
-0.3601161118
 20
22.0386857583
 10
-0.3565513833
 20
22.0377516177
 10
-0.3530262107
 20
22.0368046371
 10
-0.3495405945
 20
22.0358448352
 10
-0.3460945343
 20
22.0348721933
 10
-0.34268713
 20
22.0338870922
 10
-0.3393183916
 20
22.0328895545
 10
-0.335988309
 20
22.0318795576
 10
-0.3326959526
 20
22.0308574151
 10
-0.3294413299
 20
22.0298231505
 10
-0.3262244334
 20
22.0287767402
 10
-0.3230443112
 20
22.0277184267
 10
-0.319900955
 20
22.0266482302
 10
-0.3167943732
 20
22.0255661305
 10
-0.3137236379
 20
22.0244723097
 10
-0.310688726
 20
22.0233667826
 10
-0.3076896606
 20
22.0222495345
 10
-0.3047255837
 20
22.0211207033
 10
-0.3017964597
 20
22.0199802981
 10
-0.2989023242
 20
22.0188283097
 10
-0.2960424254
 20
22.0176648487
 10
-0.2932167378
 20
22.0164899253
 10
-0.290425287
 20
22.0153035292
 10
-0.2876673984
 20
22.0141057397
 10
-0.2849430595
 20
22.012896575
 10
-0.2822522828
 20
22.0116760169
 10
-0.2795944312
 20
22.01044409
 10
-0.2769692922
 20
22.0092008026
 10
-0.2743770784
 20
22.0079461466
  0
LWPOLYLINE
  5
50D
100
AcDbEntity
  8
0
100
AcDbPolyline
 62
7
  6
CONTINUOUS
 90
41
 70
0
 10
-10.4226170712
 20
22.1037182821
 10
-10.4167989621
 20
22.1025983972
 10
-10.4087656738
 20
22.101363112
 10
-10.4006047349
 20
22.1004573378
 10
-10.3923282475
 20
22.0998676923
 10
-10.3839501198
 20
22.0995947673
 10
-10.3754839645
 20
22.099638376
 10
-10.3669409432
 20
22.0999837748
 10
-10.3583342661
 20
22.1006307427
 10
-10.3496768131
 20
22.1015785329
 10
-10.340978736
 20
22.1028114899
 10
-10.3322524573
 20
22.1043286992
 10
-10.3235100584
 20
22.1061289323
 10
-10.3147606735
 20
22.1081960019
 10
-10.3060158657
 20
22.1105284208
 10
-10.2972869039
 20
22.1131245422
 10
-10.2885820053
 20
22.115967929
 10
-10.2799118555
 20
22.1190566261
 10
-10.2712868996
 20
22.1223886215
 10
-10.262714561
 20
22.1259474164
 10
-10.2542046533
 20
22.1297306729
 10
-10.2457667982
 20
22.1337360605
 10
-10.2374077444
 20
22.1379471329
 10
-10.2291364514
 20
22.142361236
 10
-10.2209617237
 20
22.1469757622
 10
-10.2128897336
 20
22.1517743831
 10
-10.2049286084
 20
22.1567541781
 10
-10.1970863429
 20
22.1619123014
 10
-10.1893685983
 20
22.1672325824
 10
-10.1817826914
 20
22.1727118714
 10
-10.1743358129
 20
22.1783471216
 10
-10.1670331461
 20
22.1841223534
 10
-10.1598812166
 20
22.1900342156
 10
-10.1528864131
 20
22.1960794982
 10
-10.1460534353
 20
22.202242461
 10
-10.1393880312
 20
22.2085195762
 10
-10.1328957908
 20
22.214907507
 10
-10.1265809015
 20
22.2213908209
 10
-10.1204480527
 20
22.2279620253
 10
-10.1145023489
 20
22.2346215141
 10
-10.1087482519
 20
22.2413656611
  0
LINE
  5
50E
100
AcDbEntity
  8
0
100
AcDbLine
 62
7
  6
CONTINUOUS
 10
-11.0468123535
 20
22.2340480232
 11
-10.4226167565
 21
22.1037154034
  0
LINE
  5
50F
100
AcDbEntity
  8
0
100
AcDbLine
 62
250
  6
CONTINUOUS
 10
-10.81996886
 20
22.389869184
 11
-10.1087482519
 21
22.2413656611
  0
LWPOLYLINE
  5
510
100
AcDbEntity
  8
0
100
AcDbPolyline
 62
250
  6
CONTINUOUS
 90
14
 70
0
 10
-10.4560549612
 20
24.9567571303
 10
-10.4629799797
 20
24.9590797886
 10
-10.4701211372
 20
24.9608858064
 10
-10.4774623762
 20
24.9621711228
 10
-10.4849871893
 20
24.9629328476
 10
-10.4926786566
 20
24.9631692681
 10
-10.5005194832
 20
24.9628798525
 10
-10.5084920382
 20
24.9620652517
 10
-10.516578395
 20
24.9607272974
 10
-10.5247603706
 20
24.9588689981
 10
-10.5330195673
 20
24.9564945323
 10
-10.5413374136
 20
24.9536092391
 10
-10.5496952063
 20
24.9502196064
 10
-10.5580741523
 20
24.946333256
  0
LWPOLYLINE
  5
511
100
AcDbEntity
  8
RACCORDO
100
AcDbPolyline
 62
7
  6
CONTINUOUS
 90
64
 70
0
 10
-0.1848395544
 20
22.0111509544
 10
-0.1952808063
 20
22.0162464372
 10
-0.212786888
 20
22.0242537263
 10
-0.2307642258
 20
22.0318293842
 10
-0.2491813297
 20
22.0389672187
 10
-0.268029124
 20
22.0456729437
 10
-0.2873200936
 20
22.0519598413
 10
-0.3070315687
 20
22.0578293146
 10
-0.3271410871
 20
22.0632845762
 10
-0.347657255
 20
22.0683373517
 10
-0.3685279759
 20
22.0729845053
 10
-0.3897648114
 20
22.0772382724
 10
-0.4114699431
 20
22.0811236033
 10
-0.4335948465
 20
22.0846333763
 10
-0.4561582648
 20
22.0877719104
 10
-0.4793640224
 20
22.0905614387
 10
-0.503288452
 20
22.0929964287
 10
-0.5278317031
 20
22.0950520591
 10
-0.5529313406
 20
22.096712006
 10
-0.5786901675
 20
22.0979699124
 10
-0.6049776028
 20
22.0988058212
 10
-0.6313778113
 20
22.0992054034
 10
-0.6578538022
 20
22.0991764709
 10
-0.6844152299
 20
22.0987260799
 10
-0.7107170595
 20
22.097873132
 10
-0.7366691857
 20
22.0966416076
 10
-0.7623435465
 20
22.0950475197
 10
-0.7876404731
 20
22.0931153018
 10
-0.8125400679
 20
22.090865715
 10
-0.8370511418
 20
22.0883160426
 10
-0.8611180154
 20
22.0854899028
 10
-0.8847220399
 20
22.0824077359
 10
-0.907876783
 20
22.0790851817
 10
-0.9305749588
 20
22.0755397751
 10
-0.9528088912
 20
22.0717888068
 10
-0.9745846206
 20
22.0678467974
 10
-0.9959143373
 20
22.063726252
 10
-1.0167984529
 20
22.0594411655
 10
-1.037236516
 20
22.0550053669
 10
-1.0572377836
 20
22.0504301464
 10
-1.0768045305
 20
22.0457278524
 10
-1.0959352363
 20
22.0409115228
 10
-1.1146317825
 20
22.0359932039
 10
-1.1329038426
 20
22.0309825623
 10
-1.1507426946
 20
22.0258941015
 10
-1.1681216834
 20
22.0207480512
 10
-1.1850287684
 20
22.0155611635
 10
-1.2014786966
 20
22.01034199
 10
-1.2174835941
 20
22.0050992822
 10
-1.233023275
 20
21.9998523285
 10
-1.2481191624
 20
21.9946065055
 10
-1.2628409029
 20
21.9893488547
 10
-1.2771870476
 20
21.9840901758
 10
-1.2911522021
 20
21.9788428724
 10
-1.3047925232
 20
21.9735956379
 10
-1.3180907082
 20
21.9683644948
 10
-1.3310468232
 20
21.9631591188
 10
-1.3437330206
 20
21.9579594594
 10
-1.3561118357
 20
21.9527895823
 10
-1.3681840303
 20
21.9476585301
 10
-1.3800614889
 20
21.9425271629
 10
-1.3916980107
 20
21.9374235901
 10
-1.4030602909
 20
21.9323718496
 10
-1.4252540319
 20
21.9223318872
  0
LINE
  5
512
100
AcDbEntity
  8
RACCORDO
100
AcDbLine
 62
250
  6
CONTINUOUS
 10
1.5939983496
 20
21.0737720521
 11
-0.2743770784
 21
22.0079461466
  0
LINE
  5
513
100
AcDbEntity
  8
RACCORDO
100
AcDbLine
 62
7
  6
CONTINUOUS
 10
1.6423000353
 20
21.0975811632
 11
-0.1848432133
 21
22.0111527875
  0
LINE
  5
514
100
AcDbEntity
  8
0
100
AcDbLine
 62
7
  6
CONTINUOUS
 10
-0.1218755244
 20
22.5138457398
 11
2.1802830321
 21
21.3627664615
  0
LINE
  5
515
100
AcDbEntity
  8
0
100
AcDbLine
 62
7
  6
CONTINUOUS
 10
0.5233132021
 20
23.1899934936
 11
3.1861415428
 21
21.8585793232
  0
LINE
  5
516
100
AcDbEntity
  8
0
100
AcDbLine
 62
250
  6
CONTINUOUS
 10
4.3289533398
 20
21.8097895706
 11
3.7124815151
 21
22.118025483
  0
LINE
  5
517
100
AcDbEntity
  8
0
100
AcDbLine
 62
250
  6
CONTINUOUS
 10
-1.2860938512
 20
24.6173131661
 11
-1.9025656759
 21
24.9255490785
  0
LINE
  5
518
100
AcDbEntity
  8
0
100
AcDbLine
 62
7
  6
CONTINUOUS
 10
4.4875918893
 20
21.8544250377
 11
3.9723422259
 21
22.1120498694
  0
LINE
  5
519
100
AcDbEntity
  8
0
100
AcDbLine
 62
7
  6
CONTINUOUS
 10
-1.1268128568
 20
24.6616274107
 11
-1.6181043871
 21
24.9072731759
  0
LINE
  5
51A
100
AcDbEntity
  8
0
100
AcDbLine
 62
7
  6
CONTINUOUS
 10
4.1172079829
 20
23.6682074081
 11
4.3145986382
 21
23.4859138282
  0
LWPOLYLINE
  5
51B
100
AcDbEntity
  8
RACCORDO
100
AcDbPolyline
 62
250
  6
CONTINUOUS
 90
57
 70
0
 10
20.0891236882
 20
5.343743751
 10
20.0973893734
 20
5.317386044
 10
20.1095688722
 20
5.2752350797
 10
20.1210099634
 20
5.2320743481
 10
20.1316911662
 20
5.1879319611
 10
20.1415358186
 20
5.1428915519
 10
20.1505279253
 20
5.0969741245
 10
20.1586601348
 20
5.0501581601
 10
20.1658718085
 20
5.0024657628
 10
20.1721688165
 20
4.9536413171
 10
20.1775183525
 20
4.9039404151
 10
20.1818209679
 20
4.8541626148
 10
20.1850500578
 20
4.8043423354
 10
20.1872464342
 20
4.7544668941
 10
20.1884462462
 20
4.7052819109
 10
20.1886448158
 20
4.6567998317
 10
20.1878924186
 20
4.6090398325
 10
20.1863375455
 20
4.5627697615
 10
20.1840116543
 20
4.5182004429
 10
20.1809569627
 20
4.4751567864
 10
20.1773527454
 20
4.4338326378
 10
20.1732552473
 20
4.3943915724
 10
20.1686774871
 20
4.3566974248
 10
20.1637283575
 20
4.3204922029
 10
20.1584496347
 20
4.2857972677
 10
20.1528495235
 20
4.2526082508
 10
20.1469749669
 20
4.2206249407
 10
20.1408476209
 20
4.1898132137
 10
20.134480847
 20
4.1602175053
 10
20.1279008007
 20
4.1316530957
 10
20.1211111083
 20
4.1040658467
 10
20.1141344575
 20
4.077516553
 10
20.1070217969
 20
4.051991912
 10
20.0997862992
 20
4.0275028168
 10
20.0924375851
 20
4.0040433824
 10
20.0850194241
 20
3.9815747542
 10
20.077558085
 20
3.9601394815
 10
20.0700459764
 20
3.9396987195
 10
20.0624734224
 20
3.9200910125
 10
20.0548475067
 20
3.9013025258
 10
20.0471743979
 20
3.8833494696
 10
20.0394404218
 20
3.8661149448
 10
20.0316336
 20
3.8495612345
 10
20.0237756625
 20
3.8337276761
 10
20.0159021697
 20
3.8186127526
 10
20.0080010711
 20
3.8042030332
 10
20.0000923689
 20
3.7905133656
 10
19.9922591229
 20
3.7775846996
 10
19.9845225634
 20
3.7654582131
 10
19.9768677863
 20
3.7540941426
 10
19.9693228314
 20
3.7434120047
 10
19.9619165938
 20
3.7334403517
 10
19.9546242427
 20
3.7241517717
 10
19.9473921777
 20
3.7153816206
 10
19.9402031378
 20
3.7070752188
 10
19.9330766115
 20
3.6992879966
 10
19.9260135588
 20
3.6920203347
  0
LWPOLYLINE
  5
51C
100
AcDbEntity
  8
0
100
AcDbPolyline
 62
7
  6
CONTINUOUS
 90
7
 70
0
 10
3.5493764267
 20
-24.4851443759
 10
3.5593008277
 20
-24.4797766886
 10
3.5862173745
 20
-24.4620303802
 10
3.6106864273
 20
-24.4409084465
 10
3.6322891731
 20
-24.4167248052
 10
3.6506662539
 20
-24.3898024825
 10
3.6654630448
 20
-24.3605332135
  0
LINE
  5
51D
100
AcDbEntity
  8
0
100
AcDbLine
 62
250
  6
CONTINUOUS
 10
3.7920767046
 20
-22.9399079697
 11
4.4930126584
 21
-22.578230777
  0
LINE
  5
51E
100
AcDbEntity
  8
0
100
AcDbLine
 62
7
  6
CONTINUOUS
 10
3.6633638803
 20
-23.2097180487
 11
4.3651972567
 21
-22.8475777933
  0
LINE
  5
51F
100
AcDbEntity
  8
0
100
AcDbLine
 62
250
  6
CONTINUOUS
 10
3.0849699235
 20
-24.6215032862
 11
3.6132370952
 21
-24.3504922276
  0
LINE
  5
520
100
AcDbEntity
  8
0
100
AcDbLine
 62
7
  6
CONTINUOUS
 10
3.0208648237
 20
-24.7562810573
 11
3.5495490577
 21
-24.4850560378
  0
LWPOLYLINE
  5
521
100
AcDbEntity
  8
0
100
AcDbPolyline
 62
7
  6
CONTINUOUS
 90
3
 70
0
 10
3.6633639314
 20
-23.2097180272
 10
3.6612751391
 20
-23.2107795127
 10
3.6498290366
 20
-23.2160385795
  0
LINE
  5
522
100
AcDbEntity
  8
0
100
AcDbLine
 62
7
  6
CONTINUOUS
 10
3.0208648217
 20
-24.7562810583
 11
3.0191284107
 21
-24.7571492782
  0
LINE
  5
523
100
AcDbEntity
  8
0
100
AcDbLine
 62
250
  6
CONTINUOUS
 10
1.4836891326
 20
-25.4015378859
 11
3.0849699235
 21
-24.6215032862
  0
LINE
  5
524
100
AcDbEntity
  8
0
100
AcDbLine
 62
7
  6
CONTINUOUS
 10
1.4174275401
 20
-25.537388512
 11
3.0191284099
 21
-24.7571492786
  0
LINE
  5
525
100
AcDbEntity
  8
RACCORDO
100
AcDbLine
 62
250
  6
CONTINUOUS
 10
-1.8087407164
 20
-25.2111656259
 11
1.0697155971
 21
-23.935348612
  0
LINE
  5
526
100
AcDbEntity
  8
RACCORDO
100
AcDbLine
 62
7
  6
CONTINUOUS
 10
0.9319613907
 20
-24.2094245504
 11
-1.9506050078
 21
-25.4870629741
  0
LINE
  5
527
100
AcDbEntity
  8
0
100
AcDbLine
 62
250
  6
CONTINUOUS
 10
2.7129026407
 20
-23.3926885597
 11
3.7920767046
 21
-22.9396951222
  0
LINE
  5
528
100
AcDbEntity
  8
0
100
AcDbLine
 62
7
  6
CONTINUOUS
 10
2.571636887
 20
-23.6686198493
 11
3.6498291785
 21
-23.21603852
  0
LINE
  5
529
100
AcDbEntity
  8
0
100
AcDbLine
 62
7
  6
CONTINUOUS
 10
2.2773508698
 20
23.2820357193
 11
0.5233132021
 21
23.1899934936
  0
LWPOLYLINE
  5
52A
100
AcDbEntity
  8
0
100
AcDbPolyline
 62
7
  6
CONTINUOUS
 90
16
 70
0
 10
-0.5685697601
 20
22.6440520125
 10
-0.5350745788
 20
22.6390989203
 10
-0.5020196971
 20
22.6335899277
 10
-0.4694051148
 20
22.6275250346
 10
-0.4371971583
 20
22.6208967221
 10
-0.4054295013
 20
22.6137125092
 10
-0.3742031649
 20
22.6059949522
 10
-0.3435117538
 20
22.5977398906
 10
-0.3133616634
 20
22.588951485
 10
-0.2838730999
 20
22.5796647735
 10
-0.2550564536
 20
22.5698804878
 10
-0.2269013343
 20
22.5595978962
 10
-0.1994967781
 20
22.5488498413
 10
-0.1728724638
 20
22.5376472707
 10
-0.1469987125
 20
22.5259792369
 10
-0.1218755244
 20
22.5138457398
  0
LWPOLYLINE
  5
52B
100
AcDbEntity
  8
0
100
AcDbPolyline
 62
7
  6
CONTINUOUS
 90
8
 70
0
 10
3.8652204651
 20
22.1508192644
 10
3.8806290138
 20
22.1471767628
 10
3.8964794932
 20
22.1427007173
 10
3.9127590346
 20
22.137374589
 10
3.9294601479
 20
22.1311866262
 10
3.9465584077
 20
22.124115019
 10
3.9640117158
 20
22.1161294091
 10
3.972340978
 20
22.112048112
  0
LWPOLYLINE
  5
52C
100
AcDbEntity
  8
RACCORDO
100
AcDbPolyline
 62
7
  6
CONTINUOUS
 90
9
 70
0
 10
13.8796113923
 20
20.7484835769
 10
13.8734946518
 20
20.7500830746
 10
13.863724438
 20
20.7516158885
 10
13.8533982426
 20
20.7520313329
 10
13.8426110454
 20
20.7513295604
 10
13.8316477865
 20
20.749511029
 10
13.8206034458
 20
20.7465758915
 10
13.8093830433
 20
20.7425239951
 10
13.797986579
 20
20.7373553399
  0
LINE
  5
52D
100
AcDbEntity
  8
0
100
AcDbLine
 62
7
  6
CONTINUOUS
 10
12.4865485936
 20
20.0816363472
 11
12.0368039322
 21
20.2033841803
  0
LWPOLYLINE
  5
52E
100
AcDbEntity
  8
RACCORDO
100
AcDbPolyline
 62
7
  6
CONTINUOUS
 90
28
 70
0
 10
13.8796012561
 20
20.7484596245
 10
13.7708859095
 20
20.7797454702
 10
13.6560308666
 20
20.8090991473
 10
13.5387694426
 20
20.8354262174
 10
13.4193962778
 20
20.8586883092
 10
13.2981759061
 20
20.878858862
 10
13.1753465367
 20
20.8959181373
 10
13.0511977393
 20
20.9098419788
 10
12.9260142762
 20
20.9206126478
 10
12.8000337587
 20
20.9282200475
 10
12.6735473725
 20
20.9326534262
 10
12.5468446496
 20
20.9339079809
 10
12.4201629042
 20
20.9319832078
 10
12.2937916344
 20
20.9268818728
 10
12.1680220438
 20
20.9186126607
 10
12.0430924444
 20
20.9071847852
 10
11.9192935698
 20
20.892614953
 10
11.7969088175
 20
20.8749249314
 10
11.6761603813
 20
20.854130756
 10
11.5573254602
 20
20.830259156
 10
11.4406896367
 20
20.8033441043
 10
11.3264780637
 20
20.7734093369
 10
11.2149628855
 20
20.740492233
 10
11.1064166891
 20
20.7046355982
 10
11.0010497975
 20
20.6658639807
 10
10.8991030151
 20
20.6242111723
 10
10.8008568777
 20
20.5797303978
 10
10.7065728165
 20
20.5324730083
  0
LWPOLYLINE
  5
52F
100
AcDbEntity
  8
0
100
AcDbPolyline
 62
7
  6
CONTINUOUS
 90
10
 70
0
 10
4.4875918375
 20
21.854424406
 10
4.4845267565
 20
21.8555606352
 10
4.4810034944
 20
21.8562189196
 10
4.4769189796
 20
21.856505056
 10
4.4723089203
 20
21.8564278281
 10
4.4672031924
 20
21.8559930482
 10
4.4616122914
 20
21.8552363345
 10
4.4555658501
 20
21.8541694103
 10
4.4490867601
 20
21.8527918065
 10
4.4421609418
 20
21.8511226016
  0
LWPOLYLINE
  5
530
100
AcDbEntity
  8
0
100
AcDbPolyline
 62
7
  6
CONTINUOUS
 90
7
 70
0
 10
-1.1028551873
 20
24.6496426818
 10
-1.1042558709
 20
24.6502542558
 10
-1.1075867876
 20
24.6511613086
 10
-1.1115305058
 20
24.651636164
 10
-1.1160528542
 20
24.6517257473
 10
-1.1211186739
 20
24.6514506592
 10
-1.1266896811
 20
24.6508049628
  0
LINE
  5
531
100
AcDbEntity
  8
0
100
AcDbLine
 62
7
  6
CONTINUOUS
 10
5.1837042166
 20
21.8288590459
 11
2.2773508698
 21
23.2820357193
  0
LINE
  5
532
100
AcDbEntity
  8
DRAFT
100
AcDbLine
 62
7
  6
CONTINUOUS
 10
9.7234979274
 20
19.6022634607
 11
10.4411064938
 21
19.2434591775
  0
LINE
  5
533
100
AcDbEntity
  8
0
100
AcDbLine
 62
250
  6
CONTINUOUS
 10
-1.3943562995
 20
25.7450853416
 11
1.5648796399
 21
24.2654673719
  0
LINE
  5
534
100
AcDbEntity
  8
0
100
AcDbLine
 62
250
  6
CONTINUOUS
 10
5.8153692496
 20
22.1402225671
 11
8.774605189
 21
20.6606045973
  0
LINE
  5
535
100
AcDbEntity
  8
0
100
AcDbLine
 62
7
  6
CONTINUOUS
 10
-1.1051601333
 20
25.8483967421
 11
2.0093702988
 21
24.291131526
  0
LINE
  5
536
100
AcDbEntity
  8
0
100
AcDbLine
 62
7
  6
CONTINUOUS
 10
6.2570782672
 20
22.1672775418
 11
9.3716086992
 21
20.6100123258
  0
LINE
  5
537
100
AcDbEntity
  8
0
100
AcDbLine
 62
7
  6
CONTINUOUS
 10
11.5418291854
 20
19.9558968069
 11
10.8348602453
 21
20.309381277
  0
LINE
  5
538
100
AcDbEntity
  8
0
100
AcDbLine
 62
7
  6
CONTINUOUS
 10
4.1172079829
 20
23.6682074081
 11
3.4102390428
 21
24.0216918782
  0
LINE
  5
539
100
AcDbEntity
  8
0
100
AcDbLine
 62
7
  6
CONTINUOUS
 10
12.0368039322
 20
20.2033841803
 11
11.3298349921
 21
20.5568686504
  0
LINE
  5
53A
100
AcDbEntity
  8
0
100
AcDbLine
 62
7
  6
CONTINUOUS
 10
4.6121827298
 20
23.9156947816
 11
3.9052137896
 21
24.2691792516
  0
LINE
  5
53B
100
AcDbEntity
  8
DRAFT
100
AcDbLine
 62
7
  6
CONTINUOUS
 10
10.637025969
 20
21.2198940155
 11
11.0693402198
 21
21.0037368902
  0
LINE
  5
53C
100
AcDbEntity
  8
SMUSSO
100
AcDbLine
 62
7
  6
CONTINUOUS
 10
3.6447190173
 20
24.7160474914
 11
3.2124047665
 21
24.9322046168
  0
LWPOLYLINE
  5
53D
100
AcDbEntity
  8
RACCORDO
100
AcDbPolyline
 62
250
  6
CONTINUOUS
 90
4
 70
0
 10
7.315559009
 20
24.0317123288
 10
7.3400819994
 20
24.0112079504
 10
7.364447761
 20
23.989929686
 10
7.3826455848
 20
23.9732959043
  0
LWPOLYLINE
  5
53E
100
AcDbEntity
  8
RACCORDO
100
AcDbPolyline
 62
250
  6
CONTINUOUS
 90
6
 70
0
 10
7.2219224099
 20
24.0254163204
 10
7.2447828393
 20
24.0058375869
 10
7.2673603776
 20
23.9854845404
 10
7.2896550248
 20
23.9643571807
 10
7.3117005231
 20
23.9425272938
 10
7.3138611694
 20
23.9402830921
  0
LINE
  5
53F
100
AcDbEntity
  8
0
100
AcDbLine
 62
7
  6
CONTINUOUS
 10
11.5418291854
 20
19.9558968069
 11
11.7392198526
 21
19.773603216
  0
LWPOLYLINE
  5
540
100
AcDbEntity
  8
0
100
AcDbPolyline
 62
7
  6
CONTINUOUS
 90
7
 70
0
 10
-1.8472773598
 20
24.9466552127
 10
-1.8356713398
 20
24.9491901371
 10
-1.8237050199
 20
24.9511338892
 10
-1.8113854213
 20
24.9524750873
 10
-1.7987135347
 20
24.953194113
 10
-1.7857065485
 20
24.9532837101
 10
-1.7723693735
 20
24.9527358999
  0
LINE
  5
541
100
AcDbEntity
  8
0
100
AcDbLine
 62
7
  6
CONTINUOUS
 10
-1.1266896811
 20
24.6508049628
 11
-1.132729451
 21
24.6497942224
  0
LWPOLYLINE
  5
542
100
AcDbEntity
  8
0
100
AcDbPolyline
 62
7
  6
CONTINUOUS
 90
11
 70
0
 10
-1.7723693735
 20
24.9527358999
 10
-1.7586831793
 20
24.9515281454
 10
-1.7446745686
 20
24.9496577804
 10
-1.7303404837
 20
24.9471100693
 10
-1.715613485
 20
24.9438388716
 10
-1.7004955832
 20
24.9398341247
 10
-1.6850072628
 20
24.9350795947
 10
-1.6691053478
 20
24.9295127143
 10
-1.652792966
 20
24.9231142459
 10
-1.6360962099
 20
24.9158706624
 10
-1.6181047421
 20
24.9072726765
  0
LWPOLYLINE
  5
543
100
AcDbEntity
  8
RACCORDO
100
AcDbPolyline
 62
7
  6
CONTINUOUS
 90
9
 70
0
 10
6.4549901899
 20
24.4607941781
 10
6.4488734493
 20
24.4623936758
 10
6.4391032356
 20
24.4639264897
 10
6.4287770401
 20
24.4643419341
 10
6.417989843
 20
24.4636401616
 10
6.407026584
 20
24.4618216303
 10
6.3959822433
 20
24.4588864927
 10
6.3847618408
 20
24.4548345964
 10
6.3733653766
 20
24.4496659411
  0
LINE
  5
544
100
AcDbEntity
  8
0
100
AcDbLine
 62
7
  6
CONTINUOUS
 10
5.0619273911
 20
23.7939469484
 11
4.6121827298
 21
23.9156947816
  0
LWPOLYLINE
  5
545
100
AcDbEntity
  8
RACCORDO
100
AcDbPolyline
 62
7
  6
CONTINUOUS
 90
28
 70
0
 10
6.4549800536
 20
24.4607702257
 10
6.346264707
 20
24.4920560715
 10
6.2314096641
 20
24.5214097485
 10
6.1141482401
 20
24.5477368187
 10
5.9947750753
 20
24.5709989104
 10
5.8735547037
 20
24.5911694632
 10
5.7507253342
 20
24.6082287385
 10
5.6265765368
 20
24.6221525801
 10
5.5013930737
 20
24.6329232491
 10
5.3754125562
 20
24.6405306488
 10
5.2489261701
 20
24.6449640275
 10
5.1222234472
 20
24.6462185821
 10
4.9955417017
 20
24.6442938091
 10
4.8691704319
 20
24.6391924741
 10
4.7434008413
 20
24.6309232619
 10
4.618471242
 20
24.6194953865
 10
4.4946723674
 20
24.6049255542
 10
4.372287615
 20
24.5872355326
 10
4.2515391788
 20
24.5664413573
 10
4.1327042577
 20
24.5425697573
 10
4.0160684343
 20
24.5156547055
 10
3.9018568612
 20
24.4857199382
 10
3.7903416831
 20
24.4528028343
 10
3.6817954867
 20
24.4169461995
 10
3.5764285951
 20
24.3781745819
 10
3.4744818126
 20
24.3365217735
 10
3.3762356752
 20
24.292040999
 10
3.281951614
 20
24.2447836096
  0
LWPOLYLINE
  5
546
100
AcDbEntity
  8
RACCORDO
100
AcDbPolyline
 62
7
  6
CONTINUOUS
 90
3
 70
0
 10
13.8916520741
 20
20.7436657963
 10
13.8828038638
 20
20.7474330439
 10
13.8796113923
 20
20.7484835769
  0
LWPOLYLINE
  5
547
100
AcDbEntity
  8
RACCORDO
100
AcDbPolyline
 62
7
  6
CONTINUOUS
 90
3
 70
0
 10
6.4670308716
 20
24.4559763975
 10
6.4581826613
 20
24.4597436451
 10
6.4549901899
 20
24.4607941781
  0
LWPOLYLINE
  5
548
100
AcDbEntity
  8
DRAFT
100
AcDbPolyline
 62
7
  6
CONTINUOUS
 90
10
 70
0
 10
14.8123041554
 20
21.0589122917
 10
14.848409775
 20
21.0432045669
 10
14.8839443774
 20
21.0271960794
 10
14.9189079625
 20
21.0108868293
 10
14.9533106998
 20
20.9942717319
 10
14.9871424198
 20
20.9773558719
 10
15.0203726145
 20
20.9601545033
 10
15.0529911147
 20
20.9426727107
 10
15.0850080897
 20
20.9249054096
 10
15.1164235394
 20
20.9068525998
  0
LWPOLYLINE
  5
549
100
AcDbEntity
  8
DRAFT
100
AcDbPolyline
 62
7
  6
CONTINUOUS
 90
10
 70
0
 10
7.387682953
 20
24.771222893
 10
7.4237885726
 20
24.7555151681
 10
7.4593231749
 20
24.7395066806
 10
7.4942867601
 20
24.7231974305
 10
7.5286894973
 20
24.7065823332
 10
7.5625212173
 20
24.6896664732
 10
7.5957514121
 20
24.6724651045
 10
7.6283699123
 20
24.654983312
 10
7.6603868872
 20
24.6372160108
 10
7.6918023369
 20
24.619163201
  0
LINE
  5
54A
100
AcDbEntity
  8
DRAFT
100
AcDbLine
 62
7
  6
CONTINUOUS
 10
7.2041451119
 20
24.8473319609
 11
7.835676433
 21
24.5315663004
  0
LINE
  5
54B
100
AcDbEntity
  8
DRAFT
100
AcDbLine
 62
7
  6
CONTINUOUS
 10
14.6287663144
 20
21.1350213597
 11
15.2602976354
 21
20.8192556991
  0
LINE
  5
54C
100
AcDbEntity
  8
DRAFT
100
AcDbLine
 62
7
  6
CONTINUOUS
 10
14.8123041554
 20
21.0589122917
 11
15.1164235394
 21
20.9068525998
  0
LINE
  5
54D
100
AcDbEntity
  8
DRAFT
100
AcDbLine
 62
7
  6
CONTINUOUS
 10
7.6918023369
 20
24.619163201
 11
7.387682953
 21
24.771222893
  0
LINE
  5
54E
100
AcDbEntity
  8
RACCORDO
100
AcDbLine
 62
7
  6
CONTINUOUS
 10
7.315559009
 20
24.0317123288
 11
7.4079711702
 21
23.9854508203
  0
LINE
  5
54F
100
AcDbEntity
  8
RACCORDO
100
AcDbLine
 62
7
  6
CONTINUOUS
 10
14.7401802115
 20
20.3194017276
 11
14.8325923727
 21
20.2731402191
  0
LWPOLYLINE
  5
550
100
AcDbEntity
  8
RACCORDO
100
AcDbPolyline
 62
7
  6
CONTINUOUS
 90
10
 70
0
 10
7.2776149418
 20
24.0443799838
 10
7.1801378881
 20
24.0944354155
 10
7.0845246862
 20
24.1434112911
 10
6.9907753363
 20
24.1913076107
 10
6.898904255
 20
24.2381257985
 10
6.8088970256
 20
24.2838644302
 10
6.7207103976
 20
24.3285192332
 10
6.6343299542
 20
24.3720887834
 10
6.5497701122
 20
24.4145745048
 10
6.4670308716
 20
24.4559763975
  0
LWPOLYLINE
  5
551
100
AcDbEntity
  8
RACCORDO
100
AcDbPolyline
 62
7
  6
CONTINUOUS
 90
10
 70
0
 10
14.7022361442
 20
20.3320693825
 10
14.6047590905
 20
20.3821248142
 10
14.5091458887
 20
20.4311006899
 10
14.4153965387
 20
20.4789970095
 10
14.3235254575
 20
20.5258151972
 10
14.233518228
 20
20.571553829
 10
14.1453316
 20
20.616208632
 10
14.0589511566
 20
20.6597781821
 10
13.9743913146
 20
20.7022639036
 10
13.8916520741
 20
20.7436657963
  0
LINE
  5
552
100
AcDbEntity
  8
RACCORDO
100
AcDbLine
 62
7
  6
CONTINUOUS
 10
7.2853733704
 20
24.0397935117
 11
7.2776149418
 21
24.0443799838
  0
LINE
  5
553
100
AcDbEntity
  8
RACCORDO
100
AcDbLine
 62
7
  6
CONTINUOUS
 10
14.7099945729
 20
20.3274829105
 11
14.7022361442
 21
20.3320693825
  0
LWPOLYLINE
  5
554
100
AcDbEntity
  8
RACCORDO
100
AcDbPolyline
 62
250
  6
CONTINUOUS
 90
4
 70
0
 10
14.7401802115
 20
20.3194017276
 10
14.7647032018
 20
20.2988973492
 10
14.7890689635
 20
20.2776190848
 10
14.8072667872
 20
20.2609853031
  0
LWPOLYLINE
  5
555
100
AcDbEntity
  8
RACCORDO
100
AcDbPolyline
 62
250
  6
CONTINUOUS
 90
6
 70
0
 10
14.6465436123
 20
20.3131057191
 10
14.6694040418
 20
20.2935269857
 10
14.6919815801
 20
20.2731739391
 10
14.7142762272
 20
20.2520465795
 10
14.7363217256
 20
20.2302166926
 10
14.7384823719
 20
20.2279724909
  0
LWPOLYLINE
  5
556
100
AcDbEntity
  8
RACCORDO
100
AcDbPolyline
 62
250
  6
CONTINUOUS
 90
57
 70
0
 10
20.0891236882
 20
17.2949342892
 10
20.0984647334
 20
17.2649549438
 10
20.1106633653
 20
17.2224205574
 10
20.1221073903
 20
17.1788815961
 10
20.1327788555
 20
17.1343445623
 10
20.1426108892
 20
17.0888221139
 10
20.1516038506
 20
17.0422082792
 10
20.1597282439
 20
16.9946053641
 10
20.1668808252
 20
16.9463439751
 10
20.1730460526
 20
16.8973600035
 10
20.1782256518
 20
16.8477252889
 10
20.1823626269
 20
16.7979857392
 10
20.1854421511
 20
16.7480812661
 10
20.1874904409
 20
16.6980921888
 10
20.1885410787
 20
16.6487888059
 10
20.1885853491
 20
16.6001441365
 10
20.1876769383
 20
16.5522163652
 10
20.1859765017
 20
16.505917051
 10
20.1835248848
 20
16.4615624661
 10
20.1803614583
 20
16.418874151
 10
20.1766588107
 20
16.3778762709
 10
20.1724734105
 20
16.3386914851
 10
20.1678159006
 20
16.3012235185
 10
20.1627808431
 20
16.2651646937
 10
20.1573993652
 20
16.2304831428
 10
20.1516873457
 20
16.1972266925
 10
20.1457058473
 20
16.1652038693
 10
20.1394738129
 20
16.1343891477
 10
20.1330081147
 20
16.1048184694
 10
20.1263606916
 20
16.0763908623
 10
20.1195485724
 20
16.0491063184
 10
20.1125834913
 20
16.0229720362
 10
20.1055055859
 20
15.9978969051
 10
20.0983313659
 20
15.9738902925
 10
20.0910671248
 20
15.9509478251
 10
20.0837343975
 20
15.9289570873
 10
20.0763478181
 20
15.9079249286
 10
20.0689101636
 20
15.8878479213
 10
20.0614222507
 20
15.8685976655
 10
20.0538914075
 20
15.8501663272
 10
20.0463231477
 20
15.8325640526
 10
20.0387132863
 20
15.8156889909
 10
20.0310586922
 20
15.7995212465
 10
20.0233720497
 20
15.7840823476
 10
20.0156714868
 20
15.7693323597
 10
20.0079533599
 20
15.7552635833
 10
20.0002287455
 20
15.7418850503
 10
19.992536997
 20
15.7291818559
 10
19.9848835037
 20
15.7171652163
 10
19.9772685414
 20
15.705825112
 10
19.9697230204
 20
15.6951147333
 10
19.9622602529
 20
15.6850498525
 10
19.9548708279
 20
15.675615733
 10
19.9475507837
 20
15.6667196843
 10
19.9402994886
 20
15.6583310511
 10
19.933119924
 20
15.6504812916
 10
19.9260130866
 20
15.6431708038
  0
LWPOLYLINE
  5
557
100
AcDbEntity
  8
0
100
AcDbPolyline
 62
7
  6
CONTINUOUS
 90
3
 70
0
 10
-10.6000269245
 20
24.9759439924
 10
-10.6309468364
 20
24.9687707385
 10
-10.6608330644
 20
24.9576819566
  0
LWPOLYLINE
  5
558
100
AcDbEntity
  8
RACCORDO
100
AcDbPolyline
 62
250
  6
CONTINUOUS
 90
26
 70
0
 10
19.1934397078
 20
21.6580384868
 10
19.1863904116
 20
21.661471495
 10
19.1711377018
 20
21.668291918
 10
19.1555690407
 20
21.674439648
 10
19.1396960047
 20
21.6799101139
 10
19.1235303965
 20
21.6846992479
 10
19.1070842363
 20
21.688803489
 10
19.0903697531
 20
21.6922197854
 10
19.0733993751
 20
21.6949455968
 10
19.0561857211
 20
21.6969788965
 10
19.0387415905
 20
21.6983181725
 10
19.0210799536
 20
21.698962429
 10
19.0032139438
 20
21.6989111868
 10
18.985156848
 20
21.6981644843
 10
18.9669220944
 20
21.696722877
 10
18.9485232406
 20
21.6945874372
 10
18.9299739648
 20
21.6917597524
 10
18.9112880468
 20
21.6882419227
 10
18.8924793936
 20
21.6840365654
 10
18.8735620284
 20
21.679146818
 10
18.8545500384
 20
21.6735763265
 10
18.8354575405
 20
21.6673292322
 10
18.8162987087
 20
21.6604101755
 10
18.797087781
 20
21.6528242995
 10
18.7778390496
 20
21.6445772488
 10
18.7585668272
 20
21.6356751572
  0
LWPOLYLINE
  5
559
100
AcDbEntity
  8
RACCORDO
100
AcDbPolyline
 62
250
  6
CONTINUOUS
 90
24
 70
0
 10
5.6086987261
 20
28.2106092078
 10
5.5882799671
 20
28.2205926142
 10
5.5678680407
 20
28.2298299603
 10
5.547480212
 20
28.2383134329
 10
5.5271337254
 20
28.2460358564
 10
5.5068457907
 20
28.2529906991
 10
5.486633568
 20
28.2591720782
 10
5.4665141533
 20
28.2645747654
 10
5.4465045641
 20
28.269194191
 10
5.4266217252
 20
28.2730264477
 10
5.406882454
 20
28.2760682941
 10
5.3873034465
 20
28.2783171573
 10
5.3679012632
 20
28.2797711351
 10
5.3486923151
 20
28.2804289979
 10
5.3296928495
 20
28.280290189
 10
5.3109189368
 20
28.2793548259
 10
5.2923864565
 20
28.2776236998
 10
5.2741110839
 20
28.2750982749
 10
5.2561082767
 20
28.2717806873
 10
5.2383932623
 20
28.2676737431
 10
5.2209810245
 20
28.262780916
 10
5.2038862911
 20
28.2571063446
 10
5.1871235212
 20
28.2506548286
 10
5.1698139756
 20
28.2430121428
  0
LINE
  5
55A
100
AcDbEntity
  8
DRAFT
100
AcDbLine
 62
7
  6
CONTINUOUS
 10
17.7178823572
 20
21.6579239069
 11
14.6090667864
 21
23.2123316922
  0
LINE
  5
55B
100
AcDbEntity
  8
DRAFT
100
AcDbLine
 62
7
  6
CONTINUOUS
 10
10.2932611547
 20
25.3702345081
 11
7.184445584
 21
26.9246422935
  0
LINE
  5
55C
100
AcDbEntity
  8
RACCORDO
100
AcDbLine
 62
250
  6
CONTINUOUS
 10
18.2261689693
 20
21.9018740862
 11
18.7585668272
 21
21.6356751572
  0
LINE
  5
55D
100
AcDbEntity
  8
RACCORDO
100
AcDbLine
 62
250
  6
CONTINUOUS
 10
13.5657177865
 20
24.2320996776
 11
10.8015477668
 21
25.6141846874
  0
LINE
  5
55E
100
AcDbEntity
  8
RACCORDO
100
AcDbLine
 62
250
  6
CONTINUOUS
 10
6.141096584
 20
27.9444102788
 11
5.6086987261
 21
28.2106092078
  0
LINE
  5
55F
100
AcDbEntity
  8
RACCORDO
100
AcDbLine
 62
7
  6
CONTINUOUS
 10
18.5728750801
 20
21.9683208007
 11
19.1934397078
 21
21.6580384868
  0
LINE
  5
560
100
AcDbEntity
  8
RACCORDO
100
AcDbLine
 62
7
  6
CONTINUOUS
 10
14.0887574368
 20
24.2103796223
 11
11.1482538776
 21
25.6806314019
  0
LINE
  5
561
100
AcDbEntity
  8
RACCORDO
100
AcDbLine
 62
7
  6
CONTINUOUS
 10
6.6641362343
 20
27.9226902236
 11
6.0435716067
 21
28.2329725374
  0
LWPOLYLINE
  5
562
100
AcDbEntity
  8
RACCORDO
100
AcDbPolyline
 62
7
  6
CONTINUOUS
 90
104
 70
0
 10
20.0891236882
 20
19.1140066953
 10
20.101845033
 20
19.1047518701
 10
20.1466666447
 20
19.0708835486
 10
20.1911504917
 20
19.0360086364
 10
20.2353081517
 20
19.0001238489
 10
20.2791387289
 20
18.9632336577
 10
20.3226104813
 20
18.9253683241
 10
20.3656881018
 20
18.8865634875
 10
20.4083510225
 20
18.8468434655
 10
20.4505887293
 20
18.8062236618
 10
20.4923812307
 20
18.7647287324
 10
20.5337073567
 20
18.7223854623
 10
20.5745581104
 20
18.6792086781
 10
20.6149312322
 20
18.6352053016
 10
20.6548220559
 20
18.5903836192
 10
20.6942045284
 20
18.5447759424
 10
20.7330444538
 20
18.4984263203
 10
20.7713133521
 20
18.4513748557
 10
20.8090119786
 20
18.403626614
 10
20.8461497159
 20
18.3551734525
 10
20.8827254182
 20
18.306018313
 10
20.9187106138
 20
18.2562007386
 10
20.9540735651
 20
18.2057676986
 10
20.9887908527
 20
18.1547572565
 10
21.0228598757
 20
18.1031777818
 10
21.0562804477
 20
18.0510324171
 10
21.0890444193
 20
17.9983353078
 10
21.1211331169
 20
17.9451177518
 10
21.1525302538
 20
17.8914085086
 10
21.183221598
 20
17.837233912
 10
21.2131965316
 20
17.7826145317
 10
21.2424445653
 20
17.7275708524
 10
21.2709531692
 20
17.6721275455
 10
21.2987111061
 20
17.6163073668
 10
21.3257097884
 20
17.5601279245
 10
21.3519384495
 20
17.5036113298
 10
21.3773849323
 20
17.446783243
 10
21.4020386384
 20
17.3896665714
 10
21.4258891577
 20
17.3322842683
 10
21.4489253603
 20
17.2746616447
 10
21.4711360294
 20
17.2168251661
 10
21.4925084952
 20
17.158806472
 10
21.5130358458
 20
17.1006226196
 10
21.5327151694
 20
17.0422779693
 10
21.5515419486
 20
16.9837789086
 10
21.569500125
 20
16.9251676442
 10
21.5865705524
 20
16.8665020904
 10
21.6027384231
 20
16.8078326371
 10
21.6180038799
 20
16.749157814
 10
21.632370152
 20
16.6904574844
 10
21.6458343429
 20
16.6317278687
 10
21.6583804134
 20
16.5730216656
 10
21.6699921556
 20
16.5144029619
 10
21.6806590611
 20
16.4559188507
 10
21.6903796069
 20
16.3975704699
 10
21.6991519913
 20
16.3393524196
 10
21.7069711249
 20
16.2812721744
 10
21.7138273505
 20
16.2233707916
 10
21.7197120195
 20
16.1656926209
 10
21.7246194382
 20
16.1082640121
 10
21.7285446228
 20
16.0511060637
 10
21.7314820255
 20
15.9942539949
 10
21.7334271745
 20
15.9377409518
 10
21.734376672
 20
15.8815799842
 10
21.7343265389
 20
15.8257754385
 10
21.7332712257
 20
15.7703170094
 10
21.731206039
 20
15.715261978
 10
21.7281320223
 20
15.6607135333
 10
21.7240535968
 20
15.6067393534
 10
21.7189691265
 20
15.5533121478
 10
21.7128717589
 20
15.5003912897
 10
21.7057495331
 20
15.4479344459
 10
21.6976069772
 20
15.3960294272
 10
21.6884663432
 20
15.3448273099
 10
21.6783461189
 20
15.2944057307
 10
21.6672416705
 20
15.2447192299
 10
21.6551451003
 20
15.1957307728
 10
21.6420455847
 20
15.1474106956
 10
21.6279578075
 20
15.0998270531
 10
21.6129147092
 20
15.0530869288
 10
21.5969330209
 20
15.0072254468
 10
21.5800152781
 20
14.9622345738
 10
21.5621805639
 20
14.9181508035
 10
21.5434445477
 20
14.8749962108
 10
21.5238147306
 20
14.8327726175
 10
21.503299442
 20
14.7914852222
 10
21.4818905801
 20
14.7511101841
 10
21.4596182779
 20
14.7116973424
 10
21.4365554683
 20
14.6733563238
 10
21.4127625666
 20
14.6361539506
 10
21.3882217405
 20
14.6000301252
 10
21.3628900393
 20
14.5649041059
 10
21.3367501149
 20
14.5307463967
 10
21.3098470333
 20
14.4976106153
 10
21.2822293639
 20
14.4655444776
 10
21.2539322003
 20
14.4345720251
 10
21.2249600782
 20
14.4046819103
 10
21.1953187951
 20
14.375866893
 10
21.1650307533
 20
14.3481367468
 10
21.1341135095
 20
14.321495692
 10
21.102564296
 20
14.295931621
 10
21.0703949957
 20
14.2714468075
 10
21.037633493
 20
14.2480550838
 10
21.0043004748
 20
14.2257632385
  0
LWPOLYLINE
  5
563
100
AcDbEntity
  8
RACCORDO
100
AcDbPolyline
 62
250
  6
CONTINUOUS
 90
105
 70
0
 10
20.0891236882
 20
19.023758057
 10
20.1036664328
 20
19.0120548499
 10
20.145721493
 20
18.9770621451
 10
20.1875291241
 20
18.9411199712
 10
20.2290710596
 20
18.9042440317
 10
20.2703291556
 20
18.8664504332
 10
20.3112854019
 20
18.827755674
 10
20.3519219194
 20
18.7881766463
 10
20.3922209644
 20
18.7477306318
 10
20.4321649402
 20
18.7064352913
 10
20.4717364083
 20
18.6643086535
 10
20.5109180938
 20
18.6213691079
 10
20.5496928839
 20
18.5776354081
 10
20.5880438387
 20
18.5331266608
 10
20.6259542045
 20
18.4878623108
 10
20.6634074362
 20
18.4418621134
 10
20.7003871951
 20
18.3951461358
 10
20.7368773455
 20
18.3477347608
 10
20.7728619416
 20
18.2996487045
 10
20.8083252512
 20
18.2509089903
 10
20.8432517754
 20
18.2015369214
 10
20.8776262791
 20
18.1515540364
 10
20.9114337763
 20
18.1009821257
 10
20.944659521
 20
18.0498432448
 10
20.9772889877
 20
17.9981597479
 10
21.0093079024
 20
17.9459542441
 10
21.0407022674
 20
17.8932495597
 10
21.0714583936
 20
17.8400686789
 10
21.1015628793
 20
17.7864347749
 10
21.1310025966
 20
17.7323712322
 10
21.1597646709
 20
17.6779016902
 10
21.1878365154
 20
17.623049986
 10
21.2152058557
 20
17.5678401075
 10
21.241860761
 20
17.5122961261
 10
21.2677896197
 20
17.4564422386
 10
21.2929811258
 20
17.4003027942
 10
21.3174242606
 20
17.3439023437
 10
21.3411083256
 20
17.2872655725
 10
21.3640229651
 20
17.2304172501
 10
21.3861581913
 20
17.1733821608
 10
21.4075043614
 20
17.1161851504
 10
21.4280521671
 20
17.058851155
 10
21.4477926204
 20
17.0014052475
 10
21.4667170823
 20
16.9438725677
 10
21.4848172796
 20
16.8862782738
 10
21.5020853222
 20
16.8286474777
 10
21.5185136861
 20
16.7710052908
 10
21.5340952055
 20
16.7133768488
 10
21.5488230659
 20
16.6557873486
 10
21.5626908243
 20
16.5982619838
 10
21.5756924198
 20
16.5408259021
 10
21.5878221838
 20
16.4835041532
 10
21.5990748285
 20
16.4263217254
 10
21.6094454438
 20
16.3693035631
 10
21.6189294957
 20
16.3124745877
 10
21.6275228375
 20
16.2558596462
 10
21.635221715
 20
16.1994834778
 10
21.6420227703
 20
16.1433706798
 10
21.6479230368
 20
16.0875457299
 10
21.6529199386
 20
16.0320329914
 10
21.6570112921
 20
15.9768567166
 10
21.6601953095
 20
15.9220410124
 10
21.6624706005
 20
15.86760982
 10
21.6638361724
 20
15.8135869001
 10
21.6642914291
 20
15.7599958368
 10
21.6638361719
 20
15.7068600307
 10
21.6624705994
 20
15.6542026832
 10
21.6601953077
 20
15.6020467822
 10
21.6570112898
 20
15.5504150957
 10
21.6529199358
 20
15.4993301745
 10
21.6479230333
 20
15.4488143382
 10
21.6420227663
 20
15.3988896552
 10
21.6352217104
 20
15.3495779131
 10
21.6275228323
 20
15.3009006227
 10
21.61892949
 20
15.2528790233
 10
21.6094454375
 20
15.2055341002
 10
21.5990748216
 20
15.1588865537
 10
21.5878221763
 20
15.1129567711
 10
21.5756924118
 20
15.0677647865
 10
21.5626908157
 20
15.0233303009
 10
21.5488230568
 20
14.9796726951
 10
21.5340951959
 20
14.9368110559
 10
21.518513676
 20
14.8947641339
 10
21.5020853116
 20
14.8535503113
 10
21.4848172683
 20
14.8131875582
 10
21.4667170705
 20
14.7736934621
 10
21.4477926081
 20
14.735085245
 10
21.4280521544
 20
14.6973797916
 10
21.4075043483
 20
14.6605936027
 10
21.3861581775
 20
14.6247427628
 10
21.3640229507
 20
14.5898429
 10
21.3411083106
 20
14.5559092177
 10
21.3174242452
 20
14.5229565123
 10
21.2929811102
 20
14.4909991976
 10
21.2677896037
 20
14.4600512602
 10
21.2418607444
 20
14.4301262318
 10
21.2152058384
 20
14.4012371561
 10
21.1878364975
 20
14.3733966185
 10
21.1597646527
 20
14.3466167596
 10
21.1310025783
 20
14.320909293
 10
21.1015628608
 20
14.2962854685
 10
21.0714583745
 20
14.2727560507
 10
21.0407022475
 20
14.2503312966
 10
21.0093078819
 20
14.2290209777
 10
21.0043004753
 20
14.2257632388
  0
LWPOLYLINE
  5
564
100
AcDbEntity
  8
RACCORDO
100
AcDbPolyline
 62
250
  6
CONTINUOUS
 90
34
 70
0
 10
19.747156245
 20
21.0309384031
 10
19.7461991098
 20
21.0321994762
 10
19.7443263797
 20
21.0336152376
 10
19.7418133173
 20
21.0346565305
 10
19.7386617887
 20
21.0353225819
 10
19.7348741344
 20
21.035612897
 10
19.730453167
 20
21.0355272604
 10
19.7254021696
 20
21.0350657354
 10
19.7197248931
 20
21.034228665
 10
19.7134255535
 20
21.0330166708
 10
19.7065088287
 20
21.0314306526
 10
19.698979855
 20
21.0294717884
 10
19.6908442236
 20
21.0271415329
 10
19.6821079759
 20
21.0244416163
 10
19.6727775997
 20
21.0213740438
 10
19.6628600236
 20
21.0179410934
 10
19.6523626126
 20
21.0141453143
 10
19.641293162
 20
21.0099895253
 10
19.6296598922
 20
21.0054768125
 10
19.6174714419
 20
21.0006105272
 10
19.6047368625
 20
20.9953942829
 10
19.5914656107
 20
20.9898319534
 10
19.5776675418
 20
20.9839276693
 10
19.5633529023
 20
20.9776858151
 10
19.5485323224
 20
20.971111026
 10
19.5332168078
 20
20.9642081846
 10
19.5174177321
 20
20.9569824168
 10
19.5011468276
 20
20.9494390887
 10
19.4844161773
 20
20.9415838019
 10
19.4672382054
 20
20.9334223898
 10
19.4496256683
 20
20.9249609131
 10
19.4315916452
 20
20.9162056553
 10
19.4131495284
 20
20.9071631182
 10
19.3943130129
 20
20.8978400168
  0
LWPOLYLINE
  5
565
100
AcDbEntity
  8
RACCORDO
100
AcDbPolyline
 62
250
  6
CONTINUOUS
 90
34
 70
0
 10
19.6113339236
 20
21.2651972554
 10
19.6103767714
 20
21.2664583577
 10
19.6085040412
 20
21.267874119
 10
19.6059909786
 20
21.2689154119
 10
19.6028394499
 20
21.2695814632
 10
19.5990517955
 20
21.2698717783
 10
19.594630828
 20
21.2697861415
 10
19.5895798305
 20
21.2693246166
 10
19.5839025539
 20
21.2684875461
 10
19.5776032142
 20
21.2672755518
 10
19.5706864893
 20
21.2656895336
 10
19.5631575156
 20
21.2637306693
 10
19.5550218841
 20
21.2614004137
 10
19.5462856364
 20
21.2587004971
 10
19.5369552601
 20
21.2556329246
 10
19.527037684
 20
21.2521999741
 10
19.516540273
 20
21.2484041949
 10
19.5054708224
 20
21.2442484059
 10
19.4938375525
 20
21.2397356932
 10
19.4816491023
 20
21.2348694078
 10
19.4689145229
 20
21.2296531636
 10
19.4556432711
 20
21.2240908341
 10
19.4418452023
 20
21.21818655
 10
19.4275305628
 20
21.2119446957
 10
19.412709983
 20
21.2053699067
 10
19.3973944686
 20
21.1984670653
 10
19.3815953929
 20
21.1912412976
 10
19.3653244886
 20
21.1836979695
 10
19.3485938384
 20
21.1758426827
 10
19.3314158666
 20
21.1676812706
 10
19.3138033296
 20
21.159219794
 10
19.2957693067
 20
21.1504645363
 10
19.27732719
 20
21.1414219993
 10
19.2584906748
 20
21.1320988979
  0
LWPOLYLINE
  5
566
100
AcDbEntity
  8
RACCORDO
100
AcDbPolyline
 62
7
  6
CONTINUOUS
 90
23
 70
0
 10
19.6113339236
 20
21.2651972554
 10
19.59775383
 20
21.2879208856
 10
19.583580813
 20
21.3102712498
 10
19.5688250966
 20
21.3322332361
 10
19.5534983245
 20
21.3537905698
 10
19.5376104947
 20
21.3749301645
 10
19.5211696084
 20
21.3956418155
 10
19.5041846752
 20
21.4159139993
 10
19.4866697075
 20
21.435729799
 10
19.4686408269
 20
21.4550713309
 10
19.4501144375
 20
21.4739219502
 10
19.4311003729
 20
21.4922725663
 10
19.4116052968
 20
21.5101168489
 10
19.3916401278
 20
21.5274442282
 10
19.3712209586
 20
21.5442401719
 10
19.3503623076
 20
21.560492377
 10
19.3290767818
 20
21.5761905824
 10
19.3073809446
 20
21.5913221476
 10
19.2852961569
 20
21.6058722334
 10
19.262842793
 20
21.6198280938
 10
19.2400323696
 20
21.6331832481
 10
19.2168734
 20
21.6459327398
 10
19.1934402354
 20
21.658038223
  0
LWPOLYLINE
  5
567
100
AcDbEntity
  8
RACCORDO
100
AcDbPolyline
 62
250
  6
CONTINUOUS
 90
28
 70
0
 10
19.2584906748
 20
21.1320988979
 10
19.2438811743
 20
21.1570932171
 10
19.2288507432
 20
21.1817547182
 10
19.2134120947
 20
21.2060625418
 10
19.1975782872
 20
21.2299961279
 10
19.1813627134
 20
21.2535352325
 10
19.1647790888
 20
21.2766599457
 10
19.1478414404
 20
21.2993507081
 10
19.1305640945
 20
21.321588327
 10
19.1129616648
 20
21.3433539933
 10
19.0950490398
 20
21.3646292969
 10
19.0768413707
 20
21.3853962427
 10
19.0583540578
 20
21.4056372654
 10
19.0396027385
 20
21.4253352445
 10
19.0206032729
 20
21.4444735189
 10
19.0013717315
 20
21.463035901
 10
18.9819243807
 20
21.4810066902
 10
18.9622776697
 20
21.4983706862
 10
18.9424482163
 20
21.5151132021
 10
18.9224527927
 20
21.5312200767
 10
18.9023083117
 20
21.5466776862
 10
18.8820318119
 20
21.5614729562
 10
18.8616404439
 20
21.5755933725
 10
18.8411514552
 20
21.5890269916
 10
18.820582176
 20
21.6017624509
 10
18.7999500043
 20
21.6137889785
 10
18.7792723915
 20
21.625096402
 10
18.7585668272
 20
21.6356751572
  0
LINE
  5
568
100
AcDbEntity
  8
RACCORDO
100
AcDbLine
 62
250
  6
CONTINUOUS
 10
19.2584906748
 20
21.1320988979
 11
19.3943130129
 21
20.8978400168
  0
LINE
  5
569
100
AcDbEntity
  8
RACCORDO
100
AcDbLine
 62
7
  6
CONTINUOUS
 10
19.6113339236
 20
21.2651972554
 11
19.7471562618
 21
21.0309383742
  0
LWPOLYLINE
  5
56A
100
AcDbEntity
  8
RACCORDO
100
AcDbPolyline
 62
250
  6
CONTINUOUS
 90
37
 70
0
 10
19.3943130129
 20
20.8978400168
 10
19.4159938207
 20
20.8601013452
 10
19.4371826209
 20
20.8220330978
 10
19.4578692895
 20
20.7836533669
 10
19.4780438697
 20
20.7449804439
 10
19.4976968027
 20
20.7060326616
 10
19.5168189227
 20
20.6668283803
 10
19.5354011527
 20
20.627386122
 10
19.553434551
 20
20.5877247444
 10
19.5709105413
 20
20.5478632811
 10
19.587820767
 20
20.5078207511
 10
19.6041571781
 20
20.4676161285
 10
19.6199120686
 20
20.4272685121
 10
19.6350779331
 20
20.386797092
 10
19.6496475308
 20
20.346221113
 10
19.6636139734
 20
20.3055598454
 10
19.6769706221
 20
20.2648326055
 10
19.6897110934
 20
20.2240587914
 10
19.701829322
 20
20.1832578454
 10
19.7133195492
 20
20.1424491845
 10
19.7241763009
 20
20.1016522209
 10
19.7343943936
 20
20.0608863981
 10
19.7439689773
 20
20.0201711493
 10
19.7528955072
 20
19.9795258179
 10
19.7611697209
 20
19.9389696786
 10
19.7687877059
 20
19.8985220409
 10
19.7757458477
 20
19.8582021543
 10
19.7820407988
 20
19.8180291296
 10
19.7876696037
 20
19.7780220386
 10
19.7926295893
 20
19.7381999877
 10
19.7969183164
 20
19.6985820224
 10
19.8005337794
 20
19.6591871277
 10
19.8034743044
 20
19.6200339445
 10
19.8057384296
 20
19.5811408478
 10
19.8073250759
 20
19.5425262768
 10
19.8082335596
 20
19.5042087217
 10
19.8084634886
 20
19.4662064421
  0
ELLIPSE
  5
56B
100
AcDbEntity
  8
RACCORDO
100
AcDbEllipse
 62
7
  6
CONTINUOUS
 10
-14.132959003
 20
21.0782860806
 30
0.0
 11
-0.2238185272
 21
0.4474870472
 31
0.0
 40
0.6119614214
 41
-0.6845271385
 42
0.028513344
  0
ELLIPSE
  5
56C
100
AcDbEntity
  8
RACCORDO
100
AcDbEllipse
 62
7
  6
CONTINUOUS
 10
0.716041011
 20
13.6537860736
 30
0.0
 11
-0.2235482059
 21
0.4472467618
 31
0.0
 40
0.6127837007
 41
-2.2550219623
 42
-0.6849108682
  0
ELLIPSE
  5
56D
100
AcDbEntity
  8
RACCORDO
100
AcDbEllipse
 62
7
  6
CONTINUOUS
 10
0.716041011
 20
-23.7582145029
 30
0.0
 11
-0.2238185272
 21
0.4474870472
 31
0.0
 40
0.6119614214
 41
-3.1701059984
 42
-2.2560086979
  0
ELLIPSE
  5
56E
100
AcDbEntity
  8
0
100
AcDbEllipse
 62
7
  6
CONTINUOUS
 10
-1.9046345211
 20
24.4915212485
 30
0.0
 11
0.2257019663
 21
0.4461636818
 31
0.0
 40
0.6159267166
 41
0.5882567743
 42
0.6817883054
  0
ELLIPSE
  5
56F
100
AcDbEntity
  8
RACCORDO
100
AcDbEllipse
 62
7
  6
CONTINUOUS
 10
9.2255564305
 20
19.6203378254
 30
0.0
 11
0.499996712
 21
0.0035883639
 31
0.0
 40
0.5053247124
 41
-0.7715714568
 42
-0.0036265893
  0
ELLIPSE
  5
570
100
AcDbEntity
  8
0
100
AcDbEllipse
 62
7
  6
CONTINUOUS
 10
-2.5433890279
 20
20.4944345792
 30
0.0
 11
-0.0909679979
 21
0.1781462259
 31
0.0
 40
0.6079022756
 41
-0.6898048156
 42
-0.0128425411
  0
ELLIPSE
  5
571
100
AcDbEntity
  8
0
100
AcDbEllipse
 62
7
  6
CONTINUOUS
 10
5.8050847693
 20
21.275240302
 30
0.0
 11
0.4547905863
 21
0.8906238433
 31
0.0
 40
0.6079814556
 41
0.0051544747
 42
0.6840559135
  0
ELLIPSE
  5
572
100
AcDbEntity
  8
ASSI
100
AcDbEllipse
 62
7
  6
CONTINUOUS
 10
-2.1056156421
 20
25.2305905077
 30
0.0
 11
1.004787277
 21
0.6140102217
 31
0.0
 40
0.0864918533
 41
0.054007136
 42
0.7329085821
  0
ELLIPSE
  5
573
100
AcDbEntity
  8
ASSI
100
AcDbEllipse
 62
7
  6
CONTINUOUS
 10
9.477637017
 20
-17.5160492465
 30
0.0
 11
0.9927147821
 21
0.620457446
 31
0.0
 40
0.0764819879
 41
-2.4043514965
 42
-1.3666868807
  0
ELLIPSE
  5
574
100
AcDbEntity
  8
ASSI
100
AcDbEllipse
 62
7
  6
CONTINUOUS
 10
27.8878681363
 20
-7.0425588678
 30
0.0
 11
24.0955625974
 21
12.2610436036
 31
0.0
 40
0.0085648092
 41
-2.9166229256
 42
-2.803161766
  0
ELLIPSE
  5
575
100
AcDbEntity
  8
ASSI
100
AcDbEllipse
 62
7
  6
CONTINUOUS
 10
27.8878681363
 20
23.6147404261
 30
0.0
 11
24.0955625974
 21
12.2610436036
 31
0.0
 40
0.0085648092
 41
2.794445403
 42
2.9079065627
  0
ELLIPSE
  5
576
100
AcDbEntity
  8
ASSI
100
AcDbEllipse
 62
7
  6
CONTINUOUS
 10
27.8878681363
 20
22.9219201031
 30
0.0
 11
24.0955625974
 21
12.2610436036
 31
0.0
 40
0.0085648092
 41
-2.9166229256
 42
-2.803161766
  0
ELLIPSE
  5
577
100
AcDbEntity
  8
ASSI
100
AcDbEllipse
 62
7
  6
CONTINUOUS
 10
27.8878681363
 20
-6.3497385448
 30
0.0
 11
24.0955625974
 21
12.2610436036
 31
0.0
 40
0.0085648092
 41
2.794445403
 42
2.9079065627
  0
ELLIPSE
  5
578
100
AcDbEntity
  8
0
100
AcDbEllipse
 62
7
  6
CONTINUOUS
 10
4.1394458051
 20
-22.4014253665
 30
0.0
 11
-0.2236315662
 21
0.4472293059
 31
0.0
 40
0.6123445654
 41
-3.1338271467
 42
-2.2555748796
  0
ELLIPSE
  5
579
100
AcDbEntity
  8
0
100
AcDbEllipse
 62
7
  6
CONTINUOUS
 10
4.1394458051
 20
15.5203958863
 30
0.0
 11
-0.223611546
 21
0.4472115081
 31
0.0
 40
0.6124054886
 41
-2.2555017776
 42
-0.6847562194
  0
ELLIPSE
  5
57A
100
AcDbEntity
  8
0
100
AcDbEllipse
 62
7
  6
CONTINUOUS
 10
-4.2525721648
 20
21.3490261477
 30
0.0
 11
-0.090948378
 21
0.1781282571
 31
0.0
 40
0.6080538059
 41
-2.2606249166
 42
-0.6898793584
  0
ELLIPSE
  5
57B
100
AcDbEntity
  8
0
100
AcDbEllipse
 62
7
  6
CONTINUOUS
 10
3.707339275
 20
21.6855343505
 30
0.0
 11
0.2273952932
 21
0.4453119217
 31
0.0
 40
0.6079814556
 41
0.2357074224
 42
0.6840559135
  0
ELLIPSE
  5
57C
100
AcDbEntity
  8
ASSI
100
AcDbEllipse
 62
7
  6
CONTINUOUS
 10
9.2255564305
 20
-17.7728585768
 30
0.0
 11
0.499443764
 21
0.3120915671
 31
0.0
 40
0.0755486457
 41
-0.0471742161
 42
0.720771186
  0
ELLIPSE
  5
57D
100
AcDbEntity
  8
0
100
AcDbEllipse
 62
7
  6
CONTINUOUS
 10
-3.4539111692
 20
18.8222780358
 30
0.0
 11
0.199943508
 21
0.008945986
 31
0.0
 40
0.5313301283
 41
3.1178240564
 42
3.9032222197
  0
ELLIPSE
  5
57E
100
AcDbEntity
  8
0
100
AcDbEllipse
 62
7
  6
CONTINUOUS
 10
-5.1546807107
 20
19.6726628066
 30
0.0
 11
0.199943508
 21
0.008945986
 31
0.0
 40
0.5313301283
 41
-2.3799630874
 42
-0.8178934069
  0
ELLIPSE
  5
57F
100
AcDbEntity
  8
0
100
AcDbEllipse
 62
7
  6
CONTINUOUS
 10
0.3323987521
 20
16.2142544882
 30
0.0
 11
0.249929385
 21
0.0111824824
 31
0.0
 40
0.5313301283
 41
3.1178240551
 42
3.9032222197
  0
ELLIPSE
  5
580
100
AcDbEntity
  8
0
100
AcDbEllipse
 62
7
  6
CONTINUOUS
 10
-1.2850653683
 20
24.1817366721
 30
0.0
 11
0.2197467797
 21
0.4491356978
 31
0.0
 40
0.6167074461
 41
0.2252343201
 42
0.6735828111
  0
ELLIPSE
  5
581
100
AcDbEntity
  8
0
100
AcDbEllipse
 62
7
  6
CONTINUOUS
 10
-1.550882535
 20
66.3130107381
 30
0.0
 11
-0.3192264997
 21
45.1189143812
 31
0.0
 40
0.0071249215
 41
3.4474731796
 42
3.5354687861
  0
ELLIPSE
  5
582
100
AcDbEntity
  8
0
100
AcDbEllipse
 62
7
  6
CONTINUOUS
 10
-11.9712592405
 20
22.3660834845
 30
0.0
 11
0.249929385
 21
0.0111824824
 31
0.0
 40
0.5313301283
 41
3.1178240551
 42
3.9032222197
  0
ELLIPSE
  5
583
100
AcDbEntity
  8
0
100
AcDbEllipse
 62
7
  6
CONTINUOUS
 10
-10.2844935163
 20
21.5227006224
 30
0.0
 11
0.249929385
 21
0.0111824824
 31
0.0
 40
0.5313301283
 41
-2.3799630874
 42
-0.8149845248
  0
ELLIPSE
  5
584
100
AcDbEntity
  8
0
100
AcDbEllipse
 62
7
  6
CONTINUOUS
 10
4.0395640781
 20
20.599768562
 30
0.0
 11
0.4530414621
 21
-0.0021419047
 31
0.0
 40
0.4964289597
 41
-0.77723337
 42
0.0023470288
  0
ELLIPSE
  5
585
100
AcDbEntity
  8
0
100
AcDbEllipse
 62
7
  6
CONTINUOUS
 10
-0.8395093519
 20
22.725474312
 30
0.0
 11
1.0205811965
 21
-0.0048251373
 31
0.0
 40
0.4964289597
 41
1.3061600176
 42
2.3584907469
  0
ELLIPSE
  5
586
100
AcDbEntity
  8
0
100
AcDbEllipse
 62
7
  6
CONTINUOUS
 10
-1.550882535
 20
23.3949918685
 30
0.0
 11
0.4530414621
 21
-0.0021419047
 31
0.0
 40
0.4964289597
 41
-0.4806702637
 42
0.0023470293
  0
ELLIPSE
  5
587
100
AcDbEntity
  8
0
100
AcDbEllipse
 62
7
  6
CONTINUOUS
 10
-12.6649435487
 20
22.0911953812
 30
0.0
 11
-0.2234618187
 21
0.4480306886
 31
0.0
 40
0.6116748051
 41
-0.6831523234
 42
0.886730614
  0
ELLIPSE
  5
588
100
AcDbEntity
  8
0
100
AcDbEllipse
 62
7
  6
CONTINUOUS
 10
-6.7779355086
 20
21.7088272635
 30
0.0
 11
0.0907039967
 21
0.1782526758
 31
0.0
 40
0.6176975122
 41
0.6948951487
 42
2.2598737113
  0
ELLIPSE
  5
589
100
AcDbEntity
  8
0
100
AcDbEllipse
 62
7
  6
CONTINUOUS
 10
53.4298623572
 20
45.9492574383
 30
0.0
 11
60.4168605605
 21
30.5632322457
 31
0.0
 40
0.005706723
 41
2.5167363259
 42
2.6876789752
  0
ELLIPSE
  5
58A
100
AcDbEntity
  8
0
100
AcDbEllipse
 62
7
  6
CONTINUOUS
 10
4.3269084278
 20
21.3757497741
 30
0.0
 11
0.221538876
 21
0.4482453432
 31
0.0
 40
0.6088015717
 41
0.5825560023
 42
0.6760875334
  0
ELLIPSE
  5
58B
100
AcDbEntity
  8
0
100
AcDbEllipse
 62
7
  6
CONTINUOUS
 10
53.4298623572
 20
45.9492574383
 30
0.0
 11
60.4168605605
 21
30.5632322457
 31
0.0
 40
0.005706723
 41
-2.6934527084
 42
-2.5225100591
  0
ELLIPSE
  5
58C
100
AcDbEntity
  8
0
100
AcDbEllipse
 62
7
  6
CONTINUOUS
 10
2.0191644764
 20
15.3708716261
 30
0.0
 11
0.249929385
 21
0.0111824824
 31
0.0
 40
0.5313301283
 41
-2.3799630874
 42
-0.8149845248
  0
ELLIPSE
  5
58D
100
AcDbEntity
  8
ASSI
100
AcDbEllipse
 62
7
  6
CONTINUOUS
 10
9.2255564305
 20
20.6549608762
 30
0.0
 11
-0.3739417019
 21
0.598522373
 31
0.0
 40
0.554557473
 41
-3.1836090632
 42
-2.415663759
  0
ELLIPSE
  5
58E
100
AcDbEntity
  8
0
100
AcDbEllipse
 62
7
  6
CONTINUOUS
 10
2.359295394
 20
-23.2154888848
 30
0.0
 11
-0.2234618187
 21
0.4480306886
 31
0.0
 40
0.6116748051
 41
2.4584403302
 42
4.0283232676
  0
ELLIPSE
  5
58F
100
AcDbEntity
  8
0
100
AcDbEllipse
 62
7
  6
CONTINUOUS
 10
2.359295394
 20
14.5790759098
 30
0.0
 11
-0.2230998035
 21
0.4477110033
 31
0.0
 40
0.6127700112
 41
-2.2535417632
 42
-0.6836588258
  0
ELLIPSE
  5
590
100
AcDbEntity
  8
0
100
AcDbEllipse
 62
7
  6
CONTINUOUS
 10
1.5669366056
 20
23.3943143839
 30
0.0
 11
0.4394935595
 21
0.8982713957
 31
0.0
 40
0.6167074461
 41
5.3917895557
 42
6.9567681183
  0
ELLIPSE
  5
591
100
AcDbEntity
  8
ASSI
100
AcDbEllipse
 62
7
  6
CONTINUOUS
 10
9.477637017
 20
19.4389641781
 30
0.0
 11
-0.7356038977
 21
1.2035991204
 31
0.0
 40
0.5552491559
 41
5.1980061968
 42
6.2356708126
  0
ELLIPSE
  5
592
100
AcDbEntity
  8
DRAFT
100
AcDbEllipse
 62
7
  6
CONTINUOUS
 10
4.9234475545
 20
23.8427309515
 30
0.0
 11
2.7499924258
 21
-0.0130015067
 31
0.0
 40
0.4964289597
 41
2.3672681657
 42
2.9293761837
  0
ELLIPSE
  5
593
100
AcDbEntity
  8
DRAFT
100
AcDbEllipse
 62
7
  6
CONTINUOUS
 10
12.348068757
 20
20.1304203503
 30
0.0
 11
2.7499924258
 21
-0.0130015067
 31
0.0
 40
0.4964289597
 41
2.3672681657
 42
2.9293761949
  0
ELLIPSE
  5
594
100
AcDbEntity
  8
DRAFT
100
AcDbEllipse
 62
7
  6
CONTINUOUS
 10
13.0198201991
 20
20.0284969005
 30
0.0
 11
2.7583876426
 21
-0.0130411979
 31
0.0
 40
0.4964289597
 41
0.8884696282
 42
2.3585415194
  0
ELLIPSE
  5
595
100
AcDbEntity
  8
DRAFT
100
AcDbEllipse
 62
7
  6
CONTINUOUS
 10
13.0198201991
 20
20.0284969005
 30
0.0
 11
2.7583876426
 21
-0.0130411979
 31
0.0
 40
0.4964289597
 41
0.4412294433
 42
0.6870207571
  0
ELLIPSE
  5
596
100
AcDbEntity
  8
DRAFT
100
AcDbEllipse
 62
7
  6
CONTINUOUS
 10
5.5951989967
 20
23.7408075017
 30
0.0
 11
2.7583876426
 21
-0.0130411979
 31
0.0
 40
0.4964289597
 41
0.4412294433
 42
0.6870207571
  0
ELLIPSE
  5
597
100
AcDbEntity
  8
DRAFT
100
AcDbEllipse
 62
7
  6
CONTINUOUS
 10
5.5951989967
 20
23.7408075017
 30
0.0
 11
2.7583876426
 21
-0.0130411979
 31
0.0
 40
0.4964289597
 41
0.8884696282
 42
2.3585415194
  0
ELLIPSE
  5
598
100
AcDbEntity
  8
RACCORDO
100
AcDbEllipse
 62
7
  6
CONTINUOUS
 10
17.8055189032
 20
21.2339649004
 30
0.0
 11
0.79574694
 21
0.7129684349
 31
0.0
 40
0.2882345029
 41
0.1134874791
 42
0.7807533904
  0
ELLIPSE
  5
599
100
AcDbEntity
  8
RACCORDO
100
AcDbEllipse
 62
7
  6
CONTINUOUS
 10
10.3808977008
 20
24.9462755016
 30
0.0
 11
0.79574694
 21
0.7129684349
 31
0.0
 40
0.2882345029
 41
0.1134874791
 42
0.7807533904
  0
ELLIPSE
  5
59A
100
AcDbEntity
  8
RACCORDO
100
AcDbEllipse
 62
7
  6
CONTINUOUS
 10
13.9081308326
 20
23.1826589357
 30
0.0
 11
0.4410298232
 21
0.8975092442
 31
0.0
 40
0.607010042
 41
-0.8902711325
 42
-0.7587130969
  0
ELLIPSE
  5
59B
100
AcDbEntity
  8
RACCORDO
100
AcDbEllipse
 62
7
  6
CONTINUOUS
 10
6.4835096302
 20
26.8949695369
 30
0.0
 11
0.4410298232
 21
0.8975092442
 31
0.0
 40
0.607010042
 41
-0.8902711325
 42
-0.7587130969
  0
ELLIPSE
  5
59C
100
AcDbEntity
  8
RACCORDO
100
AcDbEllipse
 62
7
  6
CONTINUOUS
 10
6.5370652202
 20
26.8681917419
 30
0.0
 11
-0.3106730325
 21
1.1082908718
 31
0.0
 40
0.6760995073
 41
4.9783291412
 42
6.4001141399
  0
ELLIPSE
  5
59D
100
AcDbEntity
  8
RACCORDO
100
AcDbEllipse
 62
7
  6
CONTINUOUS
 10
13.9616864227
 20
23.1558811406
 30
0.0
 11
-0.3106730325
 21
1.1082908718
 31
0.0
 40
0.6760995073
 41
4.9783291412
 42
6.4001141399
  0
ELLIPSE
  5
59E
100
AcDbEntity
  8
RACCORDO
100
AcDbEllipse
 62
7
  6
CONTINUOUS
 10
3.7918612803
 20
12.7443060522
 30
0.0
 11
-0.894612936
 21
1.7887945813
 31
0.0
 40
0.6124635976
 41
4.0276245976
 42
4.1592894158
  0
ELLIPSE
  5
59F
100
AcDbEntity
  8
RACCORDO
100
AcDbEllipse
 62
7
  6
CONTINUOUS
 10
3.7918612803
 20
12.7443060522
 30
0.0
 11
-0.894612936
 21
1.7887945813
 31
0.0
 40
0.6124635976
 41
-1.5634955031
 42
-1.470288718
  0
ELLIPSE
  5
5A0
100
AcDbEntity
  8
RACCORDO
100
AcDbEllipse
 62
7
  6
CONTINUOUS
 10
3.7918612803
 20
-17.8635374452
 30
0.0
 11
-0.894811907
 21
1.788971565
 31
0.0
 40
0.6123121697
 41
-3.0410143285
 42
-2.9478075435
  0
ELLIPSE
  5
5A1
100
AcDbEntity
  8
RACCORDO
100
AcDbEllipse
 62
7
  6
CONTINUOUS
 10
3.7918612803
 20
-17.8635374452
 30
0.0
 11
-0.894811907
 21
1.788971565
 31
0.0
 40
0.6123121697
 41
3.8957781521
 42
4.0274429702
  0
ELLIPSE
  5
5A2
100
AcDbEntity
  8
0
100
AcDbEllipse
 62
7
  6
CONTINUOUS
 10
12.3245356688
 20
21.3576325858
 30
0.0
 11
3.3022643479
 21
-0.04629945
 31
0.0
 40
0.4892378494
 41
2.3616770883
 42
5.5059722822
  0
ELLIPSE
  5
5A3
100
AcDbEntity
  8
RACCORDO
100
AcDbEllipse
 62
7
  6
CONTINUOUS
 10
-2.446388221
 20
20.9000295733
 30
0.0
 11
1.2141619185
 21
0.9541526469
 31
0.0
 40
0.2329077568
 41
0.1095198182
 42
0.114024621
  0
ELLIPSE
  5
5A4
100
AcDbEntity
  8
DRAFT
100
AcDbEllipse
 62
7
  6
CONTINUOUS
 10
13.0198201991
 20
22.0089850131
 30
0.0
 11
2.7583515655
 21
-1.4175703156
 31
0.0
 40
0.0109499087
 41
-0.8804952881
 42
-0.85781018
  0
ELLIPSE
  5
5A5
100
AcDbEntity
  8
DRAFT
100
AcDbEllipse
 62
7
  6
CONTINUOUS
 10
5.5951989967
 20
25.7212956143
 30
0.0
 11
2.7583515655
 21
-1.4175703156
 31
0.0
 40
0.0109499087
 41
-0.7017315251
 42
-0.679046417
  0
ELLIPSE
  5
5A6
100
AcDbEntity
  8
DRAFT
100
AcDbEllipse
 62
7
  6
CONTINUOUS
 10
5.5951989967
 20
24.1738202036
 30
0.0
 11
2.7583876426
 21
-0.0130411979
 31
0.0
 40
0.4964289597
 41
0.1877225706
 42
2.3585415194
  0
ELLIPSE
  5
5A7
100
AcDbEntity
  8
DRAFT
100
AcDbEllipse
 62
7
  6
CONTINUOUS
 10
13.0198201991
 20
20.4615096024
 30
0.0
 11
2.7583876426
 21
-0.0130411979
 31
0.0
 40
0.4964289597
 41
0.1877225706
 42
2.3585415194
  0
ELLIPSE
  5
5A8
100
AcDbEntity
  8
DRAFT
100
AcDbEllipse
 62
7
  6
CONTINUOUS
 10
5.5951989967
 20
25.7212956143
 30
0.0
 11
2.7583515655
 21
-1.4175703156
 31
0.0
 40
0.0109499087
 41
-0.8804952881
 42
-0.85781018
  0
ELLIPSE
  5
5A9
100
AcDbEntity
  8
DRAFT
100
AcDbEllipse
 62
7
  6
CONTINUOUS
 10
13.0198201991
 20
22.0089850131
 30
0.0
 11
2.7583515655
 21
-1.4175703156
 31
0.0
 40
0.0109499087
 41
-0.7017315251
 42
-0.679046417
  0
ELLIPSE
  5
5AA
100
AcDbEntity
  8
0
100
AcDbEllipse
 62
7
  6
CONTINUOUS
 10
4.8999144663
 20
25.069943187
 30
0.0
 11
3.3022643479
 21
-0.04629945
 31
0.0
 40
0.4892378494
 41
2.3616770883
 42
5.5059722822
  0
ENDSEC
  0
SECTION
  2
OBJECTS
  0
DICTIONARY
  5
C
100
AcDbDictionary
280
0
281
1
  3
ACAD_GROUP
350
D
  3
ACAD_MLINESTYLE
350
17
  3
ACAD_LAYOUT
350
1A
  3
ACAD_PLOTSETTINGS
350
19
  3
ACAD_PLOTSTYLENAME
350
E
  0
DICTIONARY
  5
D
102
{ACAD_REACTORS
330
C
102
}
100
AcDbDictionary
280
0
281
1
  0
ACDBDICTIONARYWDFLT
  5
E
102
{ACAD_REACTORS
330
C
102
}
100
AcDbDictionary
281
1
  3
Normal
350
F
100
AcDbDictionaryWithDefault
340
F
  0
DICTIONARY
  5
17
102
{ACAD_REACTORS
330
C
102
}
100
AcDbDictionary
280
0
281
1
  3
Standard
350
18
  0
DICTIONARY
  5
19
102
{ACAD_REACTORS
330
C
102
}
100
AcDbDictionary
281
1
  0
DICTIONARY
  5
1A
102
{ACAD_REACTORS
330
C
102
}
100
AcDbDictionary
281
1
  3
Model
350
5AB
  3
Layout1
350
5AC
  0
ACDBPLACEHOLDER
  5
F
102
{ACAD_REACTORS
330
E
102
}
  0
MLINESTYLE
  5
18
102
{ACAD_REACTORS
330
17
102
}
100
AcDbMlineStyle
  2
STANDARD
 70
0
  3

 62
256
 51
90.0
 52
90.0
 71
2
 49
0.5
 62
256
  6
BYLAYER
 49
-0.5
 62
256
  6
BYLAYER
  0
LAYOUT
  5
5AB
102
{ACAD_REACTORS
330
1A
102
}
100
AcDbPlotSettings
  1

  2
none_device
  4
ANSI_A_(11.00_x_8.50_Inches)
  6

 40
0.0
 41
0.0
 42
0.0
 43
0.0
 44
279.4
 45
215.9
 46
0.0
 47
0.0
 48
0.0
 49
0.0
140
0.0
141
0.0
142
1.0
143
1.0
 70
1024
 72
1
 73
0
 74
0
  7

 75
0
147
1.0
148
0.0
149
0.0
100
AcDbLayout
  1
Model
 70
0
 71
0
 10
0.0
 20
0.0
 11
279.4
 21
215.9
 12
0.0
 22
0.0
 32
0.0
 14
0.0
 24
0.0
 34
0.0
 15
0.0
 25
0.0
 35
0.0
146
0.0
 13
0.0
 23
0.0
 33
0.0
 16
1.0
 26
0.0
 36
0.0
 17
0.0
 27
1.0
 37
0.0
 76
0
330
222
345
0
346
0
  0
LAYOUT
  5
5AC
102
{ACAD_REACTORS
330
1A
102
}
100
AcDbPlotSettings
  1

  2
none_device
  4
ANSI_A_(11.00_x_8.50_Inches)
  6

 40
0.0
 41
0.0
 42
0.0
 43
0.0
 44
279.4
 45
215.9
 46
0.0
 47
0.0
 48
0.0
 49
0.0
140
0.0
141
0.0
142
1.0
143
1.0
 70
0
 72
1
 73
0
 74
0
  7

 75
0
147
1.0
148
0.0
149
0.0
100
AcDbLayout
  1
Layout1
 70
0
 71
1
 10
0.0
 20
0.0
 11
279.4
 21
215.9
 12
0.0
 22
0.0
 32
0.0
 14
0.0
 24
0.0
 34
0.0
 15
0.0
 25
0.0
 35
0.0
146
0.0
 13
0.0
 23
0.0
 33
0.0
 16
1.0
 26
0.0
 36
0.0
 17
0.0
 27
1.0
 37
0.0
 76
0
330
223
345
0
346
0
  0
ENDSEC
  0
EOF
