  0
SECTION
  2
HEADER
  9
$ACADVER
  1
AC1021
  9
$DWGCODEPAGE
  3
ANSI_1252
  9
$EXTMAX
 10
297.0
 20
210.0
 30
0.0
  9
$EXTMIN
 10
0.0
 20
0.0
 30
0.0
  9
$LIMMIN
 10
0.0
 20
0.0
  9
$LIMMAX
 10
297.0
 20
210.0
  9
$VIEWCTR
 10
148.5
 20
105.0
  9
$VIEWSIZE
 40
210.0
  9
$CLAYER
  8
0
  9
$LTSCALE
 40
16.335
  9
$CELTYPE
  6
BYLAYER
  9
$DIMSCALE
 40
1.0
  9
$DIMASZ
 40
3.0
  9
$DIMEXO
 40
0.5
  9
$DIMDLI
 40
11.286
  9
$DIMEXE
 40
1.5
  9
$DIMCEN
 40
2.673
  9
$DIMLFAC
 40
1.0
  9
$DIMBLK
  1
_FILLED
  9
$DIMALT
 70
0
  9
$DIMALTF
 40
0.0393700787
  9
$DIMTXT
 40
3.0
  9
$DIMTOL
 70
1
  9
$DIMLIM
 70
0
  9
$DIMTFAC
 40
1.0
  9
$DIMTP
 40
0.01
  9
$DIMTM
 40
0.01
  9
$DIMGAP
 40
0.625
  9
$DIMDSEP
 70
44
  9
$AUNITS
 70
0
  9
$PDMODE
 70
3
  9
$PDSIZE
 40
3.0
  9
$HANDSEED
  5
3A3
  9
$TILEMODE
 70
1
  9
$MEASUREMENT
 70
1
  9
$INSUNITS
 70
4
  0
ENDSEC
  0
SECTION
  2
CLASSES
  0
CLASS
  1
ACDBDICTIONARYWDFLT
  2
AcDbDictionaryWithDefault
  3
AutoCAD 2000
 90
0
 91
1
280
0
281
0
  0
CLASS
  1
ACDBPLACEHOLDER
  2
AcDbPlaceHolder
  3
AutoCAD 2000
 90
0
 91
1
280
0
281
0
  0
CLASS
  1
LAYOUT
  2
AcDbLayout
  3
AutoCAD 2000
 90
0
 91
0
280
0
281
0
  0
ENDSEC
  0
SECTION
  2
TABLES
  0
TABLE
  2
VPORT
  5
8
100
AcDbSymbolTable
 70
2
  0
VPORT
  5
1F4
100
AcDbSymbolTableRecord
100
AcDbViewportTableRecord
  2
*ACTIVE
 70
0
 10
0.0
 20
0.0
 11
1.0
 21
1.0
 12
148.5
 22
105.0
 13
0.0
 23
0.0
 14
1.0
 24
1.0
 15
0.0
 25
0.0
 16
0.0
 26
0.0
 36
1.0
 17
0.0
 27
0.0
 37
0.0
 40
210.0
 41
1.4142857143
 42
50.0
 43
0.0
 44
0.0
 50
0.0
 51
0.0
 71
0
 72
100
 73
1
 74
1
 75
0
 76
0
 77
0
 78
0
  0
ENDTAB
  0
TABLE
  2
LTYPE
  5
5
100
AcDbSymbolTable
 70
6
  0
LTYPE
  5
14
100
AcDbSymbolTableRecord
100
AcDbLinetypeTableRecord
  2
BYBLOCK
 70
0
  3

 72
65
 73
0
 40
0.0
  0
LTYPE
  5
15
100
AcDbSymbolTableRecord
100
AcDbLinetypeTableRecord
  2
BYLAYER
 70
0
  3

 72
65
 73
0
 40
0.0
  0
LTYPE
  5
16
100
AcDbSymbolTableRecord
100
AcDbLinetypeTableRecord
  2
CONTINUOUS
 70
64
  3
Solid line
 72
65
 73
0
 40
0.0
  0
LTYPE
  5
1F5
100
AcDbSymbolTableRecord
100
AcDbLinetypeTableRecord
  2
CENTER
 70
64
  3
____ _ ____ _ ____ _ ____ _ ____ _ ____ _ ____
 72
65
 73
4
 40
0.6
 49
0.375
 74
0
 49
-0.075
 74
0
 49
0.075
 74
0
 49
-0.075
 74
0
  0
LTYPE
  5
1F6
100
AcDbSymbolTableRecord
100
AcDbLinetypeTableRecord
  2
HIDDEN
 70
64
  3
- - - - - - - - - - - - - - - - - - - -
 72
65
 73
2
 40
0.2
 49
0.1
 74
0
 49
-0.1
 74
0
  0
LTYPE
  5
1F7
100
AcDbSymbolTableRecord
100
AcDbLinetypeTableRecord
  2
PHANTOM
 70
64
  3
_____ _ _ _____ _ _ _____ _ _ _____
 72
65
 73
6
 40
0.8
 49
0.45
 74
0
 49
-0.05
 74
0
 49
0.1
 74
0
 49
-0.05
 74
0
 49
0.1
 74
0
 49
-0.05
 74
0
  0
LTYPE
  5
1F8
100
AcDbSymbolTableRecord
100
AcDbLinetypeTableRecord
  2
DOT
 70
64
  3
. . . . . . . . . . . . . . . . . . . .
 72
65
 73
2
 40
0.2
 49
0.1
 74
0
 49
-0.1
 74
0
  0
LTYPE
  5
1F9
100
AcDbSymbolTableRecord
100
AcDbLinetypeTableRecord
  2
DASHED
 70
64
  3
- - - - - - - - - - - - - - - - - - - -
 72
65
 73
2
 40
0.2
 49
0.1
 74
0
 49
-0.1
 74
0
  0
ENDTAB
  0
TABLE
  2
LAYER
  5
2
100
AcDbSymbolTable
 70
36
  0
LAYER
  5
10
100
AcDbSymbolTableRecord
100
AcDbLayerTableRecord
  2
0
 70
0
 62
7
  6
CONTINUOUS
370
-3
390
F
  0
LAYER
  5
1FA
100
AcDbSymbolTableRecord
100
AcDbLayerTableRecord
  2
DEFAULT_1
 70
0
 62
7
  6
CENTER
370
-3
390
F
  0
LAYER
  5
1FB
100
AcDbSymbolTableRecord
100
AcDbLayerTableRecord
  2
DEFAULT_2
 70
0
 62
7
  6
HIDDEN
370
-3
390
F
  0
LAYER
  5
1FC
100
AcDbSymbolTableRecord
100
AcDbLayerTableRecord
  2
DEFAULT_3
 70
0
 62
7
  6
PHANTOM
370
-3
390
F
  0
LAYER
  5
1FD
100
AcDbSymbolTableRecord
100
AcDbLayerTableRecord
  2
ASSI
 70
0
 62
7
  6
CONTINUOUS
370
-3
390
F
  0
LAYER
  5
1FE
100
AcDbSymbolTableRecord
100
AcDbLayerTableRecord
  2
COORDINATE
 70
0
 62
7
  6
CONTINUOUS
370
-3
390
F
  0
LAYER
  5
1FF
100
AcDbSymbolTableRecord
100
AcDbLayerTableRecord
  2
COORD_ORIGINE
 70
0
 62
7
  6
CONTINUOUS
370
-3
390
F
  0
LAYER
  5
200
100
AcDbSymbolTableRecord
100
AcDbLayerTableRecord
  2
COPY_GEOM
 70
0
 62
7
  6
CONTINUOUS
370
-3
390
F
  0
LAYER
  5
201
100
AcDbSymbolTableRecord
100
AcDbLayerTableRecord
  2
COPY_PUBLISH
 70
0
 62
7
  6
CONTINUOUS
370
-3
390
F
  0
LAYER
  5
202
100
AcDbSymbolTableRecord
100
AcDbLayerTableRecord
  2
COSMETICI
 70
0
 62
7
  6
CONTINUOUS
370
-3
390
F
  0
LAYER
  5
203
100
AcDbSymbolTableRecord
100
AcDbLayerTableRecord
  2
CURVE
 70
0
 62
7
  6
CONTINUOUS
370
-3
390
F
  0
LAYER
  5
204
100
AcDbSymbolTableRecord
100
AcDbLayerTableRecord
  2
DRAFT
 70
0
 62
7
  6
CONTINUOUS
370
-3
390
F
  0
LAYER
  5
205
100
AcDbSymbolTableRecord
100
AcDbLayerTableRecord
  2
IGS
 70
0
 62
7
  6
CONTINUOUS
370
-3
390
F
  0
LAYER
  5
206
100
AcDbSymbolTableRecord
100
AcDbLayerTableRecord
  2
IMPORT_IGES
 70
0
 62
7
  6
CONTINUOUS
370
-3
390
F
  0
LAYER
  5
207
100
AcDbSymbolTableRecord
100
AcDbLayerTableRecord
  2
INTF_MAGENTA
 70
0
 62
7
  6
CONTINUOUS
370
-3
390
F
  0
LAYER
  5
208
100
AcDbSymbolTableRecord
100
AcDbLayerTableRecord
  2
NOTE
 70
0
 62
7
  6
CONTINUOUS
370
-3
390
F
  0
LAYER
  5
209
100
AcDbSymbolTableRecord
100
AcDbLayerTableRecord
  2
PIANI
 70
0
 62
7
  6
CONTINUOUS
370
-3
390
F
  0
LAYER
  5
20A
100
AcDbSymbolTableRecord
100
AcDbLayerTableRecord
  2
PIANI_ORIGINE
 70
0
 62
7
  6
CONTINUOUS
370
-3
390
F
  0
LAYER
  5
20B
100
AcDbSymbolTableRecord
100
AcDbLayerTableRecord
  2
PIANI_RIFERIMENTO
 70
0
 62
7
  6
CONTINUOUS
370
-3
390
F
  0
LAYER
  5
20C
100
AcDbSymbolTableRecord
100
AcDbLayerTableRecord
  2
PUNTI
 70
0
 62
7
  6
CONTINUOUS
370
-3
390
F
  0
LAYER
  5
20D
100
AcDbSymbolTableRecord
100
AcDbLayerTableRecord
  2
RACCORDO
 70
0
 62
7
  6
CONTINUOUS
370
-3
390
F
  0
LAYER
  5
20E
100
AcDbSymbolTableRecord
100
AcDbLayerTableRecord
  2
SIMBOLI
 70
0
 62
7
  6
CONTINUOUS
370
-3
390
F
  0
LAYER
  5
20F
100
AcDbSymbolTableRecord
100
AcDbLayerTableRecord
  2
SMUSSO
 70
0
 62
7
  6
CONTINUOUS
370
-3
390
F
  0
LAYER
  5
210
100
AcDbSymbolTableRecord
100
AcDbLayerTableRecord
  2
SNAPLINE
 70
0
 62
7
  6
CONTINUOUS
370
-3
390
F
  0
LAYER
  5
211
100
AcDbSymbolTableRecord
100
AcDbLayerTableRecord
  2
STANDARD
 70
0
 62
7
  6
CONTINUOUS
370
-3
390
F
  0
LAYER
  5
212
100
AcDbSymbolTableRecord
100
AcDbLayerTableRecord
  2
SUPERFICI
 70
0
 62
7
  6
CONTINUOUS
370
-3
390
F
  0
LAYER
  5
213
100
AcDbSymbolTableRecord
100
AcDbLayerTableRecord
  2
SUP_ARANCIONE
 70
0
 62
7
  6
CONTINUOUS
370
-3
390
F
  0
LAYER
  5
214
100
AcDbSymbolTableRecord
100
AcDbLayerTableRecord
  2
SUP_DIFF
 70
0
 62
7
  6
CONTINUOUS
370
-3
390
F
  0
LAYER
  5
215
100
AcDbSymbolTableRecord
100
AcDbLayerTableRecord
  2
SUP_ROSSA
 70
0
 62
7
  6
CONTINUOUS
370
-3
390
F
  0
LAYER
  5
216
100
AcDbSymbolTableRecord
100
AcDbLayerTableRecord
  2
SUP_VERDE
 70
0
 62
7
  6
CONTINUOUS
370
-3
390
F
  0
LAYER
  5
217
100
AcDbSymbolTableRecord
100
AcDbLayerTableRecord
  2
TRASH
 70
0
 62
7
  6
CONTINUOUS
370
-3
390
F
  0
LAYER
  5
218
100
AcDbSymbolTableRecord
100
AcDbLayerTableRecord
  2
XSEC_DATUMS
 70
0
 62
7
  6
CONTINUOUS
370
-3
390
F
  0
ENDTAB
  0
TABLE
  2
STYLE
  5
3
100
AcDbSymbolTable
 70
1
  0
STYLE
  5
11
100
AcDbSymbolTableRecord
100
AcDbTextStyleTableRecord
  2
STANDARD
 70
0
 40
0.0
 41
0.8
 50
0.0
 71
0
 42
0.2
  3
txt
  4

  0
STYLE
  5
219
100
AcDbSymbolTableRecord
100
AcDbTextStyleTableRecord
  2
TEXTSTYLE_1
 70
0
 40
0.0
 41
0.8
 50
0.0
 71
0
 42
0.2
  3
gdt
  4

  0
ENDTAB
  0
TABLE
  2
VIEW
  5
6
100
AcDbSymbolTable
 70
0
  0
ENDTAB
  0
TABLE
  2
UCS
  5
7
100
AcDbSymbolTable
 70
0
  0
ENDTAB
  0
TABLE
  2
APPID
  5
9
100
AcDbSymbolTable
 70
1
  0
APPID
  5
21A
100
AcDbSymbolTableRecord
100
AcDbRegAppTableRecord
  2
ACAD
 70
0
  0
ENDTAB
  0
TABLE
  2
BLOCK_RECORD
  5
1
100
AcDbSymbolTable
 70
0
  0
BLOCK_RECORD
  5
21B
100
AcDbSymbolTableRecord
100
AcDbBlockTableRecord
  2
*Model_Space
  0
BLOCK_RECORD
  5
21C
100
AcDbSymbolTableRecord
100
AcDbBlockTableRecord
  2
*Paper_Space
  0
ENDTAB
  0
TABLE
  2
DIMSTYLE
  5
A
100
AcDbSymbolTable
 70
1
100
AcDbDimStyleTable
 71
0
  0
DIMSTYLE
105
21D
100
AcDbSymbolTableRecord
100
AcDbDimStyleTableRecord
  2
STANDARD
 70
0
  3

  4

 40
1.0
 41
3.0
 42
0.5
 43
0.38
 44
1.5
 45
0.0
 46
0.0
 47
0.01
 48
0.01
140
3.0
141
0.09
142
0.0
143
25.4
144
1.0
145
0.0
146
1.0
147
0.625
 71
1.0
 72
0.0
 73
0
 74
0
 75
0
 76
0
 77
1
 78
8
170
0
171
2
172
0
173
0
174
0
175
0
176
0
177
0
178
0
270
2
271
2
272
2
273
2
274
2
275
0
280
0
281
0
282
0
283
1
284
8
285
0
286
0
287
3
288
0
340
11
278
44
  0
ENDTAB
  0
ENDSEC
  0
SECTION
  2
BLOCKS
  0
BLOCK
  5
20
100
AcDbEntity
  8
0
100
AcDbBlockBegin
  2
*Model_Space
 70
0
 10
0.0
 20
0.0
 30
0.0
  3
*Model_Space
  1

  0
ENDBLK
  5
21
100
AcDbEntity
  8
0
100
AcDbBlockEnd
  0
BLOCK
  5
1C
100
AcDbEntity
  8
0
100
AcDbBlockBegin
  2
*Paper_Space
 70
0
 10
0.0
 20
0.0
 30
0.0
  3
*Paper_Space
  1

  0
ENDBLK
  5
1D
100
AcDbEntity
  8
0
100
AcDbBlockEnd
  0
ENDSEC
  0
SECTION
  2
ENTITIES
  0
LWPOLYLINE
  5
21E
100
AcDbEntity
  8
ASSI
100
AcDbPolyline
 62
7
  6
CONTINUOUS
 90
13
 70
0
 10
144.1056906369
 20
125.796906909
 10
144.0329722192
 20
125.7517047854
 10
143.9671501422
 20
125.7024910974
 10
143.9044495922
 20
125.6473109064
 10
143.8451295145
 20
125.5865433862
 10
143.7898437938
 20
125.5210146967
 10
143.7386164436
 20
125.4509209806
 10
143.6916295098
 20
125.3765170708
 10
143.6496560823
 20
125.2990270965
 10
143.612790257
 20
125.2187528819
 10
143.5812388645
 20
125.1359461679
 10
143.5555620774
 20
125.0519437539
 10
143.5359507438
 20
124.9673123718
  0
LWPOLYLINE
  5
21F
100
AcDbEntity
  8
RACCORDO
100
AcDbPolyline
 62
7
  6
CONTINUOUS
 90
13
 70
0
 10
144.1056914463
 20
125.7969073613
 10
144.0335093921
 20
125.7520727036
 10
143.9675869866
 20
125.7028459018
 10
143.9047864903
 20
125.647631017
 10
143.8453697673
 20
125.5868082015
 10
143.7899955102
 20
125.5212078968
 10
143.7386878803
 20
125.4510260388
 10
143.6916302993
 20
125.3765184194
 10
143.6496009556
 20
125.2989167736
 10
143.6126943227
 20
125.2185243318
 10
143.5811180451
 20
125.1355937705
 10
143.5554349278
 20
125.0514701678
 10
143.5358362023
 20
124.9667235735
  0
LINE
  5
220
100
AcDbEntity
  8
ASSI
100
AcDbLine
 62
7
  6
CONTINUOUS
 10
144.1055620291
 20
125.7968484405
 11
146.8408108277
 21
127.3281050755
  0
LINE
  5
221
100
AcDbEntity
  8
RACCORDO
100
AcDbLine
 62
7
  6
CONTINUOUS
 10
144.1055620291
 20
125.7968484405
 11
146.8408108277
 21
127.3281050755
  0
LINE
  5
222
100
AcDbEntity
  8
ASSI
100
AcDbLine
 62
253
  6
CONTINUOUS
 10
144.3405501504
 20
125.7887994585
 11
147.0721031987
 21
127.3179871255
  0
LINE
  5
223
100
AcDbEntity
  8
RACCORDO
100
AcDbLine
 62
253
  6
CONTINUOUS
 10
144.3405501504
 20
125.7887994585
 11
147.0721031987
 21
127.3179871255
  0
LWPOLYLINE
  5
224
100
AcDbEntity
  8
RACCORDO
100
AcDbPolyline
 62
253
  6
CONTINUOUS
 90
8
 70
0
 10
144.1056857149
 20
125.7969176219
 10
144.1292181282
 20
125.8080230898
 10
144.1605203048
 20
125.8173391343
 10
144.193894518
 20
125.821655001
 10
144.2289754313
 20
125.8209234455
 10
144.2653790257
 20
125.8151524758
 10
144.3027068036
 20
125.8044052648
 10
144.3405501504
 20
125.7887994585
  0
LWPOLYLINE
  5
225
100
AcDbEntity
  8
ASSI
100
AcDbPolyline
 62
253
  6
CONTINUOUS
 90
8
 70
0
 10
144.1056849055
 20
125.7969171695
 10
144.1292181282
 20
125.8080230898
 10
144.1605203048
 20
125.8173391343
 10
144.193894518
 20
125.821655001
 10
144.2289754313
 20
125.8209234455
 10
144.2653790257
 20
125.8151524758
 10
144.3027068036
 20
125.8044052648
 10
144.3405501504
 20
125.7887994585
  0
LWPOLYLINE
  5
226
100
AcDbEntity
  8
ASSI
100
AcDbPolyline
 62
7
  6
CONTINUOUS
 90
11
 70
0
 10
158.6082671529
 20
80.3227436427
 10
158.6349851286
 20
80.3100610063
 10
158.6910449621
 20
80.2877464245
 10
158.7494174513
 20
80.2701694846
 10
158.8096114968
 20
80.2575854749
 10
158.8713021884
 20
80.2501567235
 10
158.9343889416
 20
80.2480206996
 10
158.9985080563
 20
80.2513246176
 10
159.0632156021
 20
80.2601720417
 10
159.1283986053
 20
80.2747053957
 10
159.1938206969
 20
80.2950735286
  0
LWPOLYLINE
  5
227
100
AcDbEntity
  8
RACCORDO
100
AcDbPolyline
 62
7
  6
CONTINUOUS
 90
11
 70
0
 10
158.6082646456
 20
80.3227449002
 10
158.6348878757
 20
80.3101046788
 10
158.6910076421
 20
80.2877594505
 10
158.7494470316
 20
80.2701619534
 10
158.8097141261
 20
80.257568603
 10
158.8714821992
 20
80.2501428795
 10
158.9346480389
 20
80.2480230331
 10
158.9988466412
 20
80.2513565244
 10
159.0636326101
 20
80.2602470099
 10
159.1288906819
 20
80.2748368185
 10
159.1941089477
 20
80.2951885893
  0
LINE
  5
228
100
AcDbEntity
  8
RACCORDO
100
AcDbLine
 62
7
  6
CONTINUOUS
 10
143.9183882279
 20
87.6676827855
 11
143.9174603104
 21
87.6681450993
  0
LINE
  5
229
100
AcDbEntity
  8
ASSI
100
AcDbLine
 62
7
  6
CONTINUOUS
 10
143.9174603104
 20
87.6681450993
 11
158.6088141017
 21
80.3224682036
  0
LINE
  5
22A
100
AcDbEntity
  8
ASSI
100
AcDbLine
 62
253
  6
CONTINUOUS
 10
143.6686946909
 20
88.0827761231
 11
158.3534495818
 21
80.7403986777
  0
LINE
  5
22B
100
AcDbEntity
  8
RACCORDO
100
AcDbLine
 62
253
  6
CONTINUOUS
 10
143.6686946909
 20
88.0827761231
 11
158.3534495818
 21
80.7403986777
  0
LINE
  5
22C
100
AcDbEntity
  8
ASSI
100
AcDbLine
 62
7
  6
CONTINUOUS
 10
158.608326723
 20
80.3227123244
 11
158.6088140433
 21
80.3224682328
  0
LINE
  5
22D
100
AcDbEntity
  8
RACCORDO
100
AcDbLine
 62
7
  6
CONTINUOUS
 10
158.6083242077
 20
80.3227135866
 11
158.6088140433
 21
80.3224682328
  0
LINE
  5
22E
100
AcDbEntity
  8
ASSI
100
AcDbLine
 62
253
  6
CONTINUOUS
 10
143.9174603104
 20
87.6681450993
 11
143.8965533121
 21
87.6794625912
  0
LINE
  5
22F
100
AcDbEntity
  8
RACCORDO
100
AcDbLine
 62
253
  6
CONTINUOUS
 10
143.9174603104
 20
87.6681450993
 11
143.8965533121
 21
87.6794625912
  0
LINE
  5
230
100
AcDbEntity
  8
ASSI
100
AcDbLine
 62
7
  6
CONTINUOUS
 10
143.8500654763
 20
87.7068226523
 11
143.9183250357
 21
87.6677162634
  0
LWPOLYLINE
  5
231
100
AcDbEntity
  8
ASSI
100
AcDbPolyline
 62
253
  6
CONTINUOUS
 90
10
 70
0
 10
143.8965533121
 20
87.6794625912
 10
143.8574507581
 20
87.7057732127
 10
143.8213636039
 20
87.7372469721
 10
143.78850139
 20
87.773699408
 10
143.7590629636
 20
87.8149124402
 10
143.7332298279
 20
87.8606364681
 10
143.7111544367
 20
87.9105973776
 10
143.6929694542
 20
87.9644944591
 10
143.6787873968
 20
88.0220027402
 10
143.6686946909
 20
88.0827761231
  0
LWPOLYLINE
  5
232
100
AcDbEntity
  8
RACCORDO
100
AcDbPolyline
 62
253
  6
CONTINUOUS
 90
10
 70
0
 10
143.8965533121
 20
87.6794625912
 10
143.8574507581
 20
87.7057732127
 10
143.8213636039
 20
87.7372469721
 10
143.78850139
 20
87.773699408
 10
143.7590629636
 20
87.8149124402
 10
143.7332298279
 20
87.8606364681
 10
143.7111544367
 20
87.9105973776
 10
143.6929694542
 20
87.9644944591
 10
143.6787873968
 20
88.0220027402
 10
143.6686946909
 20
88.0827761231
  0
LWPOLYLINE
  5
233
100
AcDbEntity
  8
RACCORDO
100
AcDbPolyline
 62
7
  6
CONTINUOUS
 90
3
 70
0
 10
143.7925559965
 20
87.7487921995
 10
143.8507968631
 20
87.7063459151
 10
143.9183221029
 20
87.6677177187
  0
LWPOLYLINE
  5
234
100
AcDbEntity
  8
RACCORDO
100
AcDbPolyline
 62
253
  6
CONTINUOUS
 90
3
 70
0
 10
154.6667998711
 20
87.701513594
 10
154.6433285617
 20
87.7043816229
 10
154.6287519538
 20
87.7078472925
  0
LINE
  5
235
100
AcDbEntity
  8
ASSI
100
AcDbLine
 62
253
  6
CONTINUOUS
 10
154.6433285617
 20
87.7043816229
 11
154.6287519538
 21
87.7078472925
  0
LWPOLYLINE
  5
236
100
AcDbEntity
  8
RACCORDO
100
AcDbPolyline
 62
7
  6
CONTINUOUS
 90
5
 70
0
 10
143.6078449853
 20
87.9777609903
 10
143.6460652179
 20
87.9120381556
 10
143.6899957876
 20
87.8516481541
 10
143.7390202142
 20
87.7971354572
 10
143.7925559965
 20
87.7487921995
  0
LWPOLYLINE
  5
237
100
AcDbEntity
  8
RACCORDO
100
AcDbPolyline
 62
7
  6
CONTINUOUS
 90
19
 70
0
 10
154.317975852
 20
87.7081222413
 10
154.32429374
 20
87.7050254749
 10
154.342487756
 20
87.6967928932
 10
154.3605672162
 20
87.6896124079
 10
154.3784986992
 20
87.6834713582
 10
154.3962717285
 20
87.6783464345
 10
154.4138909645
 20
87.6742138714
 10
154.4313359473
 20
87.671060135
 10
154.4485820494
 20
87.6688707538
 10
154.4656188353
 20
87.6676296013
 10
154.4824155855
 20
87.6673236553
 10
154.4989448147
 20
87.6679378856
 10
154.5151914486
 20
87.6694558795
 10
154.5311238591
 20
87.6718602502
 10
154.5467059522
 20
87.6751310508
 10
154.5619086471
 20
87.6792467138
 10
154.5766960274
 20
87.6841801071
 10
154.5910364852
 20
87.6899024555
 10
154.6009226273
 20
87.6944237885
  0
LINE
  5
238
100
AcDbEntity
  8
ASSI
100
AcDbLine
 62
253
  6
CONTINUOUS
 10
154.4991975451
 20
87.6017697824
 11
146.507306819
 21
91.5977151454
  0
LINE
  5
239
100
AcDbEntity
  8
RACCORDO
100
AcDbLine
 62
253
  6
CONTINUOUS
 10
154.4991975451
 20
87.6017697824
 11
146.507306819
 21
91.5977151454
  0
LINE
  5
23A
100
AcDbEntity
  8
RACCORDO
100
AcDbLine
 62
7
  6
CONTINUOUS
 10
154.3179692535
 20
87.7081251293
 11
146.4539653632
 21
91.6401270744
  0
LINE
  5
23B
100
AcDbEntity
  8
RACCORDO
100
AcDbLine
 62
253
  6
CONTINUOUS
 10
154.2792882168
 20
87.7795965733
 11
146.4152843268
 21
91.7115985183
  0
LWPOLYLINE
  5
23C
100
AcDbEntity
  8
RACCORDO
100
AcDbPolyline
 62
253
  6
CONTINUOUS
 90
31
 70
0
 10
146.4152843268
 20
91.7115985183
 10
146.4040032958
 20
91.7175359021
 10
146.3927482901
 20
91.7240426594
 10
146.3815193278
 20
91.7311188008
 10
146.3702920358
 20
91.7387818111
 10
146.3590908605
 20
91.7470142491
 10
146.3479890669
 20
91.7557637469
 10
146.3369884866
 20
91.7650330419
 10
146.3260874292
 20
91.7748194805
 10
146.3153538884
 20
91.7850626145
 10
146.3047892295
 20
91.7957651361
 10
146.2943922863
 20
91.806924471
 10
146.284227258
 20
91.8184722732
 10
146.2742955673
 20
91.8304111202
 10
146.2645960338
 20
91.8427385779
 10
146.255188946
 20
91.85537878
 10
146.246076173
 20
91.8683338543
 10
146.2372561133
 20
91.8816018311
 10
146.2287838307
 20
91.8951006864
 10
146.2206616617
 20
91.9088318365
 10
146.212887543
 20
91.9227940263
 10
146.2055099084
 20
91.9369012062
 10
146.1985311943
 20
91.9511547437
 10
146.191949223
 20
91.9655534236
 10
146.1858054639
 20
91.9800072967
 10
146.1801024868
 20
91.994518291
 10
146.1748379465
 20
92.0090846104
 10
146.1700458825
 20
92.0236106856
 10
146.1657376827
 20
92.0380646845
 10
146.1619021205
 20
92.0524785334
 10
146.158539282
 20
92.066852283
  0
LWPOLYLINE
  5
23D
100
AcDbEntity
  8
RACCORDO
100
AcDbPolyline
 62
253
  6
CONTINUOUS
 90
13
 70
0
 10
146.4539653632
 20
91.6401270744
 10
146.451382927
 20
91.6415033577
 10
146.4459007431
 20
91.6450419303
 10
146.4407949202
 20
91.6492278257
 10
146.4360910296
 20
91.654040079
 10
146.4318126297
 20
91.6594545885
 10
146.427981148
 20
91.665444236
 10
146.4246157735
 20
91.6719790229
 10
146.4217333606
 20
91.6790262206
 10
146.4193483452
 20
91.6865505339
 10
146.4174726717
 20
91.6945142782
 10
146.4161157337
 20
91.7028775685
 10
146.4152843268
 20
91.7115985183
  0
LINE
  5
23E
100
AcDbEntity
  8
ASSI
100
AcDbLine
 62
253
  6
CONTINUOUS
 10
146.507306819
 20
91.5977151454
 11
146.4748069916
 21
91.6157483776
  0
LINE
  5
23F
100
AcDbEntity
  8
RACCORDO
100
AcDbLine
 62
253
  6
CONTINUOUS
 10
146.507306819
 20
91.5977151454
 11
146.4748069916
 21
91.6157483776
  0
LWPOLYLINE
  5
240
100
AcDbEntity
  8
ASSI
100
AcDbPolyline
 62
253
  6
CONTINUOUS
 90
3
 70
0
 10
146.4748069916
 20
91.6157483776
 10
146.4428815489
 20
91.6366538934
 10
146.4115310533
 20
91.6604320282
  0
LWPOLYLINE
  5
241
100
AcDbEntity
  8
RACCORDO
100
AcDbPolyline
 62
253
  6
CONTINUOUS
 90
3
 70
0
 10
146.4748069916
 20
91.6157483776
 10
146.4428815489
 20
91.6366538934
 10
146.4115310533
 20
91.6604320282
  0
LWPOLYLINE
  5
242
100
AcDbEntity
  8
ASSI
100
AcDbPolyline
 62
253
  6
CONTINUOUS
 90
19
 70
0
 10
143.6686946909
 20
124.706736951
 10
143.678787457
 20
124.7778760369
 10
143.6929695236
 20
124.8499417795
 10
143.7111543903
 20
124.922501643
 10
143.7332293723
 20
124.9951219611
 10
143.7590618155
 20
125.0673655658
 10
143.7884995775
 20
125.1387944583
 10
143.8213613872
 20
125.2089794518
 10
143.8574482828
 20
125.277501703
 10
143.8965506273
 20
125.3439499936
 10
143.9384297067
 20
125.4079269752
 10
143.9828314207
 20
125.4690495571
 10
144.0294985657
 20
125.5269495332
 10
144.0781484888
 20
125.5812820029
 10
144.1284842915
 20
125.6317198581
 10
144.1802094207
 20
125.677953647
 10
144.2330121731
 20
125.7197048479
 10
144.2865677929
 20
125.756726994
 10
144.3405501504
 20
125.7887994585
  0
LWPOLYLINE
  5
243
100
AcDbEntity
  8
RACCORDO
100
AcDbPolyline
 62
253
  6
CONTINUOUS
 90
19
 70
0
 10
143.6686946909
 20
124.706736951
 10
143.678787457
 20
124.7778760369
 10
143.6929695236
 20
124.8499417795
 10
143.7111543903
 20
124.922501643
 10
143.7332293723
 20
124.9951219611
 10
143.7590618155
 20
125.0673655658
 10
143.7884995775
 20
125.1387944583
 10
143.8213613872
 20
125.2089794518
 10
143.8574482828
 20
125.277501703
 10
143.8965506273
 20
125.3439499936
 10
143.9384297067
 20
125.4079269752
 10
143.9828314207
 20
125.4690495571
 10
144.0294985657
 20
125.5269495332
 10
144.0781484888
 20
125.5812820029
 10
144.1284842915
 20
125.6317198581
 10
144.1802094207
 20
125.677953647
 10
144.2330121731
 20
125.7197048479
 10
144.2865677929
 20
125.756726994
 10
144.3405501504
 20
125.7887994585
  0
LINE
  5
244
100
AcDbEntity
  8
RACCORDO
100
AcDbLine
 62
7
  6
CONTINUOUS
 10
143.5358362023
 20
124.9667235735
 11
143.5214541497
 21
124.8729540271
  0
LWPOLYLINE
  5
245
100
AcDbEntity
  8
ASSI
100
AcDbPolyline
 62
7
  6
CONTINUOUS
 90
3
 70
0
 10
143.5359507438
 20
124.9673123718
 10
143.5224965771
 20
124.8819249589
 10
143.5214542698
 20
124.8729551132
  0
LWPOLYLINE
  5
246
100
AcDbEntity
  8
RACCORDO
100
AcDbPolyline
 62
253
  6
CONTINUOUS
 90
13
 70
0
 10
154.3179692535
 20
87.7081251293
 10
154.3153868793
 20
87.7095013774
 10
154.3099046924
 20
87.7130399421
 10
154.3047988649
 20
87.7172258306
 10
154.3000949686
 20
87.7220380785
 10
154.295816562
 20
87.7274525844
 10
154.2919850729
 20
87.7334422306
 10
154.2886196907
 20
87.7399770191
 10
154.2857372704
 20
87.7470242214
 10
154.283352248
 20
87.7545485427
 10
154.2814765686
 20
87.7625122988
 10
154.2801196262
 20
87.7708756044
 10
154.2792882168
 20
87.7795965733
  0
LINE
  5
247
100
AcDbEntity
  8
ASSI
100
AcDbLine
 62
253
  6
CONTINUOUS
 10
146.4115310533
 20
91.6604320282
 11
146.3929340008
 21
91.6765571635
  0
LINE
  5
248
100
AcDbEntity
  8
RACCORDO
100
AcDbLine
 62
253
  6
CONTINUOUS
 10
146.4115310533
 20
91.6604320282
 11
146.3929340008
 21
91.6765571635
  0
LWPOLYLINE
  5
249
100
AcDbEntity
  8
ASSI
100
AcDbPolyline
 62
7
  6
CONTINUOUS
 90
9
 70
0
 10
143.5301249885
 20
88.2086077453
 10
143.549285836
 20
88.1263737922
 10
143.5753874066
 20
88.0492786062
 10
143.6077434889
 20
87.9779576972
 10
143.6458732336
 20
87.9123328483
 10
143.689692881
 20
87.8520224256
 10
143.7385891836
 20
87.7975676489
 10
143.7919826755
 20
87.7492585752
 10
143.8500654763
 20
87.7068226523
  0
LWPOLYLINE
  5
24A
100
AcDbEntity
  8
RACCORDO
100
AcDbPolyline
 62
7
  6
CONTINUOUS
 90
4
 70
0
 10
143.5301039001
 20
88.2087434212
 10
143.5492692022
 20
88.1264322234
 10
143.5754186481
 20
88.0491995624
 10
143.6078449853
 20
87.9777609903
  0
LWPOLYLINE
  5
24B
100
AcDbEntity
  8
RACCORDO
100
AcDbPolyline
 62
253
  6
CONTINUOUS
 90
8
 70
0
 10
143.522387972
 20
88.2583103683
 10
143.5283999982
 20
88.2303145047
 10
143.5398132661
 20
88.2016144982
 10
143.556298059
 20
88.1741887816
 10
143.5776796655
 20
88.1483280217
 10
143.6037314762
 20
88.1243062994
 10
143.6341773851
 20
88.1023782052
 10
143.6686947162
 20
88.0827761404
  0
LWPOLYLINE
  5
24C
100
AcDbEntity
  8
ASSI
100
AcDbPolyline
 62
253
  6
CONTINUOUS
 90
8
 70
0
 10
143.522387467
 20
88.2583142641
 10
143.5283999982
 20
88.2303145047
 10
143.5398132661
 20
88.2016144982
 10
143.556298059
 20
88.1741887816
 10
143.5776796655
 20
88.1483280217
 10
143.6037314762
 20
88.1243062994
 10
143.6341773851
 20
88.1023782052
 10
143.6686947162
 20
88.0827761404
  0
LWPOLYLINE
  5
24D
100
AcDbEntity
  8
ASSI
100
AcDbPolyline
 62
253
  6
CONTINUOUS
 90
9
 70
0
 10
142.847244329
 20
97.9893263519
 10
142.8482742318
 20
97.9747927391
 10
142.8542382781
 20
97.948692908
 10
142.8654248284
 20
97.9231042387
 10
142.8817153677
 20
97.8982978285
 10
142.9029373068
 20
97.8745364872
 10
142.9288658115
 20
97.8520719527
 10
142.959226184
 20
97.8311422239
 10
142.9936967734
 20
97.8119690395
  0
LWPOLYLINE
  5
24E
100
AcDbEntity
  8
RACCORDO
100
AcDbPolyline
 62
253
  6
CONTINUOUS
 90
9
 70
0
 10
142.847244329
 20
97.9893263519
 10
142.8482742318
 20
97.9747927391
 10
142.8542382781
 20
97.948692908
 10
142.8654248284
 20
97.9231042387
 10
142.8817153677
 20
97.8982978285
 10
142.9029373068
 20
97.8745364872
 10
142.9288658115
 20
97.8520719527
 10
142.959226184
 20
97.8311422239
 10
142.9936967734
 20
97.8119690395
  0
LWPOLYLINE
  5
24F
100
AcDbEntity
  8
ASSI
100
AcDbPolyline
 62
253
  6
CONTINUOUS
 90
10
 70
0
 10
143.5214542698
 20
124.8729551132
 10
143.5212305351
 20
124.8706221671
 10
143.5221941309
 20
124.8497750561
 10
143.5284159062
 20
124.8285838416
 10
143.5398299228
 20
124.8072731074
 10
143.5563152151
 20
124.7860687043
 10
143.5776970723
 20
124.7651953564
 10
143.6037488901
 20
124.7448742789
 10
143.6341945718
 20
124.7253208341
 10
143.6687114546
 20
124.7067422491
  0
LWPOLYLINE
  5
250
100
AcDbEntity
  8
RACCORDO
100
AcDbPolyline
 62
253
  6
CONTINUOUS
 90
10
 70
0
 10
143.5214541497
 20
124.8729540271
 10
143.5212305351
 20
124.8706221671
 10
143.5221941309
 20
124.8497750561
 10
143.5284159062
 20
124.8285838416
 10
143.5398299228
 20
124.8072731074
 10
143.5563152151
 20
124.7860687043
 10
143.5776970723
 20
124.7651953564
 10
143.6037488901
 20
124.7448742789
 10
143.6341945718
 20
124.7253208341
 10
143.6687114546
 20
124.7067422491
  0
LWPOLYLINE
  5
251
100
AcDbEntity
  8
RACCORDO
100
AcDbPolyline
 62
7
  6
CONTINUOUS
 90
8
 70
0
 10
143.4005220018
 20
123.7457347125
 10
143.2850987412
 20
122.5554351601
 10
143.1827956538
 20
121.3697180404
 10
143.0936661298
 20
120.1891277158
 10
143.0177286543
 20
119.0139008614
 10
142.9549992113
 20
117.8442552804
 10
142.905493706
 20
116.6804258684
 10
142.8692329721
 20
115.5229712449
  0
LWPOLYLINE
  5
252
100
AcDbEntity
  8
ASSI
100
AcDbPolyline
 62
7
  6
CONTINUOUS
 90
10
 70
0
 10
143.521454572
 20
124.8730776871
 10
143.4004925586
 20
123.7454602406
 10
143.2850648411
 20
122.555065211
 10
143.1827787767
 20
121.3695094205
 10
143.0936627218
 20
120.1890790775
 10
143.0177351534
 20
119.0140107597
 10
142.9550120496
 20
117.8445221923
 10
142.9055093098
 20
116.6808481732
 10
142.8692390027
 20
115.5232675599
 10
142.8472425344
 20
114.4424635978
  0
LINE
  5
253
100
AcDbEntity
  8
RACCORDO
100
AcDbLine
 62
7
  6
CONTINUOUS
 10
143.5214545722
 20
124.8730776882
 11
143.4005220018
 21
123.7457347125
  0
LINE
  5
254
100
AcDbEntity
  8
ASSI
100
AcDbLine
 62
253
  6
CONTINUOUS
 10
161.9215879115
 20
119.8932447692
 11
159.043131598
 21
118.4375087347
  0
LINE
  5
255
100
AcDbEntity
  8
RACCORDO
100
AcDbLine
 62
253
  6
CONTINUOUS
 10
161.9215879115
 20
119.8932447692
 11
159.043131598
 21
118.4375087347
  0
LINE
  5
256
100
AcDbEntity
  8
0
100
AcDbLine
 62
253
  6
CONTINUOUS
 10
149.925264696
 20
115.4809513855
 11
150.2154787473
 21
115.6267791273
  0
LWPOLYLINE
  5
257
100
AcDbEntity
  8
ASSI
100
AcDbPolyline
 62
253
  6
CONTINUOUS
 90
5
 70
0
 10
154.6785992134
 20
91.0869532567
 10
154.6678565723
 20
91.0902927095
 10
154.6595399802
 20
91.0946645095
 10
154.6538972469
 20
91.09993839
 10
154.6510382927
 20
91.1062463072
  0
LWPOLYLINE
  5
258
100
AcDbEntity
  8
RACCORDO
100
AcDbPolyline
 62
253
  6
CONTINUOUS
 90
5
 70
0
 10
154.6785992134
 20
91.0869532567
 10
154.6678565723
 20
91.0902927095
 10
154.6595399802
 20
91.0946645095
 10
154.6538972469
 20
91.09993839
 10
154.6510382985
 20
91.106246277
  0
LINE
  5
259
100
AcDbEntity
  8
ASSI
100
AcDbLine
 62
253
  6
CONTINUOUS
 10
146.2992678122
 20
95.6070890176
 11
146.3312043826
 21
95.5928789291
  0
LINE
  5
25A
100
AcDbEntity
  8
RACCORDO
100
AcDbLine
 62
253
  6
CONTINUOUS
 10
146.2992678122
 20
95.6070890176
 11
146.3312043826
 21
95.5928789291
  0
LINE
  5
25B
100
AcDbEntity
  8
ASSI
100
AcDbLine
 62
7
  6
CONTINUOUS
 10
146.3446797654
 20
95.5469257001
 11
146.3570211726
 21
95.5411105675
  0
LINE
  5
25C
100
AcDbEntity
  8
RACCORDO
100
AcDbLine
 62
7
  6
CONTINUOUS
 10
146.3447961602
 20
95.5468817209
 11
146.3570205261
 21
95.5411108945
  0
LINE
  5
25D
100
AcDbEntity
  8
RACCORDO
100
AcDbLine
 62
253
  6
CONTINUOUS
 10
146.2612319214
 20
95.2597465847
 11
154.1230398451
 21
91.3288426229
  0
LINE
  5
25E
100
AcDbEntity
  8
RACCORDO
100
AcDbLine
 62
253
  6
CONTINUOUS
 10
146.3663274193
 20
95.4459739082
 11
154.2281353429
 21
91.5150699464
  0
LINE
  5
25F
100
AcDbEntity
  8
ASSI
100
AcDbLine
 62
7
  6
CONTINUOUS
 10
146.3571694388
 20
95.5410478489
 11
154.3515095761
 21
91.5438777802
  0
LINE
  5
260
100
AcDbEntity
  8
RACCORDO
100
AcDbLine
 62
7
  6
CONTINUOUS
 10
146.3571694388
 20
95.5410478489
 11
154.3515095761
 21
91.5438777802
  0
LINE
  5
261
100
AcDbEntity
  8
ASSI
100
AcDbLine
 62
253
  6
CONTINUOUS
 10
146.3312043826
 20
95.5928789291
 11
154.3255445209
 21
91.5957088599
  0
LINE
  5
262
100
AcDbEntity
  8
RACCORDO
100
AcDbLine
 62
253
  6
CONTINUOUS
 10
146.3312043826
 20
95.5928789291
 11
154.3255445209
 21
91.5957088599
  0
LWPOLYLINE
  5
263
100
AcDbEntity
  8
RACCORDO
100
AcDbPolyline
 62
253
  6
CONTINUOUS
 90
31
 70
0
 10
154.1230398451
 20
91.3288426229
 10
154.1343195136
 20
91.3228935086
 10
154.1455494755
 20
91.3163628
 10
154.1567297491
 20
91.3092505067
 10
154.1678846827
 20
91.3015389195
 10
154.1789900011
 20
91.2932457868
 10
154.189972804
 20
91.2844243143
 10
154.2008311759
 20
91.2750717801
 10
154.2115671733
 20
91.2651909815
 10
154.2221138649
 20
91.2548434088
 10
154.2324699198
 20
91.2440264032
 10
154.2426368675
 20
91.2327427299
 10
154.2525520715
 20
91.2210620165
 10
154.2622141869
 20
91.2089817521
 10
154.2716248
 20
91.1965045772
 10
154.2807256648
 20
91.183707842
 10
154.2895149952
 20
91.1705895649
 10
154.2979948437
 20
91.1571518705
 10
154.3061127034
 20
91.1434782594
 10
154.3138663539
 20
91.129567515
 10
154.3212582869
 20
91.1154209999
 10
154.3282430337
 20
91.1011260662
 10
154.3348182993
 20
91.0866815213
 10
154.3409866352
 20
91.0720886963
 10
154.3467097987
 20
91.0574387061
 10
154.3519853283
 20
91.0427297713
 10
154.3568159079
 20
91.0279637916
 10
154.361170956
 20
91.0132373696
 10
154.3650403197
 20
90.9985827283
 10
154.3684343115
 20
90.9839677315
 10
154.3713530167
 20
90.9693924253
  0
LWPOLYLINE
  5
264
100
AcDbEntity
  8
RACCORDO
100
AcDbPolyline
 62
253
  6
CONTINUOUS
 90
31
 70
0
 10
154.2281353465
 20
91.5150694373
 10
154.2441840673
 20
91.5065706378
 10
154.2602192647
 20
91.4972019964
 10
154.2762033827
 20
91.4869839192
 10
154.292101454
 20
91.4759387512
 10
154.3078823815
 20
91.4640894529
 10
154.3235163367
 20
91.4514581449
 10
154.3389722719
 20
91.4380697617
 10
154.3542173203
 20
91.4239535029
 10
154.3692188367
 20
91.4091389714
 10
154.3839452166
 20
91.3936568873
 10
154.3983668107
 20
91.3775397686
 10
154.4124541652
 20
91.3608204635
 10
154.4261780772
 20
91.3435328834
 10
154.4395105835
 20
91.3257136059
 10
154.4524241526
 20
91.3073996013
 10
154.46489167
 20
91.2886282247
 10
154.4768879676
 20
91.2694388529
 10
154.4883884407
 20
91.2498715199
 10
154.499368678
 20
91.2299664178
 10
154.5098066847
 20
91.2097647931
 10
154.5196815124
 20
91.1893083
 10
154.5289722578
 20
91.1686383745
 10
154.5376598832
 20
91.1477985669
 10
154.5457265892
 20
91.1268338677
 10
154.5531546099
 20
91.1057888793
 10
154.55992944
 20
91.0847052884
 10
154.5660388349
 20
91.0636234691
 10
154.5714698135
 20
91.0425850576
 10
154.5762103122
 20
91.0216359735
 10
154.5802502116
 20
91.0008248499
  0
LWPOLYLINE
  5
265
100
AcDbEntity
  8
ASSI
100
AcDbPolyline
 62
253
  6
CONTINUOUS
 90
6
 70
0
 10
145.9939172424
 20
95.4292952498
 10
146.0069252456
 20
95.4207589777
 10
146.0216517683
 20
95.4136088716
 10
146.0376579851
 20
95.4080579923
 10
146.0544669382
 20
95.4042717467
 10
146.0669007668
 20
95.4028846969
  0
LWPOLYLINE
  5
266
100
AcDbEntity
  8
RACCORDO
100
AcDbPolyline
 62
253
  6
CONTINUOUS
 90
6
 70
0
 10
145.9939172424
 20
95.4292952498
 10
146.0069252456
 20
95.4207589777
 10
146.0216517683
 20
95.4136088716
 10
146.0376579851
 20
95.4080579923
 10
146.0544669382
 20
95.4042717467
 10
146.0715777493
 20
95.4023629583
  0
LWPOLYLINE
  5
267
100
AcDbEntity
  8
ASSI
100
AcDbPolyline
 62
253
  6
CONTINUOUS
 90
6
 70
0
 10
154.8233277346
 20
87.7583177957
 10
154.8121655102
 20
87.7681271404
 10
154.8035080448
 20
87.7789140795
 10
154.7976208456
 20
87.790347799
 10
154.7946844612
 20
87.8020776496
 10
154.7947348269
 20
87.8133491333
  0
LWPOLYLINE
  5
268
100
AcDbEntity
  8
RACCORDO
100
AcDbPolyline
 62
253
  6
CONTINUOUS
 90
6
 70
0
 10
154.8233277346
 20
87.7583177957
 10
154.8121655102
 20
87.7681271404
 10
154.8035080448
 20
87.7789140795
 10
154.7976208456
 20
87.790347799
 10
154.7946844612
 20
87.8020776496
 10
154.7947350848
 20
87.8133510803
  0
LINE
  5
269
100
AcDbEntity
  8
RACCORDO
100
AcDbLine
 62
7
  6
CONTINUOUS
 10
143.5223992747
 20
88.2583118254
 11
143.5301039001
 21
88.2087434212
  0
LINE
  5
26A
100
AcDbEntity
  8
ASSI
100
AcDbLine
 62
7
  6
CONTINUOUS
 10
143.5223987694
 20
88.2583157211
 11
143.5301039001
 21
88.2087434212
  0
LINE
  5
26B
100
AcDbEntity
  8
RACCORDO
100
AcDbLine
 62
7
  6
CONTINUOUS
 10
143.5223373308
 20
88.2587045272
 11
143.522387972
 21
88.2583103683
  0
LINE
  5
26C
100
AcDbEntity
  8
ASSI
100
AcDbLine
 62
7
  6
CONTINUOUS
 10
143.5223373305
 20
88.2587045298
 11
143.522387467
 21
88.2583142641
  0
LINE
  5
26D
100
AcDbEntity
  8
RACCORDO
100
AcDbLine
 62
7
  6
CONTINUOUS
 10
143.4018113978
 20
89.2549635545
 11
143.5223373308
 21
88.2587045272
  0
LWPOLYLINE
  5
26E
100
AcDbEntity
  8
ASSI
100
AcDbPolyline
 62
253
  6
CONTINUOUS
 90
10
 70
0
 10
143.6686946909
 20
88.0827761231
 10
143.5423020478
 20
89.1301905661
 10
143.4287108827
 20
90.1865271249
 10
143.3279454855
 20
91.2515652938
 10
143.2400278231
 20
92.325082521
 10
143.1649762673
 20
93.4068550604
 10
143.1028055979
 20
94.4966580228
 10
143.0535286869
 20
95.5942643465
 10
143.0171564882
 20
96.6994448401
 10
142.9936967729
 20
97.8119690392
  0
LWPOLYLINE
  5
26F
100
AcDbEntity
  8
RACCORDO
100
AcDbPolyline
 62
253
  6
CONTINUOUS
 90
10
 70
0
 10
143.6686946909
 20
88.0827761231
 10
143.5423020478
 20
89.1301905661
 10
143.4287108827
 20
90.1865271249
 10
143.3279454855
 20
91.2515652938
 10
143.2400278231
 20
92.325082521
 10
143.1649762673
 20
93.4068550604
 10
143.1028055979
 20
94.4966580228
 10
143.0535286869
 20
95.5942643465
 10
143.0171564882
 20
96.6994448401
 10
142.9936967729
 20
97.8119690392
  0
LWPOLYLINE
  5
270
100
AcDbEntity
  8
ASSI
100
AcDbPolyline
 62
253
  6
CONTINUOUS
 90
9
 70
0
 10
142.8472425344
 20
114.4424635978
 10
142.8482742573
 20
114.4248982429
 10
142.854238305
 20
114.3998840367
 10
142.8654248562
 20
114.3752415386
 10
142.8817153958
 20
114.3512318216
 10
142.9029373348
 20
114.3281092551
 10
142.9288658389
 20
114.3061188095
 10
142.9592262104
 20
114.285493461
 10
142.9936967985
 20
114.2664517233
  0
LWPOLYLINE
  5
271
100
AcDbEntity
  8
RACCORDO
100
AcDbPolyline
 62
253
  6
CONTINUOUS
 90
9
 70
0
 10
142.8472425344
 20
114.442463596
 10
142.8482742573
 20
114.4248982429
 10
142.854238305
 20
114.3998840367
 10
142.8654248562
 20
114.3752415386
 10
142.8817153958
 20
114.3512318216
 10
142.9029373348
 20
114.3281092551
 10
142.9288658389
 20
114.3061188095
 10
142.9592262104
 20
114.285493461
 10
142.9936967985
 20
114.2664517233
  0
LWPOLYLINE
  5
272
100
AcDbEntity
  8
RACCORDO
100
AcDbPolyline
 62
7
  6
CONTINUOUS
 90
8
 70
0
 10
142.8693952645
 20
96.9258438192
 10
142.9057464538
 20
95.8059846986
 10
142.9553580297
 20
94.6935474739
 10
143.018214423
 20
93.5890443642
 10
143.0943041683
 20
92.492696036
 10
143.1836157894
 20
91.4047043477
 10
143.286135451
 20
90.3252877153
 10
143.4018113978
 20
89.2549635545
  0
LWPOLYLINE
  5
273
100
AcDbEntity
  8
ASSI
100
AcDbPolyline
 62
7
  6
CONTINUOUS
 90
10
 70
0
 10
142.8472443413
 20
97.9893265091
 10
142.8694006571
 20
96.9255849142
 10
142.9057598371
 20
95.8056371653
 10
142.9553679434
 20
94.6933520606
 10
143.0182172893
 20
93.5889989632
 10
143.0942964136
 20
92.4927984484
 10
143.1835938441
 20
91.4049523025
 10
143.2860957519
 20
90.325678851
 10
143.4017783429
 20
89.2552367844
 10
143.5223373305
 20
88.2587045298
  0
LINE
  5
274
100
AcDbEntity
  8
RACCORDO
100
AcDbLine
 62
7
  6
CONTINUOUS
 10
142.8472443412
 20
97.9893265111
 11
142.8693952645
 21
96.9258438192
  0
LINE
  5
275
100
AcDbEntity
  8
RACCORDO
100
AcDbLine
 62
7
  6
CONTINUOUS
 10
142.8233451767
 20
99.7495171658
 11
142.847244329
 21
97.9893263519
  0
LWPOLYLINE
  5
276
100
AcDbEntity
  8
ASSI
100
AcDbPolyline
 62
253
  6
CONTINUOUS
 90
10
 70
0
 10
142.9936967729
 20
97.8119690392
 10
142.9691422387
 20
99.6272299199
 10
142.9507265515
 20
101.4458021198
 10
142.9384496648
 20
103.2676530116
 10
142.9323114625
 20
105.0927251369
 10
142.9323114593
 20
106.9210104534
 10
142.9384496562
 20
108.7525507631
 10
142.9507265402
 20
110.5873385099
 10
142.9691422296
 20
112.4253163526
 10
142.9936967729
 20
114.2664517111
  0
LWPOLYLINE
  5
277
100
AcDbEntity
  8
RACCORDO
100
AcDbPolyline
 62
253
  6
CONTINUOUS
 90
10
 70
0
 10
142.9936967729
 20
97.8119690392
 10
142.9691422387
 20
99.6272299199
 10
142.9507265515
 20
101.4458021198
 10
142.9384496648
 20
103.2676530116
 10
142.9323114625
 20
105.0927251369
 10
142.9323114593
 20
106.9210104534
 10
142.9384496562
 20
108.7525507631
 10
142.9507265402
 20
110.5873385099
 10
142.9691422296
 20
112.4253163526
 10
142.9936967729
 20
114.2664517111
  0
LWPOLYLINE
  5
278
100
AcDbEntity
  8
RACCORDO
100
AcDbPolyline
 62
7
  6
CONTINUOUS
 90
8
 70
0
 10
142.8232754398
 20
112.6513141586
 10
142.804570565
 20
110.7986211164
 10
142.7921019612
 20
108.9488719114
 10
142.7858725499
 20
107.1023555059
 10
142.7858824417
 20
105.2591034692
 10
142.7921316922
 20
103.4191448993
 10
142.8046203052
 20
101.5825112619
 10
142.8233451767
 20
99.7495171658
  0
LWPOLYLINE
  5
279
100
AcDbEntity
  8
ASSI
100
AcDbPolyline
 62
7
  6
CONTINUOUS
 90
10
 70
0
 10
142.8472425116
 20
114.4424637064
 10
142.8232719547
 20
112.6510537005
 10
142.8045675667
 20
110.7982650067
 10
142.7921009428
 20
108.9486705895
 10
142.7858724706
 20
107.1023084355
 10
142.7858822605
 20
105.2592101059
 10
142.7921303682
 20
103.4194046923
 10
142.8046167975
 20
101.5829236523
 10
142.8233412743
 20
99.7498045778
 10
142.847244329
 20
97.9893263519
  0
LINE
  5
27A
100
AcDbEntity
  8
RACCORDO
100
AcDbLine
 62
7
  6
CONTINUOUS
 10
142.8472425116
 20
114.4424637065
 11
142.8232754398
 21
112.6513141586
  0
LINE
  5
27B
100
AcDbEntity
  8
RACCORDO
100
AcDbLine
 62
7
  6
CONTINUOUS
 10
142.8692329721
 20
115.5229712449
 11
142.8472425344
 21
114.442463596
  0
LWPOLYLINE
  5
27C
100
AcDbEntity
  8
ASSI
100
AcDbPolyline
 62
253
  6
CONTINUOUS
 90
10
 70
0
 10
142.9936967729
 20
114.2664517111
 10
143.0171564888
 20
115.4036910383
 10
143.0535286879
 20
116.5471885389
 10
143.1028055991
 20
117.6967059776
 10
143.1649762683
 20
118.852004044
 10
143.2400278237
 20
120.0128419694
 10
143.3279454857
 20
121.1789775793
 10
143.4287108828
 20
122.3501679206
 10
143.5423020479
 20
123.5261693097
 10
143.6686946909
 20
124.706736951
  0
LWPOLYLINE
  5
27D
100
AcDbEntity
  8
RACCORDO
100
AcDbPolyline
 62
253
  6
CONTINUOUS
 90
10
 70
0
 10
142.9936967729
 20
114.2664517111
 10
143.0171564888
 20
115.4036910383
 10
143.0535286879
 20
116.5471885389
 10
143.1028055991
 20
117.6967059776
 10
143.1649762683
 20
118.852004044
 10
143.2400278237
 20
120.0128419694
 10
143.3279454857
 20
121.1789775793
 10
143.4287108828
 20
122.3501679206
 10
143.5423020479
 20
123.5261693097
 10
143.6686946909
 20
124.706736951
  0
LWPOLYLINE
  5
27E
100
AcDbEntity
  8
ASSI
100
AcDbPolyline
 62
253
  6
CONTINUOUS
 90
19
 70
0
 10
159.043131598
 20
118.4375087347
 10
158.9877028235
 20
118.4061594787
 10
158.9327292115
 20
118.3698463286
 10
158.8785368919
 20
118.3287899114
 10
158.8254427279
 20
118.28324064
 10
158.7737663151
 20
118.2334730897
 10
158.7238278842
 20
118.179784874
 10
158.6759250665
 20
118.1225027343
 10
158.6303397819
 20
118.0619719376
 10
158.5873507114
 20
117.9985499516
 10
158.5472134477
 20
117.9326191206
 10
158.5101652124
 20
117.8645775392
 10
158.4764326417
 20
117.7948279262
 10
158.4462162811
 20
117.723788333
 10
158.4196958182
 20
117.6518887382
 10
158.397035644
 20
117.5795610161
 10
158.3783724955
 20
117.5072402936
 10
158.3638149746
 20
117.4353622781
 10
158.3534495818
 20
117.3643595056
  0
LWPOLYLINE
  5
27F
100
AcDbEntity
  8
RACCORDO
100
AcDbPolyline
 62
253
  6
CONTINUOUS
 90
19
 70
0
 10
159.043131598
 20
118.4375087347
 10
158.9877028235
 20
118.4061594787
 10
158.9327292115
 20
118.3698463286
 10
158.8785368919
 20
118.3287899114
 10
158.8254427279
 20
118.28324064
 10
158.7737663151
 20
118.2334730897
 10
158.7238278842
 20
118.179784874
 10
158.6759250665
 20
118.1225027343
 10
158.6303397819
 20
118.0619719376
 10
158.5873507114
 20
117.9985499516
 10
158.5472134477
 20
117.9326191206
 10
158.5101652124
 20
117.8645775392
 10
158.4764326417
 20
117.7948279262
 10
158.4462162811
 20
117.723788333
 10
158.4196958182
 20
117.6518887382
 10
158.397035644
 20
117.5795610161
 10
158.3783724955
 20
117.5072402936
 10
158.3638149746
 20
117.4353622781
 10
158.3534495818
 20
117.3643595056
  0
LWPOLYLINE
  5
280
100
AcDbEntity
  8
ASSI
100
AcDbPolyline
 62
253
  6
CONTINUOUS
 90
19
 70
0
 10
159.3965638347
 20
117.8279282971
 10
159.3683929491
 20
117.8123590631
 10
159.340719121
 20
117.7945062957
 10
159.3135423502
 20
117.7743699948
 10
159.2866866181
 20
117.751793216
 10
159.2603279435
 20
117.7269329038
 10
159.2349943827
 20
117.7002598912
 10
159.2107201113
 20
117.6717459459
 10
159.1874709538
 20
117.6414193003
 10
159.1656724399
 20
117.6098354847
 10
159.145355205
 20
117.5769756926
 10
159.1264886137
 20
117.5428587305
 10
159.1094062899
 20
117.5080965487
 10
159.0941373313
 20
117.4726566765
 10
159.0806526402
 20
117.4365715845
 10
159.0691985472
 20
117.4005506349
 10
159.0598571625
 20
117.3648302816
 10
159.0525463759
 20
117.3291740707
 10
159.0472661874
 20
117.2935820021
  0
LWPOLYLINE
  5
281
100
AcDbEntity
  8
RACCORDO
100
AcDbPolyline
 62
253
  6
CONTINUOUS
 90
19
 70
0
 10
159.3965638347
 20
117.8279282971
 10
159.3683929491
 20
117.8123590631
 10
159.340719121
 20
117.7945062957
 10
159.3135423502
 20
117.7743699948
 10
159.2866866181
 20
117.751793216
 10
159.2603279435
 20
117.7269329038
 10
159.2349943827
 20
117.7002598912
 10
159.2107201113
 20
117.6717459459
 10
159.1874709538
 20
117.6414193003
 10
159.1656724399
 20
117.6098354847
 10
159.145355205
 20
117.5769756926
 10
159.1264886137
 20
117.5428587305
 10
159.1094062899
 20
117.5080965487
 10
159.0941373313
 20
117.4726566765
 10
159.0806526402
 20
117.4365715845
 10
159.0691985472
 20
117.4005506349
 10
159.0598571625
 20
117.3648302816
 10
159.0525463759
 20
117.3291740707
 10
159.0472661874
 20
117.2935820021
  0
LINE
  5
282
100
AcDbEntity
  8
ASSI
100
AcDbLine
 62
253
  6
CONTINUOUS
 10
162.2750201482
 20
119.2836643316
 11
159.3965638347
 21
117.8279282971
  0
LINE
  5
283
100
AcDbEntity
  8
RACCORDO
100
AcDbLine
 62
253
  6
CONTINUOUS
 10
162.2750201482
 20
119.2836643316
 11
159.3965638347
 21
117.8279282971
  0
LINE
  5
284
100
AcDbEntity
  8
ASSI
100
AcDbLine
 62
7
  6
CONTINUOUS
 10
146.2695550043
 20
95.5655052503
 11
146.2917392152
 21
95.563425551
  0
LINE
  5
285
100
AcDbEntity
  8
RACCORDO
100
AcDbLine
 62
7
  6
CONTINUOUS
 10
146.2695550043
 20
95.5655052503
 11
146.2917392152
 21
95.563425551
  0
LINE
  5
286
100
AcDbEntity
  8
ASSI
100
AcDbLine
 62
7
  6
CONTINUOUS
 10
146.2917392152
 20
95.563425551
 11
146.3168828421
 21
95.5574061616
  0
LINE
  5
287
100
AcDbEntity
  8
RACCORDO
100
AcDbLine
 62
7
  6
CONTINUOUS
 10
146.2917392152
 20
95.563425551
 11
146.3168828421
 21
95.5574061616
  0
LINE
  5
288
100
AcDbEntity
  8
ASSI
100
AcDbLine
 62
7
  6
CONTINUOUS
 10
146.3168828421
 20
95.5574061616
 11
146.3446797654
 21
95.5469257001
  0
LINE
  5
289
100
AcDbEntity
  8
RACCORDO
100
AcDbLine
 62
7
  6
CONTINUOUS
 10
146.3168828421
 20
95.5574061616
 11
146.3447961602
 21
95.5468817209
  0
LINE
  5
28A
100
AcDbEntity
  8
ASSI
100
AcDbLine
 62
253
  6
CONTINUOUS
 10
142.9936967729
 20
97.8119690392
 11
157.6423572581
 21
90.4876387966
  0
LINE
  5
28B
100
AcDbEntity
  8
RACCORDO
100
AcDbLine
 62
253
  6
CONTINUOUS
 10
142.9936967729
 20
97.8119690392
 11
157.6423572581
 21
90.4876387966
  0
LINE
  5
28C
100
AcDbEntity
  8
0
100
AcDbLine
 62
253
  6
CONTINUOUS
 10
151.9876069748
 20
94.381854277
 11
151.5936472319
 21
94.5788341484
  0
LINE
  5
28D
100
AcDbEntity
  8
0
100
AcDbLine
 62
253
  6
CONTINUOUS
 10
148.9672507727
 20
95.892032378
 11
148.4419714808
 21
96.154672024
  0
LINE
  5
28E
100
AcDbEntity
  8
0
100
AcDbLine
 62
253
  6
CONTINUOUS
 10
145.4653886078
 20
97.6429634605
 11
146.1219877774
 21
97.3146638757
  0
LINE
  5
28F
100
AcDbEntity
  8
0
100
AcDbLine
 62
253
  6
CONTINUOUS
 10
154.2200439104
 20
93.2656358092
 11
154.8766431896
 21
92.9373361696
  0
LWPOLYLINE
  5
290
100
AcDbEntity
  8
ASSI
100
AcDbPolyline
 62
253
  6
CONTINUOUS
 90
3
 70
0
 10
154.3255445209
 20
91.5957088599
 10
154.3579988381
 20
91.5776077565
 10
154.3897253031
 20
91.5565604745
  0
LWPOLYLINE
  5
291
100
AcDbEntity
  8
RACCORDO
100
AcDbPolyline
 62
253
  6
CONTINUOUS
 90
3
 70
0
 10
154.3255445209
 20
91.5957088599
 10
154.3579988381
 20
91.5776077565
 10
154.3897253031
 20
91.5565604745
  0
LWPOLYLINE
  5
292
100
AcDbEntity
  8
RACCORDO
100
AcDbPolyline
 62
7
  6
CONTINUOUS
 90
13
 70
0
 10
154.3516055747
 20
91.5438273309
 10
154.3798577801
 20
91.5279329746
 10
154.4070326793
 20
91.5093761707
 10
154.4343938194
 20
91.4874474428
 10
154.461467239
 20
91.4624020112
 10
154.4878738633
 20
91.4345183036
 10
154.5132765486
 20
91.4041053682
 10
154.5373662302
 20
91.3714848491
 10
154.5598497448
 20
91.3370331285
 10
154.5804851972
 20
91.301136427
 10
154.5990865628
 20
91.2641207134
 10
154.6154483914
 20
91.2264004574
 10
154.6294130392
 20
91.1883939322
  0
LWPOLYLINE
  5
293
100
AcDbEntity
  8
ASSI
100
AcDbPolyline
 62
7
  6
CONTINUOUS
 90
14
 70
0
 10
154.3516057713
 20
91.5438272333
 10
154.3801966523
 20
91.527721167
 10
154.4073134428
 20
91.5091678177
 10
154.434611708
 20
91.487259446
 10
154.4616213651
 20
91.4622494595
 10
154.4879659618
 20
91.4344146776
 10
154.5133106242
 20
91.4040619769
 10
154.5373483989
 20
91.3715105292
 10
154.5597878898
 20
91.3371340341
 10
154.5803884382
 20
91.3013161608
 10
154.5989648287
 20
91.2643808409
 10
154.6153124033
 20
91.2267398728
 10
154.6292740005
 20
91.1888089343
 10
154.6407391598
 20
91.1509369426
  0
LWPOLYLINE
  5
294
100
AcDbEntity
  8
ASSI
100
AcDbPolyline
 62
253
  6
CONTINUOUS
 90
3
 70
0
 10
154.3897253031
 20
91.5565604745
 10
154.4207244793
 20
91.5325673136
 10
154.451230455
 20
91.5053839694
  0
LWPOLYLINE
  5
295
100
AcDbEntity
  8
RACCORDO
100
AcDbPolyline
 62
253
  6
CONTINUOUS
 90
3
 70
0
 10
154.3897253031
 20
91.5565604745
 10
154.4207244793
 20
91.5325673136
 10
154.451230455
 20
91.5053839694
  0
LWPOLYLINE
  5
296
100
AcDbEntity
  8
RACCORDO
100
AcDbPolyline
 62
253
  6
CONTINUOUS
 90
12
 70
0
 10
146.1177599051
 20
92.0972467678
 10
146.1183127191
 20
92.0951515363
 10
146.1197867249
 20
92.0914567278
 10
146.1218612543
 20
92.0879185469
 10
146.1245276881
 20
92.0845516939
 10
146.1277749481
 20
92.0813701571
 10
146.1315895428
 20
92.0783871549
 10
146.1359556236
 20
92.0756150808
 10
146.1408550506
 20
92.0730654521
 10
146.1462674682
 20
92.0707488617
 10
146.1521703892
 20
92.0686749344
 10
146.1585392887
 20
92.0668522869
  0
LWPOLYLINE
  5
297
100
AcDbEntity
  8
RACCORDO
100
AcDbPolyline
 62
7
  6
CONTINUOUS
 90
28
 70
0
 10
146.1177583967
 20
92.0972549132
 10
146.1197404816
 20
92.088460061
 10
146.1253225002
 20
92.066314321
 10
146.1317071935
 20
92.0442886733
 10
146.1388641443
 20
92.0224244185
 10
146.1467674058
 20
92.0007455901
 10
146.1553973942
 20
91.9792693502
 10
146.164730069
 20
91.9580272564
 10
146.1747410985
 20
91.9370533409
 10
146.1854117233
 20
91.9163746473
 10
146.1967189197
 20
91.8960249364
 10
146.2086413889
 20
91.8760374984
 10
146.2211624893
 20
91.8564398399
 10
146.2342637897
 20
91.8372622138
 10
146.2479234017
 20
91.8185435452
 10
146.2621190114
 20
91.800321613
 10
146.2768346814
 20
91.7826262793
 10
146.2920488208
 20
91.7654975096
 10
146.3077318634
 20
91.7489810109
 10
146.3238661956
 20
91.7331104803
 10
146.3404349999
 20
91.7179206951
 10
146.3574151033
 20
91.7034509735
 10
146.3747915805
 20
91.6897365189
 10
146.3925512006
 20
91.6768125772
 10
146.41068379
 20
91.6647140644
 10
146.4291820779
 20
91.6534787878
 10
146.4480293614
 20
91.643150505
 10
146.4539845135
 20
91.6401179624
  0
LWPOLYLINE
  5
298
100
AcDbEntity
  8
RACCORDO
100
AcDbPolyline
 62
253
  6
CONTINUOUS
 90
19
 70
0
 10
146.158539282
 20
92.066852283
 10
146.1207487599
 20
92.2483039207
 10
146.0864870286
 20
92.4288871929
 10
146.0557573471
 20
92.608603145
 10
146.0285456748
 20
92.7875707871
 10
146.0048730242
 20
92.9656734092
 10
145.9847933446
 20
93.1425573611
 10
145.9683184044
 20
93.3181996966
 10
145.9554391437
 20
93.492623125
 10
145.9461747601
 20
93.6655404587
 10
145.9405314009
 20
93.8369473147
 10
145.9385024795
 20
94.0068460326
 10
145.9400848831
 20
94.1749576999
 10
145.9452857151
 20
94.3412932954
 10
145.9540942945
 20
94.5058380741
 10
145.9664773431
 20
94.6682726159
 10
145.9824204693
 20
94.8284880615
 10
146.0019302674
 20
94.9865872706
 10
146.0250030675
 20
95.1425673999
  0
LWPOLYLINE
  5
299
100
AcDbEntity
  8
ASSI
100
AcDbPolyline
 62
253
  6
CONTINUOUS
 90
6
 70
0
 10
146.3312043826
 20
95.5928789291
 10
146.3325457075
 20
95.5788802713
 10
146.3359016245
 20
95.5663809799
 10
146.3411746386
 20
95.5557441805
 10
146.3482115596
 20
95.5472788902
 10
146.3570258645
 20
95.5411200209
  0
LWPOLYLINE
  5
29A
100
AcDbEntity
  8
RACCORDO
100
AcDbPolyline
 62
253
  6
CONTINUOUS
 90
6
 70
0
 10
146.3312043826
 20
95.5928789291
 10
146.3325457075
 20
95.5788802713
 10
146.3359016245
 20
95.5663809799
 10
146.3411746386
 20
95.5557441805
 10
146.3482115596
 20
95.5472788902
 10
146.357025218
 20
95.5411203477
  0
LINE
  5
29B
100
AcDbEntity
  8
ASSI
100
AcDbLine
 62
253
  6
CONTINUOUS
 10
145.8951517234
 20
94.0076500693
 11
145.894608775
 21
94.0200195594
  0
LINE
  5
29C
100
AcDbEntity
  8
RACCORDO
100
AcDbLine
 62
253
  6
CONTINUOUS
 10
145.8951517234
 20
94.0076500693
 11
145.894608775
 21
94.0200195594
  0
LWPOLYLINE
  5
29D
100
AcDbEntity
  8
0
100
AcDbPolyline
 62
253
  6
CONTINUOUS
 90
3
 70
0
 10
145.4398312132
 20
99.881850813
 10
145.4559307315
 20
98.3785304862
 10
145.4653886064
 20
97.6429635602
  0
LWPOLYLINE
  5
29E
100
AcDbEntity
  8
ASSI
100
AcDbPolyline
 62
253
  6
CONTINUOUS
 90
4
 70
0
 10
145.894608775
 20
94.0200195594
 10
145.8946969249
 20
94.3859587226
 10
145.9113085751
 20
94.7422774413
 10
145.9443890995
 20
95.0900630813
  0
LWPOLYLINE
  5
29F
100
AcDbEntity
  8
RACCORDO
100
AcDbPolyline
 62
253
  6
CONTINUOUS
 90
4
 70
0
 10
145.894608775
 20
94.0200195594
 10
145.8946969249
 20
94.3859587226
 10
145.9113085751
 20
94.7422774413
 10
145.9443890995
 20
95.0900630813
  0
LINE
  5
2A0
100
AcDbEntity
  8
ASSI
100
AcDbLine
 62
7
  6
CONTINUOUS
 10
146.2502991299
 20
95.5641876475
 11
146.2695550043
 21
95.5655052503
  0
LINE
  5
2A1
100
AcDbEntity
  8
RACCORDO
100
AcDbLine
 62
7
  6
CONTINUOUS
 10
146.2502991299
 20
95.5641876475
 11
146.2695550043
 21
95.5655052503
  0
LINE
  5
2A2
100
AcDbEntity
  8
0
100
AcDbLine
 62
253
  6
CONTINUOUS
 10
152.763401883
 20
94.9468324289
 11
153.4200011622
 21
94.6185327893
  0
LINE
  5
2A3
100
AcDbEntity
  8
0
100
AcDbLine
 62
253
  6
CONTINUOUS
 10
154.2060698542
 20
94.384481806
 11
154.8626691334
 21
94.0561821664
  0
LINE
  5
2A4
100
AcDbEntity
  8
0
100
AcDbLine
 62
253
  6
CONTINUOUS
 10
154.5884462587
 20
95.3075432903
 11
154.1944865158
 21
95.5045231617
  0
LINE
  5
2A5
100
AcDbEntity
  8
0
100
AcDbLine
 62
253
  6
CONTINUOUS
 10
153.4065679068
 20
95.8984824662
 11
152.7499686276
 21
96.2267821058
  0
LINE
  5
2A6
100
AcDbEntity
  8
0
100
AcDbLine
 62
253
  6
CONTINUOUS
 10
150.78017079
 20
97.2116810246
 11
149.7296122063
 21
97.7369603165
  0
LINE
  5
2A7
100
AcDbEntity
  8
0
100
AcDbLine
 62
253
  6
CONTINUOUS
 10
149.0730131463
 20
98.0652598465
 11
148.5477338544
 21
98.3278994924
  0
LINE
  5
2A8
100
AcDbEntity
  8
0
100
AcDbLine
 62
253
  6
CONTINUOUS
 10
146.0964303828
 20
99.5535512282
 11
145.4398312132
 21
99.881850813
  0
LWPOLYLINE
  5
2A9
100
AcDbEntity
  8
ASSI
100
AcDbPolyline
 62
253
  6
CONTINUOUS
 90
9
 70
0
 10
154.451230455
 20
91.5053839694
 10
154.4810113905
 20
91.475255944
 10
154.5093693055
 20
91.4429184326
 10
154.5362621632
 20
91.4083491824
 10
154.5617357948
 20
91.3715724719
 10
154.585223843
 20
91.3333931996
 10
154.6067177188
 20
91.2936943585
 10
154.6262304661
 20
91.2525953434
 10
154.6432271371
 20
91.2112551028
  0
LWPOLYLINE
  5
2AA
100
AcDbEntity
  8
RACCORDO
100
AcDbPolyline
 62
253
  6
CONTINUOUS
 90
9
 70
0
 10
154.451230455
 20
91.5053839694
 10
154.4810113905
 20
91.475255944
 10
154.5093693055
 20
91.4429184326
 10
154.5362621632
 20
91.4083491824
 10
154.5617357948
 20
91.3715724719
 10
154.585223843
 20
91.3333931996
 10
154.6067177188
 20
91.2936943585
 10
154.6262304661
 20
91.2525953434
 10
154.6432271371
 20
91.2112551028
  0
LINE
  5
2AB
100
AcDbEntity
  8
0
100
AcDbLine
 62
253
  6
CONTINUOUS
 10
146.3803908692
 20
97.5028923686
 11
146.3621356178
 21
99.1020976169
  0
LWPOLYLINE
  5
2AC
100
AcDbEntity
  8
0
100
AcDbPolyline
 62
253
  6
CONTINUOUS
 90
3
 70
0
 10
147.4534019416
 20
98.8750654488
 10
147.4695014599
 20
97.371745122
 10
147.4789593348
 20
96.636178196
  0
LINE
  5
2AD
100
AcDbEntity
  8
0
100
AcDbLine
 62
253
  6
CONTINUOUS
 10
146.9403806253
 20
100.3096394231
 11
146.9315819839
 21
101.9135730039
  0
LWPOLYLINE
  5
2AE
100
AcDbEntity
  8
0
100
AcDbPolyline
 62
253
  6
CONTINUOUS
 90
3
 70
0
 10
146.0111687822
 20
102.694271774
 10
146.0183826721
 20
101.1864058385
 10
146.0234869001
 20
100.4487648242
  0
LINE
  5
2AF
100
AcDbEntity
  8
ASSI
100
AcDbLine
 62
253
  6
CONTINUOUS
 10
146.507306819
 20
91.5977151454
 11
146.5074659498
 21
91.6133767811
  0
LINE
  5
2B0
100
AcDbEntity
  8
RACCORDO
100
AcDbLine
 62
253
  6
CONTINUOUS
 10
146.507306819
 20
91.5977151454
 11
146.5074659498
 21
91.6133767811
  0
LWPOLYLINE
  5
2B1
100
AcDbEntity
  8
RACCORDO
100
AcDbPolyline
 62
253
  6
CONTINUOUS
 90
15
 70
0
 10
145.9829148642
 20
95.2235558879
 10
145.9825275871
 20
95.2207173452
 10
145.9821508319
 20
95.214495993
 10
145.9824098067
 20
95.2082116875
 10
145.9833034057
 20
95.2018912661
 10
145.9848278127
 20
95.1955617204
 10
145.9869765176
 20
95.1892500811
 10
145.9897403442
 20
95.1829833025
 10
145.9931074895
 20
95.1767881472
 10
145.9970635739
 20
95.1706910718
 10
146.0015917027
 20
95.1647181143
 10
146.0066725384
 20
95.1588947826
 10
146.0122843828
 20
95.1532459454
 10
146.0184032704
 20
95.1477957265
 10
146.0250030701
 20
95.1425674013
  0
LINE
  5
2B2
100
AcDbEntity
  8
ASSI
100
AcDbLine
 62
253
  6
CONTINUOUS
 10
145.9443890995
 20
95.0900630813
 11
145.993916018
 21
95.4292945916
  0
LINE
  5
2B3
100
AcDbEntity
  8
RACCORDO
100
AcDbLine
 62
253
  6
CONTINUOUS
 10
145.9443890995
 20
95.0900630813
 11
145.993916018
 21
95.4292945916
  0
LWPOLYLINE
  5
2B4
100
AcDbEntity
  8
RACCORDO
100
AcDbPolyline
 62
7
  6
CONTINUOUS
 90
19
 70
0
 10
145.9829144999
 20
95.2235559465
 10
145.9607237293
 20
95.0746178618
 10
145.9403795653
 20
94.9120502719
 10
145.9237400775
 20
94.7473491515
 10
145.9108195622
 20
94.5806110538
 10
145.9016255227
 20
94.4119230726
 10
145.8961641454
 20
94.241368993
 10
145.8944407676
 20
94.069032498
 10
145.8964563925
 20
93.8950076851
 10
145.9022105753
 20
93.719394549
 10
145.9117013642
 20
93.542287124
 10
145.9249216899
 20
93.3637767725
 10
145.9418629001
 20
93.1839602655
 10
145.9625154309
 20
93.0029318934
 10
145.9868657875
 20
92.8207814
 10
146.0148993687
 20
92.6375993005
 10
146.0465999366
 20
92.4534788606
 10
146.0819439186
 20
92.2685245203
 10
146.1177599051
 20
92.0972467678
  0
LINE
  5
2B5
100
AcDbEntity
  8
ASSI
100
AcDbLine
 62
7
  6
CONTINUOUS
 10
146.23429212
 20
95.5601590027
 11
146.2502991299
 21
95.5641876475
  0
LINE
  5
2B6
100
AcDbEntity
  8
RACCORDO
100
AcDbLine
 62
7
  6
CONTINUOUS
 10
146.23429212
 20
95.5601590027
 11
146.2502991299
 21
95.5641876475
  0
LINE
  5
2B7
100
AcDbEntity
  8
0
100
AcDbLine
 62
253
  6
CONTINUOUS
 10
146.0234869004
 20
100.4487647833
 11
146.68008607
 21
100.1204651985
  0
LINE
  5
2B8
100
AcDbEntity
  8
0
100
AcDbLine
 62
253
  6
CONTINUOUS
 10
147.9495111897
 20
99.4857526387
 11
148.3434704943
 21
99.2887729864
  0
LINE
  5
2B9
100
AcDbEntity
  8
0
100
AcDbLine
 62
253
  6
CONTINUOUS
 10
152.2830652928
 20
97.3189755872
 11
152.6770250356
 21
97.1219957157
  0
LINE
  5
2BA
100
AcDbEntity
  8
0
100
AcDbLine
 62
253
  6
CONTINUOUS
 10
149.2216125965
 20
96.3999067203
 11
149.225653974
 21
96.0802608212
  0
LINE
  5
2BB
100
AcDbEntity
  8
0
100
AcDbLine
 62
253
  6
CONTINUOUS
 10
148.2881599069
 20
98.1390854957
 11
148.2914206421
 21
97.8190492939
  0
LINE
  5
2BC
100
AcDbEntity
  8
0
100
AcDbLine
 62
253
  6
CONTINUOUS
 10
147.6757277022
 20
101.5415001409
 11
147.6845263435
 21
99.9375665601
  0
LINE
  5
2BD
100
AcDbEntity
  8
0
100
AcDbLine
 62
253
  6
CONTINUOUS
 10
148.6037651591
 20
99.4779471562
 11
148.5949665177
 21
101.081880737
  0
LINE
  5
2BE
100
AcDbEntity
  8
0
100
AcDbLine
 62
253
  6
CONTINUOUS
 10
148.5725358208
 20
112.5906645759
 11
148.5695215021
 21
112.4747684551
  0
LINE
  5
2BF
100
AcDbEntity
  8
0
100
AcDbLine
 62
253
  6
CONTINUOUS
 10
149.4457987192
 20
112.0523304705
 11
149.4508845111
 21
112.2439102592
  0
LWPOLYLINE
  5
2C0
100
AcDbEntity
  8
RACCORDO
100
AcDbPolyline
 62
253
  6
CONTINUOUS
 90
31
 70
0
 10
146.0250030675
 20
95.1425673999
 10
146.0272149353
 20
95.1545762681
 10
146.0299165962
 20
95.1661425549
 10
146.0331079647
 20
95.1772662138
 10
146.03679777
 20
95.1879699487
 10
146.0409771238
 20
95.1982309693
 10
146.0456194834
 20
95.2079809713
 10
146.0507274535
 20
95.2172153211
 10
146.056298207
 20
95.2259385319
 10
146.0622969957
 20
95.2340959901
 10
146.0687262379
 20
95.2416838782
 10
146.0755832587
 20
95.2487058751
 10
146.0828256277
 20
95.2551185893
 10
146.0904556552
 20
95.2609182382
 10
146.0984707594
 20
95.2661084582
 10
146.1068211403
 20
95.2706569691
 10
146.1155087821
 20
95.2745596823
 10
146.1245314343
 20
95.2778205432
 10
146.1338329263
 20
95.2804193129
 10
146.1434147383
 20
95.2823517873
 10
146.1532751488
 20
95.283622041
 10
146.1633531778
 20
95.2842222499
 10
146.1736503125
 20
95.2841481404
 10
146.1841648672
 20
95.2834038798
 10
146.1948311057
 20
95.2819943066
 10
146.2056510373
 20
95.2799145865
 10
146.2166225116
 20
95.2771694783
 10
146.2276735648
 20
95.2737782172
 10
146.2387801841
 20
95.2697472017
 10
146.2499663091
 20
95.2650699941
 10
146.2612319214
 20
95.2597465847
  0
LWPOLYLINE
  5
2C1
100
AcDbEntity
  8
ASSI
100
AcDbPolyline
 62
253
  6
CONTINUOUS
 90
15
 70
0
 10
145.993916018
 20
95.4292945916
 10
146.0014919169
 20
95.4630300774
 10
146.0116477276
 20
95.493830954
 10
146.0243814823
 20
95.5216961576
 10
146.0398421214
 20
95.5467901838
 10
146.0578772069
 20
95.5689466498
 10
146.0780321012
 20
95.587667854
 10
146.1003323172
 20
95.6028748955
 10
146.1247479699
 20
95.6146443319
 10
146.1507404475
 20
95.622711184
 10
146.1784041417
 20
95.6269826535
 10
146.2076408819
 20
95.6275495214
 10
146.2376230159
 20
95.6244220733
 10
146.2680738384
 20
95.6176033006
 10
146.2992678122
 20
95.6070890176
  0
LWPOLYLINE
  5
2C2
100
AcDbEntity
  8
RACCORDO
100
AcDbPolyline
 62
253
  6
CONTINUOUS
 90
15
 70
0
 10
145.993916018
 20
95.4292945916
 10
146.0014919169
 20
95.4630300774
 10
146.0116477276
 20
95.493830954
 10
146.0243814823
 20
95.5216961576
 10
146.0398421214
 20
95.5467901838
 10
146.0578772069
 20
95.5689466498
 10
146.0780321012
 20
95.587667854
 10
146.1003323172
 20
95.6028748955
 10
146.1247479699
 20
95.6146443319
 10
146.1507404475
 20
95.622711184
 10
146.1784041417
 20
95.6269826535
 10
146.2076408819
 20
95.6275495214
 10
146.2376230159
 20
95.6244220733
 10
146.2680738384
 20
95.6176033006
 10
146.2992678122
 20
95.6070890176
  0
LINE
  5
2C3
100
AcDbEntity
  8
0
100
AcDbLine
 62
253
  6
CONTINUOUS
 10
154.5031845485
 20
98.4482638909
 11
153.4526255264
 21
98.9735434019
  0
LINE
  5
2C4
100
AcDbEntity
  8
0
100
AcDbLine
 62
253
  6
CONTINUOUS
 10
152.6647069174
 20
99.3675027064
 11
152.2707471745
 21
99.5644825779
  0
LINE
  5
2C5
100
AcDbEntity
  8
0
100
AcDbLine
 62
253
  6
CONTINUOUS
 10
148.331152376
 20
101.5342799771
 11
147.9371930715
 21
101.7312596294
  0
LINE
  5
2C6
100
AcDbEntity
  8
0
100
AcDbLine
 62
253
  6
CONTINUOUS
 10
146.6677679518
 20
102.3659721892
 11
146.0111687822
 21
102.694271774
  0
LWPOLYLINE
  5
2C7
100
AcDbEntity
  8
0
100
AcDbPolyline
 62
253
  6
CONTINUOUS
 90
3
 70
0
 10
150.2548917173
 20
97.474320561
 10
150.2709912356
 20
95.9710002341
 10
150.2804491105
 20
95.2354333082
  0
LWPOLYLINE
  5
2C8
100
AcDbEntity
  8
0
100
AcDbPolyline
 62
253
  6
CONTINUOUS
 90
3
 70
0
 10
150.5635897499
 20
100.4180612902
 10
150.5708036398
 20
98.9101953547
 10
150.5759078679
 20
98.1725543403
  0
LWPOLYLINE
  5
2C9
100
AcDbEntity
  8
ASSI
100
AcDbPolyline
 62
253
  6
CONTINUOUS
 90
3
 70
0
 10
146.1466071836
 20
95.4648292108
 10
146.1566946615
 20
95.4871944856
 10
146.1688661925
 20
95.5072131175
  0
LWPOLYLINE
  5
2CA
100
AcDbEntity
  8
RACCORDO
100
AcDbPolyline
 62
253
  6
CONTINUOUS
 90
4
 70
0
 10
146.1466071836
 20
95.4648292108
 10
146.1566946615
 20
95.4871944856
 10
146.1688661925
 20
95.5072131175
 10
146.183019711
 20
95.5247312747
  0
LINE
  5
2CB
100
AcDbEntity
  8
ASSI
100
AcDbLine
 62
253
  6
CONTINUOUS
 10
154.6432271371
 20
91.2112551028
 11
154.6575301156
 21
91.1700603325
  0
LWPOLYLINE
  5
2CC
100
AcDbEntity
  8
RACCORDO
100
AcDbPolyline
 62
253
  6
CONTINUOUS
 90
3
 70
0
 10
154.6432271371
 20
91.2112551028
 10
154.6575301156
 20
91.1700603325
 10
154.6693201326
 20
91.1286260189
  0
LWPOLYLINE
  5
2CD
100
AcDbEntity
  8
RACCORDO
100
AcDbPolyline
 62
7
  6
CONTINUOUS
 90
4
 70
0
 10
154.6294130392
 20
91.1883939322
 10
154.6408698102
 20
91.1504520861
 10
154.6497044698
 20
91.1130079812
 10
154.6510242373
 20
91.1062857313
  0
LWPOLYLINE
  5
2CE
100
AcDbEntity
  8
0
100
AcDbPolyline
 62
253
  6
CONTINUOUS
 90
3
 70
0
 10
151.3267711415
 20
95.0297022324
 10
151.3094784538
 20
96.532406203
 10
151.3054503016
 20
96.9490412104
  0
LWPOLYLINE
  5
2CF
100
AcDbEntity
  8
0
100
AcDbPolyline
 62
253
  6
CONTINUOUS
 90
3
 70
0
 10
152.2246891166
 20
96.4894218613
 10
152.2407886349
 20
94.9861015345
 10
152.2460099563
 20
94.5700828833
  0
LWPOLYLINE
  5
2D0
100
AcDbEntity
  8
0
100
AcDbPolyline
 62
253
  6
CONTINUOUS
 90
3
 70
0
 10
152.7499686276
 20
96.2267821058
 10
152.7660681459
 20
94.723461779
 10
152.7755260208
 20
93.987894853
  0
LINE
  5
2D1
100
AcDbEntity
  8
0
100
AcDbLine
 62
253
  6
CONTINUOUS
 10
152.0092820244
 20
99.3747229798
 11
152.0180806657
 21
97.770789399
  0
LWPOLYLINE
  5
2D2
100
AcDbEntity
  8
0
100
AcDbPolyline
 62
253
  6
CONTINUOUS
 90
3
 70
0
 10
151.4828285655
 20
99.9584418824
 10
151.4900424554
 20
98.4505759469
 10
151.4951466834
 20
97.7129349325
  0
LINE
  5
2D3
100
AcDbEntity
  8
0
100
AcDbLine
 62
253
  6
CONTINUOUS
 10
152.0915751242
 20
110.7137416399
 11
152.0945243296
 21
110.8271881305
  0
LWPOLYLINE
  5
2D4
100
AcDbEntity
  8
ASSI
100
AcDbPolyline
 62
253
  6
CONTINUOUS
 90
16
 70
0
 10
158.3400241144
 20
106.9292954187
 10
158.3009260182
 20
106.9134157394
 10
158.2585957817
 20
106.8996255283
 10
158.2134818697
 20
106.8880708849
 10
158.1660622383
 20
106.8788742241
 10
158.1168392715
 20
106.8721329793
 10
158.0663344588
 20
106.86791857
 10
158.0150828697
 20
106.8662756456
 10
157.9636274856
 20
106.8672216119
 10
157.9125134472
 20
106.8707464469
 10
157.8622822784
 20
106.876812807
 10
157.81346615
 20
106.8853564226
 10
157.766582241
 20
106.896286779
 10
157.7221272597
 20
106.9094880752
 10
157.6805721814
 20
106.924820451
 10
157.6423572584
 20
106.9421214687
  0
LWPOLYLINE
  5
2D5
100
AcDbEntity
  8
RACCORDO
100
AcDbPolyline
 62
253
  6
CONTINUOUS
 90
16
 70
0
 10
158.3400241144
 20
106.9292954187
 10
158.3009260182
 20
106.9134157394
 10
158.2585957817
 20
106.8996255283
 10
158.2134818697
 20
106.8880708849
 10
158.1660622383
 20
106.8788742241
 10
158.1168392715
 20
106.8721329793
 10
158.0663344588
 20
106.86791857
 10
158.0150828697
 20
106.8662756456
 10
157.9636274856
 20
106.8672216119
 10
157.9125134472
 20
106.8707464469
 10
157.8622822784
 20
106.876812807
 10
157.81346615
 20
106.8853564226
 10
157.766582241
 20
106.896286779
 10
157.7221272597
 20
106.9094880752
 10
157.6805721814
 20
106.924820451
 10
157.6423572584
 20
106.9421214687
  0
LINE
  5
2D6
100
AcDbEntity
  8
ASSI
100
AcDbLine
 62
253
  6
CONTINUOUS
 10
154.6575301156
 20
91.1700603325
 11
154.6693201326
 21
91.1286260189
  0
LINE
  5
2D7
100
AcDbEntity
  8
ASSI
100
AcDbLine
 62
7
  6
CONTINUOUS
 10
154.6407391598
 20
91.1509369426
 11
154.6496843
 21
91.1130934671
  0
LINE
  5
2D8
100
AcDbEntity
  8
ASSI
100
AcDbLine
 62
253
  6
CONTINUOUS
 10
154.6693201326
 20
91.1286260189
 11
154.6785989601
 21
91.0869531205
  0
LINE
  5
2D9
100
AcDbEntity
  8
RACCORDO
100
AcDbLine
 62
253
  6
CONTINUOUS
 10
154.6693201326
 20
91.1286260189
 11
154.6785989601
 21
91.0869531205
  0
LINE
  5
2DA
100
AcDbEntity
  8
ASSI
100
AcDbLine
 62
7
  6
CONTINUOUS
 10
154.6496843
 20
91.1130934671
 11
154.6510242503
 21
91.1062856622
  0
LINE
  5
2DB
100
AcDbEntity
  8
ASSI
100
AcDbLine
 62
7
  6
CONTINUOUS
 10
154.6510382927
 20
91.1062463072
 11
154.6510306312
 21
91.1062868595
  0
LINE
  5
2DC
100
AcDbEntity
  8
RACCORDO
100
AcDbLine
 62
7
  6
CONTINUOUS
 10
154.6510382985
 20
91.106246277
 11
154.6510306182
 21
91.1062869286
  0
LINE
  5
2DD
100
AcDbEntity
  8
ASSI
100
AcDbLine
 62
7
  6
CONTINUOUS
 10
154.6510382927
 20
91.1062463072
 11
154.7107781752
 21
90.7688114659
  0
LINE
  5
2DE
100
AcDbEntity
  8
RACCORDO
100
AcDbLine
 62
7
  6
CONTINUOUS
 10
154.6510382985
 20
91.106246277
 11
154.7107781752
 21
90.7688114659
  0
LWPOLYLINE
  5
2DF
100
AcDbEntity
  8
RACCORDO
100
AcDbPolyline
 62
253
  6
CONTINUOUS
 90
19
 70
0
 10
154.3713530167
 20
90.9693924253
 10
154.4037940783
 20
90.7856536963
 10
154.4333330126
 20
90.6030289427
 10
154.4599734869
 20
90.4215210064
 10
154.4837371242
 20
90.2410130584
 10
154.5046100927
 20
90.0616279241
 10
154.5225410095
 20
89.8837269263
 10
154.5375214618
 20
89.7073342748
 10
154.5495634397
 20
89.5324295259
 10
154.5586426797
 20
89.3593051018
 10
154.5647530611
 20
89.1879649383
 10
154.5679011458
 20
89.0184071441
 10
154.5680784849
 20
88.8509135924
 10
154.5652750857
 20
88.6854710282
 10
154.5594982335
 20
88.522092944
 10
154.5507618867
 20
88.3610993136
 10
154.5390676671
 20
88.2025956205
 10
154.5244069781
 20
88.0464740795
 10
154.5067765596
 20
87.8927336442
  0
LWPOLYLINE
  5
2E0
100
AcDbEntity
  8
RACCORDO
100
AcDbPolyline
 62
253
  6
CONTINUOUS
 90
19
 70
0
 10
154.5802505734
 20
91.0008247594
 10
154.6131212978
 20
90.8143613962
 10
154.6430763815
 20
90.6288404585
 10
154.6700967204
 20
90.4443619325
 10
154.6941682229
 20
90.2610018988
 10
154.7152709169
 20
90.0788840615
 10
154.7333833209
 20
89.8981780736
 10
154.7484980574
 20
89.7190004211
 10
154.7606080981
 20
89.5414285191
 10
154.7696999315
 20
89.3655706477
 10
154.7757734745
 20
89.1915229345
 10
154.7788260668
 20
89.0193783738
 10
154.7788447848
 20
88.849238451
 10
154.7758353684
 20
88.6811794712
 10
154.7698010034
 20
88.515308303
 10
154.7607323676
 20
88.3517678758
 10
154.7486373605
 20
88.1906617188
 10
154.7335367607
 20
88.032056612
 10
154.715447034
 20
87.8760359208
  0
LWPOLYLINE
  5
2E1
100
AcDbEntity
  8
ASSI
100
AcDbPolyline
 62
253
  6
CONTINUOUS
 90
9
 70
0
 10
154.6785989601
 20
91.0869531205
 10
154.7482771787
 20
90.6880427343
 10
154.8045650498
 20
90.2955159952
 10
154.8474848274
 20
89.9093938351
 10
154.8771175696
 20
89.5285751233
 10
154.8934360674
 20
89.1542089285
 10
154.8962591846
 20
88.7896687602
 10
154.8854959439
 20
88.4360677628
 10
154.8611911859
 20
88.092284481
  0
LWPOLYLINE
  5
2E2
100
AcDbEntity
  8
RACCORDO
100
AcDbPolyline
 62
253
  6
CONTINUOUS
 90
9
 70
0
 10
154.6785989601
 20
91.0869531205
 10
154.7482771787
 20
90.6880427343
 10
154.8045650498
 20
90.2955159952
 10
154.8474848274
 20
89.9093938351
 10
154.8771175696
 20
89.5285751233
 10
154.8934360674
 20
89.1542089285
 10
154.8962591846
 20
88.7896687602
 10
154.8854959439
 20
88.4360677628
 10
154.8611911859
 20
88.092284481
  0
LWPOLYLINE
  5
2E3
100
AcDbEntity
  8
ASSI
100
AcDbPolyline
 62
253
  6
CONTINUOUS
 90
6
 70
0
 10
154.3255445209
 20
91.5957088599
 10
154.3268859111
 20
91.5817098286
 10
154.3302419713
 20
91.5692103483
 10
154.3355151529
 20
91.5585735259
 10
154.3425522075
 20
91.5501083472
 10
154.3515095761
 20
91.5438777802
  0
LWPOLYLINE
  5
2E4
100
AcDbEntity
  8
RACCORDO
100
AcDbPolyline
 62
253
  6
CONTINUOUS
 90
6
 70
0
 10
154.3255445209
 20
91.5957088599
 10
154.3268859111
 20
91.5817098286
 10
154.3302419713
 20
91.5692103483
 10
154.3355151529
 20
91.5585735259
 10
154.3425522075
 20
91.5501083472
 10
154.3515095761
 20
91.5438777802
  0
LWPOLYLINE
  5
2E5
100
AcDbEntity
  8
0
100
AcDbPolyline
 62
253
  6
CONTINUOUS
 90
3
 70
0
 10
154.1944865158
 20
95.5045231617
 10
154.2105860341
 20
94.0012028348
 10
154.220043909
 20
93.2656359089
  0
LINE
  5
2E6
100
AcDbEntity
  8
0
100
AcDbLine
 62
253
  6
CONTINUOUS
 10
153.6789896538
 20
94.8070541253
 11
153.6722730321
 21
95.4470289219
  0
LINE
  5
2E7
100
AcDbEntity
  8
0
100
AcDbLine
 62
253
  6
CONTINUOUS
 10
152.9373194813
 20
97.3111699951
 11
152.9285208399
 21
98.9151035759
  0
LWPOLYLINE
  5
2E8
100
AcDbEntity
  8
0
100
AcDbPolyline
 62
253
  6
CONTINUOUS
 90
3
 70
0
 10
153.9779054758
 20
98.7109034272
 10
153.9851193656
 20
97.2030374918
 10
153.9902235937
 20
96.4653964774
  0
LWPOLYLINE
  5
2E9
100
AcDbEntity
  8
ASSI
100
AcDbPolyline
 62
253
  6
CONTINUOUS
 90
5
 70
0
 10
146.1688661925
 20
95.5072131175
 10
146.183019711
 20
95.5247312747
 10
146.1990266299
 20
95.5396302789
 10
146.2167413281
 20
95.5517817899
 10
146.2262263979
 20
95.556807029
  0
LWPOLYLINE
  5
2EA
100
AcDbEntity
  8
RACCORDO
100
AcDbPolyline
 62
253
  6
CONTINUOUS
 90
4
 70
0
 10
146.183019711
 20
95.5247312747
 10
146.1990266299
 20
95.5396302789
 10
146.2167413281
 20
95.5517817899
 10
146.2262263979
 20
95.556807029
  0
LWPOLYLINE
  5
2EB
100
AcDbEntity
  8
ASSI
100
AcDbPolyline
 62
253
  6
CONTINUOUS
 90
11
 70
0
 10
158.3534495818
 20
80.7403986777
 10
158.3638149051
 20
80.6794889861
 10
158.3783724159
 20
80.6217929782
 10
158.3970356876
 20
80.5676567521
 10
158.4196962471
 20
80.5174032584
 10
158.446217387
 20
80.4713352285
 10
158.4764345245
 20
80.4297328407
 10
158.5101678935
 20
80.3928448273
 10
158.5472169096
 20
80.3608901369
 10
158.5873546917
 20
80.3340619014
 10
158.608326723
 20
80.3227123244
  0
LWPOLYLINE
  5
2EC
100
AcDbEntity
  8
RACCORDO
100
AcDbPolyline
 62
253
  6
CONTINUOUS
 90
11
 70
0
 10
158.3534495818
 20
80.7403986777
 10
158.3638149051
 20
80.6794889861
 10
158.3783724159
 20
80.6217929782
 10
158.3970356876
 20
80.5676567521
 10
158.4196962471
 20
80.5174032584
 10
158.446217387
 20
80.4713352285
 10
158.4764345245
 20
80.4297328407
 10
158.5101678935
 20
80.3928448273
 10
158.5472169096
 20
80.3608901369
 10
158.5873546917
 20
80.3340619014
 10
158.6083242077
 20
80.3227135866
  0
LWPOLYLINE
  5
2ED
100
AcDbEntity
  8
RACCORDO
100
AcDbPolyline
 62
7
  6
CONTINUOUS
 90
8
 70
0
 10
154.7107781752
 20
90.7688114659
 10
154.7706331788
 20
90.3629446662
 10
154.8162578891
 20
89.9632560177
 10
154.8474921594
 20
89.5712138134
 10
154.8642924266
 20
89.1877816728
 10
154.8666352216
 20
88.8138488065
 10
154.8545087559
 20
88.4503503611
 10
154.8279787949
 20
88.0985071159
  0
LWPOLYLINE
  5
2EE
100
AcDbEntity
  8
ASSI
100
AcDbPolyline
 62
7
  6
CONTINUOUS
 90
8
 70
0
 10
154.7108358983
 20
90.7684854225
 10
154.7706889145
 20
90.3625189375
 10
154.8162834794
 20
89.9629923538
 10
154.8474987783
 20
89.5711069238
 10
154.8642913294
 20
89.1878250747
 10
154.8666376913
 20
88.8140350862
 10
154.8545260818
 20
88.4506710131
 10
154.8280066115
 20
88.0987457461
  0
LINE
  5
2EF
100
AcDbEntity
  8
0
100
AcDbLine
 62
253
  6
CONTINUOUS
 10
155.1350461719
 20
93.1255647173
 11
155.1290572947
 21
93.6050701563
  0
LINE
  5
2F0
100
AcDbEntity
  8
0
100
AcDbLine
 62
253
  6
CONTINUOUS
 10
154.9904358752
 20
94.3104118902
 11
154.9854715902
 21
94.7904296767
  0
LWPOLYLINE
  5
2F1
100
AcDbEntity
  8
ASSI
100
AcDbPolyline
 62
253
  6
CONTINUOUS
 90
6
 70
0
 10
154.4991975451
 20
87.6017697824
 10
154.4993585069
 20
87.6176149773
 10
154.5018503843
 20
87.634328653
 10
154.5065905915
 20
87.6513568847
 10
154.5134220285
 20
87.6681353225
 10
154.5140847047
 20
87.6693524716
  0
LWPOLYLINE
  5
2F2
100
AcDbEntity
  8
RACCORDO
100
AcDbPolyline
 62
253
  6
CONTINUOUS
 90
6
 70
0
 10
154.4991975451
 20
87.6017697824
 10
154.4993585069
 20
87.6176149773
 10
154.5018503843
 20
87.634328653
 10
154.5065905915
 20
87.6513568847
 10
154.5134220285
 20
87.6681353225
 10
154.5140847047
 20
87.6693524716
  0
LWPOLYLINE
  5
2F3
100
AcDbEntity
  8
ASSI
100
AcDbPolyline
 62
253
  6
CONTINUOUS
 90
19
 70
0
 10
159.0472661874
 20
80.7981283134
 10
159.0525466006
 20
80.7675380355
 10
159.0598610178
 20
80.7388096235
 10
159.0692094389
 20
80.7119430775
 10
159.0806743748
 20
80.6867780613
 10
159.0941733146
 20
80.6634749111
 10
159.1094587261
 20
80.642514635
 10
159.1265634293
 20
80.6239586305
 10
159.1454546041
 20
80.6077455001
 10
159.1657862581
 20
80.5941720599
 10
159.1875823746
 20
80.5832900574
 10
159.2108189702
 20
80.5750477451
 10
159.2350781024
 20
80.5695866966
 10
159.2603947696
 20
80.5669636213
 10
159.2867339733
 20
80.5671218098
 10
159.3135727755
 20
80.5700327082
 10
159.3407368634
 20
80.5756867986
 10
159.3684005498
 20
80.5840935988
 10
159.3965638347
 20
80.5952531089
  0
LWPOLYLINE
  5
2F4
100
AcDbEntity
  8
RACCORDO
100
AcDbPolyline
 62
253
  6
CONTINUOUS
 90
19
 70
0
 10
159.0472661874
 20
80.7981283134
 10
159.0525466006
 20
80.7675380355
 10
159.0598610178
 20
80.7388096235
 10
159.0692094389
 20
80.7119430775
 10
159.0806743748
 20
80.6867780613
 10
159.0941733146
 20
80.6634749111
 10
159.1094587261
 20
80.642514635
 10
159.1265634293
 20
80.6239586305
 10
159.1454546041
 20
80.6077455001
 10
159.1657862581
 20
80.5941720599
 10
159.1875823746
 20
80.5832900574
 10
159.2108189702
 20
80.5750477451
 10
159.2350781024
 20
80.5695866966
 10
159.2603947696
 20
80.5669636213
 10
159.2867339733
 20
80.5671218098
 10
159.3135727755
 20
80.5700327082
 10
159.3407368634
 20
80.5756867986
 10
159.3684005498
 20
80.5840935988
 10
159.3965638347
 20
80.5952531089
  0
LWPOLYLINE
  5
2F5
100
AcDbEntity
  8
ASSI
100
AcDbPolyline
 62
253
  6
CONTINUOUS
 90
10
 70
0
 10
157.6423572581
 20
90.4876387966
 10
157.6670723817
 20
89.3744868934
 10
157.7053893852
 20
88.2683339974
 10
157.7573004978
 20
87.1694105729
 10
157.8227956005
 20
86.0779453938
 10
157.9018609863
 20
84.9941659395
 10
157.9944793699
 20
83.9182983516
 10
158.1006315446
 20
82.8505667939
 10
158.2202963785
 20
81.7911934007
 10
158.3534495818
 20
80.7403986777
  0
LWPOLYLINE
  5
2F6
100
AcDbEntity
  8
RACCORDO
100
AcDbPolyline
 62
253
  6
CONTINUOUS
 90
10
 70
0
 10
157.6423572581
 20
90.4876387966
 10
157.6670723817
 20
89.3744868934
 10
157.7053893852
 20
88.2683339974
 10
157.7573004978
 20
87.1694105729
 10
157.8227956005
 20
86.0779453938
 10
157.9018609863
 20
84.9941659395
 10
157.9944793699
 20
83.9182983516
 10
158.1006315446
 20
82.8505667939
 10
158.2202963785
 20
81.7911934007
 10
158.3534495818
 20
80.7403986777
  0
LWPOLYLINE
  5
2F7
100
AcDbEntity
  8
ASSI
100
AcDbPolyline
 62
253
  6
CONTINUOUS
 90
10
 70
0
 10
157.6423572581
 20
106.9421214685
 10
157.6164835388
 20
105.101645698
 10
157.5970784675
 20
103.2641625463
 10
157.5841419955
 20
101.4297045934
 10
157.5776740048
 20
99.5983291806
 10
157.5776740082
 20
97.7700438641
 10
157.5841420046
 20
95.9448068418
 10
157.5970784792
 20
94.122626156
 10
157.6164835482
 20
92.3035592651
 10
157.6423572581
 20
90.4876387966
  0
LWPOLYLINE
  5
2F8
100
AcDbEntity
  8
RACCORDO
100
AcDbPolyline
 62
253
  6
CONTINUOUS
 90
10
 70
0
 10
157.6423572581
 20
106.9421214685
 10
157.6164835388
 20
105.101645698
 10
157.5970784675
 20
103.2641625463
 10
157.5841419955
 20
101.4297045934
 10
157.5776740048
 20
99.5983291806
 10
157.5776740082
 20
97.7700438641
 10
157.5841420046
 20
95.9448068418
 10
157.5970784792
 20
94.122626156
 10
157.6164835482
 20
92.3035592651
 10
157.6423572581
 20
90.4876387966
  0
LWPOLYLINE
  5
2F9
100
AcDbEntity
  8
ASSI
100
AcDbPolyline
 62
253
  6
CONTINUOUS
 90
10
 70
0
 10
158.3534495818
 20
117.3643595056
 10
158.2202963795
 20
116.1871721439
 10
158.1006315461
 20
115.014207589
 10
157.9944793715
 20
113.8457106364
 10
157.9018609874
 20
112.6819253875
 10
157.822795601
 20
111.5230943777
 10
157.7573004977
 20
110.3694585283
 10
157.7053893849
 20
109.2212581904
 10
157.6670723814
 20
108.078733092
 10
157.6423572581
 20
106.9421214685
  0
LWPOLYLINE
  5
2FA
100
AcDbEntity
  8
RACCORDO
100
AcDbPolyline
 62
253
  6
CONTINUOUS
 90
10
 70
0
 10
158.3534495818
 20
117.3643595056
 10
158.2202963795
 20
116.1871721439
 10
158.1006315461
 20
115.014207589
 10
157.9944793715
 20
113.8457106364
 10
157.9018609874
 20
112.6819253875
 10
157.822795601
 20
111.5230943777
 10
157.7573004977
 20
110.3694585283
 10
157.7053893849
 20
109.2212581904
 10
157.6670723814
 20
108.078733092
 10
157.6423572581
 20
106.9421214685
  0
LWPOLYLINE
  5
2FB
100
AcDbEntity
  8
ASSI
100
AcDbPolyline
 62
253
  6
CONTINUOUS
 90
10
 70
0
 10
159.0472661874
 20
117.2935820021
 10
158.9147990559
 20
116.1225511771
 10
158.7957905645
 20
114.9561969057
 10
158.6902407132
 20
113.7945191878
 10
158.5981327959
 20
112.6372722859
 10
158.5194835186
 20
111.4847019375
 10
158.4543429999
 20
110.3375453553
 10
158.4027279461
 20
109.1960482769
 10
158.3646216509
 20
108.0599649647
 10
158.3400241144
 20
106.9292954187
  0
LWPOLYLINE
  5
2FC
100
AcDbEntity
  8
RACCORDO
100
AcDbPolyline
 62
253
  6
CONTINUOUS
 90
10
 70
0
 10
159.0472661874
 20
117.2935820021
 10
158.9147990559
 20
116.1225511771
 10
158.7957905645
 20
114.9561969057
 10
158.6902407132
 20
113.7945191878
 10
158.5981327959
 20
112.6372722859
 10
158.5194835186
 20
111.4847019375
 10
158.4543429999
 20
110.3375453553
 10
158.4027279461
 20
109.1960482769
 10
158.3646216509
 20
108.0599649647
 10
158.3400241144
 20
106.9292954187
  0
LINE
  5
2FD
100
AcDbEntity
  8
ASSI
100
AcDbLine
 62
253
  6
CONTINUOUS
 10
154.8611911859
 20
88.092284481
 11
154.8233264797
 21
87.758317054
  0
LINE
  5
2FE
100
AcDbEntity
  8
RACCORDO
100
AcDbLine
 62
253
  6
CONTINUOUS
 10
154.8611911859
 20
88.092284481
 11
154.8233264797
 21
87.758317054
  0
LINE
  5
2FF
100
AcDbEntity
  8
ASSI
100
AcDbLine
 62
7
  6
CONTINUOUS
 10
154.8280066115
 20
88.0987457461
 11
154.7947586856
 21
87.8135219354
  0
LINE
  5
300
100
AcDbEntity
  8
RACCORDO
100
AcDbLine
 62
7
  6
CONTINUOUS
 10
154.8279787949
 20
88.0985071159
 11
154.7947586981
 21
87.8135220273
  0
LINE
  5
301
100
AcDbEntity
  8
ASSI
100
AcDbLine
 62
7
  6
CONTINUOUS
 10
154.7947348269
 20
87.8133491333
 11
154.7947580801
 21
87.8135220267
  0
LINE
  5
302
100
AcDbEntity
  8
RACCORDO
100
AcDbLine
 62
7
  6
CONTINUOUS
 10
154.7947350848
 20
87.8133510803
 11
154.7947580927
 21
87.8135221186
  0
LWPOLYLINE
  5
303
100
AcDbEntity
  8
RACCORDO
100
AcDbPolyline
 62
253
  6
CONTINUOUS
 90
31
 70
0
 10
154.5067765596
 20
87.8927336442
 10
154.505016137
 20
87.8809226439
 10
154.5027621791
 20
87.8695544123
 10
154.5000145997
 20
87.8586288991
 10
154.4967653285
 20
87.8481237409
 10
154.493022275
 20
87.838061207
 10
154.488809291
 20
87.8285081776
 10
154.4841234225
 20
87.8194691858
 10
154.478967399
 20
87.8109395665
 10
154.4733735414
 20
87.8029723686
 10
154.4673390939
 20
87.7955712756
 10
154.4608665535
 20
87.7887324517
 10
154.4539960765
 20
87.7824976404
 10
154.4467250333
 20
87.7768704609
 10
154.4390557804
 20
87.771847133
 10
154.4310359224
 20
87.7674582829
 10
154.4226631497
 20
87.7637077838
 10
154.4139395043
 20
87.7605916044
 10
154.4049191009
 20
87.7581285039
 10
154.3956001125
 20
87.7563224496
 10
154.3859841237
 20
87.7551693308
 10
154.3761303594
 20
87.7546757858
 10
154.3660370159
 20
87.7548458744
 10
154.3557056979
 20
87.7556754191
 10
154.3452007471
 20
87.7571587041
 10
154.3345199289
 20
87.7593003506
 10
154.3236653365
 20
87.7620956538
 10
154.3127078159
 20
87.7655249159
 10
154.3016709572
 20
87.7695815564
 10
154.2905310969
 20
87.7742721125
 10
154.2792882168
 20
87.7795965733
  0
LWPOLYLINE
  5
304
100
AcDbEntity
  8
RACCORDO
100
AcDbPolyline
 62
253
  6
CONTINUOUS
 90
17
 70
0
 10
154.7154466355
 20
87.8760362268
 10
154.7125572876
 20
87.8590387438
 10
154.7089552339
 20
87.8426163509
 10
154.7046468464
 20
87.8268074643
 10
154.699639838
 20
87.8116450318
 10
154.6939451367
 20
87.7971580037
 10
154.687575171
 20
87.7833755372
 10
154.6805417707
 20
87.7703244705
 10
154.6728595696
 20
87.7580313218
 10
154.6645462024
 20
87.7465239535
 10
154.6556180841
 20
87.7358263006
 10
154.6460934162
 20
87.7259583904
 10
154.6359930681
 20
87.7169413181
 10
154.6253367476
 20
87.7087937269
 10
154.6141464364
 20
87.7015307495
 10
154.6024464596
 20
87.695167956
 10
154.6009322312
 20
87.69442842
  0
LINE
  5
305
100
AcDbEntity
  8
RACCORDO
100
AcDbLine
 62
7
  6
CONTINUOUS
 10
154.7947350848
 20
87.8133510803
 11
154.791679717
 21
87.7957216548
  0
LINE
  5
306
100
AcDbEntity
  8
ASSI
100
AcDbLine
 62
7
  6
CONTINUOUS
 10
154.7947348269
 20
87.8133491333
 11
154.791679717
 21
87.7957216548
  0
LWPOLYLINE
  5
307
100
AcDbEntity
  8
ASSI
100
AcDbPolyline
 62
253
  6
CONTINUOUS
 90
4
 70
0
 10
154.8233264797
 20
87.758317054
 10
154.8171147684
 20
87.7252865486
 10
154.8082877629
 20
87.6951794716
 10
154.7968434881
 20
87.667994662
  0
LWPOLYLINE
  5
308
100
AcDbEntity
  8
RACCORDO
100
AcDbPolyline
 62
253
  6
CONTINUOUS
 90
4
 70
0
 10
154.8233264797
 20
87.758317054
 10
154.8171147684
 20
87.7252865486
 10
154.8082877629
 20
87.6951794716
 10
154.7968434881
 20
87.667994662
  0
LWPOLYLINE
  5
309
100
AcDbEntity
  8
RACCORDO
100
AcDbPolyline
 62
253
  6
CONTINUOUS
 90
25
 70
0
 10
146.3663274193
 20
95.4459739082
 10
146.3593027924
 20
95.4421011075
 10
146.3523130985
 20
95.4376765872
 10
146.3453890498
 20
95.4327197885
 10
146.3385610705
 20
95.4272524912
 10
146.3318591623
 20
95.4212987186
 10
146.3253127732
 20
95.4148846311
 10
146.3189506676
 20
95.408038412
 10
146.3128008005
 20
95.4007901434
 10
146.306890194
 20
95.3931716737
 10
146.3012448191
 20
95.3852164783
 10
146.2958894813
 20
95.3769595118
 10
146.2908477119
 20
95.3684370552
 10
146.286141664
 20
95.3596865556
 10
146.2817920159
 20
95.3507464624
 10
146.2778178797
 20
95.341656058
 10
146.2742367176
 20
95.3324552852
 10
146.2710642651
 20
95.3231845718
 10
146.2683144618
 20
95.313884653
 10
146.2659993902
 20
95.3045963921
 10
146.2641292227
 20
95.2953606015
 10
146.2627121766
 20
95.2862178627
 10
146.2617544785
 20
95.2772083486
 10
146.2612603363
 20
95.2683716466
 10
146.2612319214
 20
95.2597465847
  0
LWPOLYLINE
  5
30A
100
AcDbEntity
  8
RACCORDO
100
AcDbPolyline
 62
7
  6
CONTINUOUS
 90
19
 70
0
 10
146.1418102605
 20
95.4597214572
 10
146.1317659961
 20
95.4542536412
 10
146.1183909216
 20
95.4460938347
 10
146.105333719
 20
95.4370651102
 10
146.09263935
 20
95.4271588967
 10
146.0803699194
 20
95.4163828988
 10
146.0685979686
 20
95.4047657648
 10
146.0573682625
 20
95.3923194902
 10
146.0467267187
 20
95.3790609665
 10
146.0367336524
 20
95.3650347844
 10
146.0274220708
 20
95.3502631375
 10
146.0188232089
 20
95.3347696543
 10
146.0109784095
 20
95.3186042315
 10
146.003910335
 20
95.3017941472
 10
145.9976352897
 20
95.2843578762
 10
145.992174346
 20
95.2663280763
 10
145.9875429947
 20
95.2477278343
 10
145.9837533331
 20
95.2285771672
 10
145.9829158629
 20
95.2235620999
  0
LINE
  5
30B
100
AcDbEntity
  8
RACCORDO
100
AcDbLine
 62
7
  6
CONTINUOUS
 10
146.3247381681
 20
95.5544605314
 11
146.1417644802
 21
95.4596977938
  0
LINE
  5
30C
100
AcDbEntity
  8
RACCORDO
100
AcDbLine
 62
253
  6
CONTINUOUS
 10
146.3663274193
 20
95.4459739082
 11
146.4552306431
 21
95.4920172467
  0
LWPOLYLINE
  5
30D
100
AcDbEntity
  8
RACCORDO
100
AcDbPolyline
 62
253
  6
CONTINUOUS
 90
17
 70
0
 10
146.1418067218
 20
95.4597196246
 10
146.1447776742
 20
95.4612228782
 10
146.1572809878
 20
95.4668284235
 10
146.1702342306
 20
95.4715048546
 10
146.1836102396
 20
95.4752424633
 10
146.1973816566
 20
95.4780323524
 10
146.211519725
 20
95.4798696716
 10
146.2259951789
 20
95.4807508395
 10
146.2407788194
 20
95.4806727499
 10
146.2558393256
 20
95.4796362613
 10
146.2711440683
 20
95.477644316
 10
146.2866605114
 20
95.4747003672
 10
146.3023578407
 20
95.4708105523
 10
146.3182060869
 20
95.4659825818
 10
146.3341742067
 20
95.4602244963
 10
146.3502271804
 20
95.4535490898
 10
146.3663274225
 20
95.445973453
  0
LINE
  5
30E
100
AcDbEntity
  8
ASSI
100
AcDbLine
 62
7
  6
CONTINUOUS
 10
146.2262263979
 20
95.556807029
 11
146.2266203699
 21
95.5569961566
  0
LINE
  5
30F
100
AcDbEntity
  8
RACCORDO
100
AcDbLine
 62
7
  6
CONTINUOUS
 10
146.2262263979
 20
95.556807029
 11
146.2266288811
 21
95.557000226
  0
LINE
  5
310
100
AcDbEntity
  8
ASSI
100
AcDbLine
 62
7
  6
CONTINUOUS
 10
146.2265709789
 20
95.5569723581
 11
146.23429212
 21
95.5601590027
  0
LINE
  5
311
100
AcDbEntity
  8
RACCORDO
100
AcDbLine
 62
7
  6
CONTINUOUS
 10
146.2265794656
 20
95.5569764157
 11
146.23429212
 21
95.5601590027
  0
LINE
  5
312
100
AcDbEntity
  8
ASSI
100
AcDbLine
 62
253
  6
CONTINUOUS
 10
142.9936967729
 20
114.2664517111
 11
157.6423572581
 21
106.9421214685
  0
LINE
  5
313
100
AcDbEntity
  8
RACCORDO
100
AcDbLine
 62
253
  6
CONTINUOUS
 10
142.9936967729
 20
114.2664517111
 11
157.6423572581
 21
106.9421214685
  0
LWPOLYLINE
  5
314
100
AcDbEntity
  8
ASSI
100
AcDbPolyline
 62
253
  6
CONTINUOUS
 90
10
 70
0
 10
158.3400241144
 20
90.4912672294
 10
158.3646221494
 20
89.3839289586
 10
158.4027288899
 20
88.2839990248
 10
158.4543443359
 20
87.1914774281
 10
158.519485289
 20
86.1061343392
 10
158.5981349476
 20
85.0281995874
 10
158.6902429072
 20
83.9583626601
 10
158.7957923663
 20
82.8968533866
 10
158.9148001263
 20
81.8434419377
 10
159.0472661874
 20
80.7981283134
  0
LWPOLYLINE
  5
315
100
AcDbEntity
  8
RACCORDO
100
AcDbPolyline
 62
253
  6
CONTINUOUS
 90
10
 70
0
 10
158.3400241144
 20
90.4912672294
 10
158.3646221494
 20
89.3839289586
 10
158.4027288899
 20
88.2839990248
 10
158.4543443359
 20
87.1914774281
 10
158.519485289
 20
86.1061343392
 10
158.5981349476
 20
85.0281995874
 10
158.6902429072
 20
83.9583626601
 10
158.7957923663
 20
82.8968533866
 10
158.9148001263
 20
81.8434419377
 10
159.0472661874
 20
80.7981283134
  0
LWPOLYLINE
  5
316
100
AcDbEntity
  8
ASSI
100
AcDbPolyline
 62
253
  6
CONTINUOUS
 90
10
 70
0
 10
158.3400241144
 20
106.9292954187
 10
158.3141758783
 20
105.0906072453
 10
158.2947897029
 20
103.2549730218
 10
158.2818655882
 20
101.4223927479
 10
158.2754035365
 20
99.5928581579
 10
158.2754035454
 20
97.7663775177
 10
158.2818656083
 20
95.9429756249
 10
158.294789723
 20
94.1226607456
 10
158.3141758917
 20
92.3054246138
 10
158.3400241144
 20
90.4912672294
  0
LWPOLYLINE
  5
317
100
AcDbEntity
  8
RACCORDO
100
AcDbPolyline
 62
253
  6
CONTINUOUS
 90
10
 70
0
 10
158.3400241144
 20
106.9292954187
 10
158.3141758783
 20
105.0906072453
 10
158.2947897029
 20
103.2549730218
 10
158.2818655882
 20
101.4223927479
 10
158.2754035365
 20
99.5928581579
 10
158.2754035454
 20
97.7663775177
 10
158.2818656083
 20
95.9429756249
 10
158.294789723
 20
94.1226607456
 10
158.3141758917
 20
92.3054246138
 10
158.3400241144
 20
90.4912672294
  0
LINE
  5
318
100
AcDbEntity
  8
ASSI
100
AcDbLine
 62
7
  6
CONTINUOUS
 10
154.791679717
 20
87.7957216548
 11
154.7861389513
 21
87.7749011373
  0
LINE
  5
319
100
AcDbEntity
  8
RACCORDO
100
AcDbLine
 62
7
  6
CONTINUOUS
 10
154.791679717
 20
87.7957216548
 11
154.7861389513
 21
87.7749011373
  0
LINE
  5
31A
100
AcDbEntity
  8
0
100
AcDbLine
 62
253
  6
CONTINUOUS
 10
150.0967927966
 20
112.0167774155
 11
150.0772562016
 21
112.025716167
  0
LINE
  5
31B
100
AcDbEntity
  8
0
100
AcDbLine
 62
253
  6
CONTINUOUS
 10
148.6299494155
 20
112.3658112768
 11
149.3927012578
 21
111.9844353557
  0
LINE
  5
31C
100
AcDbEntity
  8
0
100
AcDbLine
 62
253
  6
CONTINUOUS
 10
150.2119085054
 20
111.5748317319
 11
152.0284594623
 21
110.6665562534
  0
LINE
  5
31D
100
AcDbEntity
  8
0
100
AcDbLine
 62
253
  6
CONTINUOUS
 10
149.4027505786
 20
112.3629689786
 11
148.9436523085
 21
112.5925181136
  0
LINE
  5
31E
100
AcDbEntity
  8
0
100
AcDbLine
 62
253
  6
CONTINUOUS
 10
151.7352929101
 20
111.1966978128
 11
150.0967927966
 21
112.0167774155
  0
LWPOLYLINE
  5
31F
100
AcDbEntity
  8
ASSI
100
AcDbPolyline
 62
253
  6
CONTINUOUS
 90
16
 70
0
 10
159.3965638347
 20
117.8279282971
 10
159.3936884987
 20
117.873676462
 10
159.3870771598
 20
117.9209090298
 10
159.3768021555
 20
117.9691089884
 10
159.3629759269
 20
118.0177487321
 10
159.3457497921
 20
118.0662958267
 10
159.3253122927
 20
118.1142188379
 10
159.3018871216
 20
118.1609931697
 10
159.275730684
 20
118.2061067848
 10
159.2471292992
 20
118.2490658028
 10
159.2163960415
 20
118.289399949
 10
159.1838673302
 20
118.3266676712
 10
159.149899265
 20
118.360460961
 10
159.1148636924
 20
118.3904098636
 10
159.0791441319
 20
118.4161865207
 10
159.0431316013
 20
118.4375087363
  0
LWPOLYLINE
  5
320
100
AcDbEntity
  8
RACCORDO
100
AcDbPolyline
 62
253
  6
CONTINUOUS
 90
16
 70
0
 10
159.3965638347
 20
117.8279282971
 10
159.3936884987
 20
117.873676462
 10
159.3870771598
 20
117.9209090298
 10
159.3768021555
 20
117.9691089884
 10
159.3629759269
 20
118.0177487321
 10
159.3457497921
 20
118.0662958267
 10
159.3253122927
 20
118.1142188379
 10
159.3018871216
 20
118.1609931697
 10
159.275730684
 20
118.2061067848
 10
159.2471292992
 20
118.2490658028
 10
159.2163960415
 20
118.289399949
 10
159.1838673302
 20
118.3266676712
 10
159.149899265
 20
118.360460961
 10
159.1148636924
 20
118.3904098636
 10
159.0791441319
 20
118.4161865207
 10
159.0431316013
 20
118.4375087363
  0
LWPOLYLINE
  5
321
100
AcDbEntity
  8
ASSI
100
AcDbPolyline
 62
253
  6
CONTINUOUS
 90
10
 70
0
 10
159.3965638347
 20
80.5952531089
 10
159.3936884119
 20
80.5505481663
 10
159.3870768732
 20
80.5083177003
 10
159.3768015929
 20
80.4690239937
 10
159.3629750511
 20
80.4330971813
 10
159.3457486022
 20
80.4009305418
 10
159.3253108183
 20
80.3728761924
 10
159.3018854249
 20
80.3492412347
 10
159.2757288519
 20
80.3302843924
 10
159.2549919521
 20
80.3194850635
  0
LWPOLYLINE
  5
322
100
AcDbEntity
  8
RACCORDO
100
AcDbPolyline
 62
253
  6
CONTINUOUS
 90
10
 70
0
 10
159.3965638347
 20
80.5952531089
 10
159.3936884119
 20
80.5505481663
 10
159.3870768732
 20
80.5083177003
 10
159.3768015929
 20
80.4690239937
 10
159.3629750511
 20
80.4330971813
 10
159.3457486022
 20
80.4009305418
 10
159.3253108183
 20
80.3728761924
 10
159.3018854249
 20
80.3492412347
 10
159.2757288519
 20
80.3302843924
 10
159.2549919521
 20
80.3194850635
  0
LINE
  5
323
100
AcDbEntity
  8
ASSI
100
AcDbLine
 62
7
  6
CONTINUOUS
 10
154.7861389513
 20
87.7749011373
 11
154.7790376706
 21
87.7568687703
  0
LINE
  5
324
100
AcDbEntity
  8
RACCORDO
100
AcDbLine
 62
7
  6
CONTINUOUS
 10
154.7861389513
 20
87.7749011373
 11
154.7790376706
 21
87.7568687703
  0
LINE
  5
325
100
AcDbEntity
  8
ASSI
100
AcDbLine
 62
7
  6
CONTINUOUS
 10
162.2750201482
 20
81.8710701228
 11
162.2750201482
 21
119.2836643316
  0
LINE
  5
326
100
AcDbEntity
  8
RACCORDO
100
AcDbLine
 62
7
  6
CONTINUOUS
 10
162.2750201482
 20
81.8710701228
 11
162.2750201482
 21
119.2836643316
  0
LINE
  5
327
100
AcDbEntity
  8
ASSI
100
AcDbLine
 62
7
  6
CONTINUOUS
 10
154.7790376706
 20
87.7568687703
 11
154.7707619584
 21
87.7420429521
  0
LINE
  5
328
100
AcDbEntity
  8
RACCORDO
100
AcDbLine
 62
7
  6
CONTINUOUS
 10
154.7790376706
 20
87.7568687703
 11
154.7707619584
 21
87.7420429521
  0
LWPOLYLINE
  5
329
100
AcDbEntity
  8
ASSI
100
AcDbPolyline
 62
253
  6
CONTINUOUS
 90
13
 70
0
 10
154.7968434881
 20
87.667994662
 10
154.7826366394
 20
87.6435701232
 10
154.7658090115
 20
87.6220657844
 10
154.7467886701
 20
87.6039630089
 10
154.725543347
 20
87.5893390507
 10
154.7021009179
 20
87.5781140526
 10
154.6769787868
 20
87.5705331876
 10
154.6500782538
 20
87.5666862308
 10
154.6214942336
 20
87.5664811557
 10
154.5920343618
 20
87.5698903175
 10
154.5619670311
 20
87.5769040133
 10
154.5310216101
 20
87.5875306116
 10
154.4991975451
 20
87.6017697824
  0
LWPOLYLINE
  5
32A
100
AcDbEntity
  8
RACCORDO
100
AcDbPolyline
 62
253
  6
CONTINUOUS
 90
13
 70
0
 10
154.7968434881
 20
87.667994662
 10
154.7826366394
 20
87.6435701232
 10
154.7658090115
 20
87.6220657844
 10
154.7467886701
 20
87.6039630089
 10
154.725543347
 20
87.5893390507
 10
154.7021009179
 20
87.5781140526
 10
154.6769787868
 20
87.5705331876
 10
154.6500782538
 20
87.5666862308
 10
154.6214942336
 20
87.5664811557
 10
154.5920343618
 20
87.5698903175
 10
154.5619670311
 20
87.5769040133
 10
154.5310216101
 20
87.5875306116
 10
154.4991975451
 20
87.6017697824
  0
LINE
  5
32B
100
AcDbEntity
  8
0
100
AcDbLine
 62
253
  6
CONTINUOUS
 10
150.2154787473
 20
115.6267791273
 11
150.8085355686
 21
115.3302507166
  0
LINE
  5
32C
100
AcDbEntity
  8
0
100
AcDbLine
 62
253
  6
CONTINUOUS
 10
150.9847331023
 20
115.6401042881
 11
150.0897770408
 21
116.0875823189
  0
LINE
  5
32D
100
AcDbEntity
  8
ASSI
100
AcDbLine
 62
7
  6
CONTINUOUS
 10
154.7707619584
 20
87.7420429521
 11
154.761713146
 21
87.7304808737
  0
LINE
  5
32E
100
AcDbEntity
  8
RACCORDO
100
AcDbLine
 62
7
  6
CONTINUOUS
 10
154.7707619584
 20
87.7420429521
 11
154.761713146
 21
87.7304808737
  0
LWPOLYLINE
  5
32F
100
AcDbEntity
  8
RACCORDO
100
AcDbPolyline
 62
253
  6
CONTINUOUS
 90
25
 70
0
 10
154.2281353429
 20
91.5150699464
 10
154.2211107053
 20
91.5111971393
 10
154.2141210012
 20
91.5067726113
 10
154.2071969431
 20
91.5018158036
 10
154.2003689552
 20
91.4963484964
 10
154.1936670393
 20
91.490394713
 10
154.1871206438
 20
91.4839806146
 10
154.1807585332
 20
91.4771343846
 10
154.1746086625
 20
91.4698861053
 10
154.1686980539
 20
91.4622676257
 10
154.1630526786
 20
91.4543124215
 10
154.1576973418
 20
91.4460554476
 10
154.1526555747
 20
91.4375329851
 10
154.1479495305
 20
91.4287824818
 10
154.1435998873
 20
91.4198423869
 10
154.1396257569
 20
91.4107519832
 10
154.1360446013
 20
91.4015512136
 10
154.1328721557
 20
91.392280506
 10
154.1301223595
 20
91.3829805954
 10
154.1278072948
 20
91.3736923454
 10
154.1259371336
 20
91.364456568
 10
154.124520093
 20
91.3553138445
 10
154.123562399
 20
91.3463043477
 10
154.1230682594
 20
91.3374676646
 10
154.1230398451
 20
91.3288426229
  0
LINE
  5
330
100
AcDbEntity
  8
RACCORDO
100
AcDbLine
 62
253
  6
CONTINUOUS
 10
154.2281353429
 20
91.5150699464
 11
154.3183080232
 21
91.5604785567
  0
LWPOLYLINE
  5
331
100
AcDbEntity
  8
ASSI
100
AcDbPolyline
 62
253
  6
CONTINUOUS
 90
16
 70
0
 10
159.0472661874
 20
117.2935820021
 10
159.0085669122
 20
117.283654477
 10
158.9666300778
 20
117.2757541079
 10
158.9219001448
 20
117.2699646258
 10
158.8748511763
 20
117.2663473894
 10
158.8259818132
 20
117.2649407356
 10
158.7758099895
 20
117.2657595724
 10
158.7248674432
 20
117.2687952216
 10
158.6736940807
 20
117.2740155104
 10
158.6228322546
 20
117.2813651124
 10
158.5728210157
 20
117.2907661339
 10
158.5241904002
 20
117.3021189398
 10
158.4774558117
 20
117.3153032094
 10
158.4331125593
 20
117.3301792114
 10
158.3916306078
 20
117.3465892849
 10
158.353449597
 20
117.3643595104
  0
LWPOLYLINE
  5
332
100
AcDbEntity
  8
RACCORDO
100
AcDbPolyline
 62
253
  6
CONTINUOUS
 90
16
 70
0
 10
159.0472661874
 20
117.2935820021
 10
159.0085669122
 20
117.283654477
 10
158.9666300778
 20
117.2757541079
 10
158.9219001448
 20
117.2699646258
 10
158.8748511763
 20
117.2663473894
 10
158.8259818132
 20
117.2649407356
 10
158.7758099895
 20
117.2657595724
 10
158.7248674432
 20
117.2687952216
 10
158.6736940807
 20
117.2740155104
 10
158.6228322546
 20
117.2813651124
 10
158.5728210157
 20
117.2907661339
 10
158.5241904002
 20
117.3021189398
 10
158.4774558117
 20
117.3153032094
 10
158.4331125593
 20
117.3301792114
 10
158.3916306078
 20
117.3465892849
 10
158.353449597
 20
117.3643595104
  0
LINE
  5
333
100
AcDbEntity
  8
RACCORDO
100
AcDbLine
 62
7
  6
CONTINUOUS
 10
154.761713146
 20
87.7304808737
 11
154.7521384032
 21
87.7218507389
  0
LINE
  5
334
100
AcDbEntity
  8
ASSI
100
AcDbLine
 62
7
  6
CONTINUOUS
 10
154.761713146
 20
87.7304808737
 11
154.7521259086
 21
87.7218429429
  0
LWPOLYLINE
  5
335
100
AcDbEntity
  8
RACCORDO
100
AcDbPolyline
 62
253
  6
CONTINUOUS
 90
25
 70
0
 10
154.5802505242
 20
91.0008247717
 10
154.5730924477
 20
90.9971481472
 10
154.5655255564
 20
90.9935972134
 10
154.5575821652
 20
90.9901871349
 10
154.5492961969
 20
90.9869324746
 10
154.5407030373
 20
90.9838471318
 10
154.531839384
 20
90.9809442827
 10
154.5227430899
 20
90.9782363241
 10
154.5134530014
 20
90.9757348205
 10
154.5040087924
 20
90.9734504547
 10
154.4944507951
 20
90.9713929823
 10
154.4848198274
 20
90.9695711899
 10
154.4751570193
 20
90.9679928575
 10
154.4655036362
 20
90.9666647255
 10
154.4559009037
 20
90.9655924658
 10
154.4463898308
 20
90.9647806576
 10
154.4370110354
 20
90.9642327678
 10
154.42780457
 20
90.9639511361
 10
154.4188097517
 20
90.9639369652
 10
154.4100649934
 20
90.9641903158
 10
154.4016076401
 20
90.9647101058
 10
154.3934738096
 20
90.9654941154
 10
154.385698238
 20
90.9665389965
 10
154.3783141313
 20
90.9678402869
 10
154.3713530239
 20
90.9693924292
  0
LINE
  5
336
100
AcDbEntity
  8
RACCORDO
100
AcDbLine
 62
253
  6
CONTINUOUS
 10
154.5802505734
 20
91.0008247594
 11
154.662373725
 21
91.0422276553
  0
LINE
  5
337
100
AcDbEntity
  8
ASSI
100
AcDbLine
 62
7
  6
CONTINUOUS
 10
154.7521259086
 20
87.7218429429
 11
154.7431918141
 21
87.7162685045
  0
LINE
  5
338
100
AcDbEntity
  8
RACCORDO
100
AcDbLine
 62
7
  6
CONTINUOUS
 10
154.7521384032
 20
87.7218507389
 11
154.7431915818
 21
87.7162683848
  0
LWPOLYLINE
  5
339
100
AcDbEntity
  8
RACCORDO
100
AcDbPolyline
 62
253
  6
CONTINUOUS
 90
25
 70
0
 10
154.7154466355
 20
87.8760362268
 10
154.7082596559
 20
87.8723053485
 10
154.7006750873
 20
87.8689181963
 10
154.6927244414
 20
87.8658888428
 10
154.6844407506
 20
87.8632298742
 10
154.6758584315
 20
87.8609523377
 10
154.6670131409
 20
87.8590656958
 10
154.6579416286
 20
87.8575777869
 10
154.6486815839
 20
87.8564947928
 10
154.6392714798
 20
87.8558212131
 10
154.6297504123
 20
87.8555598464
 10
154.6201579388
 20
87.8557117784
 10
154.6105339132
 20
87.856276378
 10
154.6009183205
 20
87.8572512994
 10
154.5913511107
 20
87.8586324922
 10
154.5818720327
 20
87.8604142178
 10
154.5725204695
 20
87.8625890737
 10
154.5633352739
 20
87.8651480241
 10
154.5543546078
 20
87.8680804371
 10
154.5456157832
 20
87.8713741296
 10
154.5371551074
 20
87.8750154171
 10
154.5290077321
 20
87.8789891713
 10
154.5212075071
 20
87.8832788822
 10
154.5137868403
 20
87.8878667274
 10
154.5067765622
 20
87.8927336458
  0
LINE
  5
33A
100
AcDbEntity
  8
ASSI
100
AcDbLine
 62
7
  6
CONTINUOUS
 10
154.743339195
 20
87.7163445912
 11
154.743159855
 21
87.7162519689
  0
LINE
  5
33B
100
AcDbEntity
  8
RACCORDO
100
AcDbLine
 62
7
  6
CONTINUOUS
 10
154.743339195
 20
87.7163445912
 11
154.7431596246
 21
87.7162518501
  0
LINE
  5
33C
100
AcDbEntity
  8
RACCORDO
100
AcDbLine
 62
7
  6
CONTINUOUS
 10
154.6009320824
 20
87.6944283248
 11
154.7888532115
 21
87.7850724378
  0
LINE
  5
33D
100
AcDbEntity
  8
RACCORDO
100
AcDbLine
 62
253
  6
CONTINUOUS
 10
154.715447034
 20
87.8760359208
 11
154.8072037242
 21
87.9202567652
  0
LWPOLYLINE
  5
33E
100
AcDbEntity
  8
ASSI
100
AcDbPolyline
 62
253
  6
CONTINUOUS
 90
16
 70
0
 10
158.3400241144
 20
90.4912672294
 10
158.3009260178
 20
90.4736955686
 10
158.2585957814
 20
90.4582313017
 10
158.2134818696
 20
90.4450382636
 10
158.1660622389
 20
90.4342562271
 10
158.116839273
 20
90.4259994218
 10
158.0663344613
 20
90.4203553237
 10
158.0150828735
 20
90.417383729
 10
157.9636274908
 20
90.4171161199
 10
157.9125134539
 20
90.4195553317
 10
157.8622822867
 20
90.4246755221
 10
157.8134661598
 20
90.4324224459
 10
157.7665822523
 20
90.4427140286
 10
157.7221272724
 20
90.455441237
 10
157.6805721953
 20
90.4704692333
 10
157.6423572734
 20
90.4876388047
  0
LWPOLYLINE
  5
33F
100
AcDbEntity
  8
RACCORDO
100
AcDbPolyline
 62
253
  6
CONTINUOUS
 90
16
 70
0
 10
158.3400241144
 20
90.4912672294
 10
158.3009260178
 20
90.4736955686
 10
158.2585957814
 20
90.4582313017
 10
158.2134818696
 20
90.4450382636
 10
158.1660622389
 20
90.4342562271
 10
158.116839273
 20
90.4259994218
 10
158.0663344613
 20
90.4203553237
 10
158.0150828735
 20
90.417383729
 10
157.9636274908
 20
90.4171161199
 10
157.9125134539
 20
90.4195553317
 10
157.8622822867
 20
90.4246755221
 10
157.8134661598
 20
90.4324224459
 10
157.7665822523
 20
90.4427140286
 10
157.7221272724
 20
90.455441237
 10
157.6805721953
 20
90.4704692333
 10
157.6423572734
 20
90.4876388047
  0
LINE
  5
340
100
AcDbEntity
  8
ASSI
100
AcDbLine
 62
253
  6
CONTINUOUS
 10
143.6686946909
 20
124.706736951
 11
158.3534495818
 21
117.3643595056
  0
LINE
  5
341
100
AcDbEntity
  8
RACCORDO
100
AcDbLine
 62
253
  6
CONTINUOUS
 10
143.6686946909
 20
124.706736951
 11
158.3534495818
 21
117.3643595056
  0
LWPOLYLINE
  5
342
100
AcDbEntity
  8
ASSI
100
AcDbPolyline
 62
253
  6
CONTINUOUS
 90
6
 70
0
 10
154.743159855
 20
87.7162519689
 10
154.7304267104
 20
87.7105465483
 10
154.7105671124
 20
87.7046239821
 10
154.6892938109
 20
87.70159317
 10
154.6667998711
 20
87.701513594
 10
154.6433285617
 20
87.7043816229
  0
LWPOLYLINE
  5
343
100
AcDbEntity
  8
RACCORDO
100
AcDbPolyline
 62
253
  6
CONTINUOUS
 90
5
 70
0
 10
154.7431596246
 20
87.7162518501
 10
154.7304267104
 20
87.7105465483
 10
154.7105671124
 20
87.7046239821
 10
154.6892938109
 20
87.70159317
 10
154.6667998711
 20
87.701513594
  0
LINE
  5
344
100
AcDbEntity
  8
ASSI
100
AcDbLine
 62
253
  6
CONTINUOUS
 10
144.3405501504
 20
125.7887994585
 11
159.043131598
 21
118.4375087347
  0
LINE
  5
345
100
AcDbEntity
  8
RACCORDO
100
AcDbLine
 62
253
  6
CONTINUOUS
 10
144.3405501504
 20
125.7887994585
 11
159.043131598
 21
118.4375087347
  0
LINE
  5
346
100
AcDbEntity
  8
ASSI
100
AcDbLine
 62
7
  6
CONTINUOUS
 10
147.0721031987
 20
127.3179871255
 11
161.9215879115
 21
119.8932447692
  0
LINE
  5
347
100
AcDbEntity
  8
RACCORDO
100
AcDbLine
 62
7
  6
CONTINUOUS
 10
147.0721031987
 20
127.3179871255
 11
161.9215879115
 21
119.8932447692
  0
LWPOLYLINE
  5
348
100
AcDbEntity
  8
ASSI
100
AcDbPolyline
 62
253
  6
CONTINUOUS
 90
16
 70
0
 10
159.0472661873
 20
80.7981283134
 10
159.0085672514
 20
80.7749853423
 10
158.9666309138
 20
80.7540095853
 10
158.9219016185
 20
80.7354233448
 10
158.8748534098
 20
80.7194235992
 10
158.8259849076
 20
80.7061799148
 10
158.7758140238
 20
80.6958326491
 10
158.7248724728
 20
80.6884914632
 10
158.6737001365
 20
80.6842341593
 10
158.622839343
 20
80.6831058567
 10
158.5728291183
 20
80.6851185132
 10
158.5241994742
 20
80.6902507986
 10
158.4774657911
 20
80.6984483203
 10
158.4331233557
 20
80.7096242004
 10
158.3916421121
 20
80.723659996
 10
158.3534616814
 20
80.740406955
  0
LWPOLYLINE
  5
349
100
AcDbEntity
  8
RACCORDO
100
AcDbPolyline
 62
253
  6
CONTINUOUS
 90
16
 70
0
 10
159.0472661873
 20
80.7981283134
 10
159.0085672514
 20
80.7749853423
 10
158.9666309138
 20
80.7540095853
 10
158.9219016185
 20
80.7354233448
 10
158.8748534098
 20
80.7194235992
 10
158.8259849076
 20
80.7061799148
 10
158.7758140238
 20
80.6958326491
 10
158.7248724728
 20
80.6884914632
 10
158.6737001365
 20
80.6842341593
 10
158.622839343
 20
80.6831058567
 10
158.5728291183
 20
80.6851185132
 10
158.5241994742
 20
80.6902507986
 10
158.4774657911
 20
80.6984483203
 10
158.4331233557
 20
80.7096242004
 10
158.3916421121
 20
80.723659996
 10
158.3534616814
 20
80.740406955
  0
LINE
  5
34A
100
AcDbEntity
  8
ASSI
100
AcDbLine
 62
253
  6
CONTINUOUS
 10
159.3965638347
 20
80.5952531089
 11
162.2750201482
 21
81.8710701228
  0
LINE
  5
34B
100
AcDbEntity
  8
RACCORDO
100
AcDbLine
 62
253
  6
CONTINUOUS
 10
159.3965638347
 20
80.5952531089
 11
162.2750201482
 21
81.8710701228
  0
LINE
  5
34C
100
AcDbEntity
  8
ASSI
100
AcDbLine
 62
7
  6
CONTINUOUS
 10
159.2549919521
 20
80.3194850635
 11
162.1372659418
 21
81.5969941844
  0
LINE
  5
34D
100
AcDbEntity
  8
RACCORDO
100
AcDbLine
 62
7
  6
CONTINUOUS
 10
159.2549919521
 20
80.3194850635
 11
162.1372659418
 21
81.5969941844
  0
LINE
  5
34E
100
AcDbEntity
  8
ASSI
100
AcDbLine
 62
7
  6
CONTINUOUS
 10
159.1938206969
 20
80.2950735286
 11
159.2546961296
 21
80.3193731022
  0
LINE
  5
34F
100
AcDbEntity
  8
RACCORDO
100
AcDbLine
 62
7
  6
CONTINUOUS
 10
159.1941089477
 20
80.2951885893
 11
159.2546959443
 21
80.3193730205
  0
ELLIPSE
  5
350
100
AcDbEntity
  8
ASSI
100
AcDbEllipse
 62
7
  6
CONTINUOUS
 10
161.9213455621
 20
82.048204232
 30
0.0
 11
-0.2238185272
 21
0.4474870472
 31
0.0
 40
0.6119614214
 41
-3.1701059984
 42
-2.2560086979
  0
ELLIPSE
  5
351
100
AcDbEntity
  8
ASSI
100
AcDbEllipse
 62
7
  6
CONTINUOUS
 10
161.9213455621
 20
119.4602048085
 30
0.0
 11
-0.2235482059
 21
0.4472467618
 31
0.0
 40
0.6127837007
 41
-2.2550219623
 42
-0.6849108682
  0
ELLIPSE
  5
352
100
AcDbEntity
  8
ASSI
100
AcDbEllipse
 62
7
  6
CONTINUOUS
 10
147.0723455481
 20
126.8847048155
 30
0.0
 11
-0.2238185272
 21
0.4474870472
 31
0.0
 40
0.6119614214
 41
-0.6845271385
 42
0.028513344
  0
ELLIPSE
  5
353
100
AcDbEntity
  8
0
100
AcDbEllipse
 62
253
  6
CONTINUOUS
 10
511.9830939576
 20
275.0340802286
 30
0.0
 11
499.3664570301
 21
308.6256196098
 31
0.0
 40
0.0815201142
 41
2.3193841217
 42
2.3201270508
  0
ELLIPSE
  5
354
100
AcDbEntity
  8
0
100
AcDbEllipse
 62
253
  6
CONTINUOUS
 10
499.2652791915
 20
281.3929876117
 30
0.0
 11
-370.8954801062
 21
600.1217788032
 31
0.0
 40
0.5587455819
 41
1.536214748
 42
1.5369577018
  0
ELLIPSE
  5
355
100
AcDbEntity
  8
0
100
AcDbEllipse
 62
253
  6
CONTINUOUS
 10
216.3582744428
 20
139.731381756
 30
0.0
 11
5.9092894187
 21
93.3958338896
 31
0.0
 40
0.7112298435
 41
-4.3800239442
 42
-4.3535084333
  0
ELLIPSE
  5
356
100
AcDbEntity
  8
0
100
AcDbEllipse
 62
253
  6
CONTINUOUS
 10
216.3545861603
 20
139.7332258972
 30
0.0
 11
6.1451511719
 21
93.3361624784
 31
0.0
 40
0.7111007247
 41
-4.351493441
 42
-4.3512831801
  0
ELLIPSE
  5
357
100
AcDbEntity
  8
0
100
AcDbEllipse
 62
253
  6
CONTINUOUS
 10
216.0841388517
 20
139.8684495515
 30
0.0
 11
22.4881836003
 21
88.2729642451
 31
0.0
 40
0.6872605979
 41
-4.2092455087
 42
-4.2090386845
  0
ELLIPSE
  5
358
100
AcDbEntity
  8
0
100
AcDbEllipse
 62
253
  6
CONTINUOUS
 10
511.326494739
 20
275.3623798379
 30
0.0
 11
499.3664838505
 21
308.6256067985
 31
0.0
 40
0.0815200719
 41
2.3216129114
 42
2.3223558652
  0
ELLIPSE
  5
359
100
AcDbEntity
  8
0
100
AcDbEllipse
 62
253
  6
CONTINUOUS
 10
213.7425456963
 20
141.0392461292
 30
0.0
 11
88.7566681812
 21
56.0910629383
 31
0.0
 40
0.0915614596
 41
2.2792590129
 42
2.2802447877
  0
ELLIPSE
  5
35A
100
AcDbEntity
  8
0
100
AcDbEllipse
 62
253
  6
CONTINUOUS
 10
214.5157306815
 20
140.6526536366
 30
0.0
 11
-38.5868182279
 21
101.2194284443
 31
0.0
 40
0.6549803569
 41
-4.6824754043
 42
-4.6812895774
  0
ELLIPSE
  5
35B
100
AcDbEntity
  8
0
100
AcDbEllipse
 62
253
  6
CONTINUOUS
 10
496.1136034403
 20
282.9688254873
 30
0.0
 11
-370.8954801062
 21
600.1217788032
 31
0.0
 40
0.5587455819
 41
1.5365862238
 42
1.5369577018
  0
ELLIPSE
  5
35C
100
AcDbEntity
  8
0
100
AcDbEllipse
 62
253
  6
CONTINUOUS
 10
508.3061434048
 20
276.872555505
 30
0.0
 11
499.3666984142
 21
308.625504308
 31
0.0
 40
0.0815197335
 41
2.3216127411
 42
2.3223556949
  0
ELLIPSE
  5
35D
100
AcDbEntity
  8
0
100
AcDbEllipse
 62
253
  6
CONTINUOUS
 10
496.542073587
 20
282.7545904139
 30
0.0
 11
-438.4785331774
 21
623.7420824547
 31
0.0
 40
0.5142222357
 41
1.5065042815
 42
1.5087330688
  0
ELLIPSE
  5
35E
100
AcDbEntity
  8
0
100
AcDbEllipse
 62
253
  6
CONTINUOUS
 10
506.0737027576
 20
277.9887758286
 30
0.0
 11
499.366510671
 21
308.6255939872
 31
0.0
 40
0.0815200296
 41
2.3171553357
 42
2.3178982434
  0
ELLIPSE
  5
35F
100
AcDbEntity
  8
0
100
AcDbEllipse
 62
253
  6
CONTINUOUS
 10
498.6086737552
 20
281.7212903298
 30
0.0
 11
-370.8960517322
 21
600.1219608481
 31
0.0
 40
0.5587452011
 41
1.5317569168
 42
1.53212837
  0
ELLIPSE
  5
360
100
AcDbEntity
  8
0
100
AcDbEllipse
 62
253
  6
CONTINUOUS
 10
507.2707344357
 20
277.3902599896
 30
0.0
 11
499.366510671
 21
308.6255939872
 31
0.0
 40
0.0815200296
 41
2.3099551066
 42
2.3106979712
  0
ELLIPSE
  5
361
100
AcDbEntity
  8
0
100
AcDbEllipse
 62
253
  6
CONTINUOUS
 10
504.7655575853
 20
278.6428484148
 30
0.0
 11
-370.8955240775
 21
600.1217928067
 31
0.0
 40
0.5587455526
 41
1.5245569433
 42
1.5252998078
  0
ELLIPSE
  5
362
100
AcDbEntity
  8
0
100
AcDbEllipse
 62
253
  6
CONTINUOUS
 10
509.5031706996
 20
276.2740418576
 30
0.0
 11
499.3664838505
 21
308.6256067985
 31
0.0
 40
0.0815200719
 41
2.3144123637
 42
2.3151552505
  0
ELLIPSE
  5
363
100
AcDbEntity
  8
0
100
AcDbEllipse
 62
253
  6
CONTINUOUS
 10
502.5331213214
 20
279.7590665467
 30
0.0
 11
-370.8954801062
 21
600.1217788032
 31
0.0
 40
0.5587455819
 41
1.5290142003
 42
1.5297570871
  0
ELLIPSE
  5
364
100
AcDbEntity
  8
0
100
AcDbEllipse
 62
253
  6
CONTINUOUS
 10
503.3892242638
 20
279.3310150755
 30
0.0
 11
-106.0585040325
 21
545.5538040194
 31
0.0
 40
0.6979893553
 41
-4.5162787531
 42
-4.5110786306
  0
ELLIPSE
  5
365
100
AcDbEntity
  8
0
100
AcDbEllipse
 62
253
  6
CONTINUOUS
 10
502.9371815423
 20
279.5570364363
 30
0.0
 11
499.3667252347
 21
308.6254914966
 31
0.0
 40
0.0815196912
 41
2.3099549363
 42
2.3106978009
  0
ELLIPSE
  5
366
100
AcDbEntity
  8
0
100
AcDbEllipse
 62
253
  6
CONTINUOUS
 10
500.4320018343
 20
280.8096262903
 30
0.0
 11
-370.8958758474
 21
600.1219048343
 31
0.0
 40
0.5587453183
 41
1.5245567729
 42
1.5252996375
  0
ELLIPSE
  5
367
100
AcDbEntity
  8
0
100
AcDbEllipse
 62
253
  6
CONTINUOUS
 10
505.169618902
 20
278.4408177564
 30
0.0
 11
499.3666984142
 21
308.625504308
 31
0.0
 40
0.0815197335
 41
2.3144121934
 42
2.3151550802
  0
ELLIPSE
  5
368
100
AcDbEntity
  8
0
100
AcDbEllipse
 62
253
  6
CONTINUOUS
 10
498.1995644746
 20
281.9258449701
 30
0.0
 11
-370.8958318762
 21
600.1218908308
 31
0.0
 40
0.5587453476
 41
1.52901403
 42
1.5297569168
  0
ELLIPSE
  5
369
100
AcDbEntity
  8
0
100
AcDbEllipse
 62
253
  6
CONTINUOUS
 10
498.7686180149
 20
281.6413182
 30
0.0
 11
-370.8956999625
 21
600.1218488205
 31
0.0
 40
0.5587454355
 41
1.5245568581
 42
1.5252997226
  0
ELLIPSE
  5
36A
100
AcDbEntity
  8
0
100
AcDbEllipse
 62
253
  6
CONTINUOUS
 10
503.5062331059
 20
279.2725106545
 30
0.0
 11
499.3665911324
 21
308.6255555532
 31
0.0
 40
0.0815199027
 41
2.3144122785
 42
2.3151551654
  0
ELLIPSE
  5
36B
100
AcDbEntity
  8
0
100
AcDbEllipse
 62
253
  6
CONTINUOUS
 10
495.6320943255
 20
283.2095800447
 30
0.0
 11
-370.8956999625
 21
600.1218488205
 31
0.0
 40
0.5587454355
 41
1.5317570871
 42
1.5324999948
  0
ELLIPSE
  5
36C
100
AcDbEntity
  8
0
100
AcDbEllipse
 62
253
  6
CONTINUOUS
 10
505.4608779755
 20
278.2951882197
 30
0.0
 11
499.3665911324
 21
308.6255555532
 31
0.0
 40
0.0815199027
 41
2.3216128262
 42
2.3223557801
  0
ELLIPSE
  5
36D
100
AcDbEntity
  8
0
100
AcDbEllipse
 62
253
  6
CONTINUOUS
 10
214.1730881939
 20
140.8239748804
 30
0.0
 11
-66.3619011194
 21
107.8951936788
 31
0.0
 40
0.5602231197
 41
1.4900096881
 42
1.4909954629
  0
ELLIPSE
  5
36E
100
AcDbEntity
  8
0
100
AcDbEllipse
 62
253
  6
CONTINUOUS
 10
211.8265500195
 20
141.9972439676
 30
0.0
 11
59.4704182526
 21
70.3376133881
 31
0.0
 40
0.4324230571
 41
-3.965500852
 42
-3.9583813296
  0
ELLIPSE
  5
36F
100
AcDbEntity
  8
0
100
AcDbEllipse
 62
253
  6
CONTINUOUS
 10
213.2866109615
 20
141.2672134966
 30
0.0
 11
57.318295056
 21
71.4772931971
 31
0.0
 40
0.4580236345
 41
-3.9598259346
 42
-3.9508725077
  0
ELLIPSE
  5
370
100
AcDbEntity
  8
0
100
AcDbEllipse
 62
253
  6
CONTINUOUS
 10
213.2854010327
 20
141.267818461
 30
0.0
 11
57.3627777972
 21
71.4536116179
 31
0.0
 40
0.4575051757
 41
-3.9507269038
 42
-3.9491866143
  0
ELLIPSE
  5
371
100
AcDbEntity
  8
0
100
AcDbEllipse
 62
253
  6
CONTINUOUS
 10
209.8539398261
 20
142.9835490643
 30
0.0
 11
199.1855634815
 21
-5.5803734658
 31
0.0
 40
0.1775962808
 41
-1.8714233898
 42
-1.8709685449
  0
ELLIPSE
  5
372
100
AcDbEntity
  8
0
100
AcDbEllipse
 62
253
  6
CONTINUOUS
 10
218.0972216891
 20
138.8619081328
 30
0.0
 11
237.1026339692
 21
-189.8781542866
 31
0.0
 40
0.213753937
 41
-1.6889189631
 42
-1.6885985117
  0
ELLIPSE
  5
373
100
AcDbEntity
  8
0
100
AcDbEllipse
 62
253
  6
CONTINUOUS
 10
211.7255101286
 20
142.0477639131
 30
0.0
 11
54.1773508695
 21
73.1591998076
 31
0.0
 40
0.4933139417
 41
-3.9745327845
 42
-3.9742846039
  0
ELLIPSE
  5
374
100
AcDbEntity
  8
0
100
AcDbEllipse
 62
253
  6
CONTINUOUS
 10
218.140375118
 20
138.8403314184
 30
0.0
 11
239.2419877071
 21
-190.9781535848
 31
0.0
 40
0.2119454836
 41
-1.6888086652
 42
-1.6884916458
  0
ELLIPSE
  5
375
100
AcDbEntity
  8
0
100
AcDbEllipse
 62
253
  6
CONTINUOUS
 10
214.5085131059
 20
140.6562624244
 30
0.0
 11
-55.5129392047
 21
104.7936176545
 31
0.0
 40
0.5998749553
 41
1.535381174
 42
1.536463163
  0
ELLIPSE
  5
376
100
AcDbEntity
  8
0
100
AcDbEllipse
 62
253
  6
CONTINUOUS
 10
211.4598117122
 20
142.1806131212
 30
0.0
 11
60.5288914317
 21
69.7822251904
 31
0.0
 40
0.4194865418
 41
-3.9540566474
 42
-3.9538291431
  0
ELLIPSE
  5
377
100
AcDbEntity
  8
0
100
AcDbEllipse
 62
253
  6
CONTINUOUS
 10
212.9719018602
 20
141.4245680472
 30
0.0
 11
57.2811691413
 21
71.4970618057
 31
0.0
 40
0.458455978
 41
-3.9522557748
 42
-3.9507188888
  0
ELLIPSE
  5
378
100
AcDbEntity
  8
0
100
AcDbEllipse
 62
253
  6
CONTINUOUS
 10
211.5053943754
 20
142.1578217897
 30
0.0
 11
59.4996259814
 21
70.3222391221
 31
0.0
 40
0.4320688748
 41
-3.9627932918
 42
-3.9564431507
  0
ELLIPSE
  5
379
100
AcDbEntity
  8
0
100
AcDbEllipse
 62
253
  6
CONTINUOUS
 10
206.6722091035
 20
144.5744144256
 30
0.0
 11
155.3284972355
 21
20.0427713638
 31
0.0
 40
0.1655023204
 41
-1.9743595246
 42
-1.9717252505
  0
ELLIPSE
  5
37A
100
AcDbEntity
  8
0
100
AcDbEllipse
 62
253
  6
CONTINUOUS
 10
216.0400047966
 20
139.8905165791
 30
0.0
 11
5.8729363653
 21
93.4050002868
 31
0.0
 40
0.711249271
 41
-4.3783603454
 42
-4.3557733799
  0
ELLIPSE
  5
37B
100
AcDbEntity
  8
0
100
AcDbEllipse
 62
253
  6
CONTINUOUS
 10
206.6599892917
 20
144.5805243315
 30
0.0
 11
155.6432225815
 21
19.8586841663
 31
0.0
 40
0.165783685
 41
-1.955149036
 42
-1.9531750112
  0
ELLIPSE
  5
37C
100
AcDbEntity
  8
0
100
AcDbEllipse
 62
253
  6
CONTINUOUS
 10
212.9715562941
 20
141.4247408303
 30
0.0
 11
57.2931855841
 21
71.4906629941
 31
0.0
 40
0.4583160794
 41
-3.9634932076
 42
-3.9522162163
  0
ELLIPSE
  5
37D
100
AcDbEntity
  8
0
100
AcDbEllipse
 62
253
  6
CONTINUOUS
 10
212.1331220892
 20
141.8439579327
 30
0.0
 11
74.7919704553
 21
62.6865182841
 31
0.0
 40
0.2397303063
 41
2.3246818435
 42
2.3250886054
  0
ELLIPSE
  5
37E
100
AcDbEntity
  8
0
100
AcDbEllipse
 62
253
  6
CONTINUOUS
 10
211.0492713508
 20
142.3858833019
 30
0.0
 11
97.1836978247
 21
52.0173265337
 31
0.0
 40
0.0234839539
 41
2.2373140656
 42
2.237593289
  0
ELLIPSE
  5
37F
100
AcDbEntity
  8
0
100
AcDbEllipse
 62
253
  6
CONTINUOUS
 10
209.725693378
 20
143.0476722884
 30
0.0
 11
128.2990012504
 21
35.5898290864
 31
0.0
 40
0.1204174377
 41
-2.0880713368
 42
-2.087599069
  0
ELLIPSE
  5
380
100
AcDbEntity
  8
0
100
AcDbEllipse
 62
253
  6
CONTINUOUS
 10
201.083729174
 20
147.3686543903
 30
0.0
 11
361.8879648667
 21
-94.6996631379
 31
0.0
 40
0.1266634811
 41
-1.6790527934
 42
-1.6790010945
  0
ELLIPSE
  5
381
100
AcDbEntity
  8
0
100
AcDbEllipse
 62
253
  6
CONTINUOUS
 10
205.4008859011
 20
145.2100760268
 30
0.0
 11
155.2337125812
 21
20.0982056219
 31
0.0
 40
0.1654167555
 41
-1.9410316595
 42
-1.9397292819
  0
ELLIPSE
  5
382
100
AcDbEntity
  8
0
100
AcDbEllipse
 62
253
  6
CONTINUOUS
 10
218.1073048041
 20
138.8568665753
 30
0.0
 11
-12.2378400419
 21
97.1119750149
 31
0.0
 40
0.7065936994
 41
-4.5435252917
 42
-4.5391799147
  0
ELLIPSE
  5
383
100
AcDbEntity
  8
0
100
AcDbEllipse
 62
253
  6
CONTINUOUS
 10
206.0699365139
 20
144.8755507204
 30
0.0
 11
156.1167636585
 21
19.581641964
 31
0.0
 40
0.166199145
 41
-1.9422613681
 42
-1.9409697566
  0
ELLIPSE
  5
384
100
AcDbEntity
  8
0
100
AcDbEllipse
 62
253
  6
CONTINUOUS
 10
206.1008380358
 20
144.8600999594
 30
0.0
 11
155.7076932118
 21
19.8209703197
 31
0.0
 40
0.1658408032
 41
4.3094716793
 42
4.3394891228
  0
ELLIPSE
  5
385
100
AcDbEntity
  8
0
100
AcDbEllipse
 62
253
  6
CONTINUOUS
 10
206.0800345458
 20
144.8705017045
 30
0.0
 11
156.1940908561
 21
19.5363953739
 31
0.0
 40
0.1662660957
 41
-1.9732976897
 42
-1.972008268
  0
ELLIPSE
  5
386
100
AcDbEntity
  8
0
100
AcDbEllipse
 62
253
  6
CONTINUOUS
 10
212.5538778802
 20
141.6335800372
 30
0.0
 11
-12.2376889614
 21
97.1119497719
 31
0.0
 40
0.7065938495
 41
-4.5109176754
 42
-4.506580267
  0
ELLIPSE
  5
387
100
AcDbEntity
  8
0
100
AcDbEllipse
 62
253
  6
CONTINUOUS
 10
205.3456341197
 20
145.2377019175
 30
0.0
 11
156.038439813
 21
19.6274698049
 31
0.0
 40
0.1661310771
 41
-1.9695050765
 42
-1.9682154273
  0
ELLIPSE
  5
388
100
AcDbEntity
  8
0
100
AcDbEllipse
 62
253
  6
CONTINUOUS
 10
211.6909531105
 20
142.0650424221
 30
0.0
 11
75.3953840244
 21
62.3994159414
 31
0.0
 40
0.2324814896
 41
2.3260794469
 42
2.3272616866
  0
ELLIPSE
  5
389
100
AcDbEntity
  8
0
100
AcDbEllipse
 62
253
  6
CONTINUOUS
 10
205.3592162142
 20
145.2309108703
 30
0.0
 11
155.7525720668
 21
19.7947164063
 31
0.0
 40
0.1658804603
 41
-1.9692182828
 42
-1.9392038641
  0
ELLIPSE
  5
38A
100
AcDbEntity
  8
0
100
AcDbEllipse
 62
253
  6
CONTINUOUS
 10
211.6498589216
 20
142.0855895165
 30
0.0
 11
57.9784027497
 21
71.1263731011
 31
0.0
 40
0.4502813357
 41
-4.0072202304
 42
-4.0007001279
  0
ELLIPSE
  5
38B
100
AcDbEntity
  8
0
100
AcDbEllipse
 62
253
  6
CONTINUOUS
 10
207.1871159553
 20
144.3169609997
 30
0.0
 11
97.7395199259
 21
51.7435105201
 31
0.0
 40
0.0195288751
 41
2.1842872868
 42
2.1894380542
  0
ELLIPSE
  5
38C
100
AcDbEntity
  8
0
100
AcDbEllipse
 62
253
  6
CONTINUOUS
 10
220.7264655729
 20
137.5472861909
 30
0.0
 11
-79.1402597209
 21
112.3546765278
 31
0.0
 40
0.5134554906
 41
1.4081677514
 42
1.4132908636
  0
ELLIPSE
  5
38D
100
AcDbEntity
  8
0
100
AcDbEllipse
 62
253
  6
CONTINUOUS
 10
216.2470015265
 20
139.7870182141
 30
0.0
 11
9.1095055149
 21
92.5561046821
 31
0.0
 40
0.7090138474
 41
-4.3727121218
 42
-4.3661954481
  0
ELLIPSE
  5
38E
100
AcDbEntity
  8
0
100
AcDbEllipse
 62
253
  6
CONTINUOUS
 10
216.3499943417
 20
139.7355218065
 30
0.0
 11
6.138364946
 21
93.3378841757
 31
0.0
 40
0.7111045143
 41
-4.3917055203
 42
-4.3894879615
  0
ELLIPSE
  5
38F
100
AcDbEntity
  8
0
100
AcDbEllipse
 62
253
  6
CONTINUOUS
 10
204.7775231952
 20
145.5217573798
 30
0.0
 11
156.0990896521
 21
19.5919833207
 31
0.0
 40
0.1661838077
 41
-1.9421229432
 42
-1.9401543645
  0
ELLIPSE
  5
390
100
AcDbEntity
  8
0
100
AcDbEllipse
 62
253
  6
CONTINUOUS
 10
216.0346894904
 20
139.8931742321
 30
0.0
 11
6.0274329999
 21
93.3659875338
 31
0.0
 40
0.7111658337
 41
-4.3912647959
 42
-4.3884672631
  0
ELLIPSE
  5
391
100
AcDbEntity
  8
0
100
AcDbEllipse
 62
253
  6
CONTINUOUS
 10
215.9336556884
 20
139.9436911331
 30
0.0
 11
8.9996073226
 21
92.5860403266
 31
0.0
 40
0.7091069032
 41
-4.3704665457
 42
-4.3657543578
  0
ELLIPSE
  5
392
100
AcDbEntity
  8
0
100
AcDbEllipse
 62
253
  6
CONTINUOUS
 10
220.476776103
 20
137.6721309259
 30
0.0
 11
-82.6619437271
 21
113.7161859926
 31
0.0
 40
0.5009710476
 41
1.4072356715
 42
1.4107536401
  0
ELLIPSE
  5
393
100
AcDbEntity
  8
0
100
AcDbEllipse
 62
253
  6
CONTINUOUS
 10
211.9639708492
 20
141.9285335528
 30
0.0
 11
58.0088565944
 21
71.1102105756
 31
0.0
 40
0.449921683
 41
-4.0039621408
 42
-3.9992430349
  0
ELLIPSE
  5
394
100
AcDbEntity
  8
0
100
AcDbEllipse
 62
253
  6
CONTINUOUS
 10
211.8254520918
 20
141.9977929315
 30
0.0
 11
59.4934789232
 21
70.3254745667
 31
0.0
 40
0.4321434298
 41
-3.9951274801
 42
-3.9806308851
  0
ELLIPSE
  5
395
100
AcDbEntity
  8
0
100
AcDbEllipse
 62
253
  6
CONTINUOUS
 10
204.8201040934
 20
145.5004669307
 30
0.0
 11
155.4980197021
 21
19.9436194776
 31
0.0
 40
0.1656543968
 41
-1.9585724344
 42
-1.955939658
  0
ELLIPSE
  5
396
100
AcDbEntity
  8
0
100
AcDbEllipse
 62
253
  6
CONTINUOUS
 10
211.5057166878
 20
142.1576606334
 30
0.0
 11
59.4950760314
 21
70.3246339328
 31
0.0
 40
0.4321240599
 41
-3.9964879168
 42
-3.9779941067
  0
ELLIPSE
  5
397
100
AcDbEntity
  8
0
100
AcDbEllipse
 62
253
  6
CONTINUOUS
 10
503.4675129726
 20
279.2918707211
 30
0.0
 11
-370.8955240775
 21
600.1217928067
 31
0.0
 40
0.5587455526
 41
1.5343573794
 42
1.5351003122
  0
ELLIPSE
  5
398
100
AcDbEntity
  8
0
100
AcDbEllipse
 62
253
  6
CONTINUOUS
 10
514.2155309538
 20
273.9178617305
 30
0.0
 11
499.3664838505
 21
308.6256067985
 31
0.0
 40
0.0815200719
 41
2.3216129114
 42
2.3223558652
  0
ELLIPSE
  5
399
100
AcDbEntity
  8
0
100
AcDbEllipse
 62
253
  6
CONTINUOUS
 10
496.1338635826
 20
282.9586954161
 30
0.0
 11
1092.1778391667
 21
-939.1489982908
 31
0.0
 40
0.2545197958
 41
-1.665787243
 42
-1.6656634254
  0
ELLIPSE
  5
39A
100
AcDbEntity
  8
0
100
AcDbEllipse
 62
253
  6
CONTINUOUS
 10
503.4038555048
 20
279.323699455
 30
0.0
 11
-451.4820734721
 21
628.7260578774
 31
0.0
 40
0.5058873875
 41
1.5012166691
 42
1.5018357592
  0
ELLIPSE
  5
39B
100
AcDbEntity
  8
0
100
AcDbEllipse
 62
253
  6
CONTINUOUS
 10
513.1649893273
 20
274.4431325438
 30
0.0
 11
499.3673689262
 21
308.6251840247
 31
0.0
 40
0.081518676
 41
2.3190119364
 42
2.3197548615
  0
ELLIPSE
  5
39C
100
AcDbEntity
  8
0
100
AcDbEllipse
 62
253
  6
CONTINUOUS
 10
503.3109392961
 20
279.3701575594
 30
0.0
 11
-210.82453839
 21
561.7187096843
 31
0.0
 40
0.6567858068
 41
-4.6292772266
 42
-4.6270483909
  0
ELLIPSE
  5
39D
100
AcDbEntity
  8
0
100
AcDbEllipse
 62
253
  6
CONTINUOUS
 10
502.9422335164
 20
279.5545104492
 30
0.0
 11
-370.8955240775
 21
600.1217928067
 31
0.0
 40
0.5587455526
 41
1.5317571723
 42
1.53250008
  0
ELLIPSE
  5
39E
100
AcDbEntity
  8
RACCORDO
100
AcDbEllipse
 62
7
  6
CONTINUOUS
 10
161.9213455621
 20
82.048204232
 30
0.0
 11
-0.2238185272
 21
0.4474870472
 31
0.0
 40
0.6119614214
 41
-3.1701059984
 42
-2.2560086979
  0
ELLIPSE
  5
39F
100
AcDbEntity
  8
RACCORDO
100
AcDbEllipse
 62
7
  6
CONTINUOUS
 10
161.9213455621
 20
119.4602048085
 30
0.0
 11
-0.2235482059
 21
0.4472467618
 31
0.0
 40
0.6127837007
 41
-2.2550219623
 42
-0.6849108682
  0
ELLIPSE
  5
3A0
100
AcDbEntity
  8
RACCORDO
100
AcDbEllipse
 62
7
  6
CONTINUOUS
 10
147.0723455481
 20
126.8847048155
 30
0.0
 11
-0.2238185272
 21
0.4474870472
 31
0.0
 40
0.6119614214
 41
-0.6845271385
 42
0.028513344
  0
ENDSEC
  0
SECTION
  2
OBJECTS
  0
DICTIONARY
  5
C
100
AcDbDictionary
280
0
281
1
  3
ACAD_GROUP
350
D
  3
ACAD_MLINESTYLE
350
17
  3
ACAD_LAYOUT
350
1A
  3
ACAD_PLOTSETTINGS
350
19
  3
ACAD_PLOTSTYLENAME
350
E
  0
DICTIONARY
  5
D
102
{ACAD_REACTORS
330
C
102
}
100
AcDbDictionary
280
0
281
1
  0
ACDBDICTIONARYWDFLT
  5
E
102
{ACAD_REACTORS
330
C
102
}
100
AcDbDictionary
281
1
  3
Normal
350
F
100
AcDbDictionaryWithDefault
340
F
  0
DICTIONARY
  5
17
102
{ACAD_REACTORS
330
C
102
}
100
AcDbDictionary
280
0
281
1
  3
Standard
350
18
  0
DICTIONARY
  5
19
102
{ACAD_REACTORS
330
C
102
}
100
AcDbDictionary
281
1
  0
DICTIONARY
  5
1A
102
{ACAD_REACTORS
330
C
102
}
100
AcDbDictionary
281
1
  3
Model
350
3A1
  3
Layout1
350
3A2
  0
ACDBPLACEHOLDER
  5
F
102
{ACAD_REACTORS
330
E
102
}
  0
MLINESTYLE
  5
18
102
{ACAD_REACTORS
330
17
102
}
100
AcDbMlineStyle
  2
STANDARD
 70
0
  3

 62
256
 51
90.0
 52
90.0
 71
2
 49
0.5
 62
256
  6
BYLAYER
 49
-0.5
 62
256
  6
BYLAYER
  0
LAYOUT
  5
3A1
102
{ACAD_REACTORS
330
1A
102
}
100
AcDbPlotSettings
  1

  2
none_device
  4
ISO_A4_(297.00_x_210.00_MM)
  6

 40
0.0
 41
0.0
 42
0.0
 43
0.0
 44
297.0
 45
210.0
 46
0.0
 47
0.0
 48
0.0
 49
0.0
140
0.0
141
0.0
142
1.0
143
1.0
 70
1024
 72
1
 73
0
 74
0
  7

 75
0
147
1.0
148
0.0
149
0.0
100
AcDbLayout
  1
Model
 70
0
 71
0
 10
0.0
 20
0.0
 11
297.0
 21
210.0
 12
0.0
 22
0.0
 32
0.0
 14
0.0
 24
0.0
 34
0.0
 15
0.0
 25
0.0
 35
0.0
146
0.0
 13
0.0
 23
0.0
 33
0.0
 16
1.0
 26
0.0
 36
0.0
 17
0.0
 27
1.0
 37
0.0
 76
0
330
21B
345
0
346
0
  0
LAYOUT
  5
3A2
102
{ACAD_REACTORS
330
1A
102
}
100
AcDbPlotSettings
  1

  2
none_device
  4
ISO_A4_(297.00_x_210.00_MM)
  6

 40
0.0
 41
0.0
 42
0.0
 43
0.0
 44
297.0
 45
210.0
 46
0.0
 47
0.0
 48
0.0
 49
0.0
140
0.0
141
0.0
142
1.0
143
1.0
 70
0
 72
1
 73
0
 74
0
  7

 75
0
147
1.0
148
0.0
149
0.0
100
AcDbLayout
  1
Layout1
 70
0
 71
1
 10
0.0
 20
0.0
 11
297.0
 21
210.0
 12
0.0
 22
0.0
 32
0.0
 14
0.0
 24
0.0
 34
0.0
 15
0.0
 25
0.0
 35
0.0
146
0.0
 13
0.0
 23
0.0
 33
0.0
 16
1.0
 26
0.0
 36
0.0
 17
0.0
 27
1.0
 37
0.0
 76
0
330
21C
345
0
346
0
  0
ENDSEC
  0
EOF
