  0
SECTION
  2
HEADER
  9
$ACADVER
  1
AC1021
  9
$DWGCODEPAGE
  3
ANSI_1252
  9
$EXTMAX
 10
297.0
 20
210.0
 30
0.0
  9
$EXTMIN
 10
0.0
 20
0.0
 30
0.0
  9
$LIMMIN
 10
0.0
 20
0.0
  9
$LIMMAX
 10
297.0
 20
210.0
  9
$VIEWCTR
 10
148.5
 20
105.0
  9
$VIEWSIZE
 40
210.0
  9
$CLAYER
  8
0
  9
$LTSCALE
 40
16.335
  9
$CELTYPE
  6
BYLAYER
  9
$DIMSCALE
 40
1.0
  9
$DIMASZ
 40
3.0
  9
$DIMEXO
 40
0.5
  9
$DIMDLI
 40
11.286
  9
$DIMEXE
 40
1.5
  9
$DIMCEN
 40
2.673
  9
$DIMLFAC
 40
1.0
  9
$DIMBLK
  1
_FILLED
  9
$DIMALT
 70
0
  9
$DIMALTF
 40
0.0393700787
  9
$DIMTXT
 40
3.0
  9
$DIMTOL
 70
1
  9
$DIMLIM
 70
0
  9
$DIMTFAC
 40
1.0
  9
$DIMTP
 40
0.01
  9
$DIMTM
 40
0.01
  9
$DIMGAP
 40
0.625
  9
$DIMDSEP
 70
44
  9
$AUNITS
 70
0
  9
$PDMODE
 70
3
  9
$PDSIZE
 40
3.0
  9
$HANDSEED
  5
4DB
  9
$TILEMODE
 70
1
  9
$MEASUREMENT
 70
1
  9
$INSUNITS
 70
4
  0
ENDSEC
  0
SECTION
  2
CLASSES
  0
CLASS
  1
ACDBDICTIONARYWDFLT
  2
AcDbDictionaryWithDefault
  3
AutoCAD 2000
 90
0
 91
1
280
0
281
0
  0
CLASS
  1
ACDBPLACEHOLDER
  2
AcDbPlaceHolder
  3
AutoCAD 2000
 90
0
 91
1
280
0
281
0
  0
CLASS
  1
LAYOUT
  2
AcDbLayout
  3
AutoCAD 2000
 90
0
 91
0
280
0
281
0
  0
ENDSEC
  0
SECTION
  2
TABLES
  0
TABLE
  2
VPORT
  5
8
100
AcDbSymbolTable
 70
2
  0
VPORT
  5
1F4
100
AcDbSymbolTableRecord
100
AcDbViewportTableRecord
  2
*ACTIVE
 70
0
 10
0.0
 20
0.0
 11
1.0
 21
1.0
 12
148.5
 22
105.0
 13
0.0
 23
0.0
 14
1.0
 24
1.0
 15
0.0
 25
0.0
 16
0.0
 26
0.0
 36
1.0
 17
0.0
 27
0.0
 37
0.0
 40
210.0
 41
1.4142857143
 42
50.0
 43
0.0
 44
0.0
 50
0.0
 51
0.0
 71
0
 72
100
 73
1
 74
1
 75
0
 76
0
 77
0
 78
0
  0
ENDTAB
  0
TABLE
  2
LTYPE
  5
5
100
AcDbSymbolTable
 70
6
  0
LTYPE
  5
14
100
AcDbSymbolTableRecord
100
AcDbLinetypeTableRecord
  2
BYBLOCK
 70
0
  3

 72
65
 73
0
 40
0.0
  0
LTYPE
  5
15
100
AcDbSymbolTableRecord
100
AcDbLinetypeTableRecord
  2
BYLAYER
 70
0
  3

 72
65
 73
0
 40
0.0
  0
LTYPE
  5
16
100
AcDbSymbolTableRecord
100
AcDbLinetypeTableRecord
  2
CONTINUOUS
 70
64
  3
Solid line
 72
65
 73
0
 40
0.0
  0
LTYPE
  5
1F5
100
AcDbSymbolTableRecord
100
AcDbLinetypeTableRecord
  2
CENTER
 70
64
  3
____ _ ____ _ ____ _ ____ _ ____ _ ____ _ ____
 72
65
 73
4
 40
0.6
 49
0.375
 74
0
 49
-0.075
 74
0
 49
0.075
 74
0
 49
-0.075
 74
0
  0
LTYPE
  5
1F6
100
AcDbSymbolTableRecord
100
AcDbLinetypeTableRecord
  2
HIDDEN
 70
64
  3
- - - - - - - - - - - - - - - - - - - -
 72
65
 73
2
 40
0.2
 49
0.1
 74
0
 49
-0.1
 74
0
  0
LTYPE
  5
1F7
100
AcDbSymbolTableRecord
100
AcDbLinetypeTableRecord
  2
PHANTOM
 70
64
  3
_____ _ _ _____ _ _ _____ _ _ _____
 72
65
 73
6
 40
0.8
 49
0.45
 74
0
 49
-0.05
 74
0
 49
0.1
 74
0
 49
-0.05
 74
0
 49
0.1
 74
0
 49
-0.05
 74
0
  0
LTYPE
  5
1F8
100
AcDbSymbolTableRecord
100
AcDbLinetypeTableRecord
  2
DOT
 70
64
  3
. . . . . . . . . . . . . . . . . . . .
 72
65
 73
2
 40
0.2
 49
0.1
 74
0
 49
-0.1
 74
0
  0
LTYPE
  5
1F9
100
AcDbSymbolTableRecord
100
AcDbLinetypeTableRecord
  2
DASHED
 70
64
  3
- - - - - - - - - - - - - - - - - - - -
 72
65
 73
2
 40
0.2
 49
0.1
 74
0
 49
-0.1
 74
0
  0
ENDTAB
  0
TABLE
  2
LAYER
  5
2
100
AcDbSymbolTable
 70
36
  0
LAYER
  5
10
100
AcDbSymbolTableRecord
100
AcDbLayerTableRecord
  2
0
 70
0
 62
7
  6
CONTINUOUS
370
-3
390
F
  0
LAYER
  5
1FA
100
AcDbSymbolTableRecord
100
AcDbLayerTableRecord
  2
DEFAULT_1
 70
0
 62
7
  6
CENTER
370
-3
390
F
  0
LAYER
  5
1FB
100
AcDbSymbolTableRecord
100
AcDbLayerTableRecord
  2
DEFAULT_2
 70
0
 62
7
  6
HIDDEN
370
-3
390
F
  0
LAYER
  5
1FC
100
AcDbSymbolTableRecord
100
AcDbLayerTableRecord
  2
DEFAULT_3
 70
0
 62
7
  6
PHANTOM
370
-3
390
F
  0
LAYER
  5
1FD
100
AcDbSymbolTableRecord
100
AcDbLayerTableRecord
  2
ASSI
 70
0
 62
7
  6
CONTINUOUS
370
-3
390
F
  0
LAYER
  5
1FE
100
AcDbSymbolTableRecord
100
AcDbLayerTableRecord
  2
COORDINATE
 70
0
 62
7
  6
CONTINUOUS
370
-3
390
F
  0
LAYER
  5
1FF
100
AcDbSymbolTableRecord
100
AcDbLayerTableRecord
  2
COORD_ORIGINE
 70
0
 62
7
  6
CONTINUOUS
370
-3
390
F
  0
LAYER
  5
200
100
AcDbSymbolTableRecord
100
AcDbLayerTableRecord
  2
COPY_GEOM
 70
0
 62
7
  6
CONTINUOUS
370
-3
390
F
  0
LAYER
  5
201
100
AcDbSymbolTableRecord
100
AcDbLayerTableRecord
  2
COPY_PUBLISH
 70
0
 62
7
  6
CONTINUOUS
370
-3
390
F
  0
LAYER
  5
202
100
AcDbSymbolTableRecord
100
AcDbLayerTableRecord
  2
COSMETICI
 70
0
 62
7
  6
CONTINUOUS
370
-3
390
F
  0
LAYER
  5
203
100
AcDbSymbolTableRecord
100
AcDbLayerTableRecord
  2
CURVE
 70
0
 62
7
  6
CONTINUOUS
370
-3
390
F
  0
LAYER
  5
204
100
AcDbSymbolTableRecord
100
AcDbLayerTableRecord
  2
DRAFT
 70
0
 62
7
  6
CONTINUOUS
370
-3
390
F
  0
LAYER
  5
205
100
AcDbSymbolTableRecord
100
AcDbLayerTableRecord
  2
IGS
 70
0
 62
7
  6
CONTINUOUS
370
-3
390
F
  0
LAYER
  5
206
100
AcDbSymbolTableRecord
100
AcDbLayerTableRecord
  2
IMPORT_IGES
 70
0
 62
7
  6
CONTINUOUS
370
-3
390
F
  0
LAYER
  5
207
100
AcDbSymbolTableRecord
100
AcDbLayerTableRecord
  2
INTF_MAGENTA
 70
0
 62
7
  6
CONTINUOUS
370
-3
390
F
  0
LAYER
  5
208
100
AcDbSymbolTableRecord
100
AcDbLayerTableRecord
  2
NOTE
 70
0
 62
7
  6
CONTINUOUS
370
-3
390
F
  0
LAYER
  5
209
100
AcDbSymbolTableRecord
100
AcDbLayerTableRecord
  2
PIANI
 70
0
 62
7
  6
CONTINUOUS
370
-3
390
F
  0
LAYER
  5
20A
100
AcDbSymbolTableRecord
100
AcDbLayerTableRecord
  2
PIANI_ORIGINE
 70
0
 62
7
  6
CONTINUOUS
370
-3
390
F
  0
LAYER
  5
20B
100
AcDbSymbolTableRecord
100
AcDbLayerTableRecord
  2
PIANI_RIFERIMENTO
 70
0
 62
7
  6
CONTINUOUS
370
-3
390
F
  0
LAYER
  5
20C
100
AcDbSymbolTableRecord
100
AcDbLayerTableRecord
  2
PUNTI
 70
0
 62
7
  6
CONTINUOUS
370
-3
390
F
  0
LAYER
  5
20D
100
AcDbSymbolTableRecord
100
AcDbLayerTableRecord
  2
RACCORDO
 70
0
 62
7
  6
CONTINUOUS
370
-3
390
F
  0
LAYER
  5
20E
100
AcDbSymbolTableRecord
100
AcDbLayerTableRecord
  2
SIMBOLI
 70
0
 62
7
  6
CONTINUOUS
370
-3
390
F
  0
LAYER
  5
20F
100
AcDbSymbolTableRecord
100
AcDbLayerTableRecord
  2
SMUSSO
 70
0
 62
7
  6
CONTINUOUS
370
-3
390
F
  0
LAYER
  5
210
100
AcDbSymbolTableRecord
100
AcDbLayerTableRecord
  2
SNAPLINE
 70
0
 62
7
  6
CONTINUOUS
370
-3
390
F
  0
LAYER
  5
211
100
AcDbSymbolTableRecord
100
AcDbLayerTableRecord
  2
STANDARD
 70
0
 62
7
  6
CONTINUOUS
370
-3
390
F
  0
LAYER
  5
212
100
AcDbSymbolTableRecord
100
AcDbLayerTableRecord
  2
SUPERFICI
 70
0
 62
7
  6
CONTINUOUS
370
-3
390
F
  0
LAYER
  5
213
100
AcDbSymbolTableRecord
100
AcDbLayerTableRecord
  2
SUP_ARANCIONE
 70
0
 62
7
  6
CONTINUOUS
370
-3
390
F
  0
LAYER
  5
214
100
AcDbSymbolTableRecord
100
AcDbLayerTableRecord
  2
SUP_DIFF
 70
0
 62
7
  6
CONTINUOUS
370
-3
390
F
  0
LAYER
  5
215
100
AcDbSymbolTableRecord
100
AcDbLayerTableRecord
  2
SUP_ROSSA
 70
0
 62
7
  6
CONTINUOUS
370
-3
390
F
  0
LAYER
  5
216
100
AcDbSymbolTableRecord
100
AcDbLayerTableRecord
  2
SUP_VERDE
 70
0
 62
7
  6
CONTINUOUS
370
-3
390
F
  0
LAYER
  5
217
100
AcDbSymbolTableRecord
100
AcDbLayerTableRecord
  2
TRASH
 70
0
 62
7
  6
CONTINUOUS
370
-3
390
F
  0
LAYER
  5
218
100
AcDbSymbolTableRecord
100
AcDbLayerTableRecord
  2
XSEC_DATUMS
 70
0
 62
7
  6
CONTINUOUS
370
-3
390
F
  0
ENDTAB
  0
TABLE
  2
STYLE
  5
3
100
AcDbSymbolTable
 70
1
  0
STYLE
  5
11
100
AcDbSymbolTableRecord
100
AcDbTextStyleTableRecord
  2
STANDARD
 70
0
 40
0.0
 41
0.8
 50
0.0
 71
0
 42
0.2
  3
txt
  4

  0
STYLE
  5
219
100
AcDbSymbolTableRecord
100
AcDbTextStyleTableRecord
  2
TEXTSTYLE_1
 70
0
 40
0.0
 41
0.8
 50
0.0
 71
0
 42
0.2
  3
gdt
  4

  0
ENDTAB
  0
TABLE
  2
VIEW
  5
6
100
AcDbSymbolTable
 70
0
  0
ENDTAB
  0
TABLE
  2
UCS
  5
7
100
AcDbSymbolTable
 70
0
  0
ENDTAB
  0
TABLE
  2
APPID
  5
9
100
AcDbSymbolTable
 70
1
  0
APPID
  5
21A
100
AcDbSymbolTableRecord
100
AcDbRegAppTableRecord
  2
ACAD
 70
0
  0
ENDTAB
  0
TABLE
  2
BLOCK_RECORD
  5
1
100
AcDbSymbolTable
 70
0
  0
BLOCK_RECORD
  5
21B
100
AcDbSymbolTableRecord
100
AcDbBlockTableRecord
  2
*Model_Space
  0
BLOCK_RECORD
  5
21C
100
AcDbSymbolTableRecord
100
AcDbBlockTableRecord
  2
*Paper_Space
  0
ENDTAB
  0
TABLE
  2
DIMSTYLE
  5
A
100
AcDbSymbolTable
 70
1
100
AcDbDimStyleTable
 71
0
  0
DIMSTYLE
105
21D
100
AcDbSymbolTableRecord
100
AcDbDimStyleTableRecord
  2
STANDARD
 70
0
  3

  4

 40
1.0
 41
3.0
 42
0.5
 43
0.38
 44
1.5
 45
0.0
 46
0.0
 47
0.01
 48
0.01
140
3.0
141
0.09
142
0.0
143
25.4
144
1.0
145
0.0
146
1.0
147
0.625
 71
1.0
 72
0.0
 73
0
 74
0
 75
0
 76
0
 77
1
 78
8
170
0
171
2
172
0
173
0
174
0
175
0
176
0
177
0
178
0
270
2
271
2
272
2
273
2
274
2
275
0
280
0
281
0
282
0
283
1
284
8
285
0
286
0
287
3
288
0
340
11
278
44
  0
ENDTAB
  0
ENDSEC
  0
SECTION
  2
BLOCKS
  0
BLOCK
  5
20
100
AcDbEntity
  8
0
100
AcDbBlockBegin
  2
*Model_Space
 70
0
 10
0.0
 20
0.0
 30
0.0
  3
*Model_Space
  1

  0
ENDBLK
  5
21
100
AcDbEntity
  8
0
100
AcDbBlockEnd
  0
BLOCK
  5
1C
100
AcDbEntity
  8
0
100
AcDbBlockBegin
  2
*Paper_Space
 70
0
 10
0.0
 20
0.0
 30
0.0
  3
*Paper_Space
  1

  0
ENDBLK
  5
1D
100
AcDbEntity
  8
0
100
AcDbBlockEnd
  0
ENDSEC
  0
SECTION
  2
ENTITIES
  0
LWPOLYLINE
  5
21E
100
AcDbEntity
  8
ASSI
100
AcDbPolyline
 62
7
  6
CONTINUOUS
 90
13
 70
0
 10
144.2467578475
 20
130.5046394591
 10
144.1740394298
 20
130.4594373355
 10
144.1082173528
 20
130.4102236475
 10
144.0455168027
 20
130.3550434564
 10
143.9861967251
 20
130.2942759362
 10
143.9309110044
 20
130.2287472468
 10
143.8796836541
 20
130.1586535307
 10
143.8326967204
 20
130.0842496209
 10
143.7907232929
 20
130.0067596465
 10
143.7538574676
 20
129.926485432
 10
143.7223060751
 20
129.8436787179
 10
143.696629288
 20
129.759676304
 10
143.6770179544
 20
129.6750449218
  0
LWPOLYLINE
  5
21F
100
AcDbEntity
  8
RACCORDO
100
AcDbPolyline
 62
7
  6
CONTINUOUS
 90
13
 70
0
 10
144.2467586569
 20
130.5046399114
 10
144.1745766027
 20
130.4598052537
 10
144.1086541972
 20
130.4105784519
 10
144.0458537009
 20
130.355363567
 10
143.9864369779
 20
130.2945407516
 10
143.9310627208
 20
130.2289404469
 10
143.8797550909
 20
130.1587585888
 10
143.8326975099
 20
130.0842509694
 10
143.7906681662
 20
130.0066493237
 10
143.7537615333
 20
129.9262568819
 10
143.7221852557
 20
129.8433263206
 10
143.6965021384
 20
129.7592027178
 10
143.6769034129
 20
129.6744561235
  0
LINE
  5
220
100
AcDbEntity
  8
ASSI
100
AcDbLine
 62
7
  6
CONTINUOUS
 10
144.2466292397
 20
130.5045809906
 11
146.9818780383
 21
132.0358376255
  0
LINE
  5
221
100
AcDbEntity
  8
RACCORDO
100
AcDbLine
 62
7
  6
CONTINUOUS
 10
144.2466292397
 20
130.5045809906
 11
146.9818780383
 21
132.0358376255
  0
LINE
  5
222
100
AcDbEntity
  8
ASSI
100
AcDbLine
 62
253
  6
CONTINUOUS
 10
144.481617361
 20
130.4965320086
 11
147.2131704093
 21
132.0257196756
  0
LINE
  5
223
100
AcDbEntity
  8
RACCORDO
100
AcDbLine
 62
253
  6
CONTINUOUS
 10
144.481617361
 20
130.4965320086
 11
147.2131704093
 21
132.0257196756
  0
LWPOLYLINE
  5
224
100
AcDbEntity
  8
RACCORDO
100
AcDbPolyline
 62
253
  6
CONTINUOUS
 90
8
 70
0
 10
144.2467529255
 20
130.5046501719
 10
144.2702853388
 20
130.5157556398
 10
144.3015875154
 20
130.5250716843
 10
144.3349617286
 20
130.529387551
 10
144.3700426418
 20
130.5286559955
 10
144.4064462363
 20
130.5228850258
 10
144.4437740142
 20
130.5121378148
 10
144.481617361
 20
130.4965320086
  0
LWPOLYLINE
  5
225
100
AcDbEntity
  8
ASSI
100
AcDbPolyline
 62
253
  6
CONTINUOUS
 90
8
 70
0
 10
144.2467521161
 20
130.5046497196
 10
144.2702853388
 20
130.5157556398
 10
144.3015875154
 20
130.5250716843
 10
144.3349617286
 20
130.529387551
 10
144.3700426418
 20
130.5286559955
 10
144.4064462363
 20
130.5228850258
 10
144.4437740142
 20
130.5121378148
 10
144.481617361
 20
130.4965320086
  0
LWPOLYLINE
  5
226
100
AcDbEntity
  8
ASSI
100
AcDbPolyline
 62
7
  6
CONTINUOUS
 90
11
 70
0
 10
158.7493343635
 20
85.0304761927
 10
158.7760523391
 20
85.0177935564
 10
158.8321121727
 20
84.9954789746
 10
158.8904846619
 20
84.9779020347
 10
158.9506787074
 20
84.965318025
 10
159.012369399
 20
84.9578892736
 10
159.0754561522
 20
84.9557532497
 10
159.1395752669
 20
84.9590571676
 10
159.2042828127
 20
84.9679045918
 10
159.2694658158
 20
84.9824379457
 10
159.3348879074
 20
85.0028060787
  0
LWPOLYLINE
  5
227
100
AcDbEntity
  8
RACCORDO
100
AcDbPolyline
 62
7
  6
CONTINUOUS
 90
11
 70
0
 10
158.7493318562
 20
85.0304774503
 10
158.7759550863
 20
85.0178372288
 10
158.8320748527
 20
84.9954920005
 10
158.8905142422
 20
84.9778945034
 10
158.9507813367
 20
84.9653011531
 10
159.0125494098
 20
84.9578754296
 10
159.0757152495
 20
84.9557555832
 10
159.1399138518
 20
84.9590890744
 10
159.2046998207
 20
84.96797956
 10
159.2699578924
 20
84.9825693685
 10
159.3351761583
 20
85.0029211394
  0
LINE
  5
228
100
AcDbEntity
  8
RACCORDO
100
AcDbLine
 62
7
  6
CONTINUOUS
 10
144.0594554385
 20
92.3754153355
 11
144.058527521
 21
92.3758776493
  0
LINE
  5
229
100
AcDbEntity
  8
ASSI
100
AcDbLine
 62
7
  6
CONTINUOUS
 10
144.058527521
 20
92.3758776493
 11
158.7498813123
 21
85.0302007537
  0
LINE
  5
22A
100
AcDbEntity
  8
ASSI
100
AcDbLine
 62
253
  6
CONTINUOUS
 10
143.8097619015
 20
92.7905086732
 11
158.4945167923
 21
85.4481312278
  0
LINE
  5
22B
100
AcDbEntity
  8
RACCORDO
100
AcDbLine
 62
253
  6
CONTINUOUS
 10
143.8097619015
 20
92.7905086732
 11
158.4945167923
 21
85.4481312278
  0
LINE
  5
22C
100
AcDbEntity
  8
ASSI
100
AcDbLine
 62
7
  6
CONTINUOUS
 10
158.7493939336
 20
85.0304448745
 11
158.7498812539
 21
85.0302007829
  0
LINE
  5
22D
100
AcDbEntity
  8
RACCORDO
100
AcDbLine
 62
7
  6
CONTINUOUS
 10
158.7493914182
 20
85.0304461366
 11
158.7498812539
 21
85.0302007829
  0
LINE
  5
22E
100
AcDbEntity
  8
ASSI
100
AcDbLine
 62
253
  6
CONTINUOUS
 10
144.058527521
 20
92.3758776493
 11
144.0376205227
 21
92.3871951412
  0
LINE
  5
22F
100
AcDbEntity
  8
RACCORDO
100
AcDbLine
 62
253
  6
CONTINUOUS
 10
144.058527521
 20
92.3758776493
 11
144.0376205227
 21
92.3871951412
  0
LINE
  5
230
100
AcDbEntity
  8
ASSI
100
AcDbLine
 62
7
  6
CONTINUOUS
 10
143.9911326869
 20
92.4145552024
 11
144.0593922462
 21
92.3754488135
  0
LWPOLYLINE
  5
231
100
AcDbEntity
  8
ASSI
100
AcDbPolyline
 62
253
  6
CONTINUOUS
 90
10
 70
0
 10
144.0376205227
 20
92.3871951412
 10
143.9985179686
 20
92.4135057628
 10
143.9624308145
 20
92.4449795221
 10
143.9295686006
 20
92.481431958
 10
143.9001301742
 20
92.5226449903
 10
143.8742970385
 20
92.5683690181
 10
143.8522216473
 20
92.6183299277
 10
143.8340366648
 20
92.6722270091
 10
143.8198546074
 20
92.7297352903
 10
143.8097619015
 20
92.7905086732
  0
LWPOLYLINE
  5
232
100
AcDbEntity
  8
RACCORDO
100
AcDbPolyline
 62
253
  6
CONTINUOUS
 90
10
 70
0
 10
144.0376205227
 20
92.3871951412
 10
143.9985179686
 20
92.4135057628
 10
143.9624308145
 20
92.4449795221
 10
143.9295686006
 20
92.481431958
 10
143.9001301742
 20
92.5226449903
 10
143.8742970385
 20
92.5683690181
 10
143.8522216473
 20
92.6183299277
 10
143.8340366648
 20
92.6722270091
 10
143.8198546074
 20
92.7297352903
 10
143.8097619015
 20
92.7905086732
  0
LWPOLYLINE
  5
233
100
AcDbEntity
  8
RACCORDO
100
AcDbPolyline
 62
7
  6
CONTINUOUS
 90
3
 70
0
 10
143.933623207
 20
92.4565247495
 10
143.9918640737
 20
92.4140784652
 10
144.0593893135
 20
92.3754502688
  0
LWPOLYLINE
  5
234
100
AcDbEntity
  8
RACCORDO
100
AcDbPolyline
 62
253
  6
CONTINUOUS
 90
3
 70
0
 10
154.8078670817
 20
92.4092461441
 10
154.7843957723
 20
92.4121141729
 10
154.7698191643
 20
92.4155798425
  0
LINE
  5
235
100
AcDbEntity
  8
ASSI
100
AcDbLine
 62
253
  6
CONTINUOUS
 10
154.7843957723
 20
92.4121141729
 11
154.7698191643
 21
92.4155798425
  0
LWPOLYLINE
  5
236
100
AcDbEntity
  8
RACCORDO
100
AcDbPolyline
 62
7
  6
CONTINUOUS
 90
5
 70
0
 10
143.7489121959
 20
92.6854935404
 10
143.7871324284
 20
92.6197707057
 10
143.8310629982
 20
92.5593807042
 10
143.8800874247
 20
92.5048680073
 10
143.933623207
 20
92.4565247495
  0
LWPOLYLINE
  5
237
100
AcDbEntity
  8
RACCORDO
100
AcDbPolyline
 62
7
  6
CONTINUOUS
 90
19
 70
0
 10
154.4590430625
 20
92.4158547914
 10
154.4653609506
 20
92.412758025
 10
154.4835549666
 20
92.4045254433
 10
154.5016344268
 20
92.3973449579
 10
154.5195659098
 20
92.3912039083
 10
154.5373389391
 20
92.3860789846
 10
154.5549581751
 20
92.3819464215
 10
154.5724031579
 20
92.3787926851
 10
154.58964926
 20
92.3766033038
 10
154.6066860459
 20
92.3753621514
 10
154.623482796
 20
92.3750562053
 10
154.6400120253
 20
92.3756704356
 10
154.6562586592
 20
92.3771884295
 10
154.6721910696
 20
92.3795928003
 10
154.6877731628
 20
92.3828636008
 10
154.7029758577
 20
92.3869792638
 10
154.717763238
 20
92.3919126571
 10
154.7321036958
 20
92.3976350055
 10
154.7419898379
 20
92.4021563386
  0
LINE
  5
238
100
AcDbEntity
  8
ASSI
100
AcDbLine
 62
253
  6
CONTINUOUS
 10
154.6402647557
 20
92.3095023325
 11
146.6483740296
 21
96.3054476955
  0
LINE
  5
239
100
AcDbEntity
  8
RACCORDO
100
AcDbLine
 62
253
  6
CONTINUOUS
 10
154.6402647557
 20
92.3095023325
 11
146.6483740296
 21
96.3054476955
  0
LINE
  5
23A
100
AcDbEntity
  8
RACCORDO
100
AcDbLine
 62
7
  6
CONTINUOUS
 10
154.4590364641
 20
92.4158576793
 11
146.5950325738
 21
96.3478596245
  0
LINE
  5
23B
100
AcDbEntity
  8
RACCORDO
100
AcDbLine
 62
253
  6
CONTINUOUS
 10
154.4203554274
 20
92.4873291233
 11
146.5563515374
 21
96.4193310683
  0
LWPOLYLINE
  5
23C
100
AcDbEntity
  8
RACCORDO
100
AcDbPolyline
 62
253
  6
CONTINUOUS
 90
31
 70
0
 10
146.5563515374
 20
96.4193310683
 10
146.5450705064
 20
96.4252684522
 10
146.5338155007
 20
96.4317752094
 10
146.5225865384
 20
96.4388513509
 10
146.5113592464
 20
96.4465143612
 10
146.5001580711
 20
96.4547467992
 10
146.4890562775
 20
96.4634962969
 10
146.4780556972
 20
96.472765592
 10
146.4671546398
 20
96.4825520306
 10
146.4564210989
 20
96.4927951646
 10
146.4458564401
 20
96.5034976862
 10
146.4354594969
 20
96.514657021
 10
146.4252944686
 20
96.5262048233
 10
146.4153627779
 20
96.5381436703
 10
146.4056632444
 20
96.550471128
 10
146.3962561566
 20
96.56311133
 10
146.3871433836
 20
96.5760664044
 10
146.3783233238
 20
96.5893343812
 10
146.3698510413
 20
96.6028332364
 10
146.3617288723
 20
96.6165643866
 10
146.3539547536
 20
96.6305265764
 10
146.346577119
 20
96.6446337562
 10
146.3395984049
 20
96.6588872937
 10
146.3330164336
 20
96.6732859737
 10
146.3268726745
 20
96.6877398468
 10
146.3211696974
 20
96.7022508411
 10
146.315905157
 20
96.7168171604
 10
146.311113093
 20
96.7313432357
 10
146.3068048933
 20
96.7457972345
 10
146.3029693311
 20
96.7602110835
 10
146.2996064926
 20
96.7745848331
  0
LWPOLYLINE
  5
23D
100
AcDbEntity
  8
RACCORDO
100
AcDbPolyline
 62
253
  6
CONTINUOUS
 90
13
 70
0
 10
146.5950325738
 20
96.3478596245
 10
146.5924501376
 20
96.3492359077
 10
146.5869679537
 20
96.3527744804
 10
146.5818621308
 20
96.3569603758
 10
146.5771582402
 20
96.3617726291
 10
146.5728798403
 20
96.3671871386
 10
146.5690483586
 20
96.3731767861
 10
146.5656829841
 20
96.379711573
 10
146.5628005712
 20
96.3867587706
 10
146.5604155558
 20
96.3942830839
 10
146.5585398823
 20
96.4022468283
 10
146.5571829443
 20
96.4106101185
 10
146.5563515374
 20
96.4193310683
  0
LINE
  5
23E
100
AcDbEntity
  8
ASSI
100
AcDbLine
 62
253
  6
CONTINUOUS
 10
146.6483740296
 20
96.3054476955
 11
146.6158742022
 21
96.3234809277
  0
LINE
  5
23F
100
AcDbEntity
  8
RACCORDO
100
AcDbLine
 62
253
  6
CONTINUOUS
 10
146.6483740296
 20
96.3054476955
 11
146.6158742022
 21
96.3234809277
  0
LWPOLYLINE
  5
240
100
AcDbEntity
  8
ASSI
100
AcDbPolyline
 62
253
  6
CONTINUOUS
 90
3
 70
0
 10
146.6158742022
 20
96.3234809277
 10
146.5839487595
 20
96.3443864435
 10
146.5525982638
 20
96.3681645782
  0
LWPOLYLINE
  5
241
100
AcDbEntity
  8
RACCORDO
100
AcDbPolyline
 62
253
  6
CONTINUOUS
 90
3
 70
0
 10
146.6158742022
 20
96.3234809277
 10
146.5839487595
 20
96.3443864435
 10
146.5525982638
 20
96.3681645782
  0
LWPOLYLINE
  5
242
100
AcDbEntity
  8
ASSI
100
AcDbPolyline
 62
253
  6
CONTINUOUS
 90
19
 70
0
 10
143.8097619015
 20
129.414469501
 10
143.8198546676
 20
129.4856085869
 10
143.8340367342
 20
129.5576743296
 10
143.8522216009
 20
129.630234193
 10
143.8742965828
 20
129.7028545112
 10
143.900129026
 20
129.7750981158
 10
143.9295667881
 20
129.8465270084
 10
143.9624285978
 20
129.9167120018
 10
143.9985154934
 20
129.9852342531
 10
144.0376178379
 20
130.0516825437
 10
144.0794969172
 20
130.1156595252
 10
144.1238986313
 20
130.1767821072
 10
144.1705657763
 20
130.2346820833
 10
144.2192156993
 20
130.289014553
 10
144.2695515021
 20
130.3394524082
 10
144.3212766313
 20
130.3856861971
 10
144.3740793836
 20
130.4274373979
 10
144.4276350035
 20
130.4644595441
 10
144.481617361
 20
130.4965320086
  0
LWPOLYLINE
  5
243
100
AcDbEntity
  8
RACCORDO
100
AcDbPolyline
 62
253
  6
CONTINUOUS
 90
19
 70
0
 10
143.8097619015
 20
129.414469501
 10
143.8198546676
 20
129.4856085869
 10
143.8340367342
 20
129.5576743296
 10
143.8522216009
 20
129.630234193
 10
143.8742965828
 20
129.7028545112
 10
143.900129026
 20
129.7750981158
 10
143.9295667881
 20
129.8465270084
 10
143.9624285978
 20
129.9167120018
 10
143.9985154934
 20
129.9852342531
 10
144.0376178379
 20
130.0516825437
 10
144.0794969172
 20
130.1156595252
 10
144.1238986313
 20
130.1767821072
 10
144.1705657763
 20
130.2346820833
 10
144.2192156993
 20
130.289014553
 10
144.2695515021
 20
130.3394524082
 10
144.3212766313
 20
130.3856861971
 10
144.3740793836
 20
130.4274373979
 10
144.4276350035
 20
130.4644595441
 10
144.481617361
 20
130.4965320086
  0
LINE
  5
244
100
AcDbEntity
  8
RACCORDO
100
AcDbLine
 62
7
  6
CONTINUOUS
 10
143.6769034129
 20
129.6744561235
 11
143.6625213602
 21
129.5806865771
  0
LWPOLYLINE
  5
245
100
AcDbEntity
  8
ASSI
100
AcDbPolyline
 62
7
  6
CONTINUOUS
 90
3
 70
0
 10
143.6770179544
 20
129.6750449218
 10
143.6635637876
 20
129.5896575089
 10
143.6625214804
 20
129.5806876633
  0
LWPOLYLINE
  5
246
100
AcDbEntity
  8
RACCORDO
100
AcDbPolyline
 62
253
  6
CONTINUOUS
 90
13
 70
0
 10
154.4590364641
 20
92.4158576793
 10
154.4564540899
 20
92.4172339274
 10
154.450971903
 20
92.4207724922
 10
154.4458660755
 20
92.4249583807
 10
154.4411621792
 20
92.4297706285
 10
154.4368837726
 20
92.4351851344
 10
154.4330522835
 20
92.4411747807
 10
154.4296869013
 20
92.4477095692
 10
154.426804481
 20
92.4547567715
 10
154.4244194586
 20
92.4622810928
 10
154.4225437792
 20
92.4702448488
 10
154.4211868368
 20
92.4786081544
 10
154.4203554274
 20
92.4873291233
  0
LINE
  5
247
100
AcDbEntity
  8
ASSI
100
AcDbLine
 62
253
  6
CONTINUOUS
 10
146.5525982638
 20
96.3681645782
 11
146.5340012114
 21
96.3842897136
  0
LINE
  5
248
100
AcDbEntity
  8
RACCORDO
100
AcDbLine
 62
253
  6
CONTINUOUS
 10
146.5525982638
 20
96.3681645782
 11
146.5340012114
 21
96.3842897136
  0
LWPOLYLINE
  5
249
100
AcDbEntity
  8
ASSI
100
AcDbPolyline
 62
7
  6
CONTINUOUS
 90
9
 70
0
 10
143.6711921991
 20
92.9163402954
 10
143.6903530466
 20
92.8341063422
 10
143.7164546172
 20
92.7570111563
 10
143.7488106994
 20
92.6856902473
 10
143.7869404442
 20
92.6200653984
 10
143.8307600916
 20
92.5597549757
 10
143.8796563942
 20
92.5053001989
 10
143.9330498861
 20
92.4569911253
 10
143.9911326869
 20
92.4145552024
  0
LWPOLYLINE
  5
24A
100
AcDbEntity
  8
RACCORDO
100
AcDbPolyline
 62
7
  6
CONTINUOUS
 90
4
 70
0
 10
143.6711711107
 20
92.9164759712
 10
143.6903364127
 20
92.8341647735
 10
143.7164858587
 20
92.7569321125
 10
143.7489121959
 20
92.6854935404
  0
LWPOLYLINE
  5
24B
100
AcDbEntity
  8
RACCORDO
100
AcDbPolyline
 62
253
  6
CONTINUOUS
 90
8
 70
0
 10
143.6634551826
 20
92.9660429183
 10
143.6694672087
 20
92.9380470547
 10
143.6808804766
 20
92.9093470483
 10
143.6973652696
 20
92.8819213317
 10
143.7187468761
 20
92.8560605717
 10
143.7447986868
 20
92.8320388495
 10
143.7752445957
 20
92.8101107552
 10
143.8097619268
 20
92.7905086905
  0
LWPOLYLINE
  5
24C
100
AcDbEntity
  8
ASSI
100
AcDbPolyline
 62
253
  6
CONTINUOUS
 90
8
 70
0
 10
143.6634546775
 20
92.9660468142
 10
143.6694672087
 20
92.9380470547
 10
143.6808804766
 20
92.9093470483
 10
143.6973652696
 20
92.8819213317
 10
143.7187468761
 20
92.8560605717
 10
143.7447986868
 20
92.8320388495
 10
143.7752445957
 20
92.8101107552
 10
143.8097619268
 20
92.7905086905
  0
LWPOLYLINE
  5
24D
100
AcDbEntity
  8
ASSI
100
AcDbPolyline
 62
253
  6
CONTINUOUS
 90
9
 70
0
 10
142.9883115396
 20
102.697058902
 10
142.9893414423
 20
102.6825252891
 10
142.9953054887
 20
102.6564254581
 10
143.006492039
 20
102.6308367887
 10
143.0227825783
 20
102.6060303785
 10
143.0440045174
 20
102.5822690372
 10
143.0699330221
 20
102.5598045027
 10
143.1002933946
 20
102.538874774
 10
143.134763984
 20
102.5197015896
  0
LWPOLYLINE
  5
24E
100
AcDbEntity
  8
RACCORDO
100
AcDbPolyline
 62
253
  6
CONTINUOUS
 90
9
 70
0
 10
142.9883115396
 20
102.697058902
 10
142.9893414423
 20
102.6825252891
 10
142.9953054887
 20
102.6564254581
 10
143.006492039
 20
102.6308367887
 10
143.0227825783
 20
102.6060303785
 10
143.0440045174
 20
102.5822690372
 10
143.0699330221
 20
102.5598045027
 10
143.1002933946
 20
102.538874774
 10
143.134763984
 20
102.5197015896
  0
LWPOLYLINE
  5
24F
100
AcDbEntity
  8
ASSI
100
AcDbPolyline
 62
253
  6
CONTINUOUS
 90
10
 70
0
 10
143.6625214804
 20
129.5806876633
 10
143.6622977457
 20
129.5783547171
 10
143.6632613415
 20
129.5575076062
 10
143.6694831168
 20
129.5363163917
 10
143.6808971333
 20
129.5150056575
 10
143.6973824256
 20
129.4938012544
 10
143.7187642829
 20
129.4729279064
 10
143.7448161007
 20
129.4526068289
 10
143.7752617824
 20
129.4330533842
 10
143.8097786652
 20
129.4144747992
  0
LWPOLYLINE
  5
250
100
AcDbEntity
  8
RACCORDO
100
AcDbPolyline
 62
253
  6
CONTINUOUS
 90
10
 70
0
 10
143.6625213602
 20
129.5806865771
 10
143.6622977457
 20
129.5783547171
 10
143.6632613415
 20
129.5575076062
 10
143.6694831168
 20
129.5363163917
 10
143.6808971333
 20
129.5150056575
 10
143.6973824256
 20
129.4938012544
 10
143.7187642829
 20
129.4729279064
 10
143.7448161007
 20
129.4526068289
 10
143.7752617824
 20
129.4330533842
 10
143.8097786652
 20
129.4144747992
  0
LWPOLYLINE
  5
251
100
AcDbEntity
  8
RACCORDO
100
AcDbPolyline
 62
7
  6
CONTINUOUS
 90
8
 70
0
 10
143.5415892123
 20
128.4534672625
 10
143.4261659518
 20
127.2631677102
 10
143.3238628644
 20
126.0774505905
 10
143.2347333404
 20
124.8968602659
 10
143.1587958649
 20
123.7216334115
 10
143.0960664219
 20
122.5519878305
 10
143.0465609166
 20
121.3881584185
 10
143.0103001827
 20
120.230703795
  0
LWPOLYLINE
  5
252
100
AcDbEntity
  8
ASSI
100
AcDbPolyline
 62
7
  6
CONTINUOUS
 90
10
 70
0
 10
143.6625217826
 20
129.5808102372
 10
143.5415597691
 20
128.4531927907
 10
143.4261320517
 20
127.262797761
 10
143.3238459873
 20
126.0772419705
 10
143.2347299324
 20
124.8968116276
 10
143.158802364
 20
123.7217433097
 10
143.0960792602
 20
122.5522547423
 10
143.0465765204
 20
121.3885807233
 10
143.0103062133
 20
120.23100011
 10
142.988309745
 20
119.1501961478
  0
LINE
  5
253
100
AcDbEntity
  8
RACCORDO
100
AcDbLine
 62
7
  6
CONTINUOUS
 10
143.6625217827
 20
129.5808102383
 11
143.5415892123
 21
128.4534672625
  0
LINE
  5
254
100
AcDbEntity
  8
ASSI
100
AcDbLine
 62
253
  6
CONTINUOUS
 10
162.0626551221
 20
124.6009773192
 11
159.1841988086
 21
123.1452412848
  0
LINE
  5
255
100
AcDbEntity
  8
RACCORDO
100
AcDbLine
 62
253
  6
CONTINUOUS
 10
162.0626551221
 20
124.6009773192
 11
159.1841988086
 21
123.1452412848
  0
LWPOLYLINE
  5
256
100
AcDbEntity
  8
ASSI
100
AcDbPolyline
 62
253
  6
CONTINUOUS
 90
5
 70
0
 10
154.819666424
 20
95.7946858067
 10
154.8089237829
 20
95.7980252595
 10
154.8006071908
 20
95.8023970595
 10
154.7949644575
 20
95.8076709401
 10
154.7921055033
 20
95.8139788573
  0
LWPOLYLINE
  5
257
100
AcDbEntity
  8
RACCORDO
100
AcDbPolyline
 62
253
  6
CONTINUOUS
 90
5
 70
0
 10
154.819666424
 20
95.7946858067
 10
154.8089237829
 20
95.7980252595
 10
154.8006071908
 20
95.8023970595
 10
154.7949644575
 20
95.8076709401
 10
154.7921055091
 20
95.8139788271
  0
LINE
  5
258
100
AcDbEntity
  8
ASSI
100
AcDbLine
 62
253
  6
CONTINUOUS
 10
146.4403350227
 20
100.3148215676
 11
146.4722715932
 21
100.3006114792
  0
LINE
  5
259
100
AcDbEntity
  8
RACCORDO
100
AcDbLine
 62
253
  6
CONTINUOUS
 10
146.4403350227
 20
100.3148215676
 11
146.4722715932
 21
100.3006114792
  0
LINE
  5
25A
100
AcDbEntity
  8
ASSI
100
AcDbLine
 62
7
  6
CONTINUOUS
 10
146.485746976
 20
100.2546582501
 11
146.4980883831
 21
100.2488431176
  0
LINE
  5
25B
100
AcDbEntity
  8
RACCORDO
100
AcDbLine
 62
7
  6
CONTINUOUS
 10
146.4858633708
 20
100.2546142709
 11
146.4980877366
 21
100.2488434445
  0
LINE
  5
25C
100
AcDbEntity
  8
RACCORDO
100
AcDbLine
 62
253
  6
CONTINUOUS
 10
146.402299132
 20
99.9674791348
 11
154.2641070557
 21
96.036575173
  0
LINE
  5
25D
100
AcDbEntity
  8
RACCORDO
100
AcDbLine
 62
253
  6
CONTINUOUS
 10
146.5073946298
 20
100.1537064583
 11
154.3692025535
 21
96.2228024965
  0
LINE
  5
25E
100
AcDbEntity
  8
ASSI
100
AcDbLine
 62
7
  6
CONTINUOUS
 10
146.4982366494
 20
100.2487803989
 11
154.4925767867
 21
96.2516103302
  0
LINE
  5
25F
100
AcDbEntity
  8
RACCORDO
100
AcDbLine
 62
7
  6
CONTINUOUS
 10
146.4982366494
 20
100.2487803989
 11
154.4925767867
 21
96.2516103302
  0
LINE
  5
260
100
AcDbEntity
  8
ASSI
100
AcDbLine
 62
253
  6
CONTINUOUS
 10
146.4722715932
 20
100.3006114792
 11
154.4666117315
 21
96.30344141
  0
LINE
  5
261
100
AcDbEntity
  8
RACCORDO
100
AcDbLine
 62
253
  6
CONTINUOUS
 10
146.4722715932
 20
100.3006114792
 11
154.4666117315
 21
96.30344141
  0
LWPOLYLINE
  5
262
100
AcDbEntity
  8
RACCORDO
100
AcDbPolyline
 62
253
  6
CONTINUOUS
 90
31
 70
0
 10
154.2641070557
 20
96.036575173
 10
154.2753867242
 20
96.0306260587
 10
154.2866166861
 20
96.02409535
 10
154.2977969596
 20
96.0169830567
 10
154.3089518933
 20
96.0092714695
 10
154.3200572117
 20
96.0009783369
 10
154.3310400146
 20
95.9921568643
 10
154.3418983865
 20
95.9828043301
 10
154.3526343839
 20
95.9729235316
 10
154.3631810755
 20
95.9625759588
 10
154.3735371304
 20
95.9517589533
 10
154.3837040781
 20
95.94047528
 10
154.3936192821
 20
95.9287945665
 10
154.4032813975
 20
95.9167143022
 10
154.4126920106
 20
95.9042371273
 10
154.4217928753
 20
95.8914403921
 10
154.4305822058
 20
95.8783221149
 10
154.4390620542
 20
95.8648844206
 10
154.447179914
 20
95.8512108095
 10
154.4549335644
 20
95.8373000651
 10
154.4623254975
 20
95.8231535499
 10
154.4693102443
 20
95.8088586162
 10
154.4758855099
 20
95.7944140713
 10
154.4820538458
 20
95.7798212464
 10
154.4877770093
 20
95.7651712561
 10
154.4930525389
 20
95.7504623213
 10
154.4978831185
 20
95.7356963417
 10
154.5022381666
 20
95.7209699196
 10
154.5061075303
 20
95.7063152784
 10
154.5095015221
 20
95.6917002815
 10
154.5124202273
 20
95.6771249754
  0
LWPOLYLINE
  5
263
100
AcDbEntity
  8
RACCORDO
100
AcDbPolyline
 62
253
  6
CONTINUOUS
 90
31
 70
0
 10
154.3692025571
 20
96.2228019874
 10
154.3852512779
 20
96.2143031878
 10
154.4012864752
 20
96.2049345464
 10
154.4172705932
 20
96.1947164692
 10
154.4331686646
 20
96.1836713012
 10
154.448949592
 20
96.1718220029
 10
154.4645835473
 20
96.159190695
 10
154.4800394825
 20
96.1458023117
 10
154.4952845309
 20
96.131686053
 10
154.5102860473
 20
96.1168715214
 10
154.5250124272
 20
96.1013894373
 10
154.5394340213
 20
96.0852723187
 10
154.5535213758
 20
96.0685530135
 10
154.5672452878
 20
96.0512654334
 10
154.5805777941
 20
96.033446156
 10
154.5934913632
 20
96.0151321513
 10
154.6059588806
 20
95.9963607748
 10
154.6179551782
 20
95.977171403
 10
154.6294556513
 20
95.9576040699
 10
154.6404358885
 20
95.9376989679
 10
154.6508738953
 20
95.9174973432
 10
154.660748723
 20
95.8970408501
 10
154.6700394684
 20
95.8763709245
 10
154.6787270938
 20
95.8555311169
 10
154.6867937997
 20
95.8345664177
 10
154.6942218205
 20
95.8135214294
 10
154.7009966506
 20
95.7924378385
 10
154.7071060455
 20
95.7713560191
 10
154.7125370241
 20
95.7503176077
 10
154.7172775228
 20
95.7293685236
 10
154.7213174222
 20
95.7085574
  0
LWPOLYLINE
  5
264
100
AcDbEntity
  8
ASSI
100
AcDbPolyline
 62
253
  6
CONTINUOUS
 90
6
 70
0
 10
146.1349844529
 20
100.1370277998
 10
146.1479924562
 20
100.1284915278
 10
146.1627189789
 20
100.1213414216
 10
146.1787251957
 20
100.1157905424
 10
146.1955341488
 20
100.1120042967
 10
146.2079679774
 20
100.1106172469
  0
LWPOLYLINE
  5
265
100
AcDbEntity
  8
RACCORDO
100
AcDbPolyline
 62
253
  6
CONTINUOUS
 90
6
 70
0
 10
146.1349844529
 20
100.1370277998
 10
146.1479924562
 20
100.1284915278
 10
146.1627189789
 20
100.1213414216
 10
146.1787251957
 20
100.1157905424
 10
146.1955341488
 20
100.1120042967
 10
146.2126449599
 20
100.1100955084
  0
LWPOLYLINE
  5
266
100
AcDbEntity
  8
ASSI
100
AcDbPolyline
 62
253
  6
CONTINUOUS
 90
6
 70
0
 10
154.9643949452
 20
92.4660503457
 10
154.9532327208
 20
92.4758596905
 10
154.9445752554
 20
92.4866466295
 10
154.9386880562
 20
92.4980803491
 10
154.9357516718
 20
92.5098101996
 10
154.9358020375
 20
92.5210816834
  0
LWPOLYLINE
  5
267
100
AcDbEntity
  8
RACCORDO
100
AcDbPolyline
 62
253
  6
CONTINUOUS
 90
6
 70
0
 10
154.9643949452
 20
92.4660503457
 10
154.9532327208
 20
92.4758596905
 10
154.9445752554
 20
92.4866466295
 10
154.9386880562
 20
92.4980803491
 10
154.9357516718
 20
92.5098101996
 10
154.9358022954
 20
92.5210836304
  0
LINE
  5
268
100
AcDbEntity
  8
RACCORDO
100
AcDbLine
 62
7
  6
CONTINUOUS
 10
143.6634664852
 20
92.9660443755
 11
143.6711711107
 21
92.9164759712
  0
LINE
  5
269
100
AcDbEntity
  8
ASSI
100
AcDbLine
 62
7
  6
CONTINUOUS
 10
143.66346598
 20
92.9660482712
 11
143.6711711107
 21
92.9164759712
  0
LINE
  5
26A
100
AcDbEntity
  8
RACCORDO
100
AcDbLine
 62
7
  6
CONTINUOUS
 10
143.6634045414
 20
92.9664370772
 11
143.6634551826
 21
92.9660429183
  0
LINE
  5
26B
100
AcDbEntity
  8
ASSI
100
AcDbLine
 62
7
  6
CONTINUOUS
 10
143.6634045411
 20
92.9664370799
 11
143.6634546775
 21
92.9660468142
  0
LINE
  5
26C
100
AcDbEntity
  8
RACCORDO
100
AcDbLine
 62
7
  6
CONTINUOUS
 10
143.5428786084
 20
93.9626961045
 11
143.6634045414
 21
92.9664370772
  0
LWPOLYLINE
  5
26D
100
AcDbEntity
  8
ASSI
100
AcDbPolyline
 62
253
  6
CONTINUOUS
 90
10
 70
0
 10
143.8097619015
 20
92.7905086732
 10
143.6833692584
 20
93.8379231161
 10
143.5697780933
 20
94.8942596749
 10
143.4690126961
 20
95.9592978439
 10
143.3810950337
 20
97.0328150711
 10
143.3060434779
 20
98.1145876105
 10
143.2438728085
 20
99.2043905729
 10
143.1945958975
 20
100.3019968966
 10
143.1582236988
 20
101.4071773902
 10
143.1347639835
 20
102.5197015893
  0
LWPOLYLINE
  5
26E
100
AcDbEntity
  8
RACCORDO
100
AcDbPolyline
 62
253
  6
CONTINUOUS
 90
10
 70
0
 10
143.8097619015
 20
92.7905086732
 10
143.6833692584
 20
93.8379231161
 10
143.5697780933
 20
94.8942596749
 10
143.4690126961
 20
95.9592978439
 10
143.3810950337
 20
97.0328150711
 10
143.3060434779
 20
98.1145876105
 10
143.2438728085
 20
99.2043905729
 10
143.1945958975
 20
100.3019968966
 10
143.1582236988
 20
101.4071773902
 10
143.1347639835
 20
102.5197015893
  0
LWPOLYLINE
  5
26F
100
AcDbEntity
  8
ASSI
100
AcDbPolyline
 62
253
  6
CONTINUOUS
 90
9
 70
0
 10
142.988309745
 20
119.1501961478
 10
142.9893414679
 20
119.1326307929
 10
142.9953055156
 20
119.1076165868
 10
143.0064920668
 20
119.0829740886
 10
143.0227826064
 20
119.0589643717
 10
143.0440045454
 20
119.0358418052
 10
143.0699330495
 20
119.0138513596
 10
143.100293421
 20
118.993226011
 10
143.134764009
 20
118.9741842734
  0
LWPOLYLINE
  5
270
100
AcDbEntity
  8
RACCORDO
100
AcDbPolyline
 62
253
  6
CONTINUOUS
 90
9
 70
0
 10
142.988309745
 20
119.1501961461
 10
142.9893414679
 20
119.1326307929
 10
142.9953055156
 20
119.1076165868
 10
143.0064920668
 20
119.0829740886
 10
143.0227826064
 20
119.0589643717
 10
143.0440045454
 20
119.0358418052
 10
143.0699330495
 20
119.0138513596
 10
143.100293421
 20
118.993226011
 10
143.134764009
 20
118.9741842734
  0
LWPOLYLINE
  5
271
100
AcDbEntity
  8
RACCORDO
100
AcDbPolyline
 62
7
  6
CONTINUOUS
 90
8
 70
0
 10
143.0104624751
 20
101.6335763692
 10
143.0468136644
 20
100.5137172487
 10
143.0964252403
 20
99.401280024
 10
143.1592816336
 20
98.2967769143
 10
143.2353713789
 20
97.2004285861
 10
143.324683
 20
96.1124368978
 10
143.4272026615
 20
95.0330202654
 10
143.5428786084
 20
93.9626961045
  0
LWPOLYLINE
  5
272
100
AcDbEntity
  8
ASSI
100
AcDbPolyline
 62
7
  6
CONTINUOUS
 90
10
 70
0
 10
142.9883115518
 20
102.6970590592
 10
143.0104678677
 20
101.6333174642
 10
143.0468270477
 20
100.5133697153
 10
143.096435154
 20
99.4010846106
 10
143.1592844999
 20
98.2967315133
 10
143.2353636242
 20
97.2005309984
 10
143.3246610546
 20
96.1126848526
 10
143.4271629625
 20
95.033411401
 10
143.5428455535
 20
93.9629693344
 10
143.6634045411
 20
92.9664370799
  0
LINE
  5
273
100
AcDbEntity
  8
RACCORDO
100
AcDbLine
 62
7
  6
CONTINUOUS
 10
142.9883115518
 20
102.6970590612
 11
143.0104624751
 21
101.6335763692
  0
LINE
  5
274
100
AcDbEntity
  8
RACCORDO
100
AcDbLine
 62
7
  6
CONTINUOUS
 10
142.9644123873
 20
104.4572497159
 11
142.9883115396
 21
102.697058902
  0
LWPOLYLINE
  5
275
100
AcDbEntity
  8
ASSI
100
AcDbPolyline
 62
253
  6
CONTINUOUS
 90
10
 70
0
 10
143.1347639835
 20
102.5197015893
 10
143.1102094493
 20
104.3349624699
 10
143.0917937621
 20
106.1535346699
 10
143.0795168754
 20
107.9753855617
 10
143.0733786731
 20
109.800457687
 10
143.0733786699
 20
111.6287430034
 10
143.0795168668
 20
113.4602833132
 10
143.0917937508
 20
115.29507106
 10
143.1102094402
 20
117.1330489026
 10
143.1347639835
 20
118.9741842612
  0
LWPOLYLINE
  5
276
100
AcDbEntity
  8
RACCORDO
100
AcDbPolyline
 62
253
  6
CONTINUOUS
 90
10
 70
0
 10
143.1347639835
 20
102.5197015893
 10
143.1102094493
 20
104.3349624699
 10
143.0917937621
 20
106.1535346699
 10
143.0795168754
 20
107.9753855617
 10
143.0733786731
 20
109.800457687
 10
143.0733786699
 20
111.6287430034
 10
143.0795168668
 20
113.4602833132
 10
143.0917937508
 20
115.29507106
 10
143.1102094402
 20
117.1330489026
 10
143.1347639835
 20
118.9741842612
  0
LWPOLYLINE
  5
277
100
AcDbEntity
  8
RACCORDO
100
AcDbPolyline
 62
7
  6
CONTINUOUS
 90
8
 70
0
 10
142.9643426504
 20
117.3590467086
 10
142.9456377756
 20
115.5063536665
 10
142.9331691718
 20
113.6566044615
 10
142.9269397605
 20
111.810088056
 10
142.9269496522
 20
109.9668360193
 10
142.9331989028
 20
108.1268774493
 10
142.9456875158
 20
106.2902438119
 10
142.9644123873
 20
104.4572497159
  0
LWPOLYLINE
  5
278
100
AcDbEntity
  8
ASSI
100
AcDbPolyline
 62
7
  6
CONTINUOUS
 90
10
 70
0
 10
142.9883097222
 20
119.1501962565
 10
142.9643391653
 20
117.3587862506
 10
142.9456347773
 20
115.5059975568
 10
142.9331681534
 20
113.6564031396
 10
142.9269396812
 20
111.8100409856
 10
142.926949471
 20
109.966942656
 10
142.9331975788
 20
108.1271372423
 10
142.9456840081
 20
106.2906562023
 10
142.9644084849
 20
104.4575371279
 10
142.9883115396
 20
102.697058902
  0
LINE
  5
279
100
AcDbEntity
  8
RACCORDO
100
AcDbLine
 62
7
  6
CONTINUOUS
 10
142.9883097222
 20
119.1501962565
 11
142.9643426504
 21
117.3590467086
  0
LINE
  5
27A
100
AcDbEntity
  8
RACCORDO
100
AcDbLine
 62
7
  6
CONTINUOUS
 10
143.0103001827
 20
120.230703795
 11
142.988309745
 21
119.1501961461
  0
LWPOLYLINE
  5
27B
100
AcDbEntity
  8
ASSI
100
AcDbPolyline
 62
253
  6
CONTINUOUS
 90
10
 70
0
 10
143.1347639835
 20
118.9741842612
 10
143.1582236994
 20
120.1114235884
 10
143.1945958985
 20
121.254921089
 10
143.2438728097
 20
122.4044385276
 10
143.3060434789
 20
123.5597365941
 10
143.3810950342
 20
124.7205745195
 10
143.4690126963
 20
125.8867101293
 10
143.5697780934
 20
127.0579004707
 10
143.6833692584
 20
128.2339018598
 10
143.8097619015
 20
129.414469501
  0
LWPOLYLINE
  5
27C
100
AcDbEntity
  8
RACCORDO
100
AcDbPolyline
 62
253
  6
CONTINUOUS
 90
10
 70
0
 10
143.1347639835
 20
118.9741842612
 10
143.1582236994
 20
120.1114235884
 10
143.1945958985
 20
121.254921089
 10
143.2438728097
 20
122.4044385276
 10
143.3060434789
 20
123.5597365941
 10
143.3810950342
 20
124.7205745195
 10
143.4690126963
 20
125.8867101293
 10
143.5697780934
 20
127.0579004707
 10
143.6833692584
 20
128.2339018598
 10
143.8097619015
 20
129.414469501
  0
LWPOLYLINE
  5
27D
100
AcDbEntity
  8
ASSI
100
AcDbPolyline
 62
253
  6
CONTINUOUS
 90
19
 70
0
 10
159.1841988086
 20
123.1452412848
 10
159.1287700341
 20
123.1138920287
 10
159.0737964221
 20
123.0775788787
 10
159.0196041025
 20
123.0365224615
 10
158.9665099384
 20
122.99097319
 10
158.9148335257
 20
122.9412056398
 10
158.8648950947
 20
122.887517424
 10
158.8169922771
 20
122.8302352843
 10
158.7714069925
 20
122.7697044876
 10
158.7284179219
 20
122.7062825017
 10
158.6882806583
 20
122.6403516707
 10
158.651232423
 20
122.5723100892
 10
158.6174998523
 20
122.5025604763
 10
158.5872834917
 20
122.431520883
 10
158.5607630288
 20
122.3596212882
 10
158.5381028545
 20
122.2872935662
 10
158.5194397061
 20
122.2149728437
 10
158.5048821852
 20
122.1430948281
 10
158.4945167923
 20
122.0720920556
  0
LWPOLYLINE
  5
27E
100
AcDbEntity
  8
RACCORDO
100
AcDbPolyline
 62
253
  6
CONTINUOUS
 90
19
 70
0
 10
159.1841988086
 20
123.1452412848
 10
159.1287700341
 20
123.1138920287
 10
159.0737964221
 20
123.0775788787
 10
159.0196041025
 20
123.0365224615
 10
158.9665099384
 20
122.99097319
 10
158.9148335257
 20
122.9412056398
 10
158.8648950947
 20
122.887517424
 10
158.8169922771
 20
122.8302352843
 10
158.7714069925
 20
122.7697044876
 10
158.7284179219
 20
122.7062825017
 10
158.6882806583
 20
122.6403516707
 10
158.651232423
 20
122.5723100892
 10
158.6174998523
 20
122.5025604763
 10
158.5872834917
 20
122.431520883
 10
158.5607630288
 20
122.3596212882
 10
158.5381028545
 20
122.2872935662
 10
158.5194397061
 20
122.2149728437
 10
158.5048821852
 20
122.1430948281
 10
158.4945167923
 20
122.0720920556
  0
LWPOLYLINE
  5
27F
100
AcDbEntity
  8
ASSI
100
AcDbPolyline
 62
253
  6
CONTINUOUS
 90
19
 70
0
 10
159.5376310453
 20
122.5356608472
 10
159.5094601597
 20
122.5200916132
 10
159.4817863315
 20
122.5022388457
 10
159.4546095608
 20
122.4821025448
 10
159.4277538287
 20
122.459525766
 10
159.4013951541
 20
122.4346654538
 10
159.3760615933
 20
122.4079924413
 10
159.3517873219
 20
122.379478496
 10
159.3285381644
 20
122.3491518503
 10
159.3067396505
 20
122.3175680347
 10
159.2864224156
 20
122.2847082426
 10
159.2675558243
 20
122.2505912806
 10
159.2504735005
 20
122.2158290987
 10
159.2352045419
 20
122.1803892265
 10
159.2217198508
 20
122.1443041346
 10
159.2102657578
 20
122.1082831849
 10
159.2009243731
 20
122.0725628317
 10
159.1936135865
 20
122.0369066208
 10
159.188333398
 20
122.0013145522
  0
LWPOLYLINE
  5
280
100
AcDbEntity
  8
RACCORDO
100
AcDbPolyline
 62
253
  6
CONTINUOUS
 90
19
 70
0
 10
159.5376310453
 20
122.5356608472
 10
159.5094601597
 20
122.5200916132
 10
159.4817863315
 20
122.5022388457
 10
159.4546095608
 20
122.4821025448
 10
159.4277538287
 20
122.459525766
 10
159.4013951541
 20
122.4346654538
 10
159.3760615933
 20
122.4079924413
 10
159.3517873219
 20
122.379478496
 10
159.3285381644
 20
122.3491518503
 10
159.3067396505
 20
122.3175680347
 10
159.2864224156
 20
122.2847082426
 10
159.2675558243
 20
122.2505912806
 10
159.2504735005
 20
122.2158290987
 10
159.2352045419
 20
122.1803892265
 10
159.2217198508
 20
122.1443041346
 10
159.2102657578
 20
122.1082831849
 10
159.2009243731
 20
122.0725628317
 10
159.1936135865
 20
122.0369066208
 10
159.188333398
 20
122.0013145522
  0
LINE
  5
281
100
AcDbEntity
  8
ASSI
100
AcDbLine
 62
253
  6
CONTINUOUS
 10
162.4160873588
 20
123.9913968816
 11
159.5376310453
 21
122.5356608472
  0
LINE
  5
282
100
AcDbEntity
  8
RACCORDO
100
AcDbLine
 62
253
  6
CONTINUOUS
 10
162.4160873588
 20
123.9913968816
 11
159.5376310453
 21
122.5356608472
  0
LINE
  5
283
100
AcDbEntity
  8
ASSI
100
AcDbLine
 62
7
  6
CONTINUOUS
 10
146.4106222148
 20
100.2732378004
 11
146.4328064258
 21
100.271158101
  0
LINE
  5
284
100
AcDbEntity
  8
RACCORDO
100
AcDbLine
 62
7
  6
CONTINUOUS
 10
146.4106222148
 20
100.2732378004
 11
146.4328064258
 21
100.271158101
  0
LINE
  5
285
100
AcDbEntity
  8
ASSI
100
AcDbLine
 62
7
  6
CONTINUOUS
 10
146.4328064258
 20
100.271158101
 11
146.4579500527
 21
100.2651387116
  0
LINE
  5
286
100
AcDbEntity
  8
RACCORDO
100
AcDbLine
 62
7
  6
CONTINUOUS
 10
146.4328064258
 20
100.271158101
 11
146.4579500527
 21
100.2651387116
  0
LINE
  5
287
100
AcDbEntity
  8
ASSI
100
AcDbLine
 62
7
  6
CONTINUOUS
 10
146.4579500527
 20
100.2651387116
 11
146.485746976
 21
100.2546582501
  0
LINE
  5
288
100
AcDbEntity
  8
RACCORDO
100
AcDbLine
 62
7
  6
CONTINUOUS
 10
146.4579500527
 20
100.2651387116
 11
146.4858633708
 21
100.2546142709
  0
LINE
  5
289
100
AcDbEntity
  8
ASSI
100
AcDbLine
 62
253
  6
CONTINUOUS
 10
143.1347639835
 20
102.5197015893
 11
157.7834244687
 21
95.1953713467
  0
LINE
  5
28A
100
AcDbEntity
  8
RACCORDO
100
AcDbLine
 62
253
  6
CONTINUOUS
 10
143.1347639835
 20
102.5197015893
 11
157.7834244687
 21
95.1953713467
  0
LINE
  5
28B
100
AcDbEntity
  8
0
100
AcDbLine
 62
253
  6
CONTINUOUS
 10
149.3709576039
 20
100.4684451178
 11
148.7143584343
 21
100.7967447026
  0
LINE
  5
28C
100
AcDbEntity
  8
0
100
AcDbLine
 62
253
  6
CONTINUOUS
 10
147.4449334515
 20
101.4314571939
 11
147.9702127708
 21
101.1688175343
  0
LINE
  5
28D
100
AcDbEntity
  8
0
100
AcDbLine
 62
253
  6
CONTINUOUS
 10
149.8962368957
 20
100.2058054718
 11
150.6841559431
 21
99.8118459481
  0
LWPOLYLINE
  5
28E
100
AcDbEntity
  8
ASSI
100
AcDbPolyline
 62
253
  6
CONTINUOUS
 90
3
 70
0
 10
154.4666117315
 20
96.30344141
 10
154.4990660486
 20
96.2853403066
 10
154.5307925136
 20
96.2642930245
  0
LWPOLYLINE
  5
28F
100
AcDbEntity
  8
RACCORDO
100
AcDbPolyline
 62
253
  6
CONTINUOUS
 90
3
 70
0
 10
154.4666117315
 20
96.30344141
 10
154.4990660486
 20
96.2853403066
 10
154.5307925136
 20
96.2642930245
  0
LWPOLYLINE
  5
290
100
AcDbEntity
  8
RACCORDO
100
AcDbPolyline
 62
7
  6
CONTINUOUS
 90
13
 70
0
 10
154.4926727853
 20
96.2515598809
 10
154.5209249907
 20
96.2356655247
 10
154.5480998899
 20
96.2171087207
 10
154.57546103
 20
96.1951799928
 10
154.6025344496
 20
96.1701345613
 10
154.6289410739
 20
96.1422508537
 10
154.6543437592
 20
96.1118379183
 10
154.6784334408
 20
96.0792173991
 10
154.7009169554
 20
96.0447656785
 10
154.7215524078
 20
96.008868977
 10
154.7401537734
 20
95.9718532635
 10
154.756515602
 20
95.9341330075
 10
154.7704802498
 20
95.8961264823
  0
LWPOLYLINE
  5
291
100
AcDbEntity
  8
ASSI
100
AcDbPolyline
 62
7
  6
CONTINUOUS
 90
14
 70
0
 10
154.4926729818
 20
96.2515597834
 10
154.5212638628
 20
96.235453717
 10
154.5483806534
 20
96.2169003677
 10
154.5756789186
 20
96.1949919961
 10
154.6026885757
 20
96.1699820096
 10
154.6290331724
 20
96.1421472277
 10
154.6543778348
 20
96.111794527
 10
154.6784156095
 20
96.0792430792
 10
154.7008551004
 20
96.0448665841
 10
154.7214556488
 20
96.0090487109
 10
154.7400320393
 20
95.9721133909
 10
154.7563796139
 20
95.9344724228
 10
154.7703412111
 20
95.8965414843
 10
154.7818063704
 20
95.8586694927
  0
LWPOLYLINE
  5
292
100
AcDbEntity
  8
ASSI
100
AcDbPolyline
 62
253
  6
CONTINUOUS
 90
3
 70
0
 10
154.5307925136
 20
96.2642930245
 10
154.5617916899
 20
96.2402998637
 10
154.5922976656
 20
96.2131165195
  0
LWPOLYLINE
  5
293
100
AcDbEntity
  8
RACCORDO
100
AcDbPolyline
 62
253
  6
CONTINUOUS
 90
3
 70
0
 10
154.5307925136
 20
96.2642930245
 10
154.5617916899
 20
96.2402998637
 10
154.5922976656
 20
96.2131165195
  0
LWPOLYLINE
  5
294
100
AcDbEntity
  8
RACCORDO
100
AcDbPolyline
 62
253
  6
CONTINUOUS
 90
12
 70
0
 10
146.2588271156
 20
96.8049793179
 10
146.2593799297
 20
96.8028840864
 10
146.2608539355
 20
96.7991892778
 10
146.2629284649
 20
96.7956510969
 10
146.2655948987
 20
96.7922842439
 10
146.2688421587
 20
96.7891027071
 10
146.2726567533
 20
96.7861197049
 10
146.2770228341
 20
96.7833476309
 10
146.2819222612
 20
96.7807980021
 10
146.2873346788
 20
96.7784814118
 10
146.2932375998
 20
96.7764074845
 10
146.2996064992
 20
96.774584837
  0
LWPOLYLINE
  5
295
100
AcDbEntity
  8
RACCORDO
100
AcDbPolyline
 62
7
  6
CONTINUOUS
 90
28
 70
0
 10
146.2588256073
 20
96.8049874633
 10
146.2608076922
 20
96.796192611
 10
146.2663897107
 20
96.774046871
 10
146.272774404
 20
96.7520212234
 10
146.2799313549
 20
96.7301569686
 10
146.2878346164
 20
96.7084781402
 10
146.2964646047
 20
96.6870019003
 10
146.3057972796
 20
96.6657598065
 10
146.3158083091
 20
96.644785891
 10
146.3264789339
 20
96.6241071973
 10
146.3377861303
 20
96.6037574864
 10
146.3497085995
 20
96.5837700485
 10
146.3622296998
 20
96.5641723899
 10
146.3753310003
 20
96.5449947639
 10
146.3889906123
 20
96.5262760953
 10
146.403186222
 20
96.508054163
 10
146.417901892
 20
96.4903588293
 10
146.4331160314
 20
96.4732300597
 10
146.448799074
 20
96.456713561
 10
146.4649334061
 20
96.4408430304
 10
146.4815022105
 20
96.4256532452
 10
146.4984823139
 20
96.4111835236
 10
146.5158587911
 20
96.3974690689
 10
146.5336184112
 20
96.3845451273
 10
146.5517510006
 20
96.3724466144
 10
146.5702492885
 20
96.3612113379
 10
146.589096572
 20
96.350883055
 10
146.595051724
 20
96.3478505124
  0
LWPOLYLINE
  5
296
100
AcDbEntity
  8
RACCORDO
100
AcDbPolyline
 62
253
  6
CONTINUOUS
 90
19
 70
0
 10
146.2996064926
 20
96.7745848331
 10
146.2618159705
 20
96.9560364708
 10
146.2275542392
 20
97.1366197429
 10
146.1968245576
 20
97.3163356951
 10
146.1696128854
 20
97.4953033372
 10
146.1459402348
 20
97.6734059593
 10
146.1258605552
 20
97.8502899112
 10
146.109385615
 20
98.0259322467
 10
146.0965063542
 20
98.2003556751
 10
146.0872419707
 20
98.3732730088
 10
146.0815986115
 20
98.5446798647
 10
146.0795696901
 20
98.7145785826
 10
146.0811520937
 20
98.88269025
 10
146.0863529257
 20
99.0490258454
 10
146.0951615051
 20
99.2135706242
 10
146.1075445537
 20
99.3760051659
 10
146.1234876799
 20
99.5362206115
 10
146.142997478
 20
99.6943198207
 10
146.1660702781
 20
99.85029995
  0
LWPOLYLINE
  5
297
100
AcDbEntity
  8
ASSI
100
AcDbPolyline
 62
253
  6
CONTINUOUS
 90
6
 70
0
 10
146.4722715932
 20
100.3006114792
 10
146.4736129181
 20
100.2866128213
 10
146.4769688351
 20
100.2741135299
 10
146.4822418492
 20
100.2634767305
 10
146.4892787702
 20
100.2550114402
 10
146.4980930751
 20
100.248852571
  0
LWPOLYLINE
  5
298
100
AcDbEntity
  8
RACCORDO
100
AcDbPolyline
 62
253
  6
CONTINUOUS
 90
6
 70
0
 10
146.4722715932
 20
100.3006114792
 10
146.4736129181
 20
100.2866128213
 10
146.4769688351
 20
100.2741135299
 10
146.4822418492
 20
100.2634767305
 10
146.4892787702
 20
100.2550114402
 10
146.4980924286
 20
100.2488528977
  0
LINE
  5
299
100
AcDbEntity
  8
ASSI
100
AcDbLine
 62
253
  6
CONTINUOUS
 10
146.036218934
 20
98.7153826193
 11
146.0356759856
 21
98.7277521094
  0
LINE
  5
29A
100
AcDbEntity
  8
RACCORDO
100
AcDbLine
 62
253
  6
CONTINUOUS
 10
146.036218934
 20
98.7153826193
 11
146.0356759856
 21
98.7277521094
  0
LWPOLYLINE
  5
29B
100
AcDbEntity
  8
ASSI
100
AcDbPolyline
 62
253
  6
CONTINUOUS
 90
4
 70
0
 10
146.0356759856
 20
98.7277521094
 10
146.0357641354
 20
99.0936912727
 10
146.0523757857
 20
99.4500099914
 10
146.0854563101
 20
99.7977956314
  0
LWPOLYLINE
  5
29C
100
AcDbEntity
  8
RACCORDO
100
AcDbPolyline
 62
253
  6
CONTINUOUS
 90
4
 70
0
 10
146.0356759856
 20
98.7277521094
 10
146.0357641354
 20
99.0936912727
 10
146.0523757857
 20
99.4500099914
 10
146.0854563101
 20
99.7977956314
  0
LINE
  5
29D
100
AcDbEntity
  8
ASSI
100
AcDbLine
 62
7
  6
CONTINUOUS
 10
146.3913663405
 20
100.2719201975
 11
146.4106222148
 21
100.2732378004
  0
LINE
  5
29E
100
AcDbEntity
  8
RACCORDO
100
AcDbLine
 62
7
  6
CONTINUOUS
 10
146.3913663405
 20
100.2719201975
 11
146.4106222148
 21
100.2732378004
  0
LINE
  5
29F
100
AcDbEntity
  8
0
100
AcDbLine
 62
253
  6
CONTINUOUS
 10
152.0766230089
 20
99.7506676694
 11
151.3762506197
 21
100.100853864
  0
LINE
  5
2A0
100
AcDbEntity
  8
0
100
AcDbLine
 62
253
  6
CONTINUOUS
 10
149.8804617118
 20
101.4845842516
 11
150.4057410037
 21
101.2219446057
  0
LINE
  5
2A1
100
AcDbEntity
  8
0
100
AcDbLine
 62
253
  6
CONTINUOUS
 10
150.6585985485
 20
102.0507333007
 11
149.8706795012
 21
102.4446928244
  0
LINE
  5
2A2
100
AcDbEntity
  8
0
100
AcDbLine
 62
253
  6
CONTINUOUS
 10
147.9446553762
 20
103.4077048869
 11
147.419376057
 21
103.6703445465
  0
LWPOLYLINE
  5
2A3
100
AcDbEntity
  8
ASSI
100
AcDbPolyline
 62
253
  6
CONTINUOUS
 90
9
 70
0
 10
154.5922976656
 20
96.2131165195
 10
154.6220786011
 20
96.182988494
 10
154.6504365161
 20
96.1506509827
 10
154.6773293738
 20
96.1160817324
 10
154.7028030054
 20
96.0793050219
 10
154.7262910535
 20
96.0411257496
 10
154.7477849294
 20
96.0014269086
 10
154.7672976767
 20
95.9603278934
 10
154.7842943477
 20
95.9189876529
  0
LWPOLYLINE
  5
2A4
100
AcDbEntity
  8
RACCORDO
100
AcDbPolyline
 62
253
  6
CONTINUOUS
 90
9
 70
0
 10
154.5922976656
 20
96.2131165195
 10
154.6220786011
 20
96.182988494
 10
154.6504365161
 20
96.1506509827
 10
154.6773293738
 20
96.1160817324
 10
154.7028030054
 20
96.0793050219
 10
154.7262910535
 20
96.0411257496
 10
154.7477849294
 20
96.0014269086
 10
154.7672976767
 20
95.9603278934
 10
154.7842943477
 20
95.9189876529
  0
LINE
  5
2A5
100
AcDbEntity
  8
0
100
AcDbLine
 62
253
  6
CONTINUOUS
 10
147.1598019725
 20
103.4815306182
 11
147.1780572238
 21
101.8823253699
  0
LWPOLYLINE
  5
2A6
100
AcDbEntity
  8
0
100
AcDbPolyline
 62
253
  6
CONTINUOUS
 90
3
 70
0
 10
146.5243087086
 20
107.2159679662
 10
146.5315225985
 20
105.7081020307
 10
146.5366268265
 20
104.9704610163
  0
LINE
  5
2A7
100
AcDbEntity
  8
0
100
AcDbLine
 62
253
  6
CONTINUOUS
 10
147.447656017
 20
105.7934031267
 11
147.4447219104
 21
106.4352691898
  0
LINE
  5
2A8
100
AcDbEntity
  8
ASSI
100
AcDbLine
 62
253
  6
CONTINUOUS
 10
146.6483740296
 20
96.3054476955
 11
146.6485331604
 21
96.3211093312
  0
LINE
  5
2A9
100
AcDbEntity
  8
RACCORDO
100
AcDbLine
 62
253
  6
CONTINUOUS
 10
146.6483740296
 20
96.3054476955
 11
146.6485331604
 21
96.3211093312
  0
LWPOLYLINE
  5
2AA
100
AcDbEntity
  8
RACCORDO
100
AcDbPolyline
 62
253
  6
CONTINUOUS
 90
15
 70
0
 10
146.1239820748
 20
99.931288438
 10
146.1235947977
 20
99.9284498952
 10
146.1232180425
 20
99.9222285431
 10
146.1234770173
 20
99.9159442376
 10
146.1243706163
 20
99.9096238161
 10
146.1258950233
 20
99.9032942705
 10
146.1280437282
 20
99.8969826312
 10
146.1308075548
 20
99.8907158526
 10
146.1341747001
 20
99.8845206972
 10
146.1381307845
 20
99.8784236219
 10
146.1426589133
 20
99.8724506644
 10
146.1477397489
 20
99.8666273326
 10
146.1533515934
 20
99.8609784955
 10
146.159470481
 20
99.8555282766
 10
146.1660702807
 20
99.8502999514
  0
LINE
  5
2AB
100
AcDbEntity
  8
ASSI
100
AcDbLine
 62
253
  6
CONTINUOUS
 10
146.0854563101
 20
99.7977956314
 11
146.1349832286
 21
100.1370271417
  0
LINE
  5
2AC
100
AcDbEntity
  8
RACCORDO
100
AcDbLine
 62
253
  6
CONTINUOUS
 10
146.0854563101
 20
99.7977956314
 11
146.1349832286
 21
100.1370271417
  0
LWPOLYLINE
  5
2AD
100
AcDbEntity
  8
RACCORDO
100
AcDbPolyline
 62
7
  6
CONTINUOUS
 90
19
 70
0
 10
146.1239817105
 20
99.9312884965
 10
146.1017909399
 20
99.7823504119
 10
146.0814467759
 20
99.619782822
 10
146.0648072881
 20
99.4550817016
 10
146.0518867727
 20
99.2883436039
 10
146.0426927333
 20
99.1196556227
 10
146.037231356
 20
98.949101543
 10
146.0355079782
 20
98.7767650481
 10
146.0375236031
 20
98.6027402351
 10
146.0432777859
 20
98.427127099
 10
146.0527685748
 20
98.250019674
 10
146.0659889004
 20
98.0715093226
 10
146.0829301107
 20
97.8916928155
 10
146.1035826414
 20
97.7106644435
 10
146.1279329981
 20
97.5285139501
 10
146.1559665793
 20
97.3453318506
 10
146.1876671472
 20
97.1612114107
 10
146.2230111292
 20
96.9762570703
 10
146.2588271156
 20
96.8049793179
  0
LINE
  5
2AE
100
AcDbEntity
  8
ASSI
100
AcDbLine
 62
7
  6
CONTINUOUS
 10
146.3753593306
 20
100.2678915527
 11
146.3913663405
 21
100.2719201975
  0
LINE
  5
2AF
100
AcDbEntity
  8
RACCORDO
100
AcDbLine
 62
7
  6
CONTINUOUS
 10
146.3753593306
 20
100.2678915527
 11
146.3913663405
 21
100.2719201975
  0
LINE
  5
2B0
100
AcDbEntity
  8
0
100
AcDbLine
 62
253
  6
CONTINUOUS
 10
152.7086589993
 20
101.8844448892
 11
152.1833794883
 21
102.1470846448
  0
LINE
  5
2B1
100
AcDbEntity
  8
0
100
AcDbLine
 62
253
  6
CONTINUOUS
 10
148.6377442134
 20
103.9199022822
 11
147.9811449343
 21
104.2482019218
  0
LINE
  5
2B2
100
AcDbEntity
  8
0
100
AcDbLine
 62
253
  6
CONTINUOUS
 10
149.1630235053
 20
103.6572626362
 11
149.9509423335
 21
103.2633032221
  0
LINE
  5
2B3
100
AcDbEntity
  8
0
100
AcDbLine
 62
253
  6
CONTINUOUS
 10
153.4965780467
 20
101.4904853656
 11
154.284497094
 21
101.0965258419
  0
LINE
  5
2B4
100
AcDbEntity
  8
0
100
AcDbLine
 62
253
  6
CONTINUOUS
 10
151.3471922748
 20
103.2040163812
 11
150.6468198856
 21
103.5542025757
  0
LINE
  5
2B5
100
AcDbEntity
  8
0
100
AcDbLine
 62
253
  6
CONTINUOUS
 10
146.530176927
 20
105.9322357708
 11
147.1867760966
 21
105.603936186
  0
LWPOLYLINE
  5
2B6
100
AcDbEntity
  8
0
100
AcDbPolyline
 62
253
  6
CONTINUOUS
 90
3
 70
0
 10
148.7143584343
 20
100.7967447026
 10
148.6961489372
 20
102.2989741163
 10
148.6888010406
 20
103.0356319551
  0
LWPOLYLINE
  5
2B7
100
AcDbEntity
  8
0
100
AcDbPolyline
 62
253
  6
CONTINUOUS
 90
3
 70
0
 10
147.9811449343
 20
104.2482019218
 10
147.9718213851
 20
105.7549957157
 10
147.9688268161
 20
106.4937088715
  0
LWPOLYLINE
  5
2B8
100
AcDbEntity
  8
0
100
AcDbPolyline
 62
253
  6
CONTINUOUS
 90
3
 70
0
 10
149.1507053871
 20
105.902769627
 10
149.1579192769
 20
104.3949036915
 10
149.163023505
 20
103.6572626771
  0
LWPOLYLINE
  5
2B9
100
AcDbEntity
  8
0
100
AcDbPolyline
 62
253
  6
CONTINUOUS
 90
3
 70
0
 10
149.8514306997
 20
118.75900861
 10
149.8647232202
 20
119.0372371252
 10
149.8739456142
 20
119.2215457288
  0
LWPOLYLINE
  5
2BA
100
AcDbEntity
  8
RACCORDO
100
AcDbPolyline
 62
253
  6
CONTINUOUS
 90
31
 70
0
 10
146.1660702781
 20
99.85029995
 10
146.1682821459
 20
99.8623088182
 10
146.1709838067
 20
99.8738751049
 10
146.1741751753
 20
99.8849987639
 10
146.1778649806
 20
99.8957024988
 10
146.1820443344
 20
99.9059635193
 10
146.1866866939
 20
99.9157135214
 10
146.1917946641
 20
99.9249478711
 10
146.1973654175
 20
99.933671082
 10
146.2033642063
 20
99.9418285402
 10
146.2097934484
 20
99.9494164282
 10
146.2166504693
 20
99.9564384252
 10
146.2238928382
 20
99.9628511393
 10
146.2315228658
 20
99.9686507883
 10
146.23953797
 20
99.9738410083
 10
146.2478883509
 20
99.9783895192
 10
146.2565759927
 20
99.9822922324
 10
146.2655986449
 20
99.9855530932
 10
146.2749001369
 20
99.988151863
 10
146.2844819489
 20
99.9900843374
 10
146.2943423594
 20
99.991354591
 10
146.3044203884
 20
99.9919547999
 10
146.3147175231
 20
99.9918806905
 10
146.3252320778
 20
99.9911364298
 10
146.3358983163
 20
99.9897268567
 10
146.3467182479
 20
99.9876471366
 10
146.3576897222
 20
99.9849020284
 10
146.3687407754
 20
99.9815107673
 10
146.3798473947
 20
99.9774797518
 10
146.3910335196
 20
99.9728025442
 10
146.402299132
 20
99.9674791348
  0
LWPOLYLINE
  5
2BB
100
AcDbEntity
  8
ASSI
100
AcDbPolyline
 62
253
  6
CONTINUOUS
 90
15
 70
0
 10
146.1349832286
 20
100.1370271417
 10
146.1425591275
 20
100.1707626275
 10
146.1527149381
 20
100.2015635041
 10
146.1654486929
 20
100.2294287076
 10
146.180909332
 20
100.2545227339
 10
146.1989444175
 20
100.2766791999
 10
146.2190993118
 20
100.295400404
 10
146.2413995278
 20
100.3106074455
 10
146.2658151805
 20
100.322376882
 10
146.2918076581
 20
100.330443734
 10
146.3194713523
 20
100.3347152036
 10
146.3487080925
 20
100.3352820714
 10
146.3786902265
 20
100.3321546234
 10
146.4091410489
 20
100.3253358506
 10
146.4403350227
 20
100.3148215676
  0
LWPOLYLINE
  5
2BC
100
AcDbEntity
  8
RACCORDO
100
AcDbPolyline
 62
253
  6
CONTINUOUS
 90
15
 70
0
 10
146.1349832286
 20
100.1370271417
 10
146.1425591275
 20
100.1707626275
 10
146.1527149381
 20
100.2015635041
 10
146.1654486929
 20
100.2294287076
 10
146.180909332
 20
100.2545227339
 10
146.1989444175
 20
100.2766791999
 10
146.2190993118
 20
100.295400404
 10
146.2413995278
 20
100.3106074455
 10
146.2658151805
 20
100.322376882
 10
146.2918076581
 20
100.330443734
 10
146.3194713523
 20
100.3347152036
 10
146.3487080925
 20
100.3352820714
 10
146.3786902265
 20
100.3321546234
 10
146.4091410489
 20
100.3253358506
 10
146.4403350227
 20
100.3148215676
  0
LINE
  5
2BD
100
AcDbEntity
  8
0
100
AcDbLine
 62
253
  6
CONTINUOUS
 10
149.1548138799
 20
104.9398241952
 11
149.6800931717
 21
104.6771845493
  0
LINE
  5
2BE
100
AcDbEntity
  8
0
100
AcDbLine
 62
253
  6
CONTINUOUS
 10
153.4883684212
 20
102.7730469246
 11
154.0136479323
 21
102.510407169
  0
LINE
  5
2BF
100
AcDbEntity
  8
0
100
AcDbLine
 62
253
  6
CONTINUOUS
 10
154.2721789758
 20
103.3420328326
 11
153.4842599284
 21
103.7359923563
  0
LINE
  5
2C0
100
AcDbEntity
  8
0
100
AcDbLine
 62
253
  6
CONTINUOUS
 10
152.8276606492
 20
104.0642919959
 11
152.3023811382
 21
104.3269317514
  0
LINE
  5
2C1
100
AcDbEntity
  8
0
100
AcDbLine
 62
253
  6
CONTINUOUS
 10
149.9386242153
 20
105.5088102129
 11
149.1507053871
 21
105.902769627
  0
LINE
  5
2C2
100
AcDbEntity
  8
0
100
AcDbLine
 62
253
  6
CONTINUOUS
 10
147.1809078782
 20
106.8876683814
 11
146.5243087086
 21
107.2159679662
  0
LWPOLYLINE
  5
2C3
100
AcDbEntity
  8
0
100
AcDbPolyline
 62
253
  6
CONTINUOUS
 90
3
 70
0
 10
149.8706795012
 20
102.4446928244
 10
149.8867790195
 20
100.9413724975
 10
149.8962368944
 20
100.2058055716
  0
LWPOLYLINE
  5
2C4
100
AcDbEntity
  8
0
100
AcDbPolyline
 62
253
  6
CONTINUOUS
 90
3
 70
0
 10
151.2811562711
 20
118.5179404121
 10
151.2673515379
 20
118.239494123
 10
151.2586413565
 20
118.0554032933
  0
LWPOLYLINE
  5
2C5
100
AcDbEntity
  8
ASSI
100
AcDbPolyline
 62
253
  6
CONTINUOUS
 90
3
 70
0
 10
146.2876743942
 20
100.1725617609
 10
146.2977618721
 20
100.1949270356
 10
146.3099334031
 20
100.2149456676
  0
LWPOLYLINE
  5
2C6
100
AcDbEntity
  8
RACCORDO
100
AcDbPolyline
 62
253
  6
CONTINUOUS
 90
4
 70
0
 10
146.2876743942
 20
100.1725617609
 10
146.2977618721
 20
100.1949270356
 10
146.3099334031
 20
100.2149456676
 10
146.3240869216
 20
100.2324638247
  0
LINE
  5
2C7
100
AcDbEntity
  8
ASSI
100
AcDbLine
 62
253
  6
CONTINUOUS
 10
154.7842943477
 20
95.9189876529
 11
154.7985973262
 21
95.8777928826
  0
LWPOLYLINE
  5
2C8
100
AcDbEntity
  8
RACCORDO
100
AcDbPolyline
 62
253
  6
CONTINUOUS
 90
3
 70
0
 10
154.7842943477
 20
95.9189876529
 10
154.7985973262
 20
95.8777928826
 10
154.8103873432
 20
95.8363585689
  0
LWPOLYLINE
  5
2C9
100
AcDbEntity
  8
RACCORDO
100
AcDbPolyline
 62
7
  6
CONTINUOUS
 90
4
 70
0
 10
154.7704802498
 20
95.8961264823
 10
154.7819370208
 20
95.8581846362
 10
154.7907716803
 20
95.8207405312
 10
154.7920914479
 20
95.8140182814
  0
LWPOLYLINE
  5
2CA
100
AcDbEntity
  8
0
100
AcDbPolyline
 62
253
  6
CONTINUOUS
 90
3
 70
0
 10
152.7597159351
 20
101.0001746074
 10
152.7758154534
 20
99.4968542805
 10
152.7852733283
 20
98.7612873546
  0
LINE
  5
2CB
100
AcDbEntity
  8
0
100
AcDbLine
 62
253
  6
CONTINUOUS
 10
152.0409159881
 20
104.1371721533
 11
152.042285485
 21
103.8161903315
  0
LWPOLYLINE
  5
2CC
100
AcDbEntity
  8
ASSI
100
AcDbPolyline
 62
253
  6
CONTINUOUS
 90
16
 70
0
 10
158.4810913249
 20
111.6370279687
 10
158.4419932288
 20
111.6211482894
 10
158.3996629923
 20
111.6073580784
 10
158.3545490802
 20
111.595803435
 10
158.3071294489
 20
111.5866067742
 10
158.2579064821
 20
111.5798655293
 10
158.2074016693
 20
111.57565112
 10
158.1561500802
 20
111.5740081956
 10
158.1046946962
 20
111.5749541619
 10
158.0535806578
 20
111.5784789969
 10
158.003349489
 20
111.5845453571
 10
157.9545333606
 20
111.5930889727
 10
157.9076494516
 20
111.6040193291
 10
157.8631944703
 20
111.6172206253
 10
157.821639392
 20
111.6325530011
 10
157.783424469
 20
111.6498540188
  0
LWPOLYLINE
  5
2CD
100
AcDbEntity
  8
RACCORDO
100
AcDbPolyline
 62
253
  6
CONTINUOUS
 90
16
 70
0
 10
158.4810913249
 20
111.6370279687
 10
158.4419932288
 20
111.6211482894
 10
158.3996629923
 20
111.6073580784
 10
158.3545490802
 20
111.595803435
 10
158.3071294489
 20
111.5866067742
 10
158.2579064821
 20
111.5798655293
 10
158.2074016693
 20
111.57565112
 10
158.1561500802
 20
111.5740081956
 10
158.1046946962
 20
111.5749541619
 10
158.0535806578
 20
111.5784789969
 10
158.003349489
 20
111.5845453571
 10
157.9545333606
 20
111.5930889727
 10
157.9076494516
 20
111.6040193291
 10
157.8631944703
 20
111.6172206253
 10
157.821639392
 20
111.6325530011
 10
157.783424469
 20
111.6498540188
  0
LINE
  5
2CE
100
AcDbEntity
  8
ASSI
100
AcDbLine
 62
253
  6
CONTINUOUS
 10
154.7985973262
 20
95.8777928826
 11
154.8103873432
 21
95.8363585689
  0
LINE
  5
2CF
100
AcDbEntity
  8
ASSI
100
AcDbLine
 62
7
  6
CONTINUOUS
 10
154.7818063704
 20
95.8586694927
 11
154.7907515106
 21
95.8208260172
  0
LINE
  5
2D0
100
AcDbEntity
  8
ASSI
100
AcDbLine
 62
253
  6
CONTINUOUS
 10
154.8103873432
 20
95.8363585689
 11
154.8196661707
 21
95.7946856706
  0
LINE
  5
2D1
100
AcDbEntity
  8
RACCORDO
100
AcDbLine
 62
253
  6
CONTINUOUS
 10
154.8103873432
 20
95.8363585689
 11
154.8196661707
 21
95.7946856706
  0
LINE
  5
2D2
100
AcDbEntity
  8
ASSI
100
AcDbLine
 62
7
  6
CONTINUOUS
 10
154.7907515106
 20
95.8208260172
 11
154.7920914609
 21
95.8140182123
  0
LINE
  5
2D3
100
AcDbEntity
  8
ASSI
100
AcDbLine
 62
7
  6
CONTINUOUS
 10
154.7921055033
 20
95.8139788573
 11
154.7920978417
 21
95.8140194095
  0
LINE
  5
2D4
100
AcDbEntity
  8
RACCORDO
100
AcDbLine
 62
7
  6
CONTINUOUS
 10
154.7921055091
 20
95.8139788271
 11
154.7920978288
 21
95.8140194787
  0
LINE
  5
2D5
100
AcDbEntity
  8
ASSI
100
AcDbLine
 62
7
  6
CONTINUOUS
 10
154.7921055033
 20
95.8139788573
 11
154.8518453858
 21
95.4765440159
  0
LINE
  5
2D6
100
AcDbEntity
  8
RACCORDO
100
AcDbLine
 62
7
  6
CONTINUOUS
 10
154.7921055091
 20
95.8139788271
 11
154.8518453858
 21
95.4765440159
  0
LWPOLYLINE
  5
2D7
100
AcDbEntity
  8
RACCORDO
100
AcDbPolyline
 62
253
  6
CONTINUOUS
 90
19
 70
0
 10
154.5124202273
 20
95.6771249754
 10
154.5448612889
 20
95.4933862464
 10
154.5744002232
 20
95.3107614927
 10
154.6010406975
 20
95.1292535564
 10
154.6248043348
 20
94.9487456085
 10
154.6456773032
 20
94.7693604741
 10
154.6636082201
 20
94.5914594763
 10
154.6785886724
 20
94.4150668248
 10
154.6906306503
 20
94.2401620759
 10
154.6997098903
 20
94.0670376519
 10
154.7058202717
 20
93.8956974884
 10
154.7089683563
 20
93.7261396941
 10
154.7091456955
 20
93.5586461425
 10
154.7063422962
 20
93.3932035782
 10
154.7005654441
 20
93.2298254941
 10
154.6918290972
 20
93.0688318637
 10
154.6801348777
 20
92.9103281706
 10
154.6654741887
 20
92.7542066295
 10
154.6478437701
 20
92.6004661943
  0
LWPOLYLINE
  5
2D8
100
AcDbEntity
  8
RACCORDO
100
AcDbPolyline
 62
253
  6
CONTINUOUS
 90
19
 70
0
 10
154.721317784
 20
95.7085573095
 10
154.7541885084
 20
95.5220939463
 10
154.7841435921
 20
95.3365730085
 10
154.811163931
 20
95.1520944825
 10
154.8352354335
 20
94.9687344489
 10
154.8563381275
 20
94.7866166115
 10
154.8744505315
 20
94.6059106236
 10
154.889565268
 20
94.4267329712
 10
154.9016753087
 20
94.2491610691
 10
154.9107671421
 20
94.0733031977
 10
154.916840685
 20
93.8992554846
 10
154.9198932773
 20
93.7271109238
 10
154.9199119954
 20
93.5569710011
 10
154.9169025789
 20
93.3889120213
 10
154.910868214
 20
93.2230408531
 10
154.9017995782
 20
93.0595004258
 10
154.8897045711
 20
92.8983942689
 10
154.8746039713
 20
92.7397891621
 10
154.8565142446
 20
92.5837684709
  0
LWPOLYLINE
  5
2D9
100
AcDbEntity
  8
ASSI
100
AcDbPolyline
 62
253
  6
CONTINUOUS
 90
9
 70
0
 10
154.8196661707
 20
95.7946856706
 10
154.8893443893
 20
95.3957752844
 10
154.9456322604
 20
95.0032485453
 10
154.988552038
 20
94.6171263852
 10
155.0181847802
 20
94.2363076733
 10
155.0345032779
 20
93.8619414786
 10
155.0373263952
 20
93.4974013103
 10
155.0265631545
 20
93.1438003129
 10
155.0022583965
 20
92.8000170311
  0
LWPOLYLINE
  5
2DA
100
AcDbEntity
  8
RACCORDO
100
AcDbPolyline
 62
253
  6
CONTINUOUS
 90
9
 70
0
 10
154.8196661707
 20
95.7946856706
 10
154.8893443893
 20
95.3957752844
 10
154.9456322604
 20
95.0032485453
 10
154.988552038
 20
94.6171263852
 10
155.0181847802
 20
94.2363076733
 10
155.0345032779
 20
93.8619414786
 10
155.0373263952
 20
93.4974013103
 10
155.0265631545
 20
93.1438003129
 10
155.0022583965
 20
92.8000170311
  0
LWPOLYLINE
  5
2DB
100
AcDbEntity
  8
ASSI
100
AcDbPolyline
 62
253
  6
CONTINUOUS
 90
6
 70
0
 10
154.4666117315
 20
96.30344141
 10
154.4679531217
 20
96.2894423787
 10
154.4713091819
 20
96.2769428983
 10
154.4765823635
 20
96.2663060759
 10
154.4836194181
 20
96.2578408973
 10
154.4925767867
 20
96.2516103302
  0
LWPOLYLINE
  5
2DC
100
AcDbEntity
  8
RACCORDO
100
AcDbPolyline
 62
253
  6
CONTINUOUS
 90
6
 70
0
 10
154.4666117315
 20
96.30344141
 10
154.4679531217
 20
96.2894423787
 10
154.4713091819
 20
96.2769428983
 10
154.4765823635
 20
96.2663060759
 10
154.4836194181
 20
96.2578408973
 10
154.4925767867
 20
96.2516103302
  0
LWPOLYLINE
  5
2DD
100
AcDbEntity
  8
0
100
AcDbPolyline
 62
253
  6
CONTINUOUS
 90
3
 70
0
 10
153.6789547507
 20
100.5405551996
 10
153.695054269
 20
99.0372348728
 10
153.7045121439
 20
98.3016679468
  0
LINE
  5
2DE
100
AcDbEntity
  8
0
100
AcDbLine
 62
253
  6
CONTINUOUS
 10
152.9668034794
 20
102.3942107788
 11
152.9689534449
 21
102.0736191685
  0
LWPOLYLINE
  5
2DF
100
AcDbEntity
  8
0
100
AcDbPolyline
 62
253
  6
CONTINUOUS
 90
3
 70
0
 10
153.4842599284
 20
103.7359923563
 10
153.4914738183
 20
102.2281264208
 10
153.4965780464
 20
101.4904854064
  0
LWPOLYLINE
  5
2E0
100
AcDbEntity
  8
ASSI
100
AcDbPolyline
 62
253
  6
CONTINUOUS
 90
5
 70
0
 10
146.3099334031
 20
100.2149456676
 10
146.3240869216
 20
100.2324638247
 10
146.3400938405
 20
100.247362829
 10
146.3578085387
 20
100.25951434
 10
146.3672936085
 20
100.2645395791
  0
LWPOLYLINE
  5
2E1
100
AcDbEntity
  8
RACCORDO
100
AcDbPolyline
 62
253
  6
CONTINUOUS
 90
4
 70
0
 10
146.3240869216
 20
100.2324638247
 10
146.3400938405
 20
100.247362829
 10
146.3578085387
 20
100.25951434
 10
146.3672936085
 20
100.2645395791
  0
LWPOLYLINE
  5
2E2
100
AcDbEntity
  8
ASSI
100
AcDbPolyline
 62
253
  6
CONTINUOUS
 90
11
 70
0
 10
158.4945167923
 20
85.4481312278
 10
158.5048821157
 20
85.3872215362
 10
158.5194396265
 20
85.3295255283
 10
158.5381028982
 20
85.2753893022
 10
158.5607634577
 20
85.2251358085
 10
158.5872845976
 20
85.1790677786
 10
158.617501735
 20
85.1374653908
 10
158.6512351041
 20
85.1005773773
 10
158.6882841202
 20
85.068622687
 10
158.7284219022
 20
85.0417944514
 10
158.7493939336
 20
85.0304448745
  0
LWPOLYLINE
  5
2E3
100
AcDbEntity
  8
RACCORDO
100
AcDbPolyline
 62
253
  6
CONTINUOUS
 90
11
 70
0
 10
158.4945167923
 20
85.4481312278
 10
158.5048821157
 20
85.3872215362
 10
158.5194396265
 20
85.3295255283
 10
158.5381028982
 20
85.2753893022
 10
158.5607634577
 20
85.2251358085
 10
158.5872845976
 20
85.1790677786
 10
158.617501735
 20
85.1374653908
 10
158.6512351041
 20
85.1005773773
 10
158.6882841202
 20
85.068622687
 10
158.7284219022
 20
85.0417944514
 10
158.7493914182
 20
85.0304461366
  0
LWPOLYLINE
  5
2E4
100
AcDbEntity
  8
RACCORDO
100
AcDbPolyline
 62
7
  6
CONTINUOUS
 90
8
 70
0
 10
154.8518453858
 20
95.4765440159
 10
154.9117003893
 20
95.0706772162
 10
154.9573250997
 20
94.6709885678
 10
154.9885593699
 20
94.2789463635
 10
155.0053596372
 20
93.8955142229
 10
155.0077024322
 20
93.5215813566
 10
154.9955759665
 20
93.1580829111
 10
154.9690460055
 20
92.806239666
  0
LWPOLYLINE
  5
2E5
100
AcDbEntity
  8
ASSI
100
AcDbPolyline
 62
7
  6
CONTINUOUS
 90
8
 70
0
 10
154.8519031089
 20
95.4762179725
 10
154.9117561251
 20
95.0702514876
 10
154.9573506899
 20
94.6707249038
 10
154.9885659889
 20
94.2788394738
 10
155.00535854
 20
93.8955576248
 10
155.0077049019
 20
93.5217676363
 10
154.9955932924
 20
93.1584035631
 10
154.9690738221
 20
92.8064782962
  0
LWPOLYLINE
  5
2E6
100
AcDbEntity
  8
ASSI
100
AcDbPolyline
 62
253
  6
CONTINUOUS
 90
6
 70
0
 10
154.6402647557
 20
92.3095023325
 10
154.6404257175
 20
92.3253475274
 10
154.6429175949
 20
92.3420612031
 10
154.6476578021
 20
92.3590894348
 10
154.6544892391
 20
92.3758678726
 10
154.6551519153
 20
92.3770850216
  0
LWPOLYLINE
  5
2E7
100
AcDbEntity
  8
RACCORDO
100
AcDbPolyline
 62
253
  6
CONTINUOUS
 90
6
 70
0
 10
154.6402647557
 20
92.3095023325
 10
154.6404257175
 20
92.3253475274
 10
154.6429175949
 20
92.3420612031
 10
154.6476578021
 20
92.3590894348
 10
154.6544892391
 20
92.3758678726
 10
154.6551519153
 20
92.3770850216
  0
LWPOLYLINE
  5
2E8
100
AcDbEntity
  8
ASSI
100
AcDbPolyline
 62
253
  6
CONTINUOUS
 90
19
 70
0
 10
159.188333398
 20
85.5058608634
 10
159.1936138112
 20
85.4752705856
 10
159.2009282283
 20
85.4465421736
 10
159.2102766495
 20
85.4196756276
 10
159.2217415854
 20
85.3945106114
 10
159.2352405252
 20
85.3712074612
 10
159.2505259367
 20
85.3502471851
 10
159.2676306399
 20
85.3316911805
 10
159.2865218147
 20
85.3154780502
 10
159.3068534687
 20
85.30190461
 10
159.3286495852
 20
85.2910226075
 10
159.3518861808
 20
85.2827802951
 10
159.376145313
 20
85.2773192467
 10
159.4014619802
 20
85.2746961713
 10
159.4278011839
 20
85.2748543599
 10
159.4546399861
 20
85.2777652583
 10
159.481804074
 20
85.2834193486
 10
159.5094677604
 20
85.2918261489
 10
159.5376310453
 20
85.302985659
  0
LWPOLYLINE
  5
2E9
100
AcDbEntity
  8
RACCORDO
100
AcDbPolyline
 62
253
  6
CONTINUOUS
 90
19
 70
0
 10
159.188333398
 20
85.5058608634
 10
159.1936138112
 20
85.4752705856
 10
159.2009282283
 20
85.4465421736
 10
159.2102766495
 20
85.4196756276
 10
159.2217415854
 20
85.3945106114
 10
159.2352405252
 20
85.3712074612
 10
159.2505259367
 20
85.3502471851
 10
159.2676306399
 20
85.3316911805
 10
159.2865218147
 20
85.3154780502
 10
159.3068534687
 20
85.30190461
 10
159.3286495852
 20
85.2910226075
 10
159.3518861808
 20
85.2827802951
 10
159.376145313
 20
85.2773192467
 10
159.4014619802
 20
85.2746961713
 10
159.4278011839
 20
85.2748543599
 10
159.4546399861
 20
85.2777652583
 10
159.481804074
 20
85.2834193486
 10
159.5094677604
 20
85.2918261489
 10
159.5376310453
 20
85.302985659
  0
LWPOLYLINE
  5
2EA
100
AcDbEntity
  8
ASSI
100
AcDbPolyline
 62
253
  6
CONTINUOUS
 90
10
 70
0
 10
157.7834244687
 20
95.1953713467
 10
157.8081395923
 20
94.0822194435
 10
157.8464565958
 20
92.9760665474
 10
157.8983677084
 20
91.8771431229
 10
157.9638628111
 20
90.7856779439
 10
158.0429281969
 20
89.7018984895
 10
158.1355465805
 20
88.6260309017
 10
158.2416987552
 20
87.558299344
 10
158.3613635891
 20
86.4989259508
 10
158.4945167923
 20
85.4481312278
  0
LWPOLYLINE
  5
2EB
100
AcDbEntity
  8
RACCORDO
100
AcDbPolyline
 62
253
  6
CONTINUOUS
 90
10
 70
0
 10
157.7834244687
 20
95.1953713467
 10
157.8081395923
 20
94.0822194435
 10
157.8464565958
 20
92.9760665474
 10
157.8983677084
 20
91.8771431229
 10
157.9638628111
 20
90.7856779439
 10
158.0429281969
 20
89.7018984895
 10
158.1355465805
 20
88.6260309017
 10
158.2416987552
 20
87.558299344
 10
158.3613635891
 20
86.4989259508
 10
158.4945167923
 20
85.4481312278
  0
LWPOLYLINE
  5
2EC
100
AcDbEntity
  8
ASSI
100
AcDbPolyline
 62
253
  6
CONTINUOUS
 90
10
 70
0
 10
157.7834244687
 20
111.6498540186
 10
157.7575507494
 20
109.809378248
 10
157.738145678
 20
107.9718950964
 10
157.7252092061
 20
106.1374371435
 10
157.7187412154
 20
104.3060617307
 10
157.7187412187
 20
102.4777764141
 10
157.7252092152
 20
100.6525393918
 10
157.7381456898
 20
98.830358706
 10
157.7575507587
 20
97.0112918152
 10
157.7834244687
 20
95.1953713467
  0
LWPOLYLINE
  5
2ED
100
AcDbEntity
  8
RACCORDO
100
AcDbPolyline
 62
253
  6
CONTINUOUS
 90
10
 70
0
 10
157.7834244687
 20
111.6498540186
 10
157.7575507494
 20
109.809378248
 10
157.738145678
 20
107.9718950964
 10
157.7252092061
 20
106.1374371435
 10
157.7187412154
 20
104.3060617307
 10
157.7187412187
 20
102.4777764141
 10
157.7252092152
 20
100.6525393918
 10
157.7381456898
 20
98.830358706
 10
157.7575507587
 20
97.0112918152
 10
157.7834244687
 20
95.1953713467
  0
LWPOLYLINE
  5
2EE
100
AcDbEntity
  8
ASSI
100
AcDbPolyline
 62
253
  6
CONTINUOUS
 90
10
 70
0
 10
158.4945167923
 20
122.0720920556
 10
158.3613635901
 20
120.8949046939
 10
158.2416987567
 20
119.7219401391
 10
158.135546582
 20
118.5534431864
 10
158.042928198
 20
117.3896579376
 10
157.9638628116
 20
116.2308269278
 10
157.8983677083
 20
115.0771910783
 10
157.8464565955
 20
113.9289907405
 10
157.808139592
 20
112.7864656421
 10
157.7834244687
 20
111.6498540186
  0
LWPOLYLINE
  5
2EF
100
AcDbEntity
  8
RACCORDO
100
AcDbPolyline
 62
253
  6
CONTINUOUS
 90
10
 70
0
 10
158.4945167923
 20
122.0720920556
 10
158.3613635901
 20
120.8949046939
 10
158.2416987567
 20
119.7219401391
 10
158.135546582
 20
118.5534431864
 10
158.042928198
 20
117.3896579376
 10
157.9638628116
 20
116.2308269278
 10
157.8983677083
 20
115.0771910783
 10
157.8464565955
 20
113.9289907405
 10
157.808139592
 20
112.7864656421
 10
157.7834244687
 20
111.6498540186
  0
LWPOLYLINE
  5
2F0
100
AcDbEntity
  8
ASSI
100
AcDbPolyline
 62
253
  6
CONTINUOUS
 90
10
 70
0
 10
159.188333398
 20
122.0013145522
 10
159.0558662665
 20
120.8302837272
 10
158.9368577751
 20
119.6639294557
 10
158.8313079238
 20
118.5022517378
 10
158.7392000064
 20
117.3450048359
 10
158.6605507292
 20
116.1924344875
 10
158.5954102105
 20
115.0452779054
 10
158.5437951567
 20
113.903780827
 10
158.5056888615
 20
112.7676975148
 10
158.4810913249
 20
111.6370279687
  0
LWPOLYLINE
  5
2F1
100
AcDbEntity
  8
RACCORDO
100
AcDbPolyline
 62
253
  6
CONTINUOUS
 90
10
 70
0
 10
159.188333398
 20
122.0013145522
 10
159.0558662665
 20
120.8302837272
 10
158.9368577751
 20
119.6639294557
 10
158.8313079238
 20
118.5022517378
 10
158.7392000064
 20
117.3450048359
 10
158.6605507292
 20
116.1924344875
 10
158.5954102105
 20
115.0452779054
 10
158.5437951567
 20
113.903780827
 10
158.5056888615
 20
112.7676975148
 10
158.4810913249
 20
111.6370279687
  0
LINE
  5
2F2
100
AcDbEntity
  8
ASSI
100
AcDbLine
 62
253
  6
CONTINUOUS
 10
155.0022583965
 20
92.8000170311
 11
154.9643936903
 21
92.4660496041
  0
LINE
  5
2F3
100
AcDbEntity
  8
RACCORDO
100
AcDbLine
 62
253
  6
CONTINUOUS
 10
155.0022583965
 20
92.8000170311
 11
154.9643936903
 21
92.4660496041
  0
LINE
  5
2F4
100
AcDbEntity
  8
ASSI
100
AcDbLine
 62
7
  6
CONTINUOUS
 10
154.9690738221
 20
92.8064782962
 11
154.9358258962
 21
92.5212544854
  0
LINE
  5
2F5
100
AcDbEntity
  8
RACCORDO
100
AcDbLine
 62
7
  6
CONTINUOUS
 10
154.9690460055
 20
92.806239666
 11
154.9358259087
 21
92.5212545774
  0
LINE
  5
2F6
100
AcDbEntity
  8
ASSI
100
AcDbLine
 62
7
  6
CONTINUOUS
 10
154.9358020375
 20
92.5210816834
 11
154.9358252907
 21
92.5212545767
  0
LINE
  5
2F7
100
AcDbEntity
  8
RACCORDO
100
AcDbLine
 62
7
  6
CONTINUOUS
 10
154.9358022954
 20
92.5210836304
 11
154.9358253033
 21
92.5212546687
  0
LWPOLYLINE
  5
2F8
100
AcDbEntity
  8
RACCORDO
100
AcDbPolyline
 62
253
  6
CONTINUOUS
 90
31
 70
0
 10
154.6478437701
 20
92.6004661943
 10
154.6460833476
 20
92.5886551939
 10
154.6438293897
 20
92.5772869624
 10
154.6410818103
 20
92.5663614492
 10
154.6378325391
 20
92.555856291
 10
154.6340894856
 20
92.5457937571
 10
154.6298765016
 20
92.5362407276
 10
154.6251906331
 20
92.5272017358
 10
154.6200346096
 20
92.5186721166
 10
154.614440752
 20
92.5107049186
 10
154.6084063044
 20
92.5033038257
 10
154.6019337641
 20
92.4964650017
 10
154.5950632871
 20
92.4902301904
 10
154.5877922439
 20
92.4846030109
 10
154.5801229909
 20
92.479579683
 10
154.572103133
 20
92.475190833
 10
154.5637303603
 20
92.4714403338
 10
154.5550067149
 20
92.4683241545
 10
154.5459863114
 20
92.465861054
 10
154.5366673231
 20
92.4640549996
 10
154.5270513343
 20
92.4629018808
 10
154.51719757
 20
92.4624083358
 10
154.5071042265
 20
92.4625784245
 10
154.4967729085
 20
92.4634079691
 10
154.4862679577
 20
92.4648912542
 10
154.4755871394
 20
92.4670329007
 10
154.4647325471
 20
92.4698282038
 10
154.4537750264
 20
92.473257466
 10
154.4427381678
 20
92.4773141065
 10
154.4315983075
 20
92.4820046625
 10
154.4203554274
 20
92.4873291233
  0
LWPOLYLINE
  5
2F9
100
AcDbEntity
  8
RACCORDO
100
AcDbPolyline
 62
253
  6
CONTINUOUS
 90
17
 70
0
 10
154.8565138461
 20
92.5837687769
 10
154.8536244982
 20
92.5667712938
 10
154.8500224445
 20
92.550348901
 10
154.845714057
 20
92.5345400144
 10
154.8407070486
 20
92.5193775818
 10
154.8350123473
 20
92.5048905537
 10
154.8286423815
 20
92.4911080872
 10
154.8216089813
 20
92.4780570206
 10
154.8139267802
 20
92.4657638719
 10
154.805613413
 20
92.4542565036
 10
154.7966852947
 20
92.4435588507
 10
154.7871606268
 20
92.4336909404
 10
154.7770602787
 20
92.4246738682
 10
154.7664039581
 20
92.4165262769
 10
154.755213647
 20
92.4092632996
 10
154.7435136702
 20
92.4029005061
 10
154.7419994418
 20
92.40216097
  0
LINE
  5
2FA
100
AcDbEntity
  8
RACCORDO
100
AcDbLine
 62
7
  6
CONTINUOUS
 10
154.9358022954
 20
92.5210836304
 11
154.9327469276
 21
92.5034542048
  0
LINE
  5
2FB
100
AcDbEntity
  8
ASSI
100
AcDbLine
 62
7
  6
CONTINUOUS
 10
154.9358020375
 20
92.5210816834
 11
154.9327469276
 21
92.5034542048
  0
LWPOLYLINE
  5
2FC
100
AcDbEntity
  8
ASSI
100
AcDbPolyline
 62
253
  6
CONTINUOUS
 90
4
 70
0
 10
154.9643936903
 20
92.4660496041
 10
154.9581819789
 20
92.4330190987
 10
154.9493549735
 20
92.4029120217
 10
154.9379106987
 20
92.3757272121
  0
LWPOLYLINE
  5
2FD
100
AcDbEntity
  8
RACCORDO
100
AcDbPolyline
 62
253
  6
CONTINUOUS
 90
4
 70
0
 10
154.9643936903
 20
92.4660496041
 10
154.9581819789
 20
92.4330190987
 10
154.9493549735
 20
92.4029120217
 10
154.9379106987
 20
92.3757272121
  0
LWPOLYLINE
  5
2FE
100
AcDbEntity
  8
RACCORDO
100
AcDbPolyline
 62
253
  6
CONTINUOUS
 90
25
 70
0
 10
146.5073946298
 20
100.1537064583
 10
146.500370003
 20
100.1498336576
 10
146.4933803091
 20
100.1454091373
 10
146.4864562604
 20
100.1404523385
 10
146.4796282811
 20
100.1349850413
 10
146.4729263729
 20
100.1290312686
 10
146.4663799838
 20
100.1226171811
 10
146.4600178782
 20
100.1157709621
 10
146.453868011
 20
100.1085226934
 10
146.4479574045
 20
100.1009042238
 10
146.4423120297
 20
100.0929490283
 10
146.4369566919
 20
100.0846920619
 10
146.4319149224
 20
100.0761696052
 10
146.4272088746
 20
100.0674191057
 10
146.4228592264
 20
100.0584790125
 10
146.4188850902
 20
100.049388608
 10
146.4153039282
 20
100.0401878352
 10
146.4121314757
 20
100.0309171219
 10
146.4093816724
 20
100.021617203
 10
146.4070666008
 20
100.0123289422
 10
146.4051964332
 20
100.0030931515
 10
146.4037793872
 20
99.9939504128
 10
146.4028216891
 20
99.9849408986
 10
146.4023275469
 20
99.9761041966
 10
146.402299132
 20
99.9674791348
  0
LWPOLYLINE
  5
2FF
100
AcDbEntity
  8
RACCORDO
100
AcDbPolyline
 62
7
  6
CONTINUOUS
 90
19
 70
0
 10
146.2828774711
 20
100.1674540073
 10
146.2728332067
 20
100.1619861913
 10
146.2594581322
 20
100.1538263848
 10
146.2464009296
 20
100.1447976603
 10
146.2337065606
 20
100.1348914467
 10
146.22143713
 20
100.1241154489
 10
146.2096651792
 20
100.1124983148
 10
146.1984354731
 20
100.1000520403
 10
146.1877939293
 20
100.0867935165
 10
146.177800863
 20
100.0727673344
 10
146.1684892814
 20
100.0579956875
 10
146.1598904195
 20
100.0425022044
 10
146.1520456201
 20
100.0263367815
 10
146.1449775456
 20
100.0095266972
 10
146.1387025003
 20
99.9920904263
 10
146.1332415566
 20
99.9740606263
 10
146.1286102053
 20
99.9554603844
 10
146.1248205437
 20
99.9363097172
 10
146.1239830735
 20
99.93129465
  0
LINE
  5
300
100
AcDbEntity
  8
RACCORDO
100
AcDbLine
 62
7
  6
CONTINUOUS
 10
146.4658053787
 20
100.2621930815
 11
146.2828316907
 21
100.1674303439
  0
LINE
  5
301
100
AcDbEntity
  8
RACCORDO
100
AcDbLine
 62
253
  6
CONTINUOUS
 10
146.5073946298
 20
100.1537064583
 11
146.5962978537
 21
100.1997497968
  0
LWPOLYLINE
  5
302
100
AcDbEntity
  8
RACCORDO
100
AcDbPolyline
 62
253
  6
CONTINUOUS
 90
17
 70
0
 10
146.2828739324
 20
100.1674521747
 10
146.2858448848
 20
100.1689554282
 10
146.2983481984
 20
100.1745609735
 10
146.3113014412
 20
100.1792374047
 10
146.3246774502
 20
100.1829750134
 10
146.3384488672
 20
100.1857649024
 10
146.3525869356
 20
100.1876022217
 10
146.3670623895
 20
100.1884833896
 10
146.38184603
 20
100.1884052999
 10
146.3969065361
 20
100.1873688113
 10
146.4122112789
 20
100.1853768661
 10
146.427727722
 20
100.1824329172
 10
146.4434250513
 20
100.1785431024
 10
146.4592732975
 20
100.1737151318
 10
146.4752414173
 20
100.1679570463
 10
146.491294391
 20
100.1612816398
 10
146.5073946331
 20
100.153706003
  0
LINE
  5
303
100
AcDbEntity
  8
ASSI
100
AcDbLine
 62
7
  6
CONTINUOUS
 10
146.3672936085
 20
100.2645395791
 11
146.3676875804
 21
100.2647287067
  0
LINE
  5
304
100
AcDbEntity
  8
RACCORDO
100
AcDbLine
 62
7
  6
CONTINUOUS
 10
146.3672936085
 20
100.2645395791
 11
146.3676960917
 21
100.264732776
  0
LINE
  5
305
100
AcDbEntity
  8
ASSI
100
AcDbLine
 62
7
  6
CONTINUOUS
 10
146.3676381895
 20
100.2647049082
 11
146.3753593306
 21
100.2678915527
  0
LINE
  5
306
100
AcDbEntity
  8
RACCORDO
100
AcDbLine
 62
7
  6
CONTINUOUS
 10
146.3676466762
 20
100.2647089658
 11
146.3753593306
 21
100.2678915527
  0
LINE
  5
307
100
AcDbEntity
  8
ASSI
100
AcDbLine
 62
253
  6
CONTINUOUS
 10
143.1347639835
 20
118.9741842612
 11
157.7834244687
 21
111.6498540186
  0
LINE
  5
308
100
AcDbEntity
  8
RACCORDO
100
AcDbLine
 62
253
  6
CONTINUOUS
 10
143.1347639835
 20
118.9741842612
 11
157.7834244687
 21
111.6498540186
  0
LWPOLYLINE
  5
309
100
AcDbEntity
  8
ASSI
100
AcDbPolyline
 62
253
  6
CONTINUOUS
 90
10
 70
0
 10
158.4810913249
 20
95.1989997795
 10
158.5056893599
 20
94.0916615087
 10
158.5437961005
 20
92.9917315749
 10
158.5954115465
 20
91.8992099781
 10
158.6605524996
 20
90.8138668893
 10
158.7392021582
 20
89.7359321374
 10
158.8313101178
 20
88.6660952102
 10
158.9368595768
 20
87.6045859367
 10
159.0558673369
 20
86.5511744878
 10
159.188333398
 20
85.5058608634
  0
LWPOLYLINE
  5
30A
100
AcDbEntity
  8
RACCORDO
100
AcDbPolyline
 62
253
  6
CONTINUOUS
 90
10
 70
0
 10
158.4810913249
 20
95.1989997795
 10
158.5056893599
 20
94.0916615087
 10
158.5437961005
 20
92.9917315749
 10
158.5954115465
 20
91.8992099781
 10
158.6605524996
 20
90.8138668893
 10
158.7392021582
 20
89.7359321374
 10
158.8313101178
 20
88.6660952102
 10
158.9368595768
 20
87.6045859367
 10
159.0558673369
 20
86.5511744878
 10
159.188333398
 20
85.5058608634
  0
LWPOLYLINE
  5
30B
100
AcDbEntity
  8
ASSI
100
AcDbPolyline
 62
253
  6
CONTINUOUS
 90
10
 70
0
 10
158.4810913249
 20
111.6370279687
 10
158.4552430889
 20
109.7983397954
 10
158.4358569135
 20
107.9627055718
 10
158.4229327988
 20
106.130125298
 10
158.4164707471
 20
104.300590708
 10
158.416470756
 20
102.4741100678
 10
158.4229328189
 20
100.650708175
 10
158.4358569336
 20
98.8303932957
 10
158.4552431023
 20
97.0131571638
 10
158.4810913249
 20
95.1989997795
  0
LWPOLYLINE
  5
30C
100
AcDbEntity
  8
RACCORDO
100
AcDbPolyline
 62
253
  6
CONTINUOUS
 90
10
 70
0
 10
158.4810913249
 20
111.6370279687
 10
158.4552430889
 20
109.7983397954
 10
158.4358569135
 20
107.9627055718
 10
158.4229327988
 20
106.130125298
 10
158.4164707471
 20
104.300590708
 10
158.416470756
 20
102.4741100678
 10
158.4229328189
 20
100.650708175
 10
158.4358569336
 20
98.8303932957
 10
158.4552431023
 20
97.0131571638
 10
158.4810913249
 20
95.1989997795
  0
LINE
  5
30D
100
AcDbEntity
  8
ASSI
100
AcDbLine
 62
7
  6
CONTINUOUS
 10
154.9327469276
 20
92.5034542048
 11
154.9272061619
 21
92.4826336873
  0
LINE
  5
30E
100
AcDbEntity
  8
RACCORDO
100
AcDbLine
 62
7
  6
CONTINUOUS
 10
154.9327469276
 20
92.5034542048
 11
154.9272061619
 21
92.4826336873
  0
LINE
  5
30F
100
AcDbEntity
  8
0
100
AcDbLine
 62
253
  6
CONTINUOUS
 10
151.8600204868
 20
115.3543887852
 11
151.8212711542
 21
115.3718775548
  0
LINE
  5
310
100
AcDbEntity
  8
0
100
AcDbLine
 62
253
  6
CONTINUOUS
 10
151.8986569275
 20
115.3366878362
 11
151.8600204868
 21
115.3543887852
  0
LINE
  5
311
100
AcDbEntity
  8
0
100
AcDbLine
 62
253
  6
CONTINUOUS
 10
151.2875825173
 20
115.6403382274
 11
149.6587750598
 21
116.4547419561
  0
LINE
  5
312
100
AcDbEntity
  8
0
100
AcDbLine
 62
253
  6
CONTINUOUS
 10
149.8374235537
 20
116.7372961294
 11
151.1271153517
 21
116.0924502304
  0
LINE
  5
313
100
AcDbEntity
  8
0
100
AcDbLine
 62
253
  6
CONTINUOUS
 10
150.371842005
 20
117.426780051
 11
150.6521441066
 21
117.2866290002
  0
LINE
  5
314
100
AcDbEntity
  8
0
100
AcDbLine
 62
253
  6
CONTINUOUS
 10
149.6412511684
 20
117.8374082244
 11
149.6707944507
 21
117.8219535091
  0
LINE
  5
315
100
AcDbEntity
  8
0
100
AcDbLine
 62
253
  6
CONTINUOUS
 10
153.0450548256
 20
116.1103794558
 11
153.1454448966
 21
116.0562245245
  0
LINE
  5
316
100
AcDbEntity
  8
0
100
AcDbLine
 62
253
  6
CONTINUOUS
 10
153.7478478787
 20
115.9258374716
 11
153.8150949953
 21
115.8877003695
  0
LINE
  5
317
100
AcDbEntity
  8
0
100
AcDbLine
 62
253
  6
CONTINUOUS
 10
153.7549923216
 20
115.638460294
 11
153.7260423209
 21
115.6552545555
  0
LWPOLYLINE
  5
318
100
AcDbEntity
  8
ASSI
100
AcDbPolyline
 62
253
  6
CONTINUOUS
 90
16
 70
0
 10
159.5376310453
 20
122.5356608472
 10
159.5347557092
 20
122.5814090121
 10
159.5281443704
 20
122.6286415798
 10
159.5178693661
 20
122.6768415384
 10
159.5040431375
 20
122.7254812822
 10
159.4868170027
 20
122.7740283768
 10
159.4663795033
 20
122.821951388
 10
159.4429543322
 20
122.8687257198
 10
159.4167978946
 20
122.9138393349
 10
159.3881965098
 20
122.9567983528
 10
159.3574632521
 20
122.997132499
 10
159.3249345408
 20
123.0344002213
 10
159.2909664756
 20
123.0681935111
 10
159.255930903
 20
123.0981424137
 10
159.2202113425
 20
123.1239190708
 10
159.1841988118
 20
123.1452412864
  0
LWPOLYLINE
  5
319
100
AcDbEntity
  8
RACCORDO
100
AcDbPolyline
 62
253
  6
CONTINUOUS
 90
16
 70
0
 10
159.5376310453
 20
122.5356608472
 10
159.5347557092
 20
122.5814090121
 10
159.5281443704
 20
122.6286415798
 10
159.5178693661
 20
122.6768415384
 10
159.5040431375
 20
122.7254812822
 10
159.4868170027
 20
122.7740283768
 10
159.4663795033
 20
122.821951388
 10
159.4429543322
 20
122.8687257198
 10
159.4167978946
 20
122.9138393349
 10
159.3881965098
 20
122.9567983528
 10
159.3574632521
 20
122.997132499
 10
159.3249345408
 20
123.0344002213
 10
159.2909664756
 20
123.0681935111
 10
159.255930903
 20
123.0981424137
 10
159.2202113425
 20
123.1239190708
 10
159.1841988118
 20
123.1452412864
  0
LWPOLYLINE
  5
31A
100
AcDbEntity
  8
ASSI
100
AcDbPolyline
 62
253
  6
CONTINUOUS
 90
10
 70
0
 10
159.5376310453
 20
85.302985659
 10
159.5347556225
 20
85.2582807163
 10
159.5281440838
 20
85.2160502504
 10
159.5178688035
 20
85.1767565438
 10
159.5040422617
 20
85.1408297314
 10
159.4868158128
 20
85.1086630918
 10
159.4663780289
 20
85.0806087425
 10
159.4429526355
 20
85.0569737847
 10
159.4167960625
 20
85.0380169425
 10
159.3960591626
 20
85.0272176135
  0
LWPOLYLINE
  5
31B
100
AcDbEntity
  8
RACCORDO
100
AcDbPolyline
 62
253
  6
CONTINUOUS
 90
10
 70
0
 10
159.5376310453
 20
85.302985659
 10
159.5347556225
 20
85.2582807163
 10
159.5281440838
 20
85.2160502504
 10
159.5178688035
 20
85.1767565438
 10
159.5040422617
 20
85.1408297314
 10
159.4868158128
 20
85.1086630918
 10
159.4663780289
 20
85.0806087425
 10
159.4429526355
 20
85.0569737847
 10
159.4167960625
 20
85.0380169425
 10
159.3960591626
 20
85.0272176135
  0
LINE
  5
31C
100
AcDbEntity
  8
ASSI
100
AcDbLine
 62
7
  6
CONTINUOUS
 10
154.9272061619
 20
92.4826336873
 11
154.9201048812
 21
92.4646013204
  0
LINE
  5
31D
100
AcDbEntity
  8
RACCORDO
100
AcDbLine
 62
7
  6
CONTINUOUS
 10
154.9272061619
 20
92.4826336873
 11
154.9201048812
 21
92.4646013204
  0
LINE
  5
31E
100
AcDbEntity
  8
0
100
AcDbLine
 62
253
  6
CONTINUOUS
 10
153.8831348644
 20
116.672830458
 11
153.8539747605
 21
116.6845158339
  0
LINE
  5
31F
100
AcDbEntity
  8
0
100
AcDbLine
 62
253
  6
CONTINUOUS
 10
153.0709932741
 20
117.3057695325
 11
153.1024856317
 21
117.2920952718
  0
LINE
  5
320
100
AcDbEntity
  8
0
100
AcDbLine
 62
253
  6
CONTINUOUS
 10
153.4076036477
 20
116.5334426896
 11
153.4390669985
 21
116.5193587616
  0
LINE
  5
321
100
AcDbEntity
  8
0
100
AcDbLine
 62
253
  6
CONTINUOUS
 10
151.355941817
 20
116.9793798259
 11
151.3855438234
 21
116.9655351278
  0
LINE
  5
322
100
AcDbEntity
  8
0
100
AcDbLine
 62
253
  6
CONTINUOUS
 10
153.0417586785
 20
117.6458145546
 11
152.9356276815
 21
117.6965245033
  0
LINE
  5
323
100
AcDbEntity
  8
0
100
AcDbLine
 62
253
  6
CONTINUOUS
 10
152.9545559953
 20
117.396181634
 11
153.0026491808
 21
117.3728252826
  0
LINE
  5
324
100
AcDbEntity
  8
0
100
AcDbLine
 62
253
  6
CONTINUOUS
 10
153.6461133001
 20
117.0730687387
 11
153.613951982
 21
117.0888728788
  0
LINE
  5
325
100
AcDbEntity
  8
0
100
AcDbLine
 62
253
  6
CONTINUOUS
 10
153.5718144502
 20
117.3956160814
 11
153.6591541296
 21
117.3526394266
  0
LINE
  5
326
100
AcDbEntity
  8
0
100
AcDbLine
 62
253
  6
CONTINUOUS
 10
150.7111138703
 20
117.664769804
 11
150.3428606605
 21
117.8488964089
  0
LINE
  5
327
100
AcDbEntity
  8
0
100
AcDbLine
 62
253
  6
CONTINUOUS
 10
153.6782615419
 20
117.0569946178
 11
153.6461133001
 21
117.0730687387
  0
LINE
  5
328
100
AcDbEntity
  8
0
100
AcDbLine
 62
253
  6
CONTINUOUS
 10
153.6591541296
 20
117.3526394266
 11
153.7464599381
 21
117.3089865223
  0
LINE
  5
329
100
AcDbEntity
  8
ASSI
100
AcDbLine
 62
7
  6
CONTINUOUS
 10
162.4160873588
 20
86.5788026729
 11
162.4160873588
 21
123.9913968816
  0
LINE
  5
32A
100
AcDbEntity
  8
RACCORDO
100
AcDbLine
 62
7
  6
CONTINUOUS
 10
162.4160873588
 20
86.5788026729
 11
162.4160873588
 21
123.9913968816
  0
LINE
  5
32B
100
AcDbEntity
  8
ASSI
100
AcDbLine
 62
7
  6
CONTINUOUS
 10
154.9201048812
 20
92.4646013204
 11
154.911829169
 21
92.4497755022
  0
LINE
  5
32C
100
AcDbEntity
  8
RACCORDO
100
AcDbLine
 62
7
  6
CONTINUOUS
 10
154.9201048812
 20
92.4646013204
 11
154.911829169
 21
92.4497755022
  0
LWPOLYLINE
  5
32D
100
AcDbEntity
  8
ASSI
100
AcDbPolyline
 62
253
  6
CONTINUOUS
 90
13
 70
0
 10
154.9379106987
 20
92.3757272121
 10
154.92370385
 20
92.3513026733
 10
154.9068762221
 20
92.3297983344
 10
154.8878558807
 20
92.311695559
 10
154.8666105576
 20
92.2970716007
 10
154.8431681285
 20
92.2858466027
 10
154.8180459974
 20
92.2782657377
 10
154.7911454644
 20
92.2744187809
 10
154.7625614442
 20
92.2742137058
 10
154.7331015723
 20
92.2776228676
 10
154.7030342417
 20
92.2846365633
 10
154.6720888207
 20
92.2952631617
 10
154.6402647557
 20
92.3095023325
  0
LWPOLYLINE
  5
32E
100
AcDbEntity
  8
RACCORDO
100
AcDbPolyline
 62
253
  6
CONTINUOUS
 90
13
 70
0
 10
154.9379106987
 20
92.3757272121
 10
154.92370385
 20
92.3513026733
 10
154.9068762221
 20
92.3297983344
 10
154.8878558807
 20
92.311695559
 10
154.8666105576
 20
92.2970716007
 10
154.8431681285
 20
92.2858466027
 10
154.8180459974
 20
92.2782657377
 10
154.7911454644
 20
92.2744187809
 10
154.7625614442
 20
92.2742137058
 10
154.7331015723
 20
92.2776228676
 10
154.7030342417
 20
92.2846365633
 10
154.6720888207
 20
92.2952631617
 10
154.6402647557
 20
92.3095023325
  0
LINE
  5
32F
100
AcDbEntity
  8
0
100
AcDbLine
 62
253
  6
CONTINUOUS
 10
150.4288483181
 20
119.6153642721
 11
150.797101528
 21
119.4312376671
  0
LINE
  5
330
100
AcDbEntity
  8
0
100
AcDbLine
 62
253
  6
CONTINUOUS
 10
150.9046700238
 20
119.762332566
 11
150.3654618959
 21
120.0319366299
  0
LINE
  5
331
100
AcDbEntity
  8
0
100
AcDbLine
 62
253
  6
CONTINUOUS
 10
150.5524535605
 20
120.2880569182
 11
150.7600731113
 21
120.1842471428
  0
LINE
  5
332
100
AcDbEntity
  8
0
100
AcDbLine
 62
253
  6
CONTINUOUS
 10
150.8265873841
 20
120.5475396343
 11
150.5366079081
 21
120.6925293723
  0
LINE
  5
333
100
AcDbEntity
  8
ASSI
100
AcDbLine
 62
7
  6
CONTINUOUS
 10
154.911829169
 20
92.4497755022
 11
154.9027803566
 21
92.4382134238
  0
LINE
  5
334
100
AcDbEntity
  8
RACCORDO
100
AcDbLine
 62
7
  6
CONTINUOUS
 10
154.911829169
 20
92.4497755022
 11
154.9027803566
 21
92.4382134238
  0
LWPOLYLINE
  5
335
100
AcDbEntity
  8
RACCORDO
100
AcDbPolyline
 62
253
  6
CONTINUOUS
 90
25
 70
0
 10
154.3692025535
 20
96.2228024965
 10
154.3621779159
 20
96.2189296894
 10
154.3551882118
 20
96.2145051613
 10
154.3482641537
 20
96.2095483536
 10
154.3414361658
 20
96.2040810464
 10
154.3347342499
 20
96.1981272631
 10
154.3281878544
 20
96.1917131646
 10
154.3218257438
 20
96.1848669346
 10
154.315675873
 20
96.1776186553
 10
154.3097652645
 20
96.1700001758
 10
154.3041198891
 20
96.1620449716
 10
154.2987645523
 20
96.1537879976
 10
154.2937227853
 20
96.1452655352
 10
154.2890167411
 20
96.1365150318
 10
154.2846670978
 20
96.1275749369
 10
154.2806929675
 20
96.1184845332
 10
154.2771118119
 20
96.1092837637
 10
154.2739393663
 20
96.100013056
 10
154.2711895701
 20
96.0907131455
 10
154.2688745054
 20
96.0814248955
 10
154.2670043442
 20
96.072189118
 10
154.2655873036
 20
96.0630463946
 10
154.2646296096
 20
96.0540368978
 10
154.26413547
 20
96.0452002147
 10
154.2641070557
 20
96.036575173
  0
LINE
  5
336
100
AcDbEntity
  8
RACCORDO
100
AcDbLine
 62
253
  6
CONTINUOUS
 10
154.3692025535
 20
96.2228024965
 11
154.4593752337
 21
96.2682111067
  0
LWPOLYLINE
  5
337
100
AcDbEntity
  8
ASSI
100
AcDbPolyline
 62
253
  6
CONTINUOUS
 90
16
 70
0
 10
159.188333398
 20
122.0013145522
 10
159.1496341228
 20
121.991387027
 10
159.1076972883
 20
121.983486658
 10
159.0629673554
 20
121.9776971758
 10
159.0159183869
 20
121.9740799395
 10
158.9670490238
 20
121.9726732856
 10
158.9168772001
 20
121.9734921225
 10
158.8659346538
 20
121.9765277717
 10
158.8147612913
 20
121.9817480605
 10
158.7638994652
 20
121.9890976624
 10
158.7138882263
 20
121.9984986839
 10
158.6652576108
 20
122.0098514898
 10
158.6185230223
 20
122.0230357595
 10
158.5741797699
 20
122.0379117615
 10
158.5326978184
 20
122.054321835
 10
158.4945168076
 20
122.0720920604
  0
LWPOLYLINE
  5
338
100
AcDbEntity
  8
RACCORDO
100
AcDbPolyline
 62
253
  6
CONTINUOUS
 90
16
 70
0
 10
159.188333398
 20
122.0013145522
 10
159.1496341228
 20
121.991387027
 10
159.1076972883
 20
121.983486658
 10
159.0629673554
 20
121.9776971758
 10
159.0159183869
 20
121.9740799395
 10
158.9670490238
 20
121.9726732856
 10
158.9168772001
 20
121.9734921225
 10
158.8659346538
 20
121.9765277717
 10
158.8147612913
 20
121.9817480605
 10
158.7638994652
 20
121.9890976624
 10
158.7138882263
 20
121.9984986839
 10
158.6652576108
 20
122.0098514898
 10
158.6185230223
 20
122.0230357595
 10
158.5741797699
 20
122.0379117615
 10
158.5326978184
 20
122.054321835
 10
158.4945168076
 20
122.0720920604
  0
LINE
  5
339
100
AcDbEntity
  8
RACCORDO
100
AcDbLine
 62
7
  6
CONTINUOUS
 10
154.9027803566
 20
92.4382134238
 11
154.8932056138
 21
92.429583289
  0
LINE
  5
33A
100
AcDbEntity
  8
ASSI
100
AcDbLine
 62
7
  6
CONTINUOUS
 10
154.9027803566
 20
92.4382134238
 11
154.8931931192
 21
92.429575493
  0
LWPOLYLINE
  5
33B
100
AcDbEntity
  8
RACCORDO
100
AcDbPolyline
 62
253
  6
CONTINUOUS
 90
25
 70
0
 10
154.7213177348
 20
95.7085573218
 10
154.7141596583
 20
95.7048806972
 10
154.706592767
 20
95.7013297634
 10
154.6986493758
 20
95.6979196849
 10
154.6903634075
 20
95.6946650247
 10
154.6817702479
 20
95.6915796819
 10
154.6729065946
 20
95.6886768328
 10
154.6638103005
 20
95.6859688742
 10
154.654520212
 20
95.6834673705
 10
154.645076003
 20
95.6811830048
 10
154.6355180057
 20
95.6791255324
 10
154.625887038
 20
95.6773037399
 10
154.6162242298
 20
95.6757254075
 10
154.6065708468
 20
95.6743972756
 10
154.5969681142
 20
95.6733250159
 10
154.5874570414
 20
95.6725132077
 10
154.5780782459
 20
95.6719653178
 10
154.5688717806
 20
95.6716836861
 10
154.5598769623
 20
95.6716695153
 10
154.551132204
 20
95.6719228658
 10
154.5426748507
 20
95.6724426558
 10
154.5345410202
 20
95.6732266655
 10
154.5267654486
 20
95.6742715466
 10
154.5193813419
 20
95.6755728369
 10
154.5124202345
 20
95.6771249793
  0
LINE
  5
33C
100
AcDbEntity
  8
RACCORDO
100
AcDbLine
 62
253
  6
CONTINUOUS
 10
154.721317784
 20
95.7085573095
 11
154.8034409356
 21
95.7499602053
  0
LINE
  5
33D
100
AcDbEntity
  8
ASSI
100
AcDbLine
 62
7
  6
CONTINUOUS
 10
154.8931931192
 20
92.429575493
 11
154.8842590246
 21
92.4240010546
  0
LINE
  5
33E
100
AcDbEntity
  8
RACCORDO
100
AcDbLine
 62
7
  6
CONTINUOUS
 10
154.8932056138
 20
92.429583289
 11
154.8842587924
 21
92.4240009349
  0
LWPOLYLINE
  5
33F
100
AcDbEntity
  8
RACCORDO
100
AcDbPolyline
 62
253
  6
CONTINUOUS
 90
25
 70
0
 10
154.8565138461
 20
92.5837687769
 10
154.8493268665
 20
92.5800378985
 10
154.8417422979
 20
92.5766507463
 10
154.8337916519
 20
92.5736213929
 10
154.8255079612
 20
92.5709624243
 10
154.8169256421
 20
92.5686848878
 10
154.8080803515
 20
92.5667982458
 10
154.7990088392
 20
92.5653103369
 10
154.7897487945
 20
92.5642273429
 10
154.7803386903
 20
92.5635537632
 10
154.7708176229
 20
92.5632923964
 10
154.7612251494
 20
92.5634443284
 10
154.7516011238
 20
92.5640089281
 10
154.7419855311
 20
92.5649838495
 10
154.7324183213
 20
92.5663650422
 10
154.7229392433
 20
92.5681467679
 10
154.7135876801
 20
92.5703216238
 10
154.7044024845
 20
92.5728805741
 10
154.6954218184
 20
92.5758129872
 10
154.6866829938
 20
92.5791066797
 10
154.678222318
 20
92.5827479672
 10
154.6700749427
 20
92.5867217213
 10
154.6622747177
 20
92.5910114323
 10
154.6548540509
 20
92.5955992775
 10
154.6478437728
 20
92.6004661958
  0
LINE
  5
340
100
AcDbEntity
  8
ASSI
100
AcDbLine
 62
7
  6
CONTINUOUS
 10
154.8844064056
 20
92.4240771413
 11
154.8842270655
 21
92.4239845189
  0
LINE
  5
341
100
AcDbEntity
  8
RACCORDO
100
AcDbLine
 62
7
  6
CONTINUOUS
 10
154.8844064056
 20
92.4240771413
 11
154.8842268352
 21
92.4239844002
  0
LINE
  5
342
100
AcDbEntity
  8
RACCORDO
100
AcDbLine
 62
7
  6
CONTINUOUS
 10
154.741999293
 20
92.4021608748
 11
154.9299204221
 21
92.4928049879
  0
LINE
  5
343
100
AcDbEntity
  8
RACCORDO
100
AcDbLine
 62
253
  6
CONTINUOUS
 10
154.8565142446
 20
92.5837684709
 11
154.9482709348
 21
92.6279893153
  0
LWPOLYLINE
  5
344
100
AcDbEntity
  8
ASSI
100
AcDbPolyline
 62
253
  6
CONTINUOUS
 90
16
 70
0
 10
158.4810913249
 20
95.1989997795
 10
158.4419932284
 20
95.1814281187
 10
158.3996629919
 20
95.1659638517
 10
158.3545490802
 20
95.1527708136
 10
158.3071294495
 20
95.1419887771
 10
158.2579064836
 20
95.1337319718
 10
158.2074016719
 20
95.1280878738
 10
158.1561500841
 20
95.1251162791
 10
158.1046947014
 20
95.12484867
 10
158.0535806645
 20
95.1272878817
 10
158.0033494972
 20
95.1324080722
 10
157.9545333704
 20
95.1401549959
 10
157.9076494628
 20
95.1504465787
 10
157.863194483
 20
95.163173787
 10
157.8216394059
 20
95.1782017834
 10
157.783424484
 20
95.1953713547
  0
LWPOLYLINE
  5
345
100
AcDbEntity
  8
RACCORDO
100
AcDbPolyline
 62
253
  6
CONTINUOUS
 90
16
 70
0
 10
158.4810913249
 20
95.1989997795
 10
158.4419932284
 20
95.1814281187
 10
158.3996629919
 20
95.1659638517
 10
158.3545490802
 20
95.1527708136
 10
158.3071294495
 20
95.1419887771
 10
158.2579064836
 20
95.1337319718
 10
158.2074016719
 20
95.1280878738
 10
158.1561500841
 20
95.1251162791
 10
158.1046947014
 20
95.12484867
 10
158.0535806645
 20
95.1272878817
 10
158.0033494972
 20
95.1324080722
 10
157.9545333704
 20
95.1401549959
 10
157.9076494628
 20
95.1504465787
 10
157.863194483
 20
95.163173787
 10
157.8216394059
 20
95.1782017834
 10
157.783424484
 20
95.1953713547
  0
LINE
  5
346
100
AcDbEntity
  8
ASSI
100
AcDbLine
 62
253
  6
CONTINUOUS
 10
143.8097619015
 20
129.414469501
 11
158.4945167923
 21
122.0720920556
  0
LINE
  5
347
100
AcDbEntity
  8
RACCORDO
100
AcDbLine
 62
253
  6
CONTINUOUS
 10
143.8097619015
 20
129.414469501
 11
158.4945167923
 21
122.0720920556
  0
LWPOLYLINE
  5
348
100
AcDbEntity
  8
ASSI
100
AcDbPolyline
 62
253
  6
CONTINUOUS
 90
6
 70
0
 10
154.8842270655
 20
92.4239845189
 10
154.8714939209
 20
92.4182790983
 10
154.8516343229
 20
92.4123565322
 10
154.8303610215
 20
92.40932572
 10
154.8078670817
 20
92.4092461441
 10
154.7843957723
 20
92.4121141729
  0
LWPOLYLINE
  5
349
100
AcDbEntity
  8
RACCORDO
100
AcDbPolyline
 62
253
  6
CONTINUOUS
 90
5
 70
0
 10
154.8842268352
 20
92.4239844002
 10
154.8714939209
 20
92.4182790983
 10
154.8516343229
 20
92.4123565322
 10
154.8303610215
 20
92.40932572
 10
154.8078670817
 20
92.4092461441
  0
LINE
  5
34A
100
AcDbEntity
  8
ASSI
100
AcDbLine
 62
253
  6
CONTINUOUS
 10
144.481617361
 20
130.4965320086
 11
159.1841988086
 21
123.1452412848
  0
LINE
  5
34B
100
AcDbEntity
  8
RACCORDO
100
AcDbLine
 62
253
  6
CONTINUOUS
 10
144.481617361
 20
130.4965320086
 11
159.1841988086
 21
123.1452412848
  0
LINE
  5
34C
100
AcDbEntity
  8
ASSI
100
AcDbLine
 62
7
  6
CONTINUOUS
 10
147.2131704093
 20
132.0257196756
 11
162.0626551221
 21
124.6009773192
  0
LINE
  5
34D
100
AcDbEntity
  8
RACCORDO
100
AcDbLine
 62
7
  6
CONTINUOUS
 10
147.2131704093
 20
132.0257196756
 11
162.0626551221
 21
124.6009773192
  0
LWPOLYLINE
  5
34E
100
AcDbEntity
  8
ASSI
100
AcDbPolyline
 62
253
  6
CONTINUOUS
 90
16
 70
0
 10
159.1883333979
 20
85.5058608635
 10
159.149634462
 20
85.4827178924
 10
159.1076981244
 20
85.4617421353
 10
159.0629688291
 20
85.4431558949
 10
159.0159206203
 20
85.4271561493
 10
158.9670521182
 20
85.4139124649
 10
158.9168812344
 20
85.4035651992
 10
158.8659396834
 20
85.3962240132
 10
158.8147673471
 20
85.3919667093
 10
158.7639065536
 20
85.3908384067
 10
158.7138963289
 20
85.3928510633
 10
158.6652666848
 20
85.3979833487
 10
158.6185330017
 20
85.4061808704
 10
158.5741905663
 20
85.4173567504
 10
158.5327093227
 20
85.4313925461
 10
158.494528892
 20
85.4481395051
  0
LWPOLYLINE
  5
34F
100
AcDbEntity
  8
RACCORDO
100
AcDbPolyline
 62
253
  6
CONTINUOUS
 90
16
 70
0
 10
159.1883333979
 20
85.5058608635
 10
159.149634462
 20
85.4827178924
 10
159.1076981244
 20
85.4617421353
 10
159.0629688291
 20
85.4431558949
 10
159.0159206203
 20
85.4271561493
 10
158.9670521182
 20
85.4139124649
 10
158.9168812344
 20
85.4035651992
 10
158.8659396834
 20
85.3962240132
 10
158.8147673471
 20
85.3919667093
 10
158.7639065536
 20
85.3908384067
 10
158.7138963289
 20
85.3928510633
 10
158.6652666848
 20
85.3979833487
 10
158.6185330017
 20
85.4061808704
 10
158.5741905663
 20
85.4173567504
 10
158.5327093227
 20
85.4313925461
 10
158.494528892
 20
85.4481395051
  0
LINE
  5
350
100
AcDbEntity
  8
ASSI
100
AcDbLine
 62
253
  6
CONTINUOUS
 10
159.5376310453
 20
85.302985659
 11
162.4160873588
 21
86.5788026729
  0
LINE
  5
351
100
AcDbEntity
  8
RACCORDO
100
AcDbLine
 62
253
  6
CONTINUOUS
 10
159.5376310453
 20
85.302985659
 11
162.4160873588
 21
86.5788026729
  0
LINE
  5
352
100
AcDbEntity
  8
ASSI
100
AcDbLine
 62
7
  6
CONTINUOUS
 10
159.3960591626
 20
85.0272176135
 11
162.2783331524
 21
86.3047267345
  0
LINE
  5
353
100
AcDbEntity
  8
RACCORDO
100
AcDbLine
 62
7
  6
CONTINUOUS
 10
159.3960591626
 20
85.0272176135
 11
162.2783331524
 21
86.3047267345
  0
LINE
  5
354
100
AcDbEntity
  8
ASSI
100
AcDbLine
 62
7
  6
CONTINUOUS
 10
159.3348879074
 20
85.0028060787
 11
159.3957633401
 21
85.0271056523
  0
LINE
  5
355
100
AcDbEntity
  8
RACCORDO
100
AcDbLine
 62
7
  6
CONTINUOUS
 10
159.3351761583
 20
85.0029211394
 11
159.3957631549
 21
85.0271055706
  0
ELLIPSE
  5
356
100
AcDbEntity
  8
ASSI
100
AcDbEllipse
 62
7
  6
CONTINUOUS
 10
162.0624127727
 20
86.755936782
 30
0.0
 11
-0.2238185272
 21
0.4474870472
 31
0.0
 40
0.6119614214
 41
-3.1701059984
 42
-2.2560086979
  0
ELLIPSE
  5
357
100
AcDbEntity
  8
ASSI
100
AcDbEllipse
 62
7
  6
CONTINUOUS
 10
162.0624127727
 20
124.1679373585
 30
0.0
 11
-0.2235482059
 21
0.4472467618
 31
0.0
 40
0.6127837007
 41
-2.2550219623
 42
-0.6849108682
  0
ELLIPSE
  5
358
100
AcDbEntity
  8
ASSI
100
AcDbEllipse
 62
7
  6
CONTINUOUS
 10
147.2134127587
 20
131.5924373655
 30
0.0
 11
-0.2238185272
 21
0.4474870472
 31
0.0
 40
0.6119614214
 41
-0.6845271385
 42
0.028513344
  0
ELLIPSE
  5
359
100
AcDbEntity
  8
0
100
AcDbEllipse
 62
253
  6
CONTINUOUS
 10
214.0998359433
 20
145.638867161
 30
0.0
 11
76.3305087303
 21
61.9556650172
 31
0.0
 40
0.2213760236
 41
2.306734282
 42
2.3071131736
  0
ELLIPSE
  5
35A
100
AcDbEntity
  8
0
100
AcDbEllipse
 62
253
  6
CONTINUOUS
 10
215.5473809164
 20
144.9150946745
 30
0.0
 11
54.74286602
 21
72.8552542978
 31
0.0
 40
0.4871630773
 41
-3.9872274992
 42
-3.9867555808
  0
ELLIPSE
  5
35B
100
AcDbEntity
  8
0
100
AcDbEllipse
 62
253
  6
CONTINUOUS
 10
216.7520378128
 20
144.3127662263
 30
0.0
 11
24.0508759334
 21
87.6851020114
 31
0.0
 40
0.6831487915
 41
-4.2103218478
 42
-4.2098634752
  0
ELLIPSE
  5
35C
100
AcDbEntity
  8
0
100
AcDbEllipse
 62
253
  6
CONTINUOUS
 10
216.7727183056
 20
144.3024259799
 30
0.0
 11
23.2683053014
 21
87.9818676039
 31
0.0
 40
0.6852557144
 41
-4.2166828179
 42
-4.2151217092
  0
ELLIPSE
  5
35D
100
AcDbEntity
  8
0
100
AcDbEllipse
 62
253
  6
CONTINUOUS
 10
217.9119902442
 20
143.7327900106
 30
0.0
 11
-27.1669143161
 21
99.4062916187
 31
0.0
 40
0.6833659608
 41
-4.622779359
 42
-4.6213181472
  0
ELLIPSE
  5
35E
100
AcDbEntity
  8
0
100
AcDbEllipse
 62
253
  6
CONTINUOUS
 10
219.5623273602
 20
142.9076214526
 30
0.0
 11
-77.850355246
 21
111.8691403943
 31
0.0
 40
0.5180866212
 41
1.4512473807
 42
1.4522857304
  0
ELLIPSE
  5
35F
100
AcDbEntity
  8
0
100
AcDbEllipse
 62
253
  6
CONTINUOUS
 10
219.5816920167
 20
142.8979391244
 30
0.0
 11
-78.3479347039
 21
112.0555710134
 31
0.0
 40
0.5162967491
 41
1.451386471
 42
1.4524214021
  0
ELLIPSE
  5
360
100
AcDbEntity
  8
0
100
AcDbEllipse
 62
253
  6
CONTINUOUS
 10
223.2378546421
 20
141.0698578117
 30
0.0
 11
166.2279243123
 21
-153.4932833599
 31
0.0
 40
0.295977021
 41
-1.7245874059
 42
-1.7239685033
  0
ELLIPSE
  5
361
100
AcDbEntity
  8
0
100
AcDbEllipse
 62
253
  6
CONTINUOUS
 10
289.7642007262
 20
107.8066847696
 30
0.0
 11
1756.8109304275
 21
-955.0358161127
 31
0.0
 40
0.0291870259
 41
-1.6328610501
 42
-1.6328035629
  0
ELLIPSE
  5
362
100
AcDbEntity
  8
0
100
AcDbEllipse
 62
253
  6
CONTINUOUS
 10
287.4343000267
 20
108.9716351194
 30
0.0
 11
1700.8769713704
 21
-927.0280973512
 31
0.0
 40
0.030152248
 41
-1.6334280402
 42
-1.6333688506
  0
ELLIPSE
  5
363
100
AcDbEntity
  8
0
100
AcDbEllipse
 62
253
  6
CONTINUOUS
 10
208.4577869523
 20
148.4598916565
 30
0.0
 11
209.650969472
 21
-11.608078486
 31
0.0
 40
0.1758519947
 41
-1.8278759395
 42
-1.8273652617
  0
ELLIPSE
  5
364
100
AcDbEntity
  8
0
100
AcDbEllipse
 62
253
  6
CONTINUOUS
 10
213.3128803673
 20
146.0323449491
 30
0.0
 11
105.6953102644
 21
47.7443291352
 31
0.0
 40
0.0305603036
 41
-2.1885662606
 42
-2.187612523
  0
ELLIPSE
  5
365
100
AcDbEntity
  8
0
100
AcDbEllipse
 62
253
  6
CONTINUOUS
 10
213.3144726793
 20
146.0315487931
 30
0.0
 11
105.6658692182
 21
47.7594106141
 31
0.0
 40
0.0303960603
 41
-2.1877572957
 42
-2.1868018162
  0
ELLIPSE
  5
366
100
AcDbEntity
  8
0
100
AcDbEllipse
 62
253
  6
CONTINUOUS
 10
215.1796743829
 20
145.0989479412
 30
0.0
 11
74.7221731623
 21
62.7197697857
 31
0.0
 40
0.2405728074
 41
2.3139684134
 42
2.3153687196
  0
ELLIPSE
  5
367
100
AcDbEntity
  8
0
100
AcDbEllipse
 62
253
  6
CONTINUOUS
 10
216.3631170167
 20
144.5072266244
 30
0.0
 11
56.0029846516
 21
72.1795197373
 31
0.0
 40
0.4731282141
 41
-3.9808437771
 42
-3.979306387
  0
ELLIPSE
  5
368
100
AcDbEntity
  8
0
100
AcDbEllipse
 62
253
  6
CONTINUOUS
 10
216.3647601064
 20
144.5064050795
 30
0.0
 11
55.9743981
 21
72.1948205318
 31
0.0
 40
0.4734514723
 41
-3.9824916724
 42
-3.9809507761
  0
ELLIPSE
  5
369
100
AcDbEntity
  8
0
100
AcDbEllipse
 62
253
  6
CONTINUOUS
 10
217.4276279762
 20
143.9749711446
 30
0.0
 11
31.8779278307
 21
84.4546983524
 31
0.0
 40
0.6561356362
 41
-4.1453570088
 42
-4.143690826
  0
ELLIPSE
  5
36A
100
AcDbEntity
  8
0
100
AcDbEllipse
 62
253
  6
CONTINUOUS
 10
218.6056641377
 20
143.3859530638
 30
0.0
 11
-14.5882592435
 21
97.4970095496
 31
0.0
 40
0.7040450091
 41
-4.5383764876
 42
-4.5369385518
  0
ELLIPSE
  5
36B
100
AcDbEntity
  8
0
100
AcDbEllipse
 62
253
  6
CONTINUOUS
 10
218.6408309016
 20
143.3683696819
 30
0.0
 11
-15.9723241694
 21
97.7172772625
 31
0.0
 40
0.7023465073
 41
-4.5492582151
 42
-4.5488454275
  0
ELLIPSE
  5
36C
100
AcDbEntity
  8
0
100
AcDbEllipse
 62
253
  6
CONTINUOUS
 10
220.695186446
 20
142.3411919097
 30
0.0
 11
-73.9080195267
 21
110.4319706544
 31
0.0
 40
0.5324016317
 41
1.4510433794
 42
1.4513766598
  0
ELLIPSE
  5
36D
100
AcDbEntity
  8
0
100
AcDbEllipse
 62
253
  6
CONTINUOUS
 10
226.1682760989
 20
139.6046470833
 30
0.0
 11
180.3068610487
 21
-160.6904769064
 31
0.0
 40
0.2753102379
 41
-1.7327179092
 42
-1.7324049199
  0
ELLIPSE
  5
36E
100
AcDbEntity
  8
0
100
AcDbEllipse
 62
253
  6
CONTINUOUS
 10
210.0063155906
 20
147.6856273374
 30
0.0
 11
146.6463807206
 21
25.1036250893
 31
0.0
 40
0.1559229404
 41
-1.9937720095
 42
-1.9935740639
  0
ELLIPSE
  5
36F
100
AcDbEntity
  8
0
100
AcDbEllipse
 62
253
  6
CONTINUOUS
 10
196.0657847835
 20
154.6558927409
 30
0.0
 11
230.3666429161
 21
-23.3944995043
 31
0.0
 40
0.1703218844
 41
-1.7540890622
 42
-1.7532195959
  0
ELLIPSE
  5
370
100
AcDbEntity
  8
0
100
AcDbEllipse
 62
253
  6
CONTINUOUS
 10
209.5049406154
 20
147.936314825
 30
0.0
 11
155.3388604212
 21
20.0367103274
 31
0.0
 40
0.1655116522
 41
-1.9619028276
 42
-1.9617167301
  0
ELLIPSE
  5
371
100
AcDbEntity
  8
0
100
AcDbEllipse
 62
253
  6
CONTINUOUS
 10
208.9731068137
 20
148.2022317259
 30
0.0
 11
85.4462794054
 21
57.6598339179
 31
0.0
 40
0.1227002446
 41
2.2470794005
 42
2.249416032
  0
ELLIPSE
  5
372
100
AcDbEntity
  8
0
100
AcDbEllipse
 62
253
  6
CONTINUOUS
 10
209.0062697341
 20
148.1856502656
 30
0.0
 11
87.7320779812
 21
56.578012051
 31
0.0
 40
0.1009265498
 41
2.240204187
 42
2.2432789181
  0
ELLIPSE
  5
373
100
AcDbEntity
  8
0
100
AcDbEllipse
 62
253
  6
CONTINUOUS
 10
216.4734162697
 20
144.4520769978
 30
0.0
 11
-7.8483230811
 21
96.3470903755
 31
0.0
 40
0.7102040993
 41
-4.5009881536
 42
-4.4981081604
  0
ELLIPSE
  5
374
100
AcDbEntity
  8
0
100
AcDbEllipse
 62
253
  6
CONTINUOUS
 10
202.391855484
 20
151.4928573907
 30
0.0
 11
161.9708910028
 21
16.1519858983
 31
0.0
 40
0.170602753
 41
-1.9165680114
 42
-1.9147634976
  0
ELLIPSE
  5
375
100
AcDbEntity
  8
0
100
AcDbEllipse
 62
253
  6
CONTINUOUS
 10
213.847504094
 20
145.7650330857
 30
0.0
 11
86.2472875265
 21
57.2813609615
 31
0.0
 40
0.1149313052
 41
2.2691183764
 42
2.2694804236
  0
ELLIPSE
  5
376
100
AcDbEntity
  8
0
100
AcDbEllipse
 62
253
  6
CONTINUOUS
 10
215.6771168358
 20
144.8502267148
 30
0.0
 11
61.7221230929
 21
69.1607265647
 31
0.0
 40
0.40467939
 41
-3.9701755801
 42
-3.9697458729
  0
ELLIPSE
  5
377
100
AcDbEntity
  8
0
100
AcDbEllipse
 62
253
  6
CONTINUOUS
 10
215.6946560127
 20
144.8414571263
 30
0.0
 11
61.4706521337
 21
69.2912840197
 31
0.0
 40
0.407817587
 41
-3.9701857655
 42
-3.9697543756
  0
ELLIPSE
  5
378
100
AcDbEntity
  8
0
100
AcDbEllipse
 62
253
  6
CONTINUOUS
 10
196.0015259826
 20
154.6880221414
 30
0.0
 11
231.1372118927
 21
-23.8291995601
 31
0.0
 40
0.1700815042
 41
-1.7520226208
 42
-1.7511547781
  0
ELLIPSE
  5
379
100
AcDbEntity
  8
0
100
AcDbEllipse
 62
253
  6
CONTINUOUS
 10
216.9993645325
 20
144.1891028664
 30
0.0
 11
36.8476739607
 21
82.1635980603
 31
0.0
 40
0.6323137826
 41
-4.1052997397
 42
-4.1048074643
  0
ELLIPSE
  5
37A
100
AcDbEntity
  8
0
100
AcDbEllipse
 62
253
  6
CONTINUOUS
 10
218.3503265011
 20
143.5136218822
 30
0.0
 11
-14.1775241951
 21
97.4307751583
 31
0.0
 40
0.7045209601
 41
-4.5341857294
 42
-4.5337678967
  0
ELLIPSE
  5
37B
100
AcDbEntity
  8
0
100
AcDbEllipse
 62
253
  6
CONTINUOUS
 10
218.360169129
 20
143.5087005682
 30
0.0
 11
-14.5789943529
 21
97.4955200864
 31
0.0
 40
0.7040558871
 41
-4.5368274641
 42
-4.5361102232
  0
ELLIPSE
  5
37C
100
AcDbEntity
  8
0
100
AcDbEllipse
 62
253
  6
CONTINUOUS
 10
218.9600792262
 20
143.2087455196
 30
0.0
 11
-66.6986387881
 21
108.0020113682
 31
0.0
 40
0.5589770418
 41
1.4517627464
 42
1.4538168332
  0
ELLIPSE
  5
37D
100
AcDbEntity
  8
0
100
AcDbEllipse
 62
253
  6
CONTINUOUS
 10
217.2119183021
 20
144.0828259816
 30
0.0
 11
31.5119288746
 21
84.6162717564
 31
0.0
 40
0.6576657774
 41
-4.1476840695
 42
-4.1468484597
  0
ELLIPSE
  5
37E
100
AcDbEntity
  8
0
100
AcDbEllipse
 62
253
  6
CONTINUOUS
 10
216.1282287842
 20
144.6246707406
 30
0.0
 11
56.1029945227
 21
72.1260018407
 31
0.0
 40
0.4719955684
 41
-3.9820852762
 42
-3.9813190354
  0
ELLIPSE
  5
37F
100
AcDbEntity
  8
0
100
AcDbEllipse
 62
253
  6
CONTINUOUS
 10
218.9673340717
 20
143.2051180969
 30
0.0
 11
-66.8243524892
 21
108.0420473901
 31
0.0
 40
0.5585118327
 41
1.4493752695
 42
1.4514245646
  0
ELLIPSE
  5
380
100
AcDbEntity
  8
0
100
AcDbEllipse
 62
253
  6
CONTINUOUS
 10
216.1514725563
 20
144.6130488545
 30
0.0
 11
55.7050292729
 21
72.3390701282
 31
0.0
 40
0.4764866252
 41
-3.9828201296
 42
-3.9820437769
  0
ELLIPSE
  5
381
100
AcDbEntity
  8
0
100
AcDbEllipse
 62
253
  6
CONTINUOUS
 10
214.8849377027
 20
145.2463162813
 30
0.0
 11
75.0717755113
 21
62.553308179
 31
0.0
 40
0.2363611765
 41
2.3115574601
 42
2.3122542923
  0
ELLIPSE
  5
382
100
AcDbEntity
  8
0
100
AcDbEllipse
 62
253
  6
CONTINUOUS
 10
225.3528641236
 20
140.0123530709
 30
0.0
 11
159.977787774
 21
-150.3113927613
 31
0.0
 40
0.3060833874
 41
-1.7551622826
 42
-1.753968125
  0
ELLIPSE
  5
383
100
AcDbEntity
  8
0
100
AcDbEllipse
 62
253
  6
CONTINUOUS
 10
212.9576438447
 20
146.2099632104
 30
0.0
 11
105.4582393785
 21
47.8657111422
 31
0.0
 40
0.0292335595
 41
-2.1859894855
 42
-2.1855108564
  0
ELLIPSE
  5
384
100
AcDbEntity
  8
0
100
AcDbEllipse
 62
253
  6
CONTINUOUS
 10
212.9847174731
 20
146.1964263961
 30
0.0
 11
104.9891882175
 21
48.1054649317
 31
0.0
 40
0.0265801956
 41
-2.1887774244
 42
-2.1882954112
  0
ELLIPSE
  5
385
100
AcDbEntity
  8
0
100
AcDbEllipse
 62
253
  6
CONTINUOUS
 10
212.2262314972
 20
146.5756693841
 30
0.0
 11
201.2425379017
 21
-6.7688748016
 31
0.0
 40
0.1773312066
 41
-1.8675812017
 42
-1.8674239836
  0
ELLIPSE
  5
386
100
AcDbEntity
  8
0
100
AcDbEllipse
 62
253
  6
CONTINUOUS
 10
225.7825474462
 20
139.7975114096
 30
0.0
 11
155.1847151201
 21
-147.8788195931
 31
0.0
 40
0.3142648004
 41
-1.7603303812
 42
-1.7585258674
  0
ELLIPSE
  5
387
100
AcDbEntity
  8
0
100
AcDbEllipse
 62
253
  6
CONTINUOUS
 10
212.4003773854
 20
146.48859644
 30
0.0
 11
192.6434232648
 21
-1.7888145972
 31
0.0
 40
0.1781309801
 41
-1.8866570049
 42
-1.886455915
  0
ELLIPSE
  5
388
100
AcDbEntity
  8
0
100
AcDbEllipse
 62
253
  6
CONTINUOUS
 10
202.8215261742
 20
151.2780220456
 30
0.0
 11
166.4461148487
 21
13.5268041899
 31
0.0
 40
0.1731492825
 41
-1.9062453633
 42
-1.9050512057
  0
ELLIPSE
  5
389
100
AcDbEntity
  8
0
100
AcDbEllipse
 62
253
  6
CONTINUOUS
 10
209.2108503787
 20
148.0833599433
 30
0.0
 11
89.8859912189
 21
55.5525976995
 31
0.0
 40
0.0815198605
 41
2.2349430746
 42
2.2390464565
  0
ELLIPSE
  5
38A
100
AcDbEntity
  8
0
100
AcDbEllipse
 62
253
  6
CONTINUOUS
 10
214.5561679562
 20
145.4107011546
 30
0.0
 11
94.9253819312
 21
53.1228093827
 31
0.0
 40
0.0402115514
 41
2.2630384261
 42
2.2634794743
  0
ELLIPSE
  5
38B
100
AcDbEntity
  8
0
100
AcDbEllipse
 62
253
  6
CONTINUOUS
 10
215.3349799592
 20
145.0212951531
 30
0.0
 11
67.3001498609
 21
66.3262263221
 31
0.0
 40
0.3336643201
 41
-3.9345751214
 42
-3.934029302
  0
ELLIPSE
  5
38C
100
AcDbEntity
  8
0
100
AcDbEllipse
 62
253
  6
CONTINUOUS
 10
215.339402096
 20
145.0190840847
 30
0.0
 11
67.1490548438
 21
66.401453526
 31
0.0
 40
0.3356018645
 41
-3.9502573173
 42
-3.9345470041
  0
ELLIPSE
  5
38D
100
AcDbEntity
  8
0
100
AcDbEllipse
 62
253
  6
CONTINUOUS
 10
219.1708068764
 20
143.1033816945
 30
0.0
 11
-63.2025730908
 21
106.923415486
 31
0.0
 40
0.5718985974
 41
1.4556337841
 42
1.4587085152
  0
ELLIPSE
  5
38E
100
AcDbEntity
  8
0
100
AcDbEllipse
 62
253
  6
CONTINUOUS
 10
211.6985020174
 20
146.839534124
 30
0.0
 11
63.9525625877
 21
68.0130595848
 31
0.0
 40
0.3765196528
 41
-3.9821879662
 42
-3.979307973
  0
ELLIPSE
  5
38F
100
AcDbEntity
  8
0
100
AcDbEllipse
 62
253
  6
CONTINUOUS
 10
213.1932676756
 20
146.0921512949
 30
0.0
 11
61.1452438138
 21
69.4605660261
 31
0.0
 40
0.4118650258
 41
-3.9945303997
 42
-3.9912320272
  0
ELLIPSE
  5
390
100
AcDbEntity
  8
0
100
AcDbEllipse
 62
253
  6
CONTINUOUS
 10
215.3315665823
 20
145.0230018416
 30
0.0
 11
67.3001499069
 21
66.3262262993
 31
0.0
 40
0.3336643195
 41
-3.9508315044
 42
-3.9502854347
  0
ELLIPSE
  5
391
100
AcDbEntity
  8
0
100
AcDbEllipse
 62
253
  6
CONTINUOUS
 10
216.3210814224
 20
144.5282444215
 30
0.0
 11
44.9932762741
 21
78.0672606143
 31
0.0
 40
0.5788878039
 41
-4.0306373804
 42
-4.0299797169
  0
ELLIPSE
  5
392
100
AcDbEntity
  8
0
100
AcDbEllipse
 62
253
  6
CONTINUOUS
 10
217.3056429804
 20
144.0359636425
 30
0.0
 11
0.7355850046
 21
94.6214322347
 31
0.0
 40
0.7127644136
 41
-4.4017172331
 42
-4.4011440911
  0
ELLIPSE
  5
393
100
AcDbEntity
  8
0
100
AcDbEllipse
 62
253
  6
CONTINUOUS
 10
217.2914374558
 20
144.0430664048
 30
0.0
 11
1.5457427806
 21
94.4396348887
 31
0.0
 40
0.7126837255
 41
-4.3954984005
 42
-4.3949252461
  0
ELLIPSE
  5
394
100
AcDbEntity
  8
0
100
AcDbEllipse
 62
253
  6
CONTINUOUS
 10
219.194305945
 20
143.0916321602
 30
0.0
 11
-59.0506059083
 21
105.731606332
 31
0.0
 40
0.5871207123
 41
1.4664265397
 42
1.4687631712
  0
ELLIPSE
  5
395
100
AcDbEntity
  8
0
100
AcDbEllipse
 62
253
  6
CONTINUOUS
 10
218.6071521698
 20
143.3852090478
 30
0.0
 11
-57.6030130916
 21
105.3391656485
 31
0.0
 40
0.5923699894
 41
1.5101132072
 42
1.5106069069
  0
ELLIPSE
  5
396
100
AcDbEntity
  8
0
100
AcDbEllipse
 62
253
  6
CONTINUOUS
 10
221.447652505
 20
141.9649588802
 30
0.0
 11
-135.6399481685
 21
138.0597474746
 31
0.0
 40
0.3520362264
 41
1.4182167844
 42
1.4184873102
  0
ELLIPSE
  5
397
100
AcDbEntity
  8
0
100
AcDbEllipse
 62
253
  6
CONTINUOUS
 10
221.5612939972
 20
141.9081381341
 30
0.0
 11
-138.527332201
 21
139.4973022049
 31
0.0
 40
0.3459696749
 41
1.4178678338
 42
1.4181316084
  0
ELLIPSE
  5
398
100
AcDbEntity
  8
0
100
AcDbEllipse
 62
253
  6
CONTINUOUS
 10
258.3481040844
 20
123.5147330905
 30
0.0
 11
1066.7619790582
 21
-609.2377040551
 31
0.0
 40
0.048208137
 41
-1.6424143236
 42
-1.6423754348
  0
ELLIPSE
  5
399
100
AcDbEntity
  8
0
100
AcDbEllipse
 62
253
  6
CONTINUOUS
 10
222.6435431587
 20
141.3670135533
 30
0.0
 11
-108.1112021897
 21
124.7555268677
 31
0.0
 40
0.4199669103
 41
1.3845311398
 42
1.38626483
  0
ELLIPSE
  5
39A
100
AcDbEntity
  8
0
100
AcDbEllipse
 62
253
  6
CONTINUOUS
 10
232.1186459915
 20
136.629462137
 30
0.0
 11
226.8203651433
 21
-184.5902713359
 31
0.0
 40
0.2228735178
 41
-1.7512023639
 42
-1.7503328976
  0
ELLIPSE
  5
39B
100
AcDbEntity
  8
0
100
AcDbEllipse
 62
253
  6
CONTINUOUS
 10
232.1729064025
 20
136.6023319315
 30
0.0
 11
227.4892812889
 21
-184.9343142651
 31
0.0
 40
0.2222577569
 41
-1.7519354318
 42
-1.7510675892
  0
ELLIPSE
  5
39C
100
AcDbEntity
  8
0
100
AcDbEllipse
 62
253
  6
CONTINUOUS
 10
209.0090475902
 20
148.1842613376
 30
0.0
 11
195.6244772761
 21
-3.5186429146
 31
0.0
 40
0.1779493531
 41
-1.8596648264
 42
-1.8594653092
  0
ELLIPSE
  5
39D
100
AcDbEntity
  8
0
100
AcDbEllipse
 62
253
  6
CONTINUOUS
 10
209.0514109078
 20
148.1630796788
 30
0.0
 11
194.6048484699
 21
-2.9273710447
 31
0.0
 40
0.1780237782
 41
-1.8621907274
 42
-1.8619912117
  0
ELLIPSE
  5
39E
100
AcDbEntity
  8
0
100
AcDbEllipse
 62
253
  6
CONTINUOUS
 10
213.4206962611
 20
145.9784370021
 30
0.0
 11
96.1231660336
 21
52.5378602381
 31
0.0
 40
0.0312065844
 41
2.2381068476
 42
2.2385413793
  0
ELLIPSE
  5
39F
100
AcDbEntity
  8
0
100
AcDbEllipse
 62
253
  6
CONTINUOUS
 10
215.0242441273
 20
145.1766630691
 30
0.0
 11
66.8951728416
 21
66.5280449688
 31
0.0
 40
0.3388581442
 41
-3.9528099939
 42
-3.9522605001
  0
ELLIPSE
  5
3A0
100
AcDbEntity
  8
0
100
AcDbEllipse
 62
253
  6
CONTINUOUS
 10
215.0091941533
 20
145.184188056
 30
0.0
 11
67.170259496
 21
66.3908911147
 31
0.0
 40
0.3353299288
 41
-3.952294681
 42
-3.9365885053
  0
ELLIPSE
  5
3A1
100
AcDbEntity
  8
0
100
AcDbEllipse
 62
253
  6
CONTINUOUS
 10
215.0114253639
 20
145.1830724508
 30
0.0
 11
67.1009219466
 21
66.4254354892
 31
0.0
 40
0.3362191599
 41
-3.9365775866
 42
-3.9360266726
  0
ELLIPSE
  5
3A2
100
AcDbEntity
  8
0
100
AcDbEllipse
 62
253
  6
CONTINUOUS
 10
215.6093998493
 20
144.8840852081
 30
0.0
 11
44.2946772556
 21
78.4319595428
 31
0.0
 40
0.5842610006
 41
-4.0200097902
 42
-4.0193558039
  0
ELLIPSE
  5
3A3
100
AcDbEntity
  8
0
100
AcDbEllipse
 62
253
  6
CONTINUOUS
 10
216.144959714
 20
144.6163052757
 30
0.0
 11
1.8235942805
 21
94.3764518071
 31
0.0
 40
0.7126427042
 41
-4.3759362999
 42
-4.3753600562
  0
ELLIPSE
  5
3A4
100
AcDbEntity
  8
0
100
AcDbEllipse
 62
253
  6
CONTINUOUS
 10
216.1435439225
 20
144.6170131714
 30
0.0
 11
1.971740903
 21
94.3425873121
 31
0.0
 40
0.712618028
 41
-4.3741140207
 42
-4.3735310225
  0
ELLIPSE
  5
3A5
100
AcDbEntity
  8
0
100
AcDbEllipse
 62
253
  6
CONTINUOUS
 10
216.8451509913
 20
144.2662096371
 30
0.0
 11
-58.3513105318
 21
105.5405343955
 31
0.0
 40
0.5896611862
 41
1.5263524343
 42
1.5268407908
  0
ELLIPSE
  5
3A6
100
AcDbEntity
  8
0
100
AcDbEllipse
 62
253
  6
CONTINUOUS
 10
218.3423106823
 20
143.5176297916
 30
0.0
 11
-139.8205064292
 21
140.1428804185
 31
0.0
 40
0.3433107308
 41
1.4377566767
 42
1.4380169166
  0
ELLIPSE
  5
3A7
100
AcDbEntity
  8
0
100
AcDbEllipse
 62
253
  6
CONTINUOUS
 10
218.2847081592
 20
143.5464310531
 30
0.0
 11
-136.8479443469
 21
138.6605019048
 31
0.0
 40
0.3494761103
 41
1.438071076
 42
1.438339755
  0
ELLIPSE
  5
3A8
100
AcDbEntity
  8
0
100
AcDbEllipse
 62
253
  6
CONTINUOUS
 10
214.9131965134
 20
145.232186876
 30
0.0
 11
-7.8296951528
 21
96.3436976925
 31
0.0
 40
0.7102161838
 41
-4.4921585821
 42
-4.4892750383
  0
ELLIPSE
  5
3A9
100
AcDbEntity
  8
0
100
AcDbEllipse
 62
253
  6
CONTINUOUS
 10
205.8561553662
 20
149.7607074496
 30
0.0
 11
209.5480280124
 21
-11.5490235701
 31
0.0
 40
0.1758734972
 41
-1.8244724449
 42
-1.8243371409
  0
ELLIPSE
  5
3AA
100
AcDbEntity
  8
0
100
AcDbEllipse
 62
253
  6
CONTINUOUS
 10
216.9820103253
 20
144.19777997
 30
0.0
 11
-66.9492832082
 21
108.0819189339
 31
0.0
 40
0.55804952
 41
1.4647082232
 42
1.4667555244
  0
ELLIPSE
  5
3AB
100
AcDbEntity
  8
0
100
AcDbEllipse
 62
253
  6
CONTINUOUS
 10
210.6923125755
 20
147.342628845
 30
0.0
 11
112.3277291256
 21
44.2935334655
 31
0.0
 40
0.0640000262
 41
-2.1532002151
 42
-2.1529363875
  0
ELLIPSE
  5
3AC
100
AcDbEntity
  8
0
100
AcDbEllipse
 62
253
  6
CONTINUOUS
 10
216.9652468817
 20
144.2061616918
 30
0.0
 11
-66.5733793554
 21
107.9622053587
 31
0.0
 40
0.5594405649
 41
1.4677667504
 42
1.469818905
  0
ELLIPSE
  5
3AD
100
AcDbEntity
  8
0
100
AcDbEllipse
 62
253
  6
CONTINUOUS
 10
212.6055607079
 20
146.3860047788
 30
0.0
 11
80.232004592
 21
60.1148026419
 31
0.0
 40
0.1769049015
 41
2.2989167001
 42
2.2992718523
  0
ELLIPSE
  5
3AE
100
AcDbEntity
  8
0
100
AcDbEllipse
 62
253
  6
CONTINUOUS
 10
212.4634417096
 20
146.4570642779
 30
0.0
 11
82.4477232026
 21
59.0725457402
 31
0.0
 40
0.1531100744
 41
2.2915436912
 42
2.2918836131
  0
ELLIPSE
  5
3AF
100
AcDbEntity
  8
0
100
AcDbEllipse
 62
253
  6
CONTINUOUS
 10
221.5834868621
 20
141.8970417017
 30
0.0
 11
159.979794166
 21
-150.3124125209
 31
0.0
 40
0.3060800431
 41
-1.7342007921
 42
-1.7330081742
  0
ELLIPSE
  5
3B0
100
AcDbEntity
  8
0
100
AcDbEllipse
 62
253
  6
CONTINUOUS
 10
213.6657863282
 20
145.8558919686
 30
0.0
 11
63.6826806526
 21
68.1509210146
 31
0.0
 40
0.379952623
 41
-3.9598690056
 42
-3.959434381
  0
ELLIPSE
  5
3B1
100
AcDbEntity
  8
0
100
AcDbEllipse
 62
253
  6
CONTINUOUS
 10
196.5174435722
 20
154.4300633466
 30
0.0
 11
213.0943507745
 21
-13.5807055619
 31
0.0
 40
0.1750909041
 41
-1.7784190475
 42
-1.7771117134
  0
ELLIPSE
  5
3B2
100
AcDbEntity
  8
0
100
AcDbEllipse
 62
253
  6
CONTINUOUS
 10
214.5254615466
 20
145.4260543594
 30
0.0
 11
47.3819832127
 21
76.8066754518
 31
0.0
 40
0.5593097398
 41
-4.0215372059
 42
-4.0210975259
  0
ELLIPSE
  5
3B3
100
AcDbEntity
  8
0
100
AcDbEllipse
 62
253
  6
CONTINUOUS
 10
214.511100521
 20
145.4332348722
 30
0.0
 11
47.7170724943
 21
76.6284159122
 31
0.0
 40
0.5564121721
 41
-4.0190075716
 42
-4.008658544
  0
ELLIPSE
  5
3B4
100
AcDbEntity
  8
0
100
AcDbEllipse
 62
253
  6
CONTINUOUS
 10
213.6633325717
 20
145.8571188469
 30
0.0
 11
30.9164471518
 21
84.8769859788
 31
0.0
 40
0.6600943728
 41
-4.1466833446
 42
-4.1363343171
  0
ELLIPSE
  5
3B5
100
AcDbEntity
  8
0
100
AcDbEllipse
 62
253
  6
CONTINUOUS
 10
213.648971546
 20
145.8642993597
 30
0.0
 11
31.4308808014
 21
84.651914323
 31
0.0
 40
0.6580007348
 41
-4.1427716235
 42
-4.1423319435
  0
ELLIPSE
  5
3B6
100
AcDbEntity
  8
0
100
AcDbEllipse
 62
253
  6
CONTINUOUS
 10
214.5221674332
 20
145.4277014161
 30
0.0
 11
-7.7844914287
 21
96.3354591984
 31
0.0
 40
0.7102453938
 41
-4.4778946712
 42
-4.4774651215
  0
ELLIPSE
  5
3B7
100
AcDbEntity
  8
0
100
AcDbEllipse
 62
253
  6
CONTINUOUS
 10
215.6760366951
 20
144.8507667852
 30
0.0
 11
-52.5666553548
 21
104.0664354454
 31
0.0
 40
0.6102690702
 41
1.5237286919
 42
1.5240736887
  0
ELLIPSE
  5
3B8
100
AcDbEntity
  8
0
100
AcDbEllipse
 62
253
  6
CONTINUOUS
 10
215.6011699133
 20
144.8882001761
 30
0.0
 11
-50.2682588048
 21
103.5324020415
 31
0.0
 40
0.6181933363
 41
1.5330729614
 42
1.5334230386
  0
ELLIPSE
  5
3B9
100
AcDbEntity
  8
0
100
AcDbEllipse
 62
253
  6
CONTINUOUS
 10
217.4733641039
 20
143.9521030808
 30
0.0
 11
-98.3558800351
 21
120.3189400896
 31
0.0
 40
0.4489249346
 41
1.4247875575
 42
1.4250530767
  0
ELLIPSE
  5
3BA
100
AcDbEntity
  8
0
100
AcDbEllipse
 62
253
  6
CONTINUOUS
 10
222.2815536148
 20
141.5480083253
 30
0.0
 11
204.4298493787
 21
-173.0750116353
 31
0.0
 40
0.2455300221
 41
-1.7208801955
 42
-1.7207448916
  0
ELLIPSE
  5
3BB
100
AcDbEntity
  8
0
100
AcDbEllipse
 62
253
  6
CONTINUOUS
 10
221.8538967755
 20
141.761836745
 30
0.0
 11
195.1206142576
 21
-168.2909478554
 31
0.0
 40
0.2562766665
 41
-1.7228342497
 42
-1.7226904974
  0
ELLIPSE
  5
3BC
100
AcDbEntity
  8
0
100
AcDbEllipse
 62
253
  6
CONTINUOUS
 10
231.664016751
 20
136.8567767572
 30
0.0
 11
208.9669917893
 21
-175.4078623486
 31
0.0
 40
0.2405945496
 41
-1.7604386043
 42
-1.7591312702
  0
ELLIPSE
  5
3BD
100
AcDbEntity
  8
0
100
AcDbEllipse
 62
253
  6
CONTINUOUS
 10
202.8251185909
 20
151.2762258373
 30
0.0
 11
237.2135577901
 21
-27.2479273703
 31
0.0
 40
0.1681286748
 41
-1.777688142
 42
-1.7775680626
  0
ELLIPSE
  5
3BE
100
AcDbEntity
  8
0
100
AcDbEllipse
 62
253
  6
CONTINUOUS
 10
231.5986434557
 20
136.8894634048
 30
0.0
 11
208.2027776058
 21
-175.0148901072
 31
0.0
 40
0.2414126945
 41
-1.7592834798
 42
-1.7579728875
  0
ELLIPSE
  5
3BF
100
AcDbEntity
  8
0
100
AcDbEllipse
 62
253
  6
CONTINUOUS
 10
202.288483535
 20
151.5445433652
 30
0.0
 11
248.6193794015
 21
-33.62276876
 31
0.0
 40
0.1642579373
 41
-1.7627580163
 42
-1.7620206482
  0
ELLIPSE
  5
3C0
100
AcDbEntity
  8
0
100
AcDbEllipse
 62
253
  6
CONTINUOUS
 10
222.3505059099
 20
141.5135321777
 30
0.0
 11
-97.2487969417
 21
119.829134101
 31
0.0
 40
0.4523809941
 41
1.3877076636
 42
1.3903233123
  0
ELLIPSE
  5
3C1
100
AcDbEntity
  8
0
100
AcDbEllipse
 62
253
  6
CONTINUOUS
 10
204.9883533009
 20
150.1946084823
 30
0.0
 11
190.7925693441
 21
-0.7130966988
 31
0.0
 40
0.1781862864
 41
-1.8665492463
 42
-1.8655852943
  0
ELLIPSE
  5
3C2
100
AcDbEntity
  8
0
100
AcDbEllipse
 62
253
  6
CONTINUOUS
 10
206.5938897652
 20
149.3918402501
 30
0.0
 11
156.5560824199
 21
19.3245580869
 31
0.0
 40
0.1665762116
 41
-1.9673977493
 42
-1.9662258368
  0
ELLIPSE
  5
3C3
100
AcDbEntity
  8
0
100
AcDbEllipse
 62
253
  6
CONTINUOUS
 10
218.9787201814
 20
143.199425042
 30
0.0
 11
-48.4803471496
 21
103.1364592598
 31
0.0
 40
0.6242266824
 41
1.5053816725
 42
1.5088322177
  0
ELLIPSE
  5
3C4
100
AcDbEntity
  8
0
100
AcDbEllipse
 62
253
  6
CONTINUOUS
 10
206.6147816846
 20
149.3813942904
 30
0.0
 11
156.1058686009
 21
19.5880168561
 31
0.0
 40
0.1661896919
 41
-1.9691459055
 42
-1.9689700447
  0
ELLIPSE
  5
3C5
100
AcDbEntity
  8
0
100
AcDbEllipse
 62
253
  6
CONTINUOUS
 10
214.9859701429
 20
145.1958000613
 30
0.0
 11
0.2044127532
 21
94.7386912405
 31
0.0
 40
0.7127861068
 41
-4.4435163374
 42
-4.440217965
  0
ELLIPSE
  5
3C6
100
AcDbEntity
  8
0
100
AcDbEllipse
 62
253
  6
CONTINUOUS
 10
209.434048616
 20
147.9717608247
 30
0.0
 11
99.0629460789
 21
51.0887018935
 31
0.0
 40
0.0103625151
 41
2.2207826642
 42
2.2210718307
  0
ELLIPSE
  5
3C7
100
AcDbEntity
  8
0
100
AcDbEllipse
 62
253
  6
CONTINUOUS
 10
210.836674985
 20
147.2704476402
 30
0.0
 11
75.1042688087
 21
62.5378477867
 31
0.0
 40
0.2359707958
 41
2.316480594
 42
2.3168424673
  0
ELLIPSE
  5
3C8
100
AcDbEntity
  8
0
100
AcDbEllipse
 62
253
  6
CONTINUOUS
 10
218.9198080035
 20
143.2288811309
 30
0.0
 11
-47.3936410077
 21
102.9038565861
 31
0.0
 40
0.6278319186
 41
1.5138237248
 42
1.5141338204
  0
ELLIPSE
  5
3C9
100
AcDbEntity
  8
0
100
AcDbEllipse
 62
253
  6
CONTINUOUS
 10
210.8242334374
 20
147.276668414
 30
0.0
 11
75.3080347273
 21
62.4409373064
 31
0.0
 40
0.2335268981
 41
2.3163606261
 42
2.3167224828
  0
ELLIPSE
  5
3CA
100
AcDbEntity
  8
0
100
AcDbEllipse
 62
253
  6
CONTINUOUS
 10
211.7198574278
 20
146.8288564188
 30
0.0
 11
60.1029848702
 21
70.005257087
 31
0.0
 40
0.424716235
 41
-3.9628166312
 42
-3.9623939007
  0
ELLIPSE
  5
3CB
100
AcDbEntity
  8
0
100
AcDbEllipse
 62
253
  6
CONTINUOUS
 10
212.4927002023
 20
146.4424350316
 30
0.0
 11
42.8924236814
 21
79.1575567474
 31
0.0
 40
0.594576213
 41
-4.0489568886
 42
-4.0485189431
  0
ELLIPSE
  5
3CC
100
AcDbEntity
  8
0
100
AcDbEllipse
 62
253
  6
CONTINUOUS
 10
217.2678954725
 20
144.0548373965
 30
0.0
 11
-9.5617466292
 21
96.6535790193
 31
0.0
 40
0.7089748274
 41
-4.5245794268
 42
-4.5242100381
  0
ELLIPSE
  5
3CD
100
AcDbEntity
  8
0
100
AcDbEllipse
 62
253
  6
CONTINUOUS
 10
215.9942760539
 20
144.6916471057
 30
0.0
 11
24.6466214641
 21
87.4559840267
 31
0.0
 40
0.6814788761
 41
-4.2336785995
 42
-4.2332973571
  0
ELLIPSE
  5
3CE
100
AcDbEntity
  8
0
100
AcDbEllipse
 62
253
  6
CONTINUOUS
 10
212.4889013402
 20
146.4443344626
 30
0.0
 11
43.0005520543
 21
79.1019315206
 31
0.0
 40
0.5938028337
 41
-4.0477420334
 42
-4.0287561919
  0
ELLIPSE
  5
3CF
100
AcDbEntity
  8
0
100
AcDbEllipse
 62
253
  6
CONTINUOUS
 10
215.9836724078
 20
144.6969489288
 30
0.0
 11
24.8923791244
 21
87.3606610693
 31
0.0
 40
0.6807730507
 41
-4.2311607371
 42
-4.2307744213
  0
ELLIPSE
  5
3D0
100
AcDbEntity
  8
0
100
AcDbEllipse
 62
253
  6
CONTINUOUS
 10
214.7903849253
 20
145.29359267
 30
0.0
 11
46.4536997572
 21
77.2988149483
 31
0.0
 40
0.5671416916
 41
-4.0593167554
 42
-4.058921977
  0
ELLIPSE
  5
3D1
100
AcDbEntity
  8
0
100
AcDbEllipse
 62
253
  6
CONTINUOUS
 10
212.4849683986
 20
146.4463009334
 30
0.0
 11
43.2106285656
 21
78.9936996933
 31
0.0
 40
0.5922898361
 41
-4.02725263
 42
-4.0266476582
  0
ELLIPSE
  5
3D2
100
AcDbEntity
  8
0
100
AcDbEllipse
 62
253
  6
CONTINUOUS
 10
213.0287030361
 20
146.1744336147
 30
0.0
 11
-1.9909001525
 21
95.2076422113
 31
0.0
 40
0.7126178436
 41
-4.4073966235
 42
-4.4067815173
  0
ELLIPSE
  5
3D3
100
AcDbEntity
  8
0
100
AcDbEllipse
 62
253
  6
CONTINUOUS
 10
213.4891084868
 20
145.9442308893
 30
0.0
 11
61.3304782721
 21
69.3641579722
 31
0.0
 40
0.4095629801
 41
-3.9942435163
 42
-3.9938741594
  0
ELLIPSE
  5
3D4
100
AcDbEntity
  8
0
100
AcDbEllipse
 62
253
  6
CONTINUOUS
 10
213.7551474229
 20
145.8112114213
 30
0.0
 11
-61.7613994552
 21
106.4986483154
 31
0.0
 40
0.5772042707
 41
1.5148231242
 42
1.5152675568
  0
ELLIPSE
  5
3D5
100
AcDbEntity
  8
0
100
AcDbEllipse
 62
253
  6
CONTINUOUS
 10
213.5054621359
 20
145.9360540648
 30
0.0
 11
61.1684795078
 21
69.4484659582
 31
0.0
 40
0.4115765401
 41
-3.9941777285
 42
-3.9862339831
  0
ELLIPSE
  5
3D6
100
AcDbEntity
  8
0
100
AcDbEllipse
 62
253
  6
CONTINUOUS
 10
216.7421527829
 20
144.3177087412
 30
0.0
 11
-6.7792014491
 21
96.150158528
 31
0.0
 40
0.7108527968
 41
-4.4925488673
 42
-4.4887495958
  0
ELLIPSE
  5
3D7
100
AcDbEntity
  8
0
100
AcDbEllipse
 62
253
  6
CONTINUOUS
 10
213.7462884393
 20
145.8156409131
 30
0.0
 11
-61.2048571734
 21
106.3377589877
 31
0.0
 40
0.5792477865
 41
1.5170375483
 42
1.5174853465
  0
ELLIPSE
  5
3D8
100
AcDbEntity
  8
0
100
AcDbEllipse
 62
253
  6
CONTINUOUS
 10
215.2447552911
 20
145.0664074871
 30
0.0
 11
-142.9204412992
 21
141.6944505081
 31
0.0
 40
0.3370790198
 41
1.4379783183
 42
1.438255449
  0
ELLIPSE
  5
3D9
100
AcDbEntity
  8
0
100
AcDbEllipse
 62
253
  6
CONTINUOUS
 10
249.0699084898
 20
128.1538308878
 30
0.0
 11
1912.6643739866
 21
-1033.0641385571
 31
0.0
 40
0.0267964483
 41
-1.6086547941
 42
-1.6086146477
  0
ELLIPSE
  5
3DA
100
AcDbEntity
  8
0
100
AcDbEllipse
 62
253
  6
CONTINUOUS
 10
215.0857345779
 20
145.1459178438
 30
0.0
 11
40.7601160883
 21
80.2422482192
 31
0.0
 40
0.6090956054
 41
-4.0869431469
 42
-4.0825321238
  0
ELLIPSE
  5
3DB
100
AcDbEntity
  8
0
100
AcDbEllipse
 62
253
  6
CONTINUOUS
 10
213.5458940232
 20
145.9158381211
 30
0.0
 11
64.1474566868
 21
67.9136778414
 31
0.0
 40
0.3740371816
 41
-3.973938284
 42
-3.970147674
  0
ELLIPSE
  5
3DC
100
AcDbEntity
  8
0
100
AcDbEllipse
 62
253
  6
CONTINUOUS
 10
209.3897741284
 20
147.9938980685
 30
0.0
 11
186.3342717801
 21
1.883126307
 31
0.0
 40
0.1781188006
 41
-1.9021348814
 42
-1.9019056098
  0
ELLIPSE
  5
3DD
100
AcDbEntity
  8
0
100
AcDbEllipse
 62
253
  6
CONTINUOUS
 10
211.4658041728
 20
146.9558830463
 30
0.0
 11
92.5094276503
 21
54.2936335724
 31
0.0
 40
0.059312704
 41
2.2743931094
 42
2.2748138729
  0
ELLIPSE
  5
3DE
100
AcDbEntity
  8
0
100
AcDbEllipse
 62
253
  6
CONTINUOUS
 10
211.4446663182
 20
146.9664519736
 30
0.0
 11
93.3056588755
 21
53.9090463695
 31
0.0
 40
0.0528768276
 41
2.2703137872
 42
2.2707294943
  0
ELLIPSE
  5
3DF
100
AcDbEntity
  8
0
100
AcDbEllipse
 62
253
  6
CONTINUOUS
 10
212.2349107646
 20
146.5713297504
 30
0.0
 11
65.7620542359
 21
67.0959748521
 31
0.0
 40
0.3533909304
 41
-3.934961102
 42
-3.9343662818
  0
ELLIPSE
  5
3E0
100
AcDbEntity
  8
0
100
AcDbEllipse
 62
253
  6
CONTINUOUS
 10
212.7814149837
 20
146.2980776409
 30
0.0
 11
43.2092402478
 21
78.9944156476
 31
0.0
 40
0.5922998803
 41
-4.0270935595
 42
-4.0264885787
  0
ELLIPSE
  5
3E1
100
AcDbEntity
  8
0
100
AcDbEllipse
 62
253
  6
CONTINUOUS
 10
213.5432711564
 20
145.9171495545
 30
0.0
 11
64.1815577882
 21
67.8963038144
 31
0.0
 40
0.3736025455
 41
-3.9701190321
 42
-3.966335992
  0
ELLIPSE
  5
3E2
100
AcDbEntity
  8
0
100
AcDbEllipse
 62
253
  6
CONTINUOUS
 10
212.7852171568
 20
146.2961765543
 30
0.0
 11
43.0045433121
 21
79.0998771881
 31
0.0
 40
0.5937742167
 41
-4.0460715988
 42
-4.028558572
  0
ELLIPSE
  5
3E3
100
AcDbEntity
  8
0
100
AcDbEllipse
 62
253
  6
CONTINUOUS
 10
206.8902121682
 20
149.2436790486
 30
0.0
 11
166.9156588011
 21
13.251316244
 31
0.0
 40
0.1733796637
 41
-1.9368996965
 42
-1.9364262738
  0
ELLIPSE
  5
3E4
100
AcDbEntity
  8
0
100
AcDbEllipse
 62
253
  6
CONTINUOUS
 10
206.1252091072
 20
149.6261805791
 30
0.0
 11
185.0976935024
 21
2.6044149316
 31
0.0
 40
0.1780454405
 41
-1.8850161469
 42
-1.8845883698
  0
ELLIPSE
  5
3E5
100
AcDbEntity
  8
0
100
AcDbEllipse
 62
253
  6
CONTINUOUS
 10
205.435734971
 20
149.9709176472
 30
0.0
 11
201.4998873476
 21
-6.9174423373
 31
0.0
 40
0.1772951026
 41
-1.84634455
 42
-1.8459505814
  0
ELLIPSE
  5
3E6
100
AcDbEntity
  8
0
100
AcDbEllipse
 62
253
  6
CONTINUOUS
 10
213.3653651191
 20
146.0061025732
 30
0.0
 11
30.9277875008
 21
84.8720460978
 31
0.0
 40
0.6600488193
 41
-4.1433152287
 42
-4.1336638387
  0
ELLIPSE
  5
3E7
100
AcDbEntity
  8
0
100
AcDbEllipse
 62
253
  6
CONTINUOUS
 10
211.6347418571
 20
146.8714142042
 30
0.0
 11
90.1632912324
 21
55.4200785083
 31
0.0
 40
0.0790989173
 41
2.2534725561
 42
2.2565816837
  0
ELLIPSE
  5
3E8
100
AcDbEntity
  8
0
100
AcDbEllipse
 62
253
  6
CONTINUOUS
 10
207.309197555
 20
149.0341863552
 30
0.0
 11
166.6905792651
 21
13.3833736513
 31
0.0
 40
0.1732700588
 41
-1.9299103086
 42
-1.9283440782
  0
ELLIPSE
  5
3E9
100
AcDbEntity
  8
0
100
AcDbEllipse
 62
253
  6
CONTINUOUS
 10
213.3555098523
 20
146.0110302065
 30
0.0
 11
31.4305945683
 21
84.6520401118
 31
0.0
 40
0.6580019152
 41
-4.1294109355
 42
-4.1288531426
  0
ELLIPSE
  5
3EA
100
AcDbEntity
  8
0
100
AcDbEllipse
 62
253
  6
CONTINUOUS
 10
207.3277472362
 20
149.0249115146
 30
0.0
 11
166.3211329277
 21
13.6001325365
 31
0.0
 40
0.1730868349
 41
-1.9326377001
 42
-1.9310682116
  0
ELLIPSE
  5
3EB
100
AcDbEntity
  8
0
100
AcDbEllipse
 62
253
  6
CONTINUOUS
 10
214.1276791734
 20
145.624945546
 30
0.0
 11
-19.8654282777
 21
98.3172256665
 31
0.0
 40
0.6967936047
 41
-4.5558947055
 42
-4.5553504476
  0
ELLIPSE
  5
3EC
100
AcDbEntity
  8
0
100
AcDbEllipse
 62
253
  6
CONTINUOUS
 10
220.8563344468
 20
142.2606179093
 30
0.0
 11
160.0478348933
 21
-150.3469952777
 31
0.0
 40
0.3059666691
 41
-1.7295294653
 42
-1.7279599768
  0
ELLIPSE
  5
3ED
100
AcDbEntity
  8
0
100
AcDbEllipse
 62
253
  6
CONTINUOUS
 10
215.2658753557
 20
145.0558474549
 30
0.0
 11
-75.3227421533
 21
110.9393681213
 31
0.0
 40
0.5272395362
 41
1.4711427809
 42
1.4715213871
  0
ELLIPSE
  5
3EE
100
AcDbEntity
  8
0
100
AcDbEllipse
 62
253
  6
CONTINUOUS
 10
220.868558302
 20
142.2545059817
 30
0.0
 11
160.3078772631
 21
-150.4791781272
 31
0.0
 40
0.305534067
 41
-1.7310656595
 42
-1.7294994291
  0
ELLIPSE
  5
3EF
100
AcDbEntity
  8
0
100
AcDbEllipse
 62
253
  6
CONTINUOUS
 10
215.237875842
 20
145.0698472117
 30
0.0
 11
-74.2267034126
 21
110.5454332305
 31
0.0
 40
0.5312366308
 41
1.4737584861
 42
1.4741438507
  0
ELLIPSE
  5
3F0
100
AcDbEntity
  8
0
100
AcDbEllipse
 62
253
  6
CONTINUOUS
 10
216.5396795836
 20
144.4189453409
 30
0.0
 11
-67.214465329
 21
108.1668314323
 31
0.0
 40
0.5570682127
 41
1.4680899539
 42
1.4711990815
  0
ELLIPSE
  5
3F1
100
AcDbEntity
  8
0
100
AcDbEllipse
 62
253
  6
CONTINUOUS
 10
217.9939172891
 20
143.6918264881
 30
0.0
 11
172.5545806825
 21
-156.7232123857
 31
0.0
 40
0.2863491987
 41
-1.7099063637
 42
-1.7096900137
  0
ELLIPSE
  5
3F2
100
AcDbEntity
  8
0
100
AcDbEllipse
 62
253
  6
CONTINUOUS
 10
214.6311619362
 20
145.3732041646
 30
0.0
 11
-8.6067002777
 21
96.4840868054
 31
0.0
 40
0.7096886878
 41
-4.4951641399
 42
-4.4913810998
  0
ELLIPSE
  5
3F3
100
AcDbEntity
  8
0
100
AcDbEllipse
 62
253
  6
CONTINUOUS
 10
214.6285390694
 20
145.374515598
 30
0.0
 11
-8.5056878139
 21
96.4659648666
 31
0.0
 40
0.7097599741
 41
-4.4981513266
 42
-4.4943607165
  0
ELLIPSE
  5
3F4
100
AcDbEntity
  8
0
100
AcDbEllipse
 62
253
  6
CONTINUOUS
 10
210.1663253375
 20
147.6056224639
 30
0.0
 11
178.7591249523
 21
6.3086938903
 31
0.0
 40
0.1772438731
 41
-1.9126859406
 42
-1.9124695906
  0
ELLIPSE
  5
3F5
100
AcDbEntity
  8
0
100
AcDbEllipse
 62
253
  6
CONTINUOUS
 10
213.0887079472
 20
146.1444311591
 30
0.0
 11
39.7309368666
 21
80.7568010955
 31
0.0
 40
0.6156192495
 41
-4.0947723695
 42
-4.0903613464
  0
ELLIPSE
  5
3F6
100
AcDbEntity
  8
0
100
AcDbEllipse
 62
253
  6
CONTINUOUS
 10
212.9526142787
 20
146.2124779934
 30
0.0
 11
94.2040166589
 21
53.4736316596
 31
0.0
 40
0.0457821391
 41
2.2572651287
 42
2.2576504933
  0
ELLIPSE
  5
3F7
100
AcDbEntity
  8
0
100
AcDbEllipse
 62
253
  6
CONTINUOUS
 10
211.4286878118
 20
146.9744412268
 30
0.0
 11
63.6058127802
 21
68.1902379718
 31
0.0
 40
0.3809293448
 41
-3.9826578715
 42
-3.9788585999
  0
ELLIPSE
  5
3F8
100
AcDbEntity
  8
0
100
AcDbEllipse
 62
253
  6
CONTINUOUS
 10
212.9002235317
 20
146.2386733669
 30
0.0
 11
95.5601394243
 21
52.8132031812
 31
0.0
 40
0.0354016896
 41
2.2505173622
 42
2.2508959683
  0
ELLIPSE
  5
3F9
100
AcDbEntity
  8
0
100
AcDbEllipse
 62
253
  6
CONTINUOUS
 10
214.0467539192
 20
145.6654081731
 30
0.0
 11
68.0523337067
 21
65.9529570226
 31
0.0
 40
0.3240265613
 41
-3.9443516391
 42
-3.9438073813
  0
ELLIPSE
  5
3FA
100
AcDbEntity
  8
0
100
AcDbEllipse
 62
253
  6
CONTINUOUS
 10
214.8131991296
 20
145.2821855679
 30
0.0
 11
47.5763515611
 21
76.7033127512
 31
0.0
 40
0.5576335666
 41
-4.0069585548
 42
-4.0064007619
  0
ELLIPSE
  5
3FB
100
AcDbEntity
  8
0
100
AcDbEllipse
 62
253
  6
CONTINUOUS
 10
214.8095141001
 20
145.2840280826
 30
0.0
 11
47.6985312241
 21
76.6382872281
 31
0.0
 40
0.5565734798
 41
-4.0158504753
 42
-4.0061990853
  0
ELLIPSE
  5
3FC
100
AcDbEntity
  8
0
100
AcDbEllipse
 62
253
  6
CONTINUOUS
 10
222.7168727592
 20
141.3303487531
 30
0.0
 11
196.3235156017
 21
-168.9088813826
 31
0.0
 40
0.2548386977
 41
-1.7172230034
 42
-1.7168290348
  0
ELLIPSE
  5
3FD
100
AcDbEntity
  8
0
100
AcDbEllipse
 62
253
  6
CONTINUOUS
 10
214.6719157698
 20
145.3528272478
 30
0.0
 11
0.1898954093
 21
94.741874796
 31
0.0
 40
0.712786355
 41
-4.4433291772
 42
-4.4353854318
  0
ELLIPSE
  5
3FE
100
AcDbEntity
  8
0
100
AcDbEllipse
 62
253
  6
CONTINUOUS
 10
214.6632265059
 20
145.3571718798
 30
0.0
 11
0.4405313486
 21
94.6867539586
 31
0.0
 40
0.7127794991
 41
-4.4416050162
 42
-4.4412356594
  0
ELLIPSE
  5
3FF
100
AcDbEntity
  8
0
100
AcDbEllipse
 62
253
  6
CONTINUOUS
 10
222.0689765866
 20
141.6542968394
 30
0.0
 11
180.2187117214
 21
-160.6453177887
 31
0.0
 40
0.2754313348
 41
-1.7197758647
 42
-1.7193480876
  0
ELLIPSE
  5
400
100
AcDbEntity
  8
0
100
AcDbEllipse
 62
253
  6
CONTINUOUS
 10
213.3636427403
 20
146.0069637626
 30
0.0
 11
33.206228589
 21
83.8598798974
 31
0.0
 40
0.6503357066
 41
-4.1597303126
 42
-4.1593355342
  0
ELLIPSE
  5
401
100
AcDbEntity
  8
0
100
AcDbEllipse
 62
253
  6
CONTINUOUS
 10
221.2752970208
 20
142.0511366223
 30
0.0
 11
160.2550990476
 21
-150.4523487195
 31
0.0
 40
0.3056217786
 41
-1.7222864215
 42
-1.7218129988
  0
ELLIPSE
  5
402
100
AcDbEntity
  8
0
100
AcDbEllipse
 62
253
  6
CONTINUOUS
 10
215.3972473967
 20
144.9901614344
 30
0.0
 11
36.9888074177
 21
82.0959938407
 31
0.0
 40
0.6315486842
 41
-4.0919383271
 42
-4.0837393029
  0
ELLIPSE
  5
403
100
AcDbEntity
  8
0
100
AcDbEllipse
 62
253
  6
CONTINUOUS
 10
215.3906590955
 20
144.993455585
 30
0.0
 11
37.2787586294
 21
81.9566859239
 31
0.0
 40
0.6299604692
 41
-4.0814232046
 42
-4.0808163886
  0
ELLIPSE
  5
404
100
AcDbEntity
  8
0
100
AcDbEllipse
 62
253
  6
CONTINUOUS
 10
216.2079560928
 20
144.5848070863
 30
0.0
 11
-14.5749742824
 21
97.4948737379
 31
0.0
 40
0.7040606051
 41
-4.5166702731
 42
-4.5160736235
  0
ELLIPSE
  5
405
100
AcDbEntity
  8
0
100
AcDbEllipse
 62
253
  6
CONTINUOUS
 10
217.345337191
 20
144.0161165372
 30
0.0
 11
-72.1886744762
 21
109.8283749259
 31
0.0
 40
0.5387062105
 41
1.4777236694
 42
1.4781411621
  0
ELLIPSE
  5
406
100
AcDbEntity
  8
0
100
AcDbEllipse
 62
253
  6
CONTINUOUS
 10
217.3614894184
 20
144.0080404235
 30
0.0
 11
-72.8288687684
 21
110.0514214586
 31
0.0
 40
0.536355157
 41
1.4767248465
 42
1.4771389417
  0
ELLIPSE
  5
407
100
AcDbEntity
  8
0
100
AcDbEllipse
 62
253
  6
CONTINUOUS
 10
212.2118297569
 20
146.5828702542
 30
0.0
 11
50.9463679036
 21
74.8985669292
 31
0.0
 40
0.5265695066
 41
-4.0330142817
 42
-4.0326279659
  0
ELLIPSE
  5
408
100
AcDbEntity
  8
0
100
AcDbEllipse
 62
253
  6
CONTINUOUS
 10
220.3689860097
 20
142.5042921278
 30
0.0
 11
180.0761353509
 21
-160.5722776673
 31
0.0
 40
0.2756274106
 41
-1.7086650001
 42
-1.708440208
  0
ELLIPSE
  5
409
100
AcDbEntity
  8
0
100
AcDbEllipse
 62
253
  6
CONTINUOUS
 10
212.1802984371
 20
146.5986359141
 30
0.0
 11
51.3273222198
 21
74.6935696259
 31
0.0
 40
0.5228214963
 41
-4.0313811431
 42
-4.0309999007
  0
ELLIPSE
  5
40A
100
AcDbEntity
  8
0
100
AcDbEllipse
 62
253
  6
CONTINUOUS
 10
210.9288296629
 20
147.2243703013
 30
0.0
 11
64.2962146509
 21
67.8379206393
 31
0.0
 40
0.3721406181
 41
-3.9918714239
 42
-3.9915020352
  0
ELLIPSE
  5
40B
100
AcDbEntity
  8
0
100
AcDbEllipse
 62
253
  6
CONTINUOUS
 10
209.1984794658
 20
148.0895453998
 30
0.0
 11
79.8256889782
 21
60.3060173079
 31
0.0
 40
0.1813870315
 41
2.2646314276
 42
2.2683920685
  0
ELLIPSE
  5
40C
100
AcDbEntity
  8
0
100
AcDbEllipse
 62
253
  6
CONTINUOUS
 10
211.6265801818
 20
146.8754950418
 30
0.0
 11
150.9958097314
 21
22.5730843435
 31
0.0
 40
0.1611808663
 41
-2.0014400411
 42
-2.0011628488
  0
ELLIPSE
  5
40D
100
AcDbEntity
  8
0
100
AcDbEllipse
 62
253
  6
CONTINUOUS
 10
213.8586695509
 20
145.7594503572
 30
0.0
 11
86.588397995
 21
57.1199951966
 31
0.0
 40
0.1116683996
 41
2.290861023
 42
2.2913072315
  0
ELLIPSE
  5
40E
100
AcDbEntity
  8
0
100
AcDbEllipse
 62
253
  6
CONTINUOUS
 10
213.8716385717
 20
145.7529658469
 30
0.0
 11
86.2706356011
 21
57.27031977
 31
0.0
 40
0.1147071019
 41
2.2917186662
 42
2.292168262
  0
ELLIPSE
  5
40F
100
AcDbEntity
  8
0
100
AcDbEllipse
 62
253
  6
CONTINUOUS
 10
214.907934775
 20
145.2348177452
 30
0.0
 11
61.8958036882
 21
69.0706904619
 31
0.0
 40
0.4025069282
 41
-3.9481680621
 42
-3.9475511095
  0
ELLIPSE
  5
410
100
AcDbEntity
  8
0
100
AcDbEllipse
 62
253
  6
CONTINUOUS
 10
215.7033357418
 20
144.8371172618
 30
0.0
 11
36.5587022518
 21
82.3015985712
 31
0.0
 40
0.6338641934
 41
-4.0873718426
 42
-4.0867650344
  0
ELLIPSE
  5
411
100
AcDbEntity
  8
0
100
AcDbEllipse
 62
253
  6
CONTINUOUS
 10
215.6918104878
 20
144.8428798888
 30
0.0
 11
37.0671144852
 21
82.0584263486
 31
0.0
 40
0.6311219301
 41
-4.0929537422
 42
-4.0832937797
  0
ELLIPSE
  5
412
100
AcDbEntity
  8
0
100
AcDbEllipse
 62
253
  6
CONTINUOUS
 10
215.6817328903
 20
144.8479186876
 30
0.0
 11
37.401846307
 21
81.8973788848
 31
0.0
 40
0.6292795562
 41
-4.0907214659
 42
-4.0902835204
  0
ELLIPSE
  5
413
100
AcDbEntity
  8
0
100
AcDbEllipse
 62
253
  6
CONTINUOUS
 10
205.8172657975
 20
149.780152234
 30
0.0
 11
111.3727310833
 21
44.79685684
 31
0.0
 40
0.059601702
 41
-2.1222431761
 42
-2.1196275274
  0
ELLIPSE
  5
414
100
AcDbEntity
  8
0
100
AcDbEllipse
 62
253
  6
CONTINUOUS
 10
196.5828903166
 20
154.3973399744
 30
0.0
 11
212.3549246195
 21
-13.1575587616
 31
0.0
 40
0.1752609531
 41
-1.7811198695
 42
-1.7798092772
  0
ELLIPSE
  5
415
100
AcDbEntity
  8
0
100
AcDbEllipse
 62
253
  6
CONTINUOUS
 10
206.3287023594
 20
149.524433953
 30
0.0
 11
170.4893953932
 21
11.1547394095
 31
0.0
 40
0.1749234755
 41
-1.9019239851
 42
-1.9013382507
  0
ELLIPSE
  5
416
100
AcDbEntity
  8
0
100
AcDbEllipse
 62
253
  6
CONTINUOUS
 10
206.3519440514
 20
149.512813107
 30
0.0
 11
170.1487928891
 21
11.3545285021
 31
0.0
 40
0.1747917095
 41
-1.9023622185
 42
-1.9017764623
  0
ELLIPSE
  5
417
100
AcDbEntity
  8
0
100
AcDbEllipse
 62
253
  6
CONTINUOUS
 10
227.7973900764
 20
138.7900900945
 30
0.0
 11
181.6491875955
 21
-161.3782741475
 31
0.0
 40
0.2734782933
 41
-1.7438673956
 42
-1.7433341224
  0
ELLIPSE
  5
418
100
AcDbEntity
  8
0
100
AcDbEllipse
 62
253
  6
CONTINUOUS
 10
216.4442405665
 20
144.4666648494
 30
0.0
 11
3.8914765844
 21
93.8924404639
 31
0.0
 40
0.7121196439
 41
-4.3785874061
 42
-4.3781646756
  0
ELLIPSE
  5
419
100
AcDbEntity
  8
0
100
AcDbEllipse
 62
253
  6
CONTINUOUS
 10
217.3502257071
 20
144.0136722792
 30
0.0
 11
-38.5786135196
 21
101.2180051217
 31
0.0
 40
0.6550037124
 41
-4.6887452373
 42
-4.6883833806
  0
ELLIPSE
  5
41A
100
AcDbEntity
  8
0
100
AcDbEllipse
 62
253
  6
CONTINUOUS
 10
217.3378656657
 20
144.0198522998
 30
0.0
 11
-38.1066949329
 21
101.1365265182
 31
0.0
 40
0.6563404251
 41
-4.6864577933
 42
-4.6860959201
  0
ELLIPSE
  5
41B
100
AcDbEntity
  8
0
100
AcDbEllipse
 62
253
  6
CONTINUOUS
 10
218.7404920163
 20
143.3185391246
 30
0.0
 11
-80.7741016407
 21
112.9799515018
 31
0.0
 40
0.5076329828
 41
1.4482860305
 42
1.448575197
  0
ELLIPSE
  5
41C
100
AcDbEntity
  8
0
100
AcDbEllipse
 62
253
  6
CONTINUOUS
 10
221.5812275319
 20
141.8981713668
 30
0.0
 11
149.3633126279
 21
-144.935204962
 31
0.0
 40
0.3247417531
 41
-1.7276656905
 42
-1.7263179172
  0
ELLIPSE
  5
41D
100
AcDbEntity
  8
0
100
AcDbEllipse
 62
253
  6
CONTINUOUS
 10
223.1860797917
 20
141.0957452369
 30
0.0
 11
185.6922026107
 21
-163.4511377735
 31
0.0
 40
0.2680947363
 41
-1.7237387424
 42
-1.7227747904
  0
ELLIPSE
  5
41E
100
AcDbEntity
  8
0
100
AcDbEllipse
 62
253
  6
CONTINUOUS
 10
225.836976272
 20
139.7702969967
 30
0.0
 11
244.3310073432
 21
-193.5944073797
 31
0.0
 40
0.2077591385
 41
-1.7129219104
 42
-1.712181159
  0
ELLIPSE
  5
41F
100
AcDbEntity
  8
0
100
AcDbEllipse
 62
253
  6
CONTINUOUS
 10
225.3500870392
 20
140.0137416131
 30
0.0
 11
233.729606666
 21
-188.1436646712
 31
0.0
 40
0.2166659313
 41
-1.7151568121
 42
-1.7150367327
  0
ELLIPSE
  5
420
100
AcDbEntity
  8
0
100
AcDbEllipse
 62
253
  6
CONTINUOUS
 10
227.7601194102
 20
138.8087254276
 30
0.0
 11
181.069736471
 21
-161.0813407992
 31
0.0
 40
0.2742663247
 41
-1.743434583
 42
-1.7432771424
  0
ELLIPSE
  5
421
100
AcDbEntity
  8
0
100
AcDbEllipse
 62
253
  6
CONTINUOUS
 10
221.0478306161
 20
142.1648698247
 30
0.0
 11
-73.1705536705
 21
110.1712958439
 31
0.0
 40
0.5351020182
 41
1.4416129647
 42
1.4419464569
  0
ELLIPSE
  5
422
100
AcDbEntity
  8
0
100
AcDbEllipse
 62
253
  6
CONTINUOUS
 10
218.5594433907
 20
143.4090634373
 30
0.0
 11
-14.6657625194
 21
97.5094611563
 31
0.0
 40
0.7039537544
 41
-4.5503820932
 42
-4.5499673406
  0
ELLIPSE
  5
423
100
AcDbEntity
  8
0
100
AcDbEllipse
 62
253
  6
CONTINUOUS
 10
206.5909758907
 20
149.3932971874
 30
0.0
 11
166.4468937518
 21
13.5263471978
 31
0.0
 40
0.1731496701
 41
-1.9272026412
 42
-1.9260100233
  0
ELLIPSE
  5
424
100
AcDbEntity
  8
0
100
AcDbEllipse
 62
253
  6
CONTINUOUS
 10
218.5747420858
 20
143.4014140898
 30
0.0
 11
-15.1635198264
 21
97.5890897981
 31
0.0
 40
0.703356761
 41
-4.5537439555
 42
-4.5533326113
  0
ELLIPSE
  5
425
100
AcDbEntity
  8
0
100
AcDbEllipse
 62
253
  6
CONTINUOUS
 10
211.2064849571
 20
147.0855426541
 30
0.0
 11
89.8099260541
 21
55.5889271409
 31
0.0
 40
0.0821870126
 41
2.2529932853
 42
2.25504544
  0
ELLIPSE
  5
426
100
AcDbEntity
  8
0
100
AcDbEllipse
 62
253
  6
CONTINUOUS
 10
211.1953276841
 20
147.0911212906
 30
0.0
 11
89.9625313651
 21
55.5160321461
 31
0.0
 40
0.0808498783
 41
2.2502729386
 42
2.2523202398
  0
ELLIPSE
  5
427
100
AcDbEntity
  8
0
100
AcDbEllipse
 62
253
  6
CONTINUOUS
 10
206.1130186517
 20
149.6322758069
 30
0.0
 11
204.1582502633
 21
-8.4504396731
 31
0.0
 40
0.1768860602
 41
-1.8351411804
 42
-1.8350008116
  0
ELLIPSE
  5
428
100
AcDbEntity
  8
0
100
AcDbEllipse
 62
253
  6
CONTINUOUS
 10
504.2929565347
 20
283.6574150954
 30
0.0
 11
-106.0585040325
 21
545.5538040194
 31
0.0
 40
0.6979893553
 41
-4.5090785241
 42
-4.5038780158
  0
ELLIPSE
  5
429
100
AcDbEntity
  8
0
100
AcDbEllipse
 62
253
  6
CONTINUOUS
 10
506.3814473914
 20
282.6131696671
 30
0.0
 11
321.3143853863
 21
395.5648267253
 31
0.0
 40
0.4519533011
 41
-3.9163297938
 42
-3.9111292855
  0
ELLIPSE
  5
42A
100
AcDbEntity
  8
0
100
AcDbEllipse
 62
253
  6
CONTINUOUS
 10
504.0985027768
 20
283.7546419744
 30
0.0
 11
53.4207719717
 21
513.4287562776
 31
0.0
 40
0.7085691901
 41
-4.276990045
 42
-4.2717895367
  0
ELLIPSE
  5
42B
100
AcDbEntity
  8
0
100
AcDbEllipse
 62
253
  6
CONTINUOUS
 10
216.8679688534
 20
144.254800706
 30
0.0
 11
37.1652715567
 21
82.0112779554
 31
0.0
 40
0.6305847284
 41
-4.1139170591
 42
-4.1134210873
  0
ELLIPSE
  5
42C
100
AcDbEntity
  8
0
100
AcDbEllipse
 62
253
  6
CONTINUOUS
 10
213.2633129093
 20
146.0571286781
 30
0.0
 11
63.8923939591
 21
68.0437707332
 31
0.0
 40
0.3772854978
 41
-3.9735628526
 42
-3.9706793088
  0
ELLIPSE
  5
42D
100
AcDbEntity
  8
0
100
AcDbEllipse
 62
253
  6
CONTINUOUS
 10
215.3152794757
 20
145.0311453949
 30
0.0
 11
61.3522088727
 21
69.3528559883
 31
0.0
 40
0.4092925852
 41
-3.9806319537
 42
-3.980202008
  0
ELLIPSE
  5
42E
100
AcDbEntity
  8
0
100
AcDbEllipse
 62
253
  6
CONTINUOUS
 10
215.2732729462
 20
145.0521486596
 30
0.0
 11
61.8581465359
 21
69.0902025636
 31
0.0
 40
0.4029782985
 41
-3.9793185693
 42
-3.9788920211
  0
ELLIPSE
  5
42F
100
AcDbEntity
  8
0
100
AcDbEllipse
 62
253
  6
CONTINUOUS
 10
502.4334355169
 20
284.5871756043
 30
0.0
 11
-370.8954801062
 21
600.1217788032
 31
0.0
 40
0.5587455819
 41
1.5293856431
 42
1.5297570871
  0
ELLIPSE
  5
430
100
AcDbEntity
  8
0
100
AcDbEllipse
 62
253
  6
CONTINUOUS
 10
509.5348046633
 20
281.0364910312
 30
0.0
 11
499.3664838505
 21
308.6256067985
 31
0.0
 40
0.0815200719
 41
2.3144123637
 42
2.3151552505
  0
ELLIPSE
  5
431
100
AcDbEntity
  8
0
100
AcDbEllipse
 62
253
  6
CONTINUOUS
 10
503.2861710304
 20
284.1608078476
 30
0.0
 11
-438.4785331774
 21
623.7420824547
 31
0.0
 40
0.5142222357
 41
1.4993039622
 42
1.5015325841
  0
ELLIPSE
  5
432
100
AcDbEntity
  8
0
100
AcDbEllipse
 62
253
  6
CONTINUOUS
 10
507.3023683994
 20
282.1527091631
 30
0.0
 11
499.366510671
 21
308.6255939872
 31
0.0
 40
0.0815200296
 41
2.3099551066
 42
2.3106979712
  0
ELLIPSE
  5
433
100
AcDbEntity
  8
0
100
AcDbEllipse
 62
253
  6
CONTINUOUS
 10
504.9285119219
 20
283.3396374018
 30
0.0
 11
-370.8953481925
 21
600.1217367929
 31
0.0
 40
0.5587456698
 41
1.5245570284
 42
1.5249284605
  0
ELLIPSE
  5
434
100
AcDbEntity
  8
0
100
AcDbEllipse
 62
253
  6
CONTINUOUS
 10
504.9537646741
 20
283.3270110258
 30
0.0
 11
321.3143853863
 21
395.5648267253
 31
0.0
 40
0.4519533011
 41
-3.9235300228
 42
-3.9183299002
  0
ELLIPSE
  5
435
100
AcDbEntity
  8
0
100
AcDbEllipse
 62
253
  6
CONTINUOUS
 10
504.1254396369
 20
283.7411735443
 30
0.0
 11
53.4207719717
 21
513.4287562776
 31
0.0
 40
0.7085691901
 41
-4.284190274
 42
-4.2789901514
  0
ELLIPSE
  5
436
100
AcDbEntity
  8
0
100
AcDbEllipse
 62
253
  6
CONTINUOUS
 10
499.2817579413
 20
286.1630143921
 30
0.0
 11
-370.8956999625
 21
600.1218488205
 31
0.0
 40
0.5587454355
 41
1.5245568581
 42
1.5252997226
  0
ELLIPSE
  5
437
100
AcDbEntity
  8
0
100
AcDbEllipse
 62
253
  6
CONTINUOUS
 10
205.5309650639
 20
149.9233026007
 30
0.0
 11
120.0774428891
 21
40.1337552567
 31
0.0
 40
0.0951082524
 41
-2.0833154949
 42
-2.0815818047
  0
ELLIPSE
  5
438
100
AcDbEntity
  8
0
100
AcDbEllipse
 62
253
  6
CONTINUOUS
 10
213.2369639019
 20
146.0703031818
 30
0.0
 11
85.1128091474
 21
57.8172275943
 31
0.0
 40
0.1259787497
 41
2.265114973
 42
2.265487354
  0
ELLIPSE
  5
439
100
AcDbEntity
  8
0
100
AcDbEllipse
 62
253
  6
CONTINUOUS
 10
503.2314538611
 20
284.1881664322
 30
0.0
 11
499.3665643119
 21
308.6255683646
 31
0.0
 40
0.081519945
 41
2.3121836661
 42
2.3129265401
  0
ELLIPSE
  5
43A
100
AcDbEntity
  8
0
100
AcDbEllipse
 62
253
  6
CONTINUOUS
 10
495.1165623686
 20
288.2456121785
 30
0.0
 11
-370.8956999625
 21
600.1218488205
 31
0.0
 40
0.5587454355
 41
1.5362146415
 42
1.5369575954
  0
ELLIPSE
  5
43B
100
AcDbEntity
  8
0
100
AcDbEllipse
 62
253
  6
CONTINUOUS
 10
208.1933146204
 20
148.5921278225
 30
0.0
 11
154.1722236467
 21
20.7187921285
 31
0.0
 40
0.1644319671
 41
-1.9580212467
 42
-1.9578333718
  0
ELLIPSE
  5
43C
100
AcDbEntity
  8
0
100
AcDbEllipse
 62
253
  6
CONTINUOUS
 10
504.9453470438
 20
283.3312198409
 30
0.0
 11
499.3666447733
 21
308.6255299306
 31
0.0
 40
0.0815198181
 41
2.3171552292
 42
2.3178981369
  0
ELLIPSE
  5
43D
100
AcDbEntity
  8
0
100
AcDbEllipse
 62
253
  6
CONTINUOUS
 10
208.4830563295
 20
148.447256968
 30
0.0
 11
149.7949158539
 21
23.2728708693
 31
0.0
 40
0.159826323
 41
-1.9741961251
 42
-1.9740031732
  0
ELLIPSE
  5
43E
100
AcDbEntity
  8
0
100
AcDbEllipse
 62
253
  6
CONTINUOUS
 10
226.8470433089
 20
139.2652634782
 30
0.0
 11
176.7689605486
 21
-158.8788215334
 31
0.0
 40
0.2802490153
 41
-1.7408735905
 42
-1.7407127958
  0
ELLIPSE
  5
43F
100
AcDbEntity
  8
0
100
AcDbEllipse
 62
253
  6
CONTINUOUS
 10
227.1463137167
 20
139.1156282743
 30
0.0
 11
181.6759663395
 21
-161.3919976019
 31
0.0
 40
0.2734419766
 41
-1.7402842034
 42
-1.7400421731
  0
ELLIPSE
  5
440
100
AcDbEntity
  8
0
100
AcDbEllipse
 62
253
  6
CONTINUOUS
 10
207.1183337167
 20
149.1296182743
 30
0.0
 11
167.4935252591
 21
12.9122745938
 31
0.0
 40
0.1736541371
 41
-1.9137220998
 42
-1.9134495947
  0
ELLIPSE
  5
441
100
AcDbEntity
  8
0
100
AcDbEllipse
 62
253
  6
CONTINUOUS
 10
207.073323848
 20
149.1521232087
 30
0.0
 11
168.1870899077
 21
12.5053583586
 31
0.0
 40
0.1739706071
 41
-1.9118488029
 42
-1.9115796883
  0
ELLIPSE
  5
442
100
AcDbEntity
  8
0
100
AcDbEllipse
 62
253
  6
CONTINUOUS
 10
212.2969743978
 20
146.5402979338
 30
0.0
 11
93.4130495883
 21
53.8570812346
 31
0.0
 40
0.0520194632
 41
2.2299932044
 42
2.2305094231
  0
ELLIPSE
  5
443
100
AcDbEntity
  8
0
100
AcDbEllipse
 62
253
  6
CONTINUOUS
 10
214.5003985216
 20
145.4385858719
 30
0.0
 11
67.4264694903
 21
66.2633981676
 31
0.0
 40
0.3320447854
 41
-3.9736415363
 42
-3.9730051702
  0
ELLIPSE
  5
444
100
AcDbEntity
  8
0
100
AcDbEllipse
 62
253
  6
CONTINUOUS
 10
214.5295600736
 20
145.4240050959
 30
0.0
 11
67.0812751344
 21
66.4352268539
 31
0.0
 40
0.336471135
 41
-3.9729377041
 42
-3.9722946016
  0
ELLIPSE
  5
445
100
AcDbEntity
  8
0
100
AcDbEllipse
 62
253
  6
CONTINUOUS
 10
215.9876131703
 20
144.6949785476
 30
0.0
 11
46.7081886057
 21
77.1641561977
 31
0.0
 40
0.5650230151
 41
-4.0401279797
 42
-4.0393732005
  0
ELLIPSE
  5
446
100
AcDbEntity
  8
0
100
AcDbEllipse
 62
253
  6
CONTINUOUS
 10
217.3659373462
 20
144.0058164596
 30
0.0
 11
9.2862527967
 21
92.5077922036
 31
0.0
 40
0.7088615941
 41
-4.3484833857
 42
-4.347796336
  0
ELLIPSE
  5
447
100
AcDbEntity
  8
0
100
AcDbEllipse
 62
253
  6
CONTINUOUS
 10
217.3468342787
 20
144.0153679933
 30
0.0
 11
9.9935743861
 21
92.3123710756
 31
0.0
 40
0.7082200374
 41
-4.3416886052
 42
-4.3410066602
  0
ELLIPSE
  5
448
100
AcDbEntity
  8
0
100
AcDbEllipse
 62
253
  6
CONTINUOUS
 10
219.0472680459
 20
143.1651511098
 30
0.0
 11
-46.9777773818
 21
102.816414119
 31
0.0
 40
0.6291984703
 41
1.5368828617
 42
1.5374903407
  0
ELLIPSE
  5
449
100
AcDbEntity
  8
0
100
AcDbEllipse
 62
253
  6
CONTINUOUS
 10
221.9852638111
 20
141.6961532272
 30
0.0
 11
-107.684296874
 21
124.557334798
 31
0.0
 40
0.4211779455
 41
1.4086344551
 42
1.4090100923
  0
ELLIPSE
  5
44A
100
AcDbEntity
  8
0
100
AcDbEllipse
 62
253
  6
CONTINUOUS
 10
222.0737831893
 20
141.6518935381
 30
0.0
 11
-109.3269935721
 21
125.3217518516
 31
0.0
 40
0.416545931
 41
1.4082151041
 42
1.4085890522
  0
ELLIPSE
  5
44B
100
AcDbEntity
  8
0
100
AcDbEllipse
 62
253
  6
CONTINUOUS
 10
233.2452445535
 20
136.0661628559
 30
0.0
 11
311.9769316849
 21
-228.2924952492
 31
0.0
 40
0.1642235892
 41
-1.7097625834
 42
-1.7096086102
  0
ELLIPSE
  5
44C
100
AcDbEntity
  8
0
100
AcDbEllipse
 62
253
  6
CONTINUOUS
 10
197.062784188
 20
154.1573930387
 30
0.0
 11
362.3216879882
 21
-94.9280221751
 31
0.0
 40
0.1265407963
 41
-1.6596474056
 42
-1.659522194
  0
ELLIPSE
  5
44D
100
AcDbEntity
  8
0
100
AcDbEllipse
 62
253
  6
CONTINUOUS
 10
197.3659521448
 20
154.0058090603
 30
0.0
 11
356.8577686681
 21
-92.0490147677
 31
0.0
 40
0.1281001585
 41
-1.6623646861
 42
-1.6622834679
  0
ELLIPSE
  5
44E
100
AcDbEntity
  8
0
100
AcDbEllipse
 62
253
  6
CONTINUOUS
 10
232.4971690953
 20
136.4402005851
 30
0.0
 11
295.9526306876
 21
-220.0880662834
 31
0.0
 40
0.172852649
 41
-1.7125587952
 42
-1.712453893
  0
ELLIPSE
  5
44F
100
AcDbEntity
  8
0
100
AcDbEllipse
 62
253
  6
CONTINUOUS
 10
221.5489042375
 20
141.914333014
 30
0.0
 11
-96.6671268083
 21
119.5730460328
 31
0.0
 40
0.4542105768
 41
1.4167873852
 42
1.4170530285
  0
ELLIPSE
  5
450
100
AcDbEntity
  8
0
100
AcDbEllipse
 62
253
  6
CONTINUOUS
 10
221.5774174435
 20
141.900076411
 30
0.0
 11
-97.21482826
 21
119.8141547846
 31
0.0
 40
0.4524875793
 41
1.4165923885
 42
1.4168529617
  0
ELLIPSE
  5
451
100
AcDbEntity
  8
0
100
AcDbEllipse
 62
253
  6
CONTINUOUS
 10
218.8281704664
 20
143.2746998995
 30
0.0
 11
-34.6939412372
 21
100.5680959458
 31
0.0
 40
0.6656060365
 41
-4.6786568425
 42
-4.6782440104
  0
ELLIPSE
  5
452
100
AcDbEntity
  8
0
100
AcDbEllipse
 62
253
  6
CONTINUOUS
 10
217.2637452088
 20
144.0569125283
 30
0.0
 11
23.2572535003
 21
87.9860245198
 31
0.0
 40
0.6852847762
 41
-4.2229943565
 42
-4.2225443123
  0
ELLIPSE
  5
453
100
AcDbEntity
  8
0
100
AcDbEllipse
 62
253
  6
CONTINUOUS
 10
217.2763677571
 20
144.0506012542
 30
0.0
 11
22.8270693801
 21
88.1470920582
 31
0.0
 40
0.6864012103
 41
-4.2262968568
 42
-4.2258468122
  0
ELLIPSE
  5
454
100
AcDbEntity
  8
0
100
AcDbEllipse
 62
253
  6
CONTINUOUS
 10
215.9297092499
 20
144.7239305077
 30
0.0
 11
54.4883472053
 21
72.9920067307
 31
0.0
 40
0.4899429908
 41
-3.9926826618
 42
-3.9922004966
  0
ELLIPSE
  5
455
100
AcDbEntity
  8
0
100
AcDbEllipse
 62
253
  6
CONTINUOUS
 10
214.3543239003
 20
145.5116231826
 30
0.0
 11
76.2691370546
 21
61.9847480421
 31
0.0
 40
0.2220999294
 41
2.3033700686
 42
2.3037473463
  0
ELLIPSE
  5
456
100
AcDbEntity
  8
0
100
AcDbEllipse
 62
253
  6
CONTINUOUS
 10
214.3185596235
 20
145.5295053209
 30
0.0
 11
76.7405686314
 21
61.7614763124
 31
0.0
 40
0.2165574865
 41
2.3025021471
 42
2.3028760218
  0
ELLIPSE
  5
457
100
AcDbEntity
  8
0
100
AcDbEllipse
 62
253
  6
CONTINUOUS
 10
211.5624876473
 20
146.9075413091
 30
0.0
 11
117.1864534295
 21
41.7007155328
 31
0.0
 40
0.0844100755
 41
-2.1233840323
 42
-2.1231150478
  0
ELLIPSE
  5
458
100
AcDbEntity
  8
0
100
AcDbEllipse
 62
253
  6
CONTINUOUS
 10
197.341496438
 20
154.0180369137
 30
0.0
 11
381.3118299811
 21
-104.8987897498
 31
0.0
 40
0.1213515249
 41
-1.6538585863
 42
-1.6537824595
  0
ELLIPSE
  5
459
100
AcDbEntity
  8
0
100
AcDbEllipse
 62
253
  6
CONTINUOUS
 10
197.8141247576
 20
153.7817227539
 30
0.0
 11
372.2071348895
 21
-100.1249459375
 31
0.0
 40
0.1237953402
 41
-1.6583483589
 42
-1.6580810714
  0
ELLIPSE
  5
45A
100
AcDbEntity
  8
0
100
AcDbEllipse
 62
253
  6
CONTINUOUS
 10
233.324073905
 20
136.0267481802
 30
0.0
 11
335.2471250284
 21
-240.1896472871
 31
0.0
 40
0.1530886831
 41
-1.7025879148
 42
-1.7022732568
  0
ELLIPSE
  5
45B
100
AcDbEntity
  8
0
100
AcDbEllipse
 62
253
  6
CONTINUOUS
 10
221.5917282078
 20
141.8929210288
 30
0.0
 11
-108.1693015496
 21
124.7825252547
 31
0.0
 40
0.4198024903
 41
1.4117359208
 42
1.4125648726
  0
ELLIPSE
  5
45C
100
AcDbEntity
  8
0
100
AcDbEllipse
 62
253
  6
CONTINUOUS
 10
221.5741126901
 20
141.9017287877
 30
0.0
 11
-107.8235134838
 21
124.6219300195
 31
0.0
 40
0.4207824575
 41
1.4110770109
 42
1.411907702
  0
ELLIPSE
  5
45D
100
AcDbEntity
  8
0
100
AcDbEllipse
 62
253
  6
CONTINUOUS
 10
218.7515740346
 20
143.3129981154
 30
0.0
 11
-46.6911819975
 21
102.7566508002
 31
0.0
 40
0.6301358896
 41
1.5400219576
 42
1.5413535046
  0
ELLIPSE
  5
45E
100
AcDbEntity
  8
0
100
AcDbEllipse
 62
253
  6
CONTINUOUS
 10
217.125427263
 20
144.1260715012
 30
0.0
 11
9.636936317
 21
92.4113216275
 31
0.0
 40
0.7085499945
 41
-4.3438101092
 42
-4.3422991059
  0
ELLIPSE
  5
45F
100
AcDbEntity
  8
0
100
AcDbEllipse
 62
253
  6
CONTINUOUS
 10
217.1322730561
 20
144.1226486046
 30
0.0
 11
9.378888511
 21
92.482388253
 31
0.0
 40
0.708780515
 41
-4.3475385784
 42
-4.3460376043
  0
ELLIPSE
  5
460
100
AcDbEntity
  8
0
100
AcDbEllipse
 62
253
  6
CONTINUOUS
 10
215.7759660238
 20
144.8008021208
 30
0.0
 11
46.4172334321
 21
77.3180934949
 31
0.0
 40
0.5674435261
 41
-4.0427758681
 42
-4.0411089045
  0
ELLIPSE
  5
461
100
AcDbEntity
  8
0
100
AcDbEllipse
 62
253
  6
CONTINUOUS
 10
214.2704473027
 20
145.5535614813
 30
0.0
 11
67.2205405253
 21
66.3658518265
 31
0.0
 40
0.3346851339
 41
-3.9744903417
 42
-3.9730838695
  0
ELLIPSE
  5
462
100
AcDbEntity
  8
0
100
AcDbEllipse
 62
253
  6
CONTINUOUS
 10
214.2611237522
 20
145.5582232566
 30
0.0
 11
67.3280928781
 21
66.3123231803
 31
0.0
 40
0.3333060385
 41
-3.9759220505
 42
-3.9745120724
  0
ELLIPSE
  5
463
100
AcDbEntity
  8
0
100
AcDbEllipse
 62
253
  6
CONTINUOUS
 10
211.9858251101
 20
146.6958725777
 30
0.0
 11
93.1454432439
 21
53.9865307366
 31
0.0
 40
0.0541606229
 41
2.2283014672
 42
2.2294423938
  0
ELLIPSE
  5
464
100
AcDbEntity
  8
0
100
AcDbEllipse
 62
253
  6
CONTINUOUS
 10
206.6708410068
 20
149.3533646293
 30
0.0
 11
174.2568456925
 21
8.9456637532
 31
0.0
 40
0.1761809238
 41
-1.8900020288
 42
-1.8894687383
  0
ELLIPSE
  5
465
100
AcDbEntity
  8
0
100
AcDbEllipse
 62
253
  6
CONTINUOUS
 10
212.6446052542
 20
146.3664825056
 30
0.0
 11
93.3472587883
 21
53.8889193471
 31
0.0
 40
0.052544411
 41
2.2265210906
 42
2.227458937
  0
ELLIPSE
  5
466
100
AcDbEntity
  8
0
100
AcDbEllipse
 62
253
  6
CONTINUOUS
 10
212.5989679156
 20
146.3893011749
 30
0.0
 11
93.8885841074
 21
53.6266999614
 31
0.0
 40
0.0482532459
 41
2.2249481864
 42
2.2258792159
  0
ELLIPSE
  5
467
100
AcDbEntity
  8
0
100
AcDbEllipse
 62
253
  6
CONTINUOUS
 10
214.9632311494
 20
145.207169558
 30
0.0
 11
67.0717180398
 21
66.4399903276
 31
0.0
 40
0.3365937088
 41
-3.9759965651
 42
-3.9746745944
  0
ELLIPSE
  5
468
100
AcDbEntity
  8
0
100
AcDbEllipse
 62
253
  6
CONTINUOUS
 10
216.5113016059
 20
144.4331343298
 30
0.0
 11
46.1704363383
 21
77.4484516324
 31
0.0
 40
0.5694747371
 41
-4.0460010335
 42
-4.0446317774
  0
ELLIPSE
  5
469
100
AcDbEntity
  8
0
100
AcDbEllipse
 62
253
  6
CONTINUOUS
 10
216.523427122
 20
144.4270715717
 30
0.0
 11
45.9540805517
 21
77.5625611688
 31
0.0
 40
0.5712388848
 41
-4.0460546069
 42
-4.0446939258
  0
ELLIPSE
  5
46A
100
AcDbEntity
  8
0
100
AcDbEllipse
 62
253
  6
CONTINUOUS
 10
217.9115357094
 20
143.733017278
 30
0.0
 11
7.7640526688
 21
92.9171545246
 31
0.0
 40
0.7100689847
 41
-4.3619941619
 42
-4.3605929747
  0
ELLIPSE
  5
46B
100
AcDbEntity
  8
0
100
AcDbEllipse
 62
253
  6
CONTINUOUS
 10
219.6295687146
 20
142.8740007754
 30
0.0
 11
-48.6418962198
 21
103.1715515575
 31
0.0
 40
0.623686618
 41
1.5288423006
 42
1.529928651
  0
ELLIPSE
  5
46C
100
AcDbEntity
  8
0
100
AcDbEllipse
 62
253
  6
CONTINUOUS
 10
219.6149191568
 20
142.8813255543
 30
0.0
 11
-48.267293098
 21
103.0903835654
 31
0.0
 40
0.6249373271
 41
1.5316283214
 42
1.5319887348
  0
ELLIPSE
  5
46D
100
AcDbEntity
  8
0
100
AcDbEllipse
 62
253
  6
CONTINUOUS
 10
223.0032303001
 20
141.1871699827
 30
0.0
 11
-117.3840725556
 21
129.1343235377
 31
0.0
 40
0.3949036834
 41
1.4052946599
 42
1.405540009
  0
ELLIPSE
  5
46E
100
AcDbEntity
  8
0
100
AcDbEllipse
 62
253
  6
CONTINUOUS
 10
245.2820326219
 20
130.0477688217
 30
0.0
 11
521.6535133553
 21
-334.9018430054
 31
0.0
 40
0.0988268114
 41
-1.6841505595
 42
-1.6840947289
  0
ELLIPSE
  5
46F
100
AcDbEntity
  8
0
100
AcDbEllipse
 62
253
  6
CONTINUOUS
 10
247.1032796231
 20
129.1371453212
 30
0.0
 11
554.8764182188
 21
-351.7018620956
 31
0.0
 40
0.0929160746
 41
-1.6813216572
 42
-1.6812692006
  0
ELLIPSE
  5
470
100
AcDbEntity
  8
0
100
AcDbEllipse
 62
253
  6
CONTINUOUS
 10
204.651959361
 20
150.3628054522
 30
0.0
 11
235.0914190644
 21
-26.0557763574
 31
0.0
 40
0.168821412
 41
-1.7716061713
 42
-1.7714724965
  0
ELLIPSE
  5
471
100
AcDbEntity
  8
0
100
AcDbEllipse
 62
253
  6
CONTINUOUS
 10
212.5476598487
 20
146.4149552083
 30
0.0
 11
103.7197311715
 21
48.7516523421
 31
0.0
 40
0.019207046
 41
-2.1856820846
 42
-2.1851220205
  0
ELLIPSE
  5
472
100
AcDbEntity
  8
0
100
AcDbEllipse
 62
253
  6
CONTINUOUS
 10
215.1289080138
 20
145.1243311258
 30
0.0
 11
70.0796333111
 21
64.9566285221
 31
0.0
 40
0.2981834101
 41
-3.9716938072
 42
-3.9712589347
  0
ELLIPSE
  5
473
100
AcDbEntity
  8
0
100
AcDbEllipse
 62
253
  6
CONTINUOUS
 10
216.6197002636
 20
144.3789350009
 30
0.0
 11
49.368776108
 21
75.7458747628
 31
0.0
 40
0.5415819303
 41
-4.0218890185
 42
-4.0214389016
  0
ELLIPSE
  5
474
100
AcDbEntity
  8
0
100
AcDbEllipse
 62
253
  6
CONTINUOUS
 10
216.6615774027
 20
144.3579964314
 30
0.0
 11
48.643580322
 21
76.134079937
 31
0.0
 40
0.5482054612
 41
-4.0266001636
 42
-4.0261483538
  0
ELLIPSE
  5
475
100
AcDbEntity
  8
0
100
AcDbEllipse
 62
253
  6
CONTINUOUS
 10
218.1048441959
 20
143.6363630347
 30
0.0
 11
10.2240750344
 21
92.2479635794
 31
0.0
 40
0.7079997187
 41
-4.3400935497
 42
-4.3396180299
  0
ELLIPSE
  5
476
100
AcDbEntity
  8
0
100
AcDbEllipse
 62
253
  6
CONTINUOUS
 10
219.8828494767
 20
142.7473603944
 30
0.0
 11
-47.9426735464
 21
103.0206256755
 31
0.0
 40
0.6260165515
 41
1.5309593321
 42
1.5313214707
  0
ELLIPSE
  5
477
100
AcDbEntity
  8
0
100
AcDbEllipse
 62
253
  6
CONTINUOUS
 10
219.9419460636
 20
142.7178121009
 30
0.0
 11
-49.3937611178
 21
103.3366506219
 31
0.0
 40
0.6211595933
 41
1.5240111877
 42
1.524408883
  0
ELLIPSE
  5
478
100
AcDbEntity
  8
0
100
AcDbEllipse
 62
253
  6
CONTINUOUS
 10
218.1681999967
 20
143.6046851343
 30
0.0
 11
7.0344628819
 21
93.1080442686
 31
0.0
 40
0.7105656413
 41
-4.3688350371
 42
-4.368318866
  0
ELLIPSE
  5
479
100
AcDbEntity
  8
0
100
AcDbEllipse
 62
253
  6
CONTINUOUS
 10
216.7245138045
 20
144.3265282305
 30
0.0
 11
46.3436604745
 21
77.3569758538
 31
0.0
 40
0.5680511571
 41
-4.0432224142
 42
-4.0427197709
  0
ELLIPSE
  5
47A
100
AcDbEntity
  8
0
100
AcDbEllipse
 62
253
  6
CONTINUOUS
 10
216.7401427877
 20
144.3187137389
 30
0.0
 11
46.0645903838
 21
77.5042966257
 31
0.0
 40
0.5703397227
 41
-4.04555676
 42
-4.0450490229
  0
ELLIPSE
  5
47B
100
AcDbEntity
  8
0
100
AcDbEllipse
 62
253
  6
CONTINUOUS
 10
215.2266418456
 20
145.0754642099
 30
0.0
 11
66.9377338097
 21
66.5068065126
 31
0.0
 40
0.3383122154
 41
-3.9740092032
 42
-3.9735200739
  0
ELLIPSE
  5
47C
100
AcDbEntity
  8
0
100
AcDbEllipse
 62
253
  6
CONTINUOUS
 10
212.8117077488
 20
146.2829312583
 30
0.0
 11
95.3209456022
 21
52.9299718597
 31
0.0
 40
0.037204137
 41
2.2208045922
 42
2.2211414164
  0
ELLIPSE
  5
47D
100
AcDbEntity
  8
0
100
AcDbEllipse
 62
253
  6
CONTINUOUS
 10
212.9724108835
 20
146.202579691
 30
0.0
 11
93.3252148029
 21
53.8995851734
 31
0.0
 40
0.0527205129
 41
2.2297817097
 42
2.2301269951
  0
ELLIPSE
  5
47E
100
AcDbEntity
  8
0
100
AcDbEllipse
 62
253
  6
CONTINUOUS
 10
207.3669903977
 20
149.0052899338
 30
0.0
 11
173.1145029761
 21
9.6152976286
 31
0.0
 40
0.1758372094
 41
-1.8964699726
 42
-1.8962719363
  0
ELLIPSE
  5
47F
100
AcDbEntity
  8
0
100
AcDbEllipse
 62
253
  6
CONTINUOUS
 10
227.1937370801
 20
139.0919165927
 30
0.0
 11
170.7093738767
 21
-155.7803673928
 31
0.0
 40
0.2890974155
 41
-1.7423405571
 42
-1.7421476
  0
ELLIPSE
  5
480
100
AcDbEntity
  8
0
100
AcDbEllipse
 62
253
  6
CONTINUOUS
 10
221.4628051365
 20
141.9573825645
 30
0.0
 11
-74.0887159061
 21
110.4962447651
 31
0.0
 40
0.5317409185
 41
1.4424722305
 42
1.442814141
  0
ELLIPSE
  5
481
100
AcDbEntity
  8
0
100
AcDbEllipse
 62
253
  6
CONTINUOUS
 10
221.4441119132
 20
141.9667291761
 30
0.0
 11
-73.7348363306
 21
110.3705172048
 31
0.0
 40
0.5330352303
 41
1.443559086
 42
1.4439009783
  0
ELLIPSE
  5
482
100
AcDbEntity
  8
0
100
AcDbEllipse
 62
253
  6
CONTINUOUS
 10
219.1631225508
 20
143.1072238573
 30
0.0
 11
-18.4357332276
 21
98.0997278442
 31
0.0
 40
0.6989648746
 41
-4.5754209911
 42
-4.5749352476
  0
ELLIPSE
  5
483
100
AcDbEntity
  8
0
100
AcDbEllipse
 62
253
  6
CONTINUOUS
 10
217.6267458416
 20
143.8754122119
 30
0.0
 11
32.6123657814
 21
84.1274387507
 31
0.0
 40
0.652977239
 41
-4.1483978785
 42
-4.1478969128
  0
ELLIPSE
  5
484
100
AcDbEntity
  8
0
100
AcDbEllipse
 62
253
  6
CONTINUOUS
 10
217.6433384645
 20
143.8671159005
 30
0.0
 11
32.1862676654
 21
84.317796554
 31
0.0
 40
0.654824057
 41
-4.1514698181
 42
-4.1510111665
  0
ELLIPSE
  5
485
100
AcDbEntity
  8
0
100
AcDbEllipse
 62
253
  6
CONTINUOUS
 10
219.2229677295
 20
143.0773012679
 30
0.0
 11
-21.2641268428
 21
98.5276841496
 31
0.0
 40
0.6945224956
 41
-4.5944888251
 42
-4.5940538965
  0
ELLIPSE
  5
486
100
AcDbEntity
  8
0
100
AcDbEllipse
 62
253
  6
CONTINUOUS
 10
221.700700143
 20
141.8384350612
 30
0.0
 11
-80.5410560212
 21
112.8900772066
 31
0.0
 40
0.5084603658
 41
1.4330106995
 42
1.433305171
  0
ELLIPSE
  5
487
100
AcDbEntity
  8
0
100
AcDbEllipse
 62
253
  6
CONTINUOUS
 10
221.6928198953
 20
141.842375185
 30
0.0
 11
-80.3904691591
 21
112.8321235912
 31
0.0
 40
0.508995559
 41
1.4335541526
 42
1.4338519935
  0
ELLIPSE
  5
488
100
AcDbEntity
  8
0
100
AcDbEllipse
 62
253
  6
CONTINUOUS
 10
229.4930996302
 20
137.9422353176
 30
0.0
 11
217.0013388821
 21
-179.5398774124
 31
0.0
 40
0.2323004655
 41
-1.7304183929
 42
-1.730277927
  0
ELLIPSE
  5
489
100
AcDbEntity
  8
0
100
AcDbEllipse
 62
253
  6
CONTINUOUS
 10
176.7467452096
 20
164.3154125279
 30
0.0
 11
713.2202036418
 21
-274.8295829056
 31
0.0
 40
0.0689196645
 41
-1.5762963869
 42
-1.5762557717
  0
ELLIPSE
  5
48A
100
AcDbEntity
  8
0
100
AcDbEllipse
 62
253
  6
CONTINUOUS
 10
210.4276884648
 20
147.4749409003
 30
0.0
 11
138.0321399036
 21
30.0735869365
 31
0.0
 40
0.1422794591
 41
-2.0234077888
 42
-2.0231793199
  0
ELLIPSE
  5
48B
100
AcDbEntity
  8
0
100
AcDbEllipse
 62
253
  6
CONTINUOUS
 10
214.4078049694
 20
145.484882648
 30
0.0
 11
82.5536055959
 21
59.0227318735
 31
0.0
 40
0.1520008436
 41
2.2778478727
 42
2.2781931042
  0
ELLIPSE
  5
48C
100
AcDbEntity
  8
0
100
AcDbEllipse
 62
253
  6
CONTINUOUS
 10
214.42273478
 20
145.4774177427
 30
0.0
 11
82.3734095098
 21
59.1075061063
 31
0.0
 40
0.1538901233
 41
2.2781484258
 42
2.2785055031
  0
ELLIPSE
  5
48D
100
AcDbEntity
  8
0
100
AcDbEllipse
 62
253
  6
CONTINUOUS
 10
216.3315278878
 20
144.5230211888
 30
0.0
 11
59.4679715161
 21
70.3389014149
 31
0.0
 40
0.4324527195
 41
-3.981753315
 42
-3.9812862145
  0
ELLIPSE
  5
48E
100
AcDbEntity
  8
0
100
AcDbEllipse
 62
253
  6
CONTINUOUS
 10
217.8676846581
 20
143.7549428037
 30
0.0
 11
32.1532416236
 21
84.3324941199
 31
0.0
 40
0.654965531
 41
-4.152051869
 42
-4.1515949021
  0
ELLIPSE
  5
48F
100
AcDbEntity
  8
0
100
AcDbEllipse
 62
253
  6
CONTINUOUS
 10
217.84566612
 20
143.7659520727
 30
0.0
 11
32.7153159395
 21
84.0812430444
 31
0.0
 40
0.6525249878
 41
-4.1487059446
 42
-4.147340071
  0
ELLIPSE
  5
490
100
AcDbEntity
  8
0
100
AcDbEllipse
 62
253
  6
CONTINUOUS
 10
219.4215826033
 20
142.9779938311
 30
0.0
 11
-18.6042290803
 21
98.1255089075
 31
0.0
 40
0.6987169109
 41
-4.5786529626
 42
-4.5773428411
  0
ELLIPSE
  5
491
100
AcDbEntity
  8
0
100
AcDbEllipse
 62
253
  6
CONTINUOUS
 10
221.7535689039
 20
141.8120006807
 30
0.0
 11
-73.3721792546
 21
110.2423017449
 31
0.0
 40
0.534363127
 41
1.4417492456
 42
1.4426802767
  0
ELLIPSE
  5
492
100
AcDbEntity
  8
0
100
AcDbEllipse
 62
253
  6
CONTINUOUS
 10
221.8007924551
 20
141.7883889052
 30
0.0
 11
-74.2299643013
 21
110.5465967488
 31
0.0
 40
0.5312247163
 41
1.4390137389
 42
1.4399363573
  0
ELLIPSE
  5
493
100
AcDbEntity
  8
0
100
AcDbEllipse
 62
253
  6
CONTINUOUS
 10
227.805113824
 20
138.7862282207
 30
0.0
 11
170.4321723605
 21
-155.638780676
 31
0.0
 40
0.2895144532
 41
-1.7458811277
 42
-1.7453529171
  0
ELLIPSE
  5
494
100
AcDbEntity
  8
0
100
AcDbEllipse
 62
253
  6
CONTINUOUS
 10
208.1979279959
 20
148.5898211348
 30
0.0
 11
220.8098228317
 21
-17.9811744532
 31
0.0
 40
0.1731288608
 41
-1.8053859464
 42
-1.8049563996
  0
ELLIPSE
  5
495
100
AcDbEntity
  8
0
100
AcDbEllipse
 62
253
  6
CONTINUOUS
 10
213.742040534
 20
145.8177648657
 30
0.0
 11
106.6664175239
 21
47.2456861802
 31
0.0
 40
0.0358958702
 41
-2.1818169408
 42
-2.1809747285
  0
ELLIPSE
  5
496
100
AcDbEntity
  8
0
100
AcDbEllipse
 62
253
  6
CONTINUOUS
 10
213.726484957
 20
145.8255426542
 30
0.0
 11
106.943670233
 21
47.1029018152
 31
0.0
 40
0.0373902853
 41
-2.1796112187
 42
-2.1787723691
  0
ELLIPSE
  5
497
100
AcDbEntity
  8
0
100
AcDbEllipse
 62
253
  6
CONTINUOUS
 10
215.7243660302
 20
144.8266021176
 30
0.0
 11
74.9377083168
 21
62.617117501
 31
0.0
 40
0.237973809
 41
2.3118921474
 42
2.3131318831
  0
ELLIPSE
  5
498
100
AcDbEntity
  8
0
100
AcDbEllipse
 62
253
  6
CONTINUOUS
 10
216.9741415617
 20
144.2017143519
 30
0.0
 11
55.825294124
 21
72.2746514351
 31
0.0
 40
0.4751339642
 41
-3.9829342039
 42
-3.9815607646
  0
ELLIPSE
  5
499
100
AcDbEntity
  8
0
100
AcDbEllipse
 62
253
  6
CONTINUOUS
 10
216.9809045931
 20
144.1983328362
 30
0.0
 11
55.7105327833
 21
72.3361216862
 31
0.0
 40
0.4764248118
 41
-3.9847374728
 42
-3.9833724137
  0
ELLIPSE
  5
49A
100
AcDbEntity
  8
0
100
AcDbEllipse
 62
253
  6
CONTINUOUS
 10
218.0774019078
 20
143.6500841788
 30
0.0
 11
31.1846061353
 21
84.7599134591
 31
0.0
 40
0.6590099827
 41
-4.1522714655
 42
-4.1507861899
  0
ELLIPSE
  5
49B
100
AcDbEntity
  8
0
100
AcDbEllipse
 62
253
  6
CONTINUOUS
 10
219.3310394521
 20
143.0232654067
 30
0.0
 11
-17.4914856188
 21
97.9544185678
 31
0.0
 40
0.7003150852
 41
-4.5610857336
 42
-4.559818588
  0
ELLIPSE
  5
49C
100
AcDbEntity
  8
0
100
AcDbEllipse
 62
253
  6
CONTINUOUS
 10
219.3089340176
 20
143.0343181239
 30
0.0
 11
-16.6482410125
 21
97.8233399751
 31
0.0
 40
0.7014641935
 41
-4.5560768408
 42
-4.5548062371
  0
ELLIPSE
  5
49D
100
AcDbEntity
  8
0
100
AcDbEllipse
 62
253
  6
CONTINUOUS
 10
221.1621089041
 20
142.1077306807
 30
0.0
 11
-68.4730250414
 21
108.5749788849
 31
0.0
 40
0.5524121264
 41
1.4611840321
 42
1.4622279897
  0
ELLIPSE
  5
49E
100
AcDbEntity
  8
0
100
AcDbEllipse
 62
253
  6
CONTINUOUS
 10
225.136037658
 20
140.1207663037
 30
0.0
 11
-143.962860736
 21
142.2173944057
 31
0.0
 40
0.3350275873
 41
1.4019466791
 42
1.4025389055
  0
ELLIPSE
  5
49F
100
AcDbEntity
  8
0
100
AcDbEllipse
 62
253
  6
CONTINUOUS
 10
225.256716969
 20
140.0604266482
 30
0.0
 11
-146.1252154563
 21
143.3039480037
 31
0.0
 40
0.3308411887
 41
1.4014375122
 42
1.4020212949
  0
ELLIPSE
  5
4A0
100
AcDbEntity
  8
0
100
AcDbEllipse
 62
253
  6
CONTINUOUS
 10
259.7710931578
 20
122.8032385538
 30
0.0
 11
758.8260476746
 21
-454.5309203074
 31
0.0
 40
0.0678943009
 41
-1.6701426809
 42
-1.6700174589
  0
ELLIPSE
  5
4A1
100
AcDbEntity
  8
0
100
AcDbEllipse
 62
253
  6
CONTINUOUS
 10
204.1037279599
 20
150.6369211527
 30
0.0
 11
244.4496580821
 21
-31.2985279449
 31
0.0
 40
0.1656971645
 41
-1.7571661794
 42
-1.7567989789
  0
ELLIPSE
  5
4A2
100
AcDbEntity
  8
0
100
AcDbEllipse
 62
253
  6
CONTINUOUS
 10
203.7934145523
 20
150.7920778566
 30
0.0
 11
249.8247305844
 21
-34.2933314894
 31
0.0
 40
0.1638379099
 41
-1.7502061467
 42
-1.7500893902
  0
ELLIPSE
  5
4A3
100
AcDbEntity
  8
0
100
AcDbEllipse
 62
253
  6
CONTINUOUS
 10
212.7141488298
 20
146.3317107178
 30
0.0
 11
103.131795093
 21
49.0495972645
 31
0.0
 40
0.0156955022
 41
-2.1879418749
 42
-2.1876406834
  0
ELLIPSE
  5
4A4
100
AcDbEntity
  8
0
100
AcDbEllipse
 62
253
  6
CONTINUOUS
 10
215.1411083404
 20
145.1182309625
 30
0.0
 11
71.5140728556
 21
64.2595047702
 31
0.0
 40
0.2800958937
 41
2.3100551528
 42
2.3104510992
  0
ELLIPSE
  5
4A5
100
AcDbEntity
  8
0
100
AcDbEllipse
 62
253
  6
CONTINUOUS
 10
215.1323287005
 20
145.1226207825
 30
0.0
 11
71.6232593031
 21
64.2066836741
 31
0.0
 40
0.2787279988
 41
2.3102903379
 42
2.3106845832
  0
ELLIPSE
  5
4A6
100
AcDbEntity
  8
0
100
AcDbEllipse
 62
253
  6
CONTINUOUS
 10
216.7408950673
 20
144.3183375991
 30
0.0
 11
48.9105486375
 21
75.9912862868
 31
0.0
 40
0.5457875347
 41
-4.0229536044
 42
-4.0224629308
  0
ELLIPSE
  5
4A7
100
AcDbEntity
  8
0
100
AcDbEllipse
 62
253
  6
CONTINUOUS
 10
218.0867374044
 20
143.6454164305
 30
0.0
 11
12.0351126165
 21
91.7293328607
 31
0.0
 40
0.7060719073
 41
-4.321370763
 42
-4.3209342373
  0
ELLIPSE
  5
4A8
100
AcDbEntity
  8
0
100
AcDbEllipse
 62
253
  6
CONTINUOUS
 10
218.0823652626
 20
143.6476025014
 30
0.0
 11
12.2033263695
 21
91.6800140943
 31
0.0
 40
0.7058747964
 41
-4.319473454
 42
-4.3190284767
  0
ELLIPSE
  5
4A9
100
AcDbEntity
  8
0
100
AcDbEllipse
 62
253
  6
CONTINUOUS
 10
219.7654438739
 20
142.8060631957
 30
0.0
 11
-47.3019399922
 21
102.8845009001
 31
0.0
 40
0.6281338893
 41
1.5381967091
 42
1.5385909058
  0
ELLIPSE
  5
4AA
100
AcDbEntity
  8
0
100
AcDbEllipse
 62
253
  6
CONTINUOUS
 10
222.9258296256
 20
141.2258703199
 30
0.0
 11
-114.8740675005
 21
127.9362187164
 31
0.0
 40
0.4014566878
 41
1.4082389837
 42
1.4084690848
  0
ELLIPSE
  5
4AB
100
AcDbEntity
  8
0
100
AcDbEllipse
 62
253
  6
CONTINUOUS
 10
223.0675252113
 20
141.1550225271
 30
0.0
 11
-117.6003268319
 21
129.2379481196
 31
0.0
 40
0.3943469553
 41
1.4076142554
 42
1.4078426503
  0
ELLIPSE
  5
4AC
100
AcDbEntity
  8
0
100
AcDbEllipse
 62
253
  6
CONTINUOUS
 10
244.8178004437
 20
130.2798849109
 30
0.0
 11
530.1432877794
 21
-339.1966523965
 31
0.0
 40
0.0972468293
 41
-1.6810519142
 42
-1.6809927061
  0
ELLIPSE
  5
4AD
100
AcDbEntity
  8
0
100
AcDbEllipse
 62
253
  6
CONTINUOUS
 10
204.6267838272
 20
150.3753932191
 30
0.0
 11
250.5453389576
 21
-34.6939441892
 31
0.0
 40
0.1635860583
 41
-1.7526609376
 42
-1.7525458948
  0
ELLIPSE
  5
4AE
100
AcDbEntity
  8
0
100
AcDbEllipse
 62
253
  6
CONTINUOUS
 10
204.9213158954
 20
150.228127185
 30
0.0
 11
245.1137849634
 21
-31.6691941252
 31
0.0
 40
0.1654695175
 41
-1.759648494
 42
-1.7594911537
  0
ELLIPSE
  5
4AF
100
AcDbEntity
  8
0
100
AcDbEllipse
 62
253
  6
CONTINUOUS
 10
252.2312181211
 20
126.5731760722
 30
0.0
 11
666.9097029845
 21
-408.2412311955
 31
0.0
 40
0.0772879084
 41
-1.6714936945
 42
-1.6714327823
  0
ELLIPSE
  5
4B0
100
AcDbEntity
  8
0
100
AcDbEllipse
 62
253
  6
CONTINUOUS
 10
224.9419746825
 20
140.2177977915
 30
0.0
 11
150.3426850075
 21
-145.4294927642
 31
0.0
 40
0.3229359895
 41
-1.7363990795
 42
-1.736155466
  0
ELLIPSE
  5
4B1
100
AcDbEntity
  8
0
100
AcDbEllipse
 62
253
  6
CONTINUOUS
 10
224.5457038212
 20
140.4159332221
 30
0.0
 11
-142.813180574
 21
141.6406746302
 31
0.0
 40
0.3372913485
 41
1.4051031475
 42
1.4053603071
  0
ELLIPSE
  5
4B2
100
AcDbEntity
  8
0
100
AcDbEllipse
 62
253
  6
CONTINUOUS
 10
220.8519738313
 20
142.2627982171
 30
0.0
 11
-68.7842991324
 21
108.6772260414
 31
0.0
 40
0.5512611396
 41
1.4632445654
 42
1.4636861086
  0
ELLIPSE
  5
4B3
100
AcDbEntity
  8
0
100
AcDbEllipse
 62
253
  6
CONTINUOUS
 10
219.0395308506
 20
143.1690197074
 30
0.0
 11
-15.7486717136
 21
97.6819738206
 31
0.0
 40
0.7026308342
 41
-4.5470808587
 42
-4.5465344323
  0
ELLIPSE
  5
4B4
100
AcDbEntity
  8
0
100
AcDbEllipse
 62
253
  6
CONTINUOUS
 10
219.0843301482
 20
143.1466200586
 30
0.0
 11
-17.5147758346
 21
97.9580206116
 31
0.0
 40
0.7002825871
 41
-4.5597375954
 42
-4.5591962606
  0
ELLIPSE
  5
4B5
100
AcDbEntity
  8
0
100
AcDbEllipse
 62
253
  6
CONTINUOUS
 10
217.8771398673
 20
143.7502151991
 30
0.0
 11
30.3268721896
 21
85.1324548603
 31
0.0
 40
0.6624259554
 41
-4.1587509619
 42
-4.1581115232
  0
ELLIPSE
  5
4B6
100
AcDbEntity
  8
0
100
AcDbEllipse
 62
253
  6
CONTINUOUS
 10
216.7451312379
 20
144.3162195137
 30
0.0
 11
55.8284515841
 21
72.2729605094
 31
0.0
 40
0.4750983979
 41
-3.984338021
 42
-3.9837544286
  0
ELLIPSE
  5
4B7
100
AcDbEntity
  8
0
100
AcDbEllipse
 62
253
  6
CONTINUOUS
 10
216.7495764909
 20
144.3139968872
 30
0.0
 11
55.7543336679
 21
72.3126577052
 31
0.0
 40
0.4759325598
 41
-3.9840368505
 42
-3.9834498909
  0
ELLIPSE
  5
4B8
100
AcDbEntity
  8
0
100
AcDbEllipse
 62
253
  6
CONTINUOUS
 10
215.4422419573
 20
144.967664154
 30
0.0
 11
75.0827461634
 21
62.5480881074
 31
0.0
 40
0.2362293526
 41
2.3099368095
 42
2.3104713135
  0
ELLIPSE
  5
4B9
100
AcDbEntity
  8
0
100
AcDbEllipse
 62
253
  6
CONTINUOUS
 10
213.3534825041
 20
146.0120438807
 30
0.0
 11
106.9385642478
 21
47.105533071
 31
0.0
 40
0.0373628784
 41
-2.1768304461
 42
-2.1764735501
  0
ELLIPSE
  5
4BA
100
AcDbEntity
  8
0
100
AcDbEllipse
 62
253
  6
CONTINUOUS
 10
213.3825683704
 20
145.9975009475
 30
0.0
 11
106.4508849479
 21
47.356555767
 31
0.0
 40
0.0347253181
 41
-2.1795908099
 42
-2.1792288555
  0
ELLIPSE
  5
4BB
100
AcDbEntity
  8
0
100
AcDbEllipse
 62
253
  6
CONTINUOUS
 10
207.418262273
 20
148.9796539962
 30
0.0
 11
220.6950287079
 21
-17.9159006348
 31
0.0
 40
0.1731603051
 41
-1.802052657
 42
-1.8018682872
  0
ELLIPSE
  5
4BC
100
AcDbEntity
  8
0
100
AcDbEllipse
 62
253
  6
CONTINUOUS
 10
208.8299756475
 20
148.273797309
 30
0.0
 11
190.6948667867
 21
-0.6562765074
 31
0.0
 40
0.1781879133
 41
-1.8633720575
 42
-1.8632079912
  0
ELLIPSE
  5
4BD
100
AcDbEntity
  8
0
100
AcDbEllipse
 62
253
  6
CONTINUOUS
 10
213.945705939
 20
145.7159321632
 30
0.0
 11
95.3437603522
 21
52.9188395241
 31
0.0
 40
0.0370316937
 41
2.2338061874
 42
2.2341123224
  0
ELLIPSE
  5
4BE
100
AcDbEntity
  8
0
100
AcDbEllipse
 62
253
  6
CONTINUOUS
 10
213.9086043615
 20
145.734482952
 30
0.0
 11
95.9412430752
 21
52.6269031923
 31
0.0
 40
0.0325548126
 41
2.2312872676
 42
2.2315900147
  0
ELLIPSE
  5
4BF
100
AcDbEntity
  8
0
100
AcDbEllipse
 62
253
  6
CONTINUOUS
 10
215.8659494681
 20
144.7558103986
 30
0.0
 11
66.2798464615
 21
66.8358534249
 31
0.0
 40
0.3467513412
 41
-3.9606370177
 42
-3.9601871234
  0
ELLIPSE
  5
4C0
100
AcDbEntity
  8
0
100
AcDbEllipse
 62
253
  6
CONTINUOUS
 10
217.0791037292
 20
144.1492332681
 30
0.0
 11
44.1101202392
 21
78.5279644883
 31
0.0
 40
0.5856542897
 41
-4.0454645283
 42
-4.0450061958
  0
ELLIPSE
  5
4C1
100
AcDbEntity
  8
0
100
AcDbEllipse
 62
253
  6
CONTINUOUS
 10
217.0537675482
 20
144.1619013586
 30
0.0
 11
44.7244734603
 21
78.2078242518
 31
0.0
 40
0.5809739163
 41
-4.0407583128
 42
-4.0403101401
  0
ELLIPSE
  5
4C2
100
AcDbEntity
  8
0
100
AcDbEllipse
 62
253
  6
CONTINUOUS
 10
218.2384470892
 20
143.5695615881
 30
0.0
 11
0.5315502325
 21
94.6666533931
 31
0.0
 40
0.7127756559
 41
-4.4106883013
 42
-4.4102181459
  0
ELLIPSE
  5
4C3
100
AcDbEntity
  8
0
100
AcDbEllipse
 62
253
  6
CONTINUOUS
 10
219.8354228595
 20
142.771073703
 30
0.0
 11
-60.1460728118
 21
106.0365380977
 31
0.0
 40
0.5831252668
 41
1.4956409271
 42
1.4959791582
  0
ELLIPSE
  5
4C4
100
AcDbEntity
  8
0
100
AcDbEllipse
 62
253
  6
CONTINUOUS
 10
219.7679487034
 20
142.804810781
 30
0.0
 11
-58.2141339715
 21
105.50338057
 31
0.0
 40
0.5901585356
 41
1.5025630056
 42
1.502904626
  0
ELLIPSE
  5
4C5
100
AcDbEntity
  8
0
100
AcDbEllipse
 62
253
  6
CONTINUOUS
 10
223.2812566266
 20
141.0481568194
 30
0.0
 11
-143.0025791617
 21
141.735635073
 31
0.0
 40
0.3369165808
 41
1.4133644848
 42
1.4135707945
  0
ELLIPSE
  5
4C6
100
AcDbEntity
  8
0
100
AcDbEllipse
 62
253
  6
CONTINUOUS
 10
271.143669426
 20
117.1169504197
 30
0.0
 11
1232.6842651849
 21
-692.4574119913
 31
0.0
 40
0.0416830198
 41
-1.6427337071
 42
-1.6426609906
  0
ELLIPSE
  5
4C7
100
AcDbEntity
  8
0
100
AcDbEllipse
 62
253
  6
CONTINUOUS
 10
207.2733713234
 20
149.052099471
 30
0.0
 11
218.9107033685
 21
-16.9005347164
 31
0.0
 40
0.1736409835
 41
-1.8072203564
 42
-1.8069768162
  0
ELLIPSE
  5
4C8
100
AcDbEntity
  8
0
100
AcDbEllipse
 62
253
  6
CONTINUOUS
 10
223.8182030468
 20
140.7796836093
 30
0.0
 11
165.5389126166
 21
-153.1420359787
 31
0.0
 40
0.2970612771
 41
-1.7278334136
 42
-1.7275222259
  0
ELLIPSE
  5
4C9
100
AcDbEntity
  8
0
100
AcDbEllipse
 62
253
  6
CONTINUOUS
 10
219.9247931559
 20
142.7263885548
 30
0.0
 11
-78.4259301602
 21
112.0848929526
 31
0.0
 40
0.5160165704
 41
1.4486104545
 42
1.4491296782
  0
ELLIPSE
  5
4CA
100
AcDbEntity
  8
0
100
AcDbEllipse
 62
253
  6
CONTINUOUS
 10
219.8949039563
 20
142.7413331546
 30
0.0
 11
-77.701791798
 21
111.8136902179
 31
0.0
 40
0.5186218341
 41
1.4493999828
 42
1.4499208996
  0
ELLIPSE
  5
4CB
100
AcDbEntity
  8
0
100
AcDbEllipse
 62
253
  6
CONTINUOUS
 10
218.1583117446
 20
143.6096292604
 30
0.0
 11
-26.6301882657
 21
99.3262136405
 31
0.0
 40
0.6844837619
 41
-4.6205730685
 42
-4.6198424036
  0
ELLIPSE
  5
4CC
100
AcDbEntity
  8
0
100
AcDbEllipse
 62
253
  6
CONTINUOUS
 10
216.9958438456
 20
144.1908632099
 30
0.0
 11
23.3700219194
 21
87.9435643049
 31
0.0
 40
0.6849873412
 41
-4.2164031397
 42
-4.2156233946
  0
ELLIPSE
  5
4CD
100
AcDbEntity
  8
0
100
AcDbEllipse
 62
253
  6
CONTINUOUS
 10
217.0196245883
 20
144.1789728385
 30
0.0
 11
22.4708821832
 21
88.2793666039
 31
0.0
 40
0.687304002
 41
-4.2246994157
 42
-4.2242477865
  0
ELLIPSE
  5
4CE
100
AcDbEntity
  8
0
100
AcDbEllipse
 62
253
  6
CONTINUOUS
 10
218.4047923636
 20
143.4863889509
 30
0.0
 11
-34.4192845863
 21
100.5237766893
 31
0.0
 40
0.6663201638
 41
-4.671855734
 42
-4.6714413191
  0
ELLIPSE
  5
4CF
100
AcDbEntity
  8
0
100
AcDbEllipse
 62
253
  6
CONTINUOUS
 10
220.7599030269
 20
142.3088336193
 30
0.0
 11
-94.2147076404
 21
118.5033043385
 31
0.0
 40
0.4620276378
 41
1.4244036444
 42
1.4246725973
  0
ELLIPSE
  5
4D0
100
AcDbEntity
  8
0
100
AcDbEllipse
 62
253
  6
CONTINUOUS
 10
220.9694762991
 20
142.2040469832
 30
0.0
 11
-98.6670196364
 21
120.4571514397
 31
0.0
 40
0.4479598205
 41
1.4203151634
 42
1.4205705946
  0
ELLIPSE
  5
4D1
100
AcDbEntity
  8
0
100
AcDbEllipse
 62
253
  6
CONTINUOUS
 10
230.8395709754
 20
137.268999645
 30
0.0
 11
296.9620739583
 21
-220.605188035
 31
0.0
 40
0.1722831864
 41
-1.7072254863
 42
-1.7071206124
  0
ELLIPSE
  5
4D2
100
AcDbEntity
  8
0
100
AcDbEllipse
 62
253
  6
CONTINUOUS
 10
197.1720289419
 20
154.1027706617
 30
0.0
 11
392.5949555009
 21
-110.7993534129
 31
0.0
 40
0.1184327587
 41
-1.6506662332
 42
-1.650591805
  0
ELLIPSE
  5
4D3
100
AcDbEntity
  8
0
100
AcDbEllipse
 62
253
  6
CONTINUOUS
 10
198.8340981025
 20
153.2717360815
 30
0.0
 11
359.4744855582
 21
-93.4283975382
 31
0.0
 40
0.1273496171
 41
-1.6662210768
 42
-1.6661398807
  0
ELLIPSE
  5
4D4
100
AcDbEntity
  8
0
100
AcDbEllipse
 62
253
  6
CONTINUOUS
 10
211.4012159625
 20
146.9881771515
 30
0.0
 11
117.8962198964
 21
41.3176247057
 31
0.0
 40
0.0871316182
 41
-2.1221178387
 42
-2.1218522672
  0
ELLIPSE
  5
4D5
100
AcDbEntity
  8
0
100
AcDbEllipse
 62
253
  6
CONTINUOUS
 10
214.0889184175
 20
145.6443259239
 30
0.0
 11
76.4836730921
 21
61.8831057829
 31
0.0
 40
0.2195724779
 41
2.3059606446
 42
2.3063327862
  0
ELLIPSE
  5
4D6
100
AcDbEntity
  8
RACCORDO
100
AcDbEllipse
 62
7
  6
CONTINUOUS
 10
162.0624127727
 20
86.755936782
 30
0.0
 11
-0.2238185272
 21
0.4474870472
 31
0.0
 40
0.6119614214
 41
-3.1701059984
 42
-2.2560086979
  0
ELLIPSE
  5
4D7
100
AcDbEntity
  8
RACCORDO
100
AcDbEllipse
 62
7
  6
CONTINUOUS
 10
162.0624127727
 20
124.1679373585
 30
0.0
 11
-0.2235482059
 21
0.4472467618
 31
0.0
 40
0.6127837007
 41
-2.2550219623
 42
-0.6849108682
  0
ELLIPSE
  5
4D8
100
AcDbEntity
  8
RACCORDO
100
AcDbEllipse
 62
7
  6
CONTINUOUS
 10
147.2134127587
 20
131.5924373655
 30
0.0
 11
-0.2238185272
 21
0.4474870472
 31
0.0
 40
0.6119614214
 41
-0.6845271385
 42
0.028513344
  0
ENDSEC
  0
SECTION
  2
OBJECTS
  0
DICTIONARY
  5
C
100
AcDbDictionary
280
0
281
1
  3
ACAD_GROUP
350
D
  3
ACAD_MLINESTYLE
350
17
  3
ACAD_LAYOUT
350
1A
  3
ACAD_PLOTSETTINGS
350
19
  3
ACAD_PLOTSTYLENAME
350
E
  0
DICTIONARY
  5
D
102
{ACAD_REACTORS
330
C
102
}
100
AcDbDictionary
280
0
281
1
  0
ACDBDICTIONARYWDFLT
  5
E
102
{ACAD_REACTORS
330
C
102
}
100
AcDbDictionary
281
1
  3
Normal
350
F
100
AcDbDictionaryWithDefault
340
F
  0
DICTIONARY
  5
17
102
{ACAD_REACTORS
330
C
102
}
100
AcDbDictionary
280
0
281
1
  3
Standard
350
18
  0
DICTIONARY
  5
19
102
{ACAD_REACTORS
330
C
102
}
100
AcDbDictionary
281
1
  0
DICTIONARY
  5
1A
102
{ACAD_REACTORS
330
C
102
}
100
AcDbDictionary
281
1
  3
Model
350
4D9
  3
Layout1
350
4DA
  0
ACDBPLACEHOLDER
  5
F
102
{ACAD_REACTORS
330
E
102
}
  0
MLINESTYLE
  5
18
102
{ACAD_REACTORS
330
17
102
}
100
AcDbMlineStyle
  2
STANDARD
 70
0
  3

 62
256
 51
90.0
 52
90.0
 71
2
 49
0.5
 62
256
  6
BYLAYER
 49
-0.5
 62
256
  6
BYLAYER
  0
LAYOUT
  5
4D9
102
{ACAD_REACTORS
330
1A
102
}
100
AcDbPlotSettings
  1

  2
none_device
  4
ISO_A4_(297.00_x_210.00_MM)
  6

 40
0.0
 41
0.0
 42
0.0
 43
0.0
 44
297.0
 45
210.0
 46
0.0
 47
0.0
 48
0.0
 49
0.0
140
0.0
141
0.0
142
1.0
143
1.0
 70
1024
 72
1
 73
0
 74
0
  7

 75
0
147
1.0
148
0.0
149
0.0
100
AcDbLayout
  1
Model
 70
0
 71
0
 10
0.0
 20
0.0
 11
297.0
 21
210.0
 12
0.0
 22
0.0
 32
0.0
 14
0.0
 24
0.0
 34
0.0
 15
0.0
 25
0.0
 35
0.0
146
0.0
 13
0.0
 23
0.0
 33
0.0
 16
1.0
 26
0.0
 36
0.0
 17
0.0
 27
1.0
 37
0.0
 76
0
330
21B
345
0
346
0
  0
LAYOUT
  5
4DA
102
{ACAD_REACTORS
330
1A
102
}
100
AcDbPlotSettings
  1

  2
none_device
  4
ISO_A4_(297.00_x_210.00_MM)
  6

 40
0.0
 41
0.0
 42
0.0
 43
0.0
 44
297.0
 45
210.0
 46
0.0
 47
0.0
 48
0.0
 49
0.0
140
0.0
141
0.0
142
1.0
143
1.0
 70
0
 72
1
 73
0
 74
0
  7

 75
0
147
1.0
148
0.0
149
0.0
100
AcDbLayout
  1
Layout1
 70
0
 71
1
 10
0.0
 20
0.0
 11
297.0
 21
210.0
 12
0.0
 22
0.0
 32
0.0
 14
0.0
 24
0.0
 34
0.0
 15
0.0
 25
0.0
 35
0.0
146
0.0
 13
0.0
 23
0.0
 33
0.0
 16
1.0
 26
0.0
 36
0.0
 17
0.0
 27
1.0
 37
0.0
 76
0
330
21C
345
0
346
0
  0
ENDSEC
  0
EOF
