  0
SECTION
  2
HEADER
  9
$ACADVER
  1
AC1015
  9
$DWGCODEPAGE
  3
ANSI_1252
  9
$EXTMAX
 10
297.0
 20
210.0
 30
0.0
  9
$EXTMIN
 10
0.0
 20
0.0
 30
0.0
  9
$LIMMIN
 10
0.0
 20
0.0
  9
$LIMMAX
 10
297.0
 20
210.0
  9
$VIEWCTR
 10
148.5
 20
105.0
  9
$VIEWSIZE
 40
210.0
  9
$CLAYER
  8
0
  9
$LTSCALE
 40
16.335
  9
$CELTYPE
  6
BYLAYER
  9
$DIMSCALE
 40
1.0
  9
$DIMASZ
 40
3.0
  9
$DIMEXO
 40
1.85625
  9
$DIMDLI
 40
11.286
  9
$DIMEXE
 40
5.346
  9
$DIMCEN
 40
2.673
  9
$DIMLFAC
 40
1.0
  9
$DIMBLK
  1
_FILLED
  9
$DIMTXT
 40
3.0
  9
$DIMTOL
 70
1
  9
$DIMLIM
 70
0
  9
$DIMTFAC
 40
1.0
  9
$DIMTP
 40
0.01
  9
$DIMTM
 40
0.01
  9
$PDMODE
 70
3
  9
$PDSIZE
 40
3.0
  9
$HANDSEED
  5
3D8
  9
$TILEMODE
 70
1
  9
$MEASUREMENT
 70
1
  9
$INSUNITS
 70
4
  0
ENDSEC
  0
SECTION
  2
CLASSES
  0
CLASS
  1
ACDBDICTIONARYWDFLT
  2
AcDbDictionaryWithDefault
  3
AutoCAD 2000
 90
0
280
0
281
0
  0
CLASS
  1
ACDBPLACEHOLDER
  2
AcDbPlaceHolder
  3
AutoCAD 2000
 90
0
280
0
281
0
  0
CLASS
  1
LAYOUT
  2
AcDbLayout
  3
AutoCAD 2000
 90
0
280
0
281
0
  0
ENDSEC
  0
SECTION
  2
TABLES
  0
TABLE
  2
VPORT
  5
8
100
AcDbSymbolTable
 70
2
  0
VPORT
  5
1F4
100
AcDbSymbolTableRecord
100
AcDbViewportTableRecord
  2
*ACTIVE
 70
0
 10
0.0
 20
0.0
 11
1.0
 21
1.0
 12
148.5
 22
105.0
 13
0.0
 23
0.0
 14
1.0
 24
1.0
 15
0.0
 25
0.0
 16
0.0
 26
0.0
 36
1.0
 17
0.0
 27
0.0
 37
0.0
 40
210.0
 41
1.4142857143
 42
50.0
 43
0.0
 44
0.0
 50
0.0
 51
0.0
 71
0
 72
100
 73
1
 74
1
 75
0
 76
0
 77
0
 78
0
  0
ENDTAB
  0
TABLE
  2
LTYPE
  5
5
100
AcDbSymbolTable
 70
6
  0
LTYPE
  5
14
100
AcDbSymbolTableRecord
100
AcDbLinetypeTableRecord
  2
BYBLOCK
 70
0
  3

 72
65
 73
0
 40
0.0
  0
LTYPE
  5
15
100
AcDbSymbolTableRecord
100
AcDbLinetypeTableRecord
  2
BYLAYER
 70
0
  3

 72
65
 73
0
 40
0.0
  0
LTYPE
  5
16
100
AcDbSymbolTableRecord
100
AcDbLinetypeTableRecord
  2
CONTINUOUS
 70
64
  3
Solid line
 72
65
 73
0
 40
0.0
  0
LTYPE
  5
1F5
100
AcDbSymbolTableRecord
100
AcDbLinetypeTableRecord
  2
CENTER
 70
64
  3
____ _ ____ _ ____ _ ____ _ ____ _ ____ _ ____
 72
65
 73
4
 40
0.6
 49
0.375
 74
0
 49
-0.075
 74
0
 49
0.075
 74
0
 49
-0.075
 74
0
  0
LTYPE
  5
1F6
100
AcDbSymbolTableRecord
100
AcDbLinetypeTableRecord
  2
HIDDEN
 70
64
  3
- - - - - - - - - - - - - - - - - - - -
 72
65
 73
2
 40
0.2
 49
0.1
 74
0
 49
-0.1
 74
0
  0
LTYPE
  5
1F7
100
AcDbSymbolTableRecord
100
AcDbLinetypeTableRecord
  2
PHANTOM
 70
64
  3
_____ _ _ _____ _ _ _____ _ _ _____
 72
65
 73
6
 40
0.8
 49
0.45
 74
0
 49
-0.05
 74
0
 49
0.1
 74
0
 49
-0.05
 74
0
 49
0.1
 74
0
 49
-0.05
 74
0
  0
LTYPE
  5
1F8
100
AcDbSymbolTableRecord
100
AcDbLinetypeTableRecord
  2
DOT
 70
64
  3
. . . . . . . . . . . . . . . . . . . .
 72
65
 73
2
 40
0.2
 49
0.1
 74
0
 49
-0.1
 74
0
  0
LTYPE
  5
1F9
100
AcDbSymbolTableRecord
100
AcDbLinetypeTableRecord
  2
DASHED
 70
64
  3
- - - - - - - - - - - - - - - - - - - -
 72
65
 73
2
 40
0.2
 49
0.1
 74
0
 49
-0.1
 74
0
  0
ENDTAB
  0
TABLE
  2
LAYER
  5
2
100
AcDbSymbolTable
 70
36
  0
LAYER
  5
10
100
AcDbSymbolTableRecord
100
AcDbLayerTableRecord
  2
0
 70
0
 62
7
  6
CONTINUOUS
370
-3
390
F
  0
LAYER
  5
1FA
100
AcDbSymbolTableRecord
100
AcDbLayerTableRecord
  2
DEFAULT_1
 70
0
 62
7
  6
CENTER
370
-3
390
F
  0
LAYER
  5
1FB
100
AcDbSymbolTableRecord
100
AcDbLayerTableRecord
  2
DEFAULT_2
 70
0
 62
7
  6
HIDDEN
370
-3
390
F
  0
LAYER
  5
1FC
100
AcDbSymbolTableRecord
100
AcDbLayerTableRecord
  2
DEFAULT_3
 70
0
 62
7
  6
PHANTOM
370
-3
390
F
  0
LAYER
  5
1FD
100
AcDbSymbolTableRecord
100
AcDbLayerTableRecord
  2
ASSI
 70
0
 62
7
  6
CONTINUOUS
370
-3
390
F
  0
LAYER
  5
1FE
100
AcDbSymbolTableRecord
100
AcDbLayerTableRecord
  2
COLOR5
 70
0
 62
7
  6
CONTINUOUS
370
-3
390
F
  0
LAYER
  5
1FF
100
AcDbSymbolTableRecord
100
AcDbLayerTableRecord
  2
COORDINATE
 70
0
 62
7
  6
CONTINUOUS
370
-3
390
F
  0
LAYER
  5
200
100
AcDbSymbolTableRecord
100
AcDbLayerTableRecord
  2
COORD_ORIGINE
 70
0
 62
7
  6
CONTINUOUS
370
-3
390
F
  0
LAYER
  5
201
100
AcDbSymbolTableRecord
100
AcDbLayerTableRecord
  2
COPY_PUBLISH
 70
0
 62
7
  6
CONTINUOUS
370
-3
390
F
  0
LAYER
  5
202
100
AcDbSymbolTableRecord
100
AcDbLayerTableRecord
  2
COSMETIC
 70
0
 62
7
  6
CONTINUOUS
370
-3
390
F
  0
LAYER
  5
203
100
AcDbSymbolTableRecord
100
AcDbLayerTableRecord
  2
COSMETICHE
 70
0
 62
7
  6
CONTINUOUS
370
-3
390
F
  0
LAYER
  5
204
100
AcDbSymbolTableRecord
100
AcDbLayerTableRecord
  2
CURVE
 70
0
 62
7
  6
CONTINUOUS
370
-3
390
F
  0
LAYER
  5
205
100
AcDbSymbolTableRecord
100
AcDbLayerTableRecord
  2
DRAFT
 70
0
 62
7
  6
CONTINUOUS
370
-3
390
F
  0
LAYER
  5
206
100
AcDbSymbolTableRecord
100
AcDbLayerTableRecord
  2
IMPORT_IGES
 70
0
 62
7
  6
CONTINUOUS
370
-3
390
F
  0
LAYER
  5
207
100
AcDbSymbolTableRecord
100
AcDbLayerTableRecord
  2
INTFCLR_17
 70
0
 62
7
  6
CONTINUOUS
370
-3
390
F
  0
LAYER
  5
208
100
AcDbSymbolTableRecord
100
AcDbLayerTableRecord
  2
INTFCLR_3
 70
0
 62
7
  6
CONTINUOUS
370
-3
390
F
  0
LAYER
  5
209
100
AcDbSymbolTableRecord
100
AcDbLayerTableRecord
  2
INTF_1
 70
0
 62
7
  6
CONTINUOUS
370
-3
390
F
  0
LAYER
  5
20A
100
AcDbSymbolTableRecord
100
AcDbLayerTableRecord
  2
INTF_2
 70
0
 62
7
  6
CONTINUOUS
370
-3
390
F
  0
LAYER
  5
20B
100
AcDbSymbolTableRecord
100
AcDbLayerTableRecord
  2
INTF_8
 70
0
 62
7
  6
CONTINUOUS
370
-3
390
F
  0
LAYER
  5
20C
100
AcDbSymbolTableRecord
100
AcDbLayerTableRecord
  2
NOTE
 70
0
 62
7
  6
CONTINUOUS
370
-3
390
F
  0
LAYER
  5
20D
100
AcDbSymbolTableRecord
100
AcDbLayerTableRecord
  2
PIANI
 70
0
 62
7
  6
CONTINUOUS
370
-3
390
F
  0
LAYER
  5
20E
100
AcDbSymbolTableRecord
100
AcDbLayerTableRecord
  2
PIANI_ORIGINE
 70
0
 62
7
  6
CONTINUOUS
370
-3
390
F
  0
LAYER
  5
20F
100
AcDbSymbolTableRecord
100
AcDbLayerTableRecord
  2
PUNTI
 70
0
 62
7
  6
CONTINUOUS
370
-3
390
F
  0
LAYER
  5
210
100
AcDbSymbolTableRecord
100
AcDbLayerTableRecord
  2
RACCORDO
 70
0
 62
7
  6
CONTINUOUS
370
-3
390
F
  0
LAYER
  5
211
100
AcDbSymbolTableRecord
100
AcDbLayerTableRecord
  2
SMUSSO
 70
0
 62
7
  6
CONTINUOUS
370
-3
390
F
  0
LAYER
  5
212
100
AcDbSymbolTableRecord
100
AcDbLayerTableRecord
  2
SNAPLINE
 70
0
 62
7
  6
CONTINUOUS
370
-3
390
F
  0
LAYER
  5
213
100
AcDbSymbolTableRecord
100
AcDbLayerTableRecord
  2
SUPERFICI
 70
0
 62
7
  6
CONTINUOUS
370
-3
390
F
  0
LAYER
  5
214
100
AcDbSymbolTableRecord
100
AcDbLayerTableRecord
  2
TRASH
 70
0
 62
7
  6
CONTINUOUS
370
-3
390
F
  0
LAYER
  5
215
100
AcDbSymbolTableRecord
100
AcDbLayerTableRecord
  2
XSEC_DATUMS
 70
0
 62
7
  6
CONTINUOUS
370
-3
390
F
  0
ENDTAB
  0
TABLE
  2
STYLE
  5
3
100
AcDbSymbolTable
 70
1
  0
STYLE
  5
11
100
AcDbSymbolTableRecord
100
AcDbTextStyleTableRecord
  2
STANDARD
 70
0
 40
0.0
 41
0.8
 50
0.0
 71
0
 42
0.2
  3
txt
  4

  0
STYLE
  5
216
100
AcDbSymbolTableRecord
100
AcDbTextStyleTableRecord
  2
TEXTSTYLE_1
 70
0
 40
0.0
 41
0.8
 50
0.0
 71
0
 42
0.2
  3
gdt
  4

  0
ENDTAB
  0
TABLE
  2
VIEW
  5
6
100
AcDbSymbolTable
 70
0
  0
ENDTAB
  0
TABLE
  2
UCS
  5
7
100
AcDbSymbolTable
 70
0
  0
ENDTAB
  0
TABLE
  2
APPID
  5
9
100
AcDbSymbolTable
 70
1
  0
APPID
  5
217
100
AcDbSymbolTableRecord
100
AcDbRegAppTableRecord
  2
ACAD
 70
0
  0
ENDTAB
  0
TABLE
  2
BLOCK_RECORD
  5
1
100
AcDbSymbolTable
 70
0
  0
BLOCK_RECORD
  5
218
100
AcDbSymbolTableRecord
100
AcDbBlockTableRecord
  2
*Model_Space
  0
BLOCK_RECORD
  5
219
100
AcDbSymbolTableRecord
100
AcDbBlockTableRecord
  2
*Paper_Space
  0
ENDTAB
  0
TABLE
  2
DIMSTYLE
  5
A
100
AcDbSymbolTable
 70
1
100
AcDbDimStyleTable
 71
0
  0
DIMSTYLE
105
21A
100
AcDbSymbolTableRecord
100
AcDbDimStyleTableRecord
  2
STANDARD
 70
0
  3

  4

 40
1.0
 41
3.0
 42
0.0625
 43
0.38
 44
0.18
 45
0.0
 46
0.0
 47
0.01
 48
0.01
140
3.0
141
0.09
142
0.0
143
25.4
144
1.0
145
0.0
146
1.0
147
0.09
 71
1.0
 72
0.0
 73
0
 74
0
 75
0
 76
0
 77
1
 78
8
170
0
171
2
172
0
173
0
174
0
175
0
176
0
177
0
178
0
270
2
271
2
272
2
273
2
274
2
275
0
280
0
281
0
282
0
283
1
284
8
285
0
286
0
287
3
288
0
340
11
  0
ENDTAB
  0
ENDSEC
  0
SECTION
  2
BLOCKS
  0
BLOCK
  5
20
100
AcDbEntity
  8
0
100
AcDbBlockBegin
  2
*Model_Space
 70
0
 10
0.0
 20
0.0
 30
0.0
  3
*Model_Space
  1

  0
ENDBLK
  5
21
100
AcDbEntity
  8
0
100
AcDbBlockEnd
  0
BLOCK
  5
1C
100
AcDbEntity
  8
0
100
AcDbBlockBegin
  2
*Paper_Space
 70
0
 10
0.0
 20
0.0
 30
0.0
  3
*Paper_Space
  1

  0
ENDBLK
  5
1D
100
AcDbEntity
  8
0
100
AcDbBlockEnd
  0
ENDSEC
  0
SECTION
  2
ENTITIES
  0
LWPOLYLINE
  5
21B
100
AcDbEntity
  8
RACCORDO
100
AcDbPolyline
 62
7
  6
CONTINUOUS
 90
3
 70
0
 10
-35.0296229555
 20
55.6524996357
 10
-35.3008518412
 20
55.4293010034
 10
-35.4987591911
 20
55.1585259266
  0
LINE
  5
21C
100
AcDbEntity
  8
RACCORDO
100
AcDbLine
 62
7
  6
CONTINUOUS
 10
-35.0316434261
 20
55.6512659915
 11
-31.02301052
 21
58.1488139075
  0
LINE
  5
21D
100
AcDbEntity
  8
RACCORDO
100
AcDbLine
 62
253
  6
CONTINUOUS
 10
-34.1031215618
 20
55.6121358964
 11
-30.0649725887
 21
58.128073571
  0
LINE
  5
21E
100
AcDbEntity
  8
RACCORDO
100
AcDbLine
 62
7
  6
CONTINUOUS
 10
-35.4987591911
 20
55.1585259266
 11
-35.6343124239
 21
54.8384326643
  0
LWPOLYLINE
  5
21F
100
AcDbEntity
  8
RACCORDO
100
AcDbPolyline
 62
7
  6
CONTINUOUS
 90
4
 70
0
 10
29.7427308653
 20
-58.2140211264
 10
29.9957906651
 20
-58.2472614836
 10
30.2442912913
 20
-58.2416245538
 10
30.4819754443
 20
-58.1983609421
  0
LINE
  5
220
100
AcDbEntity
  8
RACCORDO
100
AcDbLine
 62
7
  6
CONTINUOUS
 10
-35.6343124239
 20
54.8384326643
 11
-35.7033279054
 21
54.4731620806
  0
LWPOLYLINE
  5
221
100
AcDbEntity
  8
RACCORDO
100
AcDbPolyline
 62
7
  6
CONTINUOUS
 90
3
 70
0
 10
26.8421661485
 20
-57.1452300834
 10
29.4918622027
 20
-58.1425738026
 10
29.7427308653
 20
-58.2140211264
  0
LINE
  5
222
100
AcDbEntity
  8
RACCORDO
100
AcDbLine
 62
7
  6
CONTINUOUS
 10
29.4409675062
 20
-58.1232862867
 11
29.4414129883
 21
-58.1234616599
  0
LINE
  5
223
100
AcDbEntity
  8
RACCORDO
100
AcDbLine
 62
7
  6
CONTINUOUS
 10
-34.6289059013
 20
-26.0867529306
 11
-34.6263253654
 21
-26.0883831465
  0
LWPOLYLINE
  5
224
100
AcDbEntity
  8
RACCORDO
100
AcDbPolyline
 62
7
  6
CONTINUOUS
 90
30
 70
0
 10
-34.6263253654
 20
-26.0883831465
 10
-32.9175608102
 20
-27.2236907698
 10
-30.7779967699
 20
-28.8365068272
 10
-28.9946775449
 20
-30.4595658544
 10
-27.6310603543
 20
-32.0551386587
 10
-26.6837063021
 20
-33.6194212357
 10
-26.0936398142
 20
-35.2181569252
 10
-25.7790617199
 20
-36.9002890844
 10
-25.5808170976
 20
-38.6219831432
 10
-25.2552114648
 20
-40.3248407236
 10
-24.5920610654
 20
-41.9791318717
 10
-23.511352341
 20
-43.5344863279
 10
-22.0933985478
 20
-44.9171521622
 10
-20.4954789017
 20
-46.1083460919
 10
-18.7861566944
 20
-47.1647385554
 10
-16.9209850435
 20
-48.1662880566
 10
-14.907759399
 20
-49.1272695988
 10
-12.7497274885
 20
-50.0272840547
 10
-10.3504165585
 20
-50.8654460367
 10
-7.6596972277
 20
-51.6030469563
 10
-4.7054415468
 20
-52.1828063649
 10
-1.5331770197
 20
-52.583758664
 10
1.7921282472
 20
-52.8402874137
 10
5.2321392241
 20
-53.0379607512
 10
8.7775773116
 20
-53.2794671701
 10
12.4008721334
 20
-53.6540375055
 10
16.0578737576
 20
-54.2192243771
 10
19.7072237408
 20
-54.997000617
 10
23.310595777
 20
-55.9800527186
 10
26.8421661485
 20
-57.1452300834
  0
LINE
  5
225
100
AcDbEntity
  8
RACCORDO
100
AcDbLine
 62
7
  6
CONTINUOUS
 10
-34.8150765938
 20
-25.951238376
 11
-34.6289018328
 21
-26.0867468371
  0
LWPOLYLINE
  5
226
100
AcDbEntity
  8
RACCORDO
100
AcDbPolyline
 62
7
  6
CONTINUOUS
 90
3
 70
0
 10
-35.3245462935
 20
-25.3489641121
 10
-35.0857193526
 20
-25.6827747091
 10
-34.8150765938
 20
-25.951238376
  0
LINE
  5
227
100
AcDbEntity
  8
RACCORDO
100
AcDbLine
 62
7
  6
CONTINUOUS
 10
-35.5093310124
 20
-24.9837939213
 11
-35.3245462935
 21
-25.3489641121
  0
LINE
  5
228
100
AcDbEntity
  8
RACCORDO
100
AcDbLine
 62
7
  6
CONTINUOUS
 10
-35.7189293839
 20
-23.9837861427
 11
-35.707686398
 21
-24.2111712559
  0
LINE
  5
229
100
AcDbEntity
  8
RACCORDO
100
AcDbLine
 62
7
  6
CONTINUOUS
 10
-35.7033279054
 20
54.4731620806
 11
-35.7111113724
 21
54.2974360751
  0
LWPOLYLINE
  5
22A
100
AcDbEntity
  8
RACCORDO
100
AcDbPolyline
 62
7
  6
CONTINUOUS
 90
3
 70
0
 10
-35.707686398
 20
-24.2111712559
 10
-35.6365968073
 20
-24.6068188394
 10
-35.5093310124
 20
-24.9837939213
  0
LINE
  5
22B
100
AcDbEntity
  8
RACCORDO
100
AcDbLine
 62
7
  6
CONTINUOUS
 10
-33.6949084383
 20
1.7280012145
 11
-33.6880406996
 21
1.6616897137
  0
LINE
  5
22C
100
AcDbEntity
  8
RACCORDO
100
AcDbLine
 62
7
  6
CONTINUOUS
 10
-33.696358783
 20
1.7732978334
 11
-33.6949084383
 21
1.7280012145
  0
LINE
  5
22D
100
AcDbEntity
  8
RACCORDO
100
AcDbLine
 62
7
  6
CONTINUOUS
 10
-33.8814110766
 20
8.9663512541
 11
-33.8814110766
 21
2.0380820726
  0
LINE
  5
22E
100
AcDbEntity
  8
RACCORDO
100
AcDbLine
 62
7
  6
CONTINUOUS
 10
-33.6964407674
 20
8.6237722927
 11
-33.6964407674
 21
1.7732200825
  0
LINE
  5
22F
100
AcDbEntity
  8
RACCORDO
100
AcDbLine
 62
7
  6
CONTINUOUS
 10
-33.6863337467
 20
9.4190809606
 11
-33.6863337467
 21
8.7284336107
  0
LINE
  5
230
100
AcDbEntity
  8
RACCORDO
100
AcDbLine
 62
253
  6
CONTINUOUS
 10
-33.6648355252
 20
8.5777215562
 11
-33.6648355252
 21
1.7271691944
  0
LWPOLYLINE
  5
231
100
AcDbEntity
  8
RACCORDO
100
AcDbPolyline
 62
7
  6
CONTINUOUS
 90
3
 70
0
 10
-35.7126892109
 20
39.4435802415
 10
-35.7161881912
 20
22.4352769622
 10
-35.7173801164
 20
13.5144982816
  0
LWPOLYLINE
  5
232
100
AcDbEntity
  8
RACCORDO
100
AcDbPolyline
 62
7
  6
CONTINUOUS
 90
3
 70
0
 10
-35.7173801164
 20
13.5144982816
 10
-35.7186098321
 20
-5.1602283531
 10
-35.7189404498
 20
-23.9859758551
  0
LWPOLYLINE
  5
233
100
AcDbEntity
  8
RACCORDO
100
AcDbPolyline
 62
7
  6
CONTINUOUS
 90
3
 70
0
 10
-35.7111766008
 20
54.2921010658
 10
-35.7115264657
 20
47.5304442043
 10
-35.7126892109
 20
39.4435802415
  0
LINE
  5
234
100
AcDbEntity
  8
RACCORDO
100
AcDbLine
 62
7
  6
CONTINUOUS
 10
-33.6949992427
 20
8.6676319986
 11
-33.6964406705
 21
8.6236853813
  0
LINE
  5
235
100
AcDbEntity
  8
RACCORDO
100
AcDbLine
 62
7
  6
CONTINUOUS
 10
-33.4679469896
 20
6.7464036875
 11
-33.4680477416
 21
6.7450591234
  0
LINE
  5
236
100
AcDbEntity
  8
RACCORDO
100
AcDbLine
 62
7
  6
CONTINUOUS
 10
-33.4679445388
 20
3.2823344855
 11
-33.4680361173
 21
3.2811138741
  0
LINE
  5
237
100
AcDbEntity
  8
RACCORDO
100
AcDbLine
 62
7
  6
CONTINUOUS
 10
-33.6877869731
 20
8.7284541225
 11
-33.6949992427
 21
8.6676319986
  0
LINE
  5
238
100
AcDbEntity
  8
RACCORDO
100
AcDbLine
 62
253
  6
CONTINUOUS
 10
-33.8603134715
 20
9.0931181136
 11
-33.8814110766
 21
8.9711432906
  0
LINE
  5
239
100
AcDbEntity
  8
RACCORDO
100
AcDbLine
 62
7
  6
CONTINUOUS
 10
-33.6878372978
 20
8.7281642281
 11
-33.5769050607
 21
9.3695138002
  0
LINE
  5
23A
100
AcDbEntity
  8
RACCORDO
100
AcDbLine
 62
253
  6
CONTINUOUS
 10
-32.9653772535
 20
8.9300592794
 11
-32.9618793542
 21
8.950282224
  0
LINE
  5
23B
100
AcDbEntity
  8
RACCORDO
100
AcDbLine
 62
253
  6
CONTINUOUS
 10
-33.8814110766
 20
2.0332900361
 11
-33.6964407674
 21
3.0781131012
  0
LWPOLYLINE
  5
23C
100
AcDbEntity
  8
RACCORDO
100
AcDbPolyline
 62
7
  6
CONTINUOUS
 90
14
 70
0
 10
-33.6880406996
 20
1.6616897137
 10
-33.6753950694
 20
1.5931576585
 10
-33.6570740274
 20
1.5228895326
 10
-33.6332664575
 20
1.4512376142
 10
-33.6042953105
 20
1.3791555279
 10
-33.5704544025
 20
1.3073073221
 10
-33.5320298503
 20
1.2360944914
 10
-33.4895912617
 20
1.1662911426
 10
-33.4433361642
 20
1.0981414368
 10
-33.3931128397
 20
1.0315127162
 10
-33.3396718088
 20
0.9673959025
 10
-33.2827696841
 20
0.9056266306
 10
-33.2206180365
 20
0.8449034098
 10
-33.1526274291
 20
0.7856529347
  0
LINE
  5
23D
100
AcDbEntity
  8
RACCORDO
100
AcDbLine
 62
7
  6
CONTINUOUS
 10
27.6592486166
 20
-29.49797811
 11
28.4065147217
 21
-29.4686573031
  0
LINE
  5
23E
100
AcDbEntity
  8
RACCORDO
100
AcDbLine
 62
253
  6
CONTINUOUS
 10
28.0473710977
 20
-29.0833325324
 11
28.415865198
 21
-29.0688746945
  0
LINE
  5
23F
100
AcDbEntity
  8
DRAFT
100
AcDbLine
 62
253
  6
CONTINUOUS
 10
28.4244678923
 20
-29.5959460265
 11
27.7064781267
 21
-29.6231813104
  0
LWPOLYLINE
  5
240
100
AcDbEntity
  8
RACCORDO
100
AcDbPolyline
 62
7
  6
CONTINUOUS
 90
4
 70
0
 10
-25.3067979811
 20
0.4347854644
 10
-25.2886225616
 20
0.1759677725
 10
-25.2838660744
 20
-0.0690052953
 10
-25.2892057766
 20
-0.2448682044
  0
LWPOLYLINE
  5
241
100
AcDbEntity
  8
RACCORDO
100
AcDbPolyline
 62
7
  6
CONTINUOUS
 90
4
 70
0
 10
-25.6178710109
 20
-7.3445761632
 10
-25.6250262447
 20
-7.4724322898
 10
-25.6377446151
 20
-7.5977413496
 10
-25.6526416162
 20
-7.6891908421
  0
LINE
  5
242
100
AcDbEntity
  8
RACCORDO
100
AcDbLine
 62
7
  6
CONTINUOUS
 10
-25.6526416162
 20
-7.6891908421
 11
-25.667743926
 21
-7.7513990057
  0
LWPOLYLINE
  5
243
100
AcDbEntity
  8
RACCORDO
100
AcDbPolyline
 62
7
  6
CONTINUOUS
 90
5
 70
0
 10
-33.8156407369
 20
9.413900193
 10
-33.8108299038
 20
9.4162652178
 10
-33.7840102628
 20
9.4254352341
 10
-33.7530878948
 20
9.4290899701
 10
-33.7174099548
 20
9.4264737524
  0
LINE
  5
244
100
AcDbEntity
  8
RACCORDO
100
AcDbLine
 62
253
  6
CONTINUOUS
 10
-33.8814110766
 20
8.9663512541
 11
-34.0342612533
 21
8.8928680864
  0
LINE
  5
245
100
AcDbEntity
  8
DRAFT
100
AcDbLine
 62
7
  6
CONTINUOUS
 10
22.2517471651
 20
-19.4261428632
 11
22.1086101304
 21
-19.4608648986
  0
LINE
  5
246
100
AcDbEntity
  8
RACCORDO
100
AcDbLine
 62
253
  6
CONTINUOUS
 10
28.3922256702
 20
-22.2152437861
 11
28.0473710977
 21
-22.2327842601
  0
LINE
  5
247
100
AcDbEntity
  8
RACCORDO
100
AcDbLine
 62
253
  6
CONTINUOUS
 10
27.4630641718
 20
-21.1699228671
 11
27.2676411331
 21
-21.1798656008
  0
LWPOLYLINE
  5
248
100
AcDbEntity
  8
RACCORDO
100
AcDbPolyline
 62
7
  6
CONTINUOUS
 90
12
 70
0
 10
11.7102578453
 20
-25.5774429616
 10
12.7540244312
 20
-25.7338740932
 10
13.8671912271
 20
-25.9149891046
 10
14.9713381158
 20
-26.109537071
 10
16.0657068265
 20
-26.3173925802
 10
17.1496326843
 20
-26.5384254261
 10
18.2224967102
 20
-26.7725046177
 10
19.2836797088
 20
-27.0194987582
 10
20.3325285938
 20
-27.2792536597
 10
21.3683712948
 20
-27.5515967243
 10
22.3905597973
 20
-27.8363596772
 10
23.3984776888
 20
-28.1333714262
  0
LINE
  5
249
100
AcDbEntity
  8
RACCORDO
100
AcDbLine
 62
7
  6
CONTINUOUS
 10
11.6396592816
 20
-25.5649243977
 11
11.7102656176
 21
-25.5774330901
  0
LWPOLYLINE
  5
24A
100
AcDbEntity
  8
RACCORDO
100
AcDbPolyline
 62
7
  6
CONTINUOUS
 90
8
 70
0
 10
-28.2832787436
 20
-3.2179018915
 10
-27.7946868419
 20
-3.7422483052
 10
-27.3322759647
 20
-4.272127527
 10
-26.8963050948
 20
-4.807225526
 10
-26.4870172175
 20
-5.3472475607
 10
-26.1046644828
 20
-5.8918666097
 10
-25.7494951486
 20
-6.4406981325
 10
-25.5890333847
 20
-6.7105026577
  0
LWPOLYLINE
  5
24B
100
AcDbEntity
  8
RACCORDO
100
AcDbPolyline
 62
7
  6
CONTINUOUS
 90
3
 70
0
 10
-25.5523929017
 20
1.4734780558
 10
-25.5039777314
 20
1.3660959542
 10
-25.4426490768
 20
1.1858747845
  0
LINE
  5
24C
100
AcDbEntity
  8
RACCORDO
100
AcDbLine
 62
7
  6
CONTINUOUS
 10
-25.4426490768
 20
1.1858747845
 11
-25.3843420016
 21
0.9517842633
  0
LWPOLYLINE
  5
24D
100
AcDbEntity
  8
RACCORDO
100
AcDbPolyline
 62
7
  6
CONTINUOUS
 90
3
 70
0
 10
-25.3843420016
 20
0.9517842633
 10
-25.3384040203
 20
0.6947815843
 10
-25.3067979811
 20
0.4347854644
  0
LINE
  5
24E
100
AcDbEntity
  8
RACCORDO
100
AcDbLine
 62
7
  6
CONTINUOUS
 10
-25.667743926
 20
-7.7513990057
 11
-25.6745531267
 21
-7.7720080882
  0
LWPOLYLINE
  5
24F
100
AcDbEntity
  8
RACCORDO
100
AcDbPolyline
 62
7
  6
CONTINUOUS
 90
6
 70
0
 10
27.2488231502
 20
-29.4297509464
 10
27.3436606127
 20
-29.45889354
 10
27.4349436839
 20
-29.4798223334
 10
27.5221520734
 20
-29.4928703398
 10
27.6053045519
 20
-29.498393513
 10
27.6594361636
 20
-29.497971513
  0
LINE
  5
250
100
AcDbEntity
  8
RACCORDO
100
AcDbLine
 62
7
  6
CONTINUOUS
 10
23.3984776888
 20
-28.1333714262
 11
24.3915232249
 21
-28.4424473863
  0
LINE
  5
251
100
AcDbEntity
  8
RACCORDO
100
AcDbLine
 62
7
  6
CONTINUOUS
 10
24.3915232249
 20
-28.4424473863
 11
25.3691064125
 21
-28.763404203
  0
LINE
  5
252
100
AcDbEntity
  8
RACCORDO
100
AcDbLine
 62
7
  6
CONTINUOUS
 10
25.3691064125
 20
-28.763404203
 11
26.3306307207
 21
-29.0960458304
  0
LINE
  5
253
100
AcDbEntity
  8
RACCORDO
100
AcDbLine
 62
7
  6
CONTINUOUS
 10
26.3306307207
 20
-29.0960458304
 11
27.2488231502
 21
-29.4297509464
  0
LINE
  5
254
100
AcDbEntity
  8
RACCORDO
100
AcDbLine
 62
7
  6
CONTINUOUS
 10
27.2160721753
 20
-29.4179867155
 11
27.2161452247
 21
-29.4180140035
  0
LINE
  5
255
100
AcDbEntity
  8
RACCORDO
100
AcDbLine
 62
7
  6
CONTINUOUS
 10
-33.0478107326
 20
0.7077447101
 11
-33.0475891311
 21
0.7075971835
  0
LINE
  5
256
100
AcDbEntity
  8
RACCORDO
100
AcDbLine
 62
7
  6
CONTINUOUS
 10
-33.0795737818
 20
0.7296754794
 11
-32.4097148234
 21
0.2709922002
  0
LWPOLYLINE
  5
257
100
AcDbEntity
  8
RACCORDO
100
AcDbPolyline
 62
7
  6
CONTINUOUS
 90
3
 70
0
 10
-32.4097148234
 20
0.2709922002
 10
-31.7468705042
 20
-0.205885154
 10
-31.1078836456
 20
-0.6904368382
  0
LINE
  5
258
100
AcDbEntity
  8
RACCORDO
100
AcDbLine
 62
7
  6
CONTINUOUS
 10
-33.1526274291
 20
0.7856529347
 11
-33.0795737818
 21
0.7296754794
  0
LINE
  5
259
100
AcDbEntity
  8
RACCORDO
100
AcDbLine
 62
7
  6
CONTINUOUS
 10
-31.1078836456
 20
-0.6904368382
 11
-30.4931564334
 21
-1.1823420246
  0
LINE
  5
25A
100
AcDbEntity
  8
RACCORDO
100
AcDbLine
 62
7
  6
CONTINUOUS
 10
-30.4931564334
 20
-1.1823420246
 11
-29.9030202418
 21
-1.6813175422
  0
LWPOLYLINE
  5
25B
100
AcDbEntity
  8
RACCORDO
100
AcDbPolyline
 62
7
  6
CONTINUOUS
 90
4
 70
0
 10
-29.9030202418
 20
-1.6813175422
 10
-29.3377749457
 20
-2.1871095552
 10
-28.7977474631
 20
-2.6994166222
 10
-28.2832787436
 20
-3.2179018915
  0
LINE
  5
25C
100
AcDbEntity
  8
RACCORDO
100
AcDbLine
 62
7
  6
CONTINUOUS
 10
-33.0196231152
 20
5.5594706035
 11
-33.0194313
 21
5.5592834428
  0
LINE
  5
25D
100
AcDbEntity
  8
RACCORDO
100
AcDbLine
 62
7
  6
CONTINUOUS
 10
-33.0202862604
 20
2.0960168326
 11
-33.0189987326
 21
2.0947601268
  0
LINE
  5
25E
100
AcDbEntity
  8
RACCORDO
100
AcDbLine
 62
7
  6
CONTINUOUS
 10
-28.0135522439
 20
4.8394855797
 11
-27.1415361713
 21
3.8498776371
  0
LINE
  5
25F
100
AcDbEntity
  8
RACCORDO
100
AcDbLine
 62
7
  6
CONTINUOUS
 10
-27.1415361713
 20
3.8498776371
 11
-26.4049707604
 21
2.8690714492
  0
LINE
  5
260
100
AcDbEntity
  8
RACCORDO
100
AcDbLine
 62
7
  6
CONTINUOUS
 10
-26.4049707604
 20
2.8690714492
 11
-25.7952902788
 21
1.9011451572
  0
LINE
  5
261
100
AcDbEntity
  8
RACCORDO
100
AcDbLine
 62
7
  6
CONTINUOUS
 10
-25.7952902788
 20
1.9011451572
 11
-25.560546577
 21
1.4780392099
  0
LINE
  5
262
100
AcDbEntity
  8
RACCORDO
100
AcDbLine
 62
253
  6
CONTINUOUS
 10
-34.0378581906
 20
1.9595543275
 11
-33.8814110766
 21
2.0380820726
  0
LINE
  5
263
100
AcDbEntity
  8
RACCORDO
100
AcDbLine
 62
253
  6
CONTINUOUS
 10
-33.4548220029
 20
0.6777589521
 11
-33.1845125524
 21
0.8134392537
  0
LINE
  5
264
100
AcDbEntity
  8
RACCORDO
100
AcDbLine
 62
7
  6
CONTINUOUS
 10
11.3555870618
 20
-17.1387247182
 11
11.501511936
 21
-17.1377412403
  0
LINE
  5
265
100
AcDbEntity
  8
RACCORDO
100
AcDbLine
 62
7
  6
CONTINUOUS
 10
11.501511936
 20
-17.1377412403
 11
11.6459705271
 21
-17.1505875977
  0
LINE
  5
266
100
AcDbEntity
  8
RACCORDO
100
AcDbLine
 62
7
  6
CONTINUOUS
 10
11.6439328742
 20
-17.1541579536
 11
12.4109046489
 21
-17.2625606013
  0
LWPOLYLINE
  5
267
100
AcDbEntity
  8
RACCORDO
100
AcDbPolyline
 62
7
  6
CONTINUOUS
 90
3
 70
0
 10
12.4109046489
 20
-17.2625606013
 10
14.3849541675
 20
-17.5759860081
 10
16.3816259747
 20
-17.950552417
  0
LWPOLYLINE
  5
268
100
AcDbEntity
  8
RACCORDO
100
AcDbPolyline
 62
7
  6
CONTINUOUS
 90
3
 70
0
 10
16.3816259747
 20
-17.950552417
 10
18.3905586471
 20
-18.3927653175
 10
20.4065367987
 20
-18.9019207207
  0
LINE
  5
269
100
AcDbEntity
  8
RACCORDO
100
AcDbLine
 62
7
  6
CONTINUOUS
 10
10.6268228429
 20
-24.3387444065
 11
10.8632642073
 21
-24.4563538788
  0
LINE
  5
26A
100
AcDbEntity
  8
RACCORDO
100
AcDbLine
 62
7
  6
CONTINUOUS
 10
10.6268228429
 20
-23.4727190027
 11
10.8632642073
 21
-23.590328475
  0
LINE
  5
26B
100
AcDbEntity
  8
RACCORDO
100
AcDbLine
 62
7
  6
CONTINUOUS
 10
-29.0190748569
 20
5.8351292991
 11
-28.0135522439
 21
4.8394855797
  0
LINE
  5
26C
100
AcDbEntity
  8
RACCORDO
100
AcDbLine
 62
7
  6
CONTINUOUS
 10
20.4065367987
 20
-18.9019207207
 11
22.4251421075
 21
-19.4754041668
  0
LWPOLYLINE
  5
26D
100
AcDbEntity
  8
RACCORDO
100
AcDbPolyline
 62
7
  6
CONTINUOUS
 90
3
 70
0
 10
22.4251421075
 20
-19.4754041668
 10
24.4422154634
 20
-20.1097661657
 10
26.4566749456
 20
-20.8021252529
  0
LINE
  5
26E
100
AcDbEntity
  8
RACCORDO
100
AcDbLine
 62
7
  6
CONTINUOUS
 10
26.4566749456
 20
-20.8021252529
 11
27.5848422398
 21
-21.2144281954
  0
LINE
  5
26F
100
AcDbEntity
  8
RACCORDO
100
AcDbLine
 62
7
  6
CONTINUOUS
 10
10.6268228429
 20
-18.7095792819
 11
10.8632642073
 21
-18.8271887542
  0
LINE
  5
270
100
AcDbEntity
  8
RACCORDO
100
AcDbLine
 62
7
  6
CONTINUOUS
 10
10.6268228429
 20
-17.8435538781
 11
10.8665293507
 21
-17.9627874816
  0
LINE
  5
271
100
AcDbEntity
  8
RACCORDO
100
AcDbLine
 62
7
  6
CONTINUOUS
 10
-33.5563540802
 20
9.3566964229
 11
-33.5555239325
 21
9.356134771
  0
LINE
  5
272
100
AcDbEntity
  8
RACCORDO
100
AcDbLine
 62
7
  6
CONTINUOUS
 10
-33.5555239325
 20
9.356134771
 11
-32.7928323119
 21
8.8347110974
  0
LWPOLYLINE
  5
273
100
AcDbEntity
  8
RACCORDO
100
AcDbPolyline
 62
7
  6
CONTINUOUS
 90
4
 70
0
 10
-32.7928323119
 20
8.8347110974
 10
-31.4142309986
 20
7.8341119335
 10
-30.1543680641
 20
6.8340881272
 10
-29.0190748569
 20
5.8351292991
  0
LINE
  5
274
100
AcDbEntity
  8
RACCORDO
100
AcDbLine
 62
253
  6
CONTINUOUS
 10
29.8008019747
 20
23.6601741287
 11
34.2856207604
 21
25.9527768964
  0
LINE
  5
275
100
AcDbEntity
  8
RACCORDO
100
AcDbLine
 62
253
  6
CONTINUOUS
 10
31.2809087125
 20
21.2590341308
 11
35.6978961922
 21
23.5169620884
  0
LINE
  5
276
100
AcDbEntity
  8
RACCORDO
100
AcDbLine
 62
253
  6
CONTINUOUS
 10
-25.7488626657
 20
-7.5386744224
 11
-25.6253474139
 21
-7.4755966425
  0
LWPOLYLINE
  5
277
100
AcDbEntity
  8
RACCORDO
100
AcDbPolyline
 62
7
  6
CONTINUOUS
 90
5
 70
0
 10
27.5851104111
 20
-21.214751083
 10
27.7006626973
 20
-21.2669829594
 10
27.8689329999
 20
-21.3764248113
 10
28.0245373536
 20
-21.5179641732
 10
28.1626758677
 20
-21.6873850034
  0
LWPOLYLINE
  5
278
100
AcDbEntity
  8
RACCORDO
100
AcDbPolyline
 62
7
  6
CONTINUOUS
 90
5
 70
0
 10
-33.7174099548
 20
9.4264737524
 10
-33.6770952372
 20
9.41688319
 10
-33.6328849971
 20
9.3998141502
 10
-33.5857834371
 20
9.3751100551
 10
-33.5564189406
 20
9.3566009045
  0
LWPOLYLINE
  5
279
100
AcDbEntity
  8
RACCORDO
100
AcDbPolyline
 62
7
  6
CONTINUOUS
 90
14
 70
0
 10
10.8633335182
 20
-24.7660249121
 10
10.8675189989
 20
-24.8366280937
 10
10.8817090599
 20
-24.9141929713
 10
10.9062415669
 20
-24.9921522068
 10
10.941039426
 20
-25.0693711654
 10
10.9859768292
 20
-25.1447126917
 10
11.0407848451
 20
-25.2172718529
 10
11.1048792308
 20
-25.2859521757
 10
11.1774387238
 20
-25.3495903255
 10
11.2578608348
 20
-25.4074917803
 10
11.345328687
 20
-25.4588290079
 10
11.4386856689
 20
-25.5026423927
 10
11.5370370794
 20
-25.538226303
 10
11.6396592816
 20
-25.5649243977
  0
LINE
  5
27A
100
AcDbEntity
  8
DRAFT
100
AcDbLine
 62
7
  6
CONTINUOUS
 10
10.6268228429
 20
-24.7414853111
 11
10.6268228429
 21
-23.4424472054
  0
LINE
  5
27B
100
AcDbEntity
  8
DRAFT
100
AcDbLine
 62
7
  6
CONTINUOUS
 10
10.6268228429
 20
-19.1123201865
 11
10.6268228429
 21
-17.8132820808
  0
LINE
  5
27C
100
AcDbEntity
  8
RACCORDO
100
AcDbLine
 62
7
  6
CONTINUOUS
 10
10.8632642073
 20
-18.0130475358
 11
10.8632642073
 21
-24.7658063537
  0
LINE
  5
27D
100
AcDbEntity
  8
RACCORDO
100
AcDbLine
 62
253
  6
CONTINUOUS
 10
10.9751063813
 20
-18.0855802531
 11
10.9751063813
 21
-24.8383384222
  0
LINE
  5
27E
100
AcDbEntity
  8
RACCORDO
100
AcDbLine
 62
7
  6
CONTINUOUS
 10
28.1626758677
 20
-21.6873850034
 11
28.2763759425
 21
-21.8773138255
  0
LWPOLYLINE
  5
27F
100
AcDbEntity
  8
RACCORDO
100
AcDbPolyline
 62
7
  6
CONTINUOUS
 90
3
 70
0
 10
28.2763759425
 20
-21.8773138255
 10
28.3591415197
 20
-22.077317368
 10
28.4073221953
 20
-22.278180558
  0
LWPOLYLINE
  5
280
100
AcDbEntity
  8
RACCORDO
100
AcDbPolyline
 62
7
  6
CONTINUOUS
 90
7
 70
0
 10
11.0360782882
 20
-17.6025997615
 10
10.983470894
 20
-17.6621890011
 10
10.9401504268
 20
-17.7266163026
 10
10.9064333599
 20
-17.7947439949
 10
10.8823571697
 20
-17.8658214128
 10
10.8680635038
 20
-17.9388884721
 10
10.8633176145
 20
-18.0128198479
  0
LINE
  5
281
100
AcDbEntity
  8
RACCORDO
100
AcDbLine
 62
7
  6
CONTINUOUS
 10
11.0973599341
 20
-17.5488130905
 11
11.0360782882
 21
-17.6025997615
  0
LINE
  5
282
100
AcDbEntity
  8
RACCORDO
100
AcDbLine
 62
7
  6
CONTINUOUS
 10
11.1668850953
 20
-17.5015168638
 11
11.0973599341
 21
-17.5488130905
  0
LINE
  5
283
100
AcDbEntity
  8
RACCORDO
100
AcDbLine
 62
7
  6
CONTINUOUS
 10
11.2027076259
 20
-17.4815104277
 11
11.1668850953
 21
-17.5015168638
  0
LINE
  5
284
100
AcDbEntity
  8
RACCORDO
100
AcDbLine
 62
7
  6
CONTINUOUS
 10
11.2027625208
 20
-17.4814847579
 11
11.2023578849
 21
-17.481696426
  0
LINE
  5
285
100
AcDbEntity
  8
RACCORDO
100
AcDbLine
 62
7
  6
CONTINUOUS
 10
11.2042510197
 20
-17.4807073406
 11
11.2517289614
 21
-17.4559115452
  0
LINE
  5
286
100
AcDbEntity
  8
RACCORDO
100
AcDbLine
 62
253
  6
CONTINUOUS
 10
11.7306771004
 20
-17.4154171597
 11
11.8151485455
 21
-17.371301158
  0
LINE
  5
287
100
AcDbEntity
  8
RACCORDO
100
AcDbLine
 62
253
  6
CONTINUOUS
 10
10.3217291741
 20
-17.9631894375
 11
10.6268228429
 21
-17.8132820808
  0
LINE
  5
288
100
AcDbEntity
  8
RACCORDO
100
AcDbLine
 62
7
  6
CONTINUOUS
 10
10.8570512687
 20
-17.2636569301
 11
10.8579796935
 21
-17.2632049929
  0
LINE
  5
289
100
AcDbEntity
  8
DRAFT
100
AcDbLine
 62
253
  6
CONTINUOUS
 10
12.0109691829
 20
-17.3994740361
 11
12.3217140406
 21
-17.2499545337
  0
LINE
  5
28A
100
AcDbEntity
  8
DRAFT
100
AcDbLine
 62
7
  6
CONTINUOUS
 10
11.7420902361
 20
-17.3607176499
 11
12.0546189495
 21
-17.2122037115
  0
LINE
  5
28B
100
AcDbEntity
  8
DRAFT
100
AcDbLine
 62
7
  6
CONTINUOUS
 10
10.8632642073
 20
-19.0011559598
 11
10.6268228429
 21
-19.1123201865
  0
LINE
  5
28C
100
AcDbEntity
  8
RACCORDO
100
AcDbLine
 62
7
  6
CONTINUOUS
 10
10.8579944815
 20
-17.2631978825
 11
10.9415409321
 21
-17.2266172164
  0
LWPOLYLINE
  5
28D
100
AcDbEntity
  8
RACCORDO
100
AcDbPolyline
 62
7
  6
CONTINUOUS
 90
4
 70
0
 10
10.9415409321
 20
-17.2266172164
 10
11.0737240126
 20
-17.1832631615
 10
11.2124348399
 20
-17.1539067915
 10
11.3555870618
 20
-17.1387247182
  0
LINE
  5
28E
100
AcDbEntity
  8
RACCORDO
100
AcDbLine
 62
7
  6
CONTINUOUS
 10
28.4073221953
 20
-22.278180558
 11
28.4192823465
 21
-22.4317006715
  0
LINE
  5
28F
100
AcDbEntity
  8
DRAFT
100
AcDbLine
 62
7
  6
CONTINUOUS
 10
10.8632642073
 20
-23.3212611504
 11
10.6268228429
 21
-23.4424472054
  0
LINE
  5
290
100
AcDbEntity
  8
RACCORDO
100
AcDbLine
 62
253
  6
CONTINUOUS
 10
9.9874802688
 20
-25.05562541
 11
10.6268228429
 21
-24.7414853111
  0
LINE
  5
291
100
AcDbEntity
  8
RACCORDO
100
AcDbLine
 62
253
  6
CONTINUOUS
 10
27.9421161837
 20
-29.0679557429
 11
27.9421161837
 21
-22.2174033811
  0
LINE
  5
292
100
AcDbEntity
  8
RACCORDO
100
AcDbLine
 62
253
  6
CONTINUOUS
 10
28.0473710977
 20
-29.0833325324
 11
28.0473710977
 21
-22.2327842601
  0
LINE
  5
293
100
AcDbEntity
  8
RACCORDO
100
AcDbLine
 62
7
  6
CONTINUOUS
 10
28.4192728957
 20
-22.4325425506
 11
28.4157381939
 21
-29.3659263498
  0
LINE
  5
294
100
AcDbEntity
  8
RACCORDO
100
AcDbLine
 62
7
  6
CONTINUOUS
 10
28.4157381797
 20
-29.3659263497
 11
28.4157383538
 21
-29.3658136964
  0
LINE
  5
295
100
AcDbEntity
  8
RACCORDO
100
AcDbLine
 62
7
  6
CONTINUOUS
 10
28.4157383538
 20
-29.3658136964
 11
28.4150802159
 21
-29.4000777036
  0
LWPOLYLINE
  5
296
100
AcDbEntity
  8
RACCORDO
100
AcDbPolyline
 62
7
  6
CONTINUOUS
 90
3
 70
0
 10
28.4150802159
 20
-29.4000777036
 10
28.3979137182
 20
-29.5375212079
 10
28.3586569328
 20
-29.6566906684
  0
LINE
  5
297
100
AcDbEntity
  8
RACCORDO
100
AcDbLine
 62
253
  6
CONTINUOUS
 10
11.303537495
 20
-26.0648738607
 11
12.1337195108
 21
-25.6409079052
  0
LINE
  5
298
100
AcDbEntity
  8
RACCORDO
100
AcDbLine
 62
7
  6
CONTINUOUS
 10
35.6978961922
 20
-55.2960970869
 11
35.6978961922
 21
23.5169620884
  0
LWPOLYLINE
  5
299
100
AcDbEntity
  8
RACCORDO
100
AcDbPolyline
 62
7
  6
CONTINUOUS
 90
3
 70
0
 10
28.3586569328
 20
-29.6566906684
 10
28.2998653255
 20
-29.7534936847
 10
28.2242081259
 20
-29.8263049665
  0
LINE
  5
29A
100
AcDbEntity
  8
RACCORDO
100
AcDbLine
 62
7
  6
CONTINUOUS
 10
27.7070324263
 20
-29.6228113222
 11
27.9086006339
 21
-29.4778608361
  0
LINE
  5
29B
100
AcDbEntity
  8
RACCORDO
100
AcDbLine
 62
7
  6
CONTINUOUS
 10
28.2242081259
 20
-29.8263049665
 11
28.1793628089
 21
-29.8543828316
  0
LINE
  5
29C
100
AcDbEntity
  8
RACCORDO
100
AcDbLine
 62
253
  6
CONTINUOUS
 10
28.0722746591
 20
-29.6492397143
 11
27.6441108287
 21
-29.8717076371
  0
LINE
  5
29D
100
AcDbEntity
  8
RACCORDO
100
AcDbLine
 62
7
  6
CONTINUOUS
 10
34.2856207604
 20
25.9527768964
 11
-30.0649725887
 21
58.128073571
  0
LINE
  5
29E
100
AcDbEntity
  8
RACCORDO
100
AcDbLine
 62
253
  6
CONTINUOUS
 10
30.6391799491
 20
-58.1471450214
 11
30.6482740471
 21
-58.1435508814
  0
LINE
  5
29F
100
AcDbEntity
  8
RACCORDO
100
AcDbLine
 62
253
  6
CONTINUOUS
 10
31.2722860662
 20
-57.0185985588
 11
35.6978961922
 21
-55.2960970869
  0
LINE
  5
2A0
100
AcDbEntity
  8
RACCORDO
100
AcDbLine
 62
7
  6
CONTINUOUS
 10
30.6396066026
 20
-58.1469791496
 11
35.1134325601
 21
-56.4057114876
  0
LINE
  5
2A1
100
AcDbEntity
  8
RACCORDO
100
AcDbLine
 62
7
  6
CONTINUOUS
 10
30.4819754443
 20
-58.1983609421
 11
30.6482082559
 21
-58.1435760576
  0
ARC
  5
2A2
100
AcDbEntity
  8
RACCORDO
100
AcDbCircle
 62
253
  6
CONTINUOUS
 10
-63.2235021964
 20
-70.2091405744
 40
52.8933893842
100
AcDbArc
 50
57.0476154424
 51
57.6008299681
  0
ARC
  5
2A3
100
AcDbEntity
  8
RACCORDO
100
AcDbCircle
 62
253
  6
CONTINUOUS
 10
-60.5314108894
 20
-66.0705936118
 40
47.9562993186
100
AcDbArc
 50
55.8918075794
 51
57.0570139111
  0
ARC
  5
2A4
100
AcDbEntity
  8
RACCORDO
100
AcDbCircle
 62
253
  6
CONTINUOUS
 10
-61.6377132484
 20
-32.358296191
 40
50.3472675311
100
AcDbArc
 50
54.4982897501
 51
56.0506668705
  0
ARC
  5
2A5
100
AcDbEntity
  8
RACCORDO
100
AcDbCircle
 62
253
  6
CONTINUOUS
 10
-60.1140118156
 20
-38.3184818989
 40
46.9564222318
100
AcDbArc
 50
55.2590468111
 51
55.6438978751
  0
ARC
  5
2A6
100
AcDbEntity
  8
RACCORDO
100
AcDbCircle
 62
253
  6
CONTINUOUS
 10
-59.8885127971
 20
-37.9890142622
 40
46.8386524124
100
AcDbArc
 50
55.2536392535
 51
55.6423931418
  0
ARC
  5
2A7
100
AcDbEntity
  8
RACCORDO
100
AcDbCircle
 62
253
  6
CONTINUOUS
 10
-56.4532876989
 20
-25.0703194963
 40
41.4034033632
100
AcDbArc
 50
52.2490876894
 51
54.4821053215
  0
ARC
  5
2A8
100
AcDbEntity
  8
RACCORDO
100
AcDbCircle
 62
253
  6
CONTINUOUS
 10
-51.6442816574
 20
-27.0128944434
 40
33.4264009142
100
AcDbArc
 50
52.2323763193
 51
56.1424937085
  0
ARC
  5
2A9
100
AcDbEntity
  8
RACCORDO
100
AcDbCircle
 62
253
  6
CONTINUOUS
 10
-50.6252230672
 20
-25.513070652
 40
31.0145125203
100
AcDbArc
 50
50.1959953591
 51
51.5131210623
  0
ARC
  5
2AA
100
AcDbEntity
  8
RACCORDO
100
AcDbCircle
 62
253
  6
CONTINUOUS
 10
-49.7991803956
 20
-24.5674739043
 40
30.3632666813
100
AcDbArc
 50
51.6153550208
 51
52.1584648005
  0
ARC
  5
2AB
100
AcDbEntity
  8
RACCORDO
100
AcDbCircle
 62
253
  6
CONTINUOUS
 10
-49.3266460108
 20
-23.9709485105
 40
29.6022599204
100
AcDbArc
 50
50.6717343799
 51
51.6153465586
  0
ARC
  5
2AC
100
AcDbEntity
  8
RACCORDO
100
AcDbCircle
 62
253
  6
CONTINUOUS
 10
-49.0817998242
 20
-23.6557945421
 40
28.5996381026
100
AcDbArc
 50
49.3377051554
 51
50.1894992361
  0
ARC
  5
2AD
100
AcDbEntity
  8
RACCORDO
100
AcDbCircle
 62
253
  6
CONTINUOUS
 10
-48.5959291012
 20
-23.078105992
 40
28.4485205372
100
AcDbArc
 50
49.3013226974
 51
50.6704848458
  0
ARC
  5
2AE
100
AcDbEntity
  8
RACCORDO
100
AcDbCircle
 62
253
  6
CONTINUOUS
 10
-48.0235975092
 20
-22.4066032637
 40
27.5662149373
100
AcDbArc
 50
49.1079408935
 51
49.2930893101
  0
ARC
  5
2AF
100
AcDbEntity
  8
RACCORDO
100
AcDbCircle
 62
253
  6
CONTINUOUS
 10
-47.6603877898
 20
-22.0055838848
 40
26.4216578607
100
AcDbArc
 50
47.9723574843
 51
49.3441127236
  0
ARC
  5
2B0
100
AcDbEntity
  8
RACCORDO
100
AcDbCircle
 62
253
  6
CONTINUOUS
 10
-45.1121914575
 20
-11.3254837194
 40
23.5737283338
100
AcDbArc
 50
44.4906128405
 51
47.54591742
  0
ARC
  5
2B1
100
AcDbEntity
  8
RACCORDO
100
AcDbCircle
 62
253
  6
CONTINUOUS
 10
-42.3043885192
 20
-8.5396483828
 40
19.6184568158
100
AcDbArc
 50
41.4884539185
 51
44.4332797345
  0
ARC
  5
2B2
100
AcDbEntity
  8
RACCORDO
100
AcDbCircle
 62
253
  6
CONTINUOUS
 10
-40.8972016646
 20
-7.2696141048
 40
17.7230001645
100
AcDbArc
 50
41.2102214143
 51
41.4265410175
  0
ARC
  5
2B3
100
AcDbEntity
  8
RACCORDO
100
AcDbCircle
 62
253
  6
CONTINUOUS
 10
-40.6757048984
 20
-7.075887247
 40
17.4287368856
100
AcDbArc
 50
40.7716810017
 51
41.2108365096
  0
ARC
  5
2B4
100
AcDbEntity
  8
RACCORDO
100
AcDbCircle
 62
253
  6
CONTINUOUS
 10
-40.4887876555
 20
-7.4882434096
 40
17.2544899097
100
AcDbArc
 50
31.5445160096
 51
33.7396457934
  0
ARC
  5
2B5
100
AcDbEntity
  8
RACCORDO
100
AcDbCircle
 62
253
  6
CONTINUOUS
 10
-40.0812025066
 20
-7.2368309028
 40
16.7756028545
100
AcDbArc
 50
30.8141208412
 51
31.5409992359
  0
ARC
  5
2B6
100
AcDbEntity
  8
RACCORDO
100
AcDbCircle
 62
253
  6
CONTINUOUS
 10
-39.9524133647
 20
-6.4604538
 40
16.4790698547
100
AcDbArc
 50
35.7461996463
 51
40.7934606503
  0
ARC
  5
2B7
100
AcDbEntity
  8
RACCORDO
100
AcDbCircle
 62
253
  6
CONTINUOUS
 10
-39.7468902006
 20
-7.0385108849
 40
16.3868938839
100
AcDbArc
 50
29.5525141066
 51
30.8173693415
  0
ARC
  5
2B8
100
AcDbEntity
  8
RACCORDO
100
AcDbCircle
 62
253
  6
CONTINUOUS
 10
-38.7799318731
 20
-5.5995350074
 40
15.024530089
100
AcDbArc
 50
32.5445260689
 51
35.6936733008
  0
ARC
  5
2B9
100
AcDbEntity
  8
RACCORDO
100
AcDbCircle
 62
253
  6
CONTINUOUS
 10
-38.0052576149
 20
-5.1045769619
 40
14.1052350275
100
AcDbArc
 50
28.1849031698
 51
32.5425080653
  0
ARC
  5
2BA
100
AcDbEntity
  8
RACCORDO
100
AcDbCircle
 62
253
  6
CONTINUOUS
 10
-36.8554722575
 20
-12.2989127107
 40
11.8315582693
100
AcDbArc
 50
22.7350670605
 51
26.3056960937
  0
ARC
  5
2BB
100
AcDbEntity
  8
RACCORDO
100
AcDbCircle
 62
253
  6
CONTINUOUS
 10
-36.6574729739
 20
-12.1000994369
 40
11.8238900967
100
AcDbArc
 50
22.6921968019
 51
26.2978530222
  0
ARC
  5
2BC
100
AcDbEntity
  8
RACCORDO
100
AcDbCircle
 62
253
  6
CONTINUOUS
 10
-30.5355201946
 20
-0.0564933626
 40
5.2570333635
100
AcDbArc
 50
2.921116912
 51
8.6747829589
  0
ARC
  5
2BD
100
AcDbEntity
  8
ASSI
100
AcDbCircle
 62
7
  6
CONTINUOUS
 10
-31.9716861621
 20
3.169104827
 40
1.5005366054
100
AcDbArc
 50
175.6756700821
 51
179.9992262195
  0
ARC
  5
2BE
100
AcDbEntity
  8
ASSI
100
AcDbCircle
 62
7
  6
CONTINUOUS
 10
-31.9716865606
 20
6.6332064658
 40
1.5005362069
100
AcDbArc
 50
175.6775310116
 51
179.9992271237
  0
ARC
  5
2BF
100
AcDbEntity
  8
ASSI
100
AcDbCircle
 62
7
  6
CONTINUOUS
 10
-31.9723184401
 20
3.1691131278
 40
1.4999043273
100
AcDbArc
 50
179.9995429797
 51
225.7474849267
  0
ARC
  5
2C0
100
AcDbEntity
  8
ASSI
100
AcDbCircle
 62
7
  6
CONTINUOUS
 10
-31.9723820996
 20
6.6332085126
 40
1.4998406679
100
AcDbArc
 50
179.9993049546
 51
225.7280589353
  0
ARC
  5
2C1
100
AcDbEntity
  8
RACCORDO
100
AcDbCircle
 62
253
  6
CONTINUOUS
 10
-32.6845625626
 20
1.9582726646
 40
1.353296235
100
AcDbArc
 50
179.9457370195
 51
183.8043761399
  0
ARC
  5
2C2
100
AcDbEntity
  8
RACCORDO
100
AcDbCircle
 62
7
  6
CONTINUOUS
 10
-33.0524877829
 20
2.0338313749
 40
0.8289234704
100
AcDbArc
 50
180.037417729
 51
185.5836022319
  0
ARC
  5
2C3
100
AcDbEntity
  8
RACCORDO
100
AcDbCircle
 62
253
  6
CONTINUOUS
 10
-33.137766343
 20
8.5777791942
 40
0.5270691853
100
AcDbArc
 50
178.3937560402
 51
180.0062656143
  0
ARC
  5
2C4
100
AcDbEntity
  8
RACCORDO
100
AcDbCircle
 62
253
  6
CONTINUOUS
 10
-2.1960013207
 20
-100.61326385
 40
84.883238163
100
AcDbArc
 50
69.4967879314
 51
71.8752245117
  0
ARC
  5
2C5
100
AcDbEntity
  8
RACCORDO
100
AcDbCircle
 62
253
  6
CONTINUOUS
 10
0.4283045156
 20
-100.6342794483
 40
83.9828516392
100
AcDbArc
 50
79.9671093546
 51
82.2127695729
  0
ARC
  5
2C6
100
AcDbEntity
  8
RACCORDO
100
AcDbCircle
 62
253
  6
CONTINUOUS
 10
0.4195308518
 20
-100.6079316761
 40
83.7528024349
100
AcDbArc
 50
79.9680375849
 51
82.2655307999
  0
ARC
  5
2C7
100
AcDbEntity
  8
RACCORDO
100
AcDbCircle
 62
253
  6
CONTINUOUS
 10
0.7766368881
 20
-98.6236545632
 40
81.9422895434
100
AcDbArc
 50
79.840785935
 51
79.9620244002
  0
ARC
  5
2C8
100
AcDbEntity
  8
RACCORDO
100
AcDbCircle
 62
253
  6
CONTINUOUS
 10
0.774634455
 20
-98.557237372
 40
81.6716039294
100
AcDbArc
 50
79.8318750707
 51
79.9627398857
  0
ARC
  5
2C9
100
AcDbEntity
  8
RACCORDO
100
AcDbCircle
 62
253
  6
CONTINUOUS
 10
-0.2342155491
 20
-106.188649999
 40
81.249472448
100
AcDbArc
 50
69.9329186996
 51
70.3225559117
  0
ARC
  5
2CA
100
AcDbEntity
  8
RACCORDO
100
AcDbCircle
 62
253
  6
CONTINUOUS
 10
0.920701527
 20
-94.819963328
 40
78.5130302594
100
AcDbArc
 50
81.9899533688
 51
82.1662753008
  0
ARC
  5
2CB
100
AcDbEntity
  8
RACCORDO
100
AcDbCircle
 62
253
  6
CONTINUOUS
 10
0.7078140037
 20
-103.4890389341
 40
78.1126706101
100
AcDbArc
 50
69.919455268
 51
72.0951851028
  0
ARC
  5
2CC
100
AcDbEntity
  8
RACCORDO
100
AcDbCircle
 62
253
  6
CONTINUOUS
 10
0.9804190933
 20
-94.3956815704
 40
78.084566495
100
AcDbArc
 50
81.8058968892
 51
81.9899626593
  0
ARC
  5
2CD
100
AcDbEntity
  8
RACCORDO
100
AcDbCircle
 62
253
  6
CONTINUOUS
 10
0.0175364865
 20
-93.8756267494
 40
77.7913104669
100
AcDbArc
 50
71.8809037783
 51
73.1442374151
  0
ARC
  5
2CE
100
AcDbEntity
  8
RACCORDO
100
AcDbCircle
 62
253
  6
CONTINUOUS
 10
1.0729949765
 20
-93.7560963625
 40
77.4383158118
100
AcDbArc
 50
81.5495259895
 51
81.7172308055
  0
ARC
  5
2CF
100
AcDbEntity
  8
RACCORDO
100
AcDbCircle
 62
253
  6
CONTINUOUS
 10
1.1773591942
 20
-102.2161899771
 40
77.0336799953
100
AcDbArc
 50
70.3162473967
 51
72.1195520193
  0
ARC
  5
2D0
100
AcDbEntity
  8
RACCORDO
100
AcDbCircle
 62
253
  6
CONTINUOUS
 10
0.5419773338
 20
-92.1565992564
 40
75.9940677157
100
AcDbArc
 50
73.1468420849
 51
73.2616222182
  0
ARC
  5
2D1
100
AcDbEntity
  8
RACCORDO
100
AcDbCircle
 62
253
  6
CONTINUOUS
 10
0.7151496171
 20
-91.5801972424
 40
75.3922140023
100
AcDbArc
 50
73.2614930183
 51
73.4763192982
  0
ARC
  5
2D2
100
AcDbEntity
  8
RACCORDO
100
AcDbCircle
 62
253
  6
CONTINUOUS
 10
1.468316008
 20
-91.1574489992
 40
74.8097876605
100
AcDbArc
 50
79.3537198716
 51
81.5565310262
  0
ARC
  5
2D3
100
AcDbEntity
  8
RACCORDO
100
AcDbCircle
 62
253
  6
CONTINUOUS
 10
2.5510236652
 20
-97.9158909397
 40
72.2427794315
100
AcDbArc
 50
72.1273459607
 51
72.6702131371
  0
ARC
  5
2D4
100
AcDbEntity
  8
RACCORDO
100
AcDbCircle
 62
253
  6
CONTINUOUS
 10
4.124566662
 20
-97.114709552
 40
71.4116011162
100
AcDbArc
 50
83.9487452808
 51
84.2303391409
  0
ARC
  5
2D5
100
AcDbEntity
  8
RACCORDO
100
AcDbCircle
 62
253
  6
CONTINUOUS
 10
2.1933941169
 20
-87.1461709972
 40
70.7336090128
100
AcDbArc
 50
79.0555247832
 51
79.33066048
  0
ARC
  5
2D6
100
AcDbEntity
  8
RACCORDO
100
AcDbCircle
 62
253
  6
CONTINUOUS
 10
4.0304392282
 20
-91.9379690035
 40
66.7454262049
100
AcDbArc
 50
72.2214231897
 51
72.3561102703
  0
ARC
  5
2D7
100
AcDbEntity
  8
RACCORDO
100
AcDbCircle
 62
253
  6
CONTINUOUS
 10
4.3378321868
 20
-90.9832535221
 40
65.7424453391
100
AcDbArc
 50
71.3535697914
 51
72.2224697536
  0
ARC
  5
2D8
100
AcDbEntity
  8
RACCORDO
100
AcDbCircle
 62
253
  6
CONTINUOUS
 10
4.9921370195
 20
-89.0365778646
 40
63.6887523828
100
AcDbArc
 50
70.472783451
 51
71.3513701233
  0
ARC
  5
2D9
100
AcDbEntity
  8
RACCORDO
100
AcDbCircle
 62
253
  6
CONTINUOUS
 10
5.6950245454
 20
-87.0470604281
 40
61.5787230465
100
AcDbArc
 50
69.5806785775
 51
70.4704146016
  0
ARC
  5
2DA
100
AcDbEntity
  8
RACCORDO
100
AcDbCircle
 62
253
  6
CONTINUOUS
 10
6.6494795804
 20
-76.9593289309
 40
59.468118477
100
AcDbArc
 50
69.7138150909
 51
70.1145510037
  0
ARC
  5
2DB
100
AcDbEntity
  8
RACCORDO
100
AcDbCircle
 62
7
  6
CONTINUOUS
 10
28.2610015145
 20
-19.5581717593
 40
10.0928326201
100
AcDbArc
 50
268.0001653026
 51
268.9285582197
  0
ARC
  5
2DC
100
AcDbEntity
  8
RACCORDO
100
AcDbCircle
 62
253
  6
CONTINUOUS
 10
11.3860804986
 20
-18.7580535613
 40
1.734528975
100
AcDbArc
 50
82.1852236389
 51
86.2399778003
  0
ARC
  5
2DD
100
AcDbEntity
  8
RACCORDO
100
AcDbCircle
 62
253
  6
CONTINUOUS
 10
11.3389918141
 20
-18.4415510554
 40
1.4124021685
100
AcDbArc
 50
105.737063429
 51
113.527959753
  0
ARC
  5
2DE
100
AcDbEntity
  8
RACCORDO
100
AcDbCircle
 62
7
  6
CONTINUOUS
 10
27.84772402
 20
-30.9753100983
 40
1.344948197
100
AcDbArc
 50
78.098156766
 51
80.3889687845
  0
ARC
  5
2DF
100
AcDbEntity
  8
RACCORDO
100
AcDbCircle
 62
253
  6
CONTINUOUS
 10
27.3273972119
 20
-22.5120345336
 40
1.1701406755
100
AcDbArc
 50
0.0077212745
 51
4.0659944552
  0
ARC
  5
2E0
100
AcDbEntity
  8
RACCORDO
100
AcDbCircle
 62
7
  6
CONTINUOUS
 10
11.6646350829
 20
-18.4710802841
 40
1.1100308233
100
AcDbArc
 50
82.2070335375
 51
86.3337179857
  0
ARC
  5
2E1
100
AcDbEntity
  8
RACCORDO
100
AcDbCircle
 62
7
  6
CONTINUOUS
 10
11.6666744204
 20
-18.437048553
 40
1.0759383445
100
AcDbArc
 50
86.3262096572
 51
91.0638714022
  0
ARC
  5
2E2
100
AcDbEntity
  8
RACCORDO
100
AcDbCircle
 62
253
  6
CONTINUOUS
 10
27.8899108227
 20
-29.1328683576
 40
1.0561773902
100
AcDbArc
 50
249.9078209051
 51
255.6126980453
  0
ARC
  5
2E3
100
AcDbEntity
  8
RACCORDO
100
AcDbCircle
 62
253
  6
CONTINUOUS
 10
11.5530815747
 20
-18.389393998
 40
0.9900358841
100
AcDbArc
 50
79.6661814265
 51
84.3742916608
  0
ARC
  5
2E4
100
AcDbEntity
  8
RACCORDO
100
AcDbCircle
 62
253
  6
CONTINUOUS
 10
27.8638652231
 20
-29.2347831467
 40
0.9509871455
100
AcDbArc
 50
255.607002394
 51
261.46549004
  0
ARC
  5
2E5
100
AcDbEntity
  8
RACCORDO
100
AcDbCircle
 62
253
  6
CONTINUOUS
 10
27.9419358057
 20
-29.0066278951
 40
0.9149112946
100
AcDbArc
 50
251.002715836
 51
256.5453423463
  0
ARC
  5
2E6
100
AcDbEntity
  8
RACCORDO
100
AcDbCircle
 62
7
  6
CONTINUOUS
 10
11.6474413705
 20
-18.2615700687
 40
0.8989900974
100
AcDbArc
 50
101.3523765701
 51
105.2696035759
  0
ARC
  5
2E7
100
AcDbEntity
  8
RACCORDO
100
AcDbCircle
 62
253
  6
CONTINUOUS
 10
11.5548755846
 20
-18.2388605981
 40
0.839199929
100
AcDbArc
 50
93.2522079825
 51
100.1729333029
  0
ARC
  5
2E8
100
AcDbEntity
  8
RACCORDO
100
AcDbCircle
 62
7
  6
CONTINUOUS
 10
11.5978250016
 20
-18.1231452449
 40
0.7516253599
100
AcDbArc
 50
115.5919371098
 51
117.5632195008
  0
ARC
  5
2E9
100
AcDbEntity
  8
RACCORDO
100
AcDbCircle
 62
253
  6
CONTINUOUS
 10
11.5208336027
 20
-18.096147493
 40
0.6921602518
100
AcDbArc
 50
108.4469815098
 51
113.887511137
  0
ARC
  5
2EA
100
AcDbEntity
  8
RACCORDO
100
AcDbCircle
 62
253
  6
CONTINUOUS
 10
11.5061392195
 20
-18.0624713567
 40
0.6554183914
100
AcDbArc
 50
113.9050994717
 51
117.5738947397
  0
ARC
  5
2EB
100
AcDbEntity
  8
RACCORDO
100
AcDbCircle
 62
253
  6
CONTINUOUS
 10
194.587673159
 20
435.4205235187
 40
444.7258718187
100
AcDbArc
 50
241.5996773093
 51
241.7165288457
  0
ARC
  5
2EC
100
AcDbEntity
  8
RACCORDO
100
AcDbCircle
 62
253
  6
CONTINUOUS
 10
187.9224284687
 20
423.2707705306
 40
430.8682017595
100
AcDbArc
 50
238.8692018468
 51
241.6017635989
  0
ARC
  5
2ED
100
AcDbEntity
  8
RACCORDO
100
AcDbCircle
 62
253
  6
CONTINUOUS
 10
185.3429474514
 20
418.7793885324
 40
424.3194911767
100
AcDbArc
 50
238.8572690299
 51
241.6356107283
  0
ARC
  5
2EE
100
AcDbEntity
  8
RACCORDO
100
AcDbCircle
 62
253
  6
CONTINUOUS
 10
492.1803680461
 20
-43.4744363291
 40
482.719144253
100
AcDbArc
 50
177.6231601698
 51
177.8156678884
  0
ARC
  5
2EF
100
AcDbEntity
  8
RACCORDO
100
AcDbCircle
 62
7
  6
CONTINUOUS
 10
444.22635389
 20
-25.4846973163
 40
470.1904069134
100
AcDbArc
 50
177.5933262523
 51
177.7269274557
  0
ARC
  5
2F0
100
AcDbEntity
  8
RACCORDO
100
AcDbCircle
 62
253
  6
CONTINUOUS
 10
448.5408364603
 20
-42.147672619
 40
438.8862999738
100
AcDbArc
 50
176.9249358265
 51
177.7681010324
  0
ARC
  5
2F1
100
AcDbEntity
  8
RACCORDO
100
AcDbCircle
 62
7
  6
CONTINUOUS
 10
400.9253445516
 20
-23.6148362558
 40
426.8490750732
100
AcDbArc
 50
177.035709902
 51
177.6000262492
  0
ARC
  5
2F2
100
AcDbEntity
  8
RACCORDO
100
AcDbCircle
 62
253
  6
CONTINUOUS
 10
430.9149171172
 20
-40.8027214394
 40
421.3953906648
100
AcDbArc
 50
176.9824251763
 51
177.4842935347
  0
ARC
  5
2F3
100
AcDbEntity
  8
RACCORDO
100
AcDbCircle
 62
7
  6
CONTINUOUS
 10
361.3093419014
 20
-21.6069602768
 40
387.182248299
100
AcDbArc
 50
176.8406141923
 51
177.0292735134
  0
ARC
  5
2F4
100
AcDbEntity
  8
RACCORDO
100
AcDbCircle
 62
253
  6
CONTINUOUS
 10
235.0858286187
 20
521.8127628486
 40
540.1541152895
100
AcDbArc
 50
246.6246657902
 51
247.5939990067
  0
ARC
  5
2F5
100
AcDbEntity
  8
RACCORDO
100
AcDbCircle
 62
253
  6
CONTINUOUS
 10
234.5019779591
 20
520.2289074746
 40
537.1062077337
100
AcDbArc
 50
246.5366901467
 51
247.597010303
  0
SPLINE
  5
2F6
100
AcDbEntity
  8
RACCORDO
100
AcDbSpline
 62
253
  6
CONTINUOUS
 70
0
 71
3
 72
9
 73
5
 74
3
 42
0.0000001
 43
0.0000001
 44
0.0000000001
 12
-1.3714515511
 22
1.9860801456
 32
0.0
 13
-1.6019275244
 23
1.805331523
 33
0.0
 40
0.0
 40
0.0
 40
0.0
 40
0.0
 40
0.2444360715
 40
1.0
 40
1.0
 40
1.0
 40
1.0
 10
-26.1579253891
 20
2.4823021351
 30
0.0
 10
-26.2696694656
 20
2.6441253447
 30
0.0
 10
-26.7375433161
 20
3.2987133399
 30
0.0
 10
-27.2468806287
 20
3.9234129156
 30
0.0
 10
-27.6503335132
 20
4.3780940415
 30
0.0
 11
-26.1579253891
 21
2.4823021351
 31
0.0
 11
-26.5008773577
 21
2.9623493778
 31
0.0
 11
-27.6503335132
 21
4.3780940415
 31
0.0
  0
LINE
  5
2F7
100
AcDbEntity
  8
RACCORDO
100
AcDbLine
 62
253
  6
CONTINUOUS
 10
-27.6503335132
 20
4.3780940415
 11
-27.6985027918
 21
4.4321985725
  0
LINE
  5
2F8
100
AcDbEntity
  8
RACCORDO
100
AcDbLine
 62
253
  6
CONTINUOUS
 10
-27.6985027918
 20
4.4321985725
 11
-27.7151882333
 21
4.4508561359
  0
SPLINE
  5
2F9
100
AcDbEntity
  8
RACCORDO
100
AcDbSpline
 62
253
  6
CONTINUOUS
 70
0
 71
3
 72
9
 73
5
 74
3
 42
0.0000001
 43
0.0000001
 44
0.0000000001
 12
-4.6122667723
 22
5.1514940652
 32
0.0
 13
-5.7389682664
 23
3.8568301907
 33
0.0
 40
0.0
 40
0.0
 40
0.0
 40
0.0
 40
0.4801991956
 40
1.0
 40
1.0
 40
1.0
 40
1.0
 10
-27.7151882333
 20
4.4508561359
 30
0.0
 10
-28.4534571646
 20
5.275437238
 30
0.0
 10
-30.121232926
 20
6.877985097
 30
0.0
 10
-31.971003813
 20
8.2617981341
 30
0.0
 10
-32.9653772535
 20
8.9300592794
 30
0.0
 11
-27.7151882333
 21
4.4508561359
 31
0.0
 11
-30.0971528093
 21
6.7640832837
 31
0.0
 11
-32.9653772535
 21
8.9300592794
 31
0.0
  0
SPLINE
  5
2FA
100
AcDbEntity
  8
RACCORDO
100
AcDbSpline
 62
253
  6
CONTINUOUS
 70
0
 71
3
 72
13
 73
9
 74
7
 42
0.0000001
 43
0.0000001
 44
0.0000000001
 12
-0.4618716453
 22
0.3103898683
 32
0.0
 13
-0.3682752286
 23
-0.4171817866
 33
0.0
 40
0.0
 40
0.0
 40
0.0
 40
0.0
 40
0.2871291981
 40
0.542800274
 40
0.6603762504
 40
0.7729868705
 40
0.8841823892
 40
1.0
 40
1.0
 40
1.0
 40
1.0
 10
-33.0846804404
 20
8.7557761329
 30
0.0
 10
-33.1288860521
 20
8.7854834643
 30
0.0
 10
-33.2169282234
 20
8.8354132094
 30
0.0
 10
-33.3354278685
 20
8.8723815338
 30
0.0
 10
-33.4258862997
 20
8.8774672178
 30
0.0
 10
-33.4890656334
 20
8.8680332427
 30
0.0
 10
-33.5477573096
 20
8.8430948427
 30
0.0
 10
-33.5805391098
 20
8.8154474446
 30
0.0
 10
-33.5947566955
 20
8.7993417787
 30
0.0
 11
-33.0846804404
 21
8.7557761329
 31
0.0
 11
-33.2246496322
 21
8.8328383163
 31
0.0
 11
-33.3613884719
 21
8.8721413413
 31
0.0
 11
-33.4267438783
 21
8.8752309296
 31
0.0
 11
-33.4886331158
 21
8.8653993405
 31
0.0
 11
-33.545411233
 21
8.8408003761
 31
0.0
 11
-33.5947566955
 21
8.7993417787
 31
0.0
  0
SPLINE
  5
2FB
100
AcDbEntity
  8
RACCORDO
100
AcDbSpline
 62
253
  6
CONTINUOUS
 70
0
 71
3
 72
9
 73
5
 74
3
 42
0.0000001
 43
0.0000001
 44
0.0000000001
 12
-0.0615472955
 22
-0.0697207107
 32
0.0
 13
-0.0326024277
 23
-0.0870983857
 33
0.0
 40
0.0
 40
0.0
 40
0.0
 40
0.0
 40
0.2347215532
 40
1.0
 40
1.0
 40
1.0
 40
1.0
 10
-33.5947566955
 20
8.7993417787
 30
0.0
 10
-33.5995721877
 20
8.7938867942
 30
0.0
 10
-33.618955405
 20
8.7696516875
 30
0.0
 10
-33.6334056364
 20
8.741631164
 30
0.0
 10
-33.6417222815
 20
8.7194129915
 30
0.0
 11
-33.5947566955
 21
8.7993417787
 31
0.0
 11
-33.6083997265
 21
8.7823012359
 31
0.0
 11
-33.6417222815
 21
8.7194129915
 31
0.0
  0
SPLINE
  5
2FC
100
AcDbEntity
  8
RACCORDO
100
AcDbSpline
 62
253
  6
CONTINUOUS
 70
0
 71
3
 72
9
 73
5
 74
3
 42
0.0000001
 43
0.0000001
 44
0.0000000001
 12
-0.0126745598
 22
-0.0338604753
 32
0.0
 13
-0.0088632275
 23
-0.0350516683
 33
0.0
 40
0.0
 40
0.0
 40
0.0
 40
0.0
 40
0.2436130983
 40
1.0
 40
1.0
 40
1.0
 40
1.0
 10
-33.6417222815
 20
8.7194129915
 30
0.0
 10
-33.6427515111
 20
8.7166633731
 30
0.0
 10
-33.646812924
 20
8.7053157866
 30
0.0
 10
-33.6502223696
 20
8.6937369503
 30
0.0
 10
-33.652457046
 20
8.6848994094
 30
0.0
 11
-33.6417222815
 21
8.7194129915
 31
0.0
 11
-33.6446916453
 21
8.7111208076
 31
0.0
 11
-33.652457046
 21
8.6848994094
 31
0.0
  0
SPLINE
  5
2FD
100
AcDbEntity
  8
RACCORDO
100
AcDbSpline
 62
253
  6
CONTINUOUS
 70
0
 71
3
 72
9
 73
5
 74
3
 42
0.0000001
 43
0.0000001
 44
0.0000000001
 12
-0.0125732293
 22
-0.0497237225
 32
0.0
 13
-0.0059830783
 23
-0.0509385655
 33
0.0
 40
0.0
 40
0.0
 40
0.0
 40
0.0
 40
0.2418951383
 40
1.0
 40
1.0
 40
1.0
 40
1.0
 10
-33.652457046
 20
8.6848994094
 30
0.0
 10
-33.653470847
 20
8.6808901005
 30
0.0
 10
-33.6573713238
 20
8.6642426973
 30
0.0
 10
-33.6601233329
 20
8.6473319909
 30
0.0
 10
-33.6616352664
 20
8.6344597329
 30
0.0
 11
-33.652457046
 21
8.6848994094
 31
0.0
 11
-33.6552906591
 21
8.672820842
 31
0.0
 11
-33.6616352664
 21
8.6344597329
 31
0.0
  0
SPLINE
  5
2FE
100
AcDbEntity
  8
RACCORDO
100
AcDbSpline
 62
253
  6
CONTINUOUS
 70
0
 71
3
 72
9
 73
5
 74
3
 42
0.0000001
 43
0.0000001
 44
0.0000000001
 12
-0.0049019639
 22
-0.0417342042
 32
0.0
 13
-0.0011827252
 23
-0.0420044547
 33
0.0
 40
0.0
 40
0.0
 40
0.0
 40
0.0
 40
0.2444028447
 40
1.0
 40
1.0
 40
1.0
 40
1.0
 10
-33.6616352664
 20
8.6344597329
 30
0.0
 10
-33.6620346177
 20
8.6310597468
 30
0.0
 10
-33.6635049916
 20
8.6171294039
 30
0.0
 10
-33.6643305371
 20
8.603132728
 30
0.0
 10
-33.6646284251
 20
8.5925532458
 30
0.0
 11
-33.6616352664
 21
8.6344597329
 31
0.0
 11
-33.6627148275
 21
8.6242465537
 31
0.0
 11
-33.6646284251
 21
8.5925532458
 31
0.0
  0
LINE
  5
2FF
100
AcDbEntity
  8
RACCORDO
100
AcDbLine
 62
253
  6
CONTINUOUS
 10
-25.4556577727
 20
0.9796458389
 11
-25.4918656218
 21
1.0438504916
  0
SPLINE
  5
300
100
AcDbEntity
  8
RACCORDO
100
AcDbSpline
 62
253
  6
CONTINUOUS
 70
0
 71
3
 72
9
 73
5
 74
3
 42
0.0000001
 43
0.0000001
 44
0.0000000001
 12
-1.471468074
 22
2.2041802593
 32
0.0
 13
-1.7555602569
 23
1.985355659
 33
0.0
 40
0.0
 40
0.0
 40
0.0
 40
0.0
 40
0.2438924866
 40
1.0
 40
1.0
 40
1.0
 40
1.0
 10
-26.1404715055
 20
2.0952447708
 30
0.0
 10
-26.2600981747
 20
2.2744391056
 30
0.0
 10
-26.7639375489
 20
3.0002109497
 30
0.0
 10
-27.319258659
 20
3.6898674591
 30
0.0
 10
-27.7617227591
 20
4.1902482359
 30
0.0
 11
-26.1404715055
 21
2.0952447708
 31
0.0
 11
-26.5089257665
 21
2.626311437
 31
0.0
 11
-27.7617227591
 21
4.1902482359
 31
0.0
  0
LINE
  5
301
100
AcDbEntity
  8
RACCORDO
100
AcDbLine
 62
253
  6
CONTINUOUS
 10
-27.7617227591
 20
4.1902482359
 11
-27.8078869269
 21
4.242286846
  0
LINE
  5
302
100
AcDbEntity
  8
RACCORDO
100
AcDbLine
 62
253
  6
CONTINUOUS
 10
-27.8078869269
 20
4.242286846
 11
-27.8507259041
 21
4.2902791789
  0
LINE
  5
303
100
AcDbEntity
  8
RACCORDO
100
AcDbLine
 62
253
  6
CONTINUOUS
 10
-27.8507259041
 20
4.2902791789
 11
-27.8655303437
 21
4.3067986338
  0
SPLINE
  5
304
100
AcDbEntity
  8
RACCORDO
100
AcDbSpline
 62
253
  6
CONTINUOUS
 70
0
 71
3
 72
9
 73
5
 74
3
 42
0.0000001
 43
0.0000001
 44
0.0000000001
 12
-4.588326493
 22
5.1146486268
 32
0.0
 13
-5.7029288197
 23
3.8326196602
 33
0.0
 40
0.0
 40
0.0
 40
0.0
 40
0.0
 40
0.4802694429
 40
1.0
 40
1.0
 40
1.0
 40
1.0
 10
-27.8655303437
 20
4.3067986338
 30
0.0
 10
-28.6000746798
 20
5.1256017826
 30
0.0
 10
-30.2583435989
 20
6.7169833446
 30
0.0
 10
-32.0966849828
 20
8.0917996158
 30
0.0
 10
-33.0846804404
 20
8.7557761329
 30
0.0
 11
-27.8655303437
 21
4.3067986338
 31
0.0
 11
-30.234441747
 21
6.6042329783
 31
0.0
 11
-33.0846804404
 21
8.7557761329
 31
0.0
  0
SPLINE
  5
305
100
AcDbEntity
  8
RACCORDO
100
AcDbSpline
 62
253
  6
CONTINUOUS
 70
0
 71
3
 72
10
 73
6
 74
4
 42
0.0000001
 43
0.0000001
 44
0.0000000001
 12
-0.0875531899
 22
0.3725442973
 32
0.0
 13
-0.1871694447
 23
0.3337999603
 33
0.0
 40
0.0
 40
0.0
 40
0.0
 40
0.0
 40
0.5617436519
 40
0.7983013076
 40
1.0
 40
1.0
 40
1.0
 40
1.0
 10
-25.3290969988
 20
0.619500851
 30
0.0
 10
-25.3454911483
 20
0.6892589823
 30
0.0
 10
-25.3728343744
 20
0.787648438
 30
0.0
 10
-25.418778427
 20
0.9067288183
 30
0.0
 10
-25.4430738286
 20
0.9572035004
 30
0.0
 10
-25.4556577727
 20
0.9796458389
 30
0.0
 11
-25.3290969988
 21
0.619500851
 31
0.0
 11
-25.388594346
 21
0.8260795307
 31
0.0
 11
-25.4215920497
 21
0.9103807367
 31
0.0
 11
-25.4556577727
 21
0.9796458389
 31
0.0
  0
LINE
  5
306
100
AcDbEntity
  8
RACCORDO
100
AcDbLine
 62
253
  6
CONTINUOUS
 10
-33.0846804404
 20
0.7876077115
 11
-33.0214518819
 21
0.745248312
  0
SPLINE
  5
307
100
AcDbEntity
  8
RACCORDO
100
AcDbSpline
 62
253
  6
CONTINUOUS
 70
0
 71
3
 72
9
 73
5
 74
3
 42
0.0000001
 43
0.0000001
 44
0.0000000001
 12
1.9555473683
 22
-1.6934798803
 32
0.0
 13
1.769472182
 23
-1.887063277
 33
0.0
 40
0.0
 40
0.0
 40
0.0
 40
0.0
 40
0.2561669541
 40
1.0
 40
1.0
 40
1.0
 40
1.0
 10
-29.9777594459
 20
-1.5680828132
 30
0.0
 10
-29.8107772416
 20
-1.7126873408
 30
0.0
 10
-29.1657743989
 20
-2.2850053127
 30
0.0
 10
-28.5489148326
 20
-2.8892961094
 30
0.0
 10
-28.110184205
 20
-3.3571827844
 30
0.0
 11
-29.9777594459
 21
-1.5680828132
 31
0.0
 11
-29.4821672186
 21
-2.0080033491
 31
0.0
 11
-28.110184205
 21
-3.3571827844
 31
0.0
  0
SPLINE
  5
308
100
AcDbEntity
  8
RACCORDO
100
AcDbSpline
 62
253
  6
CONTINUOUS
 70
0
 71
3
 72
9
 73
5
 74
3
 42
0.0000001
 43
0.0000001
 44
0.0000000001
 12
2.859156362
 22
-3.0491629249
 32
0.0
 13
2.1267803532
 23
-3.5984684207
 33
0.0
 40
0.0
 40
0.0
 40
0.0
 40
0.0
 40
0.2607943855
 40
1.0
 40
1.0
 40
1.0
 40
1.0
 10
-28.110184205
 20
-3.3571827844
 30
0.0
 10
-27.8616335629
 20
-3.6222509749
 30
0.0
 10
-26.9333410663
 20
-4.6612153928
 30
0.0
 10
-26.1086988018
 20
-5.7955120505
 30
0.0
 10
-25.5846561426
 20
-6.6821814039
 30
0.0
 11
-28.110184205
 21
-3.3571827844
 31
0.0
 11
-27.3844962574
 21
-4.1706470483
 31
0.0
 11
-25.5846561426
 21
-6.6821814039
 31
0.0
  0
SPLINE
  5
309
100
AcDbEntity
  8
RACCORDO
100
AcDbSpline
 62
253
  6
CONTINUOUS
 70
0
 71
3
 72
9
 73
5
 74
3
 42
0.0000001
 43
0.0000001
 44
0.0000000001
 12
0.000042607
 22
-0.0456700101
 32
0.0
 13
0.0035969882
 23
-0.0455281595
 33
0.0
 40
0.0
 40
0.0
 40
0.0
 40
0.0
 40
0.2450488347
 40
1.0
 40
1.0
 40
1.0
 40
1.0
 10
-33.6648355252
 20
1.7271691944
 30
0.0
 10
-33.6648320449
 20
1.7234387335
 30
0.0
 10
-33.6646569544
 20
1.7082157659
 30
0.0
 10
-33.6638619213
 20
1.6930016142
 30
0.0
 10
-33.6629567378
 20
1.6815444352
 30
0.0
 11
-33.6648355252
 21
1.7271691944
 31
0.0
 11
-33.6647090066
 21
1.7159785219
 31
0.0
 11
-33.6629567378
 21
1.6815444352
 31
0.0
  0
SPLINE
  5
30A
100
AcDbEntity
  8
RACCORDO
100
AcDbSpline
 62
253
  6
CONTINUOUS
 70
0
 71
3
 72
11
 73
7
 74
5
 42
0.0000001
 43
0.0000001
 44
0.0000000001
 12
0.0860924929
 22
-1.0896985189
 32
0.0
 13
0.9088278542
 23
-0.6073604455
 33
0.0
 40
0.0
 40
0.0
 40
0.0
 40
0.0
 40
0.2716539198
 40
0.5412897188
 40
0.7851652247
 40
1.0
 40
1.0
 40
1.0
 40
1.0
 10
-33.6629567378
 20
1.6815444352
 30
0.0
 10
-33.6551609501
 20
1.5828708105
 30
0.0
 10
-33.5966837415
 20
1.3899642137
 30
0.0
 10
-33.4520524498
 20
1.1417041783
 30
0.0
 10
-33.2790125822
 20
0.9387738843
 30
0.0
 10
-33.1497630497
 20
0.8311017598
 30
0.0
 10
-33.0846804404
 20
0.7876077115
 30
0.0
 11
-33.6629567378
 21
1.6815444352
 31
0.0
 11
-33.5860809582
 21
1.3947249081
 31
0.0
 11
-33.4397504924
 21
1.1388783205
 31
0.0
 11
-33.2663837922
 21
0.9363732866
 31
0.0
 11
-33.0846804404
 21
0.7876077115
 31
0.0
  0
SPLINE
  5
30B
100
AcDbEntity
  8
RACCORDO
100
AcDbSpline
 62
253
  6
CONTINUOUS
 70
0
 71
3
 72
16
 73
12
 74
10
 42
0.0000001
 43
0.0000001
 44
0.0000000001
 12
0.7622010598
 22
-0.742837495
 32
0.0
 13
0.0001561539
 23
1.0643110331
 33
0.0
 40
0.0
 40
0.0
 40
0.0
 40
0.0
 40
0.1481359486
 40
0.2743003654
 40
0.3815301487
 40
0.4310908869
 40
0.480021912
 40
0.5825565741
 40
0.7009641661
 40
0.8402657368
 40
1.0
 40
1.0
 40
1.0
 40
1.0
 10
-33.0189670759
 20
2.0947355347
 30
0.0
 10
-32.9813306169
 20
2.0580552224
 30
0.0
 10
-32.9060414417
 20
1.9953251373
 30
0.0
 10
-32.7844737709
 20
1.9327169911
 30
0.0
 10
-32.6827053661
 20
1.916563931
 30
0.0
 10
-32.610223615
 20
1.9291466801
 30
0.0
 10
-32.5438344626
 20
1.9567797231
 30
0.0
 10
-32.4708762947
 20
2.0231573924
 30
0.0
 10
-32.4109758179
 20
2.1379803817
 30
0.0
 10
-32.3753764681
 20
2.2827398836
 30
0.0
 10
-32.3684261525
 20
2.3890908058
 30
0.0
 10
-32.3684178381
 20
2.4457597854
 30
0.0
 11
-33.0189670759
 21
2.0947355347
 31
0.0
 11
-32.8964783408
 21
1.995467992
 31
0.0
 11
-32.7756422794
 21
1.9369079675
 31
0.0
 11
-32.6625017519
 21
1.9219437098
 31
0.0
 11
-32.6105523608
 21
1.9310879212
 31
0.0
 11
-32.5624840958
 21
1.9511264419
 31
0.0
 11
-32.4801192543
 21
2.0227163998
 31
0.0
 11
-32.4188566248
 21
2.1328461538
 31
0.0
 11
-32.3811446429
 21
2.2762298816
 31
0.0
 11
-32.3684178381
 21
2.4457597854
 31
0.0
  0
SPLINE
  5
30C
100
AcDbEntity
  8
RACCORDO
100
AcDbSpline
 62
253
  6
CONTINUOUS
 70
0
 71
3
 72
21
 73
17
 74
15
 42
0.0000001
 43
0.0000001
 44
0.0000000001
 12
-0.0012026026
 22
3.0802115767
 32
0.0
 13
0.0004417653
 23
-3.0802117798
 33
0.0
 40
0.0
 40
0.0
 40
0.0
 40
0.0
 40
0.149604014
 40
0.3094105409
 40
0.3876462347
 40
0.4618187326
 40
0.5301320411
 40
0.591336126
 40
0.6450302934
 40
0.6920291432
 40
0.7347387268
 40
0.7769697242
 40
0.8226703877
 40
0.8745266674
 40
0.9337273191
 40
1.0
 40
1.0
 40
1.0
 40
1.0
 10
-32.0892308803
 20
2.3468278613
 30
0.0
 10
-32.0892908517
 20
2.5004318666
 30
0.0
 10
-32.1310277077
 20
2.8183500363
 30
0.0
 10
-32.2576567941
 20
3.1982383807
 30
0.0
 10
-32.4033914491
 20
3.4843595717
 30
0.0
 10
-32.528228656
 20
3.6741406672
 30
0.0
 10
-32.6649166801
 20
3.8333195437
 30
0.0
 10
-32.8088317289
 20
3.9559243
 30
0.0
 10
-32.9553736781
 20
4.0373290375
 30
0.0
 10
-33.1004214688
 20
4.0734731285
 30
0.0
 10
-33.2384011559
 20
4.0596780903
 30
0.0
 10
-33.3594869124
 20
3.9946499062
 30
0.0
 10
-33.4556745992
 20
3.8848585431
 30
0.0
 10
-33.5250288595
 20
3.7379040663
 30
0.0
 10
-33.5666328285
 20
3.5596130976
 30
0.0
 10
-33.575000064
 20
3.4305075482
 30
0.0
 10
-33.574990305
 20
3.3624629175
 30
0.0
 11
-32.0892308803
 21
2.3468278613
 31
0.0
 11
-32.1435232473
 21
2.8044304019
 31
0.0
 11
-32.2993350015
 21
3.2713574825
 31
0.0
 11
-32.4092563355
 21
3.4858099701
 31
0.0
 11
-32.5356149639
 21
3.6761535253
 31
0.0
 11
-32.6738113243
 21
3.8348296577
 31
0.0
 11
-32.818631461
 21
3.9555255611
 31
0.0
 11
-32.964478087
 21
4.0335154203
 31
0.0
 11
-33.10560471
 21
4.0657736037
 31
0.0
 11
-33.2363477567
 21
4.0511839152
 31
0.0
 11
-33.3514284266
 21
3.990542722
 31
0.0
 11
-33.4461795639
 21
3.8864380922
 31
0.0
 11
-33.5167475373
 21
3.7431436434
 31
0.0
 11
-33.5602830623
 21
3.5660663159
 31
0.0
 11
-33.574990305
 21
3.3624629175
 31
0.0
  0
SPLINE
  5
30D
100
AcDbEntity
  8
RACCORDO
100
AcDbSpline
 62
253
  6
CONTINUOUS
 70
0
 71
3
 72
11
 73
7
 74
5
 42
0.0000001
 43
0.0000001
 44
0.0000000001
 12
0.0002125154
 22
-1.4368728222
 32
0.0
 13
0.8958063646
 23
-1.1234475997
 33
0.0
 40
0.0
 40
0.0
 40
0.0
 40
0.0
 40
0.239250299
 40
0.496285883
 40
0.7553985615
 40
1.0
 40
1.0
 40
1.0
 40
1.0
 10
-33.574990305
 20
3.3624629175
 30
0.0
 10
-33.5749733569
 20
3.2478721667
 30
0.0
 10
-33.5493953546
 20
3.009927812
 30
0.0
 10
-33.4520973727
 20
2.660069047
 30
0.0
 10
-33.3026602649
 20
2.3263457849
 30
0.0
 10
-33.1705107386
 20
2.1228334324
 30
0.0
 10
-33.0974722301
 20
2.0312344661
 30
0.0
 11
-33.574990305
 21
3.3624629175
 31
0.0
 11
-33.5414004235
 21
3.0203356255
 31
0.0
 11
-33.443708165
 21
2.6641629325
 31
0.0
 11
-33.2910238749
 21
2.3245989321
 31
0.0
 11
-33.0974722301
 21
2.0312344661
 31
0.0
  0
SPLINE
  5
30E
100
AcDbEntity
  8
RACCORDO
100
AcDbSpline
 62
253
  6
CONTINUOUS
 70
0
 71
3
 72
18
 73
14
 74
12
 42
0.0000001
 43
0.0000001
 44
0.0000000001
 12
1.011985469
 22
-1.2691499982
 32
0.0
 13
0.00035061
 23
1.6232240093
 33
0.0
 40
0.0
 40
0.0
 40
0.0
 40
0.0
 40
0.1589079762
 40
0.2956575897
 40
0.3554941289
 40
0.4101372529
 40
0.460646135
 40
0.5086423977
 40
0.5561664196
 40
0.6053401271
 40
0.7148808226
 40
0.8462050838
 40
1.0
 40
1.0
 40
1.0
 40
1.0
 10
-33.0974722301
 20
2.0312344661
 30
0.0
 10
-33.0438680425
 20
1.9640084469
 30
0.0
 10
-32.9350153943
 20
1.8457687309
 30
0.0
 10
-32.7784397293
 20
1.7306348903
 30
0.0
 10
-32.6538487061
 20
1.6749965951
 30
0.0
 10
-32.5669051305
 20
1.6526343601
 30
0.0
 10
-32.4834937027
 20
1.6483795178
 30
0.0
 10
-32.4050235997
 20
1.6628228386
 30
0.0
 10
-32.3331219331
 20
1.6957799262
 30
0.0
 10
-32.245065977
 20
1.7659139465
 30
0.0
 10
-32.1585439874
 20
1.9015055499
 30
0.0
 10
-32.1005260611
 20
2.1088132808
 30
0.0
 10
-32.0892488543
 20
2.2636133279
 30
0.0
 10
-32.0892308803
 20
2.3468278613
 30
0.0
 11
-33.0974722301
 21
2.0312344661
 31
0.0
 11
-32.9206845039
 21
1.8434025754
 31
0.0
 11
-32.7392861073
 21
1.7154665044
 31
0.0
 11
-32.650302311
 21
1.6765338236
 31
0.0
 11
-32.5642245517
 21
1.6551338149
 31
0.0
 11
-32.4823139099
 21
1.6515907966
 31
0.0
 11
-32.405745043
 21
1.6659773271
 31
0.0
 11
-32.335575736
 21
1.6980269349
 31
0.0
 11
-32.2728003978
 21
1.7473268382
 31
0.0
 11
-32.1725798176
 21
1.8942006214
 31
0.0
 11
-32.1103290545
 21
2.0980773896
 31
0.0
 11
-32.0892308803
 21
2.3468278613
 31
0.0
  0
SPLINE
  5
30F
100
AcDbEntity
  8
RACCORDO
100
AcDbSpline
 62
253
  6
CONTINUOUS
 70
0
 71
3
 72
17
 73
13
 74
11
 42
0.0000001
 43
0.0000001
 44
0.0000000001
 12
0.762336636
 22
-0.7438670743
 32
0.0
 13
0.0003017056
 23
1.0651268844
 33
0.0
 40
0.0
 40
0.0
 40
0.0
 40
0.0
 40
0.1481614762
 40
0.2743496266
 40
0.3815840575
 40
0.4311354381
 40
0.4800497571
 40
0.5825345918
 40
0.7008824232
 40
0.7678984225
 40
0.8403220073
 40
1.0
 40
1.0
 40
1.0
 40
1.0
 10
-33.0193994039
 20
5.5592588113
 30
0.0
 10
-32.9817497634
 20
5.52252133
 30
0.0
 10
-32.9064296154
 20
5.4596844822
 30
0.0
 10
-32.7848022134
 20
5.3969266103
 30
0.0
 10
-32.6829655781
 20
5.3806624286
 30
0.0
 10
-32.6104237981
 20
5.3931845211
 30
0.0
 10
-32.5439837999
 20
5.4207729874
 30
0.0
 10
-32.4709638073
 20
5.4871118023
 30
0.0
 10
-32.4230081463
 20
5.5789737005
 30
0.0
 10
-32.3952015025
 20
5.6662755232
 30
0.0
 10
-32.3738373308
 20
5.7704812354
 30
0.0
 10
-32.3684338967
 20
5.8531689596
 30
0.0
 10
-32.3684178381
 20
5.9098614005
 30
0.0
 11
-33.0193994039
 21
5.5592588113
 31
0.0
 11
-32.896860208
 21
5.4598184419
 31
0.0
 11
-32.7759546227
 21
5.4011079745
 31
0.0
 11
-32.6627362929
 21
5.3860273494
 31
0.0
 11
-32.6107484556
 21
5.3951287701
 31
0.0
 11
-32.5626428477
 21
5.4151351726
 31
0.0
 11
-32.4802089432
 21
5.4866922591
 31
0.0
 11
-32.4188942048
 21
5.5968307281
 31
0.0
 11
-32.396958562
 21
5.6647572313
 31
0.0
 11
-32.3811573662
 21
5.7402618649
 31
0.0
 11
-32.3684178381
 21
5.9098614005
 31
0.0
  0
SPLINE
  5
310
100
AcDbEntity
  8
RACCORDO
100
AcDbSpline
 62
253
  6
CONTINUOUS
 70
0
 71
3
 72
22
 73
18
 74
16
 42
0.0000001
 43
0.0000001
 44
0.0000000001
 12
-0.000656348
 22
3.0809387922
 32
0.0
 13
-0.0004570001
 23
-3.0809388283
 33
0.0
 40
0.0
 40
0.0
 40
0.0
 40
0.0
 40
0.0725212772
 40
0.1497974418
 40
0.3095658322
 40
0.3877824361
 40
0.4619371308
 40
0.5302358346
 40
0.5914273966
 40
0.6451105424
 40
0.6920990779
 40
0.7347988538
 40
0.7770202855
 40
0.8227109344
 40
0.8745560331
 40
0.9337453732
 40
1.0
 40
1.0
 40
1.0
 40
1.0
 10
-32.0892308803
 20
5.8109294765
 30
0.0
 10
-32.0892467467
 20
5.8854073485
 30
0.0
 10
-32.099376665
 20
6.0393576551
 30
0.0
 10
-32.1544312264
 20
6.3528511638
 30
0.0
 10
-32.2577034104
 20
6.6624175124
 30
0.0
 10
-32.4033933158
 20
6.9484513474
 30
0.0
 10
-32.5282396407
 20
7.1382482113
 30
0.0
 10
-32.6649218967
 20
7.2974306186
 30
0.0
 10
-32.808838615
 20
7.4200431761
 30
0.0
 10
-32.9553826643
 20
7.5014529056
 30
0.0
 10
-33.1004334352
 20
7.537599297
 30
0.0
 10
-33.238414594
 20
7.5237984262
 30
0.0
 10
-33.359498526
 20
7.4587634107
 30
0.0
 10
-33.4556825654
 20
7.3489671868
 30
0.0
 10
-33.5250448934
 20
7.2020106115
 30
0.0
 10
-33.5666205532
 20
7.023709432
 30
0.0
 10
-33.5749802122
 20
6.8946066834
 30
0.0
 10
-33.574990305
 20
6.8265645326
 30
0.0
 11
-32.0892308803
 21
5.8109294765
 31
0.0
 11
-32.1029249171
 21
6.0339430554
 31
0.0
 11
-32.1435324828
 21
6.2685376133
 31
0.0
 11
-32.2993449669
 21
6.7354630704
 31
0.0
 11
-32.409264709
 21
6.9499142016
 31
0.0
 11
-32.5356220577
 21
7.1402574979
 31
0.0
 11
-32.6738170038
 21
7.298941056
 31
0.0
 11
-32.8186386326
 21
7.4196444094
 31
0.0
 11
-32.9644882759
 21
7.4976394025
 31
0.0
 11
-33.1056171623
 21
7.529898422
 31
0.0
 11
-33.2363605348
 21
7.5153041232
 31
0.0
 11
-33.3514394931
 21
7.4546570378
 31
0.0
 11
-33.4461891065
 21
7.3505478133
 31
0.0
 11
-33.5167576936
 21
7.2072500395
 31
0.0
 11
-33.5602755227
 21
7.030159927
 31
0.0
 11
-33.574990305
 21
6.8265645326
 31
0.0
  0
SPLINE
  5
311
100
AcDbEntity
  8
RACCORDO
100
AcDbSpline
 62
253
  6
CONTINUOUS
 70
0
 71
3
 72
11
 73
7
 74
5
 42
0.0000001
 43
0.0000001
 44
0.0000000001
 12
-0.0002063459
 22
-1.4363413352
 32
0.0
 13
0.8951405529
 23
-1.1232986532
 33
0.0
 40
0.0
 40
0.0
 40
0.0
 40
0.0
 40
0.2392437803
 40
0.4962668629
 40
0.7553774776
 40
1.0
 40
1.0
 40
1.0
 40
1.0
 10
-33.574990305
 20
6.8265645326
 30
0.0
 10
-33.5750067607
 20
6.712019289
 30
0.0
 10
-33.5493946683
 20
6.4741723178
 30
0.0
 10
-33.4521855967
 20
6.1244459848
 30
0.0
 10
-33.3028434332
 20
5.7908230668
 30
0.0
 10
-33.1707814479
 20
5.5873531131
 30
0.0
 10
-33.0977909346
 20
5.4957583965
 30
0.0
 11
-33.574990305
 21
6.8265645326
 31
0.0
 11
-33.5414221408
 21
6.4845722866
 31
0.0
 11
-33.4437996772
 21
6.1285407276
 31
0.0
 11
-33.2912215188
 21
5.7890832564
 31
0.0
 11
-33.0977909346
 21
5.4957583965
 31
0.0
  0
SPLINE
  5
312
100
AcDbEntity
  8
RACCORDO
100
AcDbSpline
 62
253
  6
CONTINUOUS
 70
0
 71
3
 72
18
 73
14
 74
12
 42
0.0000001
 43
0.0000001
 44
0.0000000001
 12
1.0119434947
 22
-1.269872939
 32
0.0
 13
0.0006431627
 23
1.6237630689
 33
0.0
 40
0.0
 40
0.0
 40
0.0
 40
0.0
 40
0.1589292425
 40
0.295703201
 40
0.3555507702
 40
0.4102019286
 40
0.4607141676
 40
0.5087091955
 40
0.5562279235
 40
0.6053928529
 40
0.7149124483
 40
0.8462217205
 40
1.0
 40
1.0
 40
1.0
 40
1.0
 10
-33.0977909346
 20
5.4957583965
 30
0.0
 10
-33.0441817969
 20
5.4284850817
 30
0.0
 10
-32.9353133973
 20
5.3101540384
 30
0.0
 10
-32.7787052075
 20
5.1949059534
 30
0.0
 10
-32.6540781378
 20
5.1391807245
 30
0.0
 10
-32.5671061585
 20
5.1167611057
 30
0.0
 10
-32.4836637066
 20
5.1124591968
 30
0.0
 10
-32.4051615823
 20
5.1268670327
 30
0.0
 10
-32.3332283798
 20
5.1597991001
 30
0.0
 10
-32.2451299931
 20
5.2299101428
 30
0.0
 10
-32.1585599245
 20
5.3655106789
 30
0.0
 10
-32.1005325612
 20
5.5728637769
 30
0.0
 10
-32.0892638484
 20
5.7276963128
 30
0.0
 10
-32.0892308803
 20
5.8109294765
 30
0.0
 11
-33.0977909346
 21
5.4957583965
 31
0.0
 11
-32.9209808973
 21
5.3077824475
 31
0.0
 11
-32.7395396824
 21
5.1797106074
 31
0.0
 11
-32.6505284233
 21
5.1407155572
 31
0.0
 11
-32.5644207334
 21
5.1192598098
 31
0.0
 11
-32.482479344
 21
5.1156716179
 31
0.0
 11
-32.4058797961
 21
5.1300240796
 31
0.0
 11
-32.3356805824
 21
5.1620491732
 31
0.0
 11
-32.2728766521
 21
5.2113325065
 31
0.0
 11
-32.1726088082
 21
5.3582040536
 31
0.0
 11
-32.1103396993
 21
5.5621238026
 31
0.0
 11
-32.0892308803
 21
5.8109294765
 31
0.0
  0
SPLINE
  5
313
100
AcDbEntity
  8
RACCORDO
100
AcDbSpline
 62
253
  6
CONTINUOUS
 70
0
 71
3
 72
20
 73
16
 74
14
 42
0.0000001
 43
0.0000001
 44
0.0000000001
 12
-0.0003206455
 22
2.2169085368
 32
0.0
 13
-0.1676224316
 23
-2.2105624361
 33
0.0
 40
0.0
 40
0.0
 40
0.0
 40
0.0
 40
0.1495597859
 40
0.3096530018
 40
0.4637852644
 40
0.5338112961
 40
0.5970974988
 40
0.6529972029
 40
0.7019182741
 40
0.7457261131
 40
0.7877395083
 40
0.8318385613
 40
0.8810438745
 40
0.936977814
 40
1.0
 40
1.0
 40
1.0
 40
1.0
 10
-32.3684178381
 20
5.9098614005
 30
0.0
 10
-32.3684338233
 20
6.0203815226
 30
0.0
 10
-32.3971018646
 20
6.2494781719
 30
0.0
 10
-32.5018232348
 20
6.577382695
 30
0.0
 10
-32.6377294229
 20
6.8294783372
 30
0.0
 10
-32.7710856327
 20
6.9955313838
 30
0.0
 10
-32.8738975311
 20
7.0911874695
 30
0.0
 10
-32.9793836741
 20
7.15844256
 30
0.0
 10
-33.0845988291
 20
7.1943978535
 30
0.0
 10
-33.1861690219
 20
7.1961701922
 30
0.0
 10
-33.2782899432
 20
7.1618013765
 30
0.0
 10
-33.3545331345
 20
7.0942103386
 30
0.0
 10
-33.4125888393
 20
6.998998242
 30
0.0
 10
-33.4518738626
 20
6.8802610848
 30
0.0
 10
-33.4644049555
 20
6.7928293733
 30
0.0
 10
-33.4679262661
 20
6.7463912143
 30
0.0
 11
-32.3684178381
 21
5.9098614005
 31
0.0
 11
-32.4057496677
 21
6.2393133898
 31
0.0
 11
-32.5136008572
 21
6.5774415656
 31
0.0
 11
-32.6791611693
 21
6.8763507714
 31
0.0
 11
-32.7771342404
 21
6.9967714565
 31
0.0
 11
-32.8807380813
 21
7.0913772537
 31
0.0
 11
-32.9861598699
 21
7.1565196842
 31
0.0
 11
-33.0894032773
 21
7.1897306683
 31
0.0
 11
-33.18652092
 21
7.1899840885
 31
0.0
 11
-33.2738262053
 21
7.1575369032
 31
0.0
 11
-33.3480205685
 21
7.0938744205
 31
0.0
 11
-33.4063927729
 21
7.0017227249
 31
0.0
 11
-33.4468443037
 21
6.8845059166
 31
0.0
 11
-33.4679262661
 21
6.7463912143
 31
0.0
  0
SPLINE
  5
314
100
AcDbEntity
  8
RACCORDO
100
AcDbSpline
 62
253
  6
CONTINUOUS
 70
0
 71
3
 72
20
 73
16
 74
14
 42
0.0000001
 43
0.0000001
 44
0.0000000001
 12
-0.0006190223
 22
2.2168594464
 32
0.0
 13
-0.1676819186
 23
-2.2105087565
 33
0.0
 40
0.0
 40
0.0
 40
0.0
 40
0.0
 40
0.1495600024
 40
0.3096545628
 40
0.4637889362
 40
0.5338159656
 40
0.5971031845
 40
0.6530038587
 40
0.7019260876
 40
0.7457346485
 40
0.7877478721
 40
0.831846167
 40
0.8810502862
 40
0.9369819977
 40
1.0
 40
1.0
 40
1.0
 40
1.0
 10
-32.3684178381
 20
2.4457597854
 30
0.0
 10
-32.3684486984
 20
2.5562776201
 30
0.0
 10
-32.397085782
 20
2.7853711433
 30
0.0
 10
-32.5018148192
 20
3.1132716875
 30
0.0
 10
-32.6377159882
 20
3.3653655297
 30
0.0
 10
-32.7710737466
 20
3.5314155722
 30
0.0
 10
-32.8738858841
 20
3.6270698783
 30
0.0
 10
-32.9793709499
 20
3.6943255973
 30
0.0
 10
-33.0845845186
 20
3.7302836578
 30
0.0
 10
-33.1861532612
 20
3.7320623332
 30
0.0
 10
-33.2782748504
 20
3.6977025973
 30
0.0
 10
-33.3545212988
 20
3.6301204424
 30
0.0
 10
-33.4125772079
 20
3.5349145272
 30
0.0
 10
-33.4518647108
 20
3.4161878957
 30
0.0
 10
-33.4644067502
 20
3.3287643376
 30
0.0
 10
-33.4679290767
 20
3.282330389
 30
0.0
 11
-32.3684178381
 21
2.4457597854
 31
0.0
 11
-32.4057428387
 21
2.7752056519
 31
0.0
 11
-32.5135898147
 21
3.1133300618
 31
0.0
 11
-32.6791485272
 21
3.4122368646
 31
0.0
 11
-32.7771221543
 21
3.5326555226
 31
0.0
 11
-32.8807260849
 21
3.6272599609
 31
0.0
 11
-32.9861467539
 21
3.6924030807
 31
0.0
 11
-33.0893892848
 21
3.7256173384
 31
0.0
 11
-33.1865063644
 21
3.725876666
 31
0.0
 11
-33.2738120535
 21
3.6934375724
 31
0.0
 11
-33.3480084289
 21
3.6297833362
 31
0.0
 11
-33.4063818189
 21
3.5376383807
 31
0.0
 11
-33.4468374203
 21
3.4204311036
 31
0.0
 11
-33.4679290767
 21
3.282330389
 31
0.0
  0
SPLINE
  5
315
100
AcDbEntity
  8
RACCORDO
100
AcDbSpline
 62
253
  6
CONTINUOUS
 70
0
 71
3
 72
14
 73
10
 74
8
 42
0.0000001
 43
0.0000001
 44
0.0000000001
 12
-0.7881186576
 22
0.4279736414
 32
0.0
 13
-0.1531653053
 23
-0.8836474668
 33
0.0
 40
0.0
 40
0.0
 40
0.0
 40
0.0
 40
0.2725807723
 40
0.3965810344
 40
0.5135159563
 40
0.6261163392
 40
0.7395559279
 40
0.8615446345
 40
1.0
 40
1.0
 40
1.0
 40
1.0
 10
-32.965377253
 20
8.9300592825
 30
0.0
 10
-33.0369859171
 20
8.9689450778
 30
0.0
 10
-33.1484106774
 20
9.0150592479
 30
0.0
 10
-33.3010177868
 20
9.0374132804
 30
0.0
 10
-33.407442278
 20
9.0314458794
 30
0.0
 10
-33.5063876036
 20
8.9997976482
 30
0.0
 10
-33.5926163367
 20
8.938234676
 30
0.0
 10
-33.6578652444
 20
8.8449938117
 30
0.0
 10
-33.6807216625
 20
8.7692164055
 30
0.0
 10
-33.6877905152
 20
8.7284344946
 30
0.0
 11
-32.965377253
 21
8.9300592825
 31
0.0
 11
-33.1931947354
 21
9.0187066024
 31
0.0
 11
-33.3033630587
 21
9.0338655483
 31
0.0
 11
-33.4080002136
 21
9.0268812323
 31
0.0
 11
-33.50386101
 21
8.9951289398
 31
0.0
 11
-33.5864945057
 21
8.9357843926
 31
0.0
 11
-33.6500344092
 21
8.8467251237
 31
0.0
 11
-33.6877905152
 21
8.7284344946
 31
0.0
  0
SPLINE
  5
316
100
AcDbEntity
  8
RACCORDO
100
AcDbSpline
 62
253
  6
CONTINUOUS
 70
0
 71
3
 72
11
 73
7
 74
5
 42
0.0000001
 43
0.0000001
 44
0.0000000001
 12
0.0001925906
 22
0.2220359105
 32
0.0
 13
0.2073942522
 23
0.079294431
 33
0.0
 40
0.0
 40
0.0
 40
0.0
 40
0.0
 40
0.241073678
 40
0.5011674929
 40
0.7606104927
 40
1.0
 40
1.0
 40
1.0
 40
1.0
 10
-33.0846804699
 20
8.7557761219
 30
0.0
 10
-33.0846649938
 20
8.7736184598
 30
0.0
 10
-33.0775610343
 20
8.8107836737
 30
0.0
 10
-33.0519142713
 20
8.8615998677
 30
0.0
 10
-33.0139197892
 20
8.9038193766
 30
0.0
 10
-32.9819266099
 20
8.9237321207
 30
0.0
 10
-32.965377274
 20
8.930059539
 30
0.0
 11
-33.0846804699
 21
8.7557761219
 31
0.0
 11
-33.075564294
 21
8.8085211565
 31
0.0
 11
-33.0497640719
 21
8.8601877109
 31
0.0
 11
-33.011016929
 21
8.9028148593
 31
0.0
 11
-32.965377274
 21
8.930059539
 31
0.0
  0
SPLINE
  5
317
100
AcDbEntity
  8
RACCORDO
100
AcDbSpline
 62
253
  6
CONTINUOUS
 70
0
 71
3
 72
9
 73
5
 74
3
 42
0.0000001
 43
0.0000001
 44
0.0000000001
 12
-0.0484195807
 22
0.0311212424
 32
0.0
 13
-0.0001608384
 23
0.0575583327
 33
0.0
 40
0.0
 40
0.0
 40
0.0
 40
0.0
 40
0.5547110361
 40
1.0
 40
1.0
 40
1.0
 40
1.0
 10
-33.6648355252
 20
8.5777215562
 30
0.0
 10
-33.6737884838
 20
8.5834759884
 30
0.0
 10
-33.689051479
 20
8.5959549507
 30
0.0
 10
-33.6964137474
 20
8.6151420201
 30
0.0
 10
-33.6964376206
 20
8.6236853835
 30
0.0
 11
-33.6648355252
 21
8.5777215562
 31
0.0
 11
-33.6882904997
 21
8.5993845382
 31
0.0
 11
-33.6964376206
 21
8.6236853835
 31
0.0
  0
SPLINE
  5
318
100
AcDbEntity
  8
RACCORDO
100
AcDbSpline
 62
253
  6
CONTINUOUS
 70
0
 71
3
 72
9
 73
5
 74
3
 42
0.0000001
 43
0.0000001
 44
0.0000000001
 12
-0.0484889888
 22
0.0311664223
 32
0.0
 13
-0.0000287105
 23
0.0576413662
 33
0.0
 40
0.0
 40
0.0
 40
0.0
 40
0.0
 40
0.5547553363
 40
1.0
 40
1.0
 40
1.0
 40
1.0
 10
-33.6648355252
 20
1.7271691944
 30
0.0
 10
-33.6738020336
 20
1.7329324408
 30
0.0
 10
-33.6890886013
 20
1.7454324943
 30
0.0
 10
-33.6964334997
 20
1.7646647937
 30
0.0
 10
-33.6964377608
 20
1.7732196306
 30
0.0
 11
-33.6648355252
 21
1.7271691944
 31
0.0
 11
-33.6883185672
 21
1.7488732557
 31
0.0
 11
-33.6964377608
 21
1.7732196306
 31
0.0
  0
SPLINE
  5
319
100
AcDbEntity
  8
RACCORDO
100
AcDbSpline
 62
253
  6
CONTINUOUS
 70
0
 71
3
 72
9
 73
5
 74
3
 42
0.0000001
 43
0.0000001
 44
0.0000000001
 12
0.0000786583
 22
-0.0907060302
 32
0.0
 13
0.0754112886
 23
-0.0504056312
 33
0.0
 40
0.0
 40
0.0
 40
0.0
 40
0.0
 40
0.5311897189
 40
1.0
 40
1.0
 40
1.0
 40
1.0
 10
-33.0846856543
 20
0.7876057667
 30
0.0
 10
-33.0846717268
 20
0.7715450631
 30
0.0
 10
-33.0795381503
 20
0.7406998985
 30
0.0
 10
-33.0596058077
 20
0.7156058249
 30
0.0
 10
-33.0478212786
 20
0.7077289322
 30
0.0
 11
-33.0846856543
 21
0.7876057667
 31
0.0
 11
-33.0750422636
 21
0.7403985368
 31
0.0
 11
-33.0478212786
 21
0.7077289322
 31
0.0
  0
SPLINE
  5
31A
100
AcDbEntity
  8
RACCORDO
100
AcDbSpline
 62
253
  6
CONTINUOUS
 70
0
 71
3
 72
9
 73
5
 74
3
 42
0.0000001
 43
0.0000001
 44
0.0000000001
 12
0.0001412883
 22
0.1053600484
 32
0.0
 13
0.0717340948
 23
0.077168513
 33
0.0
 40
0.0
 40
0.0
 40
0.0
 40
0.0
 40
0.4826945219
 40
1.0
 40
1.0
 40
1.0
 40
1.0
 10
-25.4556580721
 20
0.9796457966
 30
0.0
 10
-25.4556353391
 20
0.996598036
 30
0.0
 10
-25.4476459162
 20
1.0318939301
 30
0.0
 10
-25.4277355069
 20
1.0617465393
 30
0.0
 10
-25.4153660269
 20
1.0750531042
 30
0.0
 11
-25.4556580721
 21
0.9796457966
 31
0.0
 11
-25.4451449195
 21
1.0294040527
 31
0.0
 11
-25.4153660269
 21
1.0750531042
 31
0.0
  0
SPLINE
  5
31B
100
AcDbEntity
  8
RACCORDO
100
AcDbSpline
 62
7
  6
CONTINUOUS
 70
0
 71
3
 72
9
 73
5
 74
3
 42
0.0000001
 43
0.0000001
 44
0.0000000001
 12
0.1323687633
 22
0.0634104184
 32
0.0
 13
0.1415793196
 23
0.0386997018
 33
0.0
 40
0.0
 40
0.0
 40
0.0
 40
0.0
 40
0.2475292672
 40
1.0
 40
1.0
 40
1.0
 40
1.0
 10
11.2731537867
 20
-17.4452593519
 30
0.0
 10
11.284075501
 20
-17.4400273738
 30
0.0
 10
11.3286974904
 20
-17.4199420411
 30
0.0
 10
11.37517074
 20
-17.4040235718
 30
0.0
 10
11.4106821715
 20
-17.3943167742
 30
0.0
 11
11.2731537867
 21
-17.4452593519
 31
0.0
 11
11.3062794258
 21
-17.4303392652
 31
0.0
 11
11.4106821715
 21
-17.3943167742
 31
0.0
  0
SPLINE
  5
31C
100
AcDbEntity
  8
RACCORDO
100
AcDbSpline
 62
7
  6
CONTINUOUS
 70
0
 71
3
 72
9
 73
5
 74
3
 42
0.0000001
 43
0.0000001
 44
0.0000000001
 12
0.1738785071
 22
0.0349639722
 32
0.0
 13
0.1773274094
 23
0.0033473053
 33
0.0
 40
0.0
 40
0.0
 40
0.0
 40
0.0
 40
0.2471227334
 40
1.0
 40
1.0
 40
1.0
 40
1.0
 10
11.4704819258
 20
-17.3801685994
 30
0.0
 10
11.4848050365
 20
-17.3772884686
 30
0.0
 10
11.5430357404
 20
-17.3670091526
 30
0.0
 10
11.6021955568
 20
-17.362135717
 30
0.0
 10
11.6466974819
 20
-17.3612956803
 30
0.0
 11
11.4704819258
 21
-17.3801685994
 31
0.0
 11
11.5136420385
 21
-17.3725380985
 31
0.0
 11
11.6466974819
 21
-17.3612956803
 31
0.0
  0
SPLINE
  5
31D
100
AcDbEntity
  8
RACCORDO
100
AcDbSpline
 62
253
  6
CONTINUOUS
 70
0
 71
3
 72
9
 73
5
 74
3
 42
0.0000001
 43
0.0000001
 44
0.0000000001
 12
-11.3369515243
 22
4.1008335667
 32
0.0
 13
-11.8668215398
 23
2.1264647538
 33
0.0
 40
0.0
 40
0.0
 40
0.0
 40
0.0
 40
0.4870579313
 40
1.0
 40
1.0
 40
1.0
 40
1.0
 10
26.8770094602
 20
-21.0370243453
 30
0.0
 10
25.0364254079
 20
-20.371243174
 30
0.0
 10
21.1896695119
 20
-19.187549267
 30
0.0
 10
17.2589509647
 20
-18.3296884857
 30
0.0
 10
15.229953635
 20
-17.9661040758
 30
0.0
 11
26.8770094602
 21
-21.0370243453
 31
0.0
 11
21.269321394
 21
-19.2954840655
 31
0.0
 11
15.229953635
 21
-17.9661040758
 31
0.0
  0
LINE
  5
31E
100
AcDbEntity
  8
RACCORDO
100
AcDbLine
 62
253
  6
CONTINUOUS
 10
11.8075408437
 20
-17.4259123808
 11
11.7306771004
 21
-17.4154171597
  0
SPLINE
  5
31F
100
AcDbEntity
  8
RACCORDO
100
AcDbSpline
 62
253
  6
CONTINUOUS
 70
0
 71
3
 72
13
 73
9
 74
7
 42
0.0000001
 43
0.0000001
 44
0.0000000001
 12
0.6349908786
 22
0.0250315455
 32
0.0
 13
0.00093159
 23
0.6354833801
 33
0.0
 40
0.0
 40
0.0
 40
0.0
 40
0.0
 40
0.2354301968
 40
0.3498931866
 40
0.4651248857
 40
0.5845388091
 40
0.7118741515
 40
1.0
 40
1.0
 40
1.0
 40
1.0
 10
27.6594739375
 20
-29.4979692549
 30
0.0
 10
27.7093059466
 20
-29.496004861
 30
0.0
 10
27.7840154626
 20
-29.4832491726
 30
0.0
 10
27.8733866636
 20
-29.4404896754
 30
0.0
 10
27.9325952524
 20
-29.3952068422
 30
0.0
 10
27.9821067887
 20
-29.3357930045
 30
0.0
 10
28.0339730989
 20
-29.2341691941
 30
0.0
 10
28.0472817943
 20
-29.1443655884
 30
0.0
 10
28.047371266
 20
-29.0833325257
 30
0.0
 11
27.6594739375
 21
-29.4979692549
 31
0.0
 11
27.8064582086
 21
-29.4700512344
 31
0.0
 11
27.8719529835
 21
-29.4384054508
 31
0.0
 11
27.9300287045
 21
-29.3938012224
 31
0.0
 11
27.9787226525
 21
-29.3355987262
 31
0.0
 11
28.015847153
 21
-29.2636977525
 31
0.0
 11
28.047371266
 21
-29.0833325257
 31
0.0
  0
SPLINE
  5
320
100
AcDbEntity
  8
RACCORDO
100
AcDbSpline
 62
253
  6
CONTINUOUS
 70
0
 71
3
 72
9
 73
5
 74
3
 42
0.0000001
 43
0.0000001
 44
0.0000000001
 12
0.1085575859
 22
-0.0404212517
 32
0.0
 13
0.1118034527
 23
-0.0303086622
 33
0.0
 40
0.0
 40
0.0
 40
0.0
 40
0.0
 40
0.2533453104
 40
1.0
 40
1.0
 40
1.0
 40
1.0
 10
27.1791082304
 20
-29.3376740143
 30
0.0
 10
27.1882757488
 20
-29.3410875258
 30
0.0
 10
27.2246062933
 20
-29.3541678352
 30
0.0
 10
27.2615195154
 20
-29.3656428665
 30
0.0
 10
27.2893457061
 20
-29.3731862348
 30
0.0
 11
27.1791082304
 21
-29.3376740143
 31
0.0
 11
27.2067214934
 21
-29.347612163
 31
0.0
 11
27.2893457061
 21
-29.3731862348
 31
0.0
  0
SPLINE
  5
321
100
AcDbEntity
  8
RACCORDO
100
AcDbSpline
 62
253
  6
CONTINUOUS
 70
0
 71
3
 72
14
 73
10
 74
8
 42
0.0000001
 43
0.0000001
 44
0.0000000001
 12
0.8159956169
 22
-0.221207261
 32
0.0
 13
0.0000048974
 23
0.8454475141
 33
0.0
 40
0.0
 40
0.0
 40
0.0
 40
0.0
 40
0.2656909071
 40
0.39031939
 40
0.5097203377
 40
0.6254104963
 40
0.7411163738
 40
0.8635448096
 40
1.0
 40
1.0
 40
1.0
 40
1.0
 10
27.2893457061
 20
-29.3731862348
 30
0.0
 10
27.3616132447
 20
-29.392777154
 30
0.0
 10
27.4713233724
 20
-29.411898909
 30
0.0
 10
27.6153668372
 20
-29.4066252421
 30
0.0
 10
27.7151455454
 20
-29.3852831244
 30
0.0
 10
27.8057266338
 20
-29.3430646459
 30
0.0
 10
27.8813880122
 20
-29.2753898356
 30
0.0
 10
27.9319770412
 20
-29.1801974084
 30
0.0
 10
27.942115961
 20
-29.1064109767
 30
0.0
 10
27.9421161837
 20
-29.0679557429
 30
0.0
 11
27.2893457061
 21
-29.3731862348
 31
0.0
 11
27.5112469434
 21
-29.4080782408
 31
0.0
 11
27.6165122366
 21
-29.403453389
 31
0.0
 11
27.7150126817
 21
-29.3813625209
 31
0.0
 11
27.8031557934
 21
-29.3389646491
 31
0.0
 11
27.8755210937
 21
-29.2731417741
 31
0.0
 11
27.9245310284
 21
-29.1819733179
 31
0.0
 11
27.9421161837
 21
-29.0679557429
 31
0.0
  0
LINE
  5
322
100
AcDbEntity
  8
RACCORDO
100
AcDbLine
 62
253
  6
CONTINUOUS
 10
11.6911787883
 20
-25.5011944172
 11
11.7211423968
 21
-25.5055071788
  0
SPLINE
  5
323
100
AcDbEntity
  8
RACCORDO
100
AcDbSpline
 62
253
  6
CONTINUOUS
 70
0
 71
3
 72
9
 73
5
 74
3
 42
0.0000001
 43
0.0000001
 44
0.0000000001
 12
12.7337651962
 22
-1.8350424147
 32
0.0
 13
12.2601045034
 23
-3.8994864152
 33
0.0
 40
0.0
 40
0.0
 40
0.0
 40
0.0
 40
0.5115330372
 40
1.0
 40
1.0
 40
1.0
 40
1.0
 10
11.7211423968
 20
-25.5055071788
 30
0.0
 10
13.8923895923
 20
-25.8184021188
 30
0.0
 10
18.1160567663
 20
-26.5877744904
 30
0.0
 10
22.2647569289
 20
-27.6974065369
 30
0.0
 10
24.2609755988
 20
-28.3323299654
 30
0.0
 11
11.7211423968
 21
-25.5055071788
 31
0.0
 11
18.1938638663
 21
-26.6945552953
 31
0.0
 11
24.2609755988
 21
-28.3323299654
 31
0.0
  0
SPLINE
  5
324
100
AcDbEntity
  8
RACCORDO
100
AcDbSpline
 62
253
  6
CONTINUOUS
 70
0
 71
3
 72
13
 73
9
 74
7
 42
0.0000001
 43
0.0000001
 44
0.0000000001
 12
0.0001302281
 22
-1.0528737758
 32
0.0
 13
1.0421347165
 23
-0.1499947907
 33
0.0
 40
0.0
 40
0.0
 40
0.0
 40
0.0
 40
0.1145758668
 40
0.2340561896
 40
0.3580038012
 40
0.4853552164
 40
0.7438031115
 40
1.0
 40
1.0
 40
1.0
 40
1.0
 10
10.9751063813
 20
-24.8383384222
 30
0.0
 10
10.9751113549
 20
-24.8785497307
 30
0.0
 10
10.9865764196
 20
-24.9609932284
 30
0.0
 10
11.0337615175
 20
-25.0785271886
 30
0.0
 10
11.1068283426
 20
-25.1872373538
 30
0.0
 10
11.2323514422
 20
-25.315806342
 30
0.0
 10
11.4263487265
 20
-25.4370593021
 30
0.0
 10
11.6021815644
 20
-25.4883850176
 30
0.0
 10
11.6911787883
 20
-25.5011944172
 30
0.0
 11
10.9751063813
 21
-24.8383384222
 31
0.0
 11
10.9909811393
 21
-24.9579232718
 31
0.0
 11
11.0369999563
 21
-25.0750015777
 31
0.0
 11
11.1091643576
 21
-25.1837345532
 31
0.0
 11
11.202420774
 21
-25.2800777888
 31
0.0
 11
11.4321530594
 21
-25.4259152634
 31
0.0
 11
11.6911787883
 21
-25.5011944172
 31
0.0
  0
SPLINE
  5
325
100
AcDbEntity
  8
RACCORDO
100
AcDbSpline
 62
253
  6
CONTINUOUS
 70
0
 71
3
 72
14
 73
10
 74
8
 42
0.0000001
 43
0.0000001
 44
0.0000000001
 12
-0.9593071522
 22
0.1304554741
 32
0.0
 13
-0.0005900075
 23
-0.9681366096
 33
0.0
 40
0.0
 40
0.0
 40
0.0
 40
0.0
 40
0.2675761275
 40
0.3963004519
 40
0.5211682681
 40
0.6424983522
 40
0.7613257287
 40
0.8796753043
 40
1.0
 40
1.0
 40
1.0
 40
1.0
 10
11.6911787883
 20
-17.6170775505
 30
0.0
 10
11.605616224
 20
-17.6054419603
 30
0.0
 10
11.4750313474
 20
-17.606016838
 30
0.0
 10
11.3115949875
 20
-17.6484469968
 30
0.0
 10
11.201261446
 20
-17.7000355061
 30
0.0
 10
11.1065330912
 20
-17.7716916107
 30
0.0
 10
11.0326705136
 20
-17.862384739
 30
0.0
 10
10.9855380683
 20
-17.9692544444
 30
0.0
 10
10.9751300454
 20
-18.0467500054
 30
0.0
 10
10.9751063813
 20
-18.0855802531
 30
0.0
 11
11.6911787883
 21
-17.6170775505
 31
0.0
 11
11.4321533317
 21
-17.6206646338
 31
0.0
 11
11.3116474877
 21
-17.6524321075
 31
0.0
 11
11.2024224988
 21
-17.7042402415
 31
0.0
 11
11.109162001
 21
-17.7756566163
 31
0.0
 11
11.0369888456
 21
-17.8652417877
 31
0.0
 11
10.9909762952
 21
-17.9701755562
 31
0.0
 11
10.9751063813
 21
-18.0855802531
 31
0.0
  0
SPLINE
  5
326
100
AcDbEntity
  8
RACCORDO
100
AcDbSpline
 62
253
  6
CONTINUOUS
 70
0
 71
3
 72
9
 73
5
 74
3
 42
0.0000001
 43
0.0000001
 44
0.0000000001
 12
-11.6481550954
 22
4.3056267852
 32
0.0
 13
-12.2234057033
 23
2.1923257406
 33
0.0
 40
0.0
 40
0.0
 40
0.0
 40
0.0
 40
0.4864500969
 40
1.0
 40
1.0
 40
1.0
 40
1.0
 10
27.1791082304
 20
-21.3695055929
 30
0.0
 10
25.2903595055
 20
-20.6713480706
 30
0.0
 10
21.3331525977
 20
-19.4332544842
 30
0.0
 10
17.2851520688
 20
-18.543659472
 30
0.0
 10
15.1927091305
 20
-18.1683699147
 30
0.0
 11
27.1791082304
 21
-21.3695055929
 31
0.0
 11
21.4189073079
 21
-19.5492730864
 31
0.0
 11
15.1927091305
 21
-18.1683699147
 31
0.0
  0
SPLINE
  5
327
100
AcDbEntity
  8
RACCORDO
100
AcDbSpline
 62
253
  6
CONTINUOUS
 70
0
 71
3
 72
12
 73
8
 74
6
 42
0.0000001
 43
0.0000001
 44
0.0000000001
 12
-0.001425283
 22
1.1970545924
 32
0.0
 13
-1.1228276348
 23
0.4149696751
 33
0.0
 40
0.0
 40
0.0
 40
0.0
 40
0.0
 40
0.2498838244
 40
0.3824856994
 40
0.5135453009
 40
0.7648517146
 40
1.0
 40
1.0
 40
1.0
 40
1.0
 10
27.9421161837
 20
-22.2174033811
 30
0.0
 10
27.9419974653
 20
-22.1176951879
 30
0.0
 10
27.8893834713
 20
-21.9656651748
 30
0.0
 10
27.7755923814
 20
-21.7956919598
 30
0.0
 10
27.6379390962
 20
-21.6420448201
 30
0.0
 10
27.4422713954
 20
-21.4891561821
 30
0.0
 10
27.2671185614
 20
-21.4020320621
 30
0.0
 10
27.1791082304
 20
-21.3695055929
 30
0.0
 11
27.9421161837
 21
-22.2174033811
 31
0.0
 11
27.8595336515
 21
-21.9299042223
 31
0.0
 11
27.7722012923
 21
-21.7973567135
 31
0.0
 11
27.6678553436
 21
-21.6802028944
 31
0.0
 11
27.4315434103
 21
-21.4940470963
 31
0.0
 11
27.1791082304
 21
-21.3695055929
 31
0.0
  0
SPLINE
  5
328
100
AcDbEntity
  8
RACCORDO
100
AcDbSpline
 62
253
  6
CONTINUOUS
 70
0
 71
3
 72
19
 73
15
 74
13
 42
0.0000001
 43
0.0000001
 44
0.0000000001
 12
0.0015605901
 22
-3.3752073827
 32
0.0
 13
-0.0007532064
 23
3.3752076594
 33
0.0
 40
0.0
 40
0.0
 40
0.0
 40
0.0
 40
0.1340167656
 40
0.2783852764
 40
0.4229401827
 40
0.5567810319
 40
0.6175949189
 40
0.6740015065
 40
0.7268175399
 40
0.7776644201
 40
0.82865696
 40
0.8818406269
 40
0.9387673458
 40
1.0
 40
1.0
 40
1.0
 40
1.0
 10
25.7909064419
 20
-23.1256114718
 30
0.0
 10
25.790976157
 20
-23.2763895973
 30
0.0
 10
25.8515801179
 20
-23.5905487913
 30
0.0
 10
26.0752182719
 20
-24.0168191613
 30
0.0
 10
26.4023169082
 20
-24.3696633184
 30
0.0
 10
26.7363463373
 20
-24.5692066695
 30
0.0
 10
27.0108672801
 20
-24.6426339248
 30
0.0
 10
27.203640074
 20
-24.6520473432
 30
0.0
 10
27.3822379864
 20
-24.6160626162
 30
0.0
 10
27.538916624
 20
-24.5350154093
 30
0.0
 10
27.6661893574
 20
-24.4123529752
 30
0.0
 10
27.7589780005
 20
-24.25430548
 30
0.0
 10
27.8145925571
 20
-24.0681268889
 30
0.0
 10
27.8260357915
 20
-23.9347474128
 30
0.0
 10
27.8260204179
 20
-23.8658564384
 30
0.0
 11
25.7909064419
 21
-23.1256114718
 31
0.0
 11
25.8693958956
 21
-23.5710840721
 31
0.0
 11
26.0927893933
 21
-24.0041325904
 31
0.0
 11
26.4264450774
 21
-24.3601144228
 31
0.0
 11
26.8182625583
 21
-24.5849447921
 31
0.0
 11
27.0169570061
 21
-24.6364421678
 31
0.0
 11
27.2071874993
 21
-24.6440847015
 31
0.0
 11
27.3816722481
 21
-24.6075674049
 31
0.0
 11
27.5338924613
 21
-24.5283082497
 31
0.0
 11
27.6582744246
 21
-24.4093497595
 31
0.0
 11
27.750364774
 21
-24.2552661964
 31
0.0
 11
27.8069490675
 21
-24.0716475532
 31
0.0
 11
27.8260204179
 21
-23.8658564384
 31
0.0
  0
SPLINE
  5
329
100
AcDbEntity
  8
RACCORDO
100
AcDbSpline
 62
253
  6
CONTINUOUS
 70
0
 71
3
 72
19
 73
15
 74
13
 42
0.0000001
 43
0.0000001
 44
0.0000000001
 12
-0.0008145306
 22
3.3965034371
 32
0.0
 13
-0.0008591358
 23
-3.3965034261
 33
0.0
 40
0.0
 40
0.0
 40
0.0
 40
0.0
 40
0.1336060892
 40
0.2774012064
 40
0.4206981887
 40
0.5532582546
 40
0.6138677771
 40
0.6705347486
 40
0.7240748215
 40
0.7759357171
 40
0.8279325632
 40
0.8818167238
 40
0.938982075
 40
1.0
 40
1.0
 40
1.0
 40
1.0
 10
27.8260204179
 20
-23.8658564384
 30
0.0
 10
27.8259841424
 20
-23.7145919246
 30
0.0
 10
27.7676686771
 20
-23.3996680127
 30
0.0
 10
27.5522013588
 20
-22.9689785428
 30
0.0
 10
27.2321776485
 20
-22.6100665297
 30
0.0
 10
26.8997328213
 20
-22.4079812578
 30
0.0
 10
26.6244182895
 20
-22.3354990098
 30
0.0
 10
26.4294092157
 20
-22.327769251
 30
0.0
 10
26.247845822
 20
-22.3661815167
 30
0.0
 10
26.087818567
 20
-22.4497364751
 30
0.0
 10
25.9569842271
 20
-22.574618452
 30
0.0
 10
25.8608619194
 20
-22.7345822376
 30
0.0
 10
25.8029439633
 20
-22.9222631145
 30
0.0
 10
25.7909239161
 20
-23.0565289414
 30
0.0
 10
25.7909064419
 20
-23.1256114718
 30
0.0
 11
27.8260204179
 21
-23.8658564384
 31
0.0
 11
27.7503806338
 21
-23.4184112317
 31
0.0
 11
27.533909918
 21
-22.9806035129
 31
0.0
 11
27.2072075644
 21
-22.6198391337
 31
0.0
 11
26.8182782263
 21
-22.3930116942
 31
0.0
 11
26.6188317042
 21
-22.3420252972
 31
0.0
 11
26.4264611552
 21
-22.3358522233
 31
0.0
 11
26.2487818362
 21
-22.3745708948
 31
0.0
 11
26.0928068252
 21
-22.4564189792
 31
0.0
 11
25.9646749559
 21
-22.5779608366
 31
0.0
 11
25.8694096706
 21
-22.7342298971
 31
0.0
 11
25.8107357642
 21
-22.9193146837
 31
0.0
 11
25.7909064419
 21
-23.1256114718
 31
0.0
  0
SPLINE
  5
32A
100
AcDbEntity
  8
RACCORDO
100
AcDbSpline
 62
253
  6
CONTINUOUS
 70
0
 71
3
 72
19
 73
15
 74
13
 42
0.0000001
 43
0.0000001
 44
0.0000000001
 12
0.0008419411
 22
-3.3752272643
 32
0.0
 13
0.0008115558
 23
3.3752272717
 33
0.0
 40
0.0
 40
0.0
 40
0.0
 40
0.0
 40
0.134017767
 40
0.2783851133
 40
0.4229381063
 40
0.5567803517
 40
0.6175953814
 40
0.6740025006
 40
0.7268186179
 40
0.7776652551
 40
0.8286579512
 40
0.8818426526
 40
0.9387689592
 40
1.0
 40
1.0
 40
1.0
 40
1.0
 10
25.7909064419
 20
-26.589713087
 30
0.0
 10
25.7909440536
 20
-26.7404932273
 30
0.0
 10
25.851613099
 20
-27.0546512929
 30
0.0
 10
26.0752267684
 20
-27.4809222186
 30
0.0
 10
26.4023328364
 20
-27.833764942
 30
0.0
 10
26.7363550171
 20
-28.0333233065
 30
0.0
 10
27.0108802024
 20
-28.1067563471
 30
0.0
 10
27.2036564156
 20
-28.1161713671
 30
0.0
 10
27.3822549826
 20
-28.080180997
 30
0.0
 10
27.5389321162
 20
-27.9991276489
 30
0.0
 10
27.666199784
 20
-27.8764590432
 30
0.0
 10
27.7589993607
 20
-27.7184143865
 30
0.0
 10
27.8145761432
 20
-27.5322202351
 30
0.0
 10
27.8260038537
 20
-27.3988476131
 30
0.0
 10
27.8260204179
 20
-27.3299580535
 30
0.0
 11
25.7909064419
 21
-26.589713087
 31
0.0
 11
25.8694085793
 21
-27.035189555
 31
0.0
 11
26.0928036783
 21
-27.468236013
 31
0.0
 11
26.4264549856
 21
-27.8242169844
 31
0.0
 11
26.818272331
 21
-28.0490623364
 31
0.0
 11
27.0169707951
 21
-28.1005643453
 31
0.0
 11
27.2072041709
 21
-28.1082074047
 31
0.0
 11
27.3816892977
 21
-28.0716854716
 31
0.0
 11
27.5339068824
 21
-27.9924208838
 31
0.0
 11
27.6582868105
 21
-27.8734580552
 31
0.0
 11
27.7503792221
 21
-27.719370441
 31
0.0
 11
27.8069364049
 21
-27.5357437325
 31
0.0
 11
27.8260204179
 21
-27.3299580535
 31
0.0
  0
SPLINE
  5
32B
100
AcDbEntity
  8
RACCORDO
100
AcDbSpline
 62
253
  6
CONTINUOUS
 70
0
 71
3
 72
19
 73
15
 74
13
 42
0.0000001
 43
0.0000001
 44
0.0000000001
 12
0.0007592326
 22
3.3965033472
 32
0.0
 13
-0.0015930225
 23
-3.3965030585
 33
0.0
 40
0.0
 40
0.0
 40
0.0
 40
0.0
 40
0.1336089676
 40
0.2774022163
 40
0.4206977556
 40
0.5532568295
 40
0.6138662892
 40
0.6705333813
 40
0.7240732982
 40
0.77593442
 40
0.8279313932
 40
0.8818162152
 40
0.9389827748
 40
1.0
 40
1.0
 40
1.0
 40
1.0
 10
27.8260204179
 20
-27.3299580535
 30
0.0
 10
27.8260542313
 20
-27.1786902849
 30
0.0
 10
27.7676148582
 20
-26.8637683703
 30
0.0
 10
27.5521991328
 20
-26.4330777515
 30
0.0
 10
27.2321551855
 20
-26.0741783568
 30
0.0
 10
26.899718715
 20
-25.8720926112
 30
0.0
 10
26.6244071392
 20
-25.7996044048
 30
0.0
 10
26.4293984796
 20
-25.7918633265
 30
0.0
 10
26.2478340721
 20
-25.830275239
 30
0.0
 10
26.0878068083
 20
-25.9138295038
 30
0.0
 10
25.9569673277
 20
-26.0387077025
 30
0.0
 10
25.8608457171
 20
-26.1986765767
 30
0.0
 10
25.8029529394
 20
-26.3863678543
 30
0.0
 10
25.7909388425
 20
-26.5206313563
 30
0.0
 10
25.7909064419
 20
-26.589713087
 30
0.0
 11
27.8260204179
 21
-27.3299580535
 31
0.0
 11
27.7503661447
 21
-26.882505395
 31
0.0
 11
27.5338954007
 21
-26.4447047865
 31
0.0
 11
27.2071905079
 21
-26.0839493386
 31
0.0
 11
26.8182655053
 21
-25.8571211807
 31
0.0
 11
26.6188206035
 21
-25.806129332
 31
0.0
 11
26.4264499162
 21
-25.7999479767
 31
0.0
 11
26.2487706554
 21
-25.8386643994
 31
0.0
 11
26.0927942542
 21
-25.9205114763
 31
0.0
 11
25.9646595249
 21
-26.0420509384
 31
0.0
 11
25.8693973892
 21
-26.1983245433
 31
0.0
 11
25.8107410672
 21
-26.3834192028
 31
0.0
 11
25.7909064419
 21
-26.589713087
 31
0.0
  0
SPLINE
  5
32C
100
AcDbEntity
  8
RACCORDO
100
AcDbSpline
 62
253
  6
CONTINUOUS
 70
0
 71
3
 72
19
 73
15
 74
13
 42
0.0000001
 43
0.0000001
 44
0.0000000001
 12
0.0003216942
 22
-2.5182576311
 32
0.0
 13
0.0004159484
 23
2.5182576173
 33
0.0
 40
0.0
 40
0.0
 40
0.0
 40
0.0
 40
0.1339249715
 40
0.2781869692
 40
0.4228249767
 40
0.5567571752
 40
0.6175350709
 40
0.6738504996
 40
0.7265718171
 40
0.7773842774
 40
0.8284264427
 40
0.8817146299
 40
0.938735745
 40
1.0
 40
1.0
 40
1.0
 40
1.0
 10
25.9894932024
 20
-26.7290496923
 30
0.0
 10
25.9895075633
 20
-26.8414688861
 30
0.0
 10
26.0340045951
 20
-27.075703174
 30
0.0
 10
26.1989920526
 20
-27.3945710846
 30
0.0
 10
26.4416369341
 20
-27.6592404545
 30
0.0
 10
26.6906132622
 20
-27.8090559195
 30
0.0
 10
26.8955240193
 20
-27.8635712501
 30
0.0
 10
27.0392440986
 20
-27.869856457
 30
0.0
 10
27.1721046168
 20
-27.8418189941
 30
0.0
 10
27.2882389399
 20
-27.7800051923
 30
0.0
 10
27.3821992148
 20
-27.6873462527
 30
0.0
 10
27.4504877755
 20
-27.5686816512
 30
0.0
 10
27.4913270634
 20
-27.4294152182
 30
0.0
 10
27.4997365707
 20
-27.3298096122
 30
0.0
 10
27.4997450649
 20
-27.2783832199
 30
0.0
 11
25.9894932024
 21
-26.7290496923
 31
0.0
 11
26.047196285
 21
-27.0613342577
 31
0.0
 11
26.2120751998
 21
-27.3850528908
 31
0.0
 11
26.4597837824
 21
-27.6520887565
 31
0.0
 11
26.7518958529
 21
-27.8206873703
 31
0.0
 11
26.9001143971
 21
-27.8588568974
 31
0.0
 11
27.0418445879
 21
-27.8638113085
 31
0.0
 11
27.1715474143
 21
-27.8354572832
 31
0.0
 11
27.2843737341
 21
-27.7750942716
 31
0.0
 11
27.3762838917
 21
-27.6852367934
 31
0.0
 11
27.4441403735
 21
-27.5694639012
 31
0.0
 11
27.4857284584
 21
-27.4320243596
 31
0.0
 11
27.4997450649
 21
-27.2783832199
 31
0.0
  0
SPLINE
  5
32D
100
AcDbEntity
  8
RACCORDO
100
AcDbSpline
 62
253
  6
CONTINUOUS
 70
0
 71
3
 72
18
 73
14
 74
12
 42
0.0000001
 43
0.0000001
 44
0.0000000001
 12
0.0004503197
 22
2.5324727047
 32
0.0
 13
-0.0006335346
 23
-2.5324726655
 33
0.0
 40
0.0
 40
0.0
 40
0.0
 40
0.0
 40
0.1336006705
 40
0.2773929988
 40
0.4208809288
 40
0.553616705
 40
0.6142298718
 40
0.6708467477
 40
0.7243311374
 40
0.7761907371
 40
0.8282607065
 40
0.8822650943
 40
1.0
 40
1.0
 40
1.0
 40
1.0
 10
27.4997450649
 20
-27.2783832199
 30
0.0
 10
27.4997651193
 20
-27.1656032028
 30
0.0
 10
27.456922878
 20
-26.9307941824
 30
0.0
 10
27.2979733862
 20
-26.6086906119
 30
0.0
 10
27.0606267228
 20
-26.3395126804
 30
0.0
 10
26.8128301977
 20
-26.1877857437
 30
0.0
 10
26.6073234489
 20
-26.1339853829
 30
0.0
 10
26.4619370328
 20
-26.1289654868
 30
0.0
 10
26.3268724799
 20
-26.1588127448
 30
0.0
 10
26.2082487491
 20
-26.2224652641
 30
0.0
 10
26.1116253091
 20
-26.3168111031
 30
0.0
 10
26.0147569892
 20
-26.481069127
 30
0.0
 10
25.9895180654
 20
-26.6296628821
 30
0.0
 10
25.9894932024
 20
-26.7290496923
 30
0.0
 11
27.4997450649
 21
-27.2783832199
 31
0.0
 11
27.4441340651
 21
-26.9446446836
 31
0.0
 11
27.2843686164
 21
-26.6174133663
 31
0.0
 11
27.0418372408
 21
-26.3468158293
 31
0.0
 11
26.7518920541
 21
-26.1767322223
 31
0.0
 11
26.6031135515
 21
-26.1389489803
 31
0.0
 11
26.4597846681
 21
-26.1350947723
 31
0.0
 11
26.3276995272
 21
-26.1650882885
 31
0.0
 11
26.2120762095
 21
-26.2273748143
 31
0.0
 11
26.1173835461
 21
-26.3191456321
 31
0.0
 11
26.0471949999
 21
-26.4365259318
 31
0.0
 11
25.9894932024
 21
-26.7290496923
 31
0.0
  0
SPLINE
  5
32E
100
AcDbEntity
  8
RACCORDO
100
AcDbSpline
 62
253
  6
CONTINUOUS
 70
0
 71
3
 72
18
 73
14
 74
12
 42
0.0000001
 43
0.0000001
 44
0.0000000001
 12
-0.0004171112
 22
2.5324762329
 32
0.0
 13
-0.0003282017
 23
-2.5324762459
 33
0.0
 40
0.0
 40
0.0
 40
0.0
 40
0.0
 40
0.1335997945
 40
0.2773926576
 40
0.4208806249
 40
0.5536165825
 40
0.6142301852
 40
0.6708479342
 40
0.7243329931
 40
0.7761930422
 40
0.8282633227
 40
0.8822668169
 40
1.0
 40
1.0
 40
1.0
 40
1.0
 10
27.4997450649
 20
-23.8142816047
 30
0.0
 10
27.4997264896
 20
-23.70150217
 30
0.0
 10
27.4569527097
 20
-23.4666912749
 30
0.0
 10
27.2979738896
 20
-23.1445887764
 30
0.0
 10
27.0606392538
 20
-22.8754053909
 30
0.0
 10
26.8128384445
 20
-22.7236792588
 30
0.0
 10
26.6073292639
 20
-22.6698820213
 30
0.0
 10
26.4619408722
 20
-22.6648664997
 30
0.0
 10
26.3268748259
 20
-22.6947146479
 30
0.0
 10
26.2082499353
 20
-22.7583681071
 30
0.0
 10
26.1116274604
 20
-22.8527155676
 30
0.0
 10
26.0147621234
 20
-23.0169711407
 30
0.0
 10
25.9895060825
 20
-23.1655625806
 30
0.0
 10
25.9894932024
 20
-23.2649480772
 30
0.0
 11
27.4997450649
 21
-23.8142816047
 31
0.0
 11
27.4441414018
 21
-23.4805436179
 31
0.0
 11
27.284376006
 21
-23.1533102042
 31
0.0
 11
27.0418471239
 21
-22.8827096264
 31
0.0
 11
26.7519002665
 21
-22.7126270357
 31
0.0
 11
26.6031198015
 21
-22.6748461686
 31
0.0
 11
26.4597884169
 21
-22.6709953033
 31
0.0
 11
26.3277016807
 21
-22.7009902982
 31
0.0
 11
26.2120774866
 21
-22.7632779821
 31
0.0
 11
26.1173851131
 21
-22.8550504943
 31
0.0
 11
26.047197242
 21
-22.9724287828
 31
0.0
 11
25.9894932024
 21
-23.2649480772
 31
0.0
  0
SPLINE
  5
32F
100
AcDbEntity
  8
RACCORDO
100
AcDbSpline
 62
253
  6
CONTINUOUS
 70
0
 71
3
 72
19
 73
15
 74
13
 42
0.0000001
 43
0.0000001
 44
0.0000000001
 12
0.0006210935
 22
-2.5182513986
 32
0.0
 13
-0.0004472676
 23
2.5182514354
 33
0.0
 40
0.0
 40
0.0
 40
0.0
 40
0.0
 40
0.1339240109
 40
0.2781864315
 40
0.4228250347
 40
0.5567560174
 40
0.6175331306
 40
0.6738481757
 40
0.726569628
 40
0.7773826688
 40
0.8284251014
 40
0.8817131645
 40
0.9387351774
 40
1.0
 40
1.0
 40
1.0
 40
1.0
 10
25.9894932024
 20
-23.2649480772
 30
0.0
 10
25.9895209288
 20
-23.3773661864
 30
0.0
 10
26.0339946746
 20
-23.6115999996
 30
0.0
 10
26.1989919338
 20
-23.9304666681
 30
0.0
 10
26.4416323397
 20
-24.1951363414
 30
0.0
 10
26.6906078517
 20
-24.3449506237
 30
0.0
 10
26.8955161294
 20
-24.3994651099
 30
0.0
 10
27.0392349056
 20
-24.4057505082
 30
0.0
 10
27.1720956022
 20
-24.3777142654
 30
0.0
 10
27.2882310703
 20
-24.315902235
 30
0.0
 10
27.3821945218
 20
-24.2232448929
 30
0.0
 10
27.4504764434
 20
-24.1045766178
 30
0.0
 10
27.4913368237
 20
-23.9653179077
 30
0.0
 10
27.4997541989
 20
-23.8657083472
 30
0.0
 10
27.4997450649
 20
-23.8142816047
 30
0.0
 11
25.9894932024
 21
-23.2649480772
 31
0.0
 11
26.0471936892
 21
-23.5972297986
 31
0.0
 11
26.2120726265
 21
-23.9209486154
 31
0.0
 11
26.4597810647
 21
-24.1879854428
 31
0.0
 11
26.7518898562
 21
-24.3565819577
 31
0.0
 11
26.9001061444
 21
-24.3947508382
 31
0.0
 11
27.0418350081
 21
-24.3997056087
 31
0.0
 11
27.1715381189
 21
-24.37135282
 31
0.0
 11
27.2843664263
 21
-24.3109910898
 31
0.0
 11
27.3762778183
 21
-24.2211343622
 31
0.0
 11
27.4441330746
 21
-24.1053614957
 31
0.0
 11
27.4857361722
 21
-23.9679245031
 31
0.0
 11
27.4997450649
 21
-23.8142816047
 31
0.0
  0
SPLINE
  5
330
100
AcDbEntity
  8
RACCORDO
100
AcDbSpline
 62
253
  6
CONTINUOUS
 70
0
 71
3
 72
12
 73
8
 74
6
 42
0.0000001
 43
0.0000001
 44
0.0000000001
 12
-0.0003875111
 22
-0.0817514299
 32
0.0
 13
0.0810077395
 23
-0.0110087508
 33
0.0
 40
0.0
 40
0.0
 40
0.0
 40
0.0
 40
0.373766816
 40
0.6712688947
 40
0.7854600412
 40
0.8762791541
 40
1.0
 40
1.0
 40
1.0
 40
1.0
 10
11.6911787045
 20
-25.501194567
 30
0.0
 10
11.6911304249
 20
-25.5113798909
 30
0.0
 10
11.69175283
 20
-25.529686876
 30
0.0
 10
11.6945241906
 20
-25.5509611642
 30
0.0
 10
11.6985098968
 20
-25.5641788984
 30
0.0
 10
11.7021530066
 20
-25.5721892798
 30
0.0
 10
11.7069165625
 20
-25.5769924516
 30
0.0
 10
11.7102573445
 20
-25.5774464555
 30
0.0
 11
11.6911787045
 21
-25.501194567
 31
0.0
 11
11.6923648775
 21
-25.5317278501
 31
0.0
 11
11.6961175962
 21
-25.5557580842
 31
0.0
 11
11.6988956779
 21
-25.564670539
 31
0.0
 11
11.702215941
 21
-25.5713114473
 31
0.0
 11
11.7102573445
 21
-25.5774464555
 31
0.0
  0
SPLINE
  5
331
100
AcDbEntity
  8
RACCORDO
100
AcDbSpline
 62
253
  6
CONTINUOUS
 70
0
 71
3
 72
11
 73
7
 74
5
 42
0.0000001
 43
0.0000001
 44
0.0000000001
 12
-0.1411824833
 22
0.01856686
 32
0.0
 13
-0.0009381822
 23
0.1423950199
 33
0.0
 40
0.0
 40
0.0
 40
0.0
 40
0.0
 40
0.320626464
 40
0.5990676629
 40
0.8213827016
 40
1.0
 40
1.0
 40
1.0
 40
1.0
 10
10.9751063813
 20
-24.8383384222
 30
0.0
 10
10.9600174345
 20
-24.83635408
 30
0.0
 10
10.9320300205
 20
-24.8303283307
 30
0.0
 10
10.8960442016
 20
-24.8145795202
 30
0.0
 10
10.8706565594
 20
-24.7935127495
 30
0.0
 10
10.8633350672
 20
-24.7745029705
 30
0.0
 10
10.8632792087
 20
-24.7660248992
 30
0.0
 11
10.9751063813
 21
-24.8383384222
 31
0.0
 11
10.9305580475
 21
-24.8283398559
 31
0.0
 11
10.8945826364
 21
-24.811670942
 31
0.0
 11
10.8713791066
 21
-24.7901354563
 31
0.0
 11
10.8632792087
 21
-24.7660248992
 31
0.0
  0
SPLINE
  5
332
100
AcDbEntity
  8
RACCORDO
100
AcDbSpline
 62
253
  6
CONTINUOUS
 70
0
 71
3
 72
11
 73
7
 74
5
 42
0.0000001
 43
0.0000001
 44
0.0000000001
 12
-0.1413919165
 22
0.0185957743
 32
0.0
 13
-0.0001150411
 23
0.1426094795
 33
0.0
 40
0.0
 40
0.0
 40
0.0
 40
0.0
 40
0.3208243628
 40
0.5992879198
 40
0.8214588299
 40
1.0
 40
1.0
 40
1.0
 40
1.0
 10
10.9751063813
 20
-18.0855802531
 30
0.0
 10
10.9599857241
 20
-18.0835915939
 30
0.0
 10
10.9319460192
 20
-18.0775499433
 30
0.0
 10
10.8959146982
 20
-18.0617506195
 30
0.0
 10
10.8705243998
 20
-18.0406086027
 30
0.0
 10
10.8632852446
 20
-18.021534754
 30
0.0
 10
10.8632783981
 20
-18.0130475329
 30
0.0
 11
10.9751063813
 21
-18.0855802531
 31
0.0
 11
10.9304665297
 21
-18.0755510456
 31
0.0
 11
10.8944490105
 21
-18.0588254372
 31
0.0
 11
10.8712729796
 21
-18.0372215559
 31
0.0
 11
10.8632783981
 21
-18.0130475329
 31
0.0
  0
SPLINE
  5
333
100
AcDbEntity
  8
RACCORDO
100
AcDbSpline
 62
253
  6
CONTINUOUS
 70
0
 71
3
 72
11
 73
7
 74
5
 42
0.0000001
 43
0.0000001
 44
0.0000000001
 12
-0.0009697836
 22
0.2069209895
 32
0.0
 13
0.1000010702
 23
0.1811546917
 33
0.0
 40
0.0
 40
0.0
 40
0.0
 40
0.0
 40
0.2657048262
 40
0.5471446199
 40
0.8036783376
 40
1.0
 40
1.0
 40
1.0
 40
1.0
 10
11.6911784551
 20
-17.6170781458
 30
0.0
 10
11.6910925631
 20
-17.5987515106
 30
0.0
 10
11.6933052485
 20
-17.561004322
 30
0.0
 10
11.7012824476
 20
-17.5060588226
 30
0.0
 10
11.7132809875
 20
-17.4568412172
 30
0.0
 10
11.7241330677
 20
-17.4272861146
 30
0.0
 10
11.7306771932
 20
-17.4154312512
 30
0.0
 11
11.6911784551
 21
-17.6170781458
 31
0.0
 11
11.6940005547
 21
-17.5621701121
 31
0.0
 11
11.702474077
 21
-17.5045534271
 31
0.0
 11
11.7153727173
 21
-17.4530616019
 31
0.0
 11
11.7306771932
 21
-17.4154312512
 31
0.0
  0
SPLINE
  5
334
100
AcDbEntity
  8
RACCORDO
100
AcDbSpline
 62
253
  6
CONTINUOUS
 70
0
 71
3
 72
11
 73
7
 74
5
 42
0.0000001
 43
0.0000001
 44
0.0000000001
 12
-0.0002509826
 22
0.2156054167
 32
0.0
 13
0.1777629871
 23
0.1220085206
 33
0.0
 40
0.0
 40
0.0
 40
0.0
 40
0.0
 40
0.2521755451
 40
0.5222543919
 40
0.7802304393
 40
1.0
 40
1.0
 40
1.0
 40
1.0
 10
27.1791043542
 20
-21.3695082049
 30
0.0
 10
27.179083257
 20
-21.3513847338
 30
0.0
 10
27.1842982593
 20
-21.3138215659
 30
0.0
 10
27.2028104393
 20
-21.2605320413
 30
0.0
 10
27.2303023422
 20
-21.2139942707
 30
0.0
 10
27.2545450246
 20
-21.1887782626
 30
0.0
 10
27.2675673225
 20
-21.1798403429
 30
0.0
 11
27.1791043542
 21
-21.3695082049
 31
0.0
 11
27.1857926623
 21
-21.3155506994
 31
0.0
 11
27.2048983117
 21
-21.2605437408
 31
0.0
 11
27.2336545675
 21
-21.2129330143
 31
0.0
 11
27.2675673225
 21
-21.1798403429
 31
0.0
  0
SPLINE
  5
335
100
AcDbEntity
  8
RACCORDO
100
AcDbSpline
 62
253
  6
CONTINUOUS
 70
0
 71
3
 72
9
 73
5
 74
3
 42
0.0000001
 43
0.0000001
 44
0.0000000001
 12
-0.1422961104
 22
0.0139783351
 32
0.0
 13
-0.1427473121
 23
-0.008172012
 33
0.0
 40
0.0
 40
0.0
 40
0.0
 40
0.0
 40
0.2528682346
 40
1.0
 40
1.0
 40
1.0
 40
1.0
 10
11.6501342416
 20
-17.404126607
 30
0.0
 10
11.6381401862
 20
-17.4029483814
 30
0.0
 10
11.5906270582
 20
-17.3991726188
 30
0.0
 10
11.5428170639
 20
-17.3989770233
 30
0.0
 10
11.5072667135
 20
-17.4010122132
 30
0.0
 11
11.6501342416
 21
-17.404126607
 31
0.0
 11
11.6140920823
 21
-17.4012677648
 31
0.0
 11
11.5072667135
 21
-17.4010122132
 31
0.0
  0
SPLINE
  5
336
100
AcDbEntity
  8
RACCORDO
100
AcDbSpline
 62
253
  6
CONTINUOUS
 70
0
 71
3
 72
9
 73
5
 74
3
 42
0.0000001
 43
0.0000001
 44
0.0000000001
 12
-0.106511173
 22
-0.0192610306
 32
0.0
 13
-0.1026606272
 23
-0.0342988758
 33
0.0
 40
0.0
 40
0.0
 40
0.0
 40
0.0
 40
0.2526173527
 40
1.0
 40
1.0
 40
1.0
 40
1.0
 10
11.4066562747
 20
-17.4128536024
 30
0.0
 10
11.3976874179
 20
-17.4144754926
 30
0.0
 10
11.3622973814
 20
-17.4215040981
 30
0.0
 10
11.3273910067
 20
-17.4310078092
 30
0.0
 10
11.3018154162
 20
-17.4395526041
 30
0.0
 11
11.4066562747
 21
-17.4128536024
 31
0.0
 11
11.3798380083
 21
-17.4181845382
 31
0.0
 11
11.3018154162
 21
-17.4395526041
 31
0.0
  0
SPLINE
  5
337
100
AcDbEntity
  8
RACCORDO
100
AcDbSpline
 62
253
  6
CONTINUOUS
 70
0
 71
3
 72
9
 73
5
 74
3
 42
0.0000001
 43
0.0000001
 44
0.0000000001
 12
0.0996000159
 22
-0.0385344958
 32
0.0
 13
0.1066862874
 23
0.0048069332
 33
0.0
 40
0.0
 40
0.0
 40
0.0
 40
0.0
 40
0.2324438986
 40
1.0
 40
1.0
 40
1.0
 40
1.0
 10
27.9421161837
 20
-22.2174033811
 30
0.0
 10
27.9498333224
 20
-22.2203890839
 30
0.0
 10
27.9838876503
 20
-22.2309754805
 30
0.0
 10
28.0200751104
 20
-22.2340142278
 30
0.0
 10
28.047371014
 20
-22.2327843642
 30
0.0
 11
27.9421161837
 21
-22.2174033811
 31
0.0
 11
27.9657800174
 21
-22.2249027698
 31
0.0
 11
28.047371014
 21
-22.2327843642
 31
0.0
  0
SPLINE
  5
338
100
AcDbEntity
  8
RACCORDO
100
AcDbSpline
 62
253
  6
CONTINUOUS
 70
0
 71
3
 72
9
 73
5
 74
3
 42
0.0000001
 43
0.0000001
 44
0.0000000001
 12
0.0996003585
 22
-0.0385337218
 32
0.0
 13
0.1066863579
 23
0.0048062648
 33
0.0
 40
0.0
 40
0.0
 40
0.0
 40
0.0
 40
0.2324437378
 40
1.0
 40
1.0
 40
1.0
 40
1.0
 10
27.9421161837
 20
-29.0679557429
 30
0.0
 10
27.9498333436
 20
-29.0709413837
 30
0.0
 10
27.9838877495
 20
-29.081527568
 30
0.0
 10
28.0200751704
 20
-29.0845663148
 30
0.0
 10
28.0473710977
 20
-29.0833366219
 30
0.0
 11
27.9421161837
 21
-29.0679557429
 31
0.0
 11
27.9657800574
 21
-29.0754549795
 31
0.0
 11
28.0473710977
 21
-29.0833366219
 31
0.0
  0
SPLINE
  5
339
100
AcDbEntity
  8
RACCORDO
100
AcDbSpline
 62
253
  6
CONTINUOUS
 70
0
 71
3
 72
9
 73
5
 74
3
 42
0.0000001
 43
0.0000001
 44
0.0000000001
 12
-0.0010729168
 22
0.3080232902
 32
0.0
 13
-0.1117271509
 23
0.2870479789
 33
0.0
 40
0.0
 40
0.0
 40
0.0
 40
0.0
 40
0.2364547455
 40
1.0
 40
1.0
 40
1.0
 40
1.0
 10
28.0473710977
 20
-22.2327842601
 30
0.0
 10
28.0472865323
 20
-22.2085064039
 30
0.0
 10
28.0410225196
 20
-22.105860545
 30
0.0
 10
28.0137857881
 20
-22.0051529939
 30
0.0
 10
27.9853495428
 20
-21.9320949532
 30
0.0
 11
28.0473710977
 21
-22.2327842601
 31
0.0
 11
28.0431516188
 21
-22.1600725754
 31
0.0
 11
27.9853495428
 21
-21.9320949532
 31
0.0
  0
SPLINE
  5
33A
100
AcDbEntity
  8
RACCORDO
100
AcDbSpline
 62
253
  6
CONTINUOUS
 70
0
 71
3
 72
11
 73
7
 74
5
 42
0.0000001
 43
0.0000001
 44
0.0000000001
 12
-0.3852667088
 22
0.9898223411
 32
0.0
 13
-0.9657049889
 23
0.4422584972
 33
0.0
 40
0.0
 40
0.0
 40
0.0
 40
0.0
 40
0.2678955438
 40
0.5282879211
 40
0.7731061271
 40
1.0
 40
1.0
 40
1.0
 40
1.0
 10
27.9853495428
 20
-21.9320949532
 30
0.0
 10
27.950945798
 20
-21.8437052884
 30
0.0
 10
27.860579382
 20
-21.6777722046
 30
0.0
 10
27.6845872196
 20
-21.4663630724
 30
0.0
 10
27.4857975752
 20
-21.2981197755
 30
0.0
 10
27.340660808
 20
-21.2133150913
 30
0.0
 10
27.267623293
 20
-21.1798665102
 30
0.0
 11
27.9853495428
 21
-21.9320949532
 31
0.0
 11
27.8516084732
 21
-21.6809366748
 31
0.0
 11
27.6751515572
 21
-21.4679620282
 31
0.0
 11
27.476337436
 21
-21.3003570994
 31
0.0
 11
27.267623293
 21
-21.1798665102
 31
0.0
  0
SPLINE
  5
33B
100
AcDbEntity
  8
RACCORDO
100
AcDbSpline
 62
253
  6
CONTINUOUS
 70
0
 71
3
 72
11
 73
7
 74
5
 42
0.0000001
 43
0.0000001
 44
0.0000000001
 12
-0.0001088479
 22
-0.0933924841
 32
0.0
 13
0.0874860787
 23
-0.0326856844
 33
0.0
 40
0.0
 40
0.0
 40
0.0
 40
0.0
 40
0.3073936304
 40
0.5750105348
 40
0.8009997908
 40
1.0
 40
1.0
 40
1.0
 40
1.0
 10
27.1791082084
 20
-29.3376740291
 30
0.0
 10
27.1790970554
 20
-29.3472434474
 30
0.0
 10
27.1804828817
 20
-29.3651975799
 30
0.0
 10
27.1873011737
 20
-29.3894085845
 30
0.0
 10
27.1989271973
 20
-29.4080525164
 30
0.0
 10
27.2102631439
 20
-29.4158340773
 30
0.0
 10
27.2160663933
 20
-29.41800223
 30
0.0
 11
27.1791082084
 21
-29.3376740291
 31
0.0
 11
27.1815815048
 21
-29.3662755643
 31
0.0
 11
27.1888559704
 21
-29.3901869302
 31
0.0
 11
27.2005684263
 21
-29.4077445345
 31
0.0
 11
27.2160663933
 21
-29.41800223
 31
0.0
  0
LINE
  5
33C
100
AcDbEntity
  8
RACCORDO
100
AcDbLine
 62
7
  6
CONTINUOUS
 10
-25.5940816398
 20
-6.8359141947
 11
-25.6146986107
 21
-7.362471089
  0
SPLINE
  5
33D
100
AcDbEntity
  8
RACCORDO
100
AcDbSpline
 62
7
  6
CONTINUOUS
 70
0
 71
3
 72
9
 73
5
 74
3
 42
0.0000001
 43
0.0000001
 44
0.0000000001
 12
0.0612918652
 22
0.3644480696
 32
0.0
 13
0.2501930233
 23
0.2719973148
 33
0.0
 40
0.0
 40
0.0
 40
0.0
 40
0.0
 40
0.2614803325
 40
1.0
 40
1.0
 40
1.0
 40
1.0
 10
-33.8711507408
 20
9.0947837234
 30
0.0
 10
-33.865808535
 20
9.1265490575
 30
0.0
 10
-33.8365675568
 20
9.2464908785
 30
0.0
 10
-33.7709731376
 20
9.3567451977
 30
0.0
 10
-33.7093823148
 20
9.4237036532
 30
0.0
 11
-33.8711507408
 21
9.0947837234
 31
0.0
 11
-33.8480310974
 21
9.1886115585
 31
0.0
 11
-33.7093823148
 21
9.4237036532
 31
0.0
  0
SPLINE
  5
33E
100
AcDbEntity
  8
RACCORDO
100
AcDbSpline
 62
253
  6
CONTINUOUS
 70
0
 71
3
 72
9
 73
5
 74
3
 42
0.0000001
 43
0.0000001
 44
0.0000000001
 12
-2.6601766788
 22
5.3828720794
 32
0.0
 13
-4.459373424
 23
4.0206766161
 33
0.0
 40
0.0
 40
0.0
 40
0.0
 40
0.0
 40
0.4760575507
 40
1.0
 40
1.0
 40
1.0
 40
1.0
 10
-26.2491620299
 20
-7.0556356405
 30
0.0
 10
-26.6712944279
 20
-6.2014500079
 30
0.0
 10
-27.7829016257
 20
-4.5144228186
 30
0.0
 10
-29.1925585377
 20
-3.0811984469
 30
0.0
 10
-29.9713768824
 20
-2.3789973955
 30
0.0
 11
-26.2491620299
 21
-7.0556356405
 31
0.0
 11
-27.7972196703
 21
-4.652725478
 31
0.0
 11
-29.9713768824
 21
-2.3789973955
 31
0.0
  0
SPLINE
  5
33F
100
AcDbEntity
  8
RACCORDO
100
AcDbSpline
 62
253
  6
CONTINUOUS
 70
0
 71
3
 72
9
 73
5
 74
3
 42
0.0000001
 43
0.0000001
 44
0.0000000001
 12
-1.9782012527
 22
1.5734076872
 32
0.0
 13
-2.0770092933
 23
1.4404597676
 33
0.0
 40
0.0
 40
0.0
 40
0.0
 40
0.0
 40
0.2457682739
 40
1.0
 40
1.0
 40
1.0
 40
1.0
 10
-31.3237940568
 20
-1.2364393983
 30
0.0
 10
-31.4858537592
 20
-1.1075415011
 30
0.0
 10
-32.1502514348
 20
-0.5893613054
 30
0.0
 10
-32.8329132976
 20
-0.0948025504
 30
0.0
 10
-33.3550953991
 20
0.2673442686
 30
0.0
 11
-31.3237940568
 21
-1.2364393983
 31
0.0
 11
-31.8135326932
 21
-0.8542637799
 31
0.0
 11
-33.3550953991
 21
0.2673442686
 31
0.0
  0
SPLINE
  5
340
100
AcDbEntity
  8
RACCORDO
100
AcDbSpline
 62
253
  6
CONTINUOUS
 70
0
 71
3
 72
9
 73
5
 74
3
 42
0.0000001
 43
0.0000001
 44
0.0000000001
 12
-0.0118159879
 22
-0.3059786805
 32
0.0
 13
-0.0450163856
 23
-0.3028796716
 33
0.0
 40
0.0
 40
0.0
 40
0.0
 40
0.0
 40
0.2766823415
 40
1.0
 40
1.0
 40
1.0
 40
1.0
 10
-25.6146986107
 20
-7.362471089
 30
0.0
 10
-25.6157883691
 20
-7.3906907216
 30
0.0
 10
-25.620798058
 20
-7.4926246833
 30
0.0
 10
-25.6299270928
 20
-7.5944628543
 30
0.0
 10
-25.6407808083
 20
-7.6674889259
 30
0.0
 11
-25.6146986107
 21
-7.362471089
 31
0.0
 11
-25.6188759028
 21
-7.4470900429
 31
0.0
 11
-25.6407808083
 21
-7.6674889259
 31
0.0
  0
SPLINE
  5
341
100
AcDbEntity
  8
RACCORDO
100
AcDbSpline
 62
253
  6
CONTINUOUS
 70
0
 71
3
 72
13
 73
9
 74
7
 42
0.0000001
 43
0.0000001
 44
0.0000000001
 12
-0.0819779563
 22
-0.5515648613
 32
0.0
 13
-0.2402558032
 23
0.50321102
 33
0.0
 40
0.0
 40
0.0
 40
0.0
 40
0.0
 40
0.3771860601
 40
0.5627669138
 40
0.6301825535
 40
0.7191043463
 40
0.8416406444
 40
1.0
 40
1.0
 40
1.0
 40
1.0
 10
-25.6407808083
 20
-7.6674889259
 30
0.0
 10
-25.6510877891
 20
-7.7368364516
 30
0.0
 10
-25.6665147386
 20
-7.8312192825
 30
0.0
 10
-25.7317991072
 20
-7.957781038
 30
0.0
 10
-25.8011085341
 20
-7.9498382759
 30
0.0
 10
-25.8402218656
 20
-7.9134544522
 30
0.0
 10
-25.8802751513
 20
-7.8577696961
 30
0.0
 10
-25.9045025269
 20
-7.8112230787
 30
0.0
 10
-25.9171847783
 20
-7.7846603544
 30
0.0
 11
-25.6407808083
 21
-7.6674889259
 31
0.0
 11
-25.691026535
 21
-7.8717269867
 31
0.0
 11
-25.7575325478
 21
-7.9510109486
 31
0.0
 11
-25.7949335111
 21
-7.9472203883
 31
0.0
 11
-25.8343125992
 21
-7.9170881867
 31
0.0
 11
-25.8752163693
 21
-7.862354711
 31
0.0
 11
-25.9171847783
 21
-7.7846603544
 31
0.0
  0
SPLINE
  5
342
100
AcDbEntity
  8
RACCORDO
100
AcDbSpline
 62
253
  6
CONTINUOUS
 70
0
 71
3
 72
8
 73
4
 74
2
 42
0.0000001
 43
0.0000001
 44
0.0000000001
 12
-0.0275061542
 22
0.0576110951
 32
0.0
 13
-0.0246840391
 23
0.0588755043
 33
0.0
 40
0.0
 40
0.0
 40
0.0
 40
0.0
 40
1.0
 40
1.0
 40
1.0
 40
1.0
 10
-25.9171847783
 20
-7.7846603544
 30
0.0
 10
-25.9263534963
 20
-7.7654566561
 30
0.0
 10
-25.9349776027
 20
-7.7459885002
 30
0.0
 10
-25.9432056158
 20
-7.7263633321
 30
0.0
 11
-25.9171847783
 21
-7.7846603544
 31
0.0
 11
-25.9432056158
 21
-7.7263633321
 31
0.0
  0
LINE
  5
343
100
AcDbEntity
  8
RACCORDO
100
AcDbLine
 62
253
  6
CONTINUOUS
 10
29.9784201214
 20
-57.0374416008
 11
29.9780596949
 21
-35.0600032103
  0
LINE
  5
344
100
AcDbEntity
  8
RACCORDO
100
AcDbLine
 62
253
  6
CONTINUOUS
 10
29.9780596949
 20
-35.0600032103
 11
29.9780488778
 21
-34.7517939682
  0
LINE
  5
345
100
AcDbEntity
  8
RACCORDO
100
AcDbLine
 62
253
  6
CONTINUOUS
 10
29.9780488778
 20
-34.7517939682
 11
29.977821027
 21
-29.310564567
  0
LINE
  5
346
100
AcDbEntity
  8
RACCORDO
100
AcDbLine
 62
253
  6
CONTINUOUS
 10
29.977821027
 20
-29.310564567
 11
29.9778107333
 21
-29.1010056327
  0
LINE
  5
347
100
AcDbEntity
  8
RACCORDO
100
AcDbLine
 62
253
  6
CONTINUOUS
 10
29.9778107333
 20
-29.1010056327
 11
29.9778048922
 21
-28.9831897615
  0
LINE
  5
348
100
AcDbEntity
  8
RACCORDO
100
AcDbLine
 62
253
  6
CONTINUOUS
 10
29.9778048922
 20
-28.9831897615
 11
29.9777339274
 21
-27.6110053225
  0
LINE
  5
349
100
AcDbEntity
  8
RACCORDO
100
AcDbLine
 62
253
  6
CONTINUOUS
 10
29.9777339274
 20
-27.6110053225
 11
29.9776412008
 21
-25.9627449202
  0
LINE
  5
34A
100
AcDbEntity
  8
RACCORDO
100
AcDbLine
 62
253
  6
CONTINUOUS
 10
29.9776412008
 20
-25.9627449202
 11
29.9775429123
 21
-24.3640673309
  0
LINE
  5
34B
100
AcDbEntity
  8
RACCORDO
100
AcDbLine
 62
253
  6
CONTINUOUS
 10
29.9775429123
 20
-24.3640673309
 11
29.9774451988
 21
-22.9012386854
  0
LINE
  5
34C
100
AcDbEntity
  8
RACCORDO
100
AcDbLine
 62
253
  6
CONTINUOUS
 10
29.9774451988
 20
-22.9012386854
 11
29.9774391441
 21
-22.8142799573
  0
LINE
  5
34D
100
AcDbEntity
  8
RACCORDO
100
AcDbLine
 62
253
  6
CONTINUOUS
 10
29.9774391441
 20
-22.8142799573
 11
29.9773298758
 21
-21.3106183449
  0
LINE
  5
34E
100
AcDbEntity
  8
RACCORDO
100
AcDbLine
 62
253
  6
CONTINUOUS
 10
29.9773298758
 20
-21.3106183449
 11
29.9772193975
 21
-19.90309883
  0
LINE
  5
34F
100
AcDbEntity
  8
RACCORDO
100
AcDbLine
 62
253
  6
CONTINUOUS
 10
29.9772193975
 20
-19.90309883
 11
29.9770950266
 21
-18.433979296
  0
LINE
  5
350
100
AcDbEntity
  8
RACCORDO
100
AcDbLine
 62
253
  6
CONTINUOUS
 10
29.9770950266
 20
-18.433979296
 11
29.9769699546
 21
-17.0618434184
  0
SPLINE
  5
351
100
AcDbEntity
  8
RACCORDO
100
AcDbSpline
 62
253
  6
CONTINUOUS
 70
0
 71
3
 72
8
 73
4
 74
2
 42
0.0000001
 43
0.0000001
 44
0.0000000001
 12
-0.0023864541
 22
25.2752711373
 32
0.0
 13
-0.003392132
 23
25.2752710224
 33
0.0
 40
0.0
 40
0.0
 40
0.0
 40
0.0
 40
1.0
 40
1.0
 40
1.0
 40
1.0
 10
29.9769699546
 20
-17.0618434184
 30
0.0
 10
29.9761744699
 20
-8.6367530393
 30
0.0
 10
29.9743868282
 20
-0.211662782
 30
0.0
 10
29.9732561175
 20
8.2134275588
 30
0.0
 11
29.9769699546
 21
-17.0618434184
 31
0.0
 11
29.9732561175
 21
8.2134275588
 31
0.0
  0
SPLINE
  5
352
100
AcDbEntity
  8
RACCORDO
100
AcDbSpline
 62
253
  6
CONTINUOUS
 70
0
 71
3
 72
8
 73
4
 74
2
 42
0.0000001
 43
0.0000001
 44
0.0000000001
 12
-0.0017490969
 22
13.0327763279
 32
0.0
 13
-0.0001600886
 23
13.0327764442
 33
0.0
 40
0.0
 40
0.0
 40
0.0
 40
0.0
 40
1.0
 40
1.0
 40
1.0
 40
1.0
 10
29.9732561175
 20
8.2134275588
 30
0.0
 10
29.9726730853
 20
12.5576863347
 30
0.0
 10
29.9723888472
 20
16.9019451568
 30
0.0
 10
29.9723354844
 20
21.2462039715
 30
0.0
 11
29.9732561175
 21
8.2134275588
 31
0.0
 11
29.9723354844
 21
21.2462039715
 31
0.0
  0
SPLINE
  5
353
100
AcDbEntity
  8
RACCORDO
100
AcDbSpline
 62
253
  6
CONTINUOUS
 70
0
 71
3
 72
11
 73
7
 74
5
 42
0.0000001
 43
0.0000001
 44
0.0000000001
 12
-1.8067166756
 22
0.1063496426
 32
0.0
 13
0.0800119874
 23
1.8080745212
 33
0.0
 40
0.0
 40
0.0
 40
0.0
 40
0.0
 40
0.2594587889
 40
0.5173506291
 40
0.7662697242
 40
1.0
 40
1.0
 40
1.0
 40
1.0
 10
11.3035383387
 20
-26.0648734298
 30
0.0
 10
11.1472821652
 20
-26.0556756466
 30
0.0
 10
10.8364786717
 20
-26.0001227698
 30
0.0
 10
10.4113822921
 20
-25.8057918763
 30
0.0
 10
10.0739887158
 20
-25.4950858587
 30
0.0
 10
9.9812465275
 20
-25.1964926621
 30
0.0
 10
9.9874802688
 20
-25.05562541
 30
0.0
 11
11.3035383387
 21
-26.0648734298
 31
0.0
 11
10.8415228209
 21
-25.9809271367
 31
0.0
 11
10.4194167839
 21
-25.7817376278
 31
0.0
 11
10.1008895755
 21
-25.4631549298
 31
0.0
 11
9.9874802688
 21
-25.05562541
 31
0.0
  0
LINE
  5
354
100
AcDbEntity
  8
RACCORDO
100
AcDbLine
 62
253
  6
CONTINUOUS
 10
20.6468383676
 20
27.5332025447
 11
20.576462135
 21
27.5637623505
  0
LINE
  5
355
100
AcDbEntity
  8
RACCORDO
100
AcDbLine
 62
253
  6
CONTINUOUS
 10
20.576462135
 20
27.5637623505
 11
20.0610159689
 21
27.7879593778
  0
SPLINE
  5
356
100
AcDbEntity
  8
RACCORDO
100
AcDbSpline
 62
253
  6
CONTINUOUS
 70
0
 71
3
 72
9
 73
5
 74
3
 42
0.0000001
 43
0.0000001
 44
0.0000000001
 12
-36.2177025536
 22
15.7762039681
 32
0.0
 13
-34.7950496409
 23
18.7060180262
 33
0.0
 40
0.0
 40
0.0
 40
0.0
 40
0.0
 40
0.2552164978
 40
1.0
 40
1.0
 40
1.0
 40
1.0
 10
20.0610159689
 20
27.7879593778
 30
0.0
 10
16.9798975679
 20
29.1300752194
 30
0.0
 10
4.9581433845
 20
34.5042328104
 30
0.0
 10
-6.8528148932
 20
40.353561151
 30
0.0
 10
-15.4910745371
 20
44.9975390238
 30
0.0
 11
20.0610159689
 21
27.7879593778
 31
0.0
 11
10.8573278569
 21
31.9041730428
 31
0.0
 11
-15.4910745371
 21
44.9975390238
 31
0.0
  0
LINE
  5
357
100
AcDbEntity
  8
RACCORDO
100
AcDbLine
 62
253
  6
CONTINUOUS
 10
-15.4910745371
 20
44.9975390238
 11
-16.241650699
 21
45.4019918129
  0
SPLINE
  5
358
100
AcDbEntity
  8
RACCORDO
100
AcDbSpline
 62
253
  6
CONTINUOUS
 70
0
 71
3
 72
9
 73
5
 74
3
 42
0.0000001
 43
0.0000001
 44
0.0000000001
 12
0.0028405358
 22
-0.6134633432
 32
0.0
 13
0.5175860757
 23
-0.3293174703
 33
0.0
 40
0.0
 40
0.0
 40
0.0
 40
0.0
 40
0.5334039101
 40
1.0
 40
1.0
 40
1.0
 40
1.0
 10
-34.882464113
 20
-25.5493682977
 30
0.0
 10
-34.881959062
 20
-25.6584428797
 30
0.0
 10
-34.8468487066
 20
-25.8671547695
 30
0.0
 10
-34.7094695014
 20
-26.035631688
 30
0.0
 10
-34.6289682884
 20
-26.0868511026
 30
0.0
 11
-34.882464113
 21
-25.5493682977
 31
0.0
 11
-34.8154055546
 21
-25.8696507127
 31
0.0
 11
-34.6289682884
 21
-26.0868511026
 31
0.0
  0
SPLINE
  5
359
100
AcDbEntity
  8
RACCORDO
100
AcDbSpline
 62
253
  6
CONTINUOUS
 70
0
 71
3
 72
9
 73
5
 74
3
 42
0.0000001
 43
0.0000001
 44
0.0000000001
 12
-0.0057953452
 22
1.4045334668
 32
0.0
 13
1.1670894064
 23
0.7814410809
 33
0.0
 40
0.0
 40
0.0
 40
0.0
 40
0.0
 40
0.5153186258
 40
1.0
 40
1.0
 40
1.0
 40
1.0
 10
29.1968204494
 20
22.4300913545
 30
0.0
 10
29.1958249663
 20
22.6713521065
 30
0.0
 10
29.3238776656
 20
23.1364951392
 30
0.0
 10
29.6122464756
 20
23.5339241497
 30
0.0
 10
29.8008019747
 20
23.6601741287
 30
0.0
 11
29.1968204494
 21
22.4300913545
 31
0.0
 11
29.3703733183
 21
23.1327641623
 31
0.0
 11
29.8008019747
 21
23.6601741287
 31
0.0
  0
SPLINE
  5
35A
100
AcDbEntity
  8
RACCORDO
100
AcDbSpline
 62
253
  6
CONTINUOUS
 70
0
 71
3
 72
9
 73
5
 74
3
 42
0.0000001
 43
0.0000001
 44
0.0000000001
 12
0.0602109873
 22
0.9102746246
 32
0.0
 13
0.8200745017
 23
0.3996286612
 33
0.0
 40
0.0
 40
0.0
 40
0.0
 40
0.0
 40
0.4908689367
 40
1.0
 40
1.0
 40
1.0
 40
1.0
 10
10.3217291741
 20
-17.9631894375
 30
0.0
 10
10.3315810752
 20
-17.8142475918
 30
0.0
 10
10.462211188
 20
-17.5146778609
 30
0.0
 10
10.7178832694
 20
-17.3314742393
 30
0.0
 10
10.8570584038
 20
-17.2636531176
 30
0.0
 11
10.3217291741
 21
-17.9631894375
 31
0.0
 11
10.4899547559
 21
-17.5481873244
 31
0.0
 11
10.8570584038
 21
-17.2636531176
 31
0.0
  0
SPLINE
  5
35B
100
AcDbEntity
  8
RACCORDO
100
AcDbSpline
 62
253
  6
CONTINUOUS
 70
0
 71
3
 72
8
 73
4
 74
2
 42
0.0000001
 43
0.0000001
 44
0.0000000001
 12
0.1045454623
 22
-0.0413424517
 32
0.0
 13
0.1091531843
 23
-0.0269171759
 33
0.0
 40
0.0
 40
0.0
 40
0.0
 40
0.0
 40
1.0
 40
1.0
 40
1.0
 40
1.0
 10
29.1952475999
 20
-57.5882150158
 30
0.0
 10
29.2300960874
 20
-57.6019958331
 30
0.0
 10
29.265892966
 20
-57.6136458549
 30
0.0
 10
29.3022773607
 20
-57.6226182469
 30
0.0
 11
29.1952475999
 21
-57.5882150158
 31
0.0
 11
29.3022773607
 21
-57.6226182469
 31
0.0
  0
SPLINE
  5
35C
100
AcDbEntity
  8
RACCORDO
100
AcDbSpline
 62
253
  6
CONTINUOUS
 70
0
 71
3
 72
9
 73
5
 74
3
 42
0.0000001
 43
0.0000001
 44
0.0000000001
 12
0.6347375262
 22
-0.1565262779
 32
0.0
 13
0.3411944544
 23
0.5576545052
 33
0.0
 40
0.0
 40
0.0
 40
0.0
 40
0.0
 40
0.5188116476
 40
1.0
 40
1.0
 40
1.0
 40
1.0
 10
29.3022773607
 20
-57.6226182469
 30
0.0
 10
29.4120471013
 20
-57.6496874656
 30
0.0
 10
29.646482937
 20
-57.6562059945
 30
0.0
 10
29.8289751211
 20
-57.5021469871
 30
0.0
 10
29.8837013869
 20
-57.4127013696
 30
0.0
 11
29.3022773607
 21
-57.6226182469
 31
0.0
 11
29.6413217454
 21
-57.6132293061
 31
0.0
 11
29.8837013869
 21
-57.4127013696
 31
0.0
  0
SPLINE
  5
35D
100
AcDbEntity
  8
RACCORDO
100
AcDbSpline
 62
253
  6
CONTINUOUS
 70
0
 71
3
 72
9
 73
5
 74
3
 42
0.0000001
 43
0.0000001
 44
0.0000000001
 12
0.2034881615
 22
0.3325848018
 32
0.0
 13
0.0000145263
 23
0.3898975277
 33
0.0
 40
0.0
 40
0.0
 40
0.0
 40
0.0
 40
0.233154553
 40
1.0
 40
1.0
 40
1.0
 40
1.0
 10
29.8837013869
 20
-57.4127013696
 30
0.0
 10
29.8995161174
 20
-57.3868534827
 30
0.0
 10
29.9579662759
 20
-57.2702144652
 30
0.0
 10
29.9784164082
 20
-57.1371053154
 30
0.0
 10
29.9784201214
 20
-57.0374416008
 30
0.0
 11
29.8837013869
 21
-57.4127013696
 31
0.0
 11
29.9247062374
 21
-57.3315683131
 31
0.0
 11
29.9784201214
 21
-57.0374416008
 31
0.0
  0
SPLINE
  5
35E
100
AcDbEntity
  8
RACCORDO
100
AcDbSpline
 62
253
  6
CONTINUOUS
 70
0
 71
3
 72
14
 73
10
 74
8
 42
0.0000001
 43
0.0000001
 44
0.0000000001
 12
12.8067846729
 22
-8.6775930639
 32
0.0
 13
2.1610815287
 23
-15.3180965419
 33
0.0
 40
0.0
 40
0.0
 40
0.0
 40
0.0
 40
0.3010183217
 40
0.4375327893
 40
0.5634184582
 40
0.6794340701
 40
0.7885368073
 40
0.8945113908
 40
1.0
 40
1.0
 40
1.0
 40
1.0
 10
-33.6395617069
 20
-26.3637290682
 30
0.0
 10
-32.3545360972
 20
-27.2344339018
 30
0.0
 10
-30.5396534259
 20
-28.5940523704
 30
0.0
 10
-28.4887718272
 20
-30.6597089508
 30
0.0
 10
-27.3014415509
 20
-32.21761857
 30
0.0
 10
-26.4592128876
 20
-33.8314875908
 30
0.0
 10
-25.9662560277
 20
-35.4758653986
 30
0.0
 10
-25.7369780456
 20
-37.1154962036
 30
0.0
 10
-25.6361496616
 20
-38.2013010149
 30
0.0
 10
-25.5601598333
 20
-38.7399292479
 30
0.0
 11
-33.6395617069
 21
-26.3637290682
 31
0.0
 11
-29.9624826215
 21
-29.2209740563
 31
0.0
 11
-28.4857661592
 21
-30.7306821857
 31
0.0
 11
-27.3188298873
 21
-32.2897596622
 31
0.0
 11
-26.4970699065
 21
-33.8853132776
 31
0.0
 11
-26.0044160154
 21
-35.4996082864
 31
0.0
 11
-25.7492925061
 21
-37.1190398997
 31
0.0
 11
-25.5601598333
 21
-38.7399292479
 31
0.0
  0
SPLINE
  5
35F
100
AcDbEntity
  8
RACCORDO
100
AcDbSpline
 62
253
  6
CONTINUOUS
 70
0
 71
3
 72
9
 73
5
 74
3
 42
0.0000001
 43
0.0000001
 44
0.0000000001
 12
0.1726441932
 22
-1.2237300554
 32
0.0
 13
0.306695454
 23
-1.1971880239
 33
0.0
 40
0.0
 40
0.0
 40
0.0
 40
0.0
 40
0.2482177349
 40
1.0
 40
1.0
 40
1.0
 40
1.0
 10
-25.5601598333
 20
-38.7399292479
 30
0.0
 10
-25.5458753831
 20
-38.8411797487
 30
0.0
 10
-25.4846940772
 20
-39.2485256356
 30
0.0
 10
-25.4042168277
 20
-39.6533202648
 30
0.0
 10
-25.32736076
 20
-39.9533285062
 30
0.0
 11
-25.5601598333
 21
-38.7399292479
 31
0.0
 11
-25.5143139502
 21
-39.0432435073
 31
0.0
 11
-25.32736076
 21
-39.9533285062
 31
0.0
  0
SPLINE
  5
360
100
AcDbEntity
  8
RACCORDO
100
AcDbSpline
 62
253
  6
CONTINUOUS
 70
0
 71
3
 72
21
 73
17
 74
15
 42
0.0000001
 43
0.0000001
 44
0.0000000001
 12
14.7104788397
 22
-57.4224653952
 32
0.0
 13
55.1233508315
 23
-21.7980254348
 33
0.0
 40
0.0
 40
0.0
 40
0.0
 40
0.0
 40
0.0179713347
 40
0.0369162124
 40
0.0792920031
 40
0.1285077404
 40
0.183176019
 40
0.241699137
 40
0.3041876776
 40
0.3712282723
 40
0.4420935058
 40
0.5876569136
 40
0.6605182208
 40
0.7327189938
 40
0.8713573431
 40
1.0
 40
1.0
 40
1.0
 40
1.0
 10
-25.32736076
 20
-39.9533285062
 30
0.0
 10
-25.239238447
 20
-40.2973146212
 30
0.0
 10
-25.0133950272
 20
-40.993848584
 30
0.0
 10
-24.2999977132
 20
-42.3964067929
 30
0.0
 10
-22.8430305165
 20
-44.064864323
 30
0.0
 10
-20.5152332842
 20
-45.7947090235
 30
0.0
 10
-17.7235112114
 20
-47.3860076686
 30
0.0
 10
-14.5904475645
 20
-48.8863842532
 30
0.0
 10
-11.1184068096
 20
-50.2238408084
 30
0.0
 10
-7.2943200883
 20
-51.2779924758
 30
0.0
 10
-1.7593789743
 20
-52.1985885753
 30
0.0
 10
3.9602988823
 20
-52.4369386582
 30
0.0
 10
9.6893890172
 20
-52.8249552242
 30
0.0
 10
15.259223689
 20
-53.4856916984
 30
0.0
 10
21.8313152077
 20
-54.9232971809
 30
0.0
 10
26.8315094969
 20
-56.65349638
 30
0.0
 10
29.1952475999
 20
-57.5882150158
 30
0.0
 11
-25.32736076
 21
-39.9533285062
 31
0.0
 11
-24.9941602403
 21
-40.9651611593
 31
0.0
 11
-24.4863201287
 21
-41.9667640604
 31
0.0
 11
-22.8795732631
 21
-43.8975696332
 31
0.0
 11
-20.5723045856
 21
-45.6829120067
 31
0.0
 11
-17.7727635263
 21
-47.3150269231
 31
0.0
 11
-14.6433574346
 21
-48.8120948155
 31
0.0
 11
-11.1837724848
 21
-50.135642033
 31
0.0
 11
-7.3528700236
 21
-51.1922755581
 31
0.0
 11
-3.212213212
 21
-51.899760535
 31
0.0
 11
5.3920517259
 21
-52.5464283317
 31
0.0
 11
9.699476451
 21
-52.862209862
 31
0.0
 11
13.948102756
 21
-53.3780773347
 31
0.0
 11
21.9779691928
 21
-55.1266092136
 31
0.0
 11
29.1952475999
 21
-57.5882150158
 31
0.0
  0
SPLINE
  5
361
100
AcDbEntity
  8
RACCORDO
100
AcDbSpline
 62
253
  6
CONTINUOUS
 70
0
 71
3
 72
9
 73
5
 74
3
 42
0.0000001
 43
0.0000001
 44
0.0000000001
 12
-0.0000028606
 22
-0.422209849
 32
0.0
 13
0.1164712089
 23
-0.4058270741
 33
0.0
 40
0.0
 40
0.0
 40
0.0
 40
0.0
 40
0.2369040484
 40
1.0
 40
1.0
 40
1.0
 40
1.0
 10
-35.4997770159
 20
-24.2983430185
 30
0.0
 10
-35.4997772418
 20
-24.3316840927
 30
0.0
 10
-35.4939285285
 20
-24.4724017533
 30
0.0
 10
-35.4668987911
 20
-24.6118823729
 30
0.0
 10
-35.4372725552
 20
-24.7151107054
 30
0.0
 11
-35.4997770159
 21
-24.2983430185
 31
0.0
 11
-35.4958173203
 21
-24.3982878325
 31
0.0
 11
-35.4372725552
 21
-24.7151107054
 31
0.0
  0
SPLINE
  5
362
100
AcDbEntity
  8
RACCORDO
100
AcDbSpline
 62
253
  6
CONTINUOUS
 70
0
 71
3
 72
9
 73
5
 74
3
 42
0.0000001
 43
0.0000001
 44
0.0000000001
 12
0.1871511353
 22
-0.6521010505
 32
0.0
 13
0.4241094724
 23
-0.5295209939
 33
0.0
 40
0.0
 40
0.0
 40
0.0
 40
0.0
 40
0.2557643024
 40
1.0
 40
1.0
 40
1.0
 40
1.0
 10
-35.4372725552
 20
-24.7151107054
 30
0.0
 10
-35.4213170286
 20
-24.7707054288
 30
0.0
 10
-35.3483744829
 20
-24.9847614119
 30
0.0
 10
-35.2366981967
 20
-25.1867273421
 30
0.0
 10
-35.131485727
 20
-25.3180901508
 30
0.0
 11
-35.4372725552
 21
-24.7151107054
 31
0.0
 11
-35.3814710477
 21
-24.8794103118
 31
0.0
 11
-35.131485727
 21
-25.3180901508
 31
0.0
  0
SPLINE
  5
363
100
AcDbEntity
  8
RACCORDO
100
AcDbSpline
 62
253
  6
CONTINUOUS
 70
0
 71
3
 72
9
 73
5
 74
3
 42
0.0000001
 43
0.0000001
 44
0.0000000001
 12
0.2129598928
 22
-0.2658906283
 32
0.0
 13
0.2876143525
 23
-0.1825588298
 33
0.0
 40
0.0
 40
0.0
 40
0.0
 40
0.0
 40
0.270598934
 40
1.0
 40
1.0
 40
1.0
 40
1.0
 10
-35.131485727
 20
-25.3180901508
 30
0.0
 10
-35.1122768203
 20
-25.342073391
 30
0.0
 10
-35.0384401643
 20
-25.4282448063
 30
0.0
 10
-34.9523825497
 20
-25.5049780973
 30
0.0
 10
-34.8824538112
 20
-25.549364299
 30
0.0
 11
-35.131485727
 21
-25.3180901508
 31
0.0
 11
-35.0714217147
 21
-25.3880180821
 31
0.0
 11
-34.8824538112
 21
-25.549364299
 31
0.0
  0
SPLINE
  5
364
100
AcDbEntity
  8
RACCORDO
100
AcDbSpline
 62
253
  6
CONTINUOUS
 70
0
 71
3
 72
9
 73
5
 74
3
 42
0.0000001
 43
0.0000001
 44
0.0000000001
 12
-0.0030719844
 22
-77.9583606524
 32
0.0
 13
-0.0005843589
 23
-77.9583607107
 33
0.0
 40
0.0
 40
0.0
 40
0.0
 40
0.0
 40
0.4999893825
 40
1.0
 40
1.0
 40
1.0
 40
1.0
 10
-35.4800154076
 20
53.9723794167
 30
0.0
 10
-35.4805273941
 20
40.9795952166
 30
0.0
 10
-35.5005665628
 20
14.993479353
 30
0.0
 10
-35.4996774411
 20
-10.9926420059
 30
0.0
 10
-35.4997748363
 20
-23.9859780331
 30
0.0
 11
-35.4800154076
 21
53.9723794167
 31
0.0
 11
-35.4953342869
 21
14.9940297965
 31
0.0
 11
-35.4997748363
 21
-23.9859780331
 31
0.0
  0
LINE
  5
365
100
AcDbEntity
  8
RACCORDO
100
AcDbLine
 62
253
  6
CONTINUOUS
 10
-35.4997748363
 20
-23.9859780331
 11
-35.4997770159
 21
-24.2983430185
  0
LINE
  5
366
100
AcDbEntity
  8
RACCORDO
100
AcDbLine
 62
253
  6
CONTINUOUS
 10
10.2864838129
 20
-18.6039539186
 11
10.2926734915
 21
-18.4899860764
  0
LINE
  5
367
100
AcDbEntity
  8
RACCORDO
100
AcDbLine
 62
253
  6
CONTINUOUS
 10
10.2926734915
 20
-18.4899860764
 11
10.2989399332
 21
-18.3752388026
  0
LINE
  5
368
100
AcDbEntity
  8
RACCORDO
100
AcDbLine
 62
253
  6
CONTINUOUS
 10
10.2989399332
 20
-18.3752388026
 11
10.3029164959
 21
-18.3027496014
  0
LINE
  5
369
100
AcDbEntity
  8
RACCORDO
100
AcDbLine
 62
253
  6
CONTINUOUS
 10
10.3029164959
 20
-18.3027496014
 11
10.3217291741
 21
-17.9631894375
  0
SPLINE
  5
36A
100
AcDbEntity
  8
RACCORDO
100
AcDbSpline
 62
253
  6
CONTINUOUS
 70
0
 71
3
 72
9
 73
5
 74
3
 42
0.0000001
 43
0.0000001
 44
0.0000000001
 12
-0.0000695683
 22
-0.1192048269
 32
0.0
 13
0.098383044
 23
-0.0673095257
 33
0.0
 40
0.0
 40
0.0
 40
0.0
 40
0.0
 40
0.2780861427
 40
1.0
 40
1.0
 40
1.0
 40
1.0
 10
-33.6047318966
 20
9.4629201515
 30
0.0
 10
-33.6047383452
 20
9.4518704146
 30
0.0
 10
-33.6015157662
 20
9.4124294224
 30
0.0
 10
-33.5800429785
 20
9.3728726838
 30
0.0
 10
-33.5563682842
 20
9.3566754573
 30
0.0
 11
-33.6047318966
 21
9.4629201515
 31
0.0
 11
-33.6015347127
 21
9.4299254769
 31
0.0
 11
-33.5563682842
 21
9.3566754573
 31
0.0
  0
SPLINE
  5
36B
100
AcDbEntity
  8
RACCORDO
100
AcDbSpline
 62
253
  6
CONTINUOUS
 70
0
 71
3
 72
9
 73
5
 74
3
 42
0.0000001
 43
0.0000001
 44
0.0000000001
 12
0.2568718245
 22
-0.1673896043
 32
0.0
 13
0.2752752762
 23
0.1350034672
 33
0.0
 40
0.0
 40
0.0
 40
0.0
 40
0.0
 40
0.4888025902
 40
1.0
 40
1.0
 40
1.0
 40
1.0
 10
-34.3331260711
 20
8.903456085
 30
0.0
 10
-34.2912728667
 20
8.8761825943
 30
0.0
 10
-34.1858884061
 20
8.8558647207
 30
0.0
 10
-34.0811662571
 20
8.8698627646
 30
0.0
 10
-34.0342595877
 20
8.8928672388
 30
0.0
 11
-34.3331260711
 21
8.903456085
 31
0.0
 11
-34.1884067169
 21
8.8645187684
 31
0.0
 11
-34.0342595877
 21
8.8928672388
 31
0.0
  0
SPLINE
  5
36C
100
AcDbEntity
  8
RACCORDO
100
AcDbSpline
 62
253
  6
CONTINUOUS
 70
0
 71
3
 72
9
 73
5
 74
3
 42
0.0000001
 43
0.0000001
 44
0.0000000001
 12
0.256725978
 22
-0.1684539132
 32
0.0
 13
0.2756569167
 23
0.1352708872
 33
0.0
 40
0.0
 40
0.0
 40
0.0
 40
0.0
 40
0.488500621
 40
1.0
 40
1.0
 40
1.0
 40
1.0
 10
-34.3371267908
 20
1.9703640356
 30
0.0
 10
-34.2953231909
 20
1.9429340885
 30
0.0
 10
-34.1897395134
 20
1.9225026712
 30
0.0
 10
-34.0848576378
 20
1.9364906693
 30
0.0
 10
-34.0378581906
 20
1.9595543275
 30
0.0
 11
-34.3371267908
 21
1.9703640356
 31
0.0
 11
-34.1923352799
 21
1.9311861719
 31
0.0
 11
-34.0378581906
 21
1.9595543275
 31
0.0
  0
SPLINE
  5
36D
100
AcDbEntity
  8
RACCORDO
100
AcDbSpline
 62
253
  6
CONTINUOUS
 70
0
 71
3
 72
8
 73
4
 74
2
 42
0.0000001
 43
0.0000001
 44
0.0000000001
 12
0.0005042017
 22
0.2814811818
 32
0.0
 13
0.2634831875
 23
0.0990379717
 33
0.0
 40
0.0
 40
0.0
 40
0.0
 40
0.0
 40
1.0
 40
1.0
 40
1.0
 40
1.0
 10
-33.6148749079
 20
0.4462099416
 30
0.0
 10
-33.6147068407
 20
0.5400370022
 30
0.0
 10
-33.5426497325
 20
0.644746367
 30
0.0
 10
-33.4548220034
 20
0.6777590243
 30
0.0
 11
-33.6148749079
 21
0.4462099416
 31
0.0
 11
-33.4548220034
 21
0.6777590243
 31
0.0
  0
SPLINE
  5
36E
100
AcDbEntity
  8
RACCORDO
100
AcDbSpline
 62
253
  6
CONTINUOUS
 70
0
 71
3
 72
9
 73
5
 74
3
 42
0.0000001
 43
0.0000001
 44
0.0000000001
 12
0.0107414461
 22
0.2870048427
 32
0.0
 13
0.2854457706
 23
0.0317469751
 33
0.0
 40
0.0
 40
0.0
 40
0.0
 40
0.0
 40
0.4795744504
 40
1.0
 40
1.0
 40
1.0
 40
1.0
 10
-25.9433914958
 20
-7.7263776434
 30
0.0
 10
-25.9416743881
 20
-7.6804975802
 30
0.0
 10
-25.8926854857
 20
-7.5860035724
 30
0.0
 10
-25.7983804286
 20
-7.5441808229
 30
0.0
 10
-25.7488626712
 20
-7.5386735106
 30
0.0
 11
-25.9433914958
 21
-7.7263776434
 31
0.0
 11
-25.8842643989
 21
-7.6019777063
 31
0.0
 11
-25.7488626712
 21
-7.5386735106
 31
0.0
  0
SPLINE
  5
36F
100
AcDbEntity
  8
RACCORDO
100
AcDbSpline
 62
253
  6
CONTINUOUS
 70
0
 71
3
 72
9
 73
5
 74
3
 42
0.0000001
 43
0.0000001
 44
0.0000000001
 12
-0.0064882086
 22
0.017066174
 32
0.0
 13
0.0004421929
 23
0.0182525508
 33
0.0
 40
0.0
 40
0.0
 40
0.0
 40
0.0
 40
0.5074022194
 40
1.0
 40
1.0
 40
1.0
 40
1.0
 10
-25.6146962711
 20
-7.3624709601
 30
0.0
 10
-25.6157936483
 20
-7.3595844886
 30
0.0
 10
-25.6174555982
 20
-7.3536876976
 30
0.0
 10
-25.6179300526
 20
-7.3475736973
 30
0.0
 10
-25.6178574449
 20
-7.3445766419
 30
0.0
 11
-25.6146962711
 21
-7.3624709601
 31
0.0
 11
-25.6171744734
 21
-7.3535444769
 31
0.0
 11
-25.6178574449
 21
-7.3445766419
 31
0.0
  0
SPLINE
  5
370
100
AcDbEntity
  8
RACCORDO
100
AcDbSpline
 62
253
  6
CONTINUOUS
 70
0
 71
3
 72
8
 73
4
 74
2
 42
0.0000001
 43
0.0000001
 44
0.0000000001
 12
-0.0102153865
 22
0.0211820398
 32
0.0
 13
0.0015362366
 23
0.0234664209
 33
0.0
 40
0.0
 40
0.0
 40
0.0
 40
0.0
 40
1.0
 40
1.0
 40
1.0
 40
1.0
 10
-25.2844214084
 20
-0.2678966135
 30
0.0
 10
-25.2878265372
 20
-0.2608359336
 30
0.0
 10
-25.2897043158
 20
-0.2526911155
 30
0.0
 10
-25.2891922369
 20
-0.2448689752
 30
0.0
 11
-25.2844214084
 21
-0.2678966135
 31
0.0
 11
-25.2891922369
 21
-0.2448689752
 31
0.0
  0
SPLINE
  5
371
100
AcDbEntity
  8
RACCORDO
100
AcDbSpline
 62
253
  6
CONTINUOUS
 70
0
 71
3
 72
8
 73
4
 74
2
 42
0.0000001
 43
0.0000001
 44
0.0000000001
 12
-0.0045860345
 22
-0.0787853703
 32
0.0
 13
0.0364970384
 23
-0.0699723694
 33
0.0
 40
0.0
 40
0.0
 40
0.0
 40
0.0
 40
1.0
 40
1.0
 40
1.0
 40
1.0
 10
-25.572509764
 20
1.5575869468
 30
0.0
 10
-25.5740384422
 20
1.5313251567
 30
0.0
 10
-25.5683886871
 20
1.503691203
 30
0.0
 10
-25.5562230077
 20
1.4803670799
 30
0.0
 11
-25.572509764
 21
1.5575869468
 31
0.0
 11
-25.5562230077
 21
1.4803670799
 31
0.0
  0
SPLINE
  5
372
100
AcDbEntity
  8
RACCORDO
100
AcDbSpline
 62
7
  6
CONTINUOUS
 70
0
 71
3
 72
9
 73
5
 74
3
 42
0.0000001
 43
0.0000001
 44
0.0000000001
 12
-0.0024001138
 22
-0.1163493474
 32
0.0
 13
0.1154141989
 23
-0.014916229
 33
0.0
 40
0.0
 40
0.0
 40
0.0
 40
0.0
 40
0.6849794714
 40
1.0
 40
1.0
 40
1.0
 40
1.0
 10
11.6199254392
 20
-17.0430235791
 30
0.0
 10
11.6193774296
 20
-17.0695892172
 30
0.0
 10
11.6197485786
 20
-17.1020607459
 30
0.0
 10
11.6318124478
 20
-17.1525999045
 30
0.0
 10
11.6439317285
 20
-17.1541662107
 30
0.0
 11
11.6199254392
 21
-17.0430235791
 31
0.0
 11
11.6253720763
 21
-17.1225511539
 31
0.0
 11
11.6439317285
 21
-17.1541662107
 31
0.0
  0
SPLINE
  5
373
100
AcDbEntity
  8
RACCORDO
100
AcDbSpline
 62
253
  6
CONTINUOUS
 70
0
 71
3
 72
9
 73
5
 74
3
 42
0.0000001
 43
0.0000001
 44
0.0000000001
 12
0.1833440666
 22
-0.0267749897
 32
0.0
 13
0.1716385141
 23
0.0698009119
 33
0.0
 40
0.0
 40
0.0
 40
0.0
 40
0.0
 40
0.2676747101
 40
1.0
 40
1.0
 40
1.0
 40
1.0
 10
10.1381598531
 20
-17.9791894215
 30
0.0
 10
10.1545187098
 20
-17.9815784173
 30
0.0
 10
10.2159169724
 20
-17.9867483865
 30
0.0
 10
10.2798319525
 20
-17.9802290324
 30
0.0
 10
10.3217303607
 20
-17.9631900414
 30
0.0
 11
10.1381598531
 21
-17.9791894215
 31
0.0
 11
10.1875685563
 21
-17.9835086202
 31
0.0
 11
10.3217303607
 21
-17.9631900414
 31
0.0
  0
SPLINE
  5
374
100
AcDbEntity
  8
RACCORDO
100
AcDbSpline
 62
253
  6
CONTINUOUS
 70
0
 71
3
 72
9
 73
5
 74
3
 42
0.0000001
 43
0.0000001
 44
0.0000000001
 12
0.1764571843
 22
-0.0202834904
 32
0.0
 13
0.1630215314
 23
0.0705162262
 33
0.0
 40
0.0
 40
0.0
 40
0.0
 40
0.0
 40
0.2678862487
 40
1.0
 40
1.0
 40
1.0
 40
1.0
 10
9.8119788863
 20
-25.0758119649
 30
0.0
 10
9.8277357041
 20
-25.0776231876
 30
0.0
 10
9.8867209198
 20
-25.0808864032
 30
0.0
 10
9.9476968338
 20
-25.072834043
 30
0.0
 10
9.9874802688
 20
-25.05562541
 30
0.0
 11
9.8119788863
 21
-25.0758119649
 31
0.0
 11
9.859481219
 21
-25.0785594886
 31
0.0
 11
9.9874802688
 21
-25.05562541
 31
0.0
  0
SPLINE
  5
375
100
AcDbEntity
  8
RACCORDO
100
AcDbSpline
 62
253
  6
CONTINUOUS
 70
0
 71
3
 72
9
 73
5
 74
3
 42
0.0000001
 43
0.0000001
 44
0.0000000001
 12
0.0006024223
 22
0.2686571978
 32
0.0
 13
0.1033766006
 23
0.2479724406
 33
0.0
 40
0.0
 40
0.0
 40
0.0
 40
0.0
 40
0.5525115056
 40
1.0
 40
1.0
 40
1.0
 40
1.0
 10
11.2634320515
 20
-26.3296842695
 30
0.0
 10
11.2635429999
 20
-26.2802055386
 30
0.0
 10
11.272027328
 20
-26.19113372
 30
0.0
 10
11.2881109608
 20
-26.1018615225
 30
0.0
 10
11.3035309072
 20
-26.0648732512
 30
0.0
 11
11.2634320515
 21
-26.3296842695
 31
0.0
 11
11.2752382096
 21
-26.1817179599
 31
0.0
 11
11.3035309072
 21
-26.0648732512
 31
0.0
  0
SPLINE
  5
376
100
AcDbEntity
  8
RACCORDO
100
AcDbSpline
 62
253
  6
CONTINUOUS
 70
0
 71
3
 72
9
 73
5
 74
3
 42
0.0000001
 43
0.0000001
 44
0.0000000001
 12
-0.0001814309
 22
0.285155856
 32
0.0
 13
0.2341489654
 23
0.1627518268
 33
0.0
 40
0.0
 40
0.0
 40
0.0
 40
0.0
 40
0.523325393
 40
1.0
 40
1.0
 40
1.0
 40
1.0
 10
27.5271258629
 20
-30.1247372246
 30
0.0
 10
27.5270942137
 20
-30.0749941244
 30
0.0
 10
27.5517713748
 20
-29.9809168745
 30
0.0
 10
27.6069065133
 20
-29.8975639225
 30
0.0
 10
27.644110802
 20
-29.8717040349
 30
0.0
 11
27.5271258629
 21
-30.1247372246
 31
0.0
 11
27.5612640938
 21
-29.9794651546
 31
0.0
 11
27.644110802
 21
-29.8717040349
 31
0.0
  0
SPLINE
  5
377
100
AcDbEntity
  8
RACCORDO
100
AcDbSpline
 62
253
  6
CONTINUOUS
 70
0
 71
3
 72
9
 73
5
 74
3
 42
0.0000001
 43
0.0000001
 44
0.0000000001
 12
-0.1074769555
 22
0.0409508592
 32
0.0
 13
0.0000386691
 23
0.1150142049
 33
0.0
 40
0.0
 40
0.0
 40
0.0
 40
0.0
 40
0.3170016187
 40
1.0
 40
1.0
 40
1.0
 40
1.0
 10
28.4945301191
 20
-29.445464556
 30
0.0
 10
28.4831733295
 20
-29.4411373931
 30
0.0
 10
28.4492398874
 20
-29.425891296
 30
0.0
 10
28.415696891
 20
-29.3921111754
 30
0.0
 10
28.4157056947
 20
-29.3659263368
 30
0.0
 11
28.4945301191
 21
-29.445464556
 31
0.0
 11
28.4616986533
 21
-29.4296088337
 31
0.0
 11
28.4157056947
 21
-29.3659263368
 31
0.0
  0
SPLINE
  5
378
100
AcDbEntity
  8
RACCORDO
100
AcDbSpline
 62
253
  6
CONTINUOUS
 70
0
 71
3
 72
9
 73
5
 74
3
 42
0.0000001
 43
0.0000001
 44
0.0000000001
 12
-0.1068815487
 22
0.0410080846
 32
0.0
 13
0.0000608201
 23
0.1144784904
 33
0.0
 40
0.0
 40
0.0
 40
0.0
 40
0.0
 40
0.3168371545
 40
1.0
 40
1.0
 40
1.0
 40
1.0
 10
28.4975378749
 20
-22.5118768447
 30
0.0
 10
28.4862498596
 20
-22.5075458831
 30
0.0
 10
28.4525023839
 20
-22.4922888268
 30
0.0
 10
28.4192267534
 20
-22.4586116819
 30
0.0
 10
28.4192406034
 20
-22.4325425315
 30
0.0
 11
28.4975378749
 21
-22.5118768447
 31
0.0
 11
28.4649123178
 21
-22.4960287635
 31
0.0
 11
28.4192406034
 21
-22.4325425315
 31
0.0
  0
SPLINE
  5
379
100
AcDbEntity
  8
RACCORDO
100
AcDbSpline
 62
253
  6
CONTINUOUS
 70
0
 71
3
 72
9
 73
5
 74
3
 42
0.0000001
 43
0.0000001
 44
0.0000000001
 12
-0.0002757664
 22
-0.1216843608
 32
0.0
 13
0.1142104684
 23
-0.041989625
 33
0.0
 40
0.0
 40
0.0
 40
0.0
 40
0.0
 40
0.3161607868
 40
1.0
 40
1.0
 40
1.0
 40
1.0
 10
27.5351928355
 20
-21.1071617324
 30
0.0
 10
27.5351637733
 20
-21.1199856735
 30
0.0
 10
27.5373810569
 20
-21.1593054056
 30
0.0
 10
27.5587271689
 20
-21.205075444
 30
0.0
 10
27.5847610345
 20
-21.2146468281
 30
0.0
 11
27.5351928355
 21
-21.1071617324
 31
0.0
 11
27.5384778822
 21
-21.1454931458
 31
0.0
 11
27.5847610345
 21
-21.2146468281
 31
0.0
  0
SPLINE
  5
37A
100
AcDbEntity
  8
RACCORDO
100
AcDbSpline
 62
7
  6
CONTINUOUS
 70
0
 71
3
 72
8
 73
4
 74
2
 42
0.0000001
 43
0.0000001
 44
0.0000000001
 12
-0.2028410981
 22
0.0070696269
 32
0.0
 13
-0.1992431938
 23
0.0386864369
 33
0.0
 40
0.0
 40
0.0
 40
0.0
 40
0.0
 40
1.0
 40
1.0
 40
1.0
 40
1.0
 10
27.9087958366
 20
-29.6448571147
 30
0.0
 10
27.8411821373
 20
-29.6425005724
 30
0.0
 10
27.7734468243
 20
-29.6357068012
 30
0.0
 10
27.7070324263
 20
-29.6228113222
 30
0.0
 11
27.9087958366
 21
-29.6448571147
 31
0.0
 11
27.7070324263
 21
-29.6228113222
 31
0.0
  0
SPLINE
  5
37B
100
AcDbEntity
  8
RACCORDO
100
AcDbSpline
 62
253
  6
CONTINUOUS
 70
0
 71
3
 72
8
 73
4
 74
2
 42
0.0000001
 43
0.0000001
 44
0.0000000001
 12
0.0000622899
 22
21.9532447681
 32
0.0
 13
0.001072001
 23
21.953244742
 33
0.0
 40
0.0
 40
0.0
 40
0.0
 40
0.0
 40
1.0
 40
1.0
 40
1.0
 40
1.0
 10
31.2722860662
 20
-57.0185985588
 30
0.0
 10
31.2723068295
 20
-49.7008503028
 30
0.0
 10
31.2724343144
 20
-42.3831020438
 30
0.0
 10
31.272791648
 20
-35.0653537964
 30
0.0
 11
31.2722860662
 21
-57.0185985588
 31
0.0
 11
31.272791648
 21
-35.0653537964
 31
0.0
  0
LINE
  5
37C
100
AcDbEntity
  8
RACCORDO
100
AcDbLine
 62
253
  6
CONTINUOUS
 10
31.272791648
 20
-35.0653537964
 11
31.2728080599
 21
-34.7327261794
  0
LINE
  5
37D
100
AcDbEntity
  8
RACCORDO
100
AcDbLine
 62
253
  6
CONTINUOUS
 10
31.2728080599
 20
-34.7327261794
 11
31.273120491
 21
-29.4117649473
  0
LINE
  5
37E
100
AcDbEntity
  8
RACCORDO
100
AcDbLine
 62
253
  6
CONTINUOUS
 10
31.273120491
 20
-29.4117649473
 11
31.2731276047
 21
-29.3078799154
  0
LINE
  5
37F
100
AcDbEntity
  8
RACCORDO
100
AcDbLine
 62
253
  6
CONTINUOUS
 10
31.2731276047
 20
-29.3078799154
 11
31.2735118332
 21
-24.4402282958
  0
LINE
  5
380
100
AcDbEntity
  8
RACCORDO
100
AcDbLine
 62
253
  6
CONTINUOUS
 10
31.2735118332
 20
-24.4402282958
 11
31.2735203548
 21
-24.345760554
  0
LINE
  5
381
100
AcDbEntity
  8
RACCORDO
100
AcDbLine
 62
253
  6
CONTINUOUS
 10
31.2735203548
 20
-24.345760554
 11
31.273656247
 21
-22.9012795696
  0
LINE
  5
382
100
AcDbEntity
  8
RACCORDO
100
AcDbLine
 62
253
  6
CONTINUOUS
 10
31.273656247
 20
-22.9012795696
 11
31.2736664805
 21
-22.7969352186
  0
LINE
  5
383
100
AcDbEntity
  8
RACCORDO
100
AcDbLine
 62
253
  6
CONTINUOUS
 10
31.2736664805
 20
-22.7969352186
 11
31.273820528
 21
-21.2929322821
  0
LINE
  5
384
100
AcDbEntity
  8
RACCORDO
100
AcDbLine
 62
253
  6
CONTINUOUS
 10
31.273820528
 20
-21.2929322821
 11
31.273982352
 21
-19.8327640458
  0
LINE
  5
385
100
AcDbEntity
  8
RACCORDO
100
AcDbLine
 62
253
  6
CONTINUOUS
 10
31.273982352
 20
-19.8327640458
 11
31.2741515763
 21
-18.4174184431
  0
SPLINE
  5
386
100
AcDbEntity
  8
RACCORDO
100
AcDbSpline
 62
253
  6
CONTINUOUS
 70
0
 71
3
 72
8
 73
4
 74
2
 42
0.0000001
 43
0.0000001
 44
0.0000000001
 12
0.0033055305
 22
26.6444275192
 32
0.0
 13
0.0051004005
 23
26.6444272361
 33
0.0
 40
0.0
 40
0.0
 40
0.0
 40
0.0
 40
1.0
 40
1.0
 40
1.0
 40
1.0
 10
31.2741515763
 20
-18.4174184431
 30
0.0
 10
31.2752534198
 20
-9.5359426033
 30
0.0
 10
31.2778974449
 20
-0.6544670207
 30
0.0
 10
31.2795975784
 20
8.2270087246
 30
0.0
 11
31.2741515763
 21
-18.4174184431
 31
0.0
 11
31.2795975784
 21
8.2270087246
 31
0.0
  0
SPLINE
  5
387
100
AcDbEntity
  8
RACCORDO
100
AcDbSpline
 62
253
  6
CONTINUOUS
 70
0
 71
3
 72
8
 73
4
 74
2
 42
0.0000001
 43
0.0000001
 44
0.0000000001
 12
0.002494651
 22
13.0320252334
 32
0.0
 13
0.0002195931
 23
13.0320254703
 33
0.0
 40
0.0
 40
0.0
 40
0.0
 40
0.0
 40
1.0
 40
1.0
 40
1.0
 40
1.0
 10
31.2795975784
 20
8.2270087246
 30
0.0
 10
31.2804291287
 20
12.5710171357
 30
0.0
 10
31.2808355148
 20
16.9150256407
 30
0.0
 10
31.2809087125
 20
21.2590341308
 30
0.0
 11
31.2795975784
 21
8.2270087246
 31
0.0
 11
31.2809087125
 21
21.2590341308
 31
0.0
  0
SPLINE
  5
388
100
AcDbEntity
  8
RACCORDO
100
AcDbSpline
 62
253
  6
CONTINUOUS
 70
0
 71
3
 72
11
 73
7
 74
5
 42
0.0000001
 43
0.0000001
 44
0.0000000001
 12
-0.0664400807
 22
2.9356346894
 32
0.0
 13
-2.6471582625
 23
1.2707944157
 33
0.0
 40
0.0
 40
0.0
 40
0.0
 40
0.0
 40
0.2445299842
 40
0.5087981172
 40
0.768235356
 40
1.0
 40
1.0
 40
1.0
 40
1.0
 10
31.2809087125
 20
21.2590341308
 30
0.0
 10
31.2754931818
 20
21.4983176989
 30
0.0
 10
31.1795554047
 20
21.9950755353
 30
0.0
 10
30.8590958278
 20
22.6823061172
 30
0.0
 10
30.3980846283
 20
23.268517981
 30
0.0
 10
30.0053078721
 20
23.5619990569
 30
0.0
 10
29.8008019747
 20
23.6601741287
 30
0.0
 11
31.2809087125
 21
21.2590341308
 31
0.0
 11
31.1564140794
 21
21.966193711
 31
0.0
 11
30.8313310675
 21
22.6708118575
 31
0.0
 11
30.3552461036
 21
23.2655340786
 31
0.0
 11
29.8008019747
 21
23.6601741287
 31
0.0
  0
SPLINE
  5
389
100
AcDbEntity
  8
RACCORDO
100
AcDbSpline
 62
253
  6
CONTINUOUS
 70
0
 71
3
 72
9
 73
5
 74
3
 42
0.0000001
 43
0.0000001
 44
0.0000000001
 12
-0.3075270967
 22
0.2233729804
 32
0.0
 13
-0.2154577427
 23
0.3131235614
 33
0.0
 40
0.0
 40
0.0
 40
0.0
 40
0.0
 40
0.2253148049
 40
1.0
 40
1.0
 40
1.0
 40
1.0
 10
-33.4548220029
 20
0.6777589521
 30
0.0
 10
-33.4779188055
 20
0.6945353653
 30
0.0
 10
-33.576104152
 20
0.7749375896
 30
0.0
 10
-33.6578437672
 20
0.8739661208
 30
0.0
 10
-33.713481075
 20
0.9548235165
 30
0.0
 11
-33.4548220029
 21
0.6777589521
 31
0.0
 11
-33.5213291333
 21
0.7317125855
 31
0.0
 11
-33.713481075
 21
0.9548235165
 31
0.0
  0
SPLINE
  5
38A
100
AcDbEntity
  8
RACCORDO
100
AcDbSpline
 62
253
  6
CONTINUOUS
 70
0
 71
3
 72
9
 73
5
 74
3
 42
0.0000001
 43
0.0000001
 44
0.0000000001
 12
-0.5523943127
 22
0.8027916395
 32
0.0
 13
-0.0638132488
 23
0.9723897173
 33
0.0
 40
0.0
 40
0.0
 40
0.0
 40
0.0
 40
0.245150927
 40
1.0
 40
1.0
 40
1.0
 40
1.0
 10
-33.713481075
 20
0.9548235165
 30
0.0
 10
-33.7586210676
 20
1.0204252214
 30
0.0
 10
-33.9221388212
 20
1.301281633
 30
0.0
 10
-34.0188202215
 20
1.6238121512
 30
0.0
 10
-34.0348766787
 20
1.8684813101
 30
0.0
 11
-33.713481075
 21
0.9548235165
 31
0.0
 11
-33.8347773289
 21
1.1606342119
 31
0.0
 11
-34.0348766787
 21
1.8684813101
 31
0.0
  0
SPLINE
  5
38B
100
AcDbEntity
  8
RACCORDO
100
AcDbSpline
 62
253
  6
CONTINUOUS
 70
0
 71
3
 72
9
 73
5
 74
3
 42
0.0000001
 43
0.0000001
 44
0.0000000001
 12
-0.8503672325
 22
0.4427937569
 32
0.0
 13
-0.8161395617
 23
-0.5030973635
 33
0.0
 40
0.0
 40
0.0
 40
0.0
 40
0.0
 40
0.5417450594
 40
1.0
 40
1.0
 40
1.0
 40
1.0
 10
-34.1031215618
 20
55.6121358964
 30
0.0
 10
-34.2566823107
 20
55.6920963398
 30
0.0
 10
-34.569003056
 20
55.8021379022
 30
0.0
 10
-34.9036915524
 20
55.7301433308
 30
0.0
 10
-35.0283582145
 20
55.65329438
 30
0.0
 11
-34.1031215618
 21
55.6121358964
 31
0.0
 11
-34.6016434122
 21
55.7578999174
 31
0.0
 11
-35.0283582145
 21
55.65329438
 31
0.0
  0
SPLINE
  5
38C
100
AcDbEntity
  8
RACCORDO
100
AcDbSpline
 62
7
  6
CONTINUOUS
 70
0
 71
3
 72
8
 73
4
 74
2
 42
0.0000001
 43
0.0000001
 44
0.0000000001
 12
-0.0526023996
 22
0.0628231865
 32
0.0
 13
-0.0471626981
 23
0.0670033217
 33
0.0
 40
0.0
 40
0.0
 40
0.0
 40
0.0
 40
1.0
 40
1.0
 40
1.0
 40
1.0
 10
-33.6126703896
 20
1.3541355747
 30
0.0
 10
-33.6302045228
 20
1.3750766369
 30
0.0
 10
-33.6467796207
 20
1.3968451446
 30
0.0
 10
-33.6625005201
 20
1.4191795852
 30
0.0
 11
-33.6126703896
 21
1.3541355747
 31
0.0
 11
-33.6625005201
 21
1.4191795852
 31
0.0
  0
SPLINE
  5
38D
100
AcDbEntity
  8
RACCORDO
100
AcDbSpline
 62
7
  6
CONTINUOUS
 70
0
 71
3
 72
8
 73
4
 74
2
 42
0.0000001
 43
0.0000001
 44
0.0000000001
 12
-0.0958917674
 22
0.136231963
 32
0.0
 13
-0.078608352
 23
0.1468846684
 33
0.0
 40
0.0
 40
0.0
 40
0.0
 40
0.0
 40
1.0
 40
1.0
 40
1.0
 40
1.0
 10
-33.6625005201
 20
1.4191795852
 30
0.0
 10
-33.6944644426
 20
1.4645902395
 30
0.0
 10
-33.7230160998
 20
1.5124653637
 30
0.0
 10
-33.7492188838
 20
1.5614269198
 30
0.0
 11
-33.6625005201
 21
1.4191795852
 31
0.0
 11
-33.7492188838
 21
1.5614269198
 31
0.0
  0
SPLINE
  5
38E
100
AcDbEntity
  8
RACCORDO
100
AcDbSpline
 62
7
  6
CONTINUOUS
 70
0
 71
3
 72
9
 73
5
 74
3
 42
0.0000001
 43
0.0000001
 44
0.0000000001
 12
-0.1951803988
 22
0.3647068975
 32
0.0
 13
-0.0400018754
 23
0.4117114999
 33
0.0
 40
0.0
 40
0.0
 40
0.0
 40
0.0
 40
0.2597069982
 40
1.0
 40
1.0
 40
1.0
 40
1.0
 10
-33.7492188838
 20
1.5614269198
 30
0.0
 10
-33.7661154556
 20
1.592999231
 30
0.0
 10
-33.8277296812
 20
1.716206562
 30
0.0
 10
-33.8676072132
 20
1.8515830098
 30
0.0
 10
-33.8774782493
 20
1.9531787239
 30
0.0
 11
-33.7492188838
 21
1.5614269198
 31
0.0
 11
-33.7966526562
 21
1.6578156225
 31
0.0
 11
-33.8774782493
 21
1.9531787239
 31
0.0
  0
SPLINE
  5
38F
100
AcDbEntity
  8
RACCORDO
100
AcDbSpline
 62
7
  6
CONTINUOUS
 70
0
 71
3
 72
8
 73
4
 74
2
 42
0.0000001
 43
0.0000001
 44
0.0000000001
 12
-0.0511079249
 22
0.0498487267
 32
0.0
 13
-0.04583278
 23
0.0547382117
 33
0.0
 40
0.0
 40
0.0
 40
0.0
 40
0.0
 40
1.0
 40
1.0
 40
1.0
 40
1.0
 10
-33.5639781206
 20
1.3019246708
 30
0.0
 10
-33.5810140956
 20
1.3185409131
 30
0.0
 10
-33.5973927962
 20
1.3358895041
 30
0.0
 10
-33.6126703896
 20
1.3541355747
 30
0.0
 11
-33.5639781206
 21
1.3019246708
 31
0.0
 11
-33.6126703896
 21
1.3541355747
 31
0.0
  0
SPLINE
  5
390
100
AcDbEntity
  8
RACCORDO
100
AcDbSpline
 62
253
  6
CONTINUOUS
 70
0
 71
3
 72
10
 73
6
 74
4
 42
0.0000001
 43
0.0000001
 44
0.0000000001
 12
-0.8650780491
 22
0.5233820004
 32
0.0
 13
-0.0000737392
 23
-1.0110829561
 33
0.0
 40
0.0
 40
0.0
 40
0.0
 40
0.0
 40
0.2571663721
 40
0.4726939677
 40
1.0
 40
1.0
 40
1.0
 40
1.0
 10
-34.8336648308
 20
54.4453340075
 30
0.0
 10
-34.9078211586
 20
54.4901994243
 30
0.0
 10
-35.0621601733
 20
54.5567068085
 30
0.0
 10
-35.4169731491
 20
54.4603804944
 30
0.0
 10
-35.4800024466
 20
54.1500961307
 30
0.0
 10
-35.4800154076
 20
53.9723794167
 30
0.0
 11
-34.8336648308
 21
54.4453340075
 31
0.0
 11
-35.0797155762
 21
54.5294032045
 31
0.0
 11
-35.2894683156
 21
54.4703160402
 31
0.0
 11
-35.4800154076
 21
53.9723794167
 31
0.0
  0
SPLINE
  5
391
100
AcDbEntity
  8
RACCORDO
100
AcDbSpline
 62
253
  6
CONTINUOUS
 70
0
 71
3
 72
9
 73
5
 74
3
 42
0.0000001
 43
0.0000001
 44
0.0000000001
 12
-0.0003913266
 22
0.5782225515
 32
0.0
 13
0.5175008247
 23
0.2579425685
 33
0.0
 40
0.0
 40
0.0
 40
0.0
 40
0.0
 40
0.3141006992
 40
1.0
 40
1.0
 40
1.0
 40
1.0
 10
-34.0342612533
 20
8.8928680864
 30
0.0
 10
-34.0343022253
 20
8.9534081223
 30
0.0
 10
-34.0234156011
 20
9.1411137316
 30
0.0
 10
-33.9338786377
 20
9.3549580058
 30
0.0
 10
-33.8155608198
 20
9.4139322149
 30
0.0
 11
-34.0342612533
 21
8.8928680864
 31
0.0
 11
-34.0197036494
 21
9.0739038696
 31
0.0
 11
-33.8155608198
 21
9.4139322149
 31
0.0
  0
SPLINE
  5
392
100
AcDbEntity
  8
RACCORDO
100
AcDbSpline
 62
7
  6
CONTINUOUS
 70
0
 71
3
 72
8
 73
4
 74
2
 42
0.0000001
 43
0.0000001
 44
0.0000000001
 12
0.0
 22
0.1288416612
 32
0.0
 13
0.0213681562
 23
0.1270573712
 33
0.0
 40
0.0
 40
0.0
 40
0.0
 40
0.0
 40
1.0
 40
1.0
 40
1.0
 40
1.0
 10
-33.8814110766
 20
8.9663512541
 30
0.0
 10
-33.8814110766
 20
9.0092984745
 30
0.0
 10
-33.8782734595
 20
9.0524312663
 30
0.0
 10
-33.8711507408
 20
9.0947837234
 30
0.0
 11
-33.8814110766
 21
8.9663512541
 31
0.0
 11
-33.8711507408
 21
9.0947837234
 31
0.0
  0
LINE
  5
393
100
AcDbEntity
  8
RACCORDO
100
AcDbLine
 62
253
  6
CONTINUOUS
 10
20.7781919223
 20
25.99151974
 11
20.1023138089
 21
26.2842506075
  0
SPLINE
  5
394
100
AcDbEntity
  8
RACCORDO
100
AcDbSpline
 62
253
  6
CONTINUOUS
 70
0
 71
3
 72
8
 73
4
 74
2
 42
0.0000001
 43
0.0000001
 44
0.0000000001
 12
-0.6646989144
 22
0.2884353139
 32
0.0
 13
-0.6643052081
 23
0.2893409194
 33
0.0
 40
0.0
 40
0.0
 40
0.0
 40
0.0
 40
1.0
 40
1.0
 40
1.0
 40
1.0
 10
20.1023138089
 20
26.2842506075
 30
0.0
 10
19.8807475041
 20
26.3803957121
 30
0.0
 10
19.6592466164
 20
26.4766917115
 30
0.0
 10
19.437811547
 20
26.5731386846
 30
0.0
 11
20.1023138089
 21
26.2842506075
 31
0.0
 11
19.437811547
 21
26.5731386846
 31
0.0
  0
LINE
  5
395
100
AcDbEntity
  8
RACCORDO
100
AcDbLine
 62
253
  6
CONTINUOUS
 10
19.437811547
 20
26.5731386846
 11
19.0318154638
 21
26.7501733949
  0
SPLINE
  5
396
100
AcDbEntity
  8
RACCORDO
100
AcDbSpline
 62
253
  6
CONTINUOUS
 70
0
 71
3
 72
9
 73
5
 74
3
 42
0.0000001
 43
0.0000001
 44
0.0000000001
 12
-35.0165386177
 22
15.2863541462
 32
0.0
 13
-33.6820862849
 23
18.0373962462
 33
0.0
 40
0.0
 40
0.0
 40
0.0
 40
0.0
 40
0.2550178931
 40
1.0
 40
1.0
 40
1.0
 40
1.0
 10
19.0318154638
 20
26.7501733949
 30
0.0
 10
16.0552008297
 20
28.0496046708
 30
0.0
 10
4.4293770138
 20
33.250066932
 30
0.0
 10
-7.0000023277
 20
38.8937506164
 30
0.0
 10
-15.364186196
 20
43.3729297692
 30
0.0
 11
19.0318154638
 21
26.7501733949
 31
0.0
 11
10.1383902339
 21
30.7308510467
 31
0.0
 11
-15.364186196
 21
43.3729297692
 31
0.0
  0
LINE
  5
397
100
AcDbEntity
  8
RACCORDO
100
AcDbLine
 62
253
  6
CONTINUOUS
 10
-15.364186196
 20
43.3729297692
 11
-16.1386486498
 21
43.7886576525
  0
LINE
  5
398
100
AcDbEntity
  8
RACCORDO
100
AcDbLine
 62
253
  6
CONTINUOUS
 10
-16.936921133
 20
44.2192363601
 11
-16.9972528714
 21
44.2518640273
  0
SPLINE
  5
399
100
AcDbEntity
  8
RACCORDO
100
AcDbSpline
 62
253
  6
CONTINUOUS
 70
0
 71
3
 72
9
 73
5
 74
3
 42
0.0000001
 43
0.0000001
 44
0.0000000001
 12
-0.0000176064
 22
1.4556620916
 32
0.0
 13
-1.3457404838
 23
0.5549186206
 33
0.0
 40
0.0
 40
0.0
 40
0.0
 40
0.0
 40
0.248273903
 40
1.0
 40
1.0
 40
1.0
 40
1.0
 10
29.9723354844
 20
21.2462039715
 30
0.0
 10
29.9723340273
 20
21.3666716078
 30
0.0
 10
29.8855657506
 20
21.8463301839
 30
0.0
 10
29.5340298749
 20
22.2910424253
 30
0.0
 10
29.196820461
 20
22.4300913615
 30
0.0
 11
29.9723354844
 21
21.2462039715
 31
0.0
 11
29.9129291733
 21
21.6026909317
 31
0.0
 11
29.196820461
 21
22.4300913615
 31
0.0
  0
SPLINE
  5
39A
100
AcDbEntity
  8
RACCORDO
100
AcDbSpline
 62
253
  6
CONTINUOUS
 70
0
 71
3
 72
9
 73
5
 74
3
 42
0.0000001
 43
0.0000001
 44
0.0000000001
 12
0.9973739916
 22
-0.3720042063
 32
0.0
 13
0.5074744387
 23
-0.9357412583
 33
0.0
 40
0.0
 40
0.0
 40
0.0
 40
0.0
 40
0.2342692923
 40
1.0
 40
1.0
 40
1.0
 40
1.0
 10
27.5351924812
 20
-21.10716197
 30
0.0
 10
27.6130771809
 20
-21.1362116907
 30
0.0
 10
27.9310694366
 20
-21.2980521521
 30
0.0
 10
28.1794893917
 20
-21.5807158
 30
0.0
 10
28.3090189788
 20
-21.8195577387
 30
0.0
 11
27.5351924812
 21
-21.10716197
 31
0.0
 11
27.7582505482
 21
-21.2186712218
 31
0.0
 11
28.3090189788
 21
-21.8195577387
 31
0.0
  0
SPLINE
  5
39B
100
AcDbEntity
  8
RACCORDO
100
AcDbSpline
 62
253
  6
CONTINUOUS
 70
0
 71
3
 72
9
 73
5
 74
3
 42
0.0000001
 43
0.0000001
 44
0.0000000001
 12
0.3049789667
 22
-0.5623562101
 32
0.0
 13
0.0449982034
 23
-0.6381471921
 33
0.0
 40
0.0
 40
0.0
 40
0.0
 40
0.0
 40
0.2600915405
 40
1.0
 40
1.0
 40
1.0
 40
1.0
 10
28.3090189788
 20
-21.8195577387
 30
0.0
 10
28.3354597952
 20
-21.8683124364
 30
0.0
 10
28.4279473194
 20
-22.0604145584
 30
0.0
 10
28.4834945082
 20
-22.2716750232
 30
0.0
 10
28.494592692
 20
-22.4290651918
 30
0.0
 11
28.3090189788
 21
-21.8195577387
 31
0.0
 11
28.3810713151
 21
-21.9695367261
 31
0.0
 11
28.494592692
 21
-22.4290651918
 31
0.0
  0
LINE
  5
39C
100
AcDbEntity
  8
RACCORDO
100
AcDbLine
 62
253
  6
CONTINUOUS
 10
12.1095831815
 20
-17.1082878285
 11
12.2286511241
 21
-17.1255274511
  0
SPLINE
  5
39D
100
AcDbEntity
  8
RACCORDO
100
AcDbSpline
 62
253
  6
CONTINUOUS
 70
0
 71
3
 72
9
 73
5
 74
3
 42
0.0000001
 43
0.0000001
 44
0.0000000001
 12
6.6076230488
 22
-1.2777791773
 32
0.0
 13
6.452108138
 23
-1.9140800812
 33
0.0
 40
0.0
 40
0.0
 40
0.0
 40
0.0
 40
0.2555832321
 40
1.0
 40
1.0
 40
1.0
 40
1.0
 10
15.6227088179
 20
-17.6990907803
 30
0.0
 10
16.1856413695
 20
-17.8079504243
 30
0.0
 10
18.382989012
 20
-18.2605874606
 30
0.0
 10
20.5565511638
 20
-18.8265529445
 30
0.0
 10
22.1575703259
 20
-19.3015107137
 30
0.0
 11
15.6227088179
 21
-17.6990907803
 31
0.0
 11
17.3072980598
 21
-18.0467262279
 31
0.0
 11
22.1575703259
 21
-19.3015107137
 31
0.0
  0
SPLINE
  5
39E
100
AcDbEntity
  8
RACCORDO
100
AcDbSpline
 62
253
  6
CONTINUOUS
 70
0
 71
3
 72
8
 73
4
 74
2
 42
0.0000001
 43
0.0000001
 44
0.0000000001
 12
0.0256660789
 22
0.4699610036
 32
0.0
 13
0.2651791727
 23
0.3888471407
 33
0.0
 40
0.0
 40
0.0
 40
0.0
 40
0.0
 40
1.0
 40
1.0
 40
1.0
 40
1.0
 10
10.1381596151
 20
-17.9791899004
 30
0.0
 10
10.1467149748
 20
-17.8225362325
 30
0.0
 10
10.2026516813
 20
-17.6636671732
 30
0.0
 10
10.2910447389
 20
-17.5340514596
 30
0.0
 11
10.1381596151
 21
-17.9791899004
 31
0.0
 11
10.2910447389
 21
-17.5340514596
 31
0.0
  0
SPLINE
  5
39F
100
AcDbEntity
  8
RACCORDO
100
AcDbSpline
 62
253
  6
CONTINUOUS
 70
0
 71
3
 72
9
 73
5
 74
3
 42
0.0000001
 43
0.0000001
 44
0.0000000001
 12
0.3518291391
 22
0.5159068616
 32
0.0
 13
0.5722629276
 23
0.2499175357
 33
0.0
 40
0.0
 40
0.0
 40
0.0
 40
0.0
 40
0.744111391
 40
1.0
 40
1.0
 40
1.0
 40
1.0
 10
10.2910447389
 20
-17.5340514596
 30
0.0
 10
10.3783114289
 20
-17.4060874022
 30
0.0
 10
10.5408194052
 20
-17.2620531587
 30
0.0
 10
10.7263539043
 20
-17.1678854217
 30
0.0
 10
10.7751657591
 20
-17.1465684049
 30
0.0
 11
10.2910447389
 21
-17.5340514596
 31
0.0
 11
10.6329093277
 21
-17.2193435321
 31
0.0
 11
10.7751657591
 21
-17.1465684049
 31
0.0
  0
SPLINE
  5
3A0
100
AcDbEntity
  8
RACCORDO
100
AcDbSpline
 62
253
  6
CONTINUOUS
 70
0
 71
3
 72
9
 73
5
 74
3
 42
0.0000001
 43
0.0000001
 44
0.0000000001
 12
0.5274448788
 22
0.149170692
 32
0.0
 13
0.5469557108
 23
-0.0359088561
 33
0.0
 40
0.0
 40
0.0
 40
0.0
 40
0.0
 40
0.7454812657
 40
1.0
 40
1.0
 40
1.0
 40
1.0
 10
10.9559156711
 20
-17.0820906646
 30
0.0
 10
11.0869824298
 20
-17.0450226792
 30
0.0
 10
11.270736007
 20
-17.0195721799
 30
0.0
 10
11.4534233827
 20
-17.0242117238
 30
0.0
 10
11.4998268744
 20
-17.027258216
 30
0.0
 11
10.9559156711
 21
-17.0820906646
 31
0.0
 11
11.3603595951
 21
-17.0237992487
 31
0.0
 11
11.4998268744
 21
-17.027258216
 31
0.0
  0
LINE
  5
3A1
100
AcDbEntity
  8
RACCORDO
100
AcDbLine
 62
253
  6
CONTINUOUS
 10
9.8765188993
 20
-23.4552124044
 11
9.900455069
 21
-22.8871284607
  0
LINE
  5
3A2
100
AcDbEntity
  8
RACCORDO
100
AcDbLine
 62
253
  6
CONTINUOUS
 10
9.900455069
 20
-22.8871284607
 11
9.9256560863
 21
-22.3063063769
  0
LINE
  5
3A3
100
AcDbEntity
  8
RACCORDO
100
AcDbLine
 62
253
  6
CONTINUOUS
 10
10.1038188387
 20
-18.6195106895
 11
10.1116950587
 21
-18.4709031259
  0
LINE
  5
3A4
100
AcDbEntity
  8
RACCORDO
100
AcDbLine
 62
253
  6
CONTINUOUS
 10
10.1116950587
 20
-18.4709031259
 11
10.1381596151
 21
-17.9791899004
  0
SPLINE
  5
3A5
100
AcDbEntity
  8
RACCORDO
100
AcDbSpline
 62
253
  6
CONTINUOUS
 70
0
 71
3
 72
9
 73
5
 74
3
 42
0.0000001
 43
0.0000001
 44
0.0000000001
 12
-1.7110208437
 22
0.1743942301
 32
0.0
 13
-0.6126528392
 23
1.6070663252
 33
0.0
 40
0.0
 40
0.0
 40
0.0
 40
0.0
 40
0.5093438594
 40
1.0
 40
1.0
 40
1.0
 40
1.0
 10
11.2634321673
 20
-26.329684011
 30
0.0
 10
10.9729328473
 20
-26.3000751342
 30
0.0
 10
10.410728394
 20
-26.1253325971
 30
0.0
 10
9.9716527842
 20
-25.685475929
 30
0.0
 10
9.8714521583
 20
-25.422636942
 30
0.0
 11
11.2634321673
 21
-26.329684011
 31
0.0
 11
10.4321655349
 21
-26.0532881893
 31
0.0
 11
9.8714521583
 21
-25.422636942
 31
0.0
  0
SPLINE
  5
3A6
100
AcDbEntity
  8
RACCORDO
100
AcDbSpline
 62
253
  6
CONTINUOUS
 70
0
 71
3
 72
8
 73
4
 74
2
 42
0.0000001
 43
0.0000001
 44
0.0000000001
 12
-0.1253483187
 22
0.328804584
 32
0.0
 13
0.0121280239
 23
0.3516782144
 33
0.0
 40
0.0
 40
0.0
 40
0.0
 40
0.0
 40
1.0
 40
1.0
 40
1.0
 40
1.0
 10
9.8714521583
 20
-25.422636942
 30
0.0
 10
9.8296693854
 20
-25.313035414
 30
0.0
 10
9.807936224
 20
-25.1930380045
 30
0.0
 10
9.8119788987
 20
-25.075811933
 30
0.0
 11
9.8714521583
 21
-25.422636942
 31
0.0
 11
9.8119788987
 21
-25.075811933
 31
0.0
  0
SPLINE
  5
3A7
100
AcDbEntity
  8
RACCORDO
100
AcDbSpline
 62
253
  6
CONTINUOUS
 70
0
 71
3
 72
9
 73
5
 74
3
 42
0.0000001
 43
0.0000001
 44
0.0000000001
 12
-12.4957441695
 22
3.8988767108
 32
0.0
 13
-13.0226514906
 23
1.3249189062
 33
0.0
 40
0.0
 40
0.0
 40
0.0
 40
0.0
 40
0.4865383927
 40
1.0
 40
1.0
 40
1.0
 40
1.0
 10
24.0700666177
 20
-28.9524950662
 30
0.0
 10
22.0435135231
 20
-28.3201773302
 30
0.0
 10
17.8165242458
 20
-27.2058263553
 30
0.0
 10
13.4923093559
 20
-26.556449008
 30
0.0
 10
11.2634321673
 20
-26.329684011
 30
0.0
 11
24.0700666177
 21
-28.9524950662
 31
0.0
 11
17.9073131764
 21
-27.3458966404
 31
0.0
 11
11.2634321673
 21
-26.329684011
 31
0.0
  0
SPLINE
  5
3A8
100
AcDbEntity
  8
RACCORDO
100
AcDbSpline
 62
253
  6
CONTINUOUS
 70
0
 71
3
 72
9
 73
5
 74
3
 42
0.0000001
 43
0.0000001
 44
0.0000000001
 12
-0.0002715492
 22
-0.7460898548
 32
0.0
 13
-0.637362268
 23
-0.3878395087
 33
0.0
 40
0.0
 40
0.0
 40
0.0
 40
0.0
 40
0.5325121708
 40
1.0
 40
1.0
 40
1.0
 40
1.0
 10
28.4945301122
 20
-29.4454645605
 30
0.0
 10
28.4944819111
 20
-29.5778985366
 30
0.0
 10
28.4521063422
 20
-29.8327047527
 30
0.0
 10
28.2801983114
 20
-30.0344651182
 30
0.0
 10
28.1808786104
 20
-30.0949018682
 30
0.0
 11
28.4945301122
 21
-29.4454645605
 31
0.0
 11
28.4126194806
 21
-29.834231189
 31
0.0
 11
28.1808786104
 21
-30.0949018682
 31
0.0
  0
SPLINE
  5
3A9
100
AcDbEntity
  8
RACCORDO
100
AcDbSpline
 62
253
  6
CONTINUOUS
 70
0
 71
3
 72
8
 73
4
 74
2
 42
0.0000001
 43
0.0000001
 44
0.0000000001
 12
-0.1844408144
 22
-0.1122335576
 32
0.0
 13
-0.2119909101
 23
-0.0409223596
 33
0.0
 40
0.0
 40
0.0
 40
0.0
 40
0.0
 40
1.0
 40
1.0
 40
1.0
 40
1.0
 10
28.1808786104
 20
-30.0949018682
 30
0.0
 10
28.119398339
 20
-30.1323130541
 30
0.0
 10
28.049845044
 20
-30.1582872054
 30
0.0
 10
27.9791814073
 20
-30.1719279919
 30
0.0
 11
28.1808786104
 21
-30.0949018682
 31
0.0
 11
27.9791814073
 21
-30.1719279919
 31
0.0
  0
SPLINE
  5
3AA
100
AcDbEntity
  8
RACCORDO
100
AcDbSpline
 62
253
  6
CONTINUOUS
 70
0
 71
3
 72
9
 73
5
 74
3
 42
0.0000001
 43
0.0000001
 44
0.0000000001
 12
-0.2524842586
 22
-0.0487391258
 32
0.0
 13
-0.2543359268
 23
0.0379083048
 33
0.0
 40
0.0
 40
0.0
 40
0.0
 40
0.0
 40
0.7397848204
 40
1.0
 40
1.0
 40
1.0
 40
1.0
 10
27.9791814073
 20
-30.1719279919
 30
0.0
 10
27.9169200667
 20
-30.1839468137
 30
0.0
 10
27.8299789919
 20
-30.1880323821
 30
0.0
 10
27.7447945885
 20
-30.1785277903
 30
0.0
 10
27.7227338989
 20
-30.1752396849
 30
0.0
 11
27.9791814073
 21
-30.1719279919
 31
0.0
 11
27.7892460858
 21
-30.1825540523
 31
0.0
 11
27.7227338989
 21
-30.1752396849
 31
0.0
  0
SPLINE
  5
3AB
100
AcDbEntity
  8
RACCORDO
100
AcDbSpline
 62
253
  6
CONTINUOUS
 70
0
 71
3
 72
10
 73
6
 74
4
 42
0.0000001
 43
0.0000001
 44
0.0000000001
 12
1.2556792692
 22
0.5047851839
 32
0.0
 13
0.0300253789
 23
1.353010342
 33
0.0
 40
0.0
 40
0.0
 40
0.0
 40
0.0
 40
0.2224887843
 40
0.4573510625
 40
1.0
 40
1.0
 40
1.0
 40
1.0
 10
30.6482746392
 20
-58.1435506438
 30
0.0
 10
30.7413994905
 20
-58.1061142965
 30
0.0
 10
30.9200957302
 20
-57.9923995829
 30
0.0
 10
31.1964534301
 20
-57.6267260449
 30
0.0
 10
31.2668549862
 20
-57.2633351003
 30
0.0
 10
31.2722860662
 20
-57.0185985588
 30
0.0
 11
30.6482746392
 21
-58.1435506438
 31
0.0
 11
30.9028831798
 21
-57.9828087595
 31
0.0
 11
31.0982119576
 21
-57.7320601535
 31
0.0
 11
31.2722860662
 21
-57.0185985588
 31
0.0
  0
LINE
  5
3AC
100
AcDbEntity
  8
RACCORDO
100
AcDbLine
 62
253
  6
CONTINUOUS
 10
28.5082261409
 20
-22.5160190541
 11
28.5059060277
 21
-23.1361109255
  0
LINE
  5
3AD
100
AcDbEntity
  8
RACCORDO
100
AcDbLine
 62
253
  6
CONTINUOUS
 10
28.5059060277
 20
-23.1361109255
 11
28.5036737859
 21
-23.7509447625
  0
LINE
  5
3AE
100
AcDbEntity
  8
RACCORDO
100
AcDbLine
 62
253
  6
CONTINUOUS
 10
28.5036737859
 20
-23.7509447625
 11
28.4888585426
 21
-28.3948126539
  0
LINE
  5
3AF
100
AcDbEntity
  8
RACCORDO
100
AcDbLine
 62
253
  6
CONTINUOUS
 10
28.4888585426
 20
-28.3948126539
 11
28.4873802748
 21
-28.9253460553
  0
LINE
  5
3B0
100
AcDbEntity
  8
RACCORDO
100
AcDbLine
 62
253
  6
CONTINUOUS
 10
28.4873802748
 20
-28.9253460553
 11
28.4861926619
 21
-29.3626330265
  0
LINE
  5
3B1
100
AcDbEntity
  8
RACCORDO
100
AcDbLine
 62
253
  6
CONTINUOUS
 10
28.4861926619
 20
-29.3626330265
 11
28.4859795692
 21
-29.4421843311
  0
SPLINE
  5
3B2
100
AcDbEntity
  8
RACCORDO
100
AcDbSpline
 62
253
  6
CONTINUOUS
 70
0
 71
3
 72
9
 73
5
 74
3
 42
0.0000001
 43
0.0000001
 44
0.0000000001
 12
0.218017592
 22
-0.4078534474
 32
0.0
 13
0.1138526135
 23
-0.448233965
 33
0.0
 40
0.0
 40
0.0
 40
0.0
 40
0.0
 40
0.2122442062
 40
1.0
 40
1.0
 40
1.0
 40
1.0
 10
-25.5725094519
 20
1.557586973
 30
0.0
 10
-25.5570851283
 20
1.5287321293
 30
0.0
 10
-25.4911134117
 20
1.3892106926
 30
0.0
 10
-25.4458455482
 20
1.2408121587
 30
0.0
 10
-25.4159495295
 20
1.1231125244
 30
0.0
 11
-25.5725094519
 21
1.557586973
 31
0.0
 11
-25.530013558
 21
1.4691070041
 31
0.0
 11
-25.4159495295
 21
1.1231125244
 31
0.0
  0
SPLINE
  5
3B3
100
AcDbEntity
  8
RACCORDO
100
AcDbSpline
 62
253
  6
CONTINUOUS
 70
0
 71
3
 72
9
 73
5
 74
3
 42
0.0000001
 43
0.0000001
 44
0.0000000001
 12
0.0971082412
 22
-0.3823119262
 32
0.0
 13
0.0597790845
 23
-0.3898959868
 33
0.0
 40
0.0
 40
0.0
 40
0.0
 40
0.0
 40
0.2358081465
 40
1.0
 40
1.0
 40
1.0
 40
1.0
 10
-25.4159495295
 20
1.1231125244
 30
0.0
 10
-25.4083165581
 20
1.0930617688
 30
0.0
 10
-25.3777482122
 20
0.9651691074
 30
0.0
 10
-25.353852942
 20
0.8357210792
 30
0.0
 10
-25.3386253789
 20
0.7364026335
 30
0.0
 11
-25.4159495295
 21
1.1231125244
 31
0.0
 11
-25.3942710877
 21
1.032659019
 31
0.0
 11
-25.3386253789
 21
0.7364026335
 31
0.0
  0
SPLINE
  5
3B4
100
AcDbEntity
  8
RACCORDO
100
AcDbSpline
 62
253
  6
CONTINUOUS
 70
0
 71
3
 72
9
 73
5
 74
3
 42
0.0000001
 43
0.0000001
 44
0.0000000001
 12
0.0247572063
 22
-0.4787876125
 32
0.0
 13
-0.0263727816
 23
-0.4787013406
 33
0.0
 40
0.0
 40
0.0
 40
0.0
 40
0.0
 40
0.2589495604
 40
1.0
 40
1.0
 40
1.0
 40
1.0
 10
-25.285317595
 20
0.2114104423
 30
0.0
 10
-25.2831806391
 20
0.1700831617
 30
0.0
 10
-25.2768559957
 20
0.0104040942
 30
0.0
 10
-25.2779067968
 20
-0.1496493285
 30
0.0
 10
-25.2844213173
 20
-0.2678966081
 30
0.0
 11
-25.285317595
 21
0.2114104423
 31
0.0
 11
-25.2803996713
 21
0.0873604107
 31
0.0
 11
-25.2844213173
 21
-0.2678966081
 31
0.0
  0
LINE
  5
3B5
100
AcDbEntity
  8
RACCORDO
100
AcDbLine
 62
253
  6
CONTINUOUS
 10
-33.6048695255
 20
9.4628692368
 11
-33.5208001784
 21
9.4063604849
  0
SPLINE
  5
3B6
100
AcDbEntity
  8
RACCORDO
100
AcDbSpline
 62
253
  6
CONTINUOUS
 70
0
 71
3
 72
9
 73
5
 74
3
 42
0.0000001
 43
0.0000001
 44
0.0000000001
 12
1.9650623593
 22
-1.524970442
 32
0.0
 13
1.8345047369
 23
-1.6797610827
 33
0.0
 40
0.0
 40
0.0
 40
0.0
 40
0.0
 40
0.2550619693
 40
1.0
 40
1.0
 40
1.0
 40
1.0
 10
-31.1048874416
 20
7.6665162465
 30
0.0
 10
-30.9378165499
 20
7.5368622585
 30
0.0
 10
-30.2872538359
 20
7.022862523
 30
0.0
 10
-29.6554761428
 20
6.484755716
 30
0.0
 10
-29.1999453607
 20
6.067649745
 30
0.0
 11
-31.1048874416
 21
7.6665162465
 31
0.0
 11
-30.6071710257
 21
7.2730903647
 31
0.0
 11
-29.1999453607
 21
6.067649745
 31
0.0
  0
LINE
  5
3B7
100
AcDbEntity
  8
RACCORDO
100
AcDbLine
 62
253
  6
CONTINUOUS
 10
-34.0378581906
 20
1.9595543275
 11
-34.0373927113
 21
3.0219814629
  0
LINE
  5
3B8
100
AcDbEntity
  8
RACCORDO
100
AcDbLine
 62
253
  6
CONTINUOUS
 10
-34.0373927113
 20
3.0219814629
 11
-34.0346376395
 21
8.2788086013
  0
LINE
  5
3B9
100
AcDbEntity
  8
RACCORDO
100
AcDbLine
 62
253
  6
CONTINUOUS
 10
-34.0346376395
 20
8.2788086013
 11
-34.0342612533
 21
8.8928680864
  0
SPLINE
  5
3BA
100
AcDbEntity
  8
RACCORDO
100
AcDbSpline
 62
253
  6
CONTINUOUS
 70
0
 71
3
 72
9
 73
5
 74
3
 42
0.0000001
 43
0.0000001
 44
0.0000000001
 12
-0.0036816781
 22
-0.6146429209
 32
0.0
 13
0.5720080514
 23
-0.2249583609
 33
0.0
 40
0.0
 40
0.0
 40
0.0
 40
0.0
 40
0.5746041679
 40
1.0
 40
1.0
 40
1.0
 40
1.0
 10
29.1952475539
 20
-57.5882150455
 30
0.0
 10
29.1945423847
 20
-57.7059405069
 30
0.0
 10
29.2147112044
 20
-57.9153417068
 30
0.0
 10
29.3598241811
 20
-58.0914720566
 30
0.0
 10
29.4409341281
 20
-58.1233708396
 30
0.0
 11
29.1952475539
 21
-57.5882150455
 31
0.0
 11
29.2589733665
 21
-57.9356010764
 31
0.0
 11
29.4409341281
 21
-58.1233708396
 31
0.0
  0
SPLINE
  5
3BB
100
AcDbEntity
  8
RACCORDO
100
AcDbSpline
 62
253
  6
CONTINUOUS
 70
0
 71
3
 72
9
 73
5
 74
3
 42
0.0000001
 43
0.0000001
 44
0.0000000001
 12
-0.3341236988
 22
0.20880545
 32
0.0
 13
0.0000011765
 23
0.3940029975
 33
0.0
 40
0.0
 40
0.0
 40
0.0
 40
0.0
 40
0.5555534104
 40
1.0
 40
1.0
 40
1.0
 40
1.0
 10
-35.4997769731
 20
-24.2983430014
 30
0.0
 10
-35.5616514932
 20
-24.2596754747
 30
0.0
 10
-35.6669117118
 20
-24.1754278815
 30
0.0
 10
-35.7190303832
 20
-24.0443469582
 30
0.0
 10
-35.7190302089
 20
-23.9859758621
 30
0.0
 11
-35.4997769731
 21
-24.2983430014
 31
0.0
 11
-35.6622052546
 21
-24.1516127794
 31
0.0
 11
-35.7190302089
 21
-23.9859758621
 31
0.0
  0
SPLINE
  5
3BC
100
AcDbEntity
  8
RACCORDO
100
AcDbSpline
 62
253
  6
CONTINUOUS
 70
0
 71
3
 72
9
 73
5
 74
3
 42
0.0000001
 43
0.0000001
 44
0.0000000001
 12
-0.3494830311
 22
0.2101004991
 32
0.0
 13
0.0000101697
 23
0.4077751937
 33
0.0
 40
0.0
 40
0.0
 40
0.0
 40
0.0
 40
0.5576510814
 40
1.0
 40
1.0
 40
1.0
 40
1.0
 10
-35.4800154241
 20
53.9723794098
 30
0.0
 10
-35.5449786208
 20
54.0114336667
 30
0.0
 10
-35.6555738282
 20
54.0965316846
 30
0.0
 10
-35.7112733803
 20
54.2319747622
 30
0.0
 10
-35.7112718808
 20
54.2921010675
 30
0.0
 11
-35.4800154241
 21
53.9723794098
 31
0.0
 11
-35.6512545333
 21
54.1219997114
 31
0.0
 11
-35.7112718808
 21
54.2921010675
 31
0.0
  0
SPLINE
  5
3BD
100
AcDbEntity
  8
RACCORDO
100
AcDbSpline
 62
253
  6
CONTINUOUS
 70
0
 71
3
 72
9
 73
5
 74
3
 42
0.0000001
 43
0.0000001
 44
0.0000000001
 12
0.0039440257
 22
1.124405484
 32
0.0
 13
0.8455544117
 23
0.7411754075
 33
0.0
 40
0.0
 40
0.0
 40
0.0
 40
0.0
 40
0.237345075
 40
1.0
 40
1.0
 40
1.0
 40
1.0
 10
-34.833664823
 20
54.4453340108
 30
0.0
 10
-34.8333527913
 20
54.5342913788
 30
0.0
 10
-34.7806623122
 20
54.9075288524
 30
0.0
 10
-34.5697214399
 20
55.2548279537
 30
0.0
 10
-34.3547660278
 20
55.443248312
 30
0.0
 11
-34.833664823
 21
54.4453340108
 31
0.0
 11
-34.7994264704
 21
54.7100023529
 31
0.0
 11
-34.3547660278
 21
55.443248312
 31
0.0
  0
SPLINE
  5
3BE
100
AcDbEntity
  8
RACCORDO
100
AcDbSpline
 62
253
  6
CONTINUOUS
 70
0
 71
3
 72
8
 73
4
 74
2
 42
0.0000001
 43
0.0000001
 44
0.0000000001
 12
0.1172948367
 22
0.1028154394
 32
0.0
 13
0.1294472072
 23
0.0870201922
 33
0.0
 40
0.0
 40
0.0
 40
0.0
 40
0.0
 40
1.0
 40
1.0
 40
1.0
 40
1.0
 10
-34.3547660278
 20
55.443248312
 30
0.0
 10
-34.3156677489
 20
55.4775201251
 30
0.0
 10
-34.2744421103
 20
55.5095490568
 30
0.0
 10
-34.2312930413
 20
55.5385557875
 30
0.0
 11
-34.3547660278
 21
55.443248312
 31
0.0
 11
-34.2312930413
 21
55.5385557875
 31
0.0
  0
SPLINE
  5
3BF
100
AcDbEntity
  8
RACCORDO
100
AcDbSpline
 62
253
  6
CONTINUOUS
 70
0
 71
3
 72
8
 73
4
 74
2
 42
0.0000001
 43
0.0000001
 44
0.0000000001
 12
0.1226515769
 22
0.0824518662
 32
0.0
 13
0.1334313293
 23
0.0635436849
 33
0.0
 40
0.0
 40
0.0
 40
0.0
 40
0.0
 40
1.0
 40
1.0
 40
1.0
 40
1.0
 10
-34.2312930413
 20
55.5385557875
 30
0.0
 10
-34.1904091823
 20
55.5660397429
 30
0.0
 10
-34.147598594
 20
55.5909528951
 30
0.0
 10
-34.1031214842
 20
55.6121341234
 30
0.0
 11
-34.2312930413
 21
55.5385557875
 31
0.0
 11
-34.1031214842
 21
55.6121341234
 31
0.0
  0
SPLINE
  5
3C0
100
AcDbEntity
  8
RACCORDO
100
AcDbSpline
 62
253
  6
CONTINUOUS
 70
0
 71
3
 72
9
 73
5
 74
3
 42
0.0000001
 43
0.0000001
 44
0.0000000001
 12
1.2291421065
 22
-0.5111405623
 32
0.0
 13
1.2138551769
 23
0.5464527444
 33
0.0
 40
0.0
 40
0.0
 40
0.0
 40
0.0
 40
0.5026538093
 40
1.0
 40
1.0
 40
1.0
 40
1.0
 10
29.9723354795
 20
21.2462039686
 30
0.0
 10
30.1782798001
 20
21.1605617183
 30
0.0
 10
30.6290616024
 20
21.0967882733
 30
0.0
 10
31.079671423
 20
21.1684431075
 30
0.0
 10
31.2809068391
 20
21.2590351711
 30
0.0
 11
29.9723354795
 21
21.2462039686
 31
0.0
 11
30.6314107273
 21
21.1306672126
 31
0.0
 11
31.2809068391
 21
21.2590351711
 31
0.0
  0
SPLINE
  5
3C1
100
AcDbEntity
  8
RACCORDO
100
AcDbSpline
 62
253
  6
CONTINUOUS
 70
0
 71
3
 72
9
 73
5
 74
3
 42
0.0000001
 43
0.0000001
 44
0.0000000001
 12
1.2215627479
 22
-0.4886775143
 32
0.0
 13
1.1997104653
 23
0.5401074517
 33
0.0
 40
0.0
 40
0.0
 40
0.0
 40
0.0
 40
0.5038816259
 40
1.0
 40
1.0
 40
1.0
 40
1.0
 10
29.9784201165
 20
-57.0374416038
 30
0.0
 10
30.1835944576
 20
-57.119520144
 30
0.0
 10
30.6289016618
 20
-57.180090911
 30
0.0
 10
31.0738865977
 20
-57.1079176357
 30
0.0
 10
31.2722860662
 20
-57.0185985588
 30
0.0
 11
29.9784201165
 21
-57.0374416038
 31
0.0
 11
30.6322768709
 21
-57.1468578638
 31
0.0
 11
31.2722860662
 21
-57.0185985588
 31
0.0
  0
SPLINE
  5
3C2
100
AcDbEntity
  8
RACCORDO
100
AcDbSpline
 62
253
  6
CONTINUOUS
 70
0
 71
3
 72
9
 73
5
 74
3
 42
0.0000001
 43
0.0000001
 44
0.0000000001
 12
-0.1649703304
 22
0.156829876
 32
0.0
 13
-0.0555662859
 23
0.2207333409
 33
0.0
 40
0.0
 40
0.0
 40
0.0
 40
0.0
 40
0.3649056987
 40
1.0
 40
1.0
 40
1.0
 40
1.0
 10
-25.667222272
 20
-7.7499337059
 30
0.0
 10
-25.6872884765
 20
-7.7308576674
 30
0.0
 10
-25.7157017822
 20
-7.6565927201
 30
0.0
 10
-25.7370993885
 20
-7.5854032514
 30
0.0
 10
-25.7488626657
 20
-7.5386744224
 30
0.0
 11
-25.667222272
 21
-7.7499337059
 31
0.0
 11
-25.7070906472
 21
-7.6770677814
 31
0.0
 11
-25.7488626657
 21
-7.5386744224
 31
0.0
  0
SPLINE
  5
3C3
100
AcDbEntity
  8
RACCORDO
100
AcDbSpline
 62
253
  6
CONTINUOUS
 70
0
 71
3
 72
11
 73
7
 74
5
 42
0.0000001
 43
0.0000001
 44
0.0000000001
 12
0.000808226
 22
1.1116225574
 32
0.0
 13
0.9832134867
 23
-0.5186488244
 33
0.0
 40
0.0
 40
0.0
 40
0.0
 40
0.0
 40
0.3115919414
 40
0.5560255949
 40
0.7638659374
 40
1.0
 40
1.0
 40
1.0
 40
1.0
 10
-34.3331269728
 20
8.9034557399
 30
0.0
 10
-34.3330430272
 20
9.0189132835
 30
0.0
 10
-34.3102318619
 20
9.2257922432
 30
0.0
 10
-34.1739280508
 20
9.4901963533
 30
0.0
 10
-33.9199096448
 20
9.6008311372
 30
0.0
 10
-33.7522678119
 20
9.5456334704
 30
0.0
 10
-33.6748777469
 20
9.504809919
 30
0.0
 11
-34.3331269728
 21
8.9034557399
 31
0.0
 11
-34.2834823274
 21
9.2462522859
 31
0.0
 11
-34.1422250928
 21
9.4783666632
 31
0.0
 11
-33.9295131446
 21
9.5685506027
 31
0.0
 11
-33.6748777469
 21
9.504809919
 31
0.0
  0
SPLINE
  5
3C4
100
AcDbEntity
  8
RACCORDO
100
AcDbSpline
 62
253
  6
CONTINUOUS
 70
0
 71
3
 72
8
 73
4
 74
2
 42
0.0000001
 43
0.0000001
 44
0.0000000001
 12
0.0721826929
 22
-0.0380766429
 32
0.0
 13
0.0677696023
 23
-0.0454692522
 33
0.0
 40
0.0
 40
0.0
 40
0.0
 40
0.0
 40
1.0
 40
1.0
 40
1.0
 40
1.0
 10
-33.6748777469
 20
9.504809919
 30
0.0
 10
-33.6508168492
 20
9.4921177048
 30
0.0
 10
-33.6274593929
 20
9.4780256542
 30
0.0
 10
-33.6048695255
 20
9.4628692368
 30
0.0
 11
-33.6748777469
 21
9.504809919
 31
0.0
 11
-33.6048695255
 21
9.4628692368
 31
0.0
  0
LINE
  5
3C5
100
AcDbEntity
  8
RACCORDO
100
AcDbLine
 62
253
  6
CONTINUOUS
 10
-34.3305708772
 20
1.9660845739
 11
-34.341285624
 21
8.9087307715
  0
SPLINE
  5
3C6
100
AcDbEntity
  8
RACCORDO
100
AcDbSpline
 62
253
  6
CONTINUOUS
 70
0
 71
3
 72
9
 73
5
 74
3
 42
0.0000001
 43
0.0000001
 44
0.0000000001
 12
-1.1016692991
 22
0.7532526643
 32
0.0
 13
-0.2920089885
 23
1.3022271582
 33
0.0
 40
0.0
 40
0.0
 40
0.0
 40
0.0
 40
0.4612906484
 40
1.0
 40
1.0
 40
1.0
 40
1.0
 10
-33.6148749267
 20
0.4462099347
 30
0.0
 10
-33.7842715085
 20
0.562032738
 30
0.0
 10
-34.0712097781
 20
0.9222808804
 30
0.0
 10
-34.2382284892
 20
1.3402921104
 30
0.0
 10
-34.2906644801
 20
1.5741327597
 30
0.0
 11
-33.6148749267
 21
0.4462099347
 31
0.0
 11
-34.023477819
 21
0.9066822896
 31
0.0
 11
-34.2906644801
 21
1.5741327597
 31
0.0
  0
SPLINE
  5
3C7
100
AcDbEntity
  8
RACCORDO
100
AcDbSpline
 62
253
  6
CONTINUOUS
 70
0
 71
3
 72
9
 73
5
 74
3
 42
0.0000001
 43
0.0000001
 44
0.0000000001
 12
-0.087386419
 22
0.3897036481
 32
0.0
 13
0.0000678547
 23
0.399381165
 33
0.0
 40
0.0
 40
0.0
 40
0.0
 40
0.0
 40
0.2606696347
 40
1.0
 40
1.0
 40
1.0
 40
1.0
 10
-34.2906644801
 20
1.5741327597
 30
0.0
 10
-34.2982574754
 20
1.6079940622
 30
0.0
 10
-34.3241375351
 20
1.738571241
 30
0.0
 10
-34.3371435129
 20
1.8719391615
 30
0.0
 10
-34.3371267906
 20
1.9703640357
 30
0.0
 11
-34.2906644801
 21
1.5741327597
 31
0.0
 11
-34.3108749902
 21
1.6762587004
 31
0.0
 11
-34.3371267906
 21
1.9703640357
 31
0.0
  0
SPLINE
  5
3C8
100
AcDbEntity
  8
RACCORDO
100
AcDbSpline
 62
253
  6
CONTINUOUS
 70
0
 71
3
 72
9
 73
5
 74
3
 42
0.0000001
 43
0.0000001
 44
0.0000000001
 12
-12.8399294844
 22
4.1372736383
 32
0.0
 13
-13.4148542113
 23
1.4221493642
 33
0.0
 40
0.0
 40
0.0
 40
0.0
 40
0.0
 40
0.4858835283
 40
1.0
 40
1.0
 40
1.0
 40
1.0
 10
24.8291540984
 20
-28.9032958081
 30
0.0
 10
22.7495840179
 20
-28.2332181037
 30
0.0
 10
18.4040556319
 20
-27.0446051227
 30
0.0
 10
13.951573362
 20
-26.3447313892
 30
0.0
 10
11.6526408571
 20
-26.1010145848
 30
0.0
 11
24.8291540984
 21
-28.9032958081
 31
0.0
 11
18.5014927157
 21
-27.1935460971
 31
0.0
 11
11.6526408571
 21
-26.1010145848
 31
0.0
  0
SPLINE
  5
3C9
100
AcDbEntity
  8
RACCORDO
100
AcDbSpline
 62
253
  6
CONTINUOUS
 70
0
 71
3
 72
8
 73
4
 74
2
 42
0.0000001
 43
0.0000001
 44
0.0000000001
 12
-0.1981455139
 22
-0.1041861771
 32
0.0
 13
-0.223104114
 23
-0.0184650613
 33
0.0
 40
0.0
 40
0.0
 40
0.0
 40
0.0
 40
1.0
 40
1.0
 40
1.0
 40
1.0
 10
28.1778436122
 20
-29.8551784617
 30
0.0
 10
28.1117951075
 20
-29.8899071874
 30
0.0
 10
28.0368160535
 20
-29.9100245978
 30
0.0
 10
27.9624480154
 20
-29.9161796182
 30
0.0
 11
28.1778436122
 21
-29.8551784617
 31
0.0
 11
27.9624480154
 21
-29.9161796182
 31
0.0
  0
SPLINE
  5
3CA
100
AcDbEntity
  8
RACCORDO
100
AcDbSpline
 62
253
  6
CONTINUOUS
 70
0
 71
3
 72
9
 73
5
 74
3
 42
0.0000001
 43
0.0000001
 44
0.0000000001
 12
-0.2339579226
 22
-0.0193633694
 32
0.0
 13
-0.2283549642
 23
0.0544542006
 33
0.0
 40
0.0
 40
0.0
 40
0.0
 40
0.0
 40
0.7399920097
 40
1.0
 40
1.0
 40
1.0
 40
1.0
 10
27.9624480154
 20
-29.9161796182
 30
0.0
 10
27.9047390177
 20
-29.9209558644
 30
0.0
 10
27.8255442697
 20
-29.91665077
 30
0.0
 10
27.7488494753
 20
-29.9011483712
 30
0.0
 10
27.7290581035
 20
-29.8964288621
 30
0.0
 11
27.9624480154
 21
-29.9161796182
 31
0.0
 11
27.7889010013
 21
-29.908452882
 31
0.0
 11
27.7290581035
 21
-29.8964288621
 31
0.0
  0
SPLINE
  5
3CB
100
AcDbEntity
  8
RACCORDO
100
AcDbSpline
 62
7
  6
CONTINUOUS
 70
0
 71
3
 72
8
 73
4
 74
2
 42
0.0000001
 43
0.0000001
 44
0.0000000001
 12
-0.0668767059
 22
-0.0023846095
 32
0.0
 13
-0.0646974594
 23
0.0171002602
 33
0.0
 40
0.0
 40
0.0
 40
0.0
 40
0.0
 40
1.0
 40
1.0
 40
1.0
 40
1.0
 10
28.3858290811
 20
-29.7284978648
 30
0.0
 10
28.3635368458
 20
-29.7292927346
 30
0.0
 10
28.3408312001
 20
-29.7273092738
 30
0.0
 10
28.3192653803
 20
-29.7216091871
 30
0.0
 11
28.3858290811
 21
-29.7284978648
 31
0.0
 11
28.3192653803
 21
-29.7216091871
 31
0.0
  0
SPLINE
  5
3CC
100
AcDbEntity
  8
RACCORDO
100
AcDbSpline
 62
7
  6
CONTINUOUS
 70
0
 71
3
 72
9
 73
5
 74
3
 42
0.0000001
 43
0.0000001
 44
0.0000000001
 12
-0.197342611
 22
0.0521598532
 32
0.0
 13
-0.1997142773
 23
0.0421777648
 33
0.0
 40
0.0
 40
0.0
 40
0.0
 40
0.0
 40
0.3964866744
 40
1.0
 40
1.0
 40
1.0
 40
1.0
 10
28.3192653803
 20
-29.7216091871
 30
0.0
 10
28.2931841417
 20
-29.7147156249
 30
0.0
 10
28.2316946938
 20
-29.6842694547
 30
0.0
 10
28.1652770476
 20
-29.6677600733
 30
0.0
 10
28.125100305
 20
-29.6592751256
 30
0.0
 11
28.3192653803
 21
-29.7216091871
 31
0.0
 11
28.2436499272
 21
-29.69276351
 31
0.0
 11
28.125100305
 21
-29.6592751256
 31
0.0
  0
SPLINE
  5
3CD
100
AcDbEntity
  8
RACCORDO
100
AcDbSpline
 62
253
  6
CONTINUOUS
 70
0
 71
3
 72
9
 73
5
 74
3
 42
0.0000001
 43
0.0000001
 44
0.0000000001
 12
-2.6742348491
 22
5.4135445747
 32
0.0
 13
-4.483794514
 23
4.0439564348
 33
0.0
 40
0.0
 40
0.0
 40
0.0
 40
0.0
 40
0.4761485887
 40
1.0
 40
1.0
 40
1.0
 40
1.0
 10
-26.057319647
 20
-6.861671575
 30
0.0
 10
-26.48176403
 20
-6.002454372
 30
0.0
 10
-27.5993435342
 20
-4.3058073242
 30
0.0
 10
-29.0163191481
 20
-2.863942043
 30
0.0
 10
-29.7992665095
 20
-2.1577979477
 30
0.0
 11
-26.057319647
 21
-6.861671575
 31
0.0
 11
-27.6139101684
 21
-4.4445056571
 31
0.0
 11
-29.7992665095
 21
-2.1577979477
 31
0.0
  0
SPLINE
  5
3CE
100
AcDbEntity
  8
RACCORDO
100
AcDbSpline
 62
253
  6
CONTINUOUS
 70
0
 71
3
 72
9
 73
5
 74
3
 42
0.0000001
 43
0.0000001
 44
0.0000000001
 12
-3.2012186664
 22
2.8871949383
 32
0.0
 13
-3.5421203641
 23
2.4570467818
 33
0.0
 40
0.0
 40
0.0
 40
0.0
 40
0.0
 40
0.2419794394
 40
1.0
 40
1.0
 40
1.0
 40
1.0
 10
-29.7992665095
 20
-2.1577979477
 30
0.0
 10
-30.0574762089
 20
-1.9249173435
 30
0.0
 10
-31.144419795
 20
-0.9845403615
 30
0.0
 10
-32.2980770297
 20
-0.1233138994
 30
0.0
 10
-33.1930770511
 20
0.4975167602
 30
0.0
 11
-29.7992665095
 21
-2.1577979477
 31
0.0
 11
-30.5874185625
 21
-1.474448137
 31
0.0
 11
-33.1930770511
 21
0.4975167602
 31
0.0
  0
ELLIPSE
  5
3CF
100
AcDbEntity
  8
RACCORDO
100
AcDbEllipse
 62
7
  6
CONTINUOUS
 10
-1.0954859401
 20
-40.6484822939
 30
0.0
 11
47.7045522757
 21
0.3414828098
 31
0.0
 40
0.5053386444
 41
7.3423887259
 42
7.5763110847
  0
ELLIPSE
  5
3D0
100
AcDbEntity
  8
DRAFT
100
AcDbEllipse
 62
7
  6
CONTINUOUS
 10
-17.1380843749
 20
-33.0518548048
 30
0.0
 11
57.0327316271
 21
29.7278734275
 31
0.0
 40
0.0121390669
 41
7.3143849223
 42
7.322516944
  0
ELLIPSE
  5
3D1
100
AcDbEntity
  8
DRAFT
100
AcDbEllipse
 62
7
  6
CONTINUOUS
 10
-17.1380843749
 20
-33.0518548048
 30
0.0
 11
57.0327316271
 21
29.7278734274
 31
0.0
 40
0.0121390669
 41
7.3310126621
 42
7.3392152788
  0
ELLIPSE
  5
3D2
100
AcDbEntity
  8
RACCORDO
100
AcDbEllipse
 62
7
  6
CONTINUOUS
 10
-30.0610936678
 20
56.39170633
 30
0.0
 11
-0.8978127511
 21
1.7932327278
 31
0.0
 40
0.610731003
 41
-0.6839490949
 42
0.0559311345
  0
ELLIPSE
  5
3D3
100
AcDbEntity
  8
RACCORDO
100
AcDbEllipse
 62
7
  6
CONTINUOUS
 10
34.2817418395
 20
-54.5832692221
 30
0.0
 11
-0.8978127511
 21
1.7932327278
 31
0.0
 40
0.610731003
 41
-3.2007950478
 42
-2.2574844774
  0
ELLIPSE
  5
3D4
100
AcDbEntity
  8
RACCORDO
100
AcDbEllipse
 62
7
  6
CONTINUOUS
 10
34.2817418395
 20
24.2202885763
 30
0.0
 11
-0.8934860752
 21
1.7893868582
 31
0.0
 40
0.6140178746
 41
-2.2535402014
 42
-0.6854829304
  0
ELLIPSE
  5
3D5
100
AcDbEntity
  8
DRAFT
100
AcDbEllipse
 62
7
  6
CONTINUOUS
 10
-17.1380843749
 20
-38.7610199579
 30
0.0
 11
57.0329276095
 21
27.2893198326
 31
0.0
 40
0.012035393
 41
7.33503166
 42
7.3397839155
  0
ENDSEC
  0
SECTION
  2
OBJECTS
  0
DICTIONARY
  5
C
100
AcDbDictionary
280
0
281
1
  3
ACAD_GROUP
350
D
  3
ACAD_MLINESTYLE
350
17
  3
ACAD_LAYOUT
350
1A
  3
ACAD_PLOTSETTINGS
350
19
  3
ACAD_PLOTSTYLENAME
350
E
  0
DICTIONARY
  5
D
102
{ACAD_REACTORS
330
C
102
}
100
AcDbDictionary
280
0
281
1
  0
ACDBDICTIONARYWDFLT
  5
E
102
{ACAD_REACTORS
330
C
102
}
100
AcDbDictionary
281
1
  3
Normal
350
F
100
AcDbDictionaryWithDefault
340
F
  0
DICTIONARY
  5
17
102
{ACAD_REACTORS
330
C
102
}
100
AcDbDictionary
280
0
281
1
  3
Standard
350
18
  0
DICTIONARY
  5
19
102
{ACAD_REACTORS
330
C
102
}
100
AcDbDictionary
281
1
  0
DICTIONARY
  5
1A
102
{ACAD_REACTORS
330
C
102
}
100
AcDbDictionary
281
1
  3
Model
350
3D6
  3
Layout1
350
3D7
  0
ACDBPLACEHOLDER
  5
F
102
{ACAD_REACTORS
330
E
102
}
  0
MLINESTYLE
  5
18
102
{ACAD_REACTORS
330
17
102
}
100
AcDbMlineStyle
  2
STANDARD
 70
0
  3

 62
256
 51
90.0
 52
90.0
 71
2
 49
0.5
 62
256
  6
BYLAYER
 49
-0.5
 62
256
  6
BYLAYER
  0
LAYOUT
  5
3D6
102
{ACAD_REACTORS
330
1A
102
}
100
AcDbPlotSettings
  1

  2
none_device
  4
ISO_A4_(297.00_x_210.00_MM)
  6

 40
0.0
 41
0.0
 42
0.0
 43
0.0
 44
297.0
 45
210.0
 46
0.0
 47
0.0
 48
0.0
 49
0.0
140
0.0
141
0.0
142
1.0
143
1.0
 70
1024
 72
1
 73
0
 74
0
  7

 75
0
147
1.0
148
0.0
149
0.0
100
AcDbLayout
  1
Model
 70
0
 71
0
 10
0.0
 20
0.0
 11
297.0
 21
210.0
 12
0.0
 22
0.0
 32
0.0
 14
0.0
 24
0.0
 34
0.0
 15
0.0
 25
0.0
 35
0.0
146
0.0
 13
0.0
 23
0.0
 33
0.0
 16
1.0
 26
0.0
 36
0.0
 17
0.0
 27
1.0
 37
0.0
 76
0
330
218
345
0
346
0
  0
LAYOUT
  5
3D7
102
{ACAD_REACTORS
330
1A
102
}
100
AcDbPlotSettings
  1

  2
none_device
  4
ISO_A4_(297.00_x_210.00_MM)
  6

 40
0.0
 41
0.0
 42
0.0
 43
0.0
 44
297.0
 45
210.0
 46
0.0
 47
0.0
 48
0.0
 49
0.0
140
0.0
141
0.0
142
1.0
143
1.0
 70
0
 72
1
 73
0
 74
0
  7

 75
0
147
1.0
148
0.0
149
0.0
100
AcDbLayout
  1
Layout1
 70
0
 71
1
 10
0.0
 20
0.0
 11
297.0
 21
210.0
 12
0.0
 22
0.0
 32
0.0
 14
0.0
 24
0.0
 34
0.0
 15
0.0
 25
0.0
 35
0.0
146
0.0
 13
0.0
 23
0.0
 33
0.0
 16
1.0
 26
0.0
 36
0.0
 17
0.0
 27
1.0
 37
0.0
 76
0
330
219
345
0
346
0
  0
ENDSEC
  0
EOF
