  0
SECTION
  2
HEADER
  9
$ACADVER
  1
AC1024
  9
$DWGCODEPAGE
  3
ANSI_1252
  9
$EXTMAX
 10
558.8
 20
431.8
 30
0.0
  9
$EXTMIN
 10
0.0
 20
0.0
 30
0.0
  9
$LIMMIN
 10
0.0
 20
0.0
  9
$LIMMAX
 10
558.8
 20
431.8
  9
$VIEWCTR
 10
279.4
 20
215.9
  9
$VIEWSIZE
 40
431.8
  9
$CLAYER
  8
0
  9
$LTSCALE
 40
30.734
  9
$CELTYPE
  6
BYLAYER
  9
$DIMSCALE
 40
1.0
  9
$DIMASZ
 40
3.0
  9
$DIMEXO
 40
0.5
  9
$DIMDLI
 40
21.2344
  9
$DIMEXE
 40
1.5
  9
$DIMCEN
 40
5.0292
  9
$DIMLFAC
 40
1.0
  9
$DIMBLK
  1
_FILLED
  9
$DIMALT
 70
0
  9
$DIMALTF
 40
0.0393700787
  9
$DIMTXT
 40
3.0
  9
$DIMTOL
 70
1
  9
$DIMLIM
 70
0
  9
$DIMTFAC
 40
1.0
  9
$DIMTP
 40
0.01
  9
$DIMTM
 40
0.01
  9
$DIMGAP
 40
0.625
  9
$DIMDSEP
 70
44
  9
$AUNITS
 70
0
  9
$PDMODE
 70
3
  9
$PDSIZE
 40
3.0
  9
$HANDSEED
  5
5EE
  9
$TILEMODE
 70
1
  9
$MEASUREMENT
 70
1
  9
$INSUNITS
 70
4
  0
ENDSEC
  0
SECTION
  2
CLASSES
  0
CLASS
  1
ACDBDICTIONARYWDFLT
  2
AcDbDictionaryWithDefault
  3
AutoCAD 2000
 90
0
 91
1
280
0
281
0
  0
CLASS
  1
ACDBPLACEHOLDER
  2
AcDbPlaceHolder
  3
AutoCAD 2000
 90
0
 91
1
280
0
281
0
  0
CLASS
  1
LAYOUT
  2
AcDbLayout
  3
AutoCAD 2000
 90
0
 91
0
280
0
281
0
  0
ENDSEC
  0
SECTION
  2
TABLES
  0
TABLE
  2
VPORT
  5
8
100
AcDbSymbolTable
 70
2
  0
VPORT
  5
1F4
100
AcDbSymbolTableRecord
100
AcDbViewportTableRecord
  2
*ACTIVE
 70
0
 10
0.0
 20
0.0
 11
1.0
 21
1.0
 12
279.4
 22
215.9
 13
0.0
 23
0.0
 14
1.0
 24
1.0
 15
0.0
 25
0.0
 16
0.0
 26
0.0
 36
1.0
 17
0.0
 27
0.0
 37
0.0
 40
431.8
 41
1.2941176471
 42
50.0
 43
0.0
 44
0.0
 50
0.0
 51
0.0
 71
0
 72
100
 73
1
 74
1
 75
0
 76
0
 77
0
 78
0
  0
ENDTAB
  0
TABLE
  2
LTYPE
  5
5
100
AcDbSymbolTable
 70
6
  0
LTYPE
  5
14
100
AcDbSymbolTableRecord
100
AcDbLinetypeTableRecord
  2
BYBLOCK
 70
0
  3

 72
65
 73
0
 40
0.0
  0
LTYPE
  5
15
100
AcDbSymbolTableRecord
100
AcDbLinetypeTableRecord
  2
BYLAYER
 70
0
  3

 72
65
 73
0
 40
0.0
  0
LTYPE
  5
16
100
AcDbSymbolTableRecord
100
AcDbLinetypeTableRecord
  2
CONTINUOUS
 70
64
  3
Solid line
 72
65
 73
0
 40
0.0
  0
LTYPE
  5
1F5
100
AcDbSymbolTableRecord
100
AcDbLinetypeTableRecord
  2
CENTER
 70
64
  3
____ _ ____ _ ____ _ ____ _ ____ _ ____ _ ____
 72
65
 73
4
 40
0.6
 49
0.375
 74
0
 49
-0.075
 74
0
 49
0.075
 74
0
 49
-0.075
 74
0
  0
LTYPE
  5
1F6
100
AcDbSymbolTableRecord
100
AcDbLinetypeTableRecord
  2
HIDDEN
 70
64
  3
- - - - - - - - - - - - - - - - - - - -
 72
65
 73
2
 40
0.2
 49
0.1
 74
0
 49
-0.1
 74
0
  0
LTYPE
  5
1F7
100
AcDbSymbolTableRecord
100
AcDbLinetypeTableRecord
  2
PHANTOM
 70
64
  3
_____ _ _ _____ _ _ _____ _ _ _____
 72
65
 73
6
 40
0.8
 49
0.45
 74
0
 49
-0.05
 74
0
 49
0.1
 74
0
 49
-0.05
 74
0
 49
0.1
 74
0
 49
-0.05
 74
0
  0
LTYPE
  5
1F8
100
AcDbSymbolTableRecord
100
AcDbLinetypeTableRecord
  2
DOT
 70
64
  3
. . . . . . . . . . . . . . . . . . . .
 72
65
 73
2
 40
0.2
 49
0.1
 74
0
 49
-0.1
 74
0
  0
LTYPE
  5
1F9
100
AcDbSymbolTableRecord
100
AcDbLinetypeTableRecord
  2
DASHED
 70
64
  3
- - - - - - - - - - - - - - - - - - - -
 72
65
 73
2
 40
0.2
 49
0.1
 74
0
 49
-0.1
 74
0
  0
ENDTAB
  0
TABLE
  2
LAYER
  5
2
100
AcDbSymbolTable
 70
36
  0
LAYER
  5
10
100
AcDbSymbolTableRecord
100
AcDbLayerTableRecord
  2
0
 70
0
 62
7
  6
CONTINUOUS
370
-3
390
F
  0
LAYER
  5
1FA
100
AcDbSymbolTableRecord
100
AcDbLayerTableRecord
  2
DEFAULT_1
 70
0
 62
7
  6
CENTER
370
-3
390
F
  0
LAYER
  5
1FB
100
AcDbSymbolTableRecord
100
AcDbLayerTableRecord
  2
DEFAULT_2
 70
0
 62
7
  6
HIDDEN
370
-3
390
F
  0
LAYER
  5
1FC
100
AcDbSymbolTableRecord
100
AcDbLayerTableRecord
  2
DEFAULT_3
 70
0
 62
7
  6
PHANTOM
370
-3
390
F
  0
LAYER
  5
1FD
100
AcDbSymbolTableRecord
100
AcDbLayerTableRecord
  2
ASSI
 70
0
 62
7
  6
CONTINUOUS
370
-3
390
F
  0
LAYER
  5
1FE
100
AcDbSymbolTableRecord
100
AcDbLayerTableRecord
  2
COORDINATE
 70
0
 62
7
  6
CONTINUOUS
370
-3
390
F
  0
LAYER
  5
1FF
100
AcDbSymbolTableRecord
100
AcDbLayerTableRecord
  2
COORD_ORIGINE
 70
0
 62
7
  6
CONTINUOUS
370
-3
390
F
  0
LAYER
  5
200
100
AcDbSymbolTableRecord
100
AcDbLayerTableRecord
  2
COPY
 70
0
 62
7
  6
CONTINUOUS
370
-3
390
F
  0
LAYER
  5
201
100
AcDbSymbolTableRecord
100
AcDbLayerTableRecord
  2
COPY-PUBBLISH
 70
0
 62
7
  6
CONTINUOUS
370
-3
390
F
  0
LAYER
  5
202
100
AcDbSymbolTableRecord
100
AcDbLayerTableRecord
  2
COSMETICHE
 70
0
 62
7
  6
CONTINUOUS
370
-3
390
F
  0
LAYER
  5
203
100
AcDbSymbolTableRecord
100
AcDbLayerTableRecord
  2
CURVA_CENTRALE
 70
0
 62
7
  6
CONTINUOUS
370
-3
390
F
  0
LAYER
  5
204
100
AcDbSymbolTableRecord
100
AcDbLayerTableRecord
  2
CURVE
 70
0
 62
7
  6
CONTINUOUS
370
-3
390
F
  0
LAYER
  5
205
100
AcDbSymbolTableRecord
100
AcDbLayerTableRecord
  2
DRAFT
 70
0
 62
7
  6
CONTINUOUS
370
-3
390
F
  0
LAYER
  5
206
100
AcDbSymbolTableRecord
100
AcDbLayerTableRecord
  2
IMPORT
 70
0
 62
7
  6
CONTINUOUS
370
-3
390
F
  0
LAYER
  5
207
100
AcDbSymbolTableRecord
100
AcDbLayerTableRecord
  2
INTF_1
 70
0
 62
7
  6
CONTINUOUS
370
-3
390
F
  0
LAYER
  5
208
100
AcDbSymbolTableRecord
100
AcDbLayerTableRecord
  2
INTF_2
 70
0
 62
7
  6
CONTINUOUS
370
-3
390
F
  0
LAYER
  5
209
100
AcDbSymbolTableRecord
100
AcDbLayerTableRecord
  2
NOTE
 70
0
 62
7
  6
CONTINUOUS
370
-3
390
F
  0
LAYER
  5
20A
100
AcDbSymbolTableRecord
100
AcDbLayerTableRecord
  2
PIANI
 70
0
 62
7
  6
CONTINUOUS
370
-3
390
F
  0
LAYER
  5
20B
100
AcDbSymbolTableRecord
100
AcDbLayerTableRecord
  2
PIANI_ORIGINE
 70
0
 62
7
  6
CONTINUOUS
370
-3
390
F
  0
LAYER
  5
20C
100
AcDbSymbolTableRecord
100
AcDbLayerTableRecord
  2
PIANI_RIFERIMENTO
 70
0
 62
7
  6
CONTINUOUS
370
-3
390
F
  0
LAYER
  5
20D
100
AcDbSymbolTableRecord
100
AcDbLayerTableRecord
  2
PIPPO
 70
0
 62
7
  6
CONTINUOUS
370
-3
390
F
  0
LAYER
  5
20E
100
AcDbSymbolTableRecord
100
AcDbLayerTableRecord
  2
PUBBLISH
 70
0
 62
7
  6
CONTINUOUS
370
-3
390
F
  0
LAYER
  5
20F
100
AcDbSymbolTableRecord
100
AcDbLayerTableRecord
  2
PUBLISH
 70
0
 62
7
  6
CONTINUOUS
370
-3
390
F
  0
LAYER
  5
210
100
AcDbSymbolTableRecord
100
AcDbLayerTableRecord
  2
PUNTI
 70
0
 62
7
  6
CONTINUOUS
370
-3
390
F
  0
LAYER
  5
211
100
AcDbSymbolTableRecord
100
AcDbLayerTableRecord
  2
RACCORDO
 70
0
 62
7
  6
CONTINUOUS
370
-3
390
F
  0
LAYER
  5
212
100
AcDbSymbolTableRecord
100
AcDbLayerTableRecord
  2
RGB__255__255__255__
 70
0
 62
7
  6
CONTINUOUS
370
-3
390
F
  0
LAYER
  5
213
100
AcDbSymbolTableRecord
100
AcDbLayerTableRecord
  2
RGB____0____0____0__
 70
0
 62
7
  6
CONTINUOUS
370
-3
390
F
  0
LAYER
  5
214
100
AcDbSymbolTableRecord
100
AcDbLayerTableRecord
  2
SMUSSO
 70
0
 62
7
  6
CONTINUOUS
370
-3
390
F
  0
LAYER
  5
215
100
AcDbSymbolTableRecord
100
AcDbLayerTableRecord
  2
SNAPLINE
 70
0
 62
7
  6
CONTINUOUS
370
-3
390
F
  0
LAYER
  5
216
100
AcDbSymbolTableRecord
100
AcDbLayerTableRecord
  2
SUPERFICI
 70
0
 62
7
  6
CONTINUOUS
370
-3
390
F
  0
LAYER
  5
217
100
AcDbSymbolTableRecord
100
AcDbLayerTableRecord
  2
TRACCIABILITA
 70
0
 62
7
  6
CONTINUOUS
370
-3
390
F
  0
LAYER
  5
218
100
AcDbSymbolTableRecord
100
AcDbLayerTableRecord
  2
TRASH
 70
0
 62
7
  6
CONTINUOUS
370
-3
390
F
  0
LAYER
  5
219
100
AcDbSymbolTableRecord
100
AcDbLayerTableRecord
  2
XSEC_DATUMS
 70
0
 62
7
  6
CONTINUOUS
370
-3
390
F
  0
ENDTAB
  0
TABLE
  2
STYLE
  5
3
100
AcDbSymbolTable
 70
1
  0
STYLE
  5
11
100
AcDbSymbolTableRecord
100
AcDbTextStyleTableRecord
  2
STANDARD
 70
0
 40
0.0
 41
0.8
 50
0.0
 71
0
 42
0.2
  3
txt
  4

  0
STYLE
  5
21A
100
AcDbSymbolTableRecord
100
AcDbTextStyleTableRecord
  2
TEXTSTYLE_1
 70
0
 40
0.0
 41
0.8
 50
0.0
 71
0
 42
0.2
  3
gdt
  4

  0
ENDTAB
  0
TABLE
  2
VIEW
  5
6
100
AcDbSymbolTable
 70
0
  0
ENDTAB
  0
TABLE
  2
UCS
  5
7
100
AcDbSymbolTable
 70
0
  0
ENDTAB
  0
TABLE
  2
APPID
  5
9
100
AcDbSymbolTable
 70
1
  0
APPID
  5
21B
100
AcDbSymbolTableRecord
100
AcDbRegAppTableRecord
  2
ACAD
 70
0
  0
ENDTAB
  0
TABLE
  2
BLOCK_RECORD
  5
1
100
AcDbSymbolTable
 70
0
  0
BLOCK_RECORD
  5
21C
100
AcDbSymbolTableRecord
100
AcDbBlockTableRecord
  2
*Model_Space
  0
BLOCK_RECORD
  5
21D
100
AcDbSymbolTableRecord
100
AcDbBlockTableRecord
  2
*Paper_Space
  0
BLOCK_RECORD
  5
21E
100
AcDbSymbolTableRecord
100
AcDbBlockTableRecord
  2
_FILLED
  0
ENDTAB
  0
TABLE
  2
DIMSTYLE
  5
A
100
AcDbSymbolTable
 70
1
100
AcDbDimStyleTable
 71
0
  0
DIMSTYLE
105
21F
100
AcDbSymbolTableRecord
100
AcDbDimStyleTableRecord
  2
STANDARD
 70
0
  3

  4

 40
1.0
 41
3.0
 42
0.5
 43
0.38
 44
1.5
 45
0.0
 46
0.0
 47
0.01
 48
0.01
140
3.0
141
0.09
142
0.0
143
25.4
144
1.0
145
0.0
146
1.0
147
0.625
 71
1
 72
0
 73
0
 74
0
 75
0
 76
0
 77
1
 78
8
 79
2
170
0
171
1
172
0
173
0
174
0
175
0
176
0
177
0
178
0
270
2
179
2
271
2
272
2
273
2
274
2
275
0
280
0
281
0
282
0
283
1
284
8
285
0
286
0
287
3
288
0
340
11
278
44
341
21E
342
21E
343
21E
344
21E
  0
ENDTAB
  0
ENDSEC
  0
SECTION
  2
BLOCKS
  0
BLOCK
  5
20
100
AcDbEntity
  8
0
100
AcDbBlockBegin
  2
*Model_Space
 70
0
 10
0.0
 20
0.0
 30
0.0
  3
*Model_Space
  1

  0
ENDBLK
  5
21
100
AcDbEntity
  8
0
100
AcDbBlockEnd
  0
BLOCK
  5
1C
100
AcDbEntity
  8
0
100
AcDbBlockBegin
  2
*Paper_Space
 70
0
 10
0.0
 20
0.0
 30
0.0
  3
*Paper_Space
  1

  0
ENDBLK
  5
1D
100
AcDbEntity
  8
0
100
AcDbBlockEnd
  0
BLOCK
  5
220
100
AcDbEntity
  8
0
100
AcDbBlockBegin
  2
_FILLED
 70
64
 10
0.0
 20
0.0
  3
_FILLED
  1

  0
SOLID
  5
221
100
AcDbEntity
  8
0
  6
BYBLOCK
 62
0
100
AcDbTrace
 10
0.0
 20
0.0
 11
-1.0
 21
0.3166666667
 12
-1.0
 22
-0.3166666667
 13
-1.0
 23
-0.3166666667
  0
ENDBLK
  5
222
100
AcDbEntity
  8
0
  6
BYBLOCK
 62
0
100
AcDbBlockEnd
  0
ENDSEC
  0
SECTION
  2
ENTITIES
  0
LWPOLYLINE
  5
223
100
AcDbEntity
  8
RACCORDO
100
AcDbPolyline
 62
250
  6
CONTINUOUS
 90
6
 70
0
 10
172.5399985337
 20
170.015424638
 10
172.5744805697
 20
170.0434286463
 10
172.6080930779
 20
170.0685457954
 10
172.6406047593
 20
170.0908483344
 10
172.6720302425
 20
170.1105837916
 10
172.7022882517
 20
170.1279160088
  0
LWPOLYLINE
  5
224
100
AcDbEntity
  8
RACCORDO
100
AcDbPolyline
 62
7
  6
CONTINUOUS
 90
14
 70
0
 10
172.4673719733
 20
170.1360050105
 10
172.4073734865
 20
170.0993747906
 10
172.3382887469
 20
170.049155796
 10
172.2718459621
 20
169.9917694823
 10
172.2087811282
 20
169.9277648213
 10
172.1507380354
 20
169.8590606866
 10
172.0979907592
 20
169.786558502
 10
172.0501820373
 20
169.7101621371
 10
172.0077570214
 20
169.6308238441
 10
171.9708224273
 20
169.5489541112
 10
171.9394939092
 20
169.4647733407
 10
171.9141317151
 20
169.3790272615
 10
171.8949753142
 20
169.2920758686
 10
171.8831703113
 20
169.2119923871
  0
LINE
  5
225
100
AcDbEntity
  8
0
100
AcDbLine
 62
7
  6
CONTINUOUS
 10
176.5977797994
 20
172.7139933107
 11
177.167979126
 21
173.0464717444
  0
LINE
  5
226
100
AcDbEntity
  8
0
100
AcDbLine
 62
250
  6
CONTINUOUS
 10
176.8316825745
 20
172.705545876
 11
177.274557927
 21
172.9637827708
  0
LINE
  5
227
100
AcDbEntity
  8
RACCORDO
100
AcDbLine
 62
7
  6
CONTINUOUS
 10
172.4673001296
 20
170.1359649903
 11
175.202548929
 21
171.6672216257
  0
LINE
  5
228
100
AcDbEntity
  8
0
100
AcDbLine
 62
250
  6
CONTINUOUS
 10
172.7022882517
 20
170.1279160088
 11
175.4338413
 21
171.6571036758
  0
LINE
  5
229
100
AcDbEntity
  8
0
100
AcDbLine
 62
250
  6
CONTINUOUS
 10
176.8118457851
 20
174.0520534344
 11
176.8202279858
 21
174.056541888
  0
LINE
  5
22A
100
AcDbEntity
  8
0
100
AcDbLine
 62
7
  6
CONTINUOUS
 10
176.7072701235
 20
174.0630559207
 11
178.291247013
 21
174.8735929854
  0
LINE
  5
22B
100
AcDbEntity
  8
0
100
AcDbLine
 62
250
  6
CONTINUOUS
 10
176.8202279858
 20
174.056541888
 11
178.4038085117
 21
174.8668761294
  0
LINE
  5
22C
100
AcDbEntity
  8
0
100
AcDbLine
 62
250
  6
CONTINUOUS
 10
178.5006184508
 20
173.2163466555
 11
180.100869633
 21
174.0183455688
  0
LINE
  5
22D
100
AcDbEntity
  8
0
100
AcDbLine
 62
250
  6
CONTINUOUS
 10
178.6773927229
 20
172.9114561363
 11
180.2776439051
 21
173.7134550496
  0
LINE
  5
22E
100
AcDbEntity
  8
0
100
AcDbLine
 62
7
  6
CONTINUOUS
 10
178.2912470112
 20
174.8735929845
 11
178.2928967585
 21
174.8744168032
  0
LINE
  5
22F
100
AcDbEntity
  8
0
100
AcDbLine
 62
250
  6
CONTINUOUS
 10
180.1008702014
 20
174.0183452846
 11
180.6291373731
 21
174.2817841046
  0
LINE
  5
230
100
AcDbEntity
  8
0
100
AcDbLine
 62
250
  6
CONTINUOUS
 10
180.2776439051
 20
173.7134557458
 11
180.8059110768
 21
173.9768945658
  0
LWPOLYLINE
  5
231
100
AcDbEntity
  8
RACCORDO
100
AcDbPolyline
 62
250
  6
CONTINUOUS
 90
7
 70
0
 10
172.467371897
 20
170.1360051469
 10
172.4834951482
 20
170.1440401122
 10
172.5222584051
 20
170.1564556839
 10
172.5642575563
 20
170.1610624903
 10
172.6087746107
 20
170.1577817764
 10
172.6550485325
 20
170.1466696271
 10
172.7022882517
 20
170.1279160088
  0
LINE
  5
232
100
AcDbEntity
  8
0
100
AcDbLine
 62
7
  6
CONTINUOUS
 10
178.2928967577
 20
174.8744168028
 11
178.8277457109
 21
175.1349586712
  0
LINE
  5
233
100
AcDbEntity
  8
0
100
AcDbLine
 62
250
  6
CONTINUOUS
 10
178.4038079433
 20
174.8668764136
 11
178.938257822
 21
175.1272238802
  0
LWPOLYLINE
  5
234
100
AcDbEntity
  8
0
100
AcDbPolyline
 62
250
  6
CONTINUOUS
 90
16
 70
0
 10
176.7074439283
 20
174.0631446307
 10
176.7105981126
 20
174.0646769626
 10
176.7173438152
 20
174.0674879802
 10
176.724324747
 20
174.0697847042
 10
176.7315251607
 20
174.0715619404
 10
176.7389286793
 20
174.0728156336
 10
176.7465183651
 20
174.0735429286
 10
176.7542769075
 20
174.0737422079
 10
176.7621868196
 20
174.0734130623
 10
176.770230324
 20
174.072556246
 10
176.7783904244
 20
174.0711734543
 10
176.7866474362
 20
174.0692679095
 10
176.7949790534
 20
174.0668450812
 10
176.8033651175
 20
174.0639115759
 10
176.8117877858
 20
174.0604743738
 10
176.8202279858
 20
174.056541888
  0
LWPOLYLINE
  5
235
100
AcDbEntity
  8
0
100
AcDbPolyline
 62
7
  6
CONTINUOUS
 90
16
 70
0
 10
178.2928967585
 20
174.8744168032
 10
178.2945542745
 20
174.8752042573
 10
178.3012892625
 20
174.878011553
 10
178.308256341
 20
174.8803030948
 10
178.3154397767
 20
174.8820737164
 10
178.3228233116
 20
174.8833194148
 10
178.330390134
 20
174.8840373278
 10
178.3381231717
 20
174.8842258638
 10
178.346004943
 20
174.8838846142
 10
178.3540174685
 20
174.8830142931
 10
178.3621426949
 20
174.8816169136
 10
178.3703622629
 20
174.8796956705
 10
178.3786573604
 20
174.8772548489
 10
178.3870091918
 20
174.8742999917
 10
178.3953990216
 20
174.870837881
 10
178.4038079433
 20
174.8668764136
  0
LWPOLYLINE
  5
236
100
AcDbEntity
  8
0
100
AcDbPolyline
 62
250
  6
CONTINUOUS
 90
16
 70
0
 10
178.8277457109
 20
175.1349586712
 10
178.8294184343
 20
175.1357531208
 10
178.8361453646
 20
175.1385547753
 10
178.8431013462
 20
175.1408390563
 10
178.8502706881
 20
175.1426007979
 10
178.8576370838
 20
175.1438359799
 10
178.8651836808
 20
175.1445417897
 10
178.8728932669
 20
175.144716659
 10
178.8807484661
 20
175.1443602339
 10
178.8887316248
 20
175.14347333
 10
178.8968258724
 20
175.1420577058
 10
178.9050116831
 20
175.1401166621
 10
178.9132669493
 20
175.1376557651
 10
178.921571705
 20
175.1346817156
 10
178.9299082865
 20
175.1312015831
 10
178.938257822
 20
175.1272238802
  0
LWPOLYLINE
  5
237
100
AcDbEntity
  8
0
100
AcDbPolyline
 62
250
  6
CONTINUOUS
 90
20
 70
0
 10
176.6769443373
 20
173.8936186457
 10
176.6819553187
 20
173.90435915
 10
176.6872795306
 20
173.9149559584
 10
176.6929049923
 20
173.9253852253
 10
176.698819045
 20
173.9356234825
 10
176.7050083808
 20
173.9456476911
 10
176.7114590719
 20
173.9554352944
 10
176.7181566029
 20
173.9649642678
 10
176.7250859026
 20
173.9742131686
 10
176.7322313783
 20
173.9831611847
 10
176.739576951
 20
173.9917881808
 10
176.7471060913
 20
174.0000747439
 10
176.7548018568
 20
174.0080022273
 10
176.7626469301
 20
174.0155527922
 10
176.7706236578
 20
174.0227094479
 10
176.7787140903
 20
174.0294560901
 10
176.7869000223
 20
174.0357775374
 10
176.7951630332
 20
174.0416595647
 10
176.8034845293
 20
174.0470889362
 10
176.8118457851
 20
174.0520534344
  0
LINE
  5
238
100
AcDbEntity
  8
0
100
AcDbLine
 62
250
  6
CONTINUOUS
 10
180.2776439051
 20
172.9864108933
 11
180.8059110768
 21
173.629363049
  0
LINE
  5
239
100
AcDbEntity
  8
0
100
AcDbLine
 62
7
  6
CONTINUOUS
 10
180.2776439051
 20
172.896880427
 11
180.8212716492
 21
173.5585278825
  0
LWPOLYLINE
  5
23A
100
AcDbEntity
  8
0
100
AcDbPolyline
 62
7
  6
CONTINUOUS
 90
36
 70
0
 10
179.3882019404
 20
172.4220500192
 10
179.3815622614
 20
172.414306281
 10
179.3746754037
 20
172.4066591698
 10
179.3675434118
 20
172.399121676
 10
179.3601643668
 20
172.3917082685
 10
179.3525455879
 20
172.3844306901
 10
179.3447035226
 20
172.3772980281
 10
179.3366417299
 20
172.3703237528
 10
179.3283644954
 20
172.3635210292
 10
179.3198898105
 20
172.3568987162
 10
179.3112225468
 20
172.3504703788
 10
179.3023682292
 20
172.3442492356
 10
179.2933462816
 20
172.3382438632
 10
179.2841629197
 20
172.3324677745
 10
179.2748249649
 20
172.326934113
 10
179.2653532111
 20
172.3216511542
 10
179.2557552479
 20
172.3166321989
 10
179.2460392589
 20
172.3118901747
 10
179.2362274195
 20
172.3074330587
 10
179.2263287409
 20
172.3032737631
 10
179.2163528266
 20
172.299424822
 10
179.2063232836
 20
172.2958938903
 10
179.1962506021
 20
172.2926932789
 10
179.1861458543
 20
172.2898349055
 10
179.1760341297
 20
172.2873260152
 10
179.1659274653
 20
172.2851780561
 10
179.1558384208
 20
172.2834020445
 10
179.1457935504
 20
172.2820046274
 10
179.1358065143
 20
172.2809960675
 10
179.1258913173
 20
172.280386123
 10
179.1160757682
 20
172.2801805366
 10
179.1063751933
 20
172.2803879958
 10
179.0968049419
 20
172.2810165909
 10
179.0873936194
 20
172.2820707771
 10
179.0781675343
 20
172.2835555018
 10
179.0743161909
 20
172.2843159769
  0
LINE
  5
23B
100
AcDbEntity
  8
0
100
AcDbLine
 62
7
  6
CONTINUOUS
 10
182.5757409439
 20
170.5860099407
 11
181.8686341627
 21
170.1870700818
  0
LINE
  5
23C
100
AcDbEntity
  8
0
100
AcDbLine
 62
7
  6
CONTINUOUS
 10
180.2776439051
 20
172.1113050848
 11
179.3882019404
 21
171.6144244985
  0
LWPOLYLINE
  5
23D
100
AcDbEntity
  8
ASSI
100
AcDbPolyline
 62
7
  6
CONTINUOUS
 90
3
 70
0
 10
178.5483112503
 20
170.134538283
 10
178.5200616987
 20
170.1188790337
 10
178.5160726579
 20
170.1159879969
  0
LINE
  5
23E
100
AcDbEntity
  8
0
100
AcDbLine
 62
7
  6
CONTINUOUS
 10
182.2575428924
 20
172.5069962372
 11
181.202436375
 21
171.9670875143
  0
LINE
  5
23F
100
AcDbEntity
  8
0
100
AcDbLine
 62
7
  6
CONTINUOUS
 10
181.8686341627
 20
171.6339886204
 11
182.7164218231
 21
172.0633191499
  0
LINE
  5
240
100
AcDbEntity
  8
0
100
AcDbLine
 62
250
  6
CONTINUOUS
 10
184.3427674198
 20
171.2501463515
 11
184.5556399312
 21
171.3579477177
  0
LINE
  5
241
100
AcDbEntity
  8
0
100
AcDbLine
 62
7
  6
CONTINUOUS
 10
178.5482720829
 20
170.1346163566
 11
178.9018255459
 21
170.3113930881
  0
LINE
  5
242
100
AcDbEntity
  8
0
100
AcDbLine
 62
7
  6
CONTINUOUS
 10
189.0691456577
 20
176.4954935635
 11
180.9806368593
 21
172.4618770004
  0
LINE
  5
243
100
AcDbEntity
  8
RACCORDO
100
AcDbLine
 62
7
  6
CONTINUOUS
 10
180.9847506863
 20
171.7577516942
 11
181.202436375
 21
171.8650434503
  0
LINE
  5
244
100
AcDbEntity
  8
0
100
AcDbLine
 62
7
  6
CONTINUOUS
 10
188.2346520721
 20
174.7859968158
 11
183.6364011157
 21
172.5196355183
  0
LINE
  5
245
100
AcDbEntity
  8
0
100
AcDbLine
 62
7
  6
CONTINUOUS
 10
189.0104126527
 20
173.7827088888
 11
188.2657990117
 21
173.4157077065
  0
LINE
  5
246
100
AcDbEntity
  8
0
100
AcDbLine
 62
250
  6
CONTINUOUS
 10
184.5556399312
 20
171.3579477177
 11
185.2627467124
 21
171.7064627199
  0
LINE
  5
247
100
AcDbEntity
  8
0
100
AcDbLine
 62
7
  6
CONTINUOUS
 10
192.1257962472
 20
174.9671682687
 11
189.976338479
 21
173.907755039
  0
LINE
  5
248
100
AcDbEntity
  8
0
100
AcDbLine
 62
7
  6
CONTINUOUS
 10
187.5937662983
 20
175.1064397027
 11
182.2575428924
 21
172.5069962372
  0
LWPOLYLINE
  5
249
100
AcDbEntity
  8
ASSI
100
AcDbPolyline
 62
7
  6
CONTINUOUS
 90
9
 70
0
 10
178.901895524
 20
170.311253132
 10
178.9131814108
 20
170.3167076958
 10
178.9732405616
 20
170.3391846988
 10
179.0371872695
 20
170.3523092491
 10
179.1049193129
 20
170.3563272657
 10
179.174623927
 20
170.3511312115
 10
179.2456968569
 20
170.3366852405
 10
179.3187423574
 20
170.3130251987
 10
179.3937604286
 20
170.2801510859
  0
LWPOLYLINE
  5
24A
100
AcDbEntity
  8
0
100
AcDbPolyline
 62
7
  6
CONTINUOUS
 90
7
 70
0
 10
188.2657990117
 20
174.7996638094
 10
188.260631892
 20
174.7976308901
 10
188.2554551575
 20
174.7955000056
 10
188.2502688083
 20
174.7932711559
 10
188.2450728444
 20
174.790944341
 10
188.2398672656
 20
174.788519561
 10
188.2346520721
 20
174.7859968158
  0
LWPOLYLINE
  5
24B
100
AcDbEntity
  8
0
100
AcDbPolyline
 62
7
  6
CONTINUOUS
 90
4
 70
0
 10
187.626968996
 20
175.1207211074
 10
187.6378735842
 20
175.1244372352
 10
187.6491493312
 20
175.1275674561
 10
187.6607863222
 20
175.1301046657
  0
LWPOLYLINE
  5
24C
100
AcDbEntity
  8
0
100
AcDbPolyline
 62
7
  6
CONTINUOUS
 90
8
 70
0
 10
188.3318705812
 20
174.8227448221
 10
188.3235949494
 20
174.8201999826
 10
188.3149119338
 20
174.8173931365
 10
188.305842058
 20
174.8143289548
 10
188.2963839132
 20
174.8110177956
 10
188.2865452862
 20
174.8074671598
 10
188.2763455717
 20
174.8036807933
 10
188.2657990117
 20
174.7996638094
  0
LWPOLYLINE
  5
24D
100
AcDbEntity
  8
RACCORDO
100
AcDbPolyline
 62
7
  6
CONTINUOUS
 90
10
 70
0
 10
171.883192685
 20
169.212194288
 10
171.7635997932
 20
168.0979551507
 10
171.6476550891
 20
166.9034769426
 10
171.5449411198
 20
165.7138686338
 10
171.4554865701
 20
164.5294193902
 10
171.3793101211
 20
163.3503682717
 10
171.3164279148
 20
162.1769352851
 10
171.2668560156
 20
161.0093575446
 10
171.2306065866
 20
159.8479166147
 10
171.2089806462
 20
158.7815801191
  0
LWPOLYLINE
  5
24E
100
AcDbEntity
  8
RACCORDO
100
AcDbPolyline
 62
250
  6
CONTINUOUS
 90
23
 70
0
 10
172.0304327922
 20
169.0458535012
 10
172.0351898406
 20
169.0828282719
 10
172.0413884619
 20
169.121992086
 10
172.0491961011
 20
169.163316664
 10
172.0588214639
 20
169.2069097087
 10
172.0704066809
 20
169.2525448406
 10
172.0839710622
 20
169.2996558873
 10
172.0996310113
 20
169.3481291293
 10
172.1174942481
 20
169.3978138802
 10
172.1374559612
 20
169.4480614852
 10
172.1595600878
 20
169.4987144751
 10
172.1838297369
 20
169.5495676856
 10
172.2100070591
 20
169.5999117027
 10
172.2380489337
 20
169.6495719091
 10
172.2678957994
 20
169.6983505787
 10
172.2991479648
 20
169.7455651135
 10
172.3316831409
 20
169.7910705387
 10
172.3653842622
 20
169.8347378761
 10
172.3997680801
 20
169.8760175821
 10
172.4346688275
 20
169.9148445409
 10
172.4699481433
 20
169.9511919916
 10
172.5051113396
 20
169.9847040312
 10
172.5399985337
 20
170.015424638
  0
LWPOLYLINE
  5
24F
100
AcDbEntity
  8
0
100
AcDbPolyline
 62
250
  6
CONTINUOUS
 90
30
 70
0
 10
178.6773927229
 20
172.5703478467
 10
178.6729776871
 20
172.5594625208
 10
178.6681751564
 20
172.5487996284
 10
178.6629957045
 20
172.538383371
 10
178.6574503424
 20
172.5282366767
 10
178.6515517188
 20
172.5183834226
 10
178.6453143506
 20
172.5088481539
 10
178.6387528678
 20
172.4996531337
 10
178.6318815929
 20
172.4908183367
 10
178.6247158928
 20
172.4823635437
 10
178.6172718281
 20
172.4743077631
 10
178.6095662859
 20
172.4666693259
 10
178.6016168134
 20
172.4594656469
 10
178.5934414232
 20
172.4527130415
 10
178.5850585182
 20
172.4464267027
 10
178.576487009
 20
172.4406208137
 10
178.5677462374
 20
172.4353084807
 10
178.5588559524
 20
172.4305017118
 10
178.5498362484
 20
172.4262113733
 10
178.5407075
 20
172.4224471561
 10
178.5314903147
 20
172.4192175571
 10
178.522205506
 20
172.416529869
 10
178.5128740402
 20
172.4143901611
 10
178.5035169892
 20
172.4128032652
 10
178.494155483
 20
172.4117727649
 10
178.4848106504
 20
172.411300987
 10
178.4755036044
 20
172.4113889983
 10
178.4662553943
 20
172.4120365969
 10
178.4570869246
 20
172.4132423109
 10
178.4504853414
 20
172.4144672995
  0
LINE
  5
250
100
AcDbEntity
  8
RACCORDO
100
AcDbLine
 62
7
  6
CONTINUOUS
 10
187.0293777173
 20
170.8231472175
 11
189.0429967101
 21
172.5854545627
  0
LINE
  5
251
100
AcDbEntity
  8
RACCORDO
100
AcDbLine
 62
250
  6
CONTINUOUS
 10
187.1832802721
 20
170.7461959401
 11
189.2915965925
 21
172.5913818222
  0
LWPOLYLINE
  5
252
100
AcDbEntity
  8
0
100
AcDbPolyline
 62
250
  6
CONTINUOUS
 90
5
 70
0
 10
186.0066078525
 20
170.3799457814
 10
186.0131575275
 20
170.385003917
 10
186.0197688817
 20
170.389710411
 10
186.0264270285
 20
170.3940546684
 10
186.0331169857
 20
170.3980269158
  0
LINE
  5
253
100
AcDbEntity
  8
0
100
AcDbLine
 62
7
  6
CONTINUOUS
 10
184.4849292531
 20
169.7819144359
 11
184.6970612875
 21
169.9015963936
  0
LINE
  5
254
100
AcDbEntity
  8
0
100
AcDbLine
 62
250
  6
CONTINUOUS
 10
186.0331169857
 20
170.3980269158
 11
186.0398236946
 21
170.4016182141
  0
LINE
  5
255
100
AcDbEntity
  8
0
100
AcDbLine
 62
250
  6
CONTINUOUS
 10
184.4849292531
 20
171.0066032055
 11
184.6970201491
 21
171.1140087516
  0
LINE
  5
256
100
AcDbEntity
  8
0
100
AcDbLine
 62
7
  6
CONTINUOUS
 10
186.1629020414
 20
170.514922522
 11
185.9502072573
 21
170.4072111592
  0
LINE
  5
257
100
AcDbEntity
  8
0
100
AcDbLine
 62
250
  6
CONTINUOUS
 10
186.2526962061
 20
170.5094195803
 11
186.0398236946
 21
170.4016182141
  0
LINE
  5
258
100
AcDbEntity
  8
0
100
AcDbLine
 62
7
  6
CONTINUOUS
 10
187.6661692914
 20
169.5884454157
 11
186.818381631
 21
169.1591148863
  0
LINE
  5
259
100
AcDbEntity
  8
0
100
AcDbLine
 62
7
  6
CONTINUOUS
 10
187.4845794187
 20
168.8260159924
 11
188.5507932449
 21
169.3603710609
  0
LINE
  5
25A
100
AcDbEntity
  8
0
100
AcDbLine
 62
7
  6
CONTINUOUS
 10
189.976338479
 20
173.3492307691
 11
191.0803053481
 21
173.9012142036
  0
LINE
  5
25B
100
AcDbEntity
  8
0
100
AcDbLine
 62
7
  6
CONTINUOUS
 10
186.1636292562
 20
170.5152858571
 11
186.1629020562
 21
170.5149225295
  0
LINE
  5
25C
100
AcDbEntity
  8
0
100
AcDbLine
 62
7
  6
CONTINUOUS
 10
188.5507932449
 20
169.3603710609
 11
193.8252853141
 21
171.9906801948
  0
LINE
  5
25D
100
AcDbEntity
  8
0
100
AcDbLine
 62
7
  6
CONTINUOUS
 10
184.6970612875
 20
169.9015963936
 11
185.4041680687
 21
170.2506152443
  0
LINE
  5
25E
100
AcDbEntity
  8
0
100
AcDbLine
 62
250
  6
CONTINUOUS
 10
184.6970201491
 20
171.1140087516
 11
185.4041680687
 21
171.4625440298
  0
LINE
  5
25F
100
AcDbEntity
  8
0
100
AcDbLine
 62
7
  6
CONTINUOUS
 10
186.8707452031
 20
170.8638053766
 11
186.1636292403
 21
170.515285849
  0
LINE
  5
260
100
AcDbEntity
  8
0
100
AcDbLine
 62
250
  6
CONTINUOUS
 10
186.9598029873
 20
170.8579345825
 11
186.2526962061
 21
170.5094195803
  0
LINE
  5
261
100
AcDbEntity
  8
0
100
AcDbLine
 62
7
  6
CONTINUOUS
 10
193.1843995404
 20
172.3111230817
 11
188.586148584
 21
170.0447617841
  0
LINE
  5
262
100
AcDbEntity
  8
0
100
AcDbLine
 62
7
  6
CONTINUOUS
 10
194.2189791661
 20
171.7864346955
 11
196.3684369344
 21
172.8458479251
  0
LWPOLYLINE
  5
263
100
AcDbEntity
  8
RACCORDO
100
AcDbPolyline
 62
7
  6
CONTINUOUS
 90
6
 70
0
 10
189.0810022665
 20
172.6101586032
 10
189.0764864366
 20
172.6079869754
 10
189.0656860484
 20
172.6020406079
 10
189.0555533348
 20
172.5953885623
 10
189.0462472887
 20
172.5882250432
 10
189.0429995634
 20
172.5854570598
  0
LINE
  5
264
100
AcDbEntity
  8
RACCORDO
100
AcDbLine
 62
250
  6
CONTINUOUS
 10
189.3526202222
 20
172.6182382445
 11
189.3993478125
 21
172.6407877611
  0
LINE
  5
265
100
AcDbEntity
  8
RACCORDO
100
AcDbLine
 62
250
  6
CONTINUOUS
 10
189.3993478125
 20
172.6407877611
 11
189.411869176
 21
172.6467584814
  0
LINE
  5
266
100
AcDbEntity
  8
RACCORDO
100
AcDbLine
 62
250
  6
CONTINUOUS
 10
189.3415614495
 20
172.6129838831
 11
189.3526202222
 21
172.6182382445
  0
LWPOLYLINE
  5
267
100
AcDbEntity
  8
0
100
AcDbPolyline
 62
7
  6
CONTINUOUS
 90
22
 70
0
 10
196.3684369344
 20
172.8458479251
 10
196.3915252639
 20
172.8567632503
 10
196.4145359244
 20
172.8667248135
 10
196.4374689159
 20
172.8757326148
 10
196.460348475
 20
172.8837942039
 10
196.4831503651
 20
172.8909020312
 10
196.5058018762
 20
172.8970334468
 10
196.5283024651
 20
172.9021853174
 10
196.550652675
 20
172.9063607765
 10
196.5727814254
 20
172.9095465748
 10
196.5946879554
 20
172.9117395778
 10
196.6163730258
 20
172.9129429202
 10
196.6377678393
 20
172.9131527565
 10
196.6588716564
 20
172.9123659088
 10
196.6796852164
 20
172.9105855552
 10
196.7001419405
 20
172.9078173843
 10
196.7202404715
 20
172.9040582868
 10
196.7399821666
 20
172.8993113721
 10
196.7593045179
 20
172.8935916568
 10
196.7782063891
 20
172.8868959836
 10
196.7966889166
 20
172.8792275098
 10
196.8115367233
 20
172.8722073911
  0
LINE
  5
268
100
AcDbEntity
  8
RACCORDO
100
AcDbLine
 62
250
  6
CONTINUOUS
 10
189.411869176
 20
172.6467584814
 11
189.4204474019
 21
172.6508005949
  0
LINE
  5
269
100
AcDbEntity
  8
RACCORDO
100
AcDbLine
 62
250
  6
CONTINUOUS
 10
189.3342766212
 20
172.6095729646
 11
189.3415614495
 21
172.6129838831
  0
LINE
  5
26A
100
AcDbEntity
  8
RACCORDO
100
AcDbLine
 62
250
  6
CONTINUOUS
 10
189.4204474019
 20
172.6508005949
 11
189.429226454
 21
172.6548865973
  0
LINE
  5
26B
100
AcDbEntity
  8
RACCORDO
100
AcDbLine
 62
250
  6
CONTINUOUS
 10
189.2932015173
 20
172.5905952965
 11
189.3342766212
 21
172.6095729646
  0
LINE
  5
26C
100
AcDbEntity
  8
RACCORDO
100
AcDbLine
 62
250
  6
CONTINUOUS
 10
189.429226454
 20
172.6548865973
 11
189.4382153169
 21
172.6590132314
  0
LWPOLYLINE
  5
26D
100
AcDbEntity
  8
RACCORDO
100
AcDbPolyline
 62
250
  6
CONTINUOUS
 90
17
 70
0
 10
189.1148508409
 20
172.6257919739
 10
189.1179791616
 20
172.6272019092
 10
189.1303578636
 20
172.6321247434
 10
189.1431059638
 20
172.6361717833
 10
189.1561992049
 20
172.6393353278
 10
189.1696126727
 20
172.6416093574
 10
189.1833208439
 20
172.6429895449
 10
189.1972976341
 20
172.6434732642
 10
189.2115164482
 20
172.6430595948
 10
189.2259502301
 20
172.6417493238
 10
189.2405715151
 20
172.6395449444
 10
189.2553524813
 20
172.6364506511
 10
189.2702650034
 20
172.6324723319
 10
189.2852807053
 20
172.6276175566
 10
189.3003710149
 20
172.621895563
 10
189.315507218
 20
172.6153172391
 10
189.3306605132
 20
172.6078951021
  0
LINE
  5
26E
100
AcDbEntity
  8
RACCORDO
100
AcDbLine
 62
250
  6
CONTINUOUS
 10
189.4382153169
 20
172.6590132314
 11
189.4474271243
 21
172.6631753735
  0
LINE
  5
26F
100
AcDbEntity
  8
RACCORDO
100
AcDbLine
 62
7
  6
CONTINUOUS
 10
182.9725990136
 20
168.3985739371
 11
182.6449047089
 21
168.2514258359
  0
LWPOLYLINE
  5
270
100
AcDbEntity
  8
RACCORDO
100
AcDbPolyline
 62
250
  6
CONTINUOUS
 90
13
 70
0
 10
190.2851743564
 20
172.7179008318
 10
190.2933098064
 20
172.7215073878
 10
190.301410091
 20
172.7245235665
 10
190.3094483468
 20
172.7269393649
 10
190.317397916
 20
172.7287467715
 10
190.3252324348
 20
172.7299397923
 10
190.3329259211
 20
172.7305144706
 10
190.3404528605
 20
172.7304689008
 10
190.3477882909
 20
172.729803234
 10
190.3549078851
 20
172.7285196776
 10
190.3617880322
 20
172.7266224886
 10
190.368405915
 20
172.7241179586
 10
190.3721489327
 20
172.7223734976
  0
LINE
  5
271
100
AcDbEntity
  8
RACCORDO
100
AcDbLine
 62
250
  6
CONTINUOUS
 10
189.4474271243
 20
172.6631753735
 11
189.4568749077
 21
172.6673676319
  0
LINE
  5
272
100
AcDbEntity
  8
RACCORDO
100
AcDbLine
 62
250
  6
CONTINUOUS
 10
189.4568749077
 20
172.6673676319
 11
189.4665671788
 21
172.6715862854
  0
LINE
  5
273
100
AcDbEntity
  8
RACCORDO
100
AcDbLine
 62
250
  6
CONTINUOUS
 10
189.4665671788
 20
172.6715862854
 11
189.4765165986
 21
172.6758256289
  0
LWPOLYLINE
  5
274
100
AcDbEntity
  8
RACCORDO
100
AcDbPolyline
 62
250
  6
CONTINUOUS
 90
124
 70
0
 10
189.4765165986
 20
172.6758256289
 10
189.4867346893
 20
172.6800792469
 10
189.4919459504
 20
172.6822106223
 10
189.4972290669
 20
172.6843427911
 10
189.5025839849
 20
172.686475757
 10
189.5080107583
 20
172.6886095162
 10
189.5135132771
 20
172.6907418211
 10
189.5190916562
 20
172.6928727454
 10
189.5247457808
 20
172.6950022154
 10
189.5304791964
 20
172.6971277623
 10
189.5362921658
 20
172.6992495063
 10
189.5421844263
 20
172.7013673272
 10
189.5481587352
 20
172.7034783958
 10
189.5542151737
 20
172.7055827591
 10
189.5603536606
 20
172.7076803701
 10
189.56657671
 20
172.7097682581
 10
189.572884412
 20
172.7118464736
 10
189.5792766766
 20
172.7139149661
 10
189.5857557476
 20
172.7159706137
 10
189.5923217876
 20
172.7180134877
 10
189.5989746341
 20
172.7200435167
 10
189.605716043
 20
172.7220573643
 10
189.6125462101
 20
172.7240551056
 10
189.6194649396
 20
172.7260366655
 10
189.6264734
 20
172.7279984824
 10
189.6335718452
 20
172.7299406382
 10
189.6407600213
 20
172.731863051
 10
189.6480383344
 20
172.7337619136
 10
189.6554071929
 20
172.7356373301
 10
189.6628661884
 20
172.7374891964
 10
189.6704145016
 20
172.7393133932
 10
189.6780525142
 20
172.7411099936
 10
189.6857798445
 20
172.7428789245
 10
189.6935945282
 20
172.7446158468
 10
189.7014965333
 20
172.7463207376
 10
189.7094858917
 20
172.7479936198
 10
189.7175607349
 20
172.7496302235
 10
189.7257217666
 20
172.7512306637
 10
189.733968283
 20
172.7527948255
 10
189.7422963044
 20
172.7543180937
 10
189.7507147911
 20
172.7558016833
 10
189.7592147827
 20
172.7572443794
 10
189.7677654187
 20
172.7586379211
 10
189.7763747502
 20
172.7599825303
 10
189.785034726
 20
172.7612779852
 10
189.7936903313
 20
172.7625153598
 10
189.8023315141
 20
172.7636922876
 10
189.8109683265
 20
172.764811135
 10
189.8195759089
 20
172.7658700754
 10
189.8281485108
 20
172.7668681039
 10
189.8366918829
 20
172.7678062253
 10
189.8451984174
 20
172.7686856272
 10
189.8536665827
 20
172.7695061297
 10
189.8620979105
 20
172.7702679126
 10
189.8704893879
 20
172.7709727038
 10
189.878841635
 20
172.7716205593
 10
189.8871540318
 20
172.772211423
 10
189.8954217053
 20
172.7727468547
 10
189.903645069
 20
172.7732268423
 10
189.9118237095
 20
172.7736513979
 10
189.9199515138
 20
172.7740221178
 10
189.9280286475
 20
172.7743389445
 10
189.9360549451
 20
172.7746019355
 10
189.9440237966
 20
172.7748128599
 10
189.9519354136
 20
172.7749716369
 10
189.9597895845
 20
172.7750783472
 10
189.9675790651
 20
172.7751350013
 10
189.9753032849
 20
172.7751415169
 10
189.9829628143
 20
172.7750979764
 10
189.99055212
 20
172.7750066373
 10
189.9980706927
 20
172.7748674592
 10
190.0055190417
 20
172.7746804827
 10
190.0128931612
 20
172.7744480866
 10
190.0201926829
 20
172.7741702593
 10
190.0274179752
 20
172.7738470125
 10
190.0345661368
 20
172.7734807607
 10
190.0416369563
 20
172.7730715027
 10
190.0486306452
 20
172.7726192397
 10
190.0555449369
 20
172.7721263896
 10
190.0623796058
 20
172.7715929631
 10
190.0691348775
 20
172.7710189494
 10
190.075809163
 20
172.7704067345
 10
190.082402277
 20
172.7697563355
 10
190.0889144049
 20
172.7690677354
 10
190.0953445137
 20
172.768343268
 10
190.1016924172
 20
172.7675829596
 10
190.1079583016
 20
172.7667867839
 10
190.1141416933
 20
172.7659569967
 10
190.1202423982
 20
172.7650936354
 10
190.1262606105
 20
172.7641966626
 10
190.1321964379
 20
172.7632682215
 10
190.1380497116
 20
172.7623083569
 10
190.1438206005
 20
172.761317024
 10
190.1495097198
 20
172.7602962322
 10
190.1551168192
 20
172.7592460566
 10
190.1606421489
 20
172.758166422
 10
190.1660870758
 20
172.7570591121
 10
190.1714513519
 20
172.7559242262
 10
190.1767352252
 20
172.7547616649
 10
190.1819408053
 20
172.7535729142
 10
190.1870680483
 20
172.7523580442
 10
190.1921169982
 20
172.7511169847
 10
190.1970898967
 20
172.7498510108
 10
190.2019867003
 20
172.7485601982
 10
190.2068074526
 20
172.7472444711
 10
190.2115545249
 20
172.7459048768
 10
190.2162278461
 20
172.7445415096
 10
190.2208274874
 20
172.7431542752
 10
190.225356034
 20
172.7417439378
 10
190.2298135062
 20
172.7403105731
 10
190.2341998838
 20
172.7388541055
 10
190.2385176904
 20
172.7373750718
 10
190.2427670113
 20
172.7358735275
 10
190.2469477612
 20
172.734349417
 10
190.2510622089
 20
172.7328031108
 10
190.2551105354
 20
172.7312346147
 10
190.2590925597
 20
172.7296439227
 10
190.2630100069
 20
172.7280313873
 10
190.2668629954
 20
172.726397027
 10
190.2706514069
 20
172.7247408233
 10
190.2743766117
 20
172.7230630722
 10
190.2780390666
 20
172.7213638727
 10
190.2816383148
 20
172.7196431259
 10
190.2851743564
 20
172.7179008318
  0
LWPOLYLINE
  5
275
100
AcDbEntity
  8
0
100
AcDbPolyline
 62
7
  6
CONTINUOUS
 90
7
 70
0
 10
193.21554648
 20
172.3247900753
 10
193.2103793603
 20
172.3227571559
 10
193.2052026259
 20
172.3206262714
 10
193.2000162766
 20
172.3183974217
 10
193.1948203127
 20
172.3160706069
 10
193.1896147339
 20
172.3136458268
 10
193.1843995404
 20
172.3111230817
  0
LWPOLYLINE
  5
276
100
AcDbEntity
  8
0
100
AcDbPolyline
 62
7
  6
CONTINUOUS
 90
4
 70
0
 10
193.21554648
 20
172.3247900753
 10
193.2264468349
 20
172.3286258073
 10
193.2377221934
 20
172.3318707532
 10
193.2493624001
 20
172.3345177694
  0
LWPOLYLINE
  5
277
100
AcDbEntity
  8
0
100
AcDbPolyline
 62
7
  6
CONTINUOUS
 90
8
 70
0
 10
193.9234287052
 20
172.0278520981
 10
193.915249468
 20
172.0253566457
 10
193.9066663491
 20
172.0226011208
 10
193.8977000991
 20
172.019589942
 10
193.8883489209
 20
172.0163335665
 10
193.8786204044
 20
172.0128394539
 10
193.8685340131
 20
172.0091111512
 10
193.8581039111
 20
172.0051536499
  0
LWPOLYLINE
  5
278
100
AcDbEntity
  8
RACCORDO
100
AcDbPolyline
 62
7
  6
CONTINUOUS
 90
10
 70
0
 10
171.2089824482
 20
142.3284431051
 10
171.2308061555
 20
141.2773047159
 10
171.26716209
 20
140.1534856926
 10
171.3168570418
 20
139.0373793019
 10
171.3798832818
 20
137.929257699
 10
171.4562292389
 20
136.8293437762
 10
171.5458833164
 20
135.7378414339
 10
171.648831558
 20
134.6549711531
 10
171.7650499148
 20
133.5809941301
 10
171.8840754495
 20
132.597821034
  0
LWPOLYLINE
  5
279
100
AcDbEntity
  8
RACCORDO
100
AcDbPolyline
 62
250
  6
CONTINUOUS
 90
10
 70
0
 10
171.3554348742
 20
142.1510855895
 10
171.3308803378
 20
143.9663466492
 10
171.3124646507
 20
145.7849189133
 10
171.3001877652
 20
147.6067697536
 10
171.2940495639
 20
149.4318416164
 10
171.2940495599
 20
151.2601265532
 10
171.3001877541
 20
153.0916666507
 10
171.3124646363
 20
154.9264544487
 10
171.3308803262
 20
156.764432512
 10
171.3554348742
 20
158.6055682614
  0
LWPOLYLINE
  5
27A
100
AcDbEntity
  8
RACCORDO
100
AcDbPolyline
 62
250
  6
CONTINUOUS
 90
8
 70
0
 10
171.2089806462
 20
158.7815801191
 10
171.2090107139
 20
158.7765785494
 10
171.2139923756
 20
158.7452295993
 10
171.22716297
 20
158.7143580917
 10
171.248304582
 20
158.6844748133
 10
171.2770674116
 20
158.6560742
 10
171.3129755615
 20
158.6296261559
 10
171.3554349111
 20
158.605568279
  0
LWPOLYLINE
  5
27B
100
AcDbEntity
  8
RACCORDO
100
AcDbPolyline
 62
7
  6
CONTINUOUS
 90
10
 70
0
 10
171.208980613
 20
158.7815802573
 10
171.1851614068
 20
157.0030182581
 10
171.1663810611
 20
155.146327814
 10
171.1538646506
 20
153.2928448671
 10
171.1476125664
 20
151.4426076456
 10
171.1476249198
 20
149.5956479147
 10
171.153901767
 20
147.7519949543
 10
171.1664431117
 20
145.911680413
 10
171.1852486777
 20
144.0747421087
 10
171.2089824305
 20
142.3284429017
  0
LWPOLYLINE
  5
27C
100
AcDbEntity
  8
RACCORDO
100
AcDbPolyline
 62
250
  6
CONTINUOUS
 90
10
 70
0
 10
171.3554348742
 20
158.6055682614
 10
171.3788945903
 20
159.7428075904
 10
171.4152667895
 20
160.8863050921
 10
171.4645437008
 20
162.035822531
 10
171.52671437
 20
163.1911205967
 10
171.6017659251
 20
164.3519585204
 10
171.689683587
 20
165.5180941291
 10
171.7904489841
 20
166.6892844702
 10
171.9040401491
 20
167.8652858593
 10
172.0304327922
 20
169.0458535012
  0
LWPOLYLINE
  5
27D
100
AcDbEntity
  8
RACCORDO
100
AcDbPolyline
 62
250
  6
CONTINUOUS
 90
8
 70
0
 10
171.8831703113
 20
169.2119923871
 10
171.882776917
 20
169.1993702303
 10
171.8880926196
 20
169.1730157498
 10
171.9015514044
 20
169.1463865754
 10
171.9229305061
 20
169.1199234644
 10
171.951876065
 20
169.0940644254
 10
171.9879089836
 20
169.0692374686
 10
172.0304328572
 20
169.0458535217
  0
LINE
  5
27E
100
AcDbEntity
  8
RACCORDO
100
AcDbLine
 62
7
  6
CONTINUOUS
 10
188.8963972955
 20
165.4366747962
 11
188.6214291253
 21
165.2631636276
  0
LINE
  5
27F
100
AcDbEntity
  8
0
100
AcDbLine
 62
7
  6
CONTINUOUS
 10
188.5507932449
 20
167.9747304148
 11
187.4845794187
 21
167.3790974538
  0
LINE
  5
280
100
AcDbEntity
  8
0
100
AcDbLine
 62
250
  6
CONTINUOUS
 10
189.1155037777
 20
167.9002244381
 11
189.1238859784
 21
167.9047128917
  0
LINE
  5
281
100
AcDbEntity
  8
0
100
AcDbLine
 62
7
  6
CONTINUOUS
 10
189.0109281162
 20
167.9112269244
 11
190.5949050057
 21
168.7217639891
  0
LINE
  5
282
100
AcDbEntity
  8
0
100
AcDbLine
 62
250
  6
CONTINUOUS
 10
189.1238859784
 20
167.9047128917
 11
190.7074665044
 21
168.7150471331
  0
LINE
  5
283
100
AcDbEntity
  8
RACCORDO
100
AcDbLine
 62
7
  6
CONTINUOUS
 10
192.7687509706
 20
169.0691617546
 11
191.9781702722
 21
168.669245026
  0
LINE
  5
284
100
AcDbEntity
  8
0
100
AcDbLine
 62
250
  6
CONTINUOUS
 10
190.8042764435
 20
167.0645176591
 11
192.4045276256
 21
167.8665165724
  0
LINE
  5
285
100
AcDbEntity
  8
0
100
AcDbLine
 62
250
  6
CONTINUOUS
 10
190.9810507156
 20
166.75962714
 11
192.5813018977
 21
167.5616260533
  0
LINE
  5
286
100
AcDbEntity
  8
0
100
AcDbLine
 62
7
  6
CONTINUOUS
 10
190.5949050038
 20
168.7217639882
 11
190.5965547511
 21
168.7225878069
  0
LINE
  5
287
100
AcDbEntity
  8
0
100
AcDbLine
 62
7
  6
CONTINUOUS
 10
193.1202474477
 20
170.2534478665
 11
193.8581039111
 21
170.6214056849
  0
LINE
  5
288
100
AcDbEntity
  8
0
100
AcDbLine
 62
250
  6
CONTINUOUS
 10
192.404528194
 20
167.8665162882
 11
192.9327953658
 21
168.1299551083
  0
LINE
  5
289
100
AcDbEntity
  8
0
100
AcDbLine
 62
250
  6
CONTINUOUS
 10
192.5813018977
 20
167.5616267494
 11
193.1095690695
 21
167.8250655695
  0
LINE
  5
28A
100
AcDbEntity
  8
RACCORDO
100
AcDbLine
 62
7
  6
CONTINUOUS
 10
192.249071027
 20
168.5337946486
 11
193.7126727476
 21
169.2551668238
  0
LINE
  5
28B
100
AcDbEntity
  8
0
100
AcDbLine
 62
7
  6
CONTINUOUS
 10
190.5965547503
 20
168.7225878065
 11
191.1314037035
 21
168.9831296749
  0
LINE
  5
28C
100
AcDbEntity
  8
0
100
AcDbLine
 62
250
  6
CONTINUOUS
 10
190.707465936
 20
168.7150474173
 11
191.2419158146
 21
168.9753948839
  0
LWPOLYLINE
  5
28D
100
AcDbEntity
  8
0
100
AcDbPolyline
 62
250
  6
CONTINUOUS
 90
16
 70
0
 10
189.0111019209
 20
167.9113156344
 10
189.0142561053
 20
167.9128479662
 10
189.0210018078
 20
167.9156589839
 10
189.0279827397
 20
167.9179557079
 10
189.0351831534
 20
167.9197329441
 10
189.0425866719
 20
167.9209866372
 10
189.0501763578
 20
167.9217139323
 10
189.0579349002
 20
167.9219132116
 10
189.0658448122
 20
167.921584066
 10
189.0738883166
 20
167.9207272497
 10
189.082048417
 20
167.919344458
 10
189.0903054288
 20
167.9174389131
 10
189.0986370461
 20
167.9150160849
 10
189.1070231101
 20
167.9120825796
 10
189.1154457784
 20
167.9086453775
 10
189.1238859784
 20
167.9047128917
  0
LINE
  5
28E
100
AcDbEntity
  8
RACCORDO
100
AcDbLine
 62
7
  6
CONTINUOUS
 10
207.075975241
 20
173.8066444116
 11
200.6475197042
 21
170.7042643176
  0
LWPOLYLINE
  5
28F
100
AcDbEntity
  8
0
100
AcDbPolyline
 62
250
  6
CONTINUOUS
 90
3
 70
0
 10
191.1314037035
 20
168.9831296749
 10
191.1330592399
 20
168.983916167
 10
191.1397847588
 20
168.9867188637
  0
LWPOLYLINE
  5
290
100
AcDbEntity
  8
0
100
AcDbPolyline
 62
7
  6
CONTINUOUS
 90
16
 70
0
 10
190.5965547511
 20
168.7225878069
 10
190.5982122672
 20
168.723375261
 10
190.6049472551
 20
168.7261825567
 10
190.6119143337
 20
168.7284740985
 10
190.6190977693
 20
168.7302447201
 10
190.6264813042
 20
168.7314904185
 10
190.6340481267
 20
168.7322083314
 10
190.6417811643
 20
168.7323968674
 10
190.6496629356
 20
168.7320556179
 10
190.6576754611
 20
168.7311852967
 10
190.6658006875
 20
168.7297879173
 10
190.6740202556
 20
168.7278666742
 10
190.682315353
 20
168.7254258526
 10
190.6906671844
 20
168.7224709954
 10
190.6990570143
 20
168.7190088846
 10
190.707465936
 20
168.7150474173
  0
LINE
  5
291
100
AcDbEntity
  8
RACCORDO
100
AcDbLine
 62
7
  6
CONTINUOUS
 10
203.8987755924
 20
175.2127893398
 11
197.7810811375
 21
172.3874353071
  0
LINE
  5
292
100
AcDbEntity
  8
RACCORDO
100
AcDbLine
 62
7
  6
CONTINUOUS
 10
203.8987088892
 20
175.2127585261
 11
203.8987755874
 21
175.2127893375
  0
LINE
  5
293
100
AcDbEntity
  8
RACCORDO
100
AcDbLine
 62
250
  6
CONTINUOUS
 10
204.3329306859
 20
175.1781666892
 11
198.061164992
 21
172.2816574526
  0
LINE
  5
294
100
AcDbEntity
  8
RACCORDO
100
AcDbLine
 62
7
  6
CONTINUOUS
 10
189.0421392614
 20
165.054990885
 11
188.8963972955
 21
164.9893775572
  0
LINE
  5
295
100
AcDbEntity
  8
RACCORDO
100
AcDbLine
 62
250
  6
CONTINUOUS
 10
198.061164992
 20
172.2816574526
 11
198.0249592778
 21
172.2654962369
  0
LWPOLYLINE
  5
296
100
AcDbEntity
  8
RACCORDO
100
AcDbPolyline
 62
250
  6
CONTINUOUS
 90
19
 70
0
 10
203.8987755874
 20
175.2127893375
 10
203.9155835707
 20
175.2200581552
 10
203.9370911136
 20
175.2279887215
 10
203.9591433845
 20
175.2346344282
 10
203.9817095976
 20
175.239986048
 10
204.0047583506
 20
175.2440361742
 10
204.0282572716
 20
175.2467790518
 10
204.0521736544
 20
175.2482109312
 10
204.0764742248
 20
175.2483298673
 10
204.101124927
 20
175.2471355099
 10
204.1260918873
 20
175.244629555
 10
204.1513400416
 20
175.2408155411
 10
204.1768328963
 20
175.2356987127
 10
204.202534403
 20
175.229286604
 10
204.228409501
 20
175.2215882321
 10
204.2544227655
 20
175.2126137141
 10
204.2805382855
 20
175.2023753074
 10
204.3067196906
 20
175.190887603
 10
204.3329306859
 20
175.1781666892
  0
LWPOLYLINE
  5
297
100
AcDbEntity
  8
0
100
AcDbPolyline
 62
250
  6
CONTINUOUS
 90
14
 70
0
 10
191.1397847588
 20
168.9867188637
 10
191.1467392978
 20
168.9890043171
 10
191.1539071032
 20
168.9907673503
 10
191.1612719384
 20
168.9920039694
 10
191.1688171204
 20
168.9927113733
 10
191.1765255578
 20
168.9928879596
 10
191.184379789
 20
168.9925333282
 10
191.1923620226
 20
168.9916482825
 10
191.200454177
 20
168.9902348273
 10
191.2086379216
 20
168.9882961644
 10
191.2168947185
 20
168.9858366852
 10
191.2252058641
 20
168.9828619612
 10
191.2335525318
 20
168.9793787306
 10
191.2419158146
 20
168.9753948839
  0
LWPOLYLINE
  5
298
100
AcDbEntity
  8
RACCORDO
100
AcDbPolyline
 62
250
  6
CONTINUOUS
 90
7
 70
0
 10
171.8841135542
 20
132.5975237867
 10
171.8880925972
 20
132.5767697731
 10
171.90155138
 20
132.5407310518
 10
171.92293048
 20
132.5066824184
 10
171.9518760377
 20
132.4751874345
 10
171.9879089555
 20
132.4467673948
 10
172.0304328287
 20
132.4218926983
  0
LWPOLYLINE
  5
299
100
AcDbEntity
  8
RACCORDO
100
AcDbPolyline
 62
7
  6
CONTINUOUS
 90
11
 70
0
 10
171.8841136728
 20
132.5975238019
 10
171.8903370895
 20
132.5561677263
 10
171.9092502082
 20
132.4717834661
 10
171.9359155056
 20
132.3914791621
 10
171.9702023599
 20
132.3156767093
 10
172.011828517
 20
132.2450455565
 10
172.0601047767
 20
132.1806183334
 10
172.1142452842
 20
132.123081781
 10
172.1735288822
 20
132.0728253922
 10
172.2368774959
 20
132.0303402311
 10
172.2799721193
 20
132.0068767348
  0
LWPOLYLINE
  5
29A
100
AcDbEntity
  8
RACCORDO
100
AcDbPolyline
 62
250
  6
CONTINUOUS
 90
7
 70
0
 10
171.2089824305
 20
142.3284429017
 10
171.2139923373
 20
142.2942972258
 10
171.2271629299
 20
142.262220789
 10
171.2483045414
 20
142.2313660245
 10
171.2770673715
 20
142.2022434421
 10
171.3129755229
 20
142.1753348915
 10
171.3554348749
 20
142.1510855899
  0
LINE
  5
29B
100
AcDbEntity
  8
RACCORDO
100
AcDbLine
 62
7
  6
CONTINUOUS
 10
171.8840754495
 20
132.597821034
 11
171.8841135542
 21
132.5975237867
  0
LWPOLYLINE
  5
29C
100
AcDbEntity
  8
RACCORDO
100
AcDbPolyline
 62
250
  6
CONTINUOUS
 90
10
 70
0
 10
172.0304327922
 20
132.4218926733
 10
171.904040149
 20
133.4693071178
 10
171.790448984
 20
134.5256436775
 10
171.6896835868
 20
135.5906818467
 10
171.6017659245
 20
136.6641990732
 10
171.5267143687
 20
137.7459716111
 10
171.4645436993
 20
138.8357745724
 10
171.4152667883
 20
139.9333808959
 10
171.3788945896
 20
141.0385613897
 10
171.3554348742
 20
142.1510855895
  0
LWPOLYLINE
  5
29D
100
AcDbEntity
  8
0
100
AcDbPolyline
 62
250
  6
CONTINUOUS
 90
19
 70
0
 10
176.6443768868
 20
173.4110046658
 10
176.6445451827
 20
173.4016437165
 10
176.6450497498
 20
173.3924688865
 10
176.6458896274
 20
173.3834976452
 10
176.6470632129
 20
173.3747470974
 10
176.6485682735
 20
173.3662338803
 10
176.6504019595
 20
173.3579741381
 10
176.6525608031
 20
173.3499835508
 10
176.6550406902
 20
173.3422773973
 10
176.6578368696
 20
173.3348704484
 10
176.6609439917
 20
173.3277768491
 10
176.6643561533
 20
173.321010053
 10
176.6680668808
 20
173.3145828959
 10
176.672069141
 20
173.308507576
 10
176.6763552897
 20
173.3027957121
 10
176.6809170989
 20
173.2974582587
 10
176.6857458285
 20
173.2925054078
 10
176.6908323147
 20
173.2879465264
 10
176.6961669302
 20
173.2837902324
  0
LINE
  5
29E
100
AcDbEntity
  8
0
100
AcDbLine
 62
7
  6
CONTINUOUS
 10
176.4783983086
 20
171.1348251715
 11
176.4783983086
 21
172.4489771153
  0
LINE
  5
29F
100
AcDbEntity
  8
0
100
AcDbLine
 62
7
  6
CONTINUOUS
 10
176.5711535821
 20
173.8405013031
 11
176.5711535821
 21
173.4993930135
  0
LINE
  5
2A0
100
AcDbEntity
  8
0
100
AcDbLine
 62
250
  6
CONTINUOUS
 10
176.6443768868
 20
173.7521129554
 11
176.6443768868
 21
173.4110046658
  0
LINE
  5
2A1
100
AcDbEntity
  8
0
100
AcDbLine
 62
7
  6
CONTINUOUS
 10
177.274557927
 20
172.9931823439
 11
177.274557927
 21
172.5392082422
  0
LWPOLYLINE
  5
2A2
100
AcDbEntity
  8
0
100
AcDbPolyline
 62
250
  6
CONTINUOUS
 90
14
 70
0
 10
176.6443768868
 20
173.7521129554
 10
176.6445757825
 20
173.7624798767
 10
176.6451720219
 20
173.7730223656
 10
176.6461642634
 20
173.7837166987
 10
176.6475502741
 20
173.7945388113
 10
176.6493269353
 20
173.8054643508
 10
176.6514902489
 20
173.8164687321
 10
176.654035347
 20
173.8275271927
 10
176.6569565025
 20
173.8386148483
 10
176.6602471421
 20
173.8497067488
 10
176.663899861
 20
173.8607779348
 10
176.6679064397
 20
173.8718034934
 10
176.6722578624
 20
173.8827586143
 10
176.6769443373
 20
173.8936186457
  0
LWPOLYLINE
  5
2A3
100
AcDbEntity
  8
0
100
AcDbPolyline
 62
250
  6
CONTINUOUS
 90
19
 70
0
 10
185.9147513559
 20
170.2449786622
 10
185.9179561803
 20
170.253800466
 10
185.9214369693
 20
170.2625659421
 10
185.9251858522
 20
170.2712552857
 10
185.929194418
 20
170.2798490164
 10
185.9334536708
 20
170.288327847
 10
185.9379540401
 20
170.2966727158
 10
185.942685387
 20
170.3048648134
 10
185.9476370537
 20
170.3128856816
 10
185.9527978919
 20
170.3207172601
 10
185.9581562899
 20
170.3283419257
 10
185.9637001868
 20
170.3357425144
 10
185.9694171064
 20
170.342902369
 10
185.97529418
 20
170.3498053703
 10
185.9813181741
 20
170.3564359734
 10
185.9874755284
 20
170.3627792516
 10
185.9937523849
 20
170.3688209275
 10
186.0001346135
 20
170.3745473998
 10
186.0066078525
 20
170.3799457814
  0
LINE
  5
2A4
100
AcDbEntity
  8
0
100
AcDbLine
 62
7
  6
CONTINUOUS
 10
192.4834198241
 20
165.9047949467
 11
191.691859933
 21
165.4625955022
  0
LINE
  5
2A5
100
AcDbEntity
  8
0
100
AcDbLine
 62
250
  6
CONTINUOUS
 10
192.7225749709
 20
166.0954484324
 11
192.7309539168
 21
166.0999410279
  0
LINE
  5
2A6
100
AcDbEntity
  8
0
100
AcDbLine
 62
7
  6
CONTINUOUS
 10
192.6178682507
 20
166.1063890031
 11
194.2010419161
 21
166.9185870612
  0
LINE
  5
2A7
100
AcDbEntity
  8
0
100
AcDbLine
 62
250
  6
CONTINUOUS
 10
192.7309539168
 20
166.0999410279
 11
194.31371052
 21
166.9119251253
  0
LINE
  5
2A8
100
AcDbEntity
  8
DRAFT
100
AcDbLine
 62
7
  6
CONTINUOUS
 10
207.678031676
 20
172.6751236131
 11
206.6266277454
 21
172.1401654067
  0
LINE
  5
2A9
100
AcDbEntity
  8
0
100
AcDbLine
 62
250
  6
CONTINUOUS
 10
194.4094919873
 20
165.2606719927
 11
196.0107727781
 21
166.0633939962
  0
LINE
  5
2AA
100
AcDbEntity
  8
0
100
AcDbLine
 62
250
  6
CONTINUOUS
 10
194.5862656909
 20
164.9557824539
 11
196.1875464818
 21
165.7585044574
  0
LINE
  5
2AB
100
AcDbEntity
  8
0
100
AcDbLine
 62
7
  6
CONTINUOUS
 10
194.2010419141
 20
166.9185870602
 11
194.2027783307
 21
166.9194552829
  0
LINE
  5
2AC
100
AcDbEntity
  8
0
100
AcDbLine
 62
250
  6
CONTINUOUS
 10
196.0107727781
 20
166.0633939962
 11
196.5390399498
 21
166.3268328163
  0
LINE
  5
2AD
100
AcDbEntity
  8
0
100
AcDbLine
 62
250
  6
CONTINUOUS
 10
196.1875464818
 20
165.7585044574
 11
196.7158136535
 21
166.0219432774
  0
LINE
  5
2AE
100
AcDbEntity
  8
DRAFT
100
AcDbLine
 62
7
  6
CONTINUOUS
 10
206.6266277454
 20
172.1401654067
 11
202.9566253204
 21
170.3210458005
  0
LINE
  5
2AF
100
AcDbEntity
  8
0
100
AcDbLine
 62
7
  6
CONTINUOUS
 10
194.2027783299
 20
166.9194552825
 11
194.7376482876
 21
167.1800073829
  0
LINE
  5
2B0
100
AcDbEntity
  8
0
100
AcDbLine
 62
250
  6
CONTINUOUS
 10
194.31371052
 20
166.9119251253
 11
194.8481603987
 21
167.1722725918
  0
LWPOLYLINE
  5
2B1
100
AcDbEntity
  8
0
100
AcDbPolyline
 62
250
  6
CONTINUOUS
 90
16
 70
0
 10
192.6180408752
 20
166.1064773378
 10
192.6212832047
 20
166.1080546063
 10
192.6280298568
 20
166.1108661217
 10
192.6350120595
 20
166.1131635133
 10
192.6422140628
 20
166.1149415855
 10
192.6496194861
 20
166.1161962813
 10
192.6572113875
 20
166.1169247434
 10
192.6649724509
 20
166.1171253513
 10
192.6728851841
 20
166.1167976932
 10
192.680931804
 20
166.1159425199
 10
192.6890953069
 20
166.1145615234
 10
192.6973560012
 20
166.1126579215
 10
192.7056915738
 20
166.1102371777
 10
192.7140818574
 20
166.1073058921
 10
192.7225089994
 20
166.1038710399
 10
192.7309539168
 20
166.0999410279
  0
LINE
  5
2B2
100
AcDbEntity
  8
RACCORDO
100
AcDbLine
 62
7
  6
CONTINUOUS
 10
210.2579557564
 20
172.2156541539
 11
203.8295002195
 21
169.1132740599
  0
LWPOLYLINE
  5
2B3
100
AcDbEntity
  8
0
100
AcDbPolyline
 62
7
  6
CONTINUOUS
 90
16
 70
0
 10
194.2027783307
 20
166.9194552829
 10
194.204435959
 20
166.9202427914
 10
194.2111714479
 20
166.9230503293
 10
194.2181391871
 20
166.9253421909
 10
194.2253234442
 20
166.9271132107
 10
194.2327079598
 20
166.9283593858
 10
194.2402759142
 20
166.929077851
 10
194.2480102357
 20
166.9292670161
 10
194.2558934416
 20
166.9289264728
 10
194.2639075411
 20
166.9280569312
 10
194.2720344715
 20
166.9266604082
 10
194.2802558825
 20
166.9247400983
 10
194.2885529792
 20
166.9223002716
 10
194.2969069726
 20
166.9193464607
 10
194.3052991217
 20
166.9158854477
 10
194.31371052
 20
166.9119251253
  0
LWPOLYLINE
  5
2B4
100
AcDbEntity
  8
0
100
AcDbPolyline
 62
250
  6
CONTINUOUS
 90
16
 70
0
 10
194.7376482876
 20
167.1800073829
 10
194.739321011
 20
167.1808018324
 10
194.7460479413
 20
167.1836034869
 10
194.7530039229
 20
167.185887768
 10
194.7601732648
 20
167.1876495095
 10
194.7675396605
 20
167.1888846915
 10
194.7750862575
 20
167.1895905014
 10
194.7827958436
 20
167.1897653706
 10
194.7906510428
 20
167.1894089455
 10
194.7986342015
 20
167.1885220416
 10
194.8067284491
 20
167.1871064175
 10
194.8149142598
 20
167.1851653738
 10
194.823169526
 20
167.1827044767
 10
194.8314742817
 20
167.1797304273
 10
194.8398108632
 20
167.1762502948
 10
194.8481603987
 20
167.1722725918
  0
LINE
  5
2B5
100
AcDbEntity
  8
RACCORDO
100
AcDbLine
 62
7
  6
CONTINUOUS
 10
202.1652493834
 20
169.9453994779
 11
208.6459822166
 21
173.0216409238
  0
LINE
  5
2B6
100
AcDbEntity
  8
RACCORDO
100
AcDbLine
 62
7
  6
CONTINUOUS
 10
193.5792007314
 20
163.0952730782
 11
193.2515064267
 21
162.948124977
  0
LWPOLYLINE
  5
2B7
100
AcDbEntity
  8
0
100
AcDbPolyline
 62
7
  6
CONTINUOUS
 90
4
 70
0
 10
203.5368715727
 20
167.1657698191
 10
203.5477813996
 20
167.169487458
 10
203.559062098
 20
167.1726186071
 10
203.5707036849
 20
167.1751561846
  0
LWPOLYLINE
  5
2B8
100
AcDbEntity
  8
0
100
AcDbPolyline
 62
7
  6
CONTINUOUS
 90
8
 70
0
 10
204.2417550438
 20
166.8677880955
 10
204.2334796448
 20
166.8652430485
 10
204.2247976089
 20
166.8624362917
 10
204.215729503
 20
166.8593724455
 10
204.2062738921
 20
166.8560620234
 10
204.196438584
 20
166.8525125579
 10
204.1862430537
 20
166.8487276978
 10
204.1757015883
 20
166.8447125211
  0
LWPOLYLINE
  5
2B9
100
AcDbEntity
  8
0
100
AcDbPolyline
 62
250
  6
CONTINUOUS
 90
22
 70
0
 10
178.3247673519
 20
172.5708094333
 10
178.3249351833
 20
172.5614612884
 10
178.3254385878
 20
172.5522956287
 10
178.3262769521
 20
172.5433300691
 10
178.3274491764
 20
172.5345808908
 10
178.3289532937
 20
172.5260660114
 10
178.3307860958
 20
172.5178046726
 10
178.3329438195
 20
172.5098135307
 10
178.3354225525
 20
172.5021068135
 10
178.338217609
 20
172.4946991114
 10
178.3413237053
 20
172.4876044801
 10
178.3447349152
 20
172.4808365034
 10
178.3484446995
 20
172.4744081671
 10
178.3524459628
 20
172.4683317502
 10
178.3567311089
 20
172.4626187732
 10
178.3612920094
 20
172.4572800748
 10
178.3661200161
 20
172.4523257938
 10
178.3712059101
 20
172.4477654053
 10
178.3765399413
 20
172.4436076479
 10
178.3821119073
 20
172.4398604532
 10
178.3879112293
 20
172.4365309152
 10
178.3897384226
 20
172.4355920961
  0
LINE
  5
2BA
100
AcDbEntity
  8
0
100
AcDbLine
 62
250
  6
CONTINUOUS
 10
177.3477812317
 20
172.9565706915
 11
177.3477812317
 21
172.4474965473
  0
LINE
  5
2BB
100
AcDbEntity
  8
0
100
AcDbLine
 62
250
  6
CONTINUOUS
 10
178.3247673519
 20
172.5708094333
 11
178.3247673519
 21
172.9119177229
  0
LINE
  5
2BC
100
AcDbEntity
  8
0
100
AcDbLine
 62
250
  6
CONTINUOUS
 10
178.6773927229
 20
172.5703478467
 11
178.6773927229
 21
172.9114561363
  0
LINE
  5
2BD
100
AcDbEntity
  8
0
100
AcDbLine
 62
250
  6
CONTINUOUS
 10
179.0355765694
 20
171.6035988785
 11
179.0355765694
 21
172.2843158469
  0
LINE
  5
2BE
100
AcDbEntity
  8
0
100
AcDbLine
 62
250
  6
CONTINUOUS
 10
179.3882019404
 20
171.6144244985
 11
179.3882019404
 21
172.4220500192
  0
LINE
  5
2BF
100
AcDbEntity
  8
0
100
AcDbLine
 62
7
  6
CONTINUOUS
 10
180.2776439051
 20
172.1113050848
 11
180.2776439051
 21
173.7134557458
  0
LINE
  5
2C0
100
AcDbEntity
  8
0
100
AcDbLine
 62
250
  6
CONTINUOUS
 10
180.8059110768
 20
173.9768945658
 11
180.8059110768
 21
173.629363049
  0
LINE
  5
2C1
100
AcDbEntity
  8
0
100
AcDbLine
 62
7
  6
CONTINUOUS
 10
180.8781089338
 20
174.064767198
 11
180.8781089338
 21
173.7172356812
  0
LWPOLYLINE
  5
2C2
100
AcDbEntity
  8
0
100
AcDbPolyline
 62
250
  6
CONTINUOUS
 90
34
 70
0
 10
178.3247673519
 20
172.9119177229
 10
178.3249663025
 20
172.9222860879
 10
178.3255627075
 20
172.9328300813
 10
178.3265552264
 20
172.9435259706
 10
178.3279416277
 20
172.9543496881
 10
178.3297187922
 20
172.9652768646
 10
178.3318827167
 20
172.9762828834
 10
178.3344285286
 20
172.9873429653
 10
178.3373504982
 20
172.9984322208
 10
178.3406420467
 20
173.009525686
 10
178.3442957651
 20
173.0205983925
 10
178.348303428
 20
173.0316254151
 10
178.3526560104
 20
173.0425819251
 10
178.3573437128
 20
173.0534432594
 10
178.3623559831
 20
173.0641849728
 10
178.367681536
 20
173.0747828844
 10
178.3733083858
 20
173.0852131462
 10
178.3792238631
 20
173.0954522767
 10
178.38541464
 20
173.1054772122
 10
178.3918667607
 20
173.1152653638
 10
178.398565717
 20
173.1247947315
 10
178.4054964745
 20
173.1340439294
 10
178.4126435033
 20
173.1429922193
 10
178.4199906546
 20
173.1516193694
 10
178.4275212288
 20
173.1599057839
 10
178.4352181622
 20
173.1678327278
 10
178.4430642228
 20
173.1753824944
 10
178.4510418957
 20
173.1825382448
 10
178.4591344508
 20
173.1892848568
 10
178.4673224801
 20
173.1956060365
 10
178.4755839646
 20
173.2014851083
 10
178.4838990317
 20
173.2069086777
 10
178.4922501222
 20
173.2118660331
 10
178.5006184508
 20
173.2163466555
  0
LWPOLYLINE
  5
2C3
100
AcDbEntity
  8
0
100
AcDbPolyline
 62
250
  6
CONTINUOUS
 90
18
 70
0
 10
180.8781089338
 20
174.064767198
 10
180.8780553723
 20
174.0621798298
 10
180.8775289449
 20
174.0562575257
 10
180.8764415325
 20
174.050354353
 10
180.8747955779
 20
174.0444835862
 10
180.8725947806
 20
174.0386584317
 10
180.8698440878
 20
174.0328919908
 10
180.866549684
 20
174.0271972343
 10
180.8627189795
 20
174.0215869754
 10
180.8583605899
 20
174.0160738337
 10
180.8534843162
 20
174.0106702087
 10
180.8481011268
 20
174.0053882559
 10
180.8422231256
 20
174.0002398532
 10
180.8358635355
 20
173.9952365833
 10
180.8290366726
 20
173.9903897085
 10
180.8217578986
 20
173.9857101324
 10
180.8140435824
 20
173.9812083767
 10
180.8059110768
 20
173.9768945658
  0
LWPOLYLINE
  5
2C4
100
AcDbEntity
  8
0
100
AcDbPolyline
 62
250
  6
CONTINUOUS
 90
18
 70
0
 10
180.8781089329
 20
173.7172249783
 10
180.8780545109
 20
173.7146275938
 10
180.8775261579
 20
173.7087056118
 10
180.8764368859
 20
173.7028028348
 10
180.8747891478
 20
173.6969325287
 10
180.8725866476
 20
173.6911078826
 10
180.869834316
 20
173.685341953
 10
180.8665383571
 20
173.6796477506
 10
180.8627062656
 20
173.6740381931
 10
180.8583467536
 20
173.6685259637
 10
180.8534696079
 20
173.6631233754
 10
180.8480857126
 20
173.6578424645
 10
180.8422066776
 20
173.652694694
 10
180.8358461408
 20
173.6476920747
 10
180.8290199811
 20
173.6428469202
 10
180.8217444086
 20
173.6381703555
 10
180.814035575
 20
173.6336724057
 10
180.8059110768
 20
173.629363049
  0
LINE
  5
2C5
100
AcDbEntity
  8
0
100
AcDbLine
 62
250
  6
CONTINUOUS
 10
185.9118297665
 20
170.2361205613
 11
185.9147513559
 21
170.2449786622
  0
LWPOLYLINE
  5
2C6
100
AcDbEntity
  8
0
100
AcDbPolyline
 62
250
  6
CONTINUOUS
 90
20
 70
0
 10
188.9806023299
 20
167.7417896494
 10
188.9856133113
 20
167.7525301537
 10
188.9909375232
 20
167.7631269621
 10
188.9965629849
 20
167.773556229
 10
189.0024770377
 20
167.7837944861
 10
189.0086663734
 20
167.7938186948
 10
189.0151170646
 20
167.8036062981
 10
189.0218145956
 20
167.8131352714
 10
189.0287438952
 20
167.8223841723
 10
189.0358893709
 20
167.8313321884
 10
189.0432349436
 20
167.8399591845
 10
189.0507640839
 20
167.8482457476
 10
189.0584598494
 20
167.856173231
 10
189.0663049227
 20
167.8637237958
 10
189.0742816504
 20
167.8708804515
 10
189.082372083
 20
167.8776270938
 10
189.0905580149
 20
167.883948541
 10
189.0988210258
 20
167.8898305684
 10
189.1071425219
 20
167.8952599399
 10
189.1155037777
 20
167.9002244381
  0
LINE
  5
2C7
100
AcDbEntity
  8
0
100
AcDbLine
 62
250
  6
CONTINUOUS
 10
192.5813018977
 20
166.834581897
 11
193.1095690695
 21
167.4775340527
  0
LINE
  5
2C8
100
AcDbEntity
  8
0
100
AcDbLine
 62
7
  6
CONTINUOUS
 10
192.5813018977
 20
166.7450514306
 11
193.1249296418
 21
167.4066988861
  0
LINE
  5
2C9
100
AcDbEntity
  8
0
100
AcDbLine
 62
7
  6
CONTINUOUS
 10
198.4856435206
 20
162.6310586523
 11
197.7785367394
 21
162.2321187935
  0
LINE
  5
2CA
100
AcDbEntity
  8
0
100
AcDbLine
 62
7
  6
CONTINUOUS
 10
196.1875464818
 20
164.1563537964
 11
195.297486299
 21
163.6596728752
  0
LINE
  5
2CB
100
AcDbEntity
  8
0
100
AcDbLine
 62
7
  6
CONTINUOUS
 10
198.1674454691
 20
164.5520449488
 11
197.1129560377
 21
164.0110719101
  0
LINE
  5
2CC
100
AcDbEntity
  8
DRAFT
100
AcDbLine
 62
7
  6
CONTINUOUS
 10
210.8600121914
 20
171.0841333554
 11
209.8086082607
 21
170.549175149
  0
LINE
  5
2CD
100
AcDbEntity
  8
DRAFT
100
AcDbLine
 62
7
  6
CONTINUOUS
 10
214.0419927067
 20
169.4931430977
 11
212.990588776
 21
168.9581848913
  0
LINE
  5
2CE
100
AcDbEntity
  8
0
100
AcDbLine
 62
7
  6
CONTINUOUS
 10
197.7785367394
 20
163.6782815593
 11
198.6262421254
 21
164.1081744559
  0
LINE
  5
2CF
100
AcDbEntity
  8
0
100
AcDbLine
 62
250
  6
CONTINUOUS
 10
200.2525877221
 20
163.2950016576
 11
200.4655425079
 21
163.4029964294
  0
LINE
  5
2D0
100
AcDbEntity
  8
0
100
AcDbLine
 62
250
  6
CONTINUOUS
 10
200.3948318298
 20
163.0515002056
 11
200.6069638642
 21
163.1590777393
  0
LINE
  5
2D1
100
AcDbEntity
  8
0
100
AcDbLine
 62
7
  6
CONTINUOUS
 10
205.8862410557
 20
165.3942794807
 11
206.9902079248
 21
165.9462629153
  0
LINE
  5
2D2
100
AcDbEntity
  8
DRAFT
100
AcDbLine
 62
7
  6
CONTINUOUS
 10
209.8086082607
 20
170.549175149
 11
206.1386058357
 21
168.7300555429
  0
LINE
  5
2D3
100
AcDbEntity
  8
DRAFT
100
AcDbLine
 62
7
  6
CONTINUOUS
 10
212.990588776
 20
168.9581848913
 11
209.3205863511
 21
167.1390652852
  0
LWPOLYLINE
  5
2D4
100
AcDbEntity
  8
0
100
AcDbPolyline
 62
7
  6
CONTINUOUS
 90
26
 70
0
 10
204.9751191889
 20
168.5386192655
 10
204.9949046229
 20
168.5484170091
 10
205.0137753351
 20
168.5576529833
 10
205.0317313256
 20
168.5663271879
 10
205.0486355999
 20
168.574373644
 10
205.0646251526
 20
168.5818583306
 10
205.0801109662
 20
168.5889791849
 10
205.0952336292
 20
168.5958062662
 10
205.1098525531
 20
168.6022695152
 10
205.1239569564
 20
168.6083566909
 10
205.1375634763
 20
168.6140760296
 10
205.1506554755
 20
168.6194192951
 10
205.1631722599
 20
168.6243495379
 10
205.1751119279
 20
168.6288672676
 10
205.186476381
 20
168.6329719746
 10
205.1972106296
 20
168.6366251812
 10
205.2073272362
 20
168.6398326512
 10
205.2168136383
 20
168.6425886208
 10
205.2255771593
 20
168.6448373207
 10
205.2336210185
 20
168.6465811531
 10
205.2409419965
 20
168.6478177158
 10
205.2474377586
 20
168.6484840332
 10
205.2531154932
 20
168.6485828954
 10
205.2579680118
 20
168.6481115123
 10
205.2618714146
 20
168.6469985376
 10
205.2627629297
 20
168.6465804268
  0
LINE
  5
2D5
100
AcDbEntity
  8
RACCORDO
100
AcDbLine
 62
7
  6
CONTINUOUS
 10
196.894653263
 20
163.8028004058
 11
197.1129560377
 21
163.9103963079
  0
LINE
  5
2D6
100
AcDbEntity
  8
0
100
AcDbLine
 62
7
  6
CONTINUOUS
 10
204.1445546488
 20
166.8310455275
 11
199.5463036924
 21
164.5646842299
  0
LINE
  5
2D7
100
AcDbEntity
  8
0
100
AcDbLine
 62
7
  6
CONTINUOUS
 10
204.9203152294
 20
165.8277576005
 11
204.1757015883
 21
165.4607564181
  0
LINE
  5
2D8
100
AcDbEntity
  8
0
100
AcDbLine
 62
250
  6
CONTINUOUS
 10
200.4655425079
 20
163.4029964294
 11
201.1726492891
 21
163.7515114316
  0
LINE
  5
2D9
100
AcDbEntity
  8
0
100
AcDbLine
 62
7
  6
CONTINUOUS
 10
208.0356988239
 20
167.0122169803
 11
205.8862410557
 21
165.9528037507
  0
LINE
  5
2DA
100
AcDbEntity
  8
0
100
AcDbLine
 62
250
  6
CONTINUOUS
 10
200.6069638642
 20
163.1590777393
 11
201.3140706454
 21
163.5075927415
  0
LINE
  5
2DB
100
AcDbEntity
  8
0
100
AcDbLine
 62
7
  6
CONTINUOUS
 10
203.503668875
 20
167.1514884143
 11
198.1674454691
 21
164.5520449488
  0
LINE
  5
2DC
100
AcDbEntity
  8
RACCORDO
100
AcDbLine
 62
7
  6
CONTINUOUS
 10
213.4399362717
 20
170.6246638962
 11
207.2658583161
 21
167.6450467178
  0
LWPOLYLINE
  5
2DD
100
AcDbEntity
  8
RACCORDO
100
AcDbPolyline
 62
7
  6
CONTINUOUS
 90
6
 70
0
 10
204.9909048431
 20
164.6552073149
 10
204.9863890061
 20
164.6530356835
 10
204.9755886185
 20
164.6470893156
 10
204.9654559058
 20
164.6404372699
 10
204.9561498606
 20
164.6332737509
 10
204.9529021401
 20
164.6305057715
  0
LINE
  5
2DE
100
AcDbEntity
  8
RACCORDO
100
AcDbLine
 62
250
  6
CONTINUOUS
 10
205.2625227989
 20
164.6632869561
 11
205.3092503892
 21
164.6858364727
  0
LINE
  5
2DF
100
AcDbEntity
  8
RACCORDO
100
AcDbLine
 62
7
  6
CONTINUOUS
 10
205.6036761219
 20
168.4761378149
 11
211.8279627319
 21
171.4306506661
  0
LINE
  5
2E0
100
AcDbEntity
  8
RACCORDO
100
AcDbLine
 62
7
  6
CONTINUOUS
 10
208.6720179359
 20
166.8312061139
 11
215.0099432473
 21
169.8396604084
  0
LINE
  5
2E1
100
AcDbEntity
  8
RACCORDO
100
AcDbLine
 62
250
  6
CONTINUOUS
 10
205.3092503892
 20
164.6858364727
 11
205.3217717527
 21
164.691807193
  0
LINE
  5
2E2
100
AcDbEntity
  8
RACCORDO
100
AcDbLine
 62
250
  6
CONTINUOUS
 10
205.2514640262
 20
164.6580325947
 11
205.2625227989
 21
164.6632869561
  0
LINE
  5
2E3
100
AcDbEntity
  8
RACCORDO
100
AcDbLine
 62
250
  6
CONTINUOUS
 10
205.3217717527
 20
164.691807193
 11
205.3303499786
 21
164.6958493065
  0
LINE
  5
2E4
100
AcDbEntity
  8
RACCORDO
100
AcDbLine
 62
250
  6
CONTINUOUS
 10
205.2441791979
 20
164.6546216763
 11
205.2514640262
 21
164.6580325947
  0
LINE
  5
2E5
100
AcDbEntity
  8
RACCORDO
100
AcDbLine
 62
250
  6
CONTINUOUS
 10
205.3303499786
 20
164.6958493065
 11
205.3391290307
 21
164.699935309
  0
LINE
  5
2E6
100
AcDbEntity
  8
RACCORDO
100
AcDbLine
 62
250
  6
CONTINUOUS
 10
205.203104094
 20
164.6356440081
 11
205.2441791979
 21
164.6546216763
  0
LINE
  5
2E7
100
AcDbEntity
  8
RACCORDO
100
AcDbLine
 62
250
  6
CONTINUOUS
 10
205.3391290307
 20
164.699935309
 11
205.3481178936
 21
164.7040619431
  0
LWPOLYLINE
  5
2E8
100
AcDbEntity
  8
RACCORDO
100
AcDbPolyline
 62
250
  6
CONTINUOUS
 90
17
 70
0
 10
205.0247534176
 20
164.6708406855
 10
205.0278817383
 20
164.6722506208
 10
205.0402604403
 20
164.6771734551
 10
205.0530085405
 20
164.6812204949
 10
205.0661017816
 20
164.6843840394
 10
205.0795152494
 20
164.686658069
 10
205.0932234206
 20
164.6880382566
 10
205.1072002108
 20
164.6885219759
 10
205.1214190249
 20
164.6881083065
 10
205.1358528068
 20
164.6867980355
 10
205.1504740918
 20
164.6845936561
 10
205.165255058
 20
164.6814993628
 10
205.1801675801
 20
164.6775210435
 10
205.195183282
 20
164.6726662682
 10
205.2102735916
 20
164.6669442746
 10
205.2254097947
 20
164.6603659507
 10
205.2405630899
 20
164.6529438138
  0
LINE
  5
2E9
100
AcDbEntity
  8
RACCORDO
100
AcDbLine
 62
250
  6
CONTINUOUS
 10
205.3481178936
 20
164.7040619431
 11
205.357329701
 21
164.7082240852
  0
LWPOLYLINE
  5
2EA
100
AcDbEntity
  8
RACCORDO
100
AcDbPolyline
 62
250
  6
CONTINUOUS
 90
16
 70
0
 10
216.1973528838
 20
169.2459555902
 10
216.2139794827
 20
169.253433753
 10
216.2305555801
 20
169.2599294213
 10
216.2470444556
 20
169.2654282052
 10
216.2634095819
 20
169.2699179236
 10
216.2796147057
 20
169.2733886305
 10
216.2956239283
 20
169.2758326372
 10
216.311401785
 20
169.2772445298
 10
216.3269133236
 20
169.2776211804
 10
216.3421241819
 20
169.2769617547
 10
216.3570006636
 20
169.2752677135
 10
216.3715098133
 20
169.2725428095
 10
216.3856194894
 20
169.2687930792
 10
216.3992984352
 20
169.2640268292
 10
216.4125163479
 20
169.258254618
 10
216.4147893241
 20
169.257137255
  0
LWPOLYLINE
  5
2EB
100
AcDbEntity
  8
RACCORDO
100
AcDbPolyline
 62
250
  6
CONTINUOUS
 90
13
 70
0
 10
206.1950769331
 20
164.7629495434
 10
206.2032123831
 20
164.7665560995
 10
206.2113126677
 20
164.7695722781
 10
206.2193509235
 20
164.7719880766
 10
206.2273004927
 20
164.7737954832
 10
206.2351350115
 20
164.7749885039
 10
206.2428284978
 20
164.7755631823
 10
206.2503554372
 20
164.7755176125
 10
206.2576908675
 20
164.7748519456
 10
206.2648104618
 20
164.7735683893
 10
206.2716906089
 20
164.7716712003
 10
206.2783084917
 20
164.7691666703
 10
206.2820515094
 20
164.7674222093
  0
LINE
  5
2EC
100
AcDbEntity
  8
RACCORDO
100
AcDbLine
 62
250
  6
CONTINUOUS
 10
205.357329701
 20
164.7082240852
 11
205.3667774844
 21
164.7124163435
  0
LINE
  5
2ED
100
AcDbEntity
  8
RACCORDO
100
AcDbLine
 62
250
  6
CONTINUOUS
 10
205.3667774844
 20
164.7124163435
 11
205.3764697555
 21
164.7166349971
  0
LINE
  5
2EE
100
AcDbEntity
  8
RACCORDO
100
AcDbLine
 62
250
  6
CONTINUOUS
 10
205.3764697555
 20
164.7166349971
 11
205.3864191753
 21
164.7208743405
  0
LWPOLYLINE
  5
2EF
100
AcDbEntity
  8
RACCORDO
100
AcDbPolyline
 62
250
  6
CONTINUOUS
 90
124
 70
0
 10
205.3864191753
 20
164.7208743405
 10
205.396637266
 20
164.7251279585
 10
205.4018485271
 20
164.727259334
 10
205.4071316436
 20
164.7293915028
 10
205.4124865616
 20
164.7315244686
 10
205.417913335
 20
164.7336582279
 10
205.4234158538
 20
164.7357905328
 10
205.4289942329
 20
164.7379214571
 10
205.4346483575
 20
164.740050927
 10
205.4403817731
 20
164.7421764739
 10
205.4461947425
 20
164.744298218
 10
205.452087003
 20
164.7464160389
 10
205.4580613119
 20
164.7485271075
 10
205.4641177504
 20
164.7506314708
 10
205.4702562373
 20
164.7527290818
 10
205.4764792867
 20
164.7548169697
 10
205.4827869887
 20
164.7568951852
 10
205.4891792533
 20
164.7589636778
 10
205.4956583243
 20
164.7610193253
 10
205.5022243643
 20
164.7630621993
 10
205.5088772108
 20
164.7650922283
 10
205.5156186197
 20
164.767106076
 10
205.5224487868
 20
164.7691038173
 10
205.5293675163
 20
164.7710853772
 10
205.5363759767
 20
164.7730471941
 10
205.5434744219
 20
164.7749893499
 10
205.550662598
 20
164.7769117626
 10
205.5579409111
 20
164.7788106253
 10
205.5653097696
 20
164.7806860418
 10
205.5727687651
 20
164.7825379081
 10
205.5803170783
 20
164.7843621049
 10
205.5879550909
 20
164.7861587053
 10
205.5956824212
 20
164.7879276361
 10
205.6034971049
 20
164.7896645584
 10
205.61139911
 20
164.7913694492
 10
205.6193884684
 20
164.7930423314
 10
205.6274633116
 20
164.7946789351
 10
205.6356243433
 20
164.7962793754
 10
205.6438708597
 20
164.7978435372
 10
205.6521988811
 20
164.7993668053
 10
205.6606173678
 20
164.800850395
 10
205.6691173594
 20
164.802293091
 10
205.6776679954
 20
164.8036866328
 10
205.6862773269
 20
164.805031242
 10
205.6949373027
 20
164.8063266969
 10
205.703592908
 20
164.8075640714
 10
205.7122340908
 20
164.8087409992
 10
205.7208709032
 20
164.8098598467
 10
205.7294784856
 20
164.810918787
 10
205.7380510875
 20
164.8119168155
 10
205.7465944596
 20
164.8128549369
 10
205.7551009941
 20
164.8137343389
 10
205.7635691594
 20
164.8145548413
 10
205.7720004872
 20
164.8153166243
 10
205.7803919646
 20
164.8160214155
 10
205.7887442117
 20
164.8166692709
 10
205.7970566085
 20
164.8172601346
 10
205.805324282
 20
164.8177955664
 10
205.8135476457
 20
164.8182755539
 10
205.8217262862
 20
164.8187001095
 10
205.8298540905
 20
164.8190708294
 10
205.8379312242
 20
164.8193876561
 10
205.8459575218
 20
164.8196506472
 10
205.8539263733
 20
164.8198615715
 10
205.8618379903
 20
164.8200203485
 10
205.8696921612
 20
164.8201270589
 10
205.8774816418
 20
164.820183713
 10
205.8852058616
 20
164.8201902286
 10
205.892865391
 20
164.820146688
 10
205.9004546967
 20
164.8200553489
 10
205.9079732694
 20
164.8199161709
 10
205.9154216184
 20
164.8197291943
 10
205.9227957379
 20
164.8194967983
 10
205.9300952596
 20
164.819218971
 10
205.9373205519
 20
164.8188957241
 10
205.9444687135
 20
164.8185294723
 10
205.951539533
 20
164.8181202143
 10
205.9585332219
 20
164.8176679514
 10
205.9654475136
 20
164.8171751013
 10
205.9722821825
 20
164.8166416747
 10
205.9790374542
 20
164.816067661
 10
205.9857117397
 20
164.8154554461
 10
205.9923048537
 20
164.8148050472
 10
205.9988169816
 20
164.814116447
 10
206.0052470904
 20
164.8133919797
 10
206.0115949939
 20
164.8126316712
 10
206.0178608783
 20
164.8118354956
 10
206.02404427
 20
164.8110057084
 10
206.0301449749
 20
164.8101423471
 10
206.0361631872
 20
164.8092453742
 10
206.0420990146
 20
164.8083169331
 10
206.0479522883
 20
164.8073570685
 10
206.0537231772
 20
164.8063657357
 10
206.0594122965
 20
164.8053449439
 10
206.0650193959
 20
164.8042947683
 10
206.0705447256
 20
164.8032151337
 10
206.0759896525
 20
164.8021078237
 10
206.0813539286
 20
164.8009729378
 10
206.0866378019
 20
164.7998103766
 10
206.091843382
 20
164.7986216258
 10
206.096970625
 20
164.7974067558
 10
206.1020195749
 20
164.7961656964
 10
206.1069924734
 20
164.7948997224
 10
206.111889277
 20
164.7936089098
 10
206.1167100293
 20
164.7922931827
 10
206.1214571016
 20
164.7909535884
 10
206.1261304228
 20
164.7895902212
 10
206.1307300641
 20
164.7882029868
 10
206.1352586107
 20
164.7867926494
 10
206.1397160829
 20
164.7853592848
 10
206.1441024605
 20
164.7839028172
 10
206.1484202672
 20
164.7824237834
 10
206.152669588
 20
164.7809222391
 10
206.1568503379
 20
164.7793981287
 10
206.1609647856
 20
164.7778518224
 10
206.1650131121
 20
164.7762833263
 10
206.1689951364
 20
164.7746926344
 10
206.1729125836
 20
164.7730800989
 10
206.1767655721
 20
164.7714457387
 10
206.1805539836
 20
164.7697895349
 10
206.1842791884
 20
164.7681117839
 10
206.1879416433
 20
164.7664125843
 10
206.1915408915
 20
164.7646918375
 10
206.1950769331
 20
164.7629495434
  0
LWPOLYLINE
  5
2F0
100
AcDbEntity
  8
0
100
AcDbPolyline
 62
7
  6
CONTINUOUS
 90
7
 70
0
 10
204.1757015883
 20
166.8447125211
 10
204.1705344687
 20
166.8426796017
 10
204.1653577342
 20
166.8405487172
 10
204.160171385
 20
166.8383198675
 10
204.1549754211
 20
166.8359930527
 10
204.1497698423
 20
166.8335682726
 10
204.1445546488
 20
166.8310455275
  0
LWPOLYLINE
  5
2F1
100
AcDbEntity
  8
0
100
AcDbPolyline
 62
7
  6
CONTINUOUS
 90
4
 70
0
 10
209.1254490567
 20
164.3698387869
 10
209.1363548593
 20
164.3736761495
 10
209.1476353847
 20
164.3769221106
 10
209.1592804061
 20
164.3795695491
  0
LWPOLYLINE
  5
2F2
100
AcDbEntity
  8
0
100
AcDbPolyline
 62
7
  6
CONTINUOUS
 90
8
 70
0
 10
209.8333141394
 20
164.0728957173
 10
209.8251351976
 20
164.070400077
 10
209.8165529979
 20
164.0676446242
 10
209.8075883747
 20
164.0646337425
 10
209.7982395557
 20
164.061378049
 10
209.7885141713
 20
164.057885036
 10
209.7784317458
 20
164.0541581544
 10
209.7680064878
 20
164.0502023615
  0
LINE
  5
2F3
100
AcDbEntity
  8
0
100
AcDbLine
 62
250
  6
CONTINUOUS
 10
209.0194716462
 20
118.222978625
 11
208.4912044744
 21
118.3314809021
  0
LINE
  5
2F4
100
AcDbEntity
  8
0
100
AcDbLine
 62
250
  6
CONTINUOUS
 10
208.9300578508
 20
118.542545431
 11
208.4912044744
 21
118.6326827577
  0
LWPOLYLINE
  5
2F5
100
AcDbEntity
  8
0
100
AcDbPolyline
 62
7
  6
CONTINUOUS
 90
39
 70
0
 10
207.6011442917
 20
118.0158718612
 10
207.5945036899
 20
118.0172828114
 10
207.5876160826
 20
118.0188288872
 10
207.5804835002
 20
118.0205040636
 10
207.5731040014
 20
118.0222961628
 10
207.5654848984
 20
118.0242043299
 10
207.5576426493
 20
118.026239082
 10
207.5495807996
 20
118.0283928082
 10
207.5413036237
 20
118.0306582535
 10
207.532829132
 20
118.0330460731
 10
207.524162185
 20
118.0355477797
 10
207.5153082981
 20
118.038155187
 10
207.5062869213
 20
118.0408790045
 10
207.4971042612
 20
118.0437098926
 10
207.4877671312
 20
118.0466387483
 10
207.4782963566
 20
118.0496762286
 10
207.4686995197
 20
118.0528121746
 10
207.4589847968
 20
118.0560365769
 10
207.4491743987
 20
118.0593598863
 10
207.4392773303
 20
118.062771169
 10
207.4293031879
 20
118.0662595206
 10
207.4192756145
 20
118.0698349772
 10
207.4092050945
 20
118.0734858965
 10
207.3991026914
 20
118.0772004974
 10
207.3889935284
 20
118.080988128
 10
207.3788896355
 20
118.0848365338
 10
207.3688035609
 20
118.088733099
 10
207.3587618852
 20
118.0926861483
 10
207.3487782591
 20
118.0966829454
 10
207.3388666712
 20
118.1007101308
 10
207.3290549435
 20
118.1047746468
 10
207.3193583888
 20
118.108863448
 10
207.3097923332
 20
118.1129625856
 10
207.3003853781
 20
118.117077269
 10
207.2911648457
 20
118.1211880062
 10
207.2821366252
 20
118.1252874124
 10
207.2732990046
 20
118.1293959899
 10
207.2646650242
 20
118.1335082321
 10
207.2562611602
 20
118.1375957289
  0
LWPOLYLINE
  5
2F6
100
AcDbEntity
  8
0
100
AcDbPolyline
 62
250
  6
CONTINUOUS
 90
34
 70
0
 10
206.5374017239
 20
116.8249141738
 10
206.5459819268
 20
116.8208228751
 10
206.5549404501
 20
116.8169395758
 10
206.5642571459
 20
116.813273011
 10
206.5739110668
 20
116.8098314266
 10
206.5838804945
 20
116.8066225669
 10
206.5941429872
 20
116.8036536557
 10
206.6046754561
 20
116.8009313718
 10
206.6154542165
 20
116.7984618364
 10
206.626455021
 20
116.7962506041
 10
206.6376531276
 20
116.7943026478
 10
206.6490233473
 20
116.7926223485
 10
206.6605400969
 20
116.7912134859
 10
206.6721774702
 20
116.7900792279
 10
206.683909294
 20
116.7892221241
 10
206.6957091772
 20
116.7886441011
 10
206.7075505854
 20
116.7883464573
 10
206.719406879
 20
116.7883298612
 10
206.7312513695
 20
116.7885943477
 10
206.7430573842
 20
116.789139317
 10
206.7547984037
 20
116.7899635405
 10
206.7664480978
 20
116.7910651696
 10
206.7779803716
 20
116.7924417432
 10
206.7893691762
 20
116.7940901583
 10
206.800588655
 20
116.7960066656
 10
206.8116134374
 20
116.7981869087
 10
206.822418893
 20
116.8006259935
 10
206.8329809309
 20
116.8033184735
 10
206.8432773248
 20
116.806258754
 10
206.8532833055
 20
116.8094398349
 10
206.8629722463
 20
116.8128530353
 10
206.8723214665
 20
116.8164898459
 10
206.8813118432
 20
116.8203422899
 10
206.8899236836
 20
116.8244014499
  0
LWPOLYLINE
  5
2F7
100
AcDbEntity
  8
0
100
AcDbPolyline
 62
250
  6
CONTINUOUS
 90
34
 70
0
 10
206.5374017239
 20
117.1648881079
 10
206.5459783766
 20
117.1607984235
 10
206.5549336845
 20
117.156916305
 10
206.5642475969
 20
117.1532505233
 10
206.5738994809
 20
117.1498092875
 10
206.5838674888
 20
117.1466004726
 10
206.5941285337
 20
117.1436315458
 10
206.6046592821
 20
117.1409092466
 10
206.6154363
 20
117.1384396214
 10
206.626435378
 20
117.136228219
 10
206.6376318034
 20
117.1342800107
 10
206.6490003821
 20
117.1325993829
 10
206.660515518
 20
117.1311901203
 10
206.6721513037
 20
117.1300553925
 10
206.683881587
 20
117.1291977487
 10
206.6956799971
 20
117.1286191169
 10
206.7075200049
 20
117.1283207979
 10
206.7193749845
 20
117.1283034628
 10
206.73121828
 20
117.1285671504
 10
206.7430232603
 20
117.1291112681
 10
206.7547633793
 20
117.1299345922
 10
206.7664122374
 20
117.1310352716
 10
206.7779436386
 20
117.132410831
 10
206.7893316541
 20
117.1340581775
 10
206.8005506808
 20
117.1359736078
 10
206.8115755006
 20
117.1381528171
 10
206.8223813114
 20
117.140590904
 10
206.8329437893
 20
117.1432823797
 10
206.84323917
 20
117.1462211864
 10
206.8532443192
 20
117.149400718
 10
206.8629367577
 20
117.1528138298
 10
206.8722946962
 20
117.1564528493
 10
206.8812970859
 20
117.1603095915
 10
206.8899236836
 20
117.1643753841
  0
LWPOLYLINE
  5
2F8
100
AcDbEntity
  8
RACCORDO
100
AcDbPolyline
 62
7
  6
CONTINUOUS
 90
12
 70
0
 10
202.7385690503
 20
116.7775774306
 10
202.7621193298
 20
116.7663259297
 10
202.8193264844
 20
116.7432896779
 10
202.8793483404
 20
116.7251063029
 10
202.9418286678
 20
116.7121296373
 10
203.006281422
 20
116.7046836687
 10
203.0721383433
 20
116.7029997787
 10
203.1390056814
 20
116.7072343134
 10
203.2063631985
 20
116.7174819486
 10
203.2735764041
 20
116.7337185645
 10
203.3402516708
 20
116.7558900039
 10
203.3849727213
 20
116.7742555772
  0
LINE
  5
2F9
100
AcDbEntity
  8
RACCORDO
100
AcDbLine
 62
7
  6
CONTINUOUS
 10
202.7390345132
 20
116.7773435987
 11
172.2791972321
 21
132.0072622393
  0
LINE
  5
2FA
100
AcDbEntity
  8
RACCORDO
100
AcDbLine
 62
250
  6
CONTINUOUS
 10
202.4836689035
 20
117.1952746177
 11
172.0304327922
 21
132.4218926733
  0
LINE
  5
2FB
100
AcDbEntity
  8
0
100
AcDbLine
 62
7
  6
CONTINUOUS
 10
205.0008482389
 20
117.4904591144
 11
206.6023750204
 21
116.6896957237
  0
LINE
  5
2FC
100
AcDbEntity
  8
0
100
AcDbLine
 62
250
  6
CONTINUOUS
 10
205.109763187
 20
117.5387334423
 11
206.5374017239
 21
116.8249141738
  0
LINE
  5
2FD
100
AcDbEntity
  8
0
100
AcDbLine
 62
250
  6
CONTINUOUS
 10
206.5374017239
 20
117.1648881079
 11
205.4701992224
 21
117.6984893587
  0
LINE
  5
2FE
100
AcDbEntity
  8
0
100
AcDbLine
 62
250
  6
CONTINUOUS
 10
206.6257900716
 20
117.3965822817
 11
205.7626925351
 21
117.82813105
  0
LWPOLYLINE
  5
2FF
100
AcDbEntity
  8
RACCORDO
100
AcDbPolyline
 62
250
  6
CONTINUOUS
 90
15
 70
0
 10
172.2791966926
 20
132.007262509
 10
172.2484412775
 20
132.0245409697
 10
172.2197106282
 20
132.0444899133
 10
172.1927205742
 20
132.0671959762
 10
172.1675421724
 20
132.0925579477
 10
172.1444710178
 20
132.1201647789
 10
172.1235106492
 20
132.1498157813
 10
172.1046439198
 20
132.1813270549
 10
172.088010311
 20
132.2141668525
 10
172.07352651
 20
132.2480850206
 10
172.0610959992
 20
132.2828584421
 10
172.0507212379
 20
132.3179004269
 10
172.0422764578
 20
132.3528389355
 10
172.0355657316
 20
132.3875701851
 10
172.0304327922
 20
132.4218926733
  0
LINE
  5
300
100
AcDbEntity
  8
0
100
AcDbLine
 62
7
  6
CONTINUOUS
 10
181.202436375
 20
171.9670875143
 11
181.202436375
 21
170.5201689757
  0
LINE
  5
301
100
AcDbEntity
  8
0
100
AcDbLine
 62
7
  6
CONTINUOUS
 10
181.8686341627
 20
170.1870700818
 11
181.8686341627
 21
171.6339886204
  0
LINE
  5
302
100
AcDbEntity
  8
0
100
AcDbLine
 62
7
  6
CONTINUOUS
 10
182.5757409439
 20
171.8197760038
 11
182.5757409439
 21
170.5860099407
  0
LINE
  5
303
100
AcDbEntity
  8
0
100
AcDbLine
 62
250
  6
CONTINUOUS
 10
184.2020865407
 20
169.7728371423
 11
184.2020865407
 21
171.0066032055
  0
LINE
  5
304
100
AcDbEntity
  8
0
100
AcDbLine
 62
250
  6
CONTINUOUS
 10
184.4849292531
 20
169.7819144359
 11
184.4849292531
 21
171.0066032055
  0
LWPOLYLINE
  5
305
100
AcDbEntity
  8
0
100
AcDbPolyline
 62
250
  6
CONTINUOUS
 90
34
 70
0
 10
184.2020865407
 20
171.0066032055
 10
184.2022451101
 20
171.0148823439
 10
184.2027207486
 20
171.0233053127
 10
184.2035128168
 20
171.031853383
 10
184.2046201513
 20
171.0405088093
 10
184.2060405898
 20
171.0492509716
 10
184.207770506
 20
171.0580563091
 10
184.2098056641
 20
171.0669036159
 10
184.2121417292
 20
171.0757743494
 10
184.2147734916
 20
171.0846486988
 10
184.217695081
 20
171.0935067996
 10
184.2208999054
 20
171.1023286034
 10
184.2243806945
 20
171.1110940795
 10
184.2281295773
 20
171.1197834232
 10
184.2321381431
 20
171.1283771539
 10
184.236397396
 20
171.1368559845
 10
184.2408977652
 20
171.1452008532
 10
184.2456291122
 20
171.1533929509
 10
184.2505807788
 20
171.161413819
 10
184.2557416171
 20
171.1692453975
 10
184.2611000151
 20
171.1768700631
 10
184.266643912
 20
171.1842706518
 10
184.2723608316
 20
171.1914305064
 10
184.2782379051
 20
171.1983335077
 10
184.2842618992
 20
171.2049641108
 10
184.2904192536
 20
171.211307389
 10
184.2966961101
 20
171.2173490649
 10
184.3030783386
 20
171.2230755372
 10
184.3095515777
 20
171.2284739188
 10
184.3161012527
 20
171.2335320544
 10
184.3227126068
 20
171.2382385484
 10
184.3293707537
 20
171.2425828058
 10
184.3360607108
 20
171.2465550532
 10
184.3427674198
 20
171.2501463515
  0
LWPOLYLINE
  5
306
100
AcDbEntity
  8
0
100
AcDbPolyline
 62
7
  6
CONTINUOUS
 90
34
 70
0
 10
182.5757409439
 20
171.8197760038
 10
182.5759023314
 20
171.8280968611
 10
182.5763787667
 20
171.8365227313
 10
182.5771702501
 20
171.8450536143
 10
182.5782805918
 20
171.8537120546
 10
182.5797059815
 20
171.8624755078
 10
182.5814349879
 20
171.8712763407
 10
182.5834677773
 20
171.8801074443
 10
182.5858041834
 20
171.8889759277
 10
182.5884322759
 20
171.8978354848
 10
182.5913573469
 20
171.9066959902
 10
182.5945741043
 20
171.9155475692
 10
182.598054741
 20
171.9243142924
 10
182.6017961227
 20
171.9329840802
 10
182.6058013838
 20
171.941569012
 10
182.6100521194
 20
171.9500293977
 10
182.6145562899
 20
171.9583764083
 10
182.6193059351
 20
171.9665988728
 10
182.6242587689
 20
171.9746235867
 10
182.6294089617
 20
171.9824378483
 10
182.6347623432
 20
171.9900543594
 10
182.6402941167
 20
171.9974380212
 10
182.6460128492
 20
172.0045970109
 10
182.6519099736
 20
172.0115231514
 10
182.6579349923
 20
172.0181568129
 10
182.664082031
 20
172.024488539
 10
182.6703569641
 20
172.030527786
 10
182.6767269161
 20
172.0362432939
 10
182.6831977604
 20
172.041637833
 10
182.6897636236
 20
172.0467086329
 10
182.696374011
 20
172.0514161217
 10
182.7030120909
 20
172.0557471088
 10
182.7096946949
 20
172.0597147849
 10
182.7164218231
 20
172.0633191499
  0
LWPOLYLINE
  5
307
100
AcDbEntity
  8
0
100
AcDbPolyline
 62
250
  6
CONTINUOUS
 90
30
 70
0
 10
190.9810507156
 20
166.4185188504
 10
190.976631636
 20
166.4076240714
 10
190.9718255063
 20
166.3969544939
 10
190.9666431778
 20
166.3865342074
 10
190.9610963511
 20
166.3763867385
 10
190.9551975495
 20
166.3665349981
 10
190.9489600913
 20
166.3570012292
 10
190.9423980593
 20
166.3478069568
 10
190.9355262691
 20
166.3389729397
 10
190.9283602357
 20
166.3305191231
 10
190.9209161384
 20
166.3224645937
 10
190.9132107844
 20
166.3148275371
 10
190.9052615705
 20
166.3076251959
 10
190.8970864444
 20
166.3008738315
 10
190.8887038636
 20
166.2945886869
 10
190.8801327543
 20
166.2887839525
 10
190.871392468
 20
166.2834727343
 10
190.8625027384
 20
166.2786670237
 10
190.8534836365
 20
166.274377671
 10
190.8443555255
 20
166.2706143605
 10
190.8351390146
 20
166.2673855891
 10
190.8258549127
 20
166.2646986465
 10
190.8165241811
 20
166.2625595992
 10
190.8071678867
 20
166.2609732769
 10
190.7978071538
 20
166.259943261
 10
190.7884631169
 20
166.259471877
 10
190.7791568728
 20
166.2595601893
 10
190.7699094329
 20
166.2602079985
 10
190.7607416759
 20
166.261413842
 10
190.754143334
 20
166.2626383032
  0
LWPOLYLINE
  5
308
100
AcDbEntity
  8
0
100
AcDbPolyline
 62
250
  6
CONTINUOUS
 90
20
 70
0
 10
192.5877496825
 20
165.9370177071
 10
192.5927572023
 20
165.9477548808
 10
192.5980777804
 20
165.9583485902
 10
192.603699453
 20
165.9687750145
 10
192.6096095795
 20
165.9790107091
 10
192.6157948704
 20
165.9890326583
 10
192.6222414177
 20
165.9988183269
 10
192.6289347258
 20
166.0083457111
 10
192.6358597443
 20
166.0175933879
 10
192.6430009017
 20
166.0265405632
 10
192.6503421407
 20
166.0351671186
 10
192.6578669539
 20
166.0434536566
 10
192.6655584212
 20
166.0513815443
 10
192.6733992477
 20
166.0589329553
 10
192.6813718028
 20
166.0660909096
 10
192.6894581596
 20
166.0728393121
 10
192.6976401352
 20
166.0791629884
 10
192.7058993319
 20
166.0850477192
 10
192.7142171782
 20
166.0904802724
 10
192.7225749709
 20
166.0954484324
  0
LINE
  5
309
100
AcDbEntity
  8
0
100
AcDbLine
 62
250
  6
CONTINUOUS
 10
196.1875464818
 20
165.0314596049
 11
196.7158136535
 21
165.6744117607
  0
LINE
  5
30A
100
AcDbEntity
  8
0
100
AcDbLine
 62
7
  6
CONTINUOUS
 10
196.1875464818
 20
164.9419291386
 11
196.7311742259
 21
165.6035765941
  0
LWPOLYLINE
  5
30B
100
AcDbEntity
  8
0
100
AcDbPolyline
 62
7
  6
CONTINUOUS
 90
36
 70
0
 10
195.297486299
 20
164.4673049969
 10
195.2908456972
 20
164.4595663148
 10
195.2839580899
 20
164.4519240764
 10
195.2768255075
 20
164.4443912659
 10
195.2694460087
 20
164.436982339
 10
195.2618269057
 20
164.4297090435
 10
195.2539846567
 20
164.4225804875
 10
195.245922807
 20
164.4156101383
 10
195.237645631
 20
164.4088111593
 10
195.2291711394
 20
164.4021924296
 10
195.2205041923
 20
164.3957675123
 10
195.2116503055
 20
164.389549625
 10
195.2026289286
 20
164.3835473627
 10
195.1934462685
 20
164.3777742359
 10
195.1841091386
 20
164.3722433867
 10
195.1746383639
 20
164.3669631062
 10
195.165041527
 20
164.361946691
 10
195.1553268042
 20
164.3572070658
 10
195.1455164061
 20
164.3527522193
 10
195.1356193376
 20
164.3485950563
 10
195.1256451952
 20
164.3447481056
 10
195.1156176218
 20
164.3412190275
 10
195.1055471018
 20
164.3380201221
 10
195.0954446988
 20
164.3351632976
 10
195.0853355358
 20
164.3326557975
 10
195.0752316429
 20
164.3305090541
 10
195.0651455683
 20
164.3287340697
 10
195.0551038925
 20
164.3273374808
 10
195.0451202665
 20
164.3263295298
 10
195.0352086785
 20
164.3257199555
 10
195.0253969509
 20
164.3255144813
 10
195.0157003962
 20
164.3257217696
 10
195.0061343406
 20
164.3263498871
 10
194.9967273854
 20
164.3274032622
 10
194.987506853
 20
164.3288866237
 10
194.9836170336
 20
164.329654898
  0
LWPOLYLINE
  5
30C
100
AcDbEntity
  8
0
100
AcDbPolyline
 62
250
  6
CONTINUOUS
 90
5
 70
0
 10
201.9164426742
 20
162.4247883571
 10
201.9229891824
 20
162.4298482747
 10
201.9295974835
 20
162.4345569305
 10
201.9362527088
 20
162.4389037323
 10
201.9429398936
 20
162.4428789086
  0
LINE
  5
30D
100
AcDbEntity
  8
RACCORDO
100
AcDbLine
 62
7
  6
CONTINUOUS
 10
199.5029990133
 20
160.1333739373
 11
199.2280308431
 21
159.9598627687
  0
LINE
  5
30E
100
AcDbEntity
  8
0
100
AcDbLine
 62
7
  6
CONTINUOUS
 10
200.3948318298
 20
161.8269631476
 11
200.6069638642
 21
161.9466451052
  0
LWPOLYLINE
  5
30F
100
AcDbEntity
  8
RACCORDO
100
AcDbPolyline
 62
250
  6
CONTINUOUS
 90
18
 70
0
 10
216.9043519692
 20
168.0265625435
 10
216.9202966844
 20
168.0352167875
 10
216.9354093115
 20
168.044236574
 10
216.9496563718
 20
168.0536019218
 10
216.9630063044
 20
168.0632920841
 10
216.9754295354
 20
168.0732855946
 10
216.9868985442
 20
168.0835603148
 10
216.9973879237
 20
168.0940934835
 10
217.0068744372
 20
168.104861767
 10
217.0153370694
 20
168.1158413104
 10
217.0227570734
 20
168.1270077911
 10
217.0291180119
 20
168.1383364724
 10
217.0344057937
 20
168.1498022581
 10
217.038608705
 20
168.1613797484
 10
217.0417174353
 20
168.1730432961
 10
217.0437250978
 20
168.1847670632
 10
217.0446272451
 20
168.1965250783
 10
217.0446820685
 20
168.2002151153
  0
LINE
  5
310
100
AcDbEntity
  8
0
100
AcDbLine
 62
250
  6
CONTINUOUS
 10
201.9429398936
 20
162.4428789086
 11
201.949643997
 21
162.4464735201
  0
LINE
  5
311
100
AcDbEntity
  8
0
100
AcDbLine
 62
7
  6
CONTINUOUS
 10
202.0727762147
 20
162.5599567096
 11
201.8600086905
 21
162.4520569029
  0
LINE
  5
312
100
AcDbEntity
  8
0
100
AcDbLine
 62
250
  6
CONTINUOUS
 10
202.1625987828
 20
162.554468292
 11
201.949643997
 21
162.4464735201
  0
LINE
  5
313
100
AcDbEntity
  8
0
100
AcDbLine
 62
7
  6
CONTINUOUS
 10
203.5759895937
 20
161.6333007218
 11
202.7282842077
 21
161.2034078251
  0
LINE
  5
314
100
AcDbEntity
  8
0
100
AcDbLine
 62
7
  6
CONTINUOUS
 10
203.3938649095
 20
160.8706174742
 11
204.4606958216
 21
161.4054197725
  0
LINE
  5
315
100
AcDbEntity
  8
0
100
AcDbLine
 62
7
  6
CONTINUOUS
 10
202.0735410154
 20
162.5603390946
 11
202.0727762302
 21
162.5599567175
  0
LINE
  5
316
100
AcDbEntity
  8
0
100
AcDbLine
 62
7
  6
CONTINUOUS
 10
204.4606958216
 20
161.4054197725
 11
209.7351878908
 21
164.0357289064
  0
LINE
  5
317
100
AcDbEntity
  8
RACCORDO
100
AcDbLine
 62
250
  6
CONTINUOUS
 10
210.1407791551
 20
166.2418503711
 11
216.1973528838
 21
169.2459555902
  0
LINE
  5
318
100
AcDbEntity
  8
RACCORDO
100
AcDbLine
 62
250
  6
CONTINUOUS
 10
210.9339455136
 20
165.0651969271
 11
216.9043519692
 21
168.0265625435
  0
LINE
  5
319
100
AcDbEntity
  8
0
100
AcDbLine
 62
7
  6
CONTINUOUS
 10
200.6069638642
 20
161.9466451052
 11
201.3140706454
 21
162.295663956
  0
LINE
  5
31A
100
AcDbEntity
  8
0
100
AcDbLine
 62
7
  6
CONTINUOUS
 10
202.7806477798
 20
162.9088540883
 11
202.0735409986
 21
162.5603390861
  0
LINE
  5
31B
100
AcDbEntity
  8
0
100
AcDbLine
 62
250
  6
CONTINUOUS
 10
202.869705564
 20
162.9029832942
 11
202.1625987828
 21
162.554468292
  0
LINE
  5
31C
100
AcDbEntity
  8
0
100
AcDbLine
 62
7
  6
CONTINUOUS
 10
209.0943021171
 20
164.3561717933
 11
204.4960511607
 21
162.0898104958
  0
LINE
  5
31D
100
AcDbEntity
  8
0
100
AcDbLine
 62
7
  6
CONTINUOUS
 10
210.1288817428
 20
163.8314834071
 11
212.2783395111
 21
164.8908966368
  0
LWPOLYLINE
  5
31E
100
AcDbEntity
  8
0
100
AcDbPolyline
 62
7
  6
CONTINUOUS
 90
22
 70
0
 10
212.2783395111
 20
164.8908966368
 10
212.3014278406
 20
164.9018119619
 10
212.3244385011
 20
164.9117735252
 10
212.3473714926
 20
164.9207813264
 10
212.3702510517
 20
164.9288429156
 10
212.3930529418
 20
164.9359507428
 10
212.4157044529
 20
164.9420821585
 10
212.4382050418
 20
164.9472340291
 10
212.4605552517
 20
164.9514094881
 10
212.4826840021
 20
164.9545952865
 10
212.5045905321
 20
164.9567882895
 10
212.5262756025
 20
164.9579916318
 10
212.547670416
 20
164.9582014681
 10
212.5687742331
 20
164.9574146205
 10
212.5895877931
 20
164.9556342668
 10
212.6100445172
 20
164.9528660959
 10
212.6301430482
 20
164.9491069985
 10
212.6498847433
 20
164.9443600837
 10
212.6692070946
 20
164.9386403685
 10
212.6881089658
 20
164.9319446952
 10
212.7065914933
 20
164.9242762214
 10
212.7214393
 20
164.9172561028
  0
LWPOLYLINE
  5
31F
100
AcDbEntity
  8
RACCORDO
100
AcDbPolyline
 62
250
  6
CONTINUOUS
 90
16
 70
0
 10
217.1164516949
 20
165.5640706995
 10
217.1330782767
 20
165.5715488552
 10
217.1496543578
 20
165.5780445186
 10
217.1661432178
 20
165.5835432997
 10
217.1825083294
 20
165.5880330174
 10
217.1987134394
 20
165.5915037256
 10
217.2147226496
 20
165.5939477357
 10
217.2305004952
 20
165.5953596334
 10
217.2460120241
 20
165.5957362908
 10
217.2612228742
 20
165.5950768733
 10
217.2760993493
 20
165.5933828417
 10
217.2906084941
 20
165.5906579483
 10
217.304718167
 20
165.5869082294
 10
217.3183971111
 20
165.5821419914
 10
217.331615024
 20
165.5763697926
 10
217.3338853436
 20
165.5752537601
  0
LWPOLYLINE
  5
320
100
AcDbEntity
  8
0
100
AcDbPolyline
 62
7
  6
CONTINUOUS
 90
7
 70
0
 10
209.1254490567
 20
164.3698387869
 10
209.120281937
 20
164.3678058676
 10
209.1151052026
 20
164.3656749831
 10
209.1099188533
 20
164.3634461334
 10
209.1047228894
 20
164.3611193185
 10
209.0995173106
 20
164.3586945385
 10
209.0943021171
 20
164.3561717933
  0
LWPOLYLINE
  5
321
100
AcDbEntity
  8
0
100
AcDbPolyline
 62
250
  6
CONTINUOUS
 90
14
 70
0
 10
207.0496873355
 20
161.0317675753
 10
207.0566418745
 20
161.0340530288
 10
207.0638096799
 20
161.0358160619
 10
207.0711745151
 20
161.037052681
 10
207.0787196971
 20
161.0377600849
 10
207.0864281345
 20
161.0379366712
 10
207.0942823657
 20
161.0375820398
 10
207.1022645993
 20
161.0366969941
 10
207.1103567537
 20
161.0352835389
 10
207.1185404983
 20
161.033344876
 10
207.1267972952
 20
161.0308853969
 10
207.1351084408
 20
161.0279106728
 10
207.1434551085
 20
161.0244274423
 10
207.1518183913
 20
161.0204435955
  0
LWPOLYLINE
  5
322
100
AcDbEntity
  8
0
100
AcDbPolyline
 62
250
  6
CONTINUOUS
 90
5
 70
0
 10
208.9533203209
 20
118.5345341721
 10
208.9492672697
 20
118.5364322145
 10
208.9430505048
 20
118.5389053359
 10
208.9366432423
 20
118.5409442146
 10
208.9300578508
 20
118.542545431
  0
LINE
  5
323
100
AcDbEntity
  8
0
100
AcDbLine
 62
7
  6
CONTINUOUS
 10
207.2562611602
 20
118.1375957289
 11
206.4052394699
 21
118.5630760161
  0
LINE
  5
324
100
AcDbEntity
  8
0
100
AcDbLine
 62
7
  6
CONTINUOUS
 10
207.248622332
 20
118.8352973123
 11
207.765235796
 21
118.5769905803
  0
LINE
  5
325
100
AcDbEntity
  8
0
100
AcDbLine
 62
250
  6
CONTINUOUS
 10
208.4912044744
 20
118.7619721192
 11
208.9300578508
 21
118.542545431
  0
LINE
  5
326
100
AcDbEntity
  8
0
100
AcDbLine
 62
7
  6
CONTINUOUS
 10
208.4912044744
 20
118.7655922687
 11
208.953472902
 21
118.5344580549
  0
LINE
  5
327
100
AcDbEntity
  8
0
100
AcDbLine
 62
250
  6
CONTINUOUS
 10
208.9383904432
 20
118.5380785327
 11
208.9300578508
 21
118.542545431
  0
LWPOLYLINE
  5
328
100
AcDbEntity
  8
0
100
AcDbPolyline
 62
250
  6
CONTINUOUS
 90
4
 70
0
 10
176.5729865908
 20
173.4842838739
 10
176.5718326831
 20
173.4901858243
 10
176.5712399012
 20
173.496108501
 10
176.5711535821
 20
173.4993930135
  0
LINE
  5
329
100
AcDbEntity
  8
0
100
AcDbLine
 62
7
  6
CONTINUOUS
 10
185.4041680687
 20
170.2506152443
 11
185.4041680687
 21
171.4625440298
  0
LINE
  5
32A
100
AcDbEntity
  8
0
100
AcDbLine
 62
7
  6
CONTINUOUS
 10
185.8405641717
 20
170.2287857461
 11
185.8405641717
 21
168.9976783607
  0
LINE
  5
32B
100
AcDbEntity
  8
0
100
AcDbLine
 62
250
  6
CONTINUOUS
 10
185.8991428155
 20
170.158075068
 11
185.8991428155
 21
168.9243090049
  0
LINE
  5
32C
100
AcDbEntity
  8
0
100
AcDbLine
 62
7
  6
CONTINUOUS
 10
186.818381631
 20
169.1591148863
 11
186.818381631
 21
167.7121963477
  0
LINE
  5
32D
100
AcDbEntity
  8
0
100
AcDbLine
 62
7
  6
CONTINUOUS
 10
187.4845794187
 20
167.3790974538
 11
187.4845794187
 21
168.8260159924
  0
LINE
  5
32E
100
AcDbEntity
  8
0
100
AcDbLine
 62
250
  6
CONTINUOUS
 10
188.2657990117
 20
173.4157077065
 11
188.2657990117
 21
174.7996638094
  0
LWPOLYLINE
  5
32F
100
AcDbEntity
  8
0
100
AcDbPolyline
 62
250
  6
CONTINUOUS
 90
10
 70
0
 10
185.8991428155
 20
170.158075068
 10
185.8993013849
 20
170.1663542065
 10
185.8997770235
 20
170.1747771753
 10
185.9005690916
 20
170.1833252456
 10
185.9016764261
 20
170.1919806718
 10
185.9030968646
 20
170.2007228342
 10
185.9048267809
 20
170.2095281717
 10
185.9068619389
 20
170.2183754785
 10
185.909198004
 20
170.227246212
 10
185.9118297665
 20
170.2361205613
  0
LWPOLYLINE
  5
330
100
AcDbEntity
  8
RACCORDO
100
AcDbPolyline
 62
250
  6
CONTINUOUS
 90
3
 70
0
 10
193.6960775064
 20
169.2469874502
 10
193.7006249516
 20
169.2656677476
 10
193.7096478389
 20
169.3257331293
  0
LWPOLYLINE
  5
331
100
AcDbEntity
  8
0
100
AcDbPolyline
 62
250
  6
CONTINUOUS
 90
30
 70
0
 10
194.5862656909
 20
164.6158085198
 10
194.5818492035
 20
164.6049264592
 10
194.5770456012
 20
164.594266862
 10
194.571865457
 20
164.5838539131
 10
194.5663197804
 20
164.5737105256
 10
194.5604212163
 20
164.563860559
 10
194.5541842747
 20
164.5543285379
 10
194.5476235782
 20
164.5451367088
 10
194.540753443
 20
164.536305033
 10
194.533589228
 20
164.5278532773
 10
194.5261469846
 20
164.5198004361
 10
194.5184435895
 20
164.512164827
 10
194.5104965783
 20
164.5049638515
 10
194.5023239513
 20
164.4982138129
 10
194.4939440983
 20
164.4919298927
 10
194.4853759161
 20
164.4861262634
 10
194.4766387317
 20
164.4808160214
 10
194.4677522789
 20
164.4760111654
 10
194.4587366359
 20
164.4717225535
 10
194.4496121604
 20
164.4679598691
 10
194.4403994428
 20
164.4647316023
 10
194.4311192786
 20
164.4620450404
 10
194.421792616
 20
164.4599062475
 10
194.4124405082
 20
164.4583200519
 10
194.4030840661
 20
164.4572900342
 10
194.3937443994
 20
164.4568185191
 10
194.3844426014
 20
164.4569065726
 10
194.3751997019
 20
164.4575539927
 10
194.3660365854
 20
164.4587593085
 10
194.3594221974
 20
164.459987359
  0
LINE
  5
332
100
AcDbEntity
  8
RACCORDO
100
AcDbLine
 62
7
  6
CONTINUOUS
 10
202.939280294
 20
162.8681959291
 11
204.9528992868
 21
164.6305032743
  0
LINE
  5
333
100
AcDbEntity
  8
RACCORDO
100
AcDbLine
 62
250
  6
CONTINUOUS
 10
203.0931828488
 20
162.7912446518
 11
205.2014991692
 21
164.6364305338
  0
LINE
  5
334
100
AcDbEntity
  8
0
100
AcDbLine
 62
7
  6
CONTINUOUS
 10
204.4606958216
 20
160.0197791265
 11
203.3938649095
 21
159.4244547085
  0
LWPOLYLINE
  5
335
100
AcDbEntity
  8
ASSI
100
AcDbPolyline
 62
7
  6
CONTINUOUS
 90
3
 70
0
 10
204.3577087636
 20
157.2298395264
 10
204.329459212
 20
157.2141802771
 10
204.3254701712
 20
157.2112892402
  0
LWPOLYLINE
  5
336
100
AcDbEntity
  8
RACCORDO
100
AcDbPolyline
 62
250
  6
CONTINUOUS
 90
18
 70
0
 10
216.9043519692
 20
165.9298886135
 10
216.920296682
 20
165.938542856
 10
216.9354093069
 20
165.947562641
 10
216.9496563654
 20
165.9569279872
 10
216.9630062966
 20
165.9666181479
 10
216.9754295265
 20
165.9766116567
 10
216.9868985346
 20
165.9868863753
 10
216.9973879137
 20
165.9974195425
 10
217.0068744271
 20
166.0081878244
 10
217.0153370597
 20
166.0191673663
 10
217.0227570643
 20
166.0303338457
 10
217.0291180037
 20
166.0416625258
 10
217.0344057867
 20
166.0531283104
 10
217.0386086993
 20
166.0647057998
 10
217.0417174311
 20
166.0763693467
 10
217.0437250954
 20
166.0880931131
 10
217.0446272445
 20
166.0998511279
 10
217.044682069
 20
166.1035482467
  0
LINE
  5
337
100
AcDbEntity
  8
0
100
AcDbLine
 62
250
  6
CONTINUOUS
 10
205.0262468293
 20
159.9436272733
 11
205.0346119095
 21
159.9481120316
  0
LINE
  5
338
100
AcDbEntity
  8
RACCORDO
100
AcDbLine
 62
7
  6
CONTINUOUS
 10
217.8337154818
 20
163.6425796648
 11
218.3200504123
 21
163.8943869464
  0
LINE
  5
339
100
AcDbEntity
  8
0
100
AcDbLine
 62
7
  6
CONTINUOUS
 10
204.9215262433
 20
159.9545600067
 11
206.5046999087
 21
160.7667580649
  0
LINE
  5
33A
100
AcDbEntity
  8
0
100
AcDbLine
 62
250
  6
CONTINUOUS
 10
205.0346119095
 20
159.9481120316
 11
206.6173685126
 21
160.7600961289
  0
LINE
  5
33B
100
AcDbEntity
  8
ASSI
100
AcDbLine
 62
7
  6
CONTINUOUS
 10
217.8337154818
 20
163.6425796648
 11
216.3383713616
 21
162.8846090307
  0
LINE
  5
33C
100
AcDbEntity
  8
RACCORDO
100
AcDbLine
 62
7
  6
CONTINUOUS
 10
208.6786535473
 20
161.1142104662
 11
207.8880728489
 21
160.7142937376
  0
LINE
  5
33D
100
AcDbEntity
  8
0
100
AcDbLine
 62
250
  6
CONTINUOUS
 10
206.7131499799
 20
159.1088429964
 11
208.3144307707
 21
159.9115649999
  0
LINE
  5
33E
100
AcDbEntity
  8
0
100
AcDbLine
 62
250
  6
CONTINUOUS
 10
206.8899236836
 20
158.8039534576
 11
208.4912044744
 21
159.6066754611
  0
LINE
  5
33F
100
AcDbEntity
  8
0
100
AcDbLine
 62
7
  6
CONTINUOUS
 10
206.5046999067
 20
160.7667580639
 11
206.5064363233
 21
160.7676262866
  0
LINE
  5
340
100
AcDbEntity
  8
0
100
AcDbLine
 62
7
  6
CONTINUOUS
 10
204.3576695962
 20
157.2299175999
 11
204.7112230592
 21
157.4066943314
  0
LINE
  5
341
100
AcDbEntity
  8
0
100
AcDbLine
 62
7
  6
CONTINUOUS
 10
209.0301500244
 20
162.2984965781
 11
209.7680064878
 21
162.6664543966
  0
LINE
  5
342
100
AcDbEntity
  8
0
100
AcDbLine
 62
250
  6
CONTINUOUS
 10
208.3144307707
 20
159.9115649999
 11
208.8426979425
 21
160.1750038199
  0
LINE
  5
343
100
AcDbEntity
  8
0
100
AcDbLine
 62
250
  6
CONTINUOUS
 10
208.4912044744
 20
159.6066754611
 11
209.0194716462
 21
159.8701142811
  0
LINE
  5
344
100
AcDbEntity
  8
RACCORDO
100
AcDbLine
 62
250
  6
CONTINUOUS
 10
216.9043519692
 20
165.9298886135
 11
213.7878200949
 21
164.3840658284
  0
LINE
  5
345
100
AcDbEntity
  8
RACCORDO
100
AcDbLine
 62
250
  6
CONTINUOUS
 10
217.1164516949
 20
165.5640706995
 11
214.2607291864
 21
164.1476112827
  0
LINE
  5
346
100
AcDbEntity
  8
RACCORDO
100
AcDbLine
 62
7
  6
CONTINUOUS
 10
214.9707583451
 20
163.7925967033
 11
217.8264808536
 21
165.2090561202
  0
LINE
  5
347
100
AcDbEntity
  8
SMUSSO
100
AcDbLine
 62
7
  6
CONTINUOUS
 10
216.0873399294
 20
163.221669696
 11
218.5284796682
 21
164.4324930027
  0
LINE
  5
348
100
AcDbEntity
  8
RACCORDO
100
AcDbLine
 62
7
  6
CONTINUOUS
 10
208.1589736037
 20
160.5788433602
 11
209.6225753243
 21
161.3002155354
  0
LWPOLYLINE
  5
349
100
AcDbEntity
  8
0
100
AcDbPolyline
 62
250
  6
CONTINUOUS
 90
16
 70
0
 10
204.9215262433
 20
159.9545600067
 10
204.9249239676
 20
159.9562176311
 10
204.9316691886
 20
159.9590301789
 10
204.9386499275
 20
159.9613287323
 10
204.9458503715
 20
159.9631080847
 10
204.9532542099
 20
159.9643642054
 10
204.9608446714
 20
159.9650942491
 10
204.9686045618
 20
159.9652965619
 10
204.9765163033
 20
159.9649706856
 10
204.984561974
 20
159.9641173585
 10
204.9927233487
 20
159.9627385134
 10
205.0009819399
 20
159.9608372739
 10
205.0093190403
 20
159.9584179465
 10
205.0177157643
 20
159.9554860116
 10
205.0261530915
 20
159.9520481108
 10
205.0346119095
 20
159.9481120316
  0
LINE
  5
34A
100
AcDbEntity
  8
0
100
AcDbLine
 62
7
  6
CONTINUOUS
 10
206.5064363225
 20
160.7676262862
 11
207.0413062802
 21
161.0281783866
  0
LINE
  5
34B
100
AcDbEntity
  8
0
100
AcDbLine
 62
250
  6
CONTINUOUS
 10
206.6173685126
 20
160.7600961289
 11
207.1518183913
 21
161.0204435955
  0
LINE
  5
34C
100
AcDbEntity
  8
0
100
AcDbLine
 62
7
  6
CONTINUOUS
 10
215.3349901006
 20
163.362571342
 11
208.8801914472
 21
160.2182344385
  0
LWPOLYLINE
  5
34D
100
AcDbEntity
  8
ASSI
100
AcDbPolyline
 62
7
  6
CONTINUOUS
 90
9
 70
0
 10
204.7112930373
 20
157.4065543753
 10
204.7225789241
 20
157.4120089392
 10
204.7826380749
 20
157.4344859421
 10
204.8465847829
 20
157.4476104924
 10
204.9143168263
 20
157.4516285091
 10
204.9840214403
 20
157.4464324548
 10
205.0550943702
 20
157.4319864839
 10
205.1281398707
 20
157.408326442
 10
205.2031579419
 20
157.3754523293
  0
LWPOLYLINE
  5
34E
100
AcDbEntity
  8
0
100
AcDbPolyline
 62
250
  6
CONTINUOUS
 90
3
 70
0
 10
207.0413062802
 20
161.0281783866
 10
207.0429618166
 20
161.0289648786
 10
207.0496873355
 20
161.0317675753
  0
LWPOLYLINE
  5
34F
100
AcDbEntity
  8
0
100
AcDbPolyline
 62
7
  6
CONTINUOUS
 90
16
 70
0
 10
206.5064363233
 20
160.7676262866
 10
206.5080939517
 20
160.7684137951
 10
206.5148294405
 20
160.771221333
 10
206.5217971798
 20
160.7735131946
 10
206.5289814368
 20
160.7752842144
 10
206.5363659525
 20
160.7765303895
 10
206.5439339068
 20
160.7772488547
 10
206.5516682283
 20
160.7774380198
 10
206.5595514343
 20
160.7770974765
 10
206.5675655337
 20
160.7762279349
 10
206.5756924641
 20
160.7748314118
 10
206.5839138751
 20
160.772911102
 10
206.5922109719
 20
160.7704712753
 10
206.6005649652
 20
160.7675174644
 10
206.6089571144
 20
160.7640564514
 10
206.6173685126
 20
160.7600961289
  0
LINE
  5
350
100
AcDbEntity
  8
RACCORDO
100
AcDbLine
 62
250
  6
CONTINUOUS
 10
224.2026312372
 20
165.2433164135
 11
217.9308655434
 21
162.3468071769
  0
LWPOLYLINE
  5
351
100
AcDbEntity
  8
RACCORDO
100
AcDbPolyline
 62
7
  6
CONTINUOUS
 90
51
 70
0
 10
223.7684761388
 20
165.2779390618
 10
217.4980245707
 20
162.3820382637
 10
217.4885808413
 20
162.3778118401
 10
217.4780172313
 20
162.3733127492
 10
217.4663021109
 20
162.3685703215
 10
217.4534257565
 20
162.36362334
 10
217.4394063735
 20
162.3585197629
 10
217.4242313771
 20
162.3532941029
 10
217.4078987225
 20
162.3479837766
 10
217.3904576786
 20
162.342641168
 10
217.3719183507
 20
162.3373033253
 10
217.3522871513
 20
162.3320046161
 10
217.3316202884
 20
162.3267905931
 10
217.3099397413
 20
162.3216958453
 10
217.287264718
 20
162.3167527411
 10
217.2636557694
 20
162.3120000189
 10
217.2391434299
 20
162.3074678223
 10
217.2137595821
 20
162.3031856994
 10
217.1875729658
 20
162.2991866322
 10
217.1606183576
 20
162.2954952676
 10
217.132942331
 20
162.292137332
 10
217.1046369096
 20
162.2891411381
 10
217.075743993
 20
162.2865256737
 10
217.0463204692
 20
162.2843100805
 10
217.0164864073
 20
162.2825154651
 10
216.9862977817
 20
162.2811540728
 10
216.9558112881
 20
162.2802360833
 10
216.925151957
 20
162.2797715258
 10
216.894379437
 20
162.2797647035
 10
216.8635536682
 20
162.2802173736
 10
216.8328012242
 20
162.2811278382
 10
216.802181768
 20
162.2824922271
 10
216.7717549779
 20
162.2843039928
 10
216.7416457747
 20
162.2865496004
 10
216.7119102744
 20
162.2892171104
 10
216.6826042201
 20
162.2922921049
 10
216.6538474949
 20
162.295749712
 10
216.6256966358
 20
162.299569248
 10
216.5981923197
 20
162.3037300659
 10
216.5714244631
 20
162.3082009074
 10
216.545438793
 20
162.31295494
 10
216.5202688331
 20
162.3179663407
 10
216.4959801937
 20
162.3232001265
 10
216.4726036695
 20
162.3286258153
 10
216.4501686084
 20
162.3342126754
 10
216.428732406
 20
162.3399204164
 10
216.4083132184
 20
162.345715922
 10
216.3889319085
 20
162.3515642839
 10
216.370641658
 20
162.3574189047
 10
216.3534476891
 20
162.3632451402
 10
216.3383713616
 20
162.3686431158
  0
LWPOLYLINE
  5
352
100
AcDbEntity
  8
RACCORDO
100
AcDbPolyline
 62
250
  6
CONTINUOUS
 90
32
 70
0
 10
217.9308655434
 20
162.3468071769
 10
217.8959861772
 20
162.3312010905
 10
217.8600179086
 20
162.3161469454
 10
217.8229607376
 20
162.3016447416
 10
217.7847654007
 20
162.2876698396
 10
217.7454811613
 20
162.2742468789
 10
217.7052558101
 20
162.2614497787
 10
217.664083388
 20
162.249283697
 10
217.6219698541
 20
162.2377434758
 10
217.5790808755
 20
162.2268875609
 10
217.5354098723
 20
162.2167208683
 10
217.4909634244
 20
162.207238482
 10
217.4459269387
 20
162.1984841
 10
217.4003001638
 20
162.1904634996
 10
217.3540833511
 20
162.1831709034
 10
217.3074626615
 20
162.1766326771
 10
217.2604497383
 20
162.1708541951
 10
217.2130329382
 20
162.165830083
 10
217.1653634928
 20
162.161570582
 10
217.117447647
 20
162.1580779743
 10
217.0692791558
 20
162.1553499778
 10
217.0209905158
 20
162.1533899881
 10
216.972581591
 20
162.1521991581
 10
216.9240525174
 20
162.1517763347
 10
216.8755361992
 20
162.1521214546
 10
216.8270326259
 20
162.1532356944
 10
216.778541808
 20
162.1551178774
 10
216.7301966816
 20
162.1577644097
 10
216.6819970139
 20
162.1611765044
 10
216.6339430376
 20
162.1653529484
 10
216.5861683871
 20
162.1702865078
 10
216.5608057054
 20
162.1733263548
  0
LWPOLYLINE
  5
353
100
AcDbEntity
  8
RACCORDO
100
AcDbPolyline
 62
250
  6
CONTINUOUS
 90
19
 70
0
 10
223.7684761388
 20
165.2779390618
 10
223.7852841221
 20
165.2852078795
 10
223.806791665
 20
165.2931384459
 10
223.8288439358
 20
165.2997841525
 10
223.8514101489
 20
165.3051357724
 10
223.8744589019
 20
165.3091858985
 10
223.8979578229
 20
165.3119287762
 10
223.9218742057
 20
165.3133606555
 10
223.9461747762
 20
165.3134795916
 10
223.9708254783
 20
165.3122852342
 10
223.9957924386
 20
165.3097792793
 10
224.021040593
 20
165.3059652655
 10
224.0465334477
 20
165.300848437
 10
224.0722349544
 20
165.2944363283
 10
224.0981100523
 20
165.2867379564
 10
224.1241233168
 20
165.2777634384
 10
224.1502388368
 20
165.2675250317
 10
224.1764202419
 20
165.2560373273
 10
224.2026312372
 20
165.2433164135
  0
LINE
  5
354
100
AcDbEntity
  8
DRAFT
100
AcDbLine
 62
7
  6
CONTINUOUS
 10
208.1185200619
 20
123.355216087
 11
206.4052394699
 21
124.211856383
  0
LINE
  5
355
100
AcDbEntity
  8
RACCORDO
100
AcDbLine
 62
250
  6
CONTINUOUS
 10
171.3554348742
 20
142.1510855895
 11
201.7725765798
 21
126.9425147367
  0
LWPOLYLINE
  5
356
100
AcDbEntity
  8
0
100
AcDbPolyline
 62
7
  6
CONTINUOUS
 90
5
 70
0
 10
188.3984921492
 20
174.8225305157
 10
188.3982473335
 20
174.8248154094
 10
188.3972781273
 20
174.8272179976
 10
188.3956042469
 20
174.8291510637
 10
188.3934771781
 20
174.8305380847
  0
LWPOLYLINE
  5
357
100
AcDbEntity
  8
0
100
AcDbPolyline
 62
250
  6
CONTINUOUS
 90
19
 70
0
 10
188.9480348795
 20
167.2591756695
 10
188.9482031753
 20
167.2498147202
 10
188.9487077424
 20
167.2406398902
 10
188.9495476201
 20
167.2316686489
 10
188.9507212055
 20
167.2229181011
 10
188.9522262661
 20
167.214404884
 10
188.9540599521
 20
167.2061451418
 10
188.9562187958
 20
167.1981545545
 10
188.9586986828
 20
167.190448401
 10
188.9614948622
 20
167.1830414521
 10
188.9646019843
 20
167.1759478528
 10
188.9680141459
 20
167.1691810567
 10
188.9717248734
 20
167.1627538996
 10
188.9757271337
 20
167.1566785797
 10
188.9800132823
 20
167.1509667157
 10
188.9845750915
 20
167.1456292624
 10
188.9894038212
 20
167.1406764115
 10
188.9944903074
 20
167.1361175301
 10
188.9998249228
 20
167.1319612361
  0
LWPOLYLINE
  5
358
100
AcDbEntity
  8
0
100
AcDbPolyline
 62
250
  6
CONTINUOUS
 90
22
 70
0
 10
190.6284253446
 20
166.418980437
 10
190.6285936404
 20
166.4096194876
 10
190.6290982075
 20
166.4004446576
 10
190.6299380852
 20
166.3914734163
 10
190.6311116706
 20
166.3827228686
 10
190.6326167312
 20
166.3742096514
 10
190.6344504172
 20
166.3659499092
 10
190.6366092609
 20
166.3579593219
 10
190.6390891479
 20
166.3502531684
 10
190.6418853273
 20
166.3428462196
 10
190.6449924494
 20
166.3357526203
 10
190.648404611
 20
166.3289858241
 10
190.6521153385
 20
166.3225586671
 10
190.6561175988
 20
166.3164833471
 10
190.6604037474
 20
166.3107714832
 10
190.6649655566
 20
166.3054340298
 10
190.6697942862
 20
166.3004811789
 10
190.6748807724
 20
166.2959222976
 10
190.6802153879
 20
166.2917660035
 10
190.6857886585
 20
166.2880197859
 10
190.691589345
 20
166.2846913025
 10
190.6933906207
 20
166.2837659975
  0
LINE
  5
359
100
AcDbEntity
  8
0
100
AcDbLine
 62
7
  6
CONTINUOUS
 10
188.3984921492
 20
173.5742684471
 11
188.3984921492
 21
174.8225325698
  0
LINE
  5
35A
100
AcDbEntity
  8
0
100
AcDbLine
 62
7
  6
CONTINUOUS
 10
188.5507932449
 20
167.9747304148
 11
188.5507932449
 21
169.3603710609
  0
LINE
  5
35B
100
AcDbEntity
  8
RACCORDO
100
AcDbLine
 62
250
  6
CONTINUOUS
 10
188.6214291253
 20
165.2631636276
 11
188.6214291253
 21
165.0643337347
  0
LINE
  5
35C
100
AcDbEntity
  8
0
100
AcDbLine
 62
7
  6
CONTINUOUS
 10
188.8748115748
 20
167.6886723067
 11
188.8748115748
 21
167.3475640172
  0
LINE
  5
35D
100
AcDbEntity
  8
DRAFT
100
AcDbLine
 62
7
  6
CONTINUOUS
 10
188.8963972955
 20
164.925825678
 11
188.8963972955
 21
165.4366747962
  0
LINE
  5
35E
100
AcDbEntity
  8
0
100
AcDbLine
 62
250
  6
CONTINUOUS
 10
188.9480348795
 20
167.6002839591
 11
188.9480348795
 21
167.2591756695
  0
LINE
  5
35F
100
AcDbEntity
  8
DRAFT
100
AcDbLine
 62
250
  6
CONTINUOUS
 10
189.0104126527
 20
173.7827088888
 11
189.0104126527
 21
172.5569371897
  0
LINE
  5
360
100
AcDbEntity
  8
DRAFT
100
AcDbLine
 62
7
  6
CONTINUOUS
 10
189.0930277398
 20
165.0714619195
 11
189.0930277398
 21
165.7909818511
  0
LINE
  5
361
100
AcDbEntity
  8
0
100
AcDbLine
 62
7
  6
CONTINUOUS
 10
189.5782159197
 20
166.8413533475
 11
189.5782159197
 21
166.3873792459
  0
LINE
  5
362
100
AcDbEntity
  8
0
100
AcDbLine
 62
250
  6
CONTINUOUS
 10
189.6514392244
 20
166.8047416952
 11
189.6514392244
 21
166.295667551
  0
LINE
  5
363
100
AcDbEntity
  8
0
100
AcDbLine
 62
7
  6
CONTINUOUS
 10
189.976338479
 20
173.3492307691
 11
189.976338479
 21
173.907755039
  0
LINE
  5
364
100
AcDbEntity
  8
DRAFT
100
AcDbLine
 62
250
  6
CONTINUOUS
 10
190.4246262151
 20
173.2198212465
 11
190.4246262151
 21
172.6961348564
  0
LINE
  5
365
100
AcDbEntity
  8
RACCORDO
100
AcDbLine
 62
7
  6
CONTINUOUS
 10
190.4599815542
 20
164.4800896729
 11
190.4599815542
 21
165.1075049439
  0
LINE
  5
366
100
AcDbEntity
  8
0
100
AcDbLine
 62
250
  6
CONTINUOUS
 10
190.6284253446
 20
166.418980437
 11
190.6284253446
 21
166.7600887265
  0
LINE
  5
367
100
AcDbEntity
  8
0
100
AcDbLine
 62
250
  6
CONTINUOUS
 10
190.9810507156
 20
166.4185188504
 11
190.9810507156
 21
166.75962714
  0
LINE
  5
368
100
AcDbEntity
  8
0
100
AcDbLine
 62
250
  6
CONTINUOUS
 10
191.339234562
 20
165.4517698822
 11
191.339234562
 21
166.1324868506
  0
LINE
  5
369
100
AcDbEntity
  8
0
100
AcDbLine
 62
250
  6
CONTINUOUS
 10
191.691859933
 20
165.4625955022
 11
191.691859933
 21
166.2702210229
  0
LWPOLYLINE
  5
36A
100
AcDbEntity
  8
0
100
AcDbPolyline
 62
250
  6
CONTINUOUS
 90
14
 70
0
 10
188.9480348795
 20
167.6002839591
 10
188.9482337751
 20
167.6106508804
 10
188.9488300145
 20
167.6211933692
 10
188.949822256
 20
167.6318877024
 10
188.9512082668
 20
167.6427098149
 10
188.9529849279
 20
167.6536353545
 10
188.9551482416
 20
167.6646397358
 10
188.9576933397
 20
167.6756981964
 10
188.9606144952
 20
167.6867858519
 10
188.9639051348
 20
167.6978777525
 10
188.9675578537
 20
167.7089489385
 10
188.9715644323
 20
167.719974497
 10
188.975915855
 20
167.7309296179
 10
188.9806023299
 20
167.7417896494
  0
LWPOLYLINE
  5
36B
100
AcDbEntity
  8
0
100
AcDbPolyline
 62
250
  6
CONTINUOUS
 90
34
 70
0
 10
190.6284253446
 20
166.7600887265
 10
190.6286242402
 20
166.7704556479
 10
190.6292204796
 20
166.7809981367
 10
190.6302127211
 20
166.7916924698
 10
190.6315987319
 20
166.8025145824
 10
190.633375393
 20
166.8134401219
 10
190.6355387066
 20
166.8244445033
 10
190.6380838048
 20
166.8355029639
 10
190.6410049603
 20
166.8465906194
 10
190.6442955999
 20
166.8576825199
 10
190.6479483187
 20
166.8687537059
 10
190.6519548974
 20
166.8797792645
 10
190.6563063201
 20
166.8907343854
 10
190.660992795
 20
166.9015944169
 10
190.6660037764
 20
166.9123349212
 10
190.6713279883
 20
166.9229317295
 10
190.67695345
 20
166.9333609965
 10
190.6828675028
 20
166.9435992536
 10
190.6890568385
 20
166.9536234623
 10
190.6955075297
 20
166.9634110655
 10
190.7022050606
 20
166.9729400389
 10
190.7091343603
 20
166.9821889398
 10
190.716279836
 20
166.9911369559
 10
190.7236254087
 20
166.9997639519
 10
190.731154549
 20
167.008050515
 10
190.7388503145
 20
167.0159779984
 10
190.7466953878
 20
167.0235285633
 10
190.7546721155
 20
167.030685219
 10
190.7627625481
 20
167.0374318613
 10
190.77094848
 20
167.0437533085
 10
190.7792114909
 20
167.0496353359
 10
190.787532987
 20
167.0550647074
 10
190.7958942428
 20
167.0600292056
 10
190.8042764435
 20
167.0645176591
  0
LINE
  5
36C
100
AcDbEntity
  8
0
100
AcDbLine
 62
7
  6
CONTINUOUS
 10
208.4912044744
 20
158.0045248001
 11
207.6011442917
 21
157.5078438788
  0
LINE
  5
36D
100
AcDbEntity
  8
0
100
AcDbLine
 62
250
  6
CONTINUOUS
 10
208.8444098599
 20
157.8279221074
 11
207.765235796
 21
157.2387692652
  0
LINE
  5
36E
100
AcDbEntity
  8
0
100
AcDbLine
 62
250
  6
CONTINUOUS
 10
209.1977105605
 20
157.218078053
 11
208.1185200619
 21
156.6289162387
  0
LWPOLYLINE
  5
36F
100
AcDbEntity
  8
RACCORDO
100
AcDbPolyline
 62
250
  6
CONTINUOUS
 90
28
 70
0
 10
203.1733509198
 20
154.8923846747
 10
203.1426060653
 20
154.8756388331
 10
203.1106416762
 20
154.8565215659
 10
203.0775372869
 20
154.8348660234
 10
203.0432701956
 20
154.8104245696
 10
203.0080764631
 20
154.783117832
 10
202.9724382998
 20
154.7531016646
 10
202.9364835758
 20
154.7202972166
 10
202.9003717843
 20
154.6846550168
 10
202.8646177503
 20
154.6465136352
 10
202.8293606166
 20
154.6058947645
 10
202.7947667178
 20
154.5628587725
 10
202.7613404883
 20
154.517938388
 10
202.7292026323
 20
154.4712574454
 10
202.6984767548
 20
154.422958451
 10
202.6695815436
 20
154.3737121943
 10
202.6425827051
 20
154.3237127988
 10
202.6175249201
 20
154.2731351359
 10
202.5946788198
 20
154.2226841785
 10
202.5740284421
 20
154.1725641577
 10
202.5555312529
 20
154.1229347491
 10
202.5392961349
 20
154.0744463247
 10
202.5252216822
 20
154.027250811
 10
202.5131927444
 20
153.9814652373
 10
202.503185833
 20
153.9376614344
 10
202.4950590615
 20
153.8960696355
 10
202.4886085868
 20
153.8565839728
 10
202.4836689035
 20
153.8192354456
  0
LINE
  5
370
100
AcDbEntity
  8
0
100
AcDbLine
 62
7
  6
CONTINUOUS
 10
216.1980412617
 20
162.6651697813
 11
209.5917188374
 21
159.1009072731
  0
LINE
  5
371
100
AcDbEntity
  8
DRAFT
100
AcDbLine
 62
7
  6
CONTINUOUS
 10
216.1980412617
 20
162.122490811
 11
209.800650458
 21
158.740553532
  0
LINE
  5
372
100
AcDbEntity
  8
DRAFT
100
AcDbLine
 62
7
  6
CONTINUOUS
 10
210.011484054
 20
158.3769193686
 11
216.9080012165
 21
161.9997285992
  0
LWPOLYLINE
  5
373
100
AcDbEntity
  8
RACCORDO
100
AcDbPolyline
 62
250
  6
CONTINUOUS
 90
28
 70
0
 10
203.5267831565
 20
154.2828042371
 10
203.5111319762
 20
154.2746653754
 10
203.4949583297
 20
154.2651831518
 10
203.4782622169
 20
154.2543575663
 10
203.4609205824
 20
154.2422001595
 10
203.4430564817
 20
154.2286993908
 10
203.4250390813
 20
154.2138206386
 10
203.4068552243
 20
154.1975007873
 10
203.3885180677
 20
154.1798029525
 10
203.3704362492
 20
154.16088186
 10
203.3526151621
 20
154.1406726821
 10
203.3350494131
 20
154.1192402465
 10
203.3181314603
 20
154.0969337618
 10
203.3018919529
 20
154.0737064434
 10
203.2863002417
 20
154.0496050758
 10
203.2716568365
 20
154.0251192214
 10
203.2580118623
 20
154.000234719
 10
203.2453151941
 20
153.9749657298
 10
203.233716967
 20
153.9498442987
 10
203.2232718147
 20
153.9248872298
 10
203.2139251035
 20
153.9000777189
 10
203.2056630668
 20
153.8758973993
 10
203.1985313365
 20
153.8523784383
 10
203.1924842808
 20
153.8294886685
 10
203.1873712364
 20
153.8076132209
 10
203.1831419825
 20
153.7868804725
 10
203.1798467401
 20
153.7671620462
 10
203.1774855091
 20
153.7484579422
  0
LINE
  5
374
100
AcDbEntity
  8
RACCORDO
100
AcDbLine
 62
250
  6
CONTINUOUS
 10
226.2025271754
 20
163.8277566548
 11
211.2590345141
 21
156.2252131107
  0
LINE
  5
375
100
AcDbEntity
  8
0
100
AcDbLine
 62
250
  6
CONTINUOUS
 10
206.0518072332
 20
156.3481207092
 11
203.1733509198
 21
154.8923846747
  0
LINE
  5
376
100
AcDbEntity
  8
0
100
AcDbLine
 62
250
  6
CONTINUOUS
 10
206.4052394699
 20
155.7385402716
 11
203.5267831565
 21
154.2828042371
  0
LINE
  5
377
100
AcDbEntity
  8
0
100
AcDbLine
 62
250
  6
CONTINUOUS
 10
209.5460068475
 20
158.1791920063
 11
208.8450708937
 21
157.8275915904
  0
LINE
  5
378
100
AcDbEntity
  8
0
100
AcDbLine
 62
250
  6
CONTINUOUS
 10
209.8995557508
 20
157.5694195086
 11
209.198619797
 21
157.2178190927
  0
LINE
  5
379
100
AcDbEntity
  8
RACCORDO
100
AcDbLine
 62
250
  6
CONTINUOUS
 10
217.6535281522
 20
160.7138848404
 11
225.5703329604
 21
164.5594655519
  0
LINE
  5
37A
100
AcDbEntity
  8
RACCORDO
100
AcDbLine
 62
250
  6
CONTINUOUS
 10
217.9911964861
 20
160.1314931133
 11
226.070256808
 21
164.0558892926
  0
LWPOLYLINE
  5
37B
100
AcDbEntity
  8
0
100
AcDbPolyline
 62
250
  6
CONTINUOUS
 90
19
 70
0
 10
192.5552056609
 20
165.4555902788
 10
192.5553739568
 20
165.4462293284
 10
192.555878524
 20
165.4370544974
 10
192.5567184018
 20
165.4280832552
 10
192.5578919875
 20
165.4193327065
 10
192.5593970484
 20
165.4108194884
 10
192.5612307348
 20
165.4025597456
 10
192.5633895789
 20
165.394569158
 10
192.5658694663
 20
165.3868630044
 10
192.568665646
 20
165.3794560554
 10
192.5717727686
 20
165.372362456
 10
192.5751849307
 20
165.3655956598
 10
192.5788956587
 20
165.3591685027
 10
192.5828979194
 20
165.3530931828
 10
192.5871840686
 20
165.347381319
 10
192.5917458781
 20
165.342043866
 10
192.5965746076
 20
165.337091016
 10
192.6016610934
 20
165.3325321356
 10
192.6069957083
 20
165.3283758424
  0
LWPOLYLINE
  5
37C
100
AcDbEntity
  8
0
100
AcDbPolyline
 62
250
  6
CONTINUOUS
 90
22
 70
0
 10
194.2337437313
 20
164.6163212436
 10
194.2339115635
 20
164.6069730742
 10
194.2344149702
 20
164.5978073976
 10
194.2352533372
 20
164.5888418281
 10
194.2364255639
 20
164.5800926488
 10
194.2379296824
 20
164.5715777745
 10
194.2397624856
 20
164.5633164407
 10
194.2419202105
 20
164.5553253017
 10
194.2443989446
 20
164.5476185874
 10
194.2471940019
 20
164.5402108883
 10
194.2503000988
 20
164.5331162603
 10
194.2537113091
 20
164.5263482869
 10
194.2574210935
 20
164.5199199538
 10
194.2614223567
 20
164.5138435398
 10
194.2657075026
 20
164.5081305657
 10
194.2702684026
 20
164.5027918699
 10
194.2750964087
 20
164.4978375914
 10
194.2801823018
 20
164.4932772053
 10
194.2855163319
 20
164.4891194501
 10
194.2910882964
 20
164.4853722575
 10
194.2968876168
 20
164.4820427212
 10
194.2987145573
 20
164.4811040288
  0
LWPOLYLINE
  5
37D
100
AcDbEntity
  8
0
100
AcDbPolyline
 62
7
  6
CONTINUOUS
 90
29
 70
0
 10
192.8287892711
 20
174.4526540327
 10
192.8284101561
 20
174.4807449683
 10
192.8272835668
 20
174.5083723664
 10
192.8254095031
 20
174.5355362269
 10
192.822784376
 20
174.5622644653
 10
192.8194117746
 20
174.5885291661
 10
192.815302466
 20
174.6142465836
 10
192.8104541104
 20
174.6394148993
 10
192.8048690477
 20
174.6640359318
 10
192.7985650646
 20
174.6880313906
 10
192.791539908
 20
174.7113992333
 10
192.7837958311
 20
174.7341415025
 10
192.7753573799
 20
174.7561860354
 10
192.7662222573
 20
174.7775307942
 10
192.7563927604
 20
174.7981778168
 10
192.745900327
 20
174.8180610543
 10
192.7347429645
 20
174.8371778626
 10
192.7229226654
 20
174.8555308859
 10
192.7104768454
 20
174.873062008
 10
192.6974033836
 20
174.8897687918
 10
192.6837044007
 20
174.9056536743
 10
192.6694236745
 20
174.9206658501
 10
192.6545594253
 20
174.9348024354
 10
192.6391134326
 20
174.9480663141
 10
192.6231348135
 20
174.9604153321
 10
192.606621879
 20
174.9718465884
 10
192.5895763179
 20
174.982362984
 10
192.5720523142
 20
174.9919310681
 10
192.5688960362
 20
174.9935277347
  0
LINE
  5
37E
100
AcDbEntity
  8
0
100
AcDbLine
 62
7
  6
CONTINUOUS
 10
192.4819823562
 20
165.8839525606
 11
192.4819823562
 21
165.5439786265
  0
LINE
  5
37F
100
AcDbEntity
  8
0
100
AcDbLine
 62
250
  6
CONTINUOUS
 10
192.5552056609
 20
165.795564213
 11
192.5552056609
 21
165.4555902788
  0
LINE
  5
380
100
AcDbEntity
  8
0
100
AcDbLine
 62
7
  6
CONTINUOUS
 10
192.5813018977
 20
166.0834306282
 11
192.5813018977
 21
167.5616267494
  0
LINE
  5
381
100
AcDbEntity
  8
0
100
AcDbLine
 62
7
  6
CONTINUOUS
 10
192.8287892711
 20
174.4526540327
 11
192.8287892711
 21
173.9960333017
  0
LINE
  5
382
100
AcDbEntity
  8
0
100
AcDbLine
 62
250
  6
CONTINUOUS
 10
193.1095690695
 20
167.8250655695
 11
193.1095690695
 21
167.4775340527
  0
LINE
  5
383
100
AcDbEntity
  8
RACCORDO
100
AcDbLine
 62
7
  6
CONTINUOUS
 10
193.1202474477
 20
170.2534478665
 11
193.1202474477
 21
169.6799796085
  0
LINE
  5
384
100
AcDbEntity
  8
0
100
AcDbLine
 62
7
  6
CONTINUOUS
 10
193.1817669265
 20
167.9129382016
 11
193.1817669265
 21
167.5654066849
  0
LINE
  5
385
100
AcDbEntity
  8
0
100
AcDbLine
 62
7
  6
CONTINUOUS
 10
193.1849753104
 20
165.0379736522
 11
193.1849753104
 21
164.5839995505
  0
LINE
  5
386
100
AcDbEntity
  8
0
100
AcDbLine
 62
250
  6
CONTINUOUS
 10
193.2581986151
 20
165.0013619998
 11
193.2581986151
 21
164.4922878556
  0
LINE
  5
387
100
AcDbEntity
  8
RACCORDO
100
AcDbLine
 62
250
  6
CONTINUOUS
 10
193.7126727476
 20
169.9572352165
 11
193.7126727476
 21
169.3837669586
  0
LINE
  5
388
100
AcDbEntity
  8
0
100
AcDbLine
 62
250
  6
CONTINUOUS
 10
193.8581039111
 20
170.6214056849
 11
193.8581039111
 21
172.0051536499
  0
LINE
  5
389
100
AcDbEntity
  8
0
100
AcDbLine
 62
7
  6
CONTINUOUS
 10
193.9889387622
 20
170.7790451406
 11
193.9889387622
 21
172.0273092633
  0
LINE
  5
38A
100
AcDbEntity
  8
0
100
AcDbLine
 62
7
  6
CONTINUOUS
 10
194.2189791661
 20
171.5297091192
 11
194.2189791661
 21
171.7864346955
  0
LINE
  5
38B
100
AcDbEntity
  8
0
100
AcDbLine
 62
250
  6
CONTINUOUS
 10
194.2337437313
 20
164.6163212436
 11
194.2337437313
 21
164.9562951778
  0
LINE
  5
38C
100
AcDbEntity
  8
0
100
AcDbLine
 62
250
  6
CONTINUOUS
 10
194.5862656909
 20
164.6158085198
 11
194.5862656909
 21
164.9557824539
  0
LINE
  5
38D
100
AcDbEntity
  8
0
100
AcDbLine
 62
250
  6
CONTINUOUS
 10
194.9449643394
 20
163.6489049935
 11
194.9449643394
 21
164.3296547392
  0
LINE
  5
38E
100
AcDbEntity
  8
0
100
AcDbLine
 62
250
  6
CONTINUOUS
 10
195.297486299
 20
163.6596728752
 11
195.297486299
 21
164.4673049969
  0
LINE
  5
38F
100
AcDbEntity
  8
DRAFT
100
AcDbLine
 62
7
  6
CONTINUOUS
 10
195.5038906307
 20
162.5855504057
 11
195.5038906307
 21
162.1329281286
  0
LWPOLYLINE
  5
390
100
AcDbEntity
  8
0
100
AcDbPolyline
 62
250
  6
CONTINUOUS
 90
14
 70
0
 10
192.5552056609
 20
165.795564213
 10
192.5554044088
 20
165.8059272478
 10
192.5560002055
 20
165.8164657284
 10
192.5569917115
 20
165.8271559583
 10
192.5583766971
 20
165.8379738996
 10
192.5601520483
 20
165.8488952274
 10
192.5623137729
 20
165.8598953843
 10
192.5648570101
 20
165.8709496356
 10
192.5677760413
 20
165.882033125
 10
192.5710643029
 20
165.8931209303
 10
192.5747144008
 20
165.9041881199
 10
192.5787181277
 20
165.9152098083
 10
192.5830664808
 20
165.9261612124
 10
192.5877496825
 20
165.9370177071
  0
LWPOLYLINE
  5
391
100
AcDbEntity
  8
0
100
AcDbPolyline
 62
250
  6
CONTINUOUS
 90
34
 70
0
 10
194.2337437313
 20
164.9562951778
 10
194.2339424792
 20
164.9666582126
 10
194.2345382759
 20
164.9771966932
 10
194.2355297819
 20
164.9878869231
 10
194.2369147676
 20
164.9987048644
 10
194.2386901187
 20
165.0096261922
 10
194.2408518433
 20
165.0206263491
 10
194.2433950805
 20
165.0316806004
 10
194.2463141117
 20
165.0427640898
 10
194.2496023733
 20
165.0538518951
 10
194.2532524712
 20
165.0649190847
 10
194.2572561981
 20
165.0759407731
 10
194.2616045512
 20
165.0868921771
 10
194.2662877529
 20
165.0977486719
 10
194.2712952727
 20
165.1084858456
 10
194.2766158508
 20
165.119079555
 10
194.2822375234
 20
165.1295059793
 10
194.2881476499
 20
165.1397416739
 10
194.2943329408
 20
165.1497636231
 10
194.3007794881
 20
165.1595492917
 10
194.3074727962
 20
165.1690766759
 10
194.3143978147
 20
165.1783243527
 10
194.3215389722
 20
165.187271528
 10
194.3288802111
 20
165.1958980834
 10
194.3364050243
 20
165.2041846214
 10
194.3440964916
 20
165.2121125091
 10
194.3519373181
 20
165.2196639201
 10
194.3599098732
 20
165.2268218744
 10
194.36799623
 20
165.2335702769
 10
194.3761782056
 20
165.2398939531
 10
194.3844374023
 20
165.245778684
 10
194.3927552486
 20
165.2512112372
 10
194.4011130413
 20
165.2561793972
 10
194.4094919873
 20
165.2606719927
  0
LWPOLYLINE
  5
392
100
AcDbEntity
  8
0
100
AcDbPolyline
 62
250
  6
CONTINUOUS
 90
18
 70
0
 10
193.1817669265
 20
167.9129382016
 10
193.1817122469
 20
167.9103239718
 10
193.1811832739
 20
167.9044017265
 10
193.1800933354
 20
167.8984987191
 10
193.1784448883
 20
167.8926282094
 10
193.1762416301
 20
167.8868033623
 10
193.173488483
 20
167.8810372255
 10
193.1701916526
 20
167.8753428231
 10
193.166358638
 20
167.8697330837
 10
193.161998152
 20
167.8642206925
 10
193.1571199824
 20
167.8588179647
 10
193.1517350224
 20
167.8535369458
 10
193.1458544613
 20
167.8483887489
 10
193.1394922995
 20
167.8433857585
 10
193.1326658986
 20
167.8385412881
 10
193.1253922776
 20
167.833866678
 10
193.1176873895
 20
167.8293714896
 10
193.1095690695
 20
167.8250655695
  0
LWPOLYLINE
  5
393
100
AcDbEntity
  8
0
100
AcDbPolyline
 62
250
  6
CONTINUOUS
 90
18
 70
0
 10
193.1817669255
 20
167.565395982
 10
193.1817125036
 20
167.5627985975
 10
193.1811841505
 20
167.5568766155
 10
193.1800948785
 20
167.5509738384
 10
193.1784471405
 20
167.5451035324
 10
193.1762446403
 20
167.5392788863
 10
193.1734923087
 20
167.5335129567
 10
193.1701963497
 20
167.5278187542
 10
193.1663642583
 20
167.5222091968
 10
193.1620047462
 20
167.5166969673
 10
193.1571276005
 20
167.511294379
 10
193.1517437053
 20
167.5060134681
 10
193.1458646702
 20
167.5008656977
 10
193.1395041334
 20
167.4958630783
 10
193.1326779737
 20
167.4910179238
 10
193.1254024012
 20
167.4863413592
 10
193.1176935677
 20
167.4818434093
 10
193.1095690695
 20
167.4775340527
  0
LINE
  5
394
100
AcDbEntity
  8
RACCORDO
100
AcDbLine
 62
250
  6
CONTINUOUS
 10
193.7096478389
 20
169.3257331293
 11
193.7126727476
 21
169.3837669586
  0
LWPOLYLINE
  5
395
100
AcDbEntity
  8
0
100
AcDbPolyline
 62
250
  6
CONTINUOUS
 90
17
 70
0
 10
196.7879574173
 20
165.7596842161
 10
196.7874298791
 20
165.7537626943
 10
196.7863415049
 20
165.7478603341
 10
196.7846947419
 20
165.7419904075
 10
196.7824932929
 20
165.7361661135
 10
196.7797421082
 20
165.7304005485
 10
196.7764473739
 20
165.7247066766
 10
196.7726164986
 20
165.7190973011
 10
196.7682580961
 20
165.713585035
 10
196.7633819668
 20
165.7081822732
 10
196.757999075
 20
165.702901164
 10
196.7521215244
 20
165.6977535825
 10
196.7457625313
 20
165.6927511035
 10
196.7389363943
 20
165.6879049753
 10
196.7316584625
 20
165.6832260948
 10
196.7239451009
 20
165.6787249829
 10
196.7158136535
 20
165.6744117607
  0
LINE
  5
396
100
AcDbEntity
  8
0
100
AcDbLine
 62
250
  6
CONTINUOUS
 10
201.8217230716
 20
162.280987951
 11
201.8246425654
 21
162.2898428526
  0
LWPOLYLINE
  5
397
100
AcDbEntity
  8
0
100
AcDbPolyline
 62
250
  6
CONTINUOUS
 90
19
 70
0
 10
201.8246425654
 20
162.2898428526
 10
201.8278451093
 20
162.2986615577
 10
201.8313234433
 20
162.3074240577
 10
201.8350697081
 20
162.3161105695
 10
201.839075505
 20
162.3247016332
 10
201.8433318509
 20
162.3331779819
 10
201.8478291889
 20
162.3415205738
 10
201.8525573945
 20
162.3497106185
 10
201.8575058247
 20
162.3577296762
 10
201.8626633472
 20
162.3655597041
 10
201.868018366
 20
162.3731830957
 10
201.8735588369
 20
162.3805827025
 10
201.8792723007
 20
162.3877418819
 10
201.885145906
 20
162.3946445282
 10
201.891166437
 20
162.401275109
 10
201.8973203513
 20
162.4076187085
 10
201.9035938087
 20
162.4136610594
 10
201.9099726975
 20
162.4193885688
 10
201.9164426742
 20
162.4247883571
  0
LINE
  5
398
100
AcDbEntity
  8
0
100
AcDbLine
 62
250
  6
CONTINUOUS
 10
209.034868479
 20
159.4517918587
 11
209.0348322185
 21
159.4517475978
  0
LINE
  5
399
100
AcDbEntity
  8
0
100
AcDbLine
 62
250
  6
CONTINUOUS
 10
208.4912044744
 20
158.8796306086
 11
209.0194716462
 21
159.5225827644
  0
LINE
  5
39A
100
AcDbEntity
  8
0
100
AcDbLine
 62
7
  6
CONTINUOUS
 10
208.4912044744
 20
158.7901001423
 11
209.0348322185
 21
159.4517475978
  0
LINE
  5
39B
100
AcDbEntity
  8
0
100
AcDbLine
 62
7
  6
CONTINUOUS
 10
209.8995557508
 20
154.6371366731
 11
211.6518956352
 21
155.5476279068
  0
LINE
  5
39C
100
AcDbEntity
  8
RACCORDO
100
AcDbLine
 62
250
  6
CONTINUOUS
 10
226.616677651
 20
162.3961230801
 11
211.6731849897
 21
154.793579536
  0
LWPOLYLINE
  5
39D
100
AcDbEntity
  8
0
100
AcDbPolyline
 62
250
  6
CONTINUOUS
 90
10
 70
0
 10
209.0014849215
 20
118.4763775762
 10
208.9957265138
 20
118.4849641497
 10
208.9896204084
 20
118.4931577606
 10
208.9831803866
 20
118.5009399165
 10
208.9764209831
 20
118.5082930536
 10
208.9693574535
 20
118.5152005762
 10
208.9620057397
 20
118.5216468944
 10
208.9543824341
 20
118.5276174594
 10
208.9465047421
 20
118.5330987958
 10
208.9383904432
 20
118.5380785327
  0
LWPOLYLINE
  5
39E
100
AcDbEntity
  8
0
100
AcDbPolyline
 62
250
  6
CONTINUOUS
 90
34
 70
0
 10
206.8899236836
 20
117.1643753841
 10
206.8855030711
 20
117.1712942972
 10
206.8806957745
 20
117.1783982462
 10
206.8755126439
 20
117.1856711973
 10
206.8699653809
 20
117.193096731
 10
206.8640665031
 20
117.2006580918
 10
206.8578293138
 20
117.2083382264
 10
206.85126788
 20
117.2161198111
 10
206.8443970175
 20
117.2239852731
 10
206.8372322488
 20
117.2319168426
 10
206.8297897522
 20
117.2398966106
 10
206.8220863201
 20
117.2479065731
 10
206.8141393365
 20
117.2559286546
 10
206.8059667371
 20
117.26394475
 10
206.7975869689
 20
117.2719367656
 10
206.7890189453
 20
117.2798866632
 10
206.7802820051
 20
117.2877764994
 10
206.7713958675
 20
117.2955884668
 10
206.7623805878
 20
117.3033049345
 10
206.7532565154
 20
117.3109084849
 10
206.7440442421
 20
117.3183819577
 10
206.7347645546
 20
117.3257084898
 10
206.7254383856
 20
117.3328715532
 10
206.7160867963
 20
117.339854971
 10
206.7067309224
 20
117.3466429605
 10
206.6973918975
 20
117.3532201903
 10
206.6880907827
 20
117.3595718299
 10
206.6788485479
 20
117.3656835598
 10
206.6696858215
 20
117.371541731
 10
206.6606235204
 20
117.3771329629
 10
206.6516827527
 20
117.3824442546
 10
206.6428838811
 20
117.3874635632
 10
206.6342465046
 20
117.3921797628
 10
206.6257900716
 20
117.3965822817
  0
LWPOLYLINE
  5
39F
100
AcDbEntity
  8
0
100
AcDbPolyline
 62
250
  6
CONTINUOUS
 90
14
 70
0
 10
180.773527821
 20
174.1190888985
 10
180.7782318909
 20
174.1081895062
 10
180.7825958128
 20
174.0971917075
 10
180.7866096964
 20
174.0861204229
 10
180.7902644426
 20
174.0750007468
 10
180.793551769
 20
174.0638578761
 10
180.7964642266
 20
174.0527170576
 10
180.7989952147
 20
174.0416035383
 10
180.8011389989
 20
174.0305424948
 10
180.8028907197
 20
174.0195589953
 10
180.8042464055
 20
174.0086779459
 10
180.8052029856
 20
173.9979240073
 10
180.8057582949
 20
173.9873215396
 10
180.8059110768
 20
173.9768945658
  0
LWPOLYLINE
  5
3A0
100
AcDbEntity
  8
0
100
AcDbPolyline
 62
250
  6
CONTINUOUS
 90
4
 70
0
 10
188.8766445834
 20
167.3324548776
 10
188.8754906758
 20
167.338356828
 10
188.8748978939
 20
167.3442795047
 10
188.8748115748
 20
167.3475640172
  0
LWPOLYLINE
  5
3A1
100
AcDbEntity
  8
0
100
AcDbPolyline
 62
7
  6
CONTINUOUS
 90
5
 70
0
 10
193.9889387622
 20
172.0273073937
 10
193.9887397262
 20
172.0293805159
 10
193.9878335427
 20
172.0318113192
 10
193.9862258469
 20
172.0337754027
 10
193.9839238723
 20
172.0353157689
  0
LINE
  5
3A2
100
AcDbEntity
  8
0
100
AcDbLine
 62
7
  6
CONTINUOUS
 10
196.1875464818
 20
164.1563537964
 11
196.1875464818
 21
165.7585044574
  0
LINE
  5
3A3
100
AcDbEntity
  8
0
100
AcDbLine
 62
250
  6
CONTINUOUS
 10
196.7158136535
 20
166.0219432774
 11
196.7158136535
 21
165.6744117607
  0
LINE
  5
3A4
100
AcDbEntity
  8
0
100
AcDbLine
 62
7
  6
CONTINUOUS
 10
196.7880115105
 20
166.1098159096
 11
196.7880115105
 21
165.7622843929
  0
LINE
  5
3A5
100
AcDbEntity
  8
0
100
AcDbLine
 62
7
  6
CONTINUOUS
 10
197.1129560377
 20
164.0110719101
 11
197.1129560377
 21
162.5649091444
  0
LINE
  5
3A6
100
AcDbEntity
  8
0
100
AcDbLine
 62
7
  6
CONTINUOUS
 10
197.7785367394
 20
162.2321187935
 11
197.7785367394
 21
163.6782815593
  0
LINE
  5
3A7
100
AcDbEntity
  8
0
100
AcDbLine
 62
7
  6
CONTINUOUS
 10
198.4856435206
 20
163.864673004
 11
198.4856435206
 21
162.6310586523
  0
LINE
  5
3A8
100
AcDbEntity
  8
RACCORDO
100
AcDbLine
 62
250
  6
CONTINUOUS
 10
199.2280308431
 20
159.9598627687
 11
199.2280308431
 21
159.7610328758
  0
LWPOLYLINE
  5
3A9
100
AcDbEntity
  8
0
100
AcDbPolyline
 62
7
  6
CONTINUOUS
 90
34
 70
0
 10
198.4856435206
 20
163.864673004
 10
198.4858047865
 20
163.8729907213
 10
198.4862808686
 20
163.8814133941
 10
198.487071767
 20
163.8899410223
 10
198.4881812864
 20
163.898596125
 10
198.4896056221
 20
163.907356183
 10
198.4913333597
 20
163.9161536395
 10
198.4933646653
 20
163.9249813933
 10
198.4956993727
 20
163.9338465455
 10
198.4983255692
 20
163.942702842
 10
198.5012485395
 20
163.9515601469
 10
198.5044629988
 20
163.960408596
 10
198.5079411805
 20
163.9691723425
 10
198.511679955
 20
163.9778393203
 10
198.5156824518
 20
163.9864215956
 10
198.5199302926
 20
163.9948795195
 10
198.5244314266
 20
164.0032242531
 10
198.5291779046
 20
164.0114446354
 10
198.5341275002
 20
164.0194675349
 10
198.5392743921
 20
164.0272802636
 10
198.5446244016
 20
164.0348955095
 10
198.550152766
 20
164.0422782056
 10
198.5558680412
 20
164.0494365238
 10
198.5617616712
 20
164.0563622923
 10
198.5677832255
 20
164.0629959286
 10
198.5739268382
 20
164.0693279855
 10
198.5801983753
 20
164.0753679104
 10
198.5865650036
 20
164.0810844622
 10
198.5930325896
 20
164.0864804126
 10
198.5995952669
 20
164.0915529901
 10
198.6062026024
 20
164.0962626387
 10
198.6128377851
 20
164.1005961732
 10
198.6195176261
 20
164.104566779
 10
198.6262421254
 20
164.1081744559
  0
LINE
  5
3AA
100
AcDbEntity
  8
0
100
AcDbLine
 62
250
  6
CONTINUOUS
 10
196.7880115105
 20
165.7622843929
 11
196.7879574173
 21
165.7596842161
  0
LWPOLYLINE
  5
3AB
100
AcDbEntity
  8
0
100
AcDbPolyline
 62
250
  6
CONTINUOUS
 90
18
 70
0
 10
196.7880115105
 20
166.1098159096
 10
196.7879568309
 20
166.1072016797
 10
196.7874278579
 20
166.1012794345
 10
196.7863379195
 20
166.0953764271
 10
196.7846894724
 20
166.0895059174
 10
196.7824862141
 20
166.0836810703
 10
196.779733067
 20
166.0779149334
 10
196.7764362367
 20
166.0722205311
 10
196.7726032221
 20
166.0666107917
 10
196.7682427361
 20
166.0610984005
 10
196.7633645665
 20
166.0556956727
 10
196.7579796064
 20
166.0504146538
 10
196.7520990454
 20
166.0452664568
 10
196.7457368835
 20
166.0402634665
 10
196.7389104827
 20
166.0354189961
 10
196.7316368616
 20
166.030744386
 10
196.7239319736
 20
166.0262491976
 10
196.7158136535
 20
166.0219432774
  0
LWPOLYLINE
  5
3AC
100
AcDbEntity
  8
0
100
AcDbPolyline
 62
250
  6
CONTINUOUS
 90
20
 70
0
 10
204.8914165808
 20
159.7852085536
 10
204.8964253888
 20
159.7959469367
 10
204.9017473074
 20
159.8065417499
 10
204.9073703678
 20
159.8169691696
 10
204.9132819185
 20
159.8272057384
 10
204.9194686502
 20
159.8372284153
 10
204.9259166268
 20
159.8470146333
 10
204.9326113601
 20
159.8565424131
 10
204.9395378363
 20
159.8657903881
 10
204.9466805467
 20
159.8747378385
 10
204.9540233642
 20
159.8833645493
 10
204.9615496109
 20
159.8916509397
 10
204.9692422451
 20
159.8995782882
 10
204.9770840577
 20
159.9071289011
 10
204.9850575567
 20
159.9142859504
 10
204.9931460342
 20
159.9210343234
 10
205.0013301054
 20
159.9273577333
 10
205.0095877763
 20
159.9332395092
 10
205.0178991969
 20
159.9386662593
 10
205.0262468293
 20
159.9436272733
  0
LWPOLYLINE
  5
3AD
100
AcDbEntity
  8
RACCORDO
100
AcDbPolyline
 62
250
  6
CONTINUOUS
 90
13
 70
0
 10
202.4702434361
 20
143.3841713587
 10
202.4208488257
 20
143.3646421409
 10
202.3665768679
 20
143.3484364782
 10
202.3083255232
 20
143.3358225025
 10
202.2470585933
 20
143.3270089193
 10
202.1837897745
 20
143.3221415543
 10
202.1195658854
 20
143.3213009408
 10
202.0554495468
 20
143.3245009873
 10
201.9925016002
 20
143.3316887471
 10
201.9317635552
 20
143.3427452947
 10
201.8742403572
 20
143.3574876932
 10
201.8208837605
 20
143.3756720213
 10
201.7725765802
 20
143.3969974088
  0
LINE
  5
3AE
100
AcDbEntity
  8
DRAFT
100
AcDbLine
 62
7
  6
CONTINUOUS
 10
206.4052394699
 20
137.4576398795
 11
206.9685534743
 21
137.1759828773
  0
LWPOLYLINE
  5
3AF
100
AcDbEntity
  8
ASSI
100
AcDbPolyline
 62
7
  6
CONTINUOUS
 90
9
 70
0
 10
179.5643414181
 20
169.5918536167
 10
179.5603523773
 20
169.5987336945
 10
179.4973966695
 20
169.6928438269
 10
179.4293061675
 20
169.7808655479
 10
179.3562431203
 20
169.8629912391
 10
179.2805658514
 20
169.9365700537
 10
179.2030604687
 20
170.000718376
 10
179.1229408642
 20
170.0563198216
 10
179.040207038
 20
170.1033743906
  0
LWPOLYLINE
  5
3B0
100
AcDbEntity
  8
0
100
AcDbPolyline
 62
250
  6
CONTINUOUS
 90
4
 70
0
 10
192.4838228335
 20
165.5288388502
 10
192.4826663373
 20
165.5347384595
 10
192.4820705389
 20
165.5406588537
 10
192.4819823562
 20
165.5439786265
  0
LWPOLYLINE
  5
3B1
100
AcDbEntity
  8
RACCORDO
100
AcDbPolyline
 62
250
  6
CONTINUOUS
 90
15
 70
0
 10
202.4836689035
 20
117.1952746177
 10
202.4888697367
 20
117.1612392013
 10
202.4956758852
 20
117.1267235712
 10
202.5042455628
 20
117.0919283549
 10
202.5147746741
 20
117.0569576324
 10
202.5273939457
 20
117.0221822859
 10
202.5421111352
 20
116.9881868738
 10
202.5590286048
 20
116.9551946528
 10
202.5782310634
 20
116.923458293
 10
202.5995834088
 20
116.8935126859
 10
202.6231097415
 20
116.8655436031
 10
202.6488079067
 20
116.8397569562
 10
202.6763786785
 20
116.8165738696
 10
202.7057574999
 20
116.7960995411
 10
202.7385477867
 20
116.7775873934
  0
LWPOLYLINE
  5
3B2
100
AcDbEntity
  8
RACCORDO
100
AcDbPolyline
 62
250
  6
CONTINUOUS
 90
5
 70
0
 10
202.7283548747
 20
121.483069361
 10
202.8204630843
 20
120.4132292627
 10
202.9260124683
 20
119.3517206613
 10
203.0450199432
 20
118.2983123249
 10
203.1774855091
 20
117.2530042534
  0
LWPOLYLINE
  5
3B3
100
AcDbEntity
  8
RACCORDO
100
AcDbPolyline
 62
250
  6
CONTINUOUS
 90
6
 70
0
 10
201.9530149221
 20
122.5328213344
 10
202.0320803076
 20
121.4490418816
 10
202.1246986911
 20
120.3731742946
 10
202.2308508659
 20
119.3054427366
 10
202.3505156999
 20
118.2460693424
 10
202.4836689035
 20
117.1952746177
  0
LINE
  5
3B4
100
AcDbEntity
  8
RACCORDO
100
AcDbLine
 62
250
  6
CONTINUOUS
 10
201.8875198195
 20
123.6242865123
 11
201.9530149221
 21
122.5328213344
  0
LWPOLYLINE
  5
3B5
100
AcDbEntity
  8
RACCORDO
100
AcDbPolyline
 62
250
  6
CONTINUOUS
 90
4
 70
0
 10
202.5329479568
 20
124.7388789252
 10
202.5845634779
 20
123.6463566563
 10
202.6497047561
 20
122.5610097243
 10
202.7283548747
 20
121.483069361
  0
LINE
  5
3B6
100
AcDbEntity
  8
RACCORDO
100
AcDbLine
 62
250
  6
CONTINUOUS
 10
202.4948412762
 20
125.8388077629
 11
202.5329479568
 21
124.7388789252
  0
LWPOLYLINE
  5
3B7
100
AcDbEntity
  8
RACCORDO
100
AcDbPolyline
 62
250
  6
CONTINUOUS
 90
4
 70
0
 10
201.7725765798
 20
126.9425147367
 10
201.7972917034
 20
125.8293628328
 10
201.835608707
 20
124.7232099365
 10
201.8875198195
 20
123.6242865123
  0
LINE
  5
3B8
100
AcDbEntity
  8
RACCORDO
100
AcDbLine
 62
250
  6
CONTINUOUS
 10
202.4702434361
 20
126.9461431695
 11
202.4948412762
 21
125.8388077629
  0
LINE
  5
3B9
100
AcDbEntity
  8
RACCORDO
100
AcDbLine
 62
250
  6
CONTINUOUS
 10
202.4443952155
 20
128.7603002297
 11
202.4702434361
 21
126.9461431695
  0
LWPOLYLINE
  5
3BA
100
AcDbEntity
  8
RACCORDO
100
AcDbPolyline
 62
250
  6
CONTINUOUS
 90
4
 70
0
 10
201.7143613253
 20
132.3996829735
 10
201.7272977988
 20
130.5775023392
 10
201.7467028677
 20
128.7584353843
 10
201.7725765798
 20
126.9425147367
  0
LINE
  5
3BB
100
AcDbEntity
  8
DRAFT
100
AcDbLine
 62
7
  6
CONTINUOUS
 10
199.5029990133
 20
159.6225248191
 11
199.5029990133
 21
160.1333739373
  0
LINE
  5
3BC
100
AcDbEntity
  8
0
100
AcDbLine
 62
250
  6
CONTINUOUS
 10
200.1119891173
 20
161.8178858539
 11
200.1119891173
 21
163.0515002056
  0
LINE
  5
3BD
100
AcDbEntity
  8
0
100
AcDbLine
 62
250
  6
CONTINUOUS
 10
200.3948318298
 20
161.8269631476
 11
200.3948318298
 21
163.0515002056
  0
LINE
  5
3BE
100
AcDbEntity
  8
0
100
AcDbLine
 62
7
  6
CONTINUOUS
 10
201.3140706454
 20
162.295663956
 11
201.3140706454
 21
163.5075927415
  0
LINE
  5
3BF
100
AcDbEntity
  8
0
100
AcDbLine
 62
7
  6
CONTINUOUS
 10
201.7504667484
 20
162.2736827463
 11
201.7504667484
 21
161.0427270724
  0
LINE
  5
3C0
100
AcDbEntity
  8
0
100
AcDbLine
 62
250
  6
CONTINUOUS
 10
201.8090453922
 20
162.2029720682
 11
201.8090453922
 21
160.9693577165
  0
LINE
  5
3C1
100
AcDbEntity
  8
0
100
AcDbLine
 62
7
  6
CONTINUOUS
 10
202.7282842077
 20
161.2034078251
 11
202.7282842077
 21
159.7572450593
  0
LWPOLYLINE
  5
3C2
100
AcDbEntity
  8
RACCORDO
100
AcDbPolyline
 62
250
  6
CONTINUOUS
 90
4
 70
0
 10
201.7143613137
 20
137.8845798709
 10
201.7078933256
 20
136.0532046703
 10
201.70789333
 20
134.2249197334
 10
201.7143613253
 20
132.3996829735
  0
LWPOLYLINE
  5
3C3
100
AcDbEntity
  8
RACCORDO
100
AcDbPolyline
 62
250
  6
CONTINUOUS
 90
4
 70
0
 10
201.7725765798
 20
143.3969974086
 10
201.7467028558
 20
141.5565212472
 10
201.7272977839
 20
139.7190378749
 10
201.7143613137
 20
137.8845798709
  0
LWPOLYLINE
  5
3C4
100
AcDbEntity
  8
RACCORDO
100
AcDbPolyline
 62
250
  6
CONTINUOUS
 90
9
 70
0
 10
202.4702434361
 20
143.3841713587
 10
202.4443951985
 20
141.545483049
 10
202.4250090224
 20
139.7098486996
 10
202.4120849079
 20
137.8772683107
 10
202.4056228577
 20
136.0477335849
 10
202.405622869
 20
134.2212528196
 10
202.4120849333
 20
132.3978509062
 10
202.4250090479
 20
130.5775361419
 10
202.4443952155
 20
128.7603002297
  0
LWPOLYLINE
  5
3C5
100
AcDbEntity
  8
0
100
AcDbPolyline
 62
250
  6
CONTINUOUS
 90
34
 70
0
 10
200.1119891173
 20
163.0515002056
 10
200.1121481606
 20
163.0597918156
 10
200.1126249337
 20
163.0682238333
 10
200.1134183658
 20
163.0767772938
 10
200.1145266748
 20
163.0854329652
 10
200.1159473689
 20
163.0941713733
 10
200.1176772502
 20
163.1029728448
 10
200.1197124259
 20
163.1118175776
 10
200.122048319
 20
163.1206856831
 10
200.1246796744
 20
163.1295572126
 10
200.1276005735
 20
163.1384122139
 10
200.1308044455
 20
163.1472307683
 10
200.1342840803
 20
163.1559930332
 10
200.1380316492
 20
163.1646792987
 10
200.1420387227
 20
163.17327003
 10
200.1462962864
 20
163.1817459046
 10
200.1507947661
 20
163.1900878649
 10
200.1555240399
 20
163.1982771431
 10
200.1604734586
 20
163.2062953036
 10
200.1656318724
 20
163.2141242921
 10
200.1709876911
 20
163.2217465258
 10
200.1765289031
 20
163.2291449113
 10
200.1822430975
 20
163.2363028679
 10
200.1881173758
 20
163.2432042289
 10
200.1941384072
 20
163.2498333423
 10
200.2002925663
 20
163.2561752364
 10
200.206566079
 20
163.2622157468
 10
200.2129449424
 20
163.2679414007
 10
200.219415825
 20
163.2733401362
 10
200.2259631843
 20
163.278398891
 10
200.2325693057
 20
163.2831042472
 10
200.239218267
 20
163.2874454855
 10
200.2458960759
 20
163.2914140871
 10
200.2525877221
 20
163.2950016576
  0
LWPOLYLINE
  5
3C6
100
AcDbEntity
  8
0
100
AcDbPolyline
 62
250
  6
CONTINUOUS
 90
10
 70
0
 10
201.8090453922
 20
162.2029720682
 10
201.8092038445
 20
162.2112481214
 10
201.8096791317
 20
162.2196679023
 10
201.8104706149
 20
162.2282127025
 10
201.8115771324
 20
162.2368647958
 10
201.8129965248
 20
162.2456035861
 10
201.8147251713
 20
162.254405541
 10
201.8167588425
 20
162.2632494797
 10
201.81909321
 20
162.2721168792
 10
201.8217230716
 20
162.280987951
  0
LINE
  5
3C7
100
AcDbEntity
  8
RACCORDO
100
AcDbLine
 62
250
  6
CONTINUOUS
 10
202.4948406503
 20
144.5148349466
 11
202.4702434361
 21
143.3841713587
  0
LWPOLYLINE
  5
3C8
100
AcDbEntity
  8
RACCORDO
100
AcDbPolyline
 62
250
  6
CONTINUOUS
 90
3
 70
0
 10
201.8356087065
 20
145.6761341335
 10
201.797291703
 20
144.533609034
 10
201.7725765798
 20
143.3969974086
  0
LWPOLYLINE
  5
3C9
100
AcDbEntity
  8
RACCORDO
100
AcDbPolyline
 62
250
  6
CONTINUOUS
 90
5
 70
0
 10
202.7283521735
 20
149.0921476082
 10
202.6497025334
 20
147.9395712482
 10
202.5845618005
 20
146.7924112711
 10
202.5329467717
 20
145.6509149174
 10
202.4948406503
 20
144.5148349466
  0
LINE
  5
3CA
100
AcDbEntity
  8
RACCORDO
100
AcDbLine
 62
250
  6
CONTINUOUS
 10
202.8204603302
 20
150.2493986298
 11
202.7283521735
 21
149.0921476082
  0
LWPOLYLINE
  5
3CB
100
AcDbEntity
  8
RACCORDO
100
AcDbPolyline
 62
250
  6
CONTINUOUS
 90
8
 70
0
 10
202.4836689035
 20
153.8192354456
 10
202.3505157011
 20
152.6420480833
 10
202.2308508677
 20
151.4690835283
 10
202.1246986931
 20
150.3005865761
 10
202.0320803091
 20
149.1368013285
 10
201.9530149226
 20
147.9779703204
 10
201.8875198194
 20
146.8243344718
 10
201.8356087065
 20
145.6761341335
  0
LWPOLYLINE
  5
3CC
100
AcDbEntity
  8
RACCORDO
100
AcDbPolyline
 62
250
  6
CONTINUOUS
 90
4
 70
0
 10
203.1774855091
 20
153.7484579422
 10
203.0450185996
 20
152.5774301765
 10
202.9260102066
 20
151.4110770724
 10
202.8204603302
 20
150.2493986298
  0
LWPOLYLINE
  5
3CD
100
AcDbEntity
  8
0
100
AcDbPolyline
 62
250
  6
CONTINUOUS
 90
30
 70
0
 10
206.8899236836
 20
158.4639795235
 10
206.8855031581
 20
158.4530880287
 10
206.8806959628
 20
158.4424217598
 10
206.8755129472
 20
158.43200479
 10
206.8699658091
 20
158.4218606298
 10
206.8640670681
 20
158.4120121739
 10
206.8578300373
 20
158.4024816497
 10
206.8512687932
 20
158.393290567
 10
206.8443981443
 20
158.3844596696
 10
206.8372335971
 20
158.3760088883
 10
206.8297913217
 20
158.3679572959
 10
206.8220881148
 20
158.3603230646
 10
206.814141362
 20
158.3531234242
 10
206.8059689989
 20
158.3463746239
 10
206.7975894698
 20
158.3400918954
 10
206.7890216868
 20
158.3342894185
 10
206.7802849871
 20
158.3289802889
 10
206.7713990887
 20
158.3241764891
 10
206.7623840467
 20
158.319888861
 10
206.7532602074
 20
158.3161270814
 10
206.7440481628
 20
158.3128996405
 10
206.734768704
 20
158.3102138225
 10
206.7254427741
 20
158.308075689
 10
206.7160914212
 20
158.3064900658
 10
206.7067357508
 20
158.3054605314
 10
206.697396878
 20
158.3049894095
 10
206.6880958803
 20
158.3050777633
 10
206.6788537492
 20
158.3057253935
 10
206.6696913439
 20
158.3069308384
 10
206.6630801901
 20
158.3081583627
  0
LINE
  5
3CE
100
AcDbEntity
  8
RACCORDO
100
AcDbLine
 62
7
  6
CONTINUOUS
 10
219.417174645
 20
148.3013604537
 11
226.616677651
 21
152.0653543478
  0
LINE
  5
3CF
100
AcDbEntity
  8
DRAFT
100
AcDbLine
 62
7
  6
CONTINUOUS
 10
225.0021478151
 20
150.5795786315
 11
218.7674930383
 21
147.4565737908
  0
LINE
  5
3D0
100
AcDbEntity
  8
DRAFT
100
AcDbLine
 62
7
  6
CONTINUOUS
 10
226.0628079869
 20
151.0985721835
 11
225.0021478151
 21
150.5795786315
  0
LINE
  5
3D1
100
AcDbEntity
  8
RACCORDO
100
AcDbLine
 62
250
  6
CONTINUOUS
 10
222.7133151582
 20
149.4330780275
 11
218.8415251017
 21
147.6449570727
  0
LINE
  5
3D2
100
AcDbEntity
  8
RACCORDO
100
AcDbLine
 62
250
  6
CONTINUOUS
 10
171.3554348742
 20
158.6055682614
 11
201.7725765798
 21
143.3969974086
  0
LWPOLYLINE
  5
3D3
100
AcDbEntity
  8
0
100
AcDbPolyline
 62
250
  6
CONTINUOUS
 90
16
 70
0
 10
180.8059110768
 20
173.629363049
 10
180.8098837906
 20
173.6226681739
 10
180.8134462492
 20
173.616186732
 10
180.8165904125
 20
173.6099333516
 10
180.8193091841
 20
173.6039221463
 10
180.8215964282
 20
173.5981666829
 10
180.8234469823
 20
173.5926799512
 10
180.8248566701
 20
173.5874743344
 10
180.8258223098
 20
173.5825615813
 10
180.8263417221
 20
173.5779527797
 10
180.8264137347
 20
173.5736583314
 10
180.8260381851
 20
173.5696879287
 10
180.8252159209
 20
173.5660505326
 10
180.8239487978
 20
173.5627543524
 10
180.8222396757
 20
173.5598068274
 10
180.8212716492
 20
173.5585278825
  0
LWPOLYLINE
  5
3D4
100
AcDbEntity
  8
RACCORDO
100
AcDbPolyline
 62
250
  6
CONTINUOUS
 90
28
 70
0
 10
203.1774855091
 20
117.2530042534
 10
203.1799862232
 20
117.2357877261
 10
203.1834596162
 20
117.218542958
 10
203.187905688
 20
117.201269949
 10
203.1932809363
 20
117.183793807
 10
203.1996288635
 20
117.1662894241
 10
203.2070799762
 20
117.1492814768
 10
203.2156830476
 20
117.1327843463
 10
203.2253893045
 20
117.1167836514
 10
203.2361829336
 20
117.1017609241
 10
203.2481192903
 20
117.0877568153
 10
203.2611430191
 20
117.074730674
 10
203.2750722401
 20
117.0630420799
 10
203.2899543275
 20
117.0527570669
 10
203.305741907
 20
117.043809601
 10
203.3221109761
 20
117.0363611598
 10
203.3390871742
 20
117.0304878017
 10
203.3566448618
 20
117.0261134682
 10
203.3743831184
 20
117.0231714617
 10
203.3923030337
 20
117.0217281794
 10
203.4104035181
 20
117.0217172242
 10
203.4282803816
 20
117.0228727063
 10
203.4459194123
 20
117.0252408091
 10
203.4633348221
 20
117.0287753491
 10
203.4801650568
 20
117.0330718871
 10
203.4962895984
 20
117.0379956098
 10
203.511828965
 20
117.0436813304
 10
203.5267831565
 20
117.050129049
  0
LINE
  5
3D5
100
AcDbEntity
  8
0
100
AcDbLine
 62
7
  6
CONTINUOUS
 10
206.9685534743
 20
137.1759828773
 11
208.1185200619
 21
123.355216087
  0
LWPOLYLINE
  5
3D6
100
AcDbEntity
  8
RACCORDO
100
AcDbPolyline
 62
250
  6
CONTINUOUS
 90
13
 70
0
 10
203.5267831565
 20
154.2828042371
 10
203.5226029788
 20
154.3402423959
 10
203.5126104258
 20
154.3997987663
 10
203.4969763232
 20
154.4604552107
 10
203.4759679406
 20
154.5211747849
 10
203.4499444234
 20
154.5809194653
 10
203.4193506527
 20
154.6386678937
 10
203.3847096399
 20
154.6934328391
 10
203.3466135854
 20
154.7442780736
 10
203.3057137558
 20
154.7903343776
 10
203.262709349
 20
154.8308144005
 10
203.2183355413
 20
154.8650261206
 10
203.1733509198
 20
154.8923846747
  0
LWPOLYLINE
  5
3D7
100
AcDbEntity
  8
0
100
AcDbPolyline
 62
250
  6
CONTINUOUS
 90
20
 70
0
 10
206.5374017239
 20
116.8249141738
 10
206.5376005267
 20
116.8147484983
 10
206.538196489
 20
116.8048044758
 10
206.5391882722
 20
116.7951044733
 10
206.5405736482
 20
116.7856703035
 10
206.5423495023
 20
116.7765231933
 10
206.5445118374
 20
116.7676837344
 10
206.5470557881
 20
116.7591718129
 10
206.5499756328
 20
116.7510065686
 10
206.5532648028
 20
116.7432063688
 10
206.5569158997
 20
116.735788756
 10
206.5609207103
 20
116.7287704141
 10
206.5652702225
 20
116.7221671331
 10
206.5699546512
 20
116.7159937641
 10
206.5749634593
 20
116.710264189
 10
206.5802853778
 20
116.7049912944
 10
206.5859084382
 20
116.700186935
 10
206.5918199889
 20
116.695861917
 10
206.5980067207
 20
116.6920259718
 10
206.6022151624
 20
116.6897758433
  0
LWPOLYLINE
  5
3D8
100
AcDbEntity
  8
0
100
AcDbPolyline
 62
250
  6
CONTINUOUS
 90
19
 70
0
 10
204.8588636535
 20
159.3037612825
 10
204.8590319494
 20
159.2944003321
 10
204.8595365166
 20
159.2852255011
 10
204.8603763944
 20
159.2762542589
 10
204.8615499802
 20
159.2675037101
 10
204.8630550411
 20
159.2589904921
 10
204.8648887275
 20
159.2507307493
 10
204.8670475715
 20
159.2427401616
 10
204.8695274589
 20
159.235034008
 10
204.8723236387
 20
159.2276270591
 10
204.8754307612
 20
159.2205334597
 10
204.8788429233
 20
159.2137666635
 10
204.8825536513
 20
159.2073395064
 10
204.886555912
 20
159.2012641865
 10
204.8908420612
 20
159.1955523227
 10
204.8954038707
 20
159.1902148697
 10
204.9002326002
 20
159.1852620196
 10
204.905319086
 20
159.1807031392
 10
204.910653701
 20
159.1765468461
  0
LWPOLYLINE
  5
3D9
100
AcDbEntity
  8
0
100
AcDbPolyline
 62
250
  6
CONTINUOUS
 90
22
 70
0
 10
206.5374017239
 20
158.4644922473
 10
206.5375700198
 20
158.4551312969
 10
206.538074587
 20
158.4459564659
 10
206.5389144649
 20
158.4369852237
 10
206.5400880506
 20
158.4282346749
 10
206.5415931115
 20
158.4197214569
 10
206.5434267979
 20
158.4114617141
 10
206.5455856419
 20
158.4034711264
 10
206.5480655293
 20
158.3957649728
 10
206.5508617091
 20
158.3883580239
 10
206.5539688316
 20
158.3812644245
 10
206.5573809937
 20
158.3744976283
 10
206.5610917217
 20
158.3680704712
 10
206.5650939825
 20
158.3619951513
 10
206.5693801316
 20
158.3562832875
 10
206.5739419411
 20
158.3509458345
 10
206.5787706706
 20
158.3459929844
 10
206.5838571564
 20
158.341434104
 10
206.5891917714
 20
158.3372778109
 10
206.5947650416
 20
158.3335315939
 10
206.6005657275
 20
158.3302031111
 10
206.602366975
 20
158.3292778204
  0
LINE
  5
3DA
100
AcDbEntity
  8
0
100
AcDbLine
 62
7
  6
CONTINUOUS
 10
203.3938649095
 20
159.4244547085
 11
203.3938649095
 21
160.8706174742
  0
LINE
  5
3DB
100
AcDbEntity
  8
DRAFT
100
AcDbLine
 62
7
  6
CONTINUOUS
 10
203.6121676842
 20
170.6459801817
 11
203.6121676842
 21
170.6322153304
  0
LINE
  5
3DC
100
AcDbEntity
  8
0
100
AcDbLine
 62
250
  6
CONTINUOUS
 10
204.1757015883
 20
166.8447125211
 11
204.1757015883
 21
165.4607564181
  0
LINE
  5
3DD
100
AcDbEntity
  8
0
100
AcDbLine
 62
7
  6
CONTINUOUS
 10
204.3083947259
 20
166.8675812814
 11
204.3083947259
 21
165.6193171587
  0
LINE
  5
3DE
100
AcDbEntity
  8
0
100
AcDbLine
 62
7
  6
CONTINUOUS
 10
204.4606958216
 20
160.0197791265
 11
204.4606958216
 21
161.4054197725
  0
LINE
  5
3DF
100
AcDbEntity
  8
0
100
AcDbLine
 62
7
  6
CONTINUOUS
 10
204.7856403488
 20
159.7321235643
 11
204.7856403488
 21
159.3921496302
  0
LINE
  5
3E0
100
AcDbEntity
  8
0
100
AcDbLine
 62
250
  6
CONTINUOUS
 10
204.8588636535
 20
159.6437352166
 11
204.8588636535
 21
159.3037612825
  0
LINE
  5
3E1
100
AcDbEntity
  8
DRAFT
100
AcDbLine
 62
250
  6
CONTINUOUS
 10
204.9203152294
 20
165.8277576005
 11
204.9203152294
 21
164.6019859014
  0
LINE
  5
3E2
100
AcDbEntity
  8
0
100
AcDbLine
 62
7
  6
CONTINUOUS
 10
205.4886333031
 20
158.8861446558
 11
205.4886333031
 21
158.4321705542
  0
LINE
  5
3E3
100
AcDbEntity
  8
0
100
AcDbLine
 62
250
  6
CONTINUOUS
 10
205.5618566078
 20
158.8495330035
 11
205.5618566078
 21
158.3404588593
  0
LINE
  5
3E4
100
AcDbEntity
  8
0
100
AcDbLine
 62
7
  6
CONTINUOUS
 10
205.8862410557
 20
165.3942794807
 11
205.8862410557
 21
165.9528037507
  0
LINE
  5
3E5
100
AcDbEntity
  8
DRAFT
100
AcDbLine
 62
250
  6
CONTINUOUS
 10
206.3345287918
 20
165.2648699582
 11
206.3345287918
 21
164.7411835681
  0
LINE
  5
3E6
100
AcDbEntity
  8
0
100
AcDbLine
 62
7
  6
CONTINUOUS
 10
206.4052394699
 20
118.3259460628
 11
206.4052394699
 21
155.7385402716
  0
LINE
  5
3E7
100
AcDbEntity
  8
0
100
AcDbLine
 62
250
  6
CONTINUOUS
 10
206.5374017239
 20
116.8249141738
 11
206.5374017239
 21
117.1648881079
  0
LINE
  5
3E8
100
AcDbEntity
  8
0
100
AcDbLine
 62
250
  6
CONTINUOUS
 10
206.5374017239
 20
158.4644922473
 11
206.5374017239
 21
158.8044661814
  0
LINE
  5
3E9
100
AcDbEntity
  8
DRAFT
100
AcDbLine
 62
7
  6
CONTINUOUS
 10
206.6173715043
 20
168.9673665616
 11
206.6173715043
 21
168.9573136062
  0
LWPOLYLINE
  5
3EA
100
AcDbEntity
  8
0
100
AcDbPolyline
 62
250
  6
CONTINUOUS
 90
14
 70
0
 10
204.8588636535
 20
159.6437352166
 10
204.8590624563
 20
159.6540996949
 10
204.8596584186
 20
159.6646396797
 10
204.8606502018
 20
159.6753314653
 10
204.8620355778
 20
159.6861510112
 10
204.8638114319
 20
159.6970739755
 10
204.865973767
 20
159.7080757695
 10
204.8685177176
 20
159.7191316417
 10
204.8714375624
 20
159.7302167307
 10
204.8747267324
 20
159.7413061004
 10
204.8783778293
 20
159.7523748103
 10
204.8823826399
 20
159.7633979627
 10
204.8867321521
 20
159.7743507559
 10
204.8914165808
 20
159.7852085536
  0
LWPOLYLINE
  5
3EB
100
AcDbEntity
  8
0
100
AcDbPolyline
 62
250
  6
CONTINUOUS
 90
34
 70
0
 10
206.5374017239
 20
158.8044661814
 10
206.5376005267
 20
158.8148306596
 10
206.538196489
 20
158.8253706445
 10
206.5391882722
 20
158.8360624301
 10
206.5405736482
 20
158.846881976
 10
206.5423495023
 20
158.8578049403
 10
206.5445118374
 20
158.8688067343
 10
206.5470557881
 20
158.8798626065
 10
206.5499756328
 20
158.8909476955
 10
206.5532648028
 20
158.9020370652
 10
206.5569158997
 20
158.9131057751
 10
206.5609207103
 20
158.9241289275
 10
206.5652702225
 20
158.9350817207
 10
206.5699546512
 20
158.9459395184
 10
206.5749634593
 20
158.9566779015
 10
206.5802853778
 20
158.9672727147
 10
206.5859084382
 20
158.9777001344
 10
206.5918199889
 20
158.9879367032
 10
206.5980067207
 20
158.9979593801
 10
206.6044546972
 20
159.0077455981
 10
206.6111494305
 20
159.0172733779
 10
206.6180759067
 20
159.0265213529
 10
206.6252186172
 20
159.0354688033
 10
206.6325614346
 20
159.0440955141
 10
206.6400876813
 20
159.0523819045
 10
206.6477803156
 20
159.060309253
 10
206.6556221282
 20
159.0678598659
 10
206.6635956271
 20
159.0750169151
 10
206.6716841046
 20
159.0817652882
 10
206.6798681759
 20
159.0880886981
 10
206.6881258467
 20
159.093970474
 10
206.6964372673
 20
159.0993972241
 10
206.7047848997
 20
159.1043582381
 10
206.7131499799
 20
159.1088429964
  0
LWPOLYLINE
  5
3EC
100
AcDbEntity
  8
RACCORDO
100
AcDbPolyline
 62
250
  6
CONTINUOUS
 90
8
 70
0
 10
203.5267831565
 20
117.050129049
 10
203.5226029771
 20
116.9946159467
 10
203.5126104201
 20
116.9431519981
 10
203.496976312
 20
116.8966169987
 10
203.4759679236
 20
116.8558064816
 10
203.4499444014
 20
116.8214181179
 10
203.419350627
 20
116.7940397895
 10
203.3852112731
 20
116.7743610032
  0
LWPOLYLINE
  5
3ED
100
AcDbEntity
  8
RACCORDO
100
AcDbPolyline
 62
250
  6
CONTINUOUS
 90
3
 70
0
 10
209.6059800831
 20
161.2920361619
 10
209.6105275283
 20
161.3107164593
 10
209.6195504156
 20
161.3707818409
  0
LINE
  5
3EE
100
AcDbEntity
  8
RACCORDO
100
AcDbLine
 62
7
  6
CONTINUOUS
 10
219.417174645
 20
144.4042461366
 11
226.616677651
 21
148.1682400307
  0
LINE
  5
3EF
100
AcDbEntity
  8
RACCORDO
100
AcDbLine
 62
7
  6
CONTINUOUS
 10
226.616677651
 20
150.1821923946
 11
219.417174645
 21
146.4908826817
  0
LINE
  5
3F0
100
AcDbEntity
  8
RACCORDO
100
AcDbLine
 62
250
  6
CONTINUOUS
 10
223.5525789137
 20
146.2701847263
 11
218.9538600882
 21
143.953094328
  0
LINE
  5
3F1
100
AcDbEntity
  8
DRAFT
100
AcDbLine
 62
7
  6
CONTINUOUS
 10
225.0021478151
 20
146.6824643144
 11
218.7674930383
 21
143.5594594738
  0
LINE
  5
3F2
100
AcDbEntity
  8
DRAFT
100
AcDbLine
 62
7
  6
CONTINUOUS
 10
226.0628079869
 20
147.2014578665
 11
225.0021478151
 21
146.6824643144
  0
LWPOLYLINE
  5
3F3
100
AcDbEntity
  8
0
100
AcDbPolyline
 62
250
  6
CONTINUOUS
 90
11
 70
0
 10
180.7104718038
 20
174.2174186199
 10
180.7178772272
 20
174.2087975283
 10
180.7250792305
 20
174.1998501142
 10
180.7320614332
 20
174.190596741
 10
180.7388080853
 20
174.1810582953
 10
180.7453039439
 20
174.1712563267
 10
180.7515343051
 20
174.1612130132
 10
180.7574850308
 20
174.1509511353
 10
180.7631426244
 20
174.1404939615
 10
180.7684942627
 20
174.1298651903
 10
180.773527821
 20
174.1190888985
  0
LWPOLYLINE
  5
3F4
100
AcDbEntity
  8
0
100
AcDbPolyline
 62
250
  6
CONTINUOUS
 90
14
 70
0
 10
193.077194703
 20
167.9672401134
 10
193.0818975427
 20
167.9563420135
 10
193.0862603028
 20
167.9453455942
 10
193.0902731009
 20
167.934275765
 10
193.093926847
 20
167.9231576014
 10
193.0972132645
 20
167.9120162885
 10
193.100124909
 20
167.900877064
 10
193.102655185
 20
167.8897651607
 10
193.1047983608
 20
167.8787057495
 10
193.1065495816
 20
167.8677238824
 10
193.1079048805
 20
167.856844436
 10
193.1088611875
 20
167.8460920545
 10
193.1094163363
 20
167.8354910944
 10
193.1095690695
 20
167.8250655695
  0
LWPOLYLINE
  5
3F5
100
AcDbEntity
  8
0
100
AcDbPolyline
 62
250
  6
CONTINUOUS
 90
14
 70
0
 10
196.6834392871
 20
166.1641178214
 10
196.6881421267
 20
166.1532197215
 10
196.6925048869
 20
166.1422233022
 10
196.696517685
 20
166.131153473
 10
196.700171431
 20
166.1200353093
 10
196.7034578486
 20
166.1088939965
 10
196.7063694931
 20
166.097754772
 10
196.708899769
 20
166.0866428686
 10
196.7110429448
 20
166.0755834574
 10
196.7127941656
 20
166.0646015904
 10
196.7141494645
 20
166.053722144
 10
196.7151057716
 20
166.0429697624
 10
196.7156609204
 20
166.0323688024
 10
196.7158136535
 20
166.0219432774
  0
LWPOLYLINE
  5
3F6
100
AcDbEntity
  8
0
100
AcDbPolyline
 62
250
  6
CONTINUOUS
 90
11
 70
0
 10
209.0375093671
 20
118.3735420064
 10
209.0358002451
 20
118.3848690604
 10
209.0336529814
 20
118.3960290607
 10
209.0310724223
 20
118.4069968197
 10
209.0280643921
 20
118.4177475838
 10
209.0246356795
 20
118.4282570893
 10
209.0207940232
 20
118.4385016167
 10
209.0165480933
 20
118.4484580447
 10
209.0119074728
 20
118.4581039024
 10
209.0068826353
 20
118.4674174196
 10
209.0014849215
 20
118.4763775762
  0
LWPOLYLINE
  5
3F7
100
AcDbEntity
  8
0
100
AcDbPolyline
 62
7
  6
CONTINUOUS
 90
5
 70
0
 10
204.3083947259
 20
166.8675792564
 10
204.3081496641
 20
166.869865195
 10
204.3071800769
 20
166.8722677018
 10
204.3055056529
 20
166.8742007667
 10
204.3033797545
 20
166.8755867927
  0
LWPOLYLINE
  5
3F8
100
AcDbEntity
  8
0
100
AcDbPolyline
 62
7
  6
CONTINUOUS
 90
43
 70
0
 10
209.198619797
 20
157.2178190927
 10
209.1983749062
 20
157.2340488248
 10
209.1976394161
 20
157.2505308677
 10
209.196411569
 20
157.2672434116
 10
209.1946886416
 20
157.2841777268
 10
209.1924711536
 20
157.3012976014
 10
209.1897668379
 20
157.3185382407
 10
209.1865823625
 20
157.3358650704
 10
209.1829215276
 20
157.3532635911
 10
209.1787932801
 20
157.3706978859
 10
209.1742113621
 20
157.3881208543
 10
209.1691788475
 20
157.4055306888
 10
209.1636861009
 20
157.4229594357
 10
209.1577283225
 20
157.440410168
 10
209.151319557
 20
157.4578304662
 10
209.1444770855
 20
157.4751691064
 10
209.1372085028
 20
157.4924051129
 10
209.1295248232
 20
157.5095104171
 10
209.1214540468
 20
157.5264246494
 10
209.113020814
 20
157.5431034477
 10
209.1042287164
 20
157.5595465291
 10
209.09507551
 20
157.5757602179
 10
209.0855738292
 20
157.5917221112
 10
209.0757370408
 20
157.6074098069
 10
209.0655610744
 20
157.6228275191
 10
209.0550446989
 20
157.6379715915
 10
209.044214197
 20
157.6527987194
 10
209.0331078637
 20
157.6672548429
 10
209.0217446146
 20
157.6813168711
 10
209.0101382248
 20
157.6949690717
 10
208.9983227917
 20
157.7081734999
 10
208.9863356206
 20
157.7208942625
 10
208.9741760763
 20
157.7331377124
 10
208.961820684
 20
157.7449277363
 10
208.9492688882
 20
157.7562610714
 10
208.9365543639
 20
157.7671035779
 10
208.923703956
 20
157.777430224
 10
208.9107284275
 20
157.7872309452
 10
208.8976530057
 20
157.7964851846
 10
208.8845275197
 20
157.8051584737
 10
208.8713814094
 20
157.8132354928
 10
208.8582229999
 20
157.820715554
 10
208.8450708937
 20
157.8275915904
  0
LWPOLYLINE
  5
3F9
100
AcDbEntity
  8
0
100
AcDbPolyline
 62
7
  6
CONTINUOUS
 90
29
 70
0
 10
208.7386918478
 20
166.4977027444
 10
208.7383127328
 20
166.5257936799
 10
208.7371861435
 20
166.553421078
 10
208.7353120798
 20
166.5805849386
 10
208.7326869527
 20
166.6073131769
 10
208.7293143513
 20
166.6335778777
 10
208.7252050427
 20
166.6592952953
 10
208.7203566871
 20
166.684463611
 10
208.7147716244
 20
166.7090846434
 10
208.7084676413
 20
166.7330801023
 10
208.7014424847
 20
166.756447945
 10
208.6936984078
 20
166.7791902141
 10
208.6852599566
 20
166.8012347471
 10
208.676124834
 20
166.8225795058
 10
208.6662953371
 20
166.8432265284
 10
208.6558029037
 20
166.863109766
 10
208.6446455412
 20
166.8822265743
 10
208.6328252421
 20
166.9005795976
 10
208.6203794221
 20
166.9181107196
 10
208.6073059603
 20
166.9348175034
 10
208.5936069774
 20
166.9507023859
 10
208.5793262512
 20
166.9657145618
 10
208.564462002
 20
166.9798511471
 10
208.5490160093
 20
166.9931150258
 10
208.5330373902
 20
167.0054640438
 10
208.5165244557
 20
167.0168953
 10
208.4994788946
 20
167.0274116956
 10
208.4819548909
 20
167.0369797797
 10
208.4787986129
 20
167.0385764463
  0
LINE
  5
3FA
100
AcDbEntity
  8
0
100
AcDbLine
 62
250
  6
CONTINUOUS
 10
206.8899236836
 20
116.8244014499
 11
206.8899236836
 21
117.1643753841
  0
LINE
  5
3FB
100
AcDbEntity
  8
0
100
AcDbLine
 62
250
  6
CONTINUOUS
 10
206.8899236836
 20
158.4639795235
 11
206.8899236836
 21
158.8039534576
  0
LINE
  5
3FC
100
AcDbEntity
  8
0
100
AcDbLine
 62
250
  6
CONTINUOUS
 10
207.248622332
 20
118.1413845851
 11
207.248622332
 21
118.8352973123
  0
LINE
  5
3FD
100
AcDbEntity
  8
0
100
AcDbLine
 62
250
  6
CONTINUOUS
 10
207.248622332
 20
157.4970759972
 11
207.248622332
 21
158.1778257429
  0
LINE
  5
3FE
100
AcDbEntity
  8
DRAFT
100
AcDbLine
 62
7
  6
CONTINUOUS
 10
207.3938286396
 20
169.3522350807
 11
207.3938286396
 21
169.3258783475
  0
LINE
  5
3FF
100
AcDbEntity
  8
0
100
AcDbLine
 62
250
  6
CONTINUOUS
 10
207.6011442917
 20
118.0158718612
 11
207.6011442917
 21
118.6590363325
  0
LINE
  5
400
100
AcDbEntity
  8
0
100
AcDbLine
 62
250
  6
CONTINUOUS
 10
207.6011442917
 20
157.5078438788
 11
207.6011442917
 21
158.3154760006
  0
LINE
  5
401
100
AcDbEntity
  8
0
100
AcDbLine
 62
7
  6
CONTINUOUS
 10
208.1185200619
 20
118.833559341
 11
208.1185200619
 21
123.355216087
  0
LINE
  5
402
100
AcDbEntity
  8
0
100
AcDbLine
 62
7
  6
CONTINUOUS
 10
208.1185200619
 20
152.1072594926
 11
208.1185200619
 21
156.6289162387
  0
LINE
  5
403
100
AcDbEntity
  8
0
100
AcDbLine
 62
7
  6
CONTINUOUS
 10
208.4912044744
 20
117.6044360496
 11
208.4912044744
 21
118.7733634552
  0
LINE
  5
404
100
AcDbEntity
  8
0
100
AcDbLine
 62
7
  6
CONTINUOUS
 10
208.4912044744
 20
158.0045248001
 11
208.4912044744
 21
159.6066754611
  0
LINE
  5
405
100
AcDbEntity
  8
0
100
AcDbLine
 62
7
  6
CONTINUOUS
 10
208.7386918478
 20
166.4977027444
 11
208.7386918478
 21
166.0410820134
  0
LINE
  5
406
100
AcDbEntity
  8
0
100
AcDbLine
 62
250
  6
CONTINUOUS
 10
209.0194716462
 20
159.8701142811
 11
209.0194716462
 21
159.5225827644
  0
LINE
  5
407
100
AcDbEntity
  8
0
100
AcDbLine
 62
250
  6
CONTINUOUS
 10
209.0194716462
 20
118.222978625
 11
209.0194716462
 21
117.8754471082
  0
LINE
  5
408
100
AcDbEntity
  8
RACCORDO
100
AcDbLine
 62
7
  6
CONTINUOUS
 10
209.0301500244
 20
162.2984965781
 11
209.0301500244
 21
161.7250283202
  0
LINE
  5
409
100
AcDbEntity
  8
0
100
AcDbLine
 62
7
  6
CONTINUOUS
 10
209.0916695032
 20
159.9579869133
 11
209.0916695032
 21
159.6104553965
  0
LINE
  5
40A
100
AcDbEntity
  8
0
100
AcDbLine
 62
7
  6
CONTINUOUS
 10
209.0916695032
 20
118.3108512572
 11
209.0916695032
 21
117.9633197404
  0
LINE
  5
40B
100
AcDbEntity
  8
0
100
AcDbLine
 62
7
  6
CONTINUOUS
 10
209.198619797
 20
119.2858770954
 11
209.198619797
 21
157.2178190927
  0
LINE
  5
40C
100
AcDbEntity
  8
RACCORDO
100
AcDbLine
 62
250
  6
CONTINUOUS
 10
209.6225753243
 20
162.0022839282
 11
209.6225753243
 21
161.4288156702
  0
LINE
  5
40D
100
AcDbEntity
  8
0
100
AcDbLine
 62
250
  6
CONTINUOUS
 10
209.7680064878
 20
164.0502023615
 11
209.7680064878
 21
162.6664543966
  0
LINE
  5
40E
100
AcDbEntity
  8
DRAFT
100
AcDbLine
 62
7
  6
CONTINUOUS
 10
209.7993520196
 20
167.376376304
 11
209.7993520196
 21
167.3663233485
  0
LINE
  5
40F
100
AcDbEntity
  8
0
100
AcDbLine
 62
7
  6
CONTINUOUS
 10
209.8988413389
 20
164.0723579749
 11
209.8988413389
 21
162.8240938522
  0
LINE
  5
410
100
AcDbEntity
  8
0
100
AcDbLine
 62
7
  6
CONTINUOUS
 10
209.8995557508
 20
119.6475542881
 11
209.8995557508
 21
122.5798371236
  0
LINE
  5
411
100
AcDbEntity
  8
0
100
AcDbLine
 62
7
  6
CONTINUOUS
 10
209.8995557508
 20
154.6371366731
 11
209.8995557508
 21
157.5694195086
  0
LINE
  5
412
100
AcDbEntity
  8
0
100
AcDbLine
 62
7
  6
CONTINUOUS
 10
210.1288817428
 20
163.5747578309
 11
210.1288817428
 21
163.8314834071
  0
LINE
  5
413
100
AcDbEntity
  8
DRAFT
100
AcDbLine
 62
7
  6
CONTINUOUS
 10
210.5758091549
 20
167.761244823
 11
210.5758091549
 21
167.7348880899
  0
LINE
  5
414
100
AcDbEntity
  8
0
100
AcDbLine
 62
250
  6
CONTINUOUS
 10
209.0916695032
 20
117.9633197404
 11
209.0916693582
 21
117.9631851154
  0
LWPOLYLINE
  5
415
100
AcDbEntity
  8
0
100
AcDbPolyline
 62
250
  6
CONTINUOUS
 90
20
 70
0
 10
209.0194716462
 20
117.8754471082
 10
209.0193188643
 20
117.8652684643
 10
209.0187635549
 20
117.855311977
 10
209.0178069748
 20
117.8456002071
 10
209.016451289
 20
117.8361551558
 10
209.0146995682
 20
117.826998231
 10
209.0125557841
 20
117.8181501974
 10
209.010024796
 20
117.809631107
 10
209.0071123383
 20
117.8014602582
 10
209.0038250119
 20
117.7936561669
 10
209.0001702657
 20
117.7862365144
 10
208.9961563821
 20
117.7792181127
 10
208.9917924602
 20
117.7726168685
 10
208.9870883904
 20
117.7664477383
 10
208.9820548321
 20
117.7607246972
 10
208.9767031938
 20
117.7554607124
 10
208.9710456001
 20
117.7506677061
 10
208.9650948745
 20
117.7463565388
 10
208.9588645133
 20
117.7425369825
 10
208.9557836086
 20
117.740883298
  0
LWPOLYLINE
  5
416
100
AcDbEntity
  8
0
100
AcDbPolyline
 62
250
  6
CONTINUOUS
 90
25
 70
0
 10
206.5374017239
 20
117.1648881079
 10
206.5375699762
 20
117.1744161084
 10
206.5380744126
 20
117.1840942241
 10
206.5389140731
 20
117.1939040321
 10
206.5400873591
 20
117.2038268588
 10
206.5415920375
 20
117.2138438157
 10
206.5434252438
 20
117.2239358348
 10
206.5455834884
 20
117.2340837055
 10
206.5480626631
 20
117.2442681107
 10
206.5508580486
 20
117.2544696638
 10
206.5539643237
 20
117.2646689455
 10
206.5573755754
 20
117.274846541
 10
206.5610853103
 20
117.2849830766
 10
206.5650864666
 20
117.2950592568
 10
206.5693714279
 20
117.3050559011
 10
206.5739320375
 20
117.3149539803
 10
206.5787596141
 20
117.3247346528
 10
206.5838449681
 20
117.3343793006
 10
206.5891784192
 20
117.3438695645
 10
206.5947498149
 20
117.3531873793
 10
206.6005485498
 20
117.3623150079
 10
206.6065635856
 20
117.3712350755
 10
206.6127834723
 20
117.3799306021
 10
206.6191963701
 20
117.3883850353
 10
206.6257900716
 20
117.3965822817
  0
LWPOLYLINE
  5
417
100
AcDbEntity
  8
0
100
AcDbPolyline
 62
7
  6
CONTINUOUS
 90
20
 70
0
 10
208.4912044744
 20
117.6044360496
 10
208.4910040955
 20
117.5942344584
 10
208.4904039266
 20
117.5842562936
 10
208.4894052229
 20
117.5745241063
 10
208.4880100646
 20
117.5650598501
 10
208.4862216037
 20
117.5558849622
 10
208.4840440578
 20
117.5470203149
 10
208.4814822992
 20
117.5384859596
 10
208.4785420383
 20
117.5303011837
 10
208.475230064
 20
117.5224845979
 10
208.4715538401
 20
117.5150538906
 10
208.4675216212
 20
117.508025859
 10
208.4631426294
 20
117.5014164723
 10
208.4584267682
 20
117.4952406956
 10
208.4533846685
 20
117.4895124933
 10
208.4480277982
 20
117.4842448676
 10
208.4423682988
 20
117.4794497549
 10
208.4364189608
 20
117.4751380027
 10
208.4301932642
 20
117.4713193805
 10
208.4270993727
 20
117.4696582775
  0
LWPOLYLINE
  5
418
100
AcDbEntity
  8
0
100
AcDbPolyline
 62
250
  6
CONTINUOUS
 90
18
 70
0
 10
209.0916695032
 20
159.9579869133
 10
209.0916159416
 20
159.9553995452
 10
209.0910895142
 20
159.949477241
 10
209.0900021019
 20
159.9435740683
 10
209.0883561472
 20
159.9377033015
 10
209.08615535
 20
159.931878147
 10
209.0834046571
 20
159.9261117061
 10
209.0801102533
 20
159.9204169497
 10
209.0762795488
 20
159.9148066908
 10
209.0719211592
 20
159.9092935491
 10
209.0670448856
 20
159.903889924
 10
209.0616616961
 20
159.8986079713
 10
209.055783695
 20
159.8934595686
 10
209.0494241048
 20
159.8884562987
 10
209.042597242
 20
159.8836094238
 10
209.0353184679
 20
159.8789298478
 10
209.0276041518
 20
159.874428092
 10
209.0194716462
 20
159.8701142811
  0
LWPOLYLINE
  5
419
100
AcDbEntity
  8
0
100
AcDbPolyline
 62
250
  6
CONTINUOUS
 90
18
 70
0
 10
209.0916695032
 20
159.6104553965
 10
209.0916154887
 20
159.6078571139
 10
209.0910881134
 20
159.6019354662
 10
209.0899998781
 20
159.596032976
 10
209.0883532299
 20
159.5901629165
 10
209.0861518711
 20
159.5843384875
 10
209.0834007523
 20
159.5785727869
 10
209.0801060592
 20
159.5728787791
 10
209.0762751988
 20
159.5672692657
 10
209.0719167801
 20
159.5617568559
 10
209.0670406063
 20
159.5563539505
 10
209.0616576548
 20
159.5510727115
 10
209.0557800414
 20
159.5459250212
 10
209.0494209784
 20
159.5409224466
 10
209.0425947547
 20
159.5360762273
 10
209.0353167158
 20
159.5313972581
 10
209.0276032313
 20
159.5268960632
 10
209.0194716462
 20
159.5225827644
  0
LWPOLYLINE
  5
41A
100
AcDbEntity
  8
0
100
AcDbPolyline
 62
250
  6
CONTINUOUS
 90
18
 70
0
 10
209.0916693582
 20
117.9631851154
 10
209.0916159416
 20
117.9607323723
 10
209.0910895142
 20
117.9548100682
 10
209.0900021019
 20
117.9489068954
 10
209.0883561472
 20
117.9430361286
 10
209.08615535
 20
117.9372109742
 10
209.0834046571
 20
117.9314445333
 10
209.0801102533
 20
117.9257497768
 10
209.0762795488
 20
117.9201395179
 10
209.0719211592
 20
117.9146263762
 10
209.0670448856
 20
117.9092227511
 10
209.0616616961
 20
117.9039407984
 10
209.055783695
 20
117.8987923957
 10
209.0494241048
 20
117.8937891258
 10
209.042597242
 20
117.8889422509
 10
209.0353184679
 20
117.8842626749
 10
209.0276041518
 20
117.8797609192
 10
209.0194716462
 20
117.8754471082
  0
LWPOLYLINE
  5
41B
100
AcDbEntity
  8
0
100
AcDbPolyline
 62
250
  6
CONTINUOUS
 90
18
 70
0
 10
209.0916689206
 20
118.3105814128
 10
209.0916150803
 20
118.3082431697
 10
209.0910867272
 20
118.3023211878
 10
209.0899974552
 20
118.2964184107
 10
209.0883497172
 20
118.2905481047
 10
209.086147217
 20
118.2847234586
 10
209.0833948854
 20
118.2789575289
 10
209.0800989264
 20
118.2732633265
 10
209.076266835
 20
118.2676537691
 10
209.0719073229
 20
118.2621415396
 10
209.0670301772
 20
118.2567389513
 10
209.061646282
 20
118.2514580404
 10
209.0557672469
 20
118.24631027
 10
209.0494067101
 20
118.2413076506
 10
209.0425805504
 20
118.2364624961
 10
209.0353049779
 20
118.2317859315
 10
209.0275961444
 20
118.2272879816
 10
209.0194716462
 20
118.222978625
  0
LWPOLYLINE
  5
41C
100
AcDbEntity
  8
0
100
AcDbPolyline
 62
250
  6
CONTINUOUS
 90
20
 70
0
 10
206.8899236836
 20
116.8244014499
 10
206.8896754153
 20
116.8141764257
 10
206.889029607
 20
116.8041759442
 10
206.8879877216
 20
116.7944226589
 10
206.8865521192
 20
116.7849386631
 10
206.8847260517
 20
116.7757454402
 10
206.8825136557
 20
116.7668638149
 10
206.8799199426
 20
116.7583139061
 10
206.8769507878
 20
116.7501150812
 10
206.8736129172
 20
116.7422859125
 10
206.8699138917
 20
116.7348441346
 10
206.8658620904
 20
116.727806605
 10
206.8614666917
 20
116.7211892652
 10
206.856737652
 20
116.715007105
 10
206.8516856838
 20
116.7092741283
 10
206.8463222307
 20
116.7040033217
 10
206.8406594424
 20
116.6992066246
 10
206.8347101462
 20
116.6948949026
 10
206.8284878186
 20
116.6910779229
 10
206.823662091
 20
116.6885508238
  0
LINE
  5
41D
100
AcDbEntity
  8
RACCORDO
100
AcDbLine
 62
250
  6
CONTINUOUS
 10
209.6195504156
 20
161.3707818409
 11
209.6225753243
 21
161.4288156702
  0
LINE
  5
41E
100
AcDbEntity
  8
0
100
AcDbLine
 62
7
  6
CONTINUOUS
 10
208.1185200619
 20
152.1072594926
 11
206.9685534743
 21
137.1759828773
  0
LINE
  5
41F
100
AcDbEntity
  8
RACCORDO
100
AcDbLine
 62
7
  6
CONTINUOUS
 10
219.417174645
 20
140.5071318196
 11
226.616677651
 21
144.2711257137
  0
LINE
  5
420
100
AcDbEntity
  8
RACCORDO
100
AcDbLine
 62
7
  6
CONTINUOUS
 10
226.616677651
 20
146.2850780776
 11
219.417174645
 21
142.5937683647
  0
LINE
  5
421
100
AcDbEntity
  8
DRAFT
100
AcDbLine
 62
7
  6
CONTINUOUS
 10
225.0021478151
 20
142.7853499974
 11
218.7674930383
 21
139.6623451568
  0
LINE
  5
422
100
AcDbEntity
  8
DRAFT
100
AcDbLine
 62
7
  6
CONTINUOUS
 10
226.0628079869
 20
143.3043435495
 11
225.0021478151
 21
142.7853499974
  0
LWPOLYLINE
  5
423
100
AcDbEntity
  8
RACCORDO
100
AcDbPolyline
 62
250
  6
CONTINUOUS
 90
13
 70
0
 10
203.1774855091
 20
153.7484579422
 10
203.128588736
 20
153.7363616338
 10
203.0748045776
 20
153.727467079
 10
203.0170232515
 20
153.7219214975
 10
202.9562011354
 20
153.7198166778
 10
202.8933449366
 20
153.7211874582
 10
202.8294950303
 20
153.7260111501
 10
202.7657082391
 20
153.7342079133
 10
202.7030403408
 20
153.7456420777
 10
202.6425285938
 20
153.7601243887
 10
202.5851745686
 20
153.7774151399
 10
202.5319275702
 20
153.7972281406
 10
202.4836689251
 20
153.8192354524
  0
LINE
  5
424
100
AcDbEntity
  8
DRAFT
100
AcDbLine
 62
250
  6
CONTINUOUS
 10
218.6960394691
 20
139.2961119188
 11
219.417174645
 21
138.6966540476
  0
LWPOLYLINE
  5
425
100
AcDbEntity
  8
0
100
AcDbPolyline
 62
250
  6
CONTINUOUS
 90
16
 70
0
 10
193.1095690695
 20
167.4775340527
 10
193.1135417832
 20
167.4708391776
 10
193.1171042418
 20
167.4643577357
 10
193.1202484051
 20
167.4581043553
 10
193.1229671768
 20
167.45209315
 10
193.1252544208
 20
167.4463376866
 10
193.127104975
 20
167.4408509549
 10
193.1285146627
 20
167.4356453381
 10
193.1294803024
 20
167.430732585
 10
193.1299997148
 20
167.4261237834
 10
193.1300717274
 20
167.4218293351
 10
193.1296961778
 20
167.4178589324
 10
193.1288739135
 20
167.4142215362
 10
193.1276067904
 20
167.4109253561
 10
193.1258976684
 20
167.4079778311
 10
193.1249296418
 20
167.4066988861
  0
LWPOLYLINE
  5
426
100
AcDbEntity
  8
0
100
AcDbPolyline
 62
250
  6
CONTINUOUS
 90
16
 70
0
 10
196.7158136535
 20
165.6744117607
 10
196.7197830696
 20
165.6677226518
 10
196.7233437022
 20
165.6612451721
 10
196.7264872494
 20
165.6549940689
 10
196.729206527
 20
165.6489831585
 10
196.7314948642
 20
165.6432266426
 10
196.7333464426
 20
165.6377388815
 10
196.7347569863
 20
165.6325326725
 10
196.7357234793
 20
165.6276193108
 10
196.7362437464
 20
165.6230097961
 10
196.7363165844
 20
165.6187144956
 10
196.7359417919
 20
165.6147431878
 10
196.7351202092
 20
165.6111049266
 10
196.7338537017
 20
165.6078079477
 10
196.7321451239
 20
165.6048596651
 10
196.7311907168
 20
165.6035966917
  0
LINE
  5
427
100
AcDbEntity
  8
ASSI
100
AcDbLine
 62
7
  6
CONTINUOUS
 10
205.9106855894
 20
156.4647965112
 11
205.9257095676
 21
156.411169542
  0
LWPOLYLINE
  5
428
100
AcDbEntity
  8
0
100
AcDbPolyline
 62
250
  6
CONTINUOUS
 90
4
 70
0
 10
204.7874808261
 20
159.3770098539
 10
204.78632433
 20
159.3829094631
 10
204.7857285315
 20
159.3888298574
 10
204.7856403488
 20
159.3921496302
  0
LWPOLYLINE
  5
429
100
AcDbEntity
  8
0
100
AcDbPolyline
 62
7
  6
CONTINUOUS
 90
5
 70
0
 10
209.8988413389
 20
164.0723561333
 10
209.8986421412
 20
164.074430021
 10
209.8977356649
 20
164.0768607919
 10
209.8961275174
 20
164.0788249255
 10
209.8938264484
 20
164.0803644736
  0
LINE
  5
42A
100
AcDbEntity
  8
0
100
AcDbLine
 62
7
  6
CONTINUOUS
 10
211.6518956352
 20
155.5476279068
 11
211.6518956352
 21
123.4525399113
  0
LINE
  5
42B
100
AcDbEntity
  8
RACCORDO
100
AcDbLine
 62
7
  6
CONTINUOUS
 10
211.6731849897
 20
154.793579536
 11
211.6731849897
 21
124.1852989276
  0
LINE
  5
42C
100
AcDbEntity
  8
RACCORDO
100
AcDbLine
 62
7
  6
CONTINUOUS
 10
226.616677651
 20
142.3879637605
 11
219.417174645
 21
138.6966540476
  0
LWPOLYLINE
  5
42D
100
AcDbEntity
  8
RACCORDO
100
AcDbPolyline
 62
250
  6
CONTINUOUS
 90
13
 70
0
 10
202.4702434361
 20
126.9461431695
 10
202.4208488251
 20
126.9245010788
 10
202.3665768676
 20
126.9062175019
 10
202.3083255238
 20
126.8915949509
 10
202.2470585954
 20
126.8808753642
 10
202.1837897785
 20
126.8742361035
 10
202.1195658918
 20
126.8717870191
 10
202.0554495558
 20
126.8735686325
 10
201.9925016119
 20
126.8795514658
 10
201.9317635696
 20
126.8896365298
 10
201.8742403742
 20
126.9036569613
 10
201.8208837799
 20
126.9213807843
 10
201.7725766016
 20
126.9425147481
  0
LINE
  5
42E
100
AcDbEntity
  8
RACCORDO
100
AcDbLine
 62
250
  6
CONTINUOUS
 10
202.4836689035
 20
153.8192354456
 11
172.0304327922
 21
169.0458535012
  0
LINE
  5
42F
100
AcDbEntity
  8
DRAFT
100
AcDbLine
 62
7
  6
CONTINUOUS
 10
208.1185200619
 20
152.1072594926
 11
206.4052394699
 21
152.9638997886
  0
LINE
  5
430
100
AcDbEntity
  8
RACCORDO
100
AcDbLine
 62
250
  6
CONTINUOUS
 10
203.1733509198
 20
154.8923846747
 11
172.7022882517
 21
170.1279160088
  0
LWPOLYLINE
  5
431
100
AcDbEntity
  8
0
100
AcDbPolyline
 62
250
  6
CONTINUOUS
 90
4
 70
0
 10
176.6961669302
 20
173.2837902324
 10
176.7017402008
 20
173.2800440147
 10
176.7075408872
 20
173.2767155313
 10
176.7093501833
 20
173.2757862157
  0
LINE
  5
432
100
AcDbEntity
  8
DRAFT
100
AcDbLine
 62
250
  6
CONTINUOUS
 10
218.6960394691
 20
143.1932262358
 11
219.417174645
 21
142.5937683647
  0
LWPOLYLINE
  5
433
100
AcDbEntity
  8
0
100
AcDbPolyline
 62
250
  6
CONTINUOUS
 90
11
 70
0
 10
193.0141530654
 20
168.0655634059
 10
193.0215569038
 20
168.05694245
 10
193.0287573477
 20
168.0479952921
 10
193.0357380867
 20
168.0387421998
 10
193.0424833077
 20
168.0292041331
 10
193.0489777312
 20
168.0194026981
 10
193.0552066461
 20
168.0093600972
 10
193.0611559423
 20
167.999099079
 10
193.0668121434
 20
167.9886428872
 10
193.0721624368
 20
167.9780152073
 10
193.077194703
 20
167.9672401134
  0
LWPOLYLINE
  5
434
100
AcDbEntity
  8
0
100
AcDbPolyline
 62
250
  6
CONTINUOUS
 90
11
 70
0
 10
196.6203976494
 20
166.2624411139
 10
196.6278014878
 20
166.2538201579
 10
196.6350019318
 20
166.2448730001
 10
196.6419826707
 20
166.2356199077
 10
196.6487278917
 20
166.2260818411
 10
196.6552223153
 20
166.2162804061
 10
196.6614512301
 20
166.2062378051
 10
196.6674005263
 20
166.195976787
 10
196.6730567275
 20
166.1855205952
 10
196.6784070209
 20
166.1748929153
 10
196.6834392871
 20
166.1641178214
  0
LWPOLYLINE
  5
435
100
AcDbEntity
  8
ASSI
100
AcDbPolyline
 62
7
  6
CONTINUOUS
 90
9
 70
0
 10
205.3737389314
 20
156.6871548601
 10
205.3697498906
 20
156.6940349378
 10
205.3067941829
 20
156.7881450702
 10
205.2387036808
 20
156.8761667912
 10
205.1656406336
 20
156.9582924825
 10
205.0899633647
 20
157.031871297
 10
205.012457982
 20
157.0960196193
 10
204.9323383775
 20
157.151621065
 10
204.8496045513
 20
157.198675634
  0
LWPOLYLINE
  5
436
100
AcDbEntity
  8
DRAFT
100
AcDbPolyline
 62
7
  6
CONTINUOUS
 90
3
 70
0
 10
207.6515812699
 20
169.448227061
 10
207.6485292906
 20
169.4612572578
 10
207.644513512
 20
169.4764927006
  0
LINE
  5
437
100
AcDbEntity
  8
RACCORDO
100
AcDbLine
 62
7
  6
CONTINUOUS
 10
207.5150502321
 20
173.5015431972
 11
207.678031676
 21
172.6751236131
  0
LWPOLYLINE
  5
438
100
AcDbEntity
  8
RACCORDO
100
AcDbPolyline
 62
7
  6
CONTINUOUS
 90
37
 70
0
 10
217.0446819427
 20
168.2002151153
 10
217.0444781374
 20
168.2207564058
 10
217.0431241405
 20
168.2572609332
 10
217.0405262447
 20
168.2937448058
 10
217.0367094158
 20
168.3302010188
 10
217.0316991953
 20
168.3665995993
 10
217.0255249353
 20
168.4028759049
 10
217.0182097771
 20
168.4390126441
 10
217.0097729061
 20
168.4749940026
 10
217.0002453203
 20
168.5107488913
 10
216.9896470045
 20
168.5462585053
 10
216.9779925524
 20
168.5815074529
 10
216.9653155798
 20
168.6164245823
 10
216.9516342079
 20
168.6509854305
 10
216.9369586758
 20
168.685177166
 10
216.9213176906
 20
168.7189437057
 10
216.9047230331
 20
168.7522629956
 10
216.8871834378
 20
168.7851160167
 10
216.8687233959
 20
168.8174507756
 10
216.8493493811
 20
168.8492455526
 10
216.8290674669
 20
168.8804764802
 10
216.8078994585
 20
168.9110906695
 10
216.7858395365
 20
168.9410756046
 10
216.7628969058
 20
168.9703918366
 10
216.73911676
 20
168.9989556229
 10
216.714477354
 20
169.02676672
 10
216.6889990348
 20
169.0537687199
 10
216.6627988878
 20
169.079815344
 10
216.6358784103
 20
169.1048885571
 10
216.6082447591
 20
169.1289601493
 10
216.5800378491
 20
169.1518965034
 10
216.551273148
 20
169.1736792042
 10
216.5219567764
 20
169.1942949786
 10
216.492229742
 20
169.2136426874
 10
216.4621555056
 20
169.2316884367
 10
216.4317150484
 20
169.2484509683
 10
216.4147945217
 20
169.2571344768
  0
LWPOLYLINE
  5
439
100
AcDbEntity
  8
RACCORDO
100
AcDbPolyline
 62
250
  6
CONTINUOUS
 90
43
 70
0
 10
216.9043519692
 20
168.0265625435
 10
216.9040793974
 20
168.0593029711
 10
216.9028104613
 20
168.0924867491
 10
216.9005467297
 20
168.126067293
 10
216.8972909806
 20
168.1599968023
 10
216.8930478124
 20
168.194228342
 10
216.8878234779
 20
168.2287159533
 10
216.8816248478
 20
168.2634122216
 10
216.8744603919
 20
168.2982676361
 10
216.8663407643
 20
168.333232691
 10
216.857277322
 20
168.3682579663
 10
216.8472824315
 20
168.403294833
 10
216.8363703146
 20
168.4382948493
 10
216.8245560931
 20
168.4732091003
 10
216.8118561203
 20
168.507988614
 10
216.7982883364
 20
168.5425850512
 10
216.78387158
 20
168.5769501536
 10
216.7686259085
 20
168.6110356631
 10
216.7525729009
 20
168.6447937417
 10
216.7357350643
 20
168.6781770702
 10
216.7181357967
 20
168.7111390636
 10
216.6997996932
 20
168.7436337859
 10
216.6807524298
 20
168.7756158295
 10
216.6610205927
 20
168.8070404632
 10
216.6406316419
 20
168.8378638413
 10
216.619614086
 20
168.8680430226
 10
216.5979973853
 20
168.8975356959
 10
216.5758117757
 20
168.9263003316
 10
216.5530885137
 20
168.9542966834
 10
216.5298593432
 20
168.9814857681
 10
216.5061563884
 20
169.0078295782
 10
216.4820130213
 20
169.0332913239
 10
216.4574630552
 20
169.0578355186
 10
216.4325402027
 20
169.0814279281
 10
216.4072791981
 20
169.1040359429
 10
216.3817158234
 20
169.1256276815
 10
216.3558861079
 20
169.1461721313
 10
216.3298271082
 20
169.1656402767
 10
216.303574823
 20
169.184005598
 10
216.2771641917
 20
169.2012430227
 10
216.250631718
 20
169.2173286033
 10
216.2240154464
 20
169.2322397289
 10
216.1973528838
 20
169.2459555902
  0
LINE
  5
43A
100
AcDbEntity
  8
DRAFT
100
AcDbLine
 62
250
  6
CONTINUOUS
 10
216.1980412617
 20
125.2362219678
 11
216.1980412617
 21
125.5135202181
  0
LINE
  5
43B
100
AcDbEntity
  8
DRAFT
100
AcDbLine
 62
250
  6
CONTINUOUS
 10
216.1980412617
 20
162.122490811
 11
216.1980412617
 21
162.6651697813
  0
LINE
  5
43C
100
AcDbEntity
  8
0
100
AcDbLine
 62
7
  6
CONTINUOUS
 10
216.3383713616
 20
125.2831260263
 11
216.3383713616
 21
125.5872370188
  0
LINE
  5
43D
100
AcDbEntity
  8
0
100
AcDbLine
 62
7
  6
CONTINUOUS
 10
216.3383713616
 20
162.2987615003
 11
216.3383713616
 21
162.8388343739
  0
LINE
  5
43E
100
AcDbEntity
  8
RACCORDO
100
AcDbLine
 62
250
  6
CONTINUOUS
 10
216.9043519692
 20
165.9298886135
 11
216.9043519692
 21
168.0265625435
  0
LINE
  5
43F
100
AcDbEntity
  8
RACCORDO
100
AcDbLine
 62
7
  6
CONTINUOUS
 10
217.0446820691
 20
166.1035532061
 11
217.0446820691
 21
168.2002271367
  0
LWPOLYLINE
  5
440
100
AcDbEntity
  8
0
100
AcDbPolyline
 62
250
  6
CONTINUOUS
 90
14
 70
0
 10
209.0194716462
 20
118.222978625
 10
209.0234443599
 20
118.2340940256
 10
209.0270068185
 20
118.2453826628
 10
209.0301509818
 20
118.2568190588
 10
209.0328697535
 20
118.2683774022
 10
209.0351569975
 20
118.2800316066
 10
209.0370075517
 20
118.2917553692
 10
209.0384172394
 20
118.30352223
 10
209.0393828791
 20
118.315305632
 10
209.0399022914
 20
118.3270789808
 10
209.0399743041
 20
118.3388157045
 10
209.0395987545
 20
118.3504893141
 10
209.0387764902
 20
118.362073463
 10
209.0375093671
 20
118.3735420064
  0
LWPOLYLINE
  5
441
100
AcDbEntity
  8
0
100
AcDbPolyline
 62
7
  6
CONTINUOUS
 90
36
 70
0
 10
207.2872754513
 20
158.177828801
 10
207.2912475613
 20
158.1770463373
 10
207.3005038384
 20
158.1755581833
 10
207.3099209223
 20
158.1745072361
 10
207.3194885729
 20
158.173890157
 10
207.3291887177
 20
158.173685523
 10
207.3390004216
 20
158.1738937245
 10
207.3489033214
 20
158.1745139821
 10
207.3588811023
 20
158.1755228323
 10
207.3689141631
 20
158.1769193069
 10
207.378983506
 20
158.1787017434
 10
207.3890746272
 20
158.1808454877
 10
207.39916942
 20
158.1833484689
 10
207.4092503188
 20
158.186208274
 10
207.419304488
 20
158.1893996979
 10
207.4293153794
 20
158.1929197971
 10
207.4392668801
 20
158.1967655136
 10
207.4491475804
 20
158.2009115058
 10
207.4589424841
 20
158.2053541423
 10
207.4686369307
 20
158.2100898093
 10
207.4782206936
 20
158.2150932662
 10
207.4876802895
 20
158.2203603302
 10
207.4970024992
 20
158.2258869132
 10
207.5061780886
 20
158.2316480004
 10
207.5151950387
 20
158.2376389542
 10
207.5240415604
 20
158.2438552893
 10
207.5327092998
 20
158.2502722942
 10
207.5411876584
 20
158.2568849447
 10
207.5494662696
 20
158.2636884344
 10
207.5575376294
 20
158.2706584362
 10
207.5653925235
 20
158.2777895903
 10
207.5730220056
 20
158.2850768463
 10
207.5804194612
 20
158.2924963839
 10
207.5875774941
 20
158.3000366792
 10
207.5944880829
 20
158.3076984065
 10
207.6011442917
 20
158.3154760006
  0
LINE
  5
442
100
AcDbEntity
  8
0
100
AcDbLine
 62
7
  6
CONTINUOUS
 10
206.6630801901
 20
158.3081583627
 11
207.2872757871
 21
158.1778257429
  0
LINE
  5
443
100
AcDbEntity
  8
0
100
AcDbLine
 62
250
  6
CONTINUOUS
 10
206.8899236836
 20
158.4639795235
 11
207.6011442917
 21
158.3154760006
  0
LWPOLYLINE
  5
444
100
AcDbEntity
  8
ASSI
100
AcDbPolyline
 62
7
  6
CONTINUOUS
 90
8
 70
0
 10
204.8496045513
 20
157.198675634
 10
204.7668707251
 20
157.2343548912
 10
204.6867511206
 20
157.25887305
 10
204.6092457379
 20
157.2722301105
 10
204.533568469
 20
157.2743285648
 10
204.4605054218
 20
157.2652659208
 10
204.3924149197
 20
157.2453347018
 10
204.3577087636
 20
157.2298395264
  0
LWPOLYLINE
  5
445
100
AcDbEntity
  8
ASSI
100
AcDbPolyline
 62
7
  6
CONTINUOUS
 90
8
 70
0
 10
179.040207038
 20
170.1033743906
 10
178.9574732118
 20
170.1390536478
 10
178.8773536073
 20
170.1635718066
 10
178.7998482245
 20
170.1769288671
 10
178.7241709556
 20
170.1790273215
 10
178.6511079085
 20
170.1699646774
 10
178.5830174064
 20
170.1500334584
 10
178.5483112503
 20
170.134538283
  0
LWPOLYLINE
  5
446
100
AcDbEntity
  8
RACCORDO
100
AcDbPolyline
 62
7
  6
CONTINUOUS
 90
13
 70
0
 10
189.317386739
 20
165.0513870805
 10
189.2980091926
 20
165.0598471187
 10
189.2773245393
 20
165.0668731962
 10
189.2553327791
 20
165.072465313
 10
189.231635844
 20
165.0766760836
 10
189.2066318019
 20
165.0794528935
 10
189.1815148568
 20
165.0806378992
 10
189.156264238
 20
165.0801419482
 10
189.1309007162
 20
165.0780541931
 10
189.1066808061
 20
165.0744842478
 10
189.0840233461
 20
165.0694686504
 10
189.0625094979
 20
165.0629708628
 10
189.0421392614
 20
165.054990885
  0
LWPOLYLINE
  5
447
100
AcDbEntity
  8
0
100
AcDbPolyline
 62
250
  6
CONTINUOUS
 90
34
 70
0
 10
206.5374017239
 20
158.4644922473
 10
206.5459813444
 20
158.4604012135
 10
206.5549392228
 20
158.4565181563
 10
206.564255214
 20
158.4528518084
 10
206.5739083557
 20
158.449410419
 10
206.5838769497
 20
158.4462017228
 10
206.5941386142
 20
158.443232926
 10
206.6046702994
 20
158.4405107016
 10
206.6154482995
 20
158.4380411816
 10
206.6264483387
 20
158.4358299297
 10
206.6376456655
 20
158.433881921
 10
206.6490151102
 20
158.4322015339
 10
206.6605311031
 20
158.4307925473
 10
206.6721677453
 20
158.4296581302
 10
206.6838988667
 20
158.4288008336
 10
206.6956980852
 20
158.4282225855
 10
206.7075388736
 20
158.4279246863
 10
206.7193945941
 20
158.4279078064
 10
206.731238558
 20
158.4281719829
 10
206.7430441121
 20
158.4287166189
 10
206.7547847242
 20
158.4295404879
 10
206.7664340164
 20
158.430641738
 10
206.7779658757
 20
158.4320179039
 10
206.7893542806
 20
158.4336658833
 10
206.8005733954
 20
158.435581929
 10
206.8115978543
 20
158.4377616851
 10
206.8224030309
 20
158.4402002579
 10
206.8329648527
 20
158.4428922055
 10
206.8432603936
 20
158.4458317231
 10
206.8532656323
 20
158.4490119915
 10
206.8629559414
 20
158.4524250713
 10
206.8723090706
 20
158.4560628576
 10
206.8813049704
 20
158.4599172744
 10
206.8899236836
 20
158.4639795235
  0
LWPOLYLINE
  5
448
100
AcDbEntity
  8
0
100
AcDbPolyline
 62
250
  6
CONTINUOUS
 90
34
 70
0
 10
194.2337437313
 20
164.6163212436
 10
194.2423227232
 20
164.6122304956
 10
194.2512799203
 20
164.6083476938
 10
194.2605951818
 20
164.604681569
 10
194.2702475616
 20
164.6012403648
 10
194.2802153555
 20
164.5980318189
 10
194.2904761502
 20
164.5950631462
 10
194.3010068735
 20
164.5923410217
 10
194.3117838464
 20
164.5898715665
 10
194.322782836
 20
164.5876603333
 10
194.3339791101
 20
164.5857122942
 10
194.3453474932
 20
164.5840318295
 10
194.3568624226
 20
164.5826227179
 10
194.368498006
 20
164.5814881279
 10
194.3802280801
 20
164.5806306106
 10
194.3920262688
 20
164.5800520944
 10
194.403866043
 20
164.5797538799
 10
194.4157207801
 20
164.5797366379
 10
194.4275638237
 20
164.580000407
 10
194.4393685441
 20
164.5805445941
 10
194.4511083972
 20
164.5813679756
 10
194.4627569853
 20
164.5824687001
 10
194.4742881154
 20
164.5838442924
 10
194.4856758591
 20
164.5854916596
 10
194.4968946101
 20
164.5874070973
 10
194.5079191423
 20
164.5895862985
 10
194.518724666
 20
164.5920243631
 10
194.5292868843
 20
164.594715809
 10
194.5395820473
 20
164.5976545843
 10
194.5495870054
 20
164.6008340809
 10
194.5592792618
 20
164.6042471494
 10
194.5686370227
 20
164.6078861153
 10
194.5776392465
 20
164.6117427961
 10
194.5862656909
 20
164.6158085198
  0
LWPOLYLINE
  5
449
100
AcDbEntity
  8
0
100
AcDbPolyline
 62
250
  6
CONTINUOUS
 90
34
 70
0
 10
206.5374017239
 20
158.8044661814
 10
206.5459819268
 20
158.8003748827
 10
206.5549404501
 20
158.7964915834
 10
206.5642571459
 20
158.7928250187
 10
206.5739110668
 20
158.7893834343
 10
206.5838804945
 20
158.7861745745
 10
206.5941429872
 20
158.7832056633
 10
206.6046754561
 20
158.7804833795
 10
206.6154542165
 20
158.778013844
 10
206.626455021
 20
158.7758026118
 10
206.6376531276
 20
158.7738546554
 10
206.6490233473
 20
158.7721743561
 10
206.6605400969
 20
158.7707654936
 10
206.6721774702
 20
158.7696312355
 10
206.683909294
 20
158.7687741317
 10
206.6957091772
 20
158.7681961087
 10
206.7075505854
 20
158.767898465
 10
206.719406879
 20
158.7678818689
 10
206.7312513695
 20
158.7681463554
 10
206.7430573842
 20
158.7686913246
 10
206.7547984037
 20
158.7695155482
 10
206.7664480978
 20
158.7706171773
 10
206.7779803716
 20
158.7719937508
 10
206.7893691762
 20
158.773642166
 10
206.800588655
 20
158.7755586733
 10
206.8116134374
 20
158.7777389163
 10
206.822418893
 20
158.7801780011
 10
206.8329809309
 20
158.7828704811
 10
206.8432773248
 20
158.7858107616
 10
206.8532833055
 20
158.7889918426
 10
206.8629722463
 20
158.792405043
 10
206.8723214665
 20
158.7960418535
 10
206.8813118432
 20
158.7998942976
 10
206.8899236836
 20
158.8039534576
  0
LWPOLYLINE
  5
44A
100
AcDbEntity
  8
0
100
AcDbPolyline
 62
250
  6
CONTINUOUS
 90
34
 70
0
 10
190.6284253446
 20
166.418980437
 10
190.6370082268
 20
166.4148879201
 10
190.6459696411
 20
166.4110035378
 10
190.6552894191
 20
166.4073360323
 10
190.6649465744
 20
166.4038936615
 10
190.6749193839
 20
166.4006841682
 10
190.6851854395
 20
166.3977147655
 10
190.6957216646
 20
166.3949921329
 10
190.7065043254
 20
166.3925224077
 10
190.7175091176
 20
166.3903111585
 10
190.7287112603
 20
166.3883633639
 10
190.7400855546
 20
166.3866834051
 10
190.7516064007
 20
166.385275063
 10
190.7632478695
 20
166.3841415072
 10
190.7749837606
 20
166.383285289
 10
190.7867876615
 20
166.3827083351
 10
190.7986330149
 20
166.3824119442
 10
190.8104931527
 20
166.3823967836
 10
190.8223413566
 20
166.3826628868
 10
190.8341509438
 20
166.3832096519
 10
190.8458953533
 20
166.3840358468
 10
190.8575481793
 20
166.3851396129
 10
190.8690832813
 20
166.3865184774
 10
190.8804746112
 20
166.3881693299
 10
190.8916963072
 20
166.3900884136
 10
190.9027229787
 20
166.3922713623
 10
190.9135299762
 20
166.3947132719
 10
190.9240932055
 20
166.3974086888
 10
190.9343897208
 20
166.4003517964
 10
190.9443954802
 20
166.4035357622
 10
190.9540858351
 20
166.4069526312
 10
190.9634385187
 20
166.4105942829
 10
190.9724334686
 20
166.4144526272
 10
190.9810507156
 20
166.4185188504
  0
LINE
  5
44B
100
AcDbEntity
  8
RACCORDO
100
AcDbLine
 62
7
  6
CONTINUOUS
 10
206.0518072332
 20
156.3481207092
 11
199.2457121417
 21
159.751168255
  0
LINE
  5
44C
100
AcDbEntity
  8
RACCORDO
100
AcDbLine
 62
7
  6
CONTINUOUS
 10
192.8465381094
 20
162.9507552711
 11
188.6391104239
 21
165.0544691139
  0
LINE
  5
44D
100
AcDbEntity
  8
RACCORDO
100
AcDbLine
 62
7
  6
CONTINUOUS
 10
182.2399363916
 20
168.25405613
 11
175.4338413
 21
171.6571036758
  0
LINE
  5
44E
100
AcDbEntity
  8
RACCORDO
100
AcDbLine
 62
7
  6
CONTINUOUS
 10
189.317386739
 20
165.0513870805
 11
193.3950221372
 21
163.0125693814
  0
LINE
  5
44F
100
AcDbEntity
  8
DRAFT
100
AcDbLine
 62
7
  6
CONTINUOUS
 10
182.9725990136
 20
168.3985739371
 11
188.8963972955
 21
165.4366747962
  0
LINE
  5
450
100
AcDbEntity
  8
DRAFT
100
AcDbLine
 62
7
  6
CONTINUOUS
 10
193.5792007314
 20
163.0952730782
 11
199.5029990133
 21
160.1333739373
  0
LINE
  5
451
100
AcDbEntity
  8
DRAFT
100
AcDbLine
 62
7
  6
CONTINUOUS
 10
189.0930277398
 20
165.7909818511
 11
195.5038906307
 21
162.5855504057
  0
LINE
  5
452
100
AcDbEntity
  8
0
100
AcDbLine
 62
7
  6
CONTINUOUS
 10
176.8316825745
 20
172.705545876
 11
177.3477812317
 21
172.4474965473
  0
LINE
  5
453
100
AcDbEntity
  8
0
100
AcDbLine
 62
7
  6
CONTINUOUS
 10
179.0355765694
 20
171.6035988785
 11
181.202436375
 21
170.5201689757
  0
LINE
  5
454
100
AcDbEntity
  8
0
100
AcDbLine
 62
7
  6
CONTINUOUS
 10
181.8686341627
 20
170.1870700818
 11
186.818381631
 21
167.7121963477
  0
LINE
  5
455
100
AcDbEntity
  8
0
100
AcDbLine
 62
7
  6
CONTINUOUS
 10
187.4845794187
 20
167.3790974538
 11
189.6514392244
 21
166.295667551
  0
LINE
  5
456
100
AcDbEntity
  8
0
100
AcDbLine
 62
7
  6
CONTINUOUS
 10
191.339234562
 20
165.4517698822
 11
193.2581986151
 21
164.4922878556
  0
LINE
  5
457
100
AcDbEntity
  8
0
100
AcDbLine
 62
7
  6
CONTINUOUS
 10
194.9449643394
 20
163.6489049935
 11
197.1129560377
 21
162.5649091444
  0
LINE
  5
458
100
AcDbEntity
  8
0
100
AcDbLine
 62
7
  6
CONTINUOUS
 10
197.7785367394
 20
162.2321187935
 11
202.7282842077
 21
159.7572450593
  0
LINE
  5
459
100
AcDbEntity
  8
0
100
AcDbLine
 62
7
  6
CONTINUOUS
 10
203.3938649095
 20
159.4244547085
 11
205.5618566078
 21
158.3404588593
  0
LINE
  5
45A
100
AcDbEntity
  8
0
100
AcDbLine
 62
7
  6
CONTINUOUS
 10
207.248622332
 20
157.4970759972
 11
207.765235796
 21
157.2387692652
  0
LINE
  5
45B
100
AcDbEntity
  8
0
100
AcDbLine
 62
7
  6
CONTINUOUS
 10
176.7093501833
 20
173.2757862157
 11
178.3897406483
 21
172.4355909832
  0
LINE
  5
45C
100
AcDbEntity
  8
0
100
AcDbLine
 62
7
  6
CONTINUOUS
 10
189.0130081759
 20
167.1239572194
 11
190.693398641
 21
166.2837619869
  0
LINE
  5
45D
100
AcDbEntity
  8
0
100
AcDbLine
 62
7
  6
CONTINUOUS
 10
192.6201789573
 20
165.3203718287
 11
194.2987170277
 21
164.4811027935
  0
LINE
  5
45E
100
AcDbEntity
  8
0
100
AcDbLine
 62
7
  6
CONTINUOUS
 10
204.9238369499
 20
159.1685428324
 11
206.6023750204
 21
158.3292737972
  0
LINE
  5
45F
100
AcDbEntity
  8
0
100
AcDbLine
 62
250
  6
CONTINUOUS
 10
176.6443768868
 20
173.4110046658
 11
178.3247673519
 21
172.5708094333
  0
LINE
  5
460
100
AcDbEntity
  8
0
100
AcDbLine
 62
250
  6
CONTINUOUS
 10
188.9480348795
 20
167.2591756695
 11
190.6284253446
 21
166.418980437
  0
LINE
  5
461
100
AcDbEntity
  8
0
100
AcDbLine
 62
250
  6
CONTINUOUS
 10
192.5552056609
 20
165.4555902788
 11
194.2337437313
 21
164.6163212436
  0
LINE
  5
462
100
AcDbEntity
  8
0
100
AcDbLine
 62
250
  6
CONTINUOUS
 10
204.8588636535
 20
159.3037612825
 11
206.5374017239
 21
158.4644922473
  0
LINE
  5
463
100
AcDbEntity
  8
0
100
AcDbLine
 62
7
  6
CONTINUOUS
 10
182.5757409439
 20
170.5860099407
 11
184.2020865407
 21
169.7728371423
  0
LINE
  5
464
100
AcDbEntity
  8
0
100
AcDbLine
 62
7
  6
CONTINUOUS
 10
185.8991428155
 20
168.9243090049
 11
186.818381631
 21
168.4646895971
  0
LINE
  5
465
100
AcDbEntity
  8
0
100
AcDbLine
 62
7
  6
CONTINUOUS
 10
198.4856435206
 20
162.6310586523
 11
200.1119891173
 21
161.8178858539
  0
LINE
  5
466
100
AcDbEntity
  8
0
100
AcDbLine
 62
7
  6
CONTINUOUS
 10
201.8090453922
 20
160.9693577165
 11
202.7282842077
 21
160.5097383087
  0
LINE
  5
467
100
AcDbEntity
  8
0
100
AcDbLine
 62
250
  6
CONTINUOUS
 10
206.5374017239
 20
158.8044661814
 11
204.8588636535
 21
159.6437352166
  0
LINE
  5
468
100
AcDbEntity
  8
0
100
AcDbLine
 62
250
  6
CONTINUOUS
 10
194.2337437313
 20
164.9562951778
 11
192.5552056609
 21
165.795564213
  0
LINE
  5
469
100
AcDbEntity
  8
0
100
AcDbLine
 62
250
  6
CONTINUOUS
 10
190.6284253446
 20
166.7600887265
 11
188.9480348795
 21
167.6002839591
  0
LINE
  5
46A
100
AcDbEntity
  8
0
100
AcDbLine
 62
250
  6
CONTINUOUS
 10
178.3247673519
 20
172.9119177229
 11
176.6443768868
 21
173.7521129554
  0
LINE
  5
46B
100
AcDbEntity
  8
0
100
AcDbLine
 62
7
  6
CONTINUOUS
 10
201.7504667484
 20
161.3748936631
 11
200.6069638642
 21
161.9466451052
  0
LINE
  5
46C
100
AcDbEntity
  8
0
100
AcDbLine
 62
7
  6
CONTINUOUS
 10
185.8405641717
 20
169.3298449514
 11
184.6970612875
 21
169.9015963936
  0
LINE
  5
46D
100
AcDbEntity
  8
0
100
AcDbLine
 62
7
  6
CONTINUOUS
 10
180.2776439051
 20
172.1113050848
 11
181.202436375
 21
171.6489088498
  0
LINE
  5
46E
100
AcDbEntity
  8
0
100
AcDbLine
 62
7
  6
CONTINUOUS
 10
188.5507932449
 20
167.9747304148
 11
188.9013004557
 21
167.7994768094
  0
LINE
  5
46F
100
AcDbEntity
  8
0
100
AcDbLine
 62
7
  6
CONTINUOUS
 10
196.1875464818
 20
164.1563537964
 11
197.1129560377
 21
163.6936490185
  0
LINE
  5
470
100
AcDbEntity
  8
0
100
AcDbLine
 62
7
  6
CONTINUOUS
 10
204.4606958216
 20
160.0197791265
 11
204.8125114204
 21
159.8438713271
  0
LINE
  5
471
100
AcDbEntity
  8
0
100
AcDbLine
 62
7
  6
CONTINUOUS
 10
208.4912044744
 20
158.0045248001
 11
208.8444098599
 21
157.8279221074
  0
LWPOLYLINE
  5
472
100
AcDbEntity
  8
0
100
AcDbPolyline
 62
250
  6
CONTINUOUS
 90
15
 70
0
 10
176.6443768868
 20
173.4110046658
 10
176.636191853
 20
173.415296107
 10
176.6284230885
 20
173.4197768141
 10
176.6210880775
 20
173.4244367031
 10
176.6142033359
 20
173.4292652808
 10
176.6077843492
 20
173.4342516855
 10
176.6018455439
 20
173.4393847133
 10
176.5964002786
 20
173.4446528259
 10
176.5914608283
 20
173.4500441563
 10
176.5870383298
 20
173.4555465524
 10
176.5831427407
 20
173.4611476237
 10
176.579782823
 20
173.4668347709
 10
176.5769661388
 20
173.4725951939
 10
176.5746990273
 20
173.4784159283
 10
176.5729865908
 20
173.4842838739
  0
LWPOLYLINE
  5
473
100
AcDbEntity
  8
0
100
AcDbPolyline
 62
250
  6
CONTINUOUS
 90
15
 70
0
 10
188.9480348795
 20
167.2591756695
 10
188.9398498456
 20
167.2634671107
 10
188.9320810811
 20
167.2679478178
 10
188.9247460702
 20
167.2726077068
 10
188.9178613285
 20
167.2774362845
 10
188.9114423419
 20
167.2824226892
 10
188.9055035366
 20
167.287555717
 10
188.9000582713
 20
167.2928238296
 10
188.8951188209
 20
167.29821516
 10
188.8906963224
 20
167.303717556
 10
188.8868007333
 20
167.3093186274
 10
188.8834408157
 20
167.3150057745
 10
188.8806241315
 20
167.3207661976
 10
188.87835702
 20
167.326586932
 10
188.8766445834
 20
167.3324548776
  0
LWPOLYLINE
  5
474
100
AcDbEntity
  8
0
100
AcDbPolyline
 62
250
  6
CONTINUOUS
 90
18
 70
0
 10
176.6443768868
 20
173.7521129554
 10
176.6362052594
 20
173.7563970257
 10
176.6284453003
 20
173.7608716633
 10
176.6211149646
 20
173.765527055
 10
176.614230346
 20
173.7703536474
 10
176.6078085652
 20
173.7753401495
 10
176.6018670675
 20
173.7804733419
 10
176.5964199863
 20
173.785740891
 10
176.5914786784
 20
173.7911316803
 10
176.5870541914
 20
173.7966336748
 10
176.5831564645
 20
173.8022345681
 10
176.5797943575
 20
173.8079216903
 10
176.5769755177
 20
173.8136821269
 10
176.5747063028
 20
173.8195028596
 10
176.572991788
 20
173.8253708377
 10
176.5718358216
 20
173.8312728919
 10
176.5712410106
 20
173.8371957542
 10
176.5711535821
 20
173.8405013031
  0
LWPOLYLINE
  5
475
100
AcDbEntity
  8
0
100
AcDbPolyline
 62
250
  6
CONTINUOUS
 90
15
 70
0
 10
192.5552056609
 20
165.4555902788
 10
192.5470235932
 20
165.459880089
 10
192.5392574789
 20
165.4643590283
 10
192.5319247831
 20
165.4690170239
 10
192.5250420042
 20
165.4738435947
 10
192.5186246119
 20
165.4788278917
 10
192.5126870183
 20
165.483958724
 10
192.5072425695
 20
165.4892245666
 10
192.5023035294
 20
165.4946135666
 10
192.4978810256
 20
165.5001135862
 10
192.4939850083
 20
165.5057122496
 10
192.490624234
 20
165.5113969719
 10
192.4878062609
 20
165.5171549684
 10
192.4855374267
 20
165.5229732895
 10
192.4838228335
 20
165.5288388502
  0
LWPOLYLINE
  5
476
100
AcDbEntity
  8
0
100
AcDbPolyline
 62
250
  6
CONTINUOUS
 90
18
 70
0
 10
188.9480348795
 20
167.6002839591
 10
188.939863252
 20
167.6045680293
 10
188.9321032929
 20
167.609042667
 10
188.9247729572
 20
167.6136980587
 10
188.9178883387
 20
167.6185246511
 10
188.9114665578
 20
167.6235111532
 10
188.9055250601
 20
167.6286443456
 10
188.9000779789
 20
167.6339118947
 10
188.895136671
 20
167.639302684
 10
188.890712184
 20
167.6448046784
 10
188.8868144572
 20
167.6504055718
 10
188.8834523501
 20
167.656092694
 10
188.8806335103
 20
167.6618531306
 10
188.8783642955
 20
167.6676738632
 10
188.8766497806
 20
167.6735418414
 10
188.8754938143
 20
167.6794438956
 10
188.8748990033
 20
167.6853667579
 10
188.8748115748
 20
167.6886723067
  0
LWPOLYLINE
  5
477
100
AcDbEntity
  8
0
100
AcDbPolyline
 62
250
  6
CONTINUOUS
 90
15
 70
0
 10
204.8588636535
 20
159.3037612825
 10
204.8506815858
 20
159.3080510927
 10
204.8429154715
 20
159.312530032
 10
204.8355827758
 20
159.3171880276
 10
204.8286999968
 20
159.3220145984
 10
204.8222826045
 20
159.3269988954
 10
204.816345011
 20
159.3321297276
 10
204.8109005622
 20
159.3373955703
 10
204.8059615221
 20
159.3427845703
 10
204.8015390182
 20
159.3482845899
 10
204.7976430009
 20
159.3538832533
 10
204.7942822266
 20
159.3595679756
 10
204.7914642536
 20
159.3653259721
 10
204.7891954193
 20
159.3711442932
 10
204.7874808261
 20
159.3770098539
  0
LWPOLYLINE
  5
478
100
AcDbEntity
  8
0
100
AcDbPolyline
 62
250
  6
CONTINUOUS
 90
18
 70
0
 10
192.5552056609
 20
165.795564213
 10
192.5470369518
 20
165.7998466788
 10
192.5392796122
 20
165.8043195705
 10
192.5319515762
 20
165.808973085
 10
192.5250689214
 20
165.8137976775
 10
192.5186487462
 20
165.818782071
 10
192.512708471
 20
165.8239130668
 10
192.5072622139
 20
165.8291783475
 10
192.502321324
 20
165.8345668079
 10
192.4978968398
 20
165.8400664266
 10
192.4939986934
 20
165.8456649117
 10
192.4906357383
 20
165.851349608
 10
192.4878156181
 20
165.8571076169
 10
192.4855446884
 20
165.8629259351
 10
192.4838280247
 20
165.868791527
 10
192.4826694772
 20
165.8746912383
 10
192.4820716567
 20
165.8806118162
 10
192.4819823562
 20
165.8839525606
  0
LWPOLYLINE
  5
479
100
AcDbEntity
  8
0
100
AcDbPolyline
 62
250
  6
CONTINUOUS
 90
18
 70
0
 10
204.8588636535
 20
159.6437352166
 10
204.8506810561
 20
159.6480253181
 10
204.8429144575
 20
159.6525045797
 10
204.835581328
 20
159.6571629276
 10
204.8286981592
 20
159.6619898881
 10
204.8222804397
 20
159.6669746019
 10
204.8163426173
 20
159.6721058483
 10
204.8108980496
 20
159.6773720827
 10
204.8059589786
 20
159.6827614629
 10
204.8015365142
 20
159.6882618652
 10
204.7976406015
 20
159.6938609185
 10
204.7942800028
 20
159.6995460283
 10
204.7914622778
 20
159.7053044031
 10
204.7891937617
 20
159.7111230898
 10
204.787479554
 20
159.7169890017
 10
204.786323508
 20
159.7228889433
 10
204.7857282206
 20
159.7288096473
 10
204.7856403488
 20
159.7321235643
  0
LWPOLYLINE
  5
47A
100
AcDbEntity
  8
0
100
AcDbPolyline
 62
250
  6
CONTINUOUS
 90
34
 70
0
 10
190.8042764435
 20
167.0645176591
 10
190.8126307988
 20
167.0600528673
 10
190.8209719617
 20
167.0551081538
 10
190.8292810498
 20
167.049694083
 10
190.8375403904
 20
167.0438214324
 10
190.8457300062
 20
167.0375036634
 10
190.853827776
 20
167.03075752
 10
190.8618141646
 20
167.0235993898
 10
190.8696722954
 20
167.016044514
 10
190.8773845076
 20
167.0081098574
 10
190.884933419
 20
166.9998132637
 10
190.8923018123
 20
166.9911736146
 10
190.8994728303
 20
166.9822106626
 10
190.9064301629
 20
166.9729448064
 10
190.9131581156
 20
166.9633969611
 10
190.919641488
 20
166.9535886975
 10
190.9258656044
 20
166.9435422081
 10
190.9318163406
 20
166.9332802808
 10
190.9374802002
 20
166.9228261844
 10
190.9428443456
 20
166.9122036107
 10
190.9478966237
 20
166.9014366226
 10
190.9526255836
 20
166.8905496194
 10
190.9570205092
 20
166.8795672673
 10
190.9610714399
 20
166.8685144521
 10
190.9647691927
 20
166.8574162265
 10
190.9681053874
 20
166.8462977391
 10
190.9710724646
 20
166.8351841816
 10
190.9736636995
 20
166.8241007395
 10
190.9758732211
 20
166.8130725213
 10
190.9776960212
 20
166.8021245213
 10
190.9791279668
 20
166.7912815653
 10
190.9801658142
 20
166.780568228
 10
190.9808072144
 20
166.7700087777
 10
190.9810507156
 20
166.75962714
  0
LWPOLYLINE
  5
47B
100
AcDbEntity
  8
0
100
AcDbPolyline
 62
250
  6
CONTINUOUS
 90
34
 70
0
 10
178.5006184508
 20
173.2163466555
 10
178.5089865714
 20
173.2118741051
 10
178.5173378328
 20
173.2069223019
 10
178.5256533174
 20
173.2015024627
 10
178.5339141887
 20
173.1956268649
 10
178.5421017338
 20
173.1893088182
 10
178.5501974059
 20
173.1825626343
 10
178.5581828663
 20
173.1754035952
 10
178.566040026
 20
173.1678479177
 10
178.5737510867
 20
173.1599127172
 10
178.581298581
 20
173.151615969
 10
178.5886654119
 20
173.1429764671
 10
178.5958348918
 20
173.1340137822
 10
178.60279078
 20
173.1247482169
 10
178.6095173198
 20
173.11520076
 10
178.615999274
 20
173.1053930387
 10
178.6222219593
 20
173.0953472699
 10
178.6281712799
 20
173.0850862098
 10
178.633833759
 20
173.074633102
 10
178.6391965699
 20
173.0640116256
 10
178.6442475644
 20
173.0532458405
 10
178.6489753009
 20
173.0423601341
 10
178.6533690698
 20
173.031379165
 10
178.6574189182
 20
173.0203278078
 10
178.6611156722
 20
173.0092310966
 10
178.6644509577
 20
172.9981141679
 10
178.6674172196
 20
172.9870022045
 10
178.6700077385
 20
172.9759203775
 10
178.6722166463
 20
172.9648937901
 10
178.6740389393
 20
172.9539474201
 10
178.6754704894
 20
172.9431060636
 10
178.676508054
 20
172.932394279
 10
178.6771492827
 20
172.9218363312
 10
178.6773927229
 20
172.9114561363
  0
LWPOLYLINE
  5
47C
100
AcDbEntity
  8
0
100
AcDbPolyline
 62
250
  6
CONTINUOUS
 90
34
 70
0
 10
194.4094919873
 20
165.2606719927
 10
194.4178415227
 20
165.2562047782
 10
194.4261781042
 20
165.2512577687
 10
194.4344828599
 20
165.2458415346
 10
194.4427381261
 20
165.239966859
 10
194.4509239369
 20
165.2336472084
 10
194.4590181845
 20
165.2268993296
 10
194.4670013431
 20
165.2197396137
 10
194.4748565424
 20
165.2121833055
 10
194.4825661284
 20
165.2042473729
 10
194.4901127254
 20
165.1959496617
 10
194.4974791212
 20
165.1873090563
 10
194.504648463
 20
165.1783453116
 10
194.5116044447
 20
165.1690788277
 10
194.518331375
 20
165.1595305212
 10
194.5248140558
 20
165.1497219637
 10
194.531037813
 20
165.1396753482
 10
194.5369885235
 20
165.1294134627
 10
194.5426526911
 20
165.1189595759
 10
194.5480174774
 20
165.1083373787
 10
194.5530707282
 20
165.0975709332
 10
194.5578009902
 20
165.0866846369
 10
194.5621975448
 20
165.0757031546
 10
194.5662504276
 20
165.0646513696
 10
194.5699504513
 20
165.0535543322
 10
194.5732892307
 20
165.0424371881
 10
194.5762592004
 20
165.0313251256
 10
194.5788536293
 20
165.0202433266
 10
194.5810666392
 20
165.009216896
 10
194.5828932139
 20
164.9982708235
 10
194.584329212
 20
164.9874299302
 10
194.5853713807
 20
164.9767187859
 10
194.586017361
 20
164.9661616537
 10
194.5862656909
 20
164.9557824539
  0
LWPOLYLINE
  5
47D
100
AcDbEntity
  8
ASSI
100
AcDbPolyline
 62
7
  6
CONTINUOUS
 90
14
 70
0
 10
179.3937604286
 20
170.2801510859
 10
179.4687784998
 20
170.2380071275
 10
179.5418240003
 20
170.1886216688
 10
179.6128969302
 20
170.1319947099
 10
179.6826015442
 20
170.0674861501
 10
179.7503335876
 20
169.99573609
 10
179.8142802956
 20
169.9186648318
 10
179.8743394464
 20
169.836128678
 10
179.9306132618
 20
169.748271326
 10
179.9815956424
 20
169.6574441696
 10
180.0271436947
 20
169.5635670101
 10
180.0674003122
 20
169.4667200463
 10
180.1012880761
 20
169.3694952678
 10
180.1163120543
 20
169.3158682986
  0
LWPOLYLINE
  5
47E
100
AcDbEntity
  8
ASSI
100
AcDbPolyline
 62
7
  6
CONTINUOUS
 90
13
 70
0
 10
205.2031579419
 20
157.3754523293
 10
205.2781760131
 20
157.3333083708
 10
205.3512215136
 20
157.2839229122
 10
205.4222944435
 20
157.2272959532
 10
205.4919990575
 20
157.1627873934
 10
205.5597311009
 20
157.0910373334
 10
205.6236778089
 20
157.0139660751
 10
205.6837369597
 20
156.9314299213
 10
205.7400107751
 20
156.8435725693
 10
205.7909931557
 20
156.7527454129
 10
205.836541208
 20
156.6588682535
 10
205.8767978255
 20
156.5620212897
 10
205.9106855894
 20
156.4647965112
  0
LWPOLYLINE
  5
47F
100
AcDbEntity
  8
0
100
AcDbPolyline
 62
250
  6
CONTINUOUS
 90
4
 70
0
 10
188.9998249228
 20
167.1319612361
 10
189.0053981934
 20
167.1282150184
 10
189.0111988799
 20
167.124886535
 10
189.0130081759
 20
167.1239572194
  0
LWPOLYLINE
  5
480
100
AcDbEntity
  8
0
100
AcDbPolyline
 62
250
  6
CONTINUOUS
 90
4
 70
0
 10
192.6069957083
 20
165.3283758424
 10
192.6125689785
 20
165.3246296254
 10
192.6183696645
 20
165.3213011426
 10
192.6201789573
 20
165.3203718287
  0
LWPOLYLINE
  5
481
100
AcDbEntity
  8
0
100
AcDbPolyline
 62
250
  6
CONTINUOUS
 90
4
 70
0
 10
204.910653701
 20
159.1765468461
 10
204.9162269712
 20
159.1728006291
 10
204.9220276571
 20
159.1694721463
 10
204.9238369499
 20
159.1685428324
  0
LINE
  5
482
100
AcDbEntity
  8
RACCORDO
100
AcDbLine
 62
7
  6
CONTINUOUS
 10
226.6105611415
 20
142.8507043037
 11
226.0628079869
 21
143.3043435495
  0
LINE
  5
483
100
AcDbEntity
  8
DRAFT
100
AcDbLine
 62
250
  6
CONTINUOUS
 10
218.6960394691
 20
147.0903405529
 11
219.417174645
 21
146.4908826817
  0
LWPOLYLINE
  5
484
100
AcDbEntity
  8
0
100
AcDbPolyline
 62
250
  6
CONTINUOUS
 90
16
 70
0
 10
209.0194716462
 20
159.5225827644
 10
209.0234444309
 20
159.5158877651
 10
209.0270069449
 20
159.5094062074
 10
209.0301511475
 20
159.5031527203
 10
209.0328699408
 20
159.4971414214
 10
209.0351571901
 20
159.4913858748
 10
209.037007736
 20
159.485899062
 10
209.0384174009
 20
159.4806933618
 10
209.0393829984
 20
159.4757805322
 10
209.039902346
 20
159.4711716732
 10
209.0399742726
 20
159.4668771903
 10
209.0395986171
 20
159.4629067716
 10
209.0387762276
 20
159.4592693766
 10
209.0375089604
 20
159.4559732145
 10
209.035799676
 20
159.4530257253
 10
209.034868479
 20
159.4517918587
  0
LINE
  5
485
100
AcDbEntity
  8
0
100
AcDbLine
 62
7
  6
CONTINUOUS
 10
209.5917188374
 20
159.1009072731
 11
211.6518956352
 21
155.5476279068
  0
LINE
  5
486
100
AcDbEntity
  8
RACCORDO
100
AcDbLine
 62
7
  6
CONTINUOUS
 10
210.011484054
 20
158.3769193686
 11
211.2590345141
 21
156.2252131107
  0
LWPOLYLINE
  5
487
100
AcDbEntity
  8
0
100
AcDbPolyline
 62
250
  6
CONTINUOUS
 90
14
 70
0
 10
208.9870883904
 20
160.0123086139
 10
208.9917924602
 20
160.0014092215
 10
208.9961563821
 20
159.9904114228
 10
209.0001702657
 20
159.9793401383
 10
209.0038250119
 20
159.9682204621
 10
209.0071123383
 20
159.9570775915
 10
209.010024796
 20
159.9459367729
 10
209.0125557841
 20
159.9348232536
 10
209.0146995682
 20
159.9237622101
 10
209.016451289
 20
159.9127787106
 10
209.0178069748
 20
159.9018976612
 10
209.0187635549
 20
159.8911437226
 10
209.0193188643
 20
159.8805412549
 10
209.0194716462
 20
159.8701142811
  0
LWPOLYLINE
  5
488
100
AcDbEntity
  8
DRAFT
100
AcDbPolyline
 62
7
  6
CONTINUOUS
 90
3
 70
0
 10
210.8335617853
 20
167.8572368033
 10
210.830509806
 20
167.8702670001
 10
210.8264940273
 20
167.8855024429
  0
LINE
  5
489
100
AcDbEntity
  8
RACCORDO
100
AcDbLine
 62
7
  6
CONTINUOUS
 10
210.6970307474
 20
171.9105529395
 11
210.8600121914
 21
171.0841333554
  0
LINE
  5
48A
100
AcDbEntity
  8
RACCORDO
100
AcDbLine
 62
7
  6
CONTINUOUS
 10
218.5284796682
 20
164.4324930027
 11
218.5284796682
 21
163.865774894
  0
LINE
  5
48B
100
AcDbEntity
  8
0
100
AcDbLine
 62
250
  6
CONTINUOUS
 10
207.2481081037
 20
118.1416416992
 11
206.6257900716
 21
117.3965822817
  0
LINE
  5
48C
100
AcDbEntity
  8
0
100
AcDbLine
 62
250
  6
CONTINUOUS
 10
207.6011442917
 20
118.0158718612
 11
206.8899236836
 21
117.1643753841
  0
LWPOLYLINE
  5
48D
100
AcDbEntity
  8
0
100
AcDbPolyline
 62
7
  6
CONTINUOUS
 90
19
 70
0
 10
209.1214540468
 20
119.0544372889
 10
209.1295248232
 20
119.0632808277
 10
209.1372085028
 20
119.0727024315
 10
209.1444770855
 20
119.0826697932
 10
209.151319557
 20
119.0931659969
 10
209.1577283225
 20
119.1041775754
 10
209.1636861009
 20
119.1156704485
 10
209.1691788475
 20
119.1276063728
 10
209.1742113621
 20
119.1399837501
 10
209.1787932801
 20
119.1528248192
 10
209.1829215276
 20
119.1661308746
 10
209.1865823625
 20
119.1798686201
 10
209.1897668379
 20
119.1940109065
 10
209.1924711536
 20
119.2085472427
 10
209.1946886416
 20
119.223449745
 10
209.196411569
 20
119.2386610046
 10
209.1976394161
 20
119.2541453949
 10
209.1983749062
 20
119.2698918668
 10
209.198619797
 20
119.2858770954
  0
LINE
  5
48E
100
AcDbEntity
  8
RACCORDO
100
AcDbLine
 62
7
  6
CONTINUOUS
 10
211.2590345141
 20
123.1678158286
 11
210.011484054
 21
122.2636600308
  0
LINE
  5
48F
100
AcDbEntity
  8
0
100
AcDbLine
 62
7
  6
CONTINUOUS
 10
211.6518956352
 20
123.4525399113
 11
209.8995557508
 21
122.1825405671
  0
LWPOLYLINE
  5
490
100
AcDbEntity
  8
RACCORDO
100
AcDbPolyline
 62
7
  6
CONTINUOUS
 90
7
 70
0
 10
226.0303502951
 20
130.9185239388
 10
226.0443404407
 20
130.9262845783
 10
226.0581563185
 20
130.9343742974
 10
226.0717904947
 20
130.9427892451
 10
226.0852365348
 20
130.9515259792
 10
226.0984872092
 20
130.9605803625
 10
226.1075244681
 20
130.9670194871
  0
LINE
  5
491
100
AcDbEntity
  8
RACCORDO
100
AcDbLine
 62
250
  6
CONTINUOUS
 10
226.070256808
 20
130.9438496588
 11
217.9911964861
 21
126.6715094777
  0
LINE
  5
492
100
AcDbEntity
  8
RACCORDO
100
AcDbLine
 62
7
  6
CONTINUOUS
 10
226.0303502951
 20
130.9185239388
 11
217.9695043838
 21
126.6557882378
  0
LINE
  5
493
100
AcDbEntity
  8
RACCORDO
100
AcDbLine
 62
250
  6
CONTINUOUS
 10
211.6731849897
 20
124.1852989276
 11
226.616677651
 21
132.0571950282
  0
LINE
  5
494
100
AcDbEntity
  8
RACCORDO
100
AcDbLine
 62
250
  6
CONTINUOUS
 10
211.2590345141
 20
123.1678158286
 11
226.2025271754
 21
131.0397119292
  0
LINE
  5
495
100
AcDbEntity
  8
DRAFT
100
AcDbLine
 62
7
  6
CONTINUOUS
 10
210.011484054
 20
122.2636600308
 11
216.9080012165
 21
125.8864692614
  0
LINE
  5
496
100
AcDbEntity
  8
0
100
AcDbLine
 62
7
  6
CONTINUOUS
 10
215.3349901006
 20
124.6906515867
 11
209.8995557508
 21
121.9658685404
  0
LINE
  5
497
100
AcDbEntity
  8
0
100
AcDbLine
 62
7
  6
CONTINUOUS
 10
209.8995557508
 20
122.5798371236
 11
211.6518956352
 21
123.4525399113
  0
LINE
  5
498
100
AcDbEntity
  8
0
100
AcDbLine
 62
7
  6
CONTINUOUS
 10
216.1980412617
 20
125.2362219678
 11
209.8995557508
 21
122.1121267213
  0
LWPOLYLINE
  5
499
100
AcDbEntity
  8
RACCORDO
100
AcDbPolyline
 62
250
  6
CONTINUOUS
 90
14
 70
0
 10
210.2968185724
 20
165.2620186511
 10
210.2987524655
 20
165.2625136419
 10
210.3261301827
 20
165.2681207354
 10
210.3532234325
 20
165.2722568523
 10
210.3799892408
 20
165.2749154322
 10
210.4063851524
 20
165.2760922582
 10
210.4323692992
 20
165.275785464
 10
210.457900466
 20
165.2739955362
 10
210.4829381564
 20
165.2707253141
 10
210.5074426564
 20
165.2659799851
 10
210.5313750979
 20
165.259767076
 10
210.5546975203
 20
165.2520964417
 10
210.5773729304
 20
165.2429802493
 10
210.593989307
 20
165.2351750301
  0
LWPOLYLINE
  5
49A
100
AcDbEntity
  8
0
100
AcDbPolyline
 62
7
  6
CONTINUOUS
 90
16
 70
0
 10
209.1592804061
 20
164.3795695491
 10
209.1712720231
 20
164.3816139723
 10
209.1836056425
 20
164.3830462821
 10
209.196291775
 20
164.3838515698
 10
209.2093110012
 20
164.3840246121
 10
209.2226598069
 20
164.3835557037
 10
209.2363760876
 20
164.3824197956
 10
209.2504399177
 20
164.380613858
 10
209.2648491836
 20
164.3781215376
 10
209.2796737691
 20
164.3748911455
 10
209.2949205731
 20
164.370908169
 10
209.3105612344
 20
164.3661582207
 10
209.3266153121
 20
164.3605836784
 10
209.3430735205
 20
164.3541656924
 10
209.3599144806
 20
164.3468906631
 10
209.3785762946
 20
164.3379885265
  0
LWPOLYLINE
  5
49B
100
AcDbEntity
  8
0
100
AcDbPolyline
 62
7
  6
CONTINUOUS
 90
36
 70
0
 10
191.3779744939
 20
166.1324896994
 10
191.3818997992
 20
166.1317166274
 10
191.3911582377
 20
166.1302272972
 10
191.4005788239
 20
166.1291750595
 10
191.4101501758
 20
166.1285569446
 10
191.4198541704
 20
166.1283515706
 10
191.4296698644
 20
166.1285593435
 10
191.4395768832
 20
166.1291794851
 10
191.4495588484
 20
166.1301885463
 10
191.4595961443
 20
166.1315855695
 10
191.4696697579
 20
166.1333688898
 10
191.4797651162
 20
166.1355138419
 10
191.4898640946
 20
166.1380183593
 10
191.4999491116
 20
166.1408800237
 10
191.5100072637
 20
166.1440735971
 10
191.5200219845
 20
166.1475961348
 10
191.5299771464
 20
166.1514445705
 10
191.5398612771
 20
166.1555935137
 10
191.5496593649
 20
166.1600393262
 10
191.5593567377
 20
166.1647783841
 10
191.5689431138
 20
166.1697853867
 10
191.5784049995
 20
166.17505614
 10
191.5877291687
 20
166.1805865439
 10
191.5969063413
 20
166.1863515178
 10
191.6059244943
 20
166.1923464094
 10
191.6147718377
 20
166.1985667202
 10
191.6234399813
 20
166.2049876707
 10
191.6319183298
 20
166.2116042197
 10
191.6401965227
 20
166.2184115472
 10
191.6482670304
 20
166.22538526
 10
191.6561206501
 20
166.23251998
 10
191.6637484488
 20
166.2398106436
 10
191.6711437964
 20
166.2472333685
 10
191.6782993065
 20
166.2547765991
 10
191.6852069895
 20
166.2624410104
 10
191.691859933
 20
166.2702210229
  0
LINE
  5
49C
100
AcDbEntity
  8
0
100
AcDbLine
 62
7
  6
CONTINUOUS
 10
190.754143334
 20
166.2626383032
 11
191.3779748066
 21
166.1324868506
  0
LINE
  5
49D
100
AcDbEntity
  8
0
100
AcDbLine
 62
250
  6
CONTINUOUS
 10
190.9810507156
 20
166.4185188504
 11
191.691859933
 21
166.2702210229
  0
LINE
  5
49E
100
AcDbEntity
  8
0
100
AcDbLine
 62
7
  6
CONTINUOUS
 10
194.3594221974
 20
164.459987359
 11
194.9836177945
 21
164.3296547392
  0
LINE
  5
49F
100
AcDbEntity
  8
0
100
AcDbLine
 62
250
  6
CONTINUOUS
 10
194.5862656909
 20
164.6158085198
 11
195.297486299
 21
164.4673049969
  0
LWPOLYLINE
  5
4A0
100
AcDbEntity
  8
0
100
AcDbPolyline
 62
250
  6
CONTINUOUS
 90
16
 70
0
 10
201.949643997
 20
162.4464735201
 10
201.9429148502
 20
162.4496427892
 10
201.9362028056
 20
162.45241334
 10
201.9295230728
 20
162.4547788926
 10
201.9228907837
 20
162.4567340859
 10
201.9163209719
 20
162.4582744859
 10
201.9098285379
 20
162.4593965983
 10
201.903428197
 20
162.4600978807
 10
201.8971344486
 20
162.4603767452
 10
201.8909615557
 20
162.4602325607
 10
201.8849235048
 20
162.4596656546
 10
201.8790339788
 20
162.4586773124
 10
201.8733063282
 20
162.4572697761
 10
201.8677535322
 20
162.4554462376
 10
201.8623881711
 20
162.4532108307
 10
201.8600086905
 20
162.4520569029
  0
LWPOLYLINE
  5
4A1
100
AcDbEntity
  8
0
100
AcDbPolyline
 62
250
  6
CONTINUOUS
 90
16
 70
0
 10
186.0398236946
 20
170.4016182141
 10
186.0330944561
 20
170.4047874353
 10
186.0263821336
 20
170.407557844
 10
186.0197019371
 20
170.4099231606
 10
186.0130689998
 20
170.4118780247
 10
186.0064983566
 20
170.4134180029
 10
186.0000049099
 20
170.4145396017
 10
185.9936033774
 20
170.4152402801
 10
185.9873082613
 20
170.4155184515
 10
185.9811338276
 20
170.4153734864
 10
185.975094066
 20
170.4148057139
 10
185.9692026638
 20
170.4138164215
 10
185.9634729752
 20
170.4124078534
 10
185.9579179845
 20
170.4105832037
 10
185.9525502767
 20
170.4083466088
 10
185.9502072573
 20
170.4072111592
  0
LWPOLYLINE
  5
4A2
100
AcDbEntity
  8
0
100
AcDbPolyline
 62
7
  6
CONTINUOUS
 90
17
 70
0
 10
202.1625987828
 20
162.554468292
 10
202.1564299879
 20
162.5573878176
 10
202.1502729536
 20
162.5599720723
 10
202.1441393961
 20
162.5622161352
 10
202.1380409702
 20
162.5641157246
 10
202.1319892878
 20
162.5656672266
 10
202.1259958951
 20
162.5668677019
 10
202.1200721761
 20
162.5677148534
 10
202.1142293965
 20
162.5682070638
 10
202.1084787221
 20
162.5683434188
 10
202.1028310667
 20
162.568123643
 10
202.0972971615
 20
162.5675481456
 10
202.0918876009
 20
162.5666180532
 10
202.0866126417
 20
162.5653351166
 10
202.081482297
 20
162.5637017644
 10
202.0765064083
 20
162.5617211451
 10
202.0735410154
 20
162.5603390946
  0
LWPOLYLINE
  5
4A3
100
AcDbEntity
  8
0
100
AcDbPolyline
 62
7
  6
CONTINUOUS
 90
17
 70
0
 10
186.2526962061
 20
170.5094195803
 10
186.2465273794
 20
170.5123390839
 10
186.2403702341
 20
170.5149232786
 10
186.2342364865
 20
170.5171672437
 10
186.228137793
 20
170.519066698
 10
186.2220857658
 20
170.5206180279
 10
186.2160919505
 20
170.5218182936
 10
186.210167733
 20
170.522665199
 10
186.2043243805
 20
170.5231571274
 10
186.1985730578
 20
170.5232931641
 10
186.1929246815
 20
170.5230730348
 10
186.1873899852
 20
170.5224971499
 10
186.1819795618
 20
170.5215666352
 10
186.1767036716
 20
170.5202832432
 10
186.1715723311
 20
170.5186494041
 10
186.1665953799
 20
170.5166682652
 10
186.1636292562
 20
170.5152858571
  0
LWPOLYLINE
  5
4A4
100
AcDbEntity
  8
0
100
AcDbPolyline
 62
250
  6
CONTINUOUS
 90
34
 70
0
 10
200.1119891173
 20
163.0515002056
 10
200.1188794254
 20
163.0482152807
 10
200.1260745896
 20
163.0450980238
 10
200.1335583072
 20
163.0421554994
 10
200.1413136266
 20
163.0393943744
 10
200.1493229705
 20
163.0368209082
 10
200.1575681742
 20
163.0344409378
 10
200.1660305487
 20
163.0322598572
 10
200.1746909225
 20
163.0302826069
 10
200.1835296688
 20
163.0285136677
 10
200.1925267604
 20
163.0269570472
 10
200.2016618077
 20
163.0256162726
 10
200.2109141025
 20
163.0244943825
 10
200.2202626761
 20
163.0235939182
 10
200.2296863468
 20
163.0229169189
 10
200.2391637597
 20
163.0224649175
 10
200.2486734462
 20
163.0222389369
 10
200.2581938507
 20
163.0222394887
 10
200.2677033782
 20
163.0224665695
 10
200.2771804532
 20
163.0229196605
 10
200.2866036302
 20
163.0235977325
 10
200.2959516193
 20
163.0244992532
 10
200.3052033219
 20
163.0256221928
 10
200.314337688
 20
163.0269640012
 10
200.3233338327
 20
163.0285216049
 10
200.3321712653
 20
163.0302914384
 10
200.3408300907
 20
163.0322694993
 10
200.349290856
 20
163.0344513368
 10
200.3575356901
 20
163.0368324039
 10
200.3655445391
 20
163.0394069718
 10
200.3732957418
 20
163.0421678914
 10
200.3807709825
 20
163.0451081912
 10
200.3879549528
 20
163.048221386
 10
200.3948318298
 20
163.0515002056
  0
LWPOLYLINE
  5
4A5
100
AcDbEntity
  8
0
100
AcDbPolyline
 62
250
  6
CONTINUOUS
 90
34
 70
0
 10
184.2020865407
 20
171.0066032055
 10
184.2089758221
 20
171.0033187471
 10
184.2161698621
 20
171.0002019116
 10
184.2236523636
 20
170.9972597595
 10
184.2314063764
 20
170.9944989557
 10
184.2394143353
 20
170.9919257544
 10
184.2476580995
 20
170.9895459846
 10
184.2561189944
 20
170.9873650374
 10
184.2647778533
 20
170.9853878532
 10
184.273615061
 20
170.9836189111
 10
184.2826105984
 20
170.9820622182
 10
184.2917440879
 20
170.9807213009
 10
184.300994839
 20
170.979599197
 10
184.3103418958
 20
170.9786984482
 10
184.3197640844
 20
170.9780210951
 10
184.3292400603
 20
170.9775686721
 10
184.3387483574
 20
170.9773422041
 10
184.3482674364
 20
170.9773422041
 10
184.3577757335
 20
170.9775686721
 10
184.3672517094
 20
170.9780210951
 10
184.3766738979
 20
170.9786984482
 10
184.3860209548
 20
170.979599197
 10
184.3952717059
 20
170.9807213009
 10
184.4044051953
 20
170.9820622182
 10
184.4134007328
 20
170.9836189111
 10
184.4222379405
 20
170.9853878532
 10
184.4308967994
 20
170.9873650374
 10
184.4393576942
 20
170.9895459846
 10
184.4476014585
 20
170.9919257544
 10
184.4556094173
 20
170.9944989557
 10
184.4633634302
 20
170.9972597595
 10
184.4708459317
 20
171.0002019116
 10
184.4780399716
 20
171.0033187471
 10
184.4849292531
 20
171.0066032055
  0
LWPOLYLINE
  5
4A6
100
AcDbEntity
  8
0
100
AcDbPolyline
 62
250
  6
CONTINUOUS
 90
34
 70
0
 10
194.2337437313
 20
164.9562951778
 10
194.242308663
 20
164.9522108232
 10
194.2512544463
 20
164.9483321534
 10
194.2605614753
 20
164.9446681354
 10
194.2702106603
 20
164.941226808
 10
194.2801794475
 20
164.9380167204
 10
194.2904414389
 20
164.9350465828
 10
194.3009720004
 20
164.9323234543
 10
194.3117489211
 20
164.9298530093
 10
194.3227481585
 20
164.9276407672
 10
194.3339451287
 20
164.925691694
 10
194.3453145215
 20
164.9240102165
 10
194.3568305392
 20
164.9226001564
 10
194.3684671755
 20
164.9214646915
 10
194.3801983594
 20
164.9206063597
 10
194.3919977819
 20
164.9200270859
 10
194.4038389377
 20
164.9197281757
 10
194.4156951628
 20
164.9197103062
 10
194.4275397711
 20
164.9199735199
 10
194.4393461166
 20
164.920517226
 10
194.4510876502
 20
164.9213402034
 10
194.4627379591
 20
164.922440602
 10
194.4742708409
 20
164.9238159484
 10
194.4856603539
 20
164.9254631503
 10
194.4968808716
 20
164.9273785026
 10
194.507907155
 20
164.9295576974
 10
194.5187144052
 20
164.9319958342
 10
194.5292783106
 20
164.9346874289
 10
194.539575116
 20
164.9376264295
 10
194.5495816559
 20
164.9408062246
 10
194.5592754055
 20
164.944219656
 10
194.5686345577
 20
164.947859043
 10
194.5776380691
 20
164.9517162011
 10
194.5862656909
 20
164.9557824539
  0
LWPOLYLINE
  5
4A7
100
AcDbEntity
  8
0
100
AcDbPolyline
 62
250
  6
CONTINUOUS
 90
34
 70
0
 10
178.3247673519
 20
172.5708094333
 10
178.3333496046
 20
172.5667172026
 10
178.3423103363
 20
172.5628330762
 10
178.3516293834
 20
172.5591657941
 10
178.3612857755
 20
172.5557236088
 10
178.3712577835
 20
172.552514266
 10
178.3815229678
 20
172.5495449875
 10
178.3920582292
 20
172.5468224549
 10
178.4028398608
 20
172.5443527946
 10
178.4138436012
 20
172.5421415639
 10
178.4250446894
 20
172.5401937387
 10
178.4364179201
 20
172.5385137021
 10
178.4479377006
 20
172.5371052345
 10
178.4595781087
 20
172.5359715053
 10
178.4713129506
 20
172.5351150658
 10
178.4831158199
 20
172.5345378431
 10
178.4949601572
 20
172.5342411361
 10
178.50681931
 20
172.5342256125
 10
178.5186665921
 20
172.5344913071
 10
178.5304753443
 20
172.5350376222
 10
178.5422189938
 20
172.5358633284
 10
178.5538711147
 20
172.5369665677
 10
178.5654054867
 20
172.5383448574
 10
178.5767961547
 20
172.5399950961
 10
178.5880174868
 20
172.5419135703
 10
178.5990442323
 20
172.5440959631
 10
178.6098515782
 20
172.5465373634
 10
178.6204152053
 20
172.5492322775
 10
178.630711343
 20
172.5521746413
 10
178.6407168223
 20
172.5553578336
 10
178.6504091283
 20
172.5587746914
 10
178.6597664511
 20
172.5624175261
 10
178.6687677344
 20
172.5662781403
 10
178.6773927229
 20
172.5703478467
  0
LWPOLYLINE
  5
4A8
100
AcDbEntity
  8
0
100
AcDbPolyline
 62
250
  6
CONTINUOUS
 90
34
 70
0
 10
190.6284253446
 20
166.7600887265
 10
190.6369934851
 20
166.7560029128
 10
190.6459427604
 20
166.7521229333
 10
190.6552535438
 20
166.7484577654
 10
190.6649067286
 20
166.7450154561
 10
190.6748797327
 20
166.7418045657
 10
190.6851461175
 20
166.7388338169
 10
190.6956812158
 20
166.7361102763
 10
190.7064627944
 20
166.7336396223
 10
190.7174667833
 20
166.7314273788
 10
190.72866857
 20
166.7294785154
 10
190.7400428143
 20
166.7277974619
 10
190.7515636876
 20
166.726388042
 10
190.7632051529
 20
166.7252534345
 10
190.7749411092
 20
166.7243961771
 10
190.7867452175
 20
166.7238181939
 10
190.7985909422
 20
166.7235207885
 10
190.8104515893
 20
166.723504635
 10
190.8223004424
 20
166.7237697723
 10
190.8341108264
 20
166.7243156047
 10
190.8458561633
 20
166.7251409053
 10
190.857510012
 20
166.7262438176
 10
190.8690461426
 20
166.7276218607
 10
190.8804385868
 20
166.7292719338
 10
190.8916616925
 20
166.7311903225
 10
190.902690196
 20
166.7333727091
 10
190.9134992748
 20
166.7358141822
 10
190.9240645954
 20
166.7385092461
 10
190.9343623814
 20
166.7414518363
 10
190.944369448
 20
166.7446353286
 10
190.9540632525
 20
166.7480525511
 10
190.9634219711
 20
166.7516958088
 10
190.9724245461
 20
166.7555569023
 10
190.9810507156
 20
166.75962714
  0
LWPOLYLINE
  5
4A9
100
AcDbEntity
  8
0
100
AcDbPolyline
 62
250
  6
CONTINUOUS
 90
34
 70
0
 10
178.3247673519
 20
172.9119177229
 10
178.3333508158
 20
172.9078249415
 10
178.3423128741
 20
172.9039403174
 10
178.3516333558
 20
172.9002725954
 10
178.3612912896
 20
172.8968300299
 10
178.3712649319
 20
172.8936203731
 10
178.3815318147
 20
172.8906508563
 10
178.3920688223
 20
172.8879281644
 10
178.402852242
 20
172.8854584241
 10
178.4138577978
 20
172.8832471947
 10
178.4250607189
 20
172.8812994525
 10
178.4364357866
 20
172.8796195816
 10
178.4479573876
 20
172.8782113635
 10
178.4595995859
 20
172.8770779668
 10
178.4713361776
 20
172.8762219412
 10
178.4831407413
 20
172.8756452123
 10
178.4949867123
 20
172.8753490766
 10
178.5068474212
 20
172.8753341995
 10
178.5186961495
 20
172.8756006122
 10
178.5305061953
 20
172.87614771
 10
178.5422510103
 20
172.8769742588
 10
178.5539042364
 20
172.8780784032
 10
178.565439751
 20
172.8794576748
 10
178.5768314789
 20
172.8811089621
 10
178.5880535382
 20
172.8830285066
 10
178.5990805342
 20
172.885211942
 10
178.6098878127
 20
172.8876543634
 10
178.6204512599
 20
172.8903503126
 10
178.6307486289
 20
172.8932941832
 10
178.6407551308
 20
172.8964789616
 10
178.6504441204
 20
172.8998959513
 10
178.6597929015
 20
172.9035366279
 10
178.6687823373
 20
172.9073930005
 10
178.6773927229
 20
172.9114561363
  0
LWPOLYLINE
  5
4AA
100
AcDbEntity
  8
0
100
AcDbPolyline
 62
250
  6
CONTINUOUS
 90
16
 70
0
 10
196.6496304246
 20
166.3335146963
 10
196.6477352325
 20
166.3344307006
 10
196.6410404992
 20
166.3372637471
 10
196.634114023
 20
166.339585246
 10
196.6269713126
 20
166.3413899859
 10
196.6196284951
 20
166.3426738792
 10
196.6121022484
 20
166.343434023
 10
196.6044096142
 20
166.3436687373
 10
196.5965678016
 20
166.3433775375
 10
196.5885943026
 20
166.3425610878
 10
196.5805058252
 20
166.3412209834
 10
196.5723217539
 20
166.339360322
 10
196.5640640831
 20
166.3369844271
 10
196.5557526624
 20
166.3340997565
 10
196.54740503
 20
166.3307131381
 10
196.5390399498
 20
166.3268328163
  0
LWPOLYLINE
  5
4AB
100
AcDbEntity
  8
0
100
AcDbPolyline
 62
250
  6
CONTINUOUS
 90
16
 70
0
 10
193.0433858406
 20
168.1366369884
 10
193.0414906484
 20
168.1375529927
 10
193.0347959152
 20
168.1403860391
 10
193.027869439
 20
168.142707538
 10
193.0207267285
 20
168.144512278
 10
193.013383911
 20
168.1457961713
 10
193.0058576644
 20
168.146556315
 10
192.9981650301
 20
168.1467910293
 10
192.9903232175
 20
168.1464998295
 10
192.9823497186
 20
168.1456833798
 10
192.9742612411
 20
168.1443432754
 10
192.9660771698
 20
168.142482614
 10
192.957819499
 20
168.1401067191
 10
192.9495080783
 20
168.1372220485
 10
192.941160446
 20
168.1338354302
 10
192.9327953658
 20
168.1299551083
  0
LWPOLYLINE
  5
4AC
100
AcDbEntity
  8
0
100
AcDbPolyline
 62
250
  6
CONTINUOUS
 90
16
 70
0
 10
207.2625933509
 20
161.0270334866
 10
207.260513674
 20
161.0280414799
 10
207.2538189407
 20
161.0308745264
 10
207.2468924645
 20
161.0331960252
 10
207.2397497541
 20
161.0350007652
 10
207.2324069366
 20
161.0362846585
 10
207.2248806899
 20
161.0370448022
 10
207.2171880557
 20
161.0372795165
 10
207.2093462431
 20
161.0369883168
 10
207.2013727441
 20
161.036171867
 10
207.1932842667
 20
161.0348317626
 10
207.1851001954
 20
161.0329711012
 10
207.1768425246
 20
161.0305952064
 10
207.1685311039
 20
161.0277105357
 10
207.1601834715
 20
161.0243239174
 10
207.1518183913
 20
161.0204435955
  0
LWPOLYLINE
  5
4AD
100
AcDbEntity
  8
0
100
AcDbPolyline
 62
250
  6
CONTINUOUS
 90
16
 70
0
 10
191.3526907742
 20
168.981984775
 10
191.3506110973
 20
168.9829927682
 10
191.343916364
 20
168.9858258147
 10
191.3369898878
 20
168.9881473136
 10
191.3298471774
 20
168.9899520535
 10
191.3225043599
 20
168.9912359468
 10
191.3149781132
 20
168.9919960906
 10
191.307285479
 20
168.9922308049
 10
191.2994436664
 20
168.9919396051
 10
191.2914701674
 20
168.9911231554
 10
191.28338169
 20
168.989783051
 10
191.2751976187
 20
168.9879223896
 10
191.2669399479
 20
168.9855464947
 10
191.2586285272
 20
168.9826618241
 10
191.2502808948
 20
168.9792752057
 10
191.2419158146
 20
168.9753948839
  0
LWPOLYLINE
  5
4AE
100
AcDbEntity
  8
0
100
AcDbPolyline
 62
250
  6
CONTINUOUS
 90
16
 70
0
 10
208.953472902
 20
160.181593711
 10
208.9514104416
 20
160.182593618
 10
208.9447171335
 20
160.1854276942
 10
208.937792115
 20
160.1877503525
 10
208.9306509576
 20
160.1895563703
 10
208.9233097186
 20
160.1908416867
 10
208.9157849054
 20
160.1916034115
 10
208.9080934381
 20
160.191839832
 10
208.9002526116
 20
160.1915504164
 10
208.8922800565
 20
160.1907358156
 10
208.8841936998
 20
160.1893978614
 10
208.8760117241
 20
160.187539562
 10
208.8677525274
 20
160.1851650962
 10
208.8594346811
 20
160.182279803
 10
208.8510768884
 20
160.1788901703
 10
208.8426979425
 20
160.1750038199
  0
LWPOLYLINE
  5
4AF
100
AcDbEntity
  8
0
100
AcDbPolyline
 62
250
  6
CONTINUOUS
 90
3
 70
0
 10
194.9589353582
 20
167.1788624829
 10
194.9568728978
 20
167.1798623899
 10
194.9501795897
 20
167.1826964661
  0
LWPOLYLINE
  5
4B0
100
AcDbEntity
  8
0
100
AcDbPolyline
 62
250
  6
CONTINUOUS
 90
16
 70
0
 10
180.7399123327
 20
174.2883739957
 10
180.7378498723
 20
174.2893739027
 10
180.7311565642
 20
174.2922079788
 10
180.7242315457
 20
174.2945306372
 10
180.7170903882
 20
174.296336655
 10
180.7097491492
 20
174.2976219714
 10
180.7022243361
 20
174.2983836962
 10
180.6945328688
 20
174.2986201166
 10
180.6866920422
 20
174.2983307011
 10
180.6787194872
 20
174.2975161003
 10
180.6706331304
 20
174.296178146
 10
180.6624511548
 20
174.2943198467
 10
180.6541919581
 20
174.2919453809
 10
180.6458741118
 20
174.2890600877
 10
180.6375163191
 20
174.285670455
 10
180.6291373731
 20
174.2817841046
  0
LWPOLYLINE
  5
4B1
100
AcDbEntity
  8
0
100
AcDbPolyline
 62
250
  6
CONTINUOUS
 90
3
 70
0
 10
179.0490327815
 20
175.1338137713
 10
179.0469703211
 20
175.1348136783
 10
179.040277013
 20
175.1376477544
  0
LINE
  5
4B2
100
AcDbEntity
  8
0
100
AcDbLine
 62
250
  6
CONTINUOUS
 10
206.7131499799
 20
159.1088429964
 11
205.0346119095
 21
159.9481120316
  0
LINE
  5
4B3
100
AcDbEntity
  8
0
100
AcDbLine
 62
250
  6
CONTINUOUS
 10
194.4094919873
 20
165.2606719927
 11
192.7309539168
 21
166.0999410279
  0
LINE
  5
4B4
100
AcDbEntity
  8
0
100
AcDbLine
 62
250
  6
CONTINUOUS
 10
190.8042764435
 20
167.0645176591
 11
189.1238859784
 21
167.9047128917
  0
LINE
  5
4B5
100
AcDbEntity
  8
0
100
AcDbLine
 62
250
  6
CONTINUOUS
 10
178.5006184508
 20
173.2163466555
 11
176.8202279858
 21
174.056541888
  0
LINE
  5
4B6
100
AcDbEntity
  8
0
100
AcDbLine
 62
7
  6
CONTINUOUS
 10
197.1129560377
 20
164.0110719101
 11
197.7785367394
 21
163.6782815593
  0
LINE
  5
4B7
100
AcDbEntity
  8
0
100
AcDbLine
 62
7
  6
CONTINUOUS
 10
202.7282842077
 20
161.2034078251
 11
203.3938649095
 21
160.8706174742
  0
LINE
  5
4B8
100
AcDbEntity
  8
0
100
AcDbLine
 62
7
  6
CONTINUOUS
 10
187.4845794187
 20
168.8260159924
 11
186.818381631
 21
169.1591148863
  0
LINE
  5
4B9
100
AcDbEntity
  8
0
100
AcDbLine
 62
7
  6
CONTINUOUS
 10
181.8686341627
 20
171.6339886204
 11
181.202436375
 21
171.9670875143
  0
LINE
  5
4BA
100
AcDbEntity
  8
0
100
AcDbLine
 62
7
  6
CONTINUOUS
 10
180.2776439051
 20
172.8133734776
 11
180.9806368593
 21
172.4618770004
  0
LINE
  5
4BB
100
AcDbEntity
  8
0
100
AcDbLine
 62
7
  6
CONTINUOUS
 10
208.4912044744
 20
158.7065931929
 11
209.5460068475
 21
158.1791920063
  0
LINE
  5
4BC
100
AcDbEntity
  8
0
100
AcDbLine
 62
7
  6
CONTINUOUS
 10
185.4041680687
 20
170.2506152443
 11
185.8405641717
 21
170.0324171928
  0
LINE
  5
4BD
100
AcDbEntity
  8
0
100
AcDbLine
 62
7
  6
CONTINUOUS
 10
201.3140706454
 20
162.295663956
 11
201.7504667484
 21
162.0774659044
  0
LINE
  5
4BE
100
AcDbEntity
  8
0
100
AcDbLine
 62
250
  6
CONTINUOUS
 10
203.2644089626
 20
161.475290283
 11
201.8090453922
 21
162.2029720682
  0
LINE
  5
4BF
100
AcDbEntity
  8
0
100
AcDbLine
 62
250
  6
CONTINUOUS
 10
200.1119891173
 20
163.0515002056
 11
198.4856435206
 21
163.864673004
  0
LINE
  5
4C0
100
AcDbEntity
  8
0
100
AcDbLine
 62
250
  6
CONTINUOUS
 10
187.3542857549
 20
169.4305035983
 11
185.8991428155
 21
170.158075068
  0
LINE
  5
4C1
100
AcDbEntity
  8
0
100
AcDbLine
 62
250
  6
CONTINUOUS
 10
184.2020865407
 20
171.0066032055
 11
182.5757409439
 21
171.8197760038
  0
LINE
  5
4C2
100
AcDbEntity
  8
0
100
AcDbLine
 62
250
  6
CONTINUOUS
 10
203.5759895937
 20
161.6333007218
 11
201.949643997
 21
162.4464735201
  0
LINE
  5
4C3
100
AcDbEntity
  8
0
100
AcDbLine
 62
250
  6
CONTINUOUS
 10
200.2525877221
 20
163.2950016576
 11
198.6262421254
 21
164.1081744559
  0
LINE
  5
4C4
100
AcDbEntity
  8
0
100
AcDbLine
 62
250
  6
CONTINUOUS
 10
187.6661692914
 20
169.5884454157
 11
186.0398236946
 21
170.4016182141
  0
LINE
  5
4C5
100
AcDbEntity
  8
0
100
AcDbLine
 62
250
  6
CONTINUOUS
 10
184.3427674198
 20
171.2501463515
 11
182.7164218231
 21
172.0633191499
  0
LINE
  5
4C6
100
AcDbEntity
  8
0
100
AcDbLine
 62
7
  6
CONTINUOUS
 10
182.2575428924
 20
172.5069962372
 11
184.5556399312
 21
171.3579477177
  0
LINE
  5
4C7
100
AcDbEntity
  8
0
100
AcDbLine
 62
7
  6
CONTINUOUS
 10
186.2526962061
 20
170.5094195803
 11
188.5507932449
 21
169.3603710609
  0
LINE
  5
4C8
100
AcDbEntity
  8
0
100
AcDbLine
 62
7
  6
CONTINUOUS
 10
198.1674454691
 20
164.5520449488
 11
200.4655425079
 21
163.4029964294
  0
LINE
  5
4C9
100
AcDbEntity
  8
0
100
AcDbLine
 62
7
  6
CONTINUOUS
 10
202.1625987828
 20
162.554468292
 11
204.4606958216
 21
161.4054197725
  0
LINE
  5
4CA
100
AcDbEntity
  8
0
100
AcDbLine
 62
7
  6
CONTINUOUS
 10
208.3144307707
 20
159.9115649999
 11
206.6173685126
 21
160.7600961289
  0
LINE
  5
4CB
100
AcDbEntity
  8
0
100
AcDbLine
 62
7
  6
CONTINUOUS
 10
196.0107727781
 20
166.0633939962
 11
194.31371052
 21
166.9119251253
  0
LINE
  5
4CC
100
AcDbEntity
  8
0
100
AcDbLine
 62
7
  6
CONTINUOUS
 10
192.404528194
 20
167.8665162882
 11
190.707465936
 21
168.7150474173
  0
LINE
  5
4CD
100
AcDbEntity
  8
0
100
AcDbLine
 62
7
  6
CONTINUOUS
 10
180.1008702014
 20
174.0183452846
 11
178.4038079433
 21
174.8668764136
  0
LINE
  5
4CE
100
AcDbEntity
  8
0
100
AcDbLine
 62
7
  6
CONTINUOUS
 10
185.4041680687
 20
171.4166989545
 11
186.6890556105
 21
170.7742551836
  0
LINE
  5
4CF
100
AcDbEntity
  8
0
100
AcDbLine
 62
7
  6
CONTINUOUS
 10
201.3140706454
 20
163.4617476661
 11
202.5989581872
 21
162.8193038952
  0
LINE
  5
4D0
100
AcDbEntity
  8
0
100
AcDbLine
 62
7
  6
CONTINUOUS
 10
183.6364011157
 20
172.5196355183
 11
185.2627467124
 21
171.7064627199
  0
LINE
  5
4D1
100
AcDbEntity
  8
0
100
AcDbLine
 62
7
  6
CONTINUOUS
 10
186.9598029873
 20
170.8579345825
 11
188.586148584
 21
170.0447617841
  0
LINE
  5
4D2
100
AcDbEntity
  8
0
100
AcDbLine
 62
7
  6
CONTINUOUS
 10
199.5463036924
 20
164.5646842299
 11
201.1726492891
 21
163.7515114316
  0
LINE
  5
4D3
100
AcDbEntity
  8
0
100
AcDbLine
 62
7
  6
CONTINUOUS
 10
202.869705564
 20
162.9029832942
 11
204.4960511607
 21
162.0898104958
  0
LINE
  5
4D4
100
AcDbEntity
  8
0
100
AcDbLine
 62
250
  6
CONTINUOUS
 10
178.938257822
 20
175.1272238802
 11
180.6291373731
 21
174.2817841046
  0
LINE
  5
4D5
100
AcDbEntity
  8
0
100
AcDbLine
 62
250
  6
CONTINUOUS
 10
191.2419158146
 20
168.9753948839
 11
192.9327953658
 21
168.1299551083
  0
LINE
  5
4D6
100
AcDbEntity
  8
0
100
AcDbLine
 62
250
  6
CONTINUOUS
 10
194.8481603987
 20
167.1722725918
 11
196.5390399498
 21
166.3268328163
  0
LINE
  5
4D7
100
AcDbEntity
  8
0
100
AcDbLine
 62
250
  6
CONTINUOUS
 10
207.1518183913
 20
161.0204435955
 11
208.8426979425
 21
160.1750038199
  0
LINE
  5
4D8
100
AcDbEntity
  8
0
100
AcDbLine
 62
7
  6
CONTINUOUS
 10
179.0490327815
 20
175.1338137713
 11
180.7399123327
 21
174.2883739957
  0
LINE
  5
4D9
100
AcDbEntity
  8
0
100
AcDbLine
 62
7
  6
CONTINUOUS
 10
191.3526907742
 20
168.981984775
 11
193.0435703253
 21
168.1365449994
  0
LINE
  5
4DA
100
AcDbEntity
  8
0
100
AcDbLine
 62
7
  6
CONTINUOUS
 10
194.9589353582
 20
167.1788624829
 11
196.6498149094
 21
166.3334227074
  0
LINE
  5
4DB
100
AcDbEntity
  8
0
100
AcDbLine
 62
7
  6
CONTINUOUS
 10
207.2625933509
 20
161.0270334866
 11
208.953472902
 21
160.181593711
  0
LINE
  5
4DC
100
AcDbEntity
  8
RACCORDO
100
AcDbLine
 62
250
  6
CONTINUOUS
 10
192.7687509706
 20
169.0691617546
 11
193.0499849023
 21
168.9285447887
  0
LINE
  5
4DD
100
AcDbEntity
  8
RACCORDO
100
AcDbLine
 62
250
  6
CONTINUOUS
 10
208.6786535473
 20
161.1142104662
 11
208.959887479
 21
160.9735935004
  0
LINE
  5
4DE
100
AcDbEntity
  8
RACCORDO
100
AcDbLine
 62
250
  6
CONTINUOUS
 10
193.1202474477
 20
169.6799796085
 11
193.7126727476
 21
169.3837669586
  0
LINE
  5
4DF
100
AcDbEntity
  8
RACCORDO
100
AcDbLine
 62
250
  6
CONTINUOUS
 10
209.0301500244
 20
161.7250283202
 11
209.6225753243
 21
161.4288156702
  0
LWPOLYLINE
  5
4E0
100
AcDbEntity
  8
0
100
AcDbPolyline
 62
250
  6
CONTINUOUS
 90
11
 70
0
 10
180.6291373731
 20
174.2817841046
 10
180.6375822906
 20
174.2773645811
 10
180.6460094325
 20
174.2724628518
 10
180.6543997162
 20
174.2670893817
 10
180.6627352888
 20
174.2612548593
 10
180.6709959831
 20
174.2549726504
 10
180.679159486
 20
174.2482593993
 10
180.6872061059
 20
174.241131414
 10
180.6951188391
 20
174.2336038728
 10
180.7028799025
 20
174.2256936789
 10
180.7104718038
 20
174.2174186199
  0
LWPOLYLINE
  5
4E1
100
AcDbEntity
  8
0
100
AcDbPolyline
 62
250
  6
CONTINUOUS
 90
11
 70
0
 10
192.9327953658
 20
168.1299551083
 10
192.9412541838
 20
168.1255279047
 10
192.949691511
 20
168.1206191378
 10
192.958088235
 20
168.115239927
 10
192.9664253353
 20
168.1094024575
 10
192.9746839266
 20
168.1031199525
 10
192.9828453013
 20
168.0964066431
 10
192.990890972
 20
168.0892777367
 10
192.9988027135
 20
168.0817493817
 10
193.0065626039
 20
168.0738386316
 10
193.0141530654
 20
168.0655634059
  0
LWPOLYLINE
  5
4E2
100
AcDbEntity
  8
0
100
AcDbPolyline
 62
250
  6
CONTINUOUS
 90
11
 70
0
 10
196.5390399498
 20
166.3268328163
 10
196.5474987678
 20
166.3224056126
 10
196.555936095
 20
166.3174968457
 10
196.564332819
 20
166.312117635
 10
196.5726699194
 20
166.3062801655
 10
196.5809285107
 20
166.2999976604
 10
196.5890898853
 20
166.2932843511
 10
196.597135556
 20
166.2861554447
 10
196.6050472975
 20
166.2786270897
 10
196.612807188
 20
166.2707163395
 10
196.6203976494
 20
166.2624411139
  0
LWPOLYLINE
  5
4E3
100
AcDbEntity
  8
0
100
AcDbPolyline
 62
250
  6
CONTINUOUS
 90
11
 70
0
 10
208.8426979425
 20
160.1750038199
 10
208.8511428599
 20
160.1705842964
 10
208.8595700019
 20
160.1656825672
 10
208.8679602855
 20
160.160309097
 10
208.8762958581
 20
160.1544745746
 10
208.8845565524
 20
160.1481923658
 10
208.8927200554
 20
160.1414791147
 10
208.9007666752
 20
160.1343511293
 10
208.9086794084
 20
160.1268235882
 10
208.9164404719
 20
160.1189133942
 10
208.9240323732
 20
160.1106383352
  0
LWPOLYLINE
  5
4E4
100
AcDbEntity
  8
0
100
AcDbPolyline
 62
250
  6
CONTINUOUS
 90
18
 70
0
 10
185.8991428155
 20
170.158075068
 10
185.8925738989
 20
170.1615197088
 10
185.8863402278
 20
170.1651167287
 10
185.8804559236
 20
170.1688579795
 10
185.874934316
 20
170.1727349859
 10
185.8697879133
 20
170.1767389654
 10
185.8650283738
 20
170.1808608475
 10
185.8606664794
 20
170.1850912949
 10
185.856712111
 20
170.1894207243
 10
185.8531742267
 20
170.1938393282
 10
185.850060841
 20
170.1983370969
 10
185.8473790065
 20
170.2029038416
 10
185.8451347985
 20
170.2075292172
 10
185.843333301
 20
170.2122027456
 10
185.8419785948
 20
170.2169138399
 10
185.8410737488
 20
170.2216518278
 10
185.8406208128
 20
170.2264059764
 10
185.8405641717
 20
170.2287857461
  0
LWPOLYLINE
  5
4E5
100
AcDbEntity
  8
0
100
AcDbPolyline
 62
250
  6
CONTINUOUS
 90
18
 70
0
 10
201.8090453922
 20
162.2029720682
 10
201.8024764756
 20
162.2064167089
 10
201.7962428045
 20
162.2100137289
 10
201.7903585003
 20
162.2137549796
 10
201.7848368927
 20
162.2176319861
 10
201.77969049
 20
162.2216359655
 10
201.7749309505
 20
162.2257578476
 10
201.7705690561
 20
162.2299882951
 10
201.7666146877
 20
162.2343177245
 10
201.7630768034
 20
162.2387363283
 10
201.7599634176
 20
162.2432340971
 10
201.7572815832
 20
162.2478008418
 10
201.7550373752
 20
162.2524262173
 10
201.7532358777
 20
162.2570997458
 10
201.7518811715
 20
162.26181084
 10
201.7509763255
 20
162.266548828
 10
201.7505233895
 20
162.2713029765
 10
201.7504667484
 20
162.2736827463
  0
LWPOLYLINE
  5
4E6
100
AcDbEntity
  8
0
100
AcDbPolyline
 62
7
  6
CONTINUOUS
 90
37
 70
0
 10
184.5556399312
 20
171.3579477177
 10
184.561808656
 20
171.3546984456
 10
184.5679655694
 20
171.351125611
 10
184.5740989469
 20
171.3472360134
 10
184.5801970935
 20
171.3430370478
 10
184.5862484035
 20
171.338536709
 10
184.5922413833
 20
171.3337435772
 10
184.5981646012
 20
171.3286667649
 10
184.604006772
 20
171.3233159316
 10
184.6097568164
 20
171.3177012848
 10
184.6154037576
 20
171.3118334967
 10
184.6209368281
 20
171.3057237285
 10
184.6263455524
 20
171.2993836399
 10
184.6316195965
 20
171.2928252808
 10
184.6367488947
 20
171.2860611223
 10
184.641723755
 20
171.2791040776
 10
184.6465346628
 20
171.2719673672
 10
184.6511724266
 20
171.2646645596
 10
184.6556283036
 20
171.2572095996
 10
184.6598937613
 20
171.2496166528
 10
184.6639606397
 20
171.2419001524
 10
184.6678212948
 20
171.2340748365
 10
184.6714683225
 20
171.2261555732
 10
184.6748947335
 20
171.2181574133
 10
184.6780941137
 20
171.2100956362
 10
184.6810603136
 20
171.2019855579
 10
184.6837876347
 20
171.1938425896
 10
184.686271002
 20
171.1856822903
 10
184.6885056261
 20
171.1775201617
 10
184.6904871967
 20
171.1693717118
 10
184.6922120646
 20
171.161252513
 10
184.6936768827
 20
171.1531779877
 10
184.6948788021
 20
171.1451634752
 10
184.6958156623
 20
171.1372242949
 10
184.6964856799
 20
171.1293755586
 10
184.6968874518
 20
171.1216321419
 10
184.6970201491
 20
171.1140087516
  0
LWPOLYLINE
  5
4E7
100
AcDbEntity
  8
0
100
AcDbPolyline
 62
7
  6
CONTINUOUS
 90
37
 70
0
 10
200.4655425079
 20
163.4029964294
 10
200.4717112781
 20
163.3997471725
 10
200.4778683153
 20
163.3961743915
 10
200.4840018947
 20
163.3922848859
 10
200.4901003197
 20
163.3880860499
 10
200.4961519843
 20
163.3835858784
 10
200.5021453956
 20
163.3787929517
 10
200.5080691198
 20
163.3737163816
 10
200.5139118702
 20
163.3683658269
 10
200.5196625686
 20
163.3627514956
 10
200.5253102352
 20
163.3568840588
 10
200.5308441002
 20
163.3507746762
 10
200.5362536898
 20
163.3444350088
 10
200.5415286661
 20
163.3378771044
 10
200.5466589603
 20
163.3311134328
 10
200.5516348824
 20
163.324156908
 10
200.5564469134
 20
163.3170207487
 10
200.5610858577
 20
163.3097185211
 10
200.5655429751
 20
163.3022641715
 10
200.5698097279
 20
163.2946718629
 10
200.5738779516
 20
163.2869560262
 10
200.5777400048
 20
163.279131401
 10
200.5813884777
 20
163.2712128524
 10
200.584816376
 20
163.2632154288
 10
200.5880172884
 20
163.255154411
 10
200.5909850593
 20
163.247045112
 10
200.5937139847
 20
163.2389029398
 10
200.5961989926
 20
163.2307434553
 10
200.5984352872
 20
163.222582157
 10
200.6004185521
 20
163.2144345494
 10
200.6021451415
 20
163.2063162068
 10
200.6036117015
 20
163.1982425483
 10
200.6048153768
 20
163.1902289095
 10
200.6057540103
 20
163.1822906118
 10
200.6064258152
 20
163.1744427652
 10
200.6068293785
 20
163.1667002399
 10
200.6069638642
 20
163.1590777393
  0
LWPOLYLINE
  5
4E8
100
AcDbEntity
  8
0
100
AcDbPolyline
 62
250
  6
CONTINUOUS
 90
34
 70
0
 10
184.3427674198
 20
171.2501463515
 10
184.3494983362
 20
171.2465854953
 10
184.3562156887
 20
171.2426410665
 10
184.3629042557
 20
171.2383220013
 10
184.3695488853
 20
171.2336380819
 10
184.376134516
 20
171.2285999231
 10
184.3826462114
 20
171.223218951
 10
184.3890692124
 20
171.2175073626
 10
184.3953889683
 20
171.211478098
 10
184.4015911572
 20
171.2051448216
 10
184.4076617263
 20
171.1985218837
 10
184.4135869189
 20
171.191624294
 10
184.4193533037
 20
171.1844676891
 10
184.4249478136
 20
171.1770682891
 10
184.430357774
 20
171.1694428602
 10
184.4355709264
 20
171.161608683
 10
184.4405754627
 20
171.1535835046
 10
184.4453600399
 20
171.1453855164
 10
184.4499138075
 20
171.1370333147
 10
184.4542264373
 20
171.1285458522
 10
184.458288174
 20
171.1199423376
 10
184.4620898413
 20
171.1112422094
 10
184.465622854
 20
171.1024651003
 10
184.4688791686
 20
171.0936309771
 10
184.4718513455
 20
171.0847600411
 10
184.4745326329
 20
171.0758725102
 10
184.4769170122
 20
171.066988406
 10
184.4789991331
 20
171.0581276932
 10
184.4807745365
 20
171.0493090451
 10
184.4822388419
 20
171.0405538639
 10
184.4833882741
 20
171.0318859599
 10
184.4842205621
 20
171.0233261366
 10
184.4847344622
 20
171.0148922604
 10
184.4849292531
 20
171.0066032055
  0
LWPOLYLINE
  5
4E9
100
AcDbEntity
  8
0
100
AcDbPolyline
 62
250
  6
CONTINUOUS
 90
34
 70
0
 10
200.2525877221
 20
163.2950016576
 10
200.2593177531
 20
163.2914413947
 10
200.2660344022
 20
163.2874977703
 10
200.272722454
 20
163.2831797179
 10
200.279366758
 20
163.2784970194
 10
200.2859522626
 20
163.2734602824
 10
200.2924640496
 20
163.268080917
 10
200.2988873677
 20
163.262371109
 10
200.3052076661
 20
163.256343793
 10
200.3114106271
 20
163.2500126228
 10
200.3174821991
 20
163.2433919406
 10
200.323408628
 20
163.2364967444
 10
200.3291764887
 20
163.2293426538
 10
200.3347727149
 20
163.2219458754
 10
200.3401846295
 20
163.2143231651
 10
200.3453999727
 20
163.2064917909
 10
200.3504069301
 20
163.1984694934
 10
200.3551941593
 20
163.1902744455
 10
200.3597508157
 20
163.1819252118
 10
200.3640665771
 20
163.1734407059
 10
200.3681316668
 20
163.1648401481
 10
200.3719368761
 20
163.1561430212
 10
200.375473585
 20
163.1473690271
 10
200.3787337817
 20
163.1385380417
 10
200.3817100807
 20
163.1296700701
 10
200.3843957399
 20
163.120785201
 10
200.3867846754
 20
163.1119035615
 10
200.3888714753
 20
163.1030452714
 10
200.3906514126
 20
163.0942303976
 10
200.3921204549
 20
163.0854789086
 10
200.3932752746
 20
163.0768106294
 10
200.3941132555
 20
163.0682451963
 10
200.3946324993
 20
163.0598020129
 10
200.3948318298
 20
163.0515002056
  0
LWPOLYLINE
  5
4EA
100
AcDbEntity
  8
0
100
AcDbPolyline
 62
7
  6
CONTINUOUS
 90
34
 70
0
 10
180.1008702014
 20
174.0183452846
 10
180.1092835931
 20
174.0138955952
 10
180.1176780211
 20
174.0089655771
 10
180.1260343732
 20
174.0035663425
 10
180.1343335594
 20
173.9977100223
 10
180.1425567628
 20
173.9914098796
 10
180.150685484
 20
173.9846802853
 10
180.158701244
 20
173.9775364637
 10
180.1665858087
 20
173.9699945453
 10
180.1743214387
 20
173.9620716754
 10
180.1818905757
 20
173.9537857827
 10
180.189276005
 20
173.9451556022
 10
180.1964610779
 20
173.9362007263
 10
180.203429504
 20
173.9269414323
 10
180.2101654489
 20
173.9173986701
 10
180.2166536939
 20
173.9075940802
 10
180.2228795483
 20
173.8975498756
 10
180.2288288807
 20
173.8872887949
 10
180.2344882127
 20
173.8768340854
 10
180.2398447524
 20
173.8662094436
 10
180.2448863592
 20
173.8554389337
 10
180.2496015695
 20
173.844546936
 10
180.2539797512
 20
173.833558148
 10
180.2580110013
 20
173.8224974691
 10
180.2616861047
 20
173.8113899157
 10
180.2649968053
 20
173.8002606835
 10
180.2679356396
 20
173.7891350002
 10
180.2704958284
 20
173.7780380082
 10
180.272671662
 20
173.7669948746
 10
180.2744582646
 20
173.7560306556
 10
180.2758514263
 20
173.7451701485
 10
180.2768480016
 20
173.7344379694
 10
180.2774459119
 20
173.7238584984
 10
180.2776439051
 20
173.7134557458
  0
LWPOLYLINE
  5
4EB
100
AcDbEntity
  8
0
100
AcDbPolyline
 62
7
  6
CONTINUOUS
 90
34
 70
0
 10
192.404528194
 20
167.8665162882
 10
192.4129415858
 20
167.8620665989
 10
192.4213360138
 20
167.8571365807
 10
192.4296923659
 20
167.8517373462
 10
192.4379915521
 20
167.845881026
 10
192.4462147555
 20
167.8395808833
 10
192.4543434766
 20
167.832851289
 10
192.4623592366
 20
167.8257074674
 10
192.4702438013
 20
167.8181655489
 10
192.4779794314
 20
167.8102426791
 10
192.4855485684
 20
167.8019567864
 10
192.4929339977
 20
167.7933266059
 10
192.5001190706
 20
167.78437173
 10
192.5070874966
 20
167.7751124359
 10
192.5138234415
 20
167.7655696738
 10
192.5203116865
 20
167.7557650839
 10
192.5265375409
 20
167.7457208793
 10
192.5324868734
 20
167.7354597986
 10
192.5381462053
 20
167.725005089
 10
192.543502745
 20
167.7143804473
 10
192.5485443519
 20
167.7036099374
 10
192.5532595622
 20
167.6927179396
 10
192.5576377438
 20
167.6817291516
 10
192.5616689939
 20
167.6706684728
 10
192.5653440974
 20
167.6595609194
 10
192.5686547979
 20
167.6484316872
 10
192.5715936322
 20
167.6373060038
 10
192.574153821
 20
167.6262090119
 10
192.5763296546
 20
167.6151658783
 10
192.5781162573
 20
167.6042016593
 10
192.579509419
 20
167.5933411522
 10
192.5805059943
 20
167.5826089731
 10
192.5811039045
 20
167.5720295021
 10
192.5813018977
 20
167.5616267494
  0
LWPOLYLINE
  5
4EC
100
AcDbEntity
  8
0
100
AcDbPolyline
 62
7
  6
CONTINUOUS
 90
34
 70
0
 10
196.0107727781
 20
166.0633939962
 10
196.0191838535
 20
166.0589430818
 10
196.0275760711
 20
166.0540119114
 10
196.0359303189
 20
166.0486116018
 10
196.0442274928
 20
166.0427542931
 10
196.0524487912
 20
166.0364532483
 10
196.060575757
 20
166.0297228232
 10
196.0685899224
 20
166.0225782324
 10
196.0764730417
 20
166.0150356131
 10
196.0842073839
 20
166.0071121161
 10
196.0917753915
 20
165.99882567
 10
196.0991598484
 20
165.9901950086
 10
196.106344111
 20
165.981239729
 10
196.1133118896
 20
165.9719801085
 10
196.1200473488
 20
165.9624370965
 10
196.1265352716
 20
165.9526323367
 10
196.1327609682
 20
165.9425880427
 10
196.1387103061
 20
165.9323269526
 10
196.1443698055
 20
165.9218723157
 10
196.1497266759
 20
165.9112478293
 10
196.1547687756
 20
165.900477557
 10
196.1594846367
 20
165.8895858797
 10
196.1638636285
 20
165.8785974957
 10
196.1678958475
 20
165.8675373039
 10
196.1715720714
 20
165.8564303195
 10
196.1748840457
 20
165.8453017387
 10
196.1778243065
 20
165.8341767886
 10
196.1803860651
 20
165.8230806087
 10
196.1825636111
 20
165.8120383801
 10
196.184352072
 20
165.8010751439
 10
196.1857472303
 20
165.7902156522
 10
196.1867459339
 20
165.7794845069
 10
196.1873461029
 20
165.7689061046
 10
196.1875464818
 20
165.7585044574
  0
LWPOLYLINE
  5
4ED
100
AcDbEntity
  8
0
100
AcDbPolyline
 62
7
  6
CONTINUOUS
 90
34
 70
0
 10
208.3144307707
 20
159.9115649999
 10
208.3228418462
 20
159.9071140855
 10
208.3312340638
 20
159.9021829151
 10
208.3395883115
 20
159.8967826055
 10
208.3478854855
 20
159.8909252968
 10
208.3561067838
 20
159.884624252
 10
208.3642337496
 20
159.8778938269
 10
208.372247915
 20
159.8707492361
 10
208.3801310344
 20
159.8632066167
 10
208.3878653766
 20
159.8552831198
 10
208.3954333841
 20
159.8469966736
 10
208.4028178411
 20
159.8383660123
 10
208.4100021036
 20
159.8294107326
 10
208.4169698823
 20
159.8201511121
 10
208.4237053415
 20
159.8106081002
 10
208.4301932642
 20
159.8008033404
 10
208.4364189608
 20
159.7907590464
 10
208.4423682988
 20
159.7804979563
 10
208.4480277982
 20
159.7700433194
 10
208.4533846685
 20
159.759418833
 10
208.4584267682
 20
159.7486485607
 10
208.4631426294
 20
159.7377568834
 10
208.4675216212
 20
159.7267684994
 10
208.4715538401
 20
159.7157083076
 10
208.475230064
 20
159.7046013231
 10
208.4785420383
 20
159.6934727424
 10
208.4814822992
 20
159.6823477922
 10
208.4840440578
 20
159.6712516124
 10
208.4862216037
 20
159.6602093837
 10
208.4880100646
 20
159.6492461476
 10
208.4894052229
 20
159.6383866559
 10
208.4904039266
 20
159.6276555106
 10
208.4910040955
 20
159.6170771083
 10
208.4912044744
 20
159.6066754611
  0
LWPOLYLINE
  5
4EE
100
AcDbEntity
  8
0
100
AcDbPolyline
 62
250
  6
CONTINUOUS
 90
34
 70
0
 10
206.7131499799
 20
159.1088429964
 10
206.7215132627
 20
159.1043680252
 10
206.7298599305
 20
159.0994139286
 10
206.7381710761
 20
159.0939919286
 10
206.7464278729
 20
159.0881143074
 10
206.7546116176
 20
159.081794379
 10
206.762703772
 20
159.0750464595
 10
206.7706860055
 20
159.0678858345
 10
206.7785402368
 20
159.0603287244
 10
206.7862486741
 20
159.0523922477
 10
206.7937938561
 20
159.0440943823
 10
206.8011586914
 20
159.0354539248
 10
206.8083264968
 20
159.0264904477
 10
206.8152810357
 20
159.0172242553
 10
206.8220065546
 20
159.0076763376
 10
206.8284878186
 20
158.9978683228
 10
206.8347101462
 20
158.9878224283
 10
206.8406594424
 20
158.9775614101
 10
206.8463222307
 20
158.9671085119
 10
206.8516856838
 20
158.9564874118
 10
206.856737652
 20
158.945722169
 10
206.8614666917
 20
158.9348371691
 10
206.8658620904
 20
158.9238570691
 10
206.8699138917
 20
158.9128067414
 10
206.8736129172
 20
158.9017112175
 10
206.8769507878
 20
158.8905956312
 10
206.8799199426
 20
158.8794851618
 10
206.8825136557
 20
158.8684049771
 10
206.8847260517
 20
158.857380176
 10
206.8865521192
 20
158.8464357323
 10
206.8879877216
 20
158.8355964376
 10
206.889029607
 20
158.8248868453
 10
206.8896754153
 20
158.814331215
 10
206.8899236836
 20
158.8039534576
  0
LWPOLYLINE
  5
4EF
100
AcDbEntity
  8
RACCORDO
100
AcDbPolyline
 62
250
  6
CONTINUOUS
 90
3
 70
0
 10
193.7126727476
 20
169.3837669586
 10
193.7716483737
 20
169.3515847495
 10
193.8217703645
 20
169.3189186806
  0
LWPOLYLINE
  5
4F0
100
AcDbEntity
  8
RACCORDO
100
AcDbPolyline
 62
250
  6
CONTINUOUS
 90
3
 70
0
 10
209.6225753243
 20
161.4288156702
 10
209.6815509504
 20
161.3966334612
 10
209.7316729412
 20
161.3639673923
  0
LWPOLYLINE
  5
4F1
100
AcDbEntity
  8
0
100
AcDbPolyline
 62
7
  6
CONTINUOUS
 90
7
 70
0
 10
194.0801480435
 20
171.3794377564
 10
194.0722134555
 20
171.3852833575
 10
194.055189052
 20
171.3970709334
 10
194.0374718548
 20
171.4086160542
 10
194.019105954
 20
171.4198898388
 10
194.0001060465
 20
171.43088266
 10
193.9889387622
 20
171.4369762139
  0
LINE
  5
4F2
100
AcDbEntity
  8
RACCORDO
100
AcDbLine
 62
7
  6
CONTINUOUS
 10
226.6105611415
 20
146.7478186208
 11
226.0628079869
 21
147.2014578665
  0
LWPOLYLINE
  5
4F3
100
AcDbEntity
  8
0
100
AcDbPolyline
 62
7
  6
CONTINUOUS
 90
13
 70
0
 10
200.4261762336
 20
170.9751500579
 10
200.3907789704
 20
171.0082354243
 10
200.3555664449
 20
171.0397248921
 10
200.3205386569
 20
171.0696184613
 10
200.2856423732
 20
171.0979046553
 10
200.250930827
 20
171.1245949507
 10
200.2165637184
 20
171.1497237773
 10
200.182554881
 20
171.1732777685
 10
200.1488904813
 20
171.1952702908
 10
200.1156887181
 20
171.2157758742
 10
200.0829640992
 20
171.2347853177
 10
200.050702117
 20
171.2523078223
 10
200.0275565094
 20
171.264183637
  0
LWPOLYLINE
  5
4F4
100
AcDbEntity
  8
0
100
AcDbPolyline
 62
250
  6
CONTINUOUS
 90
11
 70
0
 10
208.9240323732
 20
160.1106383352
 10
208.9314377965
 20
160.1020172436
 10
208.9386397998
 20
160.0930698295
 10
208.9456220026
 20
160.0838164563
 10
208.9523686546
 20
160.0742780106
 10
208.9588645133
 20
160.064476042
 10
208.9650948745
 20
160.0544327285
 10
208.9710456001
 20
160.0441708506
 10
208.9767031938
 20
160.0337136768
 10
208.9820548321
 20
160.0230849056
 10
208.9870883904
 20
160.0123086139
  0
LWPOLYLINE
  5
4F5
100
AcDbEntity
  8
RACCORDO
100
AcDbPolyline
 62
250
  6
CONTINUOUS
 90
35
 70
0
 10
209.7885951833
 20
165.5161303456
 10
209.787076401
 20
165.5184114563
 10
209.7733997799
 20
165.5414521282
 10
209.7612485409
 20
165.5646887002
 10
209.750650713
 20
165.5880453448
 10
209.7416116844
 20
165.611518625
 10
209.7341260669
 20
165.6351119779
 10
209.7282057248
 20
165.658759888
 10
209.7238531328
 20
165.682462215
 10
209.7210658163
 20
165.7062190992
 10
209.7198482163
 20
165.7299654461
 10
209.7202027374
 20
165.7537012247
 10
209.722126975
 20
165.7774264661
 10
209.7256181556
 20
165.8010761682
 10
209.7306786326
 20
165.8246502395
 10
209.7373060526
 20
165.8481487715
 10
209.7454905819
 20
165.8715070375
 10
209.7552370206
 20
165.8947280418
 10
209.7665405687
 20
165.91780878
 10
209.7793769919
 20
165.9406755119
 10
209.793757529
 20
165.9633338145
 10
209.8096709412
 20
165.9857781108
 10
209.8270592791
 20
166.0079179297
 10
209.8459343446
 20
166.0297530219
 10
209.8662843356
 20
166.0512836367
 10
209.888015897
 20
166.0724200502
 10
209.9111389314
 20
166.0931589372
 10
209.9356435362
 20
166.1135036228
 10
209.9614066476
 20
166.1333743599
 10
209.9884386764
 20
166.1527681213
 10
210.0167292118
 20
166.171687934
 10
210.046123957
 20
166.190063132
 10
210.0765714799
 20
166.2078701598
 10
210.1081232126
 20
166.2251325728
 10
210.1407791551
 20
166.2418503711
  0
LINE
  5
4F6
100
AcDbEntity
  8
RACCORDO
100
AcDbLine
 62
7
  6
CONTINUOUS
 10
213.8790112628
 20
170.3195626819
 11
214.0419927067
 21
169.4931430977
  0
LINE
  5
4F7
100
AcDbEntity
  8
RACCORDO
100
AcDbLine
 62
7
  6
CONTINUOUS
 10
223.5525789137
 20
150.4634036397
 11
223.5525789137
 21
149.8534741625
  0
LINE
  5
4F8
100
AcDbEntity
  8
RACCORDO
100
AcDbLine
 62
7
  6
CONTINUOUS
 10
223.5525789137
 20
146.2701847263
 11
223.5525789137
 21
145.9563598454
  0
LINE
  5
4F9
100
AcDbEntity
  8
RACCORDO
100
AcDbLine
 62
7
  6
CONTINUOUS
 10
223.5525789137
 20
142.6691750056
 11
223.5525789137
 21
142.0592455284
  0
LINE
  5
4FA
100
AcDbEntity
  8
DRAFT
100
AcDbLine
 62
7
  6
CONTINUOUS
 10
225.0021478151
 20
151.2212571317
 11
225.0021478151
 21
150.5795786315
  0
LINE
  5
4FB
100
AcDbEntity
  8
DRAFT
100
AcDbLine
 62
7
  6
CONTINUOUS
 10
225.0021478151
 20
147.3241428147
 11
225.0021478151
 21
146.6824643144
  0
LINE
  5
4FC
100
AcDbEntity
  8
DRAFT
100
AcDbLine
 62
7
  6
CONTINUOUS
 10
225.0021478151
 20
143.4270284977
 11
225.0021478151
 21
142.7853499974
  0
LINE
  5
4FD
100
AcDbEntity
  8
RACCORDO
100
AcDbLine
 62
250
  6
CONTINUOUS
 10
226.2591091139
 20
131.0848361984
 11
226.2312558808
 21
131.0615551494
  0
LINE
  5
4FE
100
AcDbEntity
  8
RACCORDO
100
AcDbLine
 62
250
  6
CONTINUOUS
 10
226.2312558808
 20
131.0615551494
 11
226.2025271754
 21
131.0397119292
  0
LWPOLYLINE
  5
4FF
100
AcDbEntity
  8
RACCORDO
100
AcDbPolyline
 62
7
  6
CONTINUOUS
 90
28
 70
0
 10
226.2398347746
 20
131.0629104441
 10
226.2633858507
 20
131.0804746813
 10
226.2973994398
 20
131.1076702822
 10
226.3305565773
 20
131.1364311623
 10
226.3627896178
 20
131.1667308106
 10
226.3940569562
 20
131.1985610999
 10
226.4243405259
 20
131.2319391147
 10
226.4535899041
 20
131.2668508137
 10
226.4817541498
 20
131.3032780673
 10
226.5088123852
 20
131.3412406166
 10
226.5347152808
 20
131.3807238362
 10
226.5594135665
 20
131.4217107852
 10
226.5828844844
 20
131.4642276228
 10
226.6050974433
 20
131.5082982128
 10
226.625984045
 20
131.553873715
 10
226.6454723858
 20
131.6008732857
 10
226.663542399
 20
131.6493303745
 10
226.680134113
 20
131.6991774236
 10
226.6951479204
 20
131.7501670547
 10
226.7085691109
 20
131.802268813
 10
226.7203830188
 20
131.8554540325
 10
226.7305352909
 20
131.9094547057
 10
226.7390325339
 20
131.964228322
 10
226.7458823317
 20
132.0197411314
 10
226.7510732248
 20
132.0757183199
 10
226.7546272934
 20
132.1320352855
 10
226.7565794156
 20
132.1887236054
 10
226.7570076837
 20
132.2308658272
  0
LINE
  5
500
100
AcDbEntity
  8
RACCORDO
100
AcDbLine
 62
7
  6
CONTINUOUS
 10
216.9080012165
 20
125.8864692614
 11
217.9911964861
 21
126.6715094777
  0
LINE
  5
501
100
AcDbEntity
  8
RACCORDO
100
AcDbLine
 62
250
  6
CONTINUOUS
 10
226.2025271754
 20
131.0397119292
 11
226.070256808
 21
130.9438496588
  0
LINE
  5
502
100
AcDbEntity
  8
RACCORDO
100
AcDbLine
 62
7
  6
CONTINUOUS
 10
226.2398109724
 20
131.0628929956
 11
226.1075406049
 21
130.9670307251
  0
LWPOLYLINE
  5
503
100
AcDbEntity
  8
RACCORDO
100
AcDbPolyline
 62
250
  6
CONTINUOUS
 90
4
 70
0
 10
226.2398109724
 20
131.0628929956
 10
226.234212874
 20
131.0589297113
 10
226.2186716079
 20
131.0488568425
 10
226.2025271754
 20
131.0397119292
  0
LWPOLYLINE
  5
504
100
AcDbEntity
  8
RACCORDO
100
AcDbPolyline
 62
250
  6
CONTINUOUS
 90
4
 70
0
 10
226.070256808
 20
130.9438496588
 10
226.0513042418
 20
130.9309525161
 10
226.0316708208
 20
130.9192750576
 10
226.0252720925
 20
130.9158109013
  0
LWPOLYLINE
  5
505
100
AcDbEntity
  8
RACCORDO
100
AcDbPolyline
 62
250
  6
CONTINUOUS
 90
3
 70
0
 10
226.1019425158
 20
130.9630674472
 10
226.0864012454
 20
130.952994575
 10
226.070256808
 20
130.9438496588
  0
LWPOLYLINE
  5
506
100
AcDbEntity
  8
RACCORDO
100
AcDbPolyline
 62
250
  6
CONTINUOUS
 90
13
 70
0
 10
203.1774855091
 20
117.2530042534
 10
203.1285887477
 20
117.2244038048
 10
203.0748046029
 20
117.1992782809
 10
203.017023292
 20
117.1780435509
 10
202.956201192
 20
117.1610510851
 10
202.8933450099
 20
117.1485821371
 10
202.8294951204
 20
117.1408430886
 10
202.7657083454
 20
117.137962034
 10
202.7030404625
 20
117.1399866594
 10
202.6425287294
 20
117.1468834539
 10
202.5851747163
 20
117.158538264
 10
202.5319277276
 20
117.1747581833
 10
202.4836690897
 20
117.195274745
  0
LWPOLYLINE
  5
507
100
AcDbEntity
  8
0
100
AcDbPolyline
 62
7
  6
CONTINUOUS
 90
7
 70
0
 10
209.070804407
 20
119.0165300852
 10
209.0757370408
 20
119.0191691481
 10
209.0855738292
 20
119.025020008
 10
209.09507551
 20
119.0314802573
 10
209.1042287164
 20
119.0385407512
 10
209.113020814
 20
119.0461916811
 10
209.1214540468
 20
119.0544372889
  0
LINE
  5
508
100
AcDbEntity
  8
0
100
AcDbLine
 62
250
  6
CONTINUOUS
 10
209.198619797
 20
119.2858770954
 11
209.8995557508
 21
119.6475542881
  0
LINE
  5
509
100
AcDbEntity
  8
0
100
AcDbLine
 62
7
  6
CONTINUOUS
 10
209.070804407
 20
119.0165300852
 11
209.7717403491
 21
119.3782072719
  0
LINE
  5
50A
100
AcDbEntity
  8
0
100
AcDbLine
 62
250
  6
CONTINUOUS
 10
208.4912044744
 20
117.6044360496
 11
209.0194716462
 21
117.8754471082
  0
LINE
  5
50B
100
AcDbEntity
  8
0
100
AcDbLine
 62
7
  6
CONTINUOUS
 10
208.4270993747
 20
117.4696582785
 11
208.9557836086
 21
117.740883298
  0
LINE
  5
50C
100
AcDbEntity
  8
0
100
AcDbLine
 62
7
  6
CONTINUOUS
 10
208.4270993727
 20
117.4696582775
 11
208.4253629617
 21
117.4687900576
  0
LINE
  5
50D
100
AcDbEntity
  8
0
100
AcDbLine
 62
250
  6
CONTINUOUS
 10
206.8899236836
 20
116.8244014499
 11
208.4912044744
 21
117.6044360496
  0
LINE
  5
50E
100
AcDbEntity
  8
0
100
AcDbLine
 62
7
  6
CONTINUOUS
 10
206.823662091
 20
116.6885508238
 11
208.4253629609
 21
117.4687900572
  0
LWPOLYLINE
  5
50F
100
AcDbEntity
  8
0
100
AcDbPolyline
 62
7
  6
CONTINUOUS
 90
3
 70
0
 10
209.0567251599
 20
119.0099881728
 10
209.0655610744
 20
119.0139273916
 10
209.070804407
 20
119.0165300852
  0
LINE
  5
510
100
AcDbEntity
  8
0
100
AcDbLine
 62
250
  6
CONTINUOUS
 10
203.5267831565
 20
117.050129049
 11
206.4052394699
 21
118.3259460628
  0
LINE
  5
511
100
AcDbEntity
  8
RACCORDO
100
AcDbLine
 62
7
  6
CONTINUOUS
 10
206.2674852635
 20
118.0518701244
 11
203.3849727607
 21
116.774255488
  0
LINE
  5
512
100
AcDbEntity
  8
0
100
AcDbLine
 62
250
  6
CONTINUOUS
 10
208.1185200619
 20
118.833559341
 11
209.1977105605
 21
119.286559677
  0
LINE
  5
513
100
AcDbEntity
  8
0
100
AcDbLine
 62
7
  6
CONTINUOUS
 10
207.9772543082
 20
118.5576280514
 11
209.0564543696
 21
119.0106324015
  0
LWPOLYLINE
  5
514
100
AcDbEntity
  8
0
100
AcDbPolyline
 62
7
  6
CONTINUOUS
 90
16
 70
0
 10
203.5707036849
 20
167.1751561846
 10
203.582688251
 20
167.1770958661
 10
203.5950116925
 20
167.1784284491
 10
203.6076855406
 20
167.1791386094
 10
203.6206902595
 20
167.179221321
 10
203.6340229738
 20
167.178666637
 10
203.6477238288
 20
167.1774482977
 10
203.661774985
 20
167.1755628539
 10
203.6761729117
 20
167.17299401
 10
203.6909843195
 20
167.1696896599
 10
203.7062159004
 20
167.1656349129
 10
203.7218396042
 20
167.1608157984
 10
203.7378722686
 20
167.1551758056
 10
203.754304051
 20
167.1486962226
 10
203.7711140777
 20
167.1413636777
 10
203.7881302222
 20
167.1332125939
  0
LINE
  5
515
100
AcDbEntity
  8
0
100
AcDbLine
 62
7
  6
CONTINUOUS
 10
206.9902079248
 20
165.9462629153
 11
208.7386918478
 21
166.0410820134
  0
LINE
  5
516
100
AcDbEntity
  8
0
100
AcDbLine
 62
7
  6
CONTINUOUS
 10
178.4504853414
 20
172.4144672995
 11
179.074316814
 21
172.2843158469
  0
LINE
  5
517
100
AcDbEntity
  8
0
100
AcDbLine
 62
250
  6
CONTINUOUS
 10
178.6773927229
 20
172.5703478467
 11
179.3882019404
 21
172.4220500192
  0
LWPOLYLINE
  5
518
100
AcDbEntity
  8
0
100
AcDbPolyline
 62
250
  6
CONTINUOUS
 90
14
 70
0
 10
194.9501795897
 20
167.1826964661
 10
194.9432545712
 20
167.1850191244
 10
194.9361134138
 20
167.1868251422
 10
194.9287721748
 20
167.1881104586
 10
194.9212473616
 20
167.1888721834
 10
194.9135558943
 20
167.1891086039
 10
194.9057150678
 20
167.1888191883
 10
194.8977425127
 20
167.1880045875
 10
194.889656156
 20
167.1866666332
 10
194.8814741804
 20
167.1848083339
 10
194.8732149837
 20
167.1824338681
 10
194.8648971373
 20
167.1795485749
 10
194.8565393446
 20
167.1761589422
 10
194.8481603987
 20
167.1722725918
  0
LWPOLYLINE
  5
519
100
AcDbEntity
  8
0
100
AcDbPolyline
 62
250
  6
CONTINUOUS
 90
14
 70
0
 10
179.040277013
 20
175.1376477544
 10
179.0333519945
 20
175.1399704127
 10
179.0262108371
 20
175.1417764306
 10
179.0188695981
 20
175.143061747
 10
179.0113447849
 20
175.1438234718
 10
179.0036533176
 20
175.1440598922
 10
178.9958124911
 20
175.1437704767
 10
178.987839936
 20
175.1429558759
 10
178.9797535793
 20
175.1416179216
 10
178.9715716037
 20
175.1397596223
 10
178.963312407
 20
175.1373851564
 10
178.9549945606
 20
175.1344998633
 10
178.9466367679
 20
175.1311102306
 10
178.938257822
 20
175.1272238802
  0
LWPOLYLINE
  5
51A
100
AcDbEntity
  8
0
100
AcDbPolyline
 62
7
  6
CONTINUOUS
 90
12
 70
0
 10
204.3033797545
 20
166.8755867927
 10
204.3001767616
 20
166.8767588125
 10
204.2965907557
 20
166.8774055
 10
204.2924311213
 20
166.8776730713
 10
204.2877316345
 20
166.8775688415
 10
204.282523379
 20
166.8771008462
 10
204.2768261278
 20
166.8763072725
 10
204.2706756496
 20
166.8751988201
 10
204.264094134
 20
166.8737754987
 10
204.2570688517
 20
166.8720607196
 10
204.2496143583
 20
166.8700646501
 10
204.2417550438
 20
166.8677880955
  0
LWPOLYLINE
  5
51B
100
AcDbEntity
  8
0
100
AcDbPolyline
 62
7
  6
CONTINUOUS
 90
12
 70
0
 10
209.8938264484
 20
164.0803644736
 10
209.8909384826
 20
164.0814509049
 10
209.8874249509
 20
164.0821344234
 10
209.8833392418
 20
164.0824399257
 10
209.8787146209
 20
164.0823745131
 10
209.8735819628
 20
164.0819464596
 10
209.867961872
 20
164.0811937628
 10
209.8618898629
 20
164.0801266538
 10
209.8553882863
 20
164.0787455627
 10
209.8484465441
 20
164.0770748811
 10
209.8410805794
 20
164.0751247779
 10
209.8333141394
 20
164.0728957173
  0
LWPOLYLINE
  5
51C
100
AcDbEntity
  8
RACCORDO
100
AcDbPolyline
 62
7
  6
CONTINUOUS
 90
16
 70
0
 10
205.2014991692
 20
164.6364305338
 10
205.1853254823
 20
164.6438046332
 10
205.1692816369
 20
164.6503209967
 10
205.1534001726
 20
164.6559661304
 10
205.1377128834
 20
164.6607288461
 10
205.1222513773
 20
164.6645980892
 10
205.1070468441
 20
164.6675633546
 10
205.0921352377
 20
164.6696171166
 10
205.0775389709
 20
164.6707560955
 10
205.0632690351
 20
164.6709761569
 10
205.0493319884
 20
164.670270573
 10
205.0357796738
 20
164.6686362744
 10
205.0226857418
 20
164.6660832514
 10
205.0100219838
 20
164.662604032
 10
204.9978597906
 20
164.6582209608
 10
204.9909048431
 20
164.6552073149
  0
LWPOLYLINE
  5
51D
100
AcDbEntity
  8
RACCORDO
100
AcDbPolyline
 62
7
  6
CONTINUOUS
 90
16
 70
0
 10
189.2915965925
 20
172.5913818222
 10
189.2754229063
 20
172.5987559212
 10
189.2593790616
 20
172.6052722845
 10
189.2434975981
 20
172.6109174181
 10
189.2278103096
 20
172.6156801336
 10
189.2123488042
 20
172.6195493767
 10
189.1971442717
 20
172.6225146422
 10
189.1822326658
 20
172.6245684044
 10
189.1676363995
 20
172.6257073836
 10
189.1533664642
 20
172.6259274453
 10
189.1394294181
 20
172.6252218619
 10
189.1258771041
 20
172.6235875639
 10
189.1127831725
 20
172.6210345415
 10
189.1001194146
 20
172.6175553227
 10
189.0879572215
 20
172.6131722522
 10
189.0810022665
 20
172.6101586032
  0
LWPOLYLINE
  5
51E
100
AcDbEntity
  8
0
100
AcDbPolyline
 62
7
  6
CONTINUOUS
 90
19
 70
0
 10
206.3345287918
 20
165.2648699582
 10
206.3136284945
 20
165.2750186154
 10
206.2921855247
 20
165.2848429209
 10
206.2701998823
 20
165.2943428746
 10
206.2476523132
 20
165.303525825
 10
206.2245620715
 20
165.3123844237
 10
206.2009869197
 20
165.3208966254
 10
206.1769253037
 20
165.3290616971
 10
206.1523787776
 20
165.3368803719
 10
206.1274097665
 20
165.344332804
 10
206.1020172943
 20
165.351418034
 10
206.076202337
 20
165.3581370213
 10
206.0500302479
 20
165.3644727983
 10
206.02350013
 20
165.3704243987
 10
205.9966128803
 20
165.3759927888
 10
205.9694365435
 20
165.381163899
 10
205.9419938013
 20
165.3859330394
 10
205.914261972
 20
165.3903049
 10
205.8862410557
 20
165.3942794807
  0
LWPOLYLINE
  5
51F
100
AcDbEntity
  8
0
100
AcDbPolyline
 62
7
  6
CONTINUOUS
 90
19
 70
0
 10
190.4246262151
 20
173.2198212465
 10
190.4037259178
 20
173.2299699038
 10
190.382282948
 20
173.2397942092
 10
190.3602973056
 20
173.249294163
 10
190.3377497365
 20
173.2584771134
 10
190.3146594948
 20
173.267335712
 10
190.291084343
 20
173.2758479137
 10
190.267022727
 20
173.2840129854
 10
190.2424762009
 20
173.2918316602
 10
190.2175071898
 20
173.2992840923
 10
190.1921147176
 20
173.3063693223
 10
190.1662997603
 20
173.3130883097
 10
190.1401276712
 20
173.3194240866
 10
190.1135975533
 20
173.3253756871
 10
190.0867103036
 20
173.3309440771
 10
190.0595339668
 20
173.3361151873
 10
190.0320912246
 20
173.3408843278
 10
190.0043593953
 20
173.3452561884
 10
189.976338479
 20
173.3492307691
  0
LWPOLYLINE
  5
520
100
AcDbEntity
  8
RACCORDO
100
AcDbPolyline
 62
7
  6
CONTINUOUS
 90
51
 70
0
 10
206.2820717649
 20
164.7674120709
 10
206.2716600993
 20
164.7724938544
 10
206.2478271675
 20
164.783241454
 10
206.2231972474
 20
164.793174047
 10
206.1978823177
 20
164.8022765104
 10
206.1718864112
 20
164.8105827566
 10
206.145105956
 20
164.8181522253
 10
206.1175875502
 20
164.8249917719
 10
206.0893873315
 20
164.8311090588
 10
206.0604217494
 20
164.8365383634
 10
206.0307121148
 20
164.8412848555
 10
206.0003139031
 20
164.8453477541
 10
205.9692043963
 20
164.8487350081
 10
205.937318822
 20
164.8514510659
 10
205.9047841426
 20
164.8534805259
 10
205.8718762618
 20
164.8548107582
 10
205.8385840304
 20
164.8554505972
 10
205.8049772714
 20
164.8554040892
 10
205.7714587436
 20
164.8546869528
 10
205.7380493537
 20
164.8533227294
 10
205.7047757095
 20
164.851332493
 10
205.672045378
 20
164.8487688148
 10
205.6399183645
 20
164.8456736361
 10
205.6083607916
 20
164.8420780842
 10
205.5776312454
 20
164.8380488653
 10
205.5478295817
 20
164.8336427613
 10
205.5188595763
 20
164.8288868613
 10
205.4906836884
 20
164.8238110854
 10
205.4633123106
 20
164.8184512297
 10
205.4367334293
 20
164.8128376247
 10
205.4108817848
 20
164.8069864497
 10
205.385745509
 20
164.8009225342
 10
205.36133486
 20
164.7946753208
 10
205.3376244573
 20
164.788264573
 10
205.3146092732
 20
164.7817142729
 10
205.292293509
 20
164.7750507788
 10
205.2706716134
 20
164.7682974778
 10
205.2497778905
 20
164.7614906688
 10
205.22957892
 20
164.754645042
 10
205.2099782885
 20
164.7477509912
 10
205.1909904156
 20
164.7408352422
 10
205.1726193266
 20
164.7339214877
 10
205.1547713175
 20
164.7269953602
 10
205.1375019011
 20
164.7200990105
 10
205.1208040284
 20
164.7132514848
 10
205.1045205008
 20
164.7064081224
 10
205.0887467747
 20
164.6996287059
 10
205.0735103419
 20
164.6929473927
 10
205.0586072691
 20
164.6862960147
 10
205.0440729481
 20
164.6797114657
 10
204.9909070283
 20
164.6552093013
  0
LWPOLYLINE
  5
521
100
AcDbEntity
  8
RACCORDO
100
AcDbPolyline
 62
7
  6
CONTINUOUS
 90
51
 70
0
 10
190.3721691882
 20
172.7223633592
 10
190.3617575226
 20
172.7274451427
 10
190.3379245908
 20
172.7381927423
 10
190.3132946707
 20
172.7481253353
 10
190.2879797409
 20
172.7572277988
 10
190.2619838344
 20
172.765534045
 10
190.2352033792
 20
172.7731035137
 10
190.2076849734
 20
172.7799430603
 10
190.1794847547
 20
172.7860603472
 10
190.1505191726
 20
172.7914896518
 10
190.1208095379
 20
172.7962361439
 10
190.0904113262
 20
172.8002990425
 10
190.0593018194
 20
172.8036862965
 10
190.0274162451
 20
172.8064023543
 10
189.9948815657
 20
172.8084318142
 10
189.9619736849
 20
172.8097620466
 10
189.9286814536
 20
172.8104018855
 10
189.8950746945
 20
172.8103553776
 10
189.8615561667
 20
172.8096382412
 10
189.8281467768
 20
172.8082740177
 10
189.7948731326
 20
172.8062837813
 10
189.7621428012
 20
172.8037201031
 10
189.7300157877
 20
172.8006249244
 10
189.6984582148
 20
172.7970293725
 10
189.6677286686
 20
172.7930001537
 10
189.6379270049
 20
172.7885940496
 10
189.6089569995
 20
172.7838381496
 10
189.5807811116
 20
172.7787623738
 10
189.5534097339
 20
172.7734025181
 10
189.5268308525
 20
172.767788913
 10
189.500979208
 20
172.7619377381
 10
189.4758429323
 20
172.7558738225
 10
189.4514322832
 20
172.7496266091
 10
189.4277218805
 20
172.7432158614
 10
189.4047066964
 20
172.7366655612
 10
189.3823909322
 20
172.7300020672
 10
189.3607690367
 20
172.7232487661
 10
189.3398753138
 20
172.7164419571
 10
189.3196763433
 20
172.7095963303
 10
189.3000757117
 20
172.7027022795
 10
189.2810878389
 20
172.6957865306
 10
189.2627167499
 20
172.688872776
 10
189.2448687407
 20
172.6819466485
 10
189.2275993244
 20
172.6750502988
 10
189.2109014517
 20
172.6682027731
 10
189.1946179241
 20
172.6613594108
 10
189.178844198
 20
172.6545799943
 10
189.1636077652
 20
172.647898681
 10
189.1487046924
 20
172.6412473031
 10
189.1341703714
 20
172.634662754
 10
189.0810044516
 20
172.6101605897
  0
LINE
  5
522
100
AcDbEntity
  8
RACCORDO
100
AcDbLine
 62
7
  6
CONTINUOUS
 10
209.6225753243
 20
162.0022839282
 11
209.0301500244
 21
162.2984965781
  0
LINE
  5
523
100
AcDbEntity
  8
RACCORDO
100
AcDbLine
 62
7
  6
CONTINUOUS
 10
193.7126727476
 20
169.9572352165
 11
193.1202474477
 21
170.2534478665
  0
LINE
  5
524
100
AcDbEntity
  8
RACCORDO
100
AcDbLine
 62
7
  6
CONTINUOUS
 10
189.2932015173
 20
172.5905952965
 11
191.5063157975
 21
171.4840381564
  0
LINE
  5
525
100
AcDbEntity
  8
RACCORDO
100
AcDbLine
 62
7
  6
CONTINUOUS
 10
205.203104094
 20
164.6356440081
 11
207.4162183742
 21
163.529086868
  0
LINE
  5
526
100
AcDbEntity
  8
RACCORDO
100
AcDbLine
 62
250
  6
CONTINUOUS
 10
208.043983379
 20
163.8384963205
 11
206.1950769331
 21
164.7629495434
  0
LINE
  5
527
100
AcDbEntity
  8
RACCORDO
100
AcDbLine
 62
250
  6
CONTINUOUS
 10
192.1340808023
 20
171.7934476088
 11
190.2851743564
 21
172.7179008318
  0
LINE
  5
528
100
AcDbEntity
  8
RACCORDO
100
AcDbLine
 62
7
  6
CONTINUOUS
 10
208.0922875172
 20
163.8623042053
 11
206.2820515094
 21
164.7674222093
  0
LINE
  5
529
100
AcDbEntity
  8
RACCORDO
100
AcDbLine
 62
7
  6
CONTINUOUS
 10
192.1823849405
 20
171.8172554937
 11
190.3721489327
 21
172.7223734976
  0
LINE
  5
52A
100
AcDbEntity
  8
0
100
AcDbLine
 62
7
  6
CONTINUOUS
 10
208.6197321387
 20
164.1222682847
 11
206.3345287918
 21
165.2648699582
  0
LINE
  5
52B
100
AcDbEntity
  8
0
100
AcDbLine
 62
7
  6
CONTINUOUS
 10
192.709829562
 20
172.0772195731
 11
190.4246262151
 21
173.2198212465
  0
LINE
  5
52C
100
AcDbEntity
  8
0
100
AcDbLine
 62
250
  6
CONTINUOUS
 10
187.5937662983
 20
175.1064397027
 11
188.2346520721
 21
174.7859968158
  0
LINE
  5
52D
100
AcDbEntity
  8
0
100
AcDbLine
 62
250
  6
CONTINUOUS
 10
193.1843995404
 20
172.3111230817
 11
193.8252853141
 21
171.9906801948
  0
LINE
  5
52E
100
AcDbEntity
  8
0
100
AcDbLine
 62
250
  6
CONTINUOUS
 10
203.503668875
 20
167.1514884143
 11
204.1445546488
 21
166.8310455275
  0
LINE
  5
52F
100
AcDbEntity
  8
0
100
AcDbLine
 62
250
  6
CONTINUOUS
 10
209.0943021171
 20
164.3561717933
 11
209.7351878908
 21
164.0357289064
  0
LINE
  5
530
100
AcDbEntity
  8
0
100
AcDbLine
 62
7
  6
CONTINUOUS
 10
187.8782275871
 20
175.0881638
 11
188.3934772505
 21
174.8305389684
  0
LINE
  5
531
100
AcDbEntity
  8
0
100
AcDbLine
 62
7
  6
CONTINUOUS
 10
193.4686742001
 20
172.2929404935
 11
193.9839238635
 21
172.0353156619
  0
LINE
  5
532
100
AcDbEntity
  8
0
100
AcDbLine
 62
7
  6
CONTINUOUS
 10
203.7881301638
 20
167.1332125117
 11
204.3033798272
 21
166.87558768
  0
LINE
  5
533
100
AcDbEntity
  8
0
100
AcDbLine
 62
7
  6
CONTINUOUS
 10
209.3785767768
 20
164.3379892052
 11
209.8938264402
 21
164.0803643735
  0
LINE
  5
534
100
AcDbEntity
  8
0
100
AcDbLine
 62
7
  6
CONTINUOUS
 10
191.0803053481
 20
173.9012142036
 11
194.7683361299
 21
172.0571988127
  0
LINE
  5
535
100
AcDbEntity
  8
0
100
AcDbLine
 62
7
  6
CONTINUOUS
 10
206.9902079248
 20
165.9462629153
 11
210.6782387066
 21
164.1022475244
  0
LINE
  5
536
100
AcDbEntity
  8
0
100
AcDbLine
 62
7
  6
CONTINUOUS
 10
192.8287892711
 20
173.9960333017
 11
195.7443516487
 21
172.5382521129
  0
LINE
  5
537
100
AcDbEntity
  8
0
100
AcDbLine
 62
7
  6
CONTINUOUS
 10
208.7386918478
 20
166.0410820134
 11
211.6542542254
 21
164.5833008246
  0
LINE
  5
538
100
AcDbEntity
  8
DRAFT
100
AcDbLine
 62
7
  6
CONTINUOUS
 10
216.3373112841
 20
162.2850735654
 11
216.9080012165
 21
161.9997285992
  0
LINE
  5
539
100
AcDbEntity
  8
RACCORDO
100
AcDbLine
 62
7
  6
CONTINUOUS
 10
195.866967074
 20
172.5986861469
 11
192.8287892711
 21
174.1177750483
  0
LWPOLYLINE
  5
53A
100
AcDbEntity
  8
RACCORDO
100
AcDbPolyline
 62
7
  6
CONTINUOUS
 90
10
 70
0
 10
211.7768696507
 20
164.6437348585
 10
210.5931749471
 20
165.2355828826
 10
210.5856546775
 20
165.2394418552
 10
210.5790083538
 20
165.2430039218
 10
210.573222744
 20
165.2462420418
 10
210.568297358
 20
165.2491207132
 10
210.5642468252
 20
165.2515931012
 10
210.5610571845
 20
165.2536266947
 10
210.5587166049
 20
165.2551858147
 10
210.5580899801
 20
165.255616505
  0
LWPOLYLINE
  5
53B
100
AcDbEntity
  8
0
100
AcDbPolyline
 62
7
  6
CONTINUOUS
 90
7
 70
0
 10
209.9900506202
 20
163.424486468
 10
209.9821160322
 20
163.4303320691
 10
209.9650916287
 20
163.442119645
 10
209.9473744315
 20
163.4536647659
 10
209.9290085307
 20
163.4649385505
 10
209.9100086232
 20
163.4759313717
 10
209.8988413389
 20
163.4820249255
  0
LINE
  5
53C
100
AcDbEntity
  8
RACCORDO
100
AcDbLine
 62
7
  6
CONTINUOUS
 10
226.6105611415
 20
150.6449329378
 11
226.0628079869
 21
151.0985721835
  0
LINE
  5
53D
100
AcDbEntity
  8
RACCORDO
100
AcDbLine
 62
7
  6
CONTINUOUS
 10
217.9911964861
 20
160.1314931133
 11
216.9080012165
 21
161.9997285992
  0
LINE
  5
53E
100
AcDbEntity
  8
RACCORDO
100
AcDbLine
 62
7
  6
CONTINUOUS
 10
218.3682866985
 20
164.8525894788
 11
218.5284796682
 21
164.4324930027
  0
LWPOLYLINE
  5
53F
100
AcDbEntity
  8
RACCORDO
100
AcDbPolyline
 62
7
  6
CONTINUOUS
 90
25
 70
0
 10
226.7570076838
 20
162.5697831621
 10
226.756569821
 20
162.6127247138
 10
226.7546654632
 20
162.6696060131
 10
226.7512691315
 20
162.7267513937
 10
226.7463988883
 20
162.7841210828
 10
226.7400737672
 20
162.8416743506
 10
226.732312953
 20
162.8993612111
 10
226.7231350676
 20
162.9571424241
 10
226.7125585527
 20
163.0149773252
 10
226.7006044083
 20
163.0728081782
 10
226.6872920381
 20
163.130594786
 10
226.6726401989
 20
163.1882959432
 10
226.6566736396
 20
163.2458487192
 10
226.6394133667
 20
163.3032111443
 10
226.6208788519
 20
163.3603424552
 10
226.6010983428
 20
163.4171790554
 10
226.5800939627
 20
163.4736790467
 10
226.5578864343
 20
163.5298020007
 10
226.5345072324
 20
163.5854853675
 10
226.5099795685
 20
163.6406877554
 10
226.4843258342
 20
163.6953690954
 10
226.4575789708
 20
163.7494701614
 10
226.4297654646
 20
163.8029459591
 10
226.4009081979
 20
163.8557611209
 10
226.3789487328
 20
163.8943057619
  0
LINE
  5
540
100
AcDbEntity
  8
DRAFT
100
AcDbLine
 62
7
  6
CONTINUOUS
 10
226.0628079869
 20
151.7757840771
 11
226.0628079869
 21
151.0985721835
  0
LINE
  5
541
100
AcDbEntity
  8
DRAFT
100
AcDbLine
 62
7
  6
CONTINUOUS
 10
226.0628079869
 20
147.8786697601
 11
226.0628079869
 21
147.2014578665
  0
LINE
  5
542
100
AcDbEntity
  8
DRAFT
100
AcDbLine
 62
7
  6
CONTINUOUS
 10
226.0628079869
 20
143.9815554431
 11
226.0628079869
 21
143.3043435495
  0
LINE
  5
543
100
AcDbEntity
  8
RACCORDO
100
AcDbLine
 62
250
  6
CONTINUOUS
 10
226.616677651
 20
162.3961230801
 11
226.616677651
 21
152.0653543478
  0
LINE
  5
544
100
AcDbEntity
  8
RACCORDO
100
AcDbLine
 62
250
  6
CONTINUOUS
 10
226.616677651
 20
150.1821923946
 11
226.616677651
 21
148.1682400307
  0
LINE
  5
545
100
AcDbEntity
  8
RACCORDO
100
AcDbLine
 62
250
  6
CONTINUOUS
 10
226.616677651
 20
146.2850780776
 11
226.616677651
 21
144.2711257137
  0
LINE
  5
546
100
AcDbEntity
  8
RACCORDO
100
AcDbLine
 62
250
  6
CONTINUOUS
 10
226.616677651
 20
142.3879637605
 11
226.616677651
 21
132.0571950282
  0
LINE
  5
547
100
AcDbEntity
  8
RACCORDO
100
AcDbLine
 62
7
  6
CONTINUOUS
 10
226.7570077509
 20
162.5697876728
 11
226.7570077509
 21
152.207658361
  0
LINE
  5
548
100
AcDbEntity
  8
RACCORDO
100
AcDbLine
 62
7
  6
CONTINUOUS
 10
226.7570077509
 20
150.3872175666
 11
226.7570077509
 21
148.310544044
  0
LINE
  5
549
100
AcDbEntity
  8
RACCORDO
100
AcDbLine
 62
7
  6
CONTINUOUS
 10
226.7570077509
 20
146.4901032496
 11
226.7570077509
 21
144.4134297269
  0
LINE
  5
54A
100
AcDbEntity
  8
RACCORDO
100
AcDbLine
 62
7
  6
CONTINUOUS
 10
226.7570077509
 20
142.5929889325
 11
226.7570077509
 21
132.2308596207
  0
LWPOLYLINE
  5
54B
100
AcDbEntity
  8
RACCORDO
100
AcDbPolyline
 62
250
  6
CONTINUOUS
 90
26
 70
0
 10
226.616677651
 20
132.0571950282
 10
226.6161496338
 20
132.0071604
 10
226.6144208363
 20
131.9577644094
 10
226.6114925892
 20
131.909048733
 10
226.6073671467
 20
131.8610546195
 10
226.6020480077
 20
131.8138224214
 10
226.5955398598
 20
131.7673915944
 10
226.5878480666
 20
131.7218010791
 10
226.5789790218
 20
131.6770896883
 10
226.5689404572
 20
131.6332956441
 10
226.5577408934
 20
131.590456131
 10
226.5453896788
 20
131.5486071492
 10
226.5318972886
 20
131.5077839391
 10
226.5172751039
 20
131.4680209393
 10
226.5015354646
 20
131.4293518655
 10
226.4846917322
 20
131.3918095441
 10
226.466758263
 20
131.3554258469
 10
226.4477501741
 20
131.3202314356
 10
226.4276833662
 20
131.2862558702
 10
226.4065748156
 20
131.2535278256
 10
226.3844424708
 20
131.2220751464
 10
226.3613050394
 20
131.1919245669
 10
226.3371824035
 20
131.1631018326
 10
226.3120949002
 20
131.1356311416
 10
226.2860631735
 20
131.1095352586
 10
226.2591091139
 20
131.0848361984
  0
LWPOLYLINE
  5
54C
100
AcDbEntity
  8
RACCORDO
100
AcDbPolyline
 62
250
  6
CONTINUOUS
 90
18
 70
0
 10
226.7570077508
 20
162.5697831621
 10
226.7569529263
 20
162.5660855945
 10
226.7560507772
 20
162.5543275798
 10
226.7540431129
 20
162.5426038133
 10
226.7509343811
 20
162.5309402664
 10
226.7467314685
 20
162.519362777
 10
226.7414436855
 20
162.5078969924
 10
226.7350827461
 20
162.4965683124
 10
226.7276627415
 20
162.485401833
 10
226.7192001089
 20
162.474422291
 10
226.7097135955
 20
162.4636540091
 10
226.6992242164
 20
162.453120842
 10
226.6877552083
 20
162.4428461233
 10
226.6753319784
 20
162.4328526145
 10
226.6619820472
 20
162.4231624538
 10
226.6477349887
 20
162.4137971076
 10
226.6326223638
 20
162.4047773226
 10
226.616677651
 20
162.3961230801
  0
LWPOLYLINE
  5
54D
100
AcDbEntity
  8
RACCORDO
100
AcDbPolyline
 62
250
  6
CONTINUOUS
 90
18
 70
0
 10
226.7570077509
 20
132.2308596207
 10
226.7569529266
 20
132.2271575523
 10
226.7560507784
 20
132.2153995373
 10
226.754043115
 20
132.2036757705
 10
226.7509343839
 20
132.1920122232
 10
226.7467314719
 20
132.1804347334
 10
226.7414436895
 20
132.1689689482
 10
226.7350827505
 20
132.1576402675
 10
226.7276627462
 20
132.1464737875
 10
226.7192001138
 20
132.1354942448
 10
226.7097136003
 20
132.1247259622
 10
226.699224221
 20
132.1141927943
 10
226.6877552126
 20
132.1039180749
 10
226.675331982
 20
132.0939245653
 10
226.6619820502
 20
132.0842344039
 10
226.6477349908
 20
132.074869057
 10
226.6326223649
 20
132.0658492713
 10
226.616677651
 20
132.0571950282
  0
LWPOLYLINE
  5
54E
100
AcDbEntity
  8
0
100
AcDbPolyline
 62
7
  6
CONTINUOUS
 90
12
 70
0
 10
188.3934771781
 20
174.8305380847
 10
188.3902770577
 20
174.8317093746
 10
188.3866922852
 20
174.83235631
 10
188.3825341382
 20
174.8326242654
 10
188.3778364698
 20
174.8325206031
 10
188.3726303252
 20
174.832053293
 10
188.366935178
 20
174.8312604411
 10
188.360786646
 20
174.8301528065
 10
188.3542069113
 20
174.8287303612
 10
188.3471830528
 20
174.827016313
 10
188.339729496
 20
174.8250208592
 10
188.3318705812
 20
174.8227448221
  0
LWPOLYLINE
  5
54F
100
AcDbEntity
  8
0
100
AcDbPolyline
 62
7
  6
CONTINUOUS
 90
12
 70
0
 10
193.9839238723
 20
172.0353157689
 10
193.9810383518
 20
172.0364015406
 10
193.9775259945
 20
172.0370852509
 10
193.9734417139
 20
172.0373910829
 10
193.9688188317
 20
172.0373261847
 10
193.9636881935
 20
172.0368987664
 10
193.9580701365
 20
172.0361467514
 10
193.9520000605
 20
172.0350804356
 10
193.9455002882
 20
172.0337002022
 10
193.9385599729
 20
172.0320302257
 10
193.931194866
 20
172.0300806909
 10
193.9234287052
 20
172.0278520981
  0
LWPOLYLINE
  5
550
100
AcDbEntity
  8
0
100
AcDbPolyline
 62
7
  6
CONTINUOUS
 90
22
 70
0
 10
208.4787986129
 20
167.0385764463
 10
208.4639508061
 20
167.045596565
 10
208.4454682787
 20
167.0532650388
 10
208.4265664075
 20
167.059960712
 10
208.4072440562
 20
167.0656804273
 10
208.3875023611
 20
167.070427342
 10
208.3674038301
 20
167.0741864395
 10
208.346947106
 20
167.0769546104
 10
208.3261335459
 20
167.078734964
 10
208.3050297289
 20
167.0795218117
 10
208.2836349154
 20
167.0793119754
 10
208.261949845
 20
167.078108633
 10
208.240043315
 20
167.07591563
 10
208.2179145646
 20
167.0727298317
 10
208.1955643547
 20
167.0685543726
 10
208.1730637658
 20
167.063402502
 10
208.1504122547
 20
167.0572710864
 10
208.1276103646
 20
167.0501632591
 10
208.1047308055
 20
167.04210167
 10
208.081797814
 20
167.0330938687
 10
208.0587871535
 20
167.0231323055
 10
208.0356988239
 20
167.0122169803
  0
LWPOLYLINE
  5
551
100
AcDbEntity
  8
0
100
AcDbPolyline
 62
7
  6
CONTINUOUS
 90
22
 70
0
 10
192.5688960362
 20
174.9935277347
 10
192.5540482294
 20
175.0005478534
 10
192.535565702
 20
175.0082163271
 10
192.5166638308
 20
175.0149120004
 10
192.4973414795
 20
175.0206317157
 10
192.4775997844
 20
175.0253786304
 10
192.4575012534
 20
175.0291377278
 10
192.4370445293
 20
175.0319058987
 10
192.4162309692
 20
175.0336862524
 10
192.3951271522
 20
175.0344731001
 10
192.3737323387
 20
175.0342632637
 10
192.3520472683
 20
175.0330599214
 10
192.3301407383
 20
175.0308669184
 10
192.3080119879
 20
175.02768112
 10
192.285661778
 20
175.023505661
 10
192.2631611891
 20
175.0183537904
 10
192.240509678
 20
175.0122223747
 10
192.2177077879
 20
175.0051145475
 10
192.1948282288
 20
174.9970529583
 10
192.1718952373
 20
174.9880451571
 10
192.1488845768
 20
174.9780835939
 10
192.1257962472
 20
174.9671682687
  0
LWPOLYLINE
  5
552
100
AcDbEntity
  8
0
100
AcDbPolyline
 62
7
  6
CONTINUOUS
 90
25
 70
0
 10
200.0189774476
 20
171.2684455212
 10
199.9878015554
 20
171.2831947404
 10
199.9571629761
 20
171.296559154
 10
199.9271019926
 20
171.3086519162
 10
199.8976329484
 20
171.3194722399
 10
199.8687415001
 20
171.3290209122
 10
199.8404249008
 20
171.3374134499
 10
199.8126793175
 20
171.3446557812
 10
199.7855085832
 20
171.3507419777
 10
199.7589214492
 20
171.3557697714
 10
199.7329350819
 20
171.3597426242
 10
199.7075323148
 20
171.3626570741
 10
199.6826704002
 20
171.3646004678
 10
199.6583344421
 20
171.3655798118
 10
199.6345393364
 20
171.3655880996
 10
199.6112870232
 20
171.3646916575
 10
199.5885948745
 20
171.3628983545
 10
199.5664455182
 20
171.3602003217
 10
199.5447887781
 20
171.356640279
 10
199.5237673314
 20
171.3522872412
 10
199.503238501
 20
171.3470721935
 10
199.4827240789
 20
171.3408308113
 10
199.4620646625
 20
171.3335083196
 10
199.4414196544
 20
171.3251594933
 10
199.4207890548
 20
171.3157843325
  0
LWPOLYLINE
  5
553
100
AcDbEntity
  8
RACCORDO
100
AcDbPolyline
 62
250
  6
CONTINUOUS
 90
18
 70
0
 10
217.9308655434
 20
162.3468071769
 10
217.902889714
 20
162.3605691628
 10
217.8749392362
 20
162.3728948903
 10
217.8470594283
 20
162.383764375
 10
217.819295494
 20
162.3931599936
 10
217.7916924491
 20
162.4010665124
 10
217.7642950484
 20
162.4074711122
 10
217.7371477134
 20
162.4123634089
 10
217.7102944602
 20
162.4157354705
 10
217.6837788279
 20
162.4175818298
 10
217.6576438083
 20
162.4178994933
 10
217.631931776
 20
162.4166879462
 10
217.6066844198
 20
162.4139491531
 10
217.5819426751
 20
162.4096875547
 10
217.5577466574
 20
162.4039100609
 10
217.5341355975
 20
162.3966260395
 10
217.5111477777
 20
162.3878473006
 10
217.4992495588
 20
162.3826024721
  0
LWPOLYLINE
  5
554
100
AcDbEntity
  8
RACCORDO
100
AcDbPolyline
 62
250
  6
CONTINUOUS
 90
9
 70
0
 10
198.061164992
 20
172.2816574526
 10
198.0331891626
 20
172.2954194384
 10
198.0052386848
 20
172.307745166
 10
197.977358877
 20
172.3186146507
 10
197.9495949427
 20
172.3280102693
 10
197.9219918977
 20
172.3359167881
 10
197.894594497
 20
172.3423213879
 10
197.8674471621
 20
172.3472136846
 10
197.8595380233
 20
172.3482068642
  0
LINE
  5
555
100
AcDbEntity
  8
0
100
AcDbLine
 62
250
  6
CONTINUOUS
 10
204.9770033223
 20
168.5395225085
 11
208.0356988239
 21
167.0122169803
  0
LINE
  5
556
100
AcDbEntity
  8
0
100
AcDbLine
 62
7
  6
CONTINUOUS
 10
199.4230186787
 20
171.3165148303
 11
204.9770033223
 21
168.5395225085
  0
LINE
  5
557
100
AcDbEntity
  8
0
100
AcDbLine
 62
250
  6
CONTINUOUS
 10
189.0691456577
 20
176.4954935635
 11
192.1257962472
 21
174.9671682687
  0
LINE
  5
558
100
AcDbEntity
  8
0
100
AcDbLine
 62
250
  6
CONTINUOUS
 10
212.2783395111
 20
164.8908966368
 11
215.3349901006
 21
163.362571342
  0
LINE
  5
559
100
AcDbEntity
  8
0
100
AcDbLine
 62
7
  6
CONTINUOUS
 10
189.3528732387
 20
176.6015392565
 11
192.5688960854
 21
174.9935278331
  0
LINE
  5
55A
100
AcDbEntity
  8
0
100
AcDbLine
 62
7
  6
CONTINUOUS
 10
196.8115367726
 20
172.8722074896
 11
200.0275596193
 21
171.2641960662
  0
LINE
  5
55B
100
AcDbEntity
  8
0
100
AcDbLine
 62
7
  6
CONTINUOUS
 10
205.2627758154
 20
168.6465879682
 11
208.4787986621
 21
167.0385765448
  0
LINE
  5
55C
100
AcDbEntity
  8
0
100
AcDbLine
 62
7
  6
CONTINUOUS
 10
212.7214393493
 20
164.9172562012
 11
215.937462196
 21
163.3092447778
  0
LINE
  5
55D
100
AcDbEntity
  8
ASSI
100
AcDbLine
 62
7
  6
CONTINUOUS
 10
218.9830933738
 20
163.0678907188
 11
217.8337154818
 21
163.6425796648
  0
LINE
  5
55E
100
AcDbEntity
  8
RACCORDO
100
AcDbLine
 62
250
  6
CONTINUOUS
 10
218.3200504123
 20
163.8943869464
 11
219.497709399
 21
163.3055574531
  0
LINE
  5
55F
100
AcDbEntity
  8
RACCORDO
100
AcDbLine
 62
7
  6
CONTINUOUS
 10
218.4518726482
 20
163.9040784039
 11
219.5763119886
 21
163.3418587337
  0
LINE
  5
560
100
AcDbEntity
  8
RACCORDO
100
AcDbLine
 62
250
  6
CONTINUOUS
 10
217.8264808536
 20
165.2090561202
 11
217.1164516949
 21
165.5640706995
  0
LINE
  5
561
100
AcDbEntity
  8
RACCORDO
100
AcDbLine
 62
7
  6
CONTINUOUS
 10
218.0838867408
 20
165.2002530615
 11
217.3338881351
 21
165.5752523643
  0
LINE
  5
562
100
AcDbEntity
  8
0
100
AcDbLine
 62
250
  6
CONTINUOUS
 10
196.3684369344
 20
172.8458479251
 11
199.4230186787
 21
171.3165148303
  0
LWPOLYLINE
  5
563
100
AcDbEntity
  8
RACCORDO
100
AcDbPolyline
 62
250
  6
CONTINUOUS
 90
38
 70
0
 10
210.1407791551
 20
166.2418503711
 10
210.1697282806
 20
166.2271498802
 10
210.1986104597
 20
166.2110592819
 10
210.2273788637
 20
166.1936046652
 10
210.2559868482
 20
166.1748143306
 10
210.284388029
 20
166.1547187441
 10
210.312536357
 20
166.1333504883
 10
210.3403861932
 20
166.1107442092
 10
210.3678923828
 20
166.0869365599
 10
210.3950103277
 20
166.0619661416
 10
210.4216960598
 20
166.0358734408
 10
210.4479063113
 20
166.0087007633
 10
210.4735985857
 20
165.9804921665
 10
210.4987312261
 20
165.9512933869
 10
210.5232634831
 20
165.9211517667
 10
210.5471555808
 20
165.8901161768
 10
210.5703687811
 20
165.8582369375
 10
210.5928654466
 20
165.825565737
 10
210.614609102
 20
165.7921555475
 10
210.6355644925
 20
165.7580605396
 10
210.6556976416
 20
165.7233359939
 10
210.6749759059
 20
165.6880382121
 10
210.6933680282
 20
165.6522244249
 10
210.7108441879
 20
165.6159527001
 10
210.7273760496
 20
165.5792818475
 10
210.742936809
 20
165.5422713246
 10
210.7575012362
 20
165.5049811391
 10
210.7710457169
 20
165.4674717524
 10
210.7835482903
 20
165.4298039814
 10
210.7949886852
 20
165.3920388995
 10
210.8053483523
 20
165.3542377382
 10
210.8146104948
 20
165.3164617872
 10
210.8227600952
 20
165.2787722957
 10
210.82978394
 20
165.2412303722
 10
210.8356706409
 20
165.2038968865
 10
210.8404106533
 20
165.16683237
 10
210.843996292
 20
165.1300969182
 10
210.8453718229
 20
165.1094837725
  0
LWPOLYLINE
  5
564
100
AcDbEntity
  8
RACCORDO
100
AcDbPolyline
 62
7
  6
CONTINUOUS
 90
50
 70
0
 10
217.3338853331
 20
165.575253739
 10
217.330933788
 20
165.5767698934
 10
217.3265520796
 20
165.5791585467
 10
217.3216322683
 20
165.5820176169
 10
217.3162017991
 20
165.5853716165
 10
217.3102996435
 20
165.5892355147
 10
217.3039506919
 20
165.5936306969
 10
217.2971827714
 20
165.5985748995
 10
217.2900408962
 20
165.6040707676
 10
217.2825582453
 20
165.6101266698
 10
217.2747621029
 20
165.6167535466
 10
217.2666882033
 20
165.6239530011
 10
217.2583686203
 20
165.6317276393
 10
217.2498341965
 20
165.6400794442
 10
217.241117152
 20
165.6490068165
 10
217.232248055
 20
165.6585075539
 10
217.223260422
 20
165.6685747678
 10
217.2141892698
 20
165.6791974727
 10
217.2050617003
 20
165.69037134
 10
217.1959153203
 20
165.7020769732
 10
217.1867996404
 20
165.7142758527
 10
217.1777452644
 20
165.7269493977
 10
217.1687840158
 20
165.7400739533
 10
217.1599644551
 20
165.7535967736
 10
217.1513156369
 20
165.7674891584
 10
217.1428646121
 20
165.7817215832
 10
217.1346528358
 20
165.7962344883
 10
217.1267041943
 20
165.8109934814
 10
217.1190409878
 20
165.8259630314
 10
217.1116971307
 20
165.8410778898
 10
217.1046898857
 20
165.8562996496
 10
217.098035107
 20
165.8715894574
 10
217.0917580934
 20
165.88687879
 10
217.0858687849
 20
165.9021267571
 10
217.0803750311
 20
165.917294362
 10
217.0752918437
 20
165.9323147791
 10
217.0706210299
 20
165.9471487582
 10
217.066362441
 20
165.9617579002
 10
217.0625212483
 20
165.9760775516
 10
217.0590918397
 20
165.9900694655
 10
217.0560651388
 20
166.0037014833
 10
217.0534349441
 20
166.0169204546
 10
217.0511886424
 20
166.0296913739
 10
217.0493098731
 20
166.0419897339
 10
217.0477822856
 20
166.0537804875
 10
217.0465866466
 20
166.0650390098
 10
217.0457020628
 20
166.0757429081
 10
217.0451064154
 20
166.0858627277
 10
217.0447752614
 20
166.0953760653
 10
217.0446819398
 20
166.1035482467
  0
LWPOLYLINE
  5
565
100
AcDbEntity
  8
RACCORDO
100
AcDbPolyline
 62
250
  6
CONTINUOUS
 90
43
 70
0
 10
217.1164516949
 20
165.5640706995
 10
217.1088739016
 20
165.5682539039
 10
217.1012694297
 20
165.5727949607
 10
217.0936493198
 20
165.5776917049
 10
217.0860218242
 20
165.5829441531
 10
217.0784014095
 20
165.5885464753
 10
217.070808488
 20
165.5944854396
 10
217.0632541753
 20
165.6007552086
 10
217.0557503019
 20
165.6073491983
 10
217.0483178052
 20
165.6142494542
 10
217.0409678535
 20
165.6214466906
 10
217.0337112694
 20
165.628931884
 10
217.026567447
 20
165.636684259
 10
217.019548339
 20
165.6446901032
 10
217.0126619347
 20
165.6529399733
 10
217.005920634
 20
165.6614174766
 10
216.9993356898
 20
165.6701069745
 10
216.992913721
 20
165.6789984571
 10
216.9866597982
 20
165.6880835734
 10
216.980582451
 20
165.6973492415
 10
216.9746899135
 20
165.7067823039
 10
216.9689869866
 20
165.7163745794
 10
216.9634815984
 20
165.7261126618
 10
216.9581814581
 20
165.735982959
 10
216.9530912929
 20
165.7459771953
 10
216.9482184796
 20
165.7560815663
 10
216.943570183
 20
165.7662820578
 10
216.9391511217
 20
165.7765701435
 10
216.9349667777
 20
165.786934919
 10
216.9310252789
 20
165.7973586051
 10
216.9273348706
 20
165.8078221579
 10
216.9238999708
 20
165.8183136985
 10
216.9207269551
 20
165.8288153616
 10
216.9178249779
 20
165.8392988946
 10
216.9151969613
 20
165.849749784
 10
216.9128460252
 20
165.8601526965
 10
216.9107785886
 20
165.8704784308
 10
216.9089951903
 20
165.8807123074
 10
216.9074961066
 20
165.8908405891
 10
216.9062841781
 20
165.9008364148
 10
216.9053583826
 20
165.9106824599
 10
216.9047152247
 20
165.9203705656
 10
216.9043519692
 20
165.9298886135
  0
LWPOLYLINE
  5
566
100
AcDbEntity
  8
0
100
AcDbPolyline
 62
7
  6
CONTINUOUS
 90
16
 70
0
 10
193.2493624001
 20
172.3345177694
 10
193.2613495829
 20
172.3365624056
 10
193.273679251
 20
172.3379954707
 10
193.2863621
 20
172.3388018209
 10
193.2993788286
 20
172.3389762031
 10
193.3127259323
 20
172.3385088631
 10
193.3264413295
 20
172.3373744807
 10
193.3405052183
 20
172.3355699565
 10
193.3549154557
 20
172.3330789171
 10
193.369741696
 20
172.3298494884
 10
193.384991037
 20
172.3258670172
 10
193.4006349622
 20
172.3211171776
 10
193.4166922237
 20
172.3155425201
 10
193.4331533075
 20
172.3091242241
 10
193.4499970261
 20
172.3018486803
 10
193.4686737159
 20
172.2929398121
  0
LINE
  5
567
100
AcDbEntity
  8
0
100
AcDbLine
 62
7
  6
CONTINUOUS
 10
191.0803053481
 20
173.9012142036
 11
192.8287892711
 21
173.9960333017
  0
LWPOLYLINE
  5
568
100
AcDbEntity
  8
RACCORDO
100
AcDbPolyline
 62
250
  6
CONTINUOUS
 90
15
 70
0
 10
224.4177947013
 20
165.2556154413
 10
224.4045767885
 20
165.2613876525
 10
224.3908978428
 20
165.2661539025
 10
224.3767881667
 20
165.2699036328
 10
224.3622790169
 20
165.2726285368
 10
224.3474025352
 20
165.274322578
 10
224.332191677
 20
165.2749820037
 10
224.3166801384
 20
165.2746053531
 10
224.3009022817
 20
165.2731934605
 10
224.284893059
 20
165.2707494538
 10
224.2686879352
 20
165.2672787469
 10
224.252322809
 20
165.2627890286
 10
224.2358339335
 20
165.2572902446
 10
224.2192578361
 20
165.2507945764
 10
224.2026312372
 20
165.2433164135
  0
LWPOLYLINE
  5
569
100
AcDbEntity
  8
RACCORDO
100
AcDbPolyline
 62
250
  6
CONTINUOUS
 90
15
 70
0
 10
204.5480941499
 20
175.190465717
 10
204.5348762372
 20
175.1962379282
 10
204.5211972914
 20
175.2010041782
 10
204.5070876153
 20
175.2047539085
 10
204.4925784656
 20
175.2074788125
 10
204.4777019839
 20
175.2091728537
 10
204.4624911257
 20
175.2098322794
 10
204.4469795871
 20
175.2094556288
 10
204.4312017303
 20
175.2080437362
 10
204.4151925077
 20
175.2055997294
 10
204.3989873839
 20
175.2021290226
 10
204.3826222576
 20
175.1976393042
 10
204.3661333822
 20
175.1921405203
 10
204.3495572847
 20
175.185644852
 10
204.3329306859
 20
175.1781666892
  0
LWPOLYLINE
  5
56A
100
AcDbEntity
  8
RACCORDO
100
AcDbPolyline
 62
7
  6
CONTINUOUS
 90
24
 70
0
 10
224.4200469985
 20
165.2545082474
 10
224.4033461721
 20
165.262643253
 10
224.3728726224
 20
165.2763984645
 10
224.3423496778
 20
165.2887980926
 10
224.3118287219
 20
165.2998490626
 10
224.2813326644
 20
165.3095719938
 10
224.2508632778
 20
165.3179917667
 10
224.2204612436
 20
165.3251195502
 10
224.1901622209
 20
165.3309699958
 10
224.1599682009
 20
165.3355639668
 10
224.1299251504
 20
165.3389133505
 10
224.1000701645
 20
165.3410329703
 10
224.0703979403
 20
165.3419406711
 10
224.0409515932
 20
165.3416506798
 10
224.0117737745
 20
165.3401792165
 10
223.9828635836
 20
165.3375398236
 10
223.9542678327
 20
165.3337495994
 10
223.9260263412
 20
165.3288278784
 10
223.8981317365
 20
165.3227846138
 10
223.8706287215
 20
165.3156382387
 10
223.8435585767
 20
165.3074096649
 10
223.8169123985
 20
165.2981046768
 10
223.79071639
 20
165.2877371009
 10
223.7684056274
 20
165.2779064572
  0
LWPOLYLINE
  5
56B
100
AcDbEntity
  8
RACCORDO
100
AcDbPolyline
 62
7
  6
CONTINUOUS
 90
24
 70
0
 10
204.5503464471
 20
175.1893585231
 10
204.5336456208
 20
175.1974935286
 10
204.5031720711
 20
175.2112487402
 10
204.4726491264
 20
175.2236483683
 10
204.4421281706
 20
175.2346993383
 10
204.411632113
 20
175.2444222695
 10
204.3811627265
 20
175.2528420423
 10
204.3507606922
 20
175.2599698259
 10
204.3204616695
 20
175.2658202715
 10
204.2902676496
 20
175.2704142425
 10
204.2602245991
 20
175.2737636261
 10
204.2303696131
 20
175.275883246
 10
204.200697389
 20
175.2767909468
 10
204.1712510418
 20
175.2765009555
 10
204.1420732232
 20
175.2750294922
 10
204.1131630322
 20
175.2723900993
 10
204.0845672814
 20
175.2685998751
 10
204.0563257899
 20
175.2636781541
 10
204.0284311852
 20
175.2576348895
 10
204.0009281702
 20
175.2504885144
 10
203.9738580254
 20
175.2422599405
 10
203.9472118471
 20
175.2329549525
 10
203.9210158387
 20
175.2225873766
 10
203.898705076
 20
175.2127567328
  0
LWPOLYLINE
  5
56C
100
AcDbEntity
  8
RACCORDO
100
AcDbPolyline
 62
250
  6
CONTINUOUS
 90
16
 70
0
 10
225.7877694012
 20
164.5706472164
 10
225.7854964486
 20
164.5717645681
 10
225.7722785359
 20
164.5775367814
 10
225.7585995899
 20
164.5823030335
 10
225.7444899132
 20
164.5860527658
 10
225.7299807625
 20
164.5887776717
 10
225.7151042797
 20
164.5904717146
 10
225.69989342
 20
164.5911311417
 10
225.6843818796
 20
164.5907544923
 10
225.6686040209
 20
164.5893426007
 10
225.6525947961
 20
164.5868985945
 10
225.6363896698
 20
164.5834278879
 10
225.620024541
 20
164.5789381695
 10
225.6035356627
 20
164.5734393851
 10
225.5869595623
 20
164.566943716
 10
225.5703329604
 20
164.5594655519
  0
LINE
  5
56D
100
AcDbEntity
  8
DRAFT
100
AcDbLine
 62
7
  6
CONTINUOUS
 10
206.6266277454
 20
172.1401654067
 11
206.7056914776
 21
172.1006335405
  0
LINE
  5
56E
100
AcDbEntity
  8
DRAFT
100
AcDbLine
 62
7
  6
CONTINUOUS
 10
209.8086082607
 20
170.549175149
 11
209.887671993
 21
170.5096432829
  0
LINE
  5
56F
100
AcDbEntity
  8
DRAFT
100
AcDbLine
 62
7
  6
CONTINUOUS
 10
212.990588776
 20
168.9581848913
 11
213.0696525083
 21
168.9186530252
  0
LINE
  5
570
100
AcDbEntity
  8
DRAFT
100
AcDbLine
 62
7
  6
CONTINUOUS
 10
207.678031676
 20
172.6751236131
 11
207.7939108748
 21
172.6171840137
  0
LINE
  5
571
100
AcDbEntity
  8
DRAFT
100
AcDbLine
 62
7
  6
CONTINUOUS
 10
210.8600121914
 20
171.0841333554
 11
210.9758913901
 21
171.0261937561
  0
LINE
  5
572
100
AcDbEntity
  8
DRAFT
100
AcDbLine
 62
7
  6
CONTINUOUS
 10
214.0419927067
 20
169.4931430977
 11
214.1578719054
 21
169.4352034984
  0
LINE
  5
573
100
AcDbEntity
  8
RACCORDO
100
AcDbLine
 62
250
  6
CONTINUOUS
 10
216.1973528838
 20
169.2459555902
 11
215.0099432473
 21
169.8396604084
  0
LINE
  5
574
100
AcDbEntity
  8
RACCORDO
100
AcDbLine
 62
250
  6
CONTINUOUS
 10
213.4399362717
 20
170.6246638962
 11
211.8279627319
 21
171.4306506661
  0
LINE
  5
575
100
AcDbEntity
  8
RACCORDO
100
AcDbLine
 62
250
  6
CONTINUOUS
 10
210.2579557564
 20
172.2156541539
 11
208.6459822166
 21
173.0216409238
  0
LINE
  5
576
100
AcDbEntity
  8
RACCORDO
100
AcDbLine
 62
250
  6
CONTINUOUS
 10
204.3329306859
 20
175.1781666892
 11
207.075975241
 21
173.8066444116
  0
LINE
  5
577
100
AcDbEntity
  8
RACCORDO
100
AcDbLine
 62
250
  6
CONTINUOUS
 10
224.2026312372
 20
165.2433164135
 11
225.5703329604
 21
164.5594655519
  0
LINE
  5
578
100
AcDbEntity
  8
RACCORDO
100
AcDbLine
 62
7
  6
CONTINUOUS
 10
216.4147893241
 20
169.257137255
 11
215.2079374056
 21
169.8605632142
  0
LINE
  5
579
100
AcDbEntity
  8
RACCORDO
100
AcDbLine
 62
7
  6
CONTINUOUS
 10
213.676814994
 20
170.62612442
 11
212.0259568902
 21
171.4515534719
  0
LINE
  5
57A
100
AcDbEntity
  8
RACCORDO
100
AcDbLine
 62
7
  6
CONTINUOUS
 10
210.4948344786
 20
172.2171146777
 11
208.8439763749
 21
173.0425437296
  0
LINE
  5
57B
100
AcDbEntity
  8
RACCORDO
100
AcDbLine
 62
7
  6
CONTINUOUS
 10
204.5503671261
 20
175.189348354
 11
207.3128539633
 21
173.8081049354
  0
LINE
  5
57C
100
AcDbEntity
  8
RACCORDO
100
AcDbLine
 62
7
  6
CONTINUOUS
 10
224.4200676775
 20
165.2544980783
 11
225.7877694012
 21
164.5706472164
  0
LWPOLYLINE
  5
57D
100
AcDbEntity
  8
RACCORDO
100
AcDbPolyline
 62
250
  6
CONTINUOUS
 90
22
 70
0
 10
225.5703329604
 20
164.5594655519
 10
225.5968597931
 20
164.5456857088
 10
225.6233408893
 20
164.530710179
 10
225.6497391108
 20
164.5145598679
 10
225.6760172703
 20
164.4972573618
 10
225.7021387202
 20
164.4788268059
 10
225.7280673963
 20
164.4592938261
 10
225.753767274
 20
164.438685486
 10
225.7792020648
 20
164.4170307321
 10
225.8043358162
 20
164.3943602961
 10
225.8291330471
 20
164.3707062811
 10
225.8535594284
 20
164.3461014395
 10
225.8775814474
 20
164.3205795294
 10
225.9011658975
 20
164.2941758304
 10
225.9242794176
 20
164.266927585
 10
225.9468891933
 20
164.2388733268
 10
225.9689635011
 20
164.2100526115
 10
225.990471732
 20
164.1805054968
 10
226.0113838932
 20
164.1502729047
 10
226.0316708208
 20
164.1193969886
 10
226.0513042418
 20
164.0879210998
 10
226.070256808
 20
164.0558892926
  0
LWPOLYLINE
  5
57E
100
AcDbEntity
  8
0
100
AcDbPolyline
 62
7
  6
CONTINUOUS
 90
16
 70
0
 10
187.6607863222
 20
175.1301046657
 10
187.6727666988
 20
175.1320445804
 10
187.6850864331
 20
175.1333779066
 10
187.697757161
 20
175.1340890953
 10
187.7107593751
 20
175.1341730994
 10
187.7240902815
 20
175.1336199268
 10
187.7377902149
 20
175.1324030458
 10
187.7518415632
 20
175.1305189242
 10
187.7662406725
 20
175.127951249
 10
187.7810539
 20
175.1246477488
 10
187.7962880624
 20
175.1205934098
 10
187.8119150205
 20
175.1157743133
 10
187.8279508896
 20
175.1101341018
 10
187.8443856531
 20
175.1036540722
 10
187.8611985772
 20
175.0963208576
 10
187.8782276418
 20
175.0881638769
  0
LWPOLYLINE
  5
57F
100
AcDbEntity
  8
RACCORDO
100
AcDbPolyline
 62
250
  6
CONTINUOUS
 90
20
 70
0
 10
226.3789487999
 20
163.8943058334
 10
226.3776322275
 20
163.8955876409
 10
226.3753114395
 20
163.8963985631
 10
226.3720404854
 20
163.8966492752
 10
226.3678266113
 20
163.8963392216
 10
226.362679152
 20
163.8954690894
 10
226.3566095105
 20
163.894040806
 10
226.3496311327
 20
163.8920575354
 10
226.3417594776
 20
163.8895236712
 10
226.3330119829
 20
163.8864448265
 10
226.3234080268
 20
163.8828278217
 10
226.3129688846
 20
163.8786806695
 10
226.3017176817
 20
163.874012557
 10
226.2896793427
 20
163.8688338252
 10
226.2768805357
 20
163.8631559466
 10
226.2633496135
 20
163.856991499
 10
226.2491165509
 20
163.8503541384
 10
226.2342128778
 20
163.8432585684
 10
226.2186716099
 20
163.8357205076
 10
226.2025271754
 20
163.8277566548
  0
LWPOLYLINE
  5
580
100
AcDbEntity
  8
RACCORDO
100
AcDbPolyline
 62
250
  6
CONTINUOUS
 90
20
 70
0
 10
226.2466784324
 20
164.1224384713
 10
226.2453618575
 20
164.1237202804
 10
226.2430410681
 20
164.1245312018
 10
226.2397701128
 20
164.124781913
 10
226.2355562375
 20
164.1244718588
 10
226.2304087772
 20
164.1236017258
 10
226.2243391348
 20
164.1221734417
 10
226.2173607563
 20
164.1201901706
 10
226.2094891007
 20
164.1176563059
 10
226.2007416057
 20
164.1145774608
 10
226.1911376495
 20
164.1109604558
 10
226.1806985075
 20
164.1068133034
 10
226.169447305
 20
164.1021451909
 10
226.1574089667
 20
164.0969664593
 10
226.1446101605
 20
164.0912885809
 10
226.1310792395
 20
164.0851241338
 10
226.1168461782
 20
164.0784867737
 10
226.1019425067
 20
164.0713912044
 10
226.0864012406
 20
164.0638531444
 10
226.070256808
 20
164.0558892926
  0
LWPOLYLINE
  5
581
100
AcDbEntity
  8
RACCORDO
100
AcDbPolyline
 62
7
  6
CONTINUOUS
 90
19
 70
0
 10
226.2466790157
 20
164.1224370697
 10
226.234479583
 20
164.1430401904
 10
226.2142695915
 20
164.1753888749
 10
226.1930084951
 20
164.2072798491
 10
226.170639954
 20
164.2387377031
 10
226.1471942015
 20
164.2696560347
 10
226.1228041393
 20
164.2998131065
 10
226.0974677557
 20
164.329178773
 10
226.0711825192
 20
164.3577148886
 10
226.0441043862
 20
164.3852242416
 10
226.0162402112
 20
164.411682554
 10
225.9875933411
 20
164.4370629378
 10
225.9583352288
 20
164.4612021502
 10
225.9284849405
 20
164.4840813634
 10
225.898050384
 20
164.5056879799
 10
225.8672065066
 20
164.5259002758
 10
225.8360325805
 20
164.5446814917
 10
225.8045045117
 20
164.5620611903
 10
225.7877766516
 20
164.5706434134
  0
LINE
  5
582
100
AcDbEntity
  8
RACCORDO
100
AcDbLine
 62
250
  6
CONTINUOUS
 10
226.070256808
 20
164.0558892926
 11
226.2025271754
 21
163.8277566548
  0
LINE
  5
583
100
AcDbEntity
  8
RACCORDO
100
AcDbLine
 62
7
  6
CONTINUOUS
 10
226.2466784324
 20
164.1224384713
 11
226.3789487999
 21
163.8943058334
  0
LWPOLYLINE
  5
584
100
AcDbEntity
  8
RACCORDO
100
AcDbPolyline
 62
250
  6
CONTINUOUS
 90
28
 70
0
 10
226.2025271754
 20
163.8277566548
 10
226.2312558808
 20
163.7773276179
 10
226.2591091139
 20
163.726326292
 10
226.2860631735
 20
163.6747957475
 10
226.3120949002
 20
163.622779666
 10
226.3371824035
 20
163.5703218315
 10
226.3613050394
 20
163.5174660749
 10
226.3844424708
 20
163.4642567098
 10
226.4065748156
 20
163.410739015
 10
226.4276833662
 20
163.3569587191
 10
226.4477501741
 20
163.3029615117
 10
226.466758263
 20
163.2487928058
 10
226.4846917322
 20
163.1944982044
 10
226.5015354646
 20
163.140123495
 10
226.5172751039
 20
163.0857147817
 10
226.5318972886
 20
163.0313182525
 10
226.5453896788
 20
162.9769800871
 10
226.5577408934
 20
162.9227460963
 10
226.5689404572
 20
162.8686618534
 10
226.5789790218
 20
162.8147729448
 10
226.5878480666
 20
162.7611251797
 10
226.5955398598
 20
162.7077642252
 10
226.6020480077
 20
162.6547356368
 10
226.6073671467
 20
162.6020839402
 10
226.6114925892
 20
162.5498528565
 10
226.6144208363
 20
162.4980863579
 10
226.6161496338
 20
162.446828614
 10
226.616677651
 20
162.3961230801
  0
ARC
  5
585
100
AcDbEntity
  8
0
100
AcDbCircle
 62
7
  6
CONTINUOUS
 10
192.9317669265
 20
167.5654066849
 40
0.25
100
AcDbArc
 50
320.5925343592
 51
359.9975470757
  0
ARC
  5
586
100
AcDbEntity
  8
0
100
AcDbCircle
 62
7
  6
CONTINUOUS
 10
180.6281089338
 20
173.7172356812
 40
0.25
100
AcDbArc
 50
320.5925343592
 51
359.9975470757
  0
ARC
  5
587
100
AcDbEntity
  8
0
100
AcDbCircle
 62
7
  6
CONTINUOUS
 10
190.8052020399
 20
166.5073687846
 40
0.25
100
AcDbArc
 50
243.4328936918
 51
258.2152899921
  0
ARC
  5
588
100
AcDbEntity
  8
0
100
AcDbCircle
 62
7
  6
CONTINUOUS
 10
189.1248115748
 20
167.3475640172
 40
0.25
100
AcDbArc
 50
179.9380976759
 51
243.4738746648
  0
ARC
  5
589
100
AcDbEntity
  8
0
100
AcDbCircle
 62
7
  6
CONTINUOUS
 10
178.5015440472
 20
172.659197781
 40
0.25
100
AcDbArc
 50
243.4343785102
 51
258.2149391773
  0
ARC
  5
58A
100
AcDbEntity
  8
0
100
AcDbCircle
 62
7
  6
CONTINUOUS
 10
176.8211535821
 20
173.4993930135
 40
0.25
100
AcDbArc
 50
179.9380976759
 51
243.4738746648
  0
ARC
  5
58B
100
AcDbEntity
  8
0
100
AcDbCircle
 62
7
  6
CONTINUOUS
 10
191.2408873753
 20
168.7583779772
 40
0.25
100
AcDbArc
 50
63.3939681258
 51
115.9721801256
  0
ARC
  5
58C
100
AcDbEntity
  8
0
100
AcDbCircle
 62
7
  6
CONTINUOUS
 10
176.8211535821
 20
173.8405013031
 40
0.25
100
AcDbArc
 50
117.0545657542
 51
179.969008611
  0
ARC
  5
58D
100
AcDbEntity
  8
0
100
AcDbCircle
 62
7
  6
CONTINUOUS
 10
206.7141784192
 20
158.552880595
 40
0.25
100
AcDbArc
 50
243.4328872733
 51
258.2060367178
  0
ARC
  5
58E
100
AcDbEntity
  8
0
100
AcDbCircle
 62
7
  6
CONTINUOUS
 10
205.0356403488
 20
159.3921496302
 40
0.25
100
AcDbArc
 50
179.9381560963
 51
243.4740276147
  0
ARC
  5
58F
100
AcDbEntity
  8
0
100
AcDbCircle
 62
7
  6
CONTINUOUS
 10
194.4105204266
 20
164.7047095913
 40
0.25
100
AcDbArc
 50
243.4343158181
 51
258.2056474968
  0
ARC
  5
590
100
AcDbEntity
  8
0
100
AcDbCircle
 62
7
  6
CONTINUOUS
 10
192.7319823562
 20
165.5439786265
 40
0.25
100
AcDbArc
 50
179.9381560963
 51
243.4740276147
  0
ARC
  5
591
100
AcDbEntity
  8
0
100
AcDbCircle
 62
7
  6
CONTINUOUS
 10
196.5380115105
 20
165.7622843929
 40
0.25
100
AcDbArc
 50
320.598492512
 51
360.0
  0
ARC
  5
592
100
AcDbEntity
  8
0
100
AcDbCircle
 62
7
  6
CONTINUOUS
 10
208.8416695032
 20
159.6104553965
 40
0.25
100
AcDbArc
 50
320.6056476466
 51
0.026950665
  0
ARC
  5
593
100
AcDbEntity
  8
0
100
AcDbCircle
 62
7
  6
CONTINUOUS
 10
208.8416695032
 20
118.3108512572
 40
0.25
100
AcDbArc
 50
359.9381560963
 51
63.4740276147
  0
ARC
  5
594
100
AcDbEntity
  8
0
100
AcDbCircle
 62
7
  6
CONTINUOUS
 10
206.7141784192
 20
116.9133025214
 40
0.25
100
AcDbArc
 50
243.3939681258
 51
295.9721801256
  0
ARC
  5
595
100
AcDbEntity
  8
0
100
AcDbCircle
 62
7
  6
CONTINUOUS
 10
194.8471319594
 20
166.9552556852
 40
0.25
100
AcDbArc
 50
63.4349488229
 51
116.0140441013
  0
ARC
  5
596
100
AcDbEntity
  8
0
100
AcDbCircle
 62
7
  6
CONTINUOUS
 10
189.1248115748
 20
167.6886723067
 40
0.25
100
AcDbArc
 50
117.0545657542
 51
179.969008611
  0
ARC
  5
597
100
AcDbEntity
  8
0
100
AcDbCircle
 62
7
  6
CONTINUOUS
 10
192.9317669265
 20
167.9129382016
 40
0.25
100
AcDbArc
 50
0.0322436508
 51
63.4821942446
  0
ARC
  5
598
100
AcDbEntity
  8
0
100
AcDbCircle
 62
7
  6
CONTINUOUS
 10
180.6281089338
 20
174.064767198
 40
0.25
100
AcDbArc
 50
0.0057333847
 51
63.4349488229
  0
ARC
  5
599
100
AcDbEntity
  8
0
100
AcDbCircle
 62
7
  6
CONTINUOUS
 10
178.9372293827
 20
174.9102069735
 40
0.25
100
AcDbArc
 50
63.4349488229
 51
116.0140441013
  0
ARC
  5
59A
100
AcDbEntity
  8
0
100
AcDbCircle
 62
7
  6
CONTINUOUS
 10
205.0356403488
 20
159.7321235643
 40
0.25
100
AcDbArc
 50
117.1586821941
 51
179.9961222374
  0
ARC
  5
59B
100
AcDbEntity
  8
0
100
AcDbCircle
 62
7
  6
CONTINUOUS
 10
208.8416695032
 20
117.9633197404
 40
0.25
100
AcDbArc
 50
297.1142406112
 51
359.9691462091
  0
ARC
  5
59C
100
AcDbEntity
  8
0
100
AcDbCircle
 62
7
  6
CONTINUOUS
 10
207.150789952
 20
160.8034266889
 40
0.25
100
AcDbArc
 50
63.3939681258
 51
115.9721801256
  0
ARC
  5
59D
100
AcDbEntity
  8
0
100
AcDbCircle
 62
7
  6
CONTINUOUS
 10
208.8416695032
 20
159.9579869133
 40
0.25
100
AcDbArc
 50
0.0057333847
 51
63.4349488229
  0
ARC
  5
59E
100
AcDbEntity
  8
0
100
AcDbCircle
 62
7
  6
CONTINUOUS
 10
196.5380115105
 20
166.1098159096
 40
0.25
100
AcDbArc
 50
0.0322436508
 51
63.4821942446
  0
ARC
  5
59F
100
AcDbEntity
  8
0
100
AcDbCircle
 62
7
  6
CONTINUOUS
 10
192.7319823562
 20
165.8839525606
 40
0.25
100
AcDbArc
 50
117.1142406112
 51
179.9691462091
  0
ARC
  5
5A0
100
AcDbEntity
  8
0
100
AcDbCircle
 62
7
  6
CONTINUOUS
 10
186.0405641717
 20
170.2287857461
 40
0.2
100
AcDbArc
 50
116.8621250956
 51
180.0
  0
ARC
  5
5A1
100
AcDbEntity
  8
0
100
AcDbCircle
 62
7
  6
CONTINUOUS
 10
201.9504667484
 20
162.2736827463
 40
0.2
100
AcDbArc
 50
116.894582951
 51
180.0
  0
ELLIPSE
  5
5A2
100
AcDbEntity
  8
0
100
AcDbEllipse
 62
7
  6
CONTINUOUS
 10
175.4340836494
 20
171.2238213657
 30
0.0
 11
-0.2238185272
 21
0.4474870472
 31
0.0
 40
0.6119614214
 41
-0.6845271385
 42
0.0285130426
  0
ELLIPSE
  5
5A3
100
AcDbEntity
  8
0
100
AcDbEllipse
 62
7
  6
CONTINUOUS
 10
206.0515648839
 20
155.9150807485
 30
0.0
 11
-0.2235482059
 21
0.4472467618
 31
0.0
 40
0.6127837007
 41
-2.2550219623
 42
-0.6849108682
  0
ELLIPSE
  5
5A4
100
AcDbEntity
  8
0
100
AcDbEllipse
 62
7
  6
CONTINUOUS
 10
206.0515648839
 20
118.503080172
 30
0.0
 11
-0.2238185272
 21
0.4474870472
 31
0.0
 40
0.6119614214
 41
-3.1701060238
 42
-2.2560086979
  0
ELLIPSE
  5
5A5
100
AcDbEntity
  8
RACCORDO
100
AcDbEllipse
 62
7
  6
CONTINUOUS
 10
182.452068426
 20
168.3669254492
 30
0.0
 11
0.2999809403
 21
0.0065553984
 31
0.0
 40
0.5158547707
 41
-2.3674668407
 42
-0.8839369766
  0
ELLIPSE
  5
5A6
100
AcDbEntity
  8
RACCORDO
100
AcDbEllipse
 62
7
  6
CONTINUOUS
 10
193.0586701438
 20
163.0636245903
 30
0.0
 11
0.2999809403
 21
0.0065553984
 31
0.0
 40
0.5158547707
 41
-2.3674668407
 42
-0.8839369766
  0
ELLIPSE
  5
5A7
100
AcDbEntity
  8
RACCORDO
100
AcDbEllipse
 62
7
  6
CONTINUOUS
 10
188.8512424582
 20
165.167338433
 30
0.0
 11
0.2999809403
 21
0.0065553984
 31
0.0
 40
0.5158547707
 41
2.4321886022
 42
3.9157184664
  0
ELLIPSE
  5
5A8
100
AcDbEntity
  8
RACCORDO
100
AcDbEllipse
 62
7
  6
CONTINUOUS
 10
199.457844176
 20
159.8640375741
 30
0.0
 11
0.2999809403
 21
0.0065553984
 31
0.0
 40
0.5158547707
 41
2.4321886022
 42
3.9157184664
  0
ELLIPSE
  5
5A9
100
AcDbEntity
  8
RACCORDO
100
AcDbEllipse
 62
7
  6
CONTINUOUS
 10
226.2570077509
 20
144.3287122064
 30
0.0
 11
0.4990066472
 21
0.0952993146
 31
0.0
 40
0.3305568633
 41
-0.8309903123
 42
-0.0630454415
  0
ELLIPSE
  5
5AA
100
AcDbEntity
  8
RACCORDO
100
AcDbEllipse
 62
7
  6
CONTINUOUS
 10
226.2570077509
 20
148.2258265235
 30
0.0
 11
0.4990066472
 21
0.0952993146
 31
0.0
 40
0.3305568633
 41
-0.8309903123
 42
-0.0630454415
  0
ELLIPSE
  5
5AB
100
AcDbEntity
  8
RACCORDO
100
AcDbEllipse
 62
7
  6
CONTINUOUS
 10
226.2570077509
 20
152.1229408405
 30
0.0
 11
0.4990066472
 21
0.0952993146
 31
0.0
 40
0.3305568633
 41
-0.8309903123
 42
-0.0630454415
  0
ELLIPSE
  5
5AC
100
AcDbEntity
  8
RACCORDO
100
AcDbEllipse
 62
7
  6
CONTINUOUS
 10
208.5450344875
 20
172.6329976789
 30
0.0
 11
0.3192637086
 21
0.396526327
 31
0.0
 40
0.466634772
 41
0.1011767287
 42
0.7684426374
  0
ELLIPSE
  5
5AD
100
AcDbEntity
  8
RACCORDO
100
AcDbEllipse
 62
7
  6
CONTINUOUS
 10
211.7270150028
 20
171.0420074213
 30
0.0
 11
0.3192637086
 21
0.396526327
 31
0.0
 40
0.466634772
 41
0.1011767287
 42
0.7684426374
  0
ELLIPSE
  5
5AE
100
AcDbEntity
  8
RACCORDO
100
AcDbEllipse
 62
7
  6
CONTINUOUS
 10
214.9089955182
 20
169.4510171636
 30
0.0
 11
0.3192637086
 21
0.396526327
 31
0.0
 40
0.466634772
 41
0.1011767287
 42
0.7684426374
  0
ELLIPSE
  5
5AF
100
AcDbEntity
  8
RACCORDO
100
AcDbEllipse
 62
7
  6
CONTINUOUS
 10
207.1645822552
 20
173.3232237951
 30
0.0
 11
0.0652113431
 21
0.5103744014
 31
0.0
 40
0.6997651453
 41
5.1570001223
 42
6.7103431565
  0
ELLIPSE
  5
5B0
100
AcDbEntity
  8
DRAFT
100
AcDbEllipse
 62
7
  6
CONTINUOUS
 10
219.4201156358
 20
147.3976443103
 30
0.0
 11
0.45467417
 21
0.9412964736
 31
0.0
 40
0.6016130338
 41
0.6805509319
 42
3.8140443028
  0
ELLIPSE
  5
5B1
100
AcDbEntity
  8
DRAFT
100
AcDbEllipse
 62
7
  6
CONTINUOUS
 10
219.4201156358
 20
143.5005299932
 30
0.0
 11
0.45467417
 21
0.9412964736
 31
0.0
 40
0.6016130338
 41
0.6805509319
 42
3.8140443028
  0
ELLIPSE
  5
5B2
100
AcDbEntity
  8
DRAFT
100
AcDbEllipse
 62
7
  6
CONTINUOUS
 10
219.4201156358
 20
139.6034156762
 30
0.0
 11
0.45467417
 21
0.9412964736
 31
0.0
 40
0.6016130338
 41
0.6805509319
 42
3.8140443028
  0
ELLIPSE
  5
5B3
100
AcDbEntity
  8
RACCORDO
100
AcDbEllipse
 62
7
  6
CONTINUOUS
 10
210.3465627706
 20
171.7322335374
 30
0.0
 11
0.0652113431
 21
0.5103744014
 31
0.0
 40
0.6997651453
 41
5.1570001223
 42
6.7103431565
  0
ELLIPSE
  5
5B4
100
AcDbEntity
  8
RACCORDO
100
AcDbEllipse
 62
7
  6
CONTINUOUS
 10
213.5285432859
 20
170.1412432797
 30
0.0
 11
0.0652113431
 21
0.5103744014
 31
0.0
 40
0.6997651453
 41
5.1570001223
 42
6.7103431565
  0
ELLIPSE
  5
5B5
100
AcDbEntity
  8
RACCORDO
100
AcDbEllipse
 62
7
  6
CONTINUOUS
 10
218.0244657257
 20
164.6709465747
 30
0.0
 11
-0.1508942909
 21
0.5560093409
 31
0.0
 40
0.6658609573
 41
4.8609073778
 42
6.4142504121
  0
ELLIPSE
  5
5B6
100
AcDbEntity
  8
ASSI
100
AcDbEllipse
 62
7
  6
CONTINUOUS
 10
216.9764858486
 20
161.2380206589
 30
0.0
 11
2.7499831596
 21
-0.0194567514
 31
0.0
 40
0.4946372042
 41
1.2641159102
 42
1.8084981138
  0
ELLIPSE
  5
5B7
100
AcDbEntity
  8
RACCORDO
100
AcDbEllipse
 62
7
  6
CONTINUOUS
 10
204.0205065018
 20
163.656298995
 30
0.0
 11
1.2141619185
 21
0.9541526469
 31
0.0
 40
0.2329077568
 41
0.1095198182
 42
0.114024621
  0
ELLIPSE
  5
5B8
100
AcDbEntity
  8
RACCORDO
100
AcDbEllipse
 62
7
  6
CONTINUOUS
 10
188.1106039251
 20
171.6112502833
 30
0.0
 11
1.2141619185
 21
0.9541526469
 31
0.0
 40
0.2329077568
 41
0.1095198182
 42
0.114024621
  0
ELLIPSE
  5
5B9
100
AcDbEntity
  8
RACCORDO
100
AcDbEllipse
 62
7
  6
CONTINUOUS
 10
210.258756003
 20
155.5005754739
 30
0.0
 11
-0.894612936
 21
1.7887945813
 31
0.0
 40
0.6124635976
 41
-2.2555607096
 42
-2.0824751986
  0
ELLIPSE
  5
5BA
100
AcDbEntity
  8
RACCORDO
100
AcDbEllipse
 62
7
  6
CONTINUOUS
 10
210.258756003
 20
124.8927319765
 30
0.0
 11
-0.894811907
 21
1.788971565
 31
0.0
 40
0.6123121697
 41
-2.4288278479
 42
-2.2557423369
  0
ELLIPSE
  5
5BB
100
AcDbEntity
  8
RACCORDO
100
AcDbEllipse
 62
7
  6
CONTINUOUS
 10
222.986807319
 20
146.5528594678
 30
0.0
 11
-0.357729241
 21
0.7155653229
 31
0.0
 40
0.6125552124
 41
-2.255296188
 42
-1.8779024417
  0
ELLIPSE
  5
5BC
100
AcDbEntity
  8
RACCORDO
100
AcDbEllipse
 62
7
  6
CONTINUOUS
 10
218.3200504123
 20
163.6345793253
 30
0.0
 11
0.1304891768
 21
0.2701542511
 31
0.0
 40
0.6016116119
 41
-0.0082293075
 42
0.6764898932
  0
ELLIPSE
  5
5BD
100
AcDbEntity
  8
RACCORDO
100
AcDbEllipse
 62
7
  6
CONTINUOUS
 10
226.2570077509
 20
142.677706453
 30
0.0
 11
0.4919639961
 21
-0.1421707337
 31
0.0
 40
0.627997363
 41
-0.5884163501
 42
0.9649266842
  0
ELLIPSE
  5
5BE
100
AcDbEntity
  8
RACCORDO
100
AcDbEllipse
 62
7
  6
CONTINUOUS
 10
226.2570077509
 20
146.5748207701
 30
0.0
 11
0.4919639961
 21
-0.1421707337
 31
0.0
 40
0.627997363
 41
-0.5884163501
 42
0.9649266842
  0
ELLIPSE
  5
5BF
100
AcDbEntity
  8
RACCORDO
100
AcDbEllipse
 62
7
  6
CONTINUOUS
 10
226.2570077509
 20
150.4719350871
 30
0.0
 11
0.4919639961
 21
-0.1421707337
 31
0.0
 40
0.627997363
 41
-0.5884163501
 42
0.9649266842
  0
ELLIPSE
  5
5C0
100
AcDbEntity
  8
0
100
AcDbEllipse
 62
7
  6
CONTINUOUS
 10
203.5016000298
 20
166.7174605843
 30
0.0
 11
0.2257019663
 21
0.4461636818
 31
0.0
 40
0.6159267166
 41
0.5882567743
 42
0.6817883054
  0
ELLIPSE
  5
5C1
100
AcDbEntity
  8
0
100
AcDbEllipse
 62
7
  6
CONTINUOUS
 10
201.1726492891
 20
163.5783034196
 30
0.0
 11
-0.0894407211
 21
0.1788887077
 31
0.0
 40
0.6123703628
 41
-2.2554972904
 42
-0.6847009636
  0
ELLIPSE
  5
5C2
100
AcDbEntity
  8
0
100
AcDbEllipse
 62
7
  6
CONTINUOUS
 10
216.037971158
 20
125.2010580486
 30
0.0
 11
0.9987332359
 21
0.6172510855
 31
0.0
 40
0.0815198604
 41
-2.4007162062
 42
-1.3184262554
  0
ELLIPSE
  5
5C3
100
AcDbEntity
  8
0
100
AcDbEllipse
 62
7
  6
CONTINUOUS
 10
187.5916974531
 20
174.6724118727
 30
0.0
 11
0.2257019663
 21
0.4461636818
 31
0.0
 40
0.6159267166
 41
0.5882567743
 42
0.6817883054
  0
ELLIPSE
  5
5C4
100
AcDbEntity
  8
0
100
AcDbEllipse
 62
7
  6
CONTINUOUS
 10
188.3579370857
 20
175.9809733443
 30
0.0
 11
0.9987332359
 21
0.6172510855
 31
0.0
 40
0.0815198604
 41
0.0503394927
 42
0.729240919
  0
ELLIPSE
  5
5C5
100
AcDbEntity
  8
0
100
AcDbEllipse
 62
7
  6
CONTINUOUS
 10
185.2627467124
 20
171.5332547079
 30
0.0
 11
-0.0894407211
 21
0.1788887077
 31
0.0
 40
0.6123703628
 41
-2.2554972904
 42
-0.6847009636
  0
ELLIPSE
  5
5C6
100
AcDbEntity
  8
0
100
AcDbEllipse
 62
7
  6
CONTINUOUS
 10
186.9598029873
 20
170.6847265705
 30
0.0
 11
-0.0894407211
 21
0.1788887077
 31
0.0
 40
0.6123703628
 41
-0.6847009636
 42
-0.0034907002
  0
ELLIPSE
  5
5C7
100
AcDbEntity
  8
0
100
AcDbEllipse
 62
7
  6
CONTINUOUS
 10
209.5459888974
 20
119.8243596986
 30
0.0
 11
-0.2236315662
 21
0.4472293059
 31
0.0
 40
0.6123445654
 41
-3.1338271467
 42
-2.2555748796
  0
ELLIPSE
  5
5C8
100
AcDbEntity
  8
0
100
AcDbEllipse
 62
7
  6
CONTINUOUS
 10
209.5459888974
 20
157.7461809514
 30
0.0
 11
-0.223611546
 21
0.4472115081
 31
0.0
 40
0.6124054886
 41
-2.2555017776
 42
-0.6847562194
  0
ELLIPSE
  5
5C9
100
AcDbEntity
  8
0
100
AcDbEllipse
 62
7
  6
CONTINUOUS
 10
202.869705564
 20
162.7297752822
 30
0.0
 11
-0.0894407211
 21
0.1788887077
 31
0.0
 40
0.6123703628
 41
-0.6847009636
 42
-0.0034907002
  0
ELLIPSE
  5
5CA
100
AcDbEntity
  8
DRAFT
100
AcDbEllipse
 62
7
  6
CONTINUOUS
 10
215.8383713616
 20
162.2960894537
 30
0.0
 11
0.499996712
 21
0.0035883639
 31
0.0
 40
0.5053247124
 41
-0.7715714568
 42
-0.0036266526
  0
ELLIPSE
  5
5CB
100
AcDbEntity
  8
0
100
AcDbEllipse
 62
7
  6
CONTINUOUS
 10
177.524557927
 20
172.547231512
 30
0.0
 11
0.249929385
 21
0.0111824824
 31
0.0
 40
0.5313301283
 41
3.1178240552
 42
3.9032222197
  0
ELLIPSE
  5
5CC
100
AcDbEntity
  8
0
100
AcDbEllipse
 62
7
  6
CONTINUOUS
 10
189.8282159197
 20
166.3954025157
 30
0.0
 11
0.249929385
 21
0.0111824824
 31
0.0
 40
0.5313301283
 41
3.1178240552
 42
3.9032222197
  0
ELLIPSE
  5
5CD
100
AcDbEntity
  8
0
100
AcDbEllipse
 62
7
  6
CONTINUOUS
 10
176.8320055553
 20
172.2717774404
 30
0.0
 11
-0.2234618187
 21
0.4480306886
 31
0.0
 40
0.6116748051
 41
-0.6831523234
 42
0.886730614
  0
ELLIPSE
  5
5CE
100
AcDbEntity
  8
0
100
AcDbEllipse
 62
7
  6
CONTINUOUS
 10
193.2530533398
 20
171.6613885453
 30
0.0
 11
0.9999972457
 21
-0.0047278206
 31
0.0
 40
0.4964289597
 41
5.5418283847
 42
6.5473317242
  0
ELLIPSE
  5
5CF
100
AcDbEntity
  8
0
100
AcDbEllipse
 62
7
  6
CONTINUOUS
 10
191.5160112573
 20
165.5515048469
 30
0.0
 11
0.249929385
 21
0.0111824824
 31
0.0
 40
0.5313301283
 41
-2.3799630874
 42
-0.8144027484
  0
ELLIPSE
  5
5D0
100
AcDbEntity
  8
0
100
AcDbEllipse
 62
7
  6
CONTINUOUS
 10
179.2123532647
 20
171.7033338432
 30
0.0
 11
0.249929385
 21
0.0111824824
 31
0.0
 40
0.5313301283
 41
-2.3799630874
 42
-0.8144027484
  0
ELLIPSE
  5
5D1
100
AcDbEntity
  8
0
100
AcDbEllipse
 62
7
  6
CONTINUOUS
 10
184.3435078969
 20
169.8526251141
 30
0.0
 11
0.199943508
 21
0.008945986
 31
0.0
 40
0.5313301283
 41
-2.3799630874
 42
-0.8091667606
  0
ELLIPSE
  5
5D2
100
AcDbEntity
  8
0
100
AcDbEllipse
 62
7
  6
CONTINUOUS
 10
186.0405641717
 20
169.0040969766
 30
0.0
 11
0.199943508
 21
0.008945986
 31
0.0
 40
0.5313301283
 41
3.117824056
 42
3.9032222197
  0
ELLIPSE
  5
5D3
100
AcDbEntity
  8
RACCORDO
100
AcDbEllipse
 62
7
  6
CONTINUOUS
 10
208.6786535473
 20
161.5472231681
 30
0.0
 11
0.221538876
 21
0.4482453432
 31
0.0
 40
0.6088015717
 41
-2.459687356
 42
-0.8888910292
  0
ELLIPSE
  5
5D4
100
AcDbEntity
  8
0
100
AcDbEllipse
 62
7
  6
CONTINUOUS
 10
209.7331429787
 20
163.6016891099
 30
0.0
 11
0.221538876
 21
0.4482453432
 31
0.0
 40
0.6088015717
 41
0.5825560023
 42
0.6760875334
  0
ELLIPSE
  5
5D5
100
AcDbEntity
  8
0
100
AcDbEllipse
 62
7
  6
CONTINUOUS
 10
215.8383713616
 20
124.9769398085
 30
0.0
 11
0.499366618
 21
0.3086255427
 31
0.0
 40
0.0815198604
 41
6.1370480113
 42
7.0007906979
  0
ELLIPSE
  5
5D6
100
AcDbEntity
  8
0
100
AcDbEllipse
 62
7
  6
CONTINUOUS
 10
193.4349753104
 20
164.5920228203
 30
0.0
 11
0.249929385
 21
0.0111824824
 31
0.0
 40
0.5313301283
 41
3.1178240551
 42
3.9032222197
  0
ELLIPSE
  5
5D7
100
AcDbEntity
  8
0
100
AcDbEllipse
 62
7
  6
CONTINUOUS
 10
195.1217410347
 20
163.7486399582
 30
0.0
 11
0.249929385
 21
0.0111824824
 31
0.0
 40
0.5313301283
 41
-2.3799630874
 42
-0.8149845248
  0
ELLIPSE
  5
5D8
100
AcDbEntity
  8
0
100
AcDbEllipse
 62
7
  6
CONTINUOUS
 10
209.445798629
 20
162.8257078978
 30
0.0
 11
0.4530414621
 21
-0.0021419047
 31
0.0
 40
0.4964289597
 41
-0.77723337
 42
0.0023470289
  0
ELLIPSE
  5
5D9
100
AcDbEntity
  8
0
100
AcDbEllipse
 62
7
  6
CONTINUOUS
 10
205.7386333031
 20
158.440193824
 30
0.0
 11
0.249929385
 21
0.0111824824
 31
0.0
 40
0.5313301283
 41
3.1178240551
 42
3.9032222197
  0
ELLIPSE
  5
5DA
100
AcDbEntity
  8
0
100
AcDbEllipse
 62
7
  6
CONTINUOUS
 10
207.4253990273
 20
157.5968109619
 30
0.0
 11
0.249929385
 21
0.0111824824
 31
0.0
 40
0.5313301283
 41
-2.3799630874
 42
-0.8149845248
  0
ELLIPSE
  5
5DB
100
AcDbEntity
  8
0
100
AcDbEllipse
 62
7
  6
CONTINUOUS
 10
189.7175194339
 20
173.4291554982
 30
0.0
 11
0.9999972457
 21
-0.0047278206
 31
0.0
 40
0.4964289597
 41
1.3113439682
 42
2.3585415194
  0
ELLIPSE
  5
5DC
100
AcDbEntity
  8
0
100
AcDbEllipse
 62
7
  6
CONTINUOUS
 10
187.9454494393
 20
173.5758824927
 30
0.0
 11
0.4530414621
 21
-0.0021419047
 31
0.0
 40
0.4964289597
 41
-0.7830511342
 42
0.0023470288
  0
ELLIPSE
  5
5DD
100
AcDbEntity
  8
0
100
AcDbEllipse
 62
7
  6
CONTINUOUS
 10
205.6274220106
 20
165.4742042099
 30
0.0
 11
0.9999972457
 21
-0.0047278206
 31
0.0
 40
0.4964289597
 41
1.3113439682
 42
2.3585415194
  0
ELLIPSE
  5
5DE
100
AcDbEntity
  8
0
100
AcDbEllipse
 62
7
  6
CONTINUOUS
 10
203.855352016
 20
165.6209312043
 30
0.0
 11
0.4530414621
 21
-0.0021419047
 31
0.0
 40
0.4964289597
 41
-0.7830511342
 42
0.0023470288
  0
ELLIPSE
  5
5DF
100
AcDbEntity
  8
0
100
AcDbEllipse
 62
7
  6
CONTINUOUS
 10
193.5358960523
 20
170.7806591861
 30
0.0
 11
0.4530414621
 21
-0.0021419047
 31
0.0
 40
0.4964289597
 41
-0.77723337
 42
0.0023470289
  0
ELLIPSE
  5
5E0
100
AcDbEntity
  8
0
100
AcDbEllipse
 62
7
  6
CONTINUOUS
 10
199.9284687849
 20
171.2267324142
 30
0.0
 11
-0.3708957
 21
0.6001218488
 31
0.0
 40
0.5587454355
 41
-2.6016258494
 42
-2.3107361547
  0
ELLIPSE
  5
5E1
100
AcDbEntity
  8
0
100
AcDbEllipse
 62
7
  6
CONTINUOUS
 10
216.037971158
 20
162.1409563081
 30
0.0
 11
-0.7417913999
 21
1.2002436976
 31
0.0
 40
0.5587454355
 41
5.144738112
 42
6.2270280628
  0
ELLIPSE
  5
5E2
100
AcDbEntity
  8
RACCORDO
100
AcDbEllipse
 62
7
  6
CONTINUOUS
 10
208.9154685431
 20
161.653768926
 30
0.0
 11
0.9999972457
 21
-0.0047278206
 31
0.0
 40
0.4964289597
 41
5.500134173
 42
7.0709304998
  0
ELLIPSE
  5
5E3
100
AcDbEntity
  8
RACCORDO
100
AcDbEllipse
 62
7
  6
CONTINUOUS
 10
193.0055659664
 20
169.6087202144
 30
0.0
 11
0.9999972457
 21
-0.0047278206
 31
0.0
 40
0.4964289597
 41
5.500134173
 42
7.0709304998
  0
ELLIPSE
  5
5E4
100
AcDbEntity
  8
0
100
AcDbEllipse
 62
7
  6
CONTINUOUS
 10
209.1629559165
 20
163.7064372569
 30
0.0
 11
0.9999972457
 21
-0.0047278206
 31
0.0
 40
0.4964289597
 41
5.5418283847
 42
6.5473317242
  0
ELLIPSE
  5
5E5
100
AcDbEntity
  8
0
100
AcDbEllipse
 62
7
  6
CONTINUOUS
 10
207.7649128152
 20
156.8053238105
 30
0.0
 11
-0.2230998035
 21
0.4477110033
 31
0.0
 40
0.6127700112
 41
-2.2535417632
 42
-0.6836588258
  0
ELLIPSE
  5
5E6
100
AcDbEntity
  8
0
100
AcDbEllipse
 62
7
  6
CONTINUOUS
 10
207.7649128152
 20
119.0107590158
 30
0.0
 11
-0.2234618187
 21
0.4480306886
 31
0.0
 40
0.6116748051
 41
2.4584403302
 42
4.0283232676
  0
ELLIPSE
  5
5E7
100
AcDbEntity
  8
0
100
AcDbEllipse
 62
7
  6
CONTINUOUS
 10
200.2534104736
 20
161.8976738257
 30
0.0
 11
0.199943508
 21
0.008945986
 31
0.0
 40
0.5313301283
 41
-2.3799630874
 42
-0.8091667606
  0
ELLIPSE
  5
5E8
100
AcDbEntity
  8
0
100
AcDbEllipse
 62
7
  6
CONTINUOUS
 10
201.9504667484
 20
161.0491456883
 30
0.0
 11
0.199943508
 21
0.008945986
 31
0.0
 40
0.5313301283
 41
3.117824056
 42
3.9032222197
  0
ELLIPSE
  5
5E9
100
AcDbEntity
  8
RACCORDO
100
AcDbEllipse
 62
7
  6
CONTINUOUS
 10
192.7687509706
 20
169.5021744565
 30
0.0
 11
0.221538876
 21
0.4482453432
 31
0.0
 40
0.6088015717
 41
-2.459687356
 42
-0.8888910292
  0
ELLIPSE
  5
5EA
100
AcDbEntity
  8
0
100
AcDbEllipse
 62
7
  6
CONTINUOUS
 10
193.823240402
 20
171.5566403982
 30
0.0
 11
0.221538876
 21
0.4482453432
 31
0.0
 40
0.6088015717
 41
0.5825560023
 42
0.6760875334
  0
ELLIPSE
  5
5EB
100
AcDbEntity
  8
0
100
AcDbEllipse
 62
7
  6
CONTINUOUS
 10
215.8383713616
 20
163.2717811259
 30
0.0
 11
-0.3708957
 21
0.6001218488
 31
0.0
 40
0.5587454355
 41
-3.1744788413
 42
-2.3107361547
  0
ENDSEC
  0
SECTION
  2
OBJECTS
  0
DICTIONARY
  5
C
100
AcDbDictionary
280
0
281
1
  3
ACAD_GROUP
350
D
  3
ACAD_MLINESTYLE
350
17
  3
ACAD_LAYOUT
350
1A
  3
ACAD_PLOTSETTINGS
350
19
  3
ACAD_PLOTSTYLENAME
350
E
  0
DICTIONARY
  5
D
102
{ACAD_REACTORS
330
C
102
}
100
AcDbDictionary
280
0
281
1
  0
ACDBDICTIONARYWDFLT
  5
E
102
{ACAD_REACTORS
330
C
102
}
100
AcDbDictionary
281
1
  3
Normal
350
F
100
AcDbDictionaryWithDefault
340
F
  0
DICTIONARY
  5
17
102
{ACAD_REACTORS
330
C
102
}
100
AcDbDictionary
280
0
281
1
  3
Standard
350
18
  0
DICTIONARY
  5
19
102
{ACAD_REACTORS
330
C
102
}
100
AcDbDictionary
281
1
  0
DICTIONARY
  5
1A
102
{ACAD_REACTORS
330
C
102
}
100
AcDbDictionary
281
1
  3
Model
350
5EC
  3
Layout1
350
5ED
  0
ACDBPLACEHOLDER
  5
F
102
{ACAD_REACTORS
330
E
102
}
  0
MLINESTYLE
  5
18
102
{ACAD_REACTORS
330
17
102
}
100
AcDbMlineStyle
  2
STANDARD
 70
0
  3

 62
256
 51
90.0
 52
90.0
 71
2
 49
0.5
 62
256
  6
BYLAYER
 49
-0.5
 62
256
  6
BYLAYER
  0
LAYOUT
  5
5EC
102
{ACAD_REACTORS
330
1A
102
}
100
AcDbPlotSettings
  1

  2
none_device
  4
ANSI_C_(22.00_x_17.00_Inches)
  6

 40
0.0
 41
0.0
 42
0.0
 43
0.0
 44
558.8
 45
431.8
 46
0.0
 47
0.0
 48
0.0
 49
0.0
140
0.0
141
0.0
142
1.0
143
1.0
 70
1024
 72
1
 73
0
 74
0
  7

 75
0
147
1.0
148
0.0
149
0.0
100
AcDbLayout
  1
Model
 70
0
 71
0
 10
0.0
 20
0.0
 11
558.8
 21
431.8
 12
0.0
 22
0.0
 32
0.0
 14
0.0
 24
0.0
 34
0.0
 15
0.0
 25
0.0
 35
0.0
146
0.0
 13
0.0
 23
0.0
 33
0.0
 16
1.0
 26
0.0
 36
0.0
 17
0.0
 27
1.0
 37
0.0
 76
0
330
21C
345
0
346
0
  0
LAYOUT
  5
5ED
102
{ACAD_REACTORS
330
1A
102
}
100
AcDbPlotSettings
  1

  2
none_device
  4
ANSI_C_(22.00_x_17.00_Inches)
  6

 40
0.0
 41
0.0
 42
0.0
 43
0.0
 44
558.8
 45
431.8
 46
0.0
 47
0.0
 48
0.0
 49
0.0
140
0.0
141
0.0
142
1.0
143
1.0
 70
0
 72
1
 73
0
 74
0
  7

 75
0
147
1.0
148
0.0
149
0.0
100
AcDbLayout
  1
Layout1
 70
0
 71
1
 10
0.0
 20
0.0
 11
558.8
 21
431.8
 12
0.0
 22
0.0
 32
0.0
 14
0.0
 24
0.0
 34
0.0
 15
0.0
 25
0.0
 35
0.0
146
0.0
 13
0.0
 23
0.0
 33
0.0
 16
1.0
 26
0.0
 36
0.0
 17
0.0
 27
1.0
 37
0.0
 76
0
330
21D
345
0
346
0
  0
ENDSEC
  0
EOF
