  0
SECTION
  2
HEADER
  9
$ACADVER
  1
AC1024
  9
$DWGCODEPAGE
  3
ANSI_1252
  9
$EXTMAX
 10
558.8
 20
431.8
 30
0.0
  9
$EXTMIN
 10
0.0
 20
0.0
 30
0.0
  9
$LIMMIN
 10
0.0
 20
0.0
  9
$LIMMAX
 10
558.8
 20
431.8
  9
$VIEWCTR
 10
279.4
 20
215.9
  9
$VIEWSIZE
 40
431.8
  9
$CLAYER
  8
0
  9
$LTSCALE
 40
30.734
  9
$CELTYPE
  6
BYLAYER
  9
$DIMSCALE
 40
1.0
  9
$DIMASZ
 40
3.0
  9
$DIMEXO
 40
0.5
  9
$DIMDLI
 40
21.2344
  9
$DIMEXE
 40
1.5
  9
$DIMCEN
 40
5.0292
  9
$DIMLFAC
 40
1.0
  9
$DIMBLK
  1
_FILLED
  9
$DIMALT
 70
0
  9
$DIMALTF
 40
0.0393700787
  9
$DIMTXT
 40
3.0
  9
$DIMTOL
 70
1
  9
$DIMLIM
 70
0
  9
$DIMTFAC
 40
1.0
  9
$DIMTP
 40
0.01
  9
$DIMTM
 40
0.01
  9
$DIMGAP
 40
0.625
  9
$DIMDSEP
 70
44
  9
$AUNITS
 70
0
  9
$PDMODE
 70
3
  9
$PDSIZE
 40
3.0
  9
$HANDSEED
  5
5C6
  9
$TILEMODE
 70
1
  9
$MEASUREMENT
 70
1
  9
$INSUNITS
 70
4
  0
ENDSEC
  0
SECTION
  2
CLASSES
  0
CLASS
  1
ACDBDICTIONARYWDFLT
  2
AcDbDictionaryWithDefault
  3
AutoCAD 2000
 90
0
 91
1
280
0
281
0
  0
CLASS
  1
ACDBPLACEHOLDER
  2
AcDbPlaceHolder
  3
AutoCAD 2000
 90
0
 91
1
280
0
281
0
  0
CLASS
  1
LAYOUT
  2
AcDbLayout
  3
AutoCAD 2000
 90
0
 91
0
280
0
281
0
  0
ENDSEC
  0
SECTION
  2
TABLES
  0
TABLE
  2
VPORT
  5
8
100
AcDbSymbolTable
 70
2
  0
VPORT
  5
1F4
100
AcDbSymbolTableRecord
100
AcDbViewportTableRecord
  2
*ACTIVE
 70
0
 10
0.0
 20
0.0
 11
1.0
 21
1.0
 12
279.4
 22
215.9
 13
0.0
 23
0.0
 14
1.0
 24
1.0
 15
0.0
 25
0.0
 16
0.0
 26
0.0
 36
1.0
 17
0.0
 27
0.0
 37
0.0
 40
431.8
 41
1.2941176471
 42
50.0
 43
0.0
 44
0.0
 50
0.0
 51
0.0
 71
0
 72
100
 73
1
 74
1
 75
0
 76
0
 77
0
 78
0
  0
ENDTAB
  0
TABLE
  2
LTYPE
  5
5
100
AcDbSymbolTable
 70
6
  0
LTYPE
  5
14
100
AcDbSymbolTableRecord
100
AcDbLinetypeTableRecord
  2
BYBLOCK
 70
0
  3

 72
65
 73
0
 40
0.0
  0
LTYPE
  5
15
100
AcDbSymbolTableRecord
100
AcDbLinetypeTableRecord
  2
BYLAYER
 70
0
  3

 72
65
 73
0
 40
0.0
  0
LTYPE
  5
16
100
AcDbSymbolTableRecord
100
AcDbLinetypeTableRecord
  2
CONTINUOUS
 70
64
  3
Solid line
 72
65
 73
0
 40
0.0
  0
LTYPE
  5
1F5
100
AcDbSymbolTableRecord
100
AcDbLinetypeTableRecord
  2
CENTER
 70
64
  3
____ _ ____ _ ____ _ ____ _ ____ _ ____ _ ____
 72
65
 73
4
 40
0.6
 49
0.375
 74
0
 49
-0.075
 74
0
 49
0.075
 74
0
 49
-0.075
 74
0
  0
LTYPE
  5
1F6
100
AcDbSymbolTableRecord
100
AcDbLinetypeTableRecord
  2
HIDDEN
 70
64
  3
- - - - - - - - - - - - - - - - - - - -
 72
65
 73
2
 40
0.2
 49
0.1
 74
0
 49
-0.1
 74
0
  0
LTYPE
  5
1F7
100
AcDbSymbolTableRecord
100
AcDbLinetypeTableRecord
  2
PHANTOM
 70
64
  3
_____ _ _ _____ _ _ _____ _ _ _____
 72
65
 73
6
 40
0.8
 49
0.45
 74
0
 49
-0.05
 74
0
 49
0.1
 74
0
 49
-0.05
 74
0
 49
0.1
 74
0
 49
-0.05
 74
0
  0
LTYPE
  5
1F8
100
AcDbSymbolTableRecord
100
AcDbLinetypeTableRecord
  2
DOT
 70
64
  3
. . . . . . . . . . . . . . . . . . . .
 72
65
 73
2
 40
0.2
 49
0.1
 74
0
 49
-0.1
 74
0
  0
LTYPE
  5
1F9
100
AcDbSymbolTableRecord
100
AcDbLinetypeTableRecord
  2
DASHED
 70
64
  3
- - - - - - - - - - - - - - - - - - - -
 72
65
 73
2
 40
0.2
 49
0.1
 74
0
 49
-0.1
 74
0
  0
ENDTAB
  0
TABLE
  2
LAYER
  5
2
100
AcDbSymbolTable
 70
36
  0
LAYER
  5
10
100
AcDbSymbolTableRecord
100
AcDbLayerTableRecord
  2
0
 70
0
 62
7
  6
CONTINUOUS
370
-3
390
F
  0
LAYER
  5
1FA
100
AcDbSymbolTableRecord
100
AcDbLayerTableRecord
  2
DEFAULT_1
 70
0
 62
7
  6
CENTER
370
-3
390
F
  0
LAYER
  5
1FB
100
AcDbSymbolTableRecord
100
AcDbLayerTableRecord
  2
DEFAULT_2
 70
0
 62
7
  6
HIDDEN
370
-3
390
F
  0
LAYER
  5
1FC
100
AcDbSymbolTableRecord
100
AcDbLayerTableRecord
  2
DEFAULT_3
 70
0
 62
7
  6
PHANTOM
370
-3
390
F
  0
LAYER
  5
1FD
100
AcDbSymbolTableRecord
100
AcDbLayerTableRecord
  2
ASSI
 70
0
 62
7
  6
CONTINUOUS
370
-3
390
F
  0
LAYER
  5
1FE
100
AcDbSymbolTableRecord
100
AcDbLayerTableRecord
  2
COLOR5
 70
0
 62
7
  6
CONTINUOUS
370
-3
390
F
  0
LAYER
  5
1FF
100
AcDbSymbolTableRecord
100
AcDbLayerTableRecord
  2
COORDINATE
 70
0
 62
7
  6
CONTINUOUS
370
-3
390
F
  0
LAYER
  5
200
100
AcDbSymbolTableRecord
100
AcDbLayerTableRecord
  2
COORD_ORIGINE
 70
0
 62
7
  6
CONTINUOUS
370
-3
390
F
  0
LAYER
  5
201
100
AcDbSymbolTableRecord
100
AcDbLayerTableRecord
  2
COPY-PUBBLISH
 70
0
 62
7
  6
CONTINUOUS
370
-3
390
F
  0
LAYER
  5
202
100
AcDbSymbolTableRecord
100
AcDbLayerTableRecord
  2
COSMETICHE
 70
0
 62
7
  6
CONTINUOUS
370
-3
390
F
  0
LAYER
  5
203
100
AcDbSymbolTableRecord
100
AcDbLayerTableRecord
  2
CURVA_CENTRALE
 70
0
 62
7
  6
CONTINUOUS
370
-3
390
F
  0
LAYER
  5
204
100
AcDbSymbolTableRecord
100
AcDbLayerTableRecord
  2
CURVE
 70
0
 62
7
  6
CONTINUOUS
370
-3
390
F
  0
LAYER
  5
205
100
AcDbSymbolTableRecord
100
AcDbLayerTableRecord
  2
DRAFT
 70
0
 62
7
  6
CONTINUOUS
370
-3
390
F
  0
LAYER
  5
206
100
AcDbSymbolTableRecord
100
AcDbLayerTableRecord
  2
IGES_INCISIONI
 70
0
 62
7
  6
CONTINUOUS
370
-3
390
F
  0
LAYER
  5
207
100
AcDbSymbolTableRecord
100
AcDbLayerTableRecord
  2
IGS_SIMBOLO
 70
0
 62
7
  6
CONTINUOUS
370
-3
390
F
  0
LAYER
  5
208
100
AcDbSymbolTableRecord
100
AcDbLayerTableRecord
  2
IMPIANTO
 70
0
 62
7
  6
CONTINUOUS
370
-3
390
F
  0
LAYER
  5
209
100
AcDbSymbolTableRecord
100
AcDbLayerTableRecord
  2
IMPORT
 70
0
 62
7
  6
CONTINUOUS
370
-3
390
F
  0
LAYER
  5
20A
100
AcDbSymbolTableRecord
100
AcDbLayerTableRecord
  2
INCISIONI_LASER
 70
0
 62
7
  6
CONTINUOUS
370
-3
390
F
  0
LAYER
  5
20B
100
AcDbSymbolTableRecord
100
AcDbLayerTableRecord
  2
INTFCLR_3
 70
0
 62
7
  6
CONTINUOUS
370
-3
390
F
  0
LAYER
  5
20C
100
AcDbSymbolTableRecord
100
AcDbLayerTableRecord
  2
INTF_1
 70
0
 62
7
  6
CONTINUOUS
370
-3
390
F
  0
LAYER
  5
20D
100
AcDbSymbolTableRecord
100
AcDbLayerTableRecord
  2
INTF_12
 70
0
 62
7
  6
CONTINUOUS
370
-3
390
F
  0
LAYER
  5
20E
100
AcDbSymbolTableRecord
100
AcDbLayerTableRecord
  2
INTF_2
 70
0
 62
7
  6
CONTINUOUS
370
-3
390
F
  0
LAYER
  5
20F
100
AcDbSymbolTableRecord
100
AcDbLayerTableRecord
  2
INTF_RED
 70
0
 62
7
  6
CONTINUOUS
370
-3
390
F
  0
LAYER
  5
210
100
AcDbSymbolTableRecord
100
AcDbLayerTableRecord
  2
INTF_YELLOW
 70
0
 62
7
  6
CONTINUOUS
370
-3
390
F
  0
LAYER
  5
211
100
AcDbSymbolTableRecord
100
AcDbLayerTableRecord
  2
NOTE
 70
0
 62
7
  6
CONTINUOUS
370
-3
390
F
  0
LAYER
  5
212
100
AcDbSymbolTableRecord
100
AcDbLayerTableRecord
  2
PIANI
 70
0
 62
7
  6
CONTINUOUS
370
-3
390
F
  0
LAYER
  5
213
100
AcDbSymbolTableRecord
100
AcDbLayerTableRecord
  2
PIANI_CONTATTI
 70
0
 62
7
  6
CONTINUOUS
370
-3
390
F
  0
LAYER
  5
214
100
AcDbSymbolTableRecord
100
AcDbLayerTableRecord
  2
PIANI_ORIGINE
 70
0
 62
7
  6
CONTINUOUS
370
-3
390
F
  0
LAYER
  5
215
100
AcDbSymbolTableRecord
100
AcDbLayerTableRecord
  2
PIANI_RIFERIMENTO
 70
0
 62
7
  6
CONTINUOUS
370
-3
390
F
  0
LAYER
  5
216
100
AcDbSymbolTableRecord
100
AcDbLayerTableRecord
  2
PUNTI
 70
0
 62
7
  6
CONTINUOUS
370
-3
390
F
  0
LAYER
  5
217
100
AcDbSymbolTableRecord
100
AcDbLayerTableRecord
  2
RACCORDO
 70
0
 62
7
  6
CONTINUOUS
370
-3
390
F
  0
LAYER
  5
218
100
AcDbSymbolTableRecord
100
AcDbLayerTableRecord
  2
RGB__255__255__255__
 70
0
 62
7
  6
CONTINUOUS
370
-3
390
F
  0
LAYER
  5
219
100
AcDbSymbolTableRecord
100
AcDbLayerTableRecord
  2
SMUSSO
 70
0
 62
7
  6
CONTINUOUS
370
-3
390
F
  0
LAYER
  5
21A
100
AcDbSymbolTableRecord
100
AcDbLayerTableRecord
  2
SNAPLINE
 70
0
 62
7
  6
CONTINUOUS
370
-3
390
F
  0
LAYER
  5
21B
100
AcDbSymbolTableRecord
100
AcDbLayerTableRecord
  2
SUPERFICI
 70
0
 62
7
  6
CONTINUOUS
370
-3
390
F
  0
LAYER
  5
21C
100
AcDbSymbolTableRecord
100
AcDbLayerTableRecord
  2
TRACCIABILITA
 70
0
 62
7
  6
CONTINUOUS
370
-3
390
F
  0
LAYER
  5
21D
100
AcDbSymbolTableRecord
100
AcDbLayerTableRecord
  2
TRASH
 70
0
 62
7
  6
CONTINUOUS
370
-3
390
F
  0
LAYER
  5
21E
100
AcDbSymbolTableRecord
100
AcDbLayerTableRecord
  2
WHITE
 70
0
 62
7
  6
CONTINUOUS
370
-3
390
F
  0
LAYER
  5
21F
100
AcDbSymbolTableRecord
100
AcDbLayerTableRecord
  2
XSEC_DATUMS
 70
0
 62
7
  6
CONTINUOUS
370
-3
390
F
  0
ENDTAB
  0
TABLE
  2
STYLE
  5
3
100
AcDbSymbolTable
 70
1
  0
STYLE
  5
11
100
AcDbSymbolTableRecord
100
AcDbTextStyleTableRecord
  2
STANDARD
 70
0
 40
0.0
 41
0.8
 50
0.0
 71
0
 42
0.2
  3
txt
  4

  0
STYLE
  5
220
100
AcDbSymbolTableRecord
100
AcDbTextStyleTableRecord
  2
TEXTSTYLE_1
 70
0
 40
0.0
 41
0.8
 50
0.0
 71
0
 42
0.2
  3
gdt
  4

  0
ENDTAB
  0
TABLE
  2
VIEW
  5
6
100
AcDbSymbolTable
 70
0
  0
ENDTAB
  0
TABLE
  2
UCS
  5
7
100
AcDbSymbolTable
 70
0
  0
ENDTAB
  0
TABLE
  2
APPID
  5
9
100
AcDbSymbolTable
 70
1
  0
APPID
  5
221
100
AcDbSymbolTableRecord
100
AcDbRegAppTableRecord
  2
ACAD
 70
0
  0
ENDTAB
  0
TABLE
  2
BLOCK_RECORD
  5
1
100
AcDbSymbolTable
 70
0
  0
BLOCK_RECORD
  5
222
100
AcDbSymbolTableRecord
100
AcDbBlockTableRecord
  2
*Model_Space
  0
BLOCK_RECORD
  5
223
100
AcDbSymbolTableRecord
100
AcDbBlockTableRecord
  2
*Paper_Space
  0
BLOCK_RECORD
  5
224
100
AcDbSymbolTableRecord
100
AcDbBlockTableRecord
  2
_FILLED
  0
ENDTAB
  0
TABLE
  2
DIMSTYLE
  5
A
100
AcDbSymbolTable
 70
1
100
AcDbDimStyleTable
 71
0
  0
DIMSTYLE
105
225
100
AcDbSymbolTableRecord
100
AcDbDimStyleTableRecord
  2
STANDARD
 70
0
  3

  4

 40
1.0
 41
3.0
 42
0.5
 43
0.38
 44
1.5
 45
0.0
 46
0.0
 47
0.01
 48
0.01
140
3.0
141
0.09
142
0.0
143
25.4
144
1.0
145
0.0
146
1.0
147
0.625
 71
1
 72
0
 73
0
 74
0
 75
0
 76
0
 77
1
 78
8
 79
2
170
0
171
1
172
0
173
0
174
0
175
0
176
0
177
0
178
0
270
2
179
2
271
2
272
2
273
2
274
2
275
0
280
0
281
0
282
0
283
1
284
8
285
0
286
0
287
3
288
0
340
11
278
44
341
224
342
224
343
224
344
224
  0
ENDTAB
  0
ENDSEC
  0
SECTION
  2
BLOCKS
  0
BLOCK
  5
20
100
AcDbEntity
  8
0
100
AcDbBlockBegin
  2
*Model_Space
 70
0
 10
0.0
 20
0.0
 30
0.0
  3
*Model_Space
  1

  0
ENDBLK
  5
21
100
AcDbEntity
  8
0
100
AcDbBlockEnd
  0
BLOCK
  5
1C
100
AcDbEntity
  8
0
100
AcDbBlockBegin
  2
*Paper_Space
 70
0
 10
0.0
 20
0.0
 30
0.0
  3
*Paper_Space
  1

  0
ENDBLK
  5
1D
100
AcDbEntity
  8
0
100
AcDbBlockEnd
  0
BLOCK
  5
226
100
AcDbEntity
  8
0
100
AcDbBlockBegin
  2
_FILLED
 70
64
 10
0.0
 20
0.0
  3
_FILLED
  1

  0
SOLID
  5
227
100
AcDbEntity
  8
0
  6
BYBLOCK
 62
0
100
AcDbTrace
 10
0.0
 20
0.0
 11
-1.0
 21
0.3166666667
 12
-1.0
 22
-0.3166666667
 13
-1.0
 23
-0.3166666667
  0
ENDBLK
  5
228
100
AcDbEntity
  8
0
  6
BYBLOCK
 62
0
100
AcDbBlockEnd
  0
ENDSEC
  0
SECTION
  2
ENTITIES
  0
LWPOLYLINE
  5
229
100
AcDbEntity
  8
RACCORDO
100
AcDbPolyline
 62
7
  6
CONTINUOUS
 90
14
 70
0
 10
-19.979408964
 20
20.0300746401
 10
-20.0493026101
 20
19.9843867157
 10
-20.1133212442
 20
19.9345169638
 10
-20.1741749154
 20
19.8790404509
 10
-20.2316452546
 20
19.8183236992
 10
-20.2851458013
 20
19.7531466945
 10
-20.3346519417
 20
19.683710076
 10
-20.3799997409
 20
19.6102577535
 10
-20.4204938698
 20
19.5339194557
 10
-20.4560438633
 20
19.4549800429
 10
-20.48645513
 20
19.3736764293
 10
-20.511219758
 20
19.291220258
 10
-20.530151682
 20
19.2081236643
 10
-20.5438829179
 20
19.1179023613
  0
LINE
  5
22A
100
AcDbEntity
  8
RACCORDO
100
AcDbLine
 62
7
  6
CONTINUOUS
 10
-19.9795534663
 20
20.0300021918
 11
-18.8170913487
 21
20.7191122825
  0
LINE
  5
22B
100
AcDbEntity
  8
RACCORDO
100
AcDbLine
 62
250
  6
CONTINUOUS
 10
-19.7430891098
 20
20.0230634631
 11
-18.5820427664
 21
20.7113342797
  0
LINE
  5
22C
100
AcDbEntity
  8
0
100
AcDbLine
 62
7
  6
CONTINUOUS
 10
-16.5058552875
 20
22.0644019504
 11
-15.9356559608
 21
22.3968803841
  0
LINE
  5
22D
100
AcDbEntity
  8
0
100
AcDbLine
 62
250
  6
CONTINUOUS
 10
-16.2719525123
 20
22.0559545157
 11
-15.8285623531
 21
22.31449159
  0
LINE
  5
22E
100
AcDbEntity
  8
0
100
AcDbLine
 62
7
  6
CONTINUOUS
 10
-16.3956694128
 20
23.4117489312
 11
-14.8124957475
 21
24.2239469893
  0
LINE
  5
22F
100
AcDbEntity
  8
0
100
AcDbLine
 62
250
  6
CONTINUOUS
 10
-16.2825837467
 20
23.4053009561
 11
-14.6998271435
 21
24.2172850534
  0
LINE
  5
230
100
AcDbEntity
  8
0
100
AcDbLine
 62
250
  6
CONTINUOUS
 10
-14.6040456763
 20
22.5660319208
 11
-13.0027648854
 21
23.3687539243
  0
LINE
  5
231
100
AcDbEntity
  8
0
100
AcDbLine
 62
7
  6
CONTINUOUS
 10
-14.8124957495
 20
24.2239469884
 11
-14.8107593328
 21
24.224815211
  0
LINE
  5
232
100
AcDbEntity
  8
0
100
AcDbLine
 62
250
  6
CONTINUOUS
 10
-13.0027648854
 20
23.3687539243
 11
-12.4744977137
 21
23.6321927444
  0
LWPOLYLINE
  5
233
100
AcDbEntity
  8
0
100
AcDbPolyline
 62
250
  6
CONTINUOUS
 90
16
 70
0
 10
-16.3956694128
 20
23.4117489312
 10
-16.3922716886
 20
23.4134065556
 10
-16.3855264676
 20
23.4162191033
 10
-16.3785457287
 20
23.4185176568
 10
-16.3713452847
 20
23.4202970092
 10
-16.3639414463
 20
23.4215531299
 10
-16.3563509848
 20
23.4222831735
 10
-16.3485910944
 20
23.4224854863
 10
-16.3406793529
 20
23.4221596101
 10
-16.3326336822
 20
23.421306283
 10
-16.3244723075
 20
23.4199274379
 10
-16.3162137162
 20
23.4180261983
 10
-16.3078766159
 20
23.4156068709
 10
-16.2994798919
 20
23.4126749361
 10
-16.2910425647
 20
23.4092370353
 10
-16.2825837467
 20
23.4053009561
  0
LINE
  5
234
100
AcDbEntity
  8
0
100
AcDbLine
 62
7
  6
CONTINUOUS
 10
-14.8107593337
 20
24.2248152106
 11
-14.2758893759
 21
24.485367311
  0
LINE
  5
235
100
AcDbEntity
  8
0
100
AcDbLine
 62
250
  6
CONTINUOUS
 10
-14.6998271435
 20
24.2172850534
 11
-14.1653772648
 21
24.47763252
  0
LWPOLYLINE
  5
236
100
AcDbEntity
  8
RACCORDO
100
AcDbPolyline
 62
250
  6
CONTINUOUS
 90
8
 70
0
 10
-19.9794147132
 20
20.0300843613
 10
-19.9525678663
 20
20.0431163649
 10
-19.9218019679
 20
20.0521530498
 10
-19.8888790892
 20
20.0562433429
 10
-19.8541593119
 20
20.0553425083
 10
-19.8180223707
 20
20.0494603983
 10
-19.7808634996
 20
20.0386613464
 10
-19.7430891098
 20
20.0230634631
  0
LWPOLYLINE
  5
237
100
AcDbEntity
  8
0
100
AcDbPolyline
 62
7
  6
CONTINUOUS
 90
16
 70
0
 10
-14.8107593328
 20
24.224815211
 10
-14.8091017045
 20
24.2256027195
 10
-14.8023662156
 20
24.2284102575
 10
-14.7953984764
 20
24.230702119
 10
-14.7882142194
 20
24.2324731389
 10
-14.7808297037
 20
24.2337193139
 10
-14.7732617494
 20
24.2344377791
 10
-14.7655274278
 20
24.2346269442
 10
-14.7576442219
 20
24.2342864009
 10
-14.7496301224
 20
24.2334168593
 10
-14.7415031921
 20
24.2320203363
 10
-14.733281781
 20
24.2301000264
 10
-14.7249846843
 20
24.2276601997
 10
-14.7166306909
 20
24.2247063888
 10
-14.7082385418
 20
24.2212453758
 10
-14.6998271435
 20
24.2172850534
  0
LWPOLYLINE
  5
238
100
AcDbEntity
  8
0
100
AcDbPolyline
 62
250
  6
CONTINUOUS
 90
16
 70
0
 10
-14.2758893759
 20
24.485367311
 10
-14.2742166526
 20
24.4861617606
 10
-14.2674897223
 20
24.4889634151
 10
-14.2605337406
 20
24.4912476961
 10
-14.2533643988
 20
24.4930094376
 10
-14.245998003
 20
24.4942446196
 10
-14.238451406
 20
24.4949504295
 10
-14.23074182
 20
24.4951252987
 10
-14.2228866207
 20
24.4947688736
 10
-14.214903462
 20
24.4938819697
 10
-14.2068092145
 20
24.4924663456
 10
-14.1986234037
 20
24.4905253019
 10
-14.1903681375
 20
24.4880644049
 10
-14.1820633818
 20
24.4850903554
 10
-14.1737268003
 20
24.4816102229
 10
-14.1653772648
 20
24.47763252
  0
LINE
  5
239
100
AcDbEntity
  8
0
100
AcDbLine
 62
7
  6
CONTINUOUS
 10
-12.8259911818
 20
21.4617137246
 11
-13.7160513645
 21
20.9650328033
  0
LWPOLYLINE
  5
23A
100
AcDbEntity
  8
RACCORDO
100
AcDbPolyline
 62
7
  6
CONTINUOUS
 90
9
 70
0
 10
-15.3912692737
 20
19.4186865543
 10
-15.3960552892
 20
19.4161147482
 10
-15.4301239205
 20
19.3951801061
 10
-15.4621436037
 20
19.3706732802
 10
-15.4917492971
 20
19.3427882089
 10
-15.5185938503
 20
19.3118036321
 10
-15.5426265217
 20
19.2776502677
 10
-15.5635502725
 20
19.2404845466
 10
-15.5773683666
 20
19.2089970798
  0
LINE
  5
23B
100
AcDbEntity
  8
RACCORDO
100
AcDbLine
 62
7
  6
CONTINUOUS
 10
-15.3174940862
 20
19.4576448256
 11
-15.3912185662
 21
19.4187133331
  0
LINE
  5
23C
100
AcDbEntity
  8
0
100
AcDbLine
 62
7
  6
CONTINUOUS
 10
-10.8460921944
 20
21.857404877
 11
-11.9005816259
 21
21.3164318383
  0
LINE
  5
23D
100
AcDbEntity
  8
0
100
AcDbLine
 62
250
  6
CONTINUOUS
 10
-14.4272719726
 20
22.261142382
 11
-12.8259911818
 21
23.0638643855
  0
LINE
  5
23E
100
AcDbEntity
  8
0
100
AcDbLine
 62
250
  6
CONTINUOUS
 10
-12.8259911818
 20
23.0638643855
 11
-12.29772401
 21
23.3273032056
  0
LINE
  5
23F
100
AcDbEntity
  8
0
100
AcDbLine
 62
7
  6
CONTINUOUS
 10
-5.5098687885
 20
24.4568483424
 11
-10.8460921944
 21
21.857404877
  0
LINE
  5
240
100
AcDbEntity
  8
DRAFT
100
AcDbLine
 62
7
  6
CONTINUOUS
 10
-4.6588898028
 20
25.4560339973
 11
-12.1360885292
 21
21.818830791
  0
LINE
  5
241
100
AcDbEntity
  8
RACCORDO
100
AcDbLine
 62
7
  6
CONTINUOUS
 10
-2.3572512544
 20
25.9358043468
 11
-3.7803513806
 21
25.2646742697
  0
LWPOLYLINE
  5
242
100
AcDbEntity
  8
0
100
AcDbPolyline
 62
7
  6
CONTINUOUS
 90
3
 70
0
 10
-5.4766660908
 20
24.4711297472
 10
-5.4657534776
 20
24.474848818
 10
-5.4544666212
 20
24.4779812085
  0
LWPOLYLINE
  5
243
100
AcDbEntity
  8
0
100
AcDbPolyline
 62
7
  6
CONTINUOUS
 90
16
 70
0
 10
-1.4123933718
 20
-24.6787682107
 10
-1.4181320551
 20
-24.6775505213
 10
-1.4240577748
 20
-24.676232447
 10
-1.4301692564
 20
-24.6748178709
 10
-1.4364678327
 20
-24.6733146062
 10
-1.442948888
 20
-24.671723161
 10
-1.4496019156
 20
-24.6700367116
 10
-1.4564248002
 20
-24.6682600417
 10
-1.4634150025
 20
-24.6663977267
 10
-1.4705611192
 20
-24.6644428539
 10
-1.4778603035
 20
-24.6624007071
 10
-1.4853093213
 20
-24.6602763886
 10
-1.4928959298
 20
-24.6580629367
 10
-1.5006165252
 20
-24.6557661276
 10
-1.5084671607
 20
-24.6533915801
 10
-1.5164348205
 20
-24.6509323221
  0
LWPOLYLINE
  5
244
100
AcDbEntity
  8
0
100
AcDbPolyline
 62
250
  6
CONTINUOUS
 90
34
 70
0
 10
-2.4761359396
 20
-25.8697258981
 10
-2.4675710079
 20
-25.8738102526
 10
-2.4586252246
 20
-25.8776889224
 10
-2.4493181956
 20
-25.8813529404
 10
-2.4396690106
 20
-25.8847942678
 10
-2.4297002234
 20
-25.8880043554
 10
-2.419438232
 20
-25.890974493
 10
-2.4089076705
 20
-25.8936976215
 10
-2.3981307498
 20
-25.8961680665
 10
-2.3871315123
 20
-25.8983803086
 10
-2.3759345422
 20
-25.9003293818
 10
-2.3645651494
 20
-25.9020108593
 10
-2.3530491317
 20
-25.9034209195
 10
-2.3414124954
 20
-25.9045563843
 10
-2.3296813115
 20
-25.9054147162
 10
-2.317881889
 20
-25.9059939899
 10
-2.3060407332
 20
-25.9062929002
 10
-2.294184508
 20
-25.9063107697
 10
-2.2823398998
 20
-25.906047556
 10
-2.2705335543
 20
-25.9055038498
 10
-2.2587920207
 20
-25.9046808725
 10
-2.2471417118
 20
-25.9035804738
 10
-2.23560883
 20
-25.9022051274
 10
-2.224219317
 20
-25.9005579255
 10
-2.2129987993
 20
-25.8986425733
 10
-2.2019725158
 20
-25.8964633785
 10
-2.1911652657
 20
-25.8940252416
 10
-2.1806013602
 20
-25.8913336469
 10
-2.1703045549
 20
-25.8883946463
 10
-2.160298015
 20
-25.8852148513
 10
-2.1506042653
 20
-25.8818014198
 10
-2.1412451132
 20
-25.8781620328
 10
-2.1322416018
 20
-25.8743048747
 10
-2.1236139799
 20
-25.8702386219
  0
LWPOLYLINE
  5
245
100
AcDbEntity
  8
RACCORDO
100
AcDbPolyline
 62
7
  6
CONTINUOUS
 90
12
 70
0
 10
-5.2448829822
 20
-25.6185226418
 10
-5.2330288989
 20
-25.6243246517
 10
-5.1777104016
 20
-25.6478863154
 10
-5.1200322495
 20
-25.6667764806
 10
-5.0604888107
 20
-25.6807361229
 10
-4.9993929879
 20
-25.6896079372
 10
-4.9368192935
 20
-25.6932616789
 10
-4.873131922
 20
-25.691544093
 10
-4.8087733418
 20
-25.6843448069
 10
-4.7438334179
 20
-25.6715187015
 10
-4.6785455558
 20
-25.652910411
 10
-4.6199785745
 20
-25.6312314735
  0
LINE
  5
246
100
AcDbEntity
  8
RACCORDO
100
AcDbLine
 62
7
  6
CONTINUOUS
 10
-20.147924042
 20
-18.1670060464
 11
-5.2441822159
 21
-25.6188769594
  0
LINE
  5
247
100
AcDbEntity
  8
RACCORDO
100
AcDbLine
 62
250
  6
CONTINUOUS
 10
-20.3966353235
 20
-17.7527948675
 11
-5.4994908958
 21
-25.2013670813
  0
LINE
  5
248
100
AcDbEntity
  8
RACCORDO
100
AcDbLine
 62
7
  6
CONTINUOUS
 10
-5.2448067919
 20
-25.6185639621
 11
-5.2441819739
 21
-25.6188770804
  0
LINE
  5
249
100
AcDbEntity
  8
RACCORDO
100
AcDbLine
 62
250
  6
CONTINUOUS
 10
-20.147924042
 20
-18.1670060464
 11
-20.1754991364
 21
-18.1516988549
  0
LWPOLYLINE
  5
24A
100
AcDbEntity
  8
RACCORDO
100
AcDbPolyline
 62
250
  6
CONTINUOUS
 90
10
 70
0
 10
-20.1754991364
 20
-18.1516988549
 10
-20.2134082483
 20
-18.1250904137
 10
-20.2483845921
 20
-18.0935390924
 10
-20.2802327533
 20
-18.057222938
 10
-20.3087673188
 20
-18.0163510244
 10
-20.3338190452
 20
-17.9711615001
 10
-20.3552457106
 20
-17.9219150442
 10
-20.3729234333
 20
-17.8688968361
 10
-20.3867469856
 20
-17.8124144283
 10
-20.3966353235
 20
-17.7527948675
  0
LWPOLYLINE
  5
24B
100
AcDbEntity
  8
RACCORDO
100
AcDbPolyline
 62
250
  6
CONTINUOUS
 90
10
 70
0
 10
-20.5438829179
 20
19.1179023613
 10
-20.5441098317
 20
19.1155406952
 10
-20.5431442567
 20
19.0947110801
 10
-20.5369206874
 20
19.0735355109
 10
-20.5255050814
 20
19.0522384069
 10
-20.5090184215
 20
19.0310454753
 10
-20.4876354337
 20
19.0101813192
 10
-20.4615827354
 20
18.9898670576
 10
-20.4311364335
 20
18.9703179813
 10
-20.3966191989
 20
18.9517412719
  0
LWPOLYLINE
  5
24C
100
AcDbEntity
  8
RACCORDO
100
AcDbPolyline
 62
7
  6
CONTINUOUS
 90
10
 70
0
 10
-20.5438821507
 20
19.1180239235
 10
-20.6657017635
 20
17.9862047035
 10
-20.7820075269
 20
16.7907259624
 10
-20.8850627963
 20
15.6001221388
 10
-20.9748389234
 20
14.4146822692
 10
-21.0513173074
 20
13.2346451503
 10
-21.1144817161
 20
12.0602312588
 10
-21.1643160776
 20
10.891679009
 10
-21.2008082079
 20
9.7292714197
 10
-21.2229030186
 20
8.6446411872
  0
LWPOLYLINE
  5
24D
100
AcDbEntity
  8
RACCORDO
100
AcDbPolyline
 62
250
  6
CONTINUOUS
 90
19
 70
0
 10
-20.3966353235
 20
18.9517361858
 10
-20.3867469277
 20
19.0215113545
 10
-20.3729233651
 20
19.0921832748
 10
-20.355245751
 20
19.1633438444
 10
-20.3338194766
 20
19.2345838368
 10
-20.3087684136
 20
19.3054906624
 10
-20.2802344811
 20
19.3756507916
 10
-20.2483866947
 20
19.4446586354
 10
-20.2134105818
 20
19.5121179052
 10
-20.175501661
 20
19.5776390693
 10
-20.1348826056
 20
19.6408451327
 10
-20.0917905264
 20
19.7013719305
 10
-20.0464656088
 20
19.7588686876
 10
-19.9991720029
 20
19.8130058576
 10
-19.9501873646
 20
19.8634698815
 10
-19.8997893215
 20
19.9099630301
 10
-19.8482700667
 20
19.9522158445
 10
-19.7959344556
 20
19.9899882023
 10
-19.7430891098
 20
20.0230634631
  0
LINE
  5
24E
100
AcDbEntity
  8
0
100
AcDbLine
 62
250
  6
CONTINUOUS
 10
-12.8259911818
 20
22.3368195331
 11
-12.29772401
 21
22.9797716888
  0
LINE
  5
24F
100
AcDbEntity
  8
0
100
AcDbLine
 62
7
  6
CONTINUOUS
 10
-12.8259911818
 20
22.2472890667
 11
-12.2823634376
 21
22.9089365222
  0
LINE
  5
250
100
AcDbEntity
  8
0
100
AcDbLine
 62
7
  6
CONTINUOUS
 10
-11.2350009241
 20
19.5374787216
 11
-10.5278941429
 21
19.9364185804
  0
LINE
  5
251
100
AcDbEntity
  8
0
100
AcDbLine
 62
7
  6
CONTINUOUS
 10
-11.2350009241
 20
20.9836414874
 11
-10.3872955381
 21
21.4135343841
  0
LINE
  5
252
100
AcDbEntity
  8
0
100
AcDbLine
 62
250
  6
CONTINUOUS
 10
-8.7609499414
 20
20.6003615857
 11
-8.5479951556
 21
20.7083563575
  0
LINE
  5
253
100
AcDbEntity
  8
0
100
AcDbLine
 62
7
  6
CONTINUOUS
 10
-4.8689830148
 20
24.1364054556
 11
-9.4672339711
 21
21.8700441581
  0
LINE
  5
254
100
AcDbEntity
  8
0
100
AcDbLine
 62
7
  6
CONTINUOUS
 10
-4.8378360752
 20
22.7661163463
 11
-4.8003292153
 21
22.7846025264
  0
LINE
  5
255
100
AcDbEntity
  8
0
100
AcDbLine
 62
250
  6
CONTINUOUS
 10
-8.5479951556
 20
20.7083563575
 11
-7.8408883744
 21
21.0568713597
  0
LINE
  5
256
100
AcDbEntity
  8
0
100
AcDbLine
 62
7
  6
CONTINUOUS
 10
-1.6849456208
 20
23.9690619063
 11
-3.834403389
 21
22.9096486766
  0
LWPOLYLINE
  5
257
100
AcDbEntity
  8
0
100
AcDbPolyline
 62
7
  6
CONTINUOUS
 90
7
 70
0
 10
-4.8689830148
 20
24.1364054556
 10
-4.8637693153
 20
24.1389275453
 10
-4.858564633
 20
24.1413519321
 10
-4.8533689678
 20
24.1436786158
 10
-4.8481823198
 20
24.1459075966
 10
-4.8430046889
 20
24.1480388744
 10
-4.8378360752
 20
24.1500724492
  0
LINE
  5
258
100
AcDbEntity
  8
RACCORDO
100
AcDbLine
 62
250
  6
CONTINUOUS
 10
-14.682982705
 20
18.7780660121
 11
-14.6995283182
 21
18.7700770556
  0
LWPOLYLINE
  5
259
100
AcDbEntity
  8
0
100
AcDbPolyline
 62
7
  6
CONTINUOUS
 90
31
 70
0
 10
-4.8045424619
 20
22.7827715071
 10
-4.7775070598
 20
22.7955554013
 10
-4.7501736861
 20
22.8076634504
 10
-4.7225423405
 20
22.8190956547
 10
-4.6947347055
 20
22.8297964699
 10
-4.6666290987
 20
22.8398214402
 10
-4.6378604735
 20
22.8493371974
 10
-4.6082703604
 20
22.8584096976
 10
-4.5780172288
 20
22.8669729848
 10
-4.5472114407
 20
22.8749958226
 10
-4.51585098
 20
22.8824762366
 10
-4.4839378627
 20
22.8894162013
 10
-4.451588499
 20
22.8957904043
 10
-4.4188012933
 20
22.9015967798
 10
-4.3855778412
 20
22.9068373936
 10
-4.3520393391
 20
22.9114931318
 10
-4.3181846399
 20
22.9155618577
 10
-4.2840148908
 20
22.919045708
 10
-4.2496547293
 20
22.9219319786
 10
-4.2151034582
 20
22.9242184871
 10
-4.1803617748
 20
22.9259074159
 10
-4.1455564086
 20
22.9269926078
 10
-4.1106871302
 20
22.9274718579
 10
-4.0757541691
 20
22.9273473712
 10
-4.040884943
 20
22.9266196055
 10
-4.0060796828
 20
22.9252863576
 10
-3.9713381576
 20
22.9233498306
 10
-3.9367870931
 20
22.9208170923
 10
-3.9024687311
 20
22.9176904984
 10
-3.8683408297
 20
22.9139676932
 10
-3.834403389
 20
22.9096486766
  0
LINE
  5
25A
100
AcDbEntity
  8
RACCORDO
100
AcDbLine
 62
250
  6
CONTINUOUS
 10
-1.9183665039
 20
25.9034014118
 11
-3.5339738075
 21
25.1414854832
  0
LWPOLYLINE
  5
25B
100
AcDbEntity
  8
RACCORDO
100
AcDbPolyline
 62
250
  6
CONTINUOUS
 90
26
 70
0
 10
-1.9183665039
 20
25.9034014118
 10
-1.8990938995
 20
25.9123036735
 10
-1.8798447873
 20
25.9205508681
 10
-1.8606334808
 20
25.9281368617
 10
-1.8414742731
 20
25.9350560092
 10
-1.8223814032
 20
25.9413031671
 10
-1.8033690456
 20
25.946873695
 10
-1.7844513184
 20
25.9517634514
 10
-1.7656423094
 20
25.95596879
 10
-1.7469560426
 20
25.9594865734
 10
-1.7284064261
 20
25.962314184
 10
-1.7100072401
 20
25.9644495218
 10
-1.6917721639
 20
25.9658909993
 10
-1.6737147557
 20
25.9666375443
 10
-1.6558484445
 20
25.9666886012
 10
-1.638186518
 20
25.966044132
 10
-1.6207421103
 20
25.9647046159
 10
-1.6035281924
 20
25.962671049
 10
-1.5865575645
 20
25.9599449434
 10
-1.569842846
 20
25.9565283263
 10
-1.5533964658
 20
25.9524237383
 10
-1.5372306535
 20
25.9476342316
 10
-1.52135743
 20
25.9421633675
 10
-1.5057885986
 20
25.9360152143
 10
-1.4905357363
 20
25.9291943437
 10
-1.4834936234
 20
25.9257647414
  0
LWPOLYLINE
  5
25C
100
AcDbEntity
  8
RACCORDO
100
AcDbPolyline
 62
7
  6
CONTINUOUS
 90
23
 70
0
 10
-15.3176411752
 20
19.4575670995
 10
-15.2963023458
 20
19.4673346654
 10
-15.262548941
 20
19.4772533118
 10
-15.2263429613
 20
19.4817754613
 10
-15.1887944549
 20
19.4807465515
 10
-15.1498259287
 20
19.4739867581
 10
-15.1095148758
 20
19.4616759055
 10
-15.0692038228
 20
19.4441989042
 10
-15.0288927699
 20
19.4213648525
 10
-14.9885817169
 20
19.3933646522
 10
-14.9496131908
 20
19.3611559195
 10
-14.9120646843
 20
19.3246363228
 10
-14.8758587047
 20
19.2839081937
 10
-14.8421052999
 20
19.2402361425
 10
-14.8108572189
 20
19.1934959991
 10
-14.7820617128
 20
19.1438119337
 10
-14.7566705826
 20
19.0928210668
 10
-14.7348061544
 20
19.0405002632
 10
-14.7163461021
 20
18.986872658
 10
-14.7018752487
 20
18.9336447777
 10
-14.6915885352
 20
18.8813854643
 10
-14.6852910207
 20
18.8295258758
 10
-14.682982705
 20
18.7780660121
  0
LWPOLYLINE
  5
25D
100
AcDbEntity
  8
RACCORDO
100
AcDbPolyline
 62
250
  6
CONTINUOUS
 90
25
 70
0
 10
-15.3910673665
 20
19.4187931794
 10
-15.3674493921
 20
19.4294051439
 10
-15.3357815259
 20
19.438532442
 10
-15.3013435427
 20
19.4428611454
 10
-15.2647198093
 20
19.4419965285
 10
-15.2261672116
 20
19.4357032785
 10
-15.1861085137
 20
19.4237614309
 10
-15.1455483673
 20
19.4063442528
 10
-15.1049432245
 20
19.3836708441
 10
-15.0647512965
 20
19.3559660929
 10
-15.0259867201
 20
19.3240186792
 10
-14.9890697699
 20
19.2884489662
 10
-14.9542786457
 20
19.2497572616
 10
-14.9222482402
 20
19.2089458109
 10
-14.8931997414
 20
19.1667783224
 10
-14.867130398
 20
19.1237212299
 10
-14.8441530821
 20
19.0804238685
 10
-14.824236118
 20
19.0374060852
 10
-14.8072760935
 20
18.9950576782
 10
-14.7931761271
 20
18.9537696101
 10
-14.7817828378
 20
18.9138548336
 10
-14.7729107009
 20
18.8755481621
 10
-14.7663730623
 20
18.8390416232
 10
-14.7619669569
 20
18.804475742
 10
-14.761713966
 20
18.8011698795
  0
LINE
  5
25E
100
AcDbEntity
  8
0
100
AcDbLine
 62
250
  6
CONTINUOUS
 10
0.0059339826
 20
-24.4716614469
 11
-0.5223331891
 21
-24.3631591698
  0
LINE
  5
25F
100
AcDbEntity
  8
0
100
AcDbLine
 62
250
  6
CONTINUOUS
 10
-0.0834798127
 20
-24.1520946409
 11
-0.5223331891
 21
-24.0619573142
  0
LWPOLYLINE
  5
260
100
AcDbEntity
  8
0
100
AcDbPolyline
 62
7
  6
CONTINUOUS
 90
3
 70
0
 10
-1.5164348205
 20
-24.6509323221
 10
-1.5327034318
 20
-24.6457845598
 10
-1.5409858859
 20
-24.6430952722
  0
LWPOLYLINE
  5
261
100
AcDbEntity
  8
0
100
AcDbPolyline
 62
7
  6
CONTINUOUS
 90
3
 70
0
 10
-1.5409858859
 20
-24.6430952722
 10
-1.557812387
 20
-24.637505741
 10
-1.5663363738
 20
-24.6346053558
  0
LWPOLYLINE
  5
262
100
AcDbEntity
  8
0
100
AcDbPolyline
 62
7
  6
CONTINUOUS
 90
3
 70
0
 10
-1.5663363738
 20
-24.6346053558
 10
-1.5835671033
 20
-24.6286151532
 10
-1.5922521715
 20
-24.6255259341
  0
LWPOLYLINE
  5
263
100
AcDbEntity
  8
0
100
AcDbPolyline
 62
7
  6
CONTINUOUS
 90
3
 70
0
 10
-1.5922521715
 20
-24.6255259341
 10
-1.6097188582
 20
-24.6191830164
 10
-1.61847714
 20
-24.6159307781
  0
LWPOLYLINE
  5
264
100
AcDbEntity
  8
0
100
AcDbPolyline
 62
7
  6
CONTINUOUS
 90
17
 70
0
 10
-1.61847714
 20
-24.6159307781
 10
-1.6359964583
 20
-24.6092904264
 10
-1.6447324809
 20
-24.6059047773
 10
-1.6534385196
 20
-24.6024818216
 10
-1.6621057846
 20
-24.599030084
 10
-1.6707164344
 20
-24.595544656
 10
-1.6792609884
 20
-24.5920339902
 10
-1.6877298833
 20
-24.5885069644
 10
-1.6961047287
 20
-24.5849595431
 10
-1.7043751321
 20
-24.5814003074
 10
-1.712530788
 20
-24.5778384079
 10
-1.7205530087
 20
-24.5742708563
 10
-1.7284202227
 20
-24.5707124122
 10
-1.7361319954
 20
-24.5671657011
 10
-1.7436998876
 20
-24.5636119822
 10
-1.7511184229
 20
-24.560053742
 10
-1.7583663029
 20
-24.5565119995
  0
LWPOLYLINE
  5
265
100
AcDbEntity
  8
0
100
AcDbPolyline
 62
250
  6
CONTINUOUS
 90
34
 70
0
 10
-2.4761359396
 20
-25.5297519639
 10
-2.4675563192
 20
-25.5338429978
 10
-2.4585984407
 20
-25.537726055
 10
-2.4492824495
 20
-25.5413924028
 10
-2.4396293078
 20
-25.5448337923
 10
-2.4296607138
 20
-25.5480424884
 10
-2.4193990494
 20
-25.5510112852
 10
-2.4088673641
 20
-25.5537335096
 10
-2.398089364
 20
-25.5562030297
 10
-2.3870893248
 20
-25.5584142816
 10
-2.3758919981
 20
-25.5603622902
 10
-2.3645225534
 20
-25.5620426774
 10
-2.3530065604
 20
-25.5634516639
 10
-2.3413699182
 20
-25.564586081
 10
-2.3296387968
 20
-25.5654433776
 10
-2.3178395784
 20
-25.5660216257
 10
-2.3059987899
 20
-25.566319525
 10
-2.2941430694
 20
-25.5663364049
 10
-2.2822991055
 20
-25.5660722283
 10
-2.2704935514
 20
-25.5655275923
 10
-2.2587529393
 20
-25.5647037233
 10
-2.2471036471
 20
-25.5636024732
 10
-2.2355717878
 20
-25.5622263074
 10
-2.224183383
 20
-25.5605783279
 10
-2.2129642681
 20
-25.5586622822
 10
-2.2019398092
 20
-25.5564825262
 10
-2.1911346326
 20
-25.5540439533
 10
-2.1805728108
 20
-25.5513520057
 10
-2.1702772699
 20
-25.5484124882
 10
-2.1602720312
 20
-25.5452322198
 10
-2.1505817222
 20
-25.5418191399
 10
-2.1412285929
 20
-25.5381813537
 10
-2.1322326932
 20
-25.5343269369
 10
-2.1236139799
 20
-25.5302646878
  0
LINE
  5
266
100
AcDbEntity
  8
0
100
AcDbLine
 62
7
  6
CONTINUOUS
 10
-3.818699485
 20
-25.3011759273
 11
-2.4111626432
 21
-26.0049443482
  0
LINE
  5
267
100
AcDbEntity
  8
0
100
AcDbLine
 62
250
  6
CONTINUOUS
 10
-3.706046814
 20
-25.2547704609
 11
-2.4761359396
 21
-25.8697258981
  0
LINE
  5
268
100
AcDbEntity
  8
0
100
AcDbLine
 62
250
  6
CONTINUOUS
 10
-2.4761359396
 20
-25.5297519639
 11
-3.3443309935
 21
-25.095654437
  0
LINE
  5
269
100
AcDbEntity
  8
0
100
AcDbLine
 62
250
  6
CONTINUOUS
 10
-2.387747592
 20
-25.2980577901
 11
-3.2523618315
 21
-24.8657506704
  0
LINE
  5
26A
100
AcDbEntity
  8
0
100
AcDbLine
 62
7
  6
CONTINUOUS
 10
-1.7583663029
 20
-24.5565119995
 11
-3.2519263159
 21
-23.8097499946
  0
LINE
  5
26B
100
AcDbEntity
  8
0
100
AcDbLine
 62
7
  6
CONTINUOUS
 10
-1.2483018676
 20
-24.1176494915
 11
-1.7649153315
 21
-23.8593427596
  0
LWPOLYLINE
  5
26C
100
AcDbEntity
  8
RACCORDO
100
AcDbPolyline
 62
250
  6
CONTINUOUS
 90
8
 70
0
 10
-20.5429392063
 20
-17.5772867238
 10
-20.5369359896
 20
-17.6052145434
 10
-20.5255211048
 20
-17.6339266318
 10
-20.5090349264
 20
-17.6613625171
 10
-20.4876521811
 20
-17.6872314239
 10
-20.461599491
 20
-17.7112591841
 10
-20.431152972
 20
-17.7331911427
 10
-20.3966353077
 20
-17.7527948567
  0
LWPOLYLINE
  5
26D
100
AcDbEntity
  8
RACCORDO
100
AcDbPolyline
 62
7
  6
CONTINUOUS
 90
11
 70
0
 10
-20.5429281402
 20
-17.5772852918
 10
-20.5352547693
 20
-17.6265734155
 10
-20.5160696232
 20
-17.7088827274
 10
-20.4899302525
 20
-17.7860401251
 10
-20.4575286564
 20
-17.8574110438
 10
-20.4193443719
 20
-17.923074956
 10
-20.3754538093
 20
-17.9834206045
 10
-20.3264734954
 20
-18.0379057754
 10
-20.2729818427
 20
-18.0862365177
 10
-20.2147726906
 20
-18.1286870211
 10
-20.1470995939
 20
-18.1674130291
  0
LINE
  5
26E
100
AcDbEntity
  8
RACCORDO
100
AcDbLine
 62
7
  6
CONTINUOUS
 10
-20.5429900292
 20
-17.5768926321
 11
-20.5429392063
 21
-17.5772867238
  0
LWPOLYLINE
  5
26F
100
AcDbEntity
  8
RACCORDO
100
AcDbPolyline
 62
250
  6
CONTINUOUS
 90
10
 70
0
 10
-20.3966353235
 20
-17.7527948675
 10
-20.5239754003
 20
-16.7014774633
 10
-20.638411627
 20
-15.641158907
 10
-20.739919336
 20
-14.5720623209
 10
-20.8284762198
 20
-13.4944129076
 10
-20.9040636239
 20
-12.4084370852
 10
-20.9666665437
 20
-11.3143624346
 10
-21.0162719132
 20
-10.2124187448
 10
-21.0528686161
 20
-9.1028379689
 10
-21.0764487706
 20
-7.9858533544
  0
LWPOLYLINE
  5
270
100
AcDbEntity
  8
RACCORDO
100
AcDbPolyline
 62
250
  6
CONTINUOUS
 90
9
 70
0
 10
-21.2229012146
 20
-7.808496042
 10
-21.2218713119
 20
-7.8230296546
 10
-21.2159072655
 20
-7.8491294857
 10
-21.2047207152
 20
-7.874718155
 10
-21.188430176
 20
-7.8995245652
 10
-21.1672082368
 20
-7.9232859065
 10
-21.1412797321
 20
-7.945750441
 10
-21.1109193597
 20
-7.9666801698
 10
-21.0764487702
 20
-7.9858533542
  0
LWPOLYLINE
  5
271
100
AcDbEntity
  8
RACCORDO
100
AcDbPolyline
 62
250
  6
CONTINUOUS
 90
9
 70
0
 10
-21.2229030186
 20
8.6446411872
 10
-21.2218712959
 20
8.6270758477
 10
-21.2159072488
 20
8.6020616411
 10
-21.2047206979
 20
8.5774191425
 10
-21.1884301584
 20
8.5534094251
 10
-21.1672082193
 20
8.5302868581
 10
-21.141279715
 20
8.508296412
 10
-21.1109193431
 20
8.4876710631
 10
-21.0764487546
 20
8.4686293251
  0
LWPOLYLINE
  5
272
100
AcDbEntity
  8
RACCORDO
100
AcDbPolyline
 62
7
  6
CONTINUOUS
 90
10
 70
0
 10
-21.2229011911
 20
-7.8084958863
 10
-21.2006437772
 20
-8.8760541467
 10
-21.1640609055
 20
-10.0006089729
 10
-21.1141190398
 20
-11.1174331367
 10
-21.0508260439
 20
-12.2262546757
 10
-20.9741936315
 20
-13.3268510203
 10
-20.8842334515
 20
-14.4190178797
 10
-20.7809597172
 20
-15.5025336435
 10
-20.6643967609
 20
-16.5771358529
 10
-20.5429900292
 20
-17.5768926321
  0
LWPOLYLINE
  5
273
100
AcDbEntity
  8
RACCORDO
100
AcDbPolyline
 62
250
  6
CONTINUOUS
 90
10
 70
0
 10
-21.0764487706
 20
-7.9858533544
 10
-21.1010033142
 20
-6.1705916878
 10
-21.1194190036
 20
-4.3520189009
 10
-21.1316958875
 20
-2.5301676223
 10
-21.1378340842
 20
-0.7050953182
 10
-21.1378340809
 20
1.1231899749
 10
-21.1316958787
 20
2.9547300779
 10
-21.1194189921
 20
4.7895174406
 10
-21.1010033049
 20
6.6274947141
 10
-21.0764487706
 20
8.4686293175
  0
LWPOLYLINE
  5
274
100
AcDbEntity
  8
RACCORDO
100
AcDbPolyline
 62
7
  6
CONTINUOUS
 90
10
 70
0
 10
-21.2229030316
 20
8.6446413128
 10
-21.2468657713
 20
6.8538954815
 10
-21.2655740889
 20
5.0009044289
 10
-21.2780432843
 20
3.1511085508
 10
-21.2842729722
 20
1.3045457848
 10
-21.284263045
 20
-0.5387523577
 10
-21.2780134465
 20
-2.3787567748
 10
-21.2655241761
 20
-4.2154359416
 10
-21.2467955103
 20
-6.0487521968
 10
-21.2229012146
 20
-7.808496042
  0
LWPOLYLINE
  5
275
100
AcDbEntity
  8
RACCORDO
100
AcDbPolyline
 62
250
  6
CONTINUOUS
 90
10
 70
0
 10
-21.0764487706
 20
8.4686293175
 10
-21.0528686167
 20
9.6104559434
 10
-21.0162719141
 20
10.7585902262
 10
-20.9666665449
 20
11.9127910364
 10
-20.904063625
 20
13.0728161529
 10
-20.8284762203
 20
14.2384218728
 10
-20.7399193362
 20
15.4093630658
 10
-20.6384116272
 20
16.5853938117
 10
-20.5239754003
 20
17.7662674484
 10
-20.3966353235
 20
18.9517361858
  0
LWPOLYLINE
  5
276
100
AcDbEntity
  8
0
100
AcDbPolyline
 62
250
  6
CONTINUOUS
 90
30
 70
0
 10
-14.4272719726
 20
21.9211684479
 10
-14.4316924981
 20
21.9102769531
 10
-14.4364996934
 20
21.8996106843
 10
-14.441682709
 20
21.8891937145
 10
-14.4472298471
 20
21.8790495542
 10
-14.4531285881
 20
21.8692010983
 10
-14.4593656189
 20
21.8596705741
 10
-14.465926863
 20
21.8504794915
 10
-14.4727975119
 20
21.841648594
 10
-14.479962059
 20
21.8331978127
 10
-14.4874043345
 20
21.8251462204
 10
-14.4951075414
 20
21.817511989
 10
-14.5030542941
 20
21.8103123486
 10
-14.5112266573
 20
21.8035635484
 10
-14.5196061864
 20
21.7972808199
 10
-14.5281739693
 20
21.7914783429
 10
-14.5369106691
 20
21.7861692134
 10
-14.5457965675
 20
21.7813654136
 10
-14.5548116095
 20
21.7770777854
 10
-14.5639354488
 20
21.7733160058
 10
-14.5731474934
 20
21.770088565
 10
-14.5824269522
 20
21.7674027469
 10
-14.5917528821
 20
21.7652646135
 10
-14.601104235
 20
21.7636789902
 10
-14.6104599054
 20
21.7626494558
 10
-14.6197987781
 20
21.7621783339
 10
-14.6290997759
 20
21.7622666878
 10
-14.638341907
 20
21.762914318
 10
-14.6475043123
 20
21.7641197629
 10
-14.6541154661
 20
21.7653472871
  0
LWPOLYLINE
  5
277
100
AcDbEntity
  8
0
100
AcDbPolyline
 62
7
  6
CONTINUOUS
 90
18
 70
0
 10
-4.8045424619
 20
22.7827715071
 10
-4.7927043352
 20
22.791208079
 10
-4.7816904538
 20
22.7995263702
 10
-4.7715008175
 20
22.8077263808
 10
-4.7621876946
 20
22.8157176119
 10
-4.7536988169
 20
22.8235905622
 10
-4.7458773799
 20
22.8316167289
 10
-4.7386605393
 20
22.8399002484
 10
-4.7321111395
 20
22.8483369841
 10
-4.7262609091
 20
22.8568860235
 10
-4.7211132461
 20
22.8655479065
 10
-4.7166647525
 20
22.8743220932
 10
-4.7129369639
 20
22.8831660515
 10
-4.7099333776
 20
22.8920801232
 10
-4.7076504962
 20
22.9010639664
 10
-4.7060993633
 20
22.910074024
 10
-4.7052835318
 20
22.9191104188
 10
-4.7051451664
 20
22.9246770948
  0
LINE
  5
278
100
AcDbEntity
  8
0
100
AcDbLine
 62
7
  6
CONTINUOUS
 10
-8.4065737993
 20
19.2520050334
 11
-8.6187058337
 21
19.1323230757
  0
LINE
  5
279
100
AcDbEntity
  8
0
100
AcDbLine
 62
250
  6
CONTINUOUS
 10
-7.0712679855
 20
19.7478580255
 11
-7.0638936666
 21
19.7518334483
  0
LINE
  5
27A
100
AcDbEntity
  8
0
100
AcDbLine
 62
250
  6
CONTINUOUS
 10
-8.6187058337
 20
20.3568601337
 11
-8.4065737993
 21
20.4644376674
  0
LINE
  5
27B
100
AcDbEntity
  8
0
100
AcDbLine
 62
7
  6
CONTINUOUS
 10
-6.9407614489
 20
19.8653166378
 11
-7.153528973
 21
19.7574168311
  0
LINE
  5
27C
100
AcDbEntity
  8
0
100
AcDbLine
 62
250
  6
CONTINUOUS
 10
-6.8509388807
 20
19.8598282201
 11
-7.0638936666
 21
19.7518334483
  0
LINE
  5
27D
100
AcDbEntity
  8
0
100
AcDbLine
 62
7
  6
CONTINUOUS
 10
-3.834403389
 20
22.3460860182
 11
-2.7304365199
 21
22.8980694528
  0
LINE
  5
27E
100
AcDbEntity
  8
0
100
AcDbLine
 62
7
  6
CONTINUOUS
 10
-6.9399966482
 20
19.8656990227
 11
-6.9407614333
 21
19.8653166456
  0
LINE
  5
27F
100
AcDbEntity
  8
0
100
AcDbLine
 62
7
  6
CONTINUOUS
 10
-7.6994670182
 20
19.6010238841
 11
-8.4065737993
 21
19.2520050334
  0
LWPOLYLINE
  5
280
100
AcDbEntity
  8
RACCORDO
100
AcDbPolyline
 62
7
  6
CONTINUOUS
 90
6
 70
0
 10
-4.7297363107
 20
21.6070163495
 10
-4.7370209546
 20
21.6034233738
 10
-4.7451023276
 20
21.5988680267
 10
-4.7529039272
 20
21.5938425837
 10
-4.7604237977
 20
21.5883485486
 10
-4.7677455344
 20
21.5823096316
  0
LINE
  5
281
100
AcDbEntity
  8
0
100
AcDbLine
 62
250
  6
CONTINUOUS
 10
-8.4065737993
 20
20.4644376674
 11
-7.6994670182
 21
20.8129526696
  0
LINE
  5
282
100
AcDbEntity
  8
0
100
AcDbLine
 62
7
  6
CONTINUOUS
 10
-6.2328898837
 20
20.2142140164
 11
-6.9399966649
 21
19.8656990142
  0
LINE
  5
283
100
AcDbEntity
  8
0
100
AcDbLine
 62
250
  6
CONTINUOUS
 10
-6.1438320996
 20
20.2083432223
 11
-6.8509388807
 21
19.8598282201
  0
LINE
  5
284
100
AcDbEntity
  8
RACCORDO
100
AcDbLine
 62
250
  6
CONTINUOUS
 10
-4.4567768786
 20
21.6157373809
 11
-4.4098466366
 21
21.6383849673
  0
LINE
  5
285
100
AcDbEntity
  8
RACCORDO
100
AcDbLine
 62
250
  6
CONTINUOUS
 10
-4.4098466366
 20
21.6383849673
 11
-4.3980111959
 21
21.6440216436
  0
LINE
  5
286
100
AcDbEntity
  8
RACCORDO
100
AcDbLine
 62
250
  6
CONTINUOUS
 10
-4.4672250967
 20
21.6107624599
 11
-4.4567768786
 21
21.6157373809
  0
LINE
  5
287
100
AcDbEntity
  8
RACCORDO
100
AcDbLine
 62
250
  6
CONTINUOUS
 10
-4.3980111959
 20
21.6440216436
 11
-4.3888899924
 21
21.6483128021
  0
LINE
  5
288
100
AcDbEntity
  8
RACCORDO
100
AcDbLine
 62
250
  6
CONTINUOUS
 10
-4.474962361
 20
21.6071274277
 11
-4.4672250967
 21
21.6107624599
  0
LINE
  5
289
100
AcDbEntity
  8
RACCORDO
100
AcDbLine
 62
250
  6
CONTINUOUS
 10
-4.3888899924
 20
21.6483128021
 11
-4.3795428709
 21
21.6526530056
  0
LINE
  5
28A
100
AcDbEntity
  8
RACCORDO
100
AcDbLine
 62
250
  6
CONTINUOUS
 10
-4.5175403507
 20
21.5874505457
 11
-4.474962361
 21
21.6071274277
  0
LINE
  5
28B
100
AcDbEntity
  8
RACCORDO
100
AcDbLine
 62
7
  6
CONTINUOUS
 10
-4.678505503
 20
21.6306354413
 11
-4.7297374164
 21
21.6070158389
  0
LINE
  5
28C
100
AcDbEntity
  8
RACCORDO
100
AcDbLine
 62
250
  6
CONTINUOUS
 10
-4.3795428709
 20
21.6526530056
 11
-4.3699558826
 21
21.6570369082
  0
LWPOLYLINE
  5
28D
100
AcDbEntity
  8
RACCORDO
100
AcDbPolyline
 62
250
  6
CONTINUOUS
 90
22
 70
0
 10
-4.6958910673
 20
21.6226472045
 10
-4.6927627542
 20
21.6240571364
 10
-4.6835142918
 20
21.6278310306
 10
-4.6740546775
 20
21.631113486
 10
-4.6643940372
 20
21.6339009892
 10
-4.6545427115
 20
21.6361905564
 10
-4.6445112456
 20
21.6379797368
 10
-4.6343103771
 20
21.6392666153
 10
-4.6239510251
 20
21.6400498143
 10
-4.6134442785
 20
21.6403284956
 10
-4.6028013838
 20
21.6401023607
 10
-4.5920337332
 20
21.6393716519
 10
-4.5811528525
 20
21.6381371511
 10
-4.5701703887
 20
21.6364001799
 10
-4.5590980976
 20
21.6341625976
 10
-4.5479478311
 20
21.6314267991
 10
-4.5367315245
 20
21.6281957131
 10
-4.5254611838
 20
21.624472798
 10
-4.5141488731
 20
21.6202620388
 10
-4.502806701
 20
21.615567943
 10
-4.4914468083
 20
21.6103955349
 10
-4.4800813548
 20
21.6047503513
  0
LINE
  5
28E
100
AcDbEntity
  8
RACCORDO
100
AcDbLine
 62
250
  6
CONTINUOUS
 10
-4.3699558826
 20
21.6570369082
 11
-4.3634247709
 21
21.6599810746
  0
LINE
  5
28F
100
AcDbEntity
  8
RACCORDO
100
AcDbLine
 62
250
  6
CONTINUOUS
 10
-4.3634247709
 20
21.6599810746
 11
-4.3567762621
 21
21.6629403363
  0
LINE
  5
290
100
AcDbEntity
  8
RACCORDO
100
AcDbLine
 62
250
  6
CONTINUOUS
 10
-4.3567762621
 20
21.6629403363
 11
-4.3500071879
 21
21.6659134586
  0
LINE
  5
291
100
AcDbEntity
  8
RACCORDO
100
AcDbLine
 62
250
  6
CONTINUOUS
 10
-4.3500071879
 20
21.6659134586
 11
-4.343112637
 21
21.6688986369
  0
LINE
  5
292
100
AcDbEntity
  8
RACCORDO
100
AcDbLine
 62
250
  6
CONTINUOUS
 10
-4.343112637
 20
21.6688986369
 11
-4.3360885534
 21
21.6718936321
  0
LINE
  5
293
100
AcDbEntity
  8
RACCORDO
100
AcDbLine
 62
250
  6
CONTINUOUS
 10
-4.3360885534
 20
21.6718936321
 11
-4.3289321914
 21
21.6748969604
  0
LINE
  5
294
100
AcDbEntity
  8
RACCORDO
100
AcDbLine
 62
250
  6
CONTINUOUS
 10
-4.3289321914
 20
21.6748969604
 11
-4.3216394917
 21
21.6779063549
  0
LINE
  5
295
100
AcDbEntity
  8
RACCORDO
100
AcDbLine
 62
250
  6
CONTINUOUS
 10
-4.3216394917
 20
21.6779063549
 11
-4.3142064358
 21
21.6809194768
  0
LINE
  5
296
100
AcDbEntity
  8
RACCORDO
100
AcDbLine
 62
250
  6
CONTINUOUS
 10
-4.3142064358
 20
21.6809194768
 11
-4.3066303973
 21
21.6839347322
  0
LINE
  5
297
100
AcDbEntity
  8
RACCORDO
100
AcDbLine
 62
250
  6
CONTINUOUS
 10
-4.3066303973
 20
21.6839347322
 11
-4.2989075363
 21
21.686949673
  0
LINE
  5
298
100
AcDbEntity
  8
RACCORDO
100
AcDbLine
 62
250
  6
CONTINUOUS
 10
-4.2989075363
 20
21.686949673
 11
-4.2910339125
 21
21.6899618226
  0
LINE
  5
299
100
AcDbEntity
  8
RACCORDO
100
AcDbLine
 62
250
  6
CONTINUOUS
 10
-4.2910339125
 20
21.6899618226
 11
-4.2830069853
 21
21.6929694799
  0
LINE
  5
29A
100
AcDbEntity
  8
RACCORDO
100
AcDbLine
 62
250
  6
CONTINUOUS
 10
-4.2830069853
 20
21.6929694799
 11
-4.2748229777
 21
21.6959700546
  0
LINE
  5
29B
100
AcDbEntity
  8
RACCORDO
100
AcDbLine
 62
250
  6
CONTINUOUS
 10
-4.2748229777
 20
21.6959700546
 11
-4.2664786134
 21
21.6989606981
  0
LWPOLYLINE
  5
29C
100
AcDbEntity
  8
0
100
AcDbPolyline
 62
7
  6
CONTINUOUS
 90
3
 70
0
 10
0.1119113931
 20
21.6751987151
 10
0.1228199315
 20
21.6790375462
 10
0.134106662
 20
21.6822848168
  0
LINE
  5
29D
100
AcDbEntity
  8
RACCORDO
100
AcDbLine
 62
250
  6
CONTINUOUS
 10
-4.2664786134
 20
21.6989606981
 11
-4.2579717755
 21
21.701939475
  0
LINE
  5
29E
100
AcDbEntity
  8
RACCORDO
100
AcDbLine
 62
250
  6
CONTINUOUS
 10
-4.2579717755
 20
21.701939475
 11
-4.2492994078
 21
21.7049034171
  0
LINE
  5
29F
100
AcDbEntity
  8
RACCORDO
100
AcDbLine
 62
250
  6
CONTINUOUS
 10
-4.2492994078
 20
21.7049034171
 11
-4.2404588108
 21
21.7078493707
  0
LINE
  5
2A0
100
AcDbEntity
  8
RACCORDO
100
AcDbLine
 62
250
  6
CONTINUOUS
 10
-4.2404588108
 20
21.7078493707
 11
-4.2314483048
 21
21.7107751831
  0
LINE
  5
2A1
100
AcDbEntity
  8
RACCORDO
100
AcDbLine
 62
250
  6
CONTINUOUS
 10
-4.2314483048
 20
21.7107751831
 11
-4.2222655406
 21
21.7136775484
  0
LINE
  5
2A2
100
AcDbEntity
  8
RACCORDO
100
AcDbLine
 62
250
  6
CONTINUOUS
 10
-4.2222655406
 20
21.7136775484
 11
-4.2129086324
 21
21.7165529656
  0
LINE
  5
2A3
100
AcDbEntity
  8
RACCORDO
100
AcDbLine
 62
250
  6
CONTINUOUS
 10
-4.2129086324
 20
21.7165529656
 11
-4.2033762444
 21
21.7193991119
  0
LINE
  5
2A4
100
AcDbEntity
  8
RACCORDO
100
AcDbLine
 62
250
  6
CONTINUOUS
 10
-4.2033762444
 20
21.7193991119
 11
-4.1936661325
 21
21.7222125546
  0
LWPOLYLINE
  5
2A5
100
AcDbEntity
  8
0
100
AcDbPolyline
 62
250
  6
CONTINUOUS
 90
5
 70
0
 10
-0.0600647615
 20
-24.160182017
 10
-0.0642533267
 20
-24.1582153612
 10
-0.0704732135
 20
-24.1557397213
 10
-0.0768861112
 20
-24.1536981858
 10
-0.0834798127
 20
-24.1520946409
  0
LINE
  5
2A6
100
AcDbEntity
  8
0
100
AcDbLine
 62
250
  6
CONTINUOUS
 10
-0.5223331891
 20
-23.9326679527
 11
-0.0834798127
 21
-24.1520946409
  0
LINE
  5
2A7
100
AcDbEntity
  8
0
100
AcDbLine
 62
7
  6
CONTINUOUS
 10
-0.5223331891
 20
-23.9290478031
 11
-0.0600647615
 21
-24.160182017
  0
LINE
  5
2A8
100
AcDbEntity
  8
DRAFT
100
AcDbLine
 62
7
  6
CONTINUOUS
 10
-2.8372716749
 20
-21.7684708175
 11
-3.2519263159
 21
-21.561143497
  0
LINE
  5
2A9
100
AcDbEntity
  8
0
100
AcDbLine
 62
250
  6
CONTINUOUS
 10
-0.0751495092
 20
-24.1565602246
 11
-0.0834798127
 21
-24.1520946409
  0
LINE
  5
2AA
100
AcDbEntity
  8
RACCORDO
100
AcDbLine
 62
7
  6
CONTINUOUS
 10
-6.4573353633
 20
20.1035905308
 11
-4.7677451579
 21
21.5823098118
  0
LINE
  5
2AB
100
AcDbEntity
  8
RACCORDO
100
AcDbLine
 62
250
  6
CONTINUOUS
 10
-6.1132746815
 20
20.1930645132
 11
-4.5191452755
 21
21.5882370714
  0
LINE
  5
2AC
100
AcDbEntity
  8
0
100
AcDbLine
 62
7
  6
CONTINUOUS
 10
-5.4375480698
 20
18.9386606499
 11
-6.2852534558
 21
18.5087677532
  0
LINE
  5
2AD
100
AcDbEntity
  8
0
100
AcDbLine
 62
7
  6
CONTINUOUS
 10
-4.5528418419
 20
18.7107797007
 11
-5.619672754
 21
18.1759774024
  0
LINE
  5
2AE
100
AcDbEntity
  8
0
100
AcDbLine
 62
7
  6
CONTINUOUS
 10
0.7216502273
 20
21.3410888346
 11
-4.5528418419
 21
18.7107797007
  0
LINE
  5
2AF
100
AcDbEntity
  8
0
100
AcDbLine
 62
7
  6
CONTINUOUS
 10
0.0807644535
 20
21.6615317214
 11
-4.5174865028
 21
19.3951704239
  0
LINE
  5
2B0
100
AcDbEntity
  8
0
100
AcDbLine
 62
7
  6
CONTINUOUS
 10
0.8853036754
 20
21.0234622533
 11
2.5576950663
 21
21.8477415627
  0
LWPOLYLINE
  5
2B1
100
AcDbEntity
  8
0
100
AcDbPolyline
 62
7
  6
CONTINUOUS
 90
7
 70
0
 10
0.0807644535
 20
21.6615317214
 10
0.085978153
 20
21.6640538112
 10
0.0911828353
 20
21.6664781979
 10
0.0963785005
 20
21.6688048817
 10
0.1015651485
 20
21.6710338625
 10
0.1067427794
 20
21.6731651403
 10
0.1119113931
 20
21.6751987151
  0
LWPOLYLINE
  5
2B2
100
AcDbEntity
  8
0
100
AcDbPolyline
 62
7
  6
CONTINUOUS
 90
21
 70
0
 10
2.5576950663
 20
21.8477415627
 10
2.5823228423
 20
21.8593519247
 10
2.6068598437
 20
21.8698760845
 10
2.6313060705
 20
21.8793140421
 10
2.6556939529
 20
21.8876753027
 10
2.6799910607
 20
21.8949503611
 10
2.7041001035
 20
21.9011107018
 10
2.7280125608
 20
21.9061509153
 10
2.7517369532
 20
21.9100764112
 10
2.7752015515
 20
21.9128749026
 10
2.7984159654
 20
21.9145429489
 10
2.8213705851
 20
21.9150839906
 10
2.8439648521
 20
21.9144960623
 10
2.8661850457
 20
21.9127760388
 10
2.8880448865
 20
21.9099270451
 10
2.9094849784
 20
21.9059564913
 10
2.9305173209
 20
21.9008571695
 10
2.9511299144
 20
21.8946362875
 10
2.971227364
 20
21.8873228784
 10
2.9907940195
 20
21.8789186188
 10
3.0007945313
 20
21.8741013138
  0
LWPOLYLINE
  5
2B3
100
AcDbEntity
  8
RACCORDO
100
AcDbPolyline
 62
250
  6
CONTINUOUS
 90
26
 70
0
 10
3.9862530276
 20
22.951091646
 10
4.0055129399
 20
22.9599882571
 10
4.0247493853
 20
22.9682306621
 10
4.0439480788
 20
22.9758127402
 10
4.0630947634
 20
22.9827288608
 10
4.0821752206
 20
22.988973888
 10
4.1011752811
 20
22.9945431842
 10
4.1200808355
 20
22.9994326137
 10
4.1388778444
 20
23.0036385455
 10
4.1575523489
 20
23.0071578563
 10
4.1760904813
 20
23.0099879326
 10
4.1944784751
 20
23.0121266727
 10
4.2127026753
 20
23.0135724885
 10
4.2307495484
 20
23.0143243062
 10
4.2486056928
 20
23.0143815676
 10
4.2662578484
 20
23.0137442302
 10
4.2836929066
 20
23.0124127672
 10
4.30089792
 20
23.0103881673
 10
4.3178601121
 20
23.0076719342
 10
4.3345668866
 20
23.0042660847
 10
4.3510058371
 20
23.0001731482
 10
4.3671647559
 20
22.9953961642
 10
4.3830316432
 20
22.9899386799
 10
4.3985947163
 20
22.9838047482
 10
4.4138424179
 20
22.9769989241
 10
4.4211259082
 20
22.9734549756
  0
LINE
  5
2B4
100
AcDbEntity
  8
RACCORDO
100
AcDbLine
 62
250
  6
CONTINUOUS
 10
12.2230546352
 20
25.7525933576
 11
6.0889007551
 21
22.9196378169
  0
LWPOLYLINE
  5
2B5
100
AcDbEntity
  8
RACCORDO
100
AcDbPolyline
 62
7
  6
CONTINUOUS
 90
81
 70
0
 10
11.7914352101
 20
25.7883870639
 10
5.6545751565
 20
22.9541908245
 10
5.64795927
 20
22.9512314298
 10
5.6408166711
 20
22.9481447384
 10
5.6331398449
 20
22.9449412861
 10
5.6249261317
 20
22.9416335673
 10
5.6161782576
 20
22.9382360053
 10
5.6068925307
 20
22.9347601121
 10
5.5970668085
 20
22.9312177665
 10
5.5867082253
 20
22.9276238532
 10
5.5758174636
 20
22.9239906266
 10
5.5643937592
 20
22.9203295705
 10
5.5524439736
 20
22.9166542199
 10
5.5399705658
 20
22.9129763586
 10
5.5269756259
 20
22.9093075745
 10
5.5134666568
 20
22.9056606123
 10
5.4994476071
 20
22.9020467783
 10
5.4849234957
 20
22.8984774736
 10
5.4699045626
 20
22.8949651654
 10
5.4543945962
 20
22.8915203519
 10
5.4384033856
 20
22.8881545116
 10
5.4219517703
 20
22.8848810265
 10
5.4050461306
 20
22.881709853
 10
5.3876992161
 20
22.8786517271
 10
5.3699436717
 20
22.8757200735
 10
5.3517918562
 20
22.8729242492
 10
5.3332564531
 20
22.8702732479
 10
5.3143728725
 20
22.8677784513
 10
5.2951564385
 20
22.865447722
 10
5.275621792
 20
22.8632885978
 10
5.2558050271
 20
22.8613101424
 10
5.2357232923
 20
22.8595185047
 10
5.215393328
 20
22.8579196426
 10
5.1948518203
 20
22.8565203348
 10
5.1741170336
 20
22.855325025
 10
5.1532075695
 20
22.8543378931
 10
5.132161476
 20
22.8535634593
 10
5.1109971813
 20
22.8530044436
 10
5.089735192
 20
22.8526631491
 10
5.0684172186
 20
22.8525416909
 10
5.0470629413
 20
22.852640968
 10
5.0256927197
 20
22.8529612823
 10
5.0043494377
 20
22.8535019973
 10
4.9830533888
 20
22.8542620953
 10
4.961824251
 20
22.8552399561
 10
4.9407036979
 20
22.8564321893
 10
4.9197120653
 20
22.8578358319
 10
4.8988677399
 20
22.8594474751
 10
4.8782087962
 20
22.8612613478
 10
4.8577535748
 20
22.8632727207
 10
4.8375202273
 20
22.8654764719
 10
4.8175455346
 20
22.8678645463
 10
4.7978461024
 20
22.8704304417
 10
4.778438659
 20
22.8731674302
 10
4.7593588101
 20
22.8760652437
 10
4.7406211054
 20
22.879115775
 10
4.7222402379
 20
22.8823107364
 10
4.7042502532
 20
22.8856377355
 10
4.6866634471
 20
22.8890873057
 10
4.6694917708
 20
22.8926497279
 10
4.6527664651
 20
22.8963107634
 10
4.6364997842
 20
22.9000592465
 10
4.6206977996
 20
22.9038849691
 10
4.605380202
 20
22.9077741414
 10
4.5905561834
 20
22.9117150135
 10
4.5762293295
 20
22.9156968853
 10
4.5624093336
 20
22.9197070087
 10
4.5491006599
 20
22.9237339276
 10
4.5363069479
 20
22.9277661556
 10
4.5240354606
 20
22.9317906174
 10
4.5122880083
 20
22.935795623
 10
4.5010664419
 20
22.9397694039
 10
4.4903768788
 20
22.9436982763
 10
4.4802180031
 20
22.9475708044
 10
4.4705901201
 20
22.951374709
 10
4.4614998664
 20
22.955094914
 10
4.4529447281
 20
22.9587195613
 10
4.4449204967
 20
22.9622372759
 10
4.4374292655
 20
22.9656336291
 10
4.4304679143
 20
22.9688962595
 10
4.4240285527
 20
22.972014834
  0
LWPOLYLINE
  5
2B6
100
AcDbEntity
  8
RACCORDO
100
AcDbPolyline
 62
250
  6
CONTINUOUS
 90
67
 70
0
 10
6.0889007551
 20
22.9196378169
 10
6.0634871261
 20
22.9081729131
 10
6.037491307
 20
22.8969994213
 10
6.0109132978
 20
22.8861173416
 10
5.9837336423
 20
22.8755168942
 10
5.9559717967
 20
22.8652078589
 10
5.9276861293
 20
22.8552195747
 10
5.8988753426
 20
22.8455537412
 10
5.8695407339
 20
22.8362086588
 10
5.8397445638
 20
22.8272085681
 10
5.8094846804
 20
22.8185548132
 10
5.7787632355
 20
22.8102460498
 10
5.7476489449
 20
22.8023024858
 10
5.7161411689
 20
22.7947257891
 10
5.6842405472
 20
22.7875142917
 10
5.6520177149
 20
22.7806831978
 10
5.6194771239
 20
22.7742346686
 10
5.5866143224
 20
22.7681665429
 10
5.5534865896
 20
22.762487541
 10
5.5200981399
 20
22.7571988002
 10
5.4864447589
 20
22.7522991832
 10
5.4525710824
 20
22.7477939982
 10
5.4184764337
 20
22.7436833054
 10
5.3841614895
 20
22.7399670447
 10
5.3496729149
 20
22.7366503441
 10
5.3150073567
 20
22.7337333191
 10
5.280168168
 20
22.7312158543
 10
5.2452120732
 20
22.7291027312
 10
5.2101372091
 20
22.7273945993
 10
5.1749454389
 20
22.7260908092
 10
5.1396990759
 20
22.725194194
 10
5.1043981592
 20
22.7247056015
 10
5.0690426496
 20
22.7246241839
 10
5.0336947431
 20
22.7249502311
 10
4.9983544455
 20
22.7256845772
 10
4.963021751
 20
22.7268263882
 10
4.9277588377
 20
22.7283734514
 10
4.8925657477
 20
22.7303266111
 10
4.8574424388
 20
22.7326850231
 10
4.8224509629
 20
22.7354439419
 10
4.78759336
 20
22.7386039316
 10
4.75286759
 20
22.7421644282
 10
4.7183295841
 20
22.7461189941
 10
4.683982703
 20
22.7504676145
 10
4.649823586
 20
22.7552103043
 10
4.6158980821
 20
22.7603406695
 10
4.5822065619
 20
22.7658587902
 10
4.5487486547
 20
22.7717645863
 10
4.5155690981
 20
22.7780514244
 10
4.4826634008
 20
22.7847206724
 10
4.450036054
 20
22.7917709624
 10
4.4177452684
 20
22.7991915573
 10
4.385786807
 20
22.8069847835
 10
4.3541649067
 20
22.8151483146
 10
4.3229504891
 20
22.8236644334
 10
4.2921446399
 20
22.8325347093
 10
4.2617462734
 20
22.841757573
 10
4.2318230528
 20
22.8513106001
 10
4.202377195
 20
22.8611950584
 10
4.1734064833
 20
22.8714096801
 10
4.144971931
 20
22.8819282366
 10
4.1170750971
 20
22.8927522854
 10
4.0897144226
 20
22.9038802689
 10
4.0629462447
 20
22.9152812868
 10
4.0367893425
 20
22.9269450389
 10
4.0112249368
 20
22.9388818253
 10
3.9862530276
 20
22.951091646
  0
LWPOLYLINE
  5
2B7
100
AcDbEntity
  8
0
100
AcDbPolyline
 62
250
  6
CONTINUOUS
 90
14
 70
0
 10
-1.963850328
 20
18.3371275035
 10
-1.9568957891
 20
18.3394129569
 10
-1.9497279836
 20
18.34117599
 10
-1.9423631484
 20
18.3424126092
 10
-1.9348179664
 20
18.3431200131
 10
-1.9271095291
 20
18.3432965993
 10
-1.9192552978
 20
18.342941968
 10
-1.9112730643
 20
18.3420569223
 10
-1.9031809099
 20
18.3406434671
 10
-1.8949971652
 20
18.3387048041
 10
-1.8867403684
 20
18.336245325
 10
-1.8784292228
 20
18.333270601
 10
-1.870082555
 20
18.3297873704
 10
-1.8617192722
 20
18.3258035236
  0
LINE
  5
2B8
100
AcDbEntity
  8
RACCORDO
100
AcDbLine
 62
250
  6
CONTINUOUS
 10
-0.8950176016
 20
-20.9113316359
 11
-1.98351851
 21
-20.3670811816
  0
LINE
  5
2B9
100
AcDbEntity
  8
RACCORDO
100
AcDbLine
 62
250
  6
CONTINUOUS
 10
-0.6283965139
 20
-20.3643369882
 11
-1.5829933609
 21
-19.8870385647
  0
LINE
  5
2BA
100
AcDbEntity
  8
DRAFT
100
AcDbLine
 62
7
  6
CONTINUOUS
 10
-16.0527940928
 20
-2.8822196275
 11
-16.0681599281
 21
-2.6568215963
  0
LWPOLYLINE
  5
2BB
100
AcDbEntity
  8
0
100
AcDbPolyline
 62
7
  6
CONTINUOUS
 90
4
 70
0
 10
-15.6422430465
 20
-2.8817002478
 10
-15.646207612
 20
-2.805423285
 10
-15.649188797
 20
-2.7301803667
 10
-15.651196755
 20
-2.655989281
  0
LINE
  5
2BC
100
AcDbEntity
  8
0
100
AcDbLine
 62
250
  6
CONTINUOUS
 10
-16.5314056405
 20
22.845404266
 11
-16.5315553074
 21
22.8493385546
  0
LINE
  5
2BD
100
AcDbEntity
  8
DRAFT
100
AcDbLine
 62
7
  6
CONTINUOUS
 10
-16.0681599281
 20
-2.6568215963
 11
-16.0758124096
 21
-2.4354136903
  0
LWPOLYLINE
  5
2BE
100
AcDbEntity
  8
0
100
AcDbPolyline
 62
250
  6
CONTINUOUS
 90
22
 70
0
 10
-16.4583320027
 20
22.760950207
 10
-16.4581637504
 20
22.7515904587
 10
-16.457659314
 20
22.7424167795
 10
-16.4568196535
 20
22.7334466319
 10
-16.4556463674
 20
22.7246970913
 10
-16.4541416891
 20
22.7161848127
 10
-16.4523084828
 20
22.7079259999
 10
-16.4501502382
 20
22.6999363739
 10
-16.4476710635
 20
22.6922311434
 10
-16.444875678
 20
22.6848249758
 10
-16.4417694029
 20
22.6777319692
 10
-16.4383581511
 20
22.6709656254
 10
-16.4346484163
 20
22.6645388247
 10
-16.43064726
 20
22.6584638007
 10
-16.4263622987
 20
22.6527521177
 10
-16.4218016891
 20
22.6474146482
 10
-16.4169741125
 20
22.6424615523
 10
-16.4118887585
 20
22.6379022585
 10
-16.4065553074
 20
22.6337454457
 10
-16.4009839116
 20
22.6299990266
 10
-16.3951851768
 20
22.6266701329
 10
-16.3933587062
 20
22.6257317569
  0
LWPOLYLINE
  5
2BF
100
AcDbEntity
  8
0
100
AcDbPolyline
 62
7
  6
CONTINUOUS
 90
3
 70
0
 10
-15.651196755
 20
-2.655989281
 10
-15.6522217984
 20
-2.5828324768
 10
-15.6523272039
 20
-2.5105260143
  0
LINE
  5
2C0
100
AcDbEntity
  8
RACCORDO
100
AcDbLine
 62
7
  6
CONTINUOUS
 10
-16.6252367783
 20
21.7993857551
 11
-16.6252367783
 21
19.7329312857
  0
LINE
  5
2C1
100
AcDbEntity
  8
0
100
AcDbLine
 62
7
  6
CONTINUOUS
 10
-16.5315553074
 20
23.1893124887
 11
-16.5315553074
 21
22.8493385546
  0
LINE
  5
2C2
100
AcDbEntity
  8
0
100
AcDbLine
 62
250
  6
CONTINUOUS
 10
-16.4583320027
 20
23.1009241411
 11
-16.4583320027
 21
22.760950207
  0
LINE
  5
2C3
100
AcDbEntity
  8
DRAFT
100
AcDbLine
 62
7
  6
CONTINUOUS
 10
-16.0758124096
 20
-2.4354136903
 11
-16.0758140377
 21
-2.2178870036
  0
LINE
  5
2C4
100
AcDbEntity
  8
0
100
AcDbLine
 62
7
  6
CONTINUOUS
 10
-15.8285623531
 20
22.3433335803
 11
-15.8285623531
 21
21.8893594786
  0
LINE
  5
2C5
100
AcDbEntity
  8
0
100
AcDbLine
 62
250
  6
CONTINUOUS
 10
-15.7553390484
 20
22.3067219279
 11
-15.7553390484
 21
21.7976477838
  0
LINE
  5
2C6
100
AcDbEntity
  8
0
100
AcDbLine
 62
7
  6
CONTINUOUS
 10
-15.6523272039
 20
-2.5105260143
 11
-15.6514661638
 21
-2.4366110389
  0
LWPOLYLINE
  5
2C7
100
AcDbEntity
  8
0
100
AcDbPolyline
 62
250
  6
CONTINUOUS
 90
34
 70
0
 10
-16.4583320027
 20
23.1009241411
 10
-16.4581331999
 20
23.1112886193
 10
-16.4575372376
 20
23.1218286041
 10
-16.4565454544
 20
23.1325203898
 10
-16.4551600784
 20
23.1433399356
 10
-16.4533842243
 20
23.1542629
 10
-16.4512218891
 20
23.165264694
 10
-16.4486779385
 20
23.1763205661
 10
-16.4457580938
 20
23.1874056551
 10
-16.4424689238
 20
23.1984950249
 10
-16.4388178269
 20
23.2095637347
 10
-16.4348130163
 20
23.2205868871
 10
-16.4304635041
 20
23.2315396804
 10
-16.4257790754
 20
23.2423974781
 10
-16.4207702673
 20
23.2531358612
 10
-16.4154483488
 20
23.2637306743
 10
-16.4098252884
 20
23.2741580941
 10
-16.4039137377
 20
23.2843946629
 10
-16.3977270059
 20
23.2944173398
 10
-16.3912790293
 20
23.3042035578
 10
-16.3845842961
 20
23.3137313375
 10
-16.3776578199
 20
23.3229793126
 10
-16.3705151094
 20
23.331926763
 10
-16.3631722919
 20
23.3405534738
 10
-16.3556460453
 20
23.3488398642
 10
-16.347953411
 20
23.3567672127
 10
-16.3401115984
 20
23.3643178256
 10
-16.3321380995
 20
23.3714748748
 10
-16.324049622
 20
23.3782232478
 10
-16.3158655507
 20
23.3845466577
 10
-16.3076078799
 20
23.3904284337
 10
-16.2992964593
 20
23.3958551837
 10
-16.2909488269
 20
23.4008161977
 10
-16.2825837467
 20
23.4053009561
  0
LWPOLYLINE
  5
2C8
100
AcDbEntity
  8
0
100
AcDbPolyline
 62
7
  6
CONTINUOUS
 90
3
 70
0
 10
-15.6514661638
 20
-2.4366110389
 10
-15.6498052551
 20
-2.3684484478
 10
-15.6471902126
 20
-2.2985254248
  0
LINE
  5
2C9
100
AcDbEntity
  8
DRAFT
100
AcDbLine
 62
7
  6
CONTINUOUS
 10
-16.0758140377
 20
-2.2178870036
 11
-16.0682225084
 21
-2.005197846
  0
LWPOLYLINE
  5
2CA
100
AcDbEntity
  8
0
100
AcDbPolyline
 62
7
  6
CONTINUOUS
 90
4
 70
0
 10
-15.6471902126
 20
-2.2985254248
 10
-15.6436906856
 20
-2.2292894708
 10
-15.63929695
 20
-2.160744128
 10
-15.6340043071
 20
-2.0927398039
  0
LWPOLYLINE
  5
2CB
100
AcDbEntity
  8
DRAFT
100
AcDbPolyline
 62
7
  6
CONTINUOUS
 90
4
 70
0
 10
-16.0682225084
 20
-2.005197846
 10
-16.0529428304
 20
-1.7948222605
 10
-16.0300706648
 20
-1.5892846478
 10
-15.999574482
 20
-1.3876941758
  0
LWPOLYLINE
  5
2CC
100
AcDbEntity
  8
0
100
AcDbPolyline
 62
7
  6
CONTINUOUS
 90
25
 70
0
 10
-15.9995739774
 20
-1.3876908055
 10
-16.0118790697
 20
-1.462176525
 10
-16.0231187818
 20
-1.5373717115
 10
-16.0332930274
 20
-1.6132763186
 10
-16.0424049954
 20
-1.6899108542
 10
-16.0504513173
 20
-1.7672547142
 10
-16.0574221014
 20
-1.8452461999
 10
-16.0633125711
 20
-1.9238834713
 10
-16.0681273915
 20
-2.0031683073
 10
-16.071870889
 20
-2.083044465
 10
-16.0745433686
 20
-2.1635162779
 10
-16.0761444608
 20
-2.2445793752
 10
-16.0766775368
 20
-2.326164485
 10
-16.0761449398
 20
-2.4082701177
 10
-16.0745443261
 20
-2.4908977575
 10
-16.0718720978
 20
-2.5739826247
 10
-16.0681286043
 20
-2.6575206027
 10
-16.0633135585
 20
-2.741515834
 10
-16.0574224642
 20
-2.8259159564
 10
-16.0504506495
 20
-2.9107273786
 10
-16.0424028963
 20
-2.9959437415
 10
-16.0332889452
 20
-3.0814935589
 10
-16.0231121139
 20
-3.1673530353
 10
-16.0118692631
 20
-3.253546049
 10
-15.9995604785
 20
-3.3400726397
  0
LINE
  5
2CD
100
AcDbEntity
  8
0
100
AcDbLine
 62
7
  6
CONTINUOUS
 10
-4.5528418419
 20
17.3251390546
 11
-5.619672754
 21
16.7298146366
  0
LWPOLYLINE
  5
2CE
100
AcDbEntity
  8
0
100
AcDbPolyline
 62
7
  6
CONTINUOUS
 90
21
 70
0
 10
0.7544688243
 20
19.9718143247
 10
0.767057369
 20
19.9783548244
 10
0.77906585
 20
19.9851201875
 10
0.7904942674
 20
19.9921104141
 10
0.8013591948
 20
19.9993375267
 10
0.8116440586
 20
20.0067895027
 10
0.8212991374
 20
20.0144302749
 10
0.8303214222
 20
20.0222607901
 10
0.838713922
 20
20.0302801014
 10
0.8464359429
 20
20.0384493017
 10
0.8534842185
 20
20.0467691132
 10
0.8598620151
 20
20.0552388137
 10
0.8655384374
 20
20.0638173295
 10
0.8705100768
 20
20.0725051835
 10
0.8747803419
 20
20.0813018527
 10
0.8783285628
 20
20.0901646947
 10
0.8811512355
 20
20.0990940335
 10
0.883251864
 20
20.1080895451
 10
0.8846202909
 20
20.1171076147
 10
0.885252961
 20
20.1261483476
 10
0.8853014584
 20
20.1294537882
  0
LINE
  5
2CF
100
AcDbEntity
  8
0
100
AcDbLine
 62
7
  6
CONTINUOUS
 10
-4.0920114202
 20
17.2599199349
 11
-2.5088377548
 21
18.072117993
  0
LINE
  5
2D0
100
AcDbEntity
  8
0
100
AcDbLine
 62
250
  6
CONTINUOUS
 10
-3.978925754
 20
17.2534719597
 11
-2.3961691509
 21
18.0654560571
  0
LINE
  5
2D1
100
AcDbEntity
  8
0
100
AcDbLine
 62
250
  6
CONTINUOUS
 10
-2.3003876836
 20
16.4142029245
 11
-0.6991068928
 21
17.216924928
  0
LINE
  5
2D2
100
AcDbEntity
  8
0
100
AcDbLine
 62
7
  6
CONTINUOUS
 10
-2.5088377568
 20
18.072117992
 11
-2.5071013402
 21
18.0729862147
  0
LINE
  5
2D3
100
AcDbEntity
  8
DRAFT
100
AcDbLine
 62
7
  6
CONTINUOUS
 10
5.5316392483
 20
20.3607694717
 11
-0.1414635526
 21
17.5276530347
  0
LINE
  5
2D4
100
AcDbEntity
  8
0
100
AcDbLine
 62
7
  6
CONTINUOUS
 10
-4.5528418419
 20
17.3251390546
 11
0.7544688243
 21
19.9718143247
  0
LINE
  5
2D5
100
AcDbEntity
  8
0
100
AcDbLine
 62
250
  6
CONTINUOUS
 10
-0.6991068928
 20
17.216924928
 11
-0.1708397211
 21
17.4803637481
  0
LINE
  5
2D6
100
AcDbEntity
  8
0
100
AcDbLine
 62
7
  6
CONTINUOUS
 10
14.2208431986
 20
24.3003344532
 11
9.9782025115
 21
22.2243602449
  0
LWPOLYLINE
  5
2D7
100
AcDbEntity
  8
0
100
AcDbPolyline
 62
250
  6
CONTINUOUS
 90
16
 70
0
 10
-4.0920114202
 20
17.2599199349
 10
-4.0886136959
 20
17.2615775593
 10
-4.081868475
 20
17.264390107
 10
-4.074887736
 20
17.2666886605
 10
-4.067687292
 20
17.2684680129
 10
-4.0602834536
 20
17.2697241336
 10
-4.0526929922
 20
17.2704541772
 10
-4.0449331017
 20
17.27065649
 10
-4.0370213603
 20
17.2703306138
 10
-4.0289756895
 20
17.2694772866
 10
-4.0208143149
 20
17.2680984416
 10
-4.0125557236
 20
17.266197202
 10
-4.0042186232
 20
17.2637778746
 10
-3.9958218992
 20
17.2608459398
 10
-3.987384572
 20
17.2574080389
 10
-3.978925754
 20
17.2534719597
  0
LINE
  5
2D8
100
AcDbEntity
  8
0
100
AcDbLine
 62
7
  6
CONTINUOUS
 10
-2.507101341
 20
18.0729862143
 11
-1.9722313833
 21
18.3335383147
  0
LINE
  5
2D9
100
AcDbEntity
  8
0
100
AcDbLine
 62
250
  6
CONTINUOUS
 10
-2.3961691509
 20
18.0654560571
 11
-1.8617192722
 21
18.3258035236
  0
LINE
  5
2DA
100
AcDbEntity
  8
RACCORDO
100
AcDbLine
 62
7
  6
CONTINUOUS
 10
9.6353364935
 20
23.5848831736
 11
13.1725237418
 21
25.2778588043
  0
LINE
  5
2DB
100
AcDbEntity
  8
RACCORDO
100
AcDbLine
 62
7
  6
CONTINUOUS
 10
9.9782025115
 20
22.6528770206
 11
14.2160150833
 21
24.6811873441
  0
LWPOLYLINE
  5
2DC
100
AcDbEntity
  8
0
100
AcDbPolyline
 62
250
  6
CONTINUOUS
 90
3
 70
0
 10
-1.9722313833
 20
18.3335383147
 10
-1.9705758469
 20
18.3343248068
 10
-1.963850328
 20
18.3371275035
  0
LWPOLYLINE
  5
2DD
100
AcDbEntity
  8
0
100
AcDbPolyline
 62
7
  6
CONTINUOUS
 90
16
 70
0
 10
-2.5071013402
 20
18.0729862147
 10
-2.5054437119
 20
18.0737737232
 10
-2.498708223
 20
18.0765812611
 10
-2.4917404838
 20
18.0788731227
 10
-2.4845562267
 20
18.0806441425
 10
-2.4771717111
 20
18.0818903176
 10
-2.4696037567
 20
18.0826087828
 10
-2.4618694352
 20
18.0827979479
 10
-2.4539862293
 20
18.0824574046
 10
-2.4459721298
 20
18.081587863
 10
-2.4378451994
 20
18.08019134
 10
-2.4296237884
 20
18.0782710301
 10
-2.4213266916
 20
18.0758312034
 10
-2.4129726983
 20
18.0728773925
 10
-2.4045805492
 20
18.0694163795
 10
-2.3961691509
 20
18.0654560571
  0
LINE
  5
2DE
100
AcDbEntity
  8
DRAFT
100
AcDbLine
 62
7
  6
CONTINUOUS
 10
0.3953629196
 20
-19.5337759044
 11
-0.7698205625
 21
-18.9511841633
  0
LINE
  5
2DF
100
AcDbEntity
  8
RACCORDO
100
AcDbLine
 62
250
  6
CONTINUOUS
 10
-6.215656251
 20
-15.4162496142
 11
-21.0764487706
 21
-7.9858533544
  0
LWPOLYLINE
  5
2E0
100
AcDbEntity
  8
0
100
AcDbPolyline
 62
250
  6
CONTINUOUS
 90
34
 70
0
 10
-2.1236139799
 20
-25.5302646878
 10
-2.1280345054
 20
-25.5233459068
 10
-2.1328417008
 20
-25.5162420965
 10
-2.1380247163
 20
-25.50896929
 10
-2.1435718544
 20
-25.5015439015
 10
-2.1494705954
 20
-25.4939826896
 10
-2.1557076263
 20
-25.4863027196
 10
-2.1622688703
 20
-25.4785213246
 10
-2.1691395192
 20
-25.4706560669
 10
-2.1763040664
 20
-25.4627246979
 10
-2.1837463418
 20
-25.4547451182
 10
-2.1914495488
 20
-25.4467353372
 10
-2.1993963015
 20
-25.4387134326
 10
-2.2075686647
 20
-25.4306975093
 10
-2.2159481938
 20
-25.4227056587
 10
-2.2245159767
 20
-25.4147559181
 10
-2.2332526764
 20
-25.4068662294
 10
-2.2421385748
 20
-25.3990543994
 10
-2.2511536169
 20
-25.3913380587
 10
-2.2602774562
 20
-25.3837346227
 10
-2.2694895007
 20
-25.376261252
 10
-2.2787689596
 20
-25.3689348135
 10
-2.2880948895
 20
-25.3617718425
 10
-2.2974462423
 20
-25.3547885055
 10
-2.3068019127
 20
-25.3480005633
 10
-2.3161407855
 20
-25.3414233361
 10
-2.3254417833
 20
-25.3350716681
 10
-2.3346839143
 20
-25.3289598949
 10
-2.3438463197
 20
-25.3231018101
 10
-2.3529083203
 20
-25.3175106353
 10
-2.3618494639
 20
-25.3121989894
 10
-2.3706495707
 20
-25.3071788603
 10
-2.3792887794
 20
-25.3024615784
 10
-2.387747592
 20
-25.2980577901
  0
LWPOLYLINE
  5
2E1
100
AcDbEntity
  8
0
100
AcDbPolyline
 62
7
  6
CONTINUOUS
 90
8
 70
0
 10
-15.5326386356
 20
-3.633353122
 10
-15.5426604003
 20
-3.6072316421
 10
-15.5517826497
 20
-3.58094793
 10
-15.5600085699
 20
-3.5545139743
 10
-15.5672650761
 20
-3.528170086
 10
-15.5735277839
 20
-3.5019963572
 10
-15.5788209812
 20
-3.4759126474
 10
-15.5831446156
 20
-3.4499189304
  0
LWPOLYLINE
  5
2E2
100
AcDbEntity
  8
DRAFT
100
AcDbPolyline
 62
7
  6
CONTINUOUS
 90
13
 70
0
 10
-15.5831446187
 20
-3.4499189154
 10
-15.5730478163
 20
-3.5034033291
 10
-15.5594491626
 20
-3.556124336
 10
-15.5423493118
 20
-3.6080822646
 10
-15.5215086074
 20
-3.6597428038
 10
-15.4971678571
 20
-3.7106408428
 10
-15.4700485847
 20
-3.7593805974
 10
-15.4400990211
 20
-3.8059219887
 10
-15.4073722879
 20
-3.8503057757
 10
-15.372747497
 20
-3.8912575586
 10
-15.3365180957
 20
-3.9283527438
 10
-15.2983917199
 20
-3.9620164701
 10
-15.258368733
 20
-3.9922489204
  0
LINE
  5
2E3
100
AcDbEntity
  8
DRAFT
100
AcDbLine
 62
7
  6
CONTINUOUS
 10
-15.9836144717
 20
-3.428707437
 11
-15.9995601224
 21
-3.3400743936
  0
LWPOLYLINE
  5
2E4
100
AcDbEntity
  8
0
100
AcDbPolyline
 62
7
  6
CONTINUOUS
 90
25
 70
0
 10
-15.9995604785
 20
-3.3400726397
 10
-15.9905003202
 20
-3.3944320015
 10
-15.9794154853
 20
-3.4489719059
 10
-15.9663062041
 20
-3.503692468
 10
-15.9511219113
 20
-3.5587642108
 10
-15.9339135952
 20
-3.6140168229
 10
-15.9148339255
 20
-3.6689392231
 10
-15.8938769649
 20
-3.723495317
 10
-15.871049299
 20
-3.7777215245
 10
-15.8465225611
 20
-3.8312156262
 10
-15.8202813652
 20
-3.8839806032
 10
-15.7923418238
 20
-3.93601384
 10
-15.7629229387
 20
-3.9869047836
 10
-15.7320116462
 20
-4.0366464791
 10
-15.6996217651
 20
-4.0852462619
 10
-15.6660127044
 20
-4.1323150561
 10
-15.6311823987
 20
-4.1778331504
 10
-15.5951336261
 20
-4.2218206157
 10
-15.5581330983
 20
-4.2639480683
 10
-15.5201466008
 20
-4.3042240347
 10
-15.4812089456
 20
-4.3426402901
 10
-15.4416903843
 20
-4.3788423249
 10
-15.4017144862
 20
-4.4127120458
 10
-15.3611581176
 20
-4.4443677661
 10
-15.3200214408
 20
-4.4738095678
  0
LWPOLYLINE
  5
2E5
100
AcDbEntity
  8
0
100
AcDbPolyline
 62
7
  6
CONTINUOUS
 90
3
 70
0
 10
-15.5831446156
 20
-3.4499189304
 10
-15.5951272923
 20
-3.3648210847
 10
-15.6059202872
 20
-3.2810437024
  0
LWPOLYLINE
  5
2E6
100
AcDbEntity
  8
DRAFT
100
AcDbPolyline
 62
7
  6
CONTINUOUS
 90
3
 70
0
 10
-15.9995601224
 20
-3.3400743936
 10
-16.0300594464
 20
-3.1086961563
 10
-16.0527940928
 20
-2.8822196275
  0
LWPOLYLINE
  5
2E7
100
AcDbEntity
  8
0
100
AcDbPolyline
 62
7
  6
CONTINUOUS
 90
6
 70
0
 10
-15.6059202872
 20
-3.2810437024
 10
-15.6155239283
 20
-3.1985869513
 10
-15.6239014248
 20
-3.117503152
 10
-15.6310902236
 20
-3.0377403191
 10
-15.6372019612
 20
-2.9591421359
 10
-15.6422430465
 20
-2.8817002478
  0
LWPOLYLINE
  5
2E8
100
AcDbEntity
  8
DRAFT
100
AcDbPolyline
 62
7
  6
CONTINUOUS
 90
5
 70
0
 10
-14.7491315246
 20
-1.5767858033
 10
-14.7525809762
 20
-1.5317607649
 10
-14.7542440063
 20
-1.4875861698
 10
-14.7541206368
 20
-1.4442776559
 10
-14.752210961
 20
-1.4018821488
  0
LWPOLYLINE
  5
2E9
100
AcDbEntity
  8
0
100
AcDbPolyline
 62
7
  6
CONTINUOUS
 90
5
 70
0
 10
-15.1788587815
 20
-1.2312707683
 10
-15.1805211963
 20
-1.1868066347
 10
-15.1839485594
 20
-1.1418545373
 10
-15.1891451692
 20
-1.0962684449
 10
-15.1961110871
 20
-1.0500483884
  0
LWPOLYLINE
  5
2EA
100
AcDbEntity
  8
0
100
AcDbPolyline
 62
7
  6
CONTINUOUS
 90
19
 70
0
 10
-13.4040592153
 20
-5.2860783618
 10
-13.4038382895
 20
-5.2926536955
 10
-13.4032344292
 20
-5.2993234747
 10
-13.4022476381
 20
-5.306087701
 10
-13.4008687597
 20
-5.3129868258
 10
-13.3991069565
 20
-5.3199804009
 10
-13.3969897137
 20
-5.3269470806
 10
-13.3945115972
 20
-5.3338840638
 10
-13.3916780548
 20
-5.3407941587
 10
-13.3885329007
 20
-5.3475644359
 10
-13.3850689738
 20
-5.35419564
 10
-13.3812934523
 20
-5.3606870352
 10
-13.3772716628
 20
-5.3669234741
 10
-13.3729997888
 20
-5.3728988026
 10
-13.3684816643
 20
-5.3786191837
 10
-13.3637940939
 20
-5.3839879472
 10
-13.3589626844
 20
-5.3889728722
 10
-13.3539618432
 20
-5.3936061868
 10
-13.3487915755
 20
-5.3978878935
  0
LWPOLYLINE
  5
2EB
100
AcDbEntity
  8
0
100
AcDbPolyline
 62
250
  6
CONTINUOUS
 90
22
 70
0
 10
-14.7797939322
 20
21.9216811718
 10
-14.7796256364
 20
21.9123202214
 10
-14.7791210692
 20
21.9031453904
 10
-14.7782811913
 20
21.8941741481
 10
-14.7771076056
 20
21.8854235994
 10
-14.7756025447
 20
21.8769103814
 10
-14.7737688583
 20
21.8686506385
 10
-14.7716100142
 20
21.8606600509
 10
-14.7691301268
 20
21.8529538973
 10
-14.7663339471
 20
21.8455469484
 10
-14.7632268246
 20
21.8384533489
 10
-14.7598146624
 20
21.8316865527
 10
-14.7561039345
 20
21.8252593957
 10
-14.7521016737
 20
21.8191840757
 10
-14.7478155246
 20
21.8134722119
 10
-14.7432537151
 20
21.808134759
 10
-14.7384249855
 20
21.8031819089
 10
-14.7333384997
 20
21.7986230285
 10
-14.7280038848
 20
21.7944667353
 10
-14.7224306146
 20
21.7907205183
 10
-14.7166299286
 20
21.7873920355
 10
-14.7148285733
 20
21.7864666909
  0
LINE
  5
2EC
100
AcDbEntity
  8
DRAFT
100
AcDbLine
 62
7
  6
CONTINUOUS
 10
-13.4040592154
 20
-5.2860783327
 11
-13.4050442676
 21
-4.9262429416
  0
LWPOLYLINE
  5
2ED
100
AcDbEntity
  8
DRAFT
100
AcDbPolyline
 62
7
  6
CONTINUOUS
 90
7
 70
0
 10
-13.4050442676
 20
-4.9262429416
 10
-13.4057844966
 20
-4.5662842597
 10
-13.406279902
 20
-4.2062025363
 10
-13.4065304833
 20
-3.8459980207
 10
-13.4065362405
 20
-3.4856709623
 10
-13.4062971734
 20
-3.1252216108
 10
-13.4058132823
 20
-2.7646502155
  0
LINE
  5
2EE
100
AcDbEntity
  8
0
100
AcDbLine
 62
250
  6
CONTINUOUS
 10
-14.7797939322
 20
21.9216811718
 11
-14.7797939322
 21
22.2616551059
  0
LINE
  5
2EF
100
AcDbEntity
  8
RACCORDO
100
AcDbLine
 62
7
  6
CONTINUOUS
 10
-14.682982705
 20
19.7067758417
 11
-14.682982705
 21
18.7780660121
  0
LINE
  5
2F0
100
AcDbEntity
  8
0
100
AcDbLine
 62
250
  6
CONTINUOUS
 10
-14.4272719726
 20
21.9211684479
 11
-14.4272719726
 21
22.261142382
  0
LINE
  5
2F1
100
AcDbEntity
  8
0
100
AcDbLine
 62
250
  6
CONTINUOUS
 10
-14.0685733241
 20
20.9542649217
 11
-14.0685733241
 21
21.6350146673
  0
LINE
  5
2F2
100
AcDbEntity
  8
0
100
AcDbLine
 62
250
  6
CONTINUOUS
 10
-13.7160513645
 20
20.9650328033
 11
-13.7160513645
 21
21.772664925
  0
LINE
  5
2F3
100
AcDbEntity
  8
DRAFT
100
AcDbLine
 62
7
  6
CONTINUOUS
 10
-13.6038086411
 20
18.2222172171
 11
-13.6038086411
 21
19.1671888097
  0
LWPOLYLINE
  5
2F4
100
AcDbEntity
  8
0
100
AcDbPolyline
 62
7
  6
CONTINUOUS
 90
10
 70
0
 10
-13.404111012
 20
-2.0431365217
 10
-13.4050845599
 20
-2.4039538413
 10
-13.4058132802
 20
-2.7646490053
 10
-13.4062971735
 20
-3.1252217145
 10
-13.4065362407
 20
-3.4856714482
 10
-13.4065304833
 20
-3.8459982045
 10
-13.4062799021
 20
-4.2062024619
 10
-13.4057844966
 20
-4.5662842176
 10
-13.4050442675
 20
-4.9262429506
 10
-13.4040592153
 20
-5.2860783618
  0
LINE
  5
2F5
100
AcDbEntity
  8
DRAFT
100
AcDbLine
 62
7
  6
CONTINUOUS
 10
-13.4058132823
 20
-2.7646502155
 11
-13.4047525981
 21
-2.2809218258
  0
LINE
  5
2F6
100
AcDbEntity
  8
DRAFT
100
AcDbLine
 62
7
  6
CONTINUOUS
 10
-13.4047525981
 20
-2.2809218258
 11
-13.4041110295
 21
-2.043142293
  0
LWPOLYLINE
  5
2F7
100
AcDbEntity
  8
0
100
AcDbPolyline
 62
250
  6
CONTINUOUS
 90
34
 70
0
 10
-14.7797939322
 20
22.2616551059
 10
-14.7795951295
 20
22.2720195841
 10
-14.7789991672
 20
22.2825595689
 10
-14.778007384
 20
22.2932513546
 10
-14.776622008
 20
22.3040709004
 10
-14.7748461539
 20
22.3149938648
 10
-14.7726838187
 20
22.3259956588
 10
-14.7701398681
 20
22.3370515309
 10
-14.7672200234
 20
22.3481366199
 10
-14.7639308534
 20
22.3592259897
 10
-14.7602797564
 20
22.3702946995
 10
-14.7562749459
 20
22.3813178519
 10
-14.7519254337
 20
22.3922706452
 10
-14.747241005
 20
22.4031284429
 10
-14.7422321969
 20
22.413866826
 10
-14.7369102784
 20
22.4244616391
 10
-14.731287218
 20
22.4348890589
 10
-14.7253756673
 20
22.4451256277
 10
-14.7191889355
 20
22.4551483046
 10
-14.7127409589
 20
22.4649345226
 10
-14.7060462256
 20
22.4744623023
 10
-14.6991197495
 20
22.4837102774
 10
-14.691977039
 20
22.4926577278
 10
-14.6846342215
 20
22.5012844386
 10
-14.6771079748
 20
22.509570829
 10
-14.6694153406
 20
22.5174981775
 10
-14.661573528
 20
22.5250487904
 10
-14.6536000291
 20
22.5322058396
 10
-14.6455115516
 20
22.5389542126
 10
-14.6373274803
 20
22.5452776225
 10
-14.6290698095
 20
22.5511593985
 10
-14.6207583888
 20
22.5565861485
 10
-14.6124107565
 20
22.5615471625
 10
-14.6040456763
 20
22.5660319208
  0
LWPOLYLINE
  5
2F8
100
AcDbEntity
  8
0
100
AcDbPolyline
 62
7
  6
CONTINUOUS
 90
3
 70
0
 10
-15.1808539679
 20
-1.3178586451
 10
-15.1789654659
 20
-1.2751008329
 10
-15.1788587815
 20
-1.2312707683
  0
LWPOLYLINE
  5
2F9
100
AcDbEntity
  8
DRAFT
100
AcDbPolyline
 62
7
  6
CONTINUOUS
 90
3
 70
0
 10
-13.4041110295
 20
-2.043142293
 10
-13.4031454417
 20
-2.030578586
 10
-13.4009033511
 20
-2.0194712718
  0
LWPOLYLINE
  5
2FA
100
AcDbEntity
  8
0
100
AcDbPolyline
 62
7
  6
CONTINUOUS
 90
20
 70
0
 10
-13.8863203666
 20
-3.9928757611
 10
-13.8795126254
 20
-3.9149658353
 10
-13.8737603898
 20
-3.8363976782
 10
-13.8690588968
 20
-3.7571695026
 10
-13.8654036562
 20
-3.6773374696
 10
-13.8627943026
 20
-3.5968972156
 10
-13.8612311368
 20
-3.5158530772
 10
-13.8607107244
 20
-3.4342742945
 10
-13.8612307211
 20
-3.352162357
 10
-13.8627934707
 20
-3.2695157801
 10
-13.8654026317
 20
-3.186399374
 10
-13.8690579198
 20
-3.10281729
 10
-13.8737596817
 20
-3.0187654132
 10
-13.8795125786
 20
-2.9342961811
 10
-13.8863213697
 20
-2.8494033631
 10
-13.8941814059
 20
-2.7640932503
 10
-13.9030832919
 20
-2.6784370924
 10
-13.9130239667
 20
-2.5924586765
 10
-13.9240066695
 20
-2.506134311
 10
-13.9360314858
 20
-2.4194640417
  0
LWPOLYLINE
  5
2FB
100
AcDbEntity
  8
DRAFT
100
AcDbPolyline
 62
7
  6
CONTINUOUS
 90
4
 70
0
 10
-14.752210961
 20
-1.4018821488
 10
-14.7485150188
 20
-1.3604152951
 10
-14.743032784
 20
-1.319861456
 10
-14.7357642626
 20
-1.2802206348
  0
LWPOLYLINE
  5
2FC
100
AcDbEntity
  8
0
100
AcDbPolyline
 62
7
  6
CONTINUOUS
 90
7
 70
0
 10
-15.6340043071
 20
-2.0927398039
 10
-15.6278187791
 20
-2.0252696663
 10
-15.6207344231
 20
-1.9583405904
 10
-15.6127284758
 20
-1.891823486
 10
-15.6037933141
 20
-1.825675307
 10
-15.593936517
 20
-1.759939082
 10
-15.5831580691
 20
-1.6946148055
  0
LWPOLYLINE
  5
2FD
100
AcDbEntity
  8
DRAFT
100
AcDbPolyline
 62
7
  6
CONTINUOUS
 90
9
 70
0
 10
-14.3527777503
 20
-4.0651016109
 10
-14.3259647341
 20
-3.8841561031
 10
-14.305855685
 20
-3.6995897131
 10
-14.292450385
 20
-3.5114023711
 10
-14.2857486377
 20
-3.3194622768
 10
-14.2857501064
 20
-3.1239010428
 10
-14.2924548002
 20
-2.9251139379
 10
-14.3058630619
 20
-2.7232329145
 10
-14.3259750824
 20
-2.5181263658
  0
LWPOLYLINE
  5
2FE
100
AcDbEntity
  8
DRAFT
100
AcDbPolyline
 62
7
  6
CONTINUOUS
 90
10
 70
0
 10
-15.5831572139
 20
-1.6946114445
 10
-15.6105432511
 20
-1.8758423783
 10
-15.6310827747
 20
-2.0606232449
 10
-15.6447755666
 20
-2.2489538961
 10
-15.6516214329
 20
-2.44096601
 10
-15.6516200337
 20
-2.6365275628
 10
-15.6447713688
 20
-2.8352430716
 10
-15.6310757782
 20
-3.0369808524
 10
-15.6105334555
 20
-3.241872777
 10
-15.5831446187
 20
-3.4499189154
  0
LINE
  5
2FF
100
AcDbEntity
  8
DRAFT
100
AcDbLine
 62
7
  6
CONTINUOUS
 10
-15.1899827218
 20
-1.399632754
 11
-15.1972234939
 21
-1.4392591292
  0
LWPOLYLINE
  5
300
100
AcDbEntity
  8
0
100
AcDbPolyline
 62
7
  6
CONTINUOUS
 90
4
 70
0
 10
-15.197223703
 20
-1.4392606786
 10
-15.1899851675
 20
-1.3998655188
 10
-15.1845286036
 20
-1.3593981813
 10
-15.1808539679
 20
-1.3178586451
  0
LWPOLYLINE
  5
301
100
AcDbEntity
  8
0
100
AcDbPolyline
 62
7
  6
CONTINUOUS
 90
10
 70
0
 10
-14.7357638924
 20
-1.2802179042
 10
-14.7430302028
 20
-1.3196287763
 10
-14.7485076077
 20
-1.3601080046
 10
-14.7521960638
 20
-1.4016555674
 10
-14.7540912666
 20
-1.4444173609
 10
-14.7541974102
 20
-1.4882474331
 10
-14.7525273064
 20
-1.5327080426
 10
-14.749085314
 20
-1.5776533192
 10
-14.7438672217
 20
-1.6232292052
 10
-14.7368730907
 20
-1.6694357304
  0
LWPOLYLINE
  5
302
100
AcDbEntity
  8
0
100
AcDbPolyline
 62
7
  6
CONTINUOUS
 90
13
 70
0
 10
-14.3527784078
 20
-4.0651042441
 10
-14.3570302285
 20
-4.0868383956
 10
-14.3622464964
 20
-4.1076820967
 10
-14.3684272655
 20
-4.1276353744
 10
-14.375595592
 20
-4.1467491357
 10
-14.3837285202
 20
-4.164972524
 10
-14.3927571086
 20
-4.1821529323
 10
-14.4026857013
 20
-4.1982805862
 10
-14.4135100994
 20
-4.213365333
 10
-14.4251485864
 20
-4.2272840183
 10
-14.4376081821
 20
-4.2400243627
 10
-14.4508820341
 20
-4.2515987296
 10
-14.4645351918
 20
-4.261695831
  0
LWPOLYLINE
  5
303
100
AcDbEntity
  8
0
100
AcDbPolyline
 62
7
  6
CONTINUOUS
 90
7
 70
0
 10
-15.5831580691
 20
-1.6946148055
 10
-15.5788027268
 20
-1.6727376415
 10
-15.573473549
 20
-1.6517601926
 10
-15.5671705908
 20
-1.6316824863
 10
-15.5598703335
 20
-1.6124530955
 10
-15.5515963979
 20
-1.5941234983
 10
-15.5424195716
 20
-1.5768480907
  0
LINE
  5
304
100
AcDbEntity
  8
DRAFT
100
AcDbLine
 62
7
  6
CONTINUOUS
 10
-15.999574482
 20
-1.3876941758
 11
-15.9836304354
 21
-1.3146970162
  0
LWPOLYLINE
  5
305
100
AcDbEntity
  8
DRAFT
100
AcDbPolyline
 62
7
  6
CONTINUOUS
 90
7
 70
0
 10
-15.1972234939
 20
-1.4392591292
 10
-15.2001943257
 20
-1.4492509642
 10
-15.2041303296
 20
-1.4578158998
 10
-15.2090315616
 20
-1.4649539637
 10
-15.2149919715
 20
-1.4707241824
 10
-15.2219177032
 20
-1.475067576
 10
-15.2261634874
 20
-1.4768281551
  0
LINE
  5
306
100
AcDbEntity
  8
DRAFT
100
AcDbLine
 62
7
  6
CONTINUOUS
 10
-15.9836304354
 20
-1.3146970162
 11
-15.9628090731
 21
-1.247129231
  0
LWPOLYLINE
  5
307
100
AcDbEntity
  8
DRAFT
100
AcDbPolyline
 62
7
  6
CONTINUOUS
 90
4
 70
0
 10
-14.7357642626
 20
-1.2802206348
 10
-14.7318465622
 20
-1.2680581606
 10
-14.7265645142
 20
-1.2581118874
 10
-14.7199959584
 20
-1.2504722748
  0
LINE
  5
308
100
AcDbEntity
  8
DRAFT
100
AcDbLine
 62
7
  6
CONTINUOUS
 10
-15.9628090731
 20
-1.247129231
 11
-15.9371117142
 21
-1.1849914781
  0
LWPOLYLINE
  5
309
100
AcDbEntity
  8
0
100
AcDbPolyline
 62
250
  6
CONTINUOUS
 90
18
 70
0
 10
-7.1776923689
 20
19.6231857967
 10
-7.1732162883
 20
19.6326069758
 10
-7.1684404429
 20
19.6418823404
 10
-7.1633777889
 20
19.6509867256
 10
-7.1580420793
 20
19.6598953833
 10
-7.1524478515
 20
19.6685840273
 10
-7.1466103451
 20
19.6770289805
 10
-7.1405454514
 20
19.6852072501
 10
-7.1342696719
 20
19.6930965804
 10
-7.1278000926
 20
19.7006754894
 10
-7.1211543218
 20
19.7079233469
 10
-7.1143504472
 20
19.7148204241
 10
-7.1074069924
 20
19.7213479417
 10
-7.1003428506
 20
19.7274881366
 10
-7.0931772543
 20
19.73322429
 10
-7.0859297293
 20
19.7385407722
 10
-7.0786200101
 20
19.7434231108
 10
-7.0712679855
 20
19.7478580255
  0
LINE
  5
30A
100
AcDbEntity
  8
DRAFT
100
AcDbLine
 62
7
  6
CONTINUOUS
 10
-15.9371117142
 20
-1.1849914781
 11
-15.9063217784
 21
-1.1280021749
  0
LWPOLYLINE
  5
30B
100
AcDbEntity
  8
RACCORDO
100
AcDbPolyline
 62
250
  6
CONTINUOUS
 90
19
 70
0
 10
-4.8286039304
 20
12.5658208735
 10
-4.8828646474
 20
12.5334532982
 10
-4.9365860496
 20
12.496373836
 10
-4.9894615154
 20
12.454799127
 10
-5.0411935804
 20
12.4089729894
 10
-5.0914826605
 20
12.3591611864
 10
-5.1400289555
 20
12.305650361
 10
-5.1865541098
 20
12.2487537223
 10
-5.2307946732
 20
12.1888011665
 10
-5.2724903865
 20
12.1261334321
 10
-5.3114027297
 20
12.0611139792
 10
-5.3473104389
 20
11.9941205076
 10
-5.3800021512
 20
11.9255346266
 10
-5.409290868
 20
11.8557518896
 10
-5.4350090448
 20
11.7851786208
 10
-5.4570033309
 20
11.7142226344
 10
-5.4751460445
 20
11.6432946145
 10
-5.4893356045
 20
11.5728056929
 10
-5.4994908958
 20
11.503163972
  0
LINE
  5
30C
100
AcDbEntity
  8
0
100
AcDbLine
 62
7
  6
CONTINUOUS
 10
-0.5223331891
 20
15.3098847282
 11
-1.4123933718
 21
14.813203807
  0
LINE
  5
30D
100
AcDbEntity
  8
0
100
AcDbLine
 62
250
  6
CONTINUOUS
 10
-0.1691278036
 20
15.1332820355
 11
-1.2483018676
 21
14.5441291934
  0
LINE
  5
30E
100
AcDbEntity
  8
RACCORDO
100
AcDbLine
 62
250
  6
CONTINUOUS
 10
-3.6051163693
 20
13.2228710812
 11
-4.8286039304
 21
12.5658208735
  0
LINE
  5
30F
100
AcDbEntity
  8
DRAFT
100
AcDbLine
 62
7
  6
CONTINUOUS
 10
6.4897394118
 20
19.0681260512
 11
0.1102590458
 21
15.6956570036
  0
LINE
  5
310
100
AcDbEntity
  8
0
100
AcDbLine
 62
7
  6
CONTINUOUS
 10
9.6895043058
 20
21.2994219388
 11
10.2812502192
 21
21.6114612597
  0
LINE
  5
311
100
AcDbEntity
  8
DRAFT
100
AcDbLine
 62
7
  6
CONTINUOUS
 10
0.5594136659
 20
15.4698105361
 11
7.1873567718
 21
18.9515351367
  0
LINE
  5
312
100
AcDbEntity
  8
DRAFT
100
AcDbLine
 62
7
  6
CONTINUOUS
 10
6.4897394118
 20
19.4940574521
 11
-0.1165830126
 21
16.0314259836
  0
LINE
  5
313
100
AcDbEntity
  8
0
100
AcDbLine
 62
250
  6
CONTINUOUS
 10
0.532469184
 20
15.4845519345
 11
-0.1684667698
 21
15.1329515186
  0
LINE
  5
314
100
AcDbEntity
  8
0
100
AcDbLine
 62
250
  6
CONTINUOUS
 10
-2.1236139799
 20
16.1093133857
 11
-0.5223331891
 21
16.9120353892
  0
LINE
  5
315
100
AcDbEntity
  8
0
100
AcDbLine
 62
7
  6
CONTINUOUS
 10
10.9045123949
 20
21.6358569018
 11
10.409537648
 21
21.3883695284
  0
LINE
  5
316
100
AcDbEntity
  8
RACCORDO
100
AcDbLine
 62
7
  6
CONTINUOUS
 10
12.0612259963
 20
21.1606245986
 11
13.3726612526
 21
21.8163422267
  0
LINE
  5
317
100
AcDbEntity
  8
0
100
AcDbLine
 62
250
  6
CONTINUOUS
 10
-0.5223331891
 20
16.9120353892
 11
0.0059339826
 21
17.1754742092
  0
LWPOLYLINE
  5
318
100
AcDbEntity
  8
SMUSSO
100
AcDbPolyline
 62
7
  6
CONTINUOUS
 90
88
 70
0
 10
14.2315305713
 20
21.2867861347
 10
14.1774277171
 20
21.2612634326
 10
14.1221599452
 20
21.2364064653
 10
14.0657272554
 20
21.2122152326
 10
14.0080979713
 20
21.1886775685
 10
13.9493037694
 20
21.1658056391
 10
13.8894396794
 20
21.1436359432
 10
13.8285044994
 20
21.1221696716
 10
13.7664994313
 20
21.1014056335
 10
13.7035231108
 20
21.0813767548
 10
13.6395719053
 20
21.0620836173
 10
13.5746494475
 20
21.0435256392
 10
13.5088652699
 20
21.0257340015
 10
13.4422198636
 20
21.008710488
 10
13.3747127376
 20
20.9924533149
 10
13.3064519524
 20
20.9769883123
 10
13.2374351931
 20
20.9623164953
 10
13.1676647746
 20
20.9484368488
 10
13.0972557013
 20
20.9353721569
 10
13.0262065516
 20
20.9231237613
 10
12.9545187472
 20
20.9116903204
 10
12.8823115576
 20
20.9010905928
 10
12.8095866034
 20
20.8913262083
 10
12.736342264
 20
20.8823955371
 10
12.6626929478
 20
20.874312449
 10
12.5886330819
 20
20.8670779167
 10
12.5141682392
 20
20.8606909674
 10
12.4394295461
 20
20.8551625521
 10
12.3644240908
 20
20.8504945034
 10
12.2891447851
 20
20.8466849888
 10
12.2137014915
 20
20.8437394616
 10
12.1380841093
 20
20.8416590809
 10
12.0623027392
 20
20.8404426877
 10
11.9864975462
 20
20.8400922583
 10
11.9106804642
 20
20.8406091257
 10
11.8348395593
 20
20.8419919569
 10
11.7590791951
 20
20.8442387299
 10
11.6833869585
 20
20.8473512727
 10
11.6077752626
 20
20.8513277572
 10
11.5323857113
 20
20.8561606767
 10
11.4572303435
 20
20.8618506434
 10
11.3822971202
 20
20.8683970452
 10
11.3076915284
 20
20.8757905388
 10
11.2334040145
 20
20.8840334925
 10
11.159444132
 20
20.8931235381
 10
11.0859460288
 20
20.9030442279
 10
11.0129178518
 20
20.9137959885
 10
10.9403514541
 20
20.9253783934
 10
10.8683565431
 20
20.9377737147
 10
10.7969300933
 20
20.9509838496
 10
10.7260751301
 20
20.9650069008
 10
10.6559104378
 20
20.979819449
 10
10.5864373551
 20
20.9954228943
 10
10.5176545433
 20
21.0118158364
 10
10.4496767697
 20
21.0289706553
 10
10.3825088891
 20
21.0468875143
 10
10.3161460469
 20
21.0655662501
 10
10.2506884466
 20
21.0849787517
 10
10.1861307021
 20
21.1051284623
 10
10.1224781996
 20
21.1260119387
 10
10.0598473012
 20
21.1475907404
 10
9.9982491638
 20
21.1698625195
 10
9.9376726304
 20
21.1928296239
 10
9.8782005919
 20
21.2164606571
 10
9.8198238048
 20
21.2407612841
 10
9.7625515126
 20
21.2657258399
 10
9.7064943364
 20
21.2913059323
 10
9.6516660185
 20
21.3174969966
 10
9.5980528166
 20
21.3443035975
 10
9.5457241251
 20
21.371691038
 10
9.494670915
 20
21.3996661387
 10
9.4449022153
 20
21.4282220789
 10
9.3965145078
 20
21.4573036992
 10
9.3495191684
 20
21.486906355
 10
9.3039048212
 20
21.5170346908
 10
9.2597338203
 20
21.5476474808
 10
9.217001611
 20
21.578750233
 10
9.1757127481
 20
21.6103374393
 10
9.1359432501
 20
21.6423513499
 10
9.0977000361
 20
21.6747892555
 10
9.0609761871
 20
21.7076538654
 10
9.0258269638
 20
21.7408955582
 10
8.9922528067
 20
21.7745167047
 10
8.9602532754
 20
21.8085149342
 10
8.9298823099
 20
21.8428335129
 10
8.9011428012
 20
21.8774730653
 10
8.8740318584
 20
21.912432967
 10
8.8504631489
 20
21.9449969277
  0
LWPOLYLINE
  5
319
100
AcDbEntity
  8
RACCORDO
100
AcDbPolyline
 62
7
  6
CONTINUOUS
 90
10
 70
0
 10
14.2211921192
 20
21.3920795226
 10
14.2325885835
 20
21.3972481778
 10
14.243808986
 20
21.4013000742
 10
14.2548533267
 20
21.4042352117
 10
14.2658165856
 20
21.4060537431
 10
14.2766037828
 20
21.4067555156
 10
14.2869299782
 20
21.4063400712
 10
14.2967001919
 20
21.4048072573
 10
14.306009404
 20
21.4021572266
 10
14.3148576143
 20
21.398389979
  0
LINE
  5
31A
100
AcDbEntity
  8
DRAFT
100
AcDbLine
 62
7
  6
CONTINUOUS
 10
-1.5620109498
 20
-15.0484563529
 11
-0.7698205625
 21
-15.4445515466
  0
LINE
  5
31B
100
AcDbEntity
  8
DRAFT
100
AcDbLine
 62
7
  6
CONTINUOUS
 10
-1.5620109498
 20
-14.139129679
 11
-1.5829933609
 21
-14.1286384734
  0
LWPOLYLINE
  5
31C
100
AcDbEntity
  8
0
100
AcDbPolyline
 62
7
  6
CONTINUOUS
 90
7
 70
0
 10
-15.3721366527
 20
-3.8919297709
 10
-15.389815845
 20
-3.8717916775
 10
-15.4070486879
 20
-3.8507586231
 10
-15.423697361
 20
-3.8289929331
 10
-15.4397548471
 20
-3.8064892281
 10
-15.4552280004
 20
-3.7832528056
 10
-15.4699998156
 20
-3.7594620112
  0
LWPOLYLINE
  5
31D
100
AcDbEntity
  8
DRAFT
100
AcDbPolyline
 62
7
  6
CONTINUOUS
 90
3
 70
0
 10
-11.8176716447
 20
-6.1312670235
 10
-11.8221473919
 20
-6.1246441313
 10
-11.8263099072
 20
-6.1177495523
  0
LWPOLYLINE
  5
31E
100
AcDbEntity
  8
DRAFT
100
AcDbPolyline
 62
7
  6
CONTINUOUS
 90
3
 70
0
 10
-14.4657327125
 20
-1.9985017782
 10
-14.4957629314
 20
-1.9517531582
 10
-14.5285997741
 20
-1.9072022803
  0
LINE
  5
31F
100
AcDbEntity
  8
DRAFT
100
AcDbLine
 62
7
  6
CONTINUOUS
 10
-14.712159627
 20
-1.7301663699
 11
-14.7190469251
 21
-1.7189863673
  0
LINE
  5
320
100
AcDbEntity
  8
DRAFT
100
AcDbLine
 62
7
  6
CONTINUOUS
 10
-13.3773519457
 20
-5.3667989824
 11
-13.384898624
 21
-5.3544885289
  0
LWPOLYLINE
  5
321
100
AcDbEntity
  8
0
100
AcDbPolyline
 62
7
  6
CONTINUOUS
 90
6
 70
0
 10
-15.4699998156
 20
-3.7594620112
 10
-15.4840684094
 20
-3.7351095329
 10
-15.4974354913
 20
-3.7102025952
 10
-15.5099894636
 20
-3.6849413579
 10
-15.5217206882
 20
-3.659324432
 10
-15.5326386356
 20
-3.633353122
  0
LINE
  5
322
100
AcDbEntity
  8
DRAFT
100
AcDbLine
 62
7
  6
CONTINUOUS
 10
-11.8263099072
 20
-6.1177495523
 11
-11.8301462028
 21
-6.1106026045
  0
LWPOLYLINE
  5
323
100
AcDbEntity
  8
DRAFT
100
AcDbPolyline
 62
7
  6
CONTINUOUS
 90
5
 70
0
 10
-14.7190469251
 20
-1.7189863673
 10
-14.7252184611
 20
-1.7068636882
 10
-14.7300735809
 20
-1.6948468825
 10
-14.7339586028
 20
-1.6823703771
 10
-14.7368734708
 20
-1.6694341442
  0
LINE
  5
324
100
AcDbEntity
  8
DRAFT
100
AcDbLine
 62
7
  6
CONTINUOUS
 10
-13.384898624
 20
-5.3544885289
 11
-13.3915143061
 21
-5.341146645
  0
LWPOLYLINE
  5
325
100
AcDbEntity
  8
0
100
AcDbPolyline
 62
7
  6
CONTINUOUS
 90
7
 70
0
 10
-15.2081835033
 20
-1.0116601966
 10
-15.2118246004
 20
-1.0042711669
 10
-15.2158235067
 20
-0.9971170251
 10
-15.2201745955
 20
-0.9901854955
 10
-15.2247836126
 20
-0.9836120923
 10
-15.2296516475
 20
-0.9774082752
 10
-15.234777633
 20
-0.9715625955
  0
LWPOLYLINE
  5
326
100
AcDbEntity
  8
DRAFT
100
AcDbPolyline
 62
7
  6
CONTINUOUS
 90
3
 70
0
 10
-11.8301462028
 20
-6.1106026045
 10
-11.8336692424
 20
-6.1031839577
 10
-11.8368790119
 20
-6.0954936051
  0
LWPOLYLINE
  5
327
100
AcDbEntity
  8
0
100
AcDbPolyline
 62
7
  6
CONTINUOUS
 90
7
 70
0
 10
-11.8368790139
 20
-6.0954936
 10
-11.831980161
 20
-6.1068636422
 10
-11.8263864253
 20
-6.1176130776
 10
-11.8200978506
 20
-6.1277419282
 10
-11.8131144753
 20
-6.1372502137
 10
-11.8054363326
 20
-6.1461379507
 10
-11.7970634503
 20
-6.1544051532
  0
LWPOLYLINE
  5
328
100
AcDbEntity
  8
DRAFT
100
AcDbPolyline
 62
7
  6
CONTINUOUS
 90
5
 70
0
 10
-13.3915143061
 20
-5.341146645
 10
-13.3968328861
 20
-5.3274187913
 10
-13.4005988458
 20
-5.3138624762
 10
-13.4030076438
 20
-5.3000823342
 10
-13.4040592154
 20
-5.2860783327
  0
LWPOLYLINE
  5
329
100
AcDbEntity
  8
DRAFT
100
AcDbPolyline
 62
7
  6
CONTINUOUS
 90
4
 70
0
 10
-11.8368790119
 20
-6.0954936051
 10
-11.9646288438
 20
-5.7636091435
 10
-12.0922426261
 20
-5.4316559076
 10
-12.2197203583
 20
-5.0996340007
  0
LWPOLYLINE
  5
32A
100
AcDbEntity
  8
DRAFT
100
AcDbPolyline
 62
7
  6
CONTINUOUS
 90
4
 70
0
 10
-12.2197203583
 20
-5.0996340007
 10
-12.3470620955
 20
-4.7675434859
 10
-12.4742677821
 20
-4.435384507
 10
-12.6013372531
 20
-4.1031572891
  0
LWPOLYLINE
  5
32B
100
AcDbEntity
  8
DRAFT
100
AcDbPolyline
 62
7
  6
CONTINUOUS
 90
4
 70
0
 10
-12.6013372531
 20
-4.1031572891
 10
-12.7282704532
 20
-3.7708619763
 10
-12.8550674375
 20
-3.4384986316
 10
-12.9817282061
 20
-3.1060673586
  0
LWPOLYLINE
  5
32C
100
AcDbEntity
  8
0
100
AcDbPolyline
 62
7
  6
CONTINUOUS
 90
10
 70
0
 10
-12.981728206
 20
-3.1060673586
 10
-12.8550673221
 20
-3.4384989488
 10
-12.7282702668
 20
-3.7708624768
 10
-12.6013370403
 20
-4.103157846
 10
-12.4742676085
 20
-4.4353849467
 10
-12.3470620057
 20
-4.7675437024
 10
-12.2197203345
 20
-5.0996340627
 10
-12.0922426289
 20
-5.4316559234
 10
-11.9646288553
 20
-5.7636091439
 10
-11.8368790139
 20
-6.0954936
  0
LWPOLYLINE
  5
32D
100
AcDbEntity
  8
DRAFT
100
AcDbPolyline
 62
7
  6
CONTINUOUS
 90
5
 70
0
 10
-14.3763081578
 20
-2.2029113919
 10
-14.3933645677
 20
-2.1506389656
 10
-14.4141966618
 20
-2.0986741556
 10
-14.4385620607
 20
-2.0474894367
 10
-14.4656865029
 20
-1.9985850924
  0
LWPOLYLINE
  5
32E
100
AcDbEntity
  8
0
100
AcDbPolyline
 62
7
  6
CONTINUOUS
 90
6
 70
0
 10
-15.1961110871
 20
-1.0500483884
 10
-15.1976562903
 20
-1.0422932608
 10
-15.1996309668
 20
-1.034588363
 10
-15.2020351266
 20
-1.0269337001
 10
-15.2048945644
 20
-1.0192718266
 10
-15.2081835033
 20
-1.0116601966
  0
LWPOLYLINE
  5
32F
100
AcDbEntity
  8
0
100
AcDbPolyline
 62
7
  6
CONTINUOUS
 90
19
 70
0
 10
-14.7368730907
 20
-1.6694357304
 10
-14.735545352
 20
-1.6761294461
 10
-14.7339306509
 20
-1.6827298886
 10
-14.7320289952
 20
-1.6892370617
 10
-14.7298206435
 20
-1.6956763817
 10
-14.7273253514
 20
-1.7020224394
 10
-14.7246023732
 20
-1.7081990007
 10
-14.7216579213
 20
-1.7141925462
 10
-14.7184857984
 20
-1.7200166029
 10
-14.715126645
 20
-1.7256355069
 10
-14.7115788573
 20
-1.7310532496
 10
-14.7078440519
 20
-1.736265846
 10
-14.7039677003
 20
-1.7412256674
 10
-14.6999494697
 20
-1.7459313431
 10
-14.6957897034
 20
-1.750384249
 10
-14.6915348872
 20
-1.7545408762
 10
-14.6872005188
 20
-1.7583867228
 10
-14.6827711077
 20
-1.7619362943
 10
-14.6782466565
 20
-1.7651895919
  0
LWPOLYLINE
  5
330
100
AcDbEntity
  8
DRAFT
100
AcDbPolyline
 62
7
  6
CONTINUOUS
 90
3
 70
0
 10
-14.3527910796
 20
-2.30979444
 10
-14.3627838835
 20
-2.2559633271
 10
-14.3763081578
 20
-2.2029113919
  0
LWPOLYLINE
  5
331
100
AcDbEntity
  8
0
100
AcDbPolyline
 62
7
  6
CONTINUOUS
 90
25
 70
0
 10
-13.9360314858
 20
-2.4194640417
 10
-13.9449027929
 20
-2.3650122884
 10
-13.9557928017
 20
-2.3103765704
 10
-13.9687017422
 20
-2.2555570027
 10
-13.9836800086
 20
-2.2003828512
 10
-14.0006776296
 20
-2.1450250615
 10
-14.0195443963
 20
-2.089996322
 10
-14.0402870704
 20
-2.0353332623
 10
-14.0628995385
 20
-1.9809995757
 10
-14.0872124578
 20
-1.9273986352
 10
-14.1132419813
 20
-1.8745278458
 10
-14.1409726826
 20
-1.8223901635
 10
-14.1701879702
 20
-1.7713973473
 10
-14.2009017677
 20
-1.7215567725
 10
-14.2331009067
 20
-1.6728614384
 10
-14.2665282405
 20
-1.6257015805
 10
-14.301186698
 20
-1.5800973501
 10
-14.337074063
 20
-1.536028949
 10
-14.3739255087
 20
-1.4938267078
 10
-14.4117758631
 20
-1.4534825004
 10
-14.4505908958
 20
-1.4150047486
 10
-14.4900021935
 20
-1.3787486057
 10
-14.5298871036
 20
-1.3448325311
 10
-14.5703687143
 20
-1.3131382808
 10
-14.6114471878
 20
-1.283665935
  0
LWPOLYLINE
  5
332
100
AcDbEntity
  8
DRAFT
100
AcDbPolyline
 62
7
  6
CONTINUOUS
 90
3
 70
0
 10
-14.7368734708
 20
-1.6694341442
 10
-14.7438956875
 20
-1.6226769289
 10
-14.7491315246
 20
-1.5767858033
  0
LWPOLYLINE
  5
333
100
AcDbEntity
  8
DRAFT
100
AcDbPolyline
 62
7
  6
CONTINUOUS
 90
9
 70
0
 10
-15.1961114454
 20
-1.0500469831
 10
-15.1891175101
 20
-1.0968181494
 10
-15.1839029935
 20
-1.1427197334
 10
-15.1804678901
 20
-1.1877517319
 10
-15.178812242
 20
-1.2319298157
 10
-15.1789359929
 20
-1.2752383061
 10
-15.1808390004
 20
-1.3176301815
 10
-15.1845212258
 20
-1.3590897722
 10
-15.1899827218
 20
-1.399632754
  0
LWPOLYLINE
  5
334
100
AcDbEntity
  8
0
100
AcDbPolyline
 62
7
  6
CONTINUOUS
 90
25
 70
0
 10
-14.3527910824
 20
-2.309794425
 10
-14.3410588226
 20
-2.3950173829
 10
-14.3304905633
 20
-2.4789070465
 10
-14.3210866324
 20
-2.5614635758
 10
-14.3128843981
 20
-2.6426349398
 10
-14.3058471484
 20
-2.7224734906
 10
-14.2998640429
 20
-2.8011359404
 10
-14.2949292256
 20
-2.8786309201
 10
-14.2910490941
 20
-2.9549500649
 10
-14.2881311063
 20
-3.0302245519
 10
-14.2861655606
 20
-3.1044368181
 10
-14.2851626247
 20
-3.1776046556
 10
-14.2850594593
 20
-3.2499122244
 10
-14.285843477
 20
-3.3213676067
 10
-14.2875275913
 20
-3.3919628798
 10
-14.2900870908
 20
-3.4618581341
 10
-14.2935122516
 20
-3.5310569077
 10
-14.2978130014
 20
-3.5995557611
 10
-14.3029939858
 20
-3.6675042581
 10
-14.3090492225
 20
-3.7349090307
 10
-14.3159847733
 20
-3.8017634834
 10
-14.3238232334
 20
-3.8681972797
 10
-14.3325720989
 20
-3.9342536212
 10
-14.342223829
 20
-3.9998892795
 10
-14.3527784078
 20
-4.0651042441
  0
LINE
  5
335
100
AcDbEntity
  8
DRAFT
100
AcDbLine
 62
7
  6
CONTINUOUS
 10
-14.3259750824
 20
-2.5181263658
 11
-14.3527910796
 21
-2.30979444
  0
LWPOLYLINE
  5
336
100
AcDbEntity
  8
DRAFT
100
AcDbPolyline
 62
7
  6
CONTINUOUS
 90
10
 70
0
 10
-13.9360311354
 20
-2.4194657989
 10
-13.906240477
 20
-2.6511986518
 10
-13.8838975071
 20
-2.879343022
 10
-13.8690019518
 20
-3.1038987188
 10
-13.861553555
 20
-3.3250143677
 10
-13.8615519023
 20
-3.5425408994
 10
-13.8689970318
 20
-3.756031855
 10
-13.8838893828
 20
-3.9653385921
 10
-13.9062291858
 20
-4.1706099795
 10
-13.9360167143
 20
-4.3718461003
  0
LWPOLYLINE
  5
337
100
AcDbEntity
  8
0
100
AcDbPolyline
 62
7
  6
CONTINUOUS
 90
7
 70
0
 10
-11.3405398242
 20
-3.0657694294
 10
-11.340720903
 20
-3.0591741862
 10
-11.3412853577
 20
-3.052484718
 10
-11.3422331917
 20
-3.0457010264
 10
-11.3435733445
 20
-3.0387825507
 10
-11.3452968827
 20
-3.0317698546
 10
-11.3473770041
 20
-3.0247846285
  0
LWPOLYLINE
  5
338
100
AcDbEntity
  8
0
100
AcDbPolyline
 62
7
  6
CONTINUOUS
 90
10
 70
0
 10
-12.9797725089
 20
-5.4982250692
 10
-12.9805231017
 20
-5.2326964938
 10
-12.9811403706
 20
-4.9671010746
 10
-12.9816243158
 20
-4.7014389321
 10
-12.9819749374
 20
-4.4357103229
 10
-12.9821922362
 20
-4.1699152273
 10
-12.9822762125
 20
-3.9040533334
 10
-12.9822268663
 20
-3.6381245953
 10
-12.9820441975
 20
-3.3721292391
 10
-12.981728206
 20
-3.1060673586
  0
LWPOLYLINE
  5
339
100
AcDbEntity
  8
DRAFT
100
AcDbPolyline
 62
7
  6
CONTINUOUS
 90
10
 70
0
 10
-12.9797725194
 20
-5.4982216359
 10
-12.980523107
 20
-5.2326944823
 10
-12.9811403726
 20
-4.9671001534
 10
-12.9816243162
 20
-4.7014387494
 10
-12.9819749374
 20
-4.4357103704
 10
-12.9821922362
 20
-4.1699151166
 10
-12.9822762125
 20
-3.9040530882
 10
-12.9822268662
 20
-3.6381243856
 10
-12.9820441974
 20
-3.3721291089
 10
-12.9817282061
 20
-3.1060673586
  0
LWPOLYLINE
  5
33A
100
AcDbEntity
  8
0
100
AcDbPolyline
 62
7
  6
CONTINUOUS
 90
10
 70
0
 10
-11.3405438453
 20
-6.3087329921
 10
-11.3415226925
 20
-5.9488949524
 10
-11.3422567175
 20
-5.5889334469
 10
-11.3427459193
 20
-5.2288487744
 10
-11.3429902973
 20
-4.86864119
 10
-11.342989851
 20
-4.5083109602
 10
-11.3427445803
 20
-4.1478584008
 10
-11.3422544853
 20
-3.7872837805
 10
-11.3415195664
 20
-3.4265873568
 10
-11.3405398242
 20
-3.0657694294
  0
LWPOLYLINE
  5
33B
100
AcDbEntity
  8
DRAFT
100
AcDbPolyline
 62
7
  6
CONTINUOUS
 90
10
 70
0
 10
-11.3405438411
 20
-6.3087343768
 10
-11.3415226907
 20
-5.9488957518
 10
-11.3422567169
 20
-5.5889338424
 10
-11.3427459192
 20
-5.2288488977
 10
-11.3429902973
 20
-4.8686411671
 10
-11.342989851
 20
-4.5083109
 10
-11.3427445803
 20
-4.147858346
 10
-11.3422544853
 20
-3.7872837546
 10
-11.3415195665
 20
-3.4265873756
 10
-11.3405398243
 20
-3.0657694586
  0
LINE
  5
33C
100
AcDbEntity
  8
DRAFT
100
AcDbLine
 62
7
  6
CONTINUOUS
 10
-11.7667462292
 20
-5.2477197036
 11
-11.7670661398
 21
-4.9819758223
  0
LINE
  5
33D
100
AcDbEntity
  8
DRAFT
100
AcDbLine
 62
7
  6
CONTINUOUS
 10
-11.7670661398
 20
-4.9819758223
 11
-11.7672527278
 21
-4.7161650892
  0
LINE
  5
33E
100
AcDbEntity
  8
DRAFT
100
AcDbLine
 62
7
  6
CONTINUOUS
 10
-11.7672527278
 20
-4.7161650892
 11
-11.7673059933
 21
-4.4502876046
  0
LINE
  5
33F
100
AcDbEntity
  8
0
100
AcDbLine
 62
7
  6
CONTINUOUS
 10
-12.8259911818
 20
21.4617137246
 11
-12.8259911818
 21
23.0638643855
  0
LINE
  5
340
100
AcDbEntity
  8
0
100
AcDbLine
 62
250
  6
CONTINUOUS
 10
-12.29772401
 20
23.3273032056
 11
-12.29772401
 21
22.9797716888
  0
LINE
  5
341
100
AcDbEntity
  8
0
100
AcDbLine
 62
7
  6
CONTINUOUS
 10
-12.225526153
 20
23.4151758377
 11
-12.225526153
 21
23.067644321
  0
LINE
  5
342
100
AcDbEntity
  8
0
100
AcDbLine
 62
7
  6
CONTINUOUS
 10
-11.9005816259
 20
21.3164318383
 11
-11.9005816259
 21
19.8702690725
  0
LINE
  5
343
100
AcDbEntity
  8
0
100
AcDbLine
 62
7
  6
CONTINUOUS
 10
-11.2350009241
 20
19.5374787216
 11
-11.2350009241
 21
20.9836414874
  0
LWPOLYLINE
  5
344
100
AcDbEntity
  8
DRAFT
100
AcDbPolyline
 62
7
  6
CONTINUOUS
 90
4
 70
0
 10
-11.7673059933
 20
-4.4502876046
 10
-11.7672259189
 20
-4.1843434774
 10
-11.7670125219
 20
-3.9183327992
 10
-11.766665854
 20
-3.6522556446
  0
LWPOLYLINE
  5
345
100
AcDbEntity
  8
DRAFT
100
AcDbPolyline
 62
7
  6
CONTINUOUS
 90
4
 70
0
 10
-11.766665854
 20
-3.6522556446
 10
-11.7661859323
 20
-3.3861121053
 10
-11.76557274
 20
-3.1199022903
 10
-11.7648262773
 20
-2.8536263
  0
LWPOLYLINE
  5
346
100
AcDbEntity
  8
0
100
AcDbPolyline
 62
7
  6
CONTINUOUS
 90
10
 70
0
 10
-11.7648257978
 20
-2.8536213796
 10
-11.7655724748
 20
-3.1198994512
 10
-11.7661858265
 20
-3.3861108502
 10
-11.7666658536
 20
-3.6522554566
 10
-11.7670125565
 20
-3.9183329508
 10
-11.7672259361
 20
-4.1843434161
 10
-11.7673059933
 20
-4.4502873548
 10
-11.767252728
 20
-4.7161648761
 10
-11.7670661399
 20
-4.9819756901
 10
-11.7667462292
 20
-5.2477197036
  0
LWPOLYLINE
  5
347
100
AcDbEntity
  8
0
100
AcDbPolyline
 62
250
  6
CONTINUOUS
 90
18
 70
0
 10
-12.225526153
 20
23.4151758377
 10
-12.2255797146
 20
23.4125884696
 10
-12.226106142
 20
23.4066661655
 10
-12.2271935543
 20
23.4007629927
 10
-12.2288395089
 20
23.3948922259
 10
-12.2310403062
 20
23.3890670715
 10
-12.233790999
 20
23.3833006306
 10
-12.2370854029
 20
23.3776058741
 10
-12.2409161073
 20
23.3719956152
 10
-12.245274497
 20
23.3664824735
 10
-12.2501507706
 20
23.3610788485
 10
-12.25553396
 20
23.3557968957
 10
-12.2614119612
 20
23.350648493
 10
-12.2677715514
 20
23.3456452231
 10
-12.2745984142
 20
23.3407983483
 10
-12.2818771883
 20
23.3361187722
 10
-12.2895915044
 20
23.3316170165
 10
-12.29772401
 20
23.3273032056
  0
LWPOLYLINE
  5
348
100
AcDbEntity
  8
0
100
AcDbPolyline
 62
250
  6
CONTINUOUS
 90
18
 70
0
 10
-12.2255261539
 20
23.0676336181
 10
-12.2255805759
 20
23.0650362336
 10
-12.2261089289
 20
23.0591142516
 10
-12.227198201
 20
23.0532114745
 10
-12.228845939
 20
23.0473411685
 10
-12.2310484392
 20
23.0415165224
 10
-12.2338007708
 20
23.0357505928
 10
-12.2370967298
 20
23.0300563903
 10
-12.2409288212
 20
23.0244468329
 10
-12.2452883332
 20
23.0189346034
 10
-12.2501654789
 20
23.0135320151
 10
-12.2555493742
 20
23.0082511042
 10
-12.2614284092
 20
23.0031033338
 10
-12.2677889461
 20
22.9981007144
 10
-12.2746151058
 20
22.9932555599
 10
-12.2818906782
 20
22.9885789953
 10
-12.2895995118
 20
22.9840810454
 10
-12.29772401
 20
22.9797716888
  0
LWPOLYLINE
  5
349
100
AcDbEntity
  8
0
100
AcDbPolyline
 62
7
  6
CONTINUOUS
 90
31
 70
0
 10
-10.5278941429
 20
21.1700329321
 10
-10.527697413
 20
21.1792031663
 10
-10.5271213232
 20
21.1884897437
 10
-10.5261658734
 20
21.1978926642
 10
-10.5248264152
 20
21.2074380673
 10
-10.523107597
 20
21.2170998135
 10
-10.5210233645
 20
21.2267994849
 10
-10.5185707198
 20
21.2365374636
 10
-10.5157526607
 20
21.2463133675
 10
-10.5125921263
 20
21.2560476325
 10
-10.5090863766
 20
21.2657397963
 10
-10.5052381515
 20
21.2753903212
 10
-10.5010786105
 20
21.2849210301
 10
-10.4966051613
 20
21.2943310821
 10
-10.4918203962
 20
21.3036213181
 10
-10.4867632514
 20
21.3127160835
 10
-10.4814314892
 20
21.3216137724
 10
-10.4758273472
 20
21.3303159905
 10
-10.4699964742
 20
21.3387519007
 10
-10.4639371106
 20
21.3469192203
 10
-10.457651016
 20
21.354820232
 10
-10.451189119
 20
21.3623909456
 10
-10.4445499075
 20
21.3696287719
 10
-10.4377348935
 20
21.3765363001
 10
-10.4307995416
 20
21.3830573077
 10
-10.4237429226
 20
21.3891885945
 10
-10.4165659656
 20
21.3949333607
 10
-10.4093269235
 20
21.4002449849
 10
-10.4020452136
 20
21.4051079266
 10
-10.3947014185
 20
21.4095377263
 10
-10.3872955381
 20
21.4135343841
  0
LWPOLYLINE
  5
34A
100
AcDbEntity
  8
DRAFT
100
AcDbPolyline
 62
7
  6
CONTINUOUS
 90
8
 70
0
 10
-12.9797725194
 20
-5.4982216359
 10
-12.980739901
 20
-5.5112141436
 10
-12.9830695757
 20
-5.5226236902
 10
-12.9867616082
 20
-5.5324503084
 10
-12.9919279318
 20
-5.5408103198
 10
-12.9984567217
 20
-5.5475874576
 10
-13.0060124275
 20
-5.5524328827
 10
-13.0101376852
 20
-5.554079083
  0
LWPOLYLINE
  5
34B
100
AcDbEntity
  8
DRAFT
100
AcDbPolyline
 62
7
  6
CONTINUOUS
 90
4
 70
0
 10
-11.7648262773
 20
-2.8536263
 10
-11.7637755694
 20
-2.840592336
 10
-11.7613675371
 20
-2.8291437473
 10
-11.7576238738
 20
-2.8193372232
  0
LWPOLYLINE
  5
34C
100
AcDbEntity
  8
0
100
AcDbPolyline
 62
7
  6
CONTINUOUS
 90
6
 70
0
 10
-13.9360173771
 20
-4.3718506388
 10
-13.9239963485
 20
-4.2975064667
 10
-13.9130168628
 20
-4.2224410297
 10
-13.9030788341
 20
-4.1466542881
 10
-13.8941789616
 20
-4.0701257186
 10
-13.8863203666
 20
-3.9928757611
  0
LWPOLYLINE
  5
34D
100
AcDbEntity
  8
DRAFT
100
AcDbPolyline
 62
7
  6
CONTINUOUS
 90
11
 70
0
 10
-13.9360167143
 20
-4.3718461003
 10
-13.9516508185
 20
-4.4446882565
 10
-13.9721504702
 20
-4.5120951773
 10
-13.9975169885
 20
-4.5740675238
 10
-14.0279676006
 20
-4.6308872108
 10
-14.0632874636
 20
-4.6822735195
 10
-14.1028301719
 20
-4.7273833542
 10
-14.1467125857
 20
-4.7661598927
 10
-14.1948208135
 20
-4.7986614507
 10
-14.2461630066
 20
-4.8242179841
 10
-14.2715085286
 20
-4.8338046811
  0
LWPOLYLINE
  5
34E
100
AcDbEntity
  8
0
100
AcDbPolyline
 62
7
  6
CONTINUOUS
 90
3
 70
0
 10
-13.955781324
 20
-4.4608130862
 10
-13.9448882383
 20
-4.4172506479
 10
-13.9360173771
 20
-4.3718506388
  0
LINE
  5
34F
100
AcDbEntity
  8
DRAFT
100
AcDbLine
 62
7
  6
CONTINUOUS
 10
-13.4009033511
 20
-2.0194712718
 11
-13.397384814
 21
-2.0098203784
  0
LWPOLYLINE
  5
350
100
AcDbEntity
  8
0
100
AcDbPolyline
 62
7
  6
CONTINUOUS
 90
25
 70
0
 10
-4.5528418419
 20
17.7859122466
 10
-4.5472638517
 20
17.7979391153
 10
-4.5421567556
 20
17.8104036551
 10
-4.5375205539
 20
17.8233058659
 10
-4.5333500935
 20
17.8366651726
 10
-4.5296505274
 20
17.8504621504
 10
-4.5264373139
 20
17.8646385245
 10
-4.5237124888
 20
17.8791958741
 10
-4.5214740163
 20
17.89413262
 10
-4.5197312465
 20
17.9093857506
 10
-4.5184862528
 20
17.9249565846
 10
-4.5177369619
 20
17.9408438033
 10
-4.5174865028
 20
17.9569804379
 10
-4.5177369619
 20
17.9733675316
 10
-4.5184862528
 20
17.9900040412
 10
-4.5197312465
 20
18.0068198689
 10
-4.5214740163
 20
18.0238157693
 10
-4.5237124888
 20
18.0409909878
 10
-4.5264373139
 20
18.0582731624
 10
-4.5296505274
 20
18.0756627501
 10
-4.5333500935
 20
18.093159294
 10
-4.5375205539
 20
18.1106890611
 10
-4.5421567556
 20
18.1282274736
 10
-4.5472638517
 20
18.1457991094
 10
-4.5528418419
 20
18.1634039683
  0
LWPOLYLINE
  5
351
100
AcDbEntity
  8
0
100
AcDbPolyline
 62
7
  6
CONTINUOUS
 90
7
 70
0
 10
-15.5424195716
 20
-1.5768480907
 10
-15.5323355633
 20
-1.5606367161
 10
-15.5213488115
 20
-1.5454796044
 10
-15.5095432381
 20
-1.531501752
 10
-15.4969119059
 20
-1.5187157815
 10
-15.4834619219
 20
-1.5071091547
 10
-15.4692983029
 20
-1.49676914
  0
LINE
  5
352
100
AcDbEntity
  8
DRAFT
100
AcDbLine
 62
7
  6
CONTINUOUS
 10
-15.9063217784
 20
-1.1280021749
 11
-15.8706582303
 21
-1.0764440923
  0
LWPOLYLINE
  5
353
100
AcDbEntity
  8
0
100
AcDbPolyline
 62
7
  6
CONTINUOUS
 90
31
 70
0
 10
0.7196053152
 20
20.3894461946
 10
0.7279181147
 20
20.4001394992
 10
0.7356974413
 20
20.4114544221
 10
0.7429432949
 20
20.4233909633
 10
0.7496662852
 20
20.4359717536
 10
0.7558558025
 20
20.4491741622
 10
0.7614800177
 20
20.462930296
 10
0.7665360187
 20
20.4772430073
 10
0.7710267176
 20
20.4921094438
 10
0.7749290213
 20
20.5074531553
 10
0.7782398987
 20
20.5232766004
 10
0.780962381
 20
20.5395773206
 10
0.7830824679
 20
20.5562714899
 10
0.7845970563
 20
20.5733611352
 10
0.7855092493
 20
20.5908442297
 10
0.7858143561
 20
20.6086308674
 10
0.7855092493
 20
20.6267226118
 10
0.7845970563
 20
20.6451178993
 10
0.7830824679
 20
20.6637221331
 10
0.780962381
 20
20.6825363893
 10
0.7782398987
 20
20.7015595917
 10
0.7749290213
 20
20.7206939143
 10
0.7710267176
 20
20.7399399295
 10
0.7665360187
 20
20.7592970649
 10
0.7614800177
 20
20.7786657772
 10
0.7558558025
 20
20.7980461261
 10
0.7496662852
 20
20.817438052
 10
0.7429432949
 20
20.8367418327
 10
0.7356974413
 20
20.8559242274
 10
0.7279181147
 20
20.8750184769
 10
0.7196053152
 20
20.8940245811
  0
LWPOLYLINE
  5
354
100
AcDbEntity
  8
0
100
AcDbPolyline
 62
7
  6
CONTINUOUS
 90
41
 70
0
 10
-1.4123933718
 20
15.6208359287
 10
-1.4181320551
 20
15.6141231562
 10
-1.4240577748
 20
15.6074819245
 10
-1.4301692564
 20
15.6009206681
 10
-1.4364678327
 20
15.5944487553
 10
-1.442948888
 20
15.5880738297
 10
-1.4496019156
 20
15.5818018465
 10
-1.4564248002
 20
15.5756415286
 10
-1.4634150025
 20
15.5696014355
 10
-1.4705611192
 20
15.5636874048
 10
-1.4778603035
 20
15.5579082376
 10
-1.4853093213
 20
15.5522725505
 10
-1.4928959298
 20
15.546786033
 10
-1.5006165252
 20
15.5414574995
 10
-1.5084671607
 20
15.5362955539
 10
-1.5164348205
 20
15.5313057054
 10
-1.5245151449
 20
15.5264966985
 10
-1.5327034318
 20
15.5218770706
 10
-1.5409858859
 20
15.5174521639
 10
-1.5493573639
 20
15.5132305781
 10
-1.557812387
 20
15.5092207025
 10
-1.5663363738
 20
15.5054277086
 10
-1.5749233738
 20
15.5018599606
 10
-1.5835671033
 20
15.4985256095
 10
-1.5922521715
 20
15.4954296398
 10
-1.6009717939
 20
15.4925800743
 10
-1.6097188582
 20
15.4899847149
 10
-1.61847714
 20
15.4876483166
 10
-1.6272389913
 20
15.4855784333
 10
-1.6359964583
 20
15.483782382
 10
-1.6447324809
 20
15.4822646042
 10
-1.6534385196
 20
15.4810320319
 10
-1.6621057846
 20
15.4800913313
 10
-1.6707164344
 20
15.4794464954
 10
-1.6792609884
 20
15.4791036535
 10
-1.6877298833
 20
15.4790686218
 10
-1.6961047287
 20
15.4793447642
 10
-1.7043751321
 20
15.4799372031
 10
-1.712530788
 20
15.4808507039
 10
-1.7205530087
 20
15.4820878136
 10
-1.7262612051
 20
15.4831855308
  0
LINE
  5
355
100
AcDbEntity
  8
DRAFT
100
AcDbLine
 62
7
  6
CONTINUOUS
 10
-15.8706582303
 20
-1.0764440923
 11
-15.8307760874
 21
-1.0311646073
  0
LWPOLYLINE
  5
356
100
AcDbEntity
  8
RACCORDO
100
AcDbPolyline
 62
250
  6
CONTINUOUS
 90
19
 70
0
 10
-4.4659230878
 20
11.9613097851
 10
-4.4934918617
 20
11.9452328782
 10
-4.520538632
 20
11.9269922568
 10
-4.5470633989
 20
11.9065879208
 10
-4.5732314689
 20
11.883868217
 10
-4.5988775354
 20
11.8589847986
 10
-4.6235056782
 20
11.8323926251
 10
-4.6470833074
 20
11.8040665194
 10
-4.6696430129
 20
11.7740316587
 10
-4.6907866439
 20
11.7428185345
 10
-4.7104850957
 20
11.710410727
 10
-4.7287674729
 20
11.6768246561
 10
-4.7453229393
 20
11.6426400732
 10
-4.7601244448
 20
11.6078270583
 10
-4.7731990394
 20
11.5724155314
 10
-4.7843170367
 20
11.5370750038
 10
-4.7934018745
 20
11.502028646
 10
-4.8005301151
 20
11.4670532875
 10
-4.8057017584
 20
11.4321489283
  0
LINE
  5
357
100
AcDbEntity
  8
0
100
AcDbLine
 62
250
  6
CONTINUOUS
 10
0.184172897
 20
14.5234379811
 11
-0.8950176016
 21
13.9342761668
  0
LWPOLYLINE
  5
358
100
AcDbEntity
  8
RACCORDO
100
AcDbPolyline
 62
7
  6
CONTINUOUS
 90
13
 70
0
 10
-2.7731160079
 20
13.1096099214
 10
-2.7779020234
 20
13.1070381153
 10
-2.8119706547
 20
13.0861034732
 10
-2.843990338
 20
13.0615966473
 10
-2.8735960313
 20
13.0337115761
 10
-2.9004405845
 20
13.0027269992
 10
-2.9244732559
 20
12.9685736348
 10
-2.9453970067
 20
12.9314079137
 10
-2.9628790131
 20
12.8915714436
 10
-2.9767751943
 20
12.8490839275
 10
-2.9868550945
 20
12.8040266909
 10
-2.9928531393
 20
12.7567047454
 10
-2.9945830369
 20
12.7131963148
  0
LINE
  5
359
100
AcDbEntity
  8
RACCORDO
100
AcDbLine
 62
250
  6
CONTINUOUS
 10
-3.2519263159
 20
12.6132631489
 11
-4.4659230878
 21
11.9613097851
  0
LINE
  5
35A
100
AcDbEntity
  8
RACCORDO
100
AcDbLine
 62
7
  6
CONTINUOUS
 10
-2.6993408204
 20
13.1485681928
 11
-2.7730653004
 21
13.1096367003
  0
LINE
  5
35B
100
AcDbEntity
  8
RACCORDO
100
AcDbLine
 62
250
  6
CONTINUOUS
 10
18.9196200366
 20
22.0197688415
 11
1.5383900694
 21
13.1770196482
  0
LINE
  5
35C
100
AcDbEntity
  8
0
100
AcDbLine
 62
250
  6
CONTINUOUS
 10
0.8860180872
 20
14.8747794367
 11
0.1850821334
 21
14.5231790208
  0
LINE
  5
35D
100
AcDbEntity
  8
RACCORDO
100
AcDbLine
 62
7
  6
CONTINUOUS
 10
13.4672319147
 20
21.0150994203
 11
14.221162969
 21
21.3920649475
  0
LINE
  5
35E
100
AcDbEntity
  8
DRAFT
100
AcDbLine
 62
7
  6
CONTINUOUS
 10
-3.2519263159
 20
10.8357034487
 11
-2.9945837455
 21
10.9643747339
  0
LINE
  5
35F
100
AcDbEntity
  8
RACCORDO
100
AcDbLine
 62
250
  6
CONTINUOUS
 10
18.8127181969
 20
22.2041472412
 11
18.8500208951
 21
22.2225246221
  0
LINE
  5
360
100
AcDbEntity
  8
RACCORDO
100
AcDbLine
 62
250
  6
CONTINUOUS
 10
18.9196200366
 20
22.0197688415
 11
18.9568986685
 21
22.0381344799
  0
LINE
  5
361
100
AcDbEntity
  8
DRAFT
100
AcDbLine
 62
7
  6
CONTINUOUS
 10
-2.9945837455
 20
11.0239122105
 11
-3.2519263159
 21
10.8979914507
  0
LINE
  5
362
100
AcDbEntity
  8
RACCORDO
100
AcDbLine
 62
250
  6
CONTINUOUS
 10
7.9328837075
 20
17.6656913779
 11
18.3127943494
 21
22.7077235005
  0
LINE
  5
363
100
AcDbEntity
  8
RACCORDO
100
AcDbLine
 62
250
  6
CONTINUOUS
 10
8.2705520414
 20
17.0832996509
 11
18.8127181969
 21
22.2041472412
  0
LINE
  5
364
100
AcDbEntity
  8
RACCORDO
100
AcDbLine
 62
250
  6
CONTINUOUS
 10
-2.0648294393
 20
12.4689893792
 11
-2.1405412137
 21
12.4324323738
  0
LWPOLYLINE
  5
365
100
AcDbEntity
  8
RACCORDO
100
AcDbPolyline
 62
250
  6
CONTINUOUS
 90
31
 70
0
 10
18.8500208951
 20
22.2225246221
 10
18.885689343
 20
22.2397515705
 10
18.9028773744
 20
22.2479174836
 10
18.9196174829
 20
22.2557768615
 10
18.9358972348
 20
22.2633238661
 10
18.951704504
 20
22.270552875
 10
18.9670275034
 20
22.2774584976
 10
18.9818548286
 20
22.2840355943
 10
18.996175465
 20
22.2902792794
 10
19.0099787655
 20
22.2961849108
 10
19.0232544669
 20
22.3017480974
 10
19.0359926961
 20
22.3069647019
 10
19.0481839791
 20
22.3118308443
 10
19.05981925
 20
22.3163429061
 10
19.0708898574
 20
22.3204975323
 10
19.0813875693
 20
22.3242916335
 10
19.0913045794
 20
22.3277223885
 10
19.1006335136
 20
22.3307872461
 10
19.1093674348
 20
22.3334839273
 10
19.1174998485
 20
22.3358104269
 10
19.1250247075
 20
22.3377650148
 10
19.1319364163
 20
22.3393462377
 10
19.1382298353
 20
22.3405529198
 10
19.1439002848
 20
22.3413841637
 10
19.1489435482
 20
22.3418393513
 10
19.1533558754
 20
22.3419181443
 10
19.1571339853
 20
22.3416204839
 10
19.1602750685
 20
22.3409465916
 10
19.1627767895
 20
22.3398969684
 10
19.1646372877
 20
22.3384723948
 10
19.1655614457
 20
22.3372455987
  0
LWPOLYLINE
  5
366
100
AcDbEntity
  8
RACCORDO
100
AcDbPolyline
 62
250
  6
CONTINUOUS
 90
31
 70
0
 10
18.9568986685
 20
22.0381344799
 10
18.9925452284
 20
22.0553512142
 10
19.0097232002
 20
22.0635126263
 10
19.0264538504
 20
22.0713679131
 10
19.0427247547
 20
22.0789112412
 10
19.0585238304
 20
22.0861370089
 10
19.0738393448
 20
22.0930398503
 10
19.0886599247
 20
22.0996146393
 10
19.1029745641
 20
22.1058564935
 10
19.1167726329
 20
22.1117607777
 10
19.1300438847
 20
22.1173231071
 10
19.1427784641
 20
22.1225393514
 10
19.1549669144
 20
22.1274056367
 10
19.1666001842
 20
22.1319183495
 10
19.1776696348
 20
22.1360741385
 10
19.1881670459
 20
22.1398699177
 10
19.1980846219
 20
22.1433028682
 10
19.2074149982
 20
22.1463704407
 10
19.2161512459
 20
22.1490703573
 10
19.2242868774
 20
22.1514006129
 10
19.2318158511
 20
22.1533594772
 10
19.238732576
 20
22.1549454954
 10
19.2450319158
 20
22.1561574897
 10
19.2507091923
 20
22.1569945602
 10
19.2557601898
 20
22.1574560851
 10
19.2601811573
 20
22.1575417219
 10
19.2639688118
 20
22.1572514068
 10
19.2671203404
 20
22.1565853555
 10
19.269633403
 20
22.1555440626
 10
19.2715061332
 20
22.1541283013
 10
19.2724632705
 20
22.1528672247
  0
LINE
  5
367
100
AcDbEntity
  8
RACCORDO
100
AcDbLine
 62
7
  6
CONTINUOUS
 10
17.7687178195
 20
22.9797617655
 11
14.2315305713
 21
21.2867861347
  0
LWPOLYLINE
  5
368
100
AcDbEntity
  8
RACCORDO
100
AcDbPolyline
 62
250
  6
CONTINUOUS
 90
26
 70
0
 10
18.3127943494
 20
22.7077235005
 10
18.3320542616
 20
22.7166201116
 10
18.351290707
 20
22.7248625166
 10
18.3704894005
 20
22.7324445946
 10
18.3896360851
 20
22.7393607153
 10
18.4087165423
 20
22.7456057425
 10
18.4277166029
 20
22.7511750387
 10
18.4466221572
 20
22.7560644682
 10
18.4654191661
 20
22.7602704
 10
18.4840936706
 20
22.7637897108
 10
18.502631803
 20
22.766619787
 10
18.5210197969
 20
22.7687585272
 10
18.539243997
 20
22.770204343
 10
18.5572908701
 20
22.7709561607
 10
18.5751470145
 20
22.7710134221
 10
18.5927991701
 20
22.7703760847
 10
18.6102342283
 20
22.7690446217
 10
18.6274392417
 20
22.7670200218
 10
18.6444014338
 20
22.7643037886
 10
18.6611082083
 20
22.7608979392
 10
18.6775471588
 20
22.7568050027
 10
18.6937060776
 20
22.7520280186
 10
18.7095729649
 20
22.7465705344
 10
18.725136038
 20
22.7404366026
 10
18.7403837396
 20
22.7336307786
 10
18.7476672299
 20
22.7300868301
  0
LWPOLYLINE
  5
369
100
AcDbEntity
  8
RACCORDO
100
AcDbPolyline
 62
7
  6
CONTINUOUS
 90
23
 70
0
 10
-2.6994879095
 20
13.1484904667
 10
-2.67814908
 20
13.1582580325
 10
-2.6443956752
 20
13.1681766789
 10
-2.6081896956
 20
13.1726988284
 10
-2.5706411891
 20
13.1716699186
 10
-2.531672663
 20
13.1649101253
 10
-2.49136161
 20
13.1525992726
 10
-2.4510505571
 20
13.1351222714
 10
-2.4107395041
 20
13.1122882197
 10
-2.3704284512
 20
13.0842880194
 10
-2.331459925
 20
13.0520792866
 10
-2.2939114186
 20
13.0155596899
 10
-2.2577054389
 20
12.9748315608
 10
-2.2239520341
 20
12.9311595096
 10
-2.1927039532
 20
12.8844193663
 10
-2.163908447
 20
12.8347353009
 10
-2.1385173168
 20
12.783744434
 10
-2.1166528886
 20
12.7314236303
 10
-2.0981928363
 20
12.6777960251
 10
-2.083721983
 20
12.6245681448
 10
-2.0734352695
 20
12.5723088314
 10
-2.0671377549
 20
12.5204492429
 10
-2.0648294393
 20
12.4689893792
  0
LWPOLYLINE
  5
36A
100
AcDbEntity
  8
RACCORDO
100
AcDbPolyline
 62
250
  6
CONTINUOUS
 90
26
 70
0
 10
-2.7729141008
 20
13.1097165465
 10
-2.7492961264
 20
13.120328511
 10
-2.7176282602
 20
13.1294558091
 10
-2.683190277
 20
13.1337845126
 10
-2.6465665436
 20
13.1329198957
 10
-2.6080139458
 20
13.1266266457
 10
-2.567955248
 20
13.114684798
 10
-2.5273951015
 20
13.0972676199
 10
-2.4867899588
 20
13.0745942112
 10
-2.4465980308
 20
13.04688946
 10
-2.4078334544
 20
13.0149420463
 10
-2.3709165042
 20
12.9793723333
 10
-2.33612538
 20
12.9406806287
 10
-2.3040949745
 20
12.8998691781
 10
-2.2750464757
 20
12.8577016895
 10
-2.2489771322
 20
12.8146445971
 10
-2.2259998164
 20
12.7713472356
 10
-2.2060828522
 20
12.7283294523
 10
-2.1891228277
 20
12.6859810454
 10
-2.1750228614
 20
12.6446929773
 10
-2.163629572
 20
12.6047782007
 10
-2.1547574352
 20
12.5664715292
 10
-2.1482197966
 20
12.5299649903
 10
-2.1438136912
 20
12.4953991091
 10
-2.1413242175
 20
12.4628688569
 10
-2.1405415564
 20
12.4324325513
  0
LWPOLYLINE
  5
36B
100
AcDbEntity
  8
RACCORDO
100
AcDbPolyline
 62
250
  6
CONTINUOUS
 90
13
 70
0
 10
-2.1405412137
 20
12.4324323738
 10
-2.170141329
 20
12.4198847125
 10
-2.2027332055
 20
12.4093524807
 10
-2.2377714936
 20
12.401011911
 10
-2.2746699085
 20
12.3950025635
 10
-2.3128110403
 20
12.3914249909
 10
-2.3515566855
 20
12.3903390554
 10
-2.3902585252
 20
12.3917629279
 10
-2.4282689735
 20
12.3956727829
 10
-2.4649520134
 20
12.4020031981
 10
-2.4996938389
 20
12.4106482488
 10
-2.531913126
 20
12.4214632798
 10
-2.5610707592
 20
12.4342673267
  0
LWPOLYLINE
  5
36C
100
AcDbEntity
  8
DRAFT
100
AcDbPolyline
 62
7
  6
CONTINUOUS
 90
4
 70
0
 10
-15.0838404071
 20
-4.6206679435
 10
-15.1625962176
 20
-4.5748972342
 10
-15.2413240766
 20
-4.5259439807
 10
-15.3200238094
 20
-4.4738080949
  0
LWPOLYLINE
  5
36D
100
AcDbEntity
  8
DRAFT
100
AcDbPolyline
 62
7
  6
CONTINUOUS
 90
4
 70
0
 10
-13.2440229912
 20
-5.4694797882
 10
-13.2789577369
 20
-5.447744047
 10
-13.313881147
 20
-5.4238797377
 10
-13.3487931436
 20
-5.3978868209
  0
LWPOLYLINE
  5
36E
100
AcDbEntity
  8
DRAFT
100
AcDbPolyline
 62
7
  6
CONTINUOUS
 90
10
 70
0
 10
-15.258368733
 20
-3.9922489204
 10
-15.1936946824
 20
-4.0351043655
 10
-15.1289982725
 20
-4.0753412557
 10
-15.064279621
 20
-4.1129596505
 10
-14.9995198119
 20
-4.147969092
 10
-14.9347378792
 20
-4.1803600974
 10
-14.8699908075
 20
-4.2101041585
 10
-14.8052975521
 20
-4.2371917529
 10
-14.7406390397
 20
-4.2616323437
 10
-14.6760151524
 20
-4.2834258714
  0
LWPOLYLINE
  5
36F
100
AcDbEntity
  8
0
100
AcDbPolyline
 62
7
  6
CONTINUOUS
 90
10
 70
0
 10
-15.3200214408
 20
-4.4738095678
 10
-15.2415051454
 20
-4.5258484094
 10
-15.1628585678
 20
-4.5747560539
 10
-15.0840818825
 20
-4.6205325896
 10
-15.0050743073
 20
-4.6632272477
 10
-14.9259367988
 20
-4.702790885
 10
-14.8469720522
 20
-4.739075984
 10
-14.7682809079
 20
-4.7720333425
 10
-14.6897623512
 20
-4.8017120745
 10
-14.6114162079
 20
-4.8281120919
  0
LWPOLYLINE
  5
370
100
AcDbEntity
  8
DRAFT
100
AcDbPolyline
 62
7
  6
CONTINUOUS
 90
4
 70
0
 10
-11.6626182033
 20
-6.2568992507
 10
-11.7075383294
 20
-6.22625823
 10
-11.75235393
 20
-6.1920932365
 10
-11.7970647659
 20
-6.1544041493
  0
LWPOLYLINE
  5
371
100
AcDbEntity
  8
0
100
AcDbPolyline
 62
7
  6
CONTINUOUS
 90
7
 70
0
 10
-15.2583667852
 20
-3.9922501319
 10
-15.2780548525
 20
-3.9781535432
 10
-15.2974524081
 20
-3.9630075949
 10
-15.3165594151
 20
-3.9468122682
 10
-15.3354276638
 20
-3.9295160187
 10
-15.3540052646
 20
-3.9111703409
 10
-15.3721366527
 20
-3.8919297709
  0
LWPOLYLINE
  5
372
100
AcDbEntity
  8
DRAFT
100
AcDbPolyline
 62
7
  6
CONTINUOUS
 90
15
 70
0
 10
-15.3200238094
 20
-4.4738080949
 10
-15.3866601466
 20
-4.4245689333
 10
-15.4510730184
 20
-4.3703758774
 10
-15.5132616656
 20
-4.3112285436
 10
-15.5735532018
 20
-4.246713905
 10
-15.6316183282
 20
-4.1772438858
 10
-15.6864715234
 20
-4.104055458
 10
-15.738116581
 20
-4.0270047018
 10
-15.7865467444
 20
-3.9462340433
 10
-15.8307609709
 20
-3.8634101278
 10
-15.8706423621
 20
-3.7785906777
 10
-15.9063048486
 20
-3.6917164773
 10
-15.9370943148
 20
-3.6042791096
 10
-15.962792096
 20
-3.5167754552
 10
-15.9836144717
 20
-3.428707437
  0
LWPOLYLINE
  5
373
100
AcDbEntity
  8
0
100
AcDbPolyline
 62
7
  6
CONTINUOUS
 90
10
 70
0
 10
-13.3487915755
 20
-5.3978878935
 10
-13.314306243
 20
-5.4236325297
 10
-13.2796264357
 20
-5.4473529228
 10
-13.2447522307
 20
-5.4690491118
 10
-13.2095695925
 20
-5.4887836469
 10
-13.1741926339
 20
-5.5064940168
 10
-13.1389636158
 20
-5.5219926493
 10
-13.1039965993
 20
-5.5352170072
 10
-13.0691774457
 20
-5.5462295884
 10
-13.034506077
 20
-5.5550303535
  0
LWPOLYLINE
  5
374
100
AcDbEntity
  8
0
100
AcDbPolyline
 62
7
  6
CONTINUOUS
 90
10
 70
0
 10
-11.7970634503
 20
-6.1544051532
 10
-11.7531110864
 20
-6.1916213375
 10
-11.708718437
 20
-6.2255156291
 10
-11.6638857382
 20
-6.2560881471
 10
-11.6183776612
 20
-6.2834723782
 10
-11.5724297921
 20
-6.3075349659
 10
-11.5267486325
 20
-6.3278757106
 10
-11.4815696243
 20
-6.3443611829
 10
-11.4366571495
 20
-6.3571247232
 10
-11.3920110101
 20
-6.3661662314
  0
LWPOLYLINE
  5
375
100
AcDbEntity
  8
DRAFT
100
AcDbPolyline
 62
7
  6
CONTINUOUS
 90
4
 70
0
 10
-13.3487931436
 20
-5.3978868209
 10
-13.3593438937
 20
-5.3884155793
 10
-13.3688770652
 20
-5.3780350019
 10
-13.3773519457
 20
-5.3667989824
  0
LINE
  5
376
100
AcDbEntity
  8
DRAFT
100
AcDbLine
 62
7
  6
CONTINUOUS
 10
-11.7970647659
 20
-6.1544041493
 11
-11.802624646
 21
-6.1491191603
  0
LWPOLYLINE
  5
377
100
AcDbEntity
  8
0
100
AcDbPolyline
 62
7
  6
CONTINUOUS
 90
8
 70
0
 10
-15.234777633
 20
-0.9715625955
 10
-15.2400640805
 20
-0.966176205
 10
-15.2455154262
 20
-0.9612549403
 10
-15.2511272491
 20
-0.9567929721
 10
-15.2567887729
 20
-0.9528739534
 10
-15.2624630743
 20
-0.9495257692
 10
-15.2681870817
 20
-0.946720537
 10
-15.2739607951
 20
-0.9444582567
  0
LWPOLYLINE
  5
378
100
AcDbEntity
  8
DRAFT
100
AcDbPolyline
 62
7
  6
CONTINUOUS
 90
4
 70
0
 10
-11.802624646
 20
-6.1491191603
 10
-11.8079102619
 20
-6.1435045331
 10
-11.8129216057
 20
-6.1375602636
 10
-11.8176716447
 20
-6.1312670235
  0
LWPOLYLINE
  5
379
100
AcDbEntity
  8
DRAFT
100
AcDbPolyline
 62
7
  6
CONTINUOUS
 90
5
 70
0
 10
-14.5285997741
 20
-1.9072022803
 10
-14.5633545568
 20
-1.8661413283
 10
-14.5997314646
 20
-1.8290012354
 10
-14.6380274035
 20
-1.7953516104
 10
-14.6782427368
 20
-1.7651926337
  0
LINE
  5
37A
100
AcDbEntity
  8
DRAFT
100
AcDbLine
 62
7
  6
CONTINUOUS
 10
-14.7045757628
 20
-1.7404476468
 11
-14.712159627
 21
-1.7301663699
  0
LWPOLYLINE
  5
37B
100
AcDbEntity
  8
0
100
AcDbPolyline
 62
7
  6
CONTINUOUS
 90
3
 70
0
 10
-12.9241910742
 20
-2.2239494514
 10
-12.9311358256
 20
-2.2144225236
 10
-12.9387195365
 20
-2.2055912675
  0
LWPOLYLINE
  5
37C
100
AcDbEntity
  8
0
100
AcDbPolyline
 62
7
  6
CONTINUOUS
 90
8
 70
0
 10
-11.3629089908
 20
-2.9909626203
 10
-11.3669037311
 20
-2.9847126576
 10
-11.3711509431
 20
-2.9787250323
 10
-11.3756467869
 20
-2.9729935376
 10
-11.3803149385
 20
-2.9676149591
 10
-11.3851299618
 20
-2.9626215611
 10
-11.3901173071
 20
-2.9579810863
 10
-11.3952769796
 20
-2.9536935372
  0
LINE
  5
37D
100
AcDbEntity
  8
0
100
AcDbLine
 62
7
  6
CONTINUOUS
 10
-12.9178514895
 20
-2.2342855638
 11
-12.9241910742
 21
-2.2239494514
  0
LINE
  5
37E
100
AcDbEntity
  8
0
100
AcDbLine
 62
7
  6
CONTINUOUS
 10
-11.3591628647
 20
-2.997468705
 11
-11.3629089908
 21
-2.9909626203
  0
LINE
  5
37F
100
AcDbEntity
  8
0
100
AcDbLine
 62
7
  6
CONTINUOUS
 10
-12.9130618287
 20
-2.2435945714
 11
-12.9178514895
 21
-2.2342855638
  0
LINE
  5
380
100
AcDbEntity
  8
0
100
AcDbLine
 62
7
  6
CONTINUOUS
 10
-12.9118401877
 20
-2.2461995064
 11
-12.9130618287
 21
-2.2435945714
  0
LWPOLYLINE
  5
381
100
AcDbEntity
  8
0
100
AcDbPolyline
 62
7
  6
CONTINUOUS
 90
3
 70
0
 10
-11.3526179728
 20
-3.0109022493
 10
-11.3557301322
 20
-3.0041154935
 10
-11.3591628647
 20
-2.997468705
  0
LINE
  5
382
100
AcDbEntity
  8
0
100
AcDbLine
 62
7
  6
CONTINUOUS
 10
-12.9075592412
 20
-2.2562743605
 11
-12.9118401877
 21
-2.2461995064
  0
LWPOLYLINE
  5
383
100
AcDbEntity
  8
0
100
AcDbPolyline
 62
7
  6
CONTINUOUS
 90
4
 70
0
 10
-11.7667462292
 20
-5.2477197036
 10
-11.8940484402
 20
-4.9156086812
 10
-12.0212143741
 20
-4.5834294928
 10
-12.148244031
 20
-4.2511822347
  0
LWPOLYLINE
  5
384
100
AcDbEntity
  8
DRAFT
100
AcDbPolyline
 62
7
  6
CONTINUOUS
 90
10
 70
0
 10
-11.7667462292
 20
-5.2477197036
 10
-11.8940483234
 20
-4.915609001
 10
-12.0212141856
 20
-4.5834299978
 10
-12.1482438158
 20
-4.2511827976
 10
-12.2751372691
 20
-3.9188674635
 10
-12.4018944905
 20
-3.5864841396
 10
-12.5285153148
 20
-3.254033051
 10
-12.6549996874
 20
-2.9215143419
 10
-12.7813476634
 20
-2.5889280754
 10
-12.9075592431
 20
-2.2562743554
  0
LWPOLYLINE
  5
385
100
AcDbEntity
  8
0
100
AcDbPolyline
 62
7
  6
CONTINUOUS
 90
4
 70
0
 10
-12.148244031
 20
-4.2511822347
 10
-12.2751374451
 20
-3.918867017
 10
-12.4018945824
 20
-3.5864839161
 10
-12.5285153408
 20
-3.2540329826
  0
LWPOLYLINE
  5
386
100
AcDbEntity
  8
0
100
AcDbPolyline
 62
7
  6
CONTINUOUS
 90
4
 70
0
 10
-12.5285153408
 20
-3.2540329826
 10
-12.6549996861
 20
-2.9215143208
 10
-12.7813476528
 20
-2.5889280719
 10
-12.9075592412
 20
-2.2562743605
  0
LWPOLYLINE
  5
387
100
AcDbEntity
  8
0
100
AcDbPolyline
 62
7
  6
CONTINUOUS
 90
3
 70
0
 10
-11.3473770041
 20
-3.0247846285
 10
-11.3498191901
 20
-3.0178297006
 10
-11.3526179728
 20
-3.0109022493
  0
LINE
  5
388
100
AcDbEntity
  8
0
100
AcDbLine
 62
7
  6
CONTINUOUS
 10
-10.5278941429
 20
21.1700329321
 11
-10.5278941429
 21
19.9364185804
  0
LINE
  5
389
100
AcDbEntity
  8
0
100
AcDbLine
 62
250
  6
CONTINUOUS
 10
-8.9015485462
 20
19.1232457821
 11
-8.9015485462
 21
20.3568601337
  0
LWPOLYLINE
  5
38A
100
AcDbEntity
  8
0
100
AcDbPolyline
 62
250
  6
CONTINUOUS
 90
31
 70
0
 10
-8.9015485462
 20
20.3568601337
 10
-8.9013560859
 20
20.3659895474
 10
-8.9007792273
 20
20.3752865938
 10
-8.8998195379
 20
20.3847259693
 10
-8.8984796256
 20
20.3942819921
 10
-8.8967631357
 20
20.4039286434
 10
-8.8946747447
 20
20.4136396373
 10
-8.8922201397
 20
20.4233885343
 10
-8.8894060014
 20
20.4331488068
 10
-8.8862399927
 20
20.4428938815
 10
-8.8827307324
 20
20.4525972346
 10
-8.8788877738
 20
20.4622324551
 10
-8.8747215822
 20
20.4717733097
 10
-8.8702434962
 20
20.4811938377
 10
-8.8654657091
 20
20.4904683925
 10
-8.8604012429
 20
20.4995717052
 10
-8.8550639073
 20
20.508478968
 10
-8.8494682142
 20
20.5171659769
 10
-8.8436293458
 20
20.5256091646
 10
-8.8375631099
 20
20.533785655
 10
-8.8312860907
 20
20.541673078
 10
-8.8248155738
 20
20.5492497334
 10
-8.8181693168
 20
20.5564948885
 10
-8.8113652955
 20
20.5633890063
 10
-8.8044218417
 20
20.5699135335
 10
-8.7973563826
 20
20.576051939
 10
-8.7901895705
 20
20.5817861279
 10
-8.7829452152
 20
20.5870974789
 10
-8.7756445858
 20
20.591971388
 10
-8.7683061758
 20
20.5963964897
 10
-8.7609499414
 20
20.6003615857
  0
LWPOLYLINE
  5
38B
100
AcDbEntity
  8
DRAFT
100
AcDbPolyline
 62
7
  6
CONTINUOUS
 90
8
 70
0
 10
-11.3405438411
 20
-6.3087343768
 10
-11.3414302655
 20
-6.3212583622
 10
-11.3435974643
 20
-6.3323280689
 10
-11.3470454938
 20
-6.3419435253
 10
-11.3518715746
 20
-6.3502133604
 10
-11.3579785815
 20
-6.3570289932
 10
-11.3650750722
 20
-6.3620646477
 10
-11.3709155453
 20
-6.3645726316
  0
LWPOLYLINE
  5
38C
100
AcDbEntity
  8
0
100
AcDbPolyline
 62
7
  6
CONTINUOUS
 90
8
 70
0
 10
-12.98914302
 20
-5.5367627064
 10
-12.9866810022
 20
-5.5322858515
 10
-12.9845837745
 20
-5.5274156545
 10
-12.9828440904
 20
-5.5221579513
 10
-12.9814902904
 20
-5.5166011971
 10
-12.9805318205
 20
-5.5107748763
 10
-12.9799592279
 20
-5.504649501
 10
-12.9797725089
 20
-5.4982250692
  0
LINE
  5
38D
100
AcDbEntity
  8
DRAFT
100
AcDbLine
 62
7
  6
CONTINUOUS
 10
-13.397384814
 20
-2.0098203784
 11
-13.3924916802
 21
-2.0015167772
  0
LWPOLYLINE
  5
38E
100
AcDbEntity
  8
DRAFT
100
AcDbPolyline
 62
7
  6
CONTINUOUS
 90
5
 70
0
 10
-14.4137608293
 20
-4.2136225351
 10
-14.3930809471
 20
-4.1827209646
 10
-14.3761437712
 20
-4.1477800771
 10
-14.3627095904
 20
-4.1085737354
 10
-14.3527777503
 20
-4.0651016109
  0
LINE
  5
38F
100
AcDbEntity
  8
0
100
AcDbLine
 62
250
  6
CONTINUOUS
 10
-0.5223331891
 20
16.1849905367
 11
0.0059339826
 21
16.8279426925
  0
LINE
  5
390
100
AcDbEntity
  8
0
100
AcDbLine
 62
7
  6
CONTINUOUS
 10
-0.5223331891
 20
16.0954600704
 11
0.021294555
 21
16.7571075259
  0
LWPOLYLINE
  5
391
100
AcDbEntity
  8
0
100
AcDbPolyline
 62
7
  6
CONTINUOUS
 90
8
 70
0
 10
-15.2112662254
 20
-1.4673927116
 10
-15.2084726614
 20
-1.4642810894
 10
-15.2059317881
 20
-1.4608427013
 10
-15.2036423366
 20
-1.4570786087
 10
-15.2016247604
 20
-1.4530338572
 10
-15.1998858753
 20
-1.4487234612
 10
-15.1984188576
 20
-1.4441324024
 10
-15.197223703
 20
-1.4392606786
  0
LINE
  5
392
100
AcDbEntity
  8
DRAFT
100
AcDbLine
 62
7
  6
CONTINUOUS
 10
-15.8307760874
 20
-1.0311646073
 11
-15.7865615655
 21
-0.9922220808
  0
LWPOLYLINE
  5
393
100
AcDbEntity
  8
RACCORDO
100
AcDbPolyline
 62
250
  6
CONTINUOUS
 90
30
 70
0
 10
19.3337705122
 20
20.5881352669
 10
19.3524316508
 20
20.5980646099
 10
19.3705447459
 20
20.6082445079
 10
19.3880963464
 20
20.6186674012
 10
19.4050734187
 20
20.6293255497
 10
19.4214633553
 20
20.6402110387
 10
19.437253985
 20
20.6513157845
 10
19.4524335816
 20
20.6626315407
 10
19.4669908727
 20
20.674149904
 10
19.4809150479
 20
20.685862321
 10
19.4941957671
 20
20.6977600939
 10
19.5068231679
 20
20.7098343874
 10
19.5187878732
 20
20.722076235
 10
19.5300809978
 20
20.7344765459
 10
19.5406941555
 20
20.7470261114
 10
19.5506194649
 20
20.7597156124
 10
19.5598495554
 20
20.7725356254
 10
19.5683775726
 20
20.7854766302
 10
19.5761971836
 20
20.7985290168
 10
19.5833025816
 20
20.8116830924
 10
19.58968849
 20
20.8249290887
 10
19.5953501666
 20
20.8382571692
 10
19.600283407
 20
20.8516574364
 10
19.6044845478
 20
20.8651199391
 10
19.6079504691
 20
20.87863468
 10
19.6106785972
 20
20.892191623
 10
19.6126669062
 20
20.9057807007
 10
19.6139139195
 20
20.9193918216
 10
19.614418711
 20
20.9330148782
 10
19.6144307119
 20
20.9354629423
  0
LINE
  5
394
100
AcDbEntity
  8
RACCORDO
100
AcDbLine
 62
250
  6
CONTINUOUS
 10
19.3337705122
 20
20.5881352669
 11
1.952540545
 21
11.7453860736
  0
LINE
  5
395
100
AcDbEntity
  8
DRAFT
100
AcDbLine
 62
7
  6
CONTINUOUS
 10
0.8860180872
 20
11.9585288811
 11
1.9374220179
 21
12.4887913415
  0
LINE
  5
396
100
AcDbEntity
  8
RACCORDO
100
AcDbLine
 62
7
  6
CONTINUOUS
 10
-2.1405412137
 20
10.1582807165
 11
-2.6454076324
 21
9.903900926
  0
LWPOLYLINE
  5
397
100
AcDbEntity
  8
0
100
AcDbPolyline
 62
7
  6
CONTINUOUS
 90
4
 70
0
 10
-14.6760159787
 20
-4.283425559
 10
-14.7404880588
 20
-4.2617041799
 10
-14.8050824831
 20
-4.2372917331
 10
-14.8697993693
 20
-4.210188278
  0
LWPOLYLINE
  5
398
100
AcDbEntity
  8
DRAFT
100
AcDbPolyline
 62
7
  6
CONTINUOUS
 90
3
 70
0
 10
-14.6114162082
 20
-4.8281120918
 10
-14.6900303413
 20
-4.8015910704
 10
-14.7686935932
 20
-4.7718487595
  0
LWPOLYLINE
  5
399
100
AcDbEntity
  8
DRAFT
100
AcDbPolyline
 62
7
  6
CONTINUOUS
 90
5
 70
0
 10
-11.4821399978
 20
-6.3440963272
 10
-11.5272319743
 20
-6.327679133
 10
-11.5723831971
 20
-6.3076524761
 10
-11.6175528328
 20
-6.2840377841
 10
-11.6626182033
 20
-6.2568992507
  0
LWPOLYLINE
  5
39A
100
AcDbEntity
  8
DRAFT
100
AcDbPolyline
 62
7
  6
CONTINUOUS
 90
5
 70
0
 10
-14.7686935932
 20
-4.7718487595
 10
-14.8474061385
 20
-4.7388852473
 10
-14.9261938417
 20
-4.7026877068
 10
-15.0050310129
 20
-4.6632690531
 10
-15.0838404071
 20
-4.6206679435
  0
LWPOLYLINE
  5
39B
100
AcDbEntity
  8
DRAFT
100
AcDbPolyline
 62
7
  6
CONTINUOUS
 90
4
 70
0
 10
-13.1391511289
 20
-5.5219157996
 10
-13.1740953381
 20
-5.5065778436
 10
-13.2090647936
 20
-5.4890930803
 10
-13.2440229912
 20
-5.4694797882
  0
LWPOLYLINE
  5
39C
100
AcDbEntity
  8
0
100
AcDbPolyline
 62
7
  6
CONTINUOUS
 90
3
 70
0
 10
-14.8697993693
 20
-4.210188278
 10
-14.9347242499
 20
-4.1803496717
 10
-14.9997717103
 20
-4.1478201165
  0
LWPOLYLINE
  5
39D
100
AcDbEntity
  8
0
100
AcDbPolyline
 62
7
  6
CONTINUOUS
 90
5
 70
0
 10
-14.9997717103
 20
-4.1478201165
 10
-15.0646853889
 20
-4.1127321599
 10
-15.1293797929
 20
-4.0751299644
 10
-15.1939402975
 20
-4.0349693082
 10
-15.2583667852
 20
-3.9922501319
  0
LWPOLYLINE
  5
39E
100
AcDbEntity
  8
0
100
AcDbPolyline
 62
7
  6
CONTINUOUS
 90
7
 70
0
 10
-14.6574808915
 20
-1.2526976313
 10
-14.6633571985
 20
-1.2491309951
 10
-14.6691810322
 20
-1.2461768244
 10
-14.6749523927
 20
-1.2438351193
 10
-14.6807137982
 20
-1.2420990679
 10
-14.6864227249
 20
-1.2409754793
 10
-14.6918448286
 20
-1.2404942607
  0
LINE
  5
39F
100
AcDbEntity
  8
DRAFT
100
AcDbLine
 62
7
  6
CONTINUOUS
 10
-14.6574816428
 20
-1.2526972471
 11
-14.6421201937
 21
-1.2629059061
  0
LINE
  5
3A0
100
AcDbEntity
  8
0
100
AcDbLine
 62
7
  6
CONTINUOUS
 10
-14.6335795984
 20
-1.268637509
 11
-14.6574808915
 21
-1.2526976313
  0
LINE
  5
3A1
100
AcDbEntity
  8
DRAFT
100
AcDbLine
 62
7
  6
CONTINUOUS
 10
-14.6421201937
 20
-1.2629059061
 11
-14.626773348
 21
-1.2732302283
  0
LINE
  5
3A2
100
AcDbEntity
  8
0
100
AcDbLine
 62
7
  6
CONTINUOUS
 10
-14.618222539
 20
-1.2790385981
 11
-14.6335795984
 21
-1.268637509
  0
LINE
  5
3A3
100
AcDbEntity
  8
0
100
AcDbLine
 62
7
  6
CONTINUOUS
 10
-14.6114471878
 20
-1.283665935
 11
-14.618222539
 21
-1.2790385981
  0
LINE
  5
3A4
100
AcDbEntity
  8
DRAFT
100
AcDbLine
 62
7
  6
CONTINUOUS
 10
-14.626773348
 20
-1.2732302283
 11
-14.6114422735
 21
-1.2836692712
  0
LWPOLYLINE
  5
3A5
100
AcDbEntity
  8
0
100
AcDbPolyline
 62
7
  6
CONTINUOUS
 90
25
 70
0
 10
-14.6782466565
 20
-1.7651895919
 10
-14.6584665319
 20
-1.7792359786
 10
-14.6389803487
 20
-1.7943485857
 10
-14.6197880703
 20
-1.8105273949
 10
-14.6008371489
 20
-1.8278244048
 10
-14.5821800332
 20
-1.8461875676
 10
-14.5639741724
 20
-1.8654607915
 10
-14.5462254849
 20
-1.8856467926
 10
-14.5289279147
 20
-1.9067427865
 10
-14.5122209501
 20
-1.9285844302
 10
-14.4961115794
 20
-1.9511772124
 10
-14.4805926495
 20
-1.9745155626
 10
-14.4657824439
 20
-1.9984185531
 10
-14.4516827479
 20
-2.0228935431
 10
-14.4382916
 20
-2.0479330858
 10
-14.4257216817
 20
-2.0733340535
 10
-14.413982646
 20
-2.0990978418
 10
-14.4030646697
 20
-2.1252229704
 10
-14.3930512495
 20
-2.1515020127
 10
-14.3839456872
 20
-2.177947192
 10
-14.3757445323
 20
-2.204546211
 10
-14.3685211948
 20
-2.2310548832
 10
-14.3623001221
 20
-2.2573918016
 10
-14.357056769
 20
-2.2836383244
 10
-14.3527910824
 20
-2.309794425
  0
LWPOLYLINE
  5
3A6
100
AcDbEntity
  8
DRAFT
100
AcDbPolyline
 62
7
  6
CONTINUOUS
 90
16
 70
0
 10
-14.6114422735
 20
-1.2836692712
 10
-14.5449115288
 20
-1.332962196
 10
-14.4806432657
 20
-1.3872284472
 10
-14.4186367248
 20
-1.4464676488
 10
-14.3585644157
 20
-1.5110926915
 10
-14.3007516436
 20
-1.5806896022
 10
-14.2461766998
 20
-1.6540176374
 10
-14.1948338754
 20
-1.7312196987
 10
-14.1467259161
 20
-1.812151415
 10
-14.1028440991
 20
-1.895141284
 10
-14.0633024529
 20
-1.9801301017
 10
-14.0279839812
 20
-2.0671755974
 10
-13.9975341066
 20
-2.1547820074
 10
-13.972167344
 20
-2.2424504316
 10
-13.9516667934
 20
-2.3306785815
 10
-13.9360311354
 20
-2.4194657989
  0
LWPOLYLINE
  5
3A7
100
AcDbEntity
  8
0
100
AcDbPolyline
 62
7
  6
CONTINUOUS
 90
4
 70
0
 10
-11.3952769796
 20
-2.9536935372
 10
-11.4297067658
 20
-2.927921591
 10
-11.464344686
 20
-2.904180618
 10
-11.499190817
 20
-2.8824706565
  0
LWPOLYLINE
  5
3A8
100
AcDbEntity
  8
DRAFT
100
AcDbPolyline
 62
7
  6
CONTINUOUS
 90
4
 70
0
 10
-14.6782427368
 20
-1.7651926337
 10
-14.6877955186
 20
-1.7577644382
 10
-14.6966589488
 20
-1.7494189474
 10
-14.7045757628
 20
-1.7404476468
  0
LWPOLYLINE
  5
3A9
100
AcDbEntity
  8
0
100
AcDbPolyline
 62
7
  6
CONTINUOUS
 90
4
 70
0
 10
-12.9471267458
 20
-2.1972408331
 10
-12.9909825651
 20
-2.1599746313
 10
-13.0353004921
 20
-2.1260416839
 10
-13.0800807629
 20
-2.0954421077
  0
LWPOLYLINE
  5
3AA
100
AcDbEntity
  8
DRAFT
100
AcDbPolyline
 62
7
  6
CONTINUOUS
 90
10
 70
0
 10
-11.3952745829
 20
-2.9536951799
 10
-11.3847509203
 20
-2.9631801317
 10
-11.3752539131
 20
-2.9735789042
 10
-11.366783516
 20
-2.9848914749
 10
-11.3592276974
 20
-2.9973469083
 10
-11.3526983574
 20
-3.0107160747
 10
-11.3475313603
 20
-3.0243116669
 10
-11.3438386356
 20
-3.0379045697
 10
-11.3415081452
 20
-3.0517238442
 10
-11.3405398243
 20
-3.0657694586
  0
LWPOLYLINE
  5
3AB
100
AcDbEntity
  8
DRAFT
100
AcDbPolyline
 62
7
  6
CONTINUOUS
 90
10
 70
0
 10
-12.9471275418
 20
-2.1972402231
 10
-12.9415836423
 20
-2.2025329097
 10
-12.9363169412
 20
-2.2081568137
 10
-12.9313274308
 20
-2.2141119312
 10
-12.9266021961
 20
-2.2204176456
 10
-12.9221541323
 20
-2.2270545637
 10
-12.9180219455
 20
-2.2339645161
 10
-12.9142185299
 20
-2.2411281092
 10
-12.9107309671
 20
-2.2485647246
 10
-12.9075592431
 20
-2.2562743554
  0
LINE
  5
3AC
100
AcDbEntity
  8
0
100
AcDbLine
 62
7
  6
CONTINUOUS
 10
-12.9387195365
 20
-2.2055912675
 11
-12.9471267458
 21
-2.1972408331
  0
LWPOLYLINE
  5
3AD
100
AcDbEntity
  8
0
100
AcDbPolyline
 62
250
  6
CONTINUOUS
 90
13
 70
0
 10
0.0030085456
 20
-24.246177871
 10
-0.0016323463
 20
-24.2365319411
 10
-0.0066574771
 20
-24.2272183587
 10
-0.0120555002
 20
-24.2182581577
 10
-0.0178142142
 20
-24.2096715883
 10
-0.0239206075
 20
-24.2014780426
 10
-0.0303609055
 20
-24.1936959947
 10
-0.037120587
 20
-24.1863429881
 10
-0.0441845782
 20
-24.1794354493
 10
-0.0515367673
 20
-24.1729891615
 10
-0.0591599886
 20
-24.1670190966
 10
-0.0670367836
 20
-24.1615387497
 10
-0.0751495092
 20
-24.1565602246
  0
LWPOLYLINE
  5
3AE
100
AcDbEntity
  8
RACCORDO
100
AcDbPolyline
 62
7
  6
CONTINUOUS
 90
18
 70
0
 10
-2.9696222285
 20
-21.150321226
 10
-2.9594610237
 20
-21.1848275392
 10
-2.9372974018
 20
-21.241074127
 10
-2.9103291529
 20
-21.2952112947
 10
-2.878587233
 20
-21.347047863
 10
-2.8428827646
 20
-21.3952192512
 10
-2.8032005931
 20
-21.439627985
 10
-2.7596157032
 20
-21.4798797006
 10
-2.7134797803
 20
-21.5145765698
 10
-2.6651627988
 20
-21.5434647259
 10
-2.6147192576
 20
-21.5664866373
 10
-2.56361006
 20
-21.5830087811
 10
-2.5130652089
 20
-21.5929726105
 10
-2.4630679243
 20
-21.5967809729
 10
-2.4136496532
 20
-21.5945994474
 10
-2.3655259704
 20
-21.5865338036
 10
-2.3193711981
 20
-21.5728345047
 10
-2.2861833278
 20
-21.5589807754
  0
LWPOLYLINE
  5
3AF
100
AcDbEntity
  8
RACCORDO
100
AcDbPolyline
 62
250
  6
CONTINUOUS
 90
19
 70
0
 10
-4.8057017584
 20
-25.1434273736
 10
-4.800531296
 20
-25.1734285615
 10
-4.7934006717
 20
-25.2016463196
 10
-4.7843098856
 20
-25.2280806477
 10
-4.7731819498
 20
-25.252884263
 10
-4.7600938521
 20
-25.2759044485
 10
-4.7452765562
 20
-25.2966830523
 10
-4.7286992903
 20
-25.3151629148
 10
-4.7103928263
 20
-25.3314011958
 10
-4.6906804435
 20
-25.345111223
 10
-4.6695397465
 20
-25.3562448698
 10
-4.6469931307
 20
-25.3648502629
 10
-4.6234310617
 20
-25.3707851104
 10
-4.5988204345
 20
-25.3739974574
 10
-4.5731943542
 20
-25.3745392589
 10
-4.5470426013
 20
-25.3724240877
 10
-4.520528436
 20
-25.3676564683
 10
-4.4934885982
 20
-25.3602318761
 10
-4.4659230878
 20
-25.3501503114
  0
LWPOLYLINE
  5
3B0
100
AcDbEntity
  8
RACCORDO
100
AcDbPolyline
 62
250
  6
CONTINUOUS
 90
11
 70
0
 10
-5.4994908958
 20
-25.2013670813
 10
-5.4893356791
 20
-25.2611200815
 10
-5.4751461362
 20
-25.3177854847
 10
-5.4570033111
 20
-25.371036244
 10
-5.43500866
 20
-25.4205666927
 10
-5.409289836
 20
-25.4660897658
 10
-5.3800003758
 20
-25.5073391268
 10
-5.3473079
 20
-25.5440774385
 10
-5.3113994442
 20
-25.5760948157
 10
-5.2724866057
 20
-25.6032051202
 10
-5.2448067919
 20
-25.6185639621
  0
LWPOLYLINE
  5
3B1
100
AcDbEntity
  8
RACCORDO
100
AcDbPolyline
 62
250
  6
CONTINUOUS
 90
10
 70
0
 10
-6.215656251
 20
-15.4162496142
 10
-6.1908142351
 20
-16.5338651594
 10
-6.1522607247
 20
-17.644424339
 10
-6.1000036018
 20
-18.7476939055
 10
-6.0340531345
 20
-19.8434423299
 10
-5.9544232368
 20
-20.9314393991
 10
-5.861131458
 20
-22.0114562599
 10
-5.7541973007
 20
-23.0832660702
 10
-5.633642224
 20
-24.1466440514
 10
-5.4994908958
 20
-25.2013670813
  0
LINE
  5
3B2
100
AcDbEntity
  8
0
100
AcDbLine
 62
250
  6
CONTINUOUS
 10
-8.6187058337
 20
19.1323230757
 11
-8.6187058337
 21
20.3568601337
  0
LINE
  5
3B3
100
AcDbEntity
  8
0
100
AcDbLine
 62
7
  6
CONTINUOUS
 10
-7.6994670182
 20
20.8129526696
 11
-7.6994670182
 21
19.6010238841
  0
LINE
  5
3B4
100
AcDbEntity
  8
0
100
AcDbLine
 62
7
  6
CONTINUOUS
 10
-7.2630709151
 20
19.5790426744
 11
-7.2630709151
 21
18.3480870005
  0
LINE
  5
3B5
100
AcDbEntity
  8
0
100
AcDbLine
 62
250
  6
CONTINUOUS
 10
-7.2044922713
 20
19.5083319963
 11
-7.2044922713
 21
18.2747176446
  0
LWPOLYLINE
  5
3B6
100
AcDbEntity
  8
0
100
AcDbPolyline
 62
250
  6
CONTINUOUS
 90
13
 70
0
 10
-7.2044922713
 20
19.5083319963
 10
-7.2043007547
 20
19.5174387821
 10
-7.2037262709
 20
19.5267179495
 10
-7.2027697003
 20
19.5361446104
 10
-7.2014326651
 20
19.5456952921
 10
-7.1997182826
 20
19.5553423638
 10
-7.197631898
 20
19.5650539536
 10
-7.1951797344
 20
19.5748016113
 10
-7.192368073
 20
19.5845608073
 10
-7.1892044721
 20
19.5943052564
 10
-7.18569744
 20
19.6040086279
 10
-7.1818565521
 20
19.6136443167
 10
-7.1776923689
 20
19.6231857967
  0
LWPOLYLINE
  5
3B7
100
AcDbEntity
  8
RACCORDO
100
AcDbPolyline
 62
250
  6
CONTINUOUS
 90
10
 70
0
 10
-5.4994908958
 20
11.503163972
 10
-5.633642225
 20
10.3211008607
 10
-5.7541973022
 20
9.1432866492
 10
-5.8611314596
 20
7.9699691275
 10
-5.954423238
 20
6.8013953816
 10
-6.034053135
 20
5.6378109079
 10
-6.1000036017
 20
4.4794595648
 10
-6.1522607244
 20
3.3265846313
 10
-6.1908142348
 20
2.1794287525
 10
-6.215656251
 20
1.0382330577
  0
LWPOLYLINE
  5
3B8
100
AcDbEntity
  8
0
100
AcDbPolyline
 62
250
  6
CONTINUOUS
 90
30
 70
0
 10
-2.1236139799
 20
15.7693394516
 10
-2.1280304674
 20
15.758457391
 10
-2.1328340696
 20
15.7477977938
 10
-2.1380142139
 20
15.7373848449
 10
-2.1435598904
 20
15.7272414575
 10
-2.1494584546
 20
15.7173914908
 10
-2.1556953962
 20
15.7078594697
 10
-2.1622560927
 20
15.6986676406
 10
-2.1691262279
 20
15.6898359648
 10
-2.1762904429
 20
15.6813842091
 10
-2.1837326863
 20
15.6733313679
 10
-2.1914360813
 20
15.6656957588
 10
-2.1993830925
 20
15.6584947833
 10
-2.2075557196
 20
15.6517447447
 10
-2.2159355726
 20
15.6454608245
 10
-2.2245037548
 20
15.6396571952
 10
-2.2332409391
 20
15.6343469532
 10
-2.242127392
 20
15.6295420972
 10
-2.251143035
 20
15.6252534853
 10
-2.2602675105
 20
15.6214908009
 10
-2.2694802281
 20
15.6182625342
 10
-2.2787603922
 20
15.6155759722
 10
-2.2880870549
 20
15.6134371793
 10
-2.2974391627
 20
15.6118509838
 10
-2.3067956048
 20
15.610820966
 10
-2.3161352715
 20
15.6103494509
 10
-2.3254370694
 20
15.6104375044
 10
-2.334679969
 20
15.6110849245
 10
-2.3438430855
 20
15.6122902403
 10
-2.3504574735
 20
15.6135182908
  0
LWPOLYLINE
  5
3B9
100
AcDbEntity
  8
0
100
AcDbPolyline
 62
7
  6
CONTINUOUS
 90
7
 70
0
 10
-11.3474689746
 20
-6.3428295467
 10
-11.3454349095
 20
-6.3381701359
 10
-11.3437270485
 20
-6.3331363115
 10
-11.342380508
 20
-6.3276804512
 10
-11.3414069871
 20
-6.3217866777
 10
-11.3407947693
 20
-6.3154708595
 10
-11.3405438453
 20
-6.3087329921
  0
LINE
  5
3BA
100
AcDbEntity
  8
DRAFT
100
AcDbLine
 62
7
  6
CONTINUOUS
 10
-11.7576238738
 20
-2.8193372232
 11
-11.7524179774
 21
-2.8109680073
  0
LINE
  5
3BB
100
AcDbEntity
  8
0
100
AcDbLine
 62
7
  6
CONTINUOUS
 10
-12.9919625953
 20
-5.5408520622
 11
-12.98914302
 21
-5.5367627064
  0
LINE
  5
3BC
100
AcDbEntity
  8
RACCORDO
100
AcDbLine
 62
7
  6
CONTINUOUS
 10
-2.6454076324
 20
9.903900926
 11
-2.738445906
 21
9.794318557
  0
LWPOLYLINE
  5
3BD
100
AcDbEntity
  8
DRAFT
100
AcDbPolyline
 62
7
  6
CONTINUOUS
 90
3
 70
0
 10
-13.3924916802
 20
-2.0015167772
 10
-13.3863221954
 20
-1.994669644
 10
-13.3822452081
 20
-1.9914743308
  0
LWPOLYLINE
  5
3BE
100
AcDbEntity
  8
RACCORDO
100
AcDbPolyline
 62
250
  6
CONTINUOUS
 90
8
 70
0
 10
9.7995596508
 20
21.2495942745
 10
9.8445984858
 20
21.2982816217
 10
9.9064425017
 20
21.3569934085
 10
9.9745250553
 20
21.4141970049
 10
10.0485200056
 20
21.4695805981
 10
10.1284477875
 20
21.5231246171
 10
10.2136554547
 20
21.5743851904
 10
10.2812502192
 20
21.6114612597
  0
LWPOLYLINE
  5
3BF
100
AcDbEntity
  8
DRAFT
100
AcDbPolyline
 62
7
  6
CONTINUOUS
 90
3
 70
0
 10
-11.7523668066
 20
-2.810885959
 10
-11.7457742172
 20
-2.8040768132
 10
-11.7430216272
 20
-2.8020156415
  0
LINE
  5
3C0
100
AcDbEntity
  8
DRAFT
100
AcDbLine
 62
7
  6
CONTINUOUS
 10
-14.7199959584
 20
-1.2504722748
 11
-14.71575267
 21
-1.2471480902
  0
LWPOLYLINE
  5
3C1
100
AcDbEntity
  8
0
100
AcDbPolyline
 62
7
  6
CONTINUOUS
 90
12
 70
0
 10
-13.3822395803
 20
-1.991484279
 10
-13.3855756606
 20
-1.9940158046
 10
-13.3888299036
 20
-1.997100513
 10
-13.3918223285
 20
-2.0006305807
 10
-13.3945505155
 20
-2.0045924632
 10
-13.3969537144
 20
-2.0089293813
 10
-13.3990233486
 20
-2.013606717
 10
-13.400767982
 20
-2.018659082
 10
-13.4021525769
 20
-2.0241335424
 10
-13.4031654476
 20
-2.0300457836
 10
-13.4038182623
 20
-2.0363801116
 10
-13.404111012
 20
-2.0431365217
  0
LWPOLYLINE
  5
3C2
100
AcDbEntity
  8
0
100
AcDbPolyline
 62
7
  6
CONTINUOUS
 90
3
 70
0
 10
-15.2175834069
 20
-1.4725970051
 10
-15.2143112215
 20
-1.4701786344
 10
-15.2112662254
 20
-1.4673927116
  0
LWPOLYLINE
  5
3C3
100
AcDbEntity
  8
0
100
AcDbPolyline
 62
7
  6
CONTINUOUS
 90
13
 70
0
 10
-15.7639212708
 20
-0.9756778208
 10
-15.7922252482
 20
-0.9965839581
 10
-15.8201809488
 20
-1.0208820391
 10
-15.8464387906
 20
-1.0476167153
 10
-15.8709812575
 20
-1.0768003424
 10
-15.8938251373
 20
-1.1084202025
 10
-15.9147976019
 20
-1.1422444863
 10
-15.9338926246
 20
-1.1783188326
 10
-15.9511155807
 20
-1.2165972782
 10
-15.9663109262
 20
-1.2567106995
 10
-15.9794267167
 20
-1.2985360071
 10
-15.9905144767
 20
-1.3421960806
 10
-15.9995739774
 20
-1.3876908055
  0
LINE
  5
3C4
100
AcDbEntity
  8
DRAFT
100
AcDbLine
 62
7
  6
CONTINUOUS
 10
-15.7865615655
 20
-0.9922220808
 11
-15.7638611388
 21
-0.9757741497
  0
LWPOLYLINE
  5
3C5
100
AcDbEntity
  8
0
100
AcDbPolyline
 62
7
  6
CONTINUOUS
 90
9
 70
0
 10
-14.715745299
 20
-1.2471155742
 10
-14.7162319698
 20
-1.2474595759
 10
-14.7201879221
 20
-1.2506259227
 10
-14.7237849297
 20
-1.2543529037
 10
-14.7270271334
 20
-1.2586288937
 10
-14.7298523563
 20
-1.2633625287
 10
-14.7322398687
 20
-1.2685233519
 10
-14.7342103838
 20
-1.274141812
 10
-14.7357638924
 20
-1.2802179042
  0
LWPOLYLINE
  5
3C6
100
AcDbEntity
  8
DRAFT
100
AcDbPolyline
 62
7
  6
CONTINUOUS
 90
9
 70
0
 10
-15.7638611388
 20
-0.9757741497
 10
-15.7381314175
 20
-0.9595596271
 10
-15.6864871503
 20
-0.9338520911
 10
-15.6316361002
 20
-0.9152391225
 10
-15.5735738942
 20
-0.9035825414
 10
-15.5132847784
 20
-0.8991405975
 10
-15.4510976263
 20
-0.9019997663
 10
-15.3866857491
 20
-0.9120746547
 10
-15.3200499061
 20
-0.9293656385
  0
LINE
  5
3C7
100
AcDbEntity
  8
0
100
AcDbLine
 62
7
  6
CONTINUOUS
 10
-15.7318831234
 20
-0.9559030531
 11
-15.7639212708
 21
-0.9756778208
  0
LWPOLYLINE
  5
3C8
100
AcDbEntity
  8
0
100
AcDbPolyline
 62
7
  6
CONTINUOUS
 90
4
 70
0
 10
-15.4692983029
 20
-1.49676914
 10
-15.4544144486
 20
-1.4877017933
 10
-15.4388171335
 20
-1.4799011453
 10
-15.4212691236
 20
-1.4729632922
  0
LINE
  5
3C9
100
AcDbEntity
  8
SMUSSO
100
AcDbLine
 62
7
  6
CONTINUOUS
 10
-1.5829933609
 20
7.5625842097
 11
-0.7698205625
 21
7.9381343556
  0
LWPOLYLINE
  5
3CA
100
AcDbEntity
  8
0
100
AcDbPolyline
 62
7
  6
CONTINUOUS
 90
6
 70
0
 10
-11.3920110101
 20
-6.3661662314
 10
-11.3872636681
 20
-6.3666960699
 10
-11.3826753321
 20
-6.3667702293
 10
-11.3782459974
 20
-6.3663887073
 10
-11.3739577073
 20
-6.3655485802
 10
-11.3709069734
 20
-6.3646400933
  0
LINE
  5
3CB
100
AcDbEntity
  8
DRAFT
100
AcDbLine
 62
7
  6
CONTINUOUS
 10
-14.4806198337
 20
-4.8556037963
 11
-14.5448865939
 21
-4.8454562762
  0
LWPOLYLINE
  5
3CC
100
AcDbEntity
  8
0
100
AcDbPolyline
 62
7
  6
CONTINUOUS
 90
6
 70
0
 10
-13.034506077
 20
-5.5550303535
 10
-13.0293871995
 20
-5.5559114256
 10
-13.0244332078
 20
-5.556275001
 10
-13.0196440966
 20
-5.5561210771
 10
-13.014993261
 20
-5.5554439787
 10
-13.0101382996
 20
-5.5541297828
  0
LWPOLYLINE
  5
3CD
100
AcDbEntity
  8
DRAFT
100
AcDbPolyline
 62
7
  6
CONTINUOUS
 90
3
 70
0
 10
-11.392010555
 20
-6.3661662425
 10
-11.4370662574
 20
-6.356925397
 10
-11.4821399978
 20
-6.3440963272
  0
LWPOLYLINE
  5
3CE
100
AcDbEntity
  8
DRAFT
100
AcDbPolyline
 62
7
  6
CONTINUOUS
 90
7
 70
0
 10
-14.6760151524
 20
-4.2834258714
 10
-14.6360426938
 20
-4.2931924379
 10
-14.5979865656
 20
-4.297621213
 10
-14.5618464043
 20
-4.2967120138
 10
-14.5273301915
 20
-4.2903321034
 10
-14.4947288624
 20
-4.2786136734
 10
-14.4645353512
 20
-4.2616958596
  0
LWPOLYLINE
  5
3CF
100
AcDbEntity
  8
DRAFT
100
AcDbPolyline
 62
7
  6
CONTINUOUS
 90
4
 70
0
 10
-13.0345060933
 20
-5.5550303488
 10
-13.0693626553
 20
-5.5461390385
 10
-13.1042443079
 20
-5.5351008423
 10
-13.1390604054
 20
-5.5219500678
  0
LINE
  5
3D0
100
AcDbEntity
  8
DRAFT
100
AcDbLine
 62
7
  6
CONTINUOUS
 10
-14.5448865939
 20
-4.8454562762
 11
-14.6114162082
 21
-4.8281120918
  0
LWPOLYLINE
  5
3D1
100
AcDbEntity
  8
0
100
AcDbPolyline
 62
7
  6
CONTINUOUS
 90
10
 70
0
 10
-14.6114162079
 20
-4.8281120919
 10
-14.5703470551
 20
-4.839773732
 10
-14.5298783133
 20
-4.8486350336
 10
-14.4900098205
 20
-4.8546959147
 10
-14.4506208585
 20
-4.8579609602
 10
-14.411831711
 20
-4.8584253657
 10
-14.3740036841
 20
-4.8560749474
 10
-14.3371685187
 20
-4.8508841693
 10
-14.301293877
 20
-4.8428782659
 10
-14.2715170309
 20
-4.8338258176
  0
LWPOLYLINE
  5
3D2
100
AcDbEntity
  8
0
100
AcDbPolyline
 62
7
  6
CONTINUOUS
 90
4
 70
0
 10
-11.6049788622
 20
-2.829527031
 10
-11.6399734357
 20
-2.8163166577
 10
-11.6748338903
 20
-2.8053250033
 10
-11.7095601482
 20
-2.7965520294
  0
LWPOLYLINE
  5
3D3
100
AcDbEntity
  8
0
100
AcDbPolyline
 62
7
  6
CONTINUOUS
 90
5
 70
0
 10
-13.1714995574
 20
-2.0439766181
 10
-13.2171969251
 20
-2.0236442433
 10
-13.2624155936
 20
-2.0071788341
 10
-13.307390756
 20
-1.9944469584
 10
-13.3521222142
 20
-1.9854485183
  0
LWPOLYLINE
  5
3D4
100
AcDbEntity
  8
DRAFT
100
AcDbPolyline
 62
7
  6
CONTINUOUS
 90
10
 70
0
 10
-15.2739572604
 20
-0.9444594358
 10
-15.2618312134
 20
-0.9500603488
 10
-15.2504064705
 20
-0.9574216901
 10
-15.2396830123
 20
-0.9665434498
 10
-15.2294368723
 20
-0.9777290871
 10
-15.2198918968
 20
-0.9906750834
 10
-15.2117197743
 20
-1.0044709573
 10
-15.2051443532
 20
-1.0188131913
 10
-15.1999416131
 20
-1.0340052179
 10
-15.1961114454
 20
-1.0500469831
  0
LWPOLYLINE
  5
3D5
100
AcDbEntity
  8
0
100
AcDbPolyline
 62
7
  6
CONTINUOUS
 90
4
 70
0
 10
-11.499190817
 20
-2.8824706565
 10
-11.5343593203
 20
-2.8627291625
 10
-11.5697361119
 20
-2.8450187181
 10
-11.6048820081
 20
-2.8295696053
  0
LWPOLYLINE
  5
3D6
100
AcDbEntity
  8
0
100
AcDbPolyline
 62
7
  6
CONTINUOUS
 90
3
 70
0
 10
-13.0800807629
 20
-2.0954421077
 10
-13.1255588595
 20
-2.0680426137
 10
-13.1714995574
 20
-2.0439766181
  0
LWPOLYLINE
  5
3D7
100
AcDbEntity
  8
0
100
AcDbPolyline
 62
250
  6
CONTINUOUS
 90
5
 70
0
 10
0.0175338131
 20
-24.2876395771
 10
0.0145255702
 20
-24.2768886623
 10
0.0110966296
 20
-24.2663790251
 10
0.0072547311
 20
-24.2561343877
 10
0.0030085456
 20
-24.246177871
  0
LWPOLYLINE
  5
3D8
100
AcDbEntity
  8
RACCORDO
100
AcDbPolyline
 62
250
  6
CONTINUOUS
 90
10
 70
0
 10
-5.5179893947
 20
-15.4126211814
 10
-5.4932654311
 20
-16.5243913788
 10
-5.4549239662
 20
-17.6286937375
 10
-5.4029649998
 20
-18.7255282575
 10
-5.337371566
 20
-19.815127657
 10
-5.2581606309
 20
-20.8972592178
 10
-5.1653830927
 20
-21.9712247854
 10
-5.0590559176
 20
-23.0367916414
 10
-4.9391621395
 20
-24.0941925041
 10
-4.8057017584
 20
-25.1434273736
  0
LINE
  5
3D9
100
AcDbEntity
  8
0
100
AcDbLine
 62
7
  6
CONTINUOUS
 10
-6.2852534558
 20
18.5087677532
 11
-6.2852534558
 21
17.0626049875
  0
LINE
  5
3DA
100
AcDbEntity
  8
0
100
AcDbLine
 62
7
  6
CONTINUOUS
 10
-5.619672754
 20
16.7298146366
 11
-5.619672754
 21
18.1759774024
  0
LINE
  5
3DB
100
AcDbEntity
  8
0
100
AcDbLine
 62
250
  6
CONTINUOUS
 10
-4.8378360752
 20
22.7661163463
 11
-4.8378360752
 21
24.1500724492
  0
LINE
  5
3DC
100
AcDbEntity
  8
DRAFT
100
AcDbLine
 62
250
  6
CONTINUOUS
 10
-4.8003292153
 20
21.5537924389
 11
-4.8003292153
 21
22.7846025264
  0
LINE
  5
3DD
100
AcDbEntity
  8
0
100
AcDbLine
 62
7
  6
CONTINUOUS
 10
-4.7051429376
 20
22.9246770869
 11
-4.7051429376
 21
24.1729412096
  0
LINE
  5
3DE
100
AcDbEntity
  8
0
100
AcDbLine
 62
7
  6
CONTINUOUS
 10
-4.5528418419
 20
17.3251390546
 11
-4.5528418419
 21
18.7107797007
  0
LINE
  5
3DF
100
AcDbEntity
  8
0
100
AcDbLine
 62
7
  6
CONTINUOUS
 10
-4.2278973147
 20
17.0374834924
 11
-4.2278973147
 21
16.6975095583
  0
LWPOLYLINE
  5
3E0
100
AcDbEntity
  8
RACCORDO
100
AcDbPolyline
 62
250
  6
CONTINUOUS
 90
10
 70
0
 10
-6.215656251
 20
1.0382330577
 10
-6.2415299611
 20
-0.8022419578
 10
-6.26093503
 20
-2.6397245404
 10
-6.2738715045
 20
-4.4741821091
 10
-6.2803395009
 20
-6.3055573152
 10
-6.2803395044
 20
-8.1338426081
 10
-6.2738715138
 20
-9.9590798092
 10
-6.260935042
 20
-11.7812608817
 10
-6.2415299706
 20
-13.6003283596
 10
-6.215656251
 20
-15.4162496142
  0
LWPOLYLINE
  5
3E1
100
AcDbEntity
  8
RACCORDO
100
AcDbPolyline
 62
250
  6
CONTINUOUS
 90
10
 70
0
 10
-5.5179893947
 20
1.0254070079
 10
-5.5438376172
 20
-0.8132794008
 10
-5.5632237859
 20
-2.6489123042
 10
-5.5761479005
 20
-4.4814917022
 10
-5.5826099636
 20
-6.3110258653
 10
-5.5826099726
 20
-8.137506523
 10
-5.576147921
 20
-9.9609088646
 10
-5.5632238063
 20
-11.7812246197
 10
-5.5438376309
 20
-13.5984620586
 10
-5.5179893947
 20
-15.4126211814
  0
LWPOLYLINE
  5
3E2
100
AcDbEntity
  8
0
100
AcDbPolyline
 62
250
  6
CONTINUOUS
 90
34
 70
0
 10
-4.15467401
 20
16.9490951448
 10
-4.1544752072
 20
16.959459623
 10
-4.1538792449
 20
16.9699996078
 10
-4.1528874618
 20
16.9806913935
 10
-4.1515020857
 20
16.9915109393
 10
-4.1497262316
 20
17.0024339037
 10
-4.1475638965
 20
17.0134356976
 10
-4.1450199459
 20
17.0244915698
 10
-4.1421001011
 20
17.0355766588
 10
-4.1388109312
 20
17.0466660286
 10
-4.1351598342
 20
17.0577347384
 10
-4.1311550236
 20
17.0687578908
 10
-4.1268055114
 20
17.079710684
 10
-4.1221210828
 20
17.0905684818
 10
-4.1171122747
 20
17.1013068649
 10
-4.1117903561
 20
17.111901678
 10
-4.1061672957
 20
17.1223290978
 10
-4.100255745
 20
17.1325656666
 10
-4.0940690133
 20
17.1425883435
 10
-4.0876210367
 20
17.1523745615
 10
-4.0809263034
 20
17.1619023412
 10
-4.0739998272
 20
17.1711503163
 10
-4.0668571168
 20
17.1800977667
 10
-4.0595142993
 20
17.1887244774
 10
-4.0519880526
 20
17.1970108679
 10
-4.0442954184
 20
17.2049382164
 10
-4.0364536058
 20
17.2124888292
 10
-4.0284801068
 20
17.2196458785
 10
-4.0203916294
 20
17.2263942515
 10
-4.0122075581
 20
17.2327176614
 10
-4.0039498873
 20
17.2385994374
 10
-3.9956384666
 20
17.2440261874
 10
-3.9872908342
 20
17.2489872014
 10
-3.978925754
 20
17.2534719597
  0
LWPOLYLINE
  5
3E3
100
AcDbEntity
  8
RACCORDO
100
AcDbPolyline
 62
250
  6
CONTINUOUS
 90
10
 70
0
 10
-4.8057017584
 20
11.4321489283
 10
-4.939161037
 20
10.2562767981
 10
-5.0590540618
 20
9.0851098945
 10
-5.165380833
 20
7.9186482178
 10
-5.2581584149
 20
6.7566429126
 10
-5.3373697431
 20
5.5993428341
 10
-5.4029636245
 20
4.4474945478
 10
-5.4549229947
 20
3.3013469089
 10
-5.4932649181
 20
2.1606510623
 10
-5.5179893947
 20
1.0254070079
  0
LWPOLYLINE
  5
3E4
100
AcDbEntity
  8
0
100
AcDbPolyline
 62
7
  6
CONTINUOUS
 90
3
 70
0
 10
-11.3525324641
 20
-6.3510945703
 10
-11.349837611
 20
-6.3471492621
 10
-11.3474689746
 20
-6.3428295467
  0
LWPOLYLINE
  5
3E5
100
AcDbEntity
  8
RACCORDO
100
AcDbPolyline
 62
250
  6
CONTINUOUS
 90
35
 70
0
 10
9.8773514658
 20
21.2168141246
 10
9.9200074973
 20
21.2679510289
 10
9.9729238814
 20
21.3230962619
 10
10.0320854036
 20
21.3778426121
 10
10.0967568562
 20
21.4310013561
 10
10.1670087379
 20
21.4823863383
 10
10.24277055
 20
21.5321837143
 10
10.3230955884
 20
21.5797632277
 10
10.4078731331
 20
21.6249941986
 10
10.4972139041
 20
21.6680073068
 10
10.590503357
 20
21.7085643349
 10
10.6877532084
 20
21.7466623223
 10
10.7889517417
 20
21.7823042295
 10
10.893449263
 20
21.8152607215
 10
11.0013323516
 20
21.8455352635
 10
11.1125144283
 20
21.8731243903
 10
11.2260860613
 20
21.8977883704
 10
11.342066612
 20
21.9194984901
 10
11.4604367191
 20
21.9382834632
 10
11.5802288668
 20
21.9539897002
 10
11.701433653
 20
21.9665891737
 10
11.8240604797
 20
21.9761099111
 10
11.9471700382
 20
21.9824824051
 10
12.07076684
 20
21.9856836947
 10
12.1948463735
 20
21.9857367408
 10
12.3184557954
 20
21.9826409183
 10
12.4415975321
 20
21.9763718959
 10
12.5642691572
 20
21.9669540049
 10
12.6855105474
 20
21.9544596139
 10
12.8053106415
 20
21.9388643007
 10
12.9236805006
 20
21.9201924876
 10
13.0396931853
 20
21.89858981
 10
13.1530397156
 20
21.8741048133
 10
13.2640290713
 20
21.8466889522
 10
13.3726612526
 20
21.8163422267
  0
LWPOLYLINE
  5
3E6
100
AcDbEntity
  8
0
100
AcDbPolyline
 62
7
  6
CONTINUOUS
 90
3
 70
0
 10
-12.9985285488
 20
-5.5476458654
 10
-12.9950896756
 20
-5.5444829861
 10
-12.9919625953
 20
-5.5408520622
  0
LWPOLYLINE
  5
3E7
100
AcDbEntity
  8
DRAFT
100
AcDbPolyline
 62
7
  6
CONTINUOUS
 90
3
 70
0
 10
-14.4645353512
 20
-4.2616958596
 10
-14.4379448577
 20
-4.2402592295
 10
-14.4137608293
 20
-4.2136225351
  0
LWPOLYLINE
  5
3E8
100
AcDbEntity
  8
0
100
AcDbPolyline
 62
7
  6
CONTINUOUS
 90
12
 70
0
 10
-11.7429594456
 20
-2.8019733582
 10
-11.7457017155
 20
-2.8040180329
 10
-11.7491716915
 20
-2.807196494
 10
-11.7523317514
 20
-2.8108439473
 10
-11.7551861194
 20
-2.8149507455
 10
-11.7576841213
 20
-2.8194456321
 10
-11.7598185291
 20
-2.8243345111
 10
-11.761596557
 20
-2.8296114716
 10
-11.7629892009
 20
-2.8351875376
 10
-11.7639867919
 20
-2.84103305
 10
-11.7645989921
 20
-2.8471776647
 10
-11.7648257978
 20
-2.8536213796
  0
LWPOLYLINE
  5
3E9
100
AcDbEntity
  8
DRAFT
100
AcDbPolyline
 62
7
  6
CONTINUOUS
 90
5
 70
0
 10
-13.3822452081
 20
-1.9914743308
 10
-13.3791710299
 20
-1.9896064737
 10
-13.3711364568
 20
-1.9864364558
 10
-13.3621203228
 20
-1.9850504601
 10
-13.3521226708
 20
-1.9854485079
  0
LINE
  5
3EA
100
AcDbEntity
  8
0
100
AcDbLine
 62
7
  6
CONTINUOUS
 10
-13.3783280296
 20
-1.9891580164
 11
-13.3822395803
 21
-1.991484279
  0
LWPOLYLINE
  5
3EB
100
AcDbEntity
  8
DRAFT
100
AcDbPolyline
 62
7
  6
CONTINUOUS
 90
4
 70
0
 10
-14.71575267
 20
-1.2471480902
 10
-14.7116824059
 20
-1.244788454
 10
-14.7020825172
 20
-1.2414113788
 10
-14.6917948179
 20
-1.2404897806
  0
LWPOLYLINE
  5
3EC
100
AcDbEntity
  8
RACCORDO
100
AcDbPolyline
 62
7
  6
CONTINUOUS
 90
10
 70
0
 10
21.2151574935
 20
17.2790377047
 10
21.2137284288
 20
17.2782469731
 10
21.2122713904
 20
17.2775535544
 10
21.2107860559
 20
17.2769576687
 10
21.2092762186
 20
17.2764566653
 10
21.2077375166
 20
17.2760536175
 10
21.2061570789
 20
17.2757574823
 10
21.2045300486
 20
17.2755715714
 10
21.2028599357
 20
17.2754933934
 10
21.2011461007
 20
17.2755233599
  0
LINE
  5
3ED
100
AcDbEntity
  8
SMUSSO
100
AcDbLine
 62
7
  6
CONTINUOUS
 10
-1.5829933609
 20
3.9927820382
 11
-1.5620109498
 21
4.0041025303
  0
LWPOLYLINE
  5
3EE
100
AcDbEntity
  8
0
100
AcDbPolyline
 62
7
  6
CONTINUOUS
 90
3
 70
0
 10
-15.2248022657
 20
-1.4763304959
 10
-15.221079236
 20
-1.4746475237
 10
-15.2175834069
 20
-1.4725970051
  0
LWPOLYLINE
  5
3EF
100
AcDbEntity
  8
0
100
AcDbPolyline
 62
7
  6
CONTINUOUS
 90
3
 70
0
 10
-15.6658958034
 20
-0.9258961694
 10
-15.6994974575
 20
-0.9395206054
 10
-15.7318831234
 20
-0.9559030531
  0
LWPOLYLINE
  5
3F0
100
AcDbEntity
  8
DRAFT
100
AcDbPolyline
 62
7
  6
CONTINUOUS
 90
9
 70
0
 10
-15.4212383022
 20
-1.4730334847
 10
-15.439081138
 20
-1.4800864662
 10
-15.4692478056
 20
-1.4967354057
 10
-15.4965672389
 20
-1.518477861
 10
-15.5210916981
 20
-1.545218239
 10
-15.5420868657
 20
-1.5762706307
 10
-15.5593076647
 20
-1.6114062478
 10
-15.5729980026
 20
-1.6508532962
 10
-15.5831572139
 20
-1.6946114445
  0
LINE
  5
3F1
100
AcDbEntity
  8
DRAFT
100
AcDbLine
 62
7
  6
CONTINUOUS
 10
-14.4186151683
 20
-4.8585542689
 11
-14.4806198337
 21
-4.8556037963
  0
LWPOLYLINE
  5
3F2
100
AcDbEntity
  8
0
100
AcDbPolyline
 62
7
  6
CONTINUOUS
 90
7
 70
0
 10
-11.7095601482
 20
-2.7965520294
 10
-11.7146902538
 20
-2.7956763451
 10
-11.7196581899
 20
-2.79531957
 10
-11.7244639512
 20
-2.7954817016
 10
-11.7291342258
 20
-2.7961684711
 10
-11.7336423116
 20
-2.7973741404
 10
-11.7379081178
 20
-2.7990815018
  0
LINE
  5
3F3
100
AcDbEntity
  8
DRAFT
100
AcDbLine
 62
7
  6
CONTINUOUS
 10
-13.3521226708
 20
-1.9854485079
 11
-13.3069813764
 21
-1.9946463581
  0
LINE
  5
3F4
100
AcDbEntity
  8
DRAFT
100
AcDbLine
 62
7
  6
CONTINUOUS
 10
-15.2466093413
 20
-1.4783570254
 11
-15.2561761263
 21
-1.4762263271
  0
LWPOLYLINE
  5
3F5
100
AcDbEntity
  8
DRAFT
100
AcDbPolyline
 62
7
  6
CONTINUOUS
 90
3
 70
0
 10
-15.2561761263
 20
-1.4762263271
 10
-15.2964364129
 20
-1.4661462323
 10
-15.3347979595
 20
-1.4614657433
  0
LINE
  5
3F6
100
AcDbEntity
  8
DRAFT
100
AcDbLine
 62
7
  6
CONTINUOUS
 10
-11.7095609313
 20
-2.7965519766
 11
-11.674649104
 21
-2.805415514
  0
LWPOLYLINE
  5
3F7
100
AcDbEntity
  8
0
100
AcDbPolyline
 62
7
  6
CONTINUOUS
 90
8
 70
0
 10
-15.2561760086
 20
-1.4762263535
 10
-15.2512473287
 20
-1.4775788404
 10
-15.2464609858
 20
-1.4784822434
 10
-15.2418169768
 20
-1.4789365607
 10
-15.2372915296
 20
-1.4789282548
 10
-15.2329084073
 20
-1.4784708588
 10
-15.2287389085
 20
-1.4776049776
 10
-15.2261583807
 20
-1.476817144
  0
LINE
  5
3F8
100
AcDbEntity
  8
0
100
AcDbLine
 62
7
  6
CONTINUOUS
 10
-15.3200499347
 20
-0.9293656323
 11
-15.3611783377
 21
-0.9177337142
  0
LWPOLYLINE
  5
3F9
100
AcDbEntity
  8
DRAFT
100
AcDbPolyline
 62
7
  6
CONTINUOUS
 90
9
 70
0
 10
-13.3069813764
 20
-1.9946463581
 10
-13.2618446931
 20
-2.0074437773
 10
-13.2167128187
 20
-2.0238408632
 10
-13.171545023
 20
-2.0438590517
 10
-13.126382213
 20
-2.0674769947
 10
-13.0813469335
 20
-2.0946305599
 10
-13.036479946
 20
-2.1252983271
 10
-12.9917402285
 20
-2.1595015877
 10
-12.9471275418
 20
-2.1972402231
  0
LWPOLYLINE
  5
3FA
100
AcDbEntity
  8
DRAFT
100
AcDbPolyline
 62
7
  6
CONTINUOUS
 90
9
 70
0
 10
-11.674649104
 20
-2.805415514
 10
-11.63972583
 20
-2.8164327911
 10
-11.6047911872
 20
-2.8296038465
 10
-11.5698330457
 20
-2.8449348128
 10
-11.5348636132
 20
-2.8624195959
 10
-11.4999194351
 20
-2.8820398754
 10
-11.4650126671
 20
-2.9037895318
 10
-11.4301310756
 20
-2.9276746461
 10
-11.3952745829
 20
-2.9536951799
  0
LINE
  5
3FB
100
AcDbEntity
  8
0
100
AcDbLine
 62
7
  6
CONTINUOUS
 10
-15.3115413834
 20
-0.9320685664
 11
-15.3200499347
 21
-0.9293656323
  0
LINE
  5
3FC
100
AcDbEntity
  8
DRAFT
100
AcDbLine
 62
7
  6
CONTINUOUS
 10
-15.3200499061
 20
-0.9293656385
 11
-15.3098175118
 21
-0.9326190152
  0
LINE
  5
3FD
100
AcDbEntity
  8
0
100
AcDbLine
 62
7
  6
CONTINUOUS
 10
-15.2961565607
 20
-0.9370507848
 11
-15.3115413834
 21
-0.9320685664
  0
LINE
  5
3FE
100
AcDbEntity
  8
DRAFT
100
AcDbLine
 62
7
  6
CONTINUOUS
 10
-15.3098175118
 20
-0.9326190152
 11
-15.2995790533
 21
-0.9359300315
  0
LINE
  5
3FF
100
AcDbEntity
  8
DRAFT
100
AcDbLine
 62
7
  6
CONTINUOUS
 10
-15.2995790533
 20
-0.9359300315
 11
-15.289334607
 21
-0.9392986609
  0
LINE
  5
400
100
AcDbEntity
  8
0
100
AcDbLine
 62
7
  6
CONTINUOUS
 10
-15.2807774485
 20
-0.9421566198
 11
-15.2961565607
 21
-0.9370507848
  0
LWPOLYLINE
  5
401
100
AcDbEntity
  8
DRAFT
100
AcDbPolyline
 62
7
  6
CONTINUOUS
 90
3
 70
0
 10
-15.289334607
 20
-0.9392986609
 10
-15.2790844762
 20
-0.9427247964
 10
-15.2739572604
 20
-0.9444594358
  0
LINE
  5
402
100
AcDbEntity
  8
0
100
AcDbLine
 62
7
  6
CONTINUOUS
 10
-15.2739607951
 20
-0.9444582567
 11
-15.2807774485
 21
-0.9421566198
  0
LINE
  5
403
100
AcDbEntity
  8
DRAFT
100
AcDbLine
 62
7
  6
CONTINUOUS
 10
-1.5829933609
 20
-5.6897080178
 11
-1.3453800633
 21
-5.8085146666
  0
LWPOLYLINE
  5
404
100
AcDbEntity
  8
0
100
AcDbPolyline
 62
7
  6
CONTINUOUS
 90
5
 70
0
 10
-4.7051429376
 20
24.1729391424
 10
-4.7053888747
 20
24.175228938
 10
-4.7063586357
 20
24.1776291984
 10
-4.7080321424
 20
24.1795604972
 10
-4.7101579121
 20
24.1809466832
  0
LWPOLYLINE
  5
405
100
AcDbEntity
  8
0
100
AcDbPolyline
 62
250
  6
CONTINUOUS
 90
3
 70
0
 10
-4.2272133336
 20
16.6882693913
 10
-4.227809132
 20
16.6941897855
 10
-4.2278973147
 20
16.6975095583
  0
LWPOLYLINE
  5
406
100
AcDbEntity
  8
RACCORDO
100
AcDbPolyline
 62
250
  6
CONTINUOUS
 90
16
 70
0
 10
-4.4659230878
 20
11.9613097851
 10
-4.4697868533
 20
12.0065212351
 10
-4.4773725617
 20
12.0532216611
 10
-4.4885972813
 20
12.100900321
 10
-4.503338281
 20
12.1490357697
 10
-4.5214343686
 20
12.1971015523
 10
-4.5426876511
 20
12.2445719622
 10
-4.5668657071
 20
12.2909278108
 10
-4.5937041195
 20
12.3356620845
 10
-4.6229093586
 20
12.3782854836
 10
-4.6541620175
 20
12.4183318144
 10
-4.6871202885
 20
12.4553630583
 10
-4.7214236838
 20
12.4889741504
 10
-4.7566970127
 20
12.5187974519
 10
-4.7925544892
 20
12.5445067643
 10
-4.8286039275
 20
12.565820875
  0
LWPOLYLINE
  5
407
100
AcDbEntity
  8
0
100
AcDbPolyline
 62
250
  6
CONTINUOUS
 90
20
 70
0
 10
-2.4761359396
 20
-25.8697258981
 10
-2.4759371917
 20
-25.879890185
 10
-2.4753413949
 20
-25.8898328688
 10
-2.474349889
 20
-25.8995315928
 10
-2.4729649033
 20
-25.9089645484
 10
-2.4711895522
 20
-25.9181105252
 10
-2.4690278276
 20
-25.9269489575
 10
-2.4664845904
 20
-25.9354599715
 10
-2.4635655592
 20
-25.9436244296
 10
-2.4602772976
 20
-25.9514239734
 10
-2.4566271996
 20
-25.958841065
 10
-2.4526234728
 20
-25.9658590265
 10
-2.4482751197
 20
-25.9724620776
 10
-2.443591918
 20
-25.9786353706
 10
-2.4385843982
 20
-25.9843650245
 10
-2.4332638201
 20
-25.9896381559
 10
-2.4276421474
 20
-25.9944429075
 10
-2.421732021
 20
-25.9987684756
 10
-2.41554673
 20
-26.0026051338
 10
-2.4111626432
 20
-26.0049443482
  0
LWPOLYLINE
  5
408
100
AcDbEntity
  8
0
100
AcDbPolyline
 62
250
  6
CONTINUOUS
 90
20
 70
0
 10
-4.15467401
 20
16.6091212106
 10
-4.1545057141
 20
16.5997602602
 10
-4.1540011469
 20
16.5905854292
 10
-4.1531612691
 20
16.581614187
 10
-4.1519876833
 20
16.5728636383
 10
-4.1504826224
 20
16.5643504203
 10
-4.148648936
 20
16.5560906774
 10
-4.146490092
 20
16.5481000898
 10
-4.1440102046
 20
16.5403939362
 10
-4.1412140248
 20
16.5329869872
 10
-4.1381069023
 20
16.5258933878
 10
-4.1346947402
 20
16.5191265916
 10
-4.1309840122
 20
16.5126994345
 10
-4.1269817515
 20
16.5066241146
 10
-4.1226956023
 20
16.5009122508
 10
-4.1181337928
 20
16.4955747979
 10
-4.1133050633
 20
16.4906219478
 10
-4.1082185775
 20
16.4860630674
 10
-4.1028839625
 20
16.4819067742
 10
-4.0973245995
 20
16.4781699053
  0
LWPOLYLINE
  5
409
100
AcDbEntity
  8
0
100
AcDbPolyline
 62
250
  6
CONTINUOUS
 90
22
 70
0
 10
-2.4761359396
 20
15.7698521754
 10
-2.4759681074
 20
15.760504006
 10
-2.4754647007
 20
15.7513383294
 10
-2.4746263336
 20
15.7423727599
 10
-2.473454107
 20
15.7336235806
 10
-2.4719499885
 20
15.7251087063
 10
-2.4701171853
 20
15.7168473725
 10
-2.4679594604
 20
15.7088562335
 10
-2.4654807263
 20
15.7011495192
 10
-2.462685669
 20
15.6937418201
 10
-2.459579572
 20
15.6866471921
 10
-2.4561683618
 20
15.6798792187
 10
-2.4524585774
 20
15.6734508856
 10
-2.4484573142
 20
15.6673744716
 10
-2.4441721683
 20
15.6616614975
 10
-2.4396112682
 20
15.6563228017
 10
-2.4347832622
 20
15.6513685233
 10
-2.4296973691
 20
15.6468081371
 10
-2.424363339
 20
15.6426503819
 10
-2.4187913744
 20
15.6389031893
 10
-2.4129920541
 20
15.635573653
 10
-2.4111651137
 20
15.6346349607
  0
LINE
  5
40A
100
AcDbEntity
  8
0
100
AcDbLine
 62
250
  6
CONTINUOUS
 10
-4.15467401
 20
16.9490951448
 11
-4.15467401
 21
16.6091212106
  0
LINE
  5
40B
100
AcDbEntity
  8
0
100
AcDbLine
 62
7
  6
CONTINUOUS
 10
-3.834403389
 20
22.9096486766
 11
-3.834403389
 21
22.3460860182
  0
LINE
  5
40C
100
AcDbEntity
  8
0
100
AcDbLine
 62
7
  6
CONTINUOUS
 10
-3.5249043604
 20
16.191504584
 11
-3.5249043604
 21
15.7375304823
  0
LINE
  5
40D
100
AcDbEntity
  8
0
100
AcDbLine
 62
250
  6
CONTINUOUS
 10
-3.4516810557
 20
16.1548929316
 11
-3.4516810557
 21
15.6458187874
  0
LINE
  5
40E
100
AcDbEntity
  8
DRAFT
100
AcDbLine
 62
250
  6
CONTINUOUS
 10
-3.3861156529
 20
21.6929901056
 11
-3.3861156529
 21
22.2166764957
  0
LINE
  5
40F
100
AcDbEntity
  8
RACCORDO
100
AcDbLine
 62
7
  6
CONTINUOUS
 10
-3.2519263159
 20
12.6132631489
 11
-3.2519263159
 21
9.1377484189
  0
LINE
  5
410
100
AcDbEntity
  8
RACCORDO
100
AcDbLine
 62
7
  6
CONTINUOUS
 10
-3.2519263159
 20
-24.8500637546
 11
-3.2519263159
 21
-21.3745490246
  0
LINE
  5
411
100
AcDbEntity
  8
RACCORDO
100
AcDbLine
 62
7
  6
CONTINUOUS
 10
-2.9945837455
 20
10.4358766426
 11
-2.9945837455
 21
12.7131558506
  0
LINE
  5
412
100
AcDbEntity
  8
RACCORDO
100
AcDbLine
 62
250
  6
CONTINUOUS
 10
-2.9067157799
 20
10.3284823667
 11
-2.9067157799
 21
12.607089837
  0
LINE
  5
413
100
AcDbEntity
  8
RACCORDO
100
AcDbLine
 62
7
  6
CONTINUOUS
 10
-2.8372716749
 20
-21.7684708175
 11
-2.8372716749
 21
-21.4014986805
  0
LINE
  5
414
100
AcDbEntity
  8
RACCORDO
100
AcDbLine
 62
7
  6
CONTINUOUS
 10
-2.8372716749
 20
13.0667388939
 11
-2.8372716749
 21
13.7839203266
  0
LINE
  5
415
100
AcDbEntity
  8
RACCORDO
100
AcDbLine
 62
250
  6
CONTINUOUS
 10
-2.5610707592
 20
12.4342673267
 11
-2.5610707592
 21
10.1556598564
  0
LINE
  5
416
100
AcDbEntity
  8
RACCORDO
100
AcDbLine
 62
250
  6
CONTINUOUS
 10
-2.5610707592
 20
-20.8258179665
 11
-2.5610707592
 21
-21.2607041582
  0
LINE
  5
417
100
AcDbEntity
  8
0
100
AcDbLine
 62
250
  6
CONTINUOUS
 10
-2.4761359396
 20
-25.8697258981
 11
-2.4761359396
 21
-25.5297519639
  0
LINE
  5
418
100
AcDbEntity
  8
0
100
AcDbLine
 62
250
  6
CONTINUOUS
 10
-2.4761359396
 20
15.7698521754
 11
-2.4761359396
 21
16.1098261096
  0
LINE
  5
419
100
AcDbEntity
  8
RACCORDO
100
AcDbLine
 62
250
  6
CONTINUOUS
 10
-2.1405412137
 20
12.4324323738
 11
-2.1405412137
 21
10.1582807165
  0
LINE
  5
41A
100
AcDbEntity
  8
RACCORDO
100
AcDbLine
 62
250
  6
CONTINUOUS
 10
-2.1405412137
 20
-20.4918007899
 11
-2.1405412137
 21
-21.262539111
  0
LINE
  5
41B
100
AcDbEntity
  8
0
100
AcDbLine
 62
250
  6
CONTINUOUS
 10
-2.1236139799
 20
-25.8702386219
 11
-2.1236139799
 21
-25.5302646878
  0
LINE
  5
41C
100
AcDbEntity
  8
0
100
AcDbLine
 62
250
  6
CONTINUOUS
 10
-2.1236139799
 20
15.7693394516
 11
-2.1236139799
 21
16.1093133857
  0
LINE
  5
41D
100
AcDbEntity
  8
RACCORDO
100
AcDbLine
 62
7
  6
CONTINUOUS
 10
-2.0648294393
 20
12.4689893792
 11
-2.0648294393
 21
11.5694329906
  0
LINE
  5
41E
100
AcDbEntity
  8
RACCORDO
100
AcDbLine
 62
7
  6
CONTINUOUS
 10
-2.0648294393
 20
-20.4316646272
 11
-2.0648294393
 21
-21.2259821057
  0
LWPOLYLINE
  5
41F
100
AcDbEntity
  8
RACCORDO
100
AcDbPolyline
 62
250
  6
CONTINUOUS
 90
37
 70
0
 10
-2.9067157799
 20
12.607089837
 10
-2.9065267222
 20
12.6205002809
 10
-2.9053989293
 20
12.6338285472
 10
-2.9033324011
 20
12.6470746359
 10
-2.9004110815
 20
12.6604075015
 10
-2.8965510268
 20
12.6736581896
 10
-2.8915004051
 20
12.6863198362
 10
-2.8852253507
 20
12.6984371135
 10
-2.8777597295
 20
12.7099653493
 10
-2.8689533075
 20
12.7202636643
 10
-2.8587345534
 20
12.7293470891
 10
-2.8471749985
 20
12.737200593
 10
-2.8343390026
 20
12.7431382038
 10
-2.8200943623
 20
12.7470933275
 10
-2.8045732809
 20
12.7491325581
 10
-2.7882367284
 20
12.748769705
 10
-2.7709734031
 20
12.7458165764
 10
-2.7528946068
 20
12.7404613642
 10
-2.7347952141
 20
12.7327824532
 10
-2.7166722109
 20
12.7225767419
 10
-2.6985286115
 20
12.7100473318
 10
-2.6811683338
 20
12.6958819124
 10
-2.6646953016
 20
12.6799899748
 10
-2.6490055912
 20
12.662462028
 10
-2.634591349
 20
12.644257288
 10
-2.6215907306
 20
12.62543982
 10
-2.6098655804
 20
12.6059455589
 10
-2.599493578
 20
12.5865415254
 10
-2.5905491598
 20
12.5673153166
 10
-2.5829578893
 20
12.5481793354
 10
-2.5765741364
 20
12.5296378117
 10
-2.5714333377
 20
12.5117704297
 10
-2.5675000565
 20
12.4944975051
 10
-2.5645223522
 20
12.4780842148
 10
-2.5624162444
 20
12.4626189511
 10
-2.5612657134
 20
12.4480133217
 10
-2.5610707592
 20
12.4342673267
  0
LWPOLYLINE
  5
420
100
AcDbEntity
  8
RACCORDO
100
AcDbPolyline
 62
250
  6
CONTINUOUS
 90
37
 70
0
 10
-2.5610707592
 20
-21.2607041582
 10
-2.5612657079
 20
-21.2742552033
 10
-2.5624162361
 20
-21.2877103038
 10
-2.5645223437
 20
-21.3010694596
 10
-2.5675000523
 20
-21.3145050416
 10
-2.5714333403
 20
-21.3278446789
 10
-2.576574143
 20
-21.340571259
 10
-2.582957894
 20
-21.3527290326
 10
-2.5905491596
 20
-21.364273749
 10
-2.5994935746
 20
-21.3745555431
 10
-2.6098655777
 20
-21.3835875726
 10
-2.6215907302
 20
-21.3913566799
 10
-2.6345913501
 20
-21.3971735271
 10
-2.6490055923
 20
-21.4009640254
 10
-2.6646953019
 20
-21.4028022636
 10
-2.6811683335
 20
-21.4022211703
 10
-2.6985286112
 20
-21.399026312
 10
-2.7166722108
 20
-21.3934121222
 10
-2.7347952141
 20
-21.3854948298
 10
-2.7528946066
 20
-21.3750743478
 10
-2.7709734028
 20
-21.3623507632
 10
-2.7882367282
 20
-21.3480405664
 10
-2.8045732813
 20
-21.3320668678
 10
-2.8200943636
 20
-21.3145065571
 10
-2.834339004
 20
-21.2963067935
 10
-2.8471749979
 20
-21.2775331859
 10
-2.85873455
 20
-21.2581201254
 10
-2.8689533033
 20
-21.2388179455
 10
-2.8777597295
 20
-21.2197132089
 10
-2.885225357
 20
-21.2007193528
 10
-2.8915004138
 20
-21.1823270222
 10
-2.8965510298
 20
-21.164614755
 10
-2.9004110751
 20
-21.1475040133
 10
-2.9033323889
 20
-21.1312498286
 10
-2.9053989175
 20
-21.1159372114
 10
-2.9065267145
 20
-21.1014811511
 10
-2.9065442502
 20
-21.100219804
  0
LWPOLYLINE
  5
421
100
AcDbEntity
  8
0
100
AcDbPolyline
 62
250
  6
CONTINUOUS
 90
25
 70
0
 10
-2.4761359396
 20
-25.5297519639
 10
-2.4759676437
 20
-25.5202227177
 10
-2.4754630765
 20
-25.5105433195
 10
-2.4746231987
 20
-25.5007321994
 10
-2.4734496129
 20
-25.4908080649
 10
-2.471944552
 20
-25.480789786
 10
-2.4701108656
 20
-25.4706963567
 10
-2.4679520216
 20
-25.4605469251
 10
-2.4654721342
 20
-25.4503608841
 10
-2.4626759544
 20
-25.4401577554
 10
-2.4595688319
 20
-25.4299570334
 10
-2.4561566698
 20
-25.4197780751
 10
-2.4524459418
 20
-25.4096401901
 10
-2.4484436811
 20
-25.3995626094
 10
-2.4441575319
 20
-25.3895645964
 10
-2.4395957224
 20
-25.379665334
 10
-2.4347669929
 20
-25.3698837544
 10
-2.4296805071
 20
-25.3602383882
 10
-2.4243458921
 20
-25.35074748
 10
-2.4187726219
 20
-25.3414279929
 10
-2.412971936
 20
-25.3322988241
 10
-2.4069570108
 20
-25.3233804255
 10
-2.4007402459
 20
-25.3146905392
 10
-2.3943329834
 20
-25.306244398
 10
-2.387747592
 20
-25.2980577901
  0
LWPOLYLINE
  5
422
100
AcDbEntity
  8
0
100
AcDbPolyline
 62
250
  6
CONTINUOUS
 90
34
 70
0
 10
-2.4761359396
 20
16.1098261096
 10
-2.4759371917
 20
16.1201891444
 10
-2.4753413949
 20
16.130727625
 10
-2.474349889
 20
16.1414178549
 10
-2.4729649033
 20
16.1522357962
 10
-2.4711895522
 20
16.163157124
 10
-2.4690278276
 20
16.1741572809
 10
-2.4664845904
 20
16.1852115322
 10
-2.4635655592
 20
16.1962950216
 10
-2.4602772976
 20
16.2073828269
 10
-2.4566271996
 20
16.2184500165
 10
-2.4526234728
 20
16.2294717049
 10
-2.4482751197
 20
16.240423109
 10
-2.443591918
 20
16.2512796037
 10
-2.4385843982
 20
16.2620167774
 10
-2.4332638201
 20
16.2726104868
 10
-2.4276421474
 20
16.2830369111
 10
-2.421732021
 20
16.2932726057
 10
-2.41554673
 20
16.3032945549
 10
-2.4091001828
 20
16.3130802235
 10
-2.4024068747
 20
16.3226076077
 10
-2.3954818562
 20
16.3318552845
 10
-2.3883406987
 20
16.3408024598
 10
-2.3809994597
 20
16.3494290152
 10
-2.3734746465
 20
16.3577155532
 10
-2.3657831793
 20
16.3656434409
 10
-2.3579423527
 20
16.3731948519
 10
-2.3499697977
 20
16.3803528062
 10
-2.3418834409
 20
16.3871012087
 10
-2.3337014653
 20
16.393424885
 10
-2.3254422686
 20
16.3993096158
 10
-2.3171244222
 20
16.404742169
 10
-2.3087666295
 20
16.409710329
 10
-2.3003876836
 20
16.4142029245
  0
LWPOLYLINE
  5
423
100
AcDbEntity
  8
RACCORDO
100
AcDbPolyline
 62
250
  6
CONTINUOUS
 90
10
 70
0
 10
-4.4659230878
 20
-25.3501503114
 10
-4.4697869564
 20
-25.3952597973
 10
-4.477372875
 20
-25.4378925378
 10
-4.4885978754
 20
-25.4775822535
 10
-4.5033391884
 20
-25.5138948528
 10
-4.5214355865
 20
-25.5464331806
 10
-4.542689147
 20
-25.574841361
 10
-4.5668674173
 20
-25.5988086903
 10
-4.5937059565
 20
-25.6180730348
 10
-4.6196585507
 20
-25.631118206
  0
LWPOLYLINE
  5
424
100
AcDbEntity
  8
0
100
AcDbPolyline
 62
7
  6
CONTINUOUS
 90
3
 70
0
 10
-11.3587179073
 20
-6.3576788995
 10
-11.3554933357
 20
-6.3546089487
 10
-11.3525324641
 20
-6.3510945703
  0
LWPOLYLINE
  5
425
100
AcDbEntity
  8
RACCORDO
100
AcDbPolyline
 62
7
  6
CONTINUOUS
 90
21
 70
0
 10
21.2137284288
 20
16.5084447277
 10
21.2210187303
 20
16.5130115622
 10
21.2266534394
 20
16.5167860295
 10
21.2320562771
 20
16.5206642221
 10
21.2372221211
 20
16.5246426096
 10
21.2421460848
 20
16.5287173568
 10
21.2468235209
 20
16.5328843284
 10
21.2512500129
 20
16.5371397088
 10
21.2554213813
 20
16.5414795224
 10
21.2593336964
 20
16.5458992961
 10
21.2629832787
 20
16.5503950281
 10
21.266366699
 20
16.5549625702
 10
21.2694807825
 20
16.559597149
 10
21.2723226188
 20
16.564294611
 10
21.2748895575
 20
16.5690506714
 10
21.2771792092
 20
16.5738602966
 10
21.279189457
 20
16.5787192176
 10
21.2809184513
 20
16.5836230503
 10
21.2823646099
 20
16.5885665425
 10
21.2835266265
 20
16.5935453474
 10
21.2844034673
 20
16.5985550191
  0
LWPOLYLINE
  5
426
100
AcDbEntity
  8
0
100
AcDbPolyline
 62
7
  6
CONTINUOUS
 90
6
 70
0
 10
-14.4645351918
 20
-4.261695831
 10
-14.4795717268
 20
-4.2709851871
 10
-14.4949877394
 20
-4.2787973642
 10
-14.510993351
 20
-4.2852888834
 10
-14.5275932853
 20
-4.2904455247
 10
-14.5447829822
 20
-4.2942815905
  0
LWPOLYLINE
  5
427
100
AcDbEntity
  8
RACCORDO
100
AcDbPolyline
 62
7
  6
CONTINUOUS
 90
24
 70
0
 10
21.2151574935
 20
17.2790377047
 10
21.2210187303
 20
17.282579503
 10
21.2266534394
 20
17.2861914052
 10
21.2320562771
 20
17.2898698466
 10
21.2372221211
 20
17.2936110642
 10
21.2421460848
 20
17.2974114554
 10
21.2468235209
 20
17.3012675825
 10
21.2512500129
 20
17.3051755402
 10
21.2554213813
 20
17.3091314427
 10
21.2593336964
 20
17.3131317846
 10
21.2629832787
 20
17.3171724752
 10
21.266366699
 20
17.3212494552
 10
21.2694807825
 20
17.3253591849
 10
21.2723226188
 20
17.3294974239
 10
21.2748895575
 20
17.3336599745
 10
21.2771792092
 20
17.3378432979
 10
21.279189457
 20
17.3420430405
 10
21.2809184513
 20
17.3462549029
 10
21.2823646099
 20
17.3504753828
 10
21.2835266265
 20
17.354700051
 10
21.2844034673
 20
17.358924544
 10
21.2849943704
 20
17.3631454319
 10
21.2852988505
 20
17.3673582486
 10
21.2853441606
 20
17.3697216258
  0
LWPOLYLINE
  5
428
100
AcDbEntity
  8
DRAFT
100
AcDbPolyline
 62
7
  6
CONTINUOUS
 90
5
 70
0
 10
-11.7430216272
 20
-2.8020156415
 10
-11.7381633839
 20
-2.79920375
 10
-11.7296473303
 20
-2.7963836703
 10
-11.7201131644
 20
-2.7954997384
 10
-11.7095609313
 20
-2.7965519766
  0
LWPOLYLINE
  5
429
100
AcDbEntity
  8
0
100
AcDbPolyline
 62
7
  6
CONTINUOUS
 90
3
 70
0
 10
-11.7379081178
 20
-2.7990815018
 10
-11.7419260651
 20
-2.8012989256
 10
-11.7429594456
 20
-2.8019733582
  0
LINE
  5
42A
100
AcDbEntity
  8
SMUSSO
100
AcDbLine
 62
7
  6
CONTINUOUS
 10
-0.7698205625
 20
3.6080073367
 11
-1.5829933609
 21
3.1982856392
  0
LWPOLYLINE
  5
42B
100
AcDbEntity
  8
RACCORDO
100
AcDbPolyline
 62
250
  6
CONTINUOUS
 90
16
 70
0
 10
-5.5179893947
 20
1.0254070079
 10
-5.5570874909
 20
1.0095273286
 10
-5.5994177274
 20
0.9957371175
 10
-5.6445316394
 20
0.9841824742
 10
-5.6919512708
 20
0.9749858134
 10
-5.7411742375
 20
0.9682445685
 10
-5.7916790503
 20
0.9640301593
 10
-5.8429306394
 20
0.9623872349
 10
-5.8943860234
 20
0.9633332012
 10
-5.9455000618
 20
0.9668580362
 10
-5.9957312305
 20
0.9729243963
 10
-6.0445473589
 20
0.981468012
 10
-6.0914312679
 20
0.9923983683
 10
-6.1358862492
 20
1.0055996645
 10
-6.1774413275
 20
1.0209320403
 10
-6.2156562505
 20
1.038233058
  0
LINE
  5
42C
100
AcDbEntity
  8
0
100
AcDbLine
 62
7
  6
CONTINUOUS
 10
-15.2261583807
 20
-1.476817144
 11
-15.2248022657
 21
-1.4763304959
  0
LWPOLYLINE
  5
42D
100
AcDbEntity
  8
0
100
AcDbPolyline
 62
7
  6
CONTINUOUS
 90
10
 70
0
 10
-15.4212691236
 20
-1.4729632922
 10
-15.4058528541
 20
-1.4683222475
 10
-15.3884860551
 20
-1.46454408
 10
-15.3706700949
 20
-1.4621275487
 10
-15.3523938665
 20
-1.4610830433
 10
-15.3336686148
 20
-1.4614002427
 10
-15.3146669029
 20
-1.4630736966
 10
-15.2954462865
 20
-1.4661016055
 10
-15.2759493095
 20
-1.4704858184
 10
-15.2561760086
 20
-1.4762263535
  0
LINE
  5
42E
100
AcDbEntity
  8
DRAFT
100
AcDbLine
 62
7
  6
CONTINUOUS
 10
-15.2261634874
 20
-1.4768281551
 11
-15.2295271107
 21
-1.477807166
  0
LWPOLYLINE
  5
42F
100
AcDbEntity
  8
DRAFT
100
AcDbPolyline
 62
7
  6
CONTINUOUS
 90
4
 70
0
 10
-13.0101376852
 20
-5.554079083
 10
-13.0144832537
 20
-5.5552303433
 10
-13.0239811271
 20
-5.5560961577
 10
-13.0345060933
 20
-5.5550303488
  0
LINE
  5
430
100
AcDbEntity
  8
DRAFT
100
AcDbLine
 62
7
  6
CONTINUOUS
 10
-14.3007358047
 20
-4.8426918163
 11
-14.3585455315
 21
-4.8542221176
  0
LWPOLYLINE
  5
431
100
AcDbEntity
  8
0
100
AcDbPolyline
 62
7
  6
CONTINUOUS
 90
8
 70
0
 10
-14.5447829822
 20
-4.2942815905
 10
-14.5624261913
 20
-4.2967712781
 10
-14.5805339952
 20
-4.2979045312
 10
-14.5990954483
 20
-4.2976914751
 10
-14.6179412584
 20
-4.2961365806
 10
-14.6370150295
 20
-4.2932413554
 10
-14.6563732573
 20
-4.289004342
 10
-14.6760159787
 20
-4.283425559
  0
LINE
  5
432
100
AcDbEntity
  8
DRAFT
100
AcDbLine
 62
7
  6
CONTINUOUS
 10
-14.3585455315
 20
-4.8542221176
 11
-14.4186151683
 21
-4.8585542689
  0
LINE
  5
433
100
AcDbEntity
  8
0
100
AcDbLine
 62
7
  6
CONTINUOUS
 10
-15.4416826378
 20
-0.9028952099
 11
-15.48117906
 21
-0.899683941
  0
LWPOLYLINE
  5
434
100
AcDbEntity
  8
0
100
AcDbPolyline
 62
7
  6
CONTINUOUS
 90
7
 70
0
 10
-13.3521222142
 20
-1.9854485183
 10
-13.356881384
 20
-1.9849246123
 10
-13.3614839474
 20
-1.9848575722
 10
-13.3659298996
 20
-1.9852473954
 10
-13.3702372543
 20
-1.9860970341
 10
-13.3743879858
 20
-1.9874035303
 10
-13.3783280296
 20
-1.9891580164
  0
LWPOLYLINE
  5
435
100
AcDbEntity
  8
DRAFT
100
AcDbPolyline
 62
7
  6
CONTINUOUS
 90
4
 70
0
 10
-14.6917948179
 20
-1.2404897806
 10
-14.6810447768
 20
-1.2421033964
 10
-14.6696070452
 20
-1.2461725487
 10
-14.6574816428
 20
-1.2526972471
  0
LWPOLYLINE
  5
436
100
AcDbEntity
  8
0
100
AcDbPolyline
 62
7
  6
CONTINUOUS
 90
3
 70
0
 10
-15.3611783377
 20
-0.9177337142
 10
-15.401722626
 20
-0.9089102667
 10
-15.4416826378
 20
-0.9028952099
  0
LWPOLYLINE
  5
437
100
AcDbEntity
  8
0
100
AcDbPolyline
 62
250
  6
CONTINUOUS
 90
5
 70
0
 10
0.0252385641
 20
-24.332563712
 10
0.0239712969
 20
-24.3210949506
 10
0.0222620125
 20
-24.3097676931
 10
0.0201145688
 20
-24.2986075056
 10
0.0175338131
 20
-24.2876395771
  0
LWPOLYLINE
  5
438
100
AcDbEntity
  8
0
100
AcDbPolyline
 62
7
  6
CONTINUOUS
 90
27
 70
0
 10
-0.9819525969
 20
23.4545476703
 10
-0.982383736
 20
23.4844984256
 10
-0.9836652106
 20
23.5139188945
 10
-0.9857970207
 20
23.5428090769
 10
-0.9887844562
 20
23.571206085
 10
-0.9926222272
 20
23.5990728067
 10
-0.9972944642
 20
23.6262979058
 10
-1.0028021551
 20
23.6528704598
 10
-1.009144312
 20
23.6788013912
 10
-1.0163021013
 20
23.704012131
 10
-1.0242821994
 20
23.7285111585
 10
-1.03307793
 20
23.7522899945
 10
-1.0426504308
 20
23.7752446326
 10
-1.0529967318
 20
23.7973597319
 10
-1.0641198029
 20
23.8186506332
 10
-1.0759896917
 20
23.839059353
 10
-1.0886171121
 20
23.8585953072
 10
-1.1019913502
 20
23.8772490798
 10
-1.1160503116
 20
23.894934439
 10
-1.1307863297
 20
23.9116359959
 10
-1.1462070711
 20
23.9273691395
 10
-1.1622734417
 20
23.9420938048
 10
-1.1789997566
 20
23.9558166517
 10
-1.1963717005
 20
23.9685310203
 10
-1.2143072332
 20
23.9801768661
 10
-1.232795156
 20
23.9907421757
 10
-1.2418461559
 20
23.9954216574
  0
LINE
  5
439
100
AcDbEntity
  8
0
100
AcDbLine
 62
250
  6
CONTINUOUS
 10
-1.7649153315
 20
-24.5532554868
 11
-1.7649153315
 21
-23.8593427596
  0
LINE
  5
43A
100
AcDbEntity
  8
0
100
AcDbLine
 62
250
  6
CONTINUOUS
 10
-1.7649153315
 20
14.8024359253
 11
-1.7649153315
 21
15.483185671
  0
LINE
  5
43B
100
AcDbEntity
  8
DRAFT
100
AcDbLine
 62
7
  6
CONTINUOUS
 10
-1.5829933609
 20
9.3959106807
 11
-1.5829933609
 21
-20.0489530479
  0
LINE
  5
43C
100
AcDbEntity
  8
DRAFT
100
AcDbLine
 62
7
  6
CONTINUOUS
 10
-1.5620109498
 20
4.1773076111
 11
-1.5620109498
 21
4.0041025303
  0
LINE
  5
43D
100
AcDbEntity
  8
DRAFT
100
AcDbLine
 62
7
  6
CONTINUOUS
 10
-1.5620109498
 20
-14.139129679
 11
-1.5620109498
 21
-15.0484563529
  0
LINE
  5
43E
100
AcDbEntity
  8
DRAFT
100
AcDbLine
 62
7
  6
CONTINUOUS
 10
-1.5620109498
 20
7.4249028753
 11
-1.5620109498
 21
7.5722745825
  0
LINE
  5
43F
100
AcDbEntity
  8
0
100
AcDbLine
 62
250
  6
CONTINUOUS
 10
-1.4123933718
 20
-24.6787682107
 11
-1.4123933718
 21
-24.0356037394
  0
LINE
  5
440
100
AcDbEntity
  8
0
100
AcDbLine
 62
250
  6
CONTINUOUS
 10
-1.4123933718
 20
14.813203807
 11
-1.4123933718
 21
15.6208359287
  0
LINE
  5
441
100
AcDbEntity
  8
DRAFT
100
AcDbLine
 62
7
  6
CONTINUOUS
 10
-1.3453800633
 20
-2.2537138735
 11
-1.3453800633
 21
-5.8085146666
  0
LINE
  5
442
100
AcDbEntity
  8
0
100
AcDbLine
 62
7
  6
CONTINUOUS
 10
-0.9819525969
 20
23.4545476703
 11
-0.9819525969
 21
22.9928885509
  0
LINE
  5
443
100
AcDbEntity
  8
RACCORDO
100
AcDbLine
 62
7
  6
CONTINUOUS
 10
-0.8950176016
 20
13.9342761668
 11
-0.8950176016
 21
10.9845270717
  0
LINE
  5
444
100
AcDbEntity
  8
RACCORDO
100
AcDbLine
 62
7
  6
CONTINUOUS
 10
-0.8950176016
 20
-20.9113316359
 11
-0.8950176016
 21
-23.8610807309
  0
LINE
  5
445
100
AcDbEntity
  8
DRAFT
100
AcDbLine
 62
7
  6
CONTINUOUS
 10
-0.7698205625
 20
-18.9511841633
 11
-0.7698205625
 21
-15.4445515466
  0
LINE
  5
446
100
AcDbEntity
  8
DRAFT
100
AcDbLine
 62
7
  6
CONTINUOUS
 10
-0.7698205625
 20
-11.1144245276
 11
-0.7698205625
 21
3.6080073367
  0
LINE
  5
447
100
AcDbEntity
  8
DRAFT
100
AcDbLine
 62
7
  6
CONTINUOUS
 10
-0.7698205625
 20
7.9381343556
 11
-0.7698205625
 21
10.7129630901
  0
LINE
  5
448
100
AcDbEntity
  8
0
100
AcDbLine
 62
7
  6
CONTINUOUS
 10
-0.5223331891
 20
-23.9212766167
 11
-0.5223331891
 21
-25.0902040223
  0
LINE
  5
449
100
AcDbEntity
  8
0
100
AcDbLine
 62
7
  6
CONTINUOUS
 10
-0.5223331891
 20
15.3098847282
 11
-0.5223331891
 21
16.9120353892
  0
LINE
  5
44A
100
AcDbEntity
  8
0
100
AcDbLine
 62
250
  6
CONTINUOUS
 10
0.0059339826
 20
17.1754742092
 11
0.0059339826
 21
16.8279426925
  0
LINE
  5
44B
100
AcDbEntity
  8
0
100
AcDbLine
 62
250
  6
CONTINUOUS
 10
0.0059339826
 20
-24.4716614469
 11
0.0059339826
 21
-24.8191929636
  0
LINE
  5
44C
100
AcDbEntity
  8
0
100
AcDbLine
 62
7
  6
CONTINUOUS
 10
0.0781318396
 20
17.2633468414
 11
0.0781318396
 21
16.9158153247
  0
LINE
  5
44D
100
AcDbEntity
  8
0
100
AcDbLine
 62
7
  6
CONTINUOUS
 10
0.0781318396
 20
-24.3837888147
 11
0.0781318396
 21
-24.7313203314
  0
LINE
  5
44E
100
AcDbEntity
  8
0
100
AcDbLine
 62
250
  6
CONTINUOUS
 10
0.0781318396
 20
-24.7313203314
 11
0.0781316946
 21
-24.7314549551
  0
LWPOLYLINE
  5
44F
100
AcDbEntity
  8
0
100
AcDbPolyline
 62
7
  6
CONTINUOUS
 90
20
 70
0
 10
-0.5223331891
 20
-25.0902040223
 10
-0.522533568
 20
-25.1004056134
 10
-0.523133737
 20
-25.1103837783
 10
-0.5241324406
 20
-25.1201159656
 10
-0.5255275989
 20
-25.1295802218
 10
-0.5273160598
 20
-25.1387551096
 10
-0.5294936057
 20
-25.147619757
 10
-0.5320553644
 20
-25.1561541123
 10
-0.5349956252
 20
-25.1643388882
 10
-0.5383075995
 20
-25.172155474
 10
-0.5419838234
 20
-25.1795861812
 10
-0.5460160424
 20
-25.1866142129
 10
-0.5503950342
 20
-25.1932235995
 10
-0.5551108953
 20
-25.1993993763
 10
-0.560152995
 20
-25.2051275786
 10
-0.5655098654
 20
-25.2103952043
 10
-0.5711693648
 20
-25.215190317
 10
-0.5771187027
 20
-25.2195020691
 10
-0.5833443993
 20
-25.2233206913
 10
-0.5864382908
 20
-25.2249817944
  0
LWPOLYLINE
  5
450
100
AcDbEntity
  8
0
100
AcDbPolyline
 62
250
  6
CONTINUOUS
 90
18
 70
0
 10
0.0781318396
 20
17.2633468414
 10
0.0780782781
 20
17.2607594733
 10
0.0775518507
 20
17.2548371692
 10
0.0764644384
 20
17.2489339964
 10
0.0748184837
 20
17.2430632296
 10
0.0726176865
 20
17.2372380752
 10
0.0698669936
 20
17.2314716343
 10
0.0665725898
 20
17.2257768778
 10
0.0627418853
 20
17.2201666189
 10
0.0583834957
 20
17.2146534772
 10
0.053507222
 20
17.2092498521
 10
0.0481240326
 20
17.2039678994
 10
0.0422460314
 20
17.1988194967
 10
0.0358864413
 20
17.1938162268
 10
0.0290595785
 20
17.1889693519
 10
0.0217808044
 20
17.1842897759
 10
0.0140664882
 20
17.1797880201
 10
0.0059339826
 20
17.1754742092
  0
LWPOLYLINE
  5
451
100
AcDbEntity
  8
0
100
AcDbPolyline
 62
250
  6
CONTINUOUS
 90
18
 70
0
 10
0.0781318387
 20
16.9158046218
 10
0.0780774167
 20
16.9132072372
 10
0.0775490637
 20
16.9072852553
 10
0.0764597917
 20
16.9013824782
 10
0.0748120537
 20
16.8955121722
 10
0.0726095535
 20
16.8896875261
 10
0.0698572218
 20
16.8839215965
 10
0.0665612629
 20
16.878227394
 10
0.0627291714
 20
16.8726178366
 10
0.0583696594
 20
16.8671056071
 10
0.0534925137
 20
16.8617030188
 10
0.0481086184
 20
16.8564221079
 10
0.0422295834
 20
16.8512743375
 10
0.0358690466
 20
16.8462717181
 10
0.0290428869
 20
16.8414265636
 10
0.0217673144
 20
16.836749999
 10
0.0140584808
 20
16.8322520491
 10
0.0059339826
 20
16.8279426925
  0
LWPOLYLINE
  5
452
100
AcDbEntity
  8
0
100
AcDbPolyline
 62
250
  6
CONTINUOUS
 90
20
 70
0
 10
-2.1236139799
 20
-25.8702386219
 10
-2.1238623098
 20
-25.8804650399
 10
-2.1245082902
 20
-25.8904668627
 10
-2.1255504589
 20
-25.9002214269
 10
-2.126986457
 20
-25.9097066344
 10
-2.1288130317
 20
-25.9189009861
 10
-2.1310260416
 20
-25.9277836326
 10
-2.1336204705
 20
-25.9363344434
 10
-2.1365904402
 20
-25.9445340482
 10
-2.1399292196
 20
-25.952363866
 10
-2.1436292432
 20
-25.9598061572
 10
-2.1476821261
 20
-25.9668440585
 10
-2.1520786807
 20
-25.973461619
 10
-2.1568089427
 20
-25.9796438454
 10
-2.1618621934
 20
-25.9853767327
 10
-2.1672269798
 20
-25.9906472915
 10
-2.1728911473
 20
-25.9954435847
 10
-2.1788418579
 20
-25.9997547445
 10
-2.1850656151
 20
-26.0035709988
 10
-2.1897114327
 20
-26.006009092
  0
LWPOLYLINE
  5
453
100
AcDbEntity
  8
RACCORDO
100
AcDbPolyline
 62
250
  6
CONTINUOUS
 90
13
 70
0
 10
-2.1405415717
 20
-21.2625389257
 10
-2.1413242009
 20
-21.292192994
 10
-2.1438136822
 20
-21.3222338081
 10
-2.1482198173
 20
-21.3523934091
 10
-2.1547574854
 20
-21.3823621585
 10
-2.1636296405
 20
-21.4117966752
 10
-2.1750229418
 20
-21.4403182232
 10
-2.1891229212
 20
-21.4675063882
 10
-2.2060829642
 20
-21.4928947882
 10
-2.2259999511
 20
-21.515995595
 10
-2.2489772919
 20
-21.5363156219
 10
-2.2750466599
 20
-21.553303364
 10
-2.2860763963
 20
-21.5589302779
  0
LWPOLYLINE
  5
454
100
AcDbEntity
  8
RACCORDO
100
AcDbPolyline
 62
7
  6
CONTINUOUS
 90
10
 70
0
 10
-2.0648294393
 20
-21.2259821057
 10
-2.0671377549
 20
-21.2751336537
 10
-2.0734352695
 20
-21.3206957277
 10
-2.083721983
 20
-21.3626683276
 10
-2.0981928363
 20
-21.4014253545
 10
-2.1166528886
 20
-21.4365929074
 10
-2.1385173168
 20
-21.4670492829
 10
-2.163908447
 20
-21.4926490196
 10
-2.1927039532
 20
-21.5135375789
 10
-2.2107159421
 20
-21.523321229
  0
LWPOLYLINE
  5
455
100
AcDbEntity
  8
DRAFT
100
AcDbPolyline
 62
7
  6
CONTINUOUS
 90
43
 70
0
 10
19.3337705122
 20
14.9062267277
 10
19.3430395819
 20
14.9131442454
 10
19.3521325672
 20
14.9197054608
 10
19.3610497822
 20
14.925908598
 10
19.3697717769
 20
14.9317378102
 10
19.3783194162
 20
14.9372051927
 10
19.3867508548
 20
14.9423520779
 10
19.3950673692
 20
14.9471878989
 10
19.4032631437
 20
14.9517021229
 10
19.411380675
 20
14.9559081799
 10
19.4194094712
 20
14.9598117713
 10
19.4273510378
 20
14.9634076044
 10
19.4352600575
 20
14.9666947031
 10
19.4431315722
 20
14.9696847098
 10
19.4509535957
 20
14.9723686616
 10
19.4587635119
 20
14.9747168178
 10
19.4665452694
 20
14.9767386928
 10
19.4742905113
 20
14.9784288615
 10
19.4820403876
 20
14.9797372957
 10
19.4897822221
 20
14.9806746457
 10
19.4974924113
 20
14.9812362851
 10
19.5051872451
 20
14.9813512076
 10
19.5128459049
 20
14.9810247995
 10
19.5204417577
 20
14.9802583453
 10
19.5279747784
 20
14.9789759412
 10
19.5354200669
 20
14.9771766252
 10
19.5427429074
 20
14.9748677622
 10
19.5499223639
 20
14.9719864379
 10
19.5569231162
 20
14.9685283852
 10
19.5637111277
 20
14.9645022881
 10
19.5702615997
 20
14.9598646374
 10
19.5765272654
 20
14.9546165788
 10
19.5824745302
 20
14.9487584943
 10
19.5880870448
 20
14.9422461238
 10
19.5933053702
 20
14.9350863869
 10
19.5980840543
 20
14.9272707792
 10
19.6024013133
 20
14.9187329323
 10
19.6061909103
 20
14.909435736
 10
19.6093631973
 20
14.8994099972
 10
19.6118393428
 20
14.8886902419
 10
19.6135379369
 20
14.8772140782
 10
19.6143640327
 20
14.8650251198
 10
19.6144307118
 20
14.8603860291
  0
LWPOLYLINE
  5
456
100
AcDbEntity
  8
RACCORDO
100
AcDbPolyline
 62
7
  6
CONTINUOUS
 90
9
 70
0
 10
21.2137284288
 20
16.5084447277
 10
21.2122713904
 20
16.5074403743
 10
21.2107860559
 20
16.5063315452
 10
21.2092762186
 20
16.5051259555
 10
21.2077375166
 20
16.5038163127
 10
21.2061570789
 20
16.5023804749
 10
21.2045300486
 20
16.5008113879
 10
21.2028599357
 20
16.4991169261
 10
21.2011461007
 20
16.4972975014
  0
LWPOLYLINE
  5
457
100
AcDbEntity
  8
RACCORDO
100
AcDbPolyline
 62
7
  6
CONTINUOUS
 90
34
 70
0
 10
20.5789778775
 20
15.3480527601
 10
20.6117909903
 20
15.3699854602
 10
20.6440684209
 20
15.3929968212
 10
20.6757893552
 20
15.4170820499
 10
20.7069280534
 20
15.4422312951
 10
20.7374698888
 20
15.4684424633
 10
20.7674105306
 20
15.4957232294
 10
20.7967310636
 20
15.5240692218
 10
20.8254105639
 20
15.5534732562
 10
20.8534409706
 20
15.5839412589
 10
20.8808054307
 20
15.6154707216
 10
20.9074820298
 20
15.6480525767
 10
20.9334551797
 20
15.6816844474
 10
20.9587094767
 20
15.7163642471
 10
20.9832237449
 20
15.7520813404
 10
21.0069751504
 20
15.7888204574
 10
21.0299494981
 20
15.8265779483
 10
21.0521280553
 20
15.8653421224
 10
21.0734840633
 20
15.9050839281
 10
21.0940049913
 20
15.9457969972
 10
21.1136753715
 20
15.9874685519
 10
21.1324681546
 20
16.0300568871
 10
21.1503728505
 20
16.0735518318
 10
21.1673778324
 20
16.1179398049
 10
21.1834592509
 20
16.1631701273
 10
21.1986090451
 20
16.2092284709
 10
21.2128194334
 20
16.2561005749
 10
21.2260721044
 20
16.3037317587
 10
21.2383616837
 20
16.3521040376
 10
21.2496837721
 20
16.4012022828
 10
21.2600263341
 20
16.4509722198
 10
21.2693848424
 20
16.5013826477
 10
21.2777598933
 20
16.5524274352
 10
21.284545635
 20
16.5995681444
  0
LINE
  5
458
100
AcDbEntity
  8
DRAFT
100
AcDbLine
 62
7
  6
CONTINUOUS
 10
20.5789778776
 20
15.3480527602
 11
19.6144307119
 21
14.724191797
  0
LWPOLYLINE
  5
459
100
AcDbEntity
  8
0
100
AcDbPolyline
 62
7
  6
CONTINUOUS
 90
3
 70
0
 10
-11.3659119409
 20
-6.3625100225
 10
-11.362208514
 20
-6.360317929
 10
-11.3587179073
 20
-6.3576788995
  0
LWPOLYLINE
  5
45A
100
AcDbEntity
  8
0
100
AcDbPolyline
 62
7
  6
CONTINUOUS
 90
3
 70
0
 10
-13.0058033158
 20
-5.5522987807
 10
-13.0022749447
 20
-5.5503503217
 10
-12.9985285488
 20
-5.5476458654
  0
LINE
  5
45B
100
AcDbEntity
  8
0
100
AcDbLine
 62
7
  6
CONTINUOUS
 10
-13.0101382996
 20
-5.5541297828
 11
-13.0058033158
 21
-5.5522987807
  0
LWPOLYLINE
  5
45C
100
AcDbEntity
  8
0
100
AcDbPolyline
 62
7
  6
CONTINUOUS
 90
14
 70
0
 10
-14.2666449467
 20
-4.8321192096
 10
-14.233224955
 20
-4.8185855942
 10
-14.2010299626
 20
-4.8022984665
 10
-14.170314444
 20
-4.7833834961
 10
-14.1410888782
 20
-4.7618180452
 10
-14.1133420279
 20
-4.7376243695
 10
-14.0872958751
 20
-4.71099552
 10
-14.0629672415
 20
-4.6819187933
 10
-14.040338577
 20
-4.6504065263
 10
-14.0195804273
 20
-4.6166893911
 10
-14.0006983725
 20
-4.5807214958
 10
-13.9836861812
 20
-4.5425484052
 10
-13.9686968627
 20
-4.5025380682
 10
-13.955781324
 20
-4.4608130862
  0
LINE
  5
45D
100
AcDbEntity
  8
0
100
AcDbLine
 62
7
  6
CONTINUOUS
 10
-14.2715170309
 20
-4.8338258176
 11
-14.2666449467
 21
-4.8321192096
  0
LWPOLYLINE
  5
45E
100
AcDbEntity
  8
RACCORDO
100
AcDbPolyline
 62
7
  6
CONTINUOUS
 90
40
 70
0
 10
19.3337705122
 20
4.9817195323
 10
19.4164152422
 20
5.0043446624
 10
19.4966660544
 20
5.0260117263
 10
19.5745229486
 20
5.0467207242
 10
19.649917458
 20
5.0664435489
 10
19.7229180495
 20
5.0852083075
 10
19.7937301238
 20
5.1030993214
 10
19.8623619819
 20
5.1201198082
 10
19.9288053228
 20
5.1362665502
 10
19.9932406434
 20
5.1516142162
 10
20.0556733421
 20
5.1661651507
 10
20.1160980205
 20
5.1799170091
 10
20.174678981
 20
5.1929374261
 10
20.231420819
 20
5.2052284914
 10
20.286318939
 20
5.2167881154
 10
20.3395238571
 20
5.2276776642
 10
20.3910396539
 20
5.2378990743
 10
20.4408622489
 20
5.2474504093
 10
20.4891299163
 20
5.2563872254
 10
20.5358472936
 20
5.2647114896
 10
20.5810097435
 20
5.2724212349
 10
20.6247416274
 20
5.2795661162
 10
20.6670459251
 20
5.2861477734
 10
20.707919657
 20
5.2921645667
 10
20.7474782455
 20
5.2976612315
 10
20.7857251667
 20
5.3026394867
 10
20.8226569445
 20
5.3070976135
 10
20.8583785728
 20
5.3110751905
 10
20.8928924917
 20
5.3145738592
 10
20.926196261
 20
5.3175919781
 10
20.9583875545
 20
5.3201642014
 10
20.9894722846
 20
5.3222923078
 10
21.0194445388
 20
5.3239745185
 10
21.048384253
 20
5.3252401517
 10
21.0762941082
 20
5.3260905236
 10
21.1031714234
 20
5.3265243179
 10
21.129088091
 20
5.3265669046
 10
21.1540680751
 20
5.32622674
 10
21.1780874117
 20
5.3254953677
 10
21.2011461007
 20
5.3243727877
  0
LWPOLYLINE
  5
45F
100
AcDbEntity
  8
0
100
AcDbPolyline
 62
7
  6
CONTINUOUS
 90
6
 70
0
 10
-14.691951608
 20
-1.2404847838
 10
-14.6972912719
 20
-1.240642903
 10
-14.7024508765
 20
-1.2414339075
 10
-14.7073303595
 20
-1.242830451
 10
-14.7119212362
 20
-1.2448422493
 10
-14.715745299
 20
-1.2471155742
  0
LWPOLYLINE
  5
460
100
AcDbEntity
  8
DRAFT
100
AcDbPolyline
 62
7
  6
CONTINUOUS
 90
4
 70
0
 10
-15.3347979595
 20
-1.4614657433
 10
-15.3712604027
 20
-1.4621846798
 10
-15.4061208675
 20
-1.4684361312
 10
-15.4212383022
 20
-1.4730334847
  0
LWPOLYLINE
  5
461
100
AcDbEntity
  8
0
100
AcDbPolyline
 62
7
  6
CONTINUOUS
 90
3
 70
0
 10
-15.48117906
 20
-0.899683941
 10
-15.5200907711
 20
-0.8992808477
 10
-15.5580548606
 20
-0.901699318
  0
LINE
  5
462
100
AcDbEntity
  8
RACCORDO
100
AcDbLine
 62
250
  6
CONTINUOUS
 10
-6.215656251
 20
1.0382330577
 11
-21.0764487706
 21
8.4686293175
  0
LWPOLYLINE
  5
463
100
AcDbEntity
  8
RACCORDO
100
AcDbPolyline
 62
250
  6
CONTINUOUS
 90
7
 70
0
 10
-2.9945837455
 20
12.7131558506
 10
-2.9917245456
 20
12.6924958353
 10
-2.9839048103
 20
12.6734906223
 10
-2.9712439653
 20
12.6551491218
 10
-2.9539538661
 20
12.6377782352
 10
-2.9323238268
 20
12.6216686221
 10
-2.9067157799
 20
12.607089837
  0
LWPOLYLINE
  5
464
100
AcDbEntity
  8
0
100
AcDbPolyline
 62
7
  6
CONTINUOUS
 90
43
 70
0
 10
0.1850821334
 20
14.5231790208
 10
0.1848372427
 20
14.5394087529
 10
0.1841017526
 20
14.5558907958
 10
0.1828739054
 20
14.5726033397
 10
0.1811509781
 20
14.589537655
 10
0.17893349
 20
14.6066575295
 10
0.1762291743
 20
14.6238981688
 10
0.1730446989
 20
14.6412249985
 10
0.1693838641
 20
14.6586235193
 10
0.1652556165
 20
14.676057814
 10
0.1606736986
 20
14.6934807824
 10
0.155641184
 20
14.7108906169
 10
0.1501484373
 20
14.7283193639
 10
0.144190659
 20
14.7457700962
 10
0.1377818934
 20
14.7631903943
 10
0.130939422
 20
14.7805290345
 10
0.1236708392
 20
14.797765041
 10
0.1159871597
 20
14.8148703452
 10
0.1079163833
 20
14.8317845775
 10
0.0994831505
 20
14.8484633758
 10
0.0906910529
 20
14.8649064572
 10
0.0815378464
 20
14.881120146
 10
0.0720361657
 20
14.8970820394
 10
0.0621993773
 20
14.9127697351
 10
0.0520234109
 20
14.9281874472
 10
0.0415070354
 20
14.9433315197
 10
0.0306765335
 20
14.9581586475
 10
0.0195702002
 20
14.972614771
 10
0.0082069511
 20
14.9866767992
 10
-0.0033994387
 20
15.0003289998
 10
-0.0152148718
 20
15.013533428
 10
-0.0272020429
 20
15.0262541906
 10
-0.0393615873
 20
15.0384976406
 10
-0.0517169795
 20
15.0502876645
 10
-0.0642687753
 20
15.0616209995
 10
-0.0769832997
 20
15.072463506
 10
-0.0898337075
 20
15.0827901521
 10
-0.1028092361
 20
15.0925908733
 10
-0.1158846579
 20
15.1018451127
 10
-0.1290101438
 20
15.1105184018
 10
-0.1421562542
 20
15.118595421
 10
-0.1553146637
 20
15.1260754821
 10
-0.1684667698
 20
15.1329515186
  0
LINE
  5
465
100
AcDbEntity
  8
DRAFT
100
AcDbLine
 62
7
  6
CONTINUOUS
 10
0.1850821334
 20
14.5231790208
 11
0.2201289311
 21
10.8310282322
  0
LINE
  5
466
100
AcDbEntity
  8
DRAFT
100
AcDbLine
 62
7
  6
CONTINUOUS
 10
0.3953629196
 20
10.8621752313
 11
0.3953629196
 21
-19.5337759044
  0
LINE
  5
467
100
AcDbEntity
  8
0
100
AcDbLine
 62
250
  6
CONTINUOUS
 10
0.7544688243
 20
19.9718143247
 11
0.7544688243
 21
20.4462157
  0
LINE
  5
468
100
AcDbEntity
  8
0
100
AcDbLine
 62
250
  6
CONTINUOUS
 10
0.7544688243
 20
20.8023915665
 11
0.7544688243
 21
21.3555622896
  0
LINE
  5
469
100
AcDbEntity
  8
0
100
AcDbLine
 62
7
  6
CONTINUOUS
 10
0.8853036754
 20
20.1294537803
 11
0.8853036754
 21
21.377717903
  0
LINE
  5
46A
100
AcDbEntity
  8
DRAFT
100
AcDbLine
 62
7
  6
CONTINUOUS
 10
0.8860180872
 20
14.8747794367
 11
0.8860180872
 21
11.9585288811
  0
LINE
  5
46B
100
AcDbEntity
  8
DRAFT
100
AcDbLine
 62
7
  6
CONTINUOUS
 10
0.8860180872
 20
-20.1308352281
 11
0.8860180872
 21
-23.0470857838
  0
LINE
  5
46C
100
AcDbEntity
  8
DRAFT
100
AcDbLine
 62
7
  6
CONTINUOUS
 10
1.9374220179
 20
12.4887913415
 11
1.9374220179
 21
-19.5911812756
  0
LINE
  5
46D
100
AcDbEntity
  8
RACCORDO
100
AcDbLine
 62
7
  6
CONTINUOUS
 10
1.952540545
 20
11.7453860736
 11
1.952540545
 21
-18.8628945349
  0
LINE
  5
46E
100
AcDbEntity
  8
DRAFT
100
AcDbLine
 62
7
  6
CONTINUOUS
 10
0.2201289311
 20
-19.6809483074
 11
0.1850821334
 21
-23.4087629765
  0
LWPOLYLINE
  5
46F
100
AcDbEntity
  8
0
100
AcDbPolyline
 62
250
  6
CONTINUOUS
 90
20
 70
0
 10
0.0059339826
 20
-24.8191929636
 10
0.0057812007
 20
-24.8293716076
 10
0.0052258914
 20
-24.8393280949
 10
0.0042693113
 20
-24.8490398648
 10
0.0029136255
 20
-24.8584849161
 10
0.0011619047
 20
-24.8676418409
 10
-0.0009818794
 20
-24.8764898745
 10
-0.0035128676
 20
-24.8850089649
 10
-0.0064253252
 20
-24.8931798137
 10
-0.0097126516
 20
-24.9009839049
 10
-0.0133673978
 20
-24.9084035575
 10
-0.0173812814
 20
-24.9154219592
 10
-0.0217452033
 20
-24.9220232034
 10
-0.0264492732
 20
-24.9281923336
 10
-0.0314828315
 20
-24.9339153747
 10
-0.0368344698
 20
-24.9391793595
 10
-0.0424920634
 20
-24.9439723658
 10
-0.0484427891
 20
-24.9482835331
 10
-0.0546731503
 20
-24.9521030894
 10
-0.0577540549
 20
-24.9537567739
  0
LWPOLYLINE
  5
470
100
AcDbEntity
  8
0
100
AcDbPolyline
 62
250
  6
CONTINUOUS
 90
18
 70
0
 10
0.0781316946
 20
-24.7314549551
 10
0.0780782781
 20
-24.7339076996
 10
0.0775518507
 20
-24.7398300037
 10
0.0764644384
 20
-24.7457331765
 10
0.0748184837
 20
-24.7516039433
 10
0.0726176865
 20
-24.7574290977
 10
0.0698669936
 20
-24.7631955386
 10
0.0665725898
 20
-24.7688902951
 10
0.0627418853
 20
-24.774500554
 10
0.0583834957
 20
-24.7800136957
 10
0.053507222
 20
-24.7854173207
 10
0.0481240326
 20
-24.7906992735
 10
0.0422460314
 20
-24.7958476762
 10
0.0358864413
 20
-24.8008509461
 10
0.0290595785
 20
-24.8056978209
 10
0.0217808044
 20
-24.810377397
 10
0.0140664882
 20
-24.8148791527
 10
0.0059339826
 20
-24.8191929636
  0
LWPOLYLINE
  5
471
100
AcDbEntity
  8
0
100
AcDbPolyline
 62
250
  6
CONTINUOUS
 90
18
 70
0
 10
0.0781315579
 20
-24.3839764825
 10
0.0780778252
 20
-24.3863870973
 10
0.0775504499
 20
-24.3923087451
 10
0.0764622146
 20
-24.3982112352
 10
0.0748155663
 20
-24.4040812947
 10
0.0726142076
 20
-24.4099057238
 10
0.0698630887
 20
-24.4156714244
 10
0.0665683957
 20
-24.4213654322
 10
0.0627375353
 20
-24.4269749455
 10
0.0583791166
 20
-24.4324873554
 10
0.0535029428
 20
-24.4378902608
 10
0.0481199913
 20
-24.4431714997
 10
0.0422423779
 20
-24.4483191901
 10
0.0358833148
 20
-24.4533217647
 10
0.0290570912
 20
-24.458167984
 10
0.0217790522
 20
-24.4628469532
 10
0.0140655677
 20
-24.467348148
 10
0.0059339826
 20
-24.4716614469
  0
LINE
  5
472
100
AcDbEntity
  8
SMUSSO
100
AcDbLine
 62
7
  6
CONTINUOUS
 10
-1.5829933609
 20
-2.3634515686
 11
-1.3453800633
 21
-2.2537138735
  0
LWPOLYLINE
  5
473
100
AcDbEntity
  8
0
100
AcDbPolyline
 62
7
  6
CONTINUOUS
 90
3
 70
0
 10
-11.3709069734
 20
-6.3646400933
 10
-11.3698284065
 20
-6.3642527655
 10
-11.3659119409
 20
-6.3625100225
  0
LINE
  5
474
100
AcDbEntity
  8
DRAFT
100
AcDbLine
 62
7
  6
CONTINUOUS
 10
-14.2715085286
 20
-4.8338046811
 11
-14.3007358047
 21
-4.8426918163
  0
LWPOLYLINE
  5
475
100
AcDbEntity
  8
0
100
AcDbPolyline
 62
7
  6
CONTINUOUS
 90
4
 70
0
 10
-15.5580548606
 20
-0.901699318
 10
-15.5950390792
 20
-0.9069646348
 10
-15.6310750793
 20
-0.9150512198
 10
-15.6658958034
 20
-0.9258961694
  0
LWPOLYLINE
  5
476
100
AcDbEntity
  8
DRAFT
100
AcDbPolyline
 62
7
  6
CONTINUOUS
 90
3
 70
0
 10
-15.2295271107
 20
-1.477807166
 10
-15.2377263454
 20
-1.4788839763
 10
-15.2466093413
 20
-1.4783570254
  0
LWPOLYLINE
  5
477
100
AcDbEntity
  8
0
100
AcDbPolyline
 62
250
  6
CONTINUOUS
 90
16
 70
0
 10
-12.29772401
 20
22.9797716888
 10
-12.2937512963
 20
22.9730768137
 10
-12.2901888376
 20
22.9665953718
 10
-12.2870446744
 20
22.9603419914
 10
-12.2843259027
 20
22.9543307861
 10
-12.2820386587
 20
22.9485753227
 10
-12.2801881045
 20
22.943088591
 10
-12.2787784168
 20
22.9378829742
 10
-12.277812777
 20
22.9329702211
 10
-12.2772933647
 20
22.9283614195
 10
-12.2772213521
 20
22.9240669712
 10
-12.2775969017
 20
22.9200965685
 10
-12.278419166
 20
22.9164591724
 10
-12.279686289
 20
22.9131629922
 10
-12.2813954111
 20
22.9102154672
 10
-12.2823634376
 20
22.9089365222
  0
LWPOLYLINE
  5
478
100
AcDbEntity
  8
0
100
AcDbPolyline
 62
7
  6
CONTINUOUS
 90
5
 70
0
 10
0.8853036754
 20
21.377716027
 10
0.8851032544
 20
21.3797959378
 10
0.8841959134
 20
21.3822241844
 10
0.8825879024
 20
21.3841862657
 10
0.8802887853
 20
21.3857244071
  0
LWPOLYLINE
  5
479
100
AcDbEntity
  8
RACCORDO
100
AcDbPolyline
 62
7
  6
CONTINUOUS
 90
40
 70
0
 10
21.2011461007
 20
16.4972975014
 10
21.1780874512
 20
16.4722969924
 10
21.1540681566
 20
16.4466929127
 10
21.1290882169
 20
16.4204852623
 10
21.1031715976
 20
16.3936904016
 10
21.0762943332
 20
16.3662919702
 10
21.0483845273
 20
16.3382408872
 10
21.019444859
 20
16.3095386109
 10
20.9894726492
 20
16.280183683
 10
20.9583879636
 20
16.2501226475
 10
20.9261967154
 20
16.2193598491
 10
20.8928929915
 20
16.1878909431
 10
20.8583791177
 20
16.1556494394
 10
20.8226575352
 20
16.1226362241
 10
20.7857258028
 20
16.0888504111
 10
20.7474789237
 20
16.0542228522
 10
20.707920373
 20
16.0187554275
 10
20.6670466757
 20
15.9824462568
 10
20.6247424087
 20
15.9452205523
 10
20.5810105521
 20
15.90707976
 10
20.535848126
 20
15.8680224338
 10
20.4891307676
 20
15.8279694479
 10
20.4408631149
 20
15.7869236378
 10
20.3910405301
 20
15.7448821681
 10
20.3395247372
 20
15.7017574067
 10
20.2863198169
 20
15.6575516427
 10
20.2314216886
 20
15.6122625872
 10
20.1746798349
 20
15.5657957414
 10
20.116098851
 20
15.5181537743
 10
20.0556741416
 20
15.4693340171
 10
19.9932414037
 20
15.419233964
 10
19.9288060355
 20
15.3678568605
 10
19.8623626388
 20
15.3151994612
 10
19.7937307158
 20
15.2611495243
 10
19.7229185679
 20
15.2057124286
 10
19.6499178937
 20
15.1488827952
 10
19.5745232912
 20
15.0905322463
 10
19.4966662932
 20
15.030617989
 10
19.4164153668
 20
14.9691828162
 10
19.3337705122
 20
14.9062267277
  0
LINE
  5
47A
100
AcDbEntity
  8
SMUSSO
100
AcDbLine
 62
7
  6
CONTINUOUS
 10
-1.3453800633
 20
-5.8085146666
 11
-1.5829933609
 21
-5.9282374657
  0
LWPOLYLINE
  5
47B
100
AcDbEntity
  8
DRAFT
100
AcDbPolyline
 62
7
  6
CONTINUOUS
 90
4
 70
0
 10
-11.3709155453
 20
-6.3645726316
 10
-11.3730639487
 20
-6.3652117568
 10
-11.3820424287
 20
-6.3665789478
 10
-11.392010555
 20
-6.3661662425
  0
LINE
  5
47C
100
AcDbEntity
  8
DRAFT
100
AcDbLine
 62
7
  6
CONTINUOUS
 10
-1.5620109498
 20
4.0041025303
 11
-0.7698205625
 21
3.6080073367
  0
LINE
  5
47D
100
AcDbEntity
  8
DRAFT
100
AcDbLine
 62
7
  6
CONTINUOUS
 10
-1.5620109498
 20
4.1773076111
 11
-1.5829933609
 21
4.1877988166
  0
LINE
  5
47E
100
AcDbEntity
  8
DRAFT
100
AcDbLine
 62
250
  6
CONTINUOUS
 10
6.4897394118
 20
19.4940574521
 11
6.4897394118
 21
19.0681260512
  0
LINE
  5
47F
100
AcDbEntity
  8
DRAFT
100
AcDbLine
 62
250
  6
CONTINUOUS
 10
6.4897394118
 20
-17.5281895562
 11
6.4897394118
 21
-17.7013952227
  0
LINE
  5
480
100
AcDbEntity
  8
0
100
AcDbLine
 62
7
  6
CONTINUOUS
 10
6.6300695116
 20
19.7907970015
 11
6.6300695116
 21
19.2443967405
  0
LINE
  5
481
100
AcDbEntity
  8
0
100
AcDbLine
 62
7
  6
CONTINUOUS
 10
6.6300695116
 20
-17.4544727556
 11
6.6300695116
 21
-17.6508055868
  0
LWPOLYLINE
  5
482
100
AcDbEntity
  8
RACCORDO
100
AcDbPolyline
 62
7
  6
CONTINUOUS
 90
24
 70
0
 10
21.2151574935
 20
5.3278871324
 10
21.2210187303
 20
5.3314289308
 10
21.2266534394
 20
5.3350408329
 10
21.2320562771
 20
5.3387192744
 10
21.2372221211
 20
5.342460492
 10
21.2421460848
 20
5.3462608831
 10
21.2468235209
 20
5.3501170103
 10
21.2512500129
 20
5.354024968
 10
21.2554213813
 20
5.3579808705
 10
21.2593336964
 20
5.3619812124
 10
21.2629832787
 20
5.366021903
 10
21.266366699
 20
5.370098883
 10
21.2694807825
 20
5.3742086127
 10
21.2723226188
 20
5.3783468517
 10
21.2748895575
 20
5.3825094023
 10
21.2771792092
 20
5.3866927257
 10
21.279189457
 20
5.3908924683
 10
21.2809184513
 20
5.3951043307
 10
21.2823646099
 20
5.3993248105
 10
21.2835266265
 20
5.4035494788
 10
21.2844034673
 20
5.4077739717
 10
21.2849943704
 20
5.4119948597
 10
21.2852988505
 20
5.4162076764
 10
21.2853441606
 20
5.4185710536
  0
LWPOLYLINE
  5
483
100
AcDbEntity
  8
RACCORDO
100
AcDbPolyline
 62
7
  6
CONTINUOUS
 90
10
 70
0
 10
21.2151574935
 20
5.3278871324
 10
21.2137284288
 20
5.3270964009
 10
21.2122713904
 20
5.3264029822
 10
21.2107860559
 20
5.3258070965
 10
21.2092762186
 20
5.325306093
 10
21.2077375166
 20
5.3249030453
 10
21.2061570789
 20
5.32460691
 10
21.2045300486
 20
5.3244209992
 10
21.2028599357
 20
5.3243428212
 10
21.2011461007
 20
5.3243727877
  0
LINE
  5
484
100
AcDbEntity
  8
DRAFT
100
AcDbLine
 62
7
  6
CONTINUOUS
 10
-1.5829933609
 20
7.4353940808
 11
-1.5620109498
 21
7.4249028753
  0
LWPOLYLINE
  5
485
100
AcDbEntity
  8
SMUSSO
100
AcDbPolyline
 62
7
  6
CONTINUOUS
 90
35
 70
0
 10
9.1727526396
 20
21.7100709389
 10
9.1731093298
 20
21.7319192261
 10
9.1748932654
 20
21.7631925656
 10
9.1781655492
 20
21.7944277936
 10
9.1829242304
 20
21.8256021272
 10
9.1891658629
 20
21.8566942042
 10
9.1968876332
 20
21.8876908781
 10
9.2060871822
 20
21.9185817164
 10
9.2167615076
 20
21.9493525727
 10
9.2289048043
 20
21.9799831806
 10
9.2425095599
 20
22.0104539959
 10
9.2575676414
 20
22.0407460021
 10
9.2740720222
 20
22.0708443318
 10
9.2920154533
 20
22.1007357981
 10
9.3113894839
 20
22.1304046098
 10
9.3321836279
 20
22.1598331145
 10
9.3543866337
 20
22.189005463
 10
9.3779868267
 20
22.2179050984
 10
9.4029719775
 20
22.2465158973
 10
9.429328705
 20
22.274822889
 10
9.4570426616
 20
22.3028096372
 10
9.4860996351
 20
22.3304608095
 10
9.5164854379
 20
22.3577633036
 10
9.548185065
 20
22.3847023885
 10
9.5811809701
 20
22.4112619516
 10
9.6154540254
 20
22.4374271128
 10
9.6509847821
 20
22.4631821791
 10
9.6877553368
 20
22.488513353
 10
9.7257478196
 20
22.513408914
 10
9.7649423142
 20
22.5378547496
 10
9.8053177345
 20
22.5618366712
 10
9.8468537186
 20
22.5853430958
 10
9.8895285984
 20
22.6083611733
 10
9.933319305
 20
22.6308768365
 10
9.9782025115
 20
22.6528770206
  0
LWPOLYLINE
  5
486
100
AcDbEntity
  8
0
100
AcDbPolyline
 62
250
  6
CONTINUOUS
 90
13
 70
0
 10
0.0059339826
 20
-24.4716614469
 10
0.0099067674
 20
-24.4605458351
 10
0.0134692814
 20
-24.4492569808
 10
0.016613484
 20
-24.4378203631
 10
0.0193322772
 20
-24.4262618013
 10
0.0216195266
 20
-24.4146073769
 10
0.0234700725
 20
-24.4028833747
 10
0.0248797374
 20
-24.3911162407
 10
0.0258453348
 20
-24.3793325487
 10
0.0263646825
 20
-24.367558921
 10
0.0264366091
 20
-24.3558219415
 10
0.0260609535
 20
-24.3441480906
 10
0.0252385641
 20
-24.332563712
  0
LWPOLYLINE
  5
487
100
AcDbEntity
  8
DRAFT
100
AcDbPolyline
 62
7
  6
CONTINUOUS
 90
43
 70
0
 10
19.3337705122
 20
2.9550761555
 10
19.3430395819
 20
2.9619936732
 10
19.3521325672
 20
2.9685548886
 10
19.3610497822
 20
2.9747580258
 10
19.3697717769
 20
2.980587238
 10
19.3783194162
 20
2.9860546205
 10
19.3867508548
 20
2.9912015056
 10
19.3950673692
 20
2.9960373267
 10
19.4032631437
 20
3.0005515507
 10
19.411380675
 20
3.0047576076
 10
19.4194094712
 20
3.008661199
 10
19.4273510378
 20
3.0122570321
 10
19.4352600575
 20
3.0155441309
 10
19.4431315722
 20
3.0185341376
 10
19.4509535957
 20
3.0212180894
 10
19.4587635119
 20
3.0235662455
 10
19.4665452694
 20
3.0255881206
 10
19.4742905113
 20
3.0272782892
 10
19.4820403876
 20
3.0285867235
 10
19.4897822221
 20
3.0295240735
 10
19.4974924113
 20
3.0300857128
 10
19.5051872451
 20
3.0302006354
 10
19.5128459049
 20
3.0298742273
 10
19.5204417577
 20
3.0291077731
 10
19.5279747784
 20
3.027825369
 10
19.5354200669
 20
3.026026053
 10
19.5427429074
 20
3.02371719
 10
19.5499223639
 20
3.0208358656
 10
19.5569231162
 20
3.017377813
 10
19.5637111277
 20
3.0133517159
 10
19.5702615997
 20
3.0087140652
 10
19.5765272654
 20
3.0034660065
 10
19.5824745302
 20
2.9976079221
 10
19.5880870448
 20
2.9910955516
 10
19.5933053702
 20
2.9839358146
 10
19.5980840543
 20
2.976120207
 10
19.6024013133
 20
2.9675823601
 10
19.6061909103
 20
2.9582851637
 10
19.6093631973
 20
2.948259425
 10
19.6118393428
 20
2.9375396697
 10
19.6135379369
 20
2.9260635059
 10
19.6143640327
 20
2.9138745476
 10
19.6144307118
 20
2.9092354569
  0
LWPOLYLINE
  5
488
100
AcDbEntity
  8
RACCORDO
100
AcDbPolyline
 62
7
  6
CONTINUOUS
 90
9
 70
0
 10
21.2137284288
 20
4.5572941554
 10
21.2122713904
 20
4.5562898021
 10
21.2107860559
 20
4.5551809729
 10
21.2092762186
 20
4.5539753833
 10
21.2077375166
 20
4.5526657405
 10
21.2061570789
 20
4.5512299027
 10
21.2045300486
 20
4.5496608156
 10
21.2028599357
 20
4.5479663539
 10
21.2011461007
 20
4.5461469292
  0
LWPOLYLINE
  5
489
100
AcDbEntity
  8
RACCORDO
100
AcDbPolyline
 62
7
  6
CONTINUOUS
 90
34
 70
0
 10
20.5789778776
 20
3.3969021879
 10
20.6117910043
 20
3.4188348976
 10
20.6440684343
 20
3.4418462588
 10
20.6757893679
 20
3.4659314876
 10
20.7069280655
 20
3.4910807329
 10
20.7374699002
 20
3.5172919011
 10
20.7674105414
 20
3.5445726673
 10
20.7967310737
 20
3.5729186597
 10
20.8254105735
 20
3.6023226941
 10
20.8534409796
 20
3.6327906967
 10
20.8808054391
 20
3.6643201593
 10
20.9074820376
 20
3.6969020143
 10
20.9334551869
 20
3.7305338849
 10
20.9587094834
 20
3.7652136844
 10
20.9832237511
 20
3.8009307774
 10
21.006975156
 20
3.8376698942
 10
21.0299495032
 20
3.8754273848
 10
21.05212806
 20
3.9141915587
 10
21.0734840675
 20
3.953933364
 10
21.0940049951
 20
3.9946464327
 10
21.1136753748
 20
4.0363179871
 10
21.1324681575
 20
4.0789063218
 10
21.1503728531
 20
4.1224012661
 10
21.1673778346
 20
4.1667892387
 10
21.1834592528
 20
4.2120195606
 10
21.1986090467
 20
4.2580779036
 10
21.2128194347
 20
4.3049500072
 10
21.2260721054
 20
4.3525811904
 10
21.2383616845
 20
4.4009534686
 10
21.2496837727
 20
4.4500517133
 10
21.2600263345
 20
4.4998216496
 10
21.2693848427
 20
4.5502320768
 10
21.2777598934
 20
4.6012768636
 10
21.284545635
 20
4.6484175721
  0
LINE
  5
48A
100
AcDbEntity
  8
DRAFT
100
AcDbLine
 62
7
  6
CONTINUOUS
 10
20.5789778776
 20
3.3969021879
 11
19.6144307119
 21
2.7730412247
  0
LWPOLYLINE
  5
48B
100
AcDbEntity
  8
RACCORDO
100
AcDbPolyline
 62
7
  6
CONTINUOUS
 90
21
 70
0
 10
21.2137284288
 20
4.5572941554
 10
21.2210187303
 20
4.56186099
 10
21.2266534394
 20
4.5656354572
 10
21.2320562771
 20
4.5695136499
 10
21.2372221211
 20
4.5734920374
 10
21.2421460848
 20
4.5775667846
 10
21.2468235209
 20
4.5817337562
 10
21.2512500129
 20
4.5859891366
 10
21.2554213813
 20
4.5903289502
 10
21.2593336964
 20
4.5947487239
 10
21.2629832787
 20
4.5992444559
 10
21.266366699
 20
4.603811998
 10
21.2694807825
 20
4.6084465768
 10
21.2723226188
 20
4.6131440387
 10
21.2748895575
 20
4.6179000992
 10
21.2771792092
 20
4.6227097243
 10
21.279189457
 20
4.6275686454
 10
21.2809184513
 20
4.6324724781
 10
21.2823646099
 20
4.6374159703
 10
21.2835266265
 20
4.6423947752
 10
21.2844034673
 20
4.6474044469
  0
LINE
  5
48C
100
AcDbEntity
  8
SMUSSO
100
AcDbLine
 62
7
  6
CONTINUOUS
 10
-2.6454076324
 20
9.903900926
 11
-3.2519263159
 21
10.2071602677
  0
LINE
  5
48D
100
AcDbEntity
  8
DRAFT
100
AcDbLine
 62
7
  6
CONTINUOUS
 10
-1.5829933609
 20
9.3959106807
 11
-2.4668768374
 21
9.837852419
  0
LINE
  5
48E
100
AcDbEntity
  8
RACCORDO
100
AcDbLine
 62
250
  6
CONTINUOUS
 10
-20.3966353235
 20
18.9517361858
 11
-5.4994908958
 21
11.503163972
  0
LINE
  5
48F
100
AcDbEntity
  8
RACCORDO
100
AcDbLine
 62
7
  6
CONTINUOUS
 10
-2.9067157799
 20
10.3284823667
 11
-2.5610707592
 21
10.1556598564
  0
LINE
  5
490
100
AcDbEntity
  8
DRAFT
100
AcDbLine
 62
7
  6
CONTINUOUS
 10
-3.2519263159
 20
10.7899769591
 11
-2.9945837455
 21
10.6613056739
  0
LINE
  5
491
100
AcDbEntity
  8
DRAFT
100
AcDbLine
 62
7
  6
CONTINUOUS
 10
-2.9945837455
 20
10.6789088436
 11
-3.2519263159
 21
10.8075801288
  0
LINE
  5
492
100
AcDbEntity
  8
RACCORDO
100
AcDbLine
 62
250
  6
CONTINUOUS
 10
-19.7430891098
 20
20.0230634631
 11
-4.8286039304
 21
12.5658208735
  0
LINE
  5
493
100
AcDbEntity
  8
DRAFT
100
AcDbLine
 62
7
  6
CONTINUOUS
 10
-2.9945837455
 20
11.7698020747
 11
-3.2519263159
 21
11.8984733599
  0
LINE
  5
494
100
AcDbEntity
  8
RACCORDO
100
AcDbLine
 62
7
  6
CONTINUOUS
 10
-1.9326146202
 20
11.2978619772
 11
-0.7628027826
 21
10.7129560584
  0
LWPOLYLINE
  5
495
100
AcDbEntity
  8
0
100
AcDbPolyline
 62
250
  6
CONTINUOUS
 90
16
 70
0
 10
0.0059339826
 20
16.8279426925
 10
0.0099066964
 20
16.8212478173
 10
0.013469155
 20
16.8147663755
 10
0.0166133183
 20
16.8085129951
 10
0.01933209
 20
16.8025017897
 10
0.021619334
 20
16.7967463263
 10
0.0234698882
 20
16.7912595946
 10
0.0248795759
 20
16.7860539779
 10
0.0258452156
 20
16.7811412248
 10
0.0263646279
 20
16.7765324232
 10
0.0264366405
 20
16.7722379749
 10
0.0260610909
 20
16.7682675722
 10
0.0252388267
 20
16.764630176
 10
0.0239717036
 20
16.7613339958
 10
0.0222625815
 20
16.7583864709
 10
0.021294555
 20
16.7571075259
  0
LINE
  5
496
100
AcDbEntity
  8
DRAFT
100
AcDbLine
 62
7
  6
CONTINUOUS
 10
-0.1165830126
 20
16.0314259836
 11
0.0649633291
 21
15.7183048619
  0
LINE
  5
497
100
AcDbEntity
  8
DRAFT
100
AcDbLine
 62
7
  6
CONTINUOUS
 10
0.8860180872
 20
14.3021948787
 11
1.9374220179
 21
12.4887913415
  0
LINE
  5
498
100
AcDbEntity
  8
RACCORDO
100
AcDbLine
 62
7
  6
CONTINUOUS
 10
0.8860180872
 20
14.3021948787
 11
1.5383900694
 21
13.1770196482
  0
LINE
  5
499
100
AcDbEntity
  8
SMUSSO
100
AcDbLine
 62
250
  6
CONTINUOUS
 10
9.9782025115
 20
22.2243602449
 11
9.9782025115
 21
22.6528770206
  0
LINE
  5
49A
100
AcDbEntity
  8
0
100
AcDbLine
 62
7
  6
CONTINUOUS
 10
10.6499539536
 20
22.1259556126
 11
10.6499539536
 21
22.5530561612
  0
LWPOLYLINE
  5
49B
100
AcDbEntity
  8
RACCORDO
100
AcDbPolyline
 62
250
  6
CONTINUOUS
 90
33
 70
0
 10
19.0892545324
 20
-1.8841331989
 10
19.0960881054
 20
-1.8803544886
 10
19.1106279825
 20
-1.8716806772
 10
19.1247912004
 20
-1.8623482564
 10
19.1385670079
 20
-1.8523643105
 10
19.1519449481
 20
-1.8417364182
 10
19.1649148658
 20
-1.830472647
 10
19.1774669157
 20
-1.8185815472
 10
19.1895915695
 20
-1.8060721452
 10
19.2012796237
 20
-1.7929539367
 10
19.2125222058
 20
-1.7792368798
 10
19.2233107817
 20
-1.7649313868
 10
19.233637162
 20
-1.750048317
 10
19.2434935079
 20
-1.734598968
 10
19.2528723376
 20
-1.7185950673
 10
19.2617665317
 20
-1.7020487632
 10
19.2701693387
 20
-1.684972616
 10
19.27807438
 20
-1.667379588
 10
19.2854756551
 20
-1.6492830339
 10
19.2923675457
 20
-1.6306966906
 10
19.2987448201
 20
-1.611634667
 10
19.3046026376
 20
-1.5921114327
 10
19.3099365514
 20
-1.5721418078
 10
19.3147425127
 20
-1.551740951
 10
19.3190168732
 20
-1.5309243484
 10
19.3227563883
 20
-1.5097078017
 10
19.3259582195
 20
-1.4881074163
 10
19.3286199361
 20
-1.4661395888
 10
19.3307395178
 20
-1.4438209947
 10
19.3323153556
 20
-1.421168576
 10
19.3333462533
 20
-1.3981995279
 10
19.3338314282
 20
-1.374931286
 10
19.3337705122
 20
-1.3513815131
  0
LINE
  5
49C
100
AcDbEntity
  8
RACCORDO
100
AcDbLine
 62
250
  6
CONTINUOUS
 10
13.4100869673
 20
-4.5473446849
 11
19.3337705122
 21
-1.3513815131
  0
LINE
  5
49D
100
AcDbEntity
  8
RACCORDO
100
AcDbLine
 62
7
  6
CONTINUOUS
 10
13.1655709874
 20
-5.0800963707
 11
19.0892545324
 21
-1.8841331989
  0
LWPOLYLINE
  5
49E
100
AcDbEntity
  8
RACCORDO
100
AcDbPolyline
 62
250
  6
CONTINUOUS
 90
30
 70
0
 10
19.3337705122
 20
-1.3513815131
 10
19.3524316507
 20
-1.3414521701
 10
19.3705447457
 20
-1.3312722722
 10
19.3880963462
 20
-1.3208493789
 10
19.4050734184
 20
-1.3101912304
 10
19.4214633549
 20
-1.2993057415
 10
19.4372539846
 20
-1.2882009958
 10
19.4524335812
 20
-1.2768852397
 10
19.4669908722
 20
-1.2653668764
 10
19.4809150474
 20
-1.2536544594
 10
19.4941957666
 20
-1.2417566866
 10
19.5068231673
 20
-1.2296823931
 10
19.5187878726
 20
-1.2174405456
 10
19.5300809972
 20
-1.2050402348
 10
19.540694155
 20
-1.1924906693
 10
19.5506194643
 20
-1.1798011684
 10
19.5598495548
 20
-1.1669811555
 10
19.5683775721
 20
-1.1540401507
 10
19.5761971831
 20
-1.1409877641
 10
19.5833025811
 20
-1.1278336886
 10
19.5896884895
 20
-1.1145876923
 10
19.5953501662
 20
-1.1012596118
 10
19.6002834066
 20
-1.0878593447
 10
19.6044845475
 20
-1.074396842
 10
19.6079504689
 20
-1.0608821011
 10
19.610678597
 20
-1.0473251581
 10
19.6126669061
 20
-1.0337360805
 10
19.6139139194
 20
-1.0201249596
 10
19.614418711
 20
-1.006501903
 10
19.6144307119
 20
-1.0040523279
  0
LWPOLYLINE
  5
49F
100
AcDbEntity
  8
RACCORDO
100
AcDbPolyline
 62
250
  6
CONTINUOUS
 90
30
 70
0
 10
12.3861286481
 20
-6.3763548806
 10
12.4047897882
 20
-6.3664255367
 10
12.4229028846
 20
-6.3562456379
 10
12.4404544864
 20
-6.3458227438
 10
12.4574315596
 20
-6.3351645945
 10
12.4738214971
 20
-6.3242791047
 10
12.4896121276
 20
-6.3131743581
 10
12.5047917249
 20
-6.3018586012
 10
12.5193490164
 20
-6.290340237
 10
12.533273192
 20
-6.2786278193
 10
12.5465539115
 20
-6.2667300457
 10
12.5591813124
 20
-6.2546557516
 10
12.5711460177
 20
-6.2424139033
 10
12.5824391423
 20
-6.2300135918
 10
12.5930522999
 20
-6.2174640257
 10
12.602977609
 20
-6.2047745242
 10
12.6122076991
 20
-6.1919545107
 10
12.6207357159
 20
-6.1790135055
 10
12.6285553265
 20
-6.1659611185
 10
12.6356607239
 20
-6.1528070425
 10
12.6420466317
 20
-6.1395610458
 10
12.6477083077
 20
-6.1262329651
 10
12.6526415475
 20
-6.1128326977
 10
12.6568426875
 20
-6.0993701948
 10
12.6603086082
 20
-6.0858554538
 10
12.6630367355
 20
-6.0722985107
 10
12.6650250437
 20
-6.058709433
 10
12.6662720562
 20
-6.0450983121
 10
12.666776847
 20
-6.0314752555
 10
12.6667888478
 20
-6.0290256953
  0
LINE
  5
4A0
100
AcDbEntity
  8
SMUSSO
100
AcDbLine
 62
7
  6
CONTINUOUS
 10
-1.5829933609
 20
-11.4899746735
 11
-0.7698205625
 21
-11.1144245276
  0
LWPOLYLINE
  5
4A1
100
AcDbEntity
  8
RACCORDO
100
AcDbPolyline
 62
7
  6
CONTINUOUS
 90
40
 70
0
 10
19.3337705122
 20
16.9328701046
 10
19.4164152422
 20
16.9554952346
 10
19.4966660544
 20
16.9771622985
 10
19.5745229486
 20
16.9978712964
 10
19.649917458
 20
17.0175941211
 10
19.7229180495
 20
17.0363588798
 10
19.7937301238
 20
17.0542498937
 10
19.8623619819
 20
17.0712703804
 10
19.9288053228
 20
17.0874171225
 10
19.9932406434
 20
17.1027647884
 10
20.0556733421
 20
17.1173157229
 10
20.1160980205
 20
17.1310675813
 10
20.174678981
 20
17.1440879984
 10
20.231420819
 20
17.1563790637
 10
20.286318939
 20
17.1679386876
 10
20.3395238571
 20
17.1788282364
 10
20.3910396539
 20
17.1890496466
 10
20.4408622489
 20
17.1986009815
 10
20.4891299163
 20
17.2075377976
 10
20.5358472936
 20
17.2158620618
 10
20.5810097435
 20
17.2235718071
 10
20.6247416274
 20
17.2307166884
 10
20.6670459251
 20
17.2372983457
 10
20.707919657
 20
17.2433151389
 10
20.7474782455
 20
17.2488118037
 10
20.7857251667
 20
17.253790059
 10
20.8226569445
 20
17.2582481857
 10
20.8583785728
 20
17.2622257627
 10
20.8928924917
 20
17.2657244314
 10
20.926196261
 20
17.2687425503
 10
20.9583875545
 20
17.2713147736
 10
20.9894722846
 20
17.27344288
 10
21.0194445388
 20
17.2751250907
 10
21.048384253
 20
17.2763907239
 10
21.0762941082
 20
17.2772410958
 10
21.1031714234
 20
17.2776748902
 10
21.129088091
 20
17.2777174768
 10
21.1540680751
 20
17.2773773122
 10
21.1780874117
 20
17.2766459399
 10
21.2011461007
 20
17.2755233599
  0
LINE
  5
4A2
100
AcDbEntity
  8
DRAFT
100
AcDbLine
 62
7
  6
CONTINUOUS
 10
0.2201289311
 20
10.8310282322
 11
0.3953629196
 21
10.8621752313
  0
LINE
  5
4A3
100
AcDbEntity
  8
DRAFT
100
AcDbLine
 62
7
  6
CONTINUOUS
 10
-2.4668768374
 20
9.837852419
 11
-3.2519263159
 21
9.7120051131
  0
LINE
  5
4A4
100
AcDbEntity
  8
RACCORDO
100
AcDbLine
 62
7
  6
CONTINUOUS
 10
0.2201289311
 20
10.8310282322
 11
-0.6283965139
 21
10.6950054156
  0
LINE
  5
4A5
100
AcDbEntity
  8
DRAFT
100
AcDbLine
 62
7
  6
CONTINUOUS
 10
-1.5829933609
 20
9.3959106807
 11
-3.2519263159
 21
9.1377484189
  0
LINE
  5
4A6
100
AcDbEntity
  8
RACCORDO
100
AcDbLine
 62
250
  6
CONTINUOUS
 10
-2.0648294393
 20
11.5694329906
 11
-0.8950176016
 21
10.9845270717
  0
LINE
  5
4A7
100
AcDbEntity
  8
RACCORDO
100
AcDbLine
 62
7
  6
CONTINUOUS
 10
-3.6051163693
 20
13.2228710812
 11
-18.5820427664
 21
20.7113342797
  0
LINE
  5
4A8
100
AcDbEntity
  8
DRAFT
100
AcDbLine
 62
7
  6
CONTINUOUS
 10
-14.682982705
 20
19.7067758417
 11
-2.8372716749
 21
13.7839203266
  0
LWPOLYLINE
  5
4A9
100
AcDbEntity
  8
RACCORDO
100
AcDbPolyline
 62
250
  6
CONTINUOUS
 90
33
 70
0
 10
13.4100869673
 20
-4.5473446849
 10
13.4101478833
 20
-4.5708944578
 10
13.4096627083
 20
-4.5941626997
 10
13.4086318107
 20
-4.6171317478
 10
13.4070559729
 20
-4.6397841665
 10
13.4049363912
 20
-4.6621027606
 10
13.4022746746
 20
-4.6840705881
 10
13.3990728434
 20
-4.7056709735
 10
13.3953333283
 20
-4.7268875202
 10
13.3910589677
 20
-4.7477041228
 10
13.3862530065
 20
-4.7681049796
 10
13.3809190927
 20
-4.7880746045
 10
13.3750612752
 20
-4.8075978388
 10
13.3686840007
 20
-4.8266598624
 10
13.3617921102
 20
-4.8452462057
 10
13.3543908351
 20
-4.8633427598
 10
13.3464857937
 20
-4.8809357878
 10
13.3380829868
 20
-4.898011935
 10
13.3291887927
 20
-4.9145582391
 10
13.319809963
 20
-4.9305621398
 10
13.3099536171
 20
-4.9460114888
 10
13.2996272368
 20
-4.9608945586
 10
13.2888386609
 20
-4.9752000516
 10
13.2775960787
 20
-4.9889171085
 10
13.2659080246
 20
-5.002035317
 10
13.2537833708
 20
-5.014544719
 10
13.2412313209
 20
-5.0264358188
 10
13.2282614032
 20
-5.03769959
 10
13.214883463
 20
-5.0483274823
 10
13.2011076554
 20
-5.0583114282
 10
13.1869444375
 20
-5.067643849
 10
13.1724045605
 20
-5.0763176604
 10
13.1655709874
 20
-5.0800963707
  0
LINE
  5
4AA
100
AcDbEntity
  8
0
100
AcDbLine
 62
7
  6
CONTINUOUS
 10
11.611481335
 20
21.2823724317
 11
11.611481335
 21
20.8511328517
  0
LINE
  5
4AB
100
AcDbEntity
  8
0
100
AcDbLine
 62
7
  6
CONTINUOUS
 10
12.0612259963
 20
21.1606245986
 11
12.0612259963
 21
20.8404377102
  0
LINE
  5
4AC
100
AcDbEntity
  8
DRAFT
100
AcDbLine
 62
7
  6
CONTINUOUS
 10
12.0995228551
 20
22.0125619816
 11
12.0995228551
 21
22.49437876
  0
LINE
  5
4AD
100
AcDbEntity
  8
RACCORDO
100
AcDbLine
 62
250
  6
CONTINUOUS
 10
12.3861286481
 20
-13.366714802
 11
12.3861286481
 21
-6.3763548806
  0
LWPOLYLINE
  5
4AE
100
AcDbEntity
  8
RACCORDO
100
AcDbPolyline
 62
7
  6
CONTINUOUS
 90
79
 70
0
 10
12.6667888478
 20
-13.0193856167
 10
12.6668067106
 20
-6.0242930976
 10
12.6669541755
 20
-6.0144963159
 10
12.6672615298
 20
-6.0042197168
 10
12.667741679
 20
-5.9934669734
 10
12.6684069839
 20
-5.9822482802
 10
12.6692688429
 20
-5.9705806327
 10
12.6703385446
 20
-5.958472733
 10
12.6716269415
 20
-5.9459337323
 10
12.6731433798
 20
-5.9329830052
 10
12.6748972822
 20
-5.9196330182
 10
12.6768978187
 20
-5.9058942825
 10
12.6791526314
 20
-5.8917844144
 10
12.6816695629
 20
-5.8773168462
 10
12.6844560136
 20
-5.8625047816
 10
12.6875178796
 20
-5.8473662506
 10
12.6908613909
 20
-5.8319152593
 10
12.6944919991
 20
-5.816167727
 10
12.698413148
 20
-5.8001451917
 10
12.7026296365
 20
-5.7838609544
 10
12.7071443602
 20
-5.7673346523
 10
12.7119559666
 20
-5.750597989
 10
12.7170661516
 20
-5.7336681283
 10
12.7224757804
 20
-5.7165636437
 10
12.7281798853
 20
-5.6993189876
 10
12.7341773867
 20
-5.6819530457
 10
12.7404666898
 20
-5.6644845089
 10
12.7470397996
 20
-5.6469478857
 10
12.7538931994
 20
-5.6293624394
 10
12.761022724
 20
-5.6117472955
 10
12.7684173187
 20
-5.5941367422
 10
12.7760710993
 20
-5.5765500105
 10
12.7839775451
 20
-5.559006044
 10
12.7921226987
 20
-5.5415383166
 10
12.8004986271
 20
-5.5241651673
 10
12.8090965185
 20
-5.5069051818
 10
12.8178992688
 20
-5.4897914389
 10
12.8268969099
 20
-5.4728411627
 10
12.836078689
 20
-5.4560717323
 10
12.8454245945
 20
-5.439515273
 10
12.8549225791
 20
-5.4231877736
 10
12.8645604613
 20
-5.4071044583
 10
12.8743163967
 20
-5.3912946997
 10
12.8841761764
 20
-5.3757733778
 10
12.8941269386
 20
-5.3605525232
 10
12.9041474441
 20
-5.3456554351
 10
12.9142230157
 20
-5.331093789
 10
12.9243393207
 20
-5.3168781484
 10
12.9344745392
 20
-5.3030283055
 10
12.9446134664
 20
-5.2895532792
 10
12.9547410389
 20
-5.276461176
 10
12.9648349529
 20
-5.2637684849
 10
12.9748796727
 20
-5.2514816271
 10
12.9848599467
 20
-5.2396058406
 10
12.9947535863
 20
-5.2281538214
 10
13.0045453044
 20
-5.2171290136
 10
13.0142198748
 20
-5.2065339968
 10
13.0237551211
 20
-5.1963780728
 10
13.033134876
 20
-5.1866631233
 10
13.0423457914
 20
-5.1773874045
 10
13.0513700462
 20
-5.1685530034
 10
13.0601909943
 20
-5.160160155
 10
13.0687971339
 20
-5.1522036807
 10
13.0771782664
 20
-5.1446769227
 10
13.0853205078
 20
-5.137576244
 10
13.0932105938
 20
-5.1308971222
 10
13.100838586
 20
-5.1246318543
 10
13.1081917814
 20
-5.118774677
 10
13.1152564556
 20
-5.1133201674
 10
13.1220203863
 20
-5.1082613545
 10
13.1284718033
 20
-5.1035904674
 10
13.1345968265
 20
-5.0993007213
 10
13.1403793509
 20
-5.0953862067
 10
13.145807459
 20
-5.0918375542
 10
13.1508691498
 20
-5.0886449384
 10
13.1555477702
 20
-5.0858007717
 10
13.1598298761
 20
-5.0832947154
 10
13.1637059358
 20
-5.0811136424
 10
13.1655684767
 20
-5.0800977098
  0
LWPOLYLINE
  5
4AF
100
AcDbEntity
  8
RACCORDO
100
AcDbPolyline
 62
250
  6
CONTINUOUS
 90
67
 70
0
 10
12.3861286481
 20
-6.3763548806
 10
12.3864058889
 20
-6.3459726987
 10
12.3872546943
 20
-6.3152813802
 10
12.3886750643
 20
-6.2842809253
 10
12.3906660848
 20
-6.2529476679
 10
12.3932286699
 20
-6.2213052741
 10
12.3963655627
 20
-6.1894247411
 10
12.4000791091
 20
-6.1573058696
 10
12.404366963
 20
-6.124948859
 10
12.4092248292
 20
-6.0924253049
 10
12.4146550935
 20
-6.0597342312
 10
12.4206553699
 20
-6.0268766141
 10
12.4272142056
 20
-5.9939269779
 10
12.4343337211
 20
-5.9608855379
 10
12.4420117959
 20
-5.9277520787
 10
12.450230615
 20
-5.8946004788
 10
12.4589903875
 20
-5.8614360794
 10
12.4682909044
 20
-5.8282535391
 10
12.4781137239
 20
-5.795110712
 10
12.4884579648
 20
-5.7620124564
 10
12.4993245083
 20
-5.728953914
 10
12.5106975562
 20
-5.6959783638
 10
12.5225773746
 20
-5.6630855461
 10
12.5349636973
 20
-5.6302757206
 10
12.5478399273
 20
-5.5975929458
 10
12.5612077371
 20
-5.5650343245
 10
12.5750654542
 20
-5.5326027539
 10
12.5893914644
 20
-5.5003509844
 10
12.6041873581
 20
-5.4682776762
 10
12.6194515448
 20
-5.4363841691
 10
12.6351576387
 20
-5.4047272321
 10
12.6513065085
 20
-5.3733074469
 10
12.6678972856
 20
-5.3421242319
 10
12.6849009776
 20
-5.3112326117
 10
12.7023184251
 20
-5.2806331916
 10
12.7201487875
 20
-5.2503253663
 10
12.7383605512
 20
-5.2203623447
 10
12.7569545869
 20
-5.1907447135
 10
12.775930024
 20
-5.161471886
 10
12.7952527363
 20
-5.1325953112
 10
12.8149224406
 20
-5.1041170644
 10
12.8349394201
 20
-5.0760350704
 10
12.8552703982
 20
-5.0483945519
 10
12.8759138076
 20
-5.0211984735
 10
12.8968712156
 20
-4.9944438707
 10
12.9181140475
 20
-4.9681670728
 10
12.9396420239
 20
-4.9423687048
 10
12.9614554242
 20
-4.9170481418
 10
12.9835265115
 20
-4.8922398383
 10
13.0058585433
 20
-4.8679410064
 10
13.0284482621
 20
-4.844154434
 10
13.0512581581
 20
-4.8209229388
 10
13.0742926363
 20
-4.7982442782
 10
13.0975472917
 20
-4.7761206948
 10
13.1209714003
 20
-4.7546017339
 10
13.1445663152
 20
-4.7336891655
 10
13.1683306833
 20
-4.7133812195
 10
13.1922097201
 20
-4.6937221321
 10
13.2162036949
 20
-4.6747147347
 10
13.2403123384
 20
-4.6563561958
 10
13.2644800579
 20
-4.638682256
 10
13.2887079087
 20
-4.6216952732
 10
13.3129948355
 20
-4.6053928896
 10
13.3372820805
 20
-4.5898037722
 10
13.3615500579
 20
-4.5749374768
 10
13.3858183535
 20
-4.5607844477
 10
13.4100869673
 20
-4.5473446849
  0
LWPOLYLINE
  5
4B0
100
AcDbEntity
  8
RACCORDO
100
AcDbPolyline
 62
7
  6
CONTINUOUS
 90
40
 70
0
 10
21.2011461007
 20
4.5461469292
 10
21.1780874512
 20
4.5211464202
 10
21.1540681566
 20
4.4955423405
 10
21.1290882169
 20
4.4693346901
 10
21.1031715976
 20
4.4425398294
 10
21.0762943332
 20
4.415141398
 10
21.0483845273
 20
4.387090315
 10
21.019444859
 20
4.3583880387
 10
20.9894726492
 20
4.3290331108
 10
20.9583879636
 20
4.2989720753
 10
20.9261967154
 20
4.2682092769
 10
20.8928929915
 20
4.2367403708
 10
20.8583791177
 20
4.2044988671
 10
20.8226575352
 20
4.1714856518
 10
20.7857258028
 20
4.1376998389
 10
20.7474789237
 20
4.10307228
 10
20.707920373
 20
4.0676048552
 10
20.6670466757
 20
4.0312956846
 10
20.6247424087
 20
3.9940699801
 10
20.5810105521
 20
3.9559291877
 10
20.535848126
 20
3.9168718615
 10
20.4891307676
 20
3.8768188757
 10
20.4408631149
 20
3.8357730656
 10
20.3910405301
 20
3.7937315958
 10
20.3395247372
 20
3.7506068345
 10
20.2863198169
 20
3.7064010705
 10
20.2314216886
 20
3.6611120149
 10
20.1746798349
 20
3.6146451691
 10
20.116098851
 20
3.5670032021
 10
20.0556741416
 20
3.5181834448
 10
19.9932414037
 20
3.4680833918
 10
19.9288060355
 20
3.4167062883
 10
19.8623626388
 20
3.364048889
 10
19.7937307158
 20
3.3099989521
 10
19.7229185679
 20
3.2545618564
 10
19.6499178937
 20
3.197732223
 10
19.5745232912
 20
3.1393816741
 10
19.4966662932
 20
3.0794674168
 10
19.4164153668
 20
3.018032244
 10
19.3337705122
 20
2.9550761555
  0
LINE
  5
4B1
100
AcDbEntity
  8
SMUSSO
100
AcDbLine
 62
7
  6
CONTINUOUS
 10
-1.5829933609
 20
-15.0597768451
 11
-1.5620109498
 21
-15.0484563529
  0
LINE
  5
4B2
100
AcDbEntity
  8
RACCORDO
100
AcDbLine
 62
7
  6
CONTINUOUS
 10
-1.573846472
 20
-14.1332119178
 11
-1.5829933609
 21
-14.1378658887
  0
LINE
  5
4B3
100
AcDbEntity
  8
SMUSSO
100
AcDbLine
 62
7
  6
CONTINUOUS
 10
-0.7698205625
 20
-15.4445515466
 11
-1.5829933609
 21
-15.854273244
  0
LWPOLYLINE
  5
4B4
100
AcDbEntity
  8
RACCORDO
100
AcDbPolyline
 62
250
  6
CONTINUOUS
 90
16
 70
0
 10
-5.5179893947
 20
-15.4126211814
 10
-5.5570874915
 20
-15.4301928412
 10
-5.5994177279
 20
-15.4456571073
 10
-5.6445316394
 20
-15.4588501445
 10
-5.6919512697
 20
-15.4696321802
 10
-5.741174235
 20
-15.4778889848
 10
-5.7916790458
 20
-15.4835330822
 10
-5.8429306327
 20
-15.4865046763
 10
-5.8943860143
 20
-15.486772285
 10
-5.9455000502
 20
-15.4843330729
 10
-5.9957312163
 20
-15.4792128822
 10
-6.044547342
 20
-15.4714659584
 10
-6.0914312484
 20
-15.4611743757
 10
-6.1358862272
 20
-15.4484471674
 10
-6.1774413034
 20
-15.4334191713
 10
-6.2156562244
 20
-15.4162496002
  0
LWPOLYLINE
  5
4B5
100
AcDbEntity
  8
RACCORDO
100
AcDbPolyline
 62
250
  6
CONTINUOUS
 90
16
 70
0
 10
-4.8057017584
 20
11.4321489283
 10
-4.844398188
 20
11.4222457849
 10
-4.8863322154
 20
11.4143695446
 10
-4.9310594084
 20
11.4086036825
 10
-4.9781057317
 20
11.4050093075
 10
-5.0269725711
 20
11.4036245139
 10
-5.0771420182
 20
11.4044639785
 10
-5.1280823586
 20
11.4075188041
 10
-5.179253708
 20
11.4127566146
 10
-5.2301137338
 20
11.4201218979
 10
-5.2801234027
 20
11.429536594
 10
-5.3287526939
 20
11.4409009223
 10
-5.3754862164
 20
11.4540944399
 10
-5.4198286711
 20
11.468977317
 10
-5.4613101006
 20
11.4853918195
 10
-5.4994908695
 20
11.5031639803
  0
LWPOLYLINE
  5
4B6
100
AcDbEntity
  8
0
100
AcDbPolyline
 62
250
  6
CONTINUOUS
 90
34
 70
0
 10
-2.4761359396
 20
15.7698521754
 10
-2.4675569477
 20
15.7657614274
 10
-2.4585997506
 20
15.7618786256
 10
-2.4492844891
 20
15.7582125008
 10
-2.4396321093
 20
15.7547712966
 10
-2.4296643154
 20
15.7515627507
 10
-2.4194035207
 20
15.748594078
 10
-2.4088727973
 20
15.7458719535
 10
-2.3980958245
 20
15.7434024983
 10
-2.3870968349
 20
15.7411912651
 10
-2.3759005608
 20
15.739243226
 10
-2.3645321777
 20
15.7375627613
 10
-2.3530172483
 20
15.7361536497
 10
-2.3413816648
 20
15.7350190597
 10
-2.3296515908
 20
15.7341615424
 10
-2.3178534021
 20
15.7335830262
 10
-2.3060136279
 20
15.7332848117
 10
-2.2941588908
 20
15.7332675697
 10
-2.2823158471
 20
15.7335313388
 10
-2.2705111268
 20
15.7340755259
 10
-2.2587712737
 20
15.7348989074
 10
-2.2471226856
 20
15.7359996319
 10
-2.2355915555
 20
15.7373752242
 10
-2.2242038118
 20
15.7390225914
 10
-2.2129850607
 20
15.7409380291
 10
-2.2019605286
 20
15.7431172303
 10
-2.1911550049
 20
15.7455552949
 10
-2.1805927866
 20
15.7482467409
 10
-2.1702976236
 20
15.7511855161
 10
-2.1602926655
 20
15.7543650127
 10
-2.1506004091
 20
15.7577780812
 10
-2.1412426482
 20
15.7614170471
 10
-2.1322404244
 20
15.7652737279
 10
-2.1236139799
 20
15.7693394516
  0
LWPOLYLINE
  5
4B7
100
AcDbEntity
  8
0
100
AcDbPolyline
 62
250
  6
CONTINUOUS
 90
34
 70
0
 10
-14.7797939322
 20
21.9216811718
 10
-14.7712143118
 20
21.9175901379
 10
-14.7622564333
 20
21.9137070808
 10
-14.7529404422
 20
21.9100407329
 10
-14.7432873005
 20
21.9065993434
 10
-14.7333187065
 20
21.9033906473
 10
-14.723057042
 20
21.9004218505
 10
-14.7125253567
 20
21.8976996261
 10
-14.7017473567
 20
21.895230106
 10
-14.6907473174
 20
21.8930188541
 10
-14.6795499907
 20
21.8910708455
 10
-14.668180546
 20
21.8893904583
 10
-14.656664553
 20
21.8879814718
 10
-14.6450279109
 20
21.8868470547
 10
-14.6332967895
 20
21.8859897581
 10
-14.621497571
 20
21.88541151
 10
-14.6096567825
 20
21.8851136107
 10
-14.5978010621
 20
21.8850967308
 10
-14.5859570982
 20
21.8853609074
 10
-14.574151544
 20
21.8859055434
 10
-14.562410932
 20
21.8867294124
 10
-14.5507616398
 20
21.8878306625
 10
-14.5392297805
 20
21.8892068283
 10
-14.5278413756
 20
21.8908548078
 10
-14.5166222608
 20
21.8927708535
 10
-14.5055978018
 20
21.8949506095
 10
-14.4947926252
 20
21.8973891824
 10
-14.4842308034
 20
21.90008113
 10
-14.4739352626
 20
21.9030206475
 10
-14.4639300238
 20
21.9062009159
 10
-14.4542397148
 20
21.9096139958
 10
-14.4448865856
 20
21.913251782
 10
-14.4358906858
 20
21.9171061988
 10
-14.4272719726
 20
21.9211684479
  0
LWPOLYLINE
  5
4B8
100
AcDbEntity
  8
0
100
AcDbPolyline
 62
250
  6
CONTINUOUS
 90
34
 70
0
 10
-2.4761359396
 20
16.1098261096
 10
-2.4675710079
 20
16.105741755
 10
-2.4586252246
 20
16.1018630852
 10
-2.4493181956
 20
16.0981990672
 10
-2.4396690106
 20
16.0947577398
 10
-2.4297002234
 20
16.0915476522
 10
-2.419438232
 20
16.0885775146
 10
-2.4089076705
 20
16.0858543861
 10
-2.3981307498
 20
16.0833839411
 10
-2.3871315123
 20
16.081171699
 10
-2.3759345422
 20
16.0792226258
 10
-2.3645651494
 20
16.0775411483
 10
-2.3530491317
 20
16.0761310882
 10
-2.3414124954
 20
16.0749956233
 10
-2.3296813115
 20
16.0741372915
 10
-2.317881889
 20
16.0735580177
 10
-2.3060407332
 20
16.0732591075
 10
-2.294184508
 20
16.073241238
 10
-2.2823398998
 20
16.0735044517
 10
-2.2705335543
 20
16.0740481578
 10
-2.2587920207
 20
16.0748711352
 10
-2.2471417118
 20
16.0759715338
 10
-2.23560883
 20
16.0773468802
 10
-2.224219317
 20
16.0789940821
 10
-2.2129987993
 20
16.0809094344
 10
-2.2019725158
 20
16.0830886292
 10
-2.1911652657
 20
16.085526766
 10
-2.1806013602
 20
16.0882183607
 10
-2.1703045549
 20
16.0911573613
 10
-2.160298015
 20
16.0943371564
 10
-2.1506042653
 20
16.0977505878
 10
-2.1412451132
 20
16.1013899748
 10
-2.1322416018
 20
16.1052471329
 10
-2.1236139799
 20
16.1093133857
  0
LWPOLYLINE
  5
4B9
100
AcDbEntity
  8
0
100
AcDbPolyline
 62
250
  6
CONTINUOUS
 90
34
 70
0
 10
-14.7797939322
 20
22.2616551059
 10
-14.7712137293
 20
22.2575638072
 10
-14.762255206
 20
22.2536805079
 10
-14.7529385102
 20
22.2500139431
 10
-14.7432845894
 20
22.2465723587
 10
-14.7333151617
 20
22.243363499
 10
-14.723052669
 20
22.2403945878
 10
-14.7125202
 20
22.2376723039
 10
-14.7017414396
 20
22.2352027684
 10
-14.6907406352
 20
22.2329915362
 10
-14.6795425286
 20
22.2310435799
 10
-14.6681723088
 20
22.2293632805
 10
-14.6566555593
 20
22.227954418
 10
-14.6450181859
 20
22.22682016
 10
-14.6332863621
 20
22.2259630561
 10
-14.621486479
 20
22.2253850331
 10
-14.6096450708
 20
22.2250873894
 10
-14.5977887772
 20
22.2250707933
 10
-14.5859442867
 20
22.2253352798
 10
-14.574138272
 20
22.2258802491
 10
-14.5623972525
 20
22.2267044726
 10
-14.5507475584
 20
22.2278061017
 10
-14.5392152846
 20
22.2291826753
 10
-14.5278264799
 20
22.2308310904
 10
-14.5166070011
 20
22.2327475977
 10
-14.5055822187
 20
22.2349278407
 10
-14.4947767631
 20
22.2373669256
 10
-14.4842147253
 20
22.2400594056
 10
-14.4739183314
 20
22.2429996861
 10
-14.4639123506
 20
22.246180767
 10
-14.4542234099
 20
22.2495939674
 10
-14.4448741896
 20
22.253230778
 10
-14.435883813
 20
22.257083222
 10
-14.4272719726
 20
22.261142382
  0
LINE
  5
4BA
100
AcDbEntity
  8
0
100
AcDbLine
 62
7
  6
CONTINUOUS
 10
-1.2483018676
 20
14.5441291934
 11
-1.7649153315
 21
14.8024359253
  0
LINE
  5
4BB
100
AcDbEntity
  8
0
100
AcDbLine
 62
7
  6
CONTINUOUS
 10
-3.4516810557
 20
15.6458187874
 11
-5.619672754
 21
16.7298146366
  0
LINE
  5
4BC
100
AcDbEntity
  8
0
100
AcDbLine
 62
7
  6
CONTINUOUS
 10
-6.2852534558
 20
17.0626049875
 11
-11.2350009241
 21
19.5374787216
  0
LINE
  5
4BD
100
AcDbEntity
  8
0
100
AcDbLine
 62
7
  6
CONTINUOUS
 10
-11.9005816259
 20
19.8702690725
 11
-14.0685733241
 21
20.9542649217
  0
LINE
  5
4BE
100
AcDbEntity
  8
0
100
AcDbLine
 62
7
  6
CONTINUOUS
 10
-15.7553390484
 20
21.7976477838
 11
-16.2719525123
 21
22.0559545157
  0
LINE
  5
4BF
100
AcDbEntity
  8
0
100
AcDbLine
 62
7
  6
CONTINUOUS
 10
-16.3933587062
 20
22.6257317569
 11
-14.7148206358
 21
21.7864627217
  0
LINE
  5
4C0
100
AcDbEntity
  8
0
100
AcDbLine
 62
7
  6
CONTINUOUS
 10
-4.0897007136
 20
16.4739027605
 11
-2.4111626432
 21
15.6346337253
  0
LINE
  5
4C1
100
AcDbEntity
  8
0
100
AcDbLine
 62
250
  6
CONTINUOUS
 10
-16.4583320027
 20
22.760950207
 11
-14.7797939322
 21
21.9216811718
  0
LINE
  5
4C2
100
AcDbEntity
  8
0
100
AcDbLine
 62
250
  6
CONTINUOUS
 10
-4.15467401
 20
16.6091212106
 11
-2.4761359396
 21
15.7698521754
  0
LINE
  5
4C3
100
AcDbEntity
  8
0
100
AcDbLine
 62
7
  6
CONTINUOUS
 10
-6.2852534558
 20
17.8150982369
 11
-7.2044922713
 21
18.2747176446
  0
LINE
  5
4C4
100
AcDbEntity
  8
0
100
AcDbLine
 62
7
  6
CONTINUOUS
 10
-8.9015485462
 20
19.1232457821
 11
-10.5278941429
 21
19.9364185804
  0
LINE
  5
4C5
100
AcDbEntity
  8
0
100
AcDbLine
 62
250
  6
CONTINUOUS
 10
-2.4761359396
 20
16.1098261096
 11
-4.15467401
 21
16.9490951448
  0
LINE
  5
4C6
100
AcDbEntity
  8
0
100
AcDbLine
 62
250
  6
CONTINUOUS
 10
-14.7797939322
 20
22.2616551059
 11
-16.4583320027
 21
23.1009241411
  0
LINE
  5
4C7
100
AcDbEntity
  8
0
100
AcDbLine
 62
7
  6
CONTINUOUS
 10
-8.4065737993
 20
19.2520050334
 11
-7.2630709151
 21
18.6802535912
  0
LINE
  5
4C8
100
AcDbEntity
  8
0
100
AcDbLine
 62
7
  6
CONTINUOUS
 10
-0.1684667698
 20
15.1329515186
 11
-0.5223331891
 21
15.3098847282
  0
LINE
  5
4C9
100
AcDbEntity
  8
0
100
AcDbLine
 62
7
  6
CONTINUOUS
 10
-4.2010262431
 20
17.1492312552
 11
-4.5528418419
 21
17.3251390546
  0
LINE
  5
4CA
100
AcDbEntity
  8
0
100
AcDbLine
 62
7
  6
CONTINUOUS
 10
-11.9005816259
 20
20.9990089466
 11
-12.8259911818
 21
21.4617137246
  0
LINE
  5
4CB
100
AcDbEntity
  8
0
100
AcDbLine
 62
250
  6
CONTINUOUS
 10
-2.3003876836
 20
16.4142029245
 11
-3.978925754
 21
17.2534719597
  0
LINE
  5
4CC
100
AcDbEntity
  8
0
100
AcDbLine
 62
250
  6
CONTINUOUS
 10
-14.6040456763
 20
22.5660319208
 11
-16.2825837467
 21
23.4053009561
  0
LINE
  5
4CD
100
AcDbEntity
  8
0
100
AcDbLine
 62
7
  6
CONTINUOUS
 10
-11.9005816259
 20
21.3164318383
 11
-11.2350009241
 21
20.9836414874
  0
LINE
  5
4CE
100
AcDbEntity
  8
0
100
AcDbLine
 62
7
  6
CONTINUOUS
 10
-6.2852534558
 20
18.5087677532
 11
-5.619672754
 21
18.1759774024
  0
LWPOLYLINE
  5
4CF
100
AcDbEntity
  8
0
100
AcDbPolyline
 62
250
  6
CONTINUOUS
 90
17
 70
0
 10
-16.4583320027
 20
22.760950207
 10
-16.4665113715
 20
22.7652385333
 10
-16.4742756085
 20
22.7697161873
 10
-16.4816071719
 20
22.7743731434
 10
-16.4884896435
 20
22.7791990855
 10
-16.4949072734
 20
22.7841830894
 10
-16.500845127
 20
22.7893136119
 10
-16.5062897253
 20
22.7945789861
 10
-16.5112289756
 20
22.799967495
 10
-16.5156517805
 20
22.805467034
 10
-16.5195481972
 20
22.8110652467
 10
-16.5229094527
 20
22.816749536
 10
-16.5257279779
 20
22.822507104
 10
-16.5279974335
 20
22.8283249968
 10
-16.529712721
 20
22.8341901385
 10
-16.5308699848
 20
22.8400893435
 10
-16.5314056405
 20
22.845404266
  0
LWPOLYLINE
  5
4D0
100
AcDbEntity
  8
0
100
AcDbPolyline
 62
250
  6
CONTINUOUS
 90
16
 70
0
 10
-4.15467401
 20
16.6091212106
 10
-4.1628560777
 20
16.6134110209
 10
-4.170622192
 20
16.6178899601
 10
-4.1779548878
 20
16.6225479557
 10
-4.1848376667
 20
16.6273745265
 10
-4.191255059
 20
16.6323588235
 10
-4.1971926526
 20
16.6374896558
 10
-4.2026371014
 20
16.6427554984
 10
-4.2075761415
 20
16.6481444984
 10
-4.2119986453
 20
16.653644518
 10
-4.2158946626
 20
16.6592431814
 10
-4.2192554369
 20
16.6649279038
 10
-4.2220734099
 20
16.6706859002
 10
-4.2243422442
 20
16.6765042213
 10
-4.2260568374
 20
16.682369782
 10
-4.2272133336
 20
16.6882693913
  0
LWPOLYLINE
  5
4D1
100
AcDbEntity
  8
0
100
AcDbPolyline
 62
250
  6
CONTINUOUS
 90
18
 70
0
 10
-16.4583320027
 20
23.1009241411
 10
-16.4665146
 20
23.1052142425
 10
-16.4742811987
 20
23.1096935042
 10
-16.4816143282
 20
23.1143518521
 10
-16.488497497
 20
23.1191788125
 10
-16.4949152165
 20
23.1241635264
 10
-16.5008530389
 20
23.1292947727
 10
-16.5062976066
 20
23.1345610072
 10
-16.5112366775
 20
23.1399503874
 10
-16.515659142
 20
23.1454507896
 10
-16.5195550547
 20
23.1510498429
 10
-16.5229156533
 20
23.1567349528
 10
-16.5257333784
 20
23.1624933276
 10
-16.5280018944
 20
23.1683120142
 10
-16.5297161021
 20
23.1741779261
 10
-16.5308721481
 20
23.1800778677
 10
-16.5314674356
 20
23.1859985718
 10
-16.5315553074
 20
23.1893124887
  0
LWPOLYLINE
  5
4D2
100
AcDbEntity
  8
0
100
AcDbPolyline
 62
250
  6
CONTINUOUS
 90
18
 70
0
 10
-4.15467401
 20
16.9490951448
 10
-4.1628566074
 20
16.9533852462
 10
-4.1706232061
 20
16.9578645079
 10
-4.1779563355
 20
16.9625228558
 10
-4.1848395043
 20
16.9673498162
 10
-4.1912572238
 20
16.9723345301
 10
-4.1971950463
 20
16.9774657764
 10
-4.202639614
 20
16.9827320109
 10
-4.2075786849
 20
16.9881213911
 10
-4.2120011494
 20
16.9936217933
 10
-4.2158970621
 20
16.9992208466
 10
-4.2192576607
 20
17.0049059565
 10
-4.2220753857
 20
17.0106643312
 10
-4.2243439018
 20
17.0164830179
 10
-4.2260581095
 20
17.0223489298
 10
-4.2272141555
 20
17.0282488714
 10
-4.2278094429
 20
17.0341695755
 10
-4.2278973147
 20
17.0374834924
  0
LWPOLYLINE
  5
4D3
100
AcDbEntity
  8
0
100
AcDbPolyline
 62
250
  6
CONTINUOUS
 90
34
 70
0
 10
-14.6040456763
 20
22.5660319208
 10
-14.5956823935
 20
22.5615569497
 10
-14.5873357257
 20
22.556602853
 10
-14.5790245801
 20
22.551180853
 10
-14.5707677832
 20
22.5453032318
 10
-14.5625840386
 20
22.5389833034
 10
-14.5544918842
 20
22.532235384
 10
-14.5465096506
 20
22.525074759
 10
-14.5386554194
 20
22.5175176488
 10
-14.5309469821
 20
22.5095811722
 10
-14.5234018001
 20
22.5012833068
 10
-14.5160369648
 20
22.4926428493
 10
-14.5088691594
 20
22.4836793722
 10
-14.5019146205
 20
22.4744131798
 10
-14.4951891016
 20
22.4648652621
 10
-14.4887078376
 20
22.4550572473
 10
-14.48248551
 20
22.4450113527
 10
-14.4765362138
 20
22.4347503346
 10
-14.4708734254
 20
22.4242974364
 10
-14.4655099724
 20
22.4136763363
 10
-14.4604580041
 20
22.4029110934
 10
-14.4557289645
 20
22.3920260935
 10
-14.4513335657
 20
22.3810459935
 10
-14.4472817645
 20
22.3699956659
 10
-14.443582739
 20
22.358900142
 10
-14.4402448684
 20
22.3477845557
 10
-14.4372757136
 20
22.3366740863
 10
-14.4346820005
 20
22.3255939015
 10
-14.4324696045
 20
22.3145691005
 10
-14.430643537
 20
22.3036246568
 10
-14.4292079346
 20
22.292785362
 10
-14.4281660492
 20
22.2820757697
 10
-14.4275202409
 20
22.2715201394
 10
-14.4272719726
 20
22.261142382
  0
LWPOLYLINE
  5
4D4
100
AcDbEntity
  8
0
100
AcDbPolyline
 62
250
  6
CONTINUOUS
 90
34
 70
0
 10
-2.3003876836
 20
16.4142029245
 10
-2.2920381481
 20
16.40973571
 10
-2.2837015667
 20
16.4047887005
 10
-2.275396811
 20
16.3993724664
 10
-2.2671415448
 20
16.3934977908
 10
-2.258955734
 20
16.3871781402
 10
-2.2508614864
 20
16.3804302614
 10
-2.2428783277
 20
16.3732705455
 10
-2.2350231285
 20
16.3657142373
 10
-2.2273135425
 20
16.3577783047
 10
-2.2197669455
 20
16.3494805935
 10
-2.2124005497
 20
16.3408399882
 10
-2.2052312079
 20
16.3318762434
 10
-2.1982752262
 20
16.3226097595
 10
-2.1915482959
 20
16.313061453
 10
-2.1850656151
 20
16.3032528955
 10
-2.1788418579
 20
16.29320628
 10
-2.1728911473
 20
16.2829443946
 10
-2.1672269798
 20
16.2724905077
 10
-2.1618621934
 20
16.2618683105
 10
-2.1568089427
 20
16.251101865
 10
-2.1520786807
 20
16.2402155687
 10
-2.1476821261
 20
16.2292340864
 10
-2.1436292432
 20
16.2181823014
 10
-2.1399292196
 20
16.207085264
 10
-2.1365904402
 20
16.1959681199
 10
-2.1336204705
 20
16.1848560574
 10
-2.1310260416
 20
16.1737742584
 10
-2.1288130317
 20
16.1627478278
 10
-2.126986457
 20
16.1518017553
 10
-2.1255504589
 20
16.140960862
 10
-2.1245082902
 20
16.1302497177
 10
-2.1238623098
 20
16.1196925855
 10
-2.1236139799
 20
16.1093133857
  0
LWPOLYLINE
  5
4D5
100
AcDbEntity
  8
0
100
AcDbPolyline
 62
250
  6
CONTINUOUS
 90
3
 70
0
 10
-4.0973106924
 20
16.4781605572
 10
-4.0915100064
 20
16.4748320744
 10
-4.0897007136
 20
16.4739027605
  0
LWPOLYLINE
  5
4D6
100
AcDbEntity
  8
SMUSSO
100
AcDbPolyline
 62
7
  6
CONTINUOUS
 90
6
 70
0
 10
9.1809231181
 20
21.6063513515
 10
9.1808460675
 20
21.6067775126
 10
9.1766826093
 20
21.6380491568
 10
9.174004985
 20
21.6693373488
 10
9.1728136466
 20
21.7006300293
 10
9.1727526396
 20
21.7100709389
  0
LWPOLYLINE
  5
4D7
100
AcDbEntity
  8
RACCORDO
100
AcDbPolyline
 62
7
  6
CONTINUOUS
 90
10
 70
0
 10
14.2208431986
 20
24.5825716382
 10
14.2207834412
 20
24.5937957546
 10
14.2206044409
 20
24.6049545547
 10
14.2203061977
 20
24.6160480384
 10
14.2198886211
 20
24.6270780559
 10
14.2193518015
 20
24.638042757
 10
14.2186960108
 20
24.6489365915
 10
14.2179213395
 20
24.6597577091
 10
14.217027697
 20
24.6705079599
 10
14.2160150833
 20
24.6811873441
  0
LINE
  5
4D8
100
AcDbEntity
  8
RACCORDO
100
AcDbLine
 62
7
  6
CONTINUOUS
 10
14.2208431986
 20
24.5825716382
 11
14.2208431986
 21
24.3003344532
  0
LINE
  5
4D9
100
AcDbEntity
  8
0
100
AcDbLine
 62
250
  6
CONTINUOUS
 10
-1.7654295599
 20
-24.5529983726
 11
-2.387747592
 21
-25.2980577901
  0
LINE
  5
4DA
100
AcDbEntity
  8
0
100
AcDbLine
 62
250
  6
CONTINUOUS
 10
-1.4123933718
 20
-24.6787682107
 11
-2.1236139799
 21
-25.5302646878
  0
LINE
  5
4DB
100
AcDbEntity
  8
DRAFT
100
AcDbLine
 62
7
  6
CONTINUOUS
 10
0.2201289311
 20
-19.6809483074
 11
0.3953629196
 21
-19.5337759044
  0
LINE
  5
4DC
100
AcDbEntity
  8
RACCORDO
100
AcDbLine
 62
7
  6
CONTINUOUS
 10
-0.7698205625
 20
-18.9511841633
 11
-1.5829933609
 21
-19.6061003939
  0
LINE
  5
4DD
100
AcDbEntity
  8
RACCORDO
100
AcDbLine
 62
7
  6
CONTINUOUS
 10
0.2201289311
 20
-19.6809483074
 11
-0.6283965139
 21
-20.3643369882
  0
LINE
  5
4DE
100
AcDbEntity
  8
DRAFT
100
AcDbLine
 62
7
  6
CONTINUOUS
 10
-1.5829933609
 20
-20.0489530479
 11
-3.2519263159
 21
-21.3745490246
  0
LINE
  5
4DF
100
AcDbEntity
  8
0
100
AcDbLine
 62
7
  6
CONTINUOUS
 10
-2.3504574735
 20
15.6135182908
 11
-1.7262618764
 21
15.483185671
  0
LINE
  5
4E0
100
AcDbEntity
  8
0
100
AcDbLine
 62
250
  6
CONTINUOUS
 10
-2.1236139799
 20
15.7693394516
 11
-1.4123933718
 21
15.6208359287
  0
LWPOLYLINE
  5
4E1
100
AcDbEntity
  8
0
100
AcDbPolyline
 62
250
  6
CONTINUOUS
 90
16
 70
0
 10
-7.0638936666
 20
19.7518334483
 10
-7.0706228133
 20
19.7550027174
 10
-7.0773348579
 20
19.7577732682
 10
-7.0840145908
 20
19.7601388207
 10
-7.0906468798
 20
19.7620940141
 10
-7.0972166916
 20
19.7636344141
 10
-7.1037091257
 20
19.7647565265
 10
-7.1101094666
 20
19.7654578088
 10
-7.116403215
 20
19.7657366733
 10
-7.1225761078
 20
19.7655924888
 10
-7.1286141588
 20
19.7650255827
 10
-7.1345036847
 20
19.7640372406
 10
-7.1402313354
 20
19.7626297042
 10
-7.1457841313
 20
19.7608061657
 10
-7.1511494924
 20
19.7585707588
 10
-7.153528973
 20
19.7574168311
  0
LWPOLYLINE
  5
4E2
100
AcDbEntity
  8
0
100
AcDbPolyline
 62
7
  6
CONTINUOUS
 90
17
 70
0
 10
-6.8509388807
 20
19.8598282201
 10
-6.8571076756
 20
19.8627477457
 10
-6.8632647099
 20
19.8653320005
 10
-6.8693982675
 20
19.8675760634
 10
-6.8754966933
 20
19.8694756528
 10
-6.8815483757
 20
19.8710271548
 10
-6.8875417684
 20
19.8722276301
 10
-6.8934654874
 20
19.8730747816
 10
-6.899308267
 20
19.8735669919
 10
-6.9050589414
 20
19.873703347
 10
-6.9107065968
 20
19.8734835712
 10
-6.916240502
 20
19.8729080737
 10
-6.9216500626
 20
19.8719779814
 10
-6.9269250219
 20
19.8706950447
 10
-6.9320553666
 20
19.8690616926
 10
-6.9370312552
 20
19.8670810732
 10
-6.9399966482
 20
19.8656990227
  0
LWPOLYLINE
  5
4E3
100
AcDbEntity
  8
0
100
AcDbPolyline
 62
250
  6
CONTINUOUS
 90
34
 70
0
 10
-8.9015485462
 20
20.3568601337
 10
-8.8946582381
 20
20.3535752088
 10
-8.8874630739
 20
20.3504579519
 10
-8.8799793563
 20
20.3475154276
 10
-8.872224037
 20
20.3447543025
 10
-8.864214693
 20
20.3421808363
 10
-8.8559694894
 20
20.3398008659
 10
-8.8475071149
 20
20.3376197853
 10
-8.838846741
 20
20.3356425351
 10
-8.8300079947
 20
20.3338735959
 10
-8.8210109031
 20
20.3323169754
 10
-8.8118758558
 20
20.3309762007
 10
-8.802623561
 20
20.3298543106
 10
-8.7932749875
 20
20.3289538464
 10
-8.7838513168
 20
20.328276847
 10
-8.7743739038
 20
20.3278248456
 10
-8.7648642173
 20
20.3275988651
 10
-8.7553438129
 20
20.3275994168
 10
-8.7458342853
 20
20.3278264976
 10
-8.7363572103
 20
20.3282795886
 10
-8.7269340333
 20
20.3289576607
 10
-8.7175860443
 20
20.3298591814
 10
-8.7083343416
 20
20.3309821209
 10
-8.6991999756
 20
20.3323239293
 10
-8.6902038309
 20
20.333881533
 10
-8.6813663982
 20
20.3356513666
 10
-8.6727075728
 20
20.3376294274
 10
-8.6642468075
 20
20.339811265
 10
-8.6560019735
 20
20.342192332
 10
-8.6479931244
 20
20.3447668999
 10
-8.6402419218
 20
20.3475278195
 10
-8.632766681
 20
20.3504681194
 10
-8.6255827107
 20
20.3535813141
 10
-8.6187058337
 20
20.3568601337
  0
LWPOLYLINE
  5
4E4
100
AcDbEntity
  8
0
100
AcDbPolyline
 62
250
  6
CONTINUOUS
 90
16
 70
0
 10
-1.7509443126
 20
18.3323934147
 10
-1.7530239895
 20
18.333401408
 10
-1.7597187228
 20
18.3362344545
 10
-1.766645199
 20
18.3385559533
 10
-1.7737879095
 20
18.3403606933
 10
-1.7811307269
 20
18.3416445866
 10
-1.7886569736
 20
18.3424047303
 10
-1.7963496078
 20
18.3426394446
 10
-1.8041914204
 20
18.3423482449
 10
-1.8121649194
 20
18.3415317952
 10
-1.8202533969
 20
18.3401916907
 10
-1.8284374682
 20
18.3383310294
 10
-1.836695139
 20
18.3359551345
 10
-1.8450065596
 20
18.3330704639
 10
-1.853354192
 20
18.3296838455
 10
-1.8617192722
 20
18.3258035236
  0
LWPOLYLINE
  5
4E5
100
AcDbEntity
  8
0
100
AcDbPolyline
 62
250
  6
CONTINUOUS
 90
16
 70
0
 10
-0.0600647615
 20
17.4869536392
 10
-0.0621272219
 20
17.4879535461
 10
-0.06882053
 20
17.4907876223
 10
-0.0757455485
 20
17.4931102806
 10
-0.082886706
 20
17.4949162985
 10
-0.0902279449
 20
17.4962016149
 10
-0.0977527581
 20
17.4969633397
 10
-0.1054442254
 20
17.4971997601
 10
-0.1132850519
 20
17.4969103445
 10
-0.121257607
 20
17.4960957438
 10
-0.1293439638
 20
17.4947577895
 10
-0.1375259394
 20
17.4928994902
 10
-0.1457851361
 20
17.4905250243
 10
-0.1541029824
 20
17.4876397312
 10
-0.1624607751
 20
17.4842500985
 10
-0.1708397211
 20
17.4803637481
  0
LWPOLYLINE
  5
4E6
100
AcDbEntity
  8
0
100
AcDbPolyline
 62
250
  6
CONTINUOUS
 90
16
 70
0
 10
-12.3637227541
 20
23.6387826355
 10
-12.3657852146
 20
23.6397825425
 10
-12.3724785227
 20
23.6426166186
 10
-12.3794035411
 20
23.6449392769
 10
-12.3865446986
 20
23.6467452948
 10
-12.3938859376
 20
23.6480306112
 10
-12.4014107508
 20
23.648792336
 10
-12.4091022181
 20
23.6490287564
 10
-12.4169430446
 20
23.6487393409
 10
-12.4249155997
 20
23.6479247401
 10
-12.4330019564
 20
23.6465867858
 10
-12.441183932
 20
23.6447284865
 10
-12.4494431287
 20
23.6423540207
 10
-12.4577609751
 20
23.6394687275
 10
-12.4661187678
 20
23.6360790948
 10
-12.4744977137
 20
23.6321927444
  0
LWPOLYLINE
  5
4E7
100
AcDbEntity
  8
0
100
AcDbPolyline
 62
250
  6
CONTINUOUS
 90
3
 70
0
 10
-14.0546023053
 20
24.4842224111
 10
-14.0566647657
 20
24.485222318
 10
-14.0633580738
 20
24.4880563942
  0
LINE
  5
4E8
100
AcDbEntity
  8
DRAFT
100
AcDbLine
 62
7
  6
CONTINUOUS
 10
0.532469184
 20
15.4845519345
 11
-0.5223331891
 21
16.011953121
  0
LINE
  5
4E9
100
AcDbEntity
  8
DRAFT
100
AcDbLine
 62
7
  6
CONTINUOUS
 10
-12.1360885292
 20
21.818830791
 11
-12.8259911818
 21
22.1637821173
  0
LINE
  5
4EA
100
AcDbEntity
  8
0
100
AcDbLine
 62
7
  6
CONTINUOUS
 10
-7.2630709151
 20
19.3828258326
 11
-7.6994670182
 21
19.6010238841
  0
LINE
  5
4EB
100
AcDbEntity
  8
0
100
AcDbLine
 62
250
  6
CONTINUOUS
 10
-5.7491287009
 20
18.7806502111
 11
-7.2044922713
 21
19.5083319963
  0
LINE
  5
4EC
100
AcDbEntity
  8
0
100
AcDbLine
 62
250
  6
CONTINUOUS
 10
-8.9015485462
 20
20.3568601337
 11
-10.5278941429
 21
21.1700329321
  0
LINE
  5
4ED
100
AcDbEntity
  8
0
100
AcDbLine
 62
7
  6
CONTINUOUS
 10
-7.6994670182
 20
20.0600008131
 11
-7.1241235378
 21
19.7723290729
  0
LINE
  5
4EE
100
AcDbEntity
  8
0
100
AcDbLine
 62
250
  6
CONTINUOUS
 10
-5.4375480698
 20
18.9386606499
 11
-7.0638936666
 21
19.7518334483
  0
LINE
  5
4EF
100
AcDbEntity
  8
0
100
AcDbLine
 62
250
  6
CONTINUOUS
 10
-8.7609499414
 20
20.6003615857
 11
-10.3872955381
 21
21.4135343841
  0
LINE
  5
4F0
100
AcDbEntity
  8
0
100
AcDbLine
 62
7
  6
CONTINUOUS
 10
-10.8460921944
 20
21.857404877
 11
-8.5479951556
 21
20.7083563575
  0
LINE
  5
4F1
100
AcDbEntity
  8
0
100
AcDbLine
 62
7
  6
CONTINUOUS
 10
-6.8509388807
 20
19.8598282201
 11
-4.5528418419
 21
18.7107797007
  0
LINE
  5
4F2
100
AcDbEntity
  8
0
100
AcDbLine
 62
7
  6
CONTINUOUS
 10
-0.6991068928
 20
17.216924928
 11
-2.3961691509
 21
18.0654560571
  0
LINE
  5
4F3
100
AcDbEntity
  8
0
100
AcDbLine
 62
7
  6
CONTINUOUS
 10
-13.0027648854
 20
23.3687539243
 11
-14.6998271435
 21
24.2172850534
  0
LINE
  5
4F4
100
AcDbEntity
  8
0
100
AcDbLine
 62
7
  6
CONTINUOUS
 10
-4.5174865028
 20
19.3951704239
 11
-6.1438320996
 21
20.2083432223
  0
LINE
  5
4F5
100
AcDbEntity
  8
0
100
AcDbLine
 62
7
  6
CONTINUOUS
 10
-7.8408883744
 20
21.0568713597
 11
-9.4672339711
 21
21.8700441581
  0
LINE
  5
4F6
100
AcDbEntity
  8
0
100
AcDbLine
 62
250
  6
CONTINUOUS
 10
-14.1653772648
 20
24.47763252
 11
-12.4744977137
 21
23.6321927444
  0
LINE
  5
4F7
100
AcDbEntity
  8
0
100
AcDbLine
 62
250
  6
CONTINUOUS
 10
-1.8617192722
 20
18.3258035236
 11
-0.1708397211
 21
17.4803637481
  0
LINE
  5
4F8
100
AcDbEntity
  8
0
100
AcDbLine
 62
7
  6
CONTINUOUS
 10
-14.0546023053
 20
24.4842224111
 11
-12.3637227541
 21
23.6387826355
  0
LINE
  5
4F9
100
AcDbEntity
  8
0
100
AcDbLine
 62
7
  6
CONTINUOUS
 10
-1.7509443126
 20
18.3323934147
 11
-0.0600647615
 21
17.4869536392
  0
LWPOLYLINE
  5
4FA
100
AcDbEntity
  8
0
100
AcDbPolyline
 62
250
  6
CONTINUOUS
 90
34
 70
0
 10
-12.4744977137
 20
23.6321927444
 10
-12.4660527962
 20
23.6277732208
 10
-12.4576256543
 20
23.6228714916
 10
-12.4492353707
 20
23.6174980215
 10
-12.440899798
 20
23.6116634991
 10
-12.4326391037
 20
23.6053812902
 10
-12.4244756008
 20
23.5986680391
 10
-12.416428981
 20
23.5915400537
 10
-12.4085162477
 20
23.5840125126
 10
-12.4007551843
 20
23.5761023187
 10
-12.393163283
 20
23.5678272596
 10
-12.3857578596
 20
23.5592061681
 10
-12.3785558564
 20
23.550258754
 10
-12.3715736536
 20
23.5410053807
 10
-12.3648270016
 20
23.531466935
 10
-12.3583311429
 20
23.5216649665
 10
-12.3521007817
 20
23.511621653
 10
-12.3461500561
 20
23.5013597751
 10
-12.3404924624
 20
23.4909026013
 10
-12.3351408241
 20
23.4802738301
 10
-12.3301072658
 20
23.4694975383
 10
-12.3254031959
 20
23.458598146
 10
-12.3210392741
 20
23.4476003473
 10
-12.3170253905
 20
23.4365290627
 10
-12.3133706443
 20
23.4254093865
 10
-12.3100833179
 20
23.4142665159
 10
-12.3071708602
 20
23.4031256974
 10
-12.3046398721
 20
23.3920121781
 10
-12.302496088
 20
23.3809511346
 10
-12.3007443671
 20
23.3699676351
 10
-12.2993886813
 20
23.3590865857
 10
-12.2984321013
 20
23.3483326471
 10
-12.2978767919
 20
23.3377301794
 10
-12.29772401
 20
23.3273032056
  0
LWPOLYLINE
  5
4FB
100
AcDbEntity
  8
0
100
AcDbPolyline
 62
250
  6
CONTINUOUS
 90
34
 70
0
 10
-0.1708397211
 20
17.4803637481
 10
-0.1623948036
 20
17.4759442245
 10
-0.1539676616
 20
17.4710424953
 10
-0.145577378
 20
17.4656690251
 10
-0.1372418054
 20
17.4598345027
 10
-0.1289811111
 20
17.4535522939
 10
-0.1208176082
 20
17.4468390428
 10
-0.1127709883
 20
17.4397110574
 10
-0.1048582551
 20
17.4321835163
 10
-0.0970971917
 20
17.4242733223
 10
-0.0895052903
 20
17.4159982633
 10
-0.082099867
 20
17.4073771718
 10
-0.0748978637
 20
17.3984297577
 10
-0.067915661
 20
17.3891763844
 10
-0.0611690089
 20
17.3796379387
 10
-0.0546731503
 20
17.3698359701
 10
-0.0484427891
 20
17.3597926567
 10
-0.0424920634
 20
17.3495307788
 10
-0.0368344698
 20
17.339073605
 10
-0.0314828315
 20
17.3284448338
 10
-0.0264492732
 20
17.317668542
 10
-0.0217452033
 20
17.3067691497
 10
-0.0173812814
 20
17.2957713509
 10
-0.0133673978
 20
17.2847000664
 10
-0.0097126516
 20
17.2735803902
 10
-0.0064253252
 20
17.2624375196
 10
-0.0035128676
 20
17.2512967011
 10
-0.0009818794
 20
17.2401831817
 10
0.0011619047
 20
17.2291221382
 10
0.0029136255
 20
17.2181386388
 10
0.0042693113
 20
17.2072575894
 10
0.0052258914
 20
17.1965036508
 10
0.0057812007
 20
17.1859011831
 10
0.0059339826
 20
17.1754742092
  0
LWPOLYLINE
  5
4FC
100
AcDbEntity
  8
0
100
AcDbPolyline
 62
250
  6
CONTINUOUS
 90
18
 70
0
 10
-7.2044922713
 20
19.5083319963
 10
-7.211061188
 20
19.5117766371
 10
-7.217294859
 20
19.515373657
 10
-7.2231791633
 20
19.5191149078
 10
-7.2287007708
 20
19.5229919142
 10
-7.2338471735
 20
19.5269958936
 10
-7.238606713
 20
19.5311177758
 10
-7.2429686075
 20
19.5353482232
 10
-7.2469229758
 20
19.5396776526
 10
-7.2504608601
 20
19.5440962565
 10
-7.2535742459
 20
19.5485940252
 10
-7.2562560804
 20
19.5531607699
 10
-7.2585002883
 20
19.5577861455
 10
-7.2603017858
 20
19.5624596739
 10
-7.261656492
 20
19.5671707682
 10
-7.262561338
 20
19.5719087561
 10
-7.263014274
 20
19.5766629047
 10
-7.2630709151
 20
19.5790426744
  0
LWPOLYLINE
  5
4FD
100
AcDbEntity
  8
0
100
AcDbPolyline
 62
7
  6
CONTINUOUS
 90
37
 70
0
 10
-8.5479951556
 20
20.7083563575
 10
-8.5418263855
 20
20.7051071006
 10
-8.5356693482
 20
20.7015343196
 10
-8.5295357689
 20
20.6976448141
 10
-8.5234373439
 20
20.6934459781
 10
-8.5173856792
 20
20.6889458065
 10
-8.5113922679
 20
20.6841528798
 10
-8.5054685437
 20
20.6790763097
 10
-8.4996257933
 20
20.673725755
 10
-8.4938750949
 20
20.6681114237
 10
-8.4882274283
 20
20.6622439869
 10
-8.4826935633
 20
20.6561346044
 10
-8.4772839737
 20
20.6497949369
 10
-8.4720089975
 20
20.6432370325
 10
-8.4668787032
 20
20.6364733609
 10
-8.4619027811
 20
20.6295168361
 10
-8.4570907502
 20
20.6223806768
 10
-8.4524518058
 20
20.6150784492
 10
-8.4479946884
 20
20.6076240996
 10
-8.4437279356
 20
20.6000317911
 10
-8.4396597119
 20
20.5923159543
 10
-8.4357976587
 20
20.5844913291
 10
-8.4321491859
 20
20.5765727806
 10
-8.4287212875
 20
20.5685753569
 10
-8.4255203752
 20
20.5605143392
 10
-8.4225526042
 20
20.5524050401
 10
-8.4198236788
 20
20.544262868
 10
-8.417338671
 20
20.5361033835
 10
-8.4151023763
 20
20.5279420851
 10
-8.4131191114
 20
20.5197944775
 10
-8.411392522
 20
20.5116761349
 10
-8.4099259621
 20
20.5036024764
 10
-8.4087222868
 20
20.4955888377
 10
-8.4077836532
 20
20.4876505399
 10
-8.4071118483
 20
20.4798026933
 10
-8.406708285
 20
20.472060168
 10
-8.4065737993
 20
20.4644376674
  0
LWPOLYLINE
  5
4FE
100
AcDbEntity
  8
0
100
AcDbPolyline
 62
250
  6
CONTINUOUS
 90
34
 70
0
 10
-8.7609499414
 20
20.6003615857
 10
-8.7542199104
 20
20.5968013228
 10
-8.7475032614
 20
20.5928576984
 10
-8.7408152095
 20
20.588539646
 10
-8.7341709056
 20
20.5838569475
 10
-8.7275854009
 20
20.5788202106
 10
-8.7210736139
 20
20.5734408451
 10
-8.7146502958
 20
20.5677310371
 10
-8.7083299975
 20
20.5617037211
 10
-8.7021270365
 20
20.555372551
 10
-8.6960554644
 20
20.5487518688
 10
-8.6901290355
 20
20.5418566725
 10
-8.6843611749
 20
20.534702582
 10
-8.6787649486
 20
20.5273058035
 10
-8.6733530341
 20
20.5196830933
 10
-8.6681376909
 20
20.5118517191
 10
-8.6631307335
 20
20.5038294215
 10
-8.6583435042
 20
20.4956343736
 10
-8.6537868478
 20
20.4872851399
 10
-8.6494710864
 20
20.4788006341
 10
-8.6454059967
 20
20.4702000762
 10
-8.6416007874
 20
20.4615029493
 10
-8.6380640785
 20
20.4527289552
 10
-8.6348038819
 20
20.4438979698
 10
-8.6318275828
 20
20.4350299982
 10
-8.6291419236
 20
20.4261451291
 10
-8.6267529882
 20
20.4172634896
 10
-8.6246661882
 20
20.4084051995
 10
-8.622886251
 20
20.3995903258
 10
-8.6214172086
 20
20.3908388368
 10
-8.6202623889
 20
20.3821705575
 10
-8.6194244081
 20
20.3736051244
 10
-8.6189051642
 20
20.365161941
 10
-8.6187058337
 20
20.3568601337
  0
LWPOLYLINE
  5
4FF
100
AcDbEntity
  8
0
100
AcDbPolyline
 62
7
  6
CONTINUOUS
 90
34
 70
0
 10
-13.0027648854
 20
23.3687539243
 10
-12.99435381
 20
23.3643030099
 10
-12.9859615924
 20
23.3593718395
 10
-12.9776073447
 20
23.3539715299
 10
-12.9693101707
 20
23.3481142213
 10
-12.9610888723
 20
23.3418131764
 10
-12.9529619065
 20
23.3350827514
 10
-12.9449477412
 20
23.3279381605
 10
-12.9370646218
 20
23.3203955412
 10
-12.9293302796
 20
23.3124720442
 10
-12.9217622721
 20
23.3041855981
 10
-12.9143778151
 20
23.2955549368
 10
-12.9071935526
 20
23.2865996571
 10
-12.9002257739
 20
23.2773400366
 10
-12.8934903147
 20
23.2677970246
 10
-12.887002392
 20
23.2579922648
 10
-12.8807766954
 20
23.2479479708
 10
-12.8748273574
 20
23.2376868807
 10
-12.869167858
 20
23.2272322438
 10
-12.8638109876
 20
23.2166077575
 10
-12.858768888
 20
23.2058374852
 10
-12.8540530268
 20
23.1949458078
 10
-12.849674035
 20
23.1839574238
 10
-12.8456418161
 20
23.172897232
 10
-12.8419655922
 20
23.1617902476
 10
-12.8386536179
 20
23.1506616668
 10
-12.835713357
 20
23.1395367167
 10
-12.8331515984
 20
23.1284405368
 10
-12.8309740525
 20
23.1173983082
 10
-12.8291855916
 20
23.1064350721
 10
-12.8277904332
 20
23.0955755803
 10
-12.8267917296
 20
23.084844435
 10
-12.8261915606
 20
23.0742660327
 10
-12.8259911818
 20
23.0638643855
  0
LWPOLYLINE
  5
500
100
AcDbEntity
  8
0
100
AcDbPolyline
 62
7
  6
CONTINUOUS
 90
34
 70
0
 10
-0.6991068928
 20
17.216924928
 10
-0.6906958174
 20
17.2124740136
 10
-0.6823035998
 20
17.2075428432
 10
-0.673949352
 20
17.2021425336
 10
-0.6656521781
 20
17.196285225
 10
-0.6574308797
 20
17.1899841801
 10
-0.6493039139
 20
17.183253755
 10
-0.6412897485
 20
17.1761091642
 10
-0.6334066292
 20
17.1685665449
 10
-0.625672287
 20
17.1606430479
 10
-0.6181042794
 20
17.1523566018
 10
-0.6107198225
 20
17.1437259404
 10
-0.6035355599
 20
17.1347706608
 10
-0.5965677813
 20
17.1255110403
 10
-0.5898323221
 20
17.1159680283
 10
-0.5833443993
 20
17.1061632685
 10
-0.5771187027
 20
17.0961189745
 10
-0.5711693648
 20
17.0858578844
 10
-0.5655098654
 20
17.0754032475
 10
-0.560152995
 20
17.0647787611
 10
-0.5551108953
 20
17.0540084888
 10
-0.5503950342
 20
17.0431168115
 10
-0.5460160424
 20
17.0321284275
 10
-0.5419838234
 20
17.0210682357
 10
-0.5383075995
 20
17.0099612513
 10
-0.5349956252
 20
16.9988326705
 10
-0.5320553644
 20
16.9877077204
 10
-0.5294936057
 20
16.9766115405
 10
-0.5273160598
 20
16.9655693119
 10
-0.5255275989
 20
16.9546060757
 10
-0.5241324406
 20
16.943746584
 10
-0.523133737
 20
16.9330154387
 10
-0.522533568
 20
16.9224370364
 10
-0.5223331891
 20
16.9120353892
  0
LINE
  5
501
100
AcDbEntity
  8
RACCORDO
100
AcDbLine
 62
7
  6
CONTINUOUS
 10
8.2705520414
 20
17.0832996509
 11
7.1873567718
 21
18.9515351367
  0
LWPOLYLINE
  5
502
100
AcDbEntity
  8
0
100
AcDbPolyline
 62
7
  6
CONTINUOUS
 90
20
 70
0
 10
0.0994831505
 20
-23.6484483908
 10
0.1079163833
 20
-23.640202783
 10
0.1159871597
 20
-23.6313592441
 10
0.1236708392
 20
-23.6219376404
 10
0.130939422
 20
-23.6119702787
 10
0.1377818934
 20
-23.601474075
 10
0.144190659
 20
-23.5904624965
 10
0.1501484373
 20
-23.5789696234
 10
0.155641184
 20
-23.567033699
 10
0.1606736986
 20
-23.5546563218
 10
0.1652556165
 20
-23.5418152527
 10
0.1693838641
 20
-23.5285091972
 10
0.1730446989
 20
-23.5147714517
 10
0.1762291743
 20
-23.5006291653
 10
0.17893349
 20
-23.4860928291
 10
0.1811509781
 20
-23.4711903269
 10
0.1828739054
 20
-23.4559790673
 10
0.1841017526
 20
-23.4404946769
 10
0.1848372427
 20
-23.4247482051
 10
0.1850821334
 20
-23.4087629765
  0
LINE
  5
503
100
AcDbEntity
  8
RACCORDO
100
AcDbLine
 62
7
  6
CONTINUOUS
 10
1.5383900694
 20
-19.8803776339
 11
0.8860180872
 21
-20.3531808822
  0
LINE
  5
504
100
AcDbEntity
  8
DRAFT
100
AcDbLine
 62
7
  6
CONTINUOUS
 10
1.9374220179
 20
-19.5911812756
 11
0.8860180872
 21
-20.3531808822
  0
LINE
  5
505
100
AcDbEntity
  8
RACCORDO
100
AcDbLine
 62
7
  6
CONTINUOUS
 10
7.1873567718
 20
-17.1617242011
 11
8.2705520414
 21
-16.3766839848
  0
LWPOLYLINE
  5
506
100
AcDbEntity
  8
RACCORDO
100
AcDbPolyline
 62
250
  6
CONTINUOUS
 90
29
 70
0
 10
12.4047897866
 20
-13.356785459
 10
12.4229028816
 20
-13.3466055611
 10
12.4404544821
 20
-13.3361826678
 10
12.4574315543
 20
-13.3255245193
 10
12.4738214908
 20
-13.3146390304
 10
12.4896121205
 20
-13.3035342846
 10
12.5047917171
 20
-13.2922185285
 10
12.5193490081
 20
-13.2807001652
 10
12.5332731833
 20
-13.2689877483
 10
12.5465539025
 20
-13.2570899754
 10
12.5591813033
 20
-13.245015682
 10
12.5711460085
 20
-13.2327738345
 10
12.5824391331
 20
-13.2203735237
 10
12.5930522909
 20
-13.2078239581
 10
12.6029776002
 20
-13.1951344573
 10
12.6122076907
 20
-13.1823144443
 10
12.620735708
 20
-13.1693734396
 10
12.628555319
 20
-13.156321053
 10
12.635660717
 20
-13.1431669774
 10
12.6420466254
 20
-13.1299209811
 10
12.6477083021
 20
-13.1165929007
 10
12.6526415425
 20
-13.1031926336
 10
12.6568426834
 20
-13.0897301309
 10
12.6603086048
 20
-13.07621539
 10
12.6630367329
 20
-13.062658447
 10
12.665025042
 20
-13.0490693694
 10
12.6662720553
 20
-13.0354582484
 10
12.6667768469
 20
-13.0218351918
 10
12.6667888478
 20
-13.0193866377
  0
LINE
  5
507
100
AcDbEntity
  8
RACCORDO
100
AcDbLine
 62
250
  6
CONTINUOUS
 10
1.952540545
 20
-18.8628945349
 11
12.4047897866
 21
-13.356785459
  0
LINE
  5
508
100
AcDbEntity
  8
RACCORDO
100
AcDbLine
 62
250
  6
CONTINUOUS
 10
-2.1405412137
 20
-21.262539111
 11
-2.0648294393
 21
-21.2259821057
  0
LWPOLYLINE
  5
509
100
AcDbEntity
  8
RACCORDO
100
AcDbPolyline
 62
7
  6
CONTINUOUS
 90
21
 70
0
 10
-4.5191452755
 20
21.5882370714
 10
-4.530885776
 20
21.5936681683
 10
-4.5425612646
 20
21.5986507302
 10
-4.5541594972
 20
21.6031791794
 10
-4.5656674466
 20
21.6072485495
 10
-4.5770737189
 20
21.6108542348
 10
-4.5883685518
 20
21.613991848
 10
-4.5995396129
 20
21.616657857
 10
-4.6105750665
 20
21.6188490952
 10
-4.6214659514
 20
21.6205622455
 10
-4.6322001534
 20
21.6217952671
 10
-4.6427660431
 20
21.6225464373
 10
-4.6531554729
 20
21.6228134545
 10
-4.6633564854
 20
21.6225958043
 10
-4.673357904
 20
21.6218932624
 10
-4.6831528659
 20
21.6207045043
 10
-4.6927299626
 20
21.6190305073
 10
-4.7020782288
 20
21.6168725346
 10
-4.7111916412
 20
21.6142303208
 10
-4.720058701
 20
21.6111066493
 10
-4.7286695801
 20
21.6075042493
  0
LWPOLYLINE
  5
50A
100
AcDbEntity
  8
RACCORDO
100
AcDbPolyline
 62
7
  6
CONTINUOUS
 90
64
 70
0
 10
-3.43858958
 20
21.7192270657
 10
-3.4496982076
 20
21.724639875
 10
-3.4671442525
 20
21.7325961348
 10
-3.4850578208
 20
21.740124901
 10
-3.5034078534
 20
21.747220071
 10
-3.5221853427
 20
21.7538872248
 10
-3.5414024539
 20
21.7601393718
 10
-3.5610367163
 20
21.7659778489
 10
-3.5810660934
 20
21.771405843
 10
-3.6014992018
 20
21.7764349128
 10
-3.6222850271
 20
21.7810620133
 10
-3.6434346098
 20
21.7852990804
 10
-3.6650478987
 20
21.7891705714
 10
-3.687077591
 20
21.7926695859
 10
-3.7095415331
 20
21.7958003179
 10
-3.7326381559
 20
21.7985845323
 10
-3.7564388199
 20
21.8010166717
 10
-3.7808488736
 20
21.80307295
 10
-3.8058158564
 20
21.80473798
 10
-3.8314402367
 20
21.8060052591
 10
-3.8575942035
 20
21.8068548634
 10
-3.8838796159
 20
21.8072722021
 10
-3.9102636798
 20
21.8072640525
 10
-3.9367519616
 20
21.8068364711
 10
-3.9630045553
 20
21.806007011
 10
-3.988936076
 20
21.8047982628
 10
-4.0146133182
 20
21.8032254402
 10
-4.0399269453
 20
21.8013127505
 10
-4.0648567805
 20
21.799080461
 10
-4.0894114708
 20
21.7965453997
 10
-4.1135260693
 20
21.7937318211
 10
-4.1371800669
 20
21.7906603163
 10
-4.1603886678
 20
21.7873462689
 10
-4.1831407665
 20
21.7838077357
 10
-4.2054275131
 20
21.7800622561
 10
-4.227256037
 20
21.7761242366
 10
-4.248638177
 20
21.7720062984
 10
-4.2695743319
 20
21.7677224853
 10
-4.2900639968
 20
21.7632866802
 10
-4.3101160281
 20
21.7587103128
 10
-4.329732628
 20
21.7540058017
 10
-4.3489123149
 20
21.7491862254
 10
-4.3676567454
 20
21.744263739
 10
-4.3859768454
 20
21.7392477174
 10
-4.4038626003
 20
21.7341530462
 10
-4.4212834267
 20
21.729001182
 10
-4.4382271073
 20
21.7238091077
 10
-4.4547088077
 20
21.7185854265
 10
-4.4707378359
 20
21.7133399929
 10
-4.4862925851
 20
21.7080928169
 10
-4.5013964341
 20
21.7028488671
 10
-4.5161213293
 20
21.6975945796
 10
-4.5304659122
 20
21.69234085
 10
-4.5444251586
 20
21.6871000593
 10
-4.5580578253
 20
21.6818600088
 10
-4.5713469084
 20
21.6766366236
 10
-4.5842925949
 20
21.6714395446
 10
-4.5969692545
 20
21.6662478344
 10
-4.6093395771
 20
21.6610854312
 10
-4.6214046485
 20
21.6559611826
 10
-4.6332786743
 20
21.6508349068
 10
-4.6449154796
 20
21.6457345722
 10
-4.6562821996
 20
21.6406838999
 10
-4.678505503
 20
21.6306354413
  0
LINE
  5
50B
100
AcDbEntity
  8
RACCORDO
100
AcDbLine
 62
250
  6
CONTINUOUS
 10
-3.4385929353
 20
21.7192287468
 11
-3.4396628055
 21
21.7197500074
  0
LINE
  5
50C
100
AcDbEntity
  8
RACCORDO
100
AcDbLine
 62
7
  6
CONTINUOUS
 10
-2.3095006169
 20
20.4834306787
 11
-4.5175403507
 21
21.5874505457
  0
LINE
  5
50D
100
AcDbEntity
  8
RACCORDO
100
AcDbLine
 62
250
  6
CONTINUOUS
 10
-3.5280580219
 20
21.715988429
 11
-1.6817356121
 21
20.7928401312
  0
LINE
  5
50E
100
AcDbEntity
  8
RACCORDO
100
AcDbLine
 62
7
  6
CONTINUOUS
 10
-3.4385929353
 20
21.7192287468
 11
-1.6334314739
 21
20.8166480161
  0
LINE
  5
50F
100
AcDbEntity
  8
SMUSSO
100
AcDbLine
 62
250
  6
CONTINUOUS
 10
9.9782025115
 20
22.6528770206
 11
9.6353364935
 21
23.5848831736
  0
LINE
  5
510
100
AcDbEntity
  8
0
100
AcDbLine
 62
7
  6
CONTINUOUS
 10
10.9045123949
 20
21.6358569018
 11
11.1060117528
 21
21.040132476
  0
LWPOLYLINE
  5
511
100
AcDbEntity
  8
RACCORDO
100
AcDbPolyline
 62
7
  6
CONTINUOUS
 90
31
 70
0
 10
19.614430704
 20
20.9354629423
 10
19.6141353614
 20
20.9704208619
 10
19.6129909373
 20
21.0128480466
 10
19.610992202
 20
21.0553384274
 10
19.6081454645
 20
21.0978972062
 10
19.6044581835
 20
21.1405039943
 10
19.5999412625
 20
21.1831095029
 10
19.5946026334
 20
21.2257076474
 10
19.5884495177
 20
21.2682907085
 10
19.5814964033
 20
21.3108048355
 10
19.5737518557
 20
21.3532434781
 10
19.5652233685
 20
21.3956000775
 10
19.5559292161
 20
21.4378191912
 10
19.5458788805
 20
21.4798920894
 10
19.5350800038
 20
21.5218145244
 10
19.5235526975
 20
21.5635363995
 10
19.5113089508
 20
21.6050415508
 10
19.4983547349
 20
21.646333452
 10
19.4847030909
 20
21.6873901847
 10
19.4703630747
 20
21.7282020824
 10
19.4553412008
 20
21.7687655879
 10
19.4396469294
 20
21.8090666356
 10
19.4232870179
 20
21.8490981386
 10
19.4062672867
 20
21.8888531785
 10
19.3885964869
 20
21.928317065
 10
19.370280448
 20
21.9674814798
 10
19.3513234974
 20
22.0063392439
 10
19.3317323942
 20
22.0448777275
 10
19.3115114796
 20
22.0830878891
 10
19.2906639809
 20
22.1209620374
 10
19.2724632654
 20
22.1528672217
  0
LWPOLYLINE
  5
512
100
AcDbEntity
  8
RACCORDO
100
AcDbPolyline
 62
250
  6
CONTINUOUS
 90
37
 70
0
 10
19.3337705122
 20
20.5881352669
 10
19.3335405833
 20
20.626137543
 10
19.3326320997
 20
20.6644550958
 10
19.3310454536
 20
20.703069666
 10
19.3287813284
 20
20.7419627641
 10
19.3258408032
 20
20.7811159502
 10
19.3222253401
 20
20.8205108464
 10
19.3179366133
 20
20.8601288102
 10
19.3129766281
 20
20.8999508581
 10
19.3073478238
 20
20.9399579466
 10
19.301052873
 20
20.9801309701
 10
19.2940947314
 20
21.020450856
 10
19.2864767467
 20
21.0608984934
 10
19.278202533
 20
21.101454633
 10
19.2692760031
 20
21.1420999652
 10
19.2597014195
 20
21.1828152141
 10
19.2494833271
 20
21.2235810361
 10
19.2386265759
 20
21.2643779982
 10
19.2271363494
 20
21.3051866571
 10
19.2150181219
 20
21.3459876
 10
19.2022776519
 20
21.3867614104
 10
19.1889210046
 20
21.4274886471
 10
19.1749545631
 20
21.4681499123
 10
19.1603849664
 20
21.5087258894
 10
19.1452191026
 20
21.5491973086
 10
19.1294642119
 20
21.5895449261
 10
19.1131278004
 20
21.6297495507
 10
19.0962175747
 20
21.6697920812
 10
19.078741586
 20
21.7096535418
 10
19.0607081899
 20
21.7493149154
 10
19.0421259615
 20
21.7887571711
 10
19.0230038422
 20
21.8279614516
 10
19.0033509092
 20
21.8669092346
 10
18.9831763276
 20
21.9055821613
 10
18.9624896558
 20
21.9439618995
 10
18.9413008508
 20
21.982030157
 10
18.9196200366
 20
22.0197688415
  0
LINE
  5
513
100
AcDbEntity
  8
DRAFT
100
AcDbLine
 62
250
  6
CONTINUOUS
 10
19.3337705122
 20
-1.3513815131
 11
19.3337705122
 21
2.9550761555
  0
LINE
  5
514
100
AcDbEntity
  8
DRAFT
100
AcDbLine
 62
250
  6
CONTINUOUS
 10
19.3337705122
 20
4.9817195323
 11
19.3337705122
 21
14.9062267277
  0
LINE
  5
515
100
AcDbEntity
  8
DRAFT
100
AcDbLine
 62
250
  6
CONTINUOUS
 10
19.3337705122
 20
16.9328701046
 11
19.3337705122
 21
20.5881352669
  0
LINE
  5
516
100
AcDbEntity
  8
RACCORDO
100
AcDbLine
 62
7
  6
CONTINUOUS
 10
19.6144307119
 20
-1.0040523279
 11
19.6144307119
 21
2.9092568007
  0
LINE
  5
517
100
AcDbEntity
  8
RACCORDO
100
AcDbLine
 62
7
  6
CONTINUOUS
 10
19.6144307119
 20
5.7221972576
 11
19.6144307119
 21
14.8604073729
  0
LINE
  5
518
100
AcDbEntity
  8
RACCORDO
100
AcDbLine
 62
7
  6
CONTINUOUS
 10
19.6144307119
 20
17.6733478298
 11
19.6144307119
 21
20.9354644522
  0
LWPOLYLINE
  5
519
100
AcDbEntity
  8
DRAFT
100
AcDbPolyline
 62
7
  6
CONTINUOUS
 90
43
 70
0
 10
19.6144307118
 20
17.6733530927
 10
19.614360788
 20
17.6567932827
 10
19.6135267572
 20
17.6139280879
 10
19.6118213793
 20
17.5727770539
 10
19.6093396154
 20
17.5334806572
 10
19.6061628875
 20
17.4959171388
 10
19.6023697784
 20
17.4601100535
 10
19.598049694
 20
17.4261627694
 10
19.5932688414
 20
17.3939781978
 10
19.5880489935
 20
17.3632782362
 10
19.582435558
 20
17.3340235784
 10
19.576487914
 20
17.3062550985
 10
19.5702224585
 20
17.2798159887
 10
19.56367282
 20
17.2546816533
 10
19.5568861943
 20
17.2308751436
 10
19.5498872922
 20
17.2083115165
 10
19.5427099719
 20
17.1869918199
 10
19.5353896559
 20
17.1669105855
 10
19.5279476604
 20
17.147973067
 10
19.5204188743
 20
17.130190699
 10
19.5128280776
 20
17.1135456165
 10
19.5051752861
 20
17.0978996129
 10
19.4974874919
 20
17.0832528371
 10
19.4897851997
 20
17.0695984427
 10
19.4820510041
 20
17.0567890102
 10
19.4743082553
 20
17.0448225341
 10
19.4665697163
 20
17.0336950323
 10
19.4587934995
 20
17.0232580953
 10
19.4509875184
 20
17.013495533
 10
19.4431680381
 20
17.0044195142
 10
19.4352979071
 20
16.9959262975
 10
19.4273889821
 20
16.9880092709
 10
19.4194462038
 20
16.9806724187
 10
19.4114153437
 20
16.9738300212
 10
19.4032948168
 20
16.9674685604
 10
19.3950951174
 20
16.9616011787
 10
19.3867743865
 20
16.9561842096
 10
19.3783384348
 20
16.9512126805
 10
19.3697859832
 20
16.946692672
 10
19.3610595805
 20
16.9425991203
 10
19.3521386273
 20
16.9389253403
 10
19.3430423672
 20
16.9356817465
 10
19.3337705122
 20
16.9328701046
  0
LWPOLYLINE
  5
51A
100
AcDbEntity
  8
DRAFT
100
AcDbPolyline
 62
7
  6
CONTINUOUS
 90
43
 70
0
 10
19.6144307118
 20
5.7222025205
 10
19.614360788
 20
5.7056427104
 10
19.6135267572
 20
5.6627775157
 10
19.6118213793
 20
5.6216264817
 10
19.6093396154
 20
5.582330085
 10
19.6061628875
 20
5.5447665666
 10
19.6023697784
 20
5.5089594813
 10
19.598049694
 20
5.4750121972
 10
19.5932688414
 20
5.4428276256
 10
19.5880489935
 20
5.412127664
 10
19.582435558
 20
5.3828730061
 10
19.576487914
 20
5.3551045263
 10
19.5702224585
 20
5.3286654165
 10
19.56367282
 20
5.3035310811
 10
19.5568861943
 20
5.2797245714
 10
19.5498872922
 20
5.2571609443
 10
19.5427099719
 20
5.2358412477
 10
19.5353896559
 20
5.2157600133
 10
19.5279476604
 20
5.1968224948
 10
19.5204188743
 20
5.1790401268
 10
19.5128280776
 20
5.1623950443
 10
19.5051752861
 20
5.1467490406
 10
19.4974874919
 20
5.1321022649
 10
19.4897851997
 20
5.1184478705
 10
19.4820510041
 20
5.1056384379
 10
19.4743082553
 20
5.0936719619
 10
19.4665697163
 20
5.08254446
 10
19.4587934995
 20
5.0721075231
 10
19.4509875184
 20
5.0623449607
 10
19.4431680381
 20
5.0532689419
 10
19.4352979071
 20
5.0447757253
 10
19.4273889821
 20
5.0368586987
 10
19.4194462038
 20
5.0295218464
 10
19.4114153437
 20
5.0226794489
 10
19.4032948168
 20
5.0163179882
 10
19.3950951174
 20
5.0104506064
 10
19.3867743865
 20
5.0050336374
 10
19.3783384348
 20
5.0000621083
 10
19.3697859832
 20
4.9955420998
 10
19.3610595805
 20
4.991448548
 10
19.3521386273
 20
4.9877747681
 10
19.3430423672
 20
4.9845311743
 10
19.3337705122
 20
4.9817195323
  0
LWPOLYLINE
  5
51B
100
AcDbEntity
  8
RACCORDO
100
AcDbPolyline
 62
7
  6
CONTINUOUS
 90
4
 70
0
 10
21.2845456343
 20
16.5995682956
 10
21.2849943704
 20
16.6035901318
 10
21.2852988505
 20
16.608646298
 10
21.2853441606
 20
16.6114967441
  0
LWPOLYLINE
  5
51C
100
AcDbEntity
  8
RACCORDO
100
AcDbPolyline
 62
250
  6
CONTINUOUS
 90
33
 70
0
 10
21.2151574935
 20
16.5093443849
 10
21.208016362
 20
16.4593629747
 10
21.1999478917
 20
16.4100431554
 10
21.1909557257
 20
16.3614071903
 10
21.1810439272
 20
16.3134770457
 10
21.1702169693
 20
16.2662743445
 10
21.1584797312
 20
16.2198203583
 10
21.1458375036
 20
16.1741360354
 10
21.1322959981
 20
16.1292420227
 10
21.1178613372
 20
16.0851586185
 10
21.1025400451
 20
16.0419057415
 10
21.0863390327
 20
15.9995028955
 10
21.0692656028
 20
15.9579691944
 10
21.0513274545
 20
15.9173233715
 10
21.0325326911
 20
15.8775837929
 10
21.0128898077
 20
15.8387684202
 10
20.9924076791
 20
15.8008947875
 10
20.9710955453
 20
15.7639799772
 10
20.948963017
 20
15.7280406357
 10
20.926020078
 20
15.6930929776
 10
20.9022770909
 20
15.6591527897
 10
20.8777447822
 20
15.6262354059
 10
20.852434232
 20
15.5943556915
 10
20.8263568612
 20
15.5635280302
 10
20.7995244348
 20
15.5337663298
 10
20.7719490612
 20
15.5050840217
 10
20.7436431919
 20
15.477494058
 10
20.7146196087
 20
15.4510088976
 10
20.6848914154
 20
15.4256404977
 10
20.65447203
 20
15.4014003081
 10
20.6233751832
 20
15.3782992702
 10
20.5916149133
 20
15.3563478126
 10
20.5789778775
 20
15.3480527601
  0
LWPOLYLINE
  5
51D
100
AcDbEntity
  8
RACCORDO
100
AcDbPolyline
 62
250
  6
CONTINUOUS
 90
33
 70
0
 10
21.2151574935
 20
4.5581938127
 10
21.2080163619
 20
4.5082124019
 10
21.1999478915
 20
4.4588925821
 10
21.1909557254
 20
4.4102566165
 10
21.1810439267
 20
4.3623264713
 10
21.1702169687
 20
4.3151237697
 10
21.1584797304
 20
4.2686697831
 10
21.1458375026
 20
4.2229854597
 10
21.1322959968
 20
4.1780914465
 10
21.1178613357
 20
4.1340080419
 10
21.1025400434
 20
4.0907551645
 10
21.0863390307
 20
4.0483523182
 10
21.0692656005
 20
4.0068186167
 10
21.0513274518
 20
3.9661727935
 10
21.0325326882
 20
3.9264332146
 10
21.0128898044
 20
3.8876178417
 10
20.9924076754
 20
3.8497442087
 10
20.9710955412
 20
3.8128293981
 10
20.9489630125
 20
3.7768900564
 10
20.9260200731
 20
3.7419423982
 10
20.9022770855
 20
3.7080022101
 10
20.8777447764
 20
3.6750848261
 10
20.8524342258
 20
3.6432051117
 10
20.8263568545
 20
3.6123774503
 10
20.7995244276
 20
3.5826157498
 10
20.7719490535
 20
3.5539334417
 10
20.7436431837
 20
3.526343478
 10
20.7146196
 20
3.4998583177
 10
20.6848914061
 20
3.4744899178
 10
20.6544720201
 20
3.4502497283
 10
20.6233751728
 20
3.4271486905
 10
20.5916149024
 20
3.4051972331
 10
20.5789778776
 20
3.3969021879
  0
LWPOLYLINE
  5
51E
100
AcDbEntity
  8
RACCORDO
100
AcDbPolyline
 62
250
  6
CONTINUOUS
 90
34
 70
0
 10
12.0355344635
 20
-14.3329519267
 10
12.0557090451
 20
-14.3142722943
 10
12.0753619781
 20
-14.2948083676
 10
12.0944840974
 20
-14.2745692634
 10
12.1130663258
 20
-14.2535645611
 10
12.1310997219
 20
-14.23180433
 10
12.1485757106
 20
-14.20929896
 10
12.1654859363
 20
-14.1860592078
 10
12.1818223478
 20
-14.162096119
 10
12.1975772385
 20
-14.1374210439
 10
12.2127431023
 20
-14.1120457287
 10
12.227312699
 20
-14.0859822606
 10
12.2412791405
 20
-14.0592429941
 10
12.2546357878
 20
-14.0318406307
 10
12.2673762578
 20
-14.0037882337
 10
12.2794944853
 20
-13.97509917
 10
12.2909847118
 20
-13.9457870858
 10
12.301841463
 20
-13.9158659314
 10
12.3120595554
 20
-13.8853499758
 10
12.321634139
 20
-13.8542537534
 10
12.3305606689
 20
-13.8225920388
 10
12.3388348826
 20
-13.7903798726
 10
12.3464528673
 20
-13.7576325681
 10
12.3534110089
 20
-13.7243656995
 10
12.3597059597
 20
-13.6905950743
 10
12.365334764
 20
-13.6563366881
 10
12.3702947492
 20
-13.6216068791
 10
12.374583476
 20
-13.5864223171
 10
12.3781989391
 20
-13.5507998268
 10
12.3811394643
 20
-13.5147562426
 10
12.3834035895
 20
-13.478308557
 10
12.3849902356
 20
-13.4414740382
 10
12.3858987192
 20
-13.4042702291
 10
12.3861286481
 20
-13.366714802
  0
LWPOLYLINE
  5
51F
100
AcDbEntity
  8
RACCORDO
100
AcDbPolyline
 62
250
  6
CONTINUOUS
 90
4
 70
0
 10
11.9719781725
 20
-14.384197901
 10
11.9936589868
 20
-14.3679231109
 10
12.0148477917
 20
-14.3508383983
 10
12.0355344635
 20
-14.3329519267
  0
LWPOLYLINE
  5
520
100
AcDbEntity
  8
RACCORDO
100
AcDbPolyline
 62
7
  6
CONTINUOUS
 90
40
 70
0
 10
12.0465558387
 20
-14.3378284559
 10
12.0671221109
 20
-14.3226312556
 10
12.0951631503
 20
-14.3009411681
 10
12.1227129567
 20
-14.2784841595
 10
12.1497435999
 20
-14.2552777556
 10
12.1762420887
 20
-14.2313280272
 10
12.2022097185
 20
-14.2066274178
 10
12.2276266487
 20
-14.181187229
 10
12.2524736318
 20
-14.1550191864
 10
12.2767514222
 20
-14.1281134132
 10
12.3004408725
 20
-14.1004807961
 10
12.323522245
 20
-14.0721341326
 10
12.3459937358
 20
-14.0430636556
 10
12.3678368657
 20
-14.0132794074
 10
12.3890317632
 20
-13.9827950735
 10
12.409573098
 20
-13.9516033263
 10
12.4294420645
 20
-13.9197156407
 10
12.448620334
 20
-13.8871442748
 10
12.4671021796
 20
-13.8538801112
 10
12.4848681176
 20
-13.8199368787
 10
12.5019015212
 20
-13.7853241294
 10
12.518199236
 20
-13.7500229793
 10
12.5337450264
 20
-13.7140386342
 10
12.5485180706
 20
-13.677387386
 10
12.5625069612
 20
-13.6400634527
 10
12.5756994344
 20
-13.6020599395
 10
12.588071111
 20
-13.5634039834
 10
12.5995954923
 20
-13.524138975
 10
12.6102585847
 20
-13.4842746151
 10
12.6200458465
 20
-13.4438223298
 10
12.628936396
 20
-13.4028271685
 10
12.6369196118
 20
-13.3612974353
 10
12.6439838448
 20
-13.3192450755
 10
12.6501130017
 20
-13.2767197679
 10
12.655298949
 20
-13.2337308381
 10
12.6595330485
 20
-13.1902882679
 10
12.6628043311
 20
-13.1464413202
 10
12.6651060017
 20
-13.1022115181
 10
12.6664327245
 20
-13.0575956936
 10
12.66678884
 20
-13.0193866377
  0
LINE
  5
521
100
AcDbEntity
  8
RACCORDO
100
AcDbLine
 62
250
  6
CONTINUOUS
 10
11.7927750866
 20
-14.5140744184
 11
11.9719781725
 21
-14.384197901
  0
LINE
  5
522
100
AcDbEntity
  8
RACCORDO
100
AcDbLine
 62
7
  6
CONTINUOUS
 10
11.8673426806
 20
-14.4677122856
 11
12.0465457665
 21
-14.3378357681
  0
LWPOLYLINE
  5
523
100
AcDbEntity
  8
RACCORDO
100
AcDbPolyline
 62
250
  6
CONTINUOUS
 90
16
 70
0
 10
-4.8057017584
 20
-25.1434273735
 10
-4.8443978521
 20
-25.1665920373
 10
-4.8863313903
 20
-25.1875892512
 10
-4.9310579571
 20
-25.2061964848
 10
-4.9781035357
 20
-25.2222165365
 10
-5.0269695322
 20
-25.2354796243
 10
-5.0771380599
 20
-25.2458451846
 10
-5.1280774274
 20
-25.2532033621
 10
-5.1792477742
 20
-25.257476174
 10
-5.2301067915
 20
-25.2586183368
 10
-5.2801154704
 20
-25.2566177455
 10
-5.3287438137
 20
-25.2514956028
 10
-5.3754764531
 20
-25.2433061938
 10
-5.4198181113
 20
-25.2321363107
 10
-5.4612988509
 20
-25.2181043331
 10
-5.4994790547
 20
-25.2013589734
  0
LWPOLYLINE
  5
524
100
AcDbEntity
  8
RACCORDO
100
AcDbPolyline
 62
250
  6
CONTINUOUS
 90
4
 70
0
 10
11.7479871566
 20
-14.5420091124
 10
11.763135155
 20
-14.5335378154
 10
11.7781655861
 20
-14.5241724318
 10
11.7927750866
 20
-14.5140744184
  0
LWPOLYLINE
  5
525
100
AcDbEntity
  8
RACCORDO
100
AcDbPolyline
 62
250
  6
CONTINUOUS
 90
5
 70
0
 10
11.9719781725
 20
-14.384197901
 10
11.9908146878
 20
-14.3738376931
 10
12.0092568046
 20
-14.3628494559
 10
12.0272908275
 20
-14.3512413494
 10
12.0465457665
 20
-14.3378357681
  0
LWPOLYLINE
  5
526
100
AcDbEntity
  8
RACCORDO
100
AcDbPolyline
 62
250
  6
CONTINUOUS
 90
5
 70
0
 10
11.7927750866
 20
-14.5140744184
 10
11.8116116018
 20
-14.5037142106
 10
11.8300537185
 20
-14.4927259735
 10
11.8480877414
 20
-14.481117867
 10
11.8673426806
 20
-14.4677122856
  0
LINE
  5
527
100
AcDbEntity
  8
RACCORDO
100
AcDbLine
 62
250
  6
CONTINUOUS
 10
11.7927750866
 20
-14.5140744184
 11
8.2705520414
 21
-16.3766839848
  0
LINE
  5
528
100
AcDbEntity
  8
RACCORDO
100
AcDbLine
 62
7
  6
CONTINUOUS
 10
11.7479871566
 20
-14.5420091124
 11
8.2488599391
 21
-16.3924052246
  0
LINE
  5
529
100
AcDbEntity
  8
RACCORDO
100
AcDbLine
 62
250
  6
CONTINUOUS
 10
1.5383900694
 20
-19.8803776339
 11
11.9719781725
 21
-14.384197901
  0
LINE
  5
52A
100
AcDbEntity
  8
DRAFT
100
AcDbLine
 62
7
  6
CONTINUOUS
 10
0.8860180872
 20
-20.4718802427
 11
7.1873567718
 21
-17.1617242011
  0
LINE
  5
52B
100
AcDbEntity
  8
DRAFT
100
AcDbLine
 62
7
  6
CONTINUOUS
 10
5.5316392483
 20
-18.3212270604
 11
0.8860180872
 21
-20.7078629557
  0
LINE
  5
52C
100
AcDbEntity
  8
DRAFT
100
AcDbLine
 62
7
  6
CONTINUOUS
 10
0.8860180872
 20
-20.1308352281
 11
1.9374220179
 21
-19.5911812756
  0
LINE
  5
52D
100
AcDbEntity
  8
DRAFT
100
AcDbLine
 62
7
  6
CONTINUOUS
 10
6.4897394118
 20
-17.7013952227
 11
0.8860180872
 21
-20.56708943
  0
LINE
  5
52E
100
AcDbEntity
  8
RACCORDO
100
AcDbLine
 62
7
  6
CONTINUOUS
 10
-2.2108501114
 20
-21.5233847102
 11
-2.2861906283
 21
-21.5589842265
  0
LWPOLYLINE
  5
52F
100
AcDbEntity
  8
RACCORDO
100
AcDbPolyline
 62
250
  6
CONTINUOUS
 90
13
 70
0
 10
-2.1405412137
 20
-21.262539111
 10
-2.1701413674
 20
-21.275086786
 10
-2.2027332826
 20
-21.2856190246
 10
-2.2377716062
 20
-21.2939595948
 10
-2.2746700518
 20
-21.2999689378
 10
-2.3128112064
 20
-21.303546502
 10
-2.3515568611
 20
-21.3046324265
 10
-2.3902586949
 20
-21.3032085431
 10
-2.4282691239
 20
-21.2992986794
 10
-2.4649521342
 20
-21.2929682597
 10
-2.4996939228
 20
-21.2843232105
 10
-2.5319131682
 20
-21.2735081881
 10
-2.5610707592
 20
-21.2607041582
  0
LWPOLYLINE
  5
530
100
AcDbEntity
  8
0
100
AcDbPolyline
 62
7
  6
CONTINUOUS
 90
10
 70
0
 10
0.8350104945
 20
21.382460546
 10
0.8276442067
 20
21.3805118699
 10
0.8198699416
 20
21.3782828963
 10
0.8116803941
 20
21.3757859704
 10
0.8030858127
 20
21.3730274432
 10
0.7941059212
 20
21.3700122704
 10
0.7847418155
 20
21.3667521151
 10
0.7750024316
 20
21.3632547208
 10
0.7649066135
 20
21.3595231485
 10
0.7544688243
 20
21.3555622896
  0
LWPOLYLINE
  5
531
100
AcDbEntity
  8
0
100
AcDbPolyline
 62
7
  6
CONTINUOUS
 90
41
 70
0
 10
-14.0299201838
 20
21.635017546
 10
-14.0241020746
 20
21.6338976611
 10
-14.0160687863
 20
21.632662376
 10
-14.0079078475
 20
21.6317566017
 10
-13.9996313601
 20
21.6311669562
 10
-13.9912532324
 20
21.6308940313
 10
-13.9827870771
 20
21.6309376399
 10
-13.9742440558
 20
21.6312830387
 10
-13.9656373787
 20
21.6319300066
 10
-13.9569799257
 20
21.6328777968
 10
-13.9482818486
 20
21.6341107538
 10
-13.9395555699
 20
21.6356279631
 10
-13.930813171
 20
21.6374281962
 10
-13.9220637861
 20
21.6394952658
 10
-13.9133189783
 20
21.6418276847
 10
-13.9045900165
 20
21.6444238061
 10
-13.8958851178
 20
21.6472671929
 10
-13.8872149681
 20
21.65035589
 10
-13.8785900122
 20
21.6536878854
 10
-13.8700176736
 20
21.6572466803
 10
-13.8615077659
 20
21.6610299368
 10
-13.8530699107
 20
21.6650353245
 10
-13.844710857
 20
21.6692463969
 10
-13.836439564
 20
21.6736604999
 10
-13.8282648363
 20
21.6782750262
 10
-13.8201928462
 20
21.6830736471
 10
-13.812231721
 20
21.688053442
 10
-13.8043894555
 20
21.6932115654
 10
-13.7966717109
 20
21.6985318463
 10
-13.7890858039
 20
21.7040111353
 10
-13.7816389255
 20
21.7096463856
 10
-13.7743362587
 20
21.7154216173
 10
-13.7671843292
 20
21.7213334795
 10
-13.7601895257
 20
21.7273787621
 10
-13.7533565478
 20
21.7335417249
 10
-13.7466911438
 20
21.7398188401
 10
-13.7401989033
 20
21.7462067709
 10
-13.733884014
 20
21.7526900848
 10
-13.7277511653
 20
21.7592612893
 10
-13.7218054615
 20
21.7659207781
 10
-13.7160513645
 20
21.772664925
  0
LINE
  5
532
100
AcDbEntity
  8
0
100
AcDbLine
 62
7
  6
CONTINUOUS
 10
-14.6541154661
 20
21.7653472871
 11
-14.0299198691
 21
21.6350146673
  0
LINE
  5
533
100
AcDbEntity
  8
0
100
AcDbLine
 62
250
  6
CONTINUOUS
 10
-14.4272719726
 20
21.9211684479
 11
-13.7160513645
 21
21.772664925
  0
LWPOLYLINE
  5
534
100
AcDbEntity
  8
0
100
AcDbPolyline
 62
250
  6
CONTINUOUS
 90
14
 70
0
 10
-14.0633580738
 20
24.4880563942
 10
-14.0702830923
 20
24.4903790525
 10
-14.0774242497
 20
24.4921850704
 10
-14.0847654887
 20
24.4934703867
 10
-14.0922903019
 20
24.4942321116
 10
-14.0999817692
 20
24.494468532
 10
-14.1078225957
 20
24.4941791164
 10
-14.1157951508
 20
24.4933645157
 10
-14.1238815076
 20
24.4920265614
 10
-14.1320634832
 20
24.4901682621
 10
-14.1403226799
 20
24.4877937962
 10
-14.1486405262
 20
24.4849085031
 10
-14.1569983189
 20
24.4815188704
 10
-14.1653772648
 20
24.47763252
  0
LWPOLYLINE
  5
535
100
AcDbEntity
  8
0
100
AcDbPolyline
 62
7
  6
CONTINUOUS
 90
10
 70
0
 10
0.8802887853
 20
21.3857244071
 10
0.8774054258
 20
21.3868099018
 10
0.8738996346
 20
21.3874929345
 10
0.8698240256
 20
21.387799267
 10
0.8652120149
 20
21.3877365171
 10
0.8600943293
 20
21.3873123115
 10
0.8544892925
 20
21.3865638855
 10
0.8484318553
 20
21.3855022574
 10
0.8419436892
 20
21.3841272203
 10
0.8350104945
 20
21.382460546
  0
LWPOLYLINE
  5
536
100
AcDbEntity
  8
RACCORDO
100
AcDbPolyline
 62
250
  6
CONTINUOUS
 90
17
 70
0
 10
-3.4396628055
 20
21.7197500074
 10
-3.4441987182
 20
21.7217503146
 10
-3.4489538358
 20
21.7234777378
 10
-3.4538427798
 20
21.7248952513
 10
-3.458857277
 20
21.7260004561
 10
-3.4639888415
 20
21.7267914822
 10
-3.4692287893
 20
21.7272669907
 10
-3.4745682533
 20
21.7274261771
 10
-3.4799981976
 20
21.7272687719
 10
-3.4855094334
 20
21.7267950416
 10
-3.4910926344
 20
21.7260057877
 10
-3.4967383522
 20
21.7249023459
 10
-3.5024370329
 20
21.7234865835
 10
-3.5081790329
 20
21.7217608964
 10
-3.5139546353
 20
21.7197282047
 10
-3.5197540662
 20
21.7173919484
 10
-3.5255675116
 20
21.714756081
  0
LINE
  5
537
100
AcDbEntity
  8
0
100
AcDbLine
 62
7
  6
CONTINUOUS
 10
-3.3861156529
 20
22.2166764957
 11
-1.1059868524
 21
21.0766120954
  0
LINE
  5
538
100
AcDbEntity
  8
0
100
AcDbLine
 62
7
  6
CONTINUOUS
 10
-2.7304365199
 20
22.8980694528
 11
-0.0895115794
 21
21.5776069825
  0
LINE
  5
539
100
AcDbEntity
  8
0
100
AcDbLine
 62
7
  6
CONTINUOUS
 10
0.8853036754
 20
21.0901993551
 11
0.9525197155
 21
21.0565913351
  0
LINE
  5
53A
100
AcDbEntity
  8
0
100
AcDbLine
 62
250
  6
CONTINUOUS
 10
0.7216502273
 20
21.3410888346
 11
0.0807644535
 21
21.6615317214
  0
LINE
  5
53B
100
AcDbEntity
  8
0
100
AcDbLine
 62
250
  6
CONTINUOUS
 10
-4.8689830148
 20
24.1364054556
 11
-5.5098687885
 21
24.4568483424
  0
LINE
  5
53C
100
AcDbEntity
  8
0
100
AcDbLine
 62
7
  6
CONTINUOUS
 10
0.8802887767
 20
21.3857243016
 11
0.3650391133
 21
21.6433491333
  0
LINE
  5
53D
100
AcDbEntity
  8
0
100
AcDbLine
 62
7
  6
CONTINUOUS
 10
-4.7101578363
 20
24.1809476081
 11
-5.2254074997
 21
24.4385724398
  0
LINE
  5
53E
100
AcDbEntity
  8
0
100
AcDbLine
 62
7
  6
CONTINUOUS
 10
1.9285352343
 20
21.5376446353
 11
-0.9819525969
 21
22.9928885509
  0
LINE
  5
53F
100
AcDbEntity
  8
DRAFT
100
AcDbLine
 62
7
  6
CONTINUOUS
 10
6.6290094342
 20
19.2307088055
 11
7.1873567718
 21
18.9515351367
  0
LWPOLYLINE
  5
540
100
AcDbEntity
  8
RACCORDO
100
AcDbPolyline
 62
250
  6
CONTINUOUS
 90
58
 70
0
 10
19.6144307119
 20
8.2340558561
 10
19.6285049423
 20
8.2231808364
 10
19.6715359066
 20
8.1887502028
 10
19.714333139
 20
8.1533196739
 10
19.7568773412
 20
8.116905224
 10
19.7991492862
 20
8.0795233076
 10
19.8411298608
 20
8.0411908267
 10
19.8828000954
 20
8.0019251047
 10
19.9241411993
 20
7.9617438502
 10
19.9651345377
 20
7.920665175
 10
20.005761622
 20
7.8787076045
 10
20.0460040951
 20
7.8358900949
 10
20.0858437674
 20
7.7922319997
 10
20.1252626408
 20
7.7477530436
 10
20.1642429358
 20
7.7024732903
 10
20.2027670754
 20
7.6564131574
 10
20.2408176804
 20
7.6095934223
 10
20.278377562
 20
7.5620352336
 10
20.3154297501
 20
7.5137600787
 10
20.3519575104
 20
7.4647897618
 10
20.3879443628
 20
7.415146378
 10
20.4233740731
 20
7.3648523222
 10
20.458230653
 20
7.3139302895
 10
20.4924983619
 20
7.2624032747
 10
20.526161724
 20
7.2102945479
 10
20.5592055403
 20
7.1576276367
 10
20.5916148976
 20
7.1044263112
 10
20.6233751683
 20
7.050714583
 10
20.654472016
 20
6.9965166976
 10
20.6848914023
 20
6.9418571216
 10
20.7146195965
 20
6.8867605275
 10
20.7436431803
 20
6.8312517834
 10
20.7719490502
 20
6.7753559501
 10
20.7995244244
 20
6.7190982678
 10
20.8263568517
 20
6.6625041398
 10
20.8524342235
 20
6.6055991062
 10
20.8777447745
 20
6.5484088406
 10
20.9022770836
 20
6.4909591476
 10
20.9260200711
 20
6.4332759725
 10
20.9489630105
 20
6.375385375
 10
20.9710955396
 20
6.3173135037
 10
20.9924076743
 20
6.2590865577
 10
21.0128898036
 20
6.2007307949
 10
21.0325326873
 20
6.1422725384
 10
21.0513274507
 20
6.0837381967
 10
21.0692655994
 20
6.0251542251
 10
21.0863390299
 20
5.9665470924
 10
21.1025400431
 20
5.9079432318
 10
21.1178613357
 20
5.8493690611
 10
21.1322959967
 20
5.7908509958
 10
21.1458375022
 20
5.7324154779
 10
21.1584797299
 20
5.6740889272
 10
21.1702169685
 20
5.6158977011
 10
21.1810439269
 20
5.5578680397
 10
21.1909557257
 20
5.5000260948
 10
21.1999478918
 20
5.442397963
 10
21.2080163621
 20
5.3850096735
 10
21.2151574935
 20
5.3278871324
  0
LWPOLYLINE
  5
541
100
AcDbEntity
  8
SMUSSO
100
AcDbPolyline
 62
7
  6
CONTINUOUS
 90
49
 70
0
 10
8.8504631489
 20
21.9449969277
 10
8.8248352837
 20
21.9831364786
 10
8.8027496519
 20
22.0188800885
 10
8.7823716868
 20
22.0548313989
 10
8.7637024385
 20
22.0909943848
 10
8.7467408571
 20
22.1273650712
 10
8.731517626
 20
22.16387749
 10
8.7180373764
 20
22.2005269171
 10
8.7062954772
 20
22.2373180766
 10
8.6963087184
 20
22.2741991732
 10
8.6880786141
 20
22.3111760815
 10
8.6816036502
 20
22.3482429268
 10
8.6768960747
 20
22.3853302901
 10
8.6739593528
 20
22.4224320602
 10
8.6727900192
 20
22.4595543482
 10
8.673389927
 20
22.4966460679
 10
8.6757620607
 20
22.5337130269
 10
8.6799034357
 20
22.5707494177
 10
8.685806951
 20
22.6076867319
 10
8.6934747545
 20
22.6445200041
 10
8.7029046982
 20
22.6812541997
 10
8.7140832371
 20
22.7178357067
 10
8.7270142711
 20
22.7542679514
 10
8.7416939004
 20
22.7905475075
 10
8.7580968798
 20
22.826610483
 10
8.7762250759
 20
22.8624541312
 10
8.7960766221
 20
22.8980811989
 10
8.817620674
 20
22.9334360346
 10
8.8408605977
 20
22.9685193951
 10
8.8657930271
 20
23.0033305236
 10
8.8923770197
 20
23.0378114977
 10
8.9206152865
 20
23.0719615929
 10
8.9505051164
 20
23.1057815337
 10
8.9819974335
 20
23.1392155717
 10
9.015094262
 20
23.1722625528
 10
9.0497935776
 20
23.204923631
 10
9.0860402312
 20
23.2371465209
 10
9.1238378789
 20
23.2689314235
 10
9.1631828646
 20
23.3002781376
 10
9.2040090714
 20
23.3311337745
 10
9.2463176085
 20
23.3614965449
 10
9.2901073667
 20
23.391368238
 10
9.3353089007
 20
23.4207013326
 10
9.381924618
 20
23.4494952148
 10
9.4299521111
 20
23.4777504986
 10
9.479314712
 20
23.5054215044
 10
9.5299868647
 20
23.5324930055
 10
9.5819941252
 20
23.5589802286
 10
9.6353364935
 20
23.5848831736
  0
LWPOLYLINE
  5
542
100
AcDbEntity
  8
RACCORDO
100
AcDbPolyline
 62
7
  6
CONTINUOUS
 90
4
 70
0
 10
21.2853441606
 20
5.4185710536
 10
21.2853166964
 20
5.420408032
 10
21.2850479713
 20
5.4245926046
 10
21.2849138509
 20
5.4258247149
  0
LWPOLYLINE
  5
543
100
AcDbEntity
  8
RACCORDO
100
AcDbPolyline
 62
7
  6
CONTINUOUS
 90
4
 70
0
 10
21.2853441606
 20
17.3697216258
 10
21.2853166964
 20
17.3715586042
 10
21.2850479713
 20
17.3757431768
 10
21.2849138509
 20
17.3769752872
  0
LINE
  5
544
100
AcDbEntity
  8
RACCORDO
100
AcDbLine
 62
250
  6
CONTINUOUS
 10
21.2011461007
 20
17.2755233599
 11
21.2011461007
 21
16.4972975014
  0
LINE
  5
545
100
AcDbEntity
  8
RACCORDO
100
AcDbLine
 62
250
  6
CONTINUOUS
 10
21.2011461007
 20
5.3243727877
 11
21.2011461007
 21
4.5461469292
  0
LINE
  5
546
100
AcDbEntity
  8
RACCORDO
100
AcDbLine
 62
7
  6
CONTINUOUS
 10
21.2853441606
 20
17.3697216687
 11
21.2853441606
 21
16.6114967038
  0
LINE
  5
547
100
AcDbEntity
  8
RACCORDO
100
AcDbLine
 62
7
  6
CONTINUOUS
 10
21.2853441606
 20
5.4185710965
 11
21.2853441606
 21
4.6603461316
  0
LWPOLYLINE
  5
548
100
AcDbEntity
  8
RACCORDO
100
AcDbPolyline
 62
7
  6
CONTINUOUS
 90
4
 70
0
 10
21.2845456343
 20
4.6484177233
 10
21.2849943704
 20
4.6524395595
 10
21.2852988505
 20
4.6574957258
 10
21.2853441606
 20
4.6603461719
  0
LWPOLYLINE
  5
549
100
AcDbEntity
  8
0
100
AcDbPolyline
 62
7
  6
CONTINUOUS
 90
6
 70
0
 10
0.0572667435
 20
-23.6781099867
 10
0.0621993773
 20
-23.6754709238
 10
0.0720361657
 20
-23.6696200639
 10
0.0815378464
 20
-23.6631598146
 10
0.0906910529
 20
-23.6560993206
 10
0.0994831505
 20
-23.6484483908
  0
LINE
  5
54A
100
AcDbEntity
  8
0
100
AcDbLine
 62
250
  6
CONTINUOUS
 10
0.1850821334
 20
-23.4087629765
 11
0.8860180872
 21
-23.0470857838
  0
LINE
  5
54B
100
AcDbEntity
  8
0
100
AcDbLine
 62
7
  6
CONTINUOUS
 10
0.0572667435
 20
-23.6781099867
 11
0.7582026855
 21
-23.3164328
  0
LINE
  5
54C
100
AcDbEntity
  8
0
100
AcDbLine
 62
250
  6
CONTINUOUS
 10
-0.5223331891
 20
-25.0902040223
 11
0.0059339826
 21
-24.8191929636
  0
LINE
  5
54D
100
AcDbEntity
  8
0
100
AcDbLine
 62
7
  6
CONTINUOUS
 10
-0.5864382889
 20
-25.2249817934
 11
-0.0577540549
 21
-24.9537567739
  0
LINE
  5
54E
100
AcDbEntity
  8
0
100
AcDbLine
 62
7
  6
CONTINUOUS
 10
-0.5864382908
 20
-25.2249817944
 11
-0.5881747019
 21
-25.2258500142
  0
LINE
  5
54F
100
AcDbEntity
  8
0
100
AcDbLine
 62
250
  6
CONTINUOUS
 10
-2.1236139799
 20
-25.8702386219
 11
-0.5223331891
 21
-25.0902040223
  0
LINE
  5
550
100
AcDbEntity
  8
0
100
AcDbLine
 62
7
  6
CONTINUOUS
 10
-2.1898755725
 20
-26.0060892481
 11
-0.5881747027
 21
-25.2258500147
  0
LWPOLYLINE
  5
551
100
AcDbEntity
  8
0
100
AcDbPolyline
 62
7
  6
CONTINUOUS
 90
3
 70
0
 10
0.0431874964
 20
-23.684651899
 10
0.0520234109
 20
-23.6807126803
 10
0.0572667435
 20
-23.6781099867
  0
LINE
  5
552
100
AcDbEntity
  8
0
100
AcDbLine
 62
250
  6
CONTINUOUS
 10
-0.8950176016
 20
-23.8610807309
 11
0.184172897
 21
-23.4080803948
  0
LINE
  5
553
100
AcDbEntity
  8
0
100
AcDbLine
 62
7
  6
CONTINUOUS
 10
-1.0362833553
 20
-24.1370120205
 11
0.0429167061
 21
-23.6840076703
  0
LINE
  5
554
100
AcDbEntity
  8
RACCORDO
100
AcDbLine
 62
250
  6
CONTINUOUS
 10
-4.4659230878
 20
-25.3501503114
 11
-3.2519263159
 21
-24.8500637546
  0
LINE
  5
555
100
AcDbEntity
  8
RACCORDO
100
AcDbLine
 62
7
  6
CONTINUOUS
 10
-3.3942690521
 20
-25.1263385976
 11
-4.6199721645
 21
-25.6312470722
  0
LINE
  5
556
100
AcDbEntity
  8
RACCORDO
100
AcDbLine
 62
250
  6
CONTINUOUS
 10
-4.1936661325
 20
21.7222125546
 11
-4.1837772814
 21
21.7249894444
  0
LINE
  5
557
100
AcDbEntity
  8
RACCORDO
100
AcDbLine
 62
250
  6
CONTINUOUS
 10
-4.1837772814
 20
21.7249894444
 11
-4.1737091451
 21
21.7277271787
  0
LINE
  5
558
100
AcDbEntity
  8
RACCORDO
100
AcDbLine
 62
250
  6
CONTINUOUS
 10
-4.1737091451
 20
21.7277271787
 11
-4.1634612073
 21
21.7304217574
  0
LWPOLYLINE
  5
559
100
AcDbEntity
  8
RACCORDO
100
AcDbPolyline
 62
250
  6
CONTINUOUS
 90
3
 70
0
 10
-4.1634612073
 20
21.7304217574
 10
-4.1530334215
 20
21.7330690437
 10
-4.1477520682
 20
21.7343744384
  0
LWPOLYLINE
  5
55A
100
AcDbEntity
  8
RACCORDO
100
AcDbPolyline
 62
250
  6
CONTINUOUS
 90
3
 70
0
 10
-4.1477520682
 20
21.7343744384
 10
-4.1370548413
 20
21.7369444747
 10
-4.1316389678
 20
21.7382091164
  0
LWPOLYLINE
  5
55B
100
AcDbEntity
  8
0
100
AcDbPolyline
 62
7
  6
CONTINUOUS
 90
17
 70
0
 10
0.134106662
 20
21.6822848168
 10
0.1457616347
 20
21.6849332323
 10
0.157768271
 20
21.6869784437
 10
0.170121195
 20
21.6884107956
 10
0.1828277617
 20
21.6892143026
 10
0.1958704535
 20
21.6893829317
 10
0.209243844
 20
21.6889076399
 10
0.2229761409
 20
21.6877651489
 10
0.2370418906
 20
21.6859532118
 10
0.2514432714
 20
21.6834558141
 10
0.2662549731
 20
21.6802226192
 10
0.2814839451
 20
21.6762398955
 10
0.2971014943
 20
21.6714930062
 10
0.313131871
 20
21.6659236342
 10
0.3295661016
 20
21.659513377
 10
0.3463826759
 20
21.6522482417
 10
0.3650386033
 20
21.6433484156
  0
LWPOLYLINE
  5
55C
100
AcDbEntity
  8
RACCORDO
100
AcDbPolyline
 62
250
  6
CONTINUOUS
 90
4
 70
0
 10
-4.1316389678
 20
21.7382091164
 10
-4.1206743445
 20
21.7406931115
 10
-4.1151255948
 20
21.7419124649
 10
-4.1095329634
 20
21.7431152473
  0
LWPOLYLINE
  5
55D
100
AcDbEntity
  8
RACCORDO
100
AcDbPolyline
 62
250
  6
CONTINUOUS
 90
125
 70
0
 10
-4.1095329634
 20
21.7431152473
 10
-4.0982155986
 20
21.7454711879
 10
-4.0924921984
 20
21.7466226909
 10
-4.0867251716
 20
21.74775615
 10
-4.0809153679
 20
21.7488714273
 10
-4.0750664418
 20
21.7499664991
 10
-4.0691774372
 20
21.7510414628
 10
-4.0632493102
 20
21.752096221
 10
-4.0572885843
 20
21.7531284576
 10
-4.0512934914
 20
21.7541383206
 10
-4.0452657995
 20
21.7551256618
 10
-4.0392173358
 20
21.7560877215
 10
-4.0331473633
 20
21.7570243922
 10
-4.0270566189
 20
21.7579357813
 10
-4.0209591408
 20
21.7588194504
 10
-4.0148539473
 20
21.7596752716
 10
-4.0087420201
 20
21.7605033727
 10
-4.002640343
 20
21.7613016989
 10
-3.9965528188
 20
21.7620695673
 10
-3.9904755447
 20
21.7628076607
 10
-3.9844137953
 20
21.7635159725
 10
-3.9783689362
 20
21.7641943146
 10
-3.9723396019
 20
21.7648428752
 10
-3.9663269703
 20
21.7654622122
 10
-3.9603306857
 20
21.7660523577
 10
-3.9543511039
 20
21.7666132797
 10
-3.9483904699
 20
21.7671454397
 10
-3.942448811
 20
21.7676488223
 10
-3.9365261001
 20
21.7681234431
 10
-3.9306245007
 20
21.7685698097
 10
-3.9247440975
 20
21.7689879057
 10
-3.918884806
 20
21.7693777477
 10
-3.9130485365
 20
21.7697398936
 10
-3.9072352542
 20
21.7700743357
 10
-3.901444994
 20
21.7703810817
 10
-3.8956797703
 20
21.7706607128
 10
-3.8899393889
 20
21.7709132211
 10
-3.884224044
 20
21.7711386145
 10
-3.8785363338
 20
21.7713374977
 10
-3.872876215
 20
21.7715098477
 10
-3.8672437308
 20
21.7716556874
 10
-3.8616416093
 20
21.7717756905
 10
-3.8560700776
 20
21.7718698317
 10
-3.8505289086
 20
21.7719381362
 10
-3.8450201491
 20
21.7719813525
 10
-3.839543982
 20
21.7719994685
 10
-3.8341002244
 20
21.7719924963
 10
-3.8286903742
 20
21.7719612205
 10
-3.8233144808
 20
21.7719056353
 10
-3.8179724949
 20
21.7718257466
 10
-3.8126657661
 20
21.7717223567
 10
-3.8073943
 20
21.7715954594
 10
-3.802158091
 20
21.771445061
 10
-3.7969584727
 20
21.7712719831
 10
-3.7917954848
 20
21.7710762201
 10
-3.7866690875
 20
21.7708577777
 10
-3.7815804945
 20
21.7706174945
 10
-3.7765297589
 20
21.7703553668
 10
-3.7715168275
 20
21.7700713983
 10
-3.7665427554
 20
21.7697664393
 10
-3.7616075739
 20
21.7694404857
 10
-3.7567112516
 20
21.7690935416
 10
-3.7518547491
 20
21.7687264696
 10
-3.7470379957
 20
21.7683392546
 10
-3.7422610621
 20
21.7679319117
 10
-3.7375251211
 20
21.7675053482
 10
-3.7328303827
 20
21.7670595759
 10
-3.7281766368
 20
21.766594583
 10
-3.7235644264
 20
21.7661112416
 10
-3.7189939266
 20
21.7656095719
 10
-3.7144649623
 20
21.7650895536
 10
-3.7099775506
 20
21.7645519975
 10
-3.7055317376
 20
21.7639969155
 10
-3.7011274772
 20
21.7634242957
 10
-3.6967646489
 20
21.7628349123
 10
-3.6924432623
 20
21.7622287732
 10
-3.6881633078
 20
21.7616058707
 10
-3.6839246359
 20
21.7609669551
 10
-3.6797272642
 20
21.7603120352
 10
-3.675571175
 20
21.7596411022
 10
-3.6714561662
 20
21.7589548809
 10
-3.6673822774
 20
21.7582533842
 10
-3.6633494691
 20
21.7575365991
 10
-3.659357421
 20
21.7568052111
 10
-3.6554062052
 20
21.7560592425
 10
-3.6514957497
 20
21.755298671
 10
-3.6476255174
 20
21.7545241154
 10
-3.6437955482
 20
21.7537355954
 10
-3.6400058022
 20
21.7529330912
 10
-3.6362556238
 20
21.7521171624
 10
-3.6325450244
 20
21.7512878244
 10
-3.6288739926
 20
21.7504450618
 10
-3.6252418378
 20
21.7495893876
 10
-3.6216485876
 20
21.7487208225
 10
-3.6180942143
 20
21.7478393459
 10
-3.6145779447
 20
21.7469454092
 10
-3.611099797
 20
21.7460390328
 10
-3.607659753
 20
21.7451201963
 10
-3.6042569843
 20
21.74418929
 10
-3.6008914924
 20
21.7432463311
 10
-3.5975632759
 20
21.7422913024
 10
-3.594271503
 20
21.741324543
 10
-3.5910161831
 20
21.7403460737
 10
-3.5877973068
 20
21.7393558738
 10
-3.5846140138
 20
21.7383542207
 10
-3.5814663097
 20
21.7373411355
 10
-3.5783541888
 20
21.7363165971
 10
-3.5752767742
 20
21.7352808195
 10
-3.5722340576
 20
21.7342338207
 10
-3.5692260473
 20
21.7331755826
 10
-3.5662518905
 20
21.7321062656
 10
-3.5633115647
 20
21.7310258823
 10
-3.5604050924
 20
21.72993442
 10
-3.5575316888
 20
21.7288320013
 10
-3.5546913222
 20
21.7277186345
 10
-3.5518840242
 20
21.7265943113
 10
-3.5491091047
 20
21.7254591291
 10
-3.5463665423
 20
21.7243130983
 10
-3.5436563584
 20
21.7231562086
 10
-3.5409779262
 20
21.7219885269
 10
-3.5383312351
 20
21.7208100702
 10
-3.5357162956
 20
21.7196208214
 10
-3.533132513
 20
21.7184207965
 10
-3.530579689
 20
21.7172100008
 10
-3.5280580219
 20
21.715988429
  0
LWPOLYLINE
  5
55E
100
AcDbEntity
  8
0
100
AcDbPolyline
 62
7
  6
CONTINUOUS
 90
19
 70
0
 10
-3.834403389
 20
22.3460860182
 10
-3.8063824727
 20
22.3421114375
 10
-3.7786506434
 20
22.337739577
 10
-3.7512079012
 20
22.3329704365
 10
-3.7240315645
 20
22.3277993263
 10
-3.6971443147
 20
22.3222309363
 10
-3.6706141968
 20
22.3162793358
 10
-3.6444421077
 20
22.3099435589
 10
-3.6186271504
 20
22.3032245715
 10
-3.5932346782
 20
22.2961393415
 10
-3.5682656671
 20
22.2886869094
 10
-3.543719141
 20
22.2808682346
 10
-3.519657525
 20
22.2727031629
 10
-3.4960823733
 20
22.2641909612
 10
-3.4729921315
 20
22.2553323626
 10
-3.4504445624
 20
22.2461494122
 10
-3.42845892
 20
22.2366494584
 10
-3.4070159502
 20
22.2268251529
 10
-3.3861156529
 20
22.2166764957
  0
LWPOLYLINE
  5
55F
100
AcDbEntity
  8
0
100
AcDbPolyline
 62
7
  6
CONTINUOUS
 90
10
 70
0
 10
-4.7101579121
 20
24.1809466832
 10
-4.7133527917
 20
24.1821169668
 10
-4.7169302286
 20
24.1827636501
 10
-4.7210789633
 20
24.1830325289
 10
-4.7257649992
 20
24.1829314705
 10
-4.7309574815
 20
24.1824678289
 10
-4.736639218
 20
24.1816788801
 10
-4.7427753502
 20
24.1805760697
 10
-4.749344228
 20
24.1791588617
 10
-4.7563618032
 20
24.1774480893
  0
LWPOLYLINE
  5
560
100
AcDbEntity
  8
0
100
AcDbPolyline
 62
7
  6
CONTINUOUS
 90
21
 70
0
 10
-1.2418461559
 20
23.9954216574
 10
-1.2518466676
 20
24.0002389623
 10
-1.2714133232
 20
24.008643222
 10
-1.2915107727
 20
24.015956631
 10
-1.3121233662
 20
24.0221775131
 10
-1.3331557087
 20
24.0272768349
 10
-1.3545958006
 20
24.0312473887
 10
-1.3764556414
 20
24.0340963823
 10
-1.398675835
 20
24.0358164058
 10
-1.421270102
 20
24.0364043342
 10
-1.4442247218
 20
24.0358632924
 10
-1.4674391356
 20
24.0341952461
 10
-1.4909037339
 20
24.0313967548
 10
-1.5146281263
 20
24.0274712589
 10
-1.5385405837
 20
24.0224310453
 10
-1.5626496264
 20
24.0162707046
 10
-1.5869467342
 20
24.0089956462
 10
-1.6113346166
 20
24.0006343857
 10
-1.6357808434
 20
23.9911964281
 10
-1.6603178448
 20
23.9806722683
 10
-1.6849456208
 20
23.9690619063
  0
LWPOLYLINE
  5
561
100
AcDbEntity
  8
RACCORDO
100
AcDbPolyline
 62
250
  6
CONTINUOUS
 90
24
 70
0
 10
-1.9183665039
 20
25.9034014118
 10
-1.9387852629
 20
25.9133848182
 10
-1.9591971893
 20
25.9226221643
 10
-1.979585018
 20
25.9311056369
 10
-1.9999315046
 20
25.9388280605
 10
-2.0202194393
 20
25.9457829031
 10
-2.040431662
 20
25.9519642822
 10
-2.0605510768
 20
25.9573669694
 10
-2.0805606659
 20
25.961986395
 10
-2.1004435048
 20
25.9658186517
 10
-2.1201827761
 20
25.9688604981
 10
-2.1397617835
 20
25.9711093613
 10
-2.1591639668
 20
25.9725633392
 10
-2.1783729149
 20
25.9732212019
 10
-2.1973723805
 20
25.973082393
 10
-2.2161462932
 20
25.9721470299
 10
-2.2346787735
 20
25.9704159038
 10
-2.2529541462
 20
25.967890479
 10
-2.2709569533
 20
25.9645728914
 10
-2.2886719677
 20
25.9604659471
 10
-2.3060842055
 20
25.9555731201
 10
-2.3231789389
 20
25.9498985487
 10
-2.3399417088
 20
25.9434470326
 10
-2.3572512544
 20
25.9358043468
  0
LINE
  5
562
100
AcDbEntity
  8
DRAFT
100
AcDbLine
 62
250
  6
CONTINUOUS
 10
-4.6588898028
 20
25.4560339973
 11
-1.6849456208
 21
23.9690619063
  0
LINE
  5
563
100
AcDbEntity
  8
DRAFT
100
AcDbLine
 62
250
  6
CONTINUOUS
 10
2.5576950663
 20
21.8477415627
 11
5.5316392483
 21
20.3607694717
  0
LINE
  5
564
100
AcDbEntity
  8
0
100
AcDbLine
 62
7
  6
CONTINUOUS
 10
-4.3696936365
 20
25.5593453977
 11
-1.2418457826
 21
23.9954214707
  0
LINE
  5
565
100
AcDbEntity
  8
0
100
AcDbLine
 62
7
  6
CONTINUOUS
 10
3.0007949045
 20
21.8741011272
 11
6.1286427585
 21
20.3101772002
  0
LINE
  5
566
100
AcDbEntity
  8
RACCORDO
100
AcDbLine
 62
250
  6
CONTINUOUS
 10
3.9862530276
 20
22.951091646
 11
-1.9183665039
 21
25.9034014118
  0
LINE
  5
567
100
AcDbEntity
  8
RACCORDO
100
AcDbLine
 62
7
  6
CONTINUOUS
 10
4.4240285527
 20
22.972014834
 11
-1.4834936234
 21
25.9257647414
  0
LWPOLYLINE
  5
568
100
AcDbEntity
  8
RACCORDO
100
AcDbPolyline
 62
7
  6
CONTINUOUS
 90
59
 70
0
 10
21.2849138513
 20
5.4258245876
 10
21.2785256743
 20
5.4764520978
 10
21.2703901492
 20
5.534060051
 10
21.2613193748
 20
5.5918089145
 10
21.2513205623
 20
5.6496748477
 10
21.2404010523
 20
5.7076345577
 10
21.2285683466
 20
5.7656649511
 10
21.2158341909
 20
5.823725097
 10
21.2022032558
 20
5.8818085835
 10
21.1876704194
 20
5.9399438107
 10
21.1722329178
 20
5.9981397645
 10
21.1559050673
 20
6.0563400921
 10
21.1387075397
 20
6.114474875
 10
21.1206534807
 20
6.1725074305
 10
21.1017484397
 20
6.2304269327
 10
21.0820045684
 20
6.2882021265
 10
21.0614348646
 20
6.3458014167
 10
21.0400469504
 20
6.4032093283
 10
21.0178449645
 20
6.4604185907
 10
20.9948359292
 20
6.5174131082
 10
20.9710330045
 20
6.5741619487
 10
20.9464495132
 20
6.6306354822
 10
20.9210979648
 20
6.686807314
 10
20.8949882455
 20
6.7426575762
 10
20.8681302384
 20
6.7981665434
 10
20.840534883
 20
6.8533125344
 10
20.8122145542
 20
6.9080715112
 10
20.7831815019
 20
6.9624203395
 10
20.7534498574
 20
7.0163330938
 10
20.7230302
 20
7.0697909089
 10
20.6919293692
 20
7.122781268
 10
20.660159673
 20
7.175282067
 10
20.6277338466
 20
7.2272709646
 10
20.59465889
 20
7.2787348823
 10
20.5609413916
 20
7.329660752
 10
20.5266000842
 20
7.3800173324
 10
20.4916606852
 20
7.4297650331
 10
20.4561430074
 20
7.4788747691
 10
20.4200552799
 20
7.5273341238
 10
20.3834063207
 20
7.5751293972
 10
20.346214235
 20
7.6222348953
 10
20.308489212
 20
7.6686354815
 10
20.2702272184
 20
7.714332541
 10
20.231428438
 20
7.7593204788
 10
20.1921199219
 20
7.8035624295
 10
20.1523379558
 20
7.8470137182
 10
20.1121016315
 20
7.8896508094
 10
20.0714217989
 20
7.9314593647
 10
20.0303232585
 20
7.9724111504
 10
19.988836428
 20
8.0124740919
 10
19.946961945
 20
8.0516456345
 10
19.9046789439
 20
8.0899408891
 10
19.8619793308
 20
8.1273600154
 10
19.818900111
 20
8.1638632504
 10
19.7754874932
 20
8.1994062639
 10
19.7317512629
 20
8.2339767835
 10
19.6877125969
 20
8.2675536225
 10
19.6434358791
 20
8.3000853176
 10
19.6144307119
 20
8.320601149
  0
LWPOLYLINE
  5
569
100
AcDbEntity
  8
0
100
AcDbPolyline
 62
7
  6
CONTINUOUS
 90
10
 70
0
 10
-4.7563618032
 20
24.1774480893
 10
-4.763817262
 20
24.175453372
 10
-4.771685001
 20
24.1731767574
 10
-4.7799716212
 20
24.1706302498
 10
-4.7886666882
 20
24.1678202186
 10
-4.7977507012
 20
24.1647518511
 10
-4.8072222173
 20
24.161436741
 10
-4.817072114
 20
24.1578826806
 10
-4.8272815839
 20
24.154092914
 10
-4.8378360752
 20
24.1500724492
  0
LINE
  5
56A
100
AcDbEntity
  8
0
100
AcDbLine
 62
7
  6
CONTINUOUS
 10
-0.9819525969
 20
22.9928885509
 11
-2.7304365199
 21
22.8980694528
  0
LWPOLYLINE
  5
56B
100
AcDbEntity
  8
RACCORDO
100
AcDbPolyline
 62
7
  6
CONTINUOUS
 90
9
 70
0
 10
13.4542887951
 20
21.8274718283
 10
13.4481720545
 20
21.829071326
 10
13.4384018408
 20
21.8306041399
 10
13.4280756453
 20
21.8310195843
 10
13.4172884482
 20
21.8303178118
 10
13.4063251892
 20
21.8284992804
 10
13.3952808485
 20
21.8255641429
 10
13.384060446
 20
21.8215122465
 10
13.3726639818
 20
21.8163435913
  0
LINE
  5
56C
100
AcDbEntity
  8
0
100
AcDbLine
 62
7
  6
CONTINUOUS
 10
12.0612259963
 20
21.1606245986
 11
11.611481335
 21
21.2823724317
  0
LWPOLYLINE
  5
56D
100
AcDbEntity
  8
RACCORDO
100
AcDbPolyline
 62
7
  6
CONTINUOUS
 90
28
 70
0
 10
13.4542786589
 20
21.8274478759
 10
13.3455633123
 20
21.8587337217
 10
13.2307082693
 20
21.8880873987
 10
13.1134468454
 20
21.9144144689
 10
12.9940736806
 20
21.9376765606
 10
12.8728533089
 20
21.9578471134
 10
12.7500239394
 20
21.9749063887
 10
12.625875142
 20
21.9888302302
 10
12.5006916789
 20
21.9996008992
 10
12.3747111614
 20
22.0072082989
 10
12.2482247753
 20
22.0116416776
 10
12.1215220524
 20
22.0128962323
 10
11.9948403069
 20
22.0109714592
 10
11.8684690371
 20
22.0058701242
 10
11.7426994466
 20
21.9976009121
 10
11.6177698472
 20
21.9861730366
 10
11.4939709726
 20
21.9716032044
 10
11.3715862202
 20
21.9539131828
 10
11.250837784
 20
21.9331190075
 10
11.1320028629
 20
21.9092474074
 10
11.0153670395
 20
21.8823323557
 10
10.9011554665
 20
21.8523975884
 10
10.7896402883
 20
21.8194804845
 10
10.6810940919
 20
21.7836238496
 10
10.5757272003
 20
21.7448522321
 10
10.4737804179
 20
21.7031994237
 10
10.3755342804
 20
21.6587186492
 10
10.2812502192
 20
21.6114612597
  0
LWPOLYLINE
  5
56E
100
AcDbEntity
  8
RACCORDO
100
AcDbPolyline
 62
250
  6
CONTINUOUS
 90
25
 70
0
 10
6.0889007551
 20
22.9196378169
 10
6.0697588203
 20
22.9292080593
 10
6.0506220483
 20
22.9381090605
 10
6.0315049658
 20
22.9463340639
 10
6.0124220842
 20
22.9538768258
 10
5.9933878894
 20
22.9607316208
 10
5.97441683
 20
22.9668932454
 10
5.9555233067
 20
22.9723570224
 10
5.9367216615
 20
22.9771188042
 10
5.9180261665
 20
22.9811749763
 10
5.8994510134
 20
22.9845224596
 10
5.8810103023
 20
22.9871587132
 10
5.8627180315
 20
22.9890817359
 10
5.8445880865
 20
22.9902900678
 10
5.8266342296
 20
22.9907827919
 10
5.8088700893
 20
22.9905595341
 10
5.7913091503
 20
22.9896204639
 10
5.7739647429
 20
22.9879662942
 10
5.7568500332
 20
22.9855982805
 10
5.7399780127
 20
22.9825182205
 10
5.7233614889
 20
22.9787284523
 10
5.7070130752
 20
22.9742318525
 10
5.6909451815
 20
22.9690318346
 10
5.6751700049
 20
22.9631323459
 10
5.6596995201
 20
22.9565378646
  0
LINE
  5
56F
100
AcDbEntity
  8
0
100
AcDbLine
 62
7
  6
CONTINUOUS
 10
10.409537648
 20
21.3883695284
 11
11.1165065882
 21
21.0348850583
  0
LINE
  5
570
100
AcDbEntity
  8
0
100
AcDbLine
 62
7
  6
CONTINUOUS
 10
10.9045123949
 20
21.6358569018
 11
11.611481335
 21
21.2823724317
  0
LINE
  5
571
100
AcDbEntity
  8
DRAFT
100
AcDbLine
 62
7
  6
CONTINUOUS
 10
10.6499539536
 20
22.1259556126
 11
10.2182391568
 21
22.3418130111
  0
LINE
  5
572
100
AcDbEntity
  8
0
100
AcDbLine
 62
7
  6
CONTINUOUS
 10
11.1165065882
 20
21.0348850583
 11
11.286193976
 21
20.8781759104
  0
LWPOLYLINE
  5
573
100
AcDbEntity
  8
RACCORDO
100
AcDbPolyline
 62
7
  6
CONTINUOUS
 90
59
 70
0
 10
21.2849138513
 20
17.3769751598
 10
21.2785256742
 20
17.4276026703
 10
21.2703901492
 20
17.4852106237
 10
21.2613193746
 20
17.5429594875
 10
21.2513205621
 20
17.600825421
 10
21.240401052
 20
17.6587851312
 10
21.2285683463
 20
17.7168155249
 10
21.2158341905
 20
17.7748756711
 10
21.2022032553
 20
17.8329591578
 10
21.1876704188
 20
17.8910943853
 10
21.1722329171
 20
17.9492903394
 10
21.1559050665
 20
18.0074906672
 10
21.1387075387
 20
18.0656254503
 10
21.1206534796
 20
18.1236580061
 10
21.1017484385
 20
18.1815775086
 10
21.082004567
 20
18.2393527027
 10
21.0614348631
 20
18.2969519931
 10
21.0400469487
 20
18.3543599049
 10
21.0178449626
 20
18.4115691676
 10
20.9948359272
 20
18.4685636853
 10
20.9710330024
 20
18.5253125261
 10
20.9464495109
 20
18.5817860598
 10
20.9210979622
 20
18.6379578918
 10
20.8949882427
 20
18.6938081542
 10
20.8681302355
 20
18.7493171216
 10
20.8405348799
 20
18.8044631129
 10
20.8122145508
 20
18.8592220899
 10
20.7831814983
 20
18.9135709183
 10
20.7534498536
 20
18.9674836728
 10
20.723030196
 20
19.0209414881
 10
20.6919293649
 20
19.0739318474
 10
20.6601596685
 20
19.1264326466
 10
20.6277338419
 20
19.1784215443
 10
20.594658885
 20
19.2298854622
 10
20.5609413863
 20
19.280811332
 10
20.5266000787
 20
19.3311679125
 10
20.4916606794
 20
19.3809156134
 10
20.4561430014
 20
19.4300253495
 10
20.4200552737
 20
19.4784847043
 10
20.3834063142
 20
19.5262799778
 10
20.3462142282
 20
19.573385476
 10
20.3084892049
 20
19.6197860623
 10
20.2702272111
 20
19.6654831219
 10
20.2314284304
 20
19.7104710598
 10
20.192119914
 20
19.7547130105
 10
20.1523379476
 20
19.7981642992
 10
20.1121016231
 20
19.8408013904
 10
20.0714217902
 20
19.8826099457
 10
20.0303232495
 20
19.9235617315
 10
19.9888364188
 20
19.963624673
 10
19.9469619354
 20
20.0027962155
 10
19.9046789341
 20
20.0410914701
 10
19.8619793207
 20
20.0785105963
 10
19.8189001006
 20
20.1150138312
 10
19.7754874826
 20
20.1505568447
 10
19.731751252
 20
20.1851273642
 10
19.6877125857
 20
20.2187042031
 10
19.6434358676
 20
20.2512358981
 10
19.6144307119
 20
20.2717517212
  0
LWPOLYLINE
  5
574
100
AcDbEntity
  8
0
100
AcDbPolyline
 62
7
  6
CONTINUOUS
 90
17
 70
0
 10
-5.4544666212
 20
24.4779812085
 10
-5.442815241
 20
24.4805196686
 10
-5.4308158782
 20
24.4824600014
 10
-5.4184734867
 20
24.4837924751
 10
-5.40577988
 20
24.4845007703
 10
-5.392752784
 20
24.4845790508
 10
-5.3793969317
 20
24.4840180681
 10
-5.3656818311
 20
24.4827934763
 10
-5.3516311451
 20
24.4809027488
 10
-5.3372438256
 20
24.4783298276
 10
-5.3224473942
 20
24.4750236898
 10
-5.3072345751
 20
24.4709700861
 10
-5.2916341982
 20
24.4661548471
 10
-5.2756252317
 20
24.4605207613
 10
-5.259217374
 20
24.4540495863
 10
-5.242431454
 20
24.446727518
 10
-5.2254074483
 20
24.4385725122
  0
LWPOLYLINE
  5
575
100
AcDbEntity
  8
RACCORDO
100
AcDbPolyline
 62
7
  6
CONTINUOUS
 90
3
 70
0
 10
13.4663294768
 20
21.8226540477
 10
13.4574812665
 20
21.8264212953
 10
13.4542887951
 20
21.8274718283
  0
LINE
  5
576
100
AcDbEntity
  8
DRAFT
100
AcDbLine
 62
7
  6
CONTINUOUS
 10
14.7705469722
 20
21.9737592537
 11
14.275877463
 21
22.2210940083
  0
LINE
  5
577
100
AcDbEntity
  8
RACCORDO
100
AcDbLine
 62
7
  6
CONTINUOUS
 10
14.3148576143
 20
21.398389979
 11
14.3881175094
 21
21.3617320881
  0
LWPOLYLINE
  5
578
100
AcDbEntity
  8
RACCORDO
100
AcDbPolyline
 62
7
  6
CONTINUOUS
 90
6
 70
0
 10
13.8982028602
 20
21.6048034486
 10
13.8081956308
 20
21.6505420804
 10
13.7200090028
 20
21.6951968834
 10
13.6336285594
 20
21.7387664335
 10
13.5490687174
 20
21.781252155
 10
13.4663294768
 20
21.8226540477
  0
LINE
  5
579
100
AcDbEntity
  8
RACCORDO
100
AcDbLine
 62
7
  6
CONTINUOUS
 10
14.0838232915
 20
21.5100889413
 11
13.8982028602
 21
21.6048034486
  0
LINE
  5
57A
100
AcDbEntity
  8
RACCORDO
100
AcDbLine
 62
7
  6
CONTINUOUS
 10
14.276913547
 20
21.411057634
 11
14.0838232915
 21
21.5100889413
  0
LINE
  5
57B
100
AcDbEntity
  8
RACCORDO
100
AcDbLine
 62
7
  6
CONTINUOUS
 10
14.2846719756
 20
21.4064711619
 11
14.276913547
 21
21.411057634
  0
LINE
  5
57C
100
AcDbEntity
  8
RACCORDO
100
AcDbLine
 62
250
  6
CONTINUOUS
 10
14.3148576143
 20
21.398389979
 11
14.3680997887
 21
21.3521511665
  0
LWPOLYLINE
  5
57D
100
AcDbEntity
  8
RACCORDO
100
AcDbPolyline
 62
250
  6
CONTINUOUS
 90
3
 70
0
 10
14.221162969
 20
21.3920649475
 10
14.2818498291
 20
21.3377718998
 10
14.2998998327
 20
21.3195091673
  0
LWPOLYLINE
  5
57E
100
AcDbEntity
  8
RACCORDO
100
AcDbPolyline
 62
250
  6
CONTINUOUS
 90
26
 70
0
 10
12.6579275157
 20
25.7749566872
 10
12.6506440254
 20
25.7785006357
 10
12.6353963239
 20
25.7853064597
 10
12.6198332508
 20
25.7914403914
 10
12.6039663634
 20
25.7968978757
 10
12.5878074447
 20
25.8016748598
 10
12.5713684942
 20
25.8057677963
 10
12.5546617196
 20
25.8091736457
 10
12.5376995275
 20
25.8118898789
 10
12.5204945141
 20
25.8139144787
 10
12.5030594559
 20
25.8152459418
 10
12.4854073004
 20
25.8158832792
 10
12.467551156
 20
25.8158260178
 10
12.4495042828
 20
25.8150742001
 10
12.4312800827
 20
25.8136283843
 10
12.4128920889
 20
25.8114896441
 10
12.3943539564
 20
25.8086595679
 10
12.3756794519
 20
25.8051402571
 10
12.3568824431
 20
25.8009343253
 10
12.3379768887
 20
25.7960448958
 10
12.3189768281
 20
25.7904755996
 10
12.2998963709
 20
25.7842305723
 10
12.2807496863
 20
25.7773144517
 10
12.2615509928
 20
25.7697323737
 10
12.2423145474
 20
25.7614899687
 10
12.2230546352
 20
25.7525933576
  0
LINE
  5
57F
100
AcDbEntity
  8
0
100
AcDbLine
 62
7
  6
CONTINUOUS
 10
17.3054494449
 20
22.7580313301
 11
14.2208431986
 21
24.3003344532
  0
LINE
  5
580
100
AcDbEntity
  8
RACCORDO
100
AcDbLine
 62
250
  6
CONTINUOUS
 10
18.3127943494
 20
22.7077235005
 11
17.7687178195
 21
22.9797617655
  0
LWPOLYLINE
  5
581
100
AcDbEntity
  8
RACCORDO
100
AcDbPolyline
 62
250
  6
CONTINUOUS
 90
26
 70
0
 10
13.1725237418
 20
25.2778588043
 10
12.2039127029
 20
25.7621635988
 10
12.1847759333
 20
25.771064599
 10
12.1656588531
 20
25.7792896015
 10
12.1465759738
 20
25.7868323629
 10
12.127541781
 20
25.7936871576
 10
12.1085707236
 20
25.799848782
 10
12.0896772021
 20
25.8053125589
 10
12.0708755586
 20
25.8100743409
 10
12.0521800652
 20
25.8141305133
 10
12.0336049135
 20
25.8174779971
 10
12.0151642037
 20
25.8201142512
 10
11.9968719341
 20
25.8220372746
 10
11.9787419901
 20
25.8232456074
 10
11.960788134
 20
25.8237383324
 10
11.9430239945
 20
25.8235150756
 10
11.9254630561
 20
25.8225760065
 10
11.9081186492
 20
25.8209218379
 10
11.8910039398
 20
25.8185538254
 10
11.8741319196
 20
25.8154737667
 10
11.8575153959
 20
25.8116839997
 10
11.8411669821
 20
25.8071874012
 10
11.8250990884
 20
25.8019873846
 10
11.8093239115
 20
25.7960878972
 10
11.7938534264
 20
25.7894934171
 10
11.7914352101
 20
25.7883870639
  0
LINE
  5
582
100
AcDbEntity
  8
RACCORDO
100
AcDbLine
 62
7
  6
CONTINUOUS
 10
12.6579275157
 20
25.7749566872
 11
13.6949591178
 21
25.2564408862
  0
LINE
  5
583
100
AcDbEntity
  8
RACCORDO
100
AcDbLine
 62
7
  6
CONTINUOUS
 10
18.7476672299
 20
22.7300868301
 11
18.1160282046
 21
23.0459063428
  0
LWPOLYLINE
  5
584
100
AcDbEntity
  8
RACCORDO
100
AcDbPolyline
 62
250
  6
CONTINUOUS
 90
58
 70
0
 10
19.6144307119
 20
20.1852064282
 10
19.628504969
 20
20.1743313876
 10
19.6715359327
 20
20.1399007537
 10
19.7143331645
 20
20.1044702247
 10
19.7568773661
 20
20.0680557746
 10
19.7991493105
 20
20.030673858
 10
19.8411298844
 20
19.992341377
 10
19.8828001184
 20
19.953075655
 10
19.9241412217
 20
19.9128944004
 10
19.9651345594
 20
19.8718157252
 10
20.0057616431
 20
19.8298581547
 10
20.0460041155
 20
19.7870406451
 10
20.0858437871
 20
19.7433825499
 10
20.1252626599
 20
19.698903594
 10
20.1642429542
 20
19.6536238408
 10
20.2027670932
 20
19.607563708
 10
20.2408176975
 20
19.5607439731
 10
20.2783775785
 20
19.5131857846
 10
20.315429766
 20
19.4649106299
 10
20.3519575257
 20
19.4159403133
 10
20.3879443775
 20
19.3662969297
 10
20.4233740871
 20
19.3160028743
 10
20.4582306664
 20
19.2650808418
 10
20.4924983747
 20
19.2135538274
 10
20.5261617362
 20
19.161445101
 10
20.5592055519
 20
19.1087781902
 10
20.5916149086
 20
19.0555768651
 10
20.6233751788
 20
19.0018651373
 10
20.6544720258
 20
18.9476672524
 10
20.6848914117
 20
18.8930076768
 10
20.7146196053
 20
18.8379110832
 10
20.7436431886
 20
18.7824023396
 10
20.7719490579
 20
18.7265065068
 10
20.7995244316
 20
18.6702488251
 10
20.8263568585
 20
18.6136546976
 10
20.8524342298
 20
18.5567496646
 10
20.8777447803
 20
18.4995593995
 10
20.902277089
 20
18.4421097071
 10
20.926020076
 20
18.3844265325
 10
20.9489630149
 20
18.3265359357
 10
20.9710955437
 20
18.268464065
 10
20.992407678
 20
18.2102371196
 10
21.0128898069
 20
18.1518813574
 10
21.0325326903
 20
18.0934231016
 10
21.0513274534
 20
18.0348887605
 10
21.0692656017
 20
17.9763047896
 10
21.086339032
 20
17.9176976575
 10
21.1025400449
 20
17.8590937975
 10
21.1178613372
 20
17.8005196275
 10
21.1322959979
 20
17.7420015628
 10
21.1458375032
 20
17.6835660456
 10
21.1584797308
 20
17.6252394955
 10
21.1702169691
 20
17.5670482701
 10
21.1810439274
 20
17.5090186093
 10
21.190955726
 20
17.4511766651
 10
21.199947892
 20
17.393548534
 10
21.2080163622
 20
17.3361602451
 10
21.2151574935
 20
17.2790377047
  0
LWPOLYLINE
  5
585
100
AcDbEntity
  8
RACCORDO
100
AcDbPolyline
 62
250
  6
CONTINUOUS
 90
27
 70
0
 10
18.7981086965
 20
22.2291415604
 10
18.7830782654
 20
22.2538030615
 10
18.7676396169
 20
22.2781108851
 10
18.7518058094
 20
22.3020444711
 10
18.7355902355
 20
22.3255835758
 10
18.719006611
 20
22.348708289
 10
18.7020689626
 20
22.3713990514
 10
18.6847916167
 20
22.3936366703
 10
18.6671891869
 20
22.4154023366
 10
18.649276562
 20
22.4366776402
 10
18.6310688928
 20
22.457444586
 10
18.61258158
 20
22.4776856087
 10
18.5938302606
 20
22.4973835878
 10
18.5748307951
 20
22.5165218622
 10
18.5555992536
 20
22.5350842443
 10
18.5361519028
 20
22.5530550335
 10
18.5165051919
 20
22.5704190295
 10
18.4966757384
 20
22.5871615454
 10
18.4766803149
 20
22.60326842
 10
18.4565358338
 20
22.6187260295
 10
18.4362593341
 20
22.6335212995
 10
18.415867966
 20
22.6476417158
 10
18.3953789773
 20
22.6610753349
 10
18.3748096981
 20
22.6738107942
 10
18.3541775265
 20
22.6858373218
 10
18.3334999137
 20
22.6971447453
 10
18.3127943494
 20
22.7077235005
  0
LINE
  5
586
100
AcDbEntity
  8
RACCORDO
100
AcDbLine
 62
250
  6
CONTINUOUS
 10
18.9196200366
 20
22.0197688415
 11
18.7981086965
 21
22.2291415604
  0
LINE
  5
587
100
AcDbEntity
  8
RACCORDO
100
AcDbLine
 62
7
  6
CONTINUOUS
 10
19.2724632854
 20
22.152867199
 11
19.1655614457
 21
22.3372455987
  0
ARC
  5
588
100
AcDbEntity
  8
RACCORDO
100
AcDbCircle
 62
7
  6
CONTINUOUS
 10
12.2107139202
 20
24.8805294962
 40
1.0
100
AcDbArc
 50
63.4349488229
 51
114.7894524371
  0
ARC
  5
589
100
AcDbEntity
  8
RACCORDO
100
AcDbCircle
 62
7
  6
CONTINUOUS
 10
18.6144307119
 20
-1.0040523279
 40
1.0
100
AcDbArc
 50
298.3476707551
 51
360.0
  0
ARC
  5
58A
100
AcDbEntity
  8
RACCORDO
100
AcDbCircle
 62
7
  6
CONTINUOUS
 10
18.3004536344
 20
21.8356596391
 40
1.0
100
AcDbArc
 50
30.1049527557
 51
63.4349488229
  0
ARC
  5
58B
100
AcDbEntity
  8
RACCORDO
100
AcDbCircle
 62
7
  6
CONTINUOUS
 10
-1.9307072189
 20
25.0313375504
 40
1.0
100
AcDbArc
 50
63.4349373369
 51
115.2504241015
  0
ARC
  5
58C
100
AcDbEntity
  8
RACCORDO
100
AcDbCircle
 62
7
  6
CONTINUOUS
 10
11.2805105241
 20
-13.6580036837
 40
1.0
100
AcDbArc
 50
297.8702635617
 51
305.9325291988
  0
ARC
  5
58D
100
AcDbEntity
  8
0
100
AcDbCircle
 62
7
  6
CONTINUOUS
 10
-0.1718681604
 20
-24.3837888147
 40
0.25
100
AcDbArc
 50
359.9569896646
 51
63.4349488229
  0
ARC
  5
58E
100
AcDbEntity
  8
0
100
AcDbCircle
 62
7
  6
CONTINUOUS
 10
-0.1718681604
 20
16.9158153247
 40
0.25
100
AcDbArc
 50
320.5925343592
 51
359.9975470757
  0
ARC
  5
58F
100
AcDbEntity
  8
0
100
AcDbCircle
 62
7
  6
CONTINUOUS
 10
-2.2993592443
 20
15.8582405231
 40
0.25
100
AcDbArc
 50
243.4343157736
 51
258.2056474489
  0
ARC
  5
590
100
AcDbEntity
  8
0
100
AcDbCircle
 62
7
  6
CONTINUOUS
 10
-3.9778973147
 20
16.6975095583
 40
0.25
100
AcDbArc
 50
179.9936221471
 51
243.4636106875
  0
ARC
  5
591
100
AcDbEntity
  8
0
100
AcDbCircle
 62
7
  6
CONTINUOUS
 10
-12.475526153
 20
23.067644321
 40
0.25
100
AcDbArc
 50
320.5925343592
 51
359.9975470757
  0
ARC
  5
592
100
AcDbEntity
  8
0
100
AcDbCircle
 62
7
  6
CONTINUOUS
 10
-14.6030172369
 20
22.0100695194
 40
0.25
100
AcDbArc
 50
243.4329149157
 51
258.2060367178
  0
ARC
  5
593
100
AcDbEntity
  8
0
100
AcDbCircle
 62
7
  6
CONTINUOUS
 10
-16.2815553074
 20
22.8493385546
 40
0.25
100
AcDbArc
 50
179.9569896646
 51
243.4349488229
  0
ARC
  5
594
100
AcDbEntity
  8
0
100
AcDbCircle
 62
7
  6
CONTINUOUS
 10
-16.2815553074
 20
23.1893124887
 40
0.25
100
AcDbArc
 50
117.1586821941
 51
179.9961222374
  0
ARC
  5
595
100
AcDbEntity
  8
0
100
AcDbCircle
 62
7
  6
CONTINUOUS
 10
-1.8627477115
 20
18.108786617
 40
0.25
100
AcDbArc
 50
63.3939681258
 51
115.9721801256
  0
ARC
  5
596
100
AcDbEntity
  8
0
100
AcDbCircle
 62
7
  6
CONTINUOUS
 10
-3.9778973147
 20
17.0374834924
 40
0.25
100
AcDbArc
 50
117.1586821941
 51
179.9961222374
  0
ARC
  5
597
100
AcDbEntity
  8
0
100
AcDbCircle
 62
7
  6
CONTINUOUS
 10
-0.1718681604
 20
17.2633468414
 40
0.25
100
AcDbArc
 50
0.0057333847
 51
63.4349488229
  0
ARC
  5
598
100
AcDbEntity
  8
0
100
AcDbCircle
 62
7
  6
CONTINUOUS
 10
-0.1718681604
 20
-24.7313203314
 40
0.25
100
AcDbArc
 50
297.1142389129
 51
359.9691465085
  0
ARC
  5
599
100
AcDbEntity
  8
0
100
AcDbCircle
 62
7
  6
CONTINUOUS
 10
-14.1664057042
 20
24.2606156133
 40
0.25
100
AcDbArc
 50
63.4349488229
 51
116.0140441013
  0
ARC
  5
59A
100
AcDbEntity
  8
0
100
AcDbCircle
 62
7
  6
CONTINUOUS
 10
-12.475526153
 20
23.4151758377
 40
0.25
100
AcDbArc
 50
0.0057333847
 51
63.4349488229
  0
ARC
  5
59B
100
AcDbEntity
  8
0
100
AcDbCircle
 62
7
  6
CONTINUOUS
 10
-2.2993592443
 20
-25.7813375504
 40
0.25
100
AcDbArc
 50
243.4349488229
 51
296.0140441013
  0
ARC
  5
59C
100
AcDbEntity
  8
0
100
AcDbCircle
 62
7
  6
CONTINUOUS
 10
-7.0630709151
 20
19.5790426744
 40
0.2
100
AcDbArc
 50
116.894582951
 51
180.0
  0
ELLIPSE
  5
59D
100
AcDbEntity
  8
RACCORDO
100
AcDbEllipse
 62
7
  6
CONTINUOUS
 10
-18.5815582338
 20
20.2774850683
 30
0.0
 11
-0.2236507175
 21
0.4481039483
 31
0.0
 40
0.6114248242
 41
-0.6832297371
 42
0.0441801966
  0
ELLIPSE
  5
59E
100
AcDbEntity
  8
RACCORDO
100
AcDbEllipse
 62
7
  6
CONTINUOUS
 10
-3.6056009019
 20
12.7895064023
 30
0.0
 11
-0.2231080361
 21
0.4476242326
 31
0.0
 40
0.6130677323
 41
-2.2534169372
 42
-0.6839906064
  0
ELLIPSE
  5
59F
100
AcDbEntity
  8
RACCORDO
100
AcDbEllipse
 62
7
  6
CONTINUOUS
 10
-3.6056009019
 20
-24.672632422
 30
0.0
 11
-0.2236507175
 21
0.4481039483
 31
0.0
 40
0.6114248242
 41
-3.1857728491
 42
-2.25539606
  0
ELLIPSE
  5
5A0
100
AcDbEntity
  8
0
100
AcDbEllipse
 62
7
  6
CONTINUOUS
 10
-5.5119376337
 20
24.0228205125
 30
0.0
 11
0.2257019663
 21
0.4461636818
 31
0.0
 40
0.6159267166
 41
0.5882567743
 42
0.6817883054
  0
ELLIPSE
  5
5A1
100
AcDbEntity
  8
0
100
AcDbEllipse
 62
7
  6
CONTINUOUS
 10
-7.8408883744
 20
20.8836633477
 30
0.0
 11
-0.0894407211
 21
0.1788887077
 31
0.0
 40
0.6123703628
 41
-2.2554972904
 42
-0.6847009636
  0
ELLIPSE
  5
5A2
100
AcDbEntity
  8
0
100
AcDbEllipse
 62
7
  6
CONTINUOUS
 10
-6.1438320996
 20
20.0351352103
 30
0.0
 11
-0.0894407211
 21
0.1788887077
 31
0.0
 40
0.6123703628
 41
-0.6847009636
 42
-0.0034907027
  0
ELLIPSE
  5
5A3
100
AcDbEntity
  8
DRAFT
100
AcDbEllipse
 62
7
  6
CONTINUOUS
 10
6.1300695116
 20
19.2417246938
 30
0.0
 11
0.499996712
 21
0.0035883639
 31
0.0
 40
0.5053247124
 41
-0.7715714568
 42
-0.0036266526
  0
ELLIPSE
  5
5A4
100
AcDbEntity
  8
DRAFT
100
AcDbEllipse
 62
7
  6
CONTINUOUS
 10
-5.3701491453
 20
24.9415391634
 30
0.0
 11
1.004787277
 21
0.6140102217
 31
0.0
 40
0.0864918533
 41
0.0540072115
 42
0.7329085821
  0
ELLIPSE
  5
5A5
100
AcDbEntity
  8
DRAFT
100
AcDbEllipse
 62
7
  6
CONTINUOUS
 10
6.2346710763
 20
-17.8108459837
 30
0.0
 11
0.9927147821
 21
0.620457446
 31
0.0
 40
0.0764819879
 41
-2.4043514965
 42
-1.2246750713
  0
ELLIPSE
  5
5A6
100
AcDbEntity
  8
0
100
AcDbEllipse
 62
7
  6
CONTINUOUS
 10
0.5324512339
 20
15.0515408796
 30
0.0
 11
-0.223611546
 21
0.4472115081
 31
0.0
 40
0.6124054886
 41
-2.2555017776
 42
-0.6847562194
  0
ELLIPSE
  5
5A7
100
AcDbEntity
  8
0
100
AcDbEllipse
 62
7
  6
CONTINUOUS
 10
0.5324512339
 20
-22.8702803733
 30
0.0
 11
-0.2236315662
 21
0.4472293059
 31
0.0
 40
0.6123445654
 41
-3.1338271467
 42
-2.2555748796
  0
ELLIPSE
  5
5A8
100
AcDbEntity
  8
0
100
AcDbEllipse
 62
7
  6
CONTINUOUS
 10
-3.2749043604
 20
15.7455537521
 30
0.0
 11
0.249929385
 21
0.0111824824
 31
0.0
 40
0.5313301283
 41
3.1178240551
 42
3.9032222197
  0
ELLIPSE
  5
5A9
100
AcDbEntity
  8
0
100
AcDbEllipse
 62
7
  6
CONTINUOUS
 10
-15.5785623531
 20
21.8973827485
 30
0.0
 11
0.249929385
 21
0.0111824824
 31
0.0
 40
0.5313301283
 41
3.1178240551
 42
3.9032222197
  0
ELLIPSE
  5
5AA
100
AcDbEntity
  8
0
100
AcDbEllipse
 62
7
  6
CONTINUOUS
 10
-13.8917966289
 20
21.0539998864
 30
0.0
 11
0.249929385
 21
0.0111824824
 31
0.0
 40
0.5313301283
 41
-2.3799630874
 42
-0.8149845248
  0
ELLIPSE
  5
5AB
100
AcDbEntity
  8
DRAFT
100
AcDbEllipse
 62
7
  6
CONTINUOUS
 10
6.1300695116
 20
-17.9607706493
 30
0.0
 11
0.499443764
 21
0.3120915671
 31
0.0
 40
0.0755486457
 41
5.9989940659
 42
7.0039564932
  0
ELLIPSE
  5
5AC
100
AcDbEntity
  8
DRAFT
100
AcDbEllipse
 62
7
  6
CONTINUOUS
 10
6.1300695116
 20
20.100762064
 30
0.0
 11
-0.3739417019
 21
0.598522373
 31
0.0
 40
0.554557473
 41
-3.1836090632
 42
-2.178646636
  0
ELLIPSE
  5
5AD
100
AcDbEntity
  8
RACCORDO
100
AcDbEllipse
 62
7
  6
CONTINUOUS
 10
-2.3489387249
 20
10.2662608325
 30
0.0
 11
0.2999918237
 21
0.0043377328
 31
0.0
 40
0.5106100819
 41
-2.3635775243
 42
-0.81023449
  0
ELLIPSE
  5
5AE
100
AcDbEntity
  8
RACCORDO
100
AcDbEllipse
 62
7
  6
CONTINUOUS
 10
-2.6945837455
 20
10.4390833428
 30
0.0
 11
0.2999918237
 21
0.0043377328
 31
0.0
 40
0.5106100819
 41
3.1342096197
 42
3.9196077829
  0
ELLIPSE
  5
5AF
100
AcDbEntity
  8
RACCORDO
100
AcDbEllipse
 62
7
  6
CONTINUOUS
 10
-0.5352929136
 20
-20.7376405893
 30
0.0
 11
0.2299769236
 21
0.4440064614
 31
0.0
 40
0.6229838795
 41
0.9554048099
 42
2.2644017489
  0
ELLIPSE
  5
5B0
100
AcDbEntity
  8
RACCORDO
100
AcDbEllipse
 62
7
  6
CONTINUOUS
 10
-0.5352929136
 20
11.1582181183
 30
0.0
 11
0.2299769236
 21
0.4440064614
 31
0.0
 40
0.6229838795
 41
-4.0187835583
 42
-2.7097866193
  0
ELLIPSE
  5
5B1
100
AcDbEntity
  8
0
100
AcDbEllipse
 62
7
  6
CONTINUOUS
 10
49.8225592447
 20
45.4805567023
 30
0.0
 11
60.4168605605
 21
30.5632322457
 31
0.0
 40
0.005706723
 41
2.5167363259
 42
2.6876789752
  0
ELLIPSE
  5
5B2
100
AcDbEntity
  8
0
100
AcDbEllipse
 62
7
  6
CONTINUOUS
 10
0.7196053152
 20
20.907049038
 30
0.0
 11
0.221538876
 21
0.4482453432
 31
0.0
 40
0.6088015717
 41
0.5825560023
 42
0.6760875334
  0
ELLIPSE
  5
5B3
100
AcDbEntity
  8
0
100
AcDbEllipse
 62
7
  6
CONTINUOUS
 10
49.8225592447
 20
45.4805567023
 30
0.0
 11
60.4168605605
 21
30.5632322457
 31
0.0
 40
0.005706723
 41
-2.6934527084
 42
-2.5225100591
  0
ELLIPSE
  5
5B4
100
AcDbEntity
  8
RACCORDO
100
AcDbEllipse
 62
7
  6
CONTINUOUS
 10
-1.7051047513
 20
11.7431240372
 30
0.0
 11
0.2299769236
 21
0.4440064614
 31
0.0
 40
0.6229838795
 41
-4.0187835583
 42
-3.1327064366
  0
ELLIPSE
  5
5B5
100
AcDbEntity
  8
0
100
AcDbEllipse
 62
7
  6
CONTINUOUS
 10
-16.2716295316
 20
21.6221860802
 30
0.0
 11
-0.2234618187
 21
0.4480306886
 31
0.0
 40
0.6116748051
 41
-0.6831523234
 42
0.886730614
  0
ELLIPSE
  5
5B6
100
AcDbEntity
  8
0
100
AcDbEllipse
 62
7
  6
CONTINUOUS
 10
-1.2486248483
 20
-23.683881056
 30
0.0
 11
-0.2234618187
 21
0.4480306886
 31
0.0
 40
0.6116748051
 41
2.4584403302
 42
4.0283232676
  0
ELLIPSE
  5
5B7
100
AcDbEntity
  8
0
100
AcDbEllipse
 62
7
  6
CONTINUOUS
 10
-1.2486248483
 20
14.1106837386
 30
0.0
 11
-0.2230998035
 21
0.4477110033
 31
0.0
 40
0.6127700112
 41
-2.2535417632
 42
-0.6836588258
  0
ELLIPSE
  5
5B8
100
AcDbEntity
  8
0
100
AcDbEllipse
 62
7
  6
CONTINUOUS
 10
-7.0630709151
 20
18.3545056164
 30
0.0
 11
0.199943508
 21
0.008945986
 31
0.0
 40
0.5313301283
 41
3.1178240563
 42
3.9032222197
  0
ELLIPSE
  5
5B9
100
AcDbEntity
  8
0
100
AcDbEllipse
 62
7
  6
CONTINUOUS
 10
-8.7601271899
 20
19.2030337538
 30
0.0
 11
0.199943508
 21
0.008945986
 31
0.0
 40
0.5313301283
 41
-2.3799630874
 42
-0.8091667606
  0
ELLIPSE
  5
5BA
100
AcDbEntity
  8
DRAFT
100
AcDbEllipse
 62
7
  6
CONTINUOUS
 10
6.2346710763
 20
19.1391290525
 30
0.0
 11
-0.7356038977
 21
1.2035991204
 31
0.0
 40
0.5552491559
 41
5.0559943874
 42
6.2356708126
  0
ELLIPSE
  5
5BB
100
AcDbEntity
  8
0
100
AcDbEllipse
 62
7
  6
CONTINUOUS
 10
-1.5881386362
 20
14.90217089
 30
0.0
 11
0.249929385
 21
0.0111824824
 31
0.0
 40
0.5313301283
 41
-2.3799630874
 42
-0.8149845248
  0
ELLIPSE
  5
5BC
100
AcDbEntity
  8
DRAFT
100
AcDbEllipse
 62
7
  6
CONTINUOUS
 10
12.5944976019
 20
21.1536837885
 30
0.0
 11
2.7499831596
 21
-0.0194567514
 31
0.0
 40
0.4946372042
 41
0.4291636923
 42
2.3596941457
  0
ELLIPSE
  5
5BD
100
AcDbEntity
  8
DRAFT
100
AcDbEllipse
 62
7
  6
CONTINUOUS
 10
11.9227461598
 20
21.2520884207
 30
0.0
 11
2.7499831596
 21
-0.0194567514
 31
0.0
 40
0.4946372042
 41
2.3596941457
 42
2.9254696648
  0
ELLIPSE
  5
5BE
100
AcDbEntity
  8
RACCORDO
100
AcDbEllipse
 62
7
  6
CONTINUOUS
 10
17.3481288141
 20
22.3118220493
 30
0.0
 11
0.7964780511
 21
0.7125399777
 31
0.0
 40
0.2888664458
 41
0.1139832129
 42
0.7812491238
  0
ELLIPSE
  5
5BF
100
AcDbEntity
  8
RACCORDO
100
AcDbEllipse
 62
7
  6
CONTINUOUS
 10
13.5684313173
 20
24.2016707977
 30
0.0
 11
-0.309899001
 21
1.1085475855
 31
0.0
 40
0.6753891016
 41
4.9647984111
 42
6.4012160802
  0
ELLIPSE
  5
5C0
100
AcDbEntity
  8
0
100
AcDbEllipse
 62
7
  6
CONTINUOUS
 10
12.5944976019
 20
21.5807843371
 30
0.0
 11
2.7499831596
 21
-0.0194567514
 31
0.0
 40
0.4946372042
 41
0.1760698615
 42
2.3596941457
  0
ELLIPSE
  5
5C1
100
AcDbEntity
  8
RACCORDO
100
AcDbEllipse
 62
7
  6
CONTINUOUS
 10
0.5381115583
 20
12.4523820115
 30
0.0
 11
-0.894612936
 21
1.7887945813
 31
0.0
 40
0.6124635976
 41
-2.2555607096
 42
-2.1095619722
  0
ELLIPSE
  5
5C2
100
AcDbEntity
  8
RACCORDO
100
AcDbEllipse
 62
7
  6
CONTINUOUS
 10
0.5381115583
 20
-18.155461486
 30
0.0
 11
-0.894811907
 21
1.788971565
 31
0.0
 40
0.6123121697
 41
-2.4017410744
 42
-2.2557423369
  0
ELLIPSE
  5
5C3
100
AcDbEntity
  8
RACCORDO
100
AcDbEllipse
 62
7
  6
CONTINUOUS
 10
-5.7001379429
 20
20.6081055325
 30
0.0
 11
1.2141619185
 21
0.9541526469
 31
0.0
 40
0.2329077568
 41
0.1095198182
 42
0.114024621
  0
ENDSEC
  0
SECTION
  2
OBJECTS
  0
DICTIONARY
  5
C
100
AcDbDictionary
280
0
281
1
  3
ACAD_GROUP
350
D
  3
ACAD_MLINESTYLE
350
17
  3
ACAD_LAYOUT
350
1A
  3
ACAD_PLOTSETTINGS
350
19
  3
ACAD_PLOTSTYLENAME
350
E
  0
DICTIONARY
  5
D
102
{ACAD_REACTORS
330
C
102
}
100
AcDbDictionary
280
0
281
1
  0
ACDBDICTIONARYWDFLT
  5
E
102
{ACAD_REACTORS
330
C
102
}
100
AcDbDictionary
281
1
  3
Normal
350
F
100
AcDbDictionaryWithDefault
340
F
  0
DICTIONARY
  5
17
102
{ACAD_REACTORS
330
C
102
}
100
AcDbDictionary
280
0
281
1
  3
Standard
350
18
  0
DICTIONARY
  5
19
102
{ACAD_REACTORS
330
C
102
}
100
AcDbDictionary
281
1
  0
DICTIONARY
  5
1A
102
{ACAD_REACTORS
330
C
102
}
100
AcDbDictionary
281
1
  3
Model
350
5C4
  3
Layout1
350
5C5
  0
ACDBPLACEHOLDER
  5
F
102
{ACAD_REACTORS
330
E
102
}
  0
MLINESTYLE
  5
18
102
{ACAD_REACTORS
330
17
102
}
100
AcDbMlineStyle
  2
STANDARD
 70
0
  3

 62
256
 51
90.0
 52
90.0
 71
2
 49
0.5
 62
256
  6
BYLAYER
 49
-0.5
 62
256
  6
BYLAYER
  0
LAYOUT
  5
5C4
102
{ACAD_REACTORS
330
1A
102
}
100
AcDbPlotSettings
  1

  2
none_device
  4
ANSI_C_(22.00_x_17.00_Inches)
  6

 40
0.0
 41
0.0
 42
0.0
 43
0.0
 44
558.8
 45
431.8
 46
0.0
 47
0.0
 48
0.0
 49
0.0
140
0.0
141
0.0
142
1.0
143
1.0
 70
1024
 72
1
 73
0
 74
0
  7

 75
0
147
1.0
148
0.0
149
0.0
100
AcDbLayout
  1
Model
 70
0
 71
0
 10
0.0
 20
0.0
 11
558.8
 21
431.8
 12
0.0
 22
0.0
 32
0.0
 14
0.0
 24
0.0
 34
0.0
 15
0.0
 25
0.0
 35
0.0
146
0.0
 13
0.0
 23
0.0
 33
0.0
 16
1.0
 26
0.0
 36
0.0
 17
0.0
 27
1.0
 37
0.0
 76
0
330
222
345
0
346
0
  0
LAYOUT
  5
5C5
102
{ACAD_REACTORS
330
1A
102
}
100
AcDbPlotSettings
  1

  2
none_device
  4
ANSI_C_(22.00_x_17.00_Inches)
  6

 40
0.0
 41
0.0
 42
0.0
 43
0.0
 44
558.8
 45
431.8
 46
0.0
 47
0.0
 48
0.0
 49
0.0
140
0.0
141
0.0
142
1.0
143
1.0
 70
0
 72
1
 73
0
 74
0
  7

 75
0
147
1.0
148
0.0
149
0.0
100
AcDbLayout
  1
Layout1
 70
0
 71
1
 10
0.0
 20
0.0
 11
558.8
 21
431.8
 12
0.0
 22
0.0
 32
0.0
 14
0.0
 24
0.0
 34
0.0
 15
0.0
 25
0.0
 35
0.0
146
0.0
 13
0.0
 23
0.0
 33
0.0
 16
1.0
 26
0.0
 36
0.0
 17
0.0
 27
1.0
 37
0.0
 76
0
330
223
345
0
346
0
  0
ENDSEC
  0
EOF
