  0
SECTION
  2
HEADER
  9
$ACADVER
  1
AC1024
  9
$DWGCODEPAGE
  3
ANSI_1252
  9
$EXTMAX
 10
558.8
 20
431.8
 30
0.0
  9
$EXTMIN
 10
0.0
 20
0.0
 30
0.0
  9
$LIMMIN
 10
0.0
 20
0.0
  9
$LIMMAX
 10
558.8
 20
431.8
  9
$VIEWCTR
 10
279.4
 20
215.9
  9
$VIEWSIZE
 40
431.8
  9
$CLAYER
  8
0
  9
$LTSCALE
 40
30.734
  9
$CELTYPE
  6
BYLAYER
  9
$DIMSCALE
 40
1.0
  9
$DIMASZ
 40
3.0
  9
$DIMEXO
 40
0.5
  9
$DIMDLI
 40
21.2344
  9
$DIMEXE
 40
1.5
  9
$DIMCEN
 40
5.0292
  9
$DIMLFAC
 40
1.0
  9
$DIMBLK
  1
_FILLED
  9
$DIMALT
 70
0
  9
$DIMALTF
 40
0.0393700787
  9
$DIMTXT
 40
3.0
  9
$DIMTOL
 70
1
  9
$DIMLIM
 70
0
  9
$DIMTFAC
 40
1.0
  9
$DIMTP
 40
0.01
  9
$DIMTM
 40
0.01
  9
$DIMGAP
 40
0.625
  9
$DIMDSEP
 70
44
  9
$AUNITS
 70
0
  9
$PDMODE
 70
3
  9
$PDSIZE
 40
3.0
  9
$HANDSEED
  5
5AF
  9
$TILEMODE
 70
1
  9
$MEASUREMENT
 70
1
  9
$INSUNITS
 70
4
  0
ENDSEC
  0
SECTION
  2
CLASSES
  0
CLASS
  1
ACDBDICTIONARYWDFLT
  2
AcDbDictionaryWithDefault
  3
AutoCAD 2000
 90
0
 91
1
280
0
281
0
  0
CLASS
  1
ACDBPLACEHOLDER
  2
AcDbPlaceHolder
  3
AutoCAD 2000
 90
0
 91
1
280
0
281
0
  0
CLASS
  1
LAYOUT
  2
AcDbLayout
  3
AutoCAD 2000
 90
0
 91
0
280
0
281
0
  0
ENDSEC
  0
SECTION
  2
TABLES
  0
TABLE
  2
VPORT
  5
8
100
AcDbSymbolTable
 70
2
  0
VPORT
  5
1F4
100
AcDbSymbolTableRecord
100
AcDbViewportTableRecord
  2
*ACTIVE
 70
0
 10
0.0
 20
0.0
 11
1.0
 21
1.0
 12
279.4
 22
215.9
 13
0.0
 23
0.0
 14
1.0
 24
1.0
 15
0.0
 25
0.0
 16
0.0
 26
0.0
 36
1.0
 17
0.0
 27
0.0
 37
0.0
 40
431.8
 41
1.2941176471
 42
50.0
 43
0.0
 44
0.0
 50
0.0
 51
0.0
 71
0
 72
100
 73
1
 74
1
 75
0
 76
0
 77
0
 78
0
  0
ENDTAB
  0
TABLE
  2
LTYPE
  5
5
100
AcDbSymbolTable
 70
6
  0
LTYPE
  5
14
100
AcDbSymbolTableRecord
100
AcDbLinetypeTableRecord
  2
BYBLOCK
 70
0
  3

 72
65
 73
0
 40
0.0
  0
LTYPE
  5
15
100
AcDbSymbolTableRecord
100
AcDbLinetypeTableRecord
  2
BYLAYER
 70
0
  3

 72
65
 73
0
 40
0.0
  0
LTYPE
  5
16
100
AcDbSymbolTableRecord
100
AcDbLinetypeTableRecord
  2
CONTINUOUS
 70
64
  3
Solid line
 72
65
 73
0
 40
0.0
  0
LTYPE
  5
1F5
100
AcDbSymbolTableRecord
100
AcDbLinetypeTableRecord
  2
CENTER
 70
64
  3
____ _ ____ _ ____ _ ____ _ ____ _ ____ _ ____
 72
65
 73
4
 40
0.6
 49
0.375
 74
0
 49
-0.075
 74
0
 49
0.075
 74
0
 49
-0.075
 74
0
  0
LTYPE
  5
1F6
100
AcDbSymbolTableRecord
100
AcDbLinetypeTableRecord
  2
HIDDEN
 70
64
  3
- - - - - - - - - - - - - - - - - - - -
 72
65
 73
2
 40
0.2
 49
0.1
 74
0
 49
-0.1
 74
0
  0
LTYPE
  5
1F7
100
AcDbSymbolTableRecord
100
AcDbLinetypeTableRecord
  2
PHANTOM
 70
64
  3
_____ _ _ _____ _ _ _____ _ _ _____
 72
65
 73
6
 40
0.8
 49
0.45
 74
0
 49
-0.05
 74
0
 49
0.1
 74
0
 49
-0.05
 74
0
 49
0.1
 74
0
 49
-0.05
 74
0
  0
LTYPE
  5
1F8
100
AcDbSymbolTableRecord
100
AcDbLinetypeTableRecord
  2
DOT
 70
64
  3
. . . . . . . . . . . . . . . . . . . .
 72
65
 73
2
 40
0.2
 49
0.1
 74
0
 49
-0.1
 74
0
  0
LTYPE
  5
1F9
100
AcDbSymbolTableRecord
100
AcDbLinetypeTableRecord
  2
DASHED
 70
64
  3
- - - - - - - - - - - - - - - - - - - -
 72
65
 73
2
 40
0.2
 49
0.1
 74
0
 49
-0.1
 74
0
  0
ENDTAB
  0
TABLE
  2
LAYER
  5
2
100
AcDbSymbolTable
 70
36
  0
LAYER
  5
10
100
AcDbSymbolTableRecord
100
AcDbLayerTableRecord
  2
0
 70
0
 62
7
  6
CONTINUOUS
370
-3
390
F
  0
LAYER
  5
1FA
100
AcDbSymbolTableRecord
100
AcDbLayerTableRecord
  2
DEFAULT_1
 70
0
 62
7
  6
CENTER
370
-3
390
F
  0
LAYER
  5
1FB
100
AcDbSymbolTableRecord
100
AcDbLayerTableRecord
  2
DEFAULT_2
 70
0
 62
7
  6
HIDDEN
370
-3
390
F
  0
LAYER
  5
1FC
100
AcDbSymbolTableRecord
100
AcDbLayerTableRecord
  2
DEFAULT_3
 70
0
 62
7
  6
PHANTOM
370
-3
390
F
  0
LAYER
  5
1FD
100
AcDbSymbolTableRecord
100
AcDbLayerTableRecord
  2
ASSI
 70
0
 62
7
  6
CONTINUOUS
370
-3
390
F
  0
LAYER
  5
1FE
100
AcDbSymbolTableRecord
100
AcDbLayerTableRecord
  2
COLOR5
 70
0
 62
7
  6
CONTINUOUS
370
-3
390
F
  0
LAYER
  5
1FF
100
AcDbSymbolTableRecord
100
AcDbLayerTableRecord
  2
COORDINATE
 70
0
 62
7
  6
CONTINUOUS
370
-3
390
F
  0
LAYER
  5
200
100
AcDbSymbolTableRecord
100
AcDbLayerTableRecord
  2
COORD_ORIGINE
 70
0
 62
7
  6
CONTINUOUS
370
-3
390
F
  0
LAYER
  5
201
100
AcDbSymbolTableRecord
100
AcDbLayerTableRecord
  2
COPY
 70
0
 62
7
  6
CONTINUOUS
370
-3
390
F
  0
LAYER
  5
202
100
AcDbSymbolTableRecord
100
AcDbLayerTableRecord
  2
COPY-PUBBLISH
 70
0
 62
7
  6
CONTINUOUS
370
-3
390
F
  0
LAYER
  5
203
100
AcDbSymbolTableRecord
100
AcDbLayerTableRecord
  2
COPY_GEOMETRY
 70
0
 62
7
  6
CONTINUOUS
370
-3
390
F
  0
LAYER
  5
204
100
AcDbSymbolTableRecord
100
AcDbLayerTableRecord
  2
COSMETICHE
 70
0
 62
7
  6
CONTINUOUS
370
-3
390
F
  0
LAYER
  5
205
100
AcDbSymbolTableRecord
100
AcDbLayerTableRecord
  2
CURVA_CENTRALE
 70
0
 62
7
  6
CONTINUOUS
370
-3
390
F
  0
LAYER
  5
206
100
AcDbSymbolTableRecord
100
AcDbLayerTableRecord
  2
CURVE
 70
0
 62
7
  6
CONTINUOUS
370
-3
390
F
  0
LAYER
  5
207
100
AcDbSymbolTableRecord
100
AcDbLayerTableRecord
  2
DRAFT
 70
0
 62
7
  6
CONTINUOUS
370
-3
390
F
  0
LAYER
  5
208
100
AcDbSymbolTableRecord
100
AcDbLayerTableRecord
  2
IGES_INCISIONI
 70
0
 62
7
  6
CONTINUOUS
370
-3
390
F
  0
LAYER
  5
209
100
AcDbSymbolTableRecord
100
AcDbLayerTableRecord
  2
IGS_SIMBOLO
 70
0
 62
7
  6
CONTINUOUS
370
-3
390
F
  0
LAYER
  5
20A
100
AcDbSymbolTableRecord
100
AcDbLayerTableRecord
  2
IMPIANTO
 70
0
 62
7
  6
CONTINUOUS
370
-3
390
F
  0
LAYER
  5
20B
100
AcDbSymbolTableRecord
100
AcDbLayerTableRecord
  2
IMPORT
 70
0
 62
7
  6
CONTINUOUS
370
-3
390
F
  0
LAYER
  5
20C
100
AcDbSymbolTableRecord
100
AcDbLayerTableRecord
  2
INCISIONI_LASER
 70
0
 62
7
  6
CONTINUOUS
370
-3
390
F
  0
LAYER
  5
20D
100
AcDbSymbolTableRecord
100
AcDbLayerTableRecord
  2
INTFCLR_3
 70
0
 62
7
  6
CONTINUOUS
370
-3
390
F
  0
LAYER
  5
20E
100
AcDbSymbolTableRecord
100
AcDbLayerTableRecord
  2
INTF_1
 70
0
 62
7
  6
CONTINUOUS
370
-3
390
F
  0
LAYER
  5
20F
100
AcDbSymbolTableRecord
100
AcDbLayerTableRecord
  2
INTF_12
 70
0
 62
7
  6
CONTINUOUS
370
-3
390
F
  0
LAYER
  5
210
100
AcDbSymbolTableRecord
100
AcDbLayerTableRecord
  2
INTF_2
 70
0
 62
7
  6
CONTINUOUS
370
-3
390
F
  0
LAYER
  5
211
100
AcDbSymbolTableRecord
100
AcDbLayerTableRecord
  2
INTF_RED
 70
0
 62
7
  6
CONTINUOUS
370
-3
390
F
  0
LAYER
  5
212
100
AcDbSymbolTableRecord
100
AcDbLayerTableRecord
  2
INTF_YELLOW
 70
0
 62
7
  6
CONTINUOUS
370
-3
390
F
  0
LAYER
  5
213
100
AcDbSymbolTableRecord
100
AcDbLayerTableRecord
  2
NOTE
 70
0
 62
7
  6
CONTINUOUS
370
-3
390
F
  0
LAYER
  5
214
100
AcDbSymbolTableRecord
100
AcDbLayerTableRecord
  2
PIANI
 70
0
 62
7
  6
CONTINUOUS
370
-3
390
F
  0
LAYER
  5
215
100
AcDbSymbolTableRecord
100
AcDbLayerTableRecord
  2
PIANI_CONTATTI
 70
0
 62
7
  6
CONTINUOUS
370
-3
390
F
  0
LAYER
  5
216
100
AcDbSymbolTableRecord
100
AcDbLayerTableRecord
  2
PIANI_ORIGINE
 70
0
 62
7
  6
CONTINUOUS
370
-3
390
F
  0
LAYER
  5
217
100
AcDbSymbolTableRecord
100
AcDbLayerTableRecord
  2
PIANI_RIFERIMENTO
 70
0
 62
7
  6
CONTINUOUS
370
-3
390
F
  0
LAYER
  5
218
100
AcDbSymbolTableRecord
100
AcDbLayerTableRecord
  2
PUNTI
 70
0
 62
7
  6
CONTINUOUS
370
-3
390
F
  0
LAYER
  5
219
100
AcDbSymbolTableRecord
100
AcDbLayerTableRecord
  2
RACCORDO
 70
0
 62
7
  6
CONTINUOUS
370
-3
390
F
  0
LAYER
  5
21A
100
AcDbSymbolTableRecord
100
AcDbLayerTableRecord
  2
RGB__255__255__255__
 70
0
 62
7
  6
CONTINUOUS
370
-3
390
F
  0
LAYER
  5
21B
100
AcDbSymbolTableRecord
100
AcDbLayerTableRecord
  2
SKELETON
 70
0
 62
7
  6
CONTINUOUS
370
-3
390
F
  0
LAYER
  5
21C
100
AcDbSymbolTableRecord
100
AcDbLayerTableRecord
  2
SMUSSO
 70
0
 62
7
  6
CONTINUOUS
370
-3
390
F
  0
LAYER
  5
21D
100
AcDbSymbolTableRecord
100
AcDbLayerTableRecord
  2
SNAPLINE
 70
0
 62
7
  6
CONTINUOUS
370
-3
390
F
  0
LAYER
  5
21E
100
AcDbSymbolTableRecord
100
AcDbLayerTableRecord
  2
SUPERFICI
 70
0
 62
7
  6
CONTINUOUS
370
-3
390
F
  0
LAYER
  5
21F
100
AcDbSymbolTableRecord
100
AcDbLayerTableRecord
  2
TRACCIABILITA
 70
0
 62
7
  6
CONTINUOUS
370
-3
390
F
  0
LAYER
  5
220
100
AcDbSymbolTableRecord
100
AcDbLayerTableRecord
  2
TRASH
 70
0
 62
7
  6
CONTINUOUS
370
-3
390
F
  0
LAYER
  5
221
100
AcDbSymbolTableRecord
100
AcDbLayerTableRecord
  2
WHITE
 70
0
 62
7
  6
CONTINUOUS
370
-3
390
F
  0
LAYER
  5
222
100
AcDbSymbolTableRecord
100
AcDbLayerTableRecord
  2
XSEC_DATUMS
 70
0
 62
7
  6
CONTINUOUS
370
-3
390
F
  0
LAYER
  5
223
100
AcDbSymbolTableRecord
100
AcDbLayerTableRecord
  2
_PRO
 70
0
 62
7
  6
CONTINUOUS
370
-3
390
F
  0
ENDTAB
  0
TABLE
  2
STYLE
  5
3
100
AcDbSymbolTable
 70
1
  0
STYLE
  5
11
100
AcDbSymbolTableRecord
100
AcDbTextStyleTableRecord
  2
STANDARD
 70
0
 40
0.0
 41
0.8
 50
0.0
 71
0
 42
0.2
  3
txt
  4

  0
STYLE
  5
224
100
AcDbSymbolTableRecord
100
AcDbTextStyleTableRecord
  2
TEXTSTYLE_1
 70
0
 40
0.0
 41
0.8
 50
0.0
 71
0
 42
0.2
  3
gdt
  4

  0
ENDTAB
  0
TABLE
  2
VIEW
  5
6
100
AcDbSymbolTable
 70
0
  0
ENDTAB
  0
TABLE
  2
UCS
  5
7
100
AcDbSymbolTable
 70
0
  0
ENDTAB
  0
TABLE
  2
APPID
  5
9
100
AcDbSymbolTable
 70
1
  0
APPID
  5
225
100
AcDbSymbolTableRecord
100
AcDbRegAppTableRecord
  2
ACAD
 70
0
  0
ENDTAB
  0
TABLE
  2
BLOCK_RECORD
  5
1
100
AcDbSymbolTable
 70
0
  0
BLOCK_RECORD
  5
226
100
AcDbSymbolTableRecord
100
AcDbBlockTableRecord
  2
*Model_Space
  0
BLOCK_RECORD
  5
227
100
AcDbSymbolTableRecord
100
AcDbBlockTableRecord
  2
*Paper_Space
  0
BLOCK_RECORD
  5
228
100
AcDbSymbolTableRecord
100
AcDbBlockTableRecord
  2
_FILLED
  0
ENDTAB
  0
TABLE
  2
DIMSTYLE
  5
A
100
AcDbSymbolTable
 70
1
100
AcDbDimStyleTable
 71
0
  0
DIMSTYLE
105
229
100
AcDbSymbolTableRecord
100
AcDbDimStyleTableRecord
  2
STANDARD
 70
0
  3

  4

 40
1.0
 41
3.0
 42
0.5
 43
0.38
 44
1.5
 45
0.0
 46
0.0
 47
0.01
 48
0.01
140
3.0
141
0.09
142
0.0
143
25.4
144
1.0
145
0.0
146
1.0
147
0.625
 71
1
 72
0
 73
0
 74
0
 75
0
 76
0
 77
1
 78
8
 79
2
170
0
171
1
172
0
173
0
174
0
175
0
176
0
177
0
178
0
270
2
179
2
271
2
272
2
273
2
274
2
275
0
280
0
281
0
282
0
283
1
284
8
285
0
286
0
287
3
288
0
340
11
278
44
341
228
342
228
343
228
344
228
  0
ENDTAB
  0
ENDSEC
  0
SECTION
  2
BLOCKS
  0
BLOCK
  5
20
100
AcDbEntity
  8
0
100
AcDbBlockBegin
  2
*Model_Space
 70
0
 10
0.0
 20
0.0
 30
0.0
  3
*Model_Space
  1

  0
ENDBLK
  5
21
100
AcDbEntity
  8
0
100
AcDbBlockEnd
  0
BLOCK
  5
1C
100
AcDbEntity
  8
0
100
AcDbBlockBegin
  2
*Paper_Space
 70
0
 10
0.0
 20
0.0
 30
0.0
  3
*Paper_Space
  1

  0
ENDBLK
  5
1D
100
AcDbEntity
  8
0
100
AcDbBlockEnd
  0
BLOCK
  5
22A
100
AcDbEntity
  8
0
100
AcDbBlockBegin
  2
_FILLED
 70
64
 10
0.0
 20
0.0
  3
_FILLED
  1

  0
SOLID
  5
22B
100
AcDbEntity
  8
0
  6
BYBLOCK
 62
0
100
AcDbTrace
 10
0.0
 20
0.0
 11
-1.0
 21
0.3166666667
 12
-1.0
 22
-0.3166666667
 13
-1.0
 23
-0.3166666667
  0
ENDBLK
  5
22C
100
AcDbEntity
  8
0
  6
BYBLOCK
 62
0
100
AcDbBlockEnd
  0
ENDSEC
  0
SECTION
  2
ENTITIES
  0
LINE
  5
22D
100
AcDbEntity
  8
0
100
AcDbLine
 62
250
  6
CONTINUOUS
 10
2.2526312472
 20
-28.0387124621
 11
1.7243640755
 21
-27.930210185
  0
LINE
  5
22E
100
AcDbEntity
  8
0
100
AcDbLine
 62
250
  6
CONTINUOUS
 10
2.1632174519
 20
-27.7191456561
 11
1.7243640755
 21
-27.6290083294
  0
LWPOLYLINE
  5
22F
100
AcDbEntity
  8
0
100
AcDbPolyline
 62
7
  6
CONTINUOUS
 90
16
 70
0
 10
0.8343038928
 20
-28.2458192259
 10
0.8285652095
 20
-28.2446015366
 10
0.8226394898
 20
-28.2432834622
 10
0.8165280082
 20
-28.2418688862
 10
0.8102294319
 20
-28.2403656214
 10
0.8037483767
 20
-28.2387741763
 10
0.797095349
 20
-28.2370877268
 10
0.7902724644
 20
-28.235311057
 10
0.7832822621
 20
-28.233448742
 10
0.7761361454
 20
-28.2314938692
 10
0.7688369611
 20
-28.2294517223
 10
0.7613879433
 20
-28.2273274039
 10
0.7538013348
 20
-28.225113952
 10
0.7460807394
 20
-28.2228171428
 10
0.7382301039
 20
-28.2204425953
 10
0.7302624441
 20
-28.2179833373
  0
LWPOLYLINE
  5
230
100
AcDbEntity
  8
0
100
AcDbPolyline
 62
7
  6
CONTINUOUS
 90
3
 70
0
 10
0.7302624441
 20
-28.2179833373
 10
0.7139938329
 20
-28.2128355751
 10
0.7057113787
 20
-28.2101462875
  0
LWPOLYLINE
  5
231
100
AcDbEntity
  8
0
100
AcDbPolyline
 62
7
  6
CONTINUOUS
 90
3
 70
0
 10
0.7057113787
 20
-28.2101462875
 10
0.6888848776
 20
-28.2045567562
 10
0.6803608908
 20
-28.201656371
  0
LWPOLYLINE
  5
232
100
AcDbEntity
  8
0
100
AcDbPolyline
 62
7
  6
CONTINUOUS
 90
3
 70
0
 10
0.6803608908
 20
-28.201656371
 10
0.6631301613
 20
-28.1956661685
 10
0.6544450931
 20
-28.1925769494
  0
LWPOLYLINE
  5
233
100
AcDbEntity
  8
0
100
AcDbPolyline
 62
7
  6
CONTINUOUS
 90
3
 70
0
 10
0.6544450931
 20
-28.1925769494
 10
0.6369784064
 20
-28.1862340316
 10
0.6282201247
 20
-28.1829817933
  0
LWPOLYLINE
  5
234
100
AcDbEntity
  8
0
100
AcDbPolyline
 62
7
  6
CONTINUOUS
 90
17
 70
0
 10
0.6282201247
 20
-28.1829817933
 10
0.6107008063
 20
-28.1763414417
 10
0.6019647837
 20
-28.1729557925
 10
0.593258745
 20
-28.1695328368
 10
0.58459148
 20
-28.1660810993
 10
0.5759808302
 20
-28.1625956713
 10
0.5674362762
 20
-28.1590850054
 10
0.5589673813
 20
-28.1555579797
 10
0.5505925359
 20
-28.1520105583
 10
0.5423221325
 20
-28.1484513227
 10
0.5341664766
 20
-28.1448894232
 10
0.526144256
 20
-28.1413218715
 10
0.5182770419
 20
-28.1377634274
 10
0.5105652692
 20
-28.1342167163
 10
0.502997377
 20
-28.1306629975
 10
0.4955788417
 20
-28.1271047572
 10
0.4883309617
 20
-28.1235630148
  0
LWPOLYLINE
  5
235
100
AcDbEntity
  8
RACCORDO
100
AcDbPolyline
 62
7
  6
CONTINUOUS
 90
11
 70
0
 10
-3.0164380881
 20
-29.1909586516
 10
-2.9605570662
 20
-29.2153618013
 10
-2.902261494
 20
-29.2349874512
 10
-2.8420811271
 20
-29.2495646284
 10
-2.7803202018
 20
-29.2589572434
 10
-2.7169924325
 20
-29.263055271
 10
-2.6524677258
 20
-29.2616766427
 10
-2.5872090851
 20
-29.2546978626
 10
-2.5212637061
 20
-29.2419658273
 10
-2.4548624669
 20
-29.2233020774
 10
-2.3987952712
 20
-29.2028601278
  0
LWPOLYLINE
  5
236
100
AcDbEntity
  8
0
100
AcDbPolyline
 62
250
  6
CONTINUOUS
 90
34
 70
0
 10
-0.229438675
 20
-29.4367769133
 10
-0.2208584721
 20
-29.440868212
 10
-0.2118999488
 20
-29.4447515113
 10
-0.202583253
 20
-29.4484180761
 10
-0.1929293321
 20
-29.4518596605
 10
-0.1829599044
 20
-29.4550685202
 10
-0.1726974117
 20
-29.4580374314
 10
-0.1621649428
 20
-29.4607597153
 10
-0.1513861824
 20
-29.4632292507
 10
-0.1403853779
 20
-29.465440483
 10
-0.1291872713
 20
-29.4673884393
 10
-0.1178170516
 20
-29.4690687386
 10
-0.1063003021
 20
-29.4704776012
 10
-0.0946629287
 20
-29.4716118592
 10
-0.0829311049
 20
-29.472468963
 10
-0.0711312217
 20
-29.4730469861
 10
-0.0592898136
 20
-29.4733446298
 10
-0.0474335199
 20
-29.4733612259
 10
-0.0355890294
 20
-29.4730967394
 10
-0.0237830147
 20
-29.4725517701
 10
-0.0120419952
 20
-29.4717275466
 10
-0.0003923011
 20
-29.4706259175
 10
0.0111399727
 20
-29.4692493439
 10
0.0225287773
 20
-29.4676009288
 10
0.0337482561
 20
-29.4656844215
 10
0.0447730385
 20
-29.4635041784
 10
0.0555784941
 20
-29.4610650936
 10
0.066140532
 20
-29.4583726136
 10
0.0764369259
 20
-29.4554323331
 10
0.0864429066
 20
-29.4522512522
 10
0.0961318474
 20
-29.4488380518
 10
0.1054810676
 20
-29.4452012412
 10
0.1144714443
 20
-29.4413487972
 10
0.1230832847
 20
-29.4372896372
  0
LWPOLYLINE
  5
237
100
AcDbEntity
  8
0
100
AcDbPolyline
 62
250
  6
CONTINUOUS
 90
34
 70
0
 10
-0.229438675
 20
-29.0968029792
 10
-0.2208620223
 20
-29.1008926636
 10
-0.2119067144
 20
-29.1047747821
 10
-0.202592802
 20
-29.1084405638
 10
-0.192940918
 20
-29.1118817996
 10
-0.1829729101
 20
-29.1150906145
 10
-0.1727118652
 20
-29.1180595414
 10
-0.1621811168
 20
-29.1207818405
 10
-0.1514040989
 20
-29.1232514657
 10
-0.1404050209
 20
-29.1254628681
 10
-0.1292085955
 20
-29.1274110765
 10
-0.1178400168
 20
-29.1290917042
 10
-0.106324881
 20
-29.1305009668
 10
-0.0946890952
 20
-29.1316356946
 10
-0.0829588119
 20
-29.1324933384
 10
-0.0711604019
 20
-29.1330719702
 10
-0.059320394
 20
-29.1333702892
 10
-0.0474654144
 20
-29.1333876243
 10
-0.0356221189
 20
-29.1331239367
 10
-0.0238171386
 20
-29.132579819
 10
-0.0120770197
 20
-29.1317564949
 10
-0.0004281615
 20
-29.1306558155
 10
0.0111032397
 20
-29.1292802561
 10
0.0224912552
 20
-29.1276329096
 10
0.0337102819
 20
-29.1257174794
 10
0.0447351017
 20
-29.12353827
 10
0.0555409124
 20
-29.1211001831
 10
0.0661033904
 20
-29.1184087074
 10
0.0763987711
 20
-29.1154699007
 10
0.0864039203
 20
-29.1122903692
 10
0.0960963588
 20
-29.1088772573
 10
0.1054542973
 20
-29.1052382378
 10
0.114456687
 20
-29.1013814956
 10
0.1230832847
 20
-29.097315703
  0
LINE
  5
238
100
AcDbEntity
  8
RACCORDO
100
AcDbLine
 62
7
  6
CONTINUOUS
 10
-17.8729233472
 20
-21.7627457318
 11
-3.0164380881
 21
-29.1909586516
  0
LINE
  5
239
100
AcDbEntity
  8
RACCORDO
100
AcDbLine
 62
250
  6
CONTINUOUS
 10
-18.1205099428
 20
-21.3492601529
 11
-3.2781128653
 21
-28.7704586917
  0
LINE
  5
23A
100
AcDbEntity
  8
0
100
AcDbLine
 62
7
  6
CONTINUOUS
 10
-1.5715453857
 20
-28.8684553599
 11
-0.1644653786
 21
-29.5719953634
  0
LINE
  5
23B
100
AcDbEntity
  8
0
100
AcDbLine
 62
250
  6
CONTINUOUS
 10
-1.4579338202
 20
-28.8225293407
 11
-0.229438675
 21
-29.4367769133
  0
LINE
  5
23C
100
AcDbEntity
  8
0
100
AcDbLine
 62
250
  6
CONTINUOUS
 10
-0.229438675
 20
-29.0968029792
 11
-1.1001692066
 21
-28.6614377134
  0
LINE
  5
23D
100
AcDbEntity
  8
0
100
AcDbLine
 62
250
  6
CONTINUOUS
 10
-0.1410503273
 20
-28.8651088054
 11
-1.0191423874
 21
-28.4260627753
  0
LINE
  5
23E
100
AcDbEntity
  8
RACCORDO
100
AcDbLine
 62
7
  6
CONTINUOUS
 10
-3.0223487188
 20
-29.1880323453
 11
-3.0217251292
 21
-29.1883448408
  0
LINE
  5
23F
100
AcDbEntity
  8
RACCORDO
100
AcDbLine
 62
250
  6
CONTINUOUS
 10
-17.8729233472
 20
-21.7627457318
 11
-17.8893843806
 21
-21.7539785961
  0
LWPOLYLINE
  5
240
100
AcDbEntity
  8
RACCORDO
100
AcDbPolyline
 62
250
  6
CONTINUOUS
 90
15
 70
0
 10
-17.8893843806
 20
-21.7539785961
 10
-17.9180952707
 20
-21.735916861
 10
-17.9451099774
 20
-21.7152480785
 10
-17.9703710631
 20
-21.6920918095
 10
-17.9938341293
 20
-21.6665674795
 10
-18.0152605163
 20
-21.6390797223
 10
-18.03466665
 20
-21.6098298373
 10
-18.0520858801
 20
-21.5790023712
 10
-18.0674150438
 20
-21.5470974519
 10
-18.0807485946
 20
-21.5143439838
 10
-18.0921851496
 20
-21.480958413
 10
-18.1017314955
 20
-21.4475022676
 10
-18.1095133741
 20
-21.4143251034
 10
-18.1157220855
 20
-21.3815161796
 10
-18.1205099428
 20
-21.3492601529
  0
LWPOLYLINE
  5
241
100
AcDbEntity
  8
RACCORDO
100
AcDbPolyline
 62
7
  6
CONTINUOUS
 90
14
 70
0
 10
-17.709294448
 20
16.4665308629
 10
-17.7760222691
 20
16.4223860715
 10
-17.840305751
 20
16.3718471111
 10
-17.9012770401
 20
16.3157064983
 10
-17.9587394661
 20
16.2543270535
 10
-18.0121375156
 20
16.1885196822
 10
-18.0614406328
 20
16.1185114746
 10
-18.1065131905
 20
16.0445448902
 10
-18.1467151416
 20
15.9677292455
 10
-18.1819415175
 20
15.8883344424
 10
-18.2120179315
 20
15.8066087487
 10
-18.2364353929
 20
15.7237554281
 10
-18.2550115112
 20
15.6403021275
 10
-18.2678344559
 20
15.5543735861
  0
LINE
  5
242
100
AcDbEntity
  8
RACCORDO
100
AcDbLine
 62
7
  6
CONTINUOUS
 10
-17.7094702224
 20
16.4664250949
 11
-16.55743552
 21
17.1607484019
  0
LINE
  5
243
100
AcDbEntity
  8
RACCORDO
100
AcDbLine
 62
250
  6
CONTINUOUS
 10
-17.4698784154
 20
16.4613557586
 11
-16.3212069351
 21
17.153652075
  0
LINE
  5
244
100
AcDbEntity
  8
0
100
AcDbLine
 62
7
  6
CONTINUOUS
 10
-14.2591580229
 20
18.4973509352
 11
-13.6889586962
 21
18.8298293689
  0
LINE
  5
245
100
AcDbEntity
  8
0
100
AcDbLine
 62
250
  6
CONTINUOUS
 10
-14.0252552477
 20
18.4889035005
 11
-13.5818650885
 21
18.7474405748
  0
LINE
  5
246
100
AcDbEntity
  8
0
100
AcDbLine
 62
7
  6
CONTINUOUS
 10
-14.1489721482
 20
19.844697916
 11
-12.5657984829
 21
20.6568959741
  0
LINE
  5
247
100
AcDbEntity
  8
0
100
AcDbLine
 62
250
  6
CONTINUOUS
 10
-14.0358864821
 20
19.8382499408
 11
-12.4531298789
 21
20.6502340382
  0
LINE
  5
248
100
AcDbEntity
  8
0
100
AcDbLine
 62
7
  6
CONTINUOUS
 10
-12.5657984849
 20
20.6568959731
 11
-12.5640620682
 21
20.6577641958
  0
LINE
  5
249
100
AcDbEntity
  8
0
100
AcDbLine
 62
7
  6
CONTINUOUS
 10
-12.564062069
 20
20.6577641954
 11
-12.0291921113
 21
20.9183162958
  0
LINE
  5
24A
100
AcDbEntity
  8
0
100
AcDbLine
 62
250
  6
CONTINUOUS
 10
-12.4531298789
 20
20.6502340382
 11
-11.9186800002
 21
20.9105815047
  0
LWPOLYLINE
  5
24B
100
AcDbEntity
  8
0
100
AcDbPolyline
 62
250
  6
CONTINUOUS
 90
16
 70
0
 10
-14.1487995171
 20
19.844786254
 10
-14.1455571942
 20
19.8463635192
 10
-14.1388105421
 20
19.8491750346
 10
-14.1318283394
 20
19.8514724262
 10
-14.1246263361
 20
19.8532504984
 10
-14.1172209128
 20
19.8545051942
 10
-14.1096290115
 20
19.8552336563
 10
-14.101867948
 20
19.8554342642
 10
-14.0939552148
 20
19.8551066061
 10
-14.085908595
 20
19.8542514328
 10
-14.077745092
 20
19.8528704363
 10
-14.0694843977
 20
19.8509668344
 10
-14.0611488251
 20
19.8485460905
 10
-14.0527585415
 20
19.845614805
 10
-14.0443313995
 20
19.8421799528
 10
-14.0358864821
 20
19.8382499408
  0
LWPOLYLINE
  5
24C
100
AcDbEntity
  8
0
100
AcDbPolyline
 62
7
  6
CONTINUOUS
 90
16
 70
0
 10
-12.5640620682
 20
20.6577641958
 10
-12.5624044399
 20
20.6585517043
 10
-12.555668951
 20
20.6613592422
 10
-12.5487012118
 20
20.6636511038
 10
-12.5415169547
 20
20.6654221236
 10
-12.5341324391
 20
20.6666682987
 10
-12.5265644847
 20
20.6673867639
 10
-12.5188301632
 20
20.667575929
 10
-12.5109469573
 20
20.6672353857
 10
-12.5029328578
 20
20.6663658441
 10
-12.4948059275
 20
20.6649693211
 10
-12.4865845164
 20
20.6630490112
 10
-12.4782874197
 20
20.6606091845
 10
-12.4699334263
 20
20.6576553736
 10
-12.4615412772
 20
20.6541943606
 10
-12.4531298789
 20
20.6502340382
  0
LWPOLYLINE
  5
24D
100
AcDbEntity
  8
0
100
AcDbPolyline
 62
250
  6
CONTINUOUS
 90
16
 70
0
 10
-12.0291921113
 20
20.9183162958
 10
-12.027519388
 20
20.9191107453
 10
-12.0207924576
 20
20.9219123998
 10
-12.013836476
 20
20.9241966809
 10
-12.0066671341
 20
20.9259584224
 10
-11.9993007384
 20
20.9271936044
 10
-11.9917541414
 20
20.9278994143
 10
-11.9840445553
 20
20.9280742835
 10
-11.9761893561
 20
20.9277178584
 10
-11.9682061974
 20
20.9268309545
 10
-11.9601119498
 20
20.9254153303
 10
-11.9519261391
 20
20.9234742867
 10
-11.9436708729
 20
20.9210133896
 10
-11.9353661172
 20
20.9180393402
 10
-11.9270295357
 20
20.9145592076
 10
-11.9186800002
 20
20.9105815047
  0
LWPOLYLINE
  5
24E
100
AcDbEntity
  8
0
100
AcDbPolyline
 62
250
  6
CONTINUOUS
 90
5
 70
0
 10
2.1865206079
 20
-27.7271771778
 10
2.1824268707
 20
-27.7252588726
 10
2.1762101059
 20
-27.7227857512
 10
2.1698028434
 20
-27.7207468725
 10
2.1632174519
 20
-27.7191456561
  0
LINE
  5
24F
100
AcDbEntity
  8
0
100
AcDbLine
 62
7
  6
CONTINUOUS
 10
0.4883309617
 20
-28.1235630148
 11
-1.0194349327
 21
-27.3696980691
  0
LINE
  5
250
100
AcDbEntity
  8
0
100
AcDbLine
 62
7
  6
CONTINUOUS
 10
0.4817819331
 20
-27.4263937748
 11
0.9983953971
 21
-27.6847005068
  0
LINE
  5
251
100
AcDbEntity
  8
0
100
AcDbLine
 62
250
  6
CONTINUOUS
 10
1.7243640755
 20
-27.4997189679
 11
2.1632174519
 21
-27.7191456561
  0
LINE
  5
252
100
AcDbEntity
  8
0
100
AcDbLine
 62
7
  6
CONTINUOUS
 10
1.7243640755
 20
-27.4960988184
 11
2.1866325031
 21
-27.7272330322
  0
LINE
  5
253
100
AcDbEntity
  8
DRAFT
100
AcDbLine
 62
7
  6
CONTINUOUS
 10
-0.5905744103
 20
-25.3355218327
 11
-1.0194349327
 21
-25.1210915715
  0
LINE
  5
254
100
AcDbEntity
  8
0
100
AcDbLine
 62
250
  6
CONTINUOUS
 10
2.1715500443
 20
-27.7236125544
 11
2.1632174519
 21
-27.7191456561
  0
LWPOLYLINE
  5
255
100
AcDbEntity
  8
RACCORDO
100
AcDbPolyline
 62
250
  6
CONTINUOUS
 90
28
 70
0
 10
-18.1205099428
 20
15.3887802067
 10
-18.1157531074
 20
15.4257680963
 10
-18.1095860398
 20
15.464805335
 10
-18.1018553873
 20
15.5058609353
 10
-18.0923686385
 20
15.5490354287
 10
-18.0809986148
 20
15.5941092931
 10
-18.0677367694
 20
15.640537778
 10
-18.0524826446
 20
15.6882069813
 10
-18.0351398293
 20
15.7369806729
 10
-18.015809272
 20
15.786256587
 10
-17.9944555826
 20
15.8358872197
 10
-17.971060219
 20
15.8856845619
 10
-17.9458595251
 20
15.9349954386
 10
-17.9188959609
 20
15.9836585419
 10
-17.8902252062
 20
16.0314927701
 10
-17.860208765
 20
16.0778692795
 10
-17.82895903
 20
16.1226540603
 10
-17.7965842917
 20
16.1657257911
 10
-17.7635229017
 20
16.2065703058
 10
-17.7299271112
 20
16.2451237985
 10
-17.6959259538
 20
16.2813558146
 10
-17.6619724223
 20
16.3149225921
 10
-17.6282164195
 20
16.3458568745
 10
-17.5947800177
 20
16.3742205857
 10
-17.5620914236
 20
16.3998383003
 10
-17.5303680074
 20
16.4227641431
 10
-17.4996033233
 20
16.443221972
 10
-17.4698784154
 20
16.4613557586
  0
LINE
  5
256
100
AcDbEntity
  8
0
100
AcDbLine
 62
250
  6
CONTINUOUS
 10
-10.5792939171
 20
18.7697685178
 11
-10.0510267454
 21
19.4127206736
  0
LINE
  5
257
100
AcDbEntity
  8
0
100
AcDbLine
 62
7
  6
CONTINUOUS
 10
-10.5792939171
 20
18.6802380515
 11
-10.035666173
 21
19.341885507
  0
LWPOLYLINE
  5
258
100
AcDbEntity
  8
0
100
AcDbPolyline
 62
7
  6
CONTINUOUS
 90
41
 70
0
 10
-11.4693540999
 20
18.2056139098
 10
-11.4750927832
 20
18.1989011373
 10
-11.4810185028
 20
18.1922599056
 10
-11.4871299844
 20
18.1856986492
 10
-11.4934285608
 20
18.1792267364
 10
-11.499909616
 20
18.1728518108
 10
-11.5065626436
 20
18.1665798276
 10
-11.5133855282
 20
18.1604195097
 10
-11.5203757305
 20
18.1543794165
 10
-11.5275218472
 20
18.1484653859
 10
-11.5348210315
 20
18.1426862187
 10
-11.5422700493
 20
18.1370505316
 10
-11.5498566578
 20
18.1315640141
 10
-11.5575772532
 20
18.1262354806
 10
-11.5654278887
 20
18.121073535
 10
-11.5733955486
 20
18.1160836865
 10
-11.581475873
 20
18.1112746796
 10
-11.5896641598
 20
18.1066550517
 10
-11.5979466139
 20
18.102230145
 10
-11.606318092
 20
18.0980085592
 10
-11.6147731151
 20
18.0939986836
 10
-11.6232971018
 20
18.0902056897
 10
-11.6318841018
 20
18.0866379417
 10
-11.6405278313
 20
18.0833035906
 10
-11.6492128995
 20
18.0802076209
 10
-11.657932522
 20
18.0773580553
 10
-11.6666795862
 20
18.074762696
 10
-11.675437868
 20
18.0724262977
 10
-11.6841997194
 20
18.0703564144
 10
-11.6929571863
 20
18.0685603631
 10
-11.701693209
 20
18.0670425853
 10
-11.7103992476
 20
18.065810013
 10
-11.7190665126
 20
18.0648693124
 10
-11.7276771625
 20
18.0642244765
 10
-11.7362217164
 20
18.0638816346
 10
-11.7446906113
 20
18.0638466029
 10
-11.7530654567
 20
18.0641227452
 10
-11.7613358601
 20
18.0647151841
 10
-11.769491516
 20
18.065628685
 10
-11.7775137367
 20
18.0668657947
 10
-11.7832219331
 20
18.0679635119
  0
LINE
  5
259
100
AcDbEntity
  8
0
100
AcDbLine
 62
7
  6
CONTINUOUS
 10
-10.5792939171
 20
17.8946627093
 11
-11.4693540999
 21
17.397981788
  0
LWPOLYLINE
  5
25A
100
AcDbEntity
  8
RACCORDO
100
AcDbPolyline
 62
7
  6
CONTINUOUS
 90
9
 70
0
 10
-13.1445344343
 20
15.8516540768
 10
-13.1493944755
 20
15.8490422687
 10
-13.1834698108
 20
15.8280975436
 10
-13.2154955857
 20
15.8035814867
 10
-13.2451047848
 20
15.7756835918
 10
-13.2719496132
 20
15.7446841092
 10
-13.2959782789
 20
15.710519566
 10
-13.3168958625
 20
15.6733492367
 10
-13.3247563192
 20
15.6554267671
  0
LINE
  5
25B
100
AcDbEntity
  8
RACCORDO
100
AcDbLine
 62
7
  6
CONTINUOUS
 10
-13.0707968215
 20
15.8905938104
 11
-13.1444966814
 21
15.8516740125
  0
LINE
  5
25C
100
AcDbEntity
  8
0
100
AcDbLine
 62
7
  6
CONTINUOUS
 10
-8.5993949298
 20
18.2903538617
 11
-9.6538843612
 21
17.749380823
  0
LINE
  5
25D
100
AcDbEntity
  8
0
100
AcDbLine
 62
250
  6
CONTINUOUS
 10
-12.3573484117
 20
18.9989809056
 11
-10.7560676208
 21
19.8017029091
  0
LINE
  5
25E
100
AcDbEntity
  8
0
100
AcDbLine
 62
250
  6
CONTINUOUS
 10
-12.180574708
 20
18.6940913668
 11
-10.5792939171
 21
19.4968133703
  0
LINE
  5
25F
100
AcDbEntity
  8
0
100
AcDbLine
 62
250
  6
CONTINUOUS
 10
-10.7560676208
 20
19.8017029091
 11
-10.2278004491
 21
20.0651417291
  0
LINE
  5
260
100
AcDbEntity
  8
0
100
AcDbLine
 62
250
  6
CONTINUOUS
 10
-10.5792939171
 20
19.4968133703
 11
-10.0510267454
 21
19.7602521903
  0
LWPOLYLINE
  5
261
100
AcDbEntity
  8
RACCORDO
100
AcDbPolyline
 62
250
  6
CONTINUOUS
 90
8
 70
0
 10
-17.709294464
 20
16.4665308897
 10
-17.6810562688
 20
16.4803822466
 10
-17.650034046
 20
16.4895647879
 10
-17.6168403257
 20
16.4938134372
 10
-17.5818379408
 20
16.4930817535
 10
-17.5454094944
 20
16.4873777346
 10
-17.5079531771
 20
16.47676373
 10
-17.4698784154
 20
16.4613557586
  0
LINE
  5
262
100
AcDbEntity
  8
0
100
AcDbLine
 62
7
  6
CONTINUOUS
 10
-3.2631715239
 20
20.8897973272
 11
-8.5993949298
 21
18.2903538617
  0
LINE
  5
263
100
AcDbEntity
  8
DRAFT
100
AcDbLine
 62
7
  6
CONTINUOUS
 10
-2.4121925381
 20
21.888982982
 11
-9.8893912646
 21
18.2517797758
  0
LINE
  5
264
100
AcDbEntity
  8
RACCORDO
100
AcDbLine
 62
7
  6
CONTINUOUS
 10
-0.1105539898
 20
22.3687533316
 11
-1.533654116
 21
21.6976232545
  0
LINE
  5
265
100
AcDbEntity
  8
RACCORDO
100
AcDbLine
 62
250
  6
CONTINUOUS
 10
0.3283307607
 20
22.3363503966
 11
-1.2872765429
 21
21.5744344679
  0
LWPOLYLINE
  5
266
100
AcDbEntity
  8
RACCORDO
100
AcDbPolyline
 62
250
  6
CONTINUOUS
 90
26
 70
0
 10
0.3283307607
 20
22.3363503966
 10
0.3476033652
 20
22.3452526583
 10
0.3668524774
 20
22.3534998529
 10
0.3860637838
 20
22.3610858465
 10
0.4052229915
 20
22.3680049939
 10
0.4243158614
 20
22.3742521519
 10
0.443328219
 20
22.3798226798
 10
0.4622459462
 20
22.3847124362
 10
0.4810549552
 20
22.3889177748
 10
0.499741222
 20
22.3924355582
 10
0.5182908385
 20
22.3952631687
 10
0.5366900245
 20
22.3973985066
 10
0.5549251007
 20
22.3988399841
 10
0.572982509
 20
22.399586529
 10
0.5908488202
 20
22.399637586
 10
0.6085107467
 20
22.3989931167
 10
0.6259551543
 20
22.3976536006
 10
0.6431690722
 20
22.3956200337
 10
0.6601397001
 20
22.3928939282
 10
0.6768544186
 20
22.3894773111
 10
0.6933007988
 20
22.3853727231
 10
0.7094666111
 20
22.3805832163
 10
0.7253398346
 20
22.3751123523
 10
0.740908666
 20
22.3689641991
 10
0.7561615283
 20
22.3621433284
 10
0.7632036413
 20
22.3587137262
  0
LWPOLYLINE
  5
267
100
AcDbEntity
  8
0
100
AcDbPolyline
 62
7
  6
CONTINUOUS
 90
7
 70
0
 10
-2.5911388106
 20
20.583021434
 10
-2.5963074243
 20
20.5809878592
 10
-2.6014850552
 20
20.5788565814
 10
-2.6066717032
 20
20.5766276006
 10
-2.6118673684
 20
20.5743009168
 10
-2.6170720507
 20
20.5718765301
 10
-2.6222857502
 20
20.5693544403
  0
LWPOLYLINE
  5
268
100
AcDbEntity
  8
0
100
AcDbPolyline
 62
7
  6
CONTINUOUS
 90
3
 70
0
 10
-3.2299688262
 20
20.9040787319
 10
-3.2190589993
 20
20.9077963709
 10
-3.2077783009
 20
20.91092752
  0
LINE
  5
269
100
AcDbEntity
  8
RACCORDO
100
AcDbLine
 62
250
  6
CONTINUOUS
 10
1.351679663
 20
-24.4783826511
 11
0.3837442616
 21
-23.9944149504
  0
LINE
  5
26A
100
AcDbEntity
  8
RACCORDO
100
AcDbLine
 62
250
  6
CONTINUOUS
 10
1.6183007507
 20
-23.9313880034
 11
0.6637039037
 21
-23.4540895799
  0
LINE
  5
26B
100
AcDbEntity
  8
SUPERFICI
100
AcDbLine
 62
7
  6
CONTINUOUS
 10
-9.0707007826
 20
-18.1960882703
 11
-10.8591631071
 21
-17.301857108
  0
LINE
  5
26C
100
AcDbEntity
  8
RACCORDO
100
AcDbLine
 62
7
  6
CONTINUOUS
 10
-9.0707007826
 20
-18.1960882703
 11
-10.8591631071
 21
-17.301857108
  0
LINE
  5
26D
100
AcDbEntity
  8
SUPERFICI
100
AcDbLine
 62
7
  6
CONTINUOUS
 10
-11.8491126108
 20
-16.8068823561
 11
-13.6377163668
 21
-15.9125804782
  0
LINE
  5
26E
100
AcDbEntity
  8
RACCORDO
100
AcDbLine
 62
7
  6
CONTINUOUS
 10
-11.8491126108
 20
-16.8068823561
 11
-13.6377163668
 21
-15.9125804782
  0
LWPOLYLINE
  5
26F
100
AcDbEntity
  8
DRAFT
100
AcDbPolyline
 62
7
  6
CONTINUOUS
 90
20
 70
0
 10
-10.8591631071
 20
-17.301857108
 10
-10.8876942437
 20
-17.2851737618
 10
-10.9150188627
 20
-17.2651266992
 10
-10.9411361097
 20
-17.2417154487
 10
-10.9664740331
 20
-17.214387682
 10
-10.9906011429
 20
-17.1836938307
 10
-11.0122271092
 20
-17.1512874727
 10
-11.0311756524
 20
-17.1171271188
 10
-11.0476183729
 20
-17.081251687
 10
-11.0607882341
 20
-17.0454361793
 10
-11.0705239931
 20
-17.0097034674
 10
-11.0769836874
 20
-16.9740289291
 10
-11.079882053
 20
-16.9401178936
 10
-11.0790565329
 20
-16.9080347906
 10
-11.074669661
 20
-16.8777151901
 10
-11.0669272457
 20
-16.850673013
 10
-11.0556869166
 20
-16.8270781803
 10
-11.0410943535
 20
-16.8067625881
 10
-11.0237902707
 20
-16.7907346641
 10
-11.0202299359
 20
-16.7882404844
  0
LWPOLYLINE
  5
270
100
AcDbEntity
  8
DRAFT
100
AcDbPolyline
 62
7
  6
CONTINUOUS
 90
21
 70
0
 10
-11.8656182666
 20
-16.2955199316
 10
-11.8370965248
 20
-16.3122134273
 10
-11.8098041289
 20
-16.3322811524
 10
-11.7837402244
 20
-16.3557226424
 10
-11.7584759674
 20
-16.383089232
 10
-11.7344367606
 20
-16.4138277139
 10
-11.7129029517
 20
-16.4462807178
 10
-11.6940466491
 20
-16.4804877935
 10
-11.6776910654
 20
-16.5164068376
 10
-11.6645946761
 20
-16.5522587994
 10
-11.6549157481
 20
-16.5880192057
 10
-11.6484928088
 20
-16.6237107691
 10
-11.6456075767
 20
-16.6576267737
 10
-11.6464225691
 20
-16.6897030175
 10
-11.6507752444
 20
-16.7200036768
 10
-11.658463168
 20
-16.7470164853
 10
-11.6696322879
 20
-16.7705735997
 10
-11.684139965
 20
-16.7908446706
 10
-11.7013537154
 20
-16.806825229
 10
-11.7214798295
 20
-16.8183216854
 10
-11.7300362826
 20
-16.8216334003
  0
LWPOLYLINE
  5
271
100
AcDbEntity
  8
SUPERFICI
100
AcDbPolyline
 62
7
  6
CONTINUOUS
 90
20
 70
0
 10
-10.8591641564
 20
-17.3018565834
 10
-10.8891323344
 20
-17.2838247937
 10
-10.9173895914
 20
-17.2628523265
 10
-10.9439350509
 20
-17.2389386985
 10
-10.9689966333
 20
-17.2116673272
 10
-10.9923430824
 20
-17.1814529567
 10
-11.0132845872
 20
-17.1495420008
 10
-11.0318509065
 20
-17.1158028482
 10
-11.0480077467
 20
-17.0803646186
 10
-11.0609704958
 20
-17.0448655277
 10
-11.070594585
 20
-17.009233353
 10
-11.0770211693
 20
-16.9735384521
 10
-11.0798970394
 20
-16.9396344599
 10
-11.0790171786
 20
-16.90763733
 10
-11.0745866739
 20
-16.8774311595
 10
-11.0668710531
 20
-16.8505237603
 10
-11.055724975
 20
-16.8271228675
 10
-11.0412972058
 20
-16.8070226261
 10
-11.0242971869
 20
-16.7911119635
 10
-11.0202413921
 20
-16.7882210665
  0
LWPOLYLINE
  5
272
100
AcDbEntity
  8
SUPERFICI
100
AcDbPolyline
 62
7
  6
CONTINUOUS
 90
19
 70
0
 10
-11.8656172161
 20
-16.2955204569
 10
-11.8356637577
 20
-16.3135625291
 10
-11.8074423
 20
-16.3345557395
 10
-11.7809519666
 20
-16.3584996116
 10
-11.7559636131
 20
-16.3858099613
 10
-11.7327030481
 20
-16.4160691573
 10
-11.7118516559
 20
-16.4480264593
 10
-11.6933759942
 20
-16.4818111472
 10
-11.6773049712
 20
-16.5172914663
 10
-11.6644147739
 20
-16.5528258175
 10
-11.6548468241
 20
-16.5884848024
 10
-11.6484562859
 20
-16.6241959452
 10
-11.6455927765
 20
-16.6581045672
 10
-11.6464613412
 20
-16.6900953162
 10
-11.6508570023
 20
-16.7202835691
 10
-11.6585179223
 20
-16.7471627017
 10
-11.6695934089
 20
-16.7705270328
 10
-11.6839375789
 20
-16.7905841147
 10
-11.7008485627
 20
-16.8064486872
  0
LINE
  5
273
100
AcDbEntity
  8
DRAFT
100
AcDbLine
 62
7
  6
CONTINUOUS
 10
-11.4434959785
 20
-20.1103928962
 11
-11.4796600506
 21
-20.0597497998
  0
LWPOLYLINE
  5
274
100
AcDbEntity
  8
SUPERFICI
100
AcDbPolyline
 62
7
  6
CONTINUOUS
 90
19
 70
0
 10
-11.3172412918
 20
-19.6832989982
 10
-11.3082201245
 20
-19.6963675089
 10
-11.2986506399
 20
-19.7088660144
 10
-11.288533072
 20
-19.7207946538
 10
-11.2777753835
 20
-19.732278434
 10
-11.2664699928
 20
-19.7431925749
 10
-11.254893823
 20
-19.7531625388
 10
-11.2430393439
 20
-19.7621474733
 10
-11.2309143707
 20
-19.7701884004
 10
-11.2188188337
 20
-19.777033587
 10
-11.2067676857
 20
-19.7826434562
 10
-11.1947459903
 20
-19.7870575946
 10
-11.183008776
 20
-19.7901429728
 10
-11.1715119092
 20
-19.7918489853
 10
-11.1602992262
 20
-19.7922260604
 10
-11.1497576739
 20
-19.7912926982
 10
-11.1400160973
 20
-19.7890549836
 10
-11.1309451961
 20
-19.7855065608
 10
-11.1225446872
 20
-19.7806472611
  0
LWPOLYLINE
  5
275
100
AcDbEntity
  8
DRAFT
100
AcDbPolyline
 62
7
  6
CONTINUOUS
 90
25
 70
0
 10
-11.3172414033
 20
-19.6832988295
 10
-11.3100737803
 20
-19.6937255448
 10
-11.3026307858
 20
-19.7037508334
 10
-11.2949125419
 20
-19.7133747677
 10
-11.2868835812
 20
-19.722636329
 10
-11.2785795815
 20
-19.7314966612
 10
-11.2701073774
 20
-19.7398390784
 10
-11.261467184
 20
-19.7476538412
 10
-11.2526589517
 20
-19.7549507874
 10
-11.2437891134
 20
-19.7616425941
 10
-11.2348585386
 20
-19.767721227
 10
-11.2258664468
 20
-19.7731947733
 10
-11.2169167779
 20
-19.7780000813
 10
-11.2080096438
 20
-19.7821302077
 10
-11.1991449327
 20
-19.7855920959
 10
-11.1904262273
 20
-19.7883434112
 10
-11.1818532308
 20
-19.7903760138
 10
-11.173426151
 20
-19.7916979905
 10
-11.165249309
 20
-19.7922913357
 10
-11.1573241837
 20
-19.7921449808
 10
-11.1496491303
 20
-19.7912698956
 10
-11.1423237796
 20
-19.7896811284
 10
-11.1353812758
 20
-19.7873836562
 10
-11.1287882642
 20
-19.7843723768
 10
-11.1225446227
 20
-19.7806472176
  0
LWPOLYLINE
  5
276
100
AcDbEntity
  8
SUPERFICI
100
AcDbPolyline
 62
7
  6
CONTINUOUS
 90
10
 70
0
 10
-11.4796599815
 20
-20.0597499036
 10
-11.7737136089
 20
-19.616842097
 10
-12.0668065788
 20
-19.1732373861
 10
-12.3589383766
 20
-18.7289407829
 10
-12.6501104755
 20
-18.283958978
 10
-12.9403204447
 20
-17.8382953525
 10
-13.2295618558
 20
-17.391949923
 10
-13.517832182
 20
-16.9449260194
 10
-13.8051328915
 20
-16.4972303384
 10
-14.0914634909
 20
-16.0488679174
  0
LWPOLYLINE
  5
277
100
AcDbEntity
  8
DRAFT
100
AcDbPolyline
 62
7
  6
CONTINUOUS
 90
9
 70
0
 10
-11.4796600506
 20
-20.0597497998
 10
-11.7737015834
 20
-19.6168602456
 10
-12.0667885353
 20
-19.1732647547
 10
-12.3589203269
 20
-18.7289683004
 10
-12.6501021937
 20
-18.283971672
 10
-12.9403277849
 20
-17.8382840595
 10
-13.2295792088
 20
-17.3919230794
 10
-13.5178502139
 20
-16.9448979837
 10
-13.8051461421
 20
-16.4972096327
  0
LINE
  5
278
100
AcDbEntity
  8
SUPERFICI
100
AcDbLine
 62
7
  6
CONTINUOUS
 10
-11.5829261171
 20
-19.2802175469
 11
-11.3172412918
 21
-19.6832989982
  0
LWPOLYLINE
  5
279
100
AcDbEntity
  8
RACCORDO
100
AcDbPolyline
 62
7
  6
CONTINUOUS
 90
10
 70
0
 10
-11.3172414033
 20
-19.6832988295
 10
-11.5829228751
 20
-19.2802224873
 10
-11.847810671
 20
-18.8765746163
 10
-12.1119043892
 20
-18.4723589597
 10
-12.375208174
 20
-18.0675758235
 10
-12.6377171054
 20
-17.6622324095
 10
-12.8994172369
 20
-17.2563428373
 10
-13.160303725
 20
-16.8499143557
 10
-13.4203807919
 20
-16.4429473207
 10
-13.679648141
 20
-16.0354455445
  0
LWPOLYLINE
  5
27A
100
AcDbEntity
  8
SUPERFICI
100
AcDbPolyline
 62
7
  6
CONTINUOUS
 90
8
 70
0
 10
-13.4203701552
 20
-16.4429640071
 10
-13.1602873658
 20
-16.8499399018
 10
-12.899400134
 20
-17.2563694221
 10
-12.6377074181
 20
-17.6622473965
 10
-12.3752110025
 20
-18.0675714611
 10
-12.1119154314
 20
-18.4723420217
 10
-11.8478224198
 20
-18.8765566776
 10
-11.5829309205
 20
-19.2802102594
  0
LINE
  5
27B
100
AcDbEntity
  8
DRAFT
100
AcDbLine
 62
7
  6
CONTINUOUS
 10
-13.8051461421
 20
-16.4972096327
 11
-14.0914665605
 21
-16.0488630979
  0
LINE
  5
27C
100
AcDbEntity
  8
SUPERFICI
100
AcDbLine
 62
7
  6
CONTINUOUS
 10
-13.6796481552
 20
-16.0354455222
 11
-13.4203761983
 21
-16.4429545088
  0
LWPOLYLINE
  5
27D
100
AcDbEntity
  8
SUPERFICI
100
AcDbPolyline
 62
7
  6
CONTINUOUS
 90
24
 70
0
 10
-14.0914634909
 20
-16.0488679174
 10
-14.1140834769
 20
-16.0115733296
 10
-14.1349373421
 20
-15.9736786817
 10
-14.154023709
 20
-15.9351832102
 10
-14.1714279279
 20
-15.8958663268
 10
-14.1870615443
 20
-15.8559469027
 10
-14.200662937
 20
-15.8160836239
 10
-14.2121910411
 20
-15.7762921213
 10
-14.2216847638
 20
-15.7365555807
 10
-14.2290036109
 20
-15.6974846703
 10
-14.2341145145
 20
-15.6590911699
 10
-14.2370495577
 20
-15.6213627715
 10
-14.2377672815
 20
-15.5848747356
 10
-14.2362349409
 20
-15.5496450997
 10
-14.2324856396
 20
-15.5156560413
 10
-14.2265780317
 20
-15.483429769
 10
-14.2184801701
 20
-15.4529930817
 10
-14.2082256467
 20
-15.4243200999
 10
-14.1959726539
 20
-15.3978546894
 10
-14.1816913718
 20
-15.3736311712
 10
-14.1654142551
 20
-15.35161668
 10
-14.1473938961
 20
-15.3321548418
 10
-14.1276070224
 20
-15.3152866091
 10
-14.118733537
 20
-15.3089336624
  0
LWPOLYLINE
  5
27E
100
AcDbEntity
  8
DRAFT
100
AcDbPolyline
 62
7
  6
CONTINUOUS
 90
16
 70
0
 10
-14.0914665605
 20
-16.0488630979
 10
-14.1225359009
 20
-15.9964636834
 10
-14.1500163266
 20
-15.94346766
 10
-14.17390467
 20
-15.8898732755
 10
-14.1943533192
 20
-15.8351203859
 10
-14.2112024683
 20
-15.7797650427
 10
-14.2239826512
 20
-15.725480899
 10
-14.2325598054
 20
-15.6723514274
 10
-14.2370649454
 20
-15.62029151
 10
-14.2374307837
 20
-15.5707244436
 10
-14.2335563899
 20
-15.5237161383
 10
-14.2255442092
 20
-15.4792015623
 10
-14.2136365254
 20
-15.4384100815
 10
-14.1977368468
 20
-15.4014378281
 10
-14.1779472632
 20
-15.3681917771
 10
-14.1548117111
 20
-15.3396196272
  0
LWPOLYLINE
  5
27F
100
AcDbEntity
  8
RACCORDO
100
AcDbPolyline
 62
250
  6
CONTINUOUS
 90
7
 70
0
 10
-18.266878572
 20
-21.1732487368
 10
-18.2626328395
 20
-21.1950358995
 10
-18.2490378695
 20
-21.2309086123
 10
-18.2276170847
 20
-21.2648005321
 10
-18.198721092
 20
-21.2961569294
 10
-18.1628228494
 20
-21.3244645751
 10
-18.1205099253
 20
-21.349260141
  0
LWPOLYLINE
  5
280
100
AcDbEntity
  8
RACCORDO
100
AcDbPolyline
 62
7
  6
CONTINUOUS
 90
11
 70
0
 10
-18.26687812
 20
-21.1732486791
 10
-18.2593860212
 20
-21.2218314822
 10
-18.2399538376
 20
-21.305555186
 10
-18.2133579996
 20
-21.3839147296
 10
-18.1803303876
 20
-21.4562598336
 10
-18.1413671293
 20
-21.5226570612
 10
-18.0965584766
 20
-21.5835378152
 10
-18.0465619094
 20
-21.6383330639
 10
-17.9919733858
 20
-21.6867318934
 10
-17.9325587468
 20
-21.7290425113
 10
-17.8720847391
 20
-21.7631622778
  0
LWPOLYLINE
  5
281
100
AcDbEntity
  8
RACCORDO
100
AcDbPolyline
 62
250
  6
CONTINUOUS
 90
7
 70
0
 10
-18.9427038242
 20
-11.3922369328
 10
-18.9374332153
 20
-11.4273257785
 10
-18.9241320799
 20
-11.4592045107
 10
-18.902955984
 20
-11.4898642278
 10
-18.8742513565
 20
-11.5188033543
 10
-18.8384877886
 20
-11.5455484624
 10
-18.7962503522
 20
-11.5696620175
  0
LINE
  5
282
100
AcDbEntity
  8
RACCORDO
100
AcDbLine
 62
7
  6
CONTINUOUS
 10
-18.2669304127
 20
-21.1728440966
 11
-18.266878572
 21
-21.1732487368
  0
LWPOLYLINE
  5
283
100
AcDbEntity
  8
RACCORDO
100
AcDbPolyline
 62
250
  6
CONTINUOUS
 90
10
 70
0
 10
-18.1205099428
 20
-21.3492601529
 10
-18.2471057362
 20
-20.2968884971
 10
-18.3608707705
 20
-19.2354251496
 10
-18.4617802346
 20
-18.165094338
 10
-18.5498115485
 20
-17.0861225001
 10
-18.624946101
 20
-15.9987370652
 10
-18.6871692409
 20
-14.903166398
 10
-18.7364679751
 20
-13.7996413163
 10
-18.7728309849
 20
-12.6883950506
 10
-18.7962503523
 20
-11.5696620175
  0
LWPOLYLINE
  5
284
100
AcDbEntity
  8
RACCORDO
100
AcDbPolyline
 62
250
  6
CONTINUOUS
 90
9
 70
0
 10
-19.0041219251
 20
-2.7658370387
 10
-19.0029233443
 20
-2.7826286665
 10
-18.9967301626
 20
-2.8075626447
 10
-18.9853862761
 20
-2.8320558257
 10
-18.9690118102
 20
-2.8558811532
 10
-18.9477918472
 20
-2.8787967145
 10
-18.9219735874
 20
-2.9005771156
 10
-18.8918119804
 20
-2.9210013502
 10
-18.8576550547
 20
-2.9398580715
  0
LWPOLYLINE
  5
285
100
AcDbEntity
  8
RACCORDO
100
AcDbPolyline
 62
7
  6
CONTINUOUS
 90
11
 70
0
 10
-19.0041219406
 20
-2.7658587116
 10
-19.0024070516
 20
-2.796221886
 10
-18.9959638703
 20
-2.8317308358
 10
-18.9847751585
 20
-2.8664966165
 10
-18.9689776616
 20
-2.8999716045
 10
-18.9487600381
 20
-2.9317182115
 10
-18.9242799338
 20
-2.9614713444
 10
-18.895735508
 20
-2.9890080914
 10
-18.8631887422
 20
-3.0142455419
 10
-18.8265440324
 20
-3.0371544309
 10
-18.8057131772
 20
-3.0481918603
  0
LWPOLYLINE
  5
286
100
AcDbEntity
  8
RACCORDO
100
AcDbPolyline
 62
250
  6
CONTINUOUS
 90
8
 70
0
 10
-18.8576734463
 20
-2.9398672445
 10
-18.8565333226
 20
-2.9614211779
 10
-18.8530952955
 20
-2.9814666063
 10
-18.8474156821
 20
-2.9996751717
 10
-18.8395875186
 20
-3.015748605
 10
-18.8297390358
 20
-3.0294236122
 10
-18.8180315586
 20
-3.0404761871
 10
-18.8057192838
 20
-3.0482040275
  0
LWPOLYLINE
  5
287
100
AcDbEntity
  8
RACCORDO
100
AcDbPolyline
 62
250
  6
CONTINUOUS
 90
6
 70
0
 10
-18.8082484098
 20
-3.4714690566
 10
-18.8088007618
 20
-3.4552262222
 10
-18.8062343631
 20
-3.4391627529
 10
-18.8004246572
 20
-3.4232939826
 10
-18.7914962006
 20
-3.4076045775
 10
-18.7798011458
 20
-3.3926002262
  0
LWPOLYLINE
  5
288
100
AcDbEntity
  8
RACCORDO
100
AcDbPolyline
 62
7
  6
CONTINUOUS
 90
10
 70
0
 10
-18.942703798
 20
-11.3922367617
 10
-18.9206869144
 20
-12.4581271169
 10
-18.8843427614
 20
-13.5853232115
 10
-18.8346925763
 20
-14.7046919632
 10
-18.7717441178
 20
-15.8159592498
 10
-18.6955090127
 20
-16.9189007921
 10
-18.605998819
 20
-18.013310731
 10
-18.503227667
 20
-19.0989657273
 10
-18.3872198288
 20
-20.1756013054
 10
-18.2669304127
 20
-21.1728440966
  0
LWPOLYLINE
  5
289
100
AcDbEntity
  8
RACCORDO
100
AcDbPolyline
 62
250
  6
CONTINUOUS
 90
10
 70
0
 10
-18.7962503523
 20
-11.5696620175
 10
-18.8085315402
 20
-10.710572315
 10
-18.8194486631
 20
-9.8507261356
 10
-18.8290016967
 20
-8.9901269288
 10
-18.8371905977
 20
-8.128780873
 10
-18.8440153869
 20
-7.2666887016
 10
-18.8494761046
 20
-6.4038456799
 10
-18.8535727204
 20
-5.540252515
 10
-18.8563051778
 20
-4.6759153786
 10
-18.8576734463
 20
-3.8108377169
  0
LWPOLYLINE
  5
28A
100
AcDbEntity
  8
RACCORDO
100
AcDbPolyline
 62
250
  6
CONTINUOUS
 90
8
 70
0
 10
-18.9427055977
 20
5.0607648211
 10
-18.9426417623
 20
5.0547158904
 10
-18.9374331842
 20
5.0235578444
 10
-18.9241320474
 20
4.9928869883
 10
-18.902955951
 20
4.9632050796
 10
-18.8742513238
 20
4.9349976976
 10
-18.8384877572
 20
4.9087262989
 10
-18.7962503227
 20
4.8848206685
  0
LWPOLYLINE
  5
28B
100
AcDbEntity
  8
RACCORDO
100
AcDbPolyline
 62
7
  6
CONTINUOUS
 90
10
 70
0
 10
-19.0041219003
 20
-3.6314517246
 10
-19.0028925833
 20
-4.438301308
 10
-19.0001906534
 20
-5.3196257217
 10
-18.9960704653
 20
-6.2001827469
 10
-18.9905320284
 20
-7.0799683143
 10
-18.9835753616
 20
-7.9589790184
 10
-18.9752004837
 20
-8.8372116518
 10
-18.9654074198
 20
-9.7146627249
 10
-18.9541962146
 20
-10.591328088
 10
-18.9427038242
 20
-11.3922369328
  0
LWPOLYLINE
  5
28C
100
AcDbEntity
  8
RACCORDO
100
AcDbPolyline
 62
250
  6
CONTINUOUS
 90
10
 70
0
 10
-18.8576734463
 20
-2.9398672445
 10
-18.8563051778
 20
-2.0733223927
 10
-18.8535727204
 20
-1.2060552602
 10
-18.8494761046
 20
-0.3380693235
 10
-18.8440153869
 20
0.5306291895
 10
-18.8371905977
 20
1.4000395409
 10
-18.8290016967
 20
2.2701665046
 10
-18.8194486631
 20
3.1410093677
 10
-18.8085315402
 20
4.0125619088
 10
-18.7962503523
 20
4.8848206544
  0
LWPOLYLINE
  5
28D
100
AcDbEntity
  8
RACCORDO
100
AcDbPolyline
 62
7
  6
CONTINUOUS
 90
10
 70
0
 10
-18.9427056242
 20
5.0607649407
 10
-18.95428193
 20
4.2412688155
 10
-18.9654826804
 20
3.3526185441
 10
-18.9752653842
 20
2.4646993494
 10
-18.9836299841
 20
1.5775154329
 10
-18.9905764428
 20
0.6910703146
 10
-18.9961047292
 20
-0.1946327706
 10
-19.000214812
 20
-1.0795903879
 10
-19.0029066692
 20
-1.9637984476
 10
-19.0041219251
 20
-2.7658370387
  0
LWPOLYLINE
  5
28E
100
AcDbEntity
  8
RACCORDO
100
AcDbPolyline
 62
250
  6
CONTINUOUS
 90
10
 70
0
 10
-18.7962503523
 20
4.8848206544
 10
-18.7728309849
 20
6.0286594164
 10
-18.7364679751
 20
7.1788848995
 10
-18.6871692409
 20
8.3352547689
 10
-18.624946101
 20
9.4975256126
 10
-18.5498115485
 20
10.6654524825
 10
-18.4617802346
 20
11.8387889515
 10
-18.3608707705
 20
13.017287842
 10
-18.2471057362
 20
14.2007012732
 10
-18.1205099428
 20
15.3887802067
  0
LWPOLYLINE
  5
28F
100
AcDbEntity
  8
RACCORDO
100
AcDbPolyline
 62
250
  6
CONTINUOUS
 90
8
 70
0
 10
-18.2678344559
 20
15.5543735861
 10
-18.268179077
 20
15.5409103786
 10
-18.2626324003
 20
15.5147745467
 10
-18.249037402
 20
15.488380688
 10
-18.2276165995
 20
15.4621608061
 10
-18.1987205996
 20
15.4365440574
 10
-18.1628223603
 20
15.4119497262
 10
-18.1205094491
 20
15.3887803624
  0
LWPOLYLINE
  5
290
100
AcDbEntity
  8
RACCORDO
100
AcDbPolyline
 62
250
  6
CONTINUOUS
 90
13
 70
0
 10
-18.8576734463
 20
-3.8108377169
 10
-18.8565331895
 20
-3.7881423913
 10
-18.8530948182
 20
-3.7646577976
 10
-18.8474147168
 20
-3.7407686804
 10
-18.8395859803
 20
-3.7168663673
 10
-18.829736914
 20
-3.6933424429
 10
-18.8180289527
 20
-3.6705823283
 10
-18.8046539559
 20
-3.6489588365
 10
-18.7898310638
 20
-3.6288261148
 10
-18.7738031564
 20
-3.6105139155
 10
-18.7568328227
 20
-3.5943221177
 10
-18.7391980491
 20
-3.5805158287
 10
-18.7211876955
 20
-3.5693210783
  0
LWPOLYLINE
  5
291
100
AcDbEntity
  8
RACCORDO
100
AcDbPolyline
 62
7
  6
CONTINUOUS
 90
10
 70
0
 10
-18.2678184115
 20
15.5545217779
 10
-18.3885582932
 20
14.4237579968
 10
-18.5043040516
 20
13.2247018544
 10
-18.6068526608
 20
12.0305978214
 10
-18.6961752669
 20
10.8417382176
 10
-18.7722530778
 20
9.6583646547
 10
-18.8350698479
 20
8.4806994841
 10
-18.8846094143
 20
7.3089824293
 10
-18.9208595337
 20
6.1434981371
 10
-18.9427055977
 20
5.0607648211
  0
LWPOLYLINE
  5
292
100
AcDbEntity
  8
0
100
AcDbPolyline
 62
250
  6
CONTINUOUS
 90
30
 70
0
 10
-12.180574708
 20
18.3541174327
 10
-12.1849911954
 20
18.3432353721
 10
-12.1897947977
 20
18.3325757749
 10
-12.1949749419
 20
18.322162826
 10
-12.2005206185
 20
18.3120194385
 10
-12.2064191826
 20
18.3021694719
 10
-12.2126561242
 20
18.2926374508
 10
-12.2192168207
 20
18.2834456217
 10
-12.2260869559
 20
18.2746139459
 10
-12.2332511709
 20
18.2661621902
 10
-12.2406934143
 20
18.258109349
 10
-12.2483968094
 20
18.2504737399
 10
-12.2563438206
 20
18.2432727644
 10
-12.2645164476
 20
18.2365227257
 10
-12.2728963007
 20
18.2302388055
 10
-12.2814644828
 20
18.2244351763
 10
-12.2902016672
 20
18.2191249342
 10
-12.29908812
 20
18.2143200783
 10
-12.3081037631
 20
18.2100314664
 10
-12.3172282385
 20
18.206268782
 10
-12.3264409561
 20
18.2030405152
 10
-12.3357211203
 20
18.2003539532
 10
-12.3450477829
 20
18.1982151604
 10
-12.3543998907
 20
18.1966289648
 10
-12.3637563328
 20
18.1955989471
 10
-12.3730959995
 20
18.195127432
 10
-12.3823977975
 20
18.1952154855
 10
-12.391640697
 20
18.1958629056
 10
-12.4008038136
 20
18.1970682213
 10
-12.4074182015
 20
18.1982962719
  0
LINE
  5
293
100
AcDbEntity
  8
0
100
AcDbLine
 62
7
  6
CONTINUOUS
 10
-8.2811968783
 20
16.3693675652
 11
-8.9883036595
 21
15.9704277064
  0
LINE
  5
294
100
AcDbEntity
  8
0
100
AcDbLine
 62
7
  6
CONTINUOUS
 10
-8.9883036595
 20
17.4165904721
 11
-8.1405982735
 21
17.8464833688
  0
LINE
  5
295
100
AcDbEntity
  8
0
100
AcDbLine
 62
250
  6
CONTINUOUS
 10
-6.5142526768
 20
17.0333105705
 11
-6.301297891
 21
17.1413053423
  0
LINE
  5
296
100
AcDbEntity
  8
0
100
AcDbLine
 62
250
  6
CONTINUOUS
 10
-6.3720085691
 20
16.7898091185
 11
-6.1598765347
 21
16.8973866522
  0
LINE
  5
297
100
AcDbEntity
  8
0
100
AcDbLine
 62
7
  6
CONTINUOUS
 10
-1.5877061244
 20
18.779035003
 11
-0.4837392553
 21
19.3310184376
  0
LWPOLYLINE
  5
298
100
AcDbEntity
  8
RACCORDO
100
AcDbPolyline
 62
7
  6
CONTINUOUS
 90
6
 70
0
 10
-2.4830390461
 20
18.0399653343
 10
-2.4903236853
 20
18.036372361
 10
-2.4984050582
 20
18.0318170143
 10
-2.5062066578
 20
18.0267915717
 10
-2.5137265283
 20
18.0212975371
 10
-2.5210482698
 20
18.0152586164
  0
LINE
  5
299
100
AcDbEntity
  8
0
100
AcDbLine
 62
7
  6
CONTINUOUS
 10
-2.6222857502
 20
20.5693544403
 11
-7.2205367065
 21
18.3029931428
  0
LINE
  5
29A
100
AcDbEntity
  8
0
100
AcDbLine
 62
7
  6
CONTINUOUS
 10
-2.5536319507
 20
19.2175515112
 11
-2.5911388106
 21
19.199065331
  0
LINE
  5
29B
100
AcDbEntity
  8
0
100
AcDbLine
 62
250
  6
CONTINUOUS
 10
-6.301297891
 20
17.1413053423
 11
-5.5941911098
 21
17.4898203445
  0
LINE
  5
29C
100
AcDbEntity
  8
0
100
AcDbLine
 62
7
  6
CONTINUOUS
 10
0.5617516438
 20
20.4020108911
 11
-1.5877061244
 21
19.3425976614
  0
LINE
  5
29D
100
AcDbEntity
  8
0
100
AcDbLine
 62
250
  6
CONTINUOUS
 10
-6.1598765347
 20
16.8973866522
 11
-5.4527697535
 21
17.2459016544
  0
LINE
  5
29E
100
AcDbEntity
  8
RACCORDO
100
AcDbLine
 62
250
  6
CONTINUOUS
 10
-2.210079614
 20
18.0486863657
 11
-2.163149372
 21
18.0713339521
  0
LINE
  5
29F
100
AcDbEntity
  8
RACCORDO
100
AcDbLine
 62
250
  6
CONTINUOUS
 10
-2.163149372
 20
18.0713339521
 11
-2.1513139313
 21
18.0769706284
  0
LINE
  5
2A0
100
AcDbEntity
  8
RACCORDO
100
AcDbLine
 62
250
  6
CONTINUOUS
 10
-2.2205278321
 20
18.0437114447
 11
-2.210079614
 21
18.0486863657
  0
LINE
  5
2A1
100
AcDbEntity
  8
RACCORDO
100
AcDbLine
 62
250
  6
CONTINUOUS
 10
-2.1513139313
 20
18.0769706284
 11
-2.1421927277
 21
18.0812617868
  0
LINE
  5
2A2
100
AcDbEntity
  8
RACCORDO
100
AcDbLine
 62
250
  6
CONTINUOUS
 10
-2.2282650963
 20
18.0400764125
 11
-2.2205278321
 21
18.0437114447
  0
LINE
  5
2A3
100
AcDbEntity
  8
RACCORDO
100
AcDbLine
 62
250
  6
CONTINUOUS
 10
-2.1421927277
 20
18.0812617868
 11
-2.1328456062
 21
18.0856019903
  0
LINE
  5
2A4
100
AcDbEntity
  8
RACCORDO
100
AcDbLine
 62
250
  6
CONTINUOUS
 10
-2.2708430861
 20
18.0203995304
 11
-2.2282650963
 21
18.0400764125
  0
LWPOLYLINE
  5
2A5
100
AcDbEntity
  8
RACCORDO
100
AcDbPolyline
 62
7
  6
CONTINUOUS
 90
23
 70
0
 10
-13.0707661537
 20
15.8905339395
 10
-13.0496050811
 20
15.9002836502
 10
-13.0158516763
 20
15.9102022966
 10
-12.9796456967
 20
15.9147244461
 10
-12.9420971903
 20
15.9136955363
 10
-12.9031286641
 20
15.9069357429
 10
-12.8628176111
 20
15.8946248902
 10
-12.8225065582
 20
15.877147889
 10
-12.7821955052
 20
15.8543138373
 10
-12.7418844523
 20
15.826313637
 10
-12.7029159261
 20
15.7941049042
 10
-12.6653674197
 20
15.7575853076
 10
-12.6291614401
 20
15.7168571784
 10
-12.5954080353
 20
15.6731851272
 10
-12.5641599543
 20
15.6264449839
 10
-12.5353644482
 20
15.5767609185
 10
-12.509973318
 20
15.5257700516
 10
-12.4881088898
 20
15.4734492479
 10
-12.4696488375
 20
15.4198216428
 10
-12.4551779841
 20
15.3665937624
 10
-12.4448912706
 20
15.3143344491
 10
-12.4385937561
 20
15.2624748605
 10
-12.4362854404
 20
15.2110149968
  0
LINE
  5
2A6
100
AcDbEntity
  8
RACCORDO
100
AcDbLine
 62
7
  6
CONTINUOUS
 10
-2.4318082383
 20
18.0635844261
 11
-2.4830401518
 21
18.0399648236
  0
LINE
  5
2A7
100
AcDbEntity
  8
RACCORDO
100
AcDbLine
 62
250
  6
CONTINUOUS
 10
-2.1328456062
 20
18.0856019903
 11
-2.123258618
 21
18.089985893
  0
LWPOLYLINE
  5
2A8
100
AcDbEntity
  8
RACCORDO
100
AcDbPolyline
 62
250
  6
CONTINUOUS
 90
17
 70
0
 10
-1.278870247
 20
18.1477050657
 10
-1.2730568016
 20
18.1503409332
 10
-1.2672573707
 20
18.1526771895
 10
-1.2614817683
 20
18.1547098811
 10
-1.2557397683
 20
18.1564355683
 10
-1.2500410876
 20
18.1578513307
 10
-1.2443953697
 20
18.1589547725
 10
-1.2388121688
 20
18.1597440263
 10
-1.233300933
 20
18.1602177567
 10
-1.2278709887
 20
18.1603751619
 10
-1.2225315247
 20
18.1602159755
 10
-1.2172915768
 20
18.1597404669
 10
-1.2121600124
 20
18.1589494409
 10
-1.2071455152
 20
18.157844236
 10
-1.2022565712
 20
18.1564267226
 10
-1.1975014536
 20
18.1546992993
 10
-1.1929655408
 20
18.1526989922
  0
LWPOLYLINE
  5
2A9
100
AcDbEntity
  8
RACCORDO
100
AcDbPolyline
 62
250
  6
CONTINUOUS
 90
22
 70
0
 10
-2.4491938026
 20
18.0555961893
 10
-2.4460654896
 20
18.0570061212
 10
-2.4368170271
 20
18.0607800153
 10
-2.4273574129
 20
18.0640624708
 10
-2.4176967726
 20
18.066849974
 10
-2.4078454469
 20
18.0691395412
 10
-2.397813981
 20
18.0709287216
 10
-2.3876131125
 20
18.0722156001
 10
-2.3772537605
 20
18.0729987991
 10
-2.3667470139
 20
18.0732774803
 10
-2.3561041192
 20
18.0730513455
 10
-2.3453364686
 20
18.0723206366
 10
-2.3344555879
 20
18.0710861359
 10
-2.3234731241
 20
18.0693491647
 10
-2.312400833
 20
18.0671115823
 10
-2.3012505665
 20
18.0643757839
 10
-2.2900342599
 20
18.0611446978
 10
-2.2787639192
 20
18.0574217827
 10
-2.2674516084
 20
18.0532110236
 10
-2.2561094363
 20
18.0485169277
 10
-2.2447495437
 20
18.0433445197
 10
-2.2333840902
 20
18.0376993361
  0
LINE
  5
2AA
100
AcDbEntity
  8
RACCORDO
100
AcDbLine
 62
250
  6
CONTINUOUS
 10
-2.123258618
 20
18.089985893
 11
-2.1167275063
 21
18.0929300594
  0
LINE
  5
2AB
100
AcDbEntity
  8
RACCORDO
100
AcDbLine
 62
250
  6
CONTINUOUS
 10
-2.1167275063
 20
18.0929300594
 11
-2.1100789975
 21
18.0958893211
  0
LWPOLYLINE
  5
2AC
100
AcDbEntity
  8
RACCORDO
100
AcDbPolyline
 62
250
  6
CONTINUOUS
 90
24
 70
0
 10
-13.1443695636
 20
15.8517411423
 10
-13.1182878518
 20
15.8632634057
 10
-13.0862574552
 20
15.8720444428
 10
-13.0514663439
 20
15.875945009
 10
-13.0145494027
 20
15.8745977474
 10
-12.9757848291
 20
15.8677805513
 10
-12.9355929016
 20
15.8552933368
 10
-12.8949877576
 20
15.8373615632
 10
-12.8544276087
 20
15.8142185533
 10
-12.8143689071
 20
15.7861016589
 10
-12.7758163028
 20
15.7538422669
 10
-12.7391925563
 20
15.7180831075
 10
-12.7047545564
 20
15.6793163832
 10
-12.6730866781
 20
15.6385211896
 10
-12.6443933613
 20
15.5964461282
 10
-12.6186750169
 20
15.5535539946
 10
-12.596027169
 20
15.510476422
 10
-12.5764090477
 20
15.467722971
 10
-12.5597186178
 20
15.4256750283
 10
-12.5458543332
 20
15.3847113568
 10
-12.5346575028
 20
15.3451382925
 10
-12.5259445364
 20
15.3071824771
 10
-12.5195289432
 20
15.271023835
 10
-12.5170739715
 20
15.2515855932
  0
LINE
  5
2AD
100
AcDbEntity
  8
RACCORDO
100
AcDbLine
 62
250
  6
CONTINUOUS
 10
-2.1100789975
 20
18.0958893211
 11
-2.1033099233
 21
18.0988624434
  0
LINE
  5
2AE
100
AcDbEntity
  8
RACCORDO
100
AcDbLine
 62
250
  6
CONTINUOUS
 10
-2.1033099233
 20
18.0988624434
 11
-2.0964153724
 21
18.1018476217
  0
LINE
  5
2AF
100
AcDbEntity
  8
RACCORDO
100
AcDbLine
 62
250
  6
CONTINUOUS
 10
-2.0964153724
 20
18.1018476217
 11
-2.0893912888
 21
18.1048426169
  0
LINE
  5
2B0
100
AcDbEntity
  8
RACCORDO
100
AcDbLine
 62
250
  6
CONTINUOUS
 10
-2.0893912888
 20
18.1048426169
 11
-2.0822349268
 21
18.1078459451
  0
LINE
  5
2B1
100
AcDbEntity
  8
RACCORDO
100
AcDbLine
 62
250
  6
CONTINUOUS
 10
-2.0822349268
 20
18.1078459451
 11
-2.0749422271
 21
18.1108553397
  0
LINE
  5
2B2
100
AcDbEntity
  8
RACCORDO
100
AcDbLine
 62
250
  6
CONTINUOUS
 10
-2.0749422271
 20
18.1108553397
 11
-2.0675091711
 21
18.1138684615
  0
LINE
  5
2B3
100
AcDbEntity
  8
RACCORDO
100
AcDbLine
 62
250
  6
CONTINUOUS
 10
-2.0675091711
 20
18.1138684615
 11
-2.0599331327
 21
18.116883717
  0
LINE
  5
2B4
100
AcDbEntity
  8
RACCORDO
100
AcDbLine
 62
250
  6
CONTINUOUS
 10
-2.0599331327
 20
18.116883717
 11
-2.0522102717
 21
18.1198986577
  0
LINE
  5
2B5
100
AcDbEntity
  8
RACCORDO
100
AcDbLine
 62
250
  6
CONTINUOUS
 10
-2.0522102717
 20
18.1198986577
 11
-2.0443366479
 21
18.1229108073
  0
LINE
  5
2B6
100
AcDbEntity
  8
RACCORDO
100
AcDbLine
 62
250
  6
CONTINUOUS
 10
-2.0443366479
 20
18.1229108073
 11
-2.0363097206
 21
18.1259184647
  0
LINE
  5
2B7
100
AcDbEntity
  8
RACCORDO
100
AcDbLine
 62
250
  6
CONTINUOUS
 10
-2.0363097206
 20
18.1259184647
 11
-2.0281257131
 21
18.1289190393
  0
LINE
  5
2B8
100
AcDbEntity
  8
RACCORDO
100
AcDbLine
 62
250
  6
CONTINUOUS
 10
-2.0281257131
 20
18.1289190393
 11
-2.0197813488
 21
18.1319096828
  0
LINE
  5
2B9
100
AcDbEntity
  8
RACCORDO
100
AcDbLine
 62
250
  6
CONTINUOUS
 10
-2.0197813488
 20
18.1319096828
 11
-2.0112745109
 21
18.1348884598
  0
LINE
  5
2BA
100
AcDbEntity
  8
RACCORDO
100
AcDbLine
 62
250
  6
CONTINUOUS
 10
-2.0112745109
 20
18.1348884598
 11
-2.0026021432
 21
18.1378524018
  0
LINE
  5
2BB
100
AcDbEntity
  8
RACCORDO
100
AcDbLine
 62
250
  6
CONTINUOUS
 10
-2.0026021432
 20
18.1378524018
 11
-1.9937615461
 21
18.1407983555
  0
LINE
  5
2BC
100
AcDbEntity
  8
RACCORDO
100
AcDbLine
 62
250
  6
CONTINUOUS
 10
-1.9937615461
 20
18.1407983555
 11
-1.9847510402
 21
18.1437241679
  0
LINE
  5
2BD
100
AcDbEntity
  8
RACCORDO
100
AcDbLine
 62
250
  6
CONTINUOUS
 10
-1.9847510402
 20
18.1437241679
 11
-1.975568276
 21
18.1466265332
  0
LINE
  5
2BE
100
AcDbEntity
  8
RACCORDO
100
AcDbLine
 62
250
  6
CONTINUOUS
 10
-1.975568276
 20
18.1466265332
 11
-1.9662113678
 21
18.1495019504
  0
LINE
  5
2BF
100
AcDbEntity
  8
RACCORDO
100
AcDbLine
 62
250
  6
CONTINUOUS
 10
-1.9662113678
 20
18.1495019504
 11
-1.9566789798
 21
18.1523480966
  0
LINE
  5
2C0
100
AcDbEntity
  8
RACCORDO
100
AcDbLine
 62
250
  6
CONTINUOUS
 10
-1.9566789798
 20
18.1523480966
 11
-1.9469688679
 21
18.1551615393
  0
LWPOLYLINE
  5
2C1
100
AcDbEntity
  8
DRAFT
100
AcDbPolyline
 62
7
  6
CONTINUOUS
 90
13
 70
0
 10
-10.9601931491
 20
-20.3800597852
 10
-10.9956313894
 20
-20.3858256987
 10
-11.0334661392
 20
-20.3859563981
 10
-11.0733513912
 20
-20.380533448
 10
-11.1142423262
 20
-20.3697974384
 10
-11.1562228704
 20
-20.3536130129
 10
-11.1992116595
 20
-20.3321170774
 10
-11.2419148239
 20
-20.3059579414
 10
-11.2842626538
 20
-20.275075672
 10
-11.3263222979
 20
-20.2395286529
 10
-11.3670040601
 20
-20.2001419949
 10
-11.4059424422
 20
-20.1571893669
 10
-11.4434959785
 20
-20.1103928962
  0
LWPOLYLINE
  5
2C2
100
AcDbEntity
  8
SUPERFICI
100
AcDbPolyline
 62
7
  6
CONTINUOUS
 90
4
 70
0
 10
-10.95859464
 20
-16.7694181447
 10
-10.9328647103
 20
-16.7716901963
 10
-10.9052228784
 20
-16.7787153461
 10
-10.8756700056
 20
-16.7904940622
  0
LWPOLYLINE
  5
2C3
100
AcDbEntity
  8
RACCORDO
100
AcDbPolyline
 62
7
  6
CONTINUOUS
 90
5
 70
0
 10
-13.637716366
 20
-15.9125804786
 10
-13.6496825131
 20
-15.9079570928
 10
-13.6606466282
 20
-15.9056138766
 10
-13.6706085226
 20
-15.9055507262
 10
-13.6731739289
 20
-15.9059437953
  0
LWPOLYLINE
  5
2C4
100
AcDbEntity
  8
SUPERFICI
100
AcDbPolyline
 62
7
  6
CONTINUOUS
 90
5
 70
0
 10
-13.6377163519
 20
-15.9125804856
 10
-13.6492838763
 20
-15.9079209139
 10
-13.6600043074
 20
-15.9055501905
 10
-13.6698774572
 20
-15.9054682115
 10
-13.6731517726
 20
-15.9059966133
  0
LINE
  5
2C5
100
AcDbEntity
  8
SUPERFICI
100
AcDbLine
 62
7
  6
CONTINUOUS
 10
-8.9117539205
 20
-17.7724521047
 11
-10.8756687628
 21
-16.7904946835
  0
LINE
  5
2C6
100
AcDbEntity
  8
DRAFT
100
AcDbLine
 62
7
  6
CONTINUOUS
 10
-8.9117539205
 20
-17.7724521047
 11
-10.8756687628
 21
-16.7904946835
  0
LINE
  5
2C7
100
AcDbEntity
  8
SUPERFICI
100
AcDbLine
 62
7
  6
CONTINUOUS
 10
-11.8656182666
 20
-16.2955199316
 11
-13.8296738092
 21
-15.3134921604
  0
LINE
  5
2C8
100
AcDbEntity
  8
DRAFT
100
AcDbLine
 62
7
  6
CONTINUOUS
 10
-11.8656182666
 20
-16.2955199316
 11
-13.8296738092
 21
-15.3134921604
  0
LINE
  5
2C9
100
AcDbEntity
  8
DRAFT
100
AcDbLine
 62
7
  6
CONTINUOUS
 10
2.6420601842
 20
-23.1008269196
 11
1.4768767021
 21
-22.5182351786
  0
LINE
  5
2CA
100
AcDbEntity
  8
RACCORDO
100
AcDbLine
 62
250
  6
CONTINUOUS
 10
-4.0024742822
 20
-18.9665500526
 11
-18.7962503523
 21
-11.5696620175
  0
LWPOLYLINE
  5
2CB
100
AcDbEntity
  8
SUPERFICI
100
AcDbPolyline
 62
7
  6
CONTINUOUS
 90
34
 70
0
 10
-8.9117542916
 20
-17.7724519192
 10
-8.8809370906
 20
-17.7892187195
 10
-8.850502984
 20
-17.808345481
 10
-8.8204516391
 20
-17.8298320229
 10
-8.7906340061
 20
-17.8538060079
 10
-8.7611978037
 20
-17.8801390493
 10
-8.7325875891
 20
-17.9084467483
 10
-8.7048009024
 20
-17.9387776968
 10
-8.6778377584
 20
-17.9710819708
 10
-8.6521463947
 20
-18.00482738
 10
-8.6277581135
 20
-18.0400236095
 10
-8.6046385446
 20
-18.0766592976
 10
-8.5831377158
 20
-18.1141708459
 10
-8.563277745
 20
-18.1525724886
 10
-8.5450333669
 20
-18.1918482639
 10
-8.5286841853
 20
-18.231389633
 10
-8.5142584273
 20
-18.271200088
 10
-8.5017252255
 20
-18.3112746783
 10
-8.4912765303
 20
-18.3509927408
 10
-8.4829440928
 20
-18.3903482003
 10
-8.4766945154
 20
-18.4293462116
 10
-8.472623263
 20
-18.4673836355
 10
-8.4707633619
 20
-18.5044434165
 10
-8.471081437
 20
-18.5405424004
 10
-8.4735746945
 20
-18.5751290408
 10
-8.4782758845
 20
-18.608182517
 10
-8.4851532468
 20
-18.6397241803
 10
-8.4941085246
 20
-18.6692664631
 10
-8.5051802525
 20
-18.6967856102
 10
-8.5183320505
 20
-18.7223065581
 10
-8.5333544437
 20
-18.7454154182
 10
-8.5501788433
 20
-18.7659749117
 10
-8.5688769194
 20
-18.7841240217
 10
-8.5894500403
 20
-18.7998635064
  0
LWPOLYLINE
  5
2CC
100
AcDbEntity
  8
DRAFT
100
AcDbPolyline
 62
7
  6
CONTINUOUS
 90
25
 70
0
 10
-8.9117539205
 20
-17.7724521047
 10
-8.8687237241
 20
-17.7967089099
 10
-8.8268075698
 20
-17.825147951
 10
-8.7860042746
 20
-17.8577685849
 10
-8.7459224692
 20
-17.8950014534
 10
-8.7069487943
 20
-17.936413341
 10
-8.670248476
 20
-17.9807074871
 10
-8.6359209952
 20
-18.027925491
 10
-8.6038592797
 20
-18.0780216076
 10
-8.5749195597
 20
-18.1295685091
 10
-8.5491782685
 20
-18.1825999784
 10
-8.5265510801
 20
-18.2370778968
 10
-8.5076555153
 20
-18.2914684056
 10
-8.4925865683
 20
-18.3457659934
 10
-8.4812436531
 20
-18.3999730679
 10
-8.473954718
 20
-18.4525697289
 10
-8.4708197382
 20
-18.5035156009
 10
-8.4717372556
 20
-18.5528501985
 10
-8.4767375736
 20
-18.5991759381
 10
-8.4859519121
 20
-18.6424486145
 10
-8.4992520997
 20
-18.6827140785
 10
-8.5162839001
 20
-18.7187123495
 10
-8.5369325485
 20
-18.7500252652
 10
-8.5613202219
 20
-18.7770750773
 10
-8.5894500863
 20
-18.7998635372
  0
LWPOLYLINE
  5
2CD
100
AcDbEntity
  8
RACCORDO
100
AcDbPolyline
 62
7
  6
CONTINUOUS
 90
4
 70
0
 10
-9.037409432
 20
-18.2219875392
 10
-9.0476707218
 20
-18.2119922595
 10
-9.0587677772
 20
-18.2033591357
 10
-9.0707007834
 20
-18.1960882699
  0
LINE
  5
2CE
100
AcDbEntity
  8
RACCORDO
100
AcDbLine
 62
7
  6
CONTINUOUS
 10
-14.3785395137
 20
16.1823183643
 11
-14.3785395137
 21
18.2323347399
  0
LINE
  5
2CF
100
AcDbEntity
  8
0
100
AcDbLine
 62
7
  6
CONTINUOUS
 10
-14.2848580427
 20
19.6222614735
 11
-14.2848580427
 21
19.2822875394
  0
LINE
  5
2D0
100
AcDbEntity
  8
0
100
AcDbLine
 62
250
  6
CONTINUOUS
 10
-14.211634738
 20
19.5338731259
 11
-14.211634738
 21
19.1938991917
  0
LWPOLYLINE
  5
2D1
100
AcDbEntity
  8
0
100
AcDbPolyline
 62
250
  6
CONTINUOUS
 90
34
 70
0
 10
-14.211634738
 20
19.5338731259
 10
-14.2114359902
 20
19.5442361607
 10
-14.2108401934
 20
19.5547746413
 10
-14.2098486874
 20
19.5654648712
 10
-14.2084637018
 20
19.5762828125
 10
-14.2066883506
 20
19.5872041403
 10
-14.2045266261
 20
19.5982042972
 10
-14.2019833888
 20
19.6092585485
 10
-14.1990643576
 20
19.6203420379
 10
-14.1957760961
 20
19.6314298432
 10
-14.1921259981
 20
19.6424970328
 10
-14.1881222712
 20
19.6535187212
 10
-14.1837739181
 20
19.6644701252
 10
-14.1790907164
 20
19.67532662
 10
-14.1740831966
 20
19.6860637937
 10
-14.1687626185
 20
19.6966575031
 10
-14.1631409459
 20
19.7070839274
 10
-14.1572308194
 20
19.717319622
 10
-14.1510455285
 20
19.7273415712
 10
-14.1445989812
 20
19.7371272398
 10
-14.1379056731
 20
19.746654624
 10
-14.1309806546
 20
19.7559023008
 10
-14.1238394972
 20
19.7648494761
 10
-14.1164982582
 20
19.7734760315
 10
-14.108973445
 20
19.7817625695
 10
-14.1012819777
 20
19.7896904572
 10
-14.0934411512
 20
19.7972418682
 10
-14.0854685961
 20
19.8043998225
 10
-14.0773822394
 20
19.811148225
 10
-14.0692002637
 20
19.8174719012
 10
-14.060941067
 20
19.8233566321
 10
-14.0526232207
 20
19.8287891853
 10
-14.044265428
 20
19.8337573453
 10
-14.0358864821
 20
19.8382499408
  0
LWPOLYLINE
  5
2D2
100
AcDbEntity
  8
SUPERFICI
100
AcDbPolyline
 62
7
  6
CONTINUOUS
 90
4
 70
0
 10
-13.6994734908
 20
4.3090299078
 10
-13.7029305791
 20
4.2968628221
 10
-13.7047634746
 20
4.2831171825
 10
-13.7048122239
 20
4.2721088326
  0
LINE
  5
2D3
100
AcDbEntity
  8
RACCORDO
100
AcDbLine
 62
7
  6
CONTINUOUS
 10
-4.2106380987
 20
16.5365395156
 11
-2.5210478933
 21
18.0152587966
  0
LINE
  5
2D4
100
AcDbEntity
  8
RACCORDO
100
AcDbLine
 62
250
  6
CONTINUOUS
 10
-3.8665774169
 20
16.626013498
 11
-2.2724480109
 21
18.0211860561
  0
LINE
  5
2D5
100
AcDbEntity
  8
0
100
AcDbLine
 62
7
  6
CONTINUOUS
 10
-6.3720085691
 20
15.5652720605
 11
-6.1598765347
 21
15.6849540181
  0
LINE
  5
2D6
100
AcDbEntity
  8
0
100
AcDbLine
 62
250
  6
CONTINUOUS
 10
-4.8245707209
 20
16.1808070102
 11
-4.8171964019
 21
16.184782433
  0
LINE
  5
2D7
100
AcDbEntity
  8
0
100
AcDbLine
 62
7
  6
CONTINUOUS
 10
-4.6940641842
 20
16.2982656225
 11
-4.9068317084
 21
16.1903658158
  0
LINE
  5
2D8
100
AcDbEntity
  8
0
100
AcDbLine
 62
250
  6
CONTINUOUS
 10
-4.6042416161
 20
16.2927772049
 11
-4.8171964019
 21
16.184782433
  0
LINE
  5
2D9
100
AcDbEntity
  8
0
100
AcDbLine
 62
7
  6
CONTINUOUS
 10
-3.1908508052
 20
15.3716096347
 11
-4.0385561912
 21
14.941716738
  0
LINE
  5
2DA
100
AcDbEntity
  8
0
100
AcDbLine
 62
7
  6
CONTINUOUS
 10
-3.3729754894
 20
14.6089263871
 11
-2.3061445773
 21
15.1437286854
  0
LINE
  5
2DB
100
AcDbEntity
  8
0
100
AcDbLine
 62
7
  6
CONTINUOUS
 10
-4.6932993836
 20
16.2986480074
 11
-4.6940641687
 21
16.2982656304
  0
LINE
  5
2DC
100
AcDbEntity
  8
0
100
AcDbLine
 62
7
  6
CONTINUOUS
 10
-2.3061445773
 20
15.1437286854
 11
2.9683474919
 21
17.7740378193
  0
LINE
  5
2DD
100
AcDbEntity
  8
0
100
AcDbLine
 62
7
  6
CONTINUOUS
 10
-6.1598765347
 20
15.6849540181
 11
-5.4527697535
 21
16.0339728689
  0
LINE
  5
2DE
100
AcDbEntity
  8
0
100
AcDbLine
 62
7
  6
CONTINUOUS
 10
-3.9861926191
 20
16.6471630011
 11
-4.6932994003
 21
16.298647999
  0
LINE
  5
2DF
100
AcDbEntity
  8
0
100
AcDbLine
 62
250
  6
CONTINUOUS
 10
-3.8971348349
 20
16.6412922071
 11
-4.6042416161
 21
16.2927772049
  0
LINE
  5
2E0
100
AcDbEntity
  8
0
100
AcDbLine
 62
7
  6
CONTINUOUS
 10
2.3274617182
 20
18.0944807062
 11
-2.2707892382
 21
15.8281194087
  0
LINE
  5
2E1
100
AcDbEntity
  8
0
100
AcDbLine
 62
7
  6
CONTINUOUS
 10
3.13200094
 20
17.4564112381
 11
4.804392331
 21
18.2806905475
  0
LWPOLYLINE
  5
2E2
100
AcDbEntity
  8
0
100
AcDbPolyline
 62
7
  6
CONTINUOUS
 90
21
 70
0
 10
4.804392331
 20
18.2806905475
 10
4.8290201069
 20
18.2923009095
 10
4.8535571083
 20
18.3028250693
 10
4.8780033352
 20
18.3122630269
 10
4.9023912175
 20
18.3206242874
 10
4.9266883253
 20
18.3278993458
 10
4.9507973681
 20
18.3340596865
 10
4.9747098255
 20
18.3390999001
 10
4.9984342179
 20
18.343025396
 10
5.0218988161
 20
18.3458238873
 10
5.04511323
 20
18.3474919336
 10
5.0680678497
 20
18.3480329754
 10
5.0906621167
 20
18.347445047
 10
5.1128823103
 20
18.3457250235
 10
5.1347421512
 20
18.3428760299
 10
5.156182243
 20
18.3389054761
 10
5.1772145855
 20
18.3338061543
 10
5.197827179
 20
18.3275852722
 10
5.2179246286
 20
18.3202718632
 10
5.2374912841
 20
18.3118676035
 10
5.2474924174
 20
18.3070506084
  0
LWPOLYLINE
  5
2E3
100
AcDbEntity
  8
RACCORDO
100
AcDbPolyline
 62
250
  6
CONTINUOUS
 90
26
 70
0
 10
6.2329502923
 20
19.3840406308
 10
6.2522102045
 20
19.3929372419
 10
6.2714466499
 20
19.4011796469
 10
6.2906453434
 20
19.4087617249
 10
6.309792028
 20
19.4156778455
 10
6.3288724852
 20
19.4219228728
 10
6.3478725458
 20
19.427492169
 10
6.3667781001
 20
19.4323815985
 10
6.385575109
 20
19.4365875303
 10
6.4042496135
 20
19.440106841
 10
6.4227877459
 20
19.4429369173
 10
6.4411757398
 20
19.4450756575
 10
6.4593999399
 20
19.4465214732
 10
6.4774468131
 20
19.447273291
 10
6.4953029574
 20
19.4473305524
 10
6.512955113
 20
19.446693215
 10
6.5303901712
 20
19.4453617519
 10
6.5475951846
 20
19.4433371521
 10
6.5645573767
 20
19.4406209189
 10
6.5812641512
 20
19.4372150695
 10
6.5977031017
 20
19.433122133
 10
6.6138620205
 20
19.4283451489
 10
6.6297289079
 20
19.4228876646
 10
6.6452919809
 20
19.4167537329
 10
6.6605396825
 20
19.4099479089
 10
6.6678231728
 20
19.4064039604
  0
LWPOLYLINE
  5
2E4
100
AcDbEntity
  8
RACCORDO
100
AcDbPolyline
 62
7
  6
CONTINUOUS
 90
81
 70
0
 10
14.0381324747
 20
22.2213360487
 10
7.9012724212
 20
19.3871398092
 10
7.8946565346
 20
19.3841804145
 10
7.8875139357
 20
19.3810937232
 10
7.8798371095
 20
19.3778902708
 10
7.8716233963
 20
19.3745825521
 10
7.8628755222
 20
19.3711849901
 10
7.8535897953
 20
19.3677090969
 10
7.8437640731
 20
19.3641667512
 10
7.8334054899
 20
19.360572838
 10
7.8225147282
 20
19.3569396114
 10
7.8110910238
 20
19.3532785553
 10
7.7991412382
 20
19.3496032046
 10
7.7866678304
 20
19.3459253433
 10
7.7736728905
 20
19.3422565593
 10
7.7601639214
 20
19.338609597
 10
7.7461448717
 20
19.3349957631
 10
7.7316207604
 20
19.3314264583
 10
7.7166018272
 20
19.3279141501
 10
7.7010918608
 20
19.3244693366
 10
7.6851006503
 20
19.3211034963
 10
7.6686490349
 20
19.3178300112
 10
7.6517433952
 20
19.3146588378
 10
7.6343964807
 20
19.3116007119
 10
7.6166409363
 20
19.3086690583
 10
7.5984891208
 20
19.305873234
 10
7.5799537177
 20
19.3032222327
 10
7.5610701372
 20
19.3007274361
 10
7.5418537031
 20
19.2983967068
 10
7.5223190566
 20
19.2962375826
 10
7.5025022917
 20
19.2942591272
 10
7.4824205569
 20
19.2924674894
 10
7.4620905926
 20
19.2908686273
 10
7.4415490849
 20
19.2894693196
 10
7.4208142982
 20
19.2882740097
 10
7.3999048341
 20
19.2872868778
 10
7.3788587406
 20
19.286512444
 10
7.3576944459
 20
19.2859534284
 10
7.3364324566
 20
19.2856121338
 10
7.3151144832
 20
19.2854906757
 10
7.2937602059
 20
19.2855899528
 10
7.2723899843
 20
19.2859102671
 10
7.2510467023
 20
19.286450982
 10
7.2297506534
 20
19.28721108
 10
7.2085215156
 20
19.2881889408
 10
7.1874009626
 20
19.2893811741
 10
7.1664093299
 20
19.2907848167
 10
7.1455650045
 20
19.2923964599
 10
7.1249060608
 20
19.2942103326
 10
7.1044508394
 20
19.2962217054
 10
7.0842174919
 20
19.2984254566
 10
7.0642427992
 20
19.300813531
 10
7.044543367
 20
19.3033794265
 10
7.0251359236
 20
19.3061164149
 10
7.0060560747
 20
19.3090142285
 10
6.9873183701
 20
19.3120647598
 10
6.9689375025
 20
19.3152597211
 10
6.9509475179
 20
19.3185867202
 10
6.9333607117
 20
19.3220362905
 10
6.9161890354
 20
19.3255987127
 10
6.8994637297
 20
19.3292597481
 10
6.8831970488
 20
19.3330082313
 10
6.8673950642
 20
19.3368339539
 10
6.8520774666
 20
19.3407231262
 10
6.837253448
 20
19.3446639983
 10
6.8229265941
 20
19.3486458701
 10
6.8091065982
 20
19.3526559934
 10
6.7957979246
 20
19.3566829124
 10
6.7830042125
 20
19.3607151404
 10
6.7707327252
 20
19.3647396021
 10
6.7589852729
 20
19.3687446077
 10
6.7477637065
 20
19.3727183887
 10
6.7370741435
 20
19.3766472611
 10
6.7269152677
 20
19.3805197892
 10
6.7172873847
 20
19.3843236938
 10
6.708197131
 20
19.3880438987
 10
6.6996419927
 20
19.3916685461
 10
6.6916177613
 20
19.3951862607
 10
6.6841265301
 20
19.3985826139
 10
6.677165179
 20
19.4018452442
 10
6.6707258173
 20
19.4049638188
  0
LWPOLYLINE
  5
2E5
100
AcDbEntity
  8
RACCORDO
100
AcDbPolyline
 62
250
  6
CONTINUOUS
 90
67
 70
0
 10
8.3355980197
 20
19.3525868017
 10
8.3101843907
 20
19.3411218979
 10
8.2841885716
 20
19.3299484061
 10
8.2576105624
 20
19.3190663264
 10
8.2304309069
 20
19.308465879
 10
8.2026690614
 20
19.2981568436
 10
8.1743833939
 20
19.2881685594
 10
8.1455726072
 20
19.2785027259
 10
8.1162379985
 20
19.2691576436
 10
8.0864418284
 20
19.2601575529
 10
8.056181945
 20
19.2515037979
 10
8.0254605001
 20
19.2431950346
 10
7.9943462096
 20
19.2352514706
 10
7.9628384335
 20
19.2276747738
 10
7.9309378118
 20
19.2204632765
 10
7.8987149795
 20
19.2136321825
 10
7.8661743885
 20
19.2071836534
 10
7.833311587
 20
19.2011155277
 10
7.8001838542
 20
19.1954365258
 10
7.7667954046
 20
19.190147785
 10
7.7331420236
 20
19.185248168
 10
7.699268347
 20
19.180742983
 10
7.6651736984
 20
19.1766322902
 10
7.6308587541
 20
19.1729160294
 10
7.5963701795
 20
19.1695993288
 10
7.5617046213
 20
19.1666823039
 10
7.5268654326
 20
19.164164839
 10
7.4919093378
 20
19.1620517159
 10
7.4568344738
 20
19.1603435841
 10
7.4216427035
 20
19.159039794
 10
7.3863963405
 20
19.1581431788
 10
7.3510954238
 20
19.1576545862
 10
7.3157399142
 20
19.1575731686
 10
7.2803920077
 20
19.1578992158
 10
7.2450517102
 20
19.158633562
 10
7.2097190156
 20
19.159775373
 10
7.1744561023
 20
19.1613224362
 10
7.1392630123
 20
19.1632755959
 10
7.1041397034
 20
19.1656340079
 10
7.0691482275
 20
19.1683929266
 10
7.0342906246
 20
19.1715529164
 10
6.9995648546
 20
19.175113413
 10
6.9650268487
 20
19.1790679788
 10
6.9306799676
 20
19.1834165993
 10
6.8965208506
 20
19.188159289
 10
6.8625953468
 20
19.1932896543
 10
6.8289038265
 20
19.1988077749
 10
6.7954459194
 20
19.204713571
 10
6.7622663627
 20
19.2110004092
 10
6.7293606654
 20
19.2176696572
 10
6.6967333186
 20
19.2247199472
 10
6.664442533
 20
19.232140542
 10
6.6324840716
 20
19.2399337683
 10
6.6008621713
 20
19.2480972993
 10
6.5696477537
 20
19.2566134182
 10
6.5388419045
 20
19.2654836941
 10
6.508443538
 20
19.2747065578
 10
6.4785203175
 20
19.2842595848
 10
6.4490744597
 20
19.2941440432
 10
6.4201037479
 20
19.3043586649
 10
6.3916691956
 20
19.3148772214
 10
6.3637723617
 20
19.3257012701
 10
6.3364116872
 20
19.3368292537
 10
6.3096435094
 20
19.3482302716
 10
6.2834866071
 20
19.3598940237
 10
6.2579222014
 20
19.3718308101
 10
6.2329502923
 20
19.3840406308
  0
LWPOLYLINE
  5
2E6
100
AcDbEntity
  8
0
100
AcDbPolyline
 62
7
  6
CONTINUOUS
 90
7
 70
0
 10
2.3586086577
 20
18.1081476998
 10
2.353440044
 20
18.106114125
 10
2.3482624131
 20
18.1039828472
 10
2.3430757651
 20
18.1017538664
 10
2.3378800999
 20
18.0994271827
 10
2.3326754176
 20
18.0970027959
 10
2.3274617182
 20
18.0944807062
  0
LWPOLYLINE
  5
2E7
100
AcDbEntity
  8
0
100
AcDbPolyline
 62
7
  6
CONTINUOUS
 90
3
 70
0
 10
2.3586086577
 20
18.1081476998
 10
2.3695144604
 20
18.1119850624
 10
2.3807949858
 20
18.1152310235
  0
LWPOLYLINE
  5
2E8
100
AcDbEntity
  8
SUPERFICI
100
AcDbPolyline
 62
7
  6
CONTINUOUS
 90
20
 70
0
 10
-10.9415062751
 20
-20.3748093979
 10
-10.9635668534
 20
-20.3810587123
 10
-10.989070477
 20
-20.3852197707
 10
-11.015900918
 20
-20.3865881126
 10
-11.0436199175
 20
-20.3851238334
 10
-11.0722352464
 20
-20.3807777109
 10
-11.1017410907
 20
-20.3736001499
 10
-11.1316786766
 20
-20.3637006036
 10
-11.1620539322
 20
-20.351037624
 10
-11.1928616271
 20
-20.3356530811
 10
-11.2236259392
 20
-20.3177812174
 10
-11.2543491072
 20
-20.297380753
 10
-11.2850281999
 20
-20.2744925488
 10
-11.3151793278
 20
-20.249473869
 10
-11.3448002753
 20
-20.222278638
 10
-11.3738912972
 20
-20.1929517464
 10
-11.4019720657
 20
-20.1619868205
 10
-11.4288816014
 20
-20.1295478782
 10
-11.4547781221
 20
-20.0954692364
 10
-11.4796599815
 20
-20.0597499036
  0
LWPOLYLINE
  5
2E9
100
AcDbEntity
  8
DRAFT
100
AcDbPolyline
 62
7
  6
CONTINUOUS
 90
5
 70
0
 10
-11.7443166176
 20
-16.8255301575
 10
-11.7686210575
 20
-16.8280315266
 10
-11.7939801964
 20
-16.8256868518
 10
-11.8208104301
 20
-16.8186369716
 10
-11.8491126108
 20
-16.8068823561
  0
LINE
  5
2EA
100
AcDbEntity
  8
DRAFT
100
AcDbLine
 62
7
  6
CONTINUOUS
 10
1.4768767021
 20
-19.0116025618
 11
0.6846863148
 21
-18.6155073682
  0
LINE
  5
2EB
100
AcDbEntity
  8
DRAFT
100
AcDbLine
 62
7
  6
CONTINUOUS
 10
0.6846863148
 20
-17.7061806942
 11
0.6637039037
 21
-17.6956894886
  0
LWPOLYLINE
  5
2EC
100
AcDbEntity
  8
0
100
AcDbPolyline
 62
250
  6
CONTINUOUS
 90
34
 70
0
 10
0.1230832847
 20
-29.097315703
 10
0.1186626722
 20
-29.0903967899
 10
0.1138553756
 20
-29.0832928409
 10
0.108672245
 20
-29.0760198898
 10
0.103124982
 20
-29.0685943561
 10
0.0972261042
 20
-29.0610329953
 10
0.0909889148
 20
-29.0533528607
 10
0.0844274811
 20
-29.045571276
 10
0.0775566186
 20
-29.037705814
 10
0.0703918499
 20
-29.0297742445
 10
0.0629493533
 20
-29.0217944765
 10
0.0552459212
 20
-29.013784514
 10
0.0472989376
 20
-29.0057624325
 10
0.0391263382
 20
-28.9977463371
 10
0.03074657
 20
-28.9897543215
 10
0.0221785464
 20
-28.9818044239
 10
0.0134416062
 20
-28.9739145877
 10
0.0045554686
 20
-28.9661026203
 10
-0.0044598111
 20
-28.9583861526
 10
-0.0135838835
 20
-28.9507826022
 10
-0.0227961568
 20
-28.9433091294
 10
-0.0320758443
 20
-28.9359825973
 10
-0.0414020133
 20
-28.928819534
 10
-0.0507536026
 20
-28.9218361161
 10
-0.0601094765
 20
-28.9150481266
 10
-0.0694485014
 20
-28.9084708968
 10
-0.0787496162
 20
-28.9021192572
 10
-0.087991851
 20
-28.8960075273
 10
-0.0971545774
 20
-28.8901493561
 10
-0.1062168785
 20
-28.8845581242
 10
-0.1151576462
 20
-28.8792468325
 10
-0.1239565178
 20
-28.8742275239
 10
-0.1325938943
 20
-28.8695113243
 10
-0.1410503273
 20
-28.8651088054
  0
LWPOLYLINE
  5
2ED
100
AcDbEntity
  8
RACCORDO
100
AcDbPolyline
 62
7
  6
CONTINUOUS
 90
5
 70
0
 10
-9.0057272035
 20
-18.2741073535
 10
-9.0116366984
 20
-18.2601444048
 10
-9.0190204756
 20
-18.2466598634
 10
-9.0277974364
 20
-18.2336428251
 10
-9.037409432
 20
-18.2219875392
  0
LWPOLYLINE
  5
2EE
100
AcDbEntity
  8
SUPERFICI
100
AcDbPolyline
 62
7
  6
CONTINUOUS
 90
5
 70
0
 10
-13.7030818761
 20
-15.9774041703
 10
-13.6996272792
 20
-15.9920518238
 10
-13.6945934098
 20
-16.0064082844
 10
-13.6879336134
 20
-16.0208728017
 10
-13.6796481552
 20
-16.0354455222
  0
LWPOLYLINE
  5
2EF
100
AcDbEntity
  8
0
100
AcDbPolyline
 62
250
  6
CONTINUOUS
 90
3
 70
0
 10
-14.2841740616
 20
19.2730473723
 10
-14.2847698601
 20
19.2789677666
 10
-14.2848580427
 20
19.2822875394
  0
LWPOLYLINE
  5
2F0
100
AcDbEntity
  8
0
100
AcDbPolyline
 62
250
  6
CONTINUOUS
 90
20
 70
0
 10
-14.211634738
 20
19.1938991917
 10
-14.2114664422
 20
19.1845382413
 10
-14.210961875
 20
19.1753634103
 10
-14.2101219971
 20
19.1663921681
 10
-14.2089484114
 20
19.1576416194
 10
-14.2074433505
 20
19.1491284013
 10
-14.2056096641
 20
19.1408686585
 10
-14.20345082
 20
19.1328780709
 10
-14.2009709326
 20
19.1251719173
 10
-14.1981747529
 20
19.1177649683
 10
-14.1950676303
 20
19.1106713689
 10
-14.1916554682
 20
19.1039045727
 10
-14.1879447403
 20
19.0974774156
 10
-14.1839424795
 20
19.0914020957
 10
-14.1796563303
 20
19.0856902319
 10
-14.1750945209
 20
19.0803527789
 10
-14.1702657913
 20
19.0753999288
 10
-14.1651793055
 20
19.0708410485
 10
-14.1598446906
 20
19.0666847553
 10
-14.1542853275
 20
19.0629478864
  0
LWPOLYLINE
  5
2F1
100
AcDbEntity
  8
0
100
AcDbPolyline
 62
250
  6
CONTINUOUS
 90
22
 70
0
 10
-12.5330966676
 20
18.3546301565
 10
-12.5329288354
 20
18.3452819871
 10
-12.5324254287
 20
18.3361163105
 10
-12.5315870617
 20
18.327150741
 10
-12.530414835
 20
18.3184015616
 10
-12.5289107165
 20
18.3098866874
 10
-12.5270779134
 20
18.3016253536
 10
-12.5249201884
 20
18.2936342145
 10
-12.5224414543
 20
18.2859275003
 10
-12.519646397
 20
18.2785198012
 10
-12.5165403001
 20
18.2714251732
 10
-12.5131290898
 20
18.2646571998
 10
-12.5094193054
 20
18.2582288667
 10
-12.5054180422
 20
18.2521524527
 10
-12.5011328964
 20
18.2464394785
 10
-12.4965719963
 20
18.2411007828
 10
-12.4917439902
 20
18.2361465043
 10
-12.4866580971
 20
18.2315861181
 10
-12.481324067
 20
18.227428363
 10
-12.4757521025
 20
18.2236811704
 10
-12.4699527821
 20
18.2203516341
 10
-12.4681258418
 20
18.2194129417
  0
LWPOLYLINE
  5
2F2
100
AcDbEntity
  8
SUPERFICI
100
AcDbPolyline
 62
7
  6
CONTINUOUS
 90
3
 70
0
 10
-13.7049617437
 20
-15.9515258689
 10
-13.704909852
 20
-15.96286419
 10
-13.7030818761
 20
-15.9774041703
  0
LINE
  5
2F3
100
AcDbEntity
  8
SUPERFICI
100
AcDbLine
 62
7
  6
CONTINUOUS
 10
-13.7048122239
 20
4.2721088326
 11
-13.7047987943
 21
4.2687352999
  0
LINE
  5
2F4
100
AcDbEntity
  8
0
100
AcDbLine
 62
7
  6
CONTINUOUS
 10
-13.5818650885
 20
18.776282565
 11
-13.5818650885
 21
18.3223084634
  0
LINE
  5
2F5
100
AcDbEntity
  8
0
100
AcDbLine
 62
250
  6
CONTINUOUS
 10
-13.5086417838
 20
18.7396709127
 11
-13.5086417838
 21
18.2305967685
  0
LINE
  5
2F6
100
AcDbEntity
  8
0
100
AcDbLine
 62
250
  6
CONTINUOUS
 10
-12.5330966676
 20
18.3546301565
 11
-12.5330966676
 21
18.6946040906
  0
LINE
  5
2F7
100
AcDbEntity
  8
RACCORDO
100
AcDbLine
 62
7
  6
CONTINUOUS
 10
-12.4362854404
 20
16.1397248265
 11
-12.4362854404
 21
15.2110149968
  0
LINE
  5
2F8
100
AcDbEntity
  8
0
100
AcDbLine
 62
250
  6
CONTINUOUS
 10
-12.180574708
 20
18.3541174327
 11
-12.180574708
 21
18.6940913668
  0
LINE
  5
2F9
100
AcDbEntity
  8
0
100
AcDbLine
 62
250
  6
CONTINUOUS
 10
-11.8218760595
 20
17.3872139064
 11
-11.8218760595
 21
18.0679636521
  0
LINE
  5
2FA
100
AcDbEntity
  8
0
100
AcDbLine
 62
250
  6
CONTINUOUS
 10
-11.4693540999
 20
17.397981788
 11
-11.4693540999
 21
18.2056139098
  0
LINE
  5
2FB
100
AcDbEntity
  8
DRAFT
100
AcDbLine
 62
7
  6
CONTINUOUS
 10
-11.3571113765
 20
14.6716042957
 11
-11.3571113765
 21
15.6001377945
  0
LINE
  5
2FC
100
AcDbEntity
  8
SUPERFICI
100
AcDbLine
 62
7
  6
CONTINUOUS
 10
-13.7049583156
 20
-15.9495513243
 11
-13.7049617437
 21
-15.9515258689
  0
LWPOLYLINE
  5
2FD
100
AcDbEntity
  8
0
100
AcDbPolyline
 62
250
  6
CONTINUOUS
 90
34
 70
0
 10
-12.5330966676
 20
18.6946040906
 10
-12.5328979197
 20
18.7049671255
 10
-12.532302123
 20
18.7155056061
 10
-12.531310617
 20
18.726195836
 10
-12.5299256314
 20
18.7370137773
 10
-12.5281502802
 20
18.7479351051
 10
-12.5259885556
 20
18.758935262
 10
-12.5234453184
 20
18.7699895133
 10
-12.5205262872
 20
18.7810730027
 10
-12.5172380256
 20
18.792160808
 10
-12.5135879277
 20
18.8032279976
 10
-12.5095842008
 20
18.8142496859
 10
-12.5052358477
 20
18.82520109
 10
-12.500552646
 20
18.8360575848
 10
-12.4955451262
 20
18.8467947585
 10
-12.4902245481
 20
18.8573884679
 10
-12.4846028755
 20
18.8678148922
 10
-12.478692749
 20
18.8780505868
 10
-12.4725074581
 20
18.888072536
 10
-12.4660609108
 20
18.8978582046
 10
-12.4593676027
 20
18.9073855888
 10
-12.4524425842
 20
18.9166332656
 10
-12.4453014268
 20
18.9255804409
 10
-12.4379601878
 20
18.9342069963
 10
-12.4304353746
 20
18.9424935343
 10
-12.4227439073
 20
18.950421422
 10
-12.4149030808
 20
18.957972833
 10
-12.4069305257
 20
18.9651307873
 10
-12.3988441689
 20
18.9718791897
 10
-12.3906621933
 20
18.978202866
 10
-12.3824029966
 20
18.9840875969
 10
-12.3740851503
 20
18.9895201501
 10
-12.3657273576
 20
18.9944883101
 10
-12.3573484117
 20
18.9989809056
  0
LWPOLYLINE
  5
2FE
100
AcDbEntity
  8
0
100
AcDbPolyline
 62
250
  6
CONTINUOUS
 90
17
 70
0
 10
-9.9788829816
 20
19.497993129
 10
-9.9794105198
 20
19.4920716072
 10
-9.980498894
 20
19.486169247
 10
-9.982145657
 20
19.4802993204
 10
-9.984347106
 20
19.4744750264
 10
-9.9870982907
 20
19.4687094613
 10
-9.990393025
 20
19.4630155895
 10
-9.9942239004
 20
19.457406214
 10
-9.9985823028
 20
19.4518939479
 10
-10.0034584321
 20
19.4464911861
 10
-10.008841324
 20
19.4412100769
 10
-10.0147188745
 20
19.4360624954
 10
-10.0210778676
 20
19.4310600163
 10
-10.0279040046
 20
19.4262138881
 10
-10.0351819364
 20
19.4215350077
 10
-10.042895298
 20
19.4170338958
 10
-10.0510267454
 20
19.4127206736
  0
LWPOLYLINE
  5
2FF
100
AcDbEntity
  8
0
100
AcDbPolyline
 62
250
  6
CONTINUOUS
 90
18
 70
0
 10
-4.9309951043
 20
16.0561347814
 10
-4.9265190237
 20
16.0655559605
 10
-4.9217431783
 20
16.0748313251
 10
-4.9166805243
 20
16.0839357104
 10
-4.9113448147
 20
16.0928443681
 10
-4.9057505869
 20
16.1015330121
 10
-4.8999130805
 20
16.1099779653
 10
-4.8938481867
 20
16.1181562349
 10
-4.8875724073
 20
16.1260455652
 10
-4.881102828
 20
16.1336244742
 10
-4.8744570572
 20
16.1408723316
 10
-4.8676531826
 20
16.1477694088
 10
-4.8607097278
 20
16.1542969265
 10
-4.853645586
 20
16.1604371214
 10
-4.8464799897
 20
16.1661732747
 10
-4.8392324647
 20
16.1714897569
 10
-4.8319227455
 20
16.1763720955
 10
-4.8245707209
 20
16.1808070102
  0
LWPOLYLINE
  5
300
100
AcDbEntity
  8
RACCORDO
100
AcDbPolyline
 62
7
  6
CONTINUOUS
 90
16
 70
0
 10
-13.6795067197
 20
4.3348989058
 10
-13.687964592
 20
4.3274418985
 10
-13.6947256977
 20
4.3185437163
 10
-13.6997898229
 20
4.3082044549
 10
-13.7031705501
 20
4.2960919741
 10
-13.7048537436
 20
4.2825386617
 10
-13.7047980217
 20
4.2685412232
 10
-13.702903778
 20
4.2541133455
 10
-13.6992709771
 20
4.2392411823
 10
-13.6941583241
 20
4.2248798126
 10
-13.6874810197
 20
4.2110420348
 10
-13.6793246936
 20
4.1977146791
 10
-13.6702041156
 20
4.1858136845
 10
-13.6602911847
 20
4.1756442253
 10
-13.6494147326
 20
4.1669007998
 10
-13.6375749446
 20
4.1595833249
  0
LWPOLYLINE
  5
301
100
AcDbEntity
  8
SUPERFICI
100
AcDbPolyline
 62
7
  6
CONTINUOUS
 90
4
 70
0
 10
-13.6795067218
 20
4.3348989044
 10
-13.687785618
 20
4.3278548558
 10
-13.6944412974
 20
4.3192318168
 10
-13.6994734908
 20
4.3090299078
  0
LINE
  5
302
100
AcDbEntity
  8
DRAFT
100
AcDbLine
 62
7
  6
CONTINUOUS
 10
-14.1223938659
 20
4.7528509524
 11
-14.0947235711
 21
4.7747893193
  0
LINE
  5
303
100
AcDbEntity
  8
DRAFT
100
AcDbLine
 62
7
  6
CONTINUOUS
 10
-14.0947235711
 20
4.7747893193
 11
-14.0913324284
 21
4.7771051989
  0
LINE
  5
304
100
AcDbEntity
  8
SUPERFICI
100
AcDbLine
 62
7
  6
CONTINUOUS
 10
-14.0913509927
 20
4.7771325536
 11
-14.094745038
 21
4.7748291774
  0
LINE
  5
305
100
AcDbEntity
  8
SUPERFICI
100
AcDbLine
 62
7
  6
CONTINUOUS
 10
-14.0947384076
 20
4.7748167766
 11
-14.0913324786
 21
4.777105166
  0
LINE
  5
306
100
AcDbEntity
  8
DRAFT
100
AcDbLine
 62
7
  6
CONTINUOUS
 10
-13.8050119648
 20
4.9646461428
 11
-14.0913324284
 21
4.7771051989
  0
LINE
  5
307
100
AcDbEntity
  8
SUPERFICI
100
AcDbLine
 62
7
  6
CONTINUOUS
 10
-14.0913324786
 20
4.777105166
 11
-13.8050002471
 21
4.9646538225
  0
LINE
  5
308
100
AcDbEntity
  8
DRAFT
100
AcDbLine
 62
7
  6
CONTINUOUS
 10
-13.2294449392
 20
5.3411767683
 11
-13.8050119648
 21
4.9646461428
  0
LINE
  5
309
100
AcDbEntity
  8
SUPERFICI
100
AcDbLine
 62
7
  6
CONTINUOUS
 10
-13.8050002471
 20
4.9646538225
 11
-13.2955819676
 21
5.2979287328
  0
LINE
  5
30A
100
AcDbEntity
  8
SUPERFICI
100
AcDbLine
 62
7
  6
CONTINUOUS
 10
-13.2955819676
 20
5.2979287328
 11
-12.9401853703
 21
5.530159265
  0
LINE
  5
30B
100
AcDbEntity
  8
SUPERFICI
100
AcDbLine
 62
7
  6
CONTINUOUS
 10
-12.9401853703
 20
5.530159265
 11
-12.4579918708
 21
5.8448085364
  0
LWPOLYLINE
  5
30C
100
AcDbEntity
  8
SUPERFICI
100
AcDbPolyline
 62
7
  6
CONTINUOUS
 90
4
 70
0
 10
-12.4579918708
 20
5.8448085364
 10
-12.0666717507
 20
6.0998758152
 10
-11.7735788944
 20
6.2907110077
 10
-11.4795254362
 20
6.4820004917
  0
LWPOLYLINE
  5
30D
100
AcDbEntity
  8
DRAFT
100
AcDbPolyline
 62
7
  6
CONTINUOUS
 90
7
 70
0
 10
-11.4795254888
 20
6.4820004575
 10
-11.7735670718
 20
6.2907186926
 10
-12.0666540733
 20
6.0998873224
 10
-12.3587859139
 20
5.9095118994
 10
-12.6499678292
 20
5.7195994207
 10
-12.9401934681
 20
5.530153984
 10
-13.2294449392
 20
5.3411767683
  0
LWPOLYLINE
  5
30E
100
AcDbEntity
  8
SUPERFICI
100
AcDbPolyline
 62
7
  6
CONTINUOUS
 90
22
 70
0
 10
-11.4795254362
 20
6.4820004917
 10
-11.4547129491
 20
6.4962449188
 10
-11.4288807296
 20
6.5075426379
 10
-11.4020304101
 20
6.5158929996
 10
-11.3740039953
 20
6.5213154536
 10
-11.3449622201
 20
6.5237894626
 10
-11.3153847052
 20
6.5232544411
 10
-11.2852728317
 20
6.5196565909
 10
-11.2546271752
 20
6.513048936
 10
-11.2239260108
 20
6.503531179
 10
-11.193170216
 20
6.491058469
 10
-11.1623596107
 20
6.4756753813
 10
-11.1319705736
 20
6.45761588
 10
-11.1020064193
 20
6.4368359089
 10
-11.0724631404
 20
6.4133797977
 10
-11.0438058205
 20
6.3876142139
 10
-11.0160418634
 20
6.3594904877
 10
-10.9891619043
 20
6.3290580646
 10
-10.9636057288
 20
6.2968308424
 10
-10.9395190623
 20
6.2629804654
 10
-10.9167534178
 20
6.2273363855
 10
-10.895307149
 20
6.1898992574
  0
LINE
  5
30F
100
AcDbEntity
  8
0
100
AcDbLine
 62
7
  6
CONTINUOUS
 10
-2.3061445773
 20
13.7580880394
 11
-3.3729754894
 21
13.1627636214
  0
LWPOLYLINE
  5
310
100
AcDbEntity
  8
0
100
AcDbPolyline
 62
7
  6
CONTINUOUS
 90
21
 70
0
 10
3.0011660889
 20
16.4047633095
 10
3.0137546336
 20
16.4113038091
 10
3.0257631146
 20
16.4180691723
 10
3.037191532
 20
16.4250593989
 10
3.0480564594
 20
16.4322865114
 10
3.0583413232
 20
16.4397384875
 10
3.0679964021
 20
16.4473792597
 10
3.0770186868
 20
16.4552097748
 10
3.0854111866
 20
16.4632290862
 10
3.0931332075
 20
16.4713982865
 10
3.1001814831
 20
16.479718098
 10
3.1065592798
 20
16.4881877985
 10
3.1122357021
 20
16.4967663143
 10
3.1172073415
 20
16.5054541682
 10
3.1214776065
 20
16.5142508375
 10
3.1250258274
 20
16.5231136795
 10
3.1278485001
 20
16.5320430183
 10
3.1299491286
 20
16.5410385299
 10
3.1313175555
 20
16.5500565994
 10
3.1319502256
 20
16.5590973323
 10
3.131998723
 20
16.562402773
  0
LINE
  5
311
100
AcDbEntity
  8
0
100
AcDbLine
 62
7
  6
CONTINUOUS
 10
-1.8453141556
 20
13.6928689196
 11
-0.2621404902
 21
14.5050669778
  0
LINE
  5
312
100
AcDbEntity
  8
0
100
AcDbLine
 62
250
  6
CONTINUOUS
 10
-1.7322284894
 20
13.6864209445
 11
-0.1494718863
 21
14.4984050418
  0
LINE
  5
313
100
AcDbEntity
  8
0
100
AcDbLine
 62
250
  6
CONTINUOUS
 10
-0.053690419
 20
12.8471519093
 11
1.5475903718
 21
13.6498739128
  0
LINE
  5
314
100
AcDbEntity
  8
0
100
AcDbLine
 62
7
  6
CONTINUOUS
 10
-0.2621404922
 20
14.5050669768
 11
-0.2604040756
 21
14.5059351995
  0
LINE
  5
315
100
AcDbEntity
  8
DRAFT
100
AcDbLine
 62
7
  6
CONTINUOUS
 10
7.7783365129
 20
16.7937184565
 11
2.1052337121
 21
13.9606020195
  0
LINE
  5
316
100
AcDbEntity
  8
0
100
AcDbLine
 62
7
  6
CONTINUOUS
 10
-2.3061445773
 20
13.7580880394
 11
3.0011660889
 21
16.4047633095
  0
LINE
  5
317
100
AcDbEntity
  8
0
100
AcDbLine
 62
250
  6
CONTINUOUS
 10
1.5475903718
 20
13.6498739128
 11
2.0758575436
 21
13.9133127328
  0
LINE
  5
318
100
AcDbEntity
  8
0
100
AcDbLine
 62
7
  6
CONTINUOUS
 10
12.2248997761
 20
18.6573092296
 11
16.4675404632
 21
20.733283438
  0
LWPOLYLINE
  5
319
100
AcDbEntity
  8
0
100
AcDbPolyline
 62
250
  6
CONTINUOUS
 90
16
 70
0
 10
-1.8453141556
 20
13.6928689196
 10
-1.8419164313
 20
13.694526544
 10
-1.8351712103
 20
13.6973390918
 10
-1.8281904714
 20
13.6996376452
 10
-1.8209900274
 20
13.7014169976
 10
-1.813586189
 20
13.7026731183
 10
-1.8059957276
 20
13.703403162
 10
-1.7982358371
 20
13.7036054748
 10
-1.7903240956
 20
13.7032795985
 10
-1.7822784249
 20
13.7024262714
 10
-1.7741170503
 20
13.7010474263
 10
-1.765858459
 20
13.6991461868
 10
-1.7575213586
 20
13.6967268594
 10
-1.7491246346
 20
13.6937949245
 10
-1.7406873074
 20
13.6903570237
 10
-1.7322284894
 20
13.6864209445
  0
LINE
  5
31A
100
AcDbEntity
  8
0
100
AcDbLine
 62
7
  6
CONTINUOUS
 10
-0.2604040764
 20
14.5059351991
 11
0.2744658813
 21
14.7664872994
  0
LINE
  5
31B
100
AcDbEntity
  8
0
100
AcDbLine
 62
250
  6
CONTINUOUS
 10
-0.1494718863
 20
14.4984050418
 11
0.3849779924
 21
14.7587525084
  0
LINE
  5
31C
100
AcDbEntity
  8
RACCORDO
100
AcDbLine
 62
7
  6
CONTINUOUS
 10
11.8820337582
 20
20.0178321584
 11
15.4192210064
 21
21.7108077891
  0
LINE
  5
31D
100
AcDbEntity
  8
RACCORDO
100
AcDbLine
 62
7
  6
CONTINUOUS
 10
12.2248997761
 20
19.0858260054
 11
16.462712348
 21
21.1141363288
  0
LWPOLYLINE
  5
31E
100
AcDbEntity
  8
0
100
AcDbPolyline
 62
250
  6
CONTINUOUS
 90
3
 70
0
 10
0.2744658813
 20
14.7664872994
 10
0.2761214177
 20
14.7672737915
 10
0.2828469366
 20
14.7700764882
  0
LWPOLYLINE
  5
31F
100
AcDbEntity
  8
0
100
AcDbPolyline
 62
7
  6
CONTINUOUS
 90
16
 70
0
 10
-0.2604040756
 20
14.5059351995
 10
-0.2587464472
 20
14.5067227079
 10
-0.2520109584
 20
14.5095302459
 10
-0.2450432191
 20
14.5118221075
 10
-0.2378589621
 20
14.5135931273
 10
-0.2304744464
 20
14.5148393023
 10
-0.2229064921
 20
14.5155577676
 10
-0.2151721706
 20
14.5157469327
 10
-0.2072889647
 20
14.5154063894
 10
-0.1992748652
 20
14.5145368478
 10
-0.1911479348
 20
14.5131403247
 10
-0.1829265238
 20
14.5112200149
 10
-0.174629427
 20
14.5087801882
 10
-0.1662754337
 20
14.5058263772
 10
-0.1578832845
 20
14.5023653642
 10
-0.1494718863
 20
14.4984050418
  0
LINE
  5
320
100
AcDbEntity
  8
RACCORDO
100
AcDbLine
 62
250
  6
CONTINUOUS
 10
14.4697518998
 20
22.1855423424
 11
8.3355980197
 21
19.3525868017
  0
LWPOLYLINE
  5
321
100
AcDbEntity
  8
0
100
AcDbPolyline
 62
250
  6
CONTINUOUS
 90
14
 70
0
 10
0.2828469366
 20
14.7700764882
 10
0.2898014755
 20
14.7723619417
 10
0.296969281
 20
14.7741249748
 10
0.3043341162
 20
14.7753615939
 10
0.3118792982
 20
14.7760689978
 10
0.3195877355
 20
14.7762455841
 10
0.3274419668
 20
14.7758909527
 10
0.3354242004
 20
14.775005907
 10
0.3435163547
 20
14.7735924518
 10
0.3517000994
 20
14.7716537889
 10
0.3599568962
 20
14.7691943098
 10
0.3682680419
 20
14.7662195857
 10
0.3766147096
 20
14.7627363552
 10
0.3849779924
 20
14.7587525084
  0
LWPOLYLINE
  5
322
100
AcDbEntity
  8
SUPERFICI
100
AcDbPolyline
 62
7
  6
CONTINUOUS
 90
6
 70
0
 10
-11.7299223838
 20
-16.8218739787
 10
-11.7423426143
 20
-16.8253854814
 10
-11.766302098
 20
-16.8280139453
 10
-11.7919748231
 20
-16.8257132394
 10
-11.8195776266
 20
-16.8186694249
 10
-11.8491113697
 20
-16.8068829767
  0
LINE
  5
323
100
AcDbEntity
  8
DRAFT
100
AcDbLine
 62
7
  6
CONTINUOUS
 10
-11.7300362826
 20
-16.8216334003
 11
-11.7443166176
 21
-16.8255301575
  0
LINE
  5
324
100
AcDbEntity
  8
RACCORDO
100
AcDbLine
 62
250
  6
CONTINUOUS
 10
-4.0683378805
 20
-11.2055054998
 11
-18.8576734463
 21
-3.8108377169
  0
LINE
  5
325
100
AcDbEntity
  8
RACCORDO
100
AcDbLine
 62
250
  6
CONTINUOUS
 10
-3.9318521297
 20
-10.9639888612
 11
-18.7211876955
 21
-3.5693210783
  0
LWPOLYLINE
  5
326
100
AcDbEntity
  8
RACCORDO
100
AcDbPolyline
 62
250
  6
CONTINUOUS
 90
9
 70
0
 10
-18.8576550474
 20
-3.810828495
 10
-18.8918119631
 20
-3.7918792829
 10
-18.9219735629
 20
-3.771165889
 10
-18.9477918248
 20
-3.7489029963
 10
-18.9690117947
 20
-3.725325203
 10
-18.9853862672
 20
-3.7006617982
 10
-18.996730158
 20
-3.6751523995
 10
-19.0029233426
 20
-3.649043796
 10
-19.0041214962
 20
-3.6317049123
  0
LWPOLYLINE
  5
327
100
AcDbEntity
  8
RACCORDO
100
AcDbPolyline
 62
250
  6
CONTINUOUS
 90
8
 70
0
 10
-18.7211876955
 20
-3.5693210783
 10
-18.7418645035
 20
-3.5577881166
 10
-18.7598313302
 20
-3.5454029053
 10
-18.7750881756
 20
-3.5321654445
 10
-18.7877641239
 20
-3.5179157597
 10
-18.7977300909
 20
-3.5028138253
 10
-18.8045988236
 20
-3.4873395651
 10
-18.8082484098
 20
-3.4714690566
  0
LWPOLYLINE
  5
328
100
AcDbEntity
  8
RACCORDO
100
AcDbPolyline
 62
7
  6
CONTINUOUS
 90
16
 70
0
 10
-0.6806097464
 20
-24.8281806012
 10
-0.6636287322
 20
-24.8622683092
 10
-0.6318868378
 20
-24.9141030383
 10
-0.5961930532
 20
-24.9622620891
 10
-0.5565398272
 20
-25.0066402838
 10
-0.5130029204
 20
-25.0468617417
 10
-0.4669187646
 20
-25.0815345881
 10
-0.4186601525
 20
-25.1104126534
 10
-0.3682793974
 20
-25.133439445
 10
-0.3172088641
 20
-25.1499819288
 10
-0.2666536779
 20
-25.1599832476
 10
-0.2166141159
 20
-25.1638291895
 10
-0.1671530702
 20
-25.1616735662
 10
-0.1189998222
 20
-25.1536229839
 10
-0.0728147073
 20
-25.1399355261
 10
-0.0394355493
 20
-25.126008377
  0
LWPOLYLINE
  5
329
100
AcDbEntity
  8
RACCORDO
100
AcDbPolyline
 62
7
  6
CONTINUOUS
 90
3
 70
0
 10
-8.9983993017
 20
-18.3025069659
 10
-9.0012100617
 20
-18.2885373463
 10
-9.0057272035
 20
-18.2741073535
  0
LWPOLYLINE
  5
32A
100
AcDbEntity
  8
SUPERFICI
100
AcDbPolyline
 62
7
  6
CONTINUOUS
 90
4
 70
0
 10
-13.7047987943
 20
4.2687352999
 10
-13.7029961686
 20
4.2544643497
 10
-13.6993963878
 20
4.239556969
 10
-13.6942500987
 20
4.2251001084
  0
LINE
  5
32B
100
AcDbEntity
  8
RACCORDO
100
AcDbLine
 62
7
  6
CONTINUOUS
 10
-8.9973901994
 20
-18.3160277142
 11
-8.9983993017
 21
-18.3025069659
  0
LINE
  5
32C
100
AcDbEntity
  8
0
100
AcDbLine
 62
7
  6
CONTINUOUS
 10
-10.5792939171
 20
17.8946627093
 11
-10.5792939171
 21
19.4968133703
  0
LINE
  5
32D
100
AcDbEntity
  8
0
100
AcDbLine
 62
250
  6
CONTINUOUS
 10
-10.0510267454
 20
19.7602521903
 11
-10.0510267454
 21
19.4127206736
  0
LINE
  5
32E
100
AcDbEntity
  8
0
100
AcDbLine
 62
7
  6
CONTINUOUS
 10
-9.9788288884
 20
19.8481248225
 11
-9.9788288884
 21
19.5005933058
  0
LINE
  5
32F
100
AcDbEntity
  8
0
100
AcDbLine
 62
7
  6
CONTINUOUS
 10
-9.6538843612
 20
17.749380823
 11
-9.6538843612
 21
16.3032180573
  0
LINE
  5
330
100
AcDbEntity
  8
0
100
AcDbLine
 62
7
  6
CONTINUOUS
 10
-8.9883036595
 20
15.9704277064
 11
-8.9883036595
 21
17.4165904721
  0
LINE
  5
331
100
AcDbEntity
  8
0
100
AcDbLine
 62
250
  6
CONTINUOUS
 10
-9.9788288884
 20
19.5005933058
 11
-9.9788829816
 21
19.497993129
  0
LWPOLYLINE
  5
332
100
AcDbEntity
  8
0
100
AcDbPolyline
 62
250
  6
CONTINUOUS
 90
18
 70
0
 10
-9.9788288884
 20
19.8481248225
 10
-9.978883568
 20
19.8455105926
 10
-9.979412541
 20
19.8395883474
 10
-9.9805024795
 20
19.83368534
 10
-9.9821509266
 20
19.8278148303
 10
-9.9843541848
 20
19.8219899832
 10
-9.9871073319
 20
19.8162238463
 10
-9.9904041622
 20
19.810529444
 10
-9.9942371768
 20
19.8049197046
 10
-9.9985976628
 20
19.7994073134
 10
-10.0034758324
 20
19.7940045856
 10
-10.0088607925
 20
19.7887235667
 10
-10.0147413535
 20
19.7835753697
 10
-10.0211035154
 20
19.7785723794
 10
-10.0279299162
 20
19.773727909
 10
-10.0352035373
 20
19.7690532989
 10
-10.0429084253
 20
19.7645581105
 10
-10.0510267454
 20
19.7602521903
  0
LWPOLYLINE
  5
333
100
AcDbEntity
  8
0
100
AcDbPolyline
 62
7
  6
CONTINUOUS
 90
31
 70
0
 10
-8.2811968783
 20
17.6029819169
 10
-8.2810001484
 20
17.6121521511
 10
-8.2804240586
 20
17.6214387284
 10
-8.2794686088
 20
17.630841649
 10
-8.2781291506
 20
17.640387052
 10
-8.2764103324
 20
17.6500487983
 10
-8.2743260999
 20
17.6597484697
 10
-8.2718734552
 20
17.6694864484
 10
-8.2690553961
 20
17.6792623522
 10
-8.2658948617
 20
17.6889966172
 10
-8.2623891119
 20
17.698688781
 10
-8.2585408868
 20
17.7083393059
 10
-8.2543813458
 20
17.7178700148
 10
-8.2499078967
 20
17.7272800669
 10
-8.2451231316
 20
17.7365703029
 10
-8.2400659868
 20
17.7456650683
 10
-8.2347342245
 20
17.7545627571
 10
-8.2291300825
 20
17.7632649753
 10
-8.2232992096
 20
17.7717008854
 10
-8.217239846
 20
17.7798682051
 10
-8.2109537514
 20
17.7877692168
 10
-8.2044918544
 20
17.7953399303
 10
-8.1978526428
 20
17.8025777566
 10
-8.1910376288
 20
17.8094852848
 10
-8.184102277
 20
17.8160062925
 10
-8.1770456579
 20
17.8221375792
 10
-8.169868701
 20
17.8278823454
 10
-8.1626296589
 20
17.8331939696
 10
-8.155347949
 20
17.8380569114
 10
-8.1480041539
 20
17.8424867111
 10
-8.1405982735
 20
17.8464833688
  0
LWPOLYLINE
  5
334
100
AcDbEntity
  8
RACCORDO
100
AcDbPolyline
 62
7
  6
CONTINUOUS
 90
4
 70
0
 10
-8.9982213292
 20
1.915514449
 10
-8.9972476236
 20
1.9289639989
 10
-8.9979699346
 20
1.9436830457
 10
-9.0004143166
 20
1.9586667774
  0
LINE
  5
335
100
AcDbEntity
  8
SUPERFICI
100
AcDbLine
 62
7
  6
CONTINUOUS
 10
-13.7031457421
 20
-15.9378969097
 11
-13.7049583156
 21
-15.9495513243
  0
LINE
  5
336
100
AcDbEntity
  8
RACCORDO
100
AcDbLine
 62
7
  6
CONTINUOUS
 10
-9.0009807984
 20
1.9034505613
 11
-8.9982213292
 21
1.915514449
  0
LWPOLYLINE
  5
337
100
AcDbEntity
  8
RACCORDO
100
AcDbPolyline
 62
7
  6
CONTINUOUS
 90
3
 70
0
 10
-9.0112948149
 20
1.8837865577
 10
-9.0054366404
 20
1.8926560119
 10
-9.0009807984
 20
1.9034505613
  0
LWPOLYLINE
  5
338
100
AcDbEntity
  8
RACCORDO
100
AcDbPolyline
 62
250
  6
CONTINUOUS
 90
3
 70
0
 10
-18.7798011458
 20
-3.3926002262
 10
-18.7654568769
 20
-3.3784494918
 10
-18.7483460099
 20
-3.3649838114
  0
LINE
  5
339
100
AcDbEntity
  8
SUPERFICI
100
AcDbLine
 62
7
  6
CONTINUOUS
 10
-13.1601462425
 20
4.6751765736
 11
-13.6795067218
 21
4.3348989044
  0
LINE
  5
33A
100
AcDbEntity
  8
SUPERFICI
100
AcDbLine
 62
7
  6
CONTINUOUS
 10
-12.637566429
 20
5.0170315738
 11
-13.1601462425
 21
4.6751765736
  0
LWPOLYLINE
  5
33B
100
AcDbEntity
  8
RACCORDO
100
AcDbPolyline
 62
7
  6
CONTINUOUS
 90
4
 70
0
 10
-12.637575685
 20
5.0170255287
 10
-12.8992758163
 20
4.8458991674
 10
-13.1601623042
 20
4.6751660541
 10
-13.6795067197
 20
4.3348989058
  0
LINE
  5
33C
100
AcDbEntity
  8
SUPERFICI
100
AcDbLine
 62
7
  6
CONTINUOUS
 10
-11.8476813136
 20
5.5327304271
 11
-12.637566429
 21
5.0170315738
  0
LWPOLYLINE
  5
33D
100
AcDbEntity
  8
SUPERFICI
100
AcDbPolyline
 62
7
  6
CONTINUOUS
 90
3
 70
0
 10
-11.3170999094
 20
5.8784578819
 10
-11.5827896965
 20
5.7054044839
 10
-11.8476813136
 20
5.5327304271
  0
LWPOLYLINE
  5
33E
100
AcDbEntity
  8
RACCORDO
100
AcDbPolyline
 62
7
  6
CONTINUOUS
 90
5
 70
0
 10
-11.3170999841
 20
5.8784578333
 10
-11.5827814556
 20
5.7054098477
 10
-11.8476692513
 20
5.5327382884
 10
-12.1117629693
 20
5.3604473006
 10
-12.637575685
 20
5.0170255287
  0
LINE
  5
33F
100
AcDbEntity
  8
RACCORDO
100
AcDbLine
 62
250
  6
CONTINUOUS
 10
11.8731076266
 20
17.8611655883
 11
11.786107246
 21
17.8080999189
  0
LWPOLYLINE
  5
340
100
AcDbEntity
  8
RACCORDO
100
AcDbPolyline
 62
250
  6
CONTINUOUS
 90
28
 70
0
 10
-2.604357025
 20
9.0285950634
 10
-2.6349865048
 20
9.0110865743
 10
-2.6666989667
 20
8.9912779271
 10
-2.6994141762
 20
8.9690236721
 10
-2.7331471889
 20
8.9441024002
 10
-2.7676735435
 20
8.9164540641
 10
-2.8025421145
 20
8.8862396194
 10
-2.8376318501
 20
8.8533953192
 10
-2.8727925108
 20
8.817885671
 10
-2.9075456779
 20
8.7800382107
 10
-2.9417616038
 20
8.739880786
 10
-2.9752879905
 20
8.6974751554
 10
-3.0076614223
 20
8.6533201276
 10
-3.0387706084
 20
8.6075340207
 10
-3.068503733
 20
8.5602502782
 10
-3.0964790018
 20
8.512086508
 10
-3.1226359134
 20
8.4632212403
 10
-3.1469331331
 20
8.4138167674
 10
-3.1691226163
 20
8.364521075
 10
-3.1892174495
 20
8.3155207066
 10
-3.2072543219
 20
8.2669651893
 10
-3.2231307052
 20
8.2194574964
 10
-3.2369382435
 20
8.1731334838
 10
-3.2487783631
 20
8.1281095757
 10
-3.2586669125
 20
8.0849359826
 10
-3.2667326541
 20
8.0438350083
 10
-3.2731638673
 20
8.0047061223
 10
-3.2781128653
 20
7.967581668
  0
LINE
  5
341
100
AcDbEntity
  8
SUPERFICI
100
AcDbLine
 62
7
  6
CONTINUOUS
 10
-11.3074716983
 20
5.8839310326
 11
-11.3170999094
 21
5.8784578819
  0
LINE
  5
342
100
AcDbEntity
  8
0
100
AcDbLine
 62
7
  6
CONTINUOUS
 10
1.7243640755
 20
11.742833713
 11
0.8343038928
 21
11.2461527917
  0
LINE
  5
343
100
AcDbEntity
  8
RACCORDO
100
AcDbLine
 62
250
  6
CONTINUOUS
 10
11.9950563397
 20
17.9288840892
 11
11.878609301
 21
17.8644851181
  0
LWPOLYLINE
  5
344
100
AcDbEntity
  8
RACCORDO
100
AcDbPolyline
 62
7
  6
CONTINUOUS
 90
3
 70
0
 10
11.9950563397
 20
17.9288840892
 10
11.882179179
 20
17.8666390653
 10
11.7856099982
 20
17.8083723907
  0
LINE
  5
345
100
AcDbEntity
  8
0
100
AcDbLine
 62
250
  6
CONTINUOUS
 10
2.077569461
 20
11.5662310202
 11
0.9983953971
 21
10.9770781781
  0
LINE
  5
346
100
AcDbEntity
  8
0
100
AcDbLine
 62
250
  6
CONTINUOUS
 10
2.4308701616
 20
10.9563869659
 11
1.351679663
 21
10.3672251516
  0
LWPOLYLINE
  5
347
100
AcDbEntity
  8
RACCORDO
100
AcDbPolyline
 62
250
  6
CONTINUOUS
 90
28
 70
0
 10
-2.2448542902
 20
8.4225891424
 10
-2.2605196263
 20
8.4140785132
 10
-2.2766409519
 20
8.4042813373
 10
-2.293218267
 20
8.3931976148
 10
-2.3103686163
 20
8.3808317798
 10
-2.327974955
 20
8.3671793981
 10
-2.3456861493
 20
8.3522271673
 10
-2.3635126947
 20
8.3359176357
 10
-2.3814440955
 20
8.3183082551
 10
-2.3990977308
 20
8.2995580777
 10
-2.4164666232
 20
8.2796098754
 10
-2.4335577501
 20
8.2585208763
 10
-2.4500094218
 20
8.2366218175
 10
-2.4657925742
 20
8.2138724422
 10
-2.4809362715
 20
8.190313007
 10
-2.4951660167
 20
8.1663950189
 10
-2.5084364664
 20
8.1421062253
 10
-2.5207929639
 20
8.1174588787
 10
-2.532097042
 20
8.0929412435
 10
-2.5422994656
 20
8.0685674095
 10
-2.5514494697
 20
8.0443232869
 10
-2.5595562926
 20
8.0206548711
 10
-2.5665784065
 20
7.9975868727
 10
-2.572557339
 20
7.9750945811
 10
-2.5776269114
 20
7.95354986
 10
-2.5818317307
 20
7.933076664
 10
-2.5851271897
 20
7.9135510386
 10
-2.5875132886
 20
7.8949729838
  0
LWPOLYLINE
  5
348
100
AcDbEntity
  8
RACCORDO
100
AcDbPolyline
 62
7
  6
CONTINUOUS
 90
13
 70
0
 10
-0.5263811686
 20
9.542577444
 10
-0.5312412098
 20
9.5399656358
 10
-0.5653165451
 20
9.5190209107
 10
-0.5973423199
 20
9.4945048538
 10
-0.626951519
 20
9.4666069589
 10
-0.6537963474
 20
9.4356074763
 10
-0.6778250132
 20
9.4014429331
 10
-0.6987425967
 20
9.3642726038
 10
-0.7162147179
 20
9.3244347709
 10
-0.7300989856
 20
9.2819533886
 10
-0.7401689633
 20
9.2369135237
 10
-0.7461585503
 20
9.1896178153
 10
-0.7478861562
 20
9.1461451626
  0
LWPOLYLINE
  5
349
100
AcDbEntity
  8
DRAFT
100
AcDbPolyline
 62
7
  6
CONTINUOUS
 90
16
 70
0
 10
-11.4795254888
 20
6.4820004575
 10
-11.4433599762
 20
6.5012897259
 10
-11.4058040445
 20
6.5146941075
 10
-11.366862312
 20
6.5222117671
 10
-11.3261753244
 20
6.5237685853
 10
-11.2841095001
 20
6.5194359214
 10
-11.2417572971
 20
6.5094305458
 10
-11.199052557
 20
6.4936082182
 10
-11.1560640002
 20
6.4721121666
 10
-11.1140852886
 20
6.4455908042
 10
-11.07319856
 20
6.4139779841
 10
-11.0333191156
 20
6.3773408652
 10
-10.9954892479
 20
6.33652826
 10
-10.9600541219
 20
6.2918240039
 10
-10.9266616087
 20
6.2429470217
 10
-10.8953070901
 20
6.1898991485
  0
LINE
  5
34A
100
AcDbEntity
  8
DRAFT
100
AcDbLine
 62
7
  6
CONTINUOUS
 10
8.7364366764
 20
15.5010750359
 11
2.3569563104
 21
12.1286059883
  0
LINE
  5
34B
100
AcDbEntity
  8
RACCORDO
100
AcDbLine
 62
250
  6
CONTINUOUS
 10
-1.3725576714
 20
9.6793274432
 11
-2.604357025
 21
9.0285950634
  0
LINE
  5
34C
100
AcDbEntity
  8
RACCORDO
100
AcDbLine
 62
250
  6
CONTINUOUS
 10
-1.0194349327
 20
9.0699511112
 11
-2.2448542902
 21
8.4225891424
  0
LINE
  5
34D
100
AcDbEntity
  8
RACCORDO
100
AcDbLine
 62
7
  6
CONTINUOUS
 10
-0.4526435558
 20
9.5815171775
 11
-0.5263434156
 21
9.5425973796
  0
LINE
  5
34E
100
AcDbEntity
  8
0
100
AcDbLine
 62
7
  6
CONTINUOUS
 10
11.9950563397
 20
17.9288840892
 11
12.8107901963
 21
18.3590366815
  0
LINE
  5
34F
100
AcDbEntity
  8
DRAFT
100
AcDbLine
 62
7
  6
CONTINUOUS
 10
2.8061109306
 20
11.9027595209
 11
9.4340540364
 21
15.3844841215
  0
LINE
  5
350
100
AcDbEntity
  8
DRAFT
100
AcDbLine
 62
7
  6
CONTINUOUS
 10
8.7364366764
 20
15.9270064369
 11
2.130114252
 21
12.4643749684
  0
LINE
  5
351
100
AcDbEntity
  8
0
100
AcDbLine
 62
250
  6
CONTINUOUS
 10
2.7791664486
 20
11.9175009192
 11
2.0782304948
 21
11.5659005033
  0
LINE
  5
352
100
AcDbEntity
  8
0
100
AcDbLine
 62
250
  6
CONTINUOUS
 10
3.1327153518
 20
11.3077284215
 11
2.4317793981
 21
10.9561280056
  0
LINE
  5
353
100
AcDbEntity
  8
0
100
AcDbLine
 62
250
  6
CONTINUOUS
 10
0.1230832847
 20
12.5422623705
 11
1.7243640755
 21
13.344984374
  0
LINE
  5
354
100
AcDbEntity
  8
0
100
AcDbLine
 62
7
  6
CONTINUOUS
 10
12.9390776251
 20
18.1359449501
 11
13.4340523719
 21
18.3834323236
  0
LINE
  5
355
100
AcDbEntity
  8
RACCORDO
100
AcDbLine
 62
7
  6
CONTINUOUS
 10
15.9022302845
 20
18.5639321759
 11
14.5907659734
 21
17.9082000203
  0
LINE
  5
356
100
AcDbEntity
  8
RACCORDO
100
AcDbLine
 62
7
  6
CONTINUOUS
 10
13.8895422316
 20
17.5575881494
 11
13.4224918666
 21
17.3240629669
  0
LINE
  5
357
100
AcDbEntity
  8
RACCORDO
100
AcDbLine
 62
7
  6
CONTINUOUS
 10
16.7507609922
 20
18.1396693923
 11
15.4392941109
 21
17.4839359516
  0
LINE
  5
358
100
AcDbEntity
  8
0
100
AcDbLine
 62
250
  6
CONTINUOUS
 10
1.7243640755
 20
13.344984374
 11
2.2526312472
 21
13.608423194
  0
LINE
  5
359
100
AcDbEntity
  8
RACCORDO
100
AcDbLine
 62
7
  6
CONTINUOUS
 10
20.0154150841
 20
19.4127107502
 11
16.4782278359
 21
17.7197351195
  0
LWPOLYLINE
  5
35A
100
AcDbEntity
  8
SMUSSO
100
AcDbPolyline
 62
7
  6
CONTINUOUS
 90
88
 70
0
 10
16.4782278359
 20
17.7197351195
 10
16.4241249817
 20
17.6942124174
 10
16.3688572098
 20
17.66935545
 10
16.31242452
 20
17.6451642174
 10
16.2547952359
 20
17.6216265533
 10
16.196001034
 20
17.5987546239
 10
16.136136944
 20
17.576584928
 10
16.075201764
 20
17.5551186564
 10
16.0131966959
 20
17.5343546183
 10
15.9502203754
 20
17.5143257396
 10
15.88626917
 20
17.495032602
 10
15.8213467121
 20
17.4764746239
 10
15.7555625346
 20
17.4586829863
 10
15.6889171282
 20
17.4416594728
 10
15.6214100023
 20
17.4254022997
 10
15.553149217
 20
17.409937297
 10
15.4841324578
 20
17.3952654801
 10
15.4143620392
 20
17.3813858336
 10
15.3439529659
 20
17.3683211416
 10
15.2729038162
 20
17.3560727461
 10
15.2012160118
 20
17.3446393051
 10
15.1290088222
 20
17.3340395775
 10
15.056283868
 20
17.324275193
 10
14.9830395286
 20
17.3153445219
 10
14.9093902124
 20
17.3072614338
 10
14.8353303465
 20
17.3000269015
 10
14.7608655038
 20
17.2936399521
 10
14.6861268107
 20
17.2881115369
 10
14.6111213554
 20
17.2834434882
 10
14.5358420497
 20
17.2796339736
 10
14.4603987562
 20
17.2766884464
 10
14.3847813739
 20
17.2746080657
 10
14.3090000038
 20
17.2733916725
 10
14.2331948108
 20
17.2730412431
 10
14.1573777288
 20
17.2735581105
 10
14.0815368239
 20
17.2749409417
 10
14.0057764598
 20
17.2771877146
 10
13.9300842231
 20
17.2803002575
 10
13.8544725272
 20
17.284276742
 10
13.7790829759
 20
17.2891096615
 10
13.7039276081
 20
17.2947996282
 10
13.6289943848
 20
17.3013460299
 10
13.554388793
 20
17.3087395235
 10
13.4801012791
 20
17.3169824772
 10
13.4061413966
 20
17.3260725228
 10
13.3326432934
 20
17.3359932126
 10
13.2596151164
 20
17.3467449733
 10
13.1870487187
 20
17.3583273782
 10
13.1150538077
 20
17.3707226995
 10
13.0436273579
 20
17.3839328343
 10
12.9727723947
 20
17.3979558856
 10
12.9026077024
 20
17.4127684337
 10
12.8331346198
 20
17.428371879
 10
12.7643518079
 20
17.4447648212
 10
12.6963740343
 20
17.46191964
 10
12.6292061538
 20
17.4798364991
 10
12.5628433115
 20
17.4985152349
 10
12.4973857112
 20
17.5179277364
 10
12.4328279667
 20
17.538077447
 10
12.3691754642
 20
17.5589609235
 10
12.3065445658
 20
17.5805397252
 10
12.2449464284
 20
17.6028115043
 10
12.184369895
 20
17.6257786087
 10
12.1248978565
 20
17.6494096419
 10
12.0665210695
 20
17.6737102689
 10
12.0092487772
 20
17.6986748246
 10
11.953191601
 20
17.7242549171
 10
11.8983632831
 20
17.7504459813
 10
11.8447500812
 20
17.7772525823
 10
11.7924213897
 20
17.8046400228
 10
11.7413681796
 20
17.8326151235
 10
11.6915994799
 20
17.8611710637
 10
11.6432117724
 20
17.8902526839
 10
11.596216433
 20
17.9198553397
 10
11.5506020858
 20
17.9499836756
 10
11.5064310849
 20
17.9805964656
 10
11.4636988757
 20
18.0116992177
 10
11.4224100127
 20
18.043286424
 10
11.3826405147
 20
18.0753003347
 10
11.3443973007
 20
18.1077382402
 10
11.3076734517
 20
18.1406028501
 10
11.2725242284
 20
18.173844543
 10
11.2389500713
 20
18.2074656895
 10
11.20695054
 20
18.2414639189
 10
11.1765795745
 20
18.2757824977
 10
11.1478400658
 20
18.31042205
 10
11.120729123
 20
18.3453819517
 10
11.097138207
 20
18.3779578012
  0
LWPOLYLINE
  5
35B
100
AcDbEntity
  8
RACCORDO
100
AcDbPolyline
 62
250
  6
CONTINUOUS
 90
26
 70
0
 10
20.559491614
 20
19.1406724853
 10
20.5787515262
 20
19.1495690964
 10
20.5979879716
 20
19.1578115014
 10
20.6171866651
 20
19.1653935794
 10
20.6363333497
 20
19.1723097
 10
20.6554138069
 20
19.1785547272
 10
20.6744138675
 20
19.1841240235
 10
20.6933194219
 20
19.189013453
 10
20.7121164307
 20
19.1932193848
 10
20.7307909352
 20
19.1967386955
 10
20.7493290677
 20
19.1995687718
 10
20.7677170615
 20
19.2017075119
 10
20.7859412616
 20
19.2031533277
 10
20.8039881348
 20
19.2039051455
 10
20.8218442792
 20
19.2039624069
 10
20.8394964347
 20
19.2033250694
 10
20.8569314929
 20
19.2019936064
 10
20.8741365063
 20
19.1999690066
 10
20.8910986984
 20
19.1972527734
 10
20.907805473
 20
19.193846924
 10
20.9242444234
 20
19.1897539875
 10
20.9404033422
 20
19.1849770034
 10
20.9562702296
 20
19.1795195191
 10
20.9718333026
 20
19.1733855874
 10
20.9870810042
 20
19.1665797633
 10
20.9943644945
 20
19.1630358149
  0
LWPOLYLINE
  5
35C
100
AcDbEntity
  8
RACCORDO
100
AcDbPolyline
 62
7
  6
CONTINUOUS
 90
23
 70
0
 10
-0.452612888
 20
9.5814573066
 10
-0.4314518154
 20
9.5912070173
 10
-0.3976984106
 20
9.6011256637
 10
-0.3614924309
 20
9.6056478132
 10
-0.3239439245
 20
9.6046189034
 10
-0.2849753984
 20
9.59785911
 10
-0.2446643454
 20
9.5855482574
 10
-0.2043532925
 20
9.5680712561
 10
-0.1640422395
 20
9.5452372044
 10
-0.1237311866
 20
9.5172370041
 10
-0.0847626604
 20
9.4850282714
 10
-0.047214154
 20
9.4485086747
 10
-0.0110081743
 20
9.4077805456
 10
0.0227452305
 20
9.3641084944
 10
0.0539933115
 20
9.317368351
 10
0.0827888176
 20
9.2676842856
 10
0.1081799478
 20
9.2166934187
 10
0.130044376
 20
9.1643726151
 10
0.1485044283
 20
9.1107450099
 10
0.1629752816
 20
9.0575171296
 10
0.1732619951
 20
9.0052578162
 10
0.1795595097
 20
8.9533982277
 10
0.1818678253
 20
8.901938364
  0
LWPOLYLINE
  5
35D
100
AcDbEntity
  8
RACCORDO
100
AcDbPolyline
 62
7
  6
CONTINUOUS
 90
10
 70
0
 10
16.7507320963
 20
18.1396549443
 10
16.7621285606
 20
18.1448235996
 10
16.773348963
 20
18.148875496
 10
16.7843933038
 20
18.1518106335
 10
16.7953565627
 20
18.1536291648
 10
16.8061437598
 20
18.1543309373
 10
16.8164699553
 20
18.1539154929
 10
16.826240169
 20
18.1523826791
 10
16.835549381
 20
18.1497326483
 10
16.8443975913
 20
18.1459654007
  0
LWPOLYLINE
  5
35E
100
AcDbEntity
  8
RACCORDO
100
AcDbPolyline
 62
250
  6
CONTINUOUS
 90
26
 70
0
 10
-0.5262162979
 20
9.5426645095
 10
-0.5001345861
 20
9.5541867728
 10
-0.4681041895
 20
9.5629678099
 10
-0.4333130781
 20
9.5668683761
 10
-0.3963961369
 20
9.5655211145
 10
-0.3576315634
 20
9.5587039184
 10
-0.3174396358
 20
9.5462167039
 10
-0.2768344918
 20
9.5282849303
 10
-0.236274343
 20
9.5051419204
 10
-0.1962156413
 20
9.4770250261
 10
-0.157663037
 20
9.4447656341
 10
-0.1210392906
 20
9.4090064746
 10
-0.0866012906
 20
9.3702397503
 10
-0.0549334123
 20
9.3294445567
 10
-0.0262400955
 20
9.2873694954
 10
-0.0005217512
 20
9.2444773617
 10
0.0221260967
 20
9.2013997891
 10
0.041744218
 20
9.1586463382
 10
0.058434648
 20
9.1165983954
 10
0.0722989325
 20
9.0756347239
 10
0.0834957629
 20
9.0360616596
 10
0.0922087293
 20
8.9981058442
 10
0.0986243225
 20
8.9619472021
 10
0.1029473496
 20
8.9277178691
 10
0.1053888598
 20
8.8955108545
 10
0.1061552782
 20
8.8653817588
  0
LINE
  5
35F
100
AcDbEntity
  8
SUPERFICI
100
AcDbLine
 62
7
  6
CONTINUOUS
 10
-11.2984569501
 20
5.8876418599
 11
-11.3074716983
 21
5.8839310326
  0
LWPOLYLINE
  5
360
100
AcDbEntity
  8
DRAFT
100
AcDbPolyline
 62
7
  6
CONTINUOUS
 90
4
 70
0
 10
-11.2984422055
 20
5.887596883
 10
-11.3024799746
 20
5.8860859501
 10
-11.3099286716
 20
5.882646828
 10
-11.3170999841
 20
5.8784578333
  0
LINE
  5
361
100
AcDbEntity
  8
SUPERFICI
100
AcDbLine
 62
7
  6
CONTINUOUS
 10
-11.2969020025
 20
5.8881301165
 11
-11.2984569501
 21
5.8876418599
  0
LWPOLYLINE
  5
362
100
AcDbEntity
  8
RACCORDO
100
AcDbPolyline
 62
250
  6
CONTINUOUS
 90
5
 70
0
 10
-3.5471138825
 20
-10.3985675846
 10
-3.499883092
 20
-10.3896481239
 10
-3.4549556859
 20
-10.3784261267
 10
-3.4127858802
 20
-10.3650025908
 10
-3.3738100183
 20
-10.349520806
  0
LWPOLYLINE
  5
363
100
AcDbEntity
  8
RACCORDO
100
AcDbPolyline
 62
250
  6
CONTINUOUS
 90
8
 70
0
 10
-3.8988392938
 20
-10.3909674222
 10
-3.8503505597
 20
-10.3995736962
 10
-3.8003479803
 20
-10.4057537505
 10
-3.7493053995
 20
-10.409437656
 10
-3.6978154658
 20
-10.4105504115
 10
-3.6465779021
 20
-10.4090820697
 10
-3.5961824157
 20
-10.4050739631
 10
-3.5471138825
 20
-10.3985675846
  0
LWPOLYLINE
  5
364
100
AcDbEntity
  8
RACCORDO
100
AcDbPolyline
 62
250
  6
CONTINUOUS
 90
5
 70
0
 10
-4.0683194818
 20
-10.3345258506
 10
-4.0305135609
 20
-10.3516505601
 10
-3.9893759425
 20
-10.3668759447
 10
-3.9453326506
 20
-10.3800263224
 10
-3.8988392938
 20
-10.3909674222
  0
LWPOLYLINE
  5
365
100
AcDbEntity
  8
RACCORDO
100
AcDbPolyline
 62
7
  6
CONTINUOUS
 90
14
 70
0
 10
-4.0167537605
 20
-10.442669982
 10
-4.0013791405
 20
-10.4500625061
 10
-3.9563852379
 20
-10.468481135
 10
-3.9091325902
 20
-10.4834799321
 10
-3.8598632737
 20
-10.4952077257
 10
-3.8091760409
 20
-10.5036454948
 10
-3.7574645772
 20
-10.5088260868
 10
-3.70510342
 20
-10.5107244322
 10
-3.6529580884
 20
-10.5092960832
 10
-3.6014061345
 20
-10.5045402901
 10
-3.5508776531
 20
-10.4963840898
 10
-3.5020288151
 20
-10.4848070813
 10
-3.455116821
 20
-10.4696506205
 10
-3.4315558875
 20
-10.4602713898
  0
LINE
  5
366
100
AcDbEntity
  8
RACCORDO
100
AcDbLine
 62
7
  6
CONTINUOUS
 10
-18.8056948807
 20
-3.0482162346
 11
-4.0163593375
 21
-10.4428840062
  0
LINE
  5
367
100
AcDbEntity
  8
RACCORDO
100
AcDbLine
 62
250
  6
CONTINUOUS
 10
-18.8576734463
 20
-2.9398672445
 11
-4.0683378805
 21
-10.3345350274
  0
LWPOLYLINE
  5
368
100
AcDbEntity
  8
SUPERFICI
100
AcDbPolyline
 62
7
  6
CONTINUOUS
 90
3
 70
0
 10
-13.6942500987
 20
4.2251001084
 10
-13.6874021192
 20
4.2110119555
 10
-13.67900844
 20
4.1973739612
  0
LWPOLYLINE
  5
369
100
AcDbEntity
  8
0
100
AcDbPolyline
 62
250
  6
CONTINUOUS
 90
13
 70
0
 10
2.2497076944
 20
-27.8132330424
 10
2.2450670739
 20
-27.8035871847
 10
2.2400422364
 20
-27.7942736675
 10
2.2346445226
 20
-27.7853135109
 10
2.2288861148
 20
-27.7767269375
 10
2.2227800095
 20
-27.7685333265
 10
2.2163399877
 20
-27.7607511706
 10
2.2095805842
 20
-27.7533980335
 10
2.2025170546
 20
-27.7464905109
 10
2.1951653408
 20
-27.7400441927
 10
2.1875420352
 20
-27.7340736277
 10
2.1796643432
 20
-27.7285922913
 10
2.1715500443
 20
-27.7236125544
  0
LINE
  5
36A
100
AcDbEntity
  8
0
100
AcDbLine
 62
7
  6
CONTINUOUS
 10
-8.2811968783
 20
17.6029819169
 11
-8.2811968783
 21
16.3693675652
  0
LINE
  5
36B
100
AcDbEntity
  8
0
100
AcDbLine
 62
250
  6
CONTINUOUS
 10
-6.6548512816
 20
15.5561947668
 11
-6.6548512816
 21
16.7898091185
  0
LINE
  5
36C
100
AcDbEntity
  8
0
100
AcDbLine
 62
250
  6
CONTINUOUS
 10
-6.3720085691
 20
15.5652720605
 11
-6.3720085691
 21
16.7898091185
  0
LINE
  5
36D
100
AcDbEntity
  8
0
100
AcDbLine
 62
7
  6
CONTINUOUS
 10
-5.4527697535
 20
16.0339728689
 11
-5.4527697535
 21
17.2459016544
  0
LWPOLYLINE
  5
36E
100
AcDbEntity
  8
0
100
AcDbPolyline
 62
250
  6
CONTINUOUS
 90
31
 70
0
 10
-6.6548512816
 20
16.7898091185
 10
-6.6546588213
 20
16.7989385321
 10
-6.6540819627
 20
16.8082355786
 10
-6.6531222733
 20
16.817674954
 10
-6.6517823609
 20
16.8272309768
 10
-6.650065871
 20
16.8368776282
 10
-6.64797748
 20
16.8465886221
 10
-6.6455228751
 20
16.8563375191
 10
-6.6427087368
 20
16.8660977916
 10
-6.6395427281
 20
16.8758428663
 10
-6.6360334678
 20
16.8855462193
 10
-6.6321905092
 20
16.8951814398
 10
-6.6280243176
 20
16.9047222945
 10
-6.6235462315
 20
16.9141428224
 10
-6.6187684445
 20
16.9234173772
 10
-6.6137039782
 20
16.93252069
 10
-6.6083666427
 20
16.9414279527
 10
-6.6027709496
 20
16.9501149616
 10
-6.5969320812
 20
16.9585581494
 10
-6.5908658453
 20
16.9667346398
 10
-6.5845888261
 20
16.9746220627
 10
-6.5781183092
 20
16.9821987182
 10
-6.5714720522
 20
16.9894438732
 10
-6.5646680309
 20
16.9963379911
 10
-6.5577245771
 20
17.0028625183
 10
-6.550659118
 20
17.0090009238
 10
-6.5434923059
 20
17.0147351127
 10
-6.5362479506
 20
17.0200464636
 10
-6.5289473212
 20
17.0249203727
 10
-6.5216089112
 20
17.0293454745
 10
-6.5142526768
 20
17.0333105705
  0
LWPOLYLINE
  5
36F
100
AcDbEntity
  8
0
100
AcDbPolyline
 62
7
  6
CONTINUOUS
 90
25
 70
0
 10
-2.3061445773
 20
14.2188612313
 10
-2.300566587
 20
14.2308881001
 10
-2.295459491
 20
14.2433526398
 10
-2.2908232893
 20
14.2562548506
 10
-2.2866528289
 20
14.2696141574
 10
-2.2829532628
 20
14.2834111351
 10
-2.2797400492
 20
14.2975875093
 10
-2.2770152242
 20
14.3121448589
 10
-2.2747767517
 20
14.3270816048
 10
-2.2730339818
 20
14.3423347353
 10
-2.2717889882
 20
14.3579055694
 10
-2.2710396973
 20
14.3737927881
 10
-2.2707892382
 20
14.3899294227
 10
-2.2710396973
 20
14.4063165164
 10
-2.2717889882
 20
14.422953026
 10
-2.2730339818
 20
14.4397688537
 10
-2.2747767517
 20
14.4567647541
 10
-2.2770152242
 20
14.4739399725
 10
-2.2797400492
 20
14.4912221471
 10
-2.2829532628
 20
14.5086117349
 10
-2.2866528289
 20
14.5261082788
 10
-2.2908232893
 20
14.5436380458
 10
-2.295459491
 20
14.5611764584
 10
-2.300566587
 20
14.5787480942
 10
-2.3061445773
 20
14.5963529531
  0
LWPOLYLINE
  5
370
100
AcDbEntity
  8
0
100
AcDbPolyline
 62
7
  6
CONTINUOUS
 90
31
 70
0
 10
2.9663025798
 20
16.8223951793
 10
2.9746153793
 20
16.833088484
 10
2.9823947059
 20
16.8444034069
 10
2.9896405595
 20
16.856339948
 10
2.9963635498
 20
16.8689207384
 10
3.0025530671
 20
16.882123147
 10
3.0081772823
 20
16.8958792807
 10
3.0132332833
 20
16.9101919921
 10
3.0177239822
 20
16.9250584285
 10
3.0216262859
 20
16.9404021401
 10
3.0249371634
 20
16.9562255852
 10
3.0276596456
 20
16.9725263053
 10
3.0297797325
 20
16.9892204747
 10
3.0312943209
 20
17.00631012
 10
3.0322065139
 20
17.0237932145
 10
3.0325116207
 20
17.0415798521
 10
3.0322065139
 20
17.0596715966
 10
3.0312943209
 20
17.0780668841
 10
3.0297797325
 20
17.0966711178
 10
3.0276596456
 20
17.115485374
 10
3.0249371634
 20
17.1345085764
 10
3.0216262859
 20
17.153642899
 10
3.0177239822
 20
17.1728889142
 10
3.0132332833
 20
17.1922460496
 10
3.0081772823
 20
17.211614762
 10
3.0025530671
 20
17.2309951109
 10
2.9963635498
 20
17.2503870368
 10
2.9896405595
 20
17.2696908175
 10
2.9823947059
 20
17.2888732122
 10
2.9746153793
 20
17.3079674616
 10
2.9663025798
 20
17.3269735659
  0
LINE
  5
371
100
AcDbEntity
  8
0
100
AcDbLine
 62
250
  6
CONTINUOUS
 10
2.2680280797
 20
13.1901007711
 11
2.2679918196
 21
13.1900565107
  0
LINE
  5
372
100
AcDbEntity
  8
0
100
AcDbLine
 62
250
  6
CONTINUOUS
 10
1.7243640755
 20
12.6179395215
 11
2.2526312472
 21
13.2608916773
  0
LINE
  5
373
100
AcDbEntity
  8
0
100
AcDbLine
 62
7
  6
CONTINUOUS
 10
1.7243640755
 20
12.5284090552
 11
2.2679918196
 21
13.1900565107
  0
LINE
  5
374
100
AcDbEntity
  8
RACCORDO
100
AcDbLine
 62
7
  6
CONTINUOUS
 10
-9.0135476598
 20
1.8813151059
 11
-9.0112948149
 21
1.8837865577
  0
LWPOLYLINE
  5
375
100
AcDbEntity
  8
SUPERFICI
100
AcDbPolyline
 62
7
  6
CONTINUOUS
 90
11
 70
0
 10
-9.0135594249
 20
1.8813335463
 10
-9.011371373
 20
1.8836951746
 10
-9.0054241052
 20
1.8926136706
 10
-9.0009442615
 20
1.9034848269
 10
-8.9981970916
 20
1.9156783409
 10
-8.9972903194
 20
1.9293970233
 10
-8.9981158106
 20
1.944438246
 10
-9.0006158211
 20
1.9595631928
 10
-9.0047715237
 20
1.9743587367
 10
-9.0106024397
 20
1.9892376942
 10
-9.018108834
 20
2.0041999467
  0
LINE
  5
376
100
AcDbEntity
  8
RACCORDO
100
AcDbLine
 62
250
  6
CONTINUOUS
 10
-18.7483460099
 20
-3.3649838114
 11
-18.7284685447
 21
-3.3522031849
  0
LWPOLYLINE
  5
377
100
AcDbEntity
  8
RACCORDO
100
AcDbPolyline
 62
7
  6
CONTINUOUS
 90
12
 70
0
 10
-18.8239047098
 20
-3.3498622468
 10
-18.8319423211
 20
-3.3546317411
 10
-18.8642228475
 20
-3.3761427336
 10
-18.893571404
 20
-3.3997616098
 10
-18.9198600364
 20
-3.4254267466
 10
-18.942828066
 20
-3.4528968585
 10
-18.9623496381
 20
-3.4820265975
 10
-18.978277685
 20
-3.5126148535
 10
-18.9903847105
 20
-3.544079633
 10
-18.9986420976
 20
-3.5759227277
 10
-19.0031464868
 20
-3.6078618131
 10
-19.0041214822
 20
-3.63172157
  0
LWPOLYLINE
  5
378
100
AcDbEntity
  8
SUPERFICI
100
AcDbPolyline
 62
7
  6
CONTINUOUS
 90
3
 70
0
 10
-11.7124435928
 20
2.7403744927
 10
-11.7333048456
 20
2.7281094428
 10
-11.7443257779
 20
2.723667183
  0
LINE
  5
379
100
AcDbEntity
  8
RACCORDO
100
AcDbLine
 62
7
  6
CONTINUOUS
 10
-18.8239414602
 20
-3.3498663675
 11
-18.5363217036
 21
-3.1829028232
  0
LINE
  5
37A
100
AcDbEntity
  8
RACCORDO
100
AcDbLine
 62
250
  6
CONTINUOUS
 10
-18.7284685447
 20
-3.3522031849
 11
-18.4828660024
 21
-3.2096306737
  0
LWPOLYLINE
  5
37B
100
AcDbEntity
  8
SUPERFICI
100
AcDbPolyline
 62
7
  6
CONTINUOUS
 90
4
 70
0
 10
-11.0092180272
 20
2.7697556003
 10
-10.991739031
 20
2.7796205399
 10
-10.9684112739
 20
2.7876414563
 10
-10.9434174136
 20
2.7907871085
  0
LWPOLYLINE
  5
37C
100
AcDbEntity
  8
DRAFT
100
AcDbPolyline
 62
7
  6
CONTINUOUS
 90
7
 70
0
 10
-11.0092105512
 20
2.7697414275
 10
-10.9905063102
 20
2.7799615347
 10
-10.9663573167
 20
2.7878261094
 10
-10.9410148922
 20
2.7908464708
 10
-10.9149206711
 20
2.7888693371
 10
-10.887636462
 20
2.7820464446
 10
-10.8591631172
 20
2.7703774112
  0
LINE
  5
37D
100
AcDbEntity
  8
RACCORDO
100
AcDbLine
 62
250
  6
CONTINUOUS
 10
21.1663173012
 20
18.4527178263
 11
3.785087334
 21
9.609968633
  0
LWPOLYLINE
  5
37E
100
AcDbEntity
  8
RACCORDO
100
AcDbPolyline
 62
250
  6
CONTINUOUS
 90
7
 70
0
 10
-18.8239121875
 20
-3.3498493834
 10
-18.8164316483
 20
-3.346047415
 10
-18.800889296
 20
-3.3410567645
 10
-18.7840254051
 20
-3.339171575
 10
-18.7661280749
 20
-3.340424053
 10
-18.7475030594
 20
-3.3447928012
 10
-18.7284685447
 20
-3.3522031849
  0
LINE
  5
37F
100
AcDbEntity
  8
DRAFT
100
AcDbLine
 62
7
  6
CONTINUOUS
 10
3.1327153518
 20
8.3914778659
 11
4.1841192825
 21
8.9217403262
  0
LINE
  5
380
100
AcDbEntity
  8
RACCORDO
100
AcDbLine
 62
7
  6
CONTINUOUS
 10
0.1061560509
 20
6.5912297012
 11
-0.3060425724
 21
6.3835411018
  0
LINE
  5
381
100
AcDbEntity
  8
DRAFT
100
AcDbLine
 62
7
  6
CONTINUOUS
 10
-1.0194349327
 20
7.2615494927
 11
-0.7478864809
 21
7.3973237187
  0
LINE
  5
382
100
AcDbEntity
  8
RACCORDO
100
AcDbLine
 62
250
  6
CONTINUOUS
 10
21.0594154616
 20
18.637096226
 11
21.0967181597
 21
18.6554736069
  0
LINE
  5
383
100
AcDbEntity
  8
RACCORDO
100
AcDbLine
 62
250
  6
CONTINUOUS
 10
21.1663173012
 20
18.4527178263
 11
21.2035959332
 21
18.4710834647
  0
LINE
  5
384
100
AcDbEntity
  8
RACCORDO
100
AcDbLine
 62
250
  6
CONTINUOUS
 10
10.1795809721
 20
14.0986403627
 11
20.559491614
 21
19.1406724853
  0
LINE
  5
385
100
AcDbEntity
  8
RACCORDO
100
AcDbLine
 62
250
  6
CONTINUOUS
 10
10.517249306
 20
13.5162486356
 11
21.0594154616
 21
18.637096226
  0
LINE
  5
386
100
AcDbEntity
  8
RACCORDO
100
AcDbLine
 62
250
  6
CONTINUOUS
 10
0.1061560509
 20
8.8653813586
 11
0.1818678253
 21
8.901938364
  0
LWPOLYLINE
  5
387
100
AcDbEntity
  8
RACCORDO
100
AcDbPolyline
 62
250
  6
CONTINUOUS
 90
31
 70
0
 10
21.0967181597
 20
18.6554736069
 10
21.1323866076
 20
18.6727005553
 10
21.149574639
 20
18.6808664684
 10
21.1663147475
 20
18.6887258462
 10
21.1825944995
 20
18.6962728508
 10
21.1984017686
 20
18.7035018598
 10
21.213724768
 20
18.7104074824
 10
21.2285520932
 20
18.7169845791
 10
21.2428727296
 20
18.7232282642
 10
21.2566760301
 20
18.7291338956
 10
21.2699517316
 20
18.7346970822
 10
21.2826899607
 20
18.7399136866
 10
21.2948812437
 20
18.7447798291
 10
21.3065165146
 20
18.7492918908
 10
21.3175871221
 20
18.753446517
 10
21.3280848339
 20
18.7572406183
 10
21.338001844
 20
18.7606713732
 10
21.3473307782
 20
18.7637362308
 10
21.3560646994
 20
18.766432912
 10
21.3641971132
 20
18.7687594116
 10
21.3717219721
 20
18.7707139996
 10
21.3786336809
 20
18.7722952225
 10
21.3849270999
 20
18.7735019045
 10
21.3905975494
 20
18.7743331484
 10
21.3956408128
 20
18.7747883361
 10
21.40005314
 20
18.7748671291
 10
21.4038312499
 20
18.7745694687
 10
21.4069723331
 20
18.7738955764
 10
21.4094740541
 20
18.7728459531
 10
21.4113345524
 20
18.7714213796
 10
21.4122587103
 20
18.7701945834
  0
LWPOLYLINE
  5
388
100
AcDbEntity
  8
RACCORDO
100
AcDbPolyline
 62
250
  6
CONTINUOUS
 90
31
 70
0
 10
21.2035959332
 20
18.4710834647
 10
21.239242493
 20
18.488300199
 10
21.2564204648
 20
18.4964616111
 10
21.273151115
 20
18.5043168978
 10
21.2894220194
 20
18.5118602259
 10
21.305221095
 20
18.5190859936
 10
21.3205366094
 20
18.5259888351
 10
21.3353571893
 20
18.5325636241
 10
21.3496718287
 20
18.5388054783
 10
21.3634698976
 20
18.5447097624
 10
21.3767411493
 20
18.5502720919
 10
21.3894757287
 20
18.5554883361
 10
21.401664179
 20
18.5603546215
 10
21.4132974488
 20
18.5648673343
 10
21.4243668994
 20
18.5690231233
 10
21.4348643105
 20
18.5728189024
 10
21.4447818866
 20
18.5762518529
 10
21.4541122628
 20
18.5793194255
 10
21.4628485105
 20
18.582019342
 10
21.470984142
 20
18.5843495977
 10
21.4785131157
 20
18.5863084619
 10
21.4854298407
 20
18.5878944801
 10
21.4917291804
 20
18.5891064745
 10
21.497406457
 20
18.5899435449
 10
21.5024574545
 20
18.5904050699
 10
21.5068784219
 20
18.5904907066
 10
21.5106660764
 20
18.5902003916
 10
21.513817605
 20
18.5895343403
 10
21.5163306676
 20
18.5884930473
 10
21.5182033978
 20
18.5870772861
 10
21.5191605351
 20
18.5858162094
  0
LWPOLYLINE
  5
389
100
AcDbEntity
  8
RACCORDO
100
AcDbPolyline
 62
250
  6
CONTINUOUS
 90
13
 70
0
 10
0.1061560509
 20
8.8653813586
 10
0.0765559356
 20
8.8528336973
 10
0.0439640591
 20
8.8423014655
 10
0.008925771
 20
8.8339608958
 10
-0.0279726438
 20
8.8279515484
 10
-0.0661137757
 20
8.8243739757
 10
-0.1048594209
 20
8.8232880402
 10
-0.1435612606
 20
8.8247119126
 10
-0.1815717089
 20
8.8286217677
 10
-0.2182547488
 20
8.8349521829
 10
-0.2529965743
 20
8.8435972335
 10
-0.2852158614
 20
8.8544122646
 10
-0.3143734946
 20
8.8672163115
  0
LWPOLYLINE
  5
38A
100
AcDbEntity
  8
SUPERFICI
100
AcDbPolyline
 62
7
  6
CONTINUOUS
 90
6
 70
0
 10
-11.7443257779
 20
2.723667183
 10
-11.7565471374
 20
2.720129784
 10
-11.7814682603
 20
2.7170196135
 10
-11.8078354406
 20
2.7189730399
 10
-11.835884738
 20
2.7257944569
 10
-11.8656170137
 20
2.7374834716
  0
LINE
  5
38B
100
AcDbEntity
  8
DRAFT
100
AcDbLine
 62
7
  6
CONTINUOUS
 10
0.9013172013
 20
-9.3755656818
 11
0.6637039037
 21
-9.256759033
  0
LINE
  5
38C
100
AcDbEntity
  8
RACCORDO
100
AcDbLine
 62
7
  6
CONTINUOUS
 10
0.5223686976
 20
-8.9095071361
 11
0.3825017547
 21
-8.8395736647
  0
LWPOLYLINE
  5
38D
100
AcDbEntity
  8
SUPERFICI
100
AcDbPolyline
 62
7
  6
CONTINUOUS
 90
5
 70
0
 10
-13.67900844
 20
4.1973739612
 10
-13.6697594928
 20
4.1853007935
 10
-13.659885757
 20
4.1751638581
 10
-13.6491575253
 20
4.1665914035
 10
-13.6375749855
 20
4.1595833454
  0
LWPOLYLINE
  5
38E
100
AcDbEntity
  8
DRAFT
100
AcDbPolyline
 62
7
  6
CONTINUOUS
 90
22
 70
0
 10
-11.1290193563
 20
5.7925957564
 10
-11.1352315597
 20
5.8024525797
 10
-11.1421668807
 20
5.8124679754
 10
-11.149482488
 20
5.8220862134
 10
-11.157145775
 20
5.831266902
 10
-11.1650587228
 20
5.8398889474
 10
-11.1732226209
 20
5.8479418578
 10
-11.1816363453
 20
5.855436058
 10
-11.1901982521
 20
5.8622818304
 10
-11.1989086203
 20
5.8684705666
 10
-11.2077672598
 20
5.874010839
 10
-11.2166718056
 20
5.8788387086
 10
-11.2256231026
 20
5.8829467536
 10
-11.2346203061
 20
5.8863423956
 10
-11.2435584943
 20
5.8889839695
 10
-11.2524390152
 20
5.8908628099
 10
-11.2612604319
 20
5.8919876181
 10
-11.2699136271
 20
5.8923427866
 10
-11.2783983654
 20
5.8919166253
 10
-11.2867147162
 20
5.8907208913
 10
-11.2947540152
 20
5.8887751501
 10
-11.2984422055
 20
5.887596883
  0
LINE
  5
38F
100
AcDbEntity
  8
DRAFT
100
AcDbLine
 62
7
  6
CONTINUOUS
 10
-11.1224032032
 20
5.7811094453
 11
-11.1290193563
 21
5.7925957564
  0
LWPOLYLINE
  5
390
100
AcDbEntity
  8
SUPERFICI
100
AcDbPolyline
 62
7
  6
CONTINUOUS
 90
17
 70
0
 10
-11.1224032993
 20
5.7811096216
 10
-11.1302647977
 20
5.7947579669
 10
-11.1387873889
 20
5.807779919
 10
-11.1479713067
 20
5.8201753835
 10
-11.1578982818
 20
5.8320745204
 10
-11.1684869646
 20
5.8433470153
 10
-11.1794929749
 20
5.8536020589
 10
-11.1909302811
 20
5.8627955798
 10
-11.2027851998
 20
5.8709715342
 10
-11.2147718617
 20
5.8778711583
 10
-11.2268797698
 20
5.8834526475
 10
-11.2391194374
 20
5.8877577998
 10
-11.2512364428
 20
5.8906532825
 10
-11.2632845707
 20
5.8920836644
 10
-11.275209739
 20
5.8921044968
 10
-11.2865956889
 20
5.8907489358
 10
-11.2969020025
 20
5.8881301165
  0
LINE
  5
391
100
AcDbEntity
  8
RACCORDO
100
AcDbLine
 62
7
  6
CONTINUOUS
 10
-9.2556838297
 20
2.4225605575
 11
-9.018108847
 21
2.0041999695
  0
LWPOLYLINE
  5
392
100
AcDbEntity
  8
SUPERFICI
100
AcDbPolyline
 62
7
  6
CONTINUOUS
 90
10
 70
0
 10
-9.018108834
 20
2.0041999467
 10
-9.2556879767
 20
2.4225678602
 10
-9.4923253413
 20
2.8412664672
 10
-9.7280212747
 20
3.2602916368
 10
-9.9627777485
 20
3.6796377323
 10
-10.1965935338
 20
4.099302112
 10
-10.4294641349
 20
4.5192851577
 10
-10.6613882534
 20
4.93958426
 10
-10.8923678555
 20
5.3601937905
 10
-11.1224032993
 20
5.7811096216
  0
LINE
  5
393
100
AcDbEntity
  8
SUPERFICI
100
AcDbLine
 62
7
  6
CONTINUOUS
 10
-8.8501329774
 20
2.487230323
 11
-8.5893181374
 21
2.0261100223
  0
LWPOLYLINE
  5
394
100
AcDbEntity
  8
RACCORDO
100
AcDbPolyline
 62
7
  6
CONTINUOUS
 90
8
 70
0
 10
-10.8923705783
 20
5.3601987727
 10
-10.6613985351
 20
4.9396029322
 10
-10.4294738665
 20
4.5193027509
 10
-10.1965960438
 20
4.0993066336
 10
-9.9627690885
 20
3.6796222316
 10
-9.7280058778
 20
3.260264199
 10
-9.4923105097
 20
2.8412401574
 10
-9.2556838297
 20
2.4225605575
  0
LINE
  5
395
100
AcDbEntity
  8
RACCORDO
100
AcDbLine
 62
7
  6
CONTINUOUS
 10
-11.1224032032
 20
5.7811094453
 11
-10.8923705783
 21
5.3601987727
  0
LWPOLYLINE
  5
396
100
AcDbEntity
  8
DRAFT
100
AcDbPolyline
 62
7
  6
CONTINUOUS
 90
10
 70
0
 10
-10.8953070901
 20
6.1898991485
 10
-10.6436992643
 20
5.7257927408
 10
-10.3909351075
 20
5.2620358524
 10
-10.1370140404
 20
4.7986340358
 10
-9.8819298552
 20
4.3355885666
 10
-9.6256876442
 20
3.872909264
 10
-9.368303845
 20
3.4106144715
 10
-9.109783649
 20
2.9487139713
 10
-8.8501209552
 20
2.4872090031
 10
-8.5893153305
 20
2.0261050715
  0
LWPOLYLINE
  5
397
100
AcDbEntity
  8
SUPERFICI
100
AcDbPolyline
 62
7
  6
CONTINUOUS
 90
9
 70
0
 10
-10.895307149
 20
6.1898992574
 10
-10.6436889326
 20
5.7257737453
 10
-10.3909194844
 20
5.2620072735
 10
-10.13699829
 20
4.7986053686
 10
-9.8819225725
 20
4.3355753731
 10
-9.6256941509
 20
3.8729209737
 10
-9.3683193466
 20
3.4106422409
 10
-9.1097998826
 20
2.9487429062
 10
-8.8501329774
 20
2.487230323
  0
LWPOLYLINE
  5
398
100
AcDbEntity
  8
SUPERFICI
100
AcDbPolyline
 62
7
  6
CONTINUOUS
 90
26
 70
0
 10
-8.5893181374
 20
2.0261100223
 10
-8.5687684886
 20
1.9877802659
 10
-8.5500857877
 20
1.9488000358
 10
-8.5332686571
 20
1.9091699462
 10
-8.5182424818
 20
1.868664041
 10
-8.5050787724
 20
1.8275096635
 10
-8.4939958049
 20
1.786387172
 10
-8.4850328037
 20
1.7453131179
 10
-8.4781483863
 20
1.7042719247
 10
-8.4734410863
 20
1.6638952407
 10
-8.4709433036
 20
1.6241951798
 10
-8.4706216534
 20
1.585160085
 10
-8.4724772992
 20
1.5473853643
 10
-8.4765432416
 20
1.5108889275
 10
-8.4827868389
 20
1.4756527211
 10
-8.4911121315
 20
1.4422176064
 10
-8.5015520484
 20
1.4106098915
 10
-8.5140753055
 20
1.3808025428
 10
-8.5284908541
 20
1.3532558545
 10
-8.5448300118
 20
1.3280033985
 10
-8.5630640959
 20
1.3050104235
 10
-8.5829130447
 20
1.2846342905
 10
-8.604401609
 20
1.2669152125
 10
-8.6275081841
 20
1.2518115572
 10
-8.6518838271
 20
1.2395576192
 10
-8.6690667853
 20
1.2329270471
  0
LWPOLYLINE
  5
399
100
AcDbEntity
  8
DRAFT
100
AcDbPolyline
 62
7
  6
CONTINUOUS
 90
19
 70
0
 10
-8.5893153305
 20
2.0261050715
 10
-8.5611784682
 20
1.9722394179
 10
-8.5367854424
 20
1.9176996946
 10
-8.5161330851
 20
1.862487317
 10
-8.4990988784
 20
1.8060272061
 10
-8.4857979226
 20
1.7488977663
 10
-8.4765854708
 20
1.6928297571
 10
-8.4715912352
 20
1.6379088261
 10
-8.4706824555
 20
1.5840507286
 10
-8.4738252387
 20
1.5327293514
 10
-8.4811210065
 20
1.4840103591
 10
-8.4924698521
 20
1.4378274507
 10
-8.5075403988
 20
1.3954545385
 10
-8.5264318356
 20
1.356986406
 10
-8.5490505716
 20
1.3223257787
 10
-8.5747798403
 20
1.2924567706
 10
-8.6037015392
 20
1.2674963291
 10
-8.635741652
 20
1.2473239549
 10
-8.6690573706
 20
1.232904029
  0
LINE
  5
39A
100
AcDbEntity
  8
RACCORDO
100
AcDbLine
 62
7
  6
CONTINUOUS
 10
-9.0104879015
 20
1.9887578663
 11
-9.018108847
 21
2.0041999695
  0
LWPOLYLINE
  5
39B
100
AcDbEntity
  8
RACCORDO
100
AcDbPolyline
 62
7
  6
CONTINUOUS
 90
3
 70
0
 10
-9.0004143166
 20
1.9586667774
 10
-9.0045897962
 20
1.9735801036
 10
-9.0104879015
 20
1.9887578663
  0
LWPOLYLINE
  5
39C
100
AcDbEntity
  8
RACCORDO
100
AcDbPolyline
 62
250
  6
CONTINUOUS
 90
16
 70
0
 10
-3.2781128653
 20
-28.7704586917
 10
-3.2731960675
 20
-28.8026097648
 10
-3.2668079671
 20
-28.8353694194
 10
-3.2587952114
 20
-28.8685533156
 10
-3.2489683678
 20
-28.9020710128
 10
-3.2371971788
 20
-28.9355742708
 10
-3.2234638611
 20
-28.9685051742
 10
-3.2076651624
 20
-29.0006479658
 10
-3.1897074662
 20
-29.0317714015
 10
-3.1696908668
 20
-29.0613737373
 10
-3.1475766349
 20
-29.0892704094
 10
-3.1233495678
 20
-29.1152565362
 10
-3.0972551746
 20
-29.1389198694
 10
-3.0693328344
 20
-29.1601400205
 10
-3.0396413079
 20
-29.1787931081
 10
-3.0223487188
 20
-29.1880323453
  0
LWPOLYLINE
  5
39D
100
AcDbEntity
  8
RACCORDO
100
AcDbPolyline
 62
250
  6
CONTINUOUS
 90
28
 70
0
 10
-2.5875132886
 20
-28.7139264616
 10
-2.5851444635
 20
-28.7301871668
 10
-2.581870596
 20
-28.7465599321
 10
-2.5776916861
 20
-28.7630447573
 10
-2.572653215
 20
-28.7798074355
 10
-2.5667097015
 20
-28.7966821737
 10
-2.5597247021
 20
-28.813171593
 10
-2.5516568852
 20
-28.8292621929
 10
-2.5425475825
 20
-28.844967474
 10
-2.5323843454
 20
-28.8598305593
 10
-2.5211179454
 20
-28.8738200732
 10
-2.5087976112
 20
-28.8869673914
 10
-2.4955585804
 20
-28.8989097634
 10
-2.4813552653
 20
-28.9095929808
 10
-2.4662332537
 20
-28.9190712519
 10
-2.450464546
 20
-28.9271444512
 10
-2.4340196463
 20
-28.9337452491
 10
-2.4169280504
 20
-28.9389409753
 10
-2.3995502472
 20
-28.9427334921
 10
-2.381878826
 20
-28.94505878
 10
-2.3639211973
 20
-28.9459808586
 10
-2.3460600814
 20
-28.9456936495
 10
-2.3283056927
 20
-28.9441490251
 10
-2.3106478168
 20
-28.9413951129
 10
-2.2934385309
 20
-28.9377702174
 10
-2.276795194
 20
-28.9333871066
 10
-2.2606004471
 20
-28.9281330124
 10
-2.2448542902
 20
-28.9220079348
  0
LWPOLYLINE
  5
39E
100
AcDbEntity
  8
RACCORDO
100
AcDbPolyline
 62
250
  6
CONTINUOUS
 90
13
 70
0
 10
-3.3737926367
 20
-11.2026407078
 10
-3.3756232862
 20
-11.17974836
 10
-3.3797530893
 20
-11.1559977691
 10
-3.3861114337
 20
-11.1317947373
 10
-3.3945896473
 20
-11.1075527503
 10
-3.4050428263
 20
-11.0836860053
 10
-3.4172922892
 20
-11.0606023278
 10
-3.4311286964
 20
-11.0386960622
 10
-3.4463156254
 20
-11.0183413882
 10
-3.4625935559
 20
-10.9998860074
 10
-3.4796843628
 20
-10.9836451172
 10
-3.4972960776
 20
-10.9698960419
 10
-3.5151278428
 20
-10.9588735358
  0
LWPOLYLINE
  5
39F
100
AcDbEntity
  8
RACCORDO
100
AcDbPolyline
 62
250
  6
CONTINUOUS
 90
8
 70
0
 10
-4.0683378805
 20
-10.3345350274
 10
-4.0671976378
 20
-10.3560901032
 10
-4.0637592781
 20
-10.3761363315
 10
-4.0580791857
 20
-10.3943453518
 10
-4.0502504557
 20
-10.4104189317
 10
-4.0404013934
 20
-10.4240937917
 10
-4.0286934334
 20
-10.4351459458
 10
-4.0167599295
 20
-10.4426822106
  0
LWPOLYLINE
  5
3A0
100
AcDbEntity
  8
RACCORDO
100
AcDbPolyline
 62
250
  6
CONTINUOUS
 90
9
 70
0
 10
-3.2829981549
 20
-20.0781373585
 10
-3.2442315837
 20
-21.184423464
 10
-3.1916858203
 20
-22.2832747689
 10
-3.1253436392
 20
-23.3749255445
 10
-3.0452222658
 20
-24.4591415195
 10
-2.9513733764
 20
-25.5352198801
 10
-2.8438141964
 20
-26.602926355
 10
-2.7225275005
 20
-27.6624952155
 10
-2.5875132886
 20
-28.7139264616
  0
LWPOLYLINE
  5
3A1
100
AcDbEntity
  8
RACCORDO
100
AcDbPolyline
 62
250
  6
CONTINUOUS
 90
10
 70
0
 10
-4.0024742822
 20
-18.9665500526
 10
-3.9773685532
 20
-20.0861262665
 10
-3.9383893359
 20
-21.1986806359
 10
-3.8855445482
 20
-22.3039787444
 10
-3.8188443717
 20
-23.4017879299
 10
-3.7383029366
 20
-24.491876806
 10
-3.6439383055
 20
-25.5740153025
 10
-3.5357702267
 20
-26.6479754216
 10
-3.4138201429
 20
-27.7135312937
 10
-3.2781128653
 20
-28.7704586917
  0
LINE
  5
3A2
100
AcDbEntity
  8
RACCORDO
100
AcDbLine
 62
250
  6
CONTINUOUS
 10
-3.3079855337
 20
-18.9644164524
 11
-3.2829981549
 21
-20.0781373585
  0
LWPOLYLINE
  5
3A3
100
AcDbEntity
  8
RACCORDO
100
AcDbPolyline
 62
250
  6
CONTINUOUS
 90
9
 70
0
 10
-3.3723387811
 20
-12.0678567973
 10
-3.3694204098
 20
-12.9323744351
 10
-3.3650375226
 20
-13.796193621
 10
-3.3591901134
 20
-14.6593152735
 10
-3.3518781883
 20
-15.5217384743
 10
-3.343101766
 20
-16.383460468
 10
-3.3328608525
 20
-17.2444803364
 10
-3.3211554418
 20
-18.1047989979
 10
-3.3079855337
 20
-18.9644164524
  0
LWPOLYLINE
  5
3A4
100
AcDbEntity
  8
RACCORDO
100
AcDbPolyline
 62
250
  6
CONTINUOUS
 90
10
 70
0
 10
-4.0683378804
 20
-11.2055054998
 10
-4.0668706904
 20
-12.0706326223
 10
-4.0639406943
 20
-12.9350685281
 10
-4.0595479225
 20
-13.798809771
 10
-4.0536924312
 20
-14.6618501795
 10
-4.0463742512
 20
-15.5241890463
 10
-4.0375933433
 20
-16.3858311055
 10
-4.027349687
 20
-17.2467756237
 10
-4.0156433252
 20
-18.1070164225
 10
-4.0024742822
 20
-18.9665500526
  0
LINE
  5
3A5
100
AcDbEntity
  8
RACCORDO
100
AcDbLine
 62
250
  6
CONTINUOUS
 10
-3.3737926366
 20
-11.2026407078
 11
-3.3723387811
 21
-12.0678567973
  0
LINE
  5
3A6
100
AcDbEntity
  8
0
100
AcDbLine
 62
7
  6
CONTINUOUS
 10
-5.0163736505
 20
16.0119916592
 11
-5.0163736505
 21
14.7810359853
  0
LINE
  5
3A7
100
AcDbEntity
  8
0
100
AcDbLine
 62
250
  6
CONTINUOUS
 10
-4.9577950067
 20
15.9412809811
 11
-4.9577950067
 21
14.7076666294
  0
LINE
  5
3A8
100
AcDbEntity
  8
0
100
AcDbLine
 62
7
  6
CONTINUOUS
 10
-4.0385561912
 20
14.941716738
 11
-4.0385561912
 21
13.4955539722
  0
LINE
  5
3A9
100
AcDbEntity
  8
0
100
AcDbLine
 62
7
  6
CONTINUOUS
 10
-3.3729754894
 20
13.1627636214
 11
-3.3729754894
 21
14.6089263871
  0
LINE
  5
3AA
100
AcDbEntity
  8
0
100
AcDbLine
 62
250
  6
CONTINUOUS
 10
-2.5911388106
 20
20.583021434
 11
-2.5911388106
 21
19.199065331
  0
LINE
  5
3AB
100
AcDbEntity
  8
DRAFT
100
AcDbLine
 62
250
  6
CONTINUOUS
 10
-2.5536319507
 20
19.2175515112
 11
-2.5536319507
 21
17.9867414237
  0
LWPOLYLINE
  5
3AC
100
AcDbEntity
  8
RACCORDO
100
AcDbPolyline
 62
250
  6
CONTINUOUS
 90
10
 70
0
 10
-4.0024742822
 20
-2.5120673806
 10
-4.0156433252
 20
-3.3838821987
 10
-4.027349687
 20
-4.2550401204
 10
-4.0375933433
 20
-5.1255376722
 10
-4.0463742512
 20
-5.9953686324
 10
-4.0536924312
 20
-6.8645322884
 10
-4.0595479225
 20
-7.7330334146
 10
-4.0639406943
 20
-8.6008712733
 10
-4.0668706904
 20
-9.4680396365
 10
-4.0683378804
 20
-10.3345350274
  0
LWPOLYLINE
  5
3AD
100
AcDbEntity
  8
RACCORDO
100
AcDbPolyline
 62
250
  6
CONTINUOUS
 90
10
 70
0
 10
-3.3079855337
 20
-2.5263882632
 10
-3.3211554418
 20
-3.3982868556
 10
-3.3328608525
 20
-4.2695209892
 10
-3.343101766
 20
-5.1400906639
 10
-3.3518781883
 20
-6.0099968039
 10
-3.3591901134
 20
-6.879238485
 10
-3.3650375226
 20
-7.7478129348
 10
-3.3694204098
 20
-8.6157192292
 10
-3.3723387811
 20
-9.4829582923
 10
-3.3737926366
 20
-10.349530124
  0
LWPOLYLINE
  5
3AE
100
AcDbEntity
  8
0
100
AcDbPolyline
 62
250
  6
CONTINUOUS
 90
13
 70
0
 10
-4.9577950067
 20
15.9412809811
 10
-4.9576034901
 20
15.9503877668
 10
-4.9570290063
 20
15.9596669342
 10
-4.9560724357
 20
15.9690935952
 10
-4.9547354005
 20
15.9786442768
 10
-4.953021018
 20
15.9882913486
 10
-4.9509346334
 20
15.9980029383
 10
-4.9484824697
 20
16.0077505961
 10
-4.9456708084
 20
16.017509792
 10
-4.9425072074
 20
16.0272542412
 10
-4.9390001753
 20
16.0369576127
 10
-4.9351592875
 20
16.0465933015
 10
-4.9309951043
 20
16.0561347814
  0
LWPOLYLINE
  5
3AF
100
AcDbEntity
  8
RACCORDO
100
AcDbPolyline
 62
250
  6
CONTINUOUS
 90
13
 70
0
 10
-4.0683378805
 20
-11.2055054998
 10
-4.0671977569
 20
-11.1828114428
 10
-4.0637597298
 20
-11.1593279873
 10
-4.0580801164
 20
-11.1354398086
 10
-4.0502519529
 20
-11.1115382117
 10
-4.04040347
 20
-11.0880147217
 10
-4.0286959929
 20
-11.0652546696
 10
-4.0153212981
 20
-11.043630881
 10
-4.0004984725
 20
-11.0234975687
 10
-3.9844703244
 20
-11.0051845303
 10
-3.967499406
 20
-10.9889917462
 10
-3.9498637127
 20
-10.9751844656
 10
-3.9318521297
 20
-10.9639888612
  0
LWPOLYLINE
  5
3B0
100
AcDbEntity
  8
RACCORDO
100
AcDbPolyline
 62
250
  6
CONTINUOUS
 90
8
 70
0
 10
-3.3737926367
 20
-10.349530124
 10
-3.3756231369
 20
-10.3717922772
 10
-3.3797525887
 20
-10.392424679
 10
-3.3861104454
 20
-10.4110748495
 10
-3.3945880906
 20
-10.4274241733
 10
-3.4050406939
 20
-10.441193342
 10
-3.4172896855
 20
-10.4521471259
 10
-3.4315506252
 20
-10.4602836383
  0
LWPOLYLINE
  5
3B1
100
AcDbEntity
  8
RACCORDO
100
AcDbPolyline
 62
250
  6
CONTINUOUS
 90
10
 70
0
 10
-3.2781128653
 20
7.967581668
 10
-3.4138201429
 20
6.7840584766
 10
-3.5357702267
 20
5.6047375701
 10
-3.6439383055
 20
4.429867987
 10
-3.7383029366
 20
3.2596981766
 10
-3.8188443717
 20
2.0944747479
 10
-3.8855445482
 20
0.9344424225
 10
-3.9383893359
 20
-0.2201544201
 10
-3.9773685532
 20
-1.3690717994
 10
-4.0024742822
 20
-2.5120673806
  0
LWPOLYLINE
  5
3B2
100
AcDbEntity
  8
RACCORDO
100
AcDbPolyline
 62
250
  6
CONTINUOUS
 90
10
 70
0
 10
-2.5875132886
 20
7.8949729838
 10
-2.7225275005
 20
6.7176389482
 10
-2.8438141964
 20
5.544968414
 10
-2.9513733764
 20
4.3769613811
 10
-3.0452222658
 20
3.2133675154
 10
-3.1253436392
 20
2.0544371509
 10
-3.1916858203
 20
0.9009212906
 10
-3.2442315837
 20
-0.2469297314
 10
-3.2829981549
 20
-1.3893662493
 10
-3.3079855337
 20
-2.5263882632
  0
LWPOLYLINE
  5
3B3
100
AcDbEntity
  8
0
100
AcDbPolyline
 62
250
  6
CONTINUOUS
 90
30
 70
0
 10
0.1230832847
 20
12.2022884363
 10
0.1186627592
 20
12.1913969416
 10
0.1138555639
 20
12.1807306727
 10
0.1086725483
 20
12.1703137029
 10
0.1031254102
 20
12.1601695427
 10
0.0972266692
 20
12.1503210868
 10
0.0909896384
 20
12.1407905626
 10
0.0844283943
 20
12.1315994799
 10
0.0775577454
 20
12.1227685825
 10
0.0703931982
 20
12.1143178012
 10
0.0629509228
 20
12.1062662088
 10
0.0552477159
 20
12.0986319775
 10
0.0473009631
 20
12.0914323371
 10
0.0391285999
 20
12.0846835368
 10
0.0307490708
 20
12.0784008083
 10
0.0221812879
 20
12.0725983314
 10
0.0134445882
 20
12.0672892018
 10
0.0045586898
 20
12.062485402
 10
-0.0044563522
 20
12.0581977738
 10
-0.0135801915
 20
12.0544359943
 10
-0.0227922361
 20
12.0512085534
 10
-0.032071695
 20
12.0485227354
 10
-0.0413976248
 20
12.0463846019
 10
-0.0507489777
 20
12.0447989787
 10
-0.0601046481
 20
12.0437694443
 10
-0.0694435209
 20
12.0432983224
 10
-0.0787445187
 20
12.0433866762
 10
-0.0879866497
 20
12.0440343064
 10
-0.0971490551
 20
12.0452397513
 10
-0.1037602088
 20
12.0464672756
  0
LWPOLYLINE
  5
3B4
100
AcDbEntity
  8
RACCORDO
100
AcDbPolyline
 62
7
  6
CONTINUOUS
 90
10
 70
0
 10
-13.6944773956
 20
-15.9190397439
 10
-13.6995390921
 20
-15.9275109591
 10
-13.7031127705
 20
-15.9378644267
 10
-13.7049581766
 20
-15.9494712829
 10
-13.7049807013
 20
-15.9624452423
 10
-13.7032745974
 20
-15.9766723927
 10
-13.6998836232
 20
-15.9911828282
 10
-13.6948227066
 20
-16.0056534359
 10
-13.6880774743
 20
-16.0204076352
 10
-13.679648141
 20
-16.0354455445
  0
LWPOLYLINE
  5
3B5
100
AcDbEntity
  8
SUPERFICI
100
AcDbPolyline
 62
7
  6
CONTINUOUS
 90
3
 70
0
 10
-13.6944095759
 20
-15.91895273
 10
-13.6995540665
 20
-15.9274698374
 10
-13.7031457421
 20
-15.9378969097
  0
LWPOLYLINE
  5
3B6
100
AcDbEntity
  8
RACCORDO
100
AcDbPolyline
 62
250
  6
CONTINUOUS
 90
30
 70
0
 10
21.5804677769
 20
17.0210842516
 10
21.5991289154
 20
17.0310135947
 10
21.6172420105
 20
17.0411934926
 10
21.6347936111
 20
17.051616386
 10
21.6517706833
 20
17.0622745345
 10
21.6681606199
 20
17.0731600235
 10
21.6839512496
 20
17.0842647693
 10
21.6991308462
 20
17.0955805254
 10
21.7136881373
 20
17.1070988888
 10
21.7276123125
 20
17.1188113058
 10
21.7408930317
 20
17.1307090787
 10
21.7535204325
 20
17.1427833722
 10
21.7654851378
 20
17.1550252198
 10
21.7767782624
 20
17.1674255306
 10
21.7873914202
 20
17.1799750962
 10
21.7973167295
 20
17.1926645971
 10
21.80654682
 20
17.2054846101
 10
21.8150748372
 20
17.2184256149
 10
21.8228944483
 20
17.2314780015
 10
21.8299998462
 20
17.2446320772
 10
21.8363857546
 20
17.2578780735
 10
21.8420474312
 20
17.271206154
 10
21.8469806716
 20
17.2846064211
 10
21.8511818124
 20
17.2980689238
 10
21.8546477337
 20
17.3115836647
 10
21.8573758618
 20
17.3251406078
 10
21.8593641708
 20
17.3387296854
 10
21.8606111841
 20
17.3523408064
 10
21.8611159756
 20
17.365963863
 10
21.8611279765
 20
17.3684119271
  0
LINE
  5
3B7
100
AcDbEntity
  8
RACCORDO
100
AcDbLine
 62
250
  6
CONTINUOUS
 10
21.5804677769
 20
17.0210842516
 11
4.1992378097
 21
8.1783350583
  0
LINE
  5
3B8
100
AcDbEntity
  8
SMUSSO
100
AcDbLine
 62
7
  6
CONTINUOUS
 10
0.6637039037
 20
3.9955331945
 11
1.4768767021
 21
4.3710833404
  0
LWPOLYLINE
  5
3B9
100
AcDbEntity
  8
SUPERFICI
100
AcDbPolyline
 62
7
  6
CONTINUOUS
 90
10
 70
0
 10
-8.6690667853
 20
1.2329270471
 10
-8.6775593682
 20
1.2301964197
 10
-8.704507043
 20
1.2236835472
 10
-8.7322903139
 20
1.220122011
 10
-8.7609167625
 20
1.2195616224
 10
-8.7903812485
 20
1.221951459
 10
-8.8202281236
 20
1.2272434413
 10
-8.8503059747
 20
1.2354213284
 10
-8.8807675514
 20
1.2465007516
 10
-8.9116131876
 20
1.2604815585
  0
LWPOLYLINE
  5
3BA
100
AcDbEntity
  8
RACCORDO
100
AcDbPolyline
 62
7
  6
CONTINUOUS
 90
40
 70
0
 10
21.5804677769
 20
1.4146685171
 10
21.6631125069
 20
1.4372936471
 10
21.743363319
 20
1.4589607111
 10
21.8212202132
 20
1.479669709
 10
21.8966147226
 20
1.4993925337
 10
21.9696153141
 20
1.5181572923
 10
22.0404273884
 20
1.5360483062
 10
22.1090592465
 20
1.553068793
 10
22.1755025874
 20
1.569215535
 10
22.239937908
 20
1.584563201
 10
22.3023706067
 20
1.5991141354
 10
22.3627952852
 20
1.6128659938
 10
22.4213762457
 20
1.6258864109
 10
22.4781180836
 20
1.6381774762
 10
22.5330162036
 20
1.6497371002
 10
22.5862211217
 20
1.6606266489
 10
22.6377369185
 20
1.6708480591
 10
22.6875595135
 20
1.6803993941
 10
22.7358271809
 20
1.6893362101
 10
22.7825445583
 20
1.6976604743
 10
22.8277070081
 20
1.7053702196
 10
22.871438892
 20
1.712515101
 10
22.9137431898
 20
1.7190967582
 10
22.9546169216
 20
1.7251135515
 10
22.9941755101
 20
1.7306102163
 10
23.0324224313
 20
1.7355884715
 10
23.0693542092
 20
1.7400465982
 10
23.1050758375
 20
1.7440241752
 10
23.1395897563
 20
1.7475228439
 10
23.1728935257
 20
1.7505409629
 10
23.2050848191
 20
1.7531131862
 10
23.2361695492
 20
1.7552412925
 10
23.2661418035
 20
1.7569235033
 10
23.2950815176
 20
1.7581891365
 10
23.3229913729
 20
1.7590395083
 10
23.349868688
 20
1.7594733027
 10
23.3757853556
 20
1.7595158893
 10
23.4007653397
 20
1.7591757248
 10
23.4247846763
 20
1.7584443525
 10
23.4478433653
 20
1.7573217725
  0
LINE
  5
3BB
100
AcDbEntity
  8
RACCORDO
100
AcDbLine
 62
250
  6
CONTINUOUS
 10
-18.7962503523
 20
4.8848206544
 11
-4.0024742822
 21
-2.5120673806
  0
LINE
  5
3BC
100
AcDbEntity
  8
SUPERFICI
100
AcDbLine
 62
7
  6
CONTINUOUS
 10
-13.8295330989
 20
3.7194415141
 11
-11.8656182565
 21
2.7374840929
  0
LINE
  5
3BD
100
AcDbEntity
  8
DRAFT
100
AcDbLine
 62
7
  6
CONTINUOUS
 10
-13.8295330989
 20
3.7194415141
 11
-11.8656182565
 21
2.7374840929
  0
LINE
  5
3BE
100
AcDbEntity
  8
SUPERFICI
100
AcDbLine
 62
7
  6
CONTINUOUS
 10
-10.8756687527
 20
2.242509341
 11
-8.9116132101
 21
1.2604815697
  0
LINE
  5
3BF
100
AcDbEntity
  8
DRAFT
100
AcDbLine
 62
7
  6
CONTINUOUS
 10
-10.8756687527
 20
2.242509341
 11
-8.9116132101
 21
1.2604815697
  0
LWPOLYLINE
  5
3C0
100
AcDbEntity
  8
SUPERFICI
100
AcDbPolyline
 62
7
  6
CONTINUOUS
 90
34
 70
0
 10
-13.8295327277
 20
3.7194413286
 10
-13.8602686708
 20
3.7362487578
 10
-13.8904686326
 20
3.7554925917
 10
-13.9201322803
 20
3.7771729822
 10
-13.9494043256
 20
3.8014197611
 10
-13.9781387259
 20
3.8281037035
 10
-14.0058987534
 20
3.8568364961
 10
-14.0326816612
 20
3.8876693341
 10
-14.0584877513
 20
3.920552135
 10
-14.0828848381
 20
3.9549446827
 10
-14.1058370272
 20
3.9908589582
 10
-14.1273771453
 20
4.0282843717
 10
-14.1471763866
 20
4.0666467138
 10
-14.1652078646
 20
4.1059626028
 10
-14.1814953187
 20
4.1462168401
 10
-14.195786533
 20
4.1867871929
 10
-14.2080494394
 20
4.2276790737
 10
-14.2183134659
 20
4.2688882517
 10
-14.2264196293
 20
4.30977758
 10
-14.2323338203
 20
4.3503421627
 10
-14.2360885017
 20
4.3905876221
 10
-14.237625786
 20
4.4298920301
 10
-14.2369123238
 20
4.4682384927
 10
-14.2339811157
 20
4.5056440432
 10
-14.2288751424
 20
4.5415370414
 10
-14.2215630135
 20
4.575895987
 10
-14.2120771094
 20
4.6087419213
 10
-14.2005573686
 20
4.6395664356
 10
-14.1869678685
 20
4.6683444688
 10
-14.1713466866
 20
4.6951001087
 10
-14.1539459152
 20
4.7193981577
 10
-14.1348508216
 20
4.7410929983
 10
-14.1139792199
 20
4.7603288711
 10
-14.0947384076
 20
4.7748167766
  0
LWPOLYLINE
  5
3C1
100
AcDbEntity
  8
DRAFT
100
AcDbPolyline
 62
7
  6
CONTINUOUS
 90
24
 70
0
 10
-13.8295330989
 20
3.7194415141
 10
-13.8723992218
 20
3.7437803559
 10
-13.9138668122
 20
3.7724436791
 10
-13.953934687
 20
3.8054320231
 10
-13.9929759625
 20
3.8431851566
 10
-14.030612794
 20
3.885265466
 10
-14.0657169503
 20
3.930357693
 10
-14.0981760346
 20
3.9785098952
 10
-14.1280948525
 20
4.0296774606
 10
-14.1546718117
 20
4.0824057425
 10
-14.1778180237
 20
4.1367347513
 10
-14.1976144843
 20
4.1926280336
 10
-14.213516857
 20
4.2485151386
 10
-14.2254216539
 20
4.3043948013
 10
-14.2334267711
 20
4.3602707749
 10
-14.237293746
 20
4.414578416
 10
-14.2369203937
 20
4.467278454
 10
-14.2324074163
 20
4.5184107816
 10
-14.2238251883
 20
4.5665274762
 10
-14.2110441036
 20
4.6115835257
 10
-14.1941968168
 20
4.6536225393
 10
-14.1737516401
 20
4.6913274984
 10
-14.1498679918
 20
4.7242579141
 10
-14.1223938659
 20
4.7528509524
  0
LWPOLYLINE
  5
3C2
100
AcDbEntity
  8
DRAFT
100
AcDbPolyline
 62
7
  6
CONTINUOUS
 90
20
 70
0
 10
-10.8756687527
 20
2.242509341
 10
-10.9040449264
 20
2.2592756208
 10
-10.9309524064
 20
2.2795358039
 10
-10.9563903381
 20
2.3032902802
 10
-10.9807642942
 20
2.3311020202
 10
-11.0036652609
 20
2.3624096221
 10
-11.0238703363
 20
2.3955269928
 10
-11.0411951686
 20
2.4304998037
 10
-11.0558194307
 20
2.4672845086
 10
-11.0670677306
 20
2.5040605152
 10
-11.0747751109
 20
2.5408066952
 10
-11.0791033234
 20
2.577545622
 10
-11.0798698909
 20
2.612520959
 10
-11.0769111512
 20
2.6456690764
 10
-11.0703907421
 20
2.6770536026
 10
-11.0606205729
 20
2.705107534
 10
-11.047464651
 20
2.7296580493
 10
-11.0310622777
 20
2.7508764683
 10
-11.0121411337
 20
2.7677107235
 10
-11.0092105512
 20
2.7697414275
  0
LWPOLYLINE
  5
3C3
100
AcDbEntity
  8
DRAFT
100
AcDbPolyline
 62
7
  6
CONTINUOUS
 90
21
 70
0
 10
-11.8491126209
 20
3.2653521631
 10
-11.8207541694
 20
3.2485824743
 10
-11.7938849131
 20
3.2283077303
 10
-11.7685039975
 20
3.2045283142
 10
-11.7442044072
 20
3.1766813809
 10
-11.721389716
 20
3.1453313203
 10
-11.7012747864
 20
3.1121694439
 10
-11.6840404008
 20
3.0771520113
 10
-11.6695010975
 20
3.0403248709
 10
-11.658323846
 20
3.0035130583
 10
-11.6506705747
 20
2.9667391025
 10
-11.6463761498
 20
2.9299819295
 10
-11.6456197996
 20
2.8949998863
 10
-11.648565163
 20
2.8618568617
 10
-11.6550485779
 20
2.8304889897
 10
-11.6647617572
 20
2.8024614306
 10
-11.6778443247
 20
2.7779454787
 10
-11.6941599659
 20
2.7567683475
 10
-11.7129893165
 20
2.7399777896
 10
-11.7345323045
 20
2.7277706073
 10
-11.7444284202
 20
2.7239175206
  0
LWPOLYLINE
  5
3C4
100
AcDbEntity
  8
SUPERFICI
100
AcDbPolyline
 62
7
  6
CONTINUOUS
 90
20
 70
0
 10
-10.8756698032
 20
2.2425098663
 10
-10.9054398094
 20
2.2606436646
 10
-10.9332485846
 20
2.2818432162
 10
-10.9590952524
 20
2.3061089211
 10
-10.9831878836
 20
2.333867132
 10
-11.0053150716
 20
2.3646930165
 10
-11.0248465543
 20
2.3973102733
 10
-11.0418044654
 20
2.4318538365
 10
-11.0561621371
 20
2.4681908312
 10
-11.067217382
 20
2.5046426586
 10
-11.0748163894
 20
2.5412861147
 10
-11.0791095561
 20
2.5780459433
 10
-11.0798538221
 20
2.613014187
 10
-11.0768450534
 20
2.646075038
 10
-11.0702874519
 20
2.6773442611
 10
-11.0605540418
 20
2.7052596387
 10
-11.0475080525
 20
2.7296092212
 10
-11.0312896792
 20
2.7506034047
 10
-11.0126901488
 20
2.7673122505
 10
-11.0092180272
 20
2.7697556003
  0
LWPOLYLINE
  5
3C5
100
AcDbEntity
  8
SUPERFICI
100
AcDbPolyline
 62
7
  6
CONTINUOUS
 90
19
 70
0
 10
-11.8491115716
 20
3.2653516384
 10
-11.8193610472
 20
3.2472110219
 10
-11.7915917579
 20
3.2259945709
 10
-11.765802827
 20
3.2017026786
 10
-11.7417848826
 20
3.1739094883
 10
-11.7197439607
 20
3.1430423541
 10
-11.7003021285
 20
3.110381562
 10
-11.6834333628
 20
3.0757936326
 10
-11.6691591519
 20
3.0394140883
 10
-11.6581741072
 20
3.0029261452
 10
-11.6506291627
 20
2.9662543983
 10
-11.6463699705
 20
2.9294758013
 10
-11.645636037
 20
2.8945008408
 10
-11.6486315703
 20
2.8614458746
 10
-11.6551524324
 20
2.8301945254
 10
-11.6648291923
 20
2.8023065566
 10
-11.6778022698
 20
2.7779921641
 10
-11.6939346702
 20
2.7570396071
 10
-11.7124435928
 20
2.7403744927
  0
LWPOLYLINE
  5
3C6
100
AcDbEntity
  8
0
100
AcDbPolyline
 62
250
  6
CONTINUOUS
 90
5
 70
0
 10
2.2642320234
 20
-27.8546942674
 10
2.2612239931
 20
-27.8439435033
 10
2.2577952806
 20
-27.8334339979
 10
2.2539536242
 20
-27.8231894704
 10
2.2497076944
 20
-27.8132330424
  0
LWPOLYLINE
  5
3C7
100
AcDbEntity
  8
0
100
AcDbPolyline
 62
7
  6
CONTINUOUS
 90
5
 70
0
 10
-2.458445673
 20
20.6058881693
 10
-2.4586907348
 20
20.6081741079
 10
-2.459660322
 20
20.6105766147
 10
-2.461334746
 20
20.6125096796
 10
-2.4634606444
 20
20.6138957056
  0
LWPOLYLINE
  5
3C8
100
AcDbEntity
  8
0
100
AcDbPolyline
 62
250
  6
CONTINUOUS
 90
3
 70
0
 10
-1.9805160689
 20
13.121218376
 10
-1.9811118674
 20
13.1271387703
 10
-1.9812000501
 20
13.1304585431
  0
LWPOLYLINE
  5
3C9
100
AcDbEntity
  8
RACCORDO
100
AcDbPolyline
 62
250
  6
CONTINUOUS
 90
16
 70
0
 10
-2.2448542902
 20
8.4225891424
 10
-2.2487149205
 20
8.4678051661
 10
-2.2562607339
 20
8.5145255085
 10
-2.2674092488
 20
8.5622394805
 10
-2.2820386035
 20
8.6104255317
 10
-2.2999888879
 20
8.6585569516
 10
-2.3210638918
 20
8.7061076268
 10
-2.3450332492
 20
8.752557792
 10
-2.3716349567
 20
8.7973997111
 10
-2.4005782372
 20
8.8401432275
 10
-2.4315467184
 20
8.8803211216
 10
-2.4642018911
 20
8.9174942181
 10
-2.4981868092
 20
8.9512561866
 10
-2.5331299913
 20
8.9812379826
 10
-2.5686494817
 20
9.0071118821
 10
-2.604357025
 20
9.0285950634
  0
LWPOLYLINE
  5
3CA
100
AcDbEntity
  8
0
100
AcDbPolyline
 62
250
  6
CONTINUOUS
 90
20
 70
0
 10
-0.229438675
 20
-29.4367769133
 10
-0.2292398722
 20
-29.4469425888
 10
-0.2286439099
 20
-29.4568866113
 10
-0.2276521267
 20
-29.4665866138
 10
-0.2262667507
 20
-29.4760207836
 10
-0.2244908966
 20
-29.4851678938
 10
-0.2223285615
 20
-29.4940073527
 10
-0.2197846109
 20
-29.5025192742
 10
-0.2168647661
 20
-29.5106845185
 10
-0.2135755961
 20
-29.5184847183
 10
-0.2099244992
 20
-29.5259023312
 10
-0.2059196886
 20
-29.532920673
 10
-0.2015701764
 20
-29.539523954
 10
-0.1968857477
 20
-29.545697323
 10
-0.1918769397
 20
-29.5514268981
 10
-0.1865550211
 20
-29.5566997927
 10
-0.1809319607
 20
-29.5615041521
 10
-0.17502041
 20
-29.5658291701
 10
-0.1688336783
 20
-29.5696651153
 10
-0.1646252366
 20
-29.5719152438
  0
LWPOLYLINE
  5
3CB
100
AcDbEntity
  8
0
100
AcDbPolyline
 62
250
  6
CONTINUOUS
 90
20
 70
0
 10
-1.9079767454
 20
13.0420701954
 10
-1.9078084495
 20
13.032709245
 10
-1.9073038823
 20
13.023534414
 10
-1.9064640045
 20
13.0145631718
 10
-1.9052904187
 20
13.005812623
 10
-1.9037853578
 20
12.997299405
 10
-1.9019516714
 20
12.9890396622
 10
-1.8997928274
 20
12.9810490745
 10
-1.89731294
 20
12.9733429209
 10
-1.8945167602
 20
12.965935972
 10
-1.8914096377
 20
12.9588423726
 10
-1.8879974756
 20
12.9520755764
 10
-1.8842867476
 20
12.9456484193
 10
-1.8802844869
 20
12.9395730994
 10
-1.8759983377
 20
12.9338612356
 10
-1.8714365282
 20
12.9285237826
 10
-1.8666077987
 20
12.9235709325
 10
-1.8615213129
 20
12.9190120521
 10
-1.8561866979
 20
12.914855759
 10
-1.8506273349
 20
12.91111889
  0
LWPOLYLINE
  5
3CC
100
AcDbEntity
  8
0
100
AcDbPolyline
 62
250
  6
CONTINUOUS
 90
22
 70
0
 10
-0.229438675
 20
12.2028011602
 10
-0.2292703791
 20
12.1934402098
 10
-0.2287658119
 20
12.1842653788
 10
-0.2279259341
 20
12.1752941366
 10
-0.2267523483
 20
12.1665435878
 10
-0.2252472874
 20
12.1580303698
 10
-0.223413601
 20
12.149770627
 10
-0.221254757
 20
12.1417800393
 10
-0.2187748696
 20
12.1340738857
 10
-0.2159786898
 20
12.1266669368
 10
-0.2128715673
 20
12.1195733374
 10
-0.2094594052
 20
12.1128065412
 10
-0.2057486772
 20
12.1063793841
 10
-0.2017464165
 20
12.1003040642
 10
-0.1974602673
 20
12.0945922004
 10
-0.1928984578
 20
12.0892547474
 10
-0.1880697283
 20
12.0843018973
 10
-0.1829832425
 20
12.0797430169
 10
-0.1776486275
 20
12.0755867238
 10
-0.1720753573
 20
12.0718405068
 10
-0.1662746714
 20
12.068512024
 10
-0.1644733161
 20
12.0675866793
  0
LINE
  5
3CD
100
AcDbEntity
  8
0
100
AcDbLine
 62
7
  6
CONTINUOUS
 10
-2.458445673
 20
20.6058901943
 11
-2.458445673
 21
19.3576260716
  0
LINE
  5
3CE
100
AcDbEntity
  8
0
100
AcDbLine
 62
7
  6
CONTINUOUS
 10
-2.3061445773
 20
13.7580880394
 11
-2.3061445773
 21
15.1437286854
  0
LINE
  5
3CF
100
AcDbEntity
  8
0
100
AcDbLine
 62
7
  6
CONTINUOUS
 10
-1.9812000501
 20
13.4704324772
 11
-1.9812000501
 21
13.1304585431
  0
LINE
  5
3D0
100
AcDbEntity
  8
0
100
AcDbLine
 62
250
  6
CONTINUOUS
 10
-1.9079767454
 20
13.3820441295
 11
-1.9079767454
 21
13.0420701954
  0
LINE
  5
3D1
100
AcDbEntity
  8
0
100
AcDbLine
 62
7
  6
CONTINUOUS
 10
-1.5877061244
 20
18.779035003
 11
-1.5877061244
 21
19.3425976614
  0
LINE
  5
3D2
100
AcDbEntity
  8
0
100
AcDbLine
 62
7
  6
CONTINUOUS
 10
-1.2782070958
 20
12.6244535687
 11
-1.2782070958
 21
12.170479467
  0
LINE
  5
3D3
100
AcDbEntity
  8
0
100
AcDbLine
 62
250
  6
CONTINUOUS
 10
-1.2049837911
 20
12.5878419164
 11
-1.2049837911
 21
12.0787677722
  0
LINE
  5
3D4
100
AcDbEntity
  8
DRAFT
100
AcDbLine
 62
250
  6
CONTINUOUS
 10
-1.1394183883
 20
18.6496254805
 11
-1.1394183883
 21
18.1259390904
  0
LINE
  5
3D5
100
AcDbEntity
  8
RACCORDO
100
AcDbLine
 62
7
  6
CONTINUOUS
 10
-1.0194349327
 20
9.0699511112
 11
-1.0194349327
 21
5.73690381
  0
LINE
  5
3D6
100
AcDbEntity
  8
RACCORDO
100
AcDbLine
 62
7
  6
CONTINUOUS
 10
-1.0194349327
 20
-28.4266478659
 11
-1.0194349327
 21
-25.0936005647
  0
LINE
  5
3D7
100
AcDbEntity
  8
RACCORDO
100
AcDbLine
 62
7
  6
CONTINUOUS
 10
-0.7478864809
 20
6.8688256274
 11
-0.7478864809
 21
9.1461048367
  0
LINE
  5
3D8
100
AcDbEntity
  8
RACCORDO
100
AcDbLine
 62
250
  6
CONTINUOUS
 10
-0.6600185152
 20
6.7614313515
 11
-0.6600185152
 21
9.0400388218
  0
LINE
  5
3D9
100
AcDbEntity
  8
RACCORDO
100
AcDbLine
 62
7
  6
CONTINUOUS
 10
-0.5905744103
 20
-25.3355218327
 11
-0.5905744103
 21
-24.9685502341
  0
LINE
  5
3DA
100
AcDbEntity
  8
RACCORDO
100
AcDbLine
 62
7
  6
CONTINUOUS
 10
-0.5905744103
 20
9.4996857576
 11
-0.5905744103
 21
10.2168693114
  0
LINE
  5
3DB
100
AcDbEntity
  8
RACCORDO
100
AcDbLine
 62
250
  6
CONTINUOUS
 10
-0.3143734946
 20
8.8672163115
 11
-0.3143734946
 21
6.5886088412
  0
LINE
  5
3DC
100
AcDbEntity
  8
RACCORDO
100
AcDbLine
 62
250
  6
CONTINUOUS
 10
-0.3143734946
 20
-24.5412880781
 11
-0.3143734946
 21
-24.8277551734
  0
LINE
  5
3DD
100
AcDbEntity
  8
0
100
AcDbLine
 62
250
  6
CONTINUOUS
 10
-0.229438675
 20
-29.4367769133
 11
-0.229438675
 21
-29.0968029792
  0
LINE
  5
3DE
100
AcDbEntity
  8
0
100
AcDbLine
 62
250
  6
CONTINUOUS
 10
-0.229438675
 20
12.2028011602
 11
-0.229438675
 21
12.5427750943
  0
LINE
  5
3DF
100
AcDbEntity
  8
RACCORDO
100
AcDbLine
 62
250
  6
CONTINUOUS
 10
0.1061560509
 20
8.8653813586
 11
0.1061560509
 21
6.5912297012
  0
LINE
  5
3E0
100
AcDbEntity
  8
RACCORDO
100
AcDbLine
 62
250
  6
CONTINUOUS
 10
0.1061560509
 20
-24.2118647025
 11
0.1061560509
 21
-24.8295901263
  0
LINE
  5
3E1
100
AcDbEntity
  8
0
100
AcDbLine
 62
250
  6
CONTINUOUS
 10
0.1230832847
 20
-29.4372896372
 11
0.1230832847
 21
-29.097315703
  0
LINE
  5
3E2
100
AcDbEntity
  8
0
100
AcDbLine
 62
250
  6
CONTINUOUS
 10
0.1230832847
 20
12.2022884363
 11
0.1230832847
 21
12.5422623705
  0
LINE
  5
3E3
100
AcDbEntity
  8
RACCORDO
100
AcDbLine
 62
7
  6
CONTINUOUS
 10
0.1818678253
 20
8.901938364
 11
0.1818678253
 21
8.0023819753
  0
LINE
  5
3E4
100
AcDbEntity
  8
RACCORDO
100
AcDbLine
 62
7
  6
CONTINUOUS
 10
0.1818678253
 20
-24.1525556038
 11
0.1818678253
 21
-24.7930331209
  0
LWPOLYLINE
  5
3E5
100
AcDbEntity
  8
RACCORDO
100
AcDbPolyline
 62
250
  6
CONTINUOUS
 90
29
 70
0
 10
-0.3143734946
 20
-24.8277551734
 10
-0.3145625523
 20
-24.8411656173
 10
-0.3156903452
 20
-24.8544938836
 10
-0.3177568734
 20
-24.8677399723
 10
-0.3206781929
 20
-24.8810728379
 10
-0.3245382477
 20
-24.894323526
 10
-0.3295888694
 20
-24.9069851726
 10
-0.3358639237
 20
-24.9191024499
 10
-0.343329545
 20
-24.9306306857
 10
-0.352135967
 20
-24.9409290006
 10
-0.3623547211
 20
-24.9500124255
 10
-0.3739142759
 20
-24.9578659294
 10
-0.3867502718
 20
-24.9638035402
 10
-0.4009949122
 20
-24.9677586639
 10
-0.4165159936
 20
-24.9697978945
 10
-0.4328525461
 20
-24.9694350414
 10
-0.4501158713
 20
-24.9664819128
 10
-0.4681946677
 20
-24.9611267006
 10
-0.4862940603
 20
-24.9534477896
 10
-0.5044170635
 20
-24.9432420783
 10
-0.522560663
 20
-24.9307126682
 10
-0.5399209407
 20
-24.9165472487
 10
-0.5563939729
 20
-24.9006553112
 10
-0.5720836833
 20
-24.8831273643
 10
-0.5864979255
 20
-24.8649226244
 10
-0.5994985439
 20
-24.8461051564
 10
-0.611223694
 20
-24.8266108953
 10
-0.6215956965
 20
-24.8072068618
 10
-0.6302067499
 20
-24.7886972274
  0
LWPOLYLINE
  5
3E6
100
AcDbEntity
  8
RACCORDO
100
AcDbPolyline
 62
250
  6
CONTINUOUS
 90
37
 70
0
 10
-0.6600185152
 20
9.0400388218
 10
-0.6598235665
 20
9.053589867
 10
-0.6586730384
 20
9.0670449674
 10
-0.6565669308
 20
9.0804041233
 10
-0.6535892222
 20
9.0938397052
 10
-0.6496559342
 20
9.1071793426
 10
-0.6445151314
 20
9.1199059226
 10
-0.6381313805
 20
9.1320636962
 10
-0.6305401148
 20
9.1436084126
 10
-0.6215956999
 20
9.1538902067
 10
-0.6112236967
 20
9.1629222362
 10
-0.5994985443
 20
9.1706913435
 10
-0.5864979243
 20
9.1765081907
 10
-0.5720836822
 20
9.180298689
 10
-0.5563939725
 20
9.1821369272
 10
-0.5399209409
 20
9.1815558339
 10
-0.5225606632
 20
9.1783609756
 10
-0.5044170636
 20
9.1727467858
 10
-0.4862940603
 20
9.1648294934
 10
-0.4681946678
 20
9.1544090114
 10
-0.4501158716
 20
9.1416854268
 10
-0.4328525463
 20
9.12737523
 10
-0.4165159931
 20
9.1114015314
 10
-0.4009949109
 20
9.0938412207
 10
-0.3867502704
 20
9.0756414571
 10
-0.3739142765
 20
9.0568678495
 10
-0.3623547245
 20
9.0374547891
 10
-0.3521359711
 20
9.0181526091
 10
-0.3433295449
 20
8.9990478725
 10
-0.3358639175
 20
8.9800540164
 10
-0.3295888606
 20
8.9616616858
 10
-0.3245382447
 20
8.9439494186
 10
-0.3206781993
 20
8.9268386769
 10
-0.3177568855
 20
8.9105844922
 10
-0.315690357
 20
8.895271875
 10
-0.31456256
 20
8.8808158148
 10
-0.3143734946
 20
8.8672163115
  0
LWPOLYLINE
  5
3E7
100
AcDbEntity
  8
0
100
AcDbPolyline
 62
250
  6
CONTINUOUS
 90
25
 70
0
 10
-0.229438675
 20
-29.0968029792
 10
-0.2292704227
 20
-29.0872749787
 10
-0.2287659863
 20
-29.077596863
 10
-0.2279263258
 20
-29.067787055
 10
-0.2267530398
 20
-29.0578642283
 10
-0.2252483615
 20
-29.0478472714
 10
-0.2234151552
 20
-29.0377552523
 10
-0.2212569105
 20
-29.0276073816
 10
-0.2187777358
 20
-29.0174229764
 10
-0.2159823503
 20
-29.0072214233
 10
-0.2128760752
 20
-28.9970221416
 10
-0.2094648235
 20
-28.9868445461
 10
-0.2057550886
 20
-28.9767080105
 10
-0.2017539323
 20
-28.9666318303
 10
-0.197468971
 20
-28.956635186
 10
-0.1929083614
 20
-28.9467371068
 10
-0.1880807848
 20
-28.9369564343
 10
-0.1829954308
 20
-28.9273117865
 10
-0.1776619797
 20
-28.9178215226
 10
-0.172090584
 20
-28.9085037078
 10
-0.1662918491
 20
-28.8993760792
 10
-0.1602768133
 20
-28.8904560116
 10
-0.1540569266
 20
-28.881760485
 10
-0.1476440288
 20
-28.8733060518
 10
-0.1410503273
 20
-28.8651088054
  0
LWPOLYLINE
  5
3E8
100
AcDbEntity
  8
0
100
AcDbPolyline
 62
250
  6
CONTINUOUS
 90
34
 70
0
 10
-1.9079767454
 20
13.3820441295
 10
-1.9077779426
 20
13.3924086077
 10
-1.9071819803
 20
13.4029485926
 10
-1.9061901972
 20
13.4136403782
 10
-1.9048048211
 20
13.4244599241
 10
-1.903028967
 20
13.4353828884
 10
-1.9008666319
 20
13.4463846824
 10
-1.8983226813
 20
13.4574405546
 10
-1.8954028365
 20
13.4685256436
 10
-1.8921136666
 20
13.4796150133
 10
-1.8884625696
 20
13.4906837232
 10
-1.884457759
 20
13.5017068756
 10
-1.8801082468
 20
13.5126596688
 10
-1.8754238181
 20
13.5235174665
 10
-1.8704150101
 20
13.5342558496
 10
-1.8650930915
 20
13.5448506628
 10
-1.8594700311
 20
13.5552780825
 10
-1.8535584804
 20
13.5655146513
 10
-1.8473717487
 20
13.5755373282
 10
-1.8409237721
 20
13.5853235462
 10
-1.8342290388
 20
13.594851326
 10
-1.8273025626
 20
13.604099301
 10
-1.8201598522
 20
13.6130467514
 10
-1.8128170347
 20
13.6216734622
 10
-1.805290788
 20
13.6299598526
 10
-1.7975981538
 20
13.6378872011
 10
-1.7897563412
 20
13.645437814
 10
-1.7817828422
 20
13.6525948632
 10
-1.7736943648
 20
13.6593432363
 10
-1.7655102935
 20
13.6656666462
 10
-1.7572526227
 20
13.6715484221
 10
-1.748941202
 20
13.6769751722
 10
-1.7405935696
 20
13.6819361862
 10
-1.7322284894
 20
13.6864209445
  0
LWPOLYLINE
  5
3E9
100
AcDbEntity
  8
0
100
AcDbPolyline
 62
250
  6
CONTINUOUS
 90
34
 70
0
 10
-0.229438675
 20
12.5427750943
 10
-0.2292398722
 20
12.5531395725
 10
-0.2286439099
 20
12.5636795574
 10
-0.2276521267
 20
12.574371343
 10
-0.2262667507
 20
12.5851908889
 10
-0.2244908966
 20
12.5961138532
 10
-0.2223285615
 20
12.6071156472
 10
-0.2197846109
 20
12.6181715194
 10
-0.2168647661
 20
12.6292566084
 10
-0.2135755961
 20
12.6403459781
 10
-0.2099244992
 20
12.651414688
 10
-0.2059196886
 20
12.6624378404
 10
-0.2015701764
 20
12.6733906336
 10
-0.1968857477
 20
12.6842484313
 10
-0.1918769397
 20
12.6949868144
 10
-0.1865550211
 20
12.7055816276
 10
-0.1809319607
 20
12.7160090473
 10
-0.17502041
 20
12.7262456161
 10
-0.1688336783
 20
12.736268293
 10
-0.1623857017
 20
12.746054511
 10
-0.1556909684
 20
12.7555822908
 10
-0.1487644922
 20
12.7648302658
 10
-0.1416217818
 20
12.7737777162
 10
-0.1342789643
 20
12.782404427
 10
-0.1267527176
 20
12.7906908174
 10
-0.1190600834
 20
12.7986181659
 10
-0.1112182708
 20
12.8061687788
 10
-0.1032447718
 20
12.813325828
 10
-0.0951562943
 20
12.8200742011
 10
-0.0869722231
 20
12.826397611
 10
-0.0787145522
 20
12.8322793869
 10
-0.0704031316
 20
12.837706137
 10
-0.0620554992
 20
12.842667151
 10
-0.053690419
 20
12.8471519093
  0
LWPOLYLINE
  5
3EA
100
AcDbEntity
  8
RACCORDO
100
AcDbPolyline
 62
250
  6
CONTINUOUS
 90
10
 70
0
 10
-2.2448542902
 20
-28.9220079348
 10
-2.2487149208
 20
-28.9670875718
 10
-2.2562607346
 20
-29.0096758894
 10
-2.2674092502
 20
-29.0493073646
 10
-2.2820386055
 20
-29.0855487949
 10
-2.2999888907
 20
-29.1180040336
 10
-2.3210638952
 20
-29.1463183201
 10
-2.345033253
 20
-29.1701821574
 10
-2.3716349608
 20
-29.1893346956
 10
-2.3984661087
 20
-29.2027274634
  0
LWPOLYLINE
  5
3EB
100
AcDbEntity
  8
RACCORDO
100
AcDbPolyline
 62
7
  6
CONTINUOUS
 90
4
 70
0
 10
-9.0046940208
 20
-18.3506206565
 10
-9.0005184592
 20
-18.3407256769
 10
-8.9980871208
 20
-18.3290878904
 10
-8.9973901994
 20
-18.3160277142
  0
LWPOLYLINE
  5
3EC
100
AcDbEntity
  8
RACCORDO
100
AcDbPolyline
 62
7
  6
CONTINUOUS
 90
10
 70
0
 10
23.4618547581
 20
13.7119866894
 10
23.4604256935
 20
13.7111959579
 10
23.458968655
 20
13.7105025391
 10
23.4574833205
 20
13.7099066535
 10
23.4559734833
 20
13.70940565
 10
23.4544347812
 20
13.7090026023
 10
23.4528543436
 20
13.708706467
 10
23.4512273132
 20
13.7085205562
 10
23.4495572004
 20
13.7084423782
 10
23.4478433653
 20
13.7084723447
  0
LINE
  5
3ED
100
AcDbEntity
  8
SMUSSO
100
AcDbLine
 62
7
  6
CONTINUOUS
 10
0.6637039037
 20
0.4257310229
 11
0.6846863148
 21
0.4370515151
  0
LINE
  5
3EE
100
AcDbEntity
  8
RACCORDO
100
AcDbLine
 62
7
  6
CONTINUOUS
 10
0.6846863148
 20
0.5452412744
 11
0.6637039037
 21
0.5347161694
  0
LINE
  5
3EF
100
AcDbEntity
  8
DRAFT
100
AcDbLine
 62
7
  6
CONTINUOUS
 10
-8.7857907656
 20
1.2213945217
 11
-8.8266083504
 21
1.2288404905
  0
LINE
  5
3F0
100
AcDbEntity
  8
DRAFT
100
AcDbLine
 62
7
  6
CONTINUOUS
 10
-8.8266083504
 20
1.2288404905
 11
-8.8685487707
 21
1.2418696865
  0
LWPOLYLINE
  5
3F1
100
AcDbEntity
  8
RACCORDO
100
AcDbPolyline
 62
7
  6
CONTINUOUS
 90
7
 70
0
 10
-9.070559362
 20
1.8760755336
 10
-9.0584960419
 20
1.8715007343
 10
-9.0473074381
 20
1.8692697626
 10
-9.0369933622
 20
1.8693827028
 10
-9.0273769392
 20
1.8719795816
 10
-9.0186343056
 20
1.8769207033
 10
-9.0135476598
 20
1.8813151059
  0
LWPOLYLINE
  5
3F2
100
AcDbEntity
  8
SUPERFICI
100
AcDbPolyline
 62
7
  6
CONTINUOUS
 90
4
 70
0
 10
-9.0705593761
 20
1.8760755406
 10
-9.0589115122
 20
1.8714561388
 10
-9.0479772953
 20
1.8691923082
 10
-9.0377565372
 20
1.8692841334
  0
LINE
  5
3F3
100
AcDbEntity
  8
DRAFT
100
AcDbLine
 62
7
  6
CONTINUOUS
 10
-8.8685487707
 20
1.2418696865
 11
-8.9116132101
 21
1.2604815697
  0
LINE
  5
3F4
100
AcDbEntity
  8
SUPERFICI
100
AcDbLine
 62
7
  6
CONTINUOUS
 10
-13.6375749454
 20
4.1595833253
 11
-11.8491126209
 21
3.2653521631
  0
LINE
  5
3F5
100
AcDbEntity
  8
RACCORDO
100
AcDbLine
 62
7
  6
CONTINUOUS
 10
-13.6375749454
 20
4.1595833253
 11
-11.8491126209
 21
3.2653521631
  0
LINE
  5
3F6
100
AcDbEntity
  8
SUPERFICI
100
AcDbLine
 62
7
  6
CONTINUOUS
 10
-10.8591631172
 20
2.7703774112
 11
-9.0705593612
 21
1.8760755332
  0
LINE
  5
3F7
100
AcDbEntity
  8
RACCORDO
100
AcDbLine
 62
7
  6
CONTINUOUS
 10
-10.8591631172
 20
2.7703774112
 11
-9.0705593612
 21
1.8760755332
  0
LWPOLYLINE
  5
3F8
100
AcDbEntity
  8
0
100
AcDbPolyline
 62
250
  6
CONTINUOUS
 90
5
 70
0
 10
2.2719360913
 20
-27.8996176241
 10
2.2706689682
 20
-27.8881490807
 10
2.2689598462
 20
-27.8768220267
 10
2.2668125825
 20
-27.8656620264
 10
2.2642320234
 20
-27.8546942674
  0
LWPOLYLINE
  5
3F9
100
AcDbEntity
  8
0
100
AcDbPolyline
 62
7
  6
CONTINUOUS
 90
43
 70
0
 10
2.4317793981
 20
10.9561280056
 10
2.4315345073
 20
10.9723577377
 10
2.4307990172
 20
10.9888397806
 10
2.4295711701
 20
11.0055523245
 10
2.4278482427
 20
11.0224866397
 10
2.4256307546
 20
11.0396065143
 10
2.422926439
 20
11.0568471536
 10
2.4197419636
 20
11.0741739833
 10
2.4160811287
 20
11.091572504
 10
2.4119528811
 20
11.1090067988
 10
2.4073709632
 20
11.1264297672
 10
2.4023384486
 20
11.1438396017
 10
2.396845702
 20
11.1612683486
 10
2.3908879236
 20
11.1787190809
 10
2.3844791581
 20
11.1961393791
 10
2.3776366866
 20
11.2134780193
 10
2.3703681039
 20
11.2307140258
 10
2.3626844243
 20
11.24781933
 10
2.3546136479
 20
11.2647335623
 10
2.3461804151
 20
11.2814123606
 10
2.3373883175
 20
11.2978554419
 10
2.3282351111
 20
11.3140691308
 10
2.3187334303
 20
11.3300310241
 10
2.3088966419
 20
11.3457187198
 10
2.2987206755
 20
11.361136432
 10
2.2882043
 20
11.3762805044
 10
2.2773737981
 20
11.3911076323
 10
2.2662674648
 20
11.4055637558
 10
2.2549042157
 20
11.419625784
 10
2.2432978259
 20
11.4332779846
 10
2.2314823928
 20
11.4464824128
 10
2.2194952217
 20
11.4592031753
 10
2.2073356774
 20
11.4714466253
 10
2.1949802851
 20
11.4832366492
 10
2.1824284893
 20
11.4945699843
 10
2.1697139649
 20
11.5054124908
 10
2.1568635571
 20
11.5157391369
 10
2.1438880285
 20
11.5255398581
 10
2.1308126068
 20
11.5347940975
 10
2.1176871208
 20
11.5434673866
 10
2.1045410105
 20
11.5515444057
 10
2.0913826009
 20
11.5590244669
 10
2.0782304948
 20
11.5659005033
  0
LWPOLYLINE
  5
3FA
100
AcDbEntity
  8
0
100
AcDbPolyline
 62
7
  6
CONTINUOUS
 90
27
 70
0
 10
1.2647446677
 20
19.8874966551
 10
1.2643135286
 20
19.9174474104
 10
1.263032054
 20
19.9468678792
 10
1.2609002439
 20
19.9757580617
 10
1.2579128084
 20
20.0041550698
 10
1.2540750374
 20
20.0320217915
 10
1.2494028004
 20
20.0592468906
 10
1.2438951095
 20
20.0858194446
 10
1.2375529526
 20
20.1117503759
 10
1.2303951633
 20
20.1369611158
 10
1.2224150652
 20
20.1614601433
 10
1.2136193346
 20
20.1852389793
 10
1.2040468338
 20
20.2081936174
 10
1.1937005329
 20
20.2303087166
 10
1.1825774617
 20
20.251599618
 10
1.1707075729
 20
20.2720083377
 10
1.1580801525
 20
20.2915442919
 10
1.1447059145
 20
20.3101980645
 10
1.130646953
 20
20.3278834238
 10
1.1159109349
 20
20.3445849807
 10
1.1004901935
 20
20.3603181242
 10
1.084423823
 20
20.3750427895
 10
1.0676975081
 20
20.3887656364
 10
1.0503255641
 20
20.4014800051
 10
1.0323900314
 20
20.4131258509
 10
1.0139021086
 20
20.4236911604
 10
1.0048517303
 20
20.428370952
  0
LINE
  5
3FB
100
AcDbEntity
  8
DRAFT
100
AcDbLine
 62
7
  6
CONTINUOUS
 10
2.4668261957
 20
7.2639772169
 11
2.4317793981
 21
10.9561280056
  0
LINE
  5
3FC
100
AcDbEntity
  8
0
100
AcDbLine
 62
250
  6
CONTINUOUS
 10
0.4817819331
 20
-28.120306502
 11
0.4817819331
 21
-27.4263937748
  0
LINE
  5
3FD
100
AcDbEntity
  8
0
100
AcDbLine
 62
250
  6
CONTINUOUS
 10
0.4817819331
 20
11.2353849101
 11
0.4817819331
 21
11.9161346557
  0
LINE
  5
3FE
100
AcDbEntity
  8
RACCORDO
100
AcDbLine
 62
7
  6
CONTINUOUS
 10
0.6637039037
 20
-9.1532743081
 11
0.6637039037
 21
-23.7751075288
  0
LINE
  5
3FF
100
AcDbEntity
  8
RACCORDO
100
AcDbLine
 62
7
  6
CONTINUOUS
 10
0.6637039037
 20
-8.6338700896
 11
0.6637039037
 21
5.9879631311
  0
LINE
  5
400
100
AcDbEntity
  8
DRAFT
100
AcDbLine
 62
7
  6
CONTINUOUS
 10
0.6846863148
 20
0.6102565958
 11
0.6846863148
 21
0.4370515151
  0
LINE
  5
401
100
AcDbEntity
  8
DRAFT
100
AcDbLine
 62
7
  6
CONTINUOUS
 10
0.6846863148
 20
-17.7061806942
 11
0.6846863148
 21
-18.6155073682
  0
LINE
  5
402
100
AcDbEntity
  8
DRAFT
100
AcDbLine
 62
7
  6
CONTINUOUS
 10
0.6846863148
 20
3.85785186
 11
0.6846863148
 21
4.0052235673
  0
LINE
  5
403
100
AcDbEntity
  8
0
100
AcDbLine
 62
250
  6
CONTINUOUS
 10
0.8343038928
 20
-28.2458192259
 11
0.8343038928
 21
-27.6026547546
  0
LINE
  5
404
100
AcDbEntity
  8
0
100
AcDbLine
 62
250
  6
CONTINUOUS
 10
0.8343038928
 20
11.2461527917
 11
0.8343038928
 21
12.0537849135
  0
LINE
  5
405
100
AcDbEntity
  8
DRAFT
100
AcDbLine
 62
7
  6
CONTINUOUS
 10
0.9013172013
 20
-9.3755656818
 11
0.9013172013
 21
-5.8207648887
  0
LINE
  5
406
100
AcDbEntity
  8
0
100
AcDbLine
 62
7
  6
CONTINUOUS
 10
1.2647446677
 20
19.8874966551
 11
1.2647446677
 21
19.4258375357
  0
LINE
  5
407
100
AcDbEntity
  8
RACCORDO
100
AcDbLine
 62
7
  6
CONTINUOUS
 10
1.351679663
 20
-27.4281317462
 11
1.351679663
 21
-24.4783826511
  0
LINE
  5
408
100
AcDbEntity
  8
RACCORDO
100
AcDbLine
 62
7
  6
CONTINUOUS
 10
1.351679663
 20
7.4174760565
 11
1.351679663
 21
10.3672251516
  0
LINE
  5
409
100
AcDbEntity
  8
DRAFT
100
AcDbLine
 62
7
  6
CONTINUOUS
 10
1.4768767021
 20
-22.5182351786
 11
1.4768767021
 21
-19.0116025618
  0
LINE
  5
40A
100
AcDbEntity
  8
DRAFT
100
AcDbLine
 62
7
  6
CONTINUOUS
 10
1.4768767021
 20
-14.6814755429
 11
1.4768767021
 21
0.0409563215
  0
LINE
  5
40B
100
AcDbEntity
  8
DRAFT
100
AcDbLine
 62
7
  6
CONTINUOUS
 10
1.4768767021
 20
4.3710833404
 11
1.4768767021
 21
7.1459120748
  0
LINE
  5
40C
100
AcDbEntity
  8
0
100
AcDbLine
 62
7
  6
CONTINUOUS
 10
1.7243640755
 20
-27.4883276319
 11
1.7243640755
 21
-28.6572550375
  0
LINE
  5
40D
100
AcDbEntity
  8
0
100
AcDbLine
 62
7
  6
CONTINUOUS
 10
1.7243640755
 20
11.742833713
 11
1.7243640755
 21
13.344984374
  0
LINE
  5
40E
100
AcDbEntity
  8
0
100
AcDbLine
 62
250
  6
CONTINUOUS
 10
2.2526312472
 20
13.608423194
 11
2.2526312472
 21
13.2608916773
  0
LINE
  5
40F
100
AcDbEntity
  8
0
100
AcDbLine
 62
250
  6
CONTINUOUS
 10
2.2526312472
 20
-28.0387124621
 11
2.2526312472
 21
-28.3862439789
  0
LINE
  5
410
100
AcDbEntity
  8
0
100
AcDbLine
 62
7
  6
CONTINUOUS
 10
2.3248291042
 20
13.6962958262
 11
2.3248291042
 21
13.3487643094
  0
LINE
  5
411
100
AcDbEntity
  8
0
100
AcDbLine
 62
7
  6
CONTINUOUS
 10
2.3248291042
 20
-27.9508398299
 11
2.3248291042
 21
-28.2983713467
  0
LINE
  5
412
100
AcDbEntity
  8
DRAFT
100
AcDbLine
 62
7
  6
CONTINUOUS
 10
2.6420601842
 20
-23.1008269196
 11
2.6420601842
 21
7.2951242161
  0
LINE
  5
413
100
AcDbEntity
  8
0
100
AcDbLine
 62
250
  6
CONTINUOUS
 10
3.0011660889
 20
17.7885112744
 11
3.0011660889
 21
17.2353405513
  0
LINE
  5
414
100
AcDbEntity
  8
0
100
AcDbLine
 62
250
  6
CONTINUOUS
 10
3.0011660889
 20
16.8791646848
 11
3.0011660889
 21
16.4047633095
  0
LINE
  5
415
100
AcDbEntity
  8
0
100
AcDbLine
 62
7
  6
CONTINUOUS
 10
3.13200094
 20
17.8106668878
 11
3.13200094
 21
16.5624027651
  0
LINE
  5
416
100
AcDbEntity
  8
DRAFT
100
AcDbLine
 62
7
  6
CONTINUOUS
 10
3.1327153518
 20
-26.614136799
 11
3.1327153518
 21
-23.6978862434
  0
LINE
  5
417
100
AcDbEntity
  8
DRAFT
100
AcDbLine
 62
7
  6
CONTINUOUS
 10
3.1327153518
 20
8.3914778659
 11
3.1327153518
 21
11.3077284215
  0
LINE
  5
418
100
AcDbEntity
  8
0
100
AcDbLine
 62
250
  6
CONTINUOUS
 10
2.3248291042
 20
-28.2983713467
 11
2.3248289593
 21
-28.2985059704
  0
LINE
  5
419
100
AcDbEntity
  8
DRAFT
100
AcDbLine
 62
7
  6
CONTINUOUS
 10
2.4317793981
 20
-26.9758139917
 11
2.4668261957
 21
-23.2479993226
  0
LWPOLYLINE
  5
41A
100
AcDbEntity
  8
0
100
AcDbPolyline
 62
250
  6
CONTINUOUS
 90
20
 70
0
 10
2.2526312472
 20
-28.3862439789
 10
2.2524784653
 20
-28.3964226228
 10
2.251923156
 20
-28.4063791101
 10
2.2509665759
 20
-28.41609088
 10
2.2496108901
 20
-28.4255359313
 10
2.2478591693
 20
-28.4346928561
 10
2.2457153852
 20
-28.4435408897
 10
2.243184397
 20
-28.4520599801
 10
2.2402719394
 20
-28.460230829
 10
2.236984613
 20
-28.4680349202
 10
2.2333298668
 20
-28.4754545727
 10
2.2293159832
 20
-28.4824729744
 10
2.2249520613
 20
-28.4890742186
 10
2.2202479915
 20
-28.4952433488
 10
2.2152144332
 20
-28.5009663899
 10
2.2098627949
 20
-28.5062303748
 10
2.2042052012
 20
-28.511023381
 10
2.1982544756
 20
-28.5153345483
 10
2.1920241144
 20
-28.5191541046
 10
2.1889432097
 20
-28.5208077891
  0
LWPOLYLINE
  5
41B
100
AcDbEntity
  8
0
100
AcDbPolyline
 62
7
  6
CONTINUOUS
 90
20
 70
0
 10
1.7243640755
 20
-28.6572550375
 10
1.7241636966
 20
-28.6674566287
 10
1.7235635276
 20
-28.6774347935
 10
1.722564824
 20
-28.6871669808
 10
1.7211696657
 20
-28.696631237
 10
1.7193812048
 20
-28.7058061249
 10
1.7172036589
 20
-28.7146707722
 10
1.7146419003
 20
-28.7232051275
 10
1.7117016394
 20
-28.7313899034
 10
1.7083896651
 20
-28.7392064892
 10
1.7047134412
 20
-28.7466371965
 10
1.7006812222
 20
-28.7536652281
 10
1.6963022304
 20
-28.7602746148
 10
1.6915863693
 20
-28.7664503915
 10
1.6865442696
 20
-28.7721785938
 10
1.6811873992
 20
-28.7774462196
 10
1.6755278998
 20
-28.7822413322
 10
1.6695785619
 20
-28.7865530844
 10
1.6633528653
 20
-28.7903717066
 10
1.6602589738
 20
-28.7920328096
  0
LWPOLYLINE
  5
41C
100
AcDbEntity
  8
0
100
AcDbPolyline
 62
250
  6
CONTINUOUS
 90
18
 70
0
 10
2.3248291042
 20
13.6962958262
 10
2.3247755427
 20
13.6937084581
 10
2.3242491153
 20
13.6877861539
 10
2.323161703
 20
13.6818829812
 10
2.3215157483
 20
13.6760122144
 10
2.3193149511
 20
13.6701870599
 10
2.3165642582
 20
13.664420619
 10
2.3132698544
 20
13.6587258625
 10
2.3094391499
 20
13.6531156037
 10
2.3050807603
 20
13.647602462
 10
2.3002044867
 20
13.6421988369
 10
2.2948212972
 20
13.6369168842
 10
2.288943296
 20
13.6317684815
 10
2.2825837059
 20
13.6267652115
 10
2.2757568431
 20
13.6219183367
 10
2.268478069
 20
13.6172387606
 10
2.2607637528
 20
13.6127370049
 10
2.2526312472
 20
13.608423194
  0
LWPOLYLINE
  5
41D
100
AcDbEntity
  8
0
100
AcDbPolyline
 62
250
  6
CONTINUOUS
 90
18
 70
0
 10
2.3248291042
 20
13.3487643094
 10
2.3247750898
 20
13.3461660268
 10
2.3242477145
 20
13.3402443791
 10
2.3231594792
 20
13.3343418889
 10
2.3215128309
 20
13.3284718294
 10
2.3193114722
 20
13.3226474004
 10
2.3165603534
 20
13.3168816998
 10
2.3132656603
 20
13.311187692
 10
2.3094347999
 20
13.3055781786
 10
2.3050763812
 20
13.3000657687
 10
2.3002002074
 20
13.2946628634
 10
2.2948172559
 20
13.2893816244
 10
2.2889396425
 20
13.284233934
 10
2.2825805795
 20
13.2792313594
 10
2.2757543558
 20
13.2743851402
 10
2.2684763169
 20
13.269706171
 10
2.2607628323
 20
13.2652049761
 10
2.2526312472
 20
13.2608916773
  0
LWPOLYLINE
  5
41E
100
AcDbEntity
  8
0
100
AcDbPolyline
 62
250
  6
CONTINUOUS
 90
18
 70
0
 10
2.324829098
 20
-27.9508676586
 10
2.3247746814
 20
-27.9534479174
 10
2.3242463283
 20
-27.9593698993
 10
2.3231570563
 20
-27.9652726764
 10
2.3215093183
 20
-27.9711429824
 10
2.3193068181
 20
-27.9769676285
 10
2.3165544864
 20
-27.9827335582
 10
2.3132585275
 20
-27.9884277606
 10
2.3094264361
 20
-27.994037318
 10
2.305066924
 20
-27.9995495475
 10
2.3001897783
 20
-28.0049521358
 10
2.294805883
 20
-28.0102330467
 10
2.288926848
 20
-28.0153808171
 10
2.2825663112
 20
-28.0203834365
 10
2.2757401515
 20
-28.025228591
 10
2.268464579
 20
-28.0299051556
 10
2.2607557454
 20
-28.0344031055
 10
2.2526312472
 20
-28.0387124621
  0
LWPOLYLINE
  5
41F
100
AcDbEntity
  8
0
100
AcDbPolyline
 62
250
  6
CONTINUOUS
 90
18
 70
0
 10
2.3248289593
 20
-28.2985059704
 10
2.3247755427
 20
-28.3009587148
 10
2.3242491153
 20
-28.3068810189
 10
2.323161703
 20
-28.3127841917
 10
2.3215157483
 20
-28.3186549585
 10
2.3193149511
 20
-28.3244801129
 10
2.3165642582
 20
-28.3302465538
 10
2.3132698544
 20
-28.3359413103
 10
2.3094391499
 20
-28.3415515692
 10
2.3050807603
 20
-28.3470647109
 10
2.3002044867
 20
-28.352468336
 10
2.2948212972
 20
-28.3577502887
 10
2.288943296
 20
-28.3628986914
 10
2.2825837059
 20
-28.3679019613
 10
2.2757568431
 20
-28.3727488362
 10
2.268478069
 20
-28.3774284122
 10
2.2607637528
 20
-28.381930168
 10
2.2526312472
 20
-28.3862439789
  0
LWPOLYLINE
  5
420
100
AcDbEntity
  8
0
100
AcDbPolyline
 62
250
  6
CONTINUOUS
 90
20
 70
0
 10
0.1230832847
 20
-29.4372896372
 10
0.1228350164
 20
-29.4475146614
 10
0.1221892081
 20
-29.4575151429
 10
0.1211473227
 20
-29.4672684282
 10
0.1197117203
 20
-29.476752424
 10
0.1178856528
 20
-29.4859456469
 10
0.1156732567
 20
-29.4948272722
 10
0.1130795437
 20
-29.503377181
 10
0.1101103889
 20
-29.5115760059
 10
0.1067725183
 20
-29.5194051746
 10
0.1030734928
 20
-29.5268469525
 10
0.0990216915
 20
-29.5338844821
 10
0.0946262928
 20
-29.5405018219
 10
0.0898972531
 20
-29.5466839821
 10
0.0848452849
 20
-29.5524169588
 10
0.0794818318
 20
-29.5576877655
 10
0.0738190435
 20
-29.5624844625
 10
0.0678697472
 20
-29.5667961845
 10
0.0616474197
 20
-29.5706131642
 10
0.0568216921
 20
-29.5731402634
  0
LWPOLYLINE
  5
421
100
AcDbEntity
  8
RACCORDO
100
AcDbPolyline
 62
250
  6
CONTINUOUS
 90
13
 70
0
 10
0.1061552522
 20
-24.8295897129
 10
0.105388862
 20
-24.8589529059
 10
0.1029473434
 20
-24.888718521
 10
0.0986242841
 20
-24.9186246797
 10
0.0922086545
 20
-24.9483675494
 10
0.0834956616
 20
-24.9776103471
 10
0.0722988121
 20
-25.005986621
 10
0.0584345099
 20
-25.0330860667
 10
0.0417440586
 20
-25.0584435956
 10
0.022125913
 20
-25.0815789068
 10
-0.0005219603
 20
-25.1020086019
 10
-0.0262403286
 20
-25.1191823711
 10
-0.039378965
 20
-25.1259816664
  0
LWPOLYLINE
  5
422
100
AcDbEntity
  8
RACCORDO
100
AcDbPolyline
 62
7
  6
CONTINUOUS
 90
10
 70
0
 10
0.1818678253
 20
-24.7930331209
 10
0.1795595097
 20
-24.842184669
 10
0.1732619951
 20
-24.8877467429
 10
0.1629752816
 20
-24.9297193428
 10
0.1485044283
 20
-24.9684763698
 10
0.130044376
 20
-25.0036439227
 10
0.1081799478
 20
-25.0341002981
 10
0.0827888176
 20
-25.0597000348
 10
0.0539933115
 20
-25.0805885941
 10
0.0358327389
 20
-25.0904063896
  0
LINE
  5
423
100
AcDbEntity
  8
SUPERFICI
100
AcDbLine
 62
7
  6
CONTINUOUS
 10
-13.6875495618
 20
-15.9124215117
 11
-13.6944095759
 21
-15.91895273
  0
LWPOLYLINE
  5
424
100
AcDbEntity
  8
DRAFT
100
AcDbPolyline
 62
7
  6
CONTINUOUS
 90
3
 70
0
 10
-14.1548117111
 20
-15.3396196272
 10
-14.1282516687
 20
-15.315840014
 10
-14.118704594
 20
-15.3089826504
  0
LWPOLYLINE
  5
425
100
AcDbEntity
  8
RACCORDO
100
AcDbPolyline
 62
7
  6
CONTINUOUS
 90
9
 70
0
 10
23.4604256935
 20
12.9413937124
 10
23.458968655
 20
12.9403893591
 10
23.4574833205
 20
12.9392805299
 10
23.4559734833
 20
12.9380749403
 10
23.4544347812
 20
12.9367652975
 10
23.4528543436
 20
12.9353294597
 10
23.4512273132
 20
12.9337603726
 10
23.4495572004
 20
12.9320659109
 10
23.4478433653
 20
12.9302464862
  0
LWPOLYLINE
  5
426
100
AcDbEntity
  8
RACCORDO
100
AcDbPolyline
 62
7
  6
CONTINUOUS
 90
34
 70
0
 10
22.8256751422
 20
11.7810017449
 10
22.8584882549
 20
11.8029344449
 10
22.8907656856
 20
11.825945806
 10
22.9224866198
 20
11.8500310346
 10
22.953625318
 20
11.8751802799
 10
22.9841671534
 20
11.901391448
 10
23.0141077952
 20
11.9286722142
 10
23.0434283282
 20
11.9570182066
 10
23.0721078286
 20
11.986422241
 10
23.1001382352
 20
12.0168902437
 10
23.1275026953
 20
12.0484197064
 10
23.1541792944
 20
12.0810015615
 10
23.1801524443
 20
12.1146334322
 10
23.2054067414
 20
12.1493132319
 10
23.2299210095
 20
12.1850303251
 10
23.253672415
 20
12.2217694422
 10
23.2766467627
 20
12.2595269331
 10
23.2988253199
 20
12.2982911072
 10
23.3201813279
 20
12.3380329129
 10
23.3407022559
 20
12.378745982
 10
23.3603726361
 20
12.4204175367
 10
23.3791654192
 20
12.4630058718
 10
23.3970701152
 20
12.5065008166
 10
23.414075097
 20
12.5508887897
 10
23.4301565155
 20
12.5961191121
 10
23.4453063097
 20
12.6421774556
 10
23.459516698
 20
12.6890495597
 10
23.472769369
 20
12.7366807435
 10
23.4850589484
 20
12.7850530223
 10
23.4963810367
 20
12.8341512676
 10
23.5067235987
 20
12.8839212045
 10
23.516082107
 20
12.9343316324
 10
23.5244571579
 20
12.9853764199
 10
23.5312428996
 20
13.0325171291
  0
LINE
  5
427
100
AcDbEntity
  8
DRAFT
100
AcDbLine
 62
7
  6
CONTINUOUS
 10
22.8256751422
 20
11.7810017449
 11
21.8611279765
 21
11.1571407817
  0
LWPOLYLINE
  5
428
100
AcDbEntity
  8
RACCORDO
100
AcDbPolyline
 62
7
  6
CONTINUOUS
 90
21
 70
0
 10
23.4604256935
 20
12.9413937124
 10
23.4677159949
 20
12.945960547
 10
23.473350704
 20
12.9497350142
 10
23.4787535418
 20
12.9536132069
 10
23.4839193857
 20
12.9575915944
 10
23.4888433494
 20
12.9616663416
 10
23.4935207855
 20
12.9658333132
 10
23.4979472775
 20
12.9700886936
 10
23.5021186459
 20
12.9744285072
 10
23.506030961
 20
12.9788482809
 10
23.5096805433
 20
12.9833440128
 10
23.5130639636
 20
12.987911555
 10
23.5161780471
 20
12.9925461338
 10
23.5190198834
 20
12.9972435957
 10
23.5215868221
 20
13.0019996562
 10
23.5238764739
 20
13.0068092813
 10
23.5258867216
 20
13.0116682024
 10
23.5276157159
 20
13.016572035
 10
23.5290618745
 20
13.0215155273
 10
23.5302238911
 20
13.0264943322
 10
23.5311007319
 20
13.0315040039
  0
LWPOLYLINE
  5
429
100
AcDbEntity
  8
RACCORDO
100
AcDbPolyline
 62
7
  6
CONTINUOUS
 90
24
 70
0
 10
23.4618547581
 20
13.7119866894
 10
23.4677159949
 20
13.7155284878
 10
23.473350704
 20
13.7191403899
 10
23.4787535418
 20
13.7228188314
 10
23.4839193857
 20
13.726560049
 10
23.4888433494
 20
13.7303604401
 10
23.4935207855
 20
13.7342165673
 10
23.4979472775
 20
13.738124525
 10
23.5021186459
 20
13.7420804275
 10
23.506030961
 20
13.7460807694
 10
23.5096805433
 20
13.7501214599
 10
23.5130639636
 20
13.75419844
 10
23.5161780471
 20
13.7583081697
 10
23.5190198834
 20
13.7624464087
 10
23.5215868221
 20
13.7666089593
 10
23.5238764739
 20
13.7707922827
 10
23.5258867216
 20
13.7749920253
 10
23.5276157159
 20
13.7792038877
 10
23.5290618745
 20
13.7834243675
 10
23.5302238911
 20
13.7876490358
 10
23.5311007319
 20
13.7918735287
 10
23.531691635
 20
13.7960944167
 10
23.5319961151
 20
13.8003072334
 10
23.5320414252
 20
13.8026706106
  0
LINE
  5
42A
100
AcDbEntity
  8
SMUSSO
100
AcDbLine
 62
7
  6
CONTINUOUS
 10
1.4768767021
 20
0.0409563215
 11
0.6637039037
 21
-0.368765376
  0
LWPOLYLINE
  5
42B
100
AcDbEntity
  8
RACCORDO
100
AcDbPolyline
 62
250
  6
CONTINUOUS
 90
13
 70
0
 10
-3.3079855337
 20
-2.5263882632
 10
-3.3574421603
 20
-2.5456009182
 10
-3.4116682573
 20
-2.5615081324
 10
-3.4697767164
 20
-2.573849673
 10
-3.5308169163
 20
-2.5824236394
 10
-3.5937902742
 20
-2.5870897662
 10
-3.6576665818
 20
-2.5877717184
 10
-3.7214008589
 20
-2.5844583396
 10
-3.7839504491
 20
-2.5772038347
 10
-3.8442920766
 20
-2.5661268834
 10
-3.9014385868
 20
-2.5514086983
 10
-3.9544550953
 20
-2.5332900605
 10
-4.0024742821
 20
-2.5120673806
  0
LINE
  5
42C
100
AcDbEntity
  8
DRAFT
100
AcDbLine
 62
7
  6
CONTINUOUS
 10
-8.7065463304
 20
1.223422131
 11
-8.745706501
 21
1.2195910999
  0
LINE
  5
42D
100
AcDbEntity
  8
DRAFT
100
AcDbLine
 62
7
  6
CONTINUOUS
 10
-8.745706501
 20
1.2195910999
 11
-8.7857907656
 21
1.2213945217
  0
LWPOLYLINE
  5
42E
100
AcDbEntity
  8
SUPERFICI
100
AcDbPolyline
 62
7
  6
CONTINUOUS
 90
4
 70
0
 10
-10.9434174136
 20
2.7907871085
 10
-10.9169955916
 20
2.7888609512
 10
-10.8889109528
 20
2.7820580543
 10
-10.8591643583
 20
2.7703780318
  0
LINE
  5
42F
100
AcDbEntity
  8
DRAFT
100
AcDbLine
 62
7
  6
CONTINUOUS
 10
1.4768767021
 20
0.0409563215
 11
0.6846863148
 21
0.4370515151
  0
LINE
  5
430
100
AcDbEntity
  8
DRAFT
100
AcDbLine
 62
7
  6
CONTINUOUS
 10
0.6846863148
 20
0.6102565958
 11
0.6637039037
 21
0.6207478014
  0
LWPOLYLINE
  5
431
100
AcDbEntity
  8
0
100
AcDbPolyline
 62
250
  6
CONTINUOUS
 90
16
 70
0
 10
-10.0510267454
 20
19.4127206736
 10
-10.0470573294
 20
19.4060315647
 10
-10.0434966967
 20
19.399554085
 10
-10.0403531495
 20
19.3933029818
 10
-10.037633872
 20
19.3872920714
 10
-10.0353455347
 20
19.3815355555
 10
-10.0334939563
 20
19.3760477944
 10
-10.0320834127
 20
19.3708415854
 10
-10.0311169196
 20
19.3659282237
 10
-10.0305966525
 20
19.361318709
 10
-10.0305238145
 20
19.3570234085
 10
-10.030898607
 20
19.3530521007
 10
-10.0317201897
 20
19.3494138395
 10
-10.0329866972
 20
19.3461168606
 10
-10.034695275
 20
19.343168578
 10
-10.0356496821
 20
19.3419056046
  0
LWPOLYLINE
  5
432
100
AcDbEntity
  8
RACCORDO
100
AcDbPolyline
 62
250
  6
CONTINUOUS
 90
7
 70
0
 10
-0.7478864809
 20
9.1461048367
 10
-0.7450272986
 20
9.125444885
 10
-0.7372075772
 20
9.1064396659
 10
-0.7245467402
 20
9.0880981547
 10
-0.7072566399
 20
9.0707272538
 10
-0.685626588
 20
9.0546176241
 10
-0.6600185152
 20
9.0400388218
  0
LWPOLYLINE
  5
433
100
AcDbEntity
  8
0
100
AcDbPolyline
 62
7
  6
CONTINUOUS
 90
5
 70
0
 10
3.13200094
 20
17.8106650461
 10
3.1318017423
 20
17.8127389339
 10
3.130895266
 20
17.8151697048
 10
3.1292871184
 20
17.8171338384
 10
3.1269860495
 20
17.8186733865
  0
LINE
  5
434
100
AcDbEntity
  8
DRAFT
100
AcDbLine
 62
7
  6
CONTINUOUS
 10
4.1841192825
 20
8.9217403262
 11
4.1841192825
 21
-23.1582322909
  0
LINE
  5
435
100
AcDbEntity
  8
RACCORDO
100
AcDbLine
 62
7
  6
CONTINUOUS
 10
4.1992378097
 20
8.1783350583
 11
4.1992378097
 21
-22.4299455501
  0
LWPOLYLINE
  5
436
100
AcDbEntity
  8
DRAFT
100
AcDbPolyline
 62
7
  6
CONTINUOUS
 90
43
 70
0
 10
21.5804677769
 20
11.3391757125
 10
21.5897368465
 20
11.3460932302
 10
21.5988298318
 20
11.3526544456
 10
21.6077470468
 20
11.3588575828
 10
21.6164690415
 20
11.3646867949
 10
21.6250166808
 20
11.3701541774
 10
21.6334481194
 20
11.3753010626
 10
21.6417646338
 20
11.3801368837
 10
21.6499604083
 20
11.3846511077
 10
21.6580779396
 20
11.3888571646
 10
21.6661067358
 20
11.392760756
 10
21.6740483025
 20
11.3963565891
 10
21.6819573221
 20
11.3996436878
 10
21.6898288368
 20
11.4026336946
 10
21.6976508603
 20
11.4053176464
 10
21.7054607765
 20
11.4076658025
 10
21.713242534
 20
11.4096876775
 10
21.7209877759
 20
11.4113778462
 10
21.7287376523
 20
11.4126862805
 10
21.7364794867
 20
11.4136236305
 10
21.7441896759
 20
11.4141852698
 10
21.7518845097
 20
11.4143001924
 10
21.7595431696
 20
11.4139737843
 10
21.7671390224
 20
11.4132073301
 10
21.774672043
 20
11.411924926
 10
21.7821173315
 20
11.4101256099
 10
21.789440172
 20
11.4078167469
 10
21.7966196285
 20
11.4049354226
 10
21.8036203808
 20
11.40147737
 10
21.8104083923
 20
11.3974512728
 10
21.8169588643
 20
11.3928136221
 10
21.8232245301
 20
11.3875655635
 10
21.8291717948
 20
11.3817074791
 10
21.8347843094
 20
11.3751951086
 10
21.8400026348
 20
11.3680353716
 10
21.8447813189
 20
11.3602197639
 10
21.8490985779
 20
11.3516819171
 10
21.8528881749
 20
11.3423847207
 10
21.856060462
 20
11.332358982
 10
21.8585366074
 20
11.3216392267
 10
21.8602352015
 20
11.3101630629
 10
21.8610612973
 20
11.2979741046
 10
21.8611279764
 20
11.2933350139
  0
LINE
  5
437
100
AcDbEntity
  8
SUPERFICI
100
AcDbLine
 62
7
  6
CONTINUOUS
 10
-14.118733537
 20
-15.3089336624
 11
-14.1060800524
 21
-15.3009727563
  0
LWPOLYLINE
  5
438
100
AcDbEntity
  8
DRAFT
100
AcDbPolyline
 62
7
  6
CONTINUOUS
 90
9
 70
0
 10
-14.118704594
 20
-15.3089826504
 10
-14.0983535391
 20
-15.2967386314
 10
-14.065911063
 20
-15.2829150813
 10
-14.0308187165
 20
-15.2745196713
 10
-13.9931896023
 20
-15.2714062325
 10
-13.9541462354
 20
-15.2737301032
 10
-13.9140645563
 20
-15.2815440248
 10
-13.872573353
 20
-15.2947978293
 10
-13.8296738092
 20
-15.3134921603
  0
LINE
  5
439
100
AcDbEntity
  8
SMUSSO
100
AcDbLine
 62
7
  6
CONTINUOUS
 10
0.9013172013
 20
-5.8207648887
 11
0.6637039037
 21
-5.9305025838
  0
LINE
  5
43A
100
AcDbEntity
  8
DRAFT
100
AcDbLine
 62
7
  6
CONTINUOUS
 10
-11.7444284202
 20
2.7239175206
 11
-11.7585936026
 21
2.7199479087
  0
LWPOLYLINE
  5
43B
100
AcDbEntity
  8
SUPERFICI
100
AcDbPolyline
 62
7
  6
CONTINUOUS
 90
4
 70
0
 10
-9.0377565372
 20
1.8692841334
 10
-9.0279969508
 20
1.8718663782
 10
-9.018950047
 20
1.8768046263
 10
-9.0135594249
 20
1.8813335463
  0
LINE
  5
43C
100
AcDbEntity
  8
DRAFT
100
AcDbLine
 62
7
  6
CONTINUOUS
 10
-8.6690573706
 20
1.232904029
 11
-8.7065463304
 21
1.223422131
  0
LINE
  5
43D
100
AcDbEntity
  8
DRAFT
100
AcDbLine
 62
7
  6
CONTINUOUS
 10
0.6637039037
 20
5.9879631311
 11
-1.0194349327
 21
5.73690381
  0
LWPOLYLINE
  5
43E
100
AcDbEntity
  8
DRAFT
100
AcDbPolyline
 62
7
  6
CONTINUOUS
 90
5
 70
0
 10
-11.7585936026
 20
2.7199479087
 10
-11.7838623941
 20
2.7169632516
 10
-11.809903128
 20
2.7189671894
 10
-11.8371547981
 20
2.7258075995
 10
-11.8656182565
 20
2.7374840929
  0
LINE
  5
43F
100
AcDbEntity
  8
DRAFT
100
AcDbLine
 62
7
  6
CONTINUOUS
 10
0.6637039037
 20
3.8683430656
 11
0.6846863148
 21
3.85785186
  0
LINE
  5
440
100
AcDbEntity
  8
SMUSSO
100
AcDbLine
 62
7
  6
CONTINUOUS
 10
-0.4469245857
 20
6.3609570197
 11
-1.0194349327
 21
6.6472121932
  0
LINE
  5
441
100
AcDbEntity
  8
DRAFT
100
AcDbLine
 62
7
  6
CONTINUOUS
 10
-0.1708091937
 20
6.4052196798
 11
0.6637039037
 21
5.9879631311
  0
LINE
  5
442
100
AcDbEntity
  8
RACCORDO
100
AcDbLine
 62
250
  6
CONTINUOUS
 10
-3.2781128653
 20
7.967581668
 11
-18.1205099428
 21
15.3887802067
  0
LINE
  5
443
100
AcDbEntity
  8
RACCORDO
100
AcDbLine
 62
7
  6
CONTINUOUS
 10
-0.3143734946
 20
6.5886088412
 11
-0.6600185152
 21
6.7614313515
  0
LINE
  5
444
100
AcDbEntity
  8
DRAFT
100
AcDbLine
 62
7
  6
CONTINUOUS
 10
-1.0194349327
 20
7.2300288845
 11
-0.7478864809
 21
7.0942546586
  0
LINE
  5
445
100
AcDbEntity
  8
DRAFT
100
AcDbLine
 62
7
  6
CONTINUOUS
 10
-0.7478864809
 20
7.1118578284
 11
-1.0194349327
 21
7.2476320543
  0
LINE
  5
446
100
AcDbEntity
  8
DRAFT
100
AcDbLine
 62
250
  6
CONTINUOUS
 10
8.7364366764
 20
-21.2684462379
 11
8.7364366764
 21
-21.0952405715
  0
LINE
  5
447
100
AcDbEntity
  8
DRAFT
100
AcDbLine
 62
250
  6
CONTINUOUS
 10
8.7364366764
 20
15.5010750359
 11
8.7364366764
 21
15.9270064369
  0
LINE
  5
448
100
AcDbEntity
  8
0
100
AcDbLine
 62
7
  6
CONTINUOUS
 10
8.8767667762
 20
-21.2178566021
 11
8.8767667762
 21
-21.0215237708
  0
LINE
  5
449
100
AcDbEntity
  8
0
100
AcDbLine
 62
7
  6
CONTINUOUS
 10
8.8767667762
 20
15.6773457253
 11
8.8767667762
 21
16.2237459863
  0
LWPOLYLINE
  5
44A
100
AcDbEntity
  8
RACCORDO
100
AcDbPolyline
 62
250
  6
CONTINUOUS
 90
14
 70
0
 10
12.1320592296
 20
17.6465640921
 10
12.1500208246
 20
17.705450091
 10
12.1767334344
 20
17.7702817566
 10
12.2101403347
 20
17.834355945
 10
12.2501519899
 20
17.8974901627
 10
12.2966497635
 20
17.9594958387
 10
12.3495124146
 20
18.0202129367
 10
12.4085912851
 20
18.0794721539
 10
12.4736840646
 20
18.1370800871
 10
12.5445598964
 20
18.1928535547
 10
12.6210530342
 20
18.2466814903
 10
12.7030444379
 20
18.2984826739
 10
12.7902930349
 20
18.3481003133
 10
12.8107901963
 20
18.3590366815
  0
LWPOLYLINE
  5
44B
100
AcDbEntity
  8
RACCORDO
100
AcDbPolyline
 62
7
  6
CONTINUOUS
 90
40
 70
0
 10
23.4478433653
 20
12.9302464862
 10
23.4247847158
 20
12.9052459772
 10
23.4007654212
 20
12.8796418975
 10
23.3757854815
 20
12.8534342471
 10
23.3498688622
 20
12.8266393864
 10
23.3229915978
 20
12.799240955
 10
23.2950817919
 20
12.771189872
 10
23.2661421236
 20
12.7424875957
 10
23.2361699138
 20
12.7131326678
 10
23.2050852282
 20
12.6830716323
 10
23.17289398
 20
12.6523088339
 10
23.1395902561
 20
12.6208399278
 10
23.1050763824
 20
12.5885984241
 10
23.0693547998
 20
12.5555852088
 10
23.0324230674
 20
12.5217993958
 10
22.9941761883
 20
12.487171837
 10
22.9546176377
 20
12.4517044122
 10
22.9137439403
 20
12.4153952416
 10
22.8714396733
 20
12.3781695371
 10
22.8277078167
 20
12.3400287447
 10
22.7825453906
 20
12.3009714185
 10
22.7358280323
 20
12.2609184327
 10
22.6875603795
 20
12.2198726226
 10
22.6377377947
 20
12.1778311528
 10
22.5862220018
 20
12.1347063915
 10
22.5330170815
 20
12.0905006275
 10
22.4781189532
 20
12.0452115719
 10
22.4213770995
 20
11.9987447261
 10
22.3627961156
 20
11.9511027591
 10
22.3023714062
 20
11.9022830018
 10
22.2399386684
 20
11.8521829487
 10
22.1755033001
 20
11.8008058453
 10
22.1090599034
 20
11.748148446
 10
22.0404279804
 20
11.6940985091
 10
21.9696158325
 20
11.6386614134
 10
21.8966151583
 20
11.58183178
 10
21.8212205558
 20
11.523481231
 10
21.7433635578
 20
11.4635669738
 10
21.6631126315
 20
11.402131801
 10
21.5804677769
 20
11.3391757125
  0
LWPOLYLINE
  5
44C
100
AcDbEntity
  8
RACCORDO
100
AcDbPolyline
 62
7
  6
CONTINUOUS
 90
3
 70
0
 10
-9.0182502684
 20
-18.3661444808
 10
-9.0106045525
 20
-18.3590935517
 10
-9.0046940208
 20
-18.3506206565
  0
LWPOLYLINE
  5
44D
100
AcDbEntity
  8
SUPERFICI
100
AcDbPolyline
 62
7
  6
CONTINUOUS
 90
16
 70
0
 10
-9.0182502664
 20
-18.3661444795
 10
-9.0107486605
 20
-18.359489076
 10
-9.0049209943
 20
-18.3512800436
 10
-9.0007669984
 20
-18.3415172333
 10
-8.9982659272
 20
-18.3298281561
 10
-8.9974378197
 20
-18.3165849107
 10
-8.9983440802
 20
-18.3029045045
 10
-9.0010969861
 20
-18.288878008
 10
-9.0055846809
 20
-18.2744145843
 10
-9.0115331704
 20
-18.2603588239
 10
-9.0190987465
 20
-18.2466294693
 10
-9.0281259259
 20
-18.2333082251
 10
-9.0378734864
 20
-18.221484364
 10
-9.0480946893
 20
-18.2115211622
 10
-9.0590370454
 20
-18.2030557698
 10
-9.0707007425
 20
-18.1960882903
  0
LWPOLYLINE
  5
44E
100
AcDbEntity
  8
SUPERFICI
100
AcDbPolyline
 62
7
  6
CONTINUOUS
 90
3
 70
0
 10
-11.7008485627
 20
-16.8064486872
 10
-11.7203099228
 20
-16.8180120977
 10
-11.7299223838
 20
-16.8218739787
  0
LINE
  5
44F
100
AcDbEntity
  8
RACCORDO
100
AcDbLine
 62
250
  6
CONTINUOUS
 10
0.5223686976
 20
-8.9095071361
 11
-3.5151278428
 21
-10.9588735358
  0
LINE
  5
450
100
AcDbEntity
  8
RACCORDO
100
AcDbLine
 62
250
  6
CONTINUOUS
 10
0.6637039037
 20
-9.1532743081
 11
-3.3737926366
 21
-11.2026407078
  0
LINE
  5
451
100
AcDbEntity
  8
SMUSSO
100
AcDbLine
 62
7
  6
CONTINUOUS
 10
0.6637039037
 20
-9.495288481
 11
0.9013172013
 21
-9.3755656818
  0
LWPOLYLINE
  5
452
100
AcDbEntity
  8
SUPERFICI
100
AcDbPolyline
 62
7
  6
CONTINUOUS
 90
11
 70
0
 10
-14.1060800524
 20
-15.3009727563
 10
-14.0831407658
 20
-15.2894369966
 10
-14.0587598386
 20
-15.280723104
 10
-14.0329696607
 20
-15.27478898
 10
-14.0061908792
 20
-15.2717296885
 10
-13.978415833
 20
-15.2715950011
 10
-13.9496546247
 20
-15.2743364766
 10
-13.9203545185
 20
-15.2799018433
 10
-13.8906650728
 20
-15.2882739331
 10
-13.8604380659
 20
-15.2994706411
 10
-13.8296738318
 20
-15.3134921491
  0
LWPOLYLINE
  5
453
100
AcDbEntity
  8
RACCORDO
100
AcDbPolyline
 62
250
  6
CONTINUOUS
 90
16
 70
0
 10
-3.5151278428
 20
-10.9588735358
 10
-3.5388254327
 20
-10.9697441001
 10
-3.5639504073
 20
-10.9792027268
 10
-3.5905027668
 20
-10.9872494159
 10
-3.6188009953
 20
-10.9939521804
 10
-3.6485266085
 20
-10.9992430073
 10
-3.6787241538
 20
-11.0029178578
 10
-3.7094281498
 20
-11.0049125283
 10
-3.7406040778
 20
-11.0052912225
 10
-3.7711929285
 20
-11.0040425123
 10
-3.8011538195
 20
-11.0011019605
 10
-3.8305276332
 20
-10.9965340043
 10
-3.8583780073
 20
-10.9905205279
 10
-3.8843928211
 20
-10.9831221593
 10
-3.9088841952
 20
-10.9742782704
 10
-3.9318521297
 20
-10.9639888612
  0
LWPOLYLINE
  5
454
100
AcDbEntity
  8
RACCORDO
100
AcDbPolyline
 62
250
  6
CONTINUOUS
 90
16
 70
0
 10
-3.3738100244
 20
-11.2026313867
 10
-3.4127858588
 20
-11.2199705552
 10
-3.4549556459
 20
-11.2352516272
 10
-3.49988305
 20
-11.2482990263
 10
-3.5471138455
 20
-11.2589708065
 10
-3.5961823817
 20
-11.2671373784
 10
-3.6465778671
 20
-11.2727180217
 10
-3.6978154289
 20
-11.2756474833
 10
-3.7493053627
 20
-11.2758527679
 10
-3.8003479454
 20
-11.2733434903
 10
-3.8503505255
 20
-11.268179656
 10
-3.8988392562
 20
-11.260411461
 10
-3.9453326087
 20
-11.2501325944
 10
-3.9893759044
 20
-11.2374647112
 10
-4.0305135431
 20
-11.2225284925
 10
-4.0683194892
 20
-11.2054962814
  0
LINE
  5
455
100
AcDbEntity
  8
RACCORDO
100
AcDbLine
 62
250
  6
CONTINUOUS
 10
-3.3737926366
 20
-10.349530124
 11
0.6637039037
 21
-8.6338700896
  0
LINE
  5
456
100
AcDbEntity
  8
RACCORDO
100
AcDbLine
 62
7
  6
CONTINUOUS
 10
-3.4319748387
 20
-10.4604654669
 11
0.6075640239
 21
-8.7439375851
  0
LWPOLYLINE
  5
457
100
AcDbEntity
  8
RACCORDO
100
AcDbPolyline
 62
7
  6
CONTINUOUS
 90
40
 70
0
 10
21.5804677769
 20
13.3658190893
 10
21.6631125069
 20
13.3884442194
 10
21.743363319
 20
13.4101112833
 10
21.8212202132
 20
13.4308202812
 10
21.8966147226
 20
13.4505431059
 10
21.9696153141
 20
13.4693078645
 10
22.0404273884
 20
13.4871988784
 10
22.1090592465
 20
13.5042193652
 10
22.1755025874
 20
13.5203661072
 10
22.239937908
 20
13.5357137732
 10
22.3023706067
 20
13.5502647077
 10
22.3627952852
 20
13.5640165661
 10
22.4213762457
 20
13.5770369831
 10
22.4781180836
 20
13.5893280484
 10
22.5330162036
 20
13.6008876724
 10
22.5862211217
 20
13.6117772212
 10
22.6377369185
 20
13.6219986313
 10
22.6875595135
 20
13.6315499663
 10
22.7358271809
 20
13.6404867823
 10
22.7825445583
 20
13.6488110466
 10
22.8277070081
 20
13.6565207919
 10
22.871438892
 20
13.6636656732
 10
22.9137431898
 20
13.6702473304
 10
22.9546169216
 20
13.6762641237
 10
22.9941755101
 20
13.6817607885
 10
23.0324224313
 20
13.6867390437
 10
23.0693542092
 20
13.6911971705
 10
23.1050758375
 20
13.6951747474
 10
23.1395897563
 20
13.6986734162
 10
23.1728935257
 20
13.7016915351
 10
23.2050848191
 20
13.7042637584
 10
23.2361695492
 20
13.7063918648
 10
23.2661418035
 20
13.7080740755
 10
23.2950815176
 20
13.7093397087
 10
23.3229913729
 20
13.7101900806
 10
23.349868688
 20
13.7106238749
 10
23.3757853556
 20
13.7106664615
 10
23.4007653397
 20
13.710326297
 10
23.4247846763
 20
13.7095949247
 10
23.4478433653
 20
13.7084723447
  0
LWPOLYLINE
  5
458
100
AcDbEntity
  8
RACCORDO
100
AcDbPolyline
 62
250
  6
CONTINUOUS
 90
13
 70
0
 10
-2.5875132886
 20
7.8949729838
 10
-2.6364687288
 20
7.883193503
 10
-2.6902042248
 20
7.8745994509
 10
-2.7478402551
 20
7.8693314916
 10
-2.8084334562
 20
7.8674758488
 10
-2.8709920627
 20
7.8690628951
 10
-2.9344921399
 20
7.8740666543
 10
-2.997894344
 20
7.8824052268
 10
-3.0601609329
 20
7.8939421302
 10
-3.1202727516
 20
7.908488533
 10
-3.1772459138
 20
7.9258063456
 10
-3.2301479055
 20
7.9456121167
 10
-3.2781128478
 20
7.9675816735
  0
LINE
  5
459
100
AcDbEntity
  8
DRAFT
100
AcDbLine
 62
7
  6
CONTINUOUS
 10
2.4668261957
 20
7.2639772169
 11
2.6420601842
 21
7.2951242161
  0
LINE
  5
45A
100
AcDbEntity
  8
DRAFT
100
AcDbLine
 62
7
  6
CONTINUOUS
 10
-0.1708091937
 20
6.4052196798
 11
-1.0194349327
 21
6.2691807856
  0
LINE
  5
45B
100
AcDbEntity
  8
RACCORDO
100
AcDbLine
 62
7
  6
CONTINUOUS
 10
2.4668261957
 20
7.2639772169
 11
1.6183007507
 21
7.1279544004
  0
LINE
  5
45C
100
AcDbEntity
  8
RACCORDO
100
AcDbLine
 62
250
  6
CONTINUOUS
 10
-2.604357025
 20
9.0285950634
 11
-17.4698784154
 21
16.4613557586
  0
LINE
  5
45D
100
AcDbEntity
  8
DRAFT
100
AcDbLine
 62
7
  6
CONTINUOUS
 10
-1.0194349327
 20
8.3385252854
 11
-0.7478864809
 21
8.2027510595
  0
LINE
  5
45E
100
AcDbEntity
  8
RACCORDO
100
AcDbLine
 62
7
  6
CONTINUOUS
 10
0.3140826444
 20
7.730810962
 11
1.4838944821
 21
7.1459050432
  0
LINE
  5
45F
100
AcDbEntity
  8
RACCORDO
100
AcDbLine
 62
250
  6
CONTINUOUS
 10
0.1818678253
 20
8.0023819753
 11
1.351679663
 21
7.4174760565
  0
LINE
  5
460
100
AcDbEntity
  8
RACCORDO
100
AcDbLine
 62
7
  6
CONTINUOUS
 10
-16.3212069351
 20
17.153652075
 11
-1.3725576714
 21
9.6793274432
  0
LINE
  5
461
100
AcDbEntity
  8
DRAFT
100
AcDbLine
 62
7
  6
CONTINUOUS
 10
-12.4362854404
 20
16.1397248265
 11
-0.5905744103
 21
10.2168693114
  0
LWPOLYLINE
  5
462
100
AcDbEntity
  8
0
100
AcDbPolyline
 62
250
  6
CONTINUOUS
 90
16
 70
0
 10
2.2526312472
 20
13.2608916773
 10
2.256604032
 20
13.254196678
 10
2.260166546
 20
13.2477151202
 10
2.2633107486
 20
13.2414616332
 10
2.2660295418
 20
13.2354503343
 10
2.2683167912
 20
13.2296947877
 10
2.2701673371
 20
13.2242079749
 10
2.271577002
 20
13.2190022747
 10
2.2725425994
 20
13.2140894451
 10
2.2730619471
 20
13.2094805861
 10
2.2731338737
 20
13.2051861032
 10
2.2727582182
 20
13.2012156845
 10
2.2719358287
 20
13.1975782895
 10
2.2706685615
 20
13.1942821274
 10
2.2689592771
 20
13.1913346382
 10
2.2680280797
 20
13.1901007711
  0
LINE
  5
463
100
AcDbEntity
  8
DRAFT
100
AcDbLine
 62
7
  6
CONTINUOUS
 10
2.130114252
 20
12.4643749684
 11
2.3116605937
 21
12.1512538467
  0
LINE
  5
464
100
AcDbEntity
  8
DRAFT
100
AcDbLine
 62
7
  6
CONTINUOUS
 10
3.1327153518
 20
10.7351438635
 11
4.1841192825
 21
8.9217403262
  0
LINE
  5
465
100
AcDbEntity
  8
RACCORDO
100
AcDbLine
 62
7
  6
CONTINUOUS
 10
3.1327153518
 20
10.7351438635
 11
3.785087334
 21
9.609968633
  0
LWPOLYLINE
  5
466
100
AcDbEntity
  8
SMUSSO
100
AcDbPolyline
 62
7
  6
CONTINUOUS
 90
35
 70
0
 10
11.4194434244
 20
18.1430058234
 10
11.4198065944
 20
18.1648682109
 10
11.42159053
 20
18.1961415504
 10
11.4248628138
 20
18.2273767784
 10
11.429621495
 20
18.258551112
 10
11.4358631275
 20
18.2896431889
 10
11.4435848978
 20
18.3206398628
 10
11.4527844468
 20
18.3515307011
 10
11.4634587722
 20
18.3823015575
 10
11.4756020689
 20
18.4129321654
 10
11.4892068245
 20
18.4434029806
 10
11.504264906
 20
18.4736949868
 10
11.5207692868
 20
18.5037933165
 10
11.538712718
 20
18.5336847829
 10
11.5580867485
 20
18.5633535946
 10
11.5788808925
 20
18.5927820992
 10
11.6010838983
 20
18.6219544478
 10
11.6246840913
 20
18.6508540832
 10
11.6496692421
 20
18.6794648821
 10
11.6760259696
 20
18.7077718738
 10
11.7037399262
 20
18.7357586219
 10
11.7327968997
 20
18.7634097943
 10
11.7631827025
 20
18.7907122884
 10
11.7948823297
 20
18.8176513732
 10
11.8278782347
 20
18.8442109364
 10
11.86215129
 20
18.8703760975
 10
11.8976820467
 20
18.8961311639
 10
11.9344526014
 20
18.9214623378
 10
11.9724450842
 20
18.9463578987
 10
12.0116395788
 20
18.9708037343
 10
12.0520149991
 20
18.9947856559
 10
12.0935509833
 20
19.0182920806
 10
12.136225863
 20
19.041310158
 10
12.1800165696
 20
19.0638258213
 10
12.2248997761
 20
19.0858260054
  0
LWPOLYLINE
  5
467
100
AcDbEntity
  8
RACCORDO
100
AcDbPolyline
 62
250
  6
CONTINUOUS
 90
53
 70
0
 10
12.2446090426
 20
17.6029394214
 10
12.2457899547
 20
17.6143796243
 10
12.2585056399
 20
17.6759159025
 10
12.2775138382
 20
17.7372109504
 10
12.3026754548
 20
17.7977957991
 10
12.334045112
 20
17.8576740801
 10
12.3715681875
 20
17.9168421619
 10
12.4149417193
 20
17.9748201807
 10
12.4642249376
 20
18.0316008581
 10
12.5193586122
 20
18.0871914725
 10
12.5798620906
 20
18.1411339948
 10
12.6457344422
 20
18.1933868943
 10
12.7169765975
 20
18.2439917017
 10
12.7931106952
 20
18.2926149802
 10
12.8741273242
 20
18.3392427227
 10
12.9600358956
 20
18.3838889364
 10
13.0503867813
 20
18.4262622055
 10
13.1454370615
 20
18.4664214034
 10
13.244929656
 20
18.5043076569
 10
13.3476436963
 20
18.5394529301
 10
13.4539845651
 20
18.57183065
 10
13.5635468797
 20
18.6014673895
 10
13.6738936241
 20
18.6279748317
 10
13.784998141
 20
18.6511742252
 10
13.8968870877
 20
18.6712443212
 10
14.0072034198
 20
18.688333057
 10
14.1155939097
 20
18.7023069529
 10
14.222411785
 20
18.7132994884
 10
14.3263596841
 20
18.7218590397
 10
14.4271955186
 20
18.7279616092
 10
14.5251613768
 20
18.7316311944
 10
14.6196861632
 20
18.7334881632
 10
14.7106079033
 20
18.7335540321
 10
14.7980885714
 20
18.7318072846
 10
14.8820429948
 20
18.7288037392
 10
14.9623470682
 20
18.7245849385
 10
15.0391248968
 20
18.7191093401
 10
15.1126636233
 20
18.7128081344
 10
15.1829301569
 20
18.7057221007
 10
15.2499575885
 20
18.6978104598
 10
15.3141323326
 20
18.6893820656
 10
15.3754400795
 20
18.680471425
 10
15.4338951389
 20
18.6710440312
 10
15.4899268554
 20
18.6613052174
 10
15.5435314389
 20
18.6512836957
 10
15.5947126796
 20
18.6409507539
 10
15.6439112919
 20
18.6304255892
 10
15.6911304368
 20
18.6197310501
 10
15.7363669534
 20
18.6088442879
 10
15.7800520733
 20
18.5978159543
 10
15.8223295403
 20
18.586662933
 10
15.8630556108
 20
18.5753683402
 10
15.9022302845
 20
18.5639321759
  0
LWPOLYLINE
  5
468
100
AcDbEntity
  8
0
100
AcDbPolyline
 62
250
  6
CONTINUOUS
 90
13
 70
0
 10
2.2526312472
 20
-28.0387124621
 10
2.256603961
 20
-28.0275970615
 10
2.2601664196
 20
-28.0163084243
 10
2.2633105829
 20
-28.0048720283
 10
2.2660293546
 20
-27.9933136849
 10
2.2683165986
 20
-27.9816594805
 10
2.2701671528
 20
-27.9699357179
 10
2.2715768405
 20
-27.9581688571
 10
2.2725424802
 20
-27.9463854551
 10
2.2730618925
 20
-27.9346121064
 10
2.2731339051
 20
-27.9228753826
 10
2.2727583555
 20
-27.911201773
 10
2.2719360913
 20
-27.8996176241
  0
LWPOLYLINE
  5
469
100
AcDbEntity
  8
DRAFT
100
AcDbPolyline
 62
7
  6
CONTINUOUS
 90
10
 70
0
 10
-10.8954426648
 20
-20.3518516152
 10
-10.6438347498
 20
-20.1817866844
 10
-10.3910705034
 20
-20.0111166917
 10
-10.1371493461
 20
-19.8398466104
 10
-9.8820650704
 20
-19.6679829514
 10
-9.6258227683
 20
-19.4955291832
 10
-9.3684388777
 20
-19.3224857577
 10
-9.1099185898
 20
-19.1488562054
 10
-8.8502558037
 20
-18.974647108
 10
-8.5894500863
 20
-18.7998635372
  0
LWPOLYLINE
  5
46A
100
AcDbEntity
  8
SUPERFICI
100
AcDbPolyline
 62
7
  6
CONTINUOUS
 90
3
 70
0
 10
-11.1225446872
 20
-19.7806472611
 10
-10.8925091054
 20
-19.6254209657
 10
-10.6615293991
 20
-19.4697028644
  0
LWPOLYLINE
  5
46B
100
AcDbEntity
  8
RACCORDO
100
AcDbPolyline
 62
7
  6
CONTINUOUS
 90
3
 70
0
 10
-11.1225446227
 20
-19.7806472176
 10
-10.8925162664
 20
-19.6254257896
 10
-10.661539955
 20
-19.4697099725
  0
LWPOLYLINE
  5
46C
100
AcDbEntity
  8
SUPERFICI
100
AcDbPolyline
 62
7
  6
CONTINUOUS
 90
4
 70
0
 10
-10.1371413041
 20
-19.8398411921
 10
-10.3910551972
 20
-20.0111063701
 10
-10.6438245924
 20
-20.1817798321
 10
-10.8954427097
 20
-20.3518516455
  0
LINE
  5
46D
100
AcDbEntity
  8
SUPERFICI
100
AcDbLine
 62
7
  6
CONTINUOUS
 10
-10.6615293991
 20
-19.4697028644
 11
-10.335995712
 21
-19.2505113784
  0
LINE
  5
46E
100
AcDbEntity
  8
RACCORDO
100
AcDbLine
 62
7
  6
CONTINUOUS
 10
-10.661539955
 20
-19.4697099725
 11
-10.3359957104
 21
-19.2505113809
  0
LWPOLYLINE
  5
46F
100
AcDbEntity
  8
SUPERFICI
100
AcDbPolyline
 62
7
  6
CONTINUOUS
 90
3
 70
0
 10
-10.335995712
 20
-19.2505113784
 10
-9.9629187834
 20
-18.999641261
 10
-9.7281623467
 20
-18.8419879066
  0
LWPOLYLINE
  5
470
100
AcDbEntity
  8
RACCORDO
100
AcDbPolyline
 62
7
  6
CONTINUOUS
 90
6
 70
0
 10
-10.3359957104
 20
-19.2505113809
 10
-9.962910509
 20
-18.9996357067
 10
-9.7281472986
 20
-18.8419778058
 10
-9.4924519307
 20
-18.6838402524
 10
-9.2558196861
 20
-18.5252278734
 10
-9.0182502684
 20
-18.3661444808
  0
LWPOLYLINE
  5
471
100
AcDbEntity
  8
SUPERFICI
100
AcDbPolyline
 62
7
  6
CONTINUOUS
 90
4
 70
0
 10
-9.3684547979
 20
-19.3224964554
 10
-9.6258299466
 20
-19.4955340044
 10
-9.8820583534
 20
-19.6679784206
 10
-10.137134009
 20
-19.8398362715
  0
LWPOLYLINE
  5
472
100
AcDbEntity
  8
SUPERFICI
100
AcDbPolyline
 62
7
  6
CONTINUOUS
 90
4
 70
0
 10
-9.7281544661
 20
-18.8419826192
 10
-9.4924664925
 20
-18.6838500221
 10
-9.2558292478
 20
-18.5252342849
 10
-9.0182502664
 20
-18.3661444795
  0
LWPOLYLINE
  5
473
100
AcDbEntity
  8
SUPERFICI
100
AcDbPolyline
 62
7
  6
CONTINUOUS
 90
4
 70
0
 10
-8.5894500403
 20
-18.7998635064
 10
-8.850266435
 20
-18.9746542445
 10
-9.1099345216
 20
-19.1488669059
 10
-9.3684464219
 20
-19.3224908298
  0
LWPOLYLINE
  5
474
100
AcDbEntity
  8
RACCORDO
100
AcDbPolyline
 62
7
  6
CONTINUOUS
 90
21
 70
0
 10
23.4604256935
 20
0.9902431402
 10
23.4677159949
 20
0.9948099748
 10
23.473350704
 20
0.998584442
 10
23.4787535418
 20
1.0024626347
 10
23.4839193857
 20
1.0064410222
 10
23.4888433494
 20
1.0105157694
 10
23.4935207855
 20
1.0146827409
 10
23.4979472775
 20
1.0189381214
 10
23.5021186459
 20
1.023277935
 10
23.506030961
 20
1.0276977087
 10
23.5096805433
 20
1.0321934406
 10
23.5130639636
 20
1.0367609828
 10
23.5161780471
 20
1.0413955615
 10
23.5190198834
 20
1.0460930235
 10
23.5215868221
 20
1.050849084
 10
23.5238764739
 20
1.0556587091
 10
23.5258867216
 20
1.0605176302
 10
23.5276157159
 20
1.0654214628
 10
23.5290618745
 20
1.0703649551
 10
23.5302238911
 20
1.07534376
 10
23.5311007319
 20
1.0803534317
  0
LWPOLYLINE
  5
475
100
AcDbEntity
  8
RACCORDO
100
AcDbPolyline
 62
7
  6
CONTINUOUS
 90
24
 70
0
 10
23.4618547581
 20
1.7608361172
 10
23.4677159949
 20
1.7643779155
 10
23.473350704
 20
1.7679898177
 10
23.4787535418
 20
1.7716682592
 10
23.4839193857
 20
1.7754094767
 10
23.4888433494
 20
1.7792098679
 10
23.4935207855
 20
1.7830659951
 10
23.4979472775
 20
1.7869739527
 10
23.5021186459
 20
1.7909298553
 10
23.506030961
 20
1.7949301971
 10
23.5096805433
 20
1.7989708877
 10
23.5130639636
 20
1.8030478678
 10
23.5161780471
 20
1.8071575975
 10
23.5190198834
 20
1.8112958364
 10
23.5215868221
 20
1.815458387
 10
23.5238764739
 20
1.8196417104
 10
23.5258867216
 20
1.8238414531
 10
23.5276157159
 20
1.8280533154
 10
23.5290618745
 20
1.8322737953
 10
23.5302238911
 20
1.8364984636
 10
23.5311007319
 20
1.8407229565
 10
23.531691635
 20
1.8449438444
 10
23.5319961151
 20
1.8491566612
 10
23.5320414252
 20
1.8515200383
  0
LWPOLYLINE
  5
476
100
AcDbEntity
  8
SUPERFICI
100
AcDbPolyline
 62
7
  6
CONTINUOUS
 90
4
 70
0
 10
-11.0202413921
 20
-16.7882210665
 10
-11.0047465559
 20
-16.7795022245
 10
-10.982628192
 20
-16.7720845297
 10
-10.95859464
 20
-16.7694181447
  0
LWPOLYLINE
  5
477
100
AcDbEntity
  8
RACCORDO
100
AcDbPolyline
 62
7
  6
CONTINUOUS
 90
10
 70
0
 10
23.4618547581
 20
1.7608361172
 10
23.4604256935
 20
1.7600453857
 10
23.458968655
 20
1.7593519669
 10
23.4574833205
 20
1.7587560813
 10
23.4559734833
 20
1.7582550778
 10
23.4544347812
 20
1.75785203
 10
23.4528543436
 20
1.7575558948
 10
23.4512273132
 20
1.7573699839
 10
23.4495572004
 20
1.7572918059
 10
23.4478433653
 20
1.7573217725
  0
LWPOLYLINE
  5
478
100
AcDbEntity
  8
DRAFT
100
AcDbPolyline
 62
7
  6
CONTINUOUS
 90
7
 70
0
 10
-11.0202299359
 20
-16.7882404844
 10
-11.0035738887
 20
-16.7791907848
 10
-10.9806505877
 20
-16.7719370847
 10
-10.9562717518
 20
-16.7693974056
 10
-10.930855897
 20
-16.7717137828
 10
-10.9039879498
 20
-16.7787460544
 10
-10.8756687628
 20
-16.7904946835
  0
LWPOLYLINE
  5
479
100
AcDbEntity
  8
SUPERFICI
100
AcDbPolyline
 62
7
  6
CONTINUOUS
 90
3
 70
0
 10
-13.6731517726
 20
-15.9059966133
 10
-13.6791375383
 20
-15.9078007036
 10
-13.6875495618
 20
-15.9124215117
  0
LWPOLYLINE
  5
47A
100
AcDbEntity
  8
RACCORDO
100
AcDbPolyline
 62
7
  6
CONTINUOUS
 90
4
 70
0
 10
-13.6731739289
 20
-15.9059437953
 10
-13.6797291888
 20
-15.9078997266
 10
-13.687846896
 20
-15.912528385
 10
-13.6944773956
 20
-15.9190397439
  0
LWPOLYLINE
  5
47B
100
AcDbEntity
  8
0
100
AcDbPolyline
 62
7
  6
CONTINUOUS
 90
41
 70
0
 10
0.5204350735
 20
11.9161375344
 10
0.5262531826
 20
11.9150176496
 10
0.5342864709
 20
11.9137823644
 10
0.5424474097
 20
11.9128765902
 10
0.5507238971
 20
11.9122869446
 10
0.5591020249
 20
11.9120140197
 10
0.5675681802
 20
11.9120576284
 10
0.5761112015
 20
11.9124030272
 10
0.5847178786
 20
11.9130499951
 10
0.5933753316
 20
11.9139977853
 10
0.6020734087
 20
11.9152307423
 10
0.6107996874
 20
11.9167479515
 10
0.6195420863
 20
11.9185481847
 10
0.6282914712
 20
11.9206152543
 10
0.637036279
 20
11.9229476731
 10
0.6457652408
 20
11.9255437945
 10
0.6544701394
 20
11.9283871813
 10
0.6631402892
 20
11.9314758784
 10
0.6717652451
 20
11.9348078739
 10
0.6803375837
 20
11.9383666688
 10
0.6888474913
 20
11.9421499253
 10
0.6972853465
 20
11.9461553129
 10
0.7056444003
 20
11.9503663853
 10
0.7139156933
 20
11.9547804884
 10
0.7220904209
 20
11.9593950146
 10
0.7301624111
 20
11.9641936355
 10
0.7381235363
 20
11.9691734304
 10
0.7459658018
 20
11.9743315538
 10
0.7536835463
 20
11.9796518347
 10
0.7612694533
 20
11.9851311238
 10
0.7687163318
 20
11.990766374
 10
0.7760189986
 20
11.9965416058
 10
0.7831709281
 20
12.002453468
 10
0.7901657316
 20
12.0084987505
 10
0.7969987094
 20
12.0146617134
 10
0.8036641135
 20
12.0209388286
 10
0.8101563539
 20
12.0273267593
 10
0.8164712432
 20
12.0338100733
 10
0.8226040919
 20
12.0403812777
 10
0.8285497958
 20
12.0470407665
 10
0.8343038928
 20
12.0537849135
  0
LINE
  5
47C
100
AcDbEntity
  8
0
100
AcDbLine
 62
7
  6
CONTINUOUS
 10
-0.1037602088
 20
12.0464672756
 11
0.5204353882
 21
11.9161346557
  0
LINE
  5
47D
100
AcDbEntity
  8
0
100
AcDbLine
 62
250
  6
CONTINUOUS
 10
0.1230832847
 20
12.2022884363
 11
0.8343038928
 21
12.0537849135
  0
LWPOLYLINE
  5
47E
100
AcDbEntity
  8
0
100
AcDbPolyline
 62
250
  6
CONTINUOUS
 90
34
 70
0
 10
-0.229438675
 20
12.2028011602
 10
-0.2208590546
 20
12.1987101264
 10
-0.2119011761
 20
12.1948270692
 10
-0.2025851849
 20
12.1911607213
 10
-0.1929320432
 20
12.1877193319
 10
-0.1829634492
 20
12.1845106357
 10
-0.1727017847
 20
12.1815418389
 10
-0.1621700995
 20
12.1788196145
 10
-0.1513920994
 20
12.1763500945
 10
-0.1403920602
 20
12.1741388426
 10
-0.1291947335
 20
12.1721908339
 10
-0.1178252888
 20
12.1705104467
 10
-0.1063092958
 20
12.1691014602
 10
-0.0946726536
 20
12.1679670431
 10
-0.0829415322
 20
12.1671097465
 10
-0.0711423137
 20
12.1665314984
 10
-0.0593015253
 20
12.1662335992
 10
-0.0474458048
 20
12.1662167193
 10
-0.0356018409
 20
12.1664808958
 10
-0.0237962868
 20
12.1670255318
 10
-0.0120556747
 20
12.1678494008
 10
-0.0004063825
 20
12.1689506509
 10
0.0111254768
 20
12.1703268167
 10
0.0225138817
 20
12.1719747962
 10
0.0337329965
 20
12.1738908419
 10
0.0447574554
 20
12.176070598
 10
0.055562632
 20
12.1785091708
 10
0.0661244538
 20
12.1812011184
 10
0.0764199947
 20
12.184140636
 10
0.0864252334
 20
12.1873209044
 10
0.0961155425
 20
12.1907339842
 10
0.1054686717
 20
12.1943717704
 10
0.1144645714
 20
12.1982261872
 10
0.1230832847
 20
12.2022884363
  0
LWPOLYLINE
  5
47F
100
AcDbEntity
  8
0
100
AcDbPolyline
 62
250
  6
CONTINUOUS
 90
34
 70
0
 10
-12.5330966676
 20
18.3546301565
 10
-12.5245176757
 20
18.3505394085
 10
-12.5155604786
 20
18.3466566067
 10
-12.5062452171
 20
18.3429904819
 10
-12.4965928373
 20
18.3395492777
 10
-12.4866250434
 20
18.3363407318
 10
-12.4763642487
 20
18.3333720591
 10
-12.4658335254
 20
18.3306499346
 10
-12.4550565525
 20
18.3281804794
 10
-12.444057563
 20
18.3259692462
 10
-12.4328612888
 20
18.3240212071
 10
-12.4214929057
 20
18.3223407424
 10
-12.4099779763
 20
18.3209316308
 10
-12.3983423929
 20
18.3197970408
 10
-12.3866123188
 20
18.3189395235
 10
-12.3748141301
 20
18.3183610073
 10
-12.3629743559
 20
18.3180627928
 10
-12.3511196189
 20
18.3180455508
 10
-12.3392765752
 20
18.3183093199
 10
-12.3274718548
 20
18.318853507
 10
-12.3157320017
 20
18.3196768885
 10
-12.3040834137
 20
18.320777613
 10
-12.2925522835
 20
18.3221532053
 10
-12.2811645398
 20
18.3238005725
 10
-12.2699457888
 20
18.3257160101
 10
-12.2589212566
 20
18.3278952114
 10
-12.2481157329
 20
18.330333276
 10
-12.2375535146
 20
18.3330247219
 10
-12.2272583516
 20
18.3359634972
 10
-12.2172533935
 20
18.3391429938
 10
-12.2075611371
 20
18.3425560623
 10
-12.1982033762
 20
18.3461950282
 10
-12.1892011524
 20
18.350051709
 10
-12.180574708
 20
18.3541174327
  0
LWPOLYLINE
  5
480
100
AcDbEntity
  8
0
100
AcDbPolyline
 62
250
  6
CONTINUOUS
 90
34
 70
0
 10
-0.229438675
 20
12.5427750943
 10
-0.2208584721
 20
12.5386837956
 10
-0.2118999488
 20
12.5348004963
 10
-0.202583253
 20
12.5311339316
 10
-0.1929293321
 20
12.5276923472
 10
-0.1829599044
 20
12.5244834874
 10
-0.1726974117
 20
12.5215145762
 10
-0.1621649428
 20
12.5187922923
 10
-0.1513861824
 20
12.5163227569
 10
-0.1403853779
 20
12.5141115246
 10
-0.1291872713
 20
12.5121635683
 10
-0.1178170516
 20
12.510483269
 10
-0.1063003021
 20
12.5090744065
 10
-0.0946629287
 20
12.5079401484
 10
-0.0829311049
 20
12.5070830446
 10
-0.0711312217
 20
12.5065050216
 10
-0.0592898136
 20
12.5062073779
 10
-0.0474335199
 20
12.5061907818
 10
-0.0355890294
 20
12.5064552683
 10
-0.0237830147
 20
12.5070002375
 10
-0.0120419952
 20
12.507824461
 10
-0.0003923011
 20
12.5089260902
 10
0.0111399727
 20
12.5103026637
 10
0.0225287773
 20
12.5119510789
 10
0.0337482561
 20
12.5138675862
 10
0.0447730385
 20
12.5160478292
 10
0.0555784941
 20
12.518486914
 10
0.066140532
 20
12.521179394
 10
0.0764369259
 20
12.5241196745
 10
0.0864429066
 20
12.5273007555
 10
0.0961318474
 20
12.5307139559
 10
0.1054810676
 20
12.5343507664
 10
0.1144714443
 20
12.5382032104
 10
0.1230832847
 20
12.5422623705
  0
LWPOLYLINE
  5
481
100
AcDbEntity
  8
0
100
AcDbPolyline
 62
250
  6
CONTINUOUS
 90
34
 70
0
 10
-12.5330966676
 20
18.6946040906
 10
-12.5245317359
 20
18.6905197361
 10
-12.5155859526
 20
18.6866410663
 10
-12.5062789236
 20
18.6829770483
 10
-12.4966297386
 20
18.6795357209
 10
-12.4866609515
 20
18.6763256333
 10
-12.47639896
 20
18.6733554957
 10
-12.4658683985
 20
18.6706323672
 10
-12.4550914778
 20
18.6681619222
 10
-12.4440922404
 20
18.6659496801
 10
-12.4328952702
 20
18.6640006069
 10
-12.4215258775
 20
18.6623191294
 10
-12.4100098597
 20
18.6609090692
 10
-12.3983732234
 20
18.6597736044
 10
-12.3866420395
 20
18.6589152725
 10
-12.374842617
 20
18.6583359988
 10
-12.3630014612
 20
18.6580370886
 10
-12.3511452361
 20
18.6580192191
 10
-12.3393006278
 20
18.6582824328
 10
-12.3274942823
 20
18.6588261389
 10
-12.3157527487
 20
18.6596491163
 10
-12.3041024398
 20
18.6607495149
 10
-12.292569558
 20
18.6621248613
 10
-12.2811800451
 20
18.6637720632
 10
-12.2699595273
 20
18.6656874155
 10
-12.2589332439
 20
18.6678666103
 10
-12.2481259938
 20
18.6703047471
 10
-12.2375620883
 20
18.6729963418
 10
-12.2272652829
 20
18.6759353424
 10
-12.2172587431
 20
18.6791151375
 10
-12.2075649934
 20
18.6825285689
 10
-12.1982058413
 20
18.6861679559
 10
-12.1892023298
 20
18.690025114
 10
-12.180574708
 20
18.6940913668
  0
LINE
  5
482
100
AcDbEntity
  8
0
100
AcDbLine
 62
7
  6
CONTINUOUS
 10
-14.0252552477
 20
18.4889035005
 11
-13.5086417838
 21
18.2305967685
  0
LINE
  5
483
100
AcDbEntity
  8
0
100
AcDbLine
 62
7
  6
CONTINUOUS
 10
-11.8218760595
 20
17.3872139064
 11
-9.6538843612
 21
16.3032180573
  0
LINE
  5
484
100
AcDbEntity
  8
0
100
AcDbLine
 62
7
  6
CONTINUOUS
 10
-8.9883036595
 20
15.9704277064
 11
-4.0385561912
 21
13.4955539722
  0
LINE
  5
485
100
AcDbEntity
  8
0
100
AcDbLine
 62
7
  6
CONTINUOUS
 10
-3.3729754894
 20
13.1627636214
 11
-1.2049837911
 21
12.0787677722
  0
LINE
  5
486
100
AcDbEntity
  8
0
100
AcDbLine
 62
7
  6
CONTINUOUS
 10
0.4817819331
 20
11.2353849101
 11
0.9983953971
 21
10.9770781781
  0
LINE
  5
487
100
AcDbEntity
  8
0
100
AcDbLine
 62
7
  6
CONTINUOUS
 10
-14.1466614416
 20
19.0586807416
 11
-12.4681233712
 21
18.2194117064
  0
LINE
  5
488
100
AcDbEntity
  8
0
100
AcDbLine
 62
7
  6
CONTINUOUS
 10
-1.843003449
 20
12.9068517453
 11
-0.1644653786
 21
12.0675827101
  0
LINE
  5
489
100
AcDbEntity
  8
0
100
AcDbLine
 62
250
  6
CONTINUOUS
 10
-14.211634738
 20
19.1938991917
 11
-12.5330966676
 21
18.3546301565
  0
LINE
  5
48A
100
AcDbEntity
  8
0
100
AcDbLine
 62
250
  6
CONTINUOUS
 10
-1.9079767454
 20
13.0420701954
 11
-0.229438675
 21
12.2028011602
  0
LINE
  5
48B
100
AcDbEntity
  8
0
100
AcDbLine
 62
7
  6
CONTINUOUS
 10
-8.2811968783
 20
16.3693675652
 11
-6.6548512816
 21
15.5561947668
  0
LINE
  5
48C
100
AcDbEntity
  8
0
100
AcDbLine
 62
7
  6
CONTINUOUS
 10
-4.9577950067
 20
14.7076666294
 11
-4.0385561912
 21
14.2480472216
  0
LINE
  5
48D
100
AcDbEntity
  8
0
100
AcDbLine
 62
250
  6
CONTINUOUS
 10
-0.229438675
 20
12.5427750943
 11
-1.9079767454
 21
13.3820441295
  0
LINE
  5
48E
100
AcDbEntity
  8
0
100
AcDbLine
 62
250
  6
CONTINUOUS
 10
-12.5330966676
 20
18.6946040906
 11
-14.211634738
 21
19.5338731259
  0
LINE
  5
48F
100
AcDbEntity
  8
0
100
AcDbLine
 62
7
  6
CONTINUOUS
 10
-10.5792939171
 20
17.8946627093
 11
-9.6538843612
 21
17.4319579314
  0
LINE
  5
490
100
AcDbEntity
  8
0
100
AcDbLine
 62
7
  6
CONTINUOUS
 10
-2.3061445773
 20
13.7580880394
 11
-1.9543289785
 21
13.58218024
  0
LINE
  5
491
100
AcDbEntity
  8
0
100
AcDbLine
 62
7
  6
CONTINUOUS
 10
1.7243640755
 20
11.742833713
 11
2.077569461
 21
11.5662310202
  0
LINE
  5
492
100
AcDbEntity
  8
0
100
AcDbLine
 62
7
  6
CONTINUOUS
 10
-5.0163736505
 20
15.113202576
 11
-6.1598765347
 21
15.6849540181
  0
LINE
  5
493
100
AcDbEntity
  8
0
100
AcDbLine
 62
250
  6
CONTINUOUS
 10
-0.053690419
 20
12.8471519093
 11
-1.7322284894
 21
13.6864209445
  0
LINE
  5
494
100
AcDbEntity
  8
0
100
AcDbLine
 62
250
  6
CONTINUOUS
 10
-12.3573484117
 20
18.9989809056
 11
-14.0358864821
 21
19.8382499408
  0
LINE
  5
495
100
AcDbEntity
  8
0
100
AcDbLine
 62
7
  6
CONTINUOUS
 10
-9.6538843612
 20
17.749380823
 11
-8.9883036595
 21
17.4165904721
  0
LINE
  5
496
100
AcDbEntity
  8
0
100
AcDbLine
 62
7
  6
CONTINUOUS
 10
-4.0385561912
 20
14.941716738
 11
-3.3729754894
 21
14.6089263871
  0
LINE
  5
497
100
AcDbEntity
  8
DRAFT
100
AcDbLine
 62
7
  6
CONTINUOUS
 10
-10.5792939171
 20
18.5967311021
 11
-9.8893912646
 21
18.2517797758
  0
LINE
  5
498
100
AcDbEntity
  8
DRAFT
100
AcDbLine
 62
7
  6
CONTINUOUS
 10
1.7243640755
 20
12.4449021058
 11
2.7791664486
 21
11.9175009192
  0
LINE
  5
499
100
AcDbEntity
  8
0
100
AcDbLine
 62
7
  6
CONTINUOUS
 10
-5.4527697535
 20
16.0339728689
 11
-5.0163736505
 21
15.8157748173
  0
LWPOLYLINE
  5
49A
100
AcDbEntity
  8
0
100
AcDbPolyline
 62
250
  6
CONTINUOUS
 90
16
 70
0
 10
-14.211634738
 20
19.1938991917
 10
-14.2198168057
 20
19.1981890019
 10
-14.2275829201
 20
19.2026679412
 10
-14.2349156158
 20
19.2073259368
 10
-14.2417983947
 20
19.2121525076
 10
-14.248215787
 20
19.2171368046
 10
-14.2541533806
 20
19.2222676368
 10
-14.2595978294
 20
19.2275334795
 10
-14.2645368695
 20
19.2329224795
 10
-14.2689593733
 20
19.2384224991
 10
-14.2728553906
 20
19.2440211625
 10
-14.2762161649
 20
19.2497058848
 10
-14.279034138
 20
19.2554638813
 10
-14.2813029722
 20
19.2612822024
 10
-14.2830175654
 20
19.2671477631
 10
-14.2841740616
 20
19.2730473723
  0
LWPOLYLINE
  5
49B
100
AcDbEntity
  8
0
100
AcDbPolyline
 62
250
  6
CONTINUOUS
 90
16
 70
0
 10
-1.9079767454
 20
13.0420701954
 10
-1.9161588131
 20
13.0463600056
 10
-1.9239249274
 20
13.0508389449
 10
-1.9312576232
 20
13.0554969404
 10
-1.9381404021
 20
13.0603235113
 10
-1.9445577944
 20
13.0653078083
 10
-1.9504953879
 20
13.0704386405
 10
-1.9559398367
 20
13.0757044832
 10
-1.9608788769
 20
13.0810934832
 10
-1.9653013807
 20
13.0865935028
 10
-1.969197398
 20
13.0921921662
 10
-1.9725581723
 20
13.0978768885
 10
-1.9753761453
 20
13.103634885
 10
-1.9776449796
 20
13.1094532061
 10
-1.9793595728
 20
13.1153187668
 10
-1.9805160689
 20
13.121218376
  0
LWPOLYLINE
  5
49C
100
AcDbEntity
  8
0
100
AcDbPolyline
 62
250
  6
CONTINUOUS
 90
18
 70
0
 10
-14.211634738
 20
19.5338731259
 10
-14.2198034471
 20
19.5381555917
 10
-14.2275607867
 20
19.5426284834
 10
-14.2348888227
 20
19.5472819979
 10
-14.2417714775
 20
19.5521065904
 10
-14.2481916528
 20
19.5570909839
 10
-14.2541319279
 20
19.5622219797
 10
-14.259578185
 20
19.5674872604
 10
-14.2645190749
 20
19.5728757208
 10
-14.2689435591
 20
19.5783753395
 10
-14.2728417055
 20
19.5839738246
 10
-14.2762046606
 20
19.5896585209
 10
-14.2790247808
 20
19.5954165298
 10
-14.2812957105
 20
19.601234848
 10
-14.2830123742
 20
19.6071004399
 10
-14.2841709217
 20
19.6130001512
 10
-14.2847687422
 20
19.618920729
 10
-14.2848580427
 20
19.6222614735
  0
LWPOLYLINE
  5
49D
100
AcDbEntity
  8
0
100
AcDbPolyline
 62
250
  6
CONTINUOUS
 90
18
 70
0
 10
-1.9079767454
 20
13.3820441295
 10
-1.9161593428
 20
13.386334231
 10
-1.9239259415
 20
13.3908134926
 10
-1.9312590709
 20
13.3954718405
 10
-1.9381422397
 20
13.4002988009
 10
-1.9445599592
 20
13.4052835148
 10
-1.9504977816
 20
13.4104147612
 10
-1.9559423494
 20
13.4156809956
 10
-1.9608814203
 20
13.4210703758
 10
-1.9653038847
 20
13.426570778
 10
-1.9691997974
 20
13.4321698314
 10
-1.9725603961
 20
13.4378549412
 10
-1.9753781211
 20
13.443613316
 10
-1.9776466372
 20
13.4494320027
 10
-1.9793608449
 20
13.4552979146
 10
-1.9805168909
 20
13.4611978562
 10
-1.9811121783
 20
13.4671185602
 10
-1.9812000501
 20
13.4704324772
  0
LWPOLYLINE
  5
49E
100
AcDbEntity
  8
0
100
AcDbPolyline
 62
250
  6
CONTINUOUS
 90
18
 70
0
 10
-4.9577950067
 20
15.9412809811
 10
-4.9643639234
 20
15.9447256218
 10
-4.9705975944
 20
15.9483226418
 10
-4.9764818987
 20
15.9520638925
 10
-4.9820035062
 20
15.955940899
 10
-4.9871499089
 20
15.9599448784
 10
-4.9919094484
 20
15.9640667605
 10
-4.9962713429
 20
15.9682972079
 10
-5.0002257112
 20
15.9726266374
 10
-5.0037635955
 20
15.9770452412
 10
-5.0068769813
 20
15.98154301
 10
-5.0095588157
 20
15.9861097547
 10
-5.0118030237
 20
15.9907351302
 10
-5.0136045212
 20
15.9954086587
 10
-5.0149592274
 20
16.0001197529
 10
-5.0158640734
 20
16.0048577409
 10
-5.0163170094
 20
16.0096118894
 10
-5.0163736505
 20
16.0119916592
  0
LWPOLYLINE
  5
49F
100
AcDbEntity
  8
0
100
AcDbPolyline
 62
250
  6
CONTINUOUS
 90
34
 70
0
 10
-12.3573484117
 20
18.9989809056
 10
-12.3489988762
 20
18.9945136911
 10
-12.3406622947
 20
18.9895666816
 10
-12.332357539
 20
18.9841504475
 10
-12.3241022728
 20
18.9782757719
 10
-12.315916462
 20
18.9719561213
 10
-12.3078222145
 20
18.9652082425
 10
-12.2998390558
 20
18.9580485265
 10
-12.2919838565
 20
18.9504922184
 10
-12.2842742705
 20
18.9425562858
 10
-12.2767276735
 20
18.9342585746
 10
-12.2693612777
 20
18.9256179692
 10
-12.2621919359
 20
18.9166542244
 10
-12.2552359542
 20
18.9073877406
 10
-12.2485090239
 20
18.8978394341
 10
-12.2420263431
 20
18.8880308766
 10
-12.2358025859
 20
18.8779842611
 10
-12.2298518754
 20
18.8677223756
 10
-12.2241877078
 20
18.8572684888
 10
-12.2188229215
 20
18.8466462916
 10
-12.2137696708
 20
18.8358798461
 10
-12.2090394087
 20
18.8249935498
 10
-12.2046428541
 20
18.8140120674
 10
-12.2005899713
 20
18.8029602825
 10
-12.1968899476
 20
18.791863245
 10
-12.1935511682
 20
18.7807461009
 10
-12.1905811985
 20
18.7696340385
 10
-12.1879867696
 20
18.7585522395
 10
-12.1857737597
 20
18.7475258089
 10
-12.183947185
 20
18.7365797364
 10
-12.1825111869
 20
18.7257388431
 10
-12.1814690182
 20
18.7150276988
 10
-12.1808230379
 20
18.7044705666
 10
-12.180574708
 20
18.6940913668
  0
LWPOLYLINE
  5
4A0
100
AcDbEntity
  8
0
100
AcDbPolyline
 62
250
  6
CONTINUOUS
 90
34
 70
0
 10
-0.053690419
 20
12.8471519093
 10
-0.0453271362
 20
12.8426769381
 10
-0.0369804684
 20
12.8377228414
 10
-0.0286693228
 20
12.8323008415
 10
-0.020412526
 20
12.8264232203
 10
-0.0122287813
 20
12.8201032919
 10
-0.004136627
 20
12.8133553724
 10
0.0038456066
 20
12.8061947474
 10
0.0116998379
 20
12.7986376373
 10
0.0194082752
 20
12.7907011606
 10
0.0269534572
 20
12.7824032952
 10
0.0343182924
 20
12.7737628377
 10
0.0414860979
 20
12.7647993606
 10
0.0484406368
 20
12.7555331682
 10
0.0551661557
 20
12.7459852505
 10
0.0616474197
 20
12.7361772357
 10
0.0678697472
 20
12.7261313412
 10
0.0738190435
 20
12.715870323
 10
0.0794818318
 20
12.7054174248
 10
0.0848452849
 20
12.6947963247
 10
0.0898972531
 20
12.6840310819
 10
0.0946262928
 20
12.673146082
 10
0.0990216915
 20
12.662165982
 10
0.1030734928
 20
12.6511156543
 10
0.1067725183
 20
12.6400201304
 10
0.1101103889
 20
12.6289045441
 10
0.1130795437
 20
12.6177940747
 10
0.1156732567
 20
12.60671389
 10
0.1178856528
 20
12.5956890889
 10
0.1197117203
 20
12.5847446452
 10
0.1211473227
 20
12.5739053505
 10
0.1221892081
 20
12.5631957582
 10
0.1228350164
 20
12.5526401279
 10
0.1230832847
 20
12.5422623705
  0
LWPOLYLINE
  5
4A1
100
AcDbEntity
  8
0
100
AcDbPolyline
 62
250
  6
CONTINUOUS
 90
3
 70
0
 10
-14.1542714204
 20
19.0629385383
 10
-14.1484707344
 20
19.0596100555
 10
-14.1466614416
 20
19.0586807416
  0
LWPOLYLINE
  5
4A2
100
AcDbEntity
  8
0
100
AcDbPolyline
 62
250
  6
CONTINUOUS
 90
3
 70
0
 10
-1.8506134277
 20
12.911109542
 10
-1.8448127418
 20
12.9077810592
 10
-1.843003449
 20
12.9068517453
  0
LINE
  5
4A3
100
AcDbEntity
  8
SMUSSO
100
AcDbLine
 62
250
  6
CONTINUOUS
 10
12.2248997761
 20
18.6573092296
 11
12.2248997761
 21
19.0858260054
  0
LINE
  5
4A4
100
AcDbEntity
  8
0
100
AcDbLine
 62
7
  6
CONTINUOUS
 10
12.8966512182
 20
18.986005146
 11
12.8966512182
 21
18.5589045974
  0
LINE
  5
4A5
100
AcDbEntity
  8
0
100
AcDbLine
 62
7
  6
CONTINUOUS
 10
13.8895422316
 20
17.5575881494
 11
13.8895422316
 21
17.2824323959
  0
LINE
  5
4A6
100
AcDbEntity
  8
0
100
AcDbLine
 62
7
  6
CONTINUOUS
 10
14.1410213121
 20
18.0299478535
 11
14.1410213121
 21
17.2738563422
  0
LINE
  5
4A7
100
AcDbEntity
  8
DRAFT
100
AcDbLine
 62
7
  6
CONTINUOUS
 10
14.3462201197
 20
18.7500404832
 11
14.3462201197
 21
18.9273277447
  0
LINE
  5
4A8
100
AcDbEntity
  8
0
100
AcDbLine
 62
7
  6
CONTINUOUS
 10
14.5907659734
 20
17.9082000203
 11
14.5907659734
 21
17.2824134027
  0
LINE
  5
4A9
100
AcDbEntity
  8
RACCORDO
100
AcDbLine
 62
250
  6
CONTINUOUS
 10
14.6328259128
 20
-16.9337658172
 11
14.6328259128
 21
-9.9434058958
  0
LWPOLYLINE
  5
4AA
100
AcDbEntity
  8
RACCORDO
100
AcDbPolyline
 62
250
  6
CONTINUOUS
 90
67
 70
0
 10
14.6328259128
 20
-9.9434058958
 10
14.6331031535
 20
-9.9130237139
 10
14.6339519589
 20
-9.8823323955
 10
14.635372329
 20
-9.8513319405
 10
14.6373633494
 20
-9.8199986832
 10
14.6399259345
 20
-9.7883562893
 10
14.6430628273
 20
-9.7564757564
 10
14.6467763737
 20
-9.7243568848
 10
14.6510642277
 20
-9.6919998742
 10
14.6559220938
 20
-9.6594763201
 10
14.6613523581
 20
-9.6267852464
 10
14.6673526345
 20
-9.5939276293
 10
14.6739114702
 20
-9.5609779931
 10
14.6810309857
 20
-9.5279365531
 10
14.6887090605
 20
-9.494803094
 10
14.6969278797
 20
-9.461651494
 10
14.7056876522
 20
-9.4284870946
 10
14.714988169
 20
-9.3953045544
 10
14.7248109885
 20
-9.3621617273
 10
14.7351552294
 20
-9.3290634717
 10
14.7460217729
 20
-9.2960049292
 10
14.7573948208
 20
-9.263029379
 10
14.7692746392
 20
-9.2301365613
 10
14.7816609619
 20
-9.1973267358
 10
14.794537192
 20
-9.1646439611
 10
14.8079050018
 20
-9.1320853397
 10
14.8217627189
 20
-9.0996537692
 10
14.836088729
 20
-9.0674019996
 10
14.8508846227
 20
-9.0353286914
 10
14.8661488094
 20
-9.0034351843
 10
14.8818549033
 20
-8.9717782474
 10
14.8980037732
 20
-8.9403584622
 10
14.9145945502
 20
-8.9091752472
 10
14.9315982423
 20
-8.878283627
 10
14.9490156897
 20
-8.8476842069
 10
14.9668460521
 20
-8.8173763816
 10
14.9850578158
 20
-8.78741336
 10
15.0036518516
 20
-8.7577957288
 10
15.0226272886
 20
-8.7285229012
 10
15.0419500009
 20
-8.6996463264
 10
15.0616197052
 20
-8.6711680797
 10
15.0816366847
 20
-8.6430860856
 10
15.1019676629
 20
-8.6154455672
 10
15.1226110722
 20
-8.5882494887
 10
15.1435684802
 20
-8.5614948859
 10
15.1648113121
 20
-8.535218088
 10
15.1863392885
 20
-8.5094197201
 10
15.2081526888
 20
-8.4840991571
 10
15.2302237761
 20
-8.4592908535
 10
15.2525558079
 20
-8.4349920217
 10
15.2751455267
 20
-8.4112054493
 10
15.2979554227
 20
-8.387973954
 10
15.3209899009
 20
-8.3652952934
 10
15.3442445564
 20
-8.34317171
 10
15.3676686649
 20
-8.3216527492
 10
15.3912635799
 20
-8.3007401807
 10
15.4150279479
 20
-8.2804322348
 10
15.4389069847
 20
-8.2607731473
 10
15.4629009595
 20
-8.24176575
 10
15.487009603
 20
-8.223407211
 10
15.5111773226
 20
-8.2057332713
 10
15.5354051733
 20
-8.1887462885
 10
15.5596921001
 20
-8.1724439048
 10
15.5839793451
 20
-8.1568547875
 10
15.6082473225
 20
-8.1419884921
 10
15.6325156181
 20
-8.127835463
 10
15.6567842319
 20
-8.1143957001
  0
LWPOLYLINE
  5
4AB
100
AcDbEntity
  8
DRAFT
100
AcDbPolyline
 62
7
  6
CONTINUOUS
 90
43
 70
0
 10
21.5804677769
 20
-0.6119748597
 10
21.5897368465
 20
-0.6050573421
 10
21.5988298318
 20
-0.5984961266
 10
21.6077470468
 20
-0.5922929894
 10
21.6164690415
 20
-0.5864637773
 10
21.6250166808
 20
-0.5809963948
 10
21.6334481194
 20
-0.5758495096
 10
21.6417646338
 20
-0.5710136885
 10
21.6499604083
 20
-0.5664994645
 10
21.6580779396
 20
-0.5622934076
 10
21.6661067358
 20
-0.5583898162
 10
21.6740483025
 20
-0.5547939831
 10
21.6819573221
 20
-0.5515068844
 10
21.6898288368
 20
-0.5485168777
 10
21.6976508603
 20
-0.5458329259
 10
21.7054607765
 20
-0.5434847697
 10
21.713242534
 20
-0.5414628947
 10
21.7209877759
 20
-0.539772726
 10
21.7287376523
 20
-0.5384642917
 10
21.7364794867
 20
-0.5375269417
 10
21.7441896759
 20
-0.5369653024
 10
21.7518845097
 20
-0.5368503799
 10
21.7595431696
 20
-0.537176788
 10
21.7671390224
 20
-0.5379432421
 10
21.774672043
 20
-0.5392256463
 10
21.7821173315
 20
-0.5410249623
 10
21.789440172
 20
-0.5433338253
 10
21.7966196285
 20
-0.5462151496
 10
21.8036203808
 20
-0.5496732023
 10
21.8104083923
 20
-0.5536992994
 10
21.8169588643
 20
-0.5583369501
 10
21.8232245301
 20
-0.5635850087
 10
21.8291717948
 20
-0.5694430931
 10
21.8347843094
 20
-0.5759554636
 10
21.8400026348
 20
-0.5831152006
 10
21.8447813189
 20
-0.5909308083
 10
21.8490985779
 20
-0.5994686551
 10
21.8528881749
 20
-0.6087658515
 10
21.856060462
 20
-0.6187915902
 10
21.8585366074
 20
-0.6295113455
 10
21.8602352015
 20
-0.6409875093
 10
21.8610612973
 20
-0.6531764677
 10
21.8611279764
 20
-0.6578155583
  0
LWPOLYLINE
  5
4AC
100
AcDbEntity
  8
RACCORDO
100
AcDbPolyline
 62
7
  6
CONTINUOUS
 90
9
 70
0
 10
23.4604256935
 20
0.9902431402
 10
23.458968655
 20
0.9892387868
 10
23.4574833205
 20
0.9881299577
 10
23.4559734833
 20
0.9869243681
 10
23.4544347812
 20
0.9856147253
 10
23.4528543436
 20
0.9841788875
 10
23.4512273132
 20
0.9826098004
 10
23.4495572004
 20
0.9809153387
 10
23.4478433653
 20
0.979095914
  0
LWPOLYLINE
  5
4AD
100
AcDbEntity
  8
RACCORDO
100
AcDbPolyline
 62
7
  6
CONTINUOUS
 90
34
 70
0
 10
22.8256751422
 20
-0.1701488273
 10
22.8584882689
 20
-0.1482161176
 10
22.8907656989
 20
-0.1252047564
 10
22.9224866325
 20
-0.1011195276
 10
22.9536253301
 20
-0.0759702823
 10
22.9841671648
 20
-0.0497591141
 10
23.014107806
 20
-0.022478348
 10
23.0434283384
 20
0.0058676444
 10
23.0721078381
 20
0.0352716788
 10
23.1001382442
 20
0.0657396814
 10
23.1275027037
 20
0.0972691441
 10
23.1541793022
 20
0.1298509991
 10
23.1801524515
 20
0.1634828696
 10
23.2054067481
 20
0.1981626691
 10
23.2299210157
 20
0.2338797622
 10
23.2536724206
 20
0.270618879
 10
23.2766467679
 20
0.3083763696
 10
23.2988253246
 20
0.3471405434
 10
23.3201813321
 20
0.3868823488
 10
23.3407022597
 20
0.4275954175
 10
23.3603726395
 20
0.4692669718
 10
23.3791654221
 20
0.5118553066
 10
23.3970701177
 20
0.5553502509
 10
23.4140750992
 20
0.5997382235
 10
23.4301565174
 20
0.6449685454
 10
23.4453063113
 20
0.6910268884
 10
23.4595166993
 20
0.7378989919
 10
23.4727693701
 20
0.7855301751
 10
23.4850589491
 20
0.8339024534
 10
23.4963810373
 20
0.883000698
 10
23.5067235991
 20
0.9327706343
 10
23.5160821073
 20
0.9831810616
 10
23.524457158
 20
1.0342258484
 10
23.5312428996
 20
1.0813665569
  0
LINE
  5
4AE
100
AcDbEntity
  8
DRAFT
100
AcDbLine
 62
7
  6
CONTINUOUS
 10
22.8256751422
 20
-0.1701488273
 11
21.8611279765
 21
-0.7940097905
  0
LINE
  5
4AF
100
AcDbEntity
  8
SUPERFICI
100
AcDbLine
 62
7
  6
CONTINUOUS
 10
-10.8954427097
 20
-20.3518516455
 11
-10.9168277682
 21
-20.3643823584
  0
LINE
  5
4B0
100
AcDbEntity
  8
RACCORDO
100
AcDbLine
 62
250
  6
CONTINUOUS
 10
15.6567842319
 20
-8.1143957001
 11
21.5804677769
 21
-4.9184325283
  0
LWPOLYLINE
  5
4B1
100
AcDbEntity
  8
DRAFT
100
AcDbPolyline
 62
7
  6
CONTINUOUS
 90
3
 70
0
 10
-10.8954426648
 20
-20.3518516152
 10
-10.926798447
 20
-20.3687360185
 10
-10.9416428984
 20
-20.3745438518
  0
LWPOLYLINE
  5
4B2
100
AcDbEntity
  8
RACCORDO
100
AcDbPolyline
 62
250
  6
CONTINUOUS
 90
30
 70
0
 10
21.5804677769
 20
-4.9184325283
 10
21.5991289154
 20
-4.9085031854
 10
21.6172420103
 20
-4.8983232874
 10
21.6347936108
 20
-4.8879003942
 10
21.651770683
 20
-4.8772422457
 10
21.6681606195
 20
-4.8663567567
 10
21.6839512492
 20
-4.855252011
 10
21.6991308458
 20
-4.8439362549
 10
21.7136881368
 20
-4.8324178916
 10
21.727612312
 20
-4.8207054747
 10
21.7408930312
 20
-4.8088077018
 10
21.753520432
 20
-4.7967334084
 10
21.7654851372
 20
-4.7844915608
 10
21.7767782619
 20
-4.77209125
 10
21.7873914196
 20
-4.7595416845
 10
21.797316729
 20
-4.7468521836
 10
21.8065468194
 20
-4.7340321707
 10
21.8150748367
 20
-4.7210911659
 10
21.8228944477
 20
-4.7080387794
 10
21.8299998457
 20
-4.6948847038
 10
21.8363857542
 20
-4.6816387075
 10
21.8420474308
 20
-4.6683106271
 10
21.8469806712
 20
-4.6549103599
 10
21.8511818121
 20
-4.6414478573
 10
21.8546477335
 20
-4.6279331164
 10
21.8573758617
 20
-4.6143761734
 10
21.8593641707
 20
-4.6007870957
 10
21.860611184
 20
-4.5871759748
 10
21.8611159756
 20
-4.5735529182
 10
21.8611279765
 20
-4.5711033431
  0
LINE
  5
4B3
100
AcDbEntity
  8
SMUSSO
100
AcDbLine
 62
7
  6
CONTINUOUS
 10
0.6637039037
 20
-15.0570256888
 11
1.4768767021
 21
-14.6814755429
  0
LINE
  5
4B4
100
AcDbEntity
  8
SUPERFICI
100
AcDbLine
 62
7
  6
CONTINUOUS
 10
-10.9168277682
 20
-20.3643823584
 11
-10.9415062751
 21
-20.3748093979
  0
LWPOLYLINE
  5
4B5
100
AcDbEntity
  8
0
100
AcDbPolyline
 62
250
  6
CONTINUOUS
 90
16
 70
0
 10
-4.8171964019
 20
16.184782433
 10
-4.8239255487
 20
16.1879517021
 10
-4.8306375933
 20
16.1907222529
 10
-4.8373173261
 20
16.1930878055
 10
-4.8439496152
 20
16.1950429988
 10
-4.850519427
 20
16.1965833988
 10
-4.8570118611
 20
16.1977055112
 10
-4.8634122019
 20
16.1984067936
 10
-4.8697059503
 20
16.1986856581
 10
-4.8758788432
 20
16.1985414736
 10
-4.8819168941
 20
16.1979745675
 10
-4.8878064201
 20
16.1969862253
 10
-4.8935340707
 20
16.195578689
 10
-4.8990868667
 20
16.1937551505
 10
-4.9044522278
 20
16.1915197436
 10
-4.9068317084
 20
16.1903658158
  0
LWPOLYLINE
  5
4B6
100
AcDbEntity
  8
0
100
AcDbPolyline
 62
7
  6
CONTINUOUS
 90
17
 70
0
 10
-4.6042416161
 20
16.2927772049
 10
-4.610410411
 20
16.2956967305
 10
-4.6165674453
 20
16.2982809852
 10
-4.6227010028
 20
16.3005250481
 10
-4.6287994287
 20
16.3024246375
 10
-4.6348511111
 20
16.3039761395
 10
-4.6408445038
 20
16.3051766148
 10
-4.6467682228
 20
16.3060237663
 10
-4.6526110024
 20
16.3065159767
 10
-4.6583616768
 20
16.3066523317
 10
-4.6640093322
 20
16.3064325559
 10
-4.6695432374
 20
16.3058570585
 10
-4.674952798
 20
16.3049269661
 10
-4.6802277573
 20
16.3036440295
 10
-4.685358102
 20
16.3020106773
 10
-4.6903339906
 20
16.300030058
 10
-4.6932993836
 20
16.2986480074
  0
LWPOLYLINE
  5
4B7
100
AcDbEntity
  8
0
100
AcDbPolyline
 62
250
  6
CONTINUOUS
 90
34
 70
0
 10
-6.6548512816
 20
16.7898091185
 10
-6.6479609735
 20
16.7865241936
 10
-6.6407658093
 20
16.7834069367
 10
-6.6332820917
 20
16.7804644123
 10
-6.6255267723
 20
16.7777032873
 10
-6.6175174284
 20
16.7751298211
 10
-6.6092722247
 20
16.7727498507
 10
-6.6008098503
 20
16.77056877
 10
-6.5921494764
 20
16.7685915198
 10
-6.5833107301
 20
16.7668225806
 10
-6.5743136385
 20
16.7652659601
 10
-6.5651785912
 20
16.7639251855
 10
-6.5559262964
 20
16.7628032954
 10
-6.5465777229
 20
16.7619028311
 10
-6.5371540521
 20
16.7612258318
 10
-6.5276766392
 20
16.7607738303
 10
-6.5181669527
 20
16.7605478498
 10
-6.5086465483
 20
16.7605484016
 10
-6.4991370207
 20
16.7607754824
 10
-6.4896599457
 20
16.7612285733
 10
-6.4802367687
 20
16.7619066454
 10
-6.4708887797
 20
16.7628081661
 10
-6.461637077
 20
16.7639311057
 10
-6.452502711
 20
16.7652729141
 10
-6.4435065662
 20
16.7668305178
 10
-6.4346691336
 20
16.7686003513
 10
-6.4260103082
 20
16.7705784122
 10
-6.4175495429
 20
16.7727602497
 10
-6.4093047088
 20
16.7751413168
 10
-6.4012958598
 20
16.7777158847
 10
-6.3935446572
 20
16.7804768043
 10
-6.3860694164
 20
16.7834171041
 10
-6.3788854461
 20
16.7865302989
 10
-6.3720085691
 20
16.7898091185
  0
LWPOLYLINE
  5
4B8
100
AcDbEntity
  8
0
100
AcDbPolyline
 62
250
  6
CONTINUOUS
 90
16
 70
0
 10
-10.1172099812
 20
20.0718236127
 10
-10.1191051664
 20
20.0727396135
 10
-10.1257998997
 20
20.07557266
 10
-10.1327263759
 20
20.0778941589
 10
-10.1398690863
 20
20.0796988988
 10
-10.1472119038
 20
20.0809827921
 10
-10.1547381505
 20
20.0817429358
 10
-10.1624307847
 20
20.0819776501
 10
-10.1702725973
 20
20.0816864504
 10
-10.1782460963
 20
20.0808700007
 10
-10.1863345737
 20
20.0795298963
 10
-10.194518645
 20
20.0776692349
 10
-10.2027763158
 20
20.07529334
 10
-10.2110877365
 20
20.0724086694
 10
-10.2194353689
 20
20.069022051
 10
-10.2278004491
 20
20.0651417291
  0
LWPOLYLINE
  5
4B9
100
AcDbEntity
  8
0
100
AcDbPolyline
 62
250
  6
CONTINUOUS
 90
16
 70
0
 10
0.495752952
 20
14.7653423995
 10
0.4936732751
 20
14.7663503928
 10
0.4869785418
 20
14.7691834393
 10
0.4800520656
 20
14.7715049381
 10
0.4729093552
 20
14.7733096781
 10
0.4655665377
 20
14.7745935714
 10
0.458040291
 20
14.7753537151
 10
0.4503476568
 20
14.7755884294
 10
0.4425058442
 20
14.7752972297
 10
0.4345323452
 20
14.7744807799
 10
0.4264438678
 20
14.7731406755
 10
0.4182597965
 20
14.7712800141
 10
0.4100021257
 20
14.7689041193
 10
0.401690705
 20
14.7660194486
 10
0.3933430726
 20
14.7626328303
 10
0.3849779924
 20
14.7587525084
  0
LWPOLYLINE
  5
4BA
100
AcDbEntity
  8
0
100
AcDbPolyline
 62
250
  6
CONTINUOUS
 90
16
 70
0
 10
2.1866325031
 20
13.9199026239
 10
2.1845700427
 20
13.9209025309
 10
2.1778767346
 20
13.923736607
 10
2.1709517161
 20
13.9260592654
 10
2.1638105587
 20
13.9278652832
 10
2.1564693197
 20
13.9291505996
 10
2.1489445065
 20
13.9299123244
 10
2.1412530392
 20
13.9301487449
 10
2.1334122127
 20
13.9298593293
 10
2.1254396576
 20
13.9290447285
 10
2.1173533009
 20
13.9277067742
 10
2.1091713252
 20
13.9258484749
 10
2.1009121285
 20
13.9234740091
 10
2.0925942822
 20
13.9205887159
 10
2.0842364895
 20
13.9171990832
 10
2.0758575436
 20
13.9133127328
  0
LWPOLYLINE
  5
4BB
100
AcDbEntity
  8
0
100
AcDbPolyline
 62
250
  6
CONTINUOUS
 90
3
 70
0
 10
-11.8079050407
 20
20.9171713958
 10
-11.8099675011
 20
20.9181713028
 10
-11.8166608092
 20
20.9210053789
  0
LINE
  5
4BC
100
AcDbEntity
  8
0
100
AcDbLine
 62
250
  6
CONTINUOUS
 10
-3.5024314363
 20
15.2135991958
 11
-4.9577950067
 21
15.9412809811
  0
LINE
  5
4BD
100
AcDbEntity
  8
0
100
AcDbLine
 62
250
  6
CONTINUOUS
 10
-6.6548512816
 20
16.7898091185
 11
-8.2811968783
 21
17.6029819169
  0
LINE
  5
4BE
100
AcDbEntity
  8
0
100
AcDbLine
 62
7
  6
CONTINUOUS
 10
-5.4527697535
 20
16.4929497978
 11
-4.8774262732
 21
16.2052780577
  0
LINE
  5
4BF
100
AcDbEntity
  8
0
100
AcDbLine
 62
250
  6
CONTINUOUS
 10
-3.1908508052
 20
15.3716096347
 11
-4.8171964019
 21
16.184782433
  0
LINE
  5
4C0
100
AcDbEntity
  8
0
100
AcDbLine
 62
250
  6
CONTINUOUS
 10
-6.5142526768
 20
17.0333105705
 11
-8.1405982735
 21
17.8464833688
  0
LINE
  5
4C1
100
AcDbEntity
  8
0
100
AcDbLine
 62
7
  6
CONTINUOUS
 10
-8.5993949298
 20
18.2903538617
 11
-6.301297891
 21
17.1413053423
  0
LINE
  5
4C2
100
AcDbEntity
  8
0
100
AcDbLine
 62
7
  6
CONTINUOUS
 10
-4.6042416161
 20
16.2927772049
 11
-2.3061445773
 21
15.1437286854
  0
LINE
  5
4C3
100
AcDbEntity
  8
0
100
AcDbLine
 62
7
  6
CONTINUOUS
 10
1.5475903718
 20
13.6498739128
 11
-0.1494718863
 21
14.4984050418
  0
LINE
  5
4C4
100
AcDbEntity
  8
0
100
AcDbLine
 62
7
  6
CONTINUOUS
 10
-10.7560676208
 20
19.8017029091
 11
-12.4531298789
 21
20.6502340382
  0
LINE
  5
4C5
100
AcDbEntity
  8
0
100
AcDbLine
 62
7
  6
CONTINUOUS
 10
-7.2205367065
 20
18.3029931428
 11
-5.5941911098
 21
17.4898203445
  0
LINE
  5
4C6
100
AcDbEntity
  8
0
100
AcDbLine
 62
7
  6
CONTINUOUS
 10
-3.8971348349
 20
16.6412922071
 11
-2.2707892382
 21
15.8281194087
  0
LINE
  5
4C7
100
AcDbEntity
  8
0
100
AcDbLine
 62
250
  6
CONTINUOUS
 10
-11.9186800002
 20
20.9105815047
 11
-10.2278004491
 21
20.0651417291
  0
LINE
  5
4C8
100
AcDbEntity
  8
0
100
AcDbLine
 62
250
  6
CONTINUOUS
 10
0.3849779924
 20
14.7587525084
 11
2.0758575436
 21
13.9133127328
  0
LINE
  5
4C9
100
AcDbEntity
  8
0
100
AcDbLine
 62
7
  6
CONTINUOUS
 10
-11.8079050407
 20
20.9171713958
 11
-10.1170254895
 21
20.0717316203
  0
LINE
  5
4CA
100
AcDbEntity
  8
0
100
AcDbLine
 62
7
  6
CONTINUOUS
 10
0.495752952
 20
14.7653423995
 11
2.1866325031
 21
13.9199026239
  0
LWPOLYLINE
  5
4CB
100
AcDbEntity
  8
0
100
AcDbPolyline
 62
250
  6
CONTINUOUS
 90
34
 70
0
 10
-10.2278004491
 20
20.0651417291
 10
-10.2193416311
 20
20.0607145255
 10
-10.2109043039
 20
20.0558057586
 10
-10.2025075799
 20
20.0504265479
 10
-10.1941704795
 20
20.0445890784
 10
-10.1859118882
 20
20.0383065733
 10
-10.1777505136
 20
20.031593264
 10
-10.1697048429
 20
20.0244643576
 10
-10.1617931014
 20
20.0169360026
 10
-10.1540332109
 20
20.0090252524
 10
-10.1464427495
 20
20.0007500268
 10
-10.1390389111
 20
19.9921290708
 10
-10.1318384671
 20
19.983181913
 10
-10.1248577282
 20
19.9739288206
 10
-10.1181125072
 20
19.964390754
 10
-10.1116180836
 20
19.954589319
 10
-10.1053891688
 20
19.944546718
 10
-10.0994398726
 20
19.9342856999
 10
-10.0937836715
 20
19.9238295081
 10
-10.088433378
 20
19.9132018282
 10
-10.0834011119
 20
19.9024267343
 10
-10.0786982722
 20
19.8915286344
 10
-10.074335512
 20
19.8805322151
 10
-10.0703227139
 20
19.8694623859
 10
-10.0666689679
 20
19.8583442222
 10
-10.0633825503
 20
19.8472029094
 10
-10.0604709058
 20
19.8360636849
 10
-10.0579406299
 20
19.8249517815
 10
-10.0557974541
 20
19.8138923703
 10
-10.0540462333
 20
19.8029105033
 10
-10.0526909344
 20
19.7920310568
 10
-10.0517346274
 20
19.7812786753
 10
-10.0511794785
 20
19.7706777153
 10
-10.0510267454
 20
19.7602521903
  0
LWPOLYLINE
  5
4CC
100
AcDbEntity
  8
0
100
AcDbPolyline
 62
250
  6
CONTINUOUS
 90
34
 70
0
 10
2.0758575436
 20
13.9133127328
 10
2.084302461
 20
13.9088932093
 10
2.092729603
 20
13.9039914801
 10
2.1011198866
 20
13.8986180099
 10
2.1094554592
 20
13.8927834875
 10
2.1177161535
 20
13.8865012787
 10
2.1258796565
 20
13.8797880276
 10
2.1339262763
 20
13.8726600422
 10
2.1418390095
 20
13.8651325011
 10
2.1496000729
 20
13.8572223071
 10
2.1571919743
 20
13.8489472481
 10
2.1645973976
 20
13.8403261565
 10
2.1717994009
 20
13.8313787424
 10
2.1787816036
 20
13.8221253692
 10
2.1855282557
 20
13.8125869235
 10
2.1920241144
 20
13.8027849549
 10
2.1982544756
 20
13.7927416414
 10
2.2042052012
 20
13.7824797635
 10
2.2098627949
 20
13.7720225897
 10
2.2152144332
 20
13.7613938185
 10
2.2202479915
 20
13.7506175268
 10
2.2249520613
 20
13.7397181344
 10
2.2293159832
 20
13.7287203357
 10
2.2333298668
 20
13.7176490512
 10
2.236984613
 20
13.706529375
 10
2.2402719394
 20
13.6953865044
 10
2.243184397
 20
13.6842456858
 10
2.2457153852
 20
13.6731321665
 10
2.2478591693
 20
13.662071123
 10
2.2496108901
 20
13.6510876235
 10
2.2509665759
 20
13.6402065741
 10
2.251923156
 20
13.6294526355
 10
2.2524784653
 20
13.6188501678
 10
2.2526312472
 20
13.608423194
  0
LWPOLYLINE
  5
4CD
100
AcDbEntity
  8
0
100
AcDbPolyline
 62
7
  6
CONTINUOUS
 90
37
 70
0
 10
-6.301297891
 20
17.1413053423
 10
-6.2951291209
 20
17.1380560854
 10
-6.2889720836
 20
17.1344833044
 10
-6.2828385042
 20
17.1305937988
 10
-6.2767400793
 20
17.1263949628
 10
-6.2706884146
 20
17.1218947913
 10
-6.2646950033
 20
17.1171018646
 10
-6.2587712791
 20
17.1120252945
 10
-6.2529285287
 20
17.1066747398
 10
-6.2471778303
 20
17.1010604085
 10
-6.2415301637
 20
17.0951929717
 10
-6.2359962987
 20
17.0890835891
 10
-6.2305867091
 20
17.0827439217
 10
-6.2253117329
 20
17.0761860173
 10
-6.2201814386
 20
17.0694223457
 10
-6.2152055165
 20
17.0624658209
 10
-6.2103934855
 20
17.0553296615
 10
-6.2057545412
 20
17.048027434
 10
-6.2012974238
 20
17.0405730844
 10
-6.197030671
 20
17.0329807758
 10
-6.1929624473
 20
17.0252649391
 10
-6.1891003941
 20
17.0174403139
 10
-6.1854519212
 20
17.0095217653
 10
-6.1820240229
 20
17.0015243417
 10
-6.1788231105
 20
16.9934633239
 10
-6.1758553396
 20
16.9853540248
 10
-6.1731264142
 20
16.9772118527
 10
-6.1706414063
 20
16.9690523682
 10
-6.1684051117
 20
16.9608910699
 10
-6.1664218468
 20
16.9527434623
 10
-6.1646952574
 20
16.9446251197
 10
-6.1632286974
 20
16.9365514612
 10
-6.1620250221
 20
16.9285378224
 10
-6.1610863886
 20
16.9205995247
 10
-6.1604145837
 20
16.9127516781
 10
-6.1600110204
 20
16.9050091528
 10
-6.1598765347
 20
16.8973866522
  0
LWPOLYLINE
  5
4CE
100
AcDbEntity
  8
0
100
AcDbPolyline
 62
250
  6
CONTINUOUS
 90
34
 70
0
 10
-6.5142526768
 20
17.0333105705
 10
-6.5075226458
 20
17.0297503076
 10
-6.5008059967
 20
17.0258066832
 10
-6.4941179449
 20
17.0214886308
 10
-6.4874736409
 20
17.0168059323
 10
-6.4808881363
 20
17.0117691953
 10
-6.4743763493
 20
17.0063898299
 10
-6.4679530312
 20
17.0006800219
 10
-6.4616327329
 20
16.9946527059
 10
-6.4554297718
 20
16.9883215357
 10
-6.4493581998
 20
16.9817008535
 10
-6.4434317709
 20
16.9748056572
 10
-6.4376639103
 20
16.9676515667
 10
-6.432067684
 20
16.9602547883
 10
-6.4266557695
 20
16.952632078
 10
-6.4214404262
 20
16.9448007038
 10
-6.4164334688
 20
16.9367784063
 10
-6.4116462396
 20
16.9285833584
 10
-6.4070895832
 20
16.9202341247
 10
-6.4027738218
 20
16.9117496188
 10
-6.3987087321
 20
16.9031490609
 10
-6.3949035228
 20
16.8944519341
 10
-6.3913668139
 20
16.88567794
 10
-6.3881066172
 20
16.8768469546
 10
-6.3851303182
 20
16.8679789829
 10
-6.382444659
 20
16.8590941138
 10
-6.3800557235
 20
16.8502124744
 10
-6.3779689236
 20
16.8413541843
 10
-6.3761889863
 20
16.8325393105
 10
-6.374719944
 20
16.8237878215
 10
-6.3735651243
 20
16.8151195423
 10
-6.3727271434
 20
16.8065541092
 10
-6.3722078996
 20
16.7981109258
 10
-6.3720085691
 20
16.7898091185
  0
LWPOLYLINE
  5
4CF
100
AcDbEntity
  8
0
100
AcDbPolyline
 62
7
  6
CONTINUOUS
 90
34
 70
0
 10
-10.7560676208
 20
19.8017029091
 10
-10.7476565454
 20
19.7972519947
 10
-10.7392643278
 20
19.7923208243
 10
-10.7309100801
 20
19.7869205147
 10
-10.7226129061
 20
19.781063206
 10
-10.7143916077
 20
19.7747621612
 10
-10.7062646419
 20
19.7680317361
 10
-10.6982504765
 20
19.7608871453
 10
-10.6903673572
 20
19.753344526
 10
-10.682633015
 20
19.745421029
 10
-10.6750650074
 20
19.7371345829
 10
-10.6676805505
 20
19.7285039215
 10
-10.660496288
 20
19.7195486419
 10
-10.6535285093
 20
19.7102890214
 10
-10.6467930501
 20
19.7007460094
 10
-10.6403051274
 20
19.6909412496
 10
-10.6340794307
 20
19.6808969556
 10
-10.6281300928
 20
19.6706358655
 10
-10.6224705934
 20
19.6601812286
 10
-10.617113723
 20
19.6495567422
 10
-10.6120716233
 20
19.6387864699
 10
-10.6073557622
 20
19.6278947926
 10
-10.6029767704
 20
19.6169064086
 10
-10.5989445515
 20
19.6058462168
 10
-10.5952683275
 20
19.5947392324
 10
-10.5919563532
 20
19.5836106516
 10
-10.5890160924
 20
19.5724857014
 10
-10.5864543338
 20
19.5613895216
 10
-10.5842767879
 20
19.5503472929
 10
-10.582488327
 20
19.5393840568
 10
-10.5810931686
 20
19.5285245651
 10
-10.580094465
 20
19.5177934198
 10
-10.579494296
 20
19.5072150175
 10
-10.5792939171
 20
19.4968133703
  0
LWPOLYLINE
  5
4D0
100
AcDbEntity
  8
0
100
AcDbPolyline
 62
7
  6
CONTINUOUS
 90
34
 70
0
 10
1.5475903718
 20
13.6498739128
 10
1.5560014473
 20
13.6454229984
 10
1.5643936649
 20
13.640491828
 10
1.5727479126
 20
13.6350915184
 10
1.5810450866
 20
13.6292342097
 10
1.5892663849
 20
13.6229331649
 10
1.5973933507
 20
13.6162027398
 10
1.6054075161
 20
13.609058149
 10
1.6132906355
 20
13.6015155296
 10
1.6210249777
 20
13.5935920327
 10
1.6285929852
 20
13.5853055865
 10
1.6359774421
 20
13.5766749252
 10
1.6431617047
 20
13.5677196455
 10
1.6501294834
 20
13.558460025
 10
1.6568649426
 20
13.5489170131
 10
1.6633528653
 20
13.5391122533
 10
1.6695785619
 20
13.5290679593
 10
1.6755278998
 20
13.5188068692
 10
1.6811873992
 20
13.5083522323
 10
1.6865442696
 20
13.4977277459
 10
1.6915863693
 20
13.4869574736
 10
1.6963022304
 20
13.4760657963
 10
1.7006812222
 20
13.4650774123
 10
1.7047134412
 20
13.4540172205
 10
1.7083896651
 20
13.442910236
 10
1.7117016394
 20
13.4317816553
 10
1.7146419003
 20
13.4206567051
 10
1.7172036589
 20
13.4095605253
 10
1.7193812048
 20
13.3985182966
 10
1.7211696657
 20
13.3875550605
 10
1.722564824
 20
13.3766955687
 10
1.7235635276
 20
13.3659644235
 10
1.7241636966
 20
13.3553860212
 10
1.7243640755
 20
13.344984374
  0
LWPOLYLINE
  5
4D1
100
AcDbEntity
  8
SMUSSO
100
AcDbPolyline
 62
7
  6
CONTINUOUS
 90
6
 70
0
 10
11.4276203827
 20
18.0393003363
 10
11.4275433322
 20
18.0397264974
 10
11.4233798739
 20
18.0709981416
 10
11.4207022496
 20
18.1022863336
 10
11.4195109112
 20
18.1335790141
 10
11.4194434244
 20
18.1430058234
  0
LWPOLYLINE
  5
4D2
100
AcDbEntity
  8
RACCORDO
100
AcDbPolyline
 62
7
  6
CONTINUOUS
 90
10
 70
0
 10
16.4675404632
 20
21.015520623
 10
16.4674807058
 20
21.0267447394
 10
16.4673017056
 20
21.0379035394
 10
16.4670034624
 20
21.0489970232
 10
16.4665858857
 20
21.0600270406
 10
16.4660490661
 20
21.0709917418
 10
16.4653932754
 20
21.0818855762
 10
16.4646186041
 20
21.0927066938
 10
16.4637249616
 20
21.1034569447
 10
16.462712348
 20
21.1141363288
  0
LWPOLYLINE
  5
4D3
100
AcDbEntity
  8
RACCORDO
100
AcDbPolyline
 62
250
  6
CONTINUOUS
 90
33
 70
0
 10
15.6567842319
 20
-8.1143957001
 10
15.6568451479
 20
-8.1379454731
 10
15.656359973
 20
-8.161213715
 10
15.6553290753
 20
-8.1841827631
 10
15.6537532375
 20
-8.2068351818
 10
15.6516336558
 20
-8.2291537758
 10
15.6489719392
 20
-8.2511216034
 10
15.645770108
 20
-8.2727219888
 10
15.6420305929
 20
-8.2939385354
 10
15.6377562324
 20
-8.314755138
 10
15.6329502711
 20
-8.3351559948
 10
15.6276163573
 20
-8.3551256198
 10
15.6217585398
 20
-8.374648854
 10
15.6153812653
 20
-8.3937108777
 10
15.6084893748
 20
-8.4122972209
 10
15.6010880997
 20
-8.430393775
 10
15.5931830583
 20
-8.447986803
 10
15.5847802514
 20
-8.4650629503
 10
15.5758860573
 20
-8.4816092543
 10
15.5665072276
 20
-8.4976131551
 10
15.5566508817
 20
-8.5130625041
 10
15.5463245014
 20
-8.5279455739
 10
15.5355359255
 20
-8.5422510668
 10
15.5242933434
 20
-8.5559681238
 10
15.5126052892
 20
-8.5690863322
 10
15.5004806354
 20
-8.5815957343
 10
15.4879285855
 20
-8.5934868341
 10
15.4749586678
 20
-8.6047506053
 10
15.4615807276
 20
-8.6153784976
 10
15.4478049201
 20
-8.6253624435
 10
15.4336417022
 20
-8.6346948642
 10
15.4191018251
 20
-8.6433686757
 10
15.4122682521
 20
-8.6471473859
  0
LINE
  5
4D4
100
AcDbEntity
  8
0
100
AcDbLine
 62
7
  6
CONTINUOUS
 10
15.4392941109
 20
17.4839359516
 11
15.4392941109
 21
17.3863456482
  0
LINE
  5
4D5
100
AcDbEntity
  8
RACCORDO
100
AcDbLine
 62
7
  6
CONTINUOUS
 10
16.4675404632
 20
21.015520623
 11
16.4675404632
 21
20.733283438
  0
LWPOLYLINE
  5
4D6
100
AcDbEntity
  8
RACCORDO
100
AcDbPolyline
 62
7
  6
CONTINUOUS
 90
79
 70
0
 10
14.9134861124
 20
-16.586436632
 10
14.9135039752
 20
-9.5913441128
 10
14.9136514401
 20
-9.5815473312
 10
14.9139587944
 20
-9.5712707321
 10
14.9144389436
 20
-9.5605179886
 10
14.9151042485
 20
-9.5492992954
 10
14.9159661076
 20
-9.5376316479
 10
14.9170358092
 20
-9.5255237483
 10
14.9183242061
 20
-9.5129847476
 10
14.9198406444
 20
-9.5000340205
 10
14.9215945469
 20
-9.4866840335
 10
14.9235950833
 20
-9.4729452978
 10
14.925849896
 20
-9.4588354297
 10
14.9283668275
 20
-9.4443678615
 10
14.9311532783
 20
-9.4295557969
 10
14.9342151442
 20
-9.4144172658
 10
14.9375586555
 20
-9.3989662745
 10
14.9411892637
 20
-9.3832187422
 10
14.9451104126
 20
-9.367196207
 10
14.9493269011
 20
-9.3509119697
 10
14.9538416249
 20
-9.3343856675
 10
14.9586532312
 20
-9.3176490042
 10
14.9637634162
 20
-9.3007191435
 10
14.969173045
 20
-9.2836146589
 10
14.9748771499
 20
-9.2663700028
 10
14.9808746513
 20
-9.249004061
 10
14.9871639544
 20
-9.2315355242
 10
14.9937370642
 20
-9.213998901
 10
15.000590464
 20
-9.1964134546
 10
15.0077199886
 20
-9.1787983107
 10
15.0151145833
 20
-9.1611877575
 10
15.0227683639
 20
-9.1436010257
 10
15.0306748097
 20
-9.1260570592
 10
15.0388199633
 20
-9.1085893318
 10
15.0471958917
 20
-9.0912161826
 10
15.0557937831
 20
-9.073956197
 10
15.0645965334
 20
-9.0568424542
 10
15.0735941745
 20
-9.0398921779
 10
15.0827759536
 20
-9.0231227476
 10
15.0921218591
 20
-9.0065662882
 10
15.1016198437
 20
-8.9902387889
 10
15.1112577259
 20
-8.9741554736
 10
15.1210136613
 20
-8.9583457149
 10
15.130873441
 20
-8.9428243931
 10
15.1408242032
 20
-8.9276035384
 10
15.1508447087
 20
-8.9127064503
 10
15.1609202803
 20
-8.8981448043
 10
15.1710365853
 20
-8.8839291636
 10
15.1811718038
 20
-8.8700793207
 10
15.191310731
 20
-8.8566042944
 10
15.2014383035
 20
-8.8435121912
 10
15.2115322175
 20
-8.8308195002
 10
15.2215769373
 20
-8.8185326423
 10
15.2315572113
 20
-8.8066568558
 10
15.2414508509
 20
-8.7952048367
 10
15.251242569
 20
-8.7841800288
 10
15.2609171394
 20
-8.7735850121
 10
15.2704523857
 20
-8.7634290881
 10
15.2798321406
 20
-8.7537141385
 10
15.289043056
 20
-8.7444384197
 10
15.2980673108
 20
-8.7356040186
 10
15.3068882589
 20
-8.7272111703
 10
15.3154943985
 20
-8.719254696
 10
15.323875531
 20
-8.711727938
 10
15.3320177724
 20
-8.7046272592
 10
15.3399078584
 20
-8.6979481374
 10
15.3475358506
 20
-8.6916828695
 10
15.354889046
 20
-8.6858256922
 10
15.3619537202
 20
-8.6803711827
 10
15.3687176509
 20
-8.6753123697
 10
15.3751690679
 20
-8.6706414827
 10
15.3812940911
 20
-8.6663517365
 10
15.3870766155
 20
-8.6624372219
 10
15.3925047237
 20
-8.6588885694
 10
15.3975664144
 20
-8.6556959537
 10
15.4022450348
 20
-8.6528517869
 10
15.4065271407
 20
-8.6503457307
 10
15.4104032004
 20
-8.6481646577
 10
15.4122657413
 20
-8.647148725
  0
LWPOLYLINE
  5
4D7
100
AcDbEntity
  8
RACCORDO
100
AcDbPolyline
 62
7
  6
CONTINUOUS
 90
40
 70
0
 10
23.4478433653
 20
0.979095914
 10
23.4247847158
 20
0.954095405
 10
23.4007654212
 20
0.9284913253
 10
23.3757854815
 20
0.9022836749
 10
23.3498688622
 20
0.8754888142
 10
23.3229915978
 20
0.8480903828
 10
23.2950817919
 20
0.8200392997
 10
23.2661421236
 20
0.7913370235
 10
23.2361699138
 20
0.7619820956
 10
23.2050852282
 20
0.7319210601
 10
23.17289398
 20
0.7011582616
 10
23.1395902561
 20
0.6696893556
 10
23.1050763824
 20
0.6374478519
 10
23.0693547998
 20
0.6044346366
 10
23.0324230674
 20
0.5706488236
 10
22.9941761883
 20
0.5360212648
 10
22.9546176377
 20
0.50055384
 10
22.9137439403
 20
0.4642446694
 10
22.8714396733
 20
0.4270189649
 10
22.8277078167
 20
0.3888781725
 10
22.7825453906
 20
0.3498208463
 10
22.7358280323
 20
0.3097678605
 10
22.6875603795
 20
0.2687220503
 10
22.6377377947
 20
0.2266805806
 10
22.5862220018
 20
0.1835558193
 10
22.5330170815
 20
0.1393500553
 10
22.4781189532
 20
0.0940609997
 10
22.4213770995
 20
0.0475941539
 10
22.3627961156
 20
-0.0000478131
 10
22.3023714062
 20
-0.0488675704
 10
22.2399386684
 20
-0.0989676235
 10
22.1755033001
 20
-0.150344727
 10
22.1090599034
 20
-0.2030021262
 10
22.0404279804
 20
-0.2570520631
 10
21.9696158325
 20
-0.3124891589
 10
21.8966151583
 20
-0.3693187922
 10
21.8212205558
 20
-0.4276693412
 10
21.7433635578
 20
-0.4875835984
 10
21.6631126315
 20
-0.5490187713
 10
21.5804677769
 20
-0.6119748597
  0
LWPOLYLINE
  5
4D8
100
AcDbEntity
  8
RACCORDO
100
AcDbPolyline
 62
250
  6
CONTINUOUS
 90
33
 70
0
 10
21.335951797
 20
-5.4511842141
 10
21.3427853701
 20
-5.4474055039
 10
21.3573252471
 20
-5.4387316924
 10
21.371488465
 20
-5.4293992717
 10
21.3852642726
 20
-5.4194153258
 10
21.3986422127
 20
-5.4087874334
 10
21.4116121304
 20
-5.3975236623
 10
21.4241641803
 20
-5.3856325624
 10
21.4362888341
 20
-5.3731231604
 10
21.4479768883
 20
-5.360004952
 10
21.4592194704
 20
-5.346287895
 10
21.4700080464
 20
-5.331982402
 10
21.4803344266
 20
-5.3170993323
 10
21.4901907725
 20
-5.3016499833
 10
21.4995696022
 20
-5.2856460825
 10
21.5084637963
 20
-5.2690997785
 10
21.5168666033
 20
-5.2520236312
 10
21.5247716446
 20
-5.2344306032
 10
21.5321729197
 20
-5.2163340491
 10
21.5390648103
 20
-5.1977477059
 10
21.5454420848
 20
-5.1786856822
 10
21.5512999022
 20
-5.1591624479
 10
21.556633816
 20
-5.139192823
 10
21.5614397773
 20
-5.1187919662
 10
21.5657141378
 20
-5.0979753636
 10
21.5694536529
 20
-5.076758817
 10
21.5726554841
 20
-5.0551584315
 10
21.5753172008
 20
-5.033190604
 10
21.5774367825
 20
-5.01087201
 10
21.5790126202
 20
-4.9882195913
 10
21.5800435179
 20
-4.9652505432
 10
21.5805286929
 20
-4.9419823013
 10
21.5804677769
 20
-4.9184325283
  0
LINE
  5
4D9
100
AcDbEntity
  8
RACCORDO
100
AcDbLine
 62
7
  6
CONTINUOUS
 10
15.4122682521
 20
-8.6471473859
 11
21.335951797
 21
-5.4511842141
  0
LINE
  5
4DA
100
AcDbEntity
  8
SMUSSO
100
AcDbLine
 62
7
  6
CONTINUOUS
 10
0.6637039037
 20
-18.6268278603
 11
0.6846863148
 21
-18.6155073682
  0
LWPOLYLINE
  5
4DB
100
AcDbEntity
  8
RACCORDO
100
AcDbPolyline
 62
250
  6
CONTINUOUS
 90
30
 70
0
 10
14.6328259128
 20
-9.9434058958
 10
14.6514870528
 20
-9.933476552
 10
14.6696001492
 20
-9.9232966532
 10
14.687151751
 20
-9.9128737591
 10
14.7041288242
 20
-9.9022156097
 10
14.7205187617
 20
-9.8913301199
 10
14.7363093922
 20
-9.8802253733
 10
14.7514889895
 20
-9.8689096164
 10
14.7660462811
 20
-9.8573912523
 10
14.7799704566
 20
-9.8456788346
 10
14.7932511761
 20
-9.8337810609
 10
14.805878577
 20
-9.8217067668
 10
14.8178432823
 20
-9.8094649186
 10
14.8291364069
 20
-9.7970646071
 10
14.8397495645
 20
-9.7845150409
 10
14.8496748736
 20
-9.7718255395
 10
14.8589049637
 20
-9.759005526
 10
14.8674329806
 20
-9.7460645207
 10
14.8752525911
 20
-9.7330121337
 10
14.8823579886
 20
-9.7198580577
 10
14.8887438964
 20
-9.7066120611
 10
14.8944055723
 20
-9.6932839803
 10
14.8993388121
 20
-9.6798837129
 10
14.9035399521
 20
-9.6664212101
 10
14.9070058728
 20
-9.652906469
 10
14.9097340001
 20
-9.6393495259
 10
14.9117223083
 20
-9.6257604483
 10
14.9129693209
 20
-9.6121493273
 10
14.9134741117
 20
-9.5985262708
 10
14.9134861124
 20
-9.5960767106
  0
LINE
  5
4DC
100
AcDbEntity
  8
SMUSSO
100
AcDbLine
 62
7
  6
CONTINUOUS
 10
1.4768767021
 20
-19.0116025618
 11
0.6637039037
 21
-19.4213242592
  0
LINE
  5
4DD
100
AcDbEntity
  8
RACCORDO
100
AcDbLine
 62
7
  6
CONTINUOUS
 10
0.6846863148
 20
-17.7278947455
 11
0.6637039037
 21
-17.7384198504
  0
LWPOLYLINE
  5
4DE
100
AcDbEntity
  8
RACCORDO
100
AcDbPolyline
 62
250
  6
CONTINUOUS
 90
13
 70
0
 10
-3.3079855337
 20
-18.9644164524
 10
-3.357442161
 20
-18.9857306699
 10
-3.4116682576
 20
-19.0037050664
 10
-3.4697767154
 20
-19.0180455911
 10
-3.5308169133
 20
-19.0285176411
 10
-3.5937902685
 20
-19.0349498998
 10
-3.6576665729
 20
-19.0372371389
 10
-3.7214008464
 20
-19.0353419406
 10
-3.7839504329
 20
-19.0292953093
 10
-3.8442920567
 20
-19.0191961644
 10
-3.9014385633
 20
-19.0052097221
 10
-3.9544550686
 20
-18.9875647927
 10
-4.0024742526
 20
-18.9665500371
  0
LINE
  5
4DF
100
AcDbEntity
  8
DRAFT
100
AcDbLine
 62
7
  6
CONTINUOUS
 10
-10.9416428984
 20
-20.3745438518
 11
-10.9601931491
 21
-20.3800597852
  0
LWPOLYLINE
  5
4E0
100
AcDbEntity
  8
0
100
AcDbPolyline
 62
7
  6
CONTINUOUS
 90
10
 70
0
 10
3.0816061452
 20
17.815383794
 10
3.0742401805
 20
17.8134336908
 10
3.0664737405
 20
17.8112046301
 10
3.0582947987
 20
17.8087089899
 10
3.0497125989
 20
17.8059535371
 10
3.0407479758
 20
17.8029426554
 10
3.0313991568
 20
17.7996869619
 10
3.0216737724
 20
17.7961939489
 10
3.0115913469
 20
17.7924670673
 10
3.0011660889
 20
17.7885112744
  0
LWPOLYLINE
  5
4E1
100
AcDbEntity
  8
0
100
AcDbPolyline
 62
7
  6
CONTINUOUS
 90
17
 70
0
 10
2.3807949858
 20
18.1152310235
 10
2.3924400072
 20
18.117878462
 10
2.4044316242
 20
18.1199228852
 10
2.4167652436
 20
18.121355195
 10
2.4294513761
 20
18.1221604827
 10
2.4424706023
 20
18.1223335249
 10
2.455819408
 20
18.1218646166
 10
2.4695356887
 20
18.1207287085
 10
2.4835995188
 20
18.1189227709
 10
2.4980087847
 20
18.1164304505
 10
2.5128333702
 20
18.1132000584
 10
2.5280801742
 20
18.1092170819
 10
2.5437208355
 20
18.1044671336
 10
2.5597749132
 20
18.0988925913
 10
2.5762331215
 20
18.0924746053
 10
2.5930740816
 20
18.085199576
 10
2.6117358957
 20
18.0762974394
  0
LINE
  5
4E2
100
AcDbEntity
  8
0
100
AcDbLine
 62
7
  6
CONTINUOUS
 10
-12.4074182015
 20
18.1982962719
 11
-11.7832226044
 21
18.0679636521
  0
LINE
  5
4E3
100
AcDbEntity
  8
0
100
AcDbLine
 62
250
  6
CONTINUOUS
 10
-12.180574708
 20
18.3541174327
 11
-11.4693540999
 21
18.2056139098
  0
LWPOLYLINE
  5
4E4
100
AcDbEntity
  8
0
100
AcDbPolyline
 62
250
  6
CONTINUOUS
 90
14
 70
0
 10
-11.8166608092
 20
20.9210053789
 10
-11.8235858277
 20
20.9233280373
 10
-11.8307269851
 20
20.9251340551
 10
-11.8380682241
 20
20.9264193715
 10
-11.8455930373
 20
20.9271810963
 10
-11.8532845046
 20
20.9274175168
 10
-11.8611253311
 20
20.9271281012
 10
-11.8690978862
 20
20.9263135004
 10
-11.8771842429
 20
20.9249755461
 10
-11.8853662186
 20
20.9231172468
 10
-11.8936254153
 20
20.920742781
 10
-11.9019432616
 20
20.9178574878
 10
-11.9103010543
 20
20.9144678551
 10
-11.9186800002
 20
20.9105815047
  0
LWPOLYLINE
  5
4E5
100
AcDbEntity
  8
0
100
AcDbPolyline
 62
7
  6
CONTINUOUS
 90
10
 70
0
 10
3.1269860495
 20
17.8186733865
 10
3.1240980837
 20
17.8197598178
 10
3.1205845519
 20
17.8204433363
 10
3.1164988429
 20
17.8207488386
 10
3.111874222
 20
17.820683426
 10
3.1067415639
 20
17.8202553725
 10
3.101121473
 20
17.8195026757
 10
3.095049464
 20
17.8184355667
 10
3.0885478874
 20
17.8170544756
 10
3.0816061452
 20
17.815383794
  0
LWPOLYLINE
  5
4E6
100
AcDbEntity
  8
RACCORDO
100
AcDbPolyline
 62
7
  6
CONTINUOUS
 90
21
 70
0
 10
-2.2724480109
 20
18.0211860561
 10
-2.284188511
 20
18.0266171529
 10
-2.2958639994
 20
18.0315997147
 10
-2.3074622316
 20
18.0361281639
 10
-2.3189701807
 20
18.0401975338
 10
-2.3303764527
 20
18.0438032191
 10
-2.3416712854
 20
18.0469408323
 10
-2.3528423462
 20
18.0496068413
 10
-2.3638777996
 20
18.0517980796
 10
-2.3747686841
 20
18.0535112299
 10
-2.3855028859
 20
18.0547442516
 10
-2.3960687753
 20
18.0554954219
 10
-2.4064582049
 20
18.0557624392
 10
-2.4166592173
 20
18.0555447892
 10
-2.4266606357
 20
18.0548422475
 10
-2.4364555974
 20
18.0536534897
 10
-2.4460326939
 20
18.0519794929
 10
-2.4553809599
 20
18.0498215205
 10
-2.4644943722
 20
18.047179307
 10
-2.4733614319
 20
18.0440556358
 10
-2.481972311
 20
18.0404532361
  0
LWPOLYLINE
  5
4E7
100
AcDbEntity
  8
0
100
AcDbPolyline
 62
7
  6
CONTINUOUS
 90
19
 70
0
 10
-1.1394183883
 20
18.6496254805
 10
-1.1603186856
 20
18.6597741377
 10
-1.1817616554
 20
18.6695984432
 10
-1.2037472978
 20
18.6790983969
 10
-1.2262948669
 20
18.6882813473
 10
-1.2493851086
 20
18.697139946
 10
-1.2729602604
 20
18.7056521477
 10
-1.2970218764
 20
18.7138172194
 10
-1.3215684025
 20
18.7216358942
 10
-1.3465374136
 20
18.7290883263
 10
-1.3719298858
 20
18.7361735563
 10
-1.3977448431
 20
18.7428925436
 10
-1.4239169322
 20
18.7492283206
 10
-1.4504470501
 20
18.755179921
 10
-1.4773342998
 20
18.7607483111
 10
-1.5045106366
 20
18.7659194213
 10
-1.5319533788
 20
18.7706885617
 10
-1.5596852081
 20
18.7750604223
 10
-1.5877061244
 20
18.779035003
  0
LWPOLYLINE
  5
4E8
100
AcDbEntity
  8
RACCORDO
100
AcDbPolyline
 62
7
  6
CONTINUOUS
 90
64
 70
0
 10
-1.1918923154
 20
18.1521760505
 10
-1.2030009429
 20
18.1575888597
 10
-1.2204469878
 20
18.1655451195
 10
-1.238360556
 20
18.1730738857
 10
-1.2567105886
 20
18.1801690557
 10
-1.2754880778
 20
18.1868362095
 10
-1.294705189
 20
18.1930883565
 10
-1.3143394513
 20
18.1989268335
 10
-1.3343688283
 20
18.2043548276
 10
-1.3548019367
 20
18.2093838974
 10
-1.3755877618
 20
18.2140109979
 10
-1.3967373445
 20
18.218248065
 10
-1.4183506334
 20
18.222119556
 10
-1.4403803256
 20
18.2256185705
 10
-1.4628442676
 20
18.2287493026
 10
-1.4859408902
 20
18.2315335169
 10
-1.5097415541
 20
18.2339656564
 10
-1.5341516078
 20
18.2360219346
 10
-1.5591185905
 20
18.2376869646
 10
-1.5847429706
 20
18.2389542438
 10
-1.6108969373
 20
18.2398038481
 10
-1.6371823496
 20
18.2402211869
 10
-1.6635664135
 20
18.2402130373
 10
-1.6900546952
 20
18.2397854559
 10
-1.7163072889
 20
18.2389559958
 10
-1.7422388096
 20
18.2377472476
 10
-1.7679160518
 20
18.2361744251
 10
-1.793229679
 20
18.2342617354
 10
-1.8181595143
 20
18.2320294459
 10
-1.8427142047
 20
18.2294943846
 10
-1.8668288033
 20
18.226680806
 10
-1.8904828009
 20
18.2236093013
 10
-1.913691402
 20
18.2202952538
 10
-1.9364435007
 20
18.2167567206
 10
-1.9587302474
 20
18.213011241
 10
-1.9805587713
 20
18.2090732216
 10
-2.0019409114
 20
18.2049552833
 10
-2.0228770663
 20
18.2006714702
 10
-2.0433667313
 20
18.1962356652
 10
-2.0634187626
 20
18.1916592978
 10
-2.0830353625
 20
18.1869547867
 10
-2.1022150495
 20
18.1821352103
 10
-2.1209594801
 20
18.177212724
 10
-2.1392795801
 20
18.1721967024
 10
-2.1571653351
 20
18.1671020312
 10
-2.1745861615
 20
18.1619501669
 10
-2.1915298421
 20
18.1567580927
 10
-2.2080115426
 20
18.1515344114
 10
-2.2240405709
 20
18.1462889778
 10
-2.2395953201
 20
18.1410418018
 10
-2.2546991691
 20
18.135797852
 10
-2.2694240643
 20
18.1305435645
 10
-2.2837686473
 20
18.1252898349
 10
-2.2977278936
 20
18.1200490442
 10
-2.3113605605
 20
18.1148089937
 10
-2.3246496435
 20
18.1095856084
 10
-2.33759533
 20
18.1043885294
 10
-2.3502719897
 20
18.0991968192
 10
-2.3626423123
 20
18.094034416
 10
-2.3747073837
 20
18.0889101674
 10
-2.3865814096
 20
18.0837838916
 10
-2.3982182149
 20
18.078683557
 10
-2.409584935
 20
18.0736328847
 10
-2.4318082383
 20
18.0635844261
  0
LINE
  5
4E9
100
AcDbEntity
  8
RACCORDO
100
AcDbLine
 62
7
  6
CONTINUOUS
 10
-2.2708430861
 20
18.0203995304
 11
-0.0628033522
 21
16.9163796635
  0
LINE
  5
4EA
100
AcDbEntity
  8
RACCORDO
100
AcDbLine
 62
250
  6
CONTINUOUS
 10
0.5649616525
 20
17.225789116
 11
-1.2813607573
 21
18.1489374137
  0
LINE
  5
4EB
100
AcDbEntity
  8
RACCORDO
100
AcDbLine
 62
7
  6
CONTINUOUS
 10
0.6132657907
 20
17.2495970008
 11
-1.1918956706
 21
18.1521777315
  0
LINE
  5
4EC
100
AcDbEntity
  8
0
100
AcDbLine
 62
7
  6
CONTINUOUS
 10
1.1407104122
 20
17.5095610802
 11
-1.1394183883
 21
18.6496254805
  0
LINE
  5
4ED
100
AcDbEntity
  8
0
100
AcDbLine
 62
7
  6
CONTINUOUS
 10
-0.4837392553
 20
19.3310184376
 11
2.1571856852
 21
18.0105559673
  0
LINE
  5
4EE
100
AcDbEntity
  8
0
100
AcDbLine
 62
7
  6
CONTINUOUS
 10
3.13200094
 20
17.5231483399
 11
3.1992169801
 21
17.4895403199
  0
LINE
  5
4EF
100
AcDbEntity
  8
0
100
AcDbLine
 62
250
  6
CONTINUOUS
 10
-3.2631715239
 20
20.8897973272
 11
-2.6222857502
 21
20.5693544403
  0
LINE
  5
4F0
100
AcDbEntity
  8
0
100
AcDbLine
 62
250
  6
CONTINUOUS
 10
2.3274617182
 20
18.0944807062
 11
2.9683474919
 21
17.7740378193
  0
LINE
  5
4F1
100
AcDbEntity
  8
0
100
AcDbLine
 62
7
  6
CONTINUOUS
 10
-2.9787102351
 20
20.8715214246
 11
-2.4634605717
 21
20.6138965929
  0
LINE
  5
4F2
100
AcDbEntity
  8
0
100
AcDbLine
 62
7
  6
CONTINUOUS
 10
2.6117363779
 20
18.0762981181
 11
3.1269860413
 21
17.8186732864
  0
LWPOLYLINE
  5
4F3
100
AcDbEntity
  8
RACCORDO
100
AcDbPolyline
 62
250
  6
CONTINUOUS
 90
58
 70
0
 10
21.8611279765
 20
4.6670048409
 10
21.8752022069
 20
4.6561298212
 10
21.9182331712
 20
4.6216991875
 10
21.9610304036
 20
4.5862686587
 10
22.0035746058
 20
4.5498542088
 10
22.0458465508
 20
4.5124722924
 10
22.0878271254
 20
4.4741398115
 10
22.1294973601
 20
4.4348740895
 10
22.1708384639
 20
4.3946928349
 10
22.2118318023
 20
4.3536141598
 10
22.2524588866
 20
4.3116565893
 10
22.2927013597
 20
4.2688390797
 10
22.332541032
 20
4.2251809844
 10
22.3719599054
 20
4.1807020284
 10
22.4109402004
 20
4.1354222751
 10
22.44946434
 20
4.0893621421
 10
22.487514945
 20
4.0425424071
 10
22.5250748266
 20
3.9949842184
 10
22.5621270147
 20
3.9467090635
 10
22.598654775
 20
3.8977387466
 10
22.6346416274
 20
3.8480953627
 10
22.6700713377
 20
3.797801307
 10
22.7049279177
 20
3.7468792742
 10
22.7391956265
 20
3.6953522595
 10
22.7728589886
 20
3.6432435327
 10
22.8059028049
 20
3.5905766215
 10
22.8383121622
 20
3.537375296
 10
22.8700724329
 20
3.4836635678
 10
22.9011692806
 20
3.4294656824
 10
22.931588667
 20
3.3748061064
 10
22.9613168612
 20
3.3197095122
 10
22.990340445
 20
3.2642007682
 10
23.0186463148
 20
3.2083049349
 10
23.046221689
 20
3.1520472526
 10
23.0730541163
 20
3.0954531246
 10
23.0991314881
 20
3.038548091
 10
23.1244420391
 20
2.9813578253
 10
23.1489743482
 20
2.9239081323
 10
23.1727173357
 20
2.8662249572
 10
23.1956602751
 20
2.8083343598
 10
23.2177928042
 20
2.7502624885
 10
23.2391049389
 20
2.6920355424
 10
23.2595870682
 20
2.6336797796
 10
23.2792299519
 20
2.5752215232
 10
23.2980247154
 20
2.5166871815
 10
23.315962864
 20
2.4581032099
 10
23.3330362946
 20
2.3994960772
 10
23.3492373077
 20
2.3408922165
 10
23.3645586003
 20
2.2823180459
 10
23.3789932613
 20
2.2237999806
 10
23.3925347668
 20
2.1653644627
 10
23.4051769946
 20
2.1070379119
 10
23.4169142331
 20
2.0488466858
 10
23.4277411915
 20
1.9908170244
 10
23.4376529903
 20
1.9329750795
 10
23.4466451564
 20
1.8753469478
 10
23.4547136267
 20
1.8179586583
 10
23.4618547581
 20
1.7608361172
  0
LINE
  5
4F4
100
AcDbEntity
  8
RACCORDO
100
AcDbLine
 62
7
  6
CONTINUOUS
 10
10.517249306
 20
13.5162486356
 11
9.4340540364
 21
15.3844841215
  0
LINE
  5
4F5
100
AcDbEntity
  8
0
100
AcDbLine
 62
250
  6
CONTINUOUS
 10
0.4812677048
 20
-28.1200493879
 11
-0.1410503273
 21
-28.8651088054
  0
LINE
  5
4F6
100
AcDbEntity
  8
0
100
AcDbLine
 62
250
  6
CONTINUOUS
 10
0.8343038928
 20
-28.2458192259
 11
0.1230832847
 21
-29.097315703
  0
LINE
  5
4F7
100
AcDbEntity
  8
DRAFT
100
AcDbLine
 62
7
  6
CONTINUOUS
 10
2.4668261957
 20
-23.2479993226
 11
2.6420601842
 21
-23.1008269196
  0
LINE
  5
4F8
100
AcDbEntity
  8
RACCORDO
100
AcDbLine
 62
7
  6
CONTINUOUS
 10
1.4768767021
 20
-22.5182351786
 11
0.6637039037
 21
-23.1731514091
  0
LINE
  5
4F9
100
AcDbEntity
  8
RACCORDO
100
AcDbLine
 62
7
  6
CONTINUOUS
 10
2.4668261957
 20
-23.2479993226
 11
1.6183007507
 21
-23.9313880034
  0
LINE
  5
4FA
100
AcDbEntity
  8
DRAFT
100
AcDbLine
 62
7
  6
CONTINUOUS
 10
0.6637039037
 20
-23.7751075288
 11
-1.0194349327
 21
-25.0936005647
  0
LINE
  5
4FB
100
AcDbEntity
  8
RACCORDO
100
AcDbLine
 62
250
  6
CONTINUOUS
 10
-1.9469688679
 20
18.1551615393
 11
-1.9370800168
 21
18.1579384292
  0
LINE
  5
4FC
100
AcDbEntity
  8
RACCORDO
100
AcDbLine
 62
250
  6
CONTINUOUS
 10
-1.9370800168
 20
18.1579384292
 11
-1.9270118805
 21
18.1606761635
  0
LWPOLYLINE
  5
4FD
100
AcDbEntity
  8
0
100
AcDbPolyline
 62
7
  6
CONTINUOUS
 90
10
 70
0
 10
-2.5097715472
 20
20.6103696325
 10
-2.5172260406
 20
20.608373563
 10
-2.5250853551
 20
20.6060970084
 10
-2.5333607541
 20
20.6035519614
 10
-2.54204279
 20
20.6007452046
 10
-2.5511108959
 20
20.5976813584
 10
-2.5605665068
 20
20.5943709363
 10
-2.5704018149
 20
20.5908214707
 10
-2.5805973452
 20
20.5870366107
 10
-2.5911388106
 20
20.583021434
  0
LINE
  5
4FE
100
AcDbEntity
  8
RACCORDO
100
AcDbLine
 62
250
  6
CONTINUOUS
 10
-1.9270118805
 20
18.1606761635
 11
-1.9167639427
 21
18.1633707422
  0
LWPOLYLINE
  5
4FF
100
AcDbEntity
  8
RACCORDO
100
AcDbPolyline
 62
250
  6
CONTINUOUS
 90
3
 70
0
 10
-1.9167639427
 20
18.1633707422
 10
-1.9063361569
 20
18.1660180284
 10
-1.9010548036
 20
18.1673234231
  0
LWPOLYLINE
  5
500
100
AcDbEntity
  8
RACCORDO
100
AcDbPolyline
 62
250
  6
CONTINUOUS
 90
3
 70
0
 10
-1.9010548036
 20
18.1673234231
 10
-1.8903575767
 20
18.1698934595
 10
-1.8849417032
 20
18.1711581011
  0
LWPOLYLINE
  5
501
100
AcDbEntity
  8
RACCORDO
100
AcDbPolyline
 62
250
  6
CONTINUOUS
 90
4
 70
0
 10
-1.8849417032
 20
18.1711581011
 10
-1.8739770799
 20
18.1736420962
 10
-1.8684283302
 20
18.1748614497
 10
-1.8628356988
 20
18.1760642321
  0
LWPOLYLINE
  5
502
100
AcDbEntity
  8
RACCORDO
100
AcDbPolyline
 62
250
  6
CONTINUOUS
 90
125
 70
0
 10
-1.8628356988
 20
18.1760642321
 10
-1.8515183339
 20
18.1784201727
 10
-1.8457949338
 20
18.1795716757
 10
-1.840027907
 20
18.1807051347
 10
-1.8342181033
 20
18.181820412
 10
-1.8283691772
 20
18.1829154838
 10
-1.8224801726
 20
18.1839904476
 10
-1.8165520456
 20
18.1850452058
 10
-1.8105913196
 20
18.1860774424
 10
-1.8045962268
 20
18.1870873053
 10
-1.7985685349
 20
18.1880746466
 10
-1.7925200712
 20
18.1890367062
 10
-1.7864500986
 20
18.189973377
 10
-1.7803593542
 20
18.1908847661
 10
-1.7742618762
 20
18.1917684352
 10
-1.7681566827
 20
18.1926242564
 10
-1.7620447555
 20
18.1934523575
 10
-1.7559430783
 20
18.1942506836
 10
-1.7498555542
 20
18.195018552
 10
-1.7437782801
 20
18.1957566454
 10
-1.7377165307
 20
18.1964649573
 10
-1.7316716716
 20
18.1971432994
 10
-1.7256423373
 20
18.1977918599
 10
-1.7196297057
 20
18.1984111969
 10
-1.7136334211
 20
18.1990013425
 10
-1.7076538393
 20
18.1995622644
 10
-1.7016932053
 20
18.2000944244
 10
-1.6957515464
 20
18.2005978071
 10
-1.6898288354
 20
18.2010724278
 10
-1.6839272361
 20
18.2015187945
 10
-1.6780468329
 20
18.2019368905
 10
-1.6721875414
 20
18.2023267324
 10
-1.6663512719
 20
18.2026888783
 10
-1.6605379896
 20
18.2030233204
 10
-1.6547477294
 20
18.2033300665
 10
-1.6489825057
 20
18.2036096976
 10
-1.6432421243
 20
18.2038622059
 10
-1.6375267794
 20
18.2040875993
 10
-1.6318390692
 20
18.2042864824
 10
-1.6261789504
 20
18.2044588324
 10
-1.6205464661
 20
18.2046046722
 10
-1.6149443446
 20
18.2047246752
 10
-1.609372813
 20
18.2048188165
 10
-1.603831644
 20
18.204887121
 10
-1.5983228845
 20
18.2049303372
 10
-1.5928467174
 20
18.2049484532
 10
-1.5874029598
 20
18.204941481
 10
-1.5819931096
 20
18.2049102053
 10
-1.5766172162
 20
18.2048546201
 10
-1.5712752303
 20
18.2047747313
 10
-1.5659685015
 20
18.2046713415
 10
-1.5606970354
 20
18.2045444442
 10
-1.5554608264
 20
18.2043940457
 10
-1.5502612081
 20
18.2042209679
 10
-1.5450982202
 20
18.2040252049
 10
-1.5399718229
 20
18.2038067624
 10
-1.5348832299
 20
18.2035664793
 10
-1.5298324943
 20
18.2033043515
 10
-1.5248195629
 20
18.2030203831
 10
-1.5198454908
 20
18.2027154241
 10
-1.5149103093
 20
18.2023894705
 10
-1.510013987
 20
18.2020425264
 10
-1.5051574845
 20
18.2016754544
 10
-1.5003407311
 20
18.2012882394
 10
-1.4955637975
 20
18.2008808965
 10
-1.4908278565
 20
18.200454333
 10
-1.4861331181
 20
18.2000085607
 10
-1.4814793722
 20
18.1995435678
 10
-1.4768671618
 20
18.1990602263
 10
-1.472296662
 20
18.1985585567
 10
-1.4677676977
 20
18.1980385384
 10
-1.463280286
 20
18.1975009822
 10
-1.4588344729
 20
18.1969459003
 10
-1.4544302126
 20
18.1963732804
 10
-1.4500673843
 20
18.195783897
 10
-1.4457459977
 20
18.195177758
 10
-1.4414660432
 20
18.1945548554
 10
-1.4372273713
 20
18.1939159399
 10
-1.4330299995
 20
18.1932610199
 10
-1.4288739103
 20
18.192590087
 10
-1.4247589016
 20
18.1919038656
 10
-1.4206850128
 20
18.1912023689
 10
-1.4166522045
 20
18.1904855838
 10
-1.4126601563
 20
18.1897541958
 10
-1.4087089406
 20
18.1890082272
 10
-1.4047984851
 20
18.1882476557
 10
-1.4009282528
 20
18.1874731001
 10
-1.3970982835
 20
18.1866845801
 10
-1.3933085376
 20
18.185882076
 10
-1.3895583591
 20
18.1850661472
 10
-1.3858477598
 20
18.1842368092
 10
-1.382176728
 20
18.1833940465
 10
-1.3785445732
 20
18.1825383724
 10
-1.374951323
 20
18.1816698073
 10
-1.3713969497
 20
18.1807883306
 10
-1.3678806801
 20
18.1798943939
 10
-1.3644025324
 20
18.1789880175
 10
-1.3609624883
 20
18.1780691811
 10
-1.3575597197
 20
18.1771382748
 10
-1.3541942278
 20
18.1761953158
 10
-1.3508660113
 20
18.1752402871
 10
-1.3475742383
 20
18.1742735278
 10
-1.3443189185
 20
18.1732950585
 10
-1.3411000422
 20
18.1723048585
 10
-1.3379167492
 20
18.1713032054
 10
-1.3347690451
 20
18.1702901202
 10
-1.3316569242
 20
18.1692655818
 10
-1.3285795096
 20
18.1682298043
 10
-1.325536793
 20
18.1671828054
 10
-1.3225287827
 20
18.1661245674
 10
-1.3195546259
 20
18.1650552504
 10
-1.3166143001
 20
18.1639748671
 10
-1.3137078278
 20
18.1628834048
 10
-1.3108344242
 20
18.1617809861
 10
-1.3079940576
 20
18.1606676193
 10
-1.3051867596
 20
18.159543296
 10
-1.30241184
 20
18.1584081139
 10
-1.2996692777
 20
18.1572620831
 10
-1.2969590938
 20
18.1561051934
 10
-1.2942806616
 20
18.1549375116
 10
-1.2916339704
 20
18.1537590549
 10
-1.289019031
 20
18.1525698062
 10
-1.2864352484
 20
18.1513697813
 10
-1.2838824244
 20
18.1501589856
 10
-1.2813607573
 20
18.1489374137
  0
LINE
  5
503
100
AcDbEntity
  8
0
100
AcDbLine
 62
7
  6
CONTINUOUS
 10
-0.4837392553
 20
19.3310184376
 11
1.2647446677
 21
19.4258375357
  0
LWPOLYLINE
  5
504
100
AcDbEntity
  8
0
100
AcDbPolyline
 62
7
  6
CONTINUOUS
 90
10
 70
0
 10
-2.4634606444
 20
20.6138957056
 10
-2.4666636373
 20
20.6150677254
 10
-2.4702496432
 20
20.6157144129
 10
-2.4744092777
 20
20.6159819842
 10
-2.4791087644
 20
20.6158777544
 10
-2.4843170199
 20
20.6154097591
 10
-2.4900142712
 20
20.6146161854
 10
-2.4961647493
 20
20.613507733
 10
-2.5027462649
 20
20.6120844116
 10
-2.5097715472
 20
20.6103696325
  0
LWPOLYLINE
  5
505
100
AcDbEntity
  8
0
100
AcDbPolyline
 62
7
  6
CONTINUOUS
 90
21
 70
0
 10
1.0048517303
 20
20.428370952
 10
0.994850597
 20
20.4331879471
 10
0.9752839415
 20
20.4415922068
 10
0.9551864919
 20
20.4489056158
 10
0.9345738984
 20
20.4551264978
 10
0.9135415559
 20
20.4602258196
 10
0.892101464
 20
20.4641963735
 10
0.8702416232
 20
20.4670453671
 10
0.8480214296
 20
20.4687653906
 10
0.8254271626
 20
20.4693533189
 10
0.8024725429
 20
20.4688122772
 10
0.779258129
 20
20.4671442309
 10
0.7557935307
 20
20.4643457395
 10
0.7320691383
 20
20.4604202437
 10
0.708156681
 20
20.4553800301
 10
0.6840476382
 20
20.4492196894
 10
0.6597505304
 20
20.441944631
 10
0.635362648
 20
20.4335833704
 10
0.6109164212
 20
20.4241454128
 10
0.5863794198
 20
20.413621253
 10
0.5617516438
 20
20.4020108911
  0
LWPOLYLINE
  5
506
100
AcDbEntity
  8
RACCORDO
100
AcDbPolyline
 62
250
  6
CONTINUOUS
 90
24
 70
0
 10
0.3283307607
 20
22.3363503966
 10
0.3079120017
 20
22.346333803
 10
0.2875000753
 20
22.3555711491
 10
0.2671122466
 20
22.3640546217
 10
0.24676576
 20
22.3717770452
 10
0.2264778253
 20
22.3787318879
 10
0.2062656026
 20
22.384913267
 10
0.1861461879
 20
22.3903159542
 10
0.1661365987
 20
22.3949353798
 10
0.1462537598
 20
22.3987676365
 10
0.1265144886
 20
22.4018094829
 10
0.1069354811
 20
22.4040583461
 10
0.0875332978
 20
22.4055123239
 10
0.0683243497
 20
22.4061701867
 10
0.0493248841
 20
22.4060313778
 10
0.0305509714
 20
22.4050960147
 10
0.0120184911
 20
22.4033648886
 10
-0.0062568815
 20
22.4008394637
 10
-0.0242596887
 20
22.3975218761
 10
-0.0419747031
 20
22.3934149319
 10
-0.0593869409
 20
22.3885221048
 10
-0.0764816743
 20
22.3828475334
 10
-0.0932444442
 20
22.3763960174
 10
-0.1105539898
 20
22.3687533316
  0
LINE
  5
507
100
AcDbEntity
  8
0
100
AcDbLine
 62
7
  6
CONTINUOUS
 10
1.2647446677
 20
19.4258375357
 11
4.175232499
 21
17.9705936201
  0
LINE
  5
508
100
AcDbEntity
  8
DRAFT
100
AcDbLine
 62
7
  6
CONTINUOUS
 10
8.8757066988
 20
15.6636577903
 11
9.4340540364
 21
15.3844841215
  0
LINE
  5
509
100
AcDbEntity
  8
DRAFT
100
AcDbLine
 62
250
  6
CONTINUOUS
 10
-2.4121925381
 20
21.888982982
 11
0.5617516438
 21
20.4020108911
  0
LINE
  5
50A
100
AcDbEntity
  8
DRAFT
100
AcDbLine
 62
250
  6
CONTINUOUS
 10
4.804392331
 20
18.2806905475
 11
7.7783365129
 21
16.7937184565
  0
LINE
  5
50B
100
AcDbEntity
  8
0
100
AcDbLine
 62
7
  6
CONTINUOUS
 10
-2.1229963719
 20
21.9922943825
 11
1.004851482
 21
20.4283704555
  0
LINE
  5
50C
100
AcDbEntity
  8
0
100
AcDbLine
 62
7
  6
CONTINUOUS
 10
5.2474921692
 20
18.3070501119
 11
8.3753400231
 21
16.743126185
  0
LINE
  5
50D
100
AcDbEntity
  8
RACCORDO
100
AcDbLine
 62
250
  6
CONTINUOUS
 10
6.2329502923
 20
19.3840406308
 11
0.3283307607
 21
22.3363503966
  0
LINE
  5
50E
100
AcDbEntity
  8
RACCORDO
100
AcDbLine
 62
7
  6
CONTINUOUS
 10
6.6707258173
 20
19.4049638188
 11
0.7632036413
 21
22.3587137262
  0
LWPOLYLINE
  5
50F
100
AcDbEntity
  8
SMUSSO
100
AcDbPolyline
 62
7
  6
CONTINUOUS
 90
49
 70
0
 10
11.097138207
 20
18.3779578012
 10
11.0715325484
 20
18.4160854634
 10
11.0494469165
 20
18.4518290733
 10
11.0290689514
 20
18.4877803836
 10
11.0103997032
 20
18.5239433696
 10
10.9934381217
 20
18.5603140559
 10
10.9782148906
 20
18.5968264748
 10
10.964734641
 20
18.6334759018
 10
10.9529927418
 20
18.6702670614
 10
10.943005983
 20
18.707148158
 10
10.9347758787
 20
18.7441250662
 10
10.9283009148
 20
18.7811919116
 10
10.9235933394
 20
18.8182792749
 10
10.9206566174
 20
18.855381045
 10
10.9194872838
 20
18.8925033329
 10
10.9200871916
 20
18.9295950527
 10
10.9224593253
 20
18.9666620117
 10
10.9266007003
 20
19.0036984025
 10
10.9325042156
 20
19.0406357167
 10
10.9401720191
 20
19.0774689889
 10
10.9496019628
 20
19.1142031845
 10
10.9607805017
 20
19.1507846914
 10
10.9737115357
 20
19.1872169362
 10
10.988391165
 20
19.2234964922
 10
11.0047941444
 20
19.2595594677
 10
11.0229223405
 20
19.295403116
 10
11.0427738867
 20
19.3310301837
 10
11.0643179386
 20
19.3663850193
 10
11.0875578623
 20
19.4014683799
 10
11.1124902917
 20
19.4362795083
 10
11.1390742843
 20
19.4707604825
 10
11.1673125511
 20
19.5049105776
 10
11.197202381
 20
19.5387305184
 10
11.2286946981
 20
19.5721645565
 10
11.2617915266
 20
19.6052115375
 10
11.2964908422
 20
19.6378726158
 10
11.3327374959
 20
19.6700955057
 10
11.3705351435
 20
19.7018804082
 10
11.4098801292
 20
19.7332271224
 10
11.450706336
 20
19.7640827593
 10
11.4930148732
 20
19.7944455296
 10
11.5368046313
 20
19.8243172227
 10
11.5820061653
 20
19.8536503173
 10
11.6286218826
 20
19.8824441996
 10
11.6766493757
 20
19.9106994834
 10
11.7260119766
 20
19.9383704891
 10
11.7766841293
 20
19.9654419903
 10
11.8286913898
 20
19.9919292133
 10
11.8820337582
 20
20.0178321584
  0
LINE
  5
510
100
AcDbEntity
  8
SMUSSO
100
AcDbLine
 62
250
  6
CONTINUOUS
 10
11.8820337582
 20
20.0178321584
 11
12.2248997761
 21
19.0858260054
  0
LINE
  5
511
100
AcDbEntity
  8
0
100
AcDbLine
 62
7
  6
CONTINUOUS
 10
13.6355517299
 20
17.7877078978
 11
13.4340523719
 21
18.3834323236
  0
LWPOLYLINE
  5
512
100
AcDbEntity
  8
RACCORDO
100
AcDbPolyline
 62
7
  6
CONTINUOUS
 90
4
 70
0
 10
23.5320414252
 20
1.8515200383
 10
23.532013961
 20
1.8533570167
 10
23.5317452359
 20
1.8575415893
 10
23.5316111155
 20
1.8587736997
  0
LWPOLYLINE
  5
513
100
AcDbEntity
  8
RACCORDO
100
AcDbPolyline
 62
7
  6
CONTINUOUS
 90
31
 70
0
 10
21.8611279687
 20
17.3684119271
 10
21.860832626
 20
17.4033698467
 10
21.859688202
 20
17.4457970313
 10
21.8576894666
 20
17.4882874122
 10
21.8548427291
 20
17.530846191
 10
21.8511554481
 20
17.5734529791
 10
21.8466385271
 20
17.6160584877
 10
21.841299898
 20
17.6586566322
 10
21.8351467824
 20
17.7012396932
 10
21.828193668
 20
17.7437538203
 10
21.8204491203
 20
17.7861924629
 10
21.8119206331
 20
17.8285490623
 10
21.8026264807
 20
17.870768176
 10
21.7925761452
 20
17.9128410741
 10
21.7817772684
 20
17.9547635092
 10
21.7702499622
 20
17.9964853843
 10
21.7580062154
 20
18.0379905356
 10
21.7450519996
 20
18.0792824367
 10
21.7314003556
 20
18.1203391695
 10
21.7170603394
 20
18.1611510671
 10
21.7020384655
 20
18.2017145727
 10
21.686344194
 20
18.2420156203
 10
21.6699842826
 20
18.2820471234
 10
21.6529645513
 20
18.3218021632
 10
21.6352937516
 20
18.3612660497
 10
21.6169777126
 20
18.4004304645
 10
21.598020762
 20
18.4392882286
 10
21.5784296588
 20
18.4778267123
 10
21.5582087442
 20
18.5160368738
 10
21.5373612455
 20
18.5539110222
 10
21.51916053
 20
18.5858162065
  0
LWPOLYLINE
  5
514
100
AcDbEntity
  8
RACCORDO
100
AcDbPolyline
 62
250
  6
CONTINUOUS
 90
37
 70
0
 10
21.5804677769
 20
17.0210842516
 10
21.5802378479
 20
17.0590865277
 10
21.5793293643
 20
17.0974040806
 10
21.5777427182
 20
17.1360186507
 10
21.575478593
 20
17.1749117489
 10
21.5725380678
 20
17.2140649349
 10
21.5689226048
 20
17.2534598312
 10
21.5646338779
 20
17.293077795
 10
21.5596738927
 20
17.3328998428
 10
21.5540450884
 20
17.3729069314
 10
21.5477501376
 20
17.4130799548
 10
21.5407919961
 20
17.4533998408
 10
21.5331740113
 20
17.4938474782
 10
21.5248997976
 20
17.5344036178
 10
21.5159732677
 20
17.5750489499
 10
21.5063986842
 20
17.6157641988
 10
21.4961805917
 20
17.6565300208
 10
21.4853238405
 20
17.697326983
 10
21.473833614
 20
17.7381356419
 10
21.4617153866
 20
17.7789365848
 10
21.4489749165
 20
17.8197103952
 10
21.4356182692
 20
17.8604376319
 10
21.4216518277
 20
17.9010988971
 10
21.407082231
 20
17.9416748742
 10
21.3919163672
 20
17.9821462934
 10
21.3761614766
 20
18.0224939109
 10
21.359825065
 20
18.0626985355
 10
21.3429148393
 20
18.102741066
 10
21.3254388506
 20
18.1426025266
 10
21.3074054545
 20
18.1822639001
 10
21.2888232261
 20
18.2217061558
 10
21.2697011069
 20
18.2609104364
 10
21.2500481738
 20
18.2998582193
 10
21.2298735922
 20
18.3385311461
 10
21.2091869204
 20
18.3769108843
 10
21.1879981155
 20
18.4149791418
 10
21.1663173012
 20
18.4527178263
  0
LINE
  5
515
100
AcDbEntity
  8
DRAFT
100
AcDbLine
 62
250
  6
CONTINUOUS
 10
21.5804677769
 20
-4.9184325283
 11
21.5804677769
 21
-0.6119748597
  0
LINE
  5
516
100
AcDbEntity
  8
DRAFT
100
AcDbLine
 62
250
  6
CONTINUOUS
 10
21.5804677769
 20
1.4146685171
 11
21.5804677769
 21
11.3391757125
  0
LINE
  5
517
100
AcDbEntity
  8
DRAFT
100
AcDbLine
 62
250
  6
CONTINUOUS
 10
21.5804677769
 20
13.3658190893
 11
21.5804677769
 21
17.0210842516
  0
LINE
  5
518
100
AcDbEntity
  8
RACCORDO
100
AcDbLine
 62
7
  6
CONTINUOUS
 10
21.8611279765
 20
-4.5711033431
 11
21.8611279765
 21
-0.6577942145
  0
LINE
  5
519
100
AcDbEntity
  8
RACCORDO
100
AcDbLine
 62
7
  6
CONTINUOUS
 10
21.8611279765
 20
2.1551462424
 11
21.8611279765
 21
11.2933563577
  0
LINE
  5
51A
100
AcDbEntity
  8
RACCORDO
100
AcDbLine
 62
7
  6
CONTINUOUS
 10
21.8611279765
 20
14.1062968146
 11
21.8611279765
 21
17.3684134369
  0
LINE
  5
51B
100
AcDbEntity
  8
RACCORDO
100
AcDbLine
 62
250
  6
CONTINUOUS
 10
23.4478433653
 20
13.7084723447
 11
23.4478433653
 21
12.9302464862
  0
LINE
  5
51C
100
AcDbEntity
  8
RACCORDO
100
AcDbLine
 62
250
  6
CONTINUOUS
 10
23.4478433653
 20
1.7573217725
 11
23.4478433653
 21
0.979095914
  0
LINE
  5
51D
100
AcDbEntity
  8
RACCORDO
100
AcDbLine
 62
7
  6
CONTINUOUS
 10
23.5320414252
 20
13.8026706535
 11
23.5320414252
 21
13.0444456886
  0
LINE
  5
51E
100
AcDbEntity
  8
RACCORDO
100
AcDbLine
 62
7
  6
CONTINUOUS
 10
23.5320414252
 20
1.8515200812
 11
23.5320414252
 21
1.0932951163
  0
LWPOLYLINE
  5
51F
100
AcDbEntity
  8
DRAFT
100
AcDbPolyline
 62
7
  6
CONTINUOUS
 90
43
 70
0
 10
21.8611279764
 20
14.1063020775
 10
21.8610580527
 20
14.0897422674
 10
21.8602240218
 20
14.0468770727
 10
21.8585186439
 20
14.0057260387
 10
21.85603688
 20
13.966429642
 10
21.8528601522
 20
13.9288661236
 10
21.849067043
 20
13.8930590383
 10
21.8447469586
 20
13.8591117542
 10
21.839966106
 20
13.8269271825
 10
21.8347462581
 20
13.796227221
 10
21.8291328227
 20
13.7669725631
 10
21.8231851786
 20
13.7392040833
 10
21.8169197231
 20
13.7127649735
 10
21.8103700846
 20
13.687630638
 10
21.8035834589
 20
13.6638241284
 10
21.7965845568
 20
13.6412605013
 10
21.7894072365
 20
13.6199408046
 10
21.7820869205
 20
13.5998595703
 10
21.774644925
 20
13.5809220518
 10
21.7671161389
 20
13.5631396838
 10
21.7595253422
 20
13.5464946013
 10
21.7518725507
 20
13.5308485976
 10
21.7441847565
 20
13.5162018219
 10
21.7364824643
 20
13.5025474275
 10
21.7287482687
 20
13.4897379949
 10
21.7210055199
 20
13.4777715189
 10
21.7132669809
 20
13.466644017
 10
21.7054907641
 20
13.4562070801
 10
21.697684783
 20
13.4464445177
 10
21.6898653028
 20
13.4373684989
 10
21.6819951717
 20
13.4288752823
 10
21.6740862467
 20
13.4209582557
 10
21.6661434684
 20
13.4136214034
 10
21.6581126083
 20
13.4067790059
 10
21.6499920814
 20
13.4004175452
 10
21.641792382
 20
13.3945501634
 10
21.6334716511
 20
13.3891331944
 10
21.6250356994
 20
13.3841616652
 10
21.6164832478
 20
13.3796416568
 10
21.6077568451
 20
13.375548105
 10
21.5988358919
 20
13.3718743251
 10
21.5897396318
 20
13.3686307313
 10
21.5804677769
 20
13.3658190893
  0
LWPOLYLINE
  5
520
100
AcDbEntity
  8
DRAFT
100
AcDbPolyline
 62
7
  6
CONTINUOUS
 90
43
 70
0
 10
21.8611279764
 20
2.1551515052
 10
21.8610580527
 20
2.1385916952
 10
21.8602240218
 20
2.0957265005
 10
21.8585186439
 20
2.0545754664
 10
21.85603688
 20
2.0152790698
 10
21.8528601522
 20
1.9777155514
 10
21.849067043
 20
1.941908466
 10
21.8447469586
 20
1.907961182
 10
21.839966106
 20
1.8757766103
 10
21.8347462581
 20
1.8450766487
 10
21.8291328227
 20
1.8158219909
 10
21.8231851786
 20
1.7880535111
 10
21.8169197231
 20
1.7616144013
 10
21.8103700846
 20
1.7364800658
 10
21.8035834589
 20
1.7126735562
 10
21.7965845568
 20
1.6901099291
 10
21.7894072365
 20
1.6687902324
 10
21.7820869205
 20
1.6487089981
 10
21.774644925
 20
1.6297714796
 10
21.7671161389
 20
1.6119891115
 10
21.7595253422
 20
1.5953440291
 10
21.7518725507
 20
1.5796980254
 10
21.7441847565
 20
1.5650512496
 10
21.7364824643
 20
1.5513968553
 10
21.7287482687
 20
1.5385874227
 10
21.7210055199
 20
1.5266209467
 10
21.7132669809
 20
1.5154934448
 10
21.7054907641
 20
1.5050565078
 10
21.697684783
 20
1.4952939455
 10
21.6898653028
 20
1.4862179267
 10
21.6819951717
 20
1.4777247101
 10
21.6740862467
 20
1.4698076834
 10
21.6661434684
 20
1.4624708312
 10
21.6581126083
 20
1.4556284337
 10
21.6499920814
 20
1.449266973
 10
21.641792382
 20
1.4433995912
 10
21.6334716511
 20
1.4379826222
 10
21.6250356994
 20
1.433011093
 10
21.6164832478
 20
1.4284910846
 10
21.6077568451
 20
1.4243975328
 10
21.5988358919
 20
1.4207237529
 10
21.5897396318
 20
1.417480159
 10
21.5804677769
 20
1.4146685171
  0
LWPOLYLINE
  5
521
100
AcDbEntity
  8
RACCORDO
100
AcDbPolyline
 62
7
  6
CONTINUOUS
 90
4
 70
0
 10
23.5312428989
 20
13.0325172803
 10
23.531691635
 20
13.0365391165
 10
23.5319961151
 20
13.0415952827
 10
23.5320414252
 20
13.0444457289
  0
LWPOLYLINE
  5
522
100
AcDbEntity
  8
RACCORDO
100
AcDbPolyline
 62
7
  6
CONTINUOUS
 90
4
 70
0
 10
23.5312428989
 20
1.0813667081
 10
23.531691635
 20
1.0853885443
 10
23.5319961151
 20
1.0904447105
 10
23.5320414252
 20
1.0932951566
  0
LWPOLYLINE
  5
523
100
AcDbEntity
  8
RACCORDO
100
AcDbPolyline
 62
250
  6
CONTINUOUS
 90
33
 70
0
 10
23.4618547581
 20
12.9422933697
 10
23.4547136266
 20
12.8923119594
 10
23.4466451563
 20
12.8429921402
 10
23.4376529903
 20
12.794356175
 10
23.4277411918
 20
12.7464260304
 10
23.4169142339
 20
12.6992233293
 10
23.4051769958
 20
12.6527693431
 10
23.3925347682
 20
12.6070850202
 10
23.3789932627
 20
12.5621910075
 10
23.3645586018
 20
12.5181076032
 10
23.3492373098
 20
12.4748547262
 10
23.3330362973
 20
12.4324518803
 10
23.3159628674
 20
12.3909181791
 10
23.2980247191
 20
12.3502723563
 10
23.2792299558
 20
12.3105327777
 10
23.2595870723
 20
12.271717405
 10
23.2391049437
 20
12.2338437723
 10
23.2177928099
 20
12.1969289619
 10
23.1956602816
 20
12.1609896205
 10
23.1727173427
 20
12.1260419624
 10
23.1489743555
 20
12.0921017745
 10
23.1244420468
 20
12.0591843906
 10
23.0991314966
 20
12.0273046763
 10
23.0730541258
 20
11.996477015
 10
23.0462216994
 20
11.9667153146
 10
23.0186463259
 20
11.9380330065
 10
22.9903404565
 20
11.9104430428
 10
22.9613168733
 20
11.8839578824
 10
22.93158868
 20
11.8585894824
 10
22.9011692946
 20
11.8343492928
 10
22.8700724479
 20
11.811248255
 10
22.838312178
 20
11.7892967974
 10
22.8256751422
 20
11.7810017449
  0
LWPOLYLINE
  5
524
100
AcDbEntity
  8
RACCORDO
100
AcDbPolyline
 62
250
  6
CONTINUOUS
 90
33
 70
0
 10
23.4618547581
 20
0.9911427975
 10
23.4547136266
 20
0.9411613866
 10
23.4466451561
 20
0.8918415669
 10
23.43765299
 20
0.8432056012
 10
23.4277411913
 20
0.7952754561
 10
23.4169142333
 20
0.7480727545
 10
23.405176995
 20
0.7016187678
 10
23.3925347672
 20
0.6559344445
 10
23.3789932614
 20
0.6110404313
 10
23.3645586003
 20
0.5669570267
 10
23.349237308
 20
0.5237041493
 10
23.3330362953
 20
0.481301303
 10
23.3159628651
 20
0.4397676015
 10
23.2980247164
 20
0.3991217783
 10
23.2792299528
 20
0.3593821994
 10
23.259587069
 20
0.3205668264
 10
23.23910494
 20
0.2826931934
 10
23.2177928058
 20
0.2457783829
 10
23.1956602771
 20
0.2098390412
 10
23.1727173378
 20
0.1748913829
 10
23.1489743502
 20
0.1409511949
 10
23.124442041
 20
0.1080338109
 10
23.0991314904
 20
0.0761540965
 10
23.0730541191
 20
0.0453264351
 10
23.0462216922
 20
0.0155647346
 10
23.0186463182
 20
-0.0131175735
 10
22.9903404483
 20
-0.0407075372
 10
22.9613168646
 20
-0.0671926976
 10
22.9315886707
 20
-0.0925610975
 10
22.9011692847
 20
-0.116801287
 10
22.8700724375
 20
-0.1399023247
 10
22.838312167
 20
-0.1618537822
 10
22.8256751422
 20
-0.1701488273
  0
LWPOLYLINE
  5
525
100
AcDbEntity
  8
0
100
AcDbPolyline
 62
7
  6
CONTINUOUS
 90
20
 70
0
 10
2.3461804151
 20
-27.215499406
 10
2.3546136479
 20
-27.2072537982
 10
2.3626844243
 20
-27.1984102594
 10
2.3703681039
 20
-27.1889886556
 10
2.3776366866
 20
-27.1790212939
 10
2.3844791581
 20
-27.1685250902
 10
2.3908879236
 20
-27.1575135117
 10
2.396845702
 20
-27.1460206386
 10
2.4023384486
 20
-27.1340847143
 10
2.4073709632
 20
-27.121707337
 10
2.4119528811
 20
-27.1088662679
 10
2.4160811287
 20
-27.0955602125
 10
2.4197419636
 20
-27.081822467
 10
2.422926439
 20
-27.0676801806
 10
2.4256307546
 20
-27.0531438444
 10
2.4278482427
 20
-27.0382413421
 10
2.4295711701
 20
-27.0230300826
 10
2.4307990172
 20
-27.0075456922
 10
2.4315345073
 20
-26.9917992203
 10
2.4317793981
 20
-26.9758139917
  0
LWPOLYLINE
  5
526
100
AcDbEntity
  8
RACCORDO
100
AcDbPolyline
 62
250
  6
CONTINUOUS
 90
34
 70
0
 10
14.2822317281
 20
-17.900002942
 10
14.3024063097
 20
-17.8813233095
 10
14.3220592428
 20
-17.8618593828
 10
14.341181362
 20
-17.8416202786
 10
14.3597635904
 20
-17.8206155764
 10
14.3777969865
 20
-17.7988553452
 10
14.3952729752
 20
-17.7763499753
 10
14.4121832009
 20
-17.753110223
 10
14.4285196125
 20
-17.7291471342
 10
14.4442745031
 20
-17.7044720591
 10
14.4594403669
 20
-17.6790967439
 10
14.4740099636
 20
-17.6530332759
 10
14.4879764051
 20
-17.6262940093
 10
14.5013330524
 20
-17.5988916459
 10
14.5140735225
 20
-17.5708392489
 10
14.5261917499
 20
-17.5421501853
 10
14.5376819764
 20
-17.5128381011
 10
14.5485387276
 20
-17.4829169467
 10
14.5587568201
 20
-17.4524009911
 10
14.5683314036
 20
-17.4213047686
 10
14.5772579335
 20
-17.389643054
 10
14.5855321472
 20
-17.3574308879
 10
14.593150132
 20
-17.3246835834
 10
14.6001082735
 20
-17.2914167147
 10
14.6064032243
 20
-17.2576460895
 10
14.6120320286
 20
-17.2233877033
 10
14.6169920138
 20
-17.1886578943
 10
14.6212807407
 20
-17.1534733324
 10
14.6248962037
 20
-17.117850842
 10
14.6278367289
 20
-17.0818072579
 10
14.6301008541
 20
-17.0453595723
 10
14.6316875002
 20
-17.0085250534
 10
14.6325959838
 20
-16.9713212443
 10
14.6328259128
 20
-16.9337658172
  0
LWPOLYLINE
  5
527
100
AcDbEntity
  8
RACCORDO
100
AcDbPolyline
 62
250
  6
CONTINUOUS
 90
4
 70
0
 10
14.2186754371
 20
-17.9512489162
 10
14.2403562514
 20
-17.9349741261
 10
14.2615450563
 20
-17.9178894136
 10
14.2822317281
 20
-17.900002942
  0
LWPOLYLINE
  5
528
100
AcDbEntity
  8
RACCORDO
100
AcDbPolyline
 62
7
  6
CONTINUOUS
 90
40
 70
0
 10
14.2932531033
 20
-17.9048794711
 10
14.3138193755
 20
-17.8896822709
 10
14.341860415
 20
-17.8679921833
 10
14.3694102214
 20
-17.8455351748
 10
14.3964408645
 20
-17.8223287708
 10
14.4229393533
 20
-17.7983790424
 10
14.4489069831
 20
-17.7736784331
 10
14.4743239133
 20
-17.7482382443
 10
14.4991708964
 20
-17.7220702016
 10
14.5234486869
 20
-17.6951644284
 10
14.5471381372
 20
-17.6675318113
 10
14.5702195096
 20
-17.6391851478
 10
14.5926910004
 20
-17.6101146708
 10
14.6145341303
 20
-17.5803304227
 10
14.6357290278
 20
-17.5498460888
 10
14.6562703626
 20
-17.5186543416
 10
14.6761393291
 20
-17.486766656
 10
14.6953175986
 20
-17.45419529
 10
14.7137994442
 20
-17.4209311264
 10
14.7315653823
 20
-17.3869878939
 10
14.7485987859
 20
-17.3523751446
 10
14.7648965006
 20
-17.3170739946
 10
14.780442291
 20
-17.2810896494
 10
14.7952153352
 20
-17.2444384012
 10
14.8092042258
 20
-17.207114468
 10
14.8223966991
 20
-17.1691109547
 10
14.8347683756
 20
-17.1304549987
 10
14.8462927569
 20
-17.0911899903
 10
14.8569558494
 20
-17.0513256303
 10
14.8667431111
 20
-17.010873345
 10
14.8756336606
 20
-16.9698781837
 10
14.8836168764
 20
-16.9283484506
 10
14.8906811095
 20
-16.8862960908
 10
14.8968102663
 20
-16.8437707831
 10
14.9019962136
 20
-16.8007818533
 10
14.9062303132
 20
-16.7573392832
 10
14.9095015957
 20
-16.7134923354
 10
14.9118032664
 20
-16.6692625334
 10
14.9131299891
 20
-16.6246467089
 10
14.9134861046
 20
-16.5864376529
  0
LINE
  5
529
100
AcDbEntity
  8
RACCORDO
100
AcDbLine
 62
7
  6
CONTINUOUS
 10
3.785087334
 20
-23.4474286491
 11
3.1327153518
 21
-23.9202318974
  0
LINE
  5
52A
100
AcDbEntity
  8
DRAFT
100
AcDbLine
 62
7
  6
CONTINUOUS
 10
4.1841192825
 20
-23.1582322909
 11
3.1327153518
 21
-23.9202318974
  0
LINE
  5
52B
100
AcDbEntity
  8
RACCORDO
100
AcDbLine
 62
7
  6
CONTINUOUS
 10
9.4340540364
 20
-20.7287752163
 11
10.517249306
 21
-19.943735
  0
LINE
  5
52C
100
AcDbEntity
  8
RACCORDO
100
AcDbLine
 62
250
  6
CONTINUOUS
 10
14.0394723512
 20
-18.0811254336
 11
14.2186754371
 21
-17.9512489162
  0
LINE
  5
52D
100
AcDbEntity
  8
RACCORDO
100
AcDbLine
 62
7
  6
CONTINUOUS
 10
14.1140399452
 20
-18.0347633008
 11
14.2932430312
 21
-17.9048867834
  0
LWPOLYLINE
  5
52E
100
AcDbEntity
  8
RACCORDO
100
AcDbPolyline
 62
250
  6
CONTINUOUS
 90
13
 70
0
 10
-2.5875132886
 20
-28.7139264616
 10
-2.6364687071
 20
-28.7422036452
 10
-2.690204173
 20
-28.7670253725
 10
-2.7478401662
 20
-28.7879853716
 10
-2.8084333245
 20
-28.8047405779
 10
-2.870991884
 20
-28.8170167492
 10
-2.9344919121
 20
-28.8246129541
 10
-2.9978940664
 20
-28.827404861
 10
-3.0601606066
 20
-28.8253467732
 10
-3.1202723796
 20
-28.8184723766
 10
-3.1772455006
 20
-28.8068941885
 10
-3.2301474571
 20
-28.7908017158
 10
-3.2781123716
 20
-28.7704583536
  0
LWPOLYLINE
  5
52F
100
AcDbEntity
  8
RACCORDO
100
AcDbPolyline
 62
250
  6
CONTINUOUS
 90
29
 70
0
 10
14.6514870513
 20
-16.9238364742
 10
14.6696001462
 20
-16.9136565763
 10
14.6871517467
 20
-16.903233683
 10
14.7041288189
 20
-16.8925755345
 10
14.7205187554
 20
-16.8816900456
 10
14.7363093851
 20
-16.8705852999
 10
14.7514889817
 20
-16.8592695438
 10
14.7660462727
 20
-16.8477511805
 10
14.7799704479
 20
-16.8360387635
 10
14.7932511671
 20
-16.8241409907
 10
14.8058785679
 20
-16.8120666973
 10
14.8178432731
 20
-16.7998248497
 10
14.8291363978
 20
-16.7874245389
 10
14.8397495555
 20
-16.7748749734
 10
14.8496748649
 20
-16.7621854725
 10
14.8589049553
 20
-16.7493654596
 10
14.8674329726
 20
-16.7364244548
 10
14.8752525836
 20
-16.7233720682
 10
14.8823579816
 20
-16.7102179927
 10
14.8887438901
 20
-16.6969719964
 10
14.8944055667
 20
-16.6836439159
 10
14.8993388072
 20
-16.6702436488
 10
14.903539948
 20
-16.6567811461
 10
14.9070058694
 20
-16.6432664052
 10
14.9097339976
 20
-16.6297094623
 10
14.9117223066
 20
-16.6161203846
 10
14.9129693199
 20
-16.6025092637
 10
14.9134741115
 20
-16.5888862071
 10
14.9134861124
 20
-16.5864376529
  0
LWPOLYLINE
  5
530
100
AcDbEntity
  8
RACCORDO
100
AcDbPolyline
 62
250
  6
CONTINUOUS
 90
4
 70
0
 10
13.9946844212
 20
-18.1090601276
 10
14.0098324197
 20
-18.1005888306
 10
14.0248628507
 20
-18.091223447
 10
14.0394723512
 20
-18.0811254336
  0
LWPOLYLINE
  5
531
100
AcDbEntity
  8
RACCORDO
100
AcDbPolyline
 62
250
  6
CONTINUOUS
 90
5
 70
0
 10
14.2186754371
 20
-17.9512489162
 10
14.2375119525
 20
-17.9408887083
 10
14.2559540692
 20
-17.9299004712
 10
14.2739880922
 20
-17.9182923647
 10
14.2932430312
 20
-17.9048867834
  0
LWPOLYLINE
  5
532
100
AcDbEntity
  8
RACCORDO
100
AcDbPolyline
 62
250
  6
CONTINUOUS
 90
5
 70
0
 10
14.0394723512
 20
-18.0811254336
 10
14.0583088665
 20
-18.0707652258
 10
14.0767509832
 20
-18.0597769887
 10
14.094785006
 20
-18.0481688823
 10
14.1140399452
 20
-18.0347633008
  0
LINE
  5
533
100
AcDbEntity
  8
RACCORDO
100
AcDbLine
 62
250
  6
CONTINUOUS
 10
14.0394723512
 20
-18.0811254336
 11
10.517249306
 21
-19.943735
  0
LINE
  5
534
100
AcDbEntity
  8
RACCORDO
100
AcDbLine
 62
7
  6
CONTINUOUS
 10
13.9946844212
 20
-18.1090601276
 11
10.4955572037
 21
-19.9594562399
  0
LINE
  5
535
100
AcDbEntity
  8
RACCORDO
100
AcDbLine
 62
250
  6
CONTINUOUS
 10
4.1992378097
 20
-22.4299455501
 11
14.6514870513
 21
-16.9238364742
  0
LINE
  5
536
100
AcDbEntity
  8
RACCORDO
100
AcDbLine
 62
250
  6
CONTINUOUS
 10
3.785087334
 20
-23.4474286491
 11
14.2186754371
 21
-17.9512489162
  0
LINE
  5
537
100
AcDbEntity
  8
DRAFT
100
AcDbLine
 62
7
  6
CONTINUOUS
 10
3.1327153518
 20
-24.0389312579
 11
9.4340540364
 21
-20.7287752163
  0
LINE
  5
538
100
AcDbEntity
  8
DRAFT
100
AcDbLine
 62
7
  6
CONTINUOUS
 10
7.7783365129
 20
-21.8882780756
 11
3.1327153518
 21
-24.274913971
  0
LINE
  5
539
100
AcDbEntity
  8
DRAFT
100
AcDbLine
 62
7
  6
CONTINUOUS
 10
3.1327153518
 20
-23.6978862434
 11
4.1841192825
 21
-23.1582322909
  0
LINE
  5
53A
100
AcDbEntity
  8
DRAFT
100
AcDbLine
 62
7
  6
CONTINUOUS
 10
8.7364366764
 20
-21.2684462379
 11
3.1327153518
 21
-24.1341404452
  0
LINE
  5
53B
100
AcDbEntity
  8
RACCORDO
100
AcDbLine
 62
250
  6
CONTINUOUS
 10
0.1818678253
 20
-24.7930331209
 11
0.1061560509
 21
-24.8295901263
  0
LINE
  5
53C
100
AcDbEntity
  8
RACCORDO
100
AcDbLine
 62
7
  6
CONTINUOUS
 10
-0.0393737812
 20
-25.1259926615
 11
0.0358471533
 21
-25.0904357255
  0
LWPOLYLINE
  5
53D
100
AcDbEntity
  8
RACCORDO
100
AcDbPolyline
 62
250
  6
CONTINUOUS
 90
13
 70
0
 10
0.1061560509
 20
-24.8295901263
 10
0.076555849
 20
-24.8421378188
 10
0.0439638854
 20
-24.852670066
 10
0.0089255173
 20
-24.8610106372
 10
-0.0279729668
 20
-24.8670199748
 10
-0.0661141497
 20
-24.8705975285
 10
-0.1048598163
 20
-24.8716834393
 10
-0.1435616424
 20
-24.8702595422
 10
-0.1815720472
 20
-24.8663496676
 10
-0.2182550204
 20
-24.8600192422
 10
-0.2529967627
 20
-24.8513741945
 10
-0.2852159563
 20
-24.8405591827
 10
-0.3143734946
 20
-24.8277551734
  0
LWPOLYLINE
  5
53E
100
AcDbEntity
  8
0
100
AcDbPolyline
 62
7
  6
CONTINUOUS
 90
17
 70
0
 10
-3.2077783009
 20
20.91092752
 10
-3.1961367141
 20
20.9134650975
 10
-3.1841521479
 20
20.915404779
 10
-3.1718287065
 20
20.916737362
 10
-3.1591548584
 20
20.9174475223
 10
-3.1461501394
 20
20.9175302338
 10
-3.1328174251
 20
20.9169755499
 10
-3.1191165701
 20
20.9157572106
 10
-3.1050654139
 20
20.9138717667
 10
-3.0906674873
 20
20.9113029229
 10
-3.0758560794
 20
20.9079985728
 10
-3.0606244985
 20
20.9039438258
 10
-3.0450007947
 20
20.8991247113
 10
-3.0289681303
 20
20.8934847185
 10
-3.0125363479
 20
20.8870051355
 10
-2.9957263213
 20
20.8796725906
 10
-2.9787101767
 20
20.8715215068
  0
LWPOLYLINE
  5
53F
100
AcDbEntity
  8
RACCORDO
100
AcDbPolyline
 62
7
  6
CONTINUOUS
 90
9
 70
0
 10
15.9838287722
 20
18.5750472501
 10
15.9777120316
 20
18.5766467478
 10
15.9679418179
 20
18.5781795617
 10
15.9576156224
 20
18.578595006
 10
15.9468284253
 20
18.5778932335
 10
15.9358651663
 20
18.5760747022
 10
15.9248208256
 20
18.5731395647
 10
15.9136004231
 20
18.5690876683
 10
15.9022039589
 20
18.5639190131
  0
LINE
  5
540
100
AcDbEntity
  8
0
100
AcDbLine
 62
7
  6
CONTINUOUS
 10
14.5907659734
 20
17.9082000203
 11
14.1410213121
 21
18.0299478535
  0
LWPOLYLINE
  5
541
100
AcDbEntity
  8
RACCORDO
100
AcDbPolyline
 62
7
  6
CONTINUOUS
 90
28
 70
0
 10
15.9838186359
 20
18.5750232976
 10
15.8751032894
 20
18.6063091434
 10
15.7602482464
 20
18.6356628204
 10
15.6429868224
 20
18.6619898906
 10
15.5236136576
 20
18.6852519823
 10
15.402393286
 20
18.7054225352
 10
15.2795639165
 20
18.7224818105
 10
15.1554151191
 20
18.736405652
 10
15.030231656
 20
18.747176321
 10
14.9042511385
 20
18.7547837207
 10
14.7777647524
 20
18.7592170994
 10
14.6510620295
 20
18.7604716541
 10
14.524380284
 20
18.758546881
 10
14.3980090142
 20
18.753445546
 10
14.2722394236
 20
18.7451763339
 10
14.1473098243
 20
18.7337484584
 10
14.0235109497
 20
18.7191786262
 10
13.9011261973
 20
18.7014886046
 10
13.7803777611
 20
18.6806944292
 10
13.66154284
 20
18.6568228292
 10
13.5449070166
 20
18.6299077774
 10
13.4306954436
 20
18.5999730101
 10
13.3191802654
 20
18.5670559062
 10
13.210634069
 20
18.5311992714
 10
13.1052671774
 20
18.4924276538
 10
13.0033203949
 20
18.4507748455
 10
12.9050742575
 20
18.4062940709
 10
12.8107901963
 20
18.3590366815
  0
LWPOLYLINE
  5
542
100
AcDbEntity
  8
RACCORDO
100
AcDbPolyline
 62
7
  6
CONTINUOUS
 90
3
 70
0
 10
15.9958694539
 20
18.5702294695
 10
15.9870212436
 20
18.573996717
 10
15.9838287722
 20
18.5750472501
  0
LWPOLYLINE
  5
543
100
AcDbEntity
  8
RACCORDO
100
AcDbPolyline
 62
250
  6
CONTINUOUS
 90
25
 70
0
 10
8.3355980197
 20
19.3525868017
 10
8.3164560849
 20
19.3621570441
 10
8.2973193129
 20
19.3710580453
 10
8.2782022304
 20
19.3792830486
 10
8.2591193488
 20
19.3868258106
 10
8.240085154
 20
19.3936806056
 10
8.2211140946
 20
19.3998422302
 10
8.2022205713
 20
19.4053060072
 10
8.1834189261
 20
19.410067789
 10
8.1647234311
 20
19.4141239611
 10
8.146148278
 20
19.4174714444
 10
8.1277075669
 20
19.420107698
 10
8.1094152961
 20
19.4220307206
 10
8.0912853511
 20
19.4232390526
 10
8.0733314942
 20
19.4237317767
 10
8.0555673539
 20
19.4235085189
 10
8.0380064149
 20
19.4225694487
 10
8.0206620075
 20
19.4209152789
 10
8.0035472978
 20
19.4185472653
 10
7.9866752773
 20
19.4154672053
 10
7.9700587535
 20
19.411677437
 10
7.9537103398
 20
19.4071808373
 10
7.9376424461
 20
19.4019808194
 10
7.9218672695
 20
19.3960813307
 10
7.9063967848
 20
19.3894868494
  0
LINE
  5
544
100
AcDbEntity
  8
0
100
AcDbLine
 62
7
  6
CONTINUOUS
 10
13.6460465652
 20
17.7824604801
 11
12.9390776251
 21
18.1359449501
  0
LINE
  5
545
100
AcDbEntity
  8
DRAFT
100
AcDbLine
 62
7
  6
CONTINUOUS
 10
12.4649364214
 20
18.7747619958
 11
12.8966512182
 21
18.5589045974
  0
LINE
  5
546
100
AcDbEntity
  8
0
100
AcDbLine
 62
7
  6
CONTINUOUS
 10
14.1410213121
 20
18.0299478535
 11
13.4340523719
 21
18.3834323236
  0
LINE
  5
547
100
AcDbEntity
  8
0
100
AcDbLine
 62
7
  6
CONTINUOUS
 10
13.6460465652
 20
17.7824604801
 11
13.8895422316
 21
17.5575881494
  0
LINE
  5
548
100
AcDbEntity
  8
0
100
AcDbLine
 62
7
  6
CONTINUOUS
 10
15.5257322286
 20
17.4041089006
 11
15.4392941109
 21
17.4839359516
  0
LWPOLYLINE
  5
549
100
AcDbEntity
  8
RACCORDO
100
AcDbPolyline
 62
7
  6
CONTINUOUS
 90
59
 70
0
 10
23.5316111159
 20
1.8587735724
 10
23.5252229389
 20
1.9094010825
 10
23.5170874139
 20
1.9670090358
 10
23.5080166394
 20
2.0247578993
 10
23.4980178269
 20
2.0826238325
 10
23.4870983169
 20
2.1405835425
 10
23.4752656113
 20
2.1986139358
 10
23.4625314555
 20
2.2566740818
 10
23.4489005205
 20
2.3147575682
 10
23.4343676841
 20
2.3728927954
 10
23.4189301825
 20
2.4310887493
 10
23.4026023319
 20
2.4892890769
 10
23.3854048043
 20
2.5474238597
 10
23.3673507453
 20
2.6054564152
 10
23.3484457044
 20
2.6633759175
 10
23.328701833
 20
2.7211511113
 10
23.3081321292
 20
2.7787504015
 10
23.286744215
 20
2.836158313
 10
23.2645422291
 20
2.8933675755
 10
23.2415331938
 20
2.9503620929
 10
23.2177302692
 20
3.0071109335
 10
23.1931467779
 20
3.063584467
 10
23.1677952294
 20
3.1197562987
 10
23.1416855101
 20
3.175606561
 10
23.114827503
 20
3.2311155282
 10
23.0872321476
 20
3.2862615192
 10
23.0589118188
 20
3.341020496
 10
23.0298787666
 20
3.3953693242
 10
23.000147122
 20
3.4492820786
 10
22.9697274646
 20
3.5027398937
 10
22.9386266338
 20
3.5557302527
 10
22.9068569376
 20
3.6082310518
 10
22.8744311112
 20
3.6602199493
 10
22.8413561546
 20
3.7116838671
 10
22.8076386562
 20
3.7626097368
 10
22.7732973488
 20
3.8129663171
 10
22.7383579498
 20
3.8627140178
 10
22.7028402721
 20
3.9118237539
 10
22.6667525446
 20
3.9602831086
 10
22.6301035853
 20
4.008078382
 10
22.5929114996
 20
4.0551838801
 10
22.5551864766
 20
4.1015844663
 10
22.5169244831
 20
4.1472815258
 10
22.4781257026
 20
4.1922694636
 10
22.4388171865
 20
4.2365114143
 10
22.3990352204
 20
4.279962703
 10
22.3587988961
 20
4.3225997941
 10
22.3181190635
 20
4.3644083495
 10
22.2770205231
 20
4.4053601352
 10
22.2355336927
 20
4.4454230767
 10
22.1936592096
 20
4.4845946192
 10
22.1513762086
 20
4.5228898739
 10
22.1086765954
 20
4.5603090001
 10
22.0655973756
 20
4.5968122351
 10
22.0221847578
 20
4.6323552486
 10
21.9784485275
 20
4.6669257682
 10
21.9344098615
 20
4.7005026073
 10
21.8901331437
 20
4.7330343024
 10
21.8611279765
 20
4.7535501337
  0
LWPOLYLINE
  5
54A
100
AcDbEntity
  8
RACCORDO
100
AcDbPolyline
 62
7
  6
CONTINUOUS
 90
4
 70
0
 10
23.5320414252
 20
13.8026706106
 10
23.532013961
 20
13.804507589
 10
23.5317452359
 20
13.8086921616
 10
23.5316111155
 20
13.8099242719
  0
LWPOLYLINE
  5
54B
100
AcDbEntity
  8
0
100
AcDbPolyline
 62
7
  6
CONTINUOUS
 90
6
 70
0
 10
2.3039640081
 20
-27.2451610019
 10
2.3088966419
 20
-27.242521939
 10
2.3187334303
 20
-27.2366710791
 10
2.3282351111
 20
-27.2302108299
 10
2.3373883175
 20
-27.2231503359
 10
2.3461804151
 20
-27.215499406
  0
LINE
  5
54C
100
AcDbEntity
  8
0
100
AcDbLine
 62
250
  6
CONTINUOUS
 10
2.4317793981
 20
-26.9758139917
 11
3.1327153518
 21
-26.614136799
  0
LINE
  5
54D
100
AcDbEntity
  8
0
100
AcDbLine
 62
7
  6
CONTINUOUS
 10
2.3039640081
 20
-27.2451610019
 11
3.0048999501
 21
-26.8834838153
  0
LINE
  5
54E
100
AcDbEntity
  8
0
100
AcDbLine
 62
250
  6
CONTINUOUS
 10
1.7243640755
 20
-28.6572550375
 11
2.2526312472
 21
-28.3862439789
  0
LINE
  5
54F
100
AcDbEntity
  8
0
100
AcDbLine
 62
7
  6
CONTINUOUS
 10
1.6602589758
 20
-28.7920328086
 11
2.1889432097
 21
-28.5208077891
  0
LINE
  5
550
100
AcDbEntity
  8
0
100
AcDbLine
 62
7
  6
CONTINUOUS
 10
1.6602589738
 20
-28.7920328096
 11
1.6585225627
 21
-28.7929010295
  0
LWPOLYLINE
  5
551
100
AcDbEntity
  8
0
100
AcDbPolyline
 62
7
  6
CONTINUOUS
 90
3
 70
0
 10
2.289884761
 20
-27.2517029143
 10
2.2987206755
 20
-27.2477636955
 10
2.3039640081
 20
-27.2451610019
  0
LINE
  5
552
100
AcDbEntity
  8
0
100
AcDbLine
 62
250
  6
CONTINUOUS
 10
1.351679663
 20
-27.4281317462
 11
2.4308701616
 21
-26.9751314101
  0
LINE
  5
553
100
AcDbEntity
  8
0
100
AcDbLine
 62
7
  6
CONTINUOUS
 10
1.2104139093
 20
-27.7040630357
 11
2.2896139707
 21
-27.2510586856
  0
LINE
  5
554
100
AcDbEntity
  8
RACCORDO
100
AcDbLine
 62
250
  6
CONTINUOUS
 10
-2.2448542902
 20
-28.9220079348
 11
-1.0194349327
 21
-28.4266478659
  0
LINE
  5
555
100
AcDbEntity
  8
RACCORDO
100
AcDbLine
 62
7
  6
CONTINUOUS
 10
-1.1628455658
 20
-28.7032436961
 11
-2.3987952583
 21
-29.2028601599
  0
LWPOLYLINE
  5
556
100
AcDbEntity
  8
RACCORDO
100
AcDbPolyline
 62
250
  6
CONTINUOUS
 90
25
 70
0
 10
14.4506099675
 20
22.1951125835
 10
14.431473198
 20
22.2040135837
 10
14.4123561177
 20
22.2122385863
 10
14.3932732384
 20
22.2197813477
 10
14.3742390457
 20
22.2266361423
 10
14.3552679882
 20
22.2327977667
 10
14.3363744667
 20
22.2382615437
 10
14.3175728232
 20
22.2430233257
 10
14.2988773298
 20
22.247079498
 10
14.2803021781
 20
22.2504269818
 10
14.2618614684
 20
22.253063236
 10
14.2435691987
 20
22.2549862594
 10
14.2254392547
 20
22.2561945922
 10
14.2074853987
 20
22.2566873172
 10
14.1897212591
 20
22.2564640604
 10
14.1721603207
 20
22.2555249913
 10
14.1548159138
 20
22.2538708227
 10
14.1377012045
 20
22.2515028102
 10
14.1208291842
 20
22.2484227515
 10
14.1042126605
 20
22.2446329845
 10
14.0878642468
 20
22.240136386
 10
14.071796353
 20
22.2349363694
 10
14.0560211761
 20
22.229036882
 10
14.040550691
 20
22.2224424019
 10
14.0381324747
 20
22.2213360487
  0
LWPOLYLINE
  5
557
100
AcDbEntity
  8
RACCORDO
100
AcDbPolyline
 62
250
  6
CONTINUOUS
 90
26
 70
0
 10
14.9046247804
 20
22.207905672
 10
14.8973412901
 20
22.2114496204
 10
14.8820935885
 20
22.2182554445
 10
14.8665305154
 20
22.2243893762
 10
14.850663628
 20
22.2298468605
 10
14.8345047093
 20
22.2346238446
 10
14.8180657588
 20
22.2387167811
 10
14.8013589842
 20
22.2421226305
 10
14.7843967921
 20
22.2448388637
 10
14.7671917787
 20
22.2468634635
 10
14.7497567206
 20
22.2481949265
 10
14.732104565
 20
22.248832264
 10
14.7142484206
 20
22.2487750026
 10
14.6962015475
 20
22.2480231848
 10
14.6779773473
 20
22.246577369
 10
14.6595893535
 20
22.2444386289
 10
14.6410512211
 20
22.2416085526
 10
14.6223767165
 20
22.2380892419
 10
14.6035797077
 20
22.2338833101
 10
14.5846741533
 20
22.2289938806
 10
14.5656740927
 20
22.2234245843
 10
14.5465936355
 20
22.2171795571
 10
14.5274469509
 20
22.2102634365
 10
14.5082482574
 20
22.2026813584
 10
14.489011812
 20
22.1944389535
 10
14.4697518998
 20
22.1855423424
  0
LINE
  5
558
100
AcDbEntity
  8
DRAFT
100
AcDbLine
 62
7
  6
CONTINUOUS
 10
16.5225747272
 20
18.6540429933
 11
17.0172442364
 21
18.4067082387
  0
LINE
  5
559
100
AcDbEntity
  8
0
100
AcDbLine
 62
7
  6
CONTINUOUS
 10
16.4675404632
 20
20.733283438
 11
19.5521467096
 21
19.1909803148
  0
LINE
  5
55A
100
AcDbEntity
  8
RACCORDO
100
AcDbLine
 62
250
  6
CONTINUOUS
 10
14.4506099675
 20
22.1951125835
 11
15.4192210064
 21
21.7108077891
  0
LINE
  5
55B
100
AcDbEntity
  8
RACCORDO
100
AcDbLine
 62
250
  6
CONTINUOUS
 10
20.559491614
 20
19.1406724853
 11
20.0154150841
 21
19.4127107502
  0
LWPOLYLINE
  5
55C
100
AcDbEntity
  8
RACCORDO
100
AcDbPolyline
 62
7
  6
CONTINUOUS
 90
3
 70
0
 10
16.8443975913
 20
18.1459654007
 10
16.9269532151
 20
18.1046560999
 10
17.0113744693
 20
18.062240436
  0
LINE
  5
55D
100
AcDbEntity
  8
RACCORDO
100
AcDbLine
 62
7
  6
CONTINUOUS
 10
17.0113744693
 20
18.062240436
 11
17.1002083868
 21
18.017428694
  0
LWPOLYLINE
  5
55E
100
AcDbEntity
  8
RACCORDO
100
AcDbPolyline
 62
7
  6
CONTINUOUS
 90
6
 70
0
 10
16.4277428373
 20
18.3523788704
 10
16.3377356079
 20
18.3981175021
 10
16.2495489799
 20
18.4427723052
 10
16.1631685365
 20
18.4863418553
 10
16.0786086945
 20
18.5288275767
 10
15.9958694539
 20
18.5702294695
  0
LINE
  5
55F
100
AcDbEntity
  8
RACCORDO
100
AcDbLine
 62
7
  6
CONTINUOUS
 10
16.6133632686
 20
18.257664363
 11
16.4277428373
 21
18.3523788704
  0
LINE
  5
560
100
AcDbEntity
  8
RACCORDO
100
AcDbLine
 62
7
  6
CONTINUOUS
 10
16.8064535241
 20
18.1586330557
 11
16.6133632686
 21
18.257664363
  0
LINE
  5
561
100
AcDbEntity
  8
RACCORDO
100
AcDbLine
 62
7
  6
CONTINUOUS
 10
16.8142119527
 20
18.1540465836
 11
16.8064535241
 21
18.1586330557
  0
LWPOLYLINE
  5
562
100
AcDbEntity
  8
RACCORDO
100
AcDbPolyline
 62
250
  6
CONTINUOUS
 90
9
 70
0
 10
16.8443975913
 20
18.1459654007
 10
16.8689205817
 20
18.1254610223
 10
16.8932863433
 20
18.1041827579
 10
16.9174230935
 20
18.0821204807
 10
16.9411879785
 20
18.0593321603
 10
16.9645777943
 20
18.035743697
 10
16.9877011001
 20
18.0111421098
 10
17.0104486736
 20
17.9855153456
 10
17.0170383653
 20
17.9776216921
  0
LWPOLYLINE
  5
563
100
AcDbEntity
  8
RACCORDO
100
AcDbPolyline
 62
250
  6
CONTINUOUS
 90
10
 70
0
 10
16.7507609922
 20
18.1396693923
 10
16.7736214216
 20
18.1200906588
 10
16.7961989599
 20
18.0997376123
 10
16.8184936071
 20
18.0786102527
 10
16.8405391054
 20
18.0567803657
 10
16.8623017126
 20
18.0341761657
 10
16.883680202
 20
18.0105822953
 10
16.904719905
 20
17.9860005461
 10
16.9253754901
 20
17.9604291266
 10
16.9400713967
 20
17.9407836077
  0
LWPOLYLINE
  5
564
100
AcDbEntity
  8
RACCORDO
100
AcDbPolyline
 62
7
  6
CONTINUOUS
 90
59
 70
0
 10
23.5316111159
 20
13.8099241446
 10
23.5252229389
 20
13.860551655
 10
23.5170874138
 20
13.9181596085
 10
23.5080166392
 20
13.9759084723
 10
23.4980178268
 20
14.0337744058
 10
23.4870983166
 20
14.091734116
 10
23.4752656109
 20
14.1497645096
 10
23.4625314551
 20
14.2078246559
 10
23.4489005199
 20
14.2659081426
 10
23.4343676834
 20
14.32404337
 10
23.4189301817
 20
14.3822393242
 10
23.4026023311
 20
14.440439652
 10
23.3854048034
 20
14.4985744351
 10
23.3673507442
 20
14.5566069909
 10
23.3484457031
 20
14.6145264934
 10
23.3287018316
 20
14.6723016875
 10
23.3081321277
 20
14.7299009779
 10
23.2867442133
 20
14.7873088897
 10
23.2645422272
 20
14.8445181524
 10
23.2415331918
 20
14.9015126701
 10
23.217730267
 20
14.9582615108
 10
23.1931467755
 20
15.0147350446
 10
23.1677952269
 20
15.0709068766
 10
23.1416855073
 20
15.126757139
 10
23.1148275001
 20
15.1822661064
 10
23.0872321445
 20
15.2374120976
 10
23.0589118154
 20
15.2921710746
 10
23.029878763
 20
15.3465199031
 10
23.0001471182
 20
15.4004326576
 10
22.9697274606
 20
15.4538904729
 10
22.9386266295
 20
15.5068808321
 10
22.9068569331
 20
15.5593816314
 10
22.8744311065
 20
15.6113705291
 10
22.8413561496
 20
15.6628344469
 10
22.807638651
 20
15.7137603168
 10
22.7732973433
 20
15.7641168973
 10
22.7383579441
 20
15.8138645981
 10
22.7028402661
 20
15.8629743343
 10
22.6667525383
 20
15.9114336891
 10
22.6301035788
 20
15.9592289626
 10
22.5929114928
 20
16.0063344608
 10
22.5551864695
 20
16.0527350471
 10
22.5169244757
 20
16.0984321066
 10
22.478125695
 20
16.1434200445
 10
22.4388171786
 20
16.1876619953
 10
22.3990352123
 20
16.231113284
 10
22.3587988877
 20
16.2737503752
 10
22.3181190548
 20
16.3155589305
 10
22.2770205141
 20
16.3565107162
 10
22.2355336834
 20
16.3965736577
 10
22.1936592001
 20
16.4357452002
 10
22.1513761987
 20
16.4740404548
 10
22.1086765853
 20
16.511459581
 10
22.0655973652
 20
16.547962816
 10
22.0221847472
 20
16.5835058294
 10
21.9784485166
 20
16.6180763489
 10
21.9344098503
 20
16.6516531879
 10
21.8901331322
 20
16.6841848828
 10
21.8611279765
 20
16.7047007059
  0
LINE
  5
565
100
AcDbEntity
  8
0
100
AcDbLine
 62
250
  6
CONTINUOUS
 10
0.1230832847
 20
-29.4372896372
 11
1.7243640755
 21
-28.6572550375
  0
LINE
  5
566
100
AcDbEntity
  8
0
100
AcDbLine
 62
7
  6
CONTINUOUS
 10
0.0568216921
 20
-29.5731402634
 11
1.6585225619
 21
-28.7929010299
  0
LINE
  5
567
100
AcDbEntity
  8
RACCORDO
100
AcDbLine
 62
7
  6
CONTINUOUS
 10
14.9046247804
 20
22.207905672
 11
15.9416563825
 21
21.6893898709
  0
LINE
  5
568
100
AcDbEntity
  8
RACCORDO
100
AcDbLine
 62
7
  6
CONTINUOUS
 10
20.9943644945
 20
19.1630358149
 11
20.3627254692
 21
19.4788553276
  0
LWPOLYLINE
  5
569
100
AcDbEntity
  8
RACCORDO
100
AcDbPolyline
 62
250
  6
CONTINUOUS
 90
58
 70
0
 10
21.8611279765
 20
16.618155413
 10
21.8752022337
 20
16.6072803723
 10
21.9182331974
 20
16.5728497385
 10
21.9610304291
 20
16.5374192094
 10
22.0035746307
 20
16.5010047593
 10
22.0458465751
 20
16.4636228428
 10
22.0878271491
 20
16.4252903618
 10
22.129497383
 20
16.3860246397
 10
22.1708384863
 20
16.3458433851
 10
22.211831824
 20
16.30476471
 10
22.2524589077
 20
16.2628071394
 10
22.2927013801
 20
16.2199896298
 10
22.3325410518
 20
16.1763315347
 10
22.3719599245
 20
16.1318525787
 10
22.4109402188
 20
16.0865728256
 10
22.4494643579
 20
16.0405126928
 10
22.4875149622
 20
15.9936929579
 10
22.5250748432
 20
15.9461347694
 10
22.5621270306
 20
15.8978596147
 10
22.5986547903
 20
15.848889298
 10
22.6346416421
 20
15.7992459145
 10
22.6700713517
 20
15.748951859
 10
22.7049279311
 20
15.6980298266
 10
22.7391956393
 20
15.6465028122
 10
22.7728590008
 20
15.5943940857
 10
22.8059028165
 20
15.5417271749
 10
22.8383121732
 20
15.4885258498
 10
22.8700724434
 20
15.4348141221
 10
22.9011692905
 20
15.3806162371
 10
22.9315886763
 20
15.3259566616
 10
22.9613168699
 20
15.2708600679
 10
22.9903404532
 20
15.2153513244
 10
23.0186463226
 20
15.1594554916
 10
23.0462216963
 20
15.1031978098
 10
23.0730541231
 20
15.0466036823
 10
23.0991314944
 20
14.9896986493
 10
23.1244420449
 20
14.9325083842
 10
23.1489743536
 20
14.8750586918
 10
23.1727173406
 20
14.8173755173
 10
23.1956602796
 20
14.7594849204
 10
23.2177928083
 20
14.7014130498
 10
23.2391049426
 20
14.6431861043
 10
23.2595870715
 20
14.5848303422
 10
23.2792299549
 20
14.5263720863
 10
23.298024718
 20
14.4678377453
 10
23.3159628663
 20
14.4092537743
 10
23.3330362966
 20
14.3506466423
 10
23.3492373095
 20
14.2920427823
 10
23.3645586018
 20
14.2334686122
 10
23.3789932626
 20
14.1749505476
 10
23.3925347678
 20
14.1165150304
 10
23.4051769954
 20
14.0581884803
 10
23.4169142338
 20
13.9999972549
 10
23.427741192
 20
13.9419675941
 10
23.4376529907
 20
13.8841256498
 10
23.4466451566
 20
13.8264975188
 10
23.4547136268
 20
13.7691092298
 10
23.4618547581
 20
13.7119866894
  0
LWPOLYLINE
  5
56A
100
AcDbEntity
  8
RACCORDO
100
AcDbPolyline
 62
250
  6
CONTINUOUS
 90
27
 70
0
 10
21.0448059611
 20
18.6620905451
 10
21.02977553
 20
18.6867520462
 10
21.0143368815
 20
18.7110598699
 10
20.998503074
 20
18.7349934559
 10
20.9822875002
 20
18.7585325606
 10
20.9657038756
 20
18.7816572738
 10
20.9487662272
 20
18.8043480361
 10
20.9314888813
 20
18.826585655
 10
20.9138864515
 20
18.8483513213
 10
20.8959738266
 20
18.869626625
 10
20.8777661574
 20
18.8903935708
 10
20.8592788446
 20
18.9106345935
 10
20.8405275252
 20
18.9303325726
 10
20.8215280597
 20
18.949470847
 10
20.8022965182
 20
18.9680332291
 10
20.7828491675
 20
18.9860040182
 10
20.7632024565
 20
19.0033680143
 10
20.7433730031
 20
19.0201105302
 10
20.7233775795
 20
19.0362174047
 10
20.7032330984
 20
19.0516750143
 10
20.6829565987
 20
19.0664702843
 10
20.6625652307
 20
19.0805907006
 10
20.642076242
 20
19.0940243196
 10
20.6215069628
 20
19.106759779
 10
20.6008747911
 20
19.1187863066
 10
20.5801971783
 20
19.13009373
 10
20.559491614
 20
19.1406724853
  0
LINE
  5
56B
100
AcDbEntity
  8
RACCORDO
100
AcDbLine
 62
250
  6
CONTINUOUS
 10
21.1663173012
 20
18.4527178263
 11
21.0448059611
 21
18.6620905451
  0
LINE
  5
56C
100
AcDbEntity
  8
RACCORDO
100
AcDbLine
 62
7
  6
CONTINUOUS
 10
21.51916055
 20
18.5858161837
 11
21.4122587103
 21
18.7701945834
  0
ARC
  5
56D
100
AcDbEntity
  8
RACCORDO
100
AcDbCircle
 62
7
  6
CONTINUOUS
 10
14.4574111849
 20
21.313478481
 40
1.0
100
AcDbArc
 50
63.4349488229
 51
114.7894524371
  0
ARC
  5
56E
100
AcDbEntity
  8
RACCORDO
100
AcDbCircle
 62
7
  6
CONTINUOUS
 10
20.8611279765
 20
-4.5711033431
 40
1.0
100
AcDbArc
 50
298.3476707551
 51
360.0
  0
ARC
  5
56F
100
AcDbEntity
  8
RACCORDO
100
AcDbCircle
 62
7
  6
CONTINUOUS
 10
20.547150899
 20
18.2686086239
 40
1.0
100
AcDbArc
 50
30.1049527557
 51
63.4349488229
  0
ARC
  5
570
100
AcDbEntity
  8
RACCORDO
100
AcDbCircle
 62
7
  6
CONTINUOUS
 10
13.5272077887
 20
-17.2250546989
 40
1.0
100
AcDbArc
 50
297.8702635617
 51
305.9325291988
  0
ARC
  5
571
100
AcDbEntity
  8
RACCORDO
100
AcDbCircle
 62
7
  6
CONTINUOUS
 10
0.3159900458
 20
21.4642865352
 40
1.0
100
AcDbArc
 50
63.4349373369
 51
115.2504241015
  0
ARC
  5
572
100
AcDbEntity
  8
0
100
AcDbCircle
 62
7
  6
CONTINUOUS
 10
-0.0526619797
 20
12.2911895078
 40
0.25
100
AcDbArc
 50
243.4329149157
 51
258.2060367178
  0
ARC
  5
573
100
AcDbEntity
  8
0
100
AcDbCircle
 62
7
  6
CONTINUOUS
 10
-1.7312000501
 20
13.1304585431
 40
0.25
100
AcDbArc
 50
179.9936221471
 51
243.4636106875
  0
ARC
  5
574
100
AcDbEntity
  8
0
100
AcDbCircle
 62
7
  6
CONTINUOUS
 10
-12.3563199723
 20
18.4430185042
 40
0.25
100
AcDbArc
 50
243.4343157736
 51
258.2056474489
  0
ARC
  5
575
100
AcDbEntity
  8
0
100
AcDbCircle
 62
7
  6
CONTINUOUS
 10
-14.0348580427
 20
19.2822875394
 40
0.25
100
AcDbArc
 50
179.9936221471
 51
243.4636106875
  0
ARC
  5
576
100
AcDbEntity
  8
0
100
AcDbCircle
 62
7
  6
CONTINUOUS
 10
-10.2288288884
 20
19.5005933058
 40
0.25
100
AcDbArc
 50
320.598492512
 51
360.0
  0
ARC
  5
577
100
AcDbEntity
  8
0
100
AcDbCircle
 62
7
  6
CONTINUOUS
 10
2.0748291042
 20
13.3487643094
 40
0.25
100
AcDbArc
 50
320.6056475175
 51
0.0269513009
  0
ARC
  5
578
100
AcDbEntity
  8
0
100
AcDbCircle
 62
7
  6
CONTINUOUS
 10
2.0748291042
 20
-27.9508398299
 40
0.25
100
AcDbArc
 50
359.9936221471
 51
63.4636106875
  0
ARC
  5
579
100
AcDbEntity
  8
0
100
AcDbCircle
 62
7
  6
CONTINUOUS
 10
-0.0526619797
 20
-29.3483885657
 40
0.25
100
AcDbArc
 50
243.3939681258
 51
295.9721801256
  0
ARC
  5
57A
100
AcDbEntity
  8
0
100
AcDbCircle
 62
7
  6
CONTINUOUS
 10
-11.9197084396
 20
20.6935645981
 40
0.25
100
AcDbArc
 50
63.4349488229
 51
116.0140441013
  0
ARC
  5
57B
100
AcDbEntity
  8
0
100
AcDbCircle
 62
7
  6
CONTINUOUS
 10
-1.7312000501
 20
13.4704324772
 40
0.25
100
AcDbArc
 50
117.1586821941
 51
179.9961222374
  0
ARC
  5
57C
100
AcDbEntity
  8
0
100
AcDbCircle
 62
7
  6
CONTINUOUS
 10
2.0748291042
 20
-28.2983713467
 40
0.25
100
AcDbArc
 50
297.1142389129
 51
359.9691465085
  0
ARC
  5
57D
100
AcDbEntity
  8
0
100
AcDbCircle
 62
7
  6
CONTINUOUS
 10
0.3839495531
 20
14.5417356018
 40
0.25
100
AcDbArc
 50
63.3939681258
 51
115.9721801256
  0
ARC
  5
57E
100
AcDbEntity
  8
0
100
AcDbCircle
 62
7
  6
CONTINUOUS
 10
2.0748291042
 20
13.6962958262
 40
0.25
100
AcDbArc
 50
0.0057333847
 51
63.4349488229
  0
ARC
  5
57F
100
AcDbEntity
  8
0
100
AcDbCircle
 62
7
  6
CONTINUOUS
 10
-10.2288288884
 20
19.8481248225
 40
0.25
100
AcDbArc
 50
0.0322433384
 51
63.4821960056
  0
ARC
  5
580
100
AcDbEntity
  8
0
100
AcDbCircle
 62
7
  6
CONTINUOUS
 10
-14.0348580427
 20
19.6222614735
 40
0.25
100
AcDbArc
 50
117.1142389129
 51
179.9691465085
  0
ARC
  5
581
100
AcDbEntity
  8
0
100
AcDbCircle
 62
7
  6
CONTINUOUS
 10
-4.8163736505
 20
16.0119916592
 40
0.2
100
AcDbArc
 50
116.894582951
 51
180.0
  0
ELLIPSE
  5
582
100
AcDbEntity
  8
RACCORDO
100
AcDbEllipse
 62
7
  6
CONTINUOUS
 10
-1.3732038298
 20
-28.2489714349
 30
0.0
 11
-0.2238789077
 21
0.448174603
 31
0.0
 40
0.6111842607
 41
-3.1900139345
 42
-2.2560112424
  0
ELLIPSE
  5
583
100
AcDbEntity
  8
RACCORDO
100
AcDbEllipse
 62
7
  6
CONTINUOUS
 10
0.5221963449
 20
-9.0827316167
 30
0.0
 11
-0.0894010119
 21
0.178909044
 31
0.0
 40
0.6131036171
 41
-2.2546379553
 42
-0.6850596037
  0
ELLIPSE
  5
584
100
AcDbEntity
  8
RACCORDO
100
AcDbEllipse
 62
7
  6
CONTINUOUS
 10
-16.3205607767
 20
16.7197220507
 30
0.0
 11
-0.2238789077
 21
0.448174603
 31
0.0
 40
0.6111842607
 41
-0.6833884161
 42
0.0484212823
  0
ELLIPSE
  5
585
100
AcDbEntity
  8
RACCORDO
100
AcDbEllipse
 62
7
  6
CONTINUOUS
 10
-1.3732038298
 20
9.2460435772
 30
0.0
 11
-0.2231559701
 21
0.4475346308
 31
0.0
 40
0.6133749887
 41
-2.2533748245
 42
-0.6844049973
  0
ELLIPSE
  5
586
100
AcDbEntity
  8
RACCORDO
100
AcDbEllipse
 62
7
  6
CONTINUOUS
 10
0.5221963449
 20
-8.5629052221
 30
0.0
 11
-0.0895932578
 21
0.1790799287
 31
0.0
 40
0.6116420465
 41
-3.1795896083
 42
-2.2563918427
  0
ELLIPSE
  5
587
100
AcDbEntity
  8
DRAFT
100
AcDbEllipse
 62
7
  6
CONTINUOUS
 10
8.3767667762
 20
15.6746736786
 30
0.0
 11
0.499996712
 21
0.0035883639
 31
0.0
 40
0.5053247124
 41
-0.7715714568
 42
-0.0036266526
  0
ELLIPSE
  5
588
100
AcDbEntity
  8
0
100
AcDbEllipse
 62
7
  6
CONTINUOUS
 10
-3.2652403691
 20
20.4557694972
 30
0.0
 11
0.2257019663
 21
0.4461636818
 31
0.0
 40
0.6159267166
 41
0.5882567743
 42
0.6817883054
  0
ELLIPSE
  5
589
100
AcDbEntity
  8
0
100
AcDbEllipse
 62
7
  6
CONTINUOUS
 10
-5.5941911098
 20
17.3166123325
 30
0.0
 11
-0.0894407211
 21
0.1788887077
 31
0.0
 40
0.6123703628
 41
-2.2554972904
 42
-0.6847009636
  0
ELLIPSE
  5
58A
100
AcDbEntity
  8
0
100
AcDbEllipse
 62
7
  6
CONTINUOUS
 10
-3.8971348349
 20
16.4680841951
 30
0.0
 11
-0.0894407211
 21
0.1788887077
 31
0.0
 40
0.6123703628
 41
-0.6847009636
 42
-0.0034907027
  0
ELLIPSE
  5
58B
100
AcDbEntity
  8
DRAFT
100
AcDbEllipse
 62
7
  6
CONTINUOUS
 10
8.4813683409
 20
-21.377896999
 30
0.0
 11
0.9927147821
 21
0.620457446
 31
0.0
 40
0.0764819879
 41
-2.4043514965
 42
-1.2246750713
  0
ELLIPSE
  5
58C
100
AcDbEntity
  8
DRAFT
100
AcDbEllipse
 62
7
  6
CONTINUOUS
 10
-3.1234518807
 20
21.3744881481
 30
0.0
 11
1.004787277
 21
0.6140102217
 31
0.0
 40
0.0864918533
 41
0.0540072115
 42
0.7329085821
  0
ELLIPSE
  5
58D
100
AcDbEntity
  8
0
100
AcDbEllipse
 62
7
  6
CONTINUOUS
 10
2.7791484985
 20
-26.4373313885
 30
0.0
 11
-0.2236315662
 21
0.4472293059
 31
0.0
 40
0.6123445654
 41
-3.1338271467
 42
-2.2555748796
  0
ELLIPSE
  5
58E
100
AcDbEntity
  8
0
100
AcDbEllipse
 62
7
  6
CONTINUOUS
 10
2.7791484985
 20
11.4844898643
 30
0.0
 11
-0.223611546
 21
0.4472115081
 31
0.0
 40
0.6124054886
 41
-2.2555017776
 42
-0.6847562194
  0
ELLIPSE
  5
58F
100
AcDbEntity
  8
DRAFT
100
AcDbEllipse
 62
7
  6
CONTINUOUS
 10
8.3767667762
 20
-21.5278216645
 30
0.0
 11
0.499443764
 21
0.3120915671
 31
0.0
 40
0.0755486457
 41
5.9989940659
 42
7.0039564932
  0
ELLIPSE
  5
590
100
AcDbEntity
  8
0
100
AcDbEllipse
 62
7
  6
CONTINUOUS
 10
-1.8465251695
 20
18.8639981206
 30
0.0
 11
0.9999972457
 21
-0.0047278206
 31
0.0
 40
0.4964289597
 41
1.3113439682
 42
2.3585415194
  0
ELLIPSE
  5
591
100
AcDbEntity
  8
0
100
AcDbEllipse
 62
7
  6
CONTINUOUS
 10
-2.9114883829
 20
19.3592401172
 30
0.0
 11
0.4530414621
 21
-0.0021419047
 31
0.0
 40
0.4964289597
 41
-0.7830511342
 42
0.0023470288
  0
ELLIPSE
  5
592
100
AcDbEntity
  8
RACCORDO
100
AcDbEllipse
 62
7
  6
CONTINUOUS
 10
0.5415925133
 20
8.1760730219
 30
0.0
 11
0.2299769236
 21
0.4440064614
 31
0.0
 40
0.6229838795
 41
-4.0187835583
 42
-3.1327064366
  0
ELLIPSE
  5
593
100
AcDbEntity
  8
RACCORDO
100
AcDbEllipse
 62
7
  6
CONTINUOUS
 10
-0.1022414603
 20
6.6992098172
 30
0.0
 11
0.2999918237
 21
0.0043377328
 31
0.0
 40
0.5106100819
 41
-2.3635775243
 42
-0.81023449
  0
ELLIPSE
  5
594
100
AcDbEntity
  8
RACCORDO
100
AcDbEllipse
 62
7
  6
CONTINUOUS
 10
-0.4478864809
 20
6.8720323275
 30
0.0
 11
0.2999918237
 21
0.0043377328
 31
0.0
 40
0.5106100819
 41
3.1342096197
 42
3.9196077829
  0
ELLIPSE
  5
595
100
AcDbEntity
  8
RACCORDO
100
AcDbEllipse
 62
7
  6
CONTINUOUS
 10
1.711404351
 20
-24.3046916045
 30
0.0
 11
0.2299769236
 21
0.4440064614
 31
0.0
 40
0.6229838795
 41
0.9554048099
 42
2.2644017489
  0
ELLIPSE
  5
596
100
AcDbEntity
  8
RACCORDO
100
AcDbEllipse
 62
7
  6
CONTINUOUS
 10
1.711404351
 20
7.5911671031
 30
0.0
 11
0.2299769236
 21
0.4440064614
 31
0.0
 40
0.6229838795
 41
-4.0187835583
 42
-2.7097866193
  0
ELLIPSE
  5
597
100
AcDbEntity
  8
0
100
AcDbEllipse
 62
7
  6
CONTINUOUS
 10
-13.3318650885
 20
18.3303317332
 30
0.0
 11
0.249929385
 21
0.0111824824
 31
0.0
 40
0.5313301283
 41
3.1178240551
 42
3.9032222197
  0
ELLIPSE
  5
598
100
AcDbEntity
  8
0
100
AcDbEllipse
 62
7
  6
CONTINUOUS
 10
-11.6450993642
 20
17.4869488711
 30
0.0
 11
0.249929385
 21
0.0111824824
 31
0.0
 40
0.5313301283
 41
-2.3799630874
 42
-0.8149845248
  0
ELLIPSE
  5
599
100
AcDbEntity
  8
0
100
AcDbEllipse
 62
7
  6
CONTINUOUS
 10
-1.0282070958
 20
12.1785027369
 30
0.0
 11
0.249929385
 21
0.0111824824
 31
0.0
 40
0.5313301283
 41
3.1178240551
 42
3.9032222197
  0
ELLIPSE
  5
59A
100
AcDbEntity
  8
0
100
AcDbEllipse
 62
7
  6
CONTINUOUS
 10
0.6585586284
 20
11.3351198748
 30
0.0
 11
0.249929385
 21
0.0111824824
 31
0.0
 40
0.5313301283
 41
-2.3799630874
 42
-0.8149845248
  0
ELLIPSE
  5
59B
100
AcDbEntity
  8
0
100
AcDbEllipse
 62
7
  6
CONTINUOUS
 10
52.0692565093
 20
41.913505687
 30
0.0
 11
60.4168605605
 21
30.5632322457
 31
0.0
 40
0.005706723
 41
2.5167363259
 42
2.6876789752
  0
ELLIPSE
  5
59C
100
AcDbEntity
  8
0
100
AcDbEllipse
 62
7
  6
CONTINUOUS
 10
2.9663025798
 20
17.3399980228
 30
0.0
 11
0.221538876
 21
0.4482453432
 31
0.0
 40
0.6088015717
 41
0.5825560023
 42
0.6760875334
  0
ELLIPSE
  5
59D
100
AcDbEntity
  8
0
100
AcDbEllipse
 62
7
  6
CONTINUOUS
 10
52.0692565093
 20
41.913505687
 30
0.0
 11
60.4168605605
 21
30.5632322457
 31
0.0
 40
0.005706723
 41
-2.6934527084
 42
-2.5225100591
  0
ELLIPSE
  5
59E
100
AcDbEntity
  8
0
100
AcDbEllipse
 62
7
  6
CONTINUOUS
 10
-14.024932267
 20
18.055135065
 30
0.0
 11
-0.2234618187
 21
0.4480306886
 31
0.0
 40
0.6116748051
 41
-0.6831523234
 42
0.886730614
  0
ELLIPSE
  5
59F
100
AcDbEntity
  8
DRAFT
100
AcDbEllipse
 62
7
  6
CONTINUOUS
 10
8.3767667762
 20
16.5337110487
 30
0.0
 11
-0.3739417019
 21
0.598522373
 31
0.0
 40
0.554557473
 41
-3.1836090632
 42
-2.178646636
  0
ELLIPSE
  5
5A0
100
AcDbEntity
  8
0
100
AcDbEllipse
 62
7
  6
CONTINUOUS
 10
0.9980724163
 20
10.5436327234
 30
0.0
 11
-0.2230998035
 21
0.4477110033
 31
0.0
 40
0.6127700112
 41
-2.2535417632
 42
-0.6836588258
  0
ELLIPSE
  5
5A1
100
AcDbEntity
  8
0
100
AcDbEllipse
 62
7
  6
CONTINUOUS
 10
0.9980724163
 20
-27.2509320713
 30
0.0
 11
-0.2234618187
 21
0.4480306886
 31
0.0
 40
0.6116748051
 41
2.4584403302
 42
4.0283232676
  0
ELLIPSE
  5
5A2
100
AcDbEntity
  8
0
100
AcDbEllipse
 62
7
  6
CONTINUOUS
 10
-6.5134299253
 20
15.6359827386
 30
0.0
 11
0.199943508
 21
0.008945986
 31
0.0
 40
0.5313301283
 41
-2.3799630874
 42
-0.8091667606
  0
ELLIPSE
  5
5A3
100
AcDbEntity
  8
0
100
AcDbEllipse
 62
7
  6
CONTINUOUS
 10
-4.8163736505
 20
14.7874546012
 30
0.0
 11
0.199943508
 21
0.008945986
 31
0.0
 40
0.5313301283
 41
3.1178240563
 42
3.9032222197
  0
ELLIPSE
  5
5A4
100
AcDbEntity
  8
DRAFT
100
AcDbEllipse
 62
7
  6
CONTINUOUS
 10
8.4813683409
 20
15.5720780373
 30
0.0
 11
-0.7356038977
 21
1.2035991204
 31
0.0
 40
0.5552491559
 41
5.0559943874
 42
6.2356708126
  0
ELLIPSE
  5
5A5
100
AcDbEntity
  8
DRAFT
100
AcDbEllipse
 62
7
  6
CONTINUOUS
 10
14.8411948665
 20
17.5866327733
 30
0.0
 11
2.7499831596
 21
-0.0194567514
 31
0.0
 40
0.4946372042
 41
0.4291636923
 42
2.3596941457
  0
ELLIPSE
  5
5A6
100
AcDbEntity
  8
DRAFT
100
AcDbEllipse
 62
7
  6
CONTINUOUS
 10
14.1694434244
 20
17.6850374055
 30
0.0
 11
2.7499831596
 21
-0.0194567514
 31
0.0
 40
0.4946372042
 41
2.3596941457
 42
2.9254696648
  0
ELLIPSE
  5
5A7
100
AcDbEntity
  8
RACCORDO
100
AcDbEllipse
 62
7
  6
CONTINUOUS
 10
19.5948260787
 20
18.7447710341
 30
0.0
 11
0.7964780511
 21
0.7125399777
 31
0.0
 40
0.2888664458
 41
0.1139832129
 42
0.7812491238
  0
ELLIPSE
  5
5A8
100
AcDbEntity
  8
RACCORDO
100
AcDbEllipse
 62
7
  6
CONTINUOUS
 10
15.8151285819
 20
20.6346197824
 30
0.0
 11
-0.309899001
 21
1.1085475855
 31
0.0
 40
0.6753891016
 41
4.9647984111
 42
6.4012160802
  0
ELLIPSE
  5
5A9
100
AcDbEntity
  8
0
100
AcDbEllipse
 62
7
  6
CONTINUOUS
 10
14.8411948665
 20
18.0137333218
 30
0.0
 11
2.7499831596
 21
-0.0194567514
 31
0.0
 40
0.4946372042
 41
0.1760698615
 42
2.3596941457
  0
ELLIPSE
  5
5AA
100
AcDbEntity
  8
RACCORDO
100
AcDbEllipse
 62
7
  6
CONTINUOUS
 10
2.7848088229
 20
8.8853309962
 30
0.0
 11
-0.894612936
 21
1.7887945813
 31
0.0
 40
0.6124635976
 41
-2.2555607096
 42
-2.1095619722
  0
ELLIPSE
  5
5AB
100
AcDbEntity
  8
RACCORDO
100
AcDbEllipse
 62
7
  6
CONTINUOUS
 10
2.7848088229
 20
-21.7225125012
 30
0.0
 11
-0.894811907
 21
1.788971565
 31
0.0
 40
0.6123121697
 41
-2.4017410744
 42
-2.2557423369
  0
ELLIPSE
  5
5AC
100
AcDbEntity
  8
RACCORDO
100
AcDbEllipse
 62
7
  6
CONTINUOUS
 10
-3.4534406783
 20
17.0410545173
 30
0.0
 11
1.2141619185
 21
0.9541526469
 31
0.0
 40
0.2329077568
 41
0.1095198182
 42
0.114024621
  0
ENDSEC
  0
SECTION
  2
OBJECTS
  0
DICTIONARY
  5
C
100
AcDbDictionary
280
0
281
1
  3
ACAD_GROUP
350
D
  3
ACAD_MLINESTYLE
350
17
  3
ACAD_LAYOUT
350
1A
  3
ACAD_PLOTSETTINGS
350
19
  3
ACAD_PLOTSTYLENAME
350
E
  0
DICTIONARY
  5
D
102
{ACAD_REACTORS
330
C
102
}
100
AcDbDictionary
280
0
281
1
  0
ACDBDICTIONARYWDFLT
  5
E
102
{ACAD_REACTORS
330
C
102
}
100
AcDbDictionary
281
1
  3
Normal
350
F
100
AcDbDictionaryWithDefault
340
F
  0
DICTIONARY
  5
17
102
{ACAD_REACTORS
330
C
102
}
100
AcDbDictionary
280
0
281
1
  3
Standard
350
18
  0
DICTIONARY
  5
19
102
{ACAD_REACTORS
330
C
102
}
100
AcDbDictionary
281
1
  0
DICTIONARY
  5
1A
102
{ACAD_REACTORS
330
C
102
}
100
AcDbDictionary
281
1
  3
Model
350
5AD
  3
Layout1
350
5AE
  0
ACDBPLACEHOLDER
  5
F
102
{ACAD_REACTORS
330
E
102
}
  0
MLINESTYLE
  5
18
102
{ACAD_REACTORS
330
17
102
}
100
AcDbMlineStyle
  2
STANDARD
 70
0
  3

 62
256
 51
90.0
 52
90.0
 71
2
 49
0.5
 62
256
  6
BYLAYER
 49
-0.5
 62
256
  6
BYLAYER
  0
LAYOUT
  5
5AD
102
{ACAD_REACTORS
330
1A
102
}
100
AcDbPlotSettings
  1

  2
none_device
  4
ANSI_C_(22.00_x_17.00_Inches)
  6

 40
0.0
 41
0.0
 42
0.0
 43
0.0
 44
558.8
 45
431.8
 46
0.0
 47
0.0
 48
0.0
 49
0.0
140
0.0
141
0.0
142
1.0
143
1.0
 70
1024
 72
1
 73
0
 74
0
  7

 75
0
147
1.0
148
0.0
149
0.0
100
AcDbLayout
  1
Model
 70
0
 71
0
 10
0.0
 20
0.0
 11
558.8
 21
431.8
 12
0.0
 22
0.0
 32
0.0
 14
0.0
 24
0.0
 34
0.0
 15
0.0
 25
0.0
 35
0.0
146
0.0
 13
0.0
 23
0.0
 33
0.0
 16
1.0
 26
0.0
 36
0.0
 17
0.0
 27
1.0
 37
0.0
 76
0
330
226
345
0
346
0
  0
LAYOUT
  5
5AE
102
{ACAD_REACTORS
330
1A
102
}
100
AcDbPlotSettings
  1

  2
none_device
  4
ANSI_C_(22.00_x_17.00_Inches)
  6

 40
0.0
 41
0.0
 42
0.0
 43
0.0
 44
558.8
 45
431.8
 46
0.0
 47
0.0
 48
0.0
 49
0.0
140
0.0
141
0.0
142
1.0
143
1.0
 70
0
 72
1
 73
0
 74
0
  7

 75
0
147
1.0
148
0.0
149
0.0
100
AcDbLayout
  1
Layout1
 70
0
 71
1
 10
0.0
 20
0.0
 11
558.8
 21
431.8
 12
0.0
 22
0.0
 32
0.0
 14
0.0
 24
0.0
 34
0.0
 15
0.0
 25
0.0
 35
0.0
146
0.0
 13
0.0
 23
0.0
 33
0.0
 16
1.0
 26
0.0
 36
0.0
 17
0.0
 27
1.0
 37
0.0
 76
0
330
227
345
0
346
0
  0
ENDSEC
  0
EOF
