  0
SECTION
  2
HEADER
  9
$ACADVER
  1
AC1024
  9
$DWGCODEPAGE
  3
ANSI_1252
  9
$EXTMAX
 10
558.8
 20
431.8
 30
0.0
  9
$EXTMIN
 10
0.0
 20
0.0
 30
0.0
  9
$LIMMIN
 10
0.0
 20
0.0
  9
$LIMMAX
 10
558.8
 20
431.8
  9
$VIEWCTR
 10
279.4
 20
215.9
  9
$VIEWSIZE
 40
431.8
  9
$CLAYER
  8
0
  9
$LTSCALE
 40
30.734
  9
$CELTYPE
  6
BYLAYER
  9
$DIMSCALE
 40
1.0
  9
$DIMASZ
 40
3.0
  9
$DIMEXO
 40
0.5
  9
$DIMDLI
 40
21.2344
  9
$DIMEXE
 40
1.5
  9
$DIMCEN
 40
5.0292
  9
$DIMLFAC
 40
1.0
  9
$DIMBLK
  1
_FILLED
  9
$DIMALT
 70
0
  9
$DIMALTF
 40
0.0393700787
  9
$DIMTXT
 40
3.0
  9
$DIMTOL
 70
1
  9
$DIMLIM
 70
0
  9
$DIMTFAC
 40
1.0
  9
$DIMTP
 40
0.01
  9
$DIMTM
 40
0.01
  9
$DIMGAP
 40
0.625
  9
$DIMDSEP
 70
44
  9
$AUNITS
 70
0
  9
$PDMODE
 70
3
  9
$PDSIZE
 40
3.0
  9
$HANDSEED
  5
511
  9
$TILEMODE
 70
1
  9
$MEASUREMENT
 70
1
  9
$INSUNITS
 70
4
  0
ENDSEC
  0
SECTION
  2
CLASSES
  0
CLASS
  1
ACDBDICTIONARYWDFLT
  2
AcDbDictionaryWithDefault
  3
AutoCAD 2000
 90
0
 91
1
280
0
281
0
  0
CLASS
  1
ACDBPLACEHOLDER
  2
AcDbPlaceHolder
  3
AutoCAD 2000
 90
0
 91
1
280
0
281
0
  0
CLASS
  1
LAYOUT
  2
AcDbLayout
  3
AutoCAD 2000
 90
0
 91
0
280
0
281
0
  0
ENDSEC
  0
SECTION
  2
TABLES
  0
TABLE
  2
VPORT
  5
8
100
AcDbSymbolTable
 70
2
  0
VPORT
  5
1F4
100
AcDbSymbolTableRecord
100
AcDbViewportTableRecord
  2
*ACTIVE
 70
0
 10
0.0
 20
0.0
 11
1.0
 21
1.0
 12
279.4
 22
215.9
 13
0.0
 23
0.0
 14
1.0
 24
1.0
 15
0.0
 25
0.0
 16
0.0
 26
0.0
 36
1.0
 17
0.0
 27
0.0
 37
0.0
 40
431.8
 41
1.2941176471
 42
50.0
 43
0.0
 44
0.0
 50
0.0
 51
0.0
 71
0
 72
100
 73
1
 74
1
 75
0
 76
0
 77
0
 78
0
  0
ENDTAB
  0
TABLE
  2
LTYPE
  5
5
100
AcDbSymbolTable
 70
6
  0
LTYPE
  5
14
100
AcDbSymbolTableRecord
100
AcDbLinetypeTableRecord
  2
BYBLOCK
 70
0
  3

 72
65
 73
0
 40
0.0
  0
LTYPE
  5
15
100
AcDbSymbolTableRecord
100
AcDbLinetypeTableRecord
  2
BYLAYER
 70
0
  3

 72
65
 73
0
 40
0.0
  0
LTYPE
  5
16
100
AcDbSymbolTableRecord
100
AcDbLinetypeTableRecord
  2
CONTINUOUS
 70
64
  3
Solid line
 72
65
 73
0
 40
0.0
  0
LTYPE
  5
1F5
100
AcDbSymbolTableRecord
100
AcDbLinetypeTableRecord
  2
CENTER
 70
64
  3
____ _ ____ _ ____ _ ____ _ ____ _ ____ _ ____
 72
65
 73
4
 40
0.6
 49
0.375
 74
0
 49
-0.075
 74
0
 49
0.075
 74
0
 49
-0.075
 74
0
  0
LTYPE
  5
1F6
100
AcDbSymbolTableRecord
100
AcDbLinetypeTableRecord
  2
HIDDEN
 70
64
  3
- - - - - - - - - - - - - - - - - - - -
 72
65
 73
2
 40
0.2
 49
0.1
 74
0
 49
-0.1
 74
0
  0
LTYPE
  5
1F7
100
AcDbSymbolTableRecord
100
AcDbLinetypeTableRecord
  2
PHANTOM
 70
64
  3
_____ _ _ _____ _ _ _____ _ _ _____
 72
65
 73
6
 40
0.8
 49
0.45
 74
0
 49
-0.05
 74
0
 49
0.1
 74
0
 49
-0.05
 74
0
 49
0.1
 74
0
 49
-0.05
 74
0
  0
LTYPE
  5
1F8
100
AcDbSymbolTableRecord
100
AcDbLinetypeTableRecord
  2
DOT
 70
64
  3
. . . . . . . . . . . . . . . . . . . .
 72
65
 73
2
 40
0.2
 49
0.1
 74
0
 49
-0.1
 74
0
  0
LTYPE
  5
1F9
100
AcDbSymbolTableRecord
100
AcDbLinetypeTableRecord
  2
DASHED
 70
64
  3
- - - - - - - - - - - - - - - - - - - -
 72
65
 73
2
 40
0.2
 49
0.1
 74
0
 49
-0.1
 74
0
  0
ENDTAB
  0
TABLE
  2
LAYER
  5
2
100
AcDbSymbolTable
 70
36
  0
LAYER
  5
10
100
AcDbSymbolTableRecord
100
AcDbLayerTableRecord
  2
0
 70
0
 62
7
  6
CONTINUOUS
370
-3
390
F
  0
LAYER
  5
1FA
100
AcDbSymbolTableRecord
100
AcDbLayerTableRecord
  2
DEFAULT_1
 70
0
 62
7
  6
CENTER
370
-3
390
F
  0
LAYER
  5
1FB
100
AcDbSymbolTableRecord
100
AcDbLayerTableRecord
  2
DEFAULT_2
 70
0
 62
7
  6
HIDDEN
370
-3
390
F
  0
LAYER
  5
1FC
100
AcDbSymbolTableRecord
100
AcDbLayerTableRecord
  2
DEFAULT_3
 70
0
 62
7
  6
PHANTOM
370
-3
390
F
  0
LAYER
  5
1FD
100
AcDbSymbolTableRecord
100
AcDbLayerTableRecord
  2
206140620
 70
0
 62
7
  6
CONTINUOUS
370
-3
390
F
  0
LAYER
  5
1FE
100
AcDbSymbolTableRecord
100
AcDbLayerTableRecord
  2
218140580
 70
0
 62
7
  6
CONTINUOUS
370
-3
390
F
  0
LAYER
  5
1FF
100
AcDbSymbolTableRecord
100
AcDbLayerTableRecord
  2
268200010
 70
0
 62
7
  6
CONTINUOUS
370
-3
390
F
  0
LAYER
  5
200
100
AcDbSymbolTableRecord
100
AcDbLayerTableRecord
  2
284140580
 70
0
 62
7
  6
CONTINUOUS
370
-3
390
F
  0
LAYER
  5
201
100
AcDbSymbolTableRecord
100
AcDbLayerTableRecord
  2
290200030
 70
0
 62
7
  6
CONTINUOUS
370
-3
390
F
  0
LAYER
  5
202
100
AcDbSymbolTableRecord
100
AcDbLayerTableRecord
  2
34016100
 70
0
 62
7
  6
CONTINUOUS
370
-3
390
F
  0
LAYER
  5
203
100
AcDbSymbolTableRecord
100
AcDbLayerTableRecord
  2
712140580
 70
0
 62
7
  6
CONTINUOUS
370
-3
390
F
  0
LAYER
  5
204
100
AcDbSymbolTableRecord
100
AcDbLayerTableRecord
  2
712140660
 70
0
 62
7
  6
CONTINUOUS
370
-3
390
F
  0
LAYER
  5
205
100
AcDbSymbolTableRecord
100
AcDbLayerTableRecord
  2
715140040
 70
0
 62
7
  6
CONTINUOUS
370
-3
390
F
  0
LAYER
  5
206
100
AcDbSymbolTableRecord
100
AcDbLayerTableRecord
  2
716140580
 70
0
 62
7
  6
CONTINUOUS
370
-3
390
F
  0
LAYER
  5
207
100
AcDbSymbolTableRecord
100
AcDbLayerTableRecord
  2
ASSI
 70
0
 62
7
  6
CONTINUOUS
370
-3
390
F
  0
LAYER
  5
208
100
AcDbSymbolTableRecord
100
AcDbLayerTableRecord
  2
COLOR5
 70
0
 62
7
  6
CONTINUOUS
370
-3
390
F
  0
LAYER
  5
209
100
AcDbSymbolTableRecord
100
AcDbLayerTableRecord
  2
COORDINATE
 70
0
 62
7
  6
CONTINUOUS
370
-3
390
F
  0
LAYER
  5
20A
100
AcDbSymbolTableRecord
100
AcDbLayerTableRecord
  2
COORD_ORIGINE
 70
0
 62
7
  6
CONTINUOUS
370
-3
390
F
  0
LAYER
  5
20B
100
AcDbSymbolTableRecord
100
AcDbLayerTableRecord
  2
COPY-PUBBLISH
 70
0
 62
7
  6
CONTINUOUS
370
-3
390
F
  0
LAYER
  5
20C
100
AcDbSymbolTableRecord
100
AcDbLayerTableRecord
  2
COSMETICHE
 70
0
 62
7
  6
CONTINUOUS
370
-3
390
F
  0
LAYER
  5
20D
100
AcDbSymbolTableRecord
100
AcDbLayerTableRecord
  2
CURVA_CENTRALE
 70
0
 62
7
  6
CONTINUOUS
370
-3
390
F
  0
LAYER
  5
20E
100
AcDbSymbolTableRecord
100
AcDbLayerTableRecord
  2
CURVE
 70
0
 62
7
  6
CONTINUOUS
370
-3
390
F
  0
LAYER
  5
20F
100
AcDbSymbolTableRecord
100
AcDbLayerTableRecord
  2
DRAFT
 70
0
 62
7
  6
CONTINUOUS
370
-3
390
F
  0
LAYER
  5
210
100
AcDbSymbolTableRecord
100
AcDbLayerTableRecord
  2
ESTETICA
 70
0
 62
7
  6
CONTINUOUS
370
-3
390
F
  0
LAYER
  5
211
100
AcDbSymbolTableRecord
100
AcDbLayerTableRecord
  2
IGES_INCISIONI
 70
0
 62
7
  6
CONTINUOUS
370
-3
390
F
  0
LAYER
  5
212
100
AcDbSymbolTableRecord
100
AcDbLayerTableRecord
  2
IMPIANTO
 70
0
 62
7
  6
CONTINUOUS
370
-3
390
F
  0
LAYER
  5
213
100
AcDbSymbolTableRecord
100
AcDbLayerTableRecord
  2
IMPORT
 70
0
 62
7
  6
CONTINUOUS
370
-3
390
F
  0
LAYER
  5
214
100
AcDbSymbolTableRecord
100
AcDbLayerTableRecord
  2
INCISIONI_LASER
 70
0
 62
7
  6
CONTINUOUS
370
-3
390
F
  0
LAYER
  5
215
100
AcDbSymbolTableRecord
100
AcDbLayerTableRecord
  2
INTFCLR_3
 70
0
 62
7
  6
CONTINUOUS
370
-3
390
F
  0
LAYER
  5
216
100
AcDbSymbolTableRecord
100
AcDbLayerTableRecord
  2
INTF_1
 70
0
 62
7
  6
CONTINUOUS
370
-3
390
F
  0
LAYER
  5
217
100
AcDbSymbolTableRecord
100
AcDbLayerTableRecord
  2
INTF_12
 70
0
 62
7
  6
CONTINUOUS
370
-3
390
F
  0
LAYER
  5
218
100
AcDbSymbolTableRecord
100
AcDbLayerTableRecord
  2
INTF_2
 70
0
 62
7
  6
CONTINUOUS
370
-3
390
F
  0
LAYER
  5
219
100
AcDbSymbolTableRecord
100
AcDbLayerTableRecord
  2
INTF_RED
 70
0
 62
7
  6
CONTINUOUS
370
-3
390
F
  0
LAYER
  5
21A
100
AcDbSymbolTableRecord
100
AcDbLayerTableRecord
  2
INTF_YELLOW
 70
0
 62
7
  6
CONTINUOUS
370
-3
390
F
  0
LAYER
  5
21B
100
AcDbSymbolTableRecord
100
AcDbLayerTableRecord
  2
NOTE
 70
0
 62
7
  6
CONTINUOUS
370
-3
390
F
  0
LAYER
  5
21C
100
AcDbSymbolTableRecord
100
AcDbLayerTableRecord
  2
PIANI
 70
0
 62
7
  6
CONTINUOUS
370
-3
390
F
  0
LAYER
  5
21D
100
AcDbSymbolTableRecord
100
AcDbLayerTableRecord
  2
PIANI_CONTATTI
 70
0
 62
7
  6
CONTINUOUS
370
-3
390
F
  0
LAYER
  5
21E
100
AcDbSymbolTableRecord
100
AcDbLayerTableRecord
  2
PIANI_ORIGINE
 70
0
 62
7
  6
CONTINUOUS
370
-3
390
F
  0
LAYER
  5
21F
100
AcDbSymbolTableRecord
100
AcDbLayerTableRecord
  2
PIANI_RIFERIMENTO
 70
0
 62
7
  6
CONTINUOUS
370
-3
390
F
  0
LAYER
  5
220
100
AcDbSymbolTableRecord
100
AcDbLayerTableRecord
  2
PUNTI
 70
0
 62
7
  6
CONTINUOUS
370
-3
390
F
  0
LAYER
  5
221
100
AcDbSymbolTableRecord
100
AcDbLayerTableRecord
  2
RACCORDO
 70
0
 62
7
  6
CONTINUOUS
370
-3
390
F
  0
LAYER
  5
222
100
AcDbSymbolTableRecord
100
AcDbLayerTableRecord
  2
RGB__255__255__255__
 70
0
 62
7
  6
CONTINUOUS
370
-3
390
F
  0
LAYER
  5
223
100
AcDbSymbolTableRecord
100
AcDbLayerTableRecord
  2
SKELETON
 70
0
 62
7
  6
CONTINUOUS
370
-3
390
F
  0
LAYER
  5
224
100
AcDbSymbolTableRecord
100
AcDbLayerTableRecord
  2
SMUSSO
 70
0
 62
7
  6
CONTINUOUS
370
-3
390
F
  0
LAYER
  5
225
100
AcDbSymbolTableRecord
100
AcDbLayerTableRecord
  2
SNAPLINE
 70
0
 62
7
  6
CONTINUOUS
370
-3
390
F
  0
LAYER
  5
226
100
AcDbSymbolTableRecord
100
AcDbLayerTableRecord
  2
SUPERFICI
 70
0
 62
7
  6
CONTINUOUS
370
-3
390
F
  0
LAYER
  5
227
100
AcDbSymbolTableRecord
100
AcDbLayerTableRecord
  2
TRACCIABILITA
 70
0
 62
7
  6
CONTINUOUS
370
-3
390
F
  0
LAYER
  5
228
100
AcDbSymbolTableRecord
100
AcDbLayerTableRecord
  2
TRASH
 70
0
 62
7
  6
CONTINUOUS
370
-3
390
F
  0
LAYER
  5
229
100
AcDbSymbolTableRecord
100
AcDbLayerTableRecord
  2
WHITE
 70
0
 62
7
  6
CONTINUOUS
370
-3
390
F
  0
LAYER
  5
22A
100
AcDbSymbolTableRecord
100
AcDbLayerTableRecord
  2
XSEC_DATUMS
 70
0
 62
7
  6
CONTINUOUS
370
-3
390
F
  0
LAYER
  5
22B
100
AcDbSymbolTableRecord
100
AcDbLayerTableRecord
  2
_PRO
 70
0
 62
7
  6
CONTINUOUS
370
-3
390
F
  0
ENDTAB
  0
TABLE
  2
STYLE
  5
3
100
AcDbSymbolTable
 70
1
  0
STYLE
  5
11
100
AcDbSymbolTableRecord
100
AcDbTextStyleTableRecord
  2
STANDARD
 70
0
 40
0.0
 41
0.8
 50
0.0
 71
0
 42
0.2
  3
txt
  4

  0
STYLE
  5
22C
100
AcDbSymbolTableRecord
100
AcDbTextStyleTableRecord
  2
TEXTSTYLE_1
 70
0
 40
0.0
 41
0.8
 50
0.0
 71
0
 42
0.2
  3
gdt
  4

  0
ENDTAB
  0
TABLE
  2
VIEW
  5
6
100
AcDbSymbolTable
 70
0
  0
ENDTAB
  0
TABLE
  2
UCS
  5
7
100
AcDbSymbolTable
 70
0
  0
ENDTAB
  0
TABLE
  2
APPID
  5
9
100
AcDbSymbolTable
 70
1
  0
APPID
  5
22D
100
AcDbSymbolTableRecord
100
AcDbRegAppTableRecord
  2
ACAD
 70
0
  0
ENDTAB
  0
TABLE
  2
BLOCK_RECORD
  5
1
100
AcDbSymbolTable
 70
0
  0
BLOCK_RECORD
  5
22E
100
AcDbSymbolTableRecord
100
AcDbBlockTableRecord
  2
*Model_Space
  0
BLOCK_RECORD
  5
22F
100
AcDbSymbolTableRecord
100
AcDbBlockTableRecord
  2
*Paper_Space
  0
BLOCK_RECORD
  5
230
100
AcDbSymbolTableRecord
100
AcDbBlockTableRecord
  2
_FILLED
  0
ENDTAB
  0
TABLE
  2
DIMSTYLE
  5
A
100
AcDbSymbolTable
 70
1
100
AcDbDimStyleTable
 71
0
  0
DIMSTYLE
105
231
100
AcDbSymbolTableRecord
100
AcDbDimStyleTableRecord
  2
STANDARD
 70
0
  3

  4

 40
1.0
 41
3.0
 42
0.5
 43
0.38
 44
1.5
 45
0.0
 46
0.0
 47
0.01
 48
0.01
140
3.0
141
0.09
142
0.0
143
25.4
144
1.0
145
0.0
146
1.0
147
0.625
 71
1
 72
0
 73
0
 74
0
 75
0
 76
0
 77
1
 78
8
 79
2
170
0
171
1
172
0
173
0
174
0
175
0
176
0
177
0
178
0
270
2
179
2
271
2
272
2
273
2
274
2
275
0
280
0
281
0
282
0
283
1
284
8
285
0
286
0
287
3
288
0
340
11
278
44
341
230
342
230
343
230
344
230
  0
ENDTAB
  0
ENDSEC
  0
SECTION
  2
BLOCKS
  0
BLOCK
  5
20
100
AcDbEntity
  8
0
100
AcDbBlockBegin
  2
*Model_Space
 70
0
 10
0.0
 20
0.0
 30
0.0
  3
*Model_Space
  1

  0
ENDBLK
  5
21
100
AcDbEntity
  8
0
100
AcDbBlockEnd
  0
BLOCK
  5
1C
100
AcDbEntity
  8
0
100
AcDbBlockBegin
  2
*Paper_Space
 70
0
 10
0.0
 20
0.0
 30
0.0
  3
*Paper_Space
  1

  0
ENDBLK
  5
1D
100
AcDbEntity
  8
0
100
AcDbBlockEnd
  0
BLOCK
  5
232
100
AcDbEntity
  8
0
100
AcDbBlockBegin
  2
_FILLED
 70
64
 10
0.0
 20
0.0
  3
_FILLED
  1

  0
SOLID
  5
233
100
AcDbEntity
  8
0
  6
BYBLOCK
 62
0
100
AcDbTrace
 10
0.0
 20
0.0
 11
-1.0
 21
0.3166666667
 12
-1.0
 22
-0.3166666667
 13
-1.0
 23
-0.3166666667
  0
ENDBLK
  5
234
100
AcDbEntity
  8
0
  6
BYBLOCK
 62
0
100
AcDbBlockEnd
  0
ENDSEC
  0
SECTION
  2
ENTITIES
  0
LWPOLYLINE
  5
235
100
AcDbEntity
  8
290200030
100
AcDbPolyline
 62
7
  6
CONTINUOUS
 90
14
 70
0
 10
-21.5543512039
 20
18.2518576512
 10
-21.6246540525
 20
18.2066255879
 10
-21.6893001545
 20
18.1570032755
 10
-21.7508003217
 20
18.1016986539
 10
-21.8089166145
 20
18.0410819353
 10
-21.8630385554
 20
17.9759419025
 10
-21.9131345846
 20
17.9064813361
 10
-21.9590307651
 20
17.8329486943
 10
-22.0000139342
 20
17.7564864705
 10
-22.0359899536
 20
17.6773837971
 10
-22.0667603363
 20
17.5958796951
 10
-22.0918085142
 20
17.5131972558
 10
-22.1109460774
 20
17.4298566667
 10
-22.1247587705
 20
17.3398300553
  0
LINE
  5
236
100
AcDbEntity
  8
268200010
100
AcDbLine
 62
7
  6
CONTINUOUS
 10
-17.9480552003
 20
21.5551673169
 11
-16.364881535
 21
22.3673653751
  0
LINE
  5
237
100
AcDbEntity
  8
268200010
100
AcDbLine
 62
250
  6
CONTINUOUS
 10
-17.8349695342
 20
21.5487193418
 11
-16.252212931
 21
22.3607034391
  0
LINE
  5
238
100
AcDbEntity
  8
268200010
100
AcDbLine
 62
7
  6
CONTINUOUS
 10
-16.364881537
 20
22.3673653741
 11
-16.3631451203
 21
22.3682335968
  0
LWPOLYLINE
  5
239
100
AcDbEntity
  8
268200010
100
AcDbPolyline
 62
250
  6
CONTINUOUS
 90
16
 70
0
 10
-17.9480552003
 20
21.5551673169
 10
-17.9446574761
 20
21.5568249413
 10
-17.9379122551
 20
21.5596374891
 10
-17.9309315162
 20
21.5619360425
 10
-17.9237310722
 20
21.5637153949
 10
-17.9163272338
 20
21.5649715156
 10
-17.9087367723
 20
21.5657015593
 10
-17.9009768819
 20
21.5659038721
 10
-17.8930651404
 20
21.5655779958
 10
-17.8850194697
 20
21.5647246687
 10
-17.876858095
 20
21.5633458236
 10
-17.8685995037
 20
21.5614445841
 10
-17.8602624034
 20
21.5590252567
 10
-17.8518656794
 20
21.5560933218
 10
-17.8434283522
 20
21.552655421
 10
-17.8349695342
 20
21.5487193418
  0
LINE
  5
23A
100
AcDbEntity
  8
268200010
100
AcDbLine
 62
7
  6
CONTINUOUS
 10
-16.3631451212
 20
22.3682335964
 11
-15.8282751635
 21
22.6287856968
  0
LINE
  5
23B
100
AcDbEntity
  8
268200010
100
AcDbLine
 62
250
  6
CONTINUOUS
 10
-16.252212931
 20
22.3607034391
 11
-15.7177630524
 21
22.6210509057
  0
LWPOLYLINE
  5
23C
100
AcDbEntity
  8
268200010
100
AcDbPolyline
 62
7
  6
CONTINUOUS
 90
16
 70
0
 10
-16.3631451203
 20
22.3682335968
 10
-16.361487492
 20
22.3690211053
 10
-16.3547520031
 20
22.3718286432
 10
-16.3477842639
 20
22.3741205048
 10
-16.3406000069
 20
22.3758915246
 10
-16.3332154912
 20
22.3771376997
 10
-16.3256475369
 20
22.3778561649
 10
-16.3179132154
 20
22.37804533
 10
-16.3100300094
 20
22.3777047867
 10
-16.3020159099
 20
22.3768352451
 10
-16.2938889796
 20
22.375438722
 10
-16.2856675685
 20
22.3735184122
 10
-16.2773704718
 20
22.3710785855
 10
-16.2690164785
 20
22.3681247745
 10
-16.2606243293
 20
22.3646637615
 10
-16.252212931
 20
22.3607034391
  0
LWPOLYLINE
  5
23D
100
AcDbEntity
  8
268200010
100
AcDbPolyline
 62
250
  6
CONTINUOUS
 90
16
 70
0
 10
-15.8282751635
 20
22.6287856968
 10
-15.8266024401
 20
22.6295801463
 10
-15.8198755098
 20
22.6323818008
 10
-15.8129195281
 20
22.6346660819
 10
-15.8057501863
 20
22.6364278234
 10
-15.7983837905
 20
22.6376630054
 10
-15.7908371935
 20
22.6383688153
 10
-15.7831276075
 20
22.6385436845
 10
-15.7752724082
 20
22.6381872594
 10
-15.7672892496
 20
22.6373003555
 10
-15.759195002
 20
22.6358847313
 10
-15.7510091912
 20
22.6339436877
 10
-15.742753925
 20
22.6314827906
 10
-15.7344491693
 20
22.6285087411
 10
-15.7261125878
 20
22.6250286086
 10
-15.7177630524
 20
22.6210509057
  0
LWPOLYLINE
  5
23E
100
AcDbEntity
  8
268200010
100
AcDbPolyline
 62
250
  6
CONTINUOUS
 90
34
 70
0
 10
-4.0285217271
 20
-27.7263075123
 10
-4.0199567954
 20
-27.7303918669
 10
-4.0110110121
 20
-27.7342705367
 10
-4.0017039831
 20
-27.7379345547
 10
-3.9920547981
 20
-27.7413758821
 10
-3.9820860109
 20
-27.7445859697
 10
-3.9718240195
 20
-27.7475561073
 10
-3.961293458
 20
-27.7502792358
 10
-3.9505165373
 20
-27.7527496808
 10
-3.9395172998
 20
-27.7549619229
 10
-3.9283203297
 20
-27.7569109961
 10
-3.9169509369
 20
-27.7585924736
 10
-3.9054349192
 20
-27.7600025337
 10
-3.8937982829
 20
-27.7611379985
 10
-3.882067099
 20
-27.7619963304
 10
-3.8702676765
 20
-27.7625756042
 10
-3.8584265207
 20
-27.7628745144
 10
-3.8465702956
 20
-27.7628923839
 10
-3.8347256873
 20
-27.7626291702
 10
-3.8229193418
 20
-27.762085464
 10
-3.8111778082
 20
-27.7612624867
 10
-3.7995274993
 20
-27.7601620881
 10
-3.7879946175
 20
-27.7587867417
 10
-3.7766051045
 20
-27.7571395398
 10
-3.7653845868
 20
-27.7552241875
 10
-3.7543583033
 20
-27.7530449927
 10
-3.7435510532
 20
-27.7506068559
 10
-3.7329871477
 20
-27.7479152612
 10
-3.7226903424
 20
-27.7449762606
 10
-3.7126838025
 20
-27.7417964655
 10
-3.7029900528
 20
-27.7383830341
 10
-3.6936309007
 20
-27.7347436471
 10
-3.6846273893
 20
-27.730886489
 10
-3.6759997675
 20
-27.7268202362
  0
LWPOLYLINE
  5
23F
100
AcDbEntity
  8
290200030
100
AcDbPolyline
 62
7
  6
CONTINUOUS
 90
12
 70
0
 10
-6.7721859332
 20
-27.5536808298
 10
-6.7563031455
 20
-27.5613920795
 10
-6.7010603914
 20
-27.5845045689
 10
-6.6434671433
 20
-27.6029557064
 10
-6.5839994765
 20
-27.6164791591
 10
-6.522982801
 20
-27.6249041902
 10
-6.4605395101
 20
-27.6281048396
 10
-6.3970411164
 20
-27.625932016
 10
-6.3329228972
 20
-27.6182757321
 10
-6.2682979548
 20
-27.6049961462
 10
-6.2034194286
 20
-27.5859749989
 10
-6.1459246931
 20
-27.56423361
  0
LINE
  5
240
100
AcDbEntity
  8
290200030
100
AcDbLine
 62
7
  6
CONTINUOUS
 10
-6.7714465098
 20
-27.5540604364
 11
-21.7277589134
 21
-20.0759042346
  0
LINE
  5
241
100
AcDbEntity
  8
290200030
100
AcDbLine
 62
250
  6
CONTINUOUS
 10
-7.0256559106
 20
-27.1370963682
 11
-21.9775707936
 21
-19.6611389267
  0
LINE
  5
242
100
AcDbEntity
  8
290200030
100
AcDbLine
 62
250
  6
CONTINUOUS
 10
-21.7277587123
 20
-20.0759043352
 11
-21.7554538293
 21
-20.0605373105
  0
LWPOLYLINE
  5
243
100
AcDbEntity
  8
290200030
100
AcDbPolyline
 62
250
  6
CONTINUOUS
 90
10
 70
0
 10
-21.7554538293
 20
-20.0605373105
 10
-21.7935324659
 20
-20.0338437782
 10
-21.8286661342
 20
-20.002212779
 10
-21.8606560191
 20
-19.9658245137
 10
-21.8893162028
 20
-19.92488906
 10
-21.9144783926
 20
-19.8796442169
 10
-21.9359991305
 20
-19.8303507652
 10
-21.9537540141
 20
-19.777293789
 10
-21.9676382557
 20
-19.7207808336
 10
-21.9775707936
 20
-19.6611389267
  0
LINE
  5
244
100
AcDbEntity
  8
290200030
100
AcDbLine
 62
7
  6
CONTINUOUS
 10
-21.5544872355
 20
18.2517916679
 11
-20.3824365068
 21
18.9352045943
  0
LINE
  5
245
100
AcDbEntity
  8
268200010
100
AcDbLine
 62
7
  6
CONTINUOUS
 10
-18.058241075
 20
20.2078203362
 11
-17.4880417483
 21
20.5402987699
  0
LINE
  5
246
100
AcDbEntity
  8
290200030
100
AcDbLine
 62
250
  6
CONTINUOUS
 10
-21.3211331886
 20
18.2430242743
 11
-20.1485337317
 21
18.9267571596
  0
LINE
  5
247
100
AcDbEntity
  8
268200010
100
AcDbLine
 62
250
  6
CONTINUOUS
 10
-17.8243382998
 20
20.1993729015
 11
-17.3809481406
 21
20.4579099758
  0
LINE
  5
248
100
AcDbEntity
  8
268200010
100
AcDbLine
 62
250
  6
CONTINUOUS
 10
-16.1564314638
 20
20.7094503066
 11
-14.555150673
 21
21.5121723101
  0
LINE
  5
249
100
AcDbEntity
  8
268200010
100
AcDbLine
 62
250
  6
CONTINUOUS
 10
-15.9796577601
 20
20.4045607678
 11
-14.3783769693
 21
21.2072827713
  0
LINE
  5
24A
100
AcDbEntity
  8
268200010
100
AcDbLine
 62
250
  6
CONTINUOUS
 10
-14.555150673
 20
21.5121723101
 11
-14.0268835012
 21
21.7756111301
  0
LINE
  5
24B
100
AcDbEntity
  8
268200010
100
AcDbLine
 62
250
  6
CONTINUOUS
 10
-14.3783769693
 20
21.2072827713
 11
-13.8501097975
 21
21.4707215913
  0
LWPOLYLINE
  5
24C
100
AcDbEntity
  8
290200030
100
AcDbPolyline
 62
250
  6
CONTINUOUS
 90
8
 70
0
 10
-21.5543569648
 20
18.2518675535
 10
-21.5288957932
 20
18.2640964434
 10
-21.4983887331
 20
18.2729883646
 10
-21.4657393867
 20
18.276921448
 10
-21.4313050516
 20
18.275852652
 10
-21.3954625596
 20
18.2697936727
 10
-21.3586041521
 20
18.2588108166
 10
-21.3211331886
 20
18.2430242743
  0
LINE
  5
24D
100
AcDbEntity
  8
268200010
100
AcDbLine
 62
250
  6
CONTINUOUS
 10
-1.5464518049
 20
-26.3282430611
 11
-2.0747189766
 21
-26.2197407841
  0
LINE
  5
24E
100
AcDbEntity
  8
268200010
100
AcDbLine
 62
250
  6
CONTINUOUS
 10
-1.6358656002
 20
-26.0086762551
 11
-2.0747189766
 21
-25.9185389284
  0
LWPOLYLINE
  5
24F
100
AcDbEntity
  8
268200010
100
AcDbPolyline
 62
7
  6
CONTINUOUS
 90
16
 70
0
 10
-2.9647791594
 20
-26.5353498249
 10
-2.9705178426
 20
-26.5341321356
 10
-2.9764435623
 20
-26.5328140613
 10
-2.9825550439
 20
-26.5313994852
 10
-2.9888536202
 20
-26.5298962205
 10
-2.9953346755
 20
-26.5283047753
 10
-3.0019877031
 20
-26.5266183258
 10
-3.0088105877
 20
-26.524841656
 10
-3.01580079
 20
-26.522979341
 10
-3.0229469067
 20
-26.5210244682
 10
-3.030246091
 20
-26.5189823214
 10
-3.0376951088
 20
-26.5168580029
 10
-3.0452817173
 20
-26.514644551
 10
-3.0530023127
 20
-26.5123477419
 10
-3.0608529482
 20
-26.5099731944
 10
-3.068820608
 20
-26.5075139363
  0
LWPOLYLINE
  5
250
100
AcDbEntity
  8
268200010
100
AcDbPolyline
 62
7
  6
CONTINUOUS
 90
3
 70
0
 10
-3.068820608
 20
-26.5075139363
 10
-3.0850892193
 20
-26.5023661741
 10
-3.0933716734
 20
-26.4996768865
  0
LWPOLYLINE
  5
251
100
AcDbEntity
  8
268200010
100
AcDbPolyline
 62
7
  6
CONTINUOUS
 90
3
 70
0
 10
-3.0933716734
 20
-26.4996768865
 10
-3.1101981745
 20
-26.4940873552
 10
-3.1187221613
 20
-26.49118697
  0
LWPOLYLINE
  5
252
100
AcDbEntity
  8
268200010
100
AcDbPolyline
 62
7
  6
CONTINUOUS
 90
3
 70
0
 10
-3.1187221613
 20
-26.49118697
 10
-3.1359528908
 20
-26.4851967675
 10
-3.144637959
 20
-26.4821075484
  0
LWPOLYLINE
  5
253
100
AcDbEntity
  8
268200010
100
AcDbPolyline
 62
7
  6
CONTINUOUS
 90
3
 70
0
 10
-3.144637959
 20
-26.4821075484
 10
-3.1621046457
 20
-26.4757646307
 10
-3.1708629275
 20
-26.4725123923
  0
LWPOLYLINE
  5
254
100
AcDbEntity
  8
268200010
100
AcDbPolyline
 62
7
  6
CONTINUOUS
 90
17
 70
0
 10
-3.1708629275
 20
-26.4725123923
 10
-3.1883822458
 20
-26.4658720407
 10
-3.1971182685
 20
-26.4624863916
 10
-3.2058243071
 20
-26.4590634358
 10
-3.2144915721
 20
-26.4556116983
 10
-3.2231022219
 20
-26.4521262703
 10
-3.2316467759
 20
-26.4486156044
 10
-3.2401156708
 20
-26.4450885787
 10
-3.2484905162
 20
-26.4415411573
 10
-3.2567609196
 20
-26.4379819217
 10
-3.2649165755
 20
-26.4344200222
 10
-3.2729387962
 20
-26.4308524705
 10
-3.2808060102
 20
-26.4272940264
 10
-3.2885177829
 20
-26.4237473153
 10
-3.2960856751
 20
-26.4201935965
 10
-3.3035042104
 20
-26.4166353563
 10
-3.3107520904
 20
-26.4130936138
  0
LWPOLYLINE
  5
255
100
AcDbEntity
  8
268200010
100
AcDbPolyline
 62
250
  6
CONTINUOUS
 90
34
 70
0
 10
-4.0285217271
 20
-27.3863335782
 10
-4.0199421067
 20
-27.390424612
 10
-4.0109842282
 20
-27.3943076692
 10
-4.001668237
 20
-27.3979740171
 10
-3.9920150953
 20
-27.4014154065
 10
-3.9820465013
 20
-27.4046241027
 10
-3.9717848369
 20
-27.4075928995
 10
-3.9612531516
 20
-27.4103151239
 10
-3.9504751515
 20
-27.4127846439
 10
-3.9394751123
 20
-27.4149958958
 10
-3.9282777856
 20
-27.4169439045
 10
-3.9169083409
 20
-27.4186242917
 10
-3.9053923479
 20
-27.4200332782
 10
-3.8937557057
 20
-27.4211676953
 10
-3.8820245843
 20
-27.4220249919
 10
-3.8702253659
 20
-27.42260324
 10
-3.8583845774
 20
-27.4229011392
 10
-3.8465288569
 20
-27.4229180191
 10
-3.834684893
 20
-27.4226538426
 10
-3.8228793389
 20
-27.4221092066
 10
-3.8111387268
 20
-27.4212853376
 10
-3.7994894346
 20
-27.4201840875
 10
-3.7879575754
 20
-27.4188079217
 10
-3.7765691705
 20
-27.4171599422
 10
-3.7653500557
 20
-27.4152438965
 10
-3.7543255967
 20
-27.4130641405
 10
-3.7435204201
 20
-27.4106255676
 10
-3.7329585983
 20
-27.40793362
 10
-3.7226630574
 20
-27.4049941024
 10
-3.7126578187
 20
-27.401813834
 10
-3.7029675097
 20
-27.3984007542
 10
-3.6936143804
 20
-27.394762968
 10
-3.6846184807
 20
-27.3909085512
 10
-3.6759997675
 20
-27.3868463021
  0
LINE
  5
256
100
AcDbEntity
  8
268200010
100
AcDbLine
 62
7
  6
CONTINUOUS
 10
-5.282753707
 20
-27.2019233243
 11
-3.9635484307
 21
-27.8615259624
  0
LINE
  5
257
100
AcDbEntity
  8
268200010
100
AcDbLine
 62
250
  6
CONTINUOUS
 10
-5.1710594923
 20
-27.1550386298
 11
-4.0285217271
 21
-27.7263075123
  0
LINE
  5
258
100
AcDbEntity
  8
268200010
100
AcDbLine
 62
250
  6
CONTINUOUS
 10
-4.0285217271
 20
-27.3863335782
 11
-4.8430413447
 21
-26.9790737694
  0
LINE
  5
259
100
AcDbEntity
  8
268200010
100
AcDbLine
 62
250
  6
CONTINUOUS
 10
-3.9401333795
 20
-27.1546394044
 11
-4.7901127131
 21
-26.7296497375
  0
LINE
  5
25A
100
AcDbEntity
  8
268200010
100
AcDbLine
 62
7
  6
CONTINUOUS
 10
-3.3107520904
 20
-26.4130936138
 11
-4.7901127131
 21
-25.673431304
  0
LINE
  5
25B
100
AcDbEntity
  8
268200010
100
AcDbLine
 62
7
  6
CONTINUOUS
 10
-2.8006876551
 20
-25.9742311058
 11
-3.317301119
 21
-25.7159243738
  0
LWPOLYLINE
  5
25C
100
AcDbEntity
  8
290200030
100
AcDbPolyline
 62
250
  6
CONTINUOUS
 90
8
 70
0
 10
-22.1237831045
 20
-19.4863361637
 10
-22.118125582
 20
-19.512881911
 10
-22.1068117178
 20
-19.5417432771
 10
-22.0903659909
 20
-19.5693198304
 10
-22.0689646501
 20
-19.5953160335
 10
-22.0428370531
 20
-19.6194532855
 10
-22.0122632091
 20
-19.6414729076
 10
-21.9775707777
 20
-19.6611389159
  0
LWPOLYLINE
  5
25D
100
AcDbEntity
  8
290200030
100
AcDbPolyline
 62
7
  6
CONTINUOUS
 90
12
 70
0
 10
-22.1237678993
 20
-19.4863341744
 10
-22.1216505911
 20
-19.5016786658
 10
-22.1047280312
 20
-19.5879658091
 10
-22.0802511587
 20
-19.6690771732
 10
-22.0488981058
 20
-19.7443388678
 10
-22.0111604258
 20
-19.8137828267
 10
-21.9671585407
 20
-19.877718636
 10
-21.917541246
 20
-19.9355327467
 10
-21.8629191576
 20
-19.9868758161
 10
-21.8031627716
 20
-20.0319556972
 10
-21.7386210688
 20
-20.0703425649
 10
-21.7268167436
 20
-20.0763636665
  0
LINE
  5
25E
100
AcDbEntity
  8
290200030
100
AcDbLine
 62
7
  6
CONTINUOUS
 10
-22.1238584161
 20
-19.4857594003
 11
-22.1237831045
 21
-19.4863361637
  0
LWPOLYLINE
  5
25F
100
AcDbEntity
  8
290200030
100
AcDbPolyline
 62
250
  6
CONTINUOUS
 90
9
 70
0
 10
-22.8098693791
 20
-9.7139431154
 10
-22.8089672089
 20
-9.7274175853
 10
-22.8031639779
 20
-9.7536725524
 10
-22.7920760481
 20
-9.7794195321
 10
-22.7758222195
 20
-9.8043826626
 10
-22.7545766413
 20
-9.8282944798
 10
-22.728566946
 20
-9.8508987844
 10
-22.6980718107
 20
-9.8719533859
 10
-22.6634179709
 20
-9.8912326978
  0
LWPOLYLINE
  5
260
100
AcDbEntity
  8
290200030
100
AcDbPolyline
 62
250
  6
CONTINUOUS
 90
9
 70
0
 10
-22.872433292
 20
-1.0006754156
 10
-22.8715134253
 20
-1.015543188
 10
-22.8657072075
 20
-1.0409939466
 10
-22.8546380955
 20
-1.0660418599
 10
-22.8384026878
 20
-1.0904170585
 10
-22.8171707925
 20
-1.1138598866
 10
-22.7911752462
 20
-1.1361277339
 10
-22.7606570705
 20
-1.1569824039
 10
-22.7259681081
 20
-1.1761947379
  0
LWPOLYLINE
  5
261
100
AcDbEntity
  8
290200030
100
AcDbPolyline
 62
250
  6
CONTINUOUS
 90
9
 70
0
 10
-22.8098711888
 20
6.8692333585
 10
-22.8089671815
 20
6.852641345
 10
-22.8031639491
 20
6.8274714393
 10
-22.7920760184
 20
6.8026679637
 10
-22.7758221894
 20
6.7784966711
 10
-22.7545766113
 20
6.7552165412
 10
-22.7285669167
 20
6.7330770056
 10
-22.6980717825
 20
6.7123152748
 10
-22.6634179442
 20
6.6931537974
  0
LWPOLYLINE
  5
262
100
AcDbEntity
  8
290200030
100
AcDbPolyline
 62
250
  6
CONTINUOUS
 90
8
 70
0
 10
-22.7259859153
 20
-1.1762036205
 10
-22.7245258052
 20
-1.2034388327
 10
-22.720128778
 20
-1.2287403785
 10
-22.7128684929
 20
-1.2516844044
 10
-22.702866575
 20
-1.2718865499
 10
-22.6902905772
 20
-1.2890083871
 10
-22.6753511736
 20
-1.3027630896
 10
-22.661220487
 20
-1.3115130249
  0
LWPOLYLINE
  5
263
100
AcDbEntity
  8
290200030
100
AcDbPolyline
 62
7
  6
CONTINUOUS
 90
12
 70
0
 10
-22.8724332949
 20
-1.0006796174
 10
-22.87167801
 20
-1.0223260312
 10
-22.8670550868
 20
-1.0582067998
 10
-22.8582094095
 20
-1.093679742
 10
-22.8451650754
 20
-1.1283177415
 10
-22.8280476452
 20
-1.1616151814
 10
-22.8068765005
 20
-1.1933730894
 10
-22.7817047317
 20
-1.2233281223
 10
-22.7527329625
 20
-1.2511205119
 10
-22.7199779578
 20
-1.2766151851
 10
-22.6833286261
 20
-1.299720867
 10
-22.6612146318
 20
-1.3115013844
  0
LWPOLYLINE
  5
264
100
AcDbEntity
  8
290200030
100
AcDbPolyline
 62
7
  6
CONTINUOUS
 90
10
 70
0
 10
-22.8098693549
 20
-9.7139429645
 10
-22.7874183845
 20
-10.7813960789
 10
-22.7505066164
 20
-11.9062429215
 10
-22.7001142207
 20
-13.0234151822
 10
-22.6362492264
 20
-14.1326409424
 10
-22.5589235438
 20
-15.2336976166
 10
-22.4681490208
 20
-16.3263808568
 10
-22.3639400928
 20
-17.4104690119
 10
-22.2463213957
 20
-18.485699575
 10
-22.1238584161
 20
-19.4857594003
  0
LWPOLYLINE
  5
265
100
AcDbEntity
  8
290200030
100
AcDbPolyline
 62
250
  6
CONTINUOUS
 90
10
 70
0
 10
-22.663417971
 20
-9.8912326978
 10
-22.6759896266
 20
-9.0270458715
 10
-22.6871564071
 20
-8.1621058476
 10
-22.696918286
 20
-7.296416135
 10
-22.7052752199
 20
-6.4299827243
 10
-22.7122272245
 20
-5.5628066551
 10
-22.7177743331
 20
-4.6948839951
 10
-22.7219165157
 20
-3.8262157607
 10
-22.7246537193
 20
-2.9568079375
 10
-22.7259859153
 20
-2.0866640331
  0
LWPOLYLINE
  5
266
100
AcDbEntity
  8
290200030
100
AcDbPolyline
 62
7
  6
CONTINUOUS
 90
9
 70
0
 10
-22.8712221781
 20
-2.7267839185
 10
-22.8685110072
 20
-3.6116845455
 10
-22.8643443652
 20
-4.49582458
 10
-22.8587222622
 20
-5.379199929
 10
-22.8516447182
 20
-6.2618071577
 10
-22.8431117526
 20
-7.1436430173
 10
-22.8331233918
 20
-8.0247039686
 10
-22.8216796824
 20
-8.904985811
 10
-22.8098693791
 20
-9.7139431154
  0
LINE
  5
267
100
AcDbEntity
  8
290200030
100
AcDbLine
 62
7
  6
CONTINUOUS
 10
-22.8712221781
 20
-2.7267839185
 11
-22.8724332851
 21
-1.9086343346
  0
LWPOLYLINE
  5
268
100
AcDbEntity
  8
290200030
100
AcDbPolyline
 62
250
  6
CONTINUOUS
 90
10
 70
0
 10
-22.7259859153
 20
-1.1762036205
 10
-22.7246537193
 20
-0.304680233
 10
-22.7219165157
 20
0.5675619482
 10
-22.7177743331
 20
1.4405193867
 10
-22.7122272245
 20
2.3141860443
 10
-22.7052752199
 20
3.1885608742
 10
-22.696918286
 20
4.0636478415
 10
-22.6871564071
 20
4.9394459217
 10
-22.6759896266
 20
5.8159490812
 10
-22.663417971
 20
6.6931537846
  0
LWPOLYLINE
  5
269
100
AcDbEntity
  8
290200030
100
AcDbPolyline
 62
7
  6
CONTINUOUS
 90
10
 70
0
 10
-22.8098712133
 20
6.8692334661
 10
-22.821761785
 20
6.0421561258
 10
-22.83319542
 20
5.1500609589
 10
-22.8431738007
 20
4.258689851
 10
-22.8516968686
 20
3.3680470544
 10
-22.8587645852
 20
2.4781361388
 10
-22.8643769187
 20
1.5889603805
 10
-22.8685338371
 20
0.7005232431
 10
-22.8712353183
 20
-0.1871711601
 10
-22.872433292
 20
-1.0006754156
  0
LWPOLYLINE
  5
26A
100
AcDbEntity
  8
290200030
100
AcDbPolyline
 62
250
  6
CONTINUOUS
 90
10
 70
0
 10
-22.663417971
 20
6.6931537846
 10
-22.639627928
 20
7.834866799
 10
-22.602706082
 20
8.98282906
 10
-22.5526603216
 20
10.1367994551
 10
-22.4895016258
 20
11.2965357449
 10
-22.4132432087
 20
12.46179428
 10
-22.3239005132
 20
13.6323300539
 10
-22.221492347
 20
14.8078971985
 10
-22.1060408819
 20
15.9882490343
 10
-21.9775707936
 20
17.1731377893
  0
LWPOLYLINE
  5
26B
100
AcDbEntity
  8
290200030
100
AcDbPolyline
 62
250
  6
CONTINUOUS
 90
13
 70
0
 10
-22.7259859153
 20
-2.0866640331
 10
-22.7245256687
 20
-2.0579674543
 10
-22.7201282948
 20
-2.0282677575
 10
-22.7128675215
 20
-1.9980625257
 10
-22.7028650351
 20
-1.9678577693
 10
-22.6902884637
 20
-1.9381595258
 10
-22.6753485882
 20
-1.9094653769
 10
-22.6582957566
 20
-1.8822559951
 10
-22.6394156865
 20
-1.8569871326
 10
-22.6190247224
 20
-1.8340820531
 10
-22.5974644915
 20
-1.8139243764
 10
-22.5750961728
 20
-1.7968516642
 10
-22.5522944702
 20
-1.7831497958
  0
LWPOLYLINE
  5
26C
100
AcDbEntity
  8
290200030
100
AcDbPolyline
 62
7
  6
CONTINUOUS
 90
10
 70
0
 10
-22.1247583299
 20
17.3399495241
 10
-22.2476419794
 20
16.2089117812
 10
-22.3650011935
 20
15.0138325072
 10
-22.4689895557
 20
13.8235677047
 10
-22.5595780456
 20
12.6384070037
 10
-22.6367477659
 20
11.4585898354
 10
-22.7004823797
 20
10.2843365676
 10
-22.7507656312
 20
9.1158848327
 10
-22.787585192
 20
7.9535168634
 10
-22.8098711888
 20
6.8692333585
  0
LWPOLYLINE
  5
26D
100
AcDbEntity
  8
290200030
100
AcDbPolyline
 62
250
  6
CONTINUOUS
 90
19
 70
0
 10
-21.9775707936
 20
17.1731377893
 10
-21.9676382557
 20
17.2428901345
 10
-21.9537540141
 20
17.3135312936
 10
-21.9359991305
 20
17.3846531769
 10
-21.9144783926
 20
17.4558459886
 10
-21.8893162028
 20
17.5266977049
 10
-21.8606560191
 20
17.5967964768
 10
-21.8286661342
 20
17.6657371989
 10
-21.7935324659
 20
17.7331228892
 10
-21.7554538293
 20
17.7985639614
 10
-21.7146527218
 20
17.8616832925
 10
-21.6713665749
 20
17.922116781
 10
-21.6258399319
 20
17.9795141777
 10
-21.5783376093
 20
18.0335454386
 10
-21.5291369527
 20
18.0838980754
 10
-21.4785184868
 20
18.1302772858
 10
-21.4267753267
 20
18.1724145834
 10
-21.3742113644
 20
18.2100690815
 10
-21.3211331886
 20
18.2430242743
  0
LWPOLYLINE
  5
26E
100
AcDbEntity
  8
268200010
100
AcDbPolyline
 62
250
  6
CONTINUOUS
 90
30
 70
0
 10
-15.9796577601
 20
20.0645868336
 10
-15.9840782856
 20
20.0536953389
 10
-15.9888854809
 20
20.04302907
 10
-15.9940684965
 20
20.0326121002
 10
-15.9996156346
 20
20.02246794
 10
-16.0055143756
 20
20.0126194841
 10
-16.0117514064
 20
20.0030889599
 10
-16.0183126505
 20
19.9938978772
 10
-16.0251832994
 20
19.9850669798
 10
-16.0323478466
 20
19.9766161985
 10
-16.039790122
 20
19.9685646061
 10
-16.0474933289
 20
19.9609303748
 10
-16.0554400816
 20
19.9537307344
 10
-16.0636124448
 20
19.9469819341
 10
-16.0719919739
 20
19.9406992056
 10
-16.0805597568
 20
19.9348967287
 10
-16.0892964566
 20
19.9295875991
 10
-16.098182355
 20
19.9247837993
 10
-16.107197397
 20
19.9204961712
 10
-16.1163212363
 20
19.9167343916
 10
-16.1255332809
 20
19.9135069507
 10
-16.1348127397
 20
19.9108211327
 10
-16.1441386696
 20
19.9086829992
 10
-16.1534900225
 20
19.907097376
 10
-16.1628456929
 20
19.9060678416
 10
-16.1721845656
 20
19.9055967197
 10
-16.1814855634
 20
19.9056850735
 10
-16.1907276945
 20
19.9063327037
 10
-16.1998900998
 20
19.9075381486
 10
-16.2065012536
 20
19.9087656729
  0
LINE
  5
26F
100
AcDbEntity
  8
268200010
100
AcDbLine
 62
250
  6
CONTINUOUS
 10
-14.3783769693
 20
20.4802379188
 11
-13.8501097975
 21
21.1231900746
  0
LINE
  5
270
100
AcDbEntity
  8
268200010
100
AcDbLine
 62
7
  6
CONTINUOUS
 10
-14.3783769693
 20
20.3907074525
 11
-13.8347492251
 21
21.052354908
  0
LINE
  5
271
100
AcDbEntity
  8
268200010
100
AcDbLine
 62
7
  6
CONTINUOUS
 10
-14.3783769693
 20
19.6051321103
 11
-15.268437152
 21
19.108451189
  0
LWPOLYLINE
  5
272
100
AcDbEntity
  8
268200010
100
AcDbPolyline
 62
7
  6
CONTINUOUS
 90
8
 70
0
 10
-16.9436550612
 20
17.56210494
 10
-16.9484410767
 20
17.5595331339
 10
-16.982509708
 20
17.5385984919
 10
-17.0145293912
 20
17.514091666
 10
-17.0441350846
 20
17.4862065947
 10
-17.0709796378
 20
17.4552220178
 10
-17.0950123092
 20
17.4210686534
 10
-17.1042697481
 20
17.4046251679
  0
LINE
  5
273
100
AcDbEntity
  8
268200010
100
AcDbLine
 62
7
  6
CONTINUOUS
 10
-16.8698798737
 20
17.6010632114
 11
-16.9436043537
 21
17.5621317189
  0
LINE
  5
274
100
AcDbEntity
  8
268200010
100
AcDbLine
 62
7
  6
CONTINUOUS
 10
-12.3984779819
 20
20.0008232627
 11
-13.4529674134
 21
19.459850224
  0
LINE
  5
275
100
AcDbEntity
  8
268200010
100
AcDbLine
 62
7
  6
CONTINUOUS
 10
-12.7873867116
 20
19.1270598731
 11
-11.9396813256
 21
19.5569527698
  0
LINE
  5
276
100
AcDbEntity
  8
268200010
100
AcDbLine
 62
7
  6
CONTINUOUS
 10
-6.4213688023
 20
22.2798238413
 11
-11.0196197586
 21
20.0134625438
  0
LINE
  5
277
100
AcDbEntity
  8
268200010
100
AcDbLine
 62
7
  6
CONTINUOUS
 10
-7.062254576
 20
22.6002667282
 11
-12.3984779819
 21
20.0008232627
  0
LINE
  5
278
100
AcDbEntity
  8
268200010
100
AcDbLine
 62
7
  6
CONTINUOUS
 10
-6.2112755903
 20
23.599452383
 11
-13.6884743167
 21
19.9622491768
  0
LWPOLYLINE
  5
279
100
AcDbEntity
  8
268200010
100
AcDbPolyline
 62
7
  6
CONTINUOUS
 90
7
 70
0
 10
-6.4213688023
 20
22.2798238413
 10
-6.4161551028
 20
22.2823459311
 10
-6.4109504205
 20
22.2847703178
 10
-6.4057547553
 20
22.2870970016
 10
-6.4005681073
 20
22.2893259824
 10
-6.3953904764
 20
22.2914572602
 10
-6.3902218627
 20
22.293490835
  0
LINE
  5
27A
100
AcDbEntity
  8
218140580
100
AcDbLine
 62
7
  6
CONTINUOUS
 10
-3.9096370419
 20
24.0792227326
 11
-5.3327371681
 21
23.4080926555
  0
LINE
  5
27B
100
AcDbEntity
  8
218140580
100
AcDbLine
 62
250
  6
CONTINUOUS
 10
-3.4707522914
 20
24.0468197976
 11
-5.086359595
 21
23.2849038689
  0
LWPOLYLINE
  5
27C
100
AcDbEntity
  8
218140580
100
AcDbPolyline
 62
250
  6
CONTINUOUS
 90
26
 70
0
 10
-3.4707522914
 20
24.0468197976
 10
-3.451479687
 20
24.0557220592
 10
-3.4322305748
 20
24.0639692539
 10
-3.4130192683
 20
24.0715552474
 10
-3.3938600606
 20
24.0784743949
 10
-3.3747671907
 20
24.0847215529
 10
-3.3557548331
 20
24.0902920808
 10
-3.3368371059
 20
24.0951818372
 10
-3.3180280969
 20
24.0993871758
 10
-3.2993418302
 20
24.1029049591
 10
-3.2807922136
 20
24.1057325697
 10
-3.2623930276
 20
24.1078679076
 10
-3.2441579514
 20
24.1093093851
 10
-3.2261005432
 20
24.11005593
 10
-3.208234232
 20
24.1101069869
 10
-3.1905723055
 20
24.1094625177
 10
-3.1731278978
 20
24.1081230016
 10
-3.15591398
 20
24.1060894347
 10
-3.1389433521
 20
24.1033633292
 10
-3.1222286335
 20
24.0999467121
 10
-3.1057822533
 20
24.0958421241
 10
-3.089616441
 20
24.0910526173
 10
-3.0737432175
 20
24.0855817533
 10
-3.0581743861
 20
24.0794336
 10
-3.0429215238
 20
24.0726127294
 10
-3.0358794109
 20
24.0691831272
  0
LWPOLYLINE
  5
27D
100
AcDbEntity
  8
268200010
100
AcDbPolyline
 62
7
  6
CONTINUOUS
 90
23
 70
0
 10
-16.8698492058
 20
17.6010033404
 10
-16.8486881333
 20
17.6107530512
 10
-16.8149347285
 20
17.6206716976
 10
-16.7787287488
 20
17.625193847
 10
-16.7411802424
 20
17.6241649373
 10
-16.7022117162
 20
17.6174051439
 10
-16.6619006633
 20
17.6050942912
 10
-16.6215896103
 20
17.58761729
 10
-16.5812785574
 20
17.5647832383
 10
-16.5409675044
 20
17.536783038
 10
-16.5019989783
 20
17.5045743052
 10
-16.4644504718
 20
17.4680547086
 10
-16.4282444922
 20
17.4273265794
 10
-16.3944910874
 20
17.3836545282
 10
-16.3632430064
 20
17.3369143849
 10
-16.3344475003
 20
17.2872303195
 10
-16.3090563701
 20
17.2362394526
 10
-16.2871919419
 20
17.1839186489
 10
-16.2687318896
 20
17.1302910438
 10
-16.2542610362
 20
17.0770631634
 10
-16.2439743228
 20
17.0248038501
 10
-16.2376768082
 20
16.9729442615
 10
-16.2376026768
 20
16.9712916322
  0
LWPOLYLINE
  5
27E
100
AcDbEntity
  8
268200010
100
AcDbPolyline
 62
250
  6
CONTINUOUS
 90
23
 70
0
 10
-16.943453154
 20
17.5622115651
 10
-16.9198351796
 20
17.5728235297
 10
-16.8881673134
 20
17.5819508277
 10
-16.8537293303
 20
17.5862795312
 10
-16.8171055968
 20
17.5854149143
 10
-16.7785529991
 20
17.5791216643
 10
-16.7384943012
 20
17.5671798166
 10
-16.6979341548
 20
17.5497626385
 10
-16.657329012
 20
17.5270892299
 10
-16.617137084
 20
17.4993844787
 10
-16.5783725076
 20
17.4674370649
 10
-16.5414555574
 20
17.4318673519
 10
-16.5066644333
 20
17.3931756473
 10
-16.4746340277
 20
17.3523641967
 10
-16.4455855289
 20
17.3101967082
 10
-16.4195161855
 20
17.2671396157
 10
-16.3965388696
 20
17.2238422542
 10
-16.3766219055
 20
17.1808244709
 10
-16.359661881
 20
17.138476064
 10
-16.3455619146
 20
17.0971879959
 10
-16.3341686253
 20
17.0572732193
 10
-16.3252964884
 20
17.0189665479
 10
-16.3245435443
 20
17.014762066
  0
LWPOLYLINE
  5
27F
100
AcDbEntity
  8
268200010
100
AcDbPolyline
 62
7
  6
CONTINUOUS
 90
3
 70
0
 10
-7.0290518783
 20
22.6145481329
 10
-7.0181392651
 20
22.6182672038
 10
-7.0068524087
 20
22.6213995942
  0
LWPOLYLINE
  5
280
100
AcDbEntity
  8
268200010
100
AcDbPolyline
 62
250
  6
CONTINUOUS
 90
5
 70
0
 10
-1.612450549
 20
-26.0167636312
 10
-1.6166391142
 20
-26.0147969754
 10
-1.622859001
 20
-26.0123213355
 10
-1.6292718987
 20
-26.0102798
 10
-1.6358656002
 20
-26.0086762551
  0
LINE
  5
281
100
AcDbEntity
  8
268200010
100
AcDbLine
 62
250
  6
CONTINUOUS
 10
-2.0747189766
 20
-25.7892495669
 11
-1.6358656002
 21
-26.0086762551
  0
LINE
  5
282
100
AcDbEntity
  8
268200010
100
AcDbLine
 62
7
  6
CONTINUOUS
 10
-2.0747189766
 20
-25.7856294174
 11
-1.612450549
 21
-26.0167636312
  0
LINE
  5
283
100
AcDbEntity
  8
268200010
100
AcDbLine
 62
7
  6
CONTINUOUS
 10
-4.3896574624
 20
-23.6250524318
 11
-4.7901127131
 21
-23.4248248064
  0
LINE
  5
284
100
AcDbEntity
  8
268200010
100
AcDbLine
 62
250
  6
CONTINUOUS
 10
-1.6275352967
 20
-26.0131418388
 11
-1.6358656002
 21
-26.0086762551
  0
LINE
  5
285
100
AcDbEntity
  8
268200010
100
AcDbLine
 62
250
  6
CONTINUOUS
 10
-4.4653402197
 20
-22.940911566
 11
-4.4591015674
 21
-22.9444632621
  0
LWPOLYLINE
  5
286
100
AcDbEntity
  8
290200030
100
AcDbPolyline
 62
250
  6
CONTINUOUS
 90
12
 70
0
 10
-22.6213509868
 20
-1.716748434
 10
-22.6243635617
 20
-1.7057672206
 10
-22.6255091206
 20
-1.6947600907
 10
-22.6247402556
 20
-1.6837282524
 10
-22.6221043746
 20
-1.6726704977
 10
-22.617669112
 20
-1.6618362244
 10
-22.6113848075
 20
-1.6512272731
 10
-22.6033011215
 20
-1.6408418031
 10
-22.593634669
 20
-1.630923691
 10
-22.5824576553
 20
-1.6215542288
 10
-22.5696978752
 20
-1.6126521245
 10
-22.5553553288
 20
-1.6042173779
  0
LWPOLYLINE
  5
287
100
AcDbEntity
  8
290200030
100
AcDbPolyline
 62
250
  6
CONTINUOUS
 90
10
 70
0
 10
-21.9775707936
 20
-19.6611389267
 10
-22.1060408819
 20
-18.6092603254
 10
-22.221492347
 20
-17.5484385002
 10
-22.3239005132
 20
-16.4788965473
 10
-22.4132432087
 20
-15.4008595402
 10
-22.4895016258
 20
-14.3145539737
 10
-22.5526603216
 20
-13.2202077143
 10
-22.602706082
 20
-12.1180506314
 10
-22.639627928
 20
-11.0083145513
 10
-22.663417971
 20
-9.8912326978
  0
LWPOLYLINE
  5
288
100
AcDbEntity
  8
290200030
100
AcDbPolyline
 62
250
  6
CONTINUOUS
 90
9
 70
0
 10
-22.1247587705
 20
17.3398300553
 10
-22.1241718203
 20
17.3173280023
 10
-22.1181101113
 20
17.2959949226
 10
-22.1067955308
 20
17.2745276362
 10
-22.0903493328
 20
17.2531562002
 10
-22.0689477653
 20
17.2321096445
 10
-22.0428201811
 20
17.2116135175
 10
-22.0122465799
 20
17.1918874687
 10
-21.9775546079
 20
17.1731428948
  0
LWPOLYLINE
  5
289
100
AcDbEntity
  8
268200010
100
AcDbPolyline
 62
7
  6
CONTINUOUS
 90
18
 70
0
 10
-6.3569282494
 20
20.9261898928
 10
-6.3450901227
 20
20.9346264647
 10
-6.3340762413
 20
20.942944756
 10
-6.323886605
 20
20.9511447666
 10
-6.3145734821
 20
20.9591359976
 10
-6.3060846044
 20
20.967008948
 10
-6.2982631674
 20
20.9750351147
 10
-6.2910463268
 20
20.9833186341
 10
-6.284496927
 20
20.9917553698
 10
-6.2786466966
 20
21.0003044093
 10
-6.2734990336
 20
21.0089662923
 10
-6.26905054
 20
21.017740479
 10
-6.2653227514
 20
21.0265844373
 10
-6.2623191651
 20
21.0354985089
 10
-6.2600362837
 20
21.0444823522
 10
-6.2584851508
 20
21.0534924097
 10
-6.2576693193
 20
21.0625288046
 10
-6.2575309539
 20
21.0680954806
  0
LINE
  5
28A
100
AcDbEntity
  8
268200010
100
AcDbLine
 62
7
  6
CONTINUOUS
 10
-12.7873867116
 20
17.6808971074
 11
-12.0802799304
 21
18.0798369662
  0
LINE
  5
28B
100
AcDbEntity
  8
268200010
100
AcDbLine
 62
7
  6
CONTINUOUS
 10
-9.9589595869
 20
17.3954234191
 11
-10.1710916212
 21
17.2757414615
  0
LINE
  5
28C
100
AcDbEntity
  8
268200010
100
AcDbLine
 62
250
  6
CONTINUOUS
 10
-8.623653773
 20
17.8912764112
 11
-8.6162794541
 21
17.895251834
  0
LINE
  5
28D
100
AcDbEntity
  8
268200010
100
AcDbLine
 62
250
  6
CONTINUOUS
 10
-10.3133357289
 20
18.7437799714
 11
-10.1003809431
 21
18.8517747433
  0
LINE
  5
28E
100
AcDbEntity
  8
268200010
100
AcDbLine
 62
250
  6
CONTINUOUS
 10
-10.1710916212
 20
18.5002785195
 11
-9.9589595869
 21
18.6078560532
  0
LINE
  5
28F
100
AcDbEntity
  8
268200010
100
AcDbLine
 62
7
  6
CONTINUOUS
 10
-8.4931472364
 20
18.0087350235
 11
-8.7059147605
 21
17.9008352168
  0
LINE
  5
290
100
AcDbEntity
  8
268200010
100
AcDbLine
 62
250
  6
CONTINUOUS
 10
-8.4033246682
 20
18.0032466058
 11
-8.6162794541
 21
17.895251834
  0
LINE
  5
291
100
AcDbEntity
  8
268200010
100
AcDbLine
 62
7
  6
CONTINUOUS
 10
-5.3867891765
 20
20.489504404
 11
-4.2828223074
 21
21.0414878385
  0
LINE
  5
292
100
AcDbEntity
  8
268200010
100
AcDbLine
 62
7
  6
CONTINUOUS
 10
-8.4923824357
 20
18.0091174084
 11
-8.4931472208
 21
18.0087350314
  0
LINE
  5
293
100
AcDbEntity
  8
268200010
100
AcDbLine
 62
7
  6
CONTINUOUS
 10
-9.2518528057
 20
17.7444422698
 11
-9.9589595869
 21
17.3954234191
  0
LWPOLYLINE
  5
294
100
AcDbEntity
  8
218140580
100
AcDbPolyline
 62
7
  6
CONTINUOUS
 90
6
 70
0
 10
-6.2821220982
 20
19.7504347352
 10
-6.2894067421
 20
19.7468417595
 10
-6.2974881151
 20
19.7422864124
 10
-6.3052897147
 20
19.7372609695
 10
-6.3128095852
 20
19.7317669343
 10
-6.3201313219
 20
19.7257280174
  0
LINE
  5
295
100
AcDbEntity
  8
268200010
100
AcDbLine
 62
7
  6
CONTINUOUS
 10
-6.3902218627
 20
20.909534732
 11
-6.3527150028
 21
20.9280209122
  0
LINE
  5
296
100
AcDbEntity
  8
268200010
100
AcDbLine
 62
250
  6
CONTINUOUS
 10
-10.1003809431
 20
18.8517747433
 11
-9.3932741619
 21
19.2002897455
  0
LINE
  5
297
100
AcDbEntity
  8
268200010
100
AcDbLine
 62
7
  6
CONTINUOUS
 10
-3.2373314083
 20
22.112480292
 11
-5.3867891765
 21
21.0530670624
  0
LINE
  5
298
100
AcDbEntity
  8
268200010
100
AcDbLine
 62
250
  6
CONTINUOUS
 10
-9.9589595869
 20
18.6078560532
 11
-9.2518528057
 21
18.9563710554
  0
LINE
  5
299
100
AcDbEntity
  8
268200010
100
AcDbLine
 62
7
  6
CONTINUOUS
 10
-7.7852756712
 20
18.3576324021
 11
-8.4923824524
 21
18.0091173999
  0
LINE
  5
29A
100
AcDbEntity
  8
268200010
100
AcDbLine
 62
250
  6
CONTINUOUS
 10
-7.6962178871
 20
18.351761608
 11
-8.4033246682
 21
18.0032466058
  0
LINE
  5
29B
100
AcDbEntity
  8
218140580
100
AcDbLine
 62
250
  6
CONTINUOUS
 10
-6.0091626661
 20
19.7591557667
 11
-5.9622324241
 21
19.7818033531
  0
LINE
  5
29C
100
AcDbEntity
  8
218140580
100
AcDbLine
 62
250
  6
CONTINUOUS
 10
-5.9622324241
 20
19.7818033531
 11
-5.9503969834
 21
19.7874400294
  0
LINE
  5
29D
100
AcDbEntity
  8
218140580
100
AcDbLine
 62
250
  6
CONTINUOUS
 10
-6.0196108842
 20
19.7541808457
 11
-6.0091626661
 21
19.7591557667
  0
LWPOLYLINE
  5
29E
100
AcDbEntity
  8
268200010
100
AcDbPolyline
 62
7
  6
CONTINUOUS
 90
31
 70
0
 10
-6.3569282494
 20
20.9261898928
 10
-6.3298928473
 20
20.938973787
 10
-6.3025594736
 20
20.9510818362
 10
-6.2749281281
 20
20.9625140404
 10
-6.247120493
 20
20.9732148556
 10
-6.2190148862
 20
20.9832398259
 10
-6.190246261
 20
20.9927555831
 10
-6.1606561479
 20
21.0018280833
 10
-6.1304030163
 20
21.0103913705
 10
-6.0995972282
 20
21.0184142084
 10
-6.0682367675
 20
21.0258946223
 10
-6.0363236502
 20
21.032834587
 10
-6.0039742865
 20
21.0392087901
 10
-5.9711870808
 20
21.0450151655
 10
-5.9379636287
 20
21.0502557794
 10
-5.9044251266
 20
21.0549115176
 10
-5.8705704274
 20
21.0589802435
 10
-5.8364006783
 20
21.0624640938
 10
-5.8020405168
 20
21.0653503643
 10
-5.7674892457
 20
21.0676368728
 10
-5.7327475623
 20
21.0693258016
 10
-5.6979421961
 20
21.0704109936
 10
-5.6630729177
 20
21.0708902437
 10
-5.6281399566
 20
21.070765757
 10
-5.5932707305
 20
21.0700379913
 10
-5.5584654703
 20
21.0687047433
 10
-5.5237239451
 20
21.0667682164
 10
-5.4891728806
 20
21.064235478
 10
-5.4548545186
 20
21.0611088842
 10
-5.4207266173
 20
21.057386079
 10
-5.3867891765
 20
21.0530670624
  0
LINE
  5
29F
100
AcDbEntity
  8
218140580
100
AcDbLine
 62
250
  6
CONTINUOUS
 10
-5.9503969834
 20
19.7874400294
 11
-5.9412757799
 21
19.7917311878
  0
LINE
  5
2A0
100
AcDbEntity
  8
218140580
100
AcDbLine
 62
250
  6
CONTINUOUS
 10
-6.0273481485
 20
19.7505458135
 11
-6.0196108842
 21
19.7541808457
  0
LINE
  5
2A1
100
AcDbEntity
  8
218140580
100
AcDbLine
 62
250
  6
CONTINUOUS
 10
-5.9412757799
 20
19.7917311878
 11
-5.9319286584
 21
19.7960713913
  0
LINE
  5
2A2
100
AcDbEntity
  8
218140580
100
AcDbLine
 62
250
  6
CONTINUOUS
 10
-6.0699261382
 20
19.7308689314
 11
-6.0273481485
 21
19.7505458135
  0
LINE
  5
2A3
100
AcDbEntity
  8
218140580
100
AcDbLine
 62
7
  6
CONTINUOUS
 10
-6.2308912905
 20
19.7740538271
 11
-6.2821232039
 21
19.7504342246
  0
LINE
  5
2A4
100
AcDbEntity
  8
218140580
100
AcDbLine
 62
250
  6
CONTINUOUS
 10
-5.9319286584
 20
19.7960713913
 11
-5.9223416702
 21
19.8004552939
  0
LWPOLYLINE
  5
2A5
100
AcDbEntity
  8
218140580
100
AcDbPolyline
 62
250
  6
CONTINUOUS
 90
22
 70
0
 10
-6.2482768548
 20
19.7660655903
 10
-6.2451485417
 20
19.7674755222
 10
-6.2359000793
 20
19.7712494163
 10
-6.226440465
 20
19.7745318718
 10
-6.2167798247
 20
19.777319375
 10
-6.206928499
 20
19.7796089422
 10
-6.1968970331
 20
19.7813981226
 10
-6.1866961646
 20
19.782685001
 10
-6.1763368126
 20
19.7834682001
 10
-6.1658300661
 20
19.7837468813
 10
-6.1551871713
 20
19.7835207465
 10
-6.1444195207
 20
19.7827900376
 10
-6.13353864
 20
19.7815555369
 10
-6.1225561762
 20
19.7798185657
 10
-6.1114838851
 20
19.7775809833
 10
-6.1003336186
 20
19.7748451849
 10
-6.089117312
 20
19.7716140988
 10
-6.0778469714
 20
19.7678911837
 10
-6.0665346606
 20
19.7636804246
 10
-6.0551924885
 20
19.7589863287
 10
-6.0438325958
 20
19.7538139207
 10
-6.0324671423
 20
19.7481687371
  0
LINE
  5
2A6
100
AcDbEntity
  8
218140580
100
AcDbLine
 62
250
  6
CONTINUOUS
 10
-5.9223416702
 20
19.8004552939
 11
-5.9158105584
 21
19.8033994604
  0
LINE
  5
2A7
100
AcDbEntity
  8
218140580
100
AcDbLine
 62
250
  6
CONTINUOUS
 10
-5.9158105584
 20
19.8033994604
 11
-5.9091620497
 21
19.8063587221
  0
LINE
  5
2A8
100
AcDbEntity
  8
218140580
100
AcDbLine
 62
250
  6
CONTINUOUS
 10
-5.9091620497
 20
19.8063587221
 11
-5.9023929754
 21
19.8093318444
  0
LINE
  5
2A9
100
AcDbEntity
  8
218140580
100
AcDbLine
 62
250
  6
CONTINUOUS
 10
-5.9023929754
 20
19.8093318444
 11
-5.8954984245
 21
19.8123170227
  0
LINE
  5
2AA
100
AcDbEntity
  8
218140580
100
AcDbLine
 62
250
  6
CONTINUOUS
 10
-5.8954984245
 20
19.8123170227
 11
-5.8884743409
 21
19.8153120178
  0
LINE
  5
2AB
100
AcDbEntity
  8
218140580
100
AcDbLine
 62
250
  6
CONTINUOUS
 10
-5.8884743409
 20
19.8153120178
 11
-5.8813179789
 21
19.8183153461
  0
LINE
  5
2AC
100
AcDbEntity
  8
218140580
100
AcDbLine
 62
250
  6
CONTINUOUS
 10
-5.8813179789
 20
19.8183153461
 11
-5.8740252792
 21
19.8213247407
  0
LINE
  5
2AD
100
AcDbEntity
  8
218140580
100
AcDbLine
 62
250
  6
CONTINUOUS
 10
-5.8740252792
 20
19.8213247407
 11
-5.8665922233
 21
19.8243378625
  0
LINE
  5
2AE
100
AcDbEntity
  8
218140580
100
AcDbLine
 62
250
  6
CONTINUOUS
 10
-5.8665922233
 20
19.8243378625
 11
-5.8590161848
 21
19.827353118
  0
LINE
  5
2AF
100
AcDbEntity
  8
218140580
100
AcDbLine
 62
250
  6
CONTINUOUS
 10
-5.8590161848
 20
19.827353118
 11
-5.8512933238
 21
19.8303680587
  0
LINE
  5
2B0
100
AcDbEntity
  8
218140580
100
AcDbLine
 62
250
  6
CONTINUOUS
 10
-5.8512933238
 20
19.8303680587
 11
-5.8434197
 21
19.8333802083
  0
LINE
  5
2B1
100
AcDbEntity
  8
218140580
100
AcDbLine
 62
250
  6
CONTINUOUS
 10
-5.8434197
 20
19.8333802083
 11
-5.8353927728
 21
19.8363878657
  0
LINE
  5
2B2
100
AcDbEntity
  8
218140580
100
AcDbLine
 62
250
  6
CONTINUOUS
 10
-5.8353927728
 20
19.8363878657
 11
-5.8272087652
 21
19.8393884403
  0
LINE
  5
2B3
100
AcDbEntity
  8
218140580
100
AcDbLine
 62
250
  6
CONTINUOUS
 10
-5.8272087652
 20
19.8393884403
 11
-5.8188644009
 21
19.8423790838
  0
LINE
  5
2B4
100
AcDbEntity
  8
218140580
100
AcDbLine
 62
250
  6
CONTINUOUS
 10
-5.8188644009
 20
19.8423790838
 11
-5.810357563
 21
19.8453578607
  0
LINE
  5
2B5
100
AcDbEntity
  8
218140580
100
AcDbLine
 62
250
  6
CONTINUOUS
 10
-5.810357563
 20
19.8453578607
 11
-5.8016851953
 21
19.8483218028
  0
LINE
  5
2B6
100
AcDbEntity
  8
218140580
100
AcDbLine
 62
250
  6
CONTINUOUS
 10
-5.8016851953
 20
19.8483218028
 11
-5.7928445983
 21
19.8512677565
  0
LINE
  5
2B7
100
AcDbEntity
  8
218140580
100
AcDbLine
 62
250
  6
CONTINUOUS
 10
-5.7928445983
 20
19.8512677565
 11
-5.7838340923
 21
19.8541935689
  0
LINE
  5
2B8
100
AcDbEntity
  8
218140580
100
AcDbLine
 62
250
  6
CONTINUOUS
 10
-5.7838340923
 20
19.8541935689
 11
-5.7746513281
 21
19.8570959342
  0
LINE
  5
2B9
100
AcDbEntity
  8
218140580
100
AcDbLine
 62
250
  6
CONTINUOUS
 10
-5.7746513281
 20
19.8570959342
 11
-5.7652944199
 21
19.8599713513
  0
LINE
  5
2BA
100
AcDbEntity
  8
218140580
100
AcDbLine
 62
250
  6
CONTINUOUS
 10
-5.7652944199
 20
19.8599713513
 11
-5.7557620319
 21
19.8628174976
  0
LINE
  5
2BB
100
AcDbEntity
  8
218140580
100
AcDbLine
 62
250
  6
CONTINUOUS
 10
-5.7557620319
 20
19.8628174976
 11
-5.74605192
 21
19.8656309403
  0
LINE
  5
2BC
100
AcDbEntity
  8
268200010
100
AcDbLine
 62
250
  6
CONTINUOUS
 10
-2.4474033891
 20
-22.7679132501
 11
-3.5598849081
 21
-22.2116724906
  0
LINE
  5
2BD
100
AcDbEntity
  8
268200010
100
AcDbLine
 62
250
  6
CONTINUOUS
 10
-2.1807823014
 20
-22.2209186025
 11
-3.1353791484
 21
-21.743620179
  0
LINE
  5
2BE
100
AcDbEntity
  8
268200010
100
AcDbLine
 62
7
  6
CONTINUOUS
 10
-1.1570228679
 20
-21.3903575186
 11
-2.32220635
 21
-20.8077657776
  0
LINE
  5
2BF
100
AcDbEntity
  8
268200010
100
AcDbLine
 62
250
  6
CONTINUOUS
 10
-18.083791428
 20
20.9888226517
 11
-18.0839410949
 21
20.9927569404
  0
LWPOLYLINE
  5
2C0
100
AcDbEntity
  8
268200010
100
AcDbPolyline
 62
250
  6
CONTINUOUS
 90
22
 70
0
 10
-18.0107177902
 20
20.9043685927
 10
-18.0105495379
 20
20.8950088444
 10
-18.0100451015
 20
20.8858351652
 10
-18.009205441
 20
20.8768650177
 10
-18.0080321549
 20
20.868115477
 10
-18.0065274766
 20
20.8596031985
 10
-18.0046942703
 20
20.8513443856
 10
-18.0025360257
 20
20.8433547596
 10
-18.000056851
 20
20.8356495291
 10
-17.9972614655
 20
20.8282433615
 10
-17.9941551904
 20
20.8211503549
 10
-17.9907439386
 20
20.8143840112
 10
-17.9870342038
 20
20.8079572104
 10
-17.9830330475
 20
20.8018821865
 10
-17.9787480862
 20
20.7961705035
 10
-17.9741874766
 20
20.7908330339
 10
-17.9693599
 20
20.785879938
 10
-17.964274546
 20
20.7813206442
 10
-17.9589410949
 20
20.7771638314
 10
-17.9533696991
 20
20.7734174124
 10
-17.9475709643
 20
20.7700885186
 10
-17.9457444937
 20
20.7691501426
  0
LINE
  5
2C1
100
AcDbEntity
  8
268200010
100
AcDbLine
 62
7
  6
CONTINUOUS
 10
-18.1776225658
 20
19.9428041409
 11
-18.1776225658
 21
17.9413015767
  0
LINE
  5
2C2
100
AcDbEntity
  8
268200010
100
AcDbLine
 62
7
  6
CONTINUOUS
 10
-18.0839410949
 20
21.3327308745
 11
-18.0839410949
 21
20.9927569404
  0
LINE
  5
2C3
100
AcDbEntity
  8
268200010
100
AcDbLine
 62
250
  6
CONTINUOUS
 10
-18.0107177902
 20
21.2443425268
 11
-18.0107177902
 21
20.9043685927
  0
LINE
  5
2C4
100
AcDbEntity
  8
268200010
100
AcDbLine
 62
7
  6
CONTINUOUS
 10
-17.3809481406
 20
20.486751966
 11
-17.3809481406
 21
20.0327778644
  0
LINE
  5
2C5
100
AcDbEntity
  8
268200010
100
AcDbLine
 62
250
  6
CONTINUOUS
 10
-17.3077248359
 20
20.4501403137
 11
-17.3077248359
 21
19.9410661695
  0
LWPOLYLINE
  5
2C6
100
AcDbEntity
  8
268200010
100
AcDbPolyline
 62
250
  6
CONTINUOUS
 90
34
 70
0
 10
-18.0107177902
 20
21.2443425268
 10
-18.0105189874
 20
21.254707005
 10
-18.0099230251
 20
21.2652469899
 10
-18.0089312419
 20
21.2759387755
 10
-18.0075458659
 20
21.2867583214
 10
-18.0057700118
 20
21.2976812857
 10
-18.0036076767
 20
21.3086830797
 10
-18.001063726
 20
21.3197389519
 10
-17.9981438813
 20
21.3308240409
 10
-17.9948547113
 20
21.3419134106
 10
-17.9912036144
 20
21.3529821205
 10
-17.9871988038
 20
21.3640052729
 10
-17.9828492916
 20
21.3749580661
 10
-17.9781648629
 20
21.3858158638
 10
-17.9731560548
 20
21.3965542469
 10
-17.9678341363
 20
21.4071490601
 10
-17.9622110759
 20
21.4175764798
 10
-17.9562995252
 20
21.4278130486
 10
-17.9501127934
 20
21.4378357255
 10
-17.9436648168
 20
21.4476219435
 10
-17.9369700836
 20
21.4571497233
 10
-17.9300436074
 20
21.4663976983
 10
-17.9229008969
 20
21.4753451487
 10
-17.9155580795
 20
21.4839718595
 10
-17.9080318328
 20
21.4922582499
 10
-17.9003391985
 20
21.5001855984
 10
-17.8924973859
 20
21.5077362113
 10
-17.884523887
 20
21.5148932605
 10
-17.8764354095
 20
21.5216416336
 10
-17.8682513382
 20
21.5279650435
 10
-17.8599936674
 20
21.5338468194
 10
-17.8516822468
 20
21.5392735695
 10
-17.8433346144
 20
21.5442345835
 10
-17.8349695342
 20
21.5487193418
  0
LINE
  5
2C7
100
AcDbEntity
  8
218140580
100
AcDbLine
 62
7
  6
CONTINUOUS
 10
-8.0097211508
 20
18.2470089166
 11
-6.3201309454
 21
19.7257281976
  0
LINE
  5
2C8
100
AcDbEntity
  8
218140580
100
AcDbLine
 62
250
  6
CONTINUOUS
 10
-7.665660469
 20
18.336482899
 11
-6.071531063
 21
19.7316554571
  0
LINE
  5
2C9
100
AcDbEntity
  8
268200010
100
AcDbLine
 62
7
  6
CONTINUOUS
 10
-6.9899338573
 20
17.0820790357
 11
-7.8376392433
 21
16.652186139
  0
LINE
  5
2CA
100
AcDbEntity
  8
268200010
100
AcDbLine
 62
7
  6
CONTINUOUS
 10
-6.1052276294
 20
16.8541980864
 11
-7.1720585415
 21
16.3193957881
  0
LINE
  5
2CB
100
AcDbEntity
  8
268200010
100
AcDbLine
 62
7
  6
CONTINUOUS
 10
-0.8307355602
 20
19.4845072203
 11
-6.1052276294
 21
16.8541980864
  0
LINE
  5
2CC
100
AcDbEntity
  8
268200010
100
AcDbLine
 62
7
  6
CONTINUOUS
 10
-1.471621334
 20
19.8049501072
 11
-6.0698722903
 21
17.5385888097
  0
LINE
  5
2CD
100
AcDbEntity
  8
268200010
100
AcDbLine
 62
7
  6
CONTINUOUS
 10
-0.6670821121
 20
19.1668806391
 11
1.0053092788
 21
19.9911599485
  0
LWPOLYLINE
  5
2CE
100
AcDbEntity
  8
268200010
100
AcDbPolyline
 62
7
  6
CONTINUOUS
 90
7
 70
0
 10
-1.471621334
 20
19.8049501072
 10
-1.4664076345
 20
19.8074721969
 10
-1.4612029522
 20
19.8098965837
 10
-1.456007287
 20
19.8122232674
 10
-1.450820639
 20
19.8144522482
 10
-1.4456430081
 20
19.816583526
 10
-1.4404743944
 20
19.8186171008
  0
LWPOLYLINE
  5
2CF
100
AcDbEntity
  8
268200010
100
AcDbPolyline
 62
7
  6
CONTINUOUS
 90
21
 70
0
 10
1.0053092788
 20
19.9911599485
 10
1.0299370548
 20
20.0027703105
 10
1.0544740562
 20
20.0132944703
 10
1.078920283
 20
20.0227324279
 10
1.1033081654
 20
20.0310936884
 10
1.1276052732
 20
20.0383687468
 10
1.1517143159
 20
20.0445290875
 10
1.1756267733
 20
20.0495693011
 10
1.1993511657
 20
20.053494797
 10
1.222815764
 20
20.0562932883
 10
1.2460301779
 20
20.0579613346
 10
1.2689847976
 20
20.0585023764
 10
1.2915790646
 20
20.057914448
 10
1.3137992582
 20
20.0561944245
 10
1.335659099
 20
20.0533454309
 10
1.3570991909
 20
20.0493748771
 10
1.3781315334
 20
20.0442755552
 10
1.3987441269
 20
20.0380546732
 10
1.4188415765
 20
20.0307412642
 10
1.438408232
 20
20.0223370045
 10
1.4484093653
 20
20.0175200094
  0
LWPOLYLINE
  5
2D0
100
AcDbEntity
  8
218140580
100
AcDbPolyline
 62
250
  6
CONTINUOUS
 90
26
 70
0
 10
2.4338672401
 20
21.0945100318
 10
2.4531271524
 20
21.1034066429
 10
2.4723635978
 20
21.1116490479
 10
2.4915622913
 20
21.1192311259
 10
2.5107089759
 20
21.1261472465
 10
2.5297894331
 20
21.1323922737
 10
2.5487894936
 20
21.13796157
 10
2.567695048
 20
21.1428509995
 10
2.5864920569
 20
21.1470569313
 10
2.6051665614
 20
21.150576242
 10
2.6237046938
 20
21.1534063183
 10
2.6420926876
 20
21.1555450584
 10
2.6603168878
 20
21.1569908742
 10
2.6783637609
 20
21.157742692
 10
2.6962199053
 20
21.1577999534
 10
2.7138720609
 20
21.1571626159
 10
2.7313071191
 20
21.1558311529
 10
2.7485121325
 20
21.1538065531
 10
2.7654743246
 20
21.1510903199
 10
2.7821810991
 20
21.1476844705
 10
2.7986200496
 20
21.143591534
 10
2.8147789684
 20
21.1388145499
 10
2.8306458557
 20
21.1333570656
 10
2.8462089288
 20
21.1272231339
 10
2.8614566304
 20
21.1204173098
 10
2.8687401207
 20
21.1168733614
  0
LINE
  5
2D1
100
AcDbEntity
  8
218140580
100
AcDbLine
 62
250
  6
CONTINUOUS
 10
10.6706688477
 20
23.8960117433
 11
4.5365149676
 21
21.0630562027
  0
LWPOLYLINE
  5
2D2
100
AcDbEntity
  8
218140580
100
AcDbPolyline
 62
7
  6
CONTINUOUS
 90
81
 70
0
 10
10.2390494226
 20
23.9318054497
 10
4.102189369
 20
21.0976092102
 10
4.0955734825
 20
21.0946498155
 10
4.0884308836
 20
21.0915631242
 10
4.0807540573
 20
21.0883596718
 10
4.0725403442
 20
21.0850519531
 10
4.0637924701
 20
21.0816543911
 10
4.0545067432
 20
21.0781784979
 10
4.044681021
 20
21.0746361522
 10
4.0343224377
 20
21.0710422389
 10
4.0234316761
 20
21.0674090123
 10
4.0120079717
 20
21.0637479563
 10
4.0000581861
 20
21.0600726056
 10
3.9875847783
 20
21.0563947443
 10
3.9745898383
 20
21.0527259603
 10
3.9610808693
 20
21.049078998
 10
3.9470618196
 20
21.0454651641
 10
3.9325377082
 20
21.0418958593
 10
3.9175187751
 20
21.0383835511
 10
3.9020088087
 20
21.0349387376
 10
3.8860175981
 20
21.0315728973
 10
3.8695659828
 20
21.0282994122
 10
3.8526603431
 20
21.0251282388
 10
3.8353134286
 20
21.0220701129
 10
3.8175578842
 20
21.0191384593
 10
3.7994060687
 20
21.016342635
 10
3.7808706656
 20
21.0136916337
 10
3.761987085
 20
21.0111968371
 10
3.742770651
 20
21.0088661078
 10
3.7232360045
 20
21.0067069836
 10
3.7034192396
 20
21.0047285281
 10
3.6833375048
 20
21.0029368904
 10
3.6630075405
 20
21.0013380283
 10
3.6424660328
 20
20.9999387205
 10
3.6217312461
 20
20.9987434107
 10
3.600821782
 20
20.9977562788
 10
3.5797756884
 20
20.996981845
 10
3.5586113938
 20
20.9964228294
 10
3.5373494045
 20
20.9960815348
 10
3.5160314311
 20
20.9959600766
 10
3.4946771538
 20
20.9960593538
 10
3.4733069322
 20
20.9963796681
 10
3.4519636501
 20
20.996920383
 10
3.4306676012
 20
20.997680481
 10
3.4094384634
 20
20.9986583418
 10
3.3883179104
 20
20.9998505751
 10
3.3673262778
 20
21.0012542176
 10
3.3464819524
 20
21.0028658608
 10
3.3258230087
 20
21.0046797336
 10
3.3053677872
 20
21.0066911064
 10
3.2851344398
 20
21.0088948576
 10
3.2651597471
 20
21.011282932
 10
3.2454603149
 20
21.0138488274
 10
3.2260528715
 20
21.0165858159
 10
3.2069730226
 20
21.0194836295
 10
3.1882353179
 20
21.0225341608
 10
3.1698544504
 20
21.0257291221
 10
3.1518644657
 20
21.0290561212
 10
3.1342776596
 20
21.0325056915
 10
3.1171059833
 20
21.0360681137
 10
3.1003806775
 20
21.0397291491
 10
3.0841139967
 20
21.0434776323
 10
3.0683120121
 20
21.0473033549
 10
3.0529944145
 20
21.0511925271
 10
3.0381703959
 20
21.0551333993
 10
3.0238435419
 20
21.0591152711
 10
3.0100235461
 20
21.0631253944
 10
2.9967148724
 20
21.0671523134
 10
2.9839211604
 20
21.0711845414
 10
2.9716496731
 20
21.0752090031
 10
2.9599022208
 20
21.0792140087
 10
2.9486806544
 20
21.0831877897
 10
2.9379910913
 20
21.0871166621
 10
2.9278322155
 20
21.0909891902
 10
2.9182043326
 20
21.0947930947
 10
2.9091140789
 20
21.0985132997
 10
2.9005589406
 20
21.1021379471
 10
2.8925347091
 20
21.1056556617
 10
2.885043478
 20
21.1090520149
 10
2.8780821268
 20
21.1123146452
 10
2.8716427652
 20
21.1154332198
  0
LWPOLYLINE
  5
2D3
100
AcDbEntity
  8
218140580
100
AcDbPolyline
 62
250
  6
CONTINUOUS
 90
67
 70
0
 10
4.5365149676
 20
21.0630562027
 10
4.5111013386
 20
21.0515912988
 10
4.4851055195
 20
21.0404178071
 10
4.4585275103
 20
21.0295357273
 10
4.4313478548
 20
21.01893528
 10
4.4035860092
 20
21.0086262446
 10
4.3753003418
 20
20.9986379604
 10
4.346489555
 20
20.9889721269
 10
4.3171549464
 20
20.9796270446
 10
4.2873587763
 20
20.9706269538
 10
4.2570988929
 20
20.9619731989
 10
4.226377448
 20
20.9536644356
 10
4.1952631574
 20
20.9457208716
 10
4.1637553814
 20
20.9381441748
 10
4.1318547597
 20
20.9309326774
 10
4.0996319273
 20
20.9241015835
 10
4.0670913364
 20
20.9176530544
 10
4.0342285349
 20
20.9115849287
 10
4.0011008021
 20
20.9059059268
 10
3.9677123524
 20
20.900617186
 10
3.9340589714
 20
20.8957175689
 10
3.9001852949
 20
20.891212384
 10
3.8660906462
 20
20.8871016912
 10
3.831775702
 20
20.8833854304
 10
3.7972871273
 20
20.8800687298
 10
3.7626215692
 20
20.8771517049
 10
3.7277823805
 20
20.87463424
 10
3.6928262857
 20
20.8725211169
 10
3.6577514216
 20
20.8708129851
 10
3.6225596514
 20
20.869509195
 10
3.5873132884
 20
20.8686125798
 10
3.5520123716
 20
20.8681239872
 10
3.5166568621
 20
20.8680425696
 10
3.4813089556
 20
20.8683686168
 10
3.445968658
 20
20.869102963
 10
3.4106359635
 20
20.870244774
 10
3.3753730502
 20
20.8717918372
 10
3.3401799602
 20
20.8737449969
 10
3.3050566513
 20
20.8761034088
 10
3.2700651753
 20
20.8788623276
 10
3.2352075725
 20
20.8820223174
 10
3.2004818025
 20
20.885582814
 10
3.1659437966
 20
20.8895373798
 10
3.1315969155
 20
20.8938860003
 10
3.0974377985
 20
20.89862869
 10
3.0635122946
 20
20.9037590553
 10
3.0298207744
 20
20.9092771759
 10
2.9963628672
 20
20.915182972
 10
2.9631833106
 20
20.9214698101
 10
2.9302776133
 20
20.9281390582
 10
2.8976502665
 20
20.9351893482
 10
2.8653594809
 20
20.942609943
 10
2.8334010195
 20
20.9504031693
 10
2.8017791192
 20
20.9585667003
 10
2.7705647015
 20
20.9670828192
 10
2.7397588524
 20
20.9759530951
 10
2.7093604859
 20
20.9851759588
 10
2.6794372653
 20
20.9947289858
 10
2.6499914075
 20
21.0046134442
 10
2.6210206958
 20
21.0148280659
 10
2.5925861435
 20
21.0253466224
 10
2.5646893096
 20
21.0361706711
 10
2.5373286351
 20
21.0472986547
 10
2.5105604572
 20
21.0586996726
 10
2.484403555
 20
21.0703634246
 10
2.4588391493
 20
21.082300211
 10
2.4338672401
 20
21.0945100318
  0
LWPOLYLINE
  5
2D4
100
AcDbEntity
  8
268200010
100
AcDbPolyline
 62
7
  6
CONTINUOUS
 90
3
 70
0
 10
-1.4404743944
 20
19.8186171008
 10
-1.429565856
 20
19.8224559319
 10
-1.4182791255
 20
19.8257032026
  0
LINE
  5
2D5
100
AcDbEntity
  8
290200030
100
AcDbLine
 62
250
  6
CONTINUOUS
 10
-7.7357336864
 20
-17.3550748402
 11
-22.663417971
 21
-9.8912326978
  0
LWPOLYLINE
  5
2D6
100
AcDbEntity
  8
268200010
100
AcDbPolyline
 62
250
  6
CONTINUOUS
 90
34
 70
0
 10
-3.6759997675
 20
-27.3868463021
 10
-3.680420293
 20
-27.379927521
 10
-3.6852274883
 20
-27.3728237108
 10
-3.6904105038
 20
-27.3655509043
 10
-3.6959576419
 20
-27.3581255157
 10
-3.7018563829
 20
-27.3505643038
 10
-3.7080934138
 20
-27.3428843338
 10
-3.7146546578
 20
-27.3351029389
 10
-3.7215253067
 20
-27.3272376812
 10
-3.7286898539
 20
-27.3193063122
 10
-3.7361321293
 20
-27.3113267325
 10
-3.7438353363
 20
-27.3033169515
 10
-3.751782089
 20
-27.2952950468
 10
-3.7599544522
 20
-27.2872791235
 10
-3.7683339813
 20
-27.279287273
 10
-3.7769017642
 20
-27.2713375323
 10
-3.785638464
 20
-27.2634478437
 10
-3.7945243623
 20
-27.2556360136
 10
-3.8035394044
 20
-27.2479196729
 10
-3.8126632437
 20
-27.240316237
 10
-3.8218752883
 20
-27.2328428663
 10
-3.8311547471
 20
-27.2255164278
 10
-3.840480677
 20
-27.2183534568
 10
-3.8498320298
 20
-27.2113701197
 10
-3.8591877002
 20
-27.2045821776
 10
-3.868526573
 20
-27.1980049503
 10
-3.8778275708
 20
-27.1916532824
 10
-3.8870697018
 20
-27.1855415091
 10
-3.8962321072
 20
-27.1796834244
 10
-3.9052941078
 20
-27.1740922496
 10
-3.9142352514
 20
-27.1687806036
 10
-3.9230353582
 20
-27.1637604746
 10
-3.9316745669
 20
-27.1590431926
 10
-3.9401333795
 20
-27.1546394044
  0
LWPOLYLINE
  5
2D7
100
AcDbEntity
  8
268200010
100
AcDbPolyline
 62
250
  6
CONTINUOUS
 90
22
 70
0
 10
-16.3321797198
 20
20.0650995575
 10
-16.3320114239
 20
20.0557386071
 10
-16.3315068567
 20
20.0465637761
 10
-16.3306669788
 20
20.0375925339
 10
-16.3294933931
 20
20.0288419851
 10
-16.3279883322
 20
20.0203287671
 10
-16.3261546458
 20
20.0120690243
 10
-16.3239958017
 20
20.0040784366
 10
-16.3215159143
 20
19.996372283
 10
-16.3187197346
 20
19.9889653341
 10
-16.3156126121
 20
19.9818717347
 10
-16.31220045
 20
19.9751049385
 10
-16.308489722
 20
19.9686777814
 10
-16.3044874612
 20
19.9626024615
 10
-16.3002013121
 20
19.9568905977
 10
-16.2956395026
 20
19.9515531447
 10
-16.290810773
 20
19.9466002946
 10
-16.2857242873
 20
19.9420414142
 10
-16.2803896723
 20
19.9378851211
 10
-16.2748164021
 20
19.9341389041
 10
-16.2690157162
 20
19.9308104213
 10
-16.2672143608
 20
19.9298850766
  0
LINE
  5
2D8
100
AcDbEntity
  8
268200010
100
AcDbLine
 62
250
  6
CONTINUOUS
 10
-16.3321797198
 20
20.0650995575
 11
-16.3321797198
 21
20.4050734916
  0
LINE
  5
2D9
100
AcDbEntity
  8
268200010
100
AcDbLine
 62
7
  6
CONTINUOUS
 10
-16.2353684925
 20
17.8501942274
 11
-16.2353684925
 21
16.9701745401
  0
LINE
  5
2DA
100
AcDbEntity
  8
268200010
100
AcDbLine
 62
250
  6
CONTINUOUS
 10
-15.9796577601
 20
20.0645868336
 11
-15.9796577601
 21
20.4045607678
  0
LINE
  5
2DB
100
AcDbEntity
  8
268200010
100
AcDbLine
 62
250
  6
CONTINUOUS
 10
-15.6209591117
 20
19.0976833074
 11
-15.6209591117
 21
19.7784330531
  0
LINE
  5
2DC
100
AcDbEntity
  8
268200010
100
AcDbLine
 62
250
  6
CONTINUOUS
 10
-15.268437152
 20
19.108451189
 11
-15.268437152
 21
19.9160833108
  0
LINE
  5
2DD
100
AcDbEntity
  8
268200010
100
AcDbLine
 62
7
  6
CONTINUOUS
 10
-15.1561944286
 20
16.4305875081
 11
-15.1561944286
 21
17.3106071955
  0
LWPOLYLINE
  5
2DE
100
AcDbEntity
  8
268200010
100
AcDbPolyline
 62
250
  6
CONTINUOUS
 90
34
 70
0
 10
-16.3321797198
 20
20.4050734916
 10
-16.331980917
 20
20.4154379698
 10
-16.3313849547
 20
20.4259779547
 10
-16.3303931715
 20
20.4366697403
 10
-16.3290077955
 20
20.4474892862
 10
-16.3272319414
 20
20.4584122505
 10
-16.3250696062
 20
20.4694140445
 10
-16.3225256556
 20
20.4804699167
 10
-16.3196058109
 20
20.4915550057
 10
-16.3163166409
 20
20.5026443754
 10
-16.312665544
 20
20.5137130853
 10
-16.3086607334
 20
20.5247362377
 10
-16.3043112212
 20
20.5356890309
 10
-16.2996267925
 20
20.5465468286
 10
-16.2946179844
 20
20.5572852117
 10
-16.2892960659
 20
20.5678800249
 10
-16.2836730055
 20
20.5783074446
 10
-16.2777614548
 20
20.5885440134
 10
-16.271574723
 20
20.5985666903
 10
-16.2651267464
 20
20.6083529083
 10
-16.2584320132
 20
20.6178806881
 10
-16.251505537
 20
20.6271286631
 10
-16.2443628265
 20
20.6360761135
 10
-16.237020009
 20
20.6447028243
 10
-16.2294937624
 20
20.6529892147
 10
-16.2218011281
 20
20.6609165632
 10
-16.2139593155
 20
20.6684671761
 10
-16.2059858166
 20
20.6756242253
 10
-16.1978973391
 20
20.6823725984
 10
-16.1897132678
 20
20.6886960083
 10
-16.181455597
 20
20.6945777842
 10
-16.1731441764
 20
20.7000045343
 10
-16.164796544
 20
20.7049655483
 10
-16.1564314638
 20
20.7094503066
  0
LWPOLYLINE
  5
2DF
100
AcDbEntity
  8
268200010
100
AcDbPolyline
 62
250
  6
CONTINUOUS
 90
18
 70
0
 10
-8.7300781564
 20
17.7666041824
 10
-8.7256020758
 20
17.7760253615
 10
-8.7208262305
 20
17.7853007261
 10
-8.7157635764
 20
17.7944051114
 10
-8.7104278669
 20
17.8033137691
 10
-8.704833639
 20
17.8120024131
 10
-8.6989961326
 20
17.8204473663
 10
-8.6929312389
 20
17.8286256359
 10
-8.6866554594
 20
17.8365149662
 10
-8.6801858801
 20
17.8440938752
 10
-8.6735401094
 20
17.8513417326
 10
-8.6667362347
 20
17.8582388098
 10
-8.6597927799
 20
17.8647663275
 10
-8.6527286381
 20
17.8709065224
 10
-8.6455630418
 20
17.8766426757
 10
-8.6383155168
 20
17.8819591579
 10
-8.6310057976
 20
17.8868414965
 10
-8.623653773
 20
17.8912764112
  0
LINE
  5
2E0
100
AcDbEntity
  8
268200010
100
AcDbLine
 62
7
  6
CONTINUOUS
 10
-6.1052276294
 20
15.4685574404
 11
-7.1720585415
 21
14.8732330223
  0
LWPOLYLINE
  5
2E1
100
AcDbEntity
  8
268200010
100
AcDbPolyline
 62
7
  6
CONTINUOUS
 90
21
 70
0
 10
-0.7979169632
 20
18.1152327104
 10
-0.7853284185
 20
18.1217732101
 10
-0.7733199375
 20
18.1285385732
 10
-0.7618915202
 20
18.1355287999
 10
-0.7510265927
 20
18.1427559124
 10
-0.7407417289
 20
18.1502078884
 10
-0.7310866501
 20
18.1578486607
 10
-0.7220643653
 20
18.1656791758
 10
-0.7136718655
 20
18.1736984871
 10
-0.7059498447
 20
18.1818676875
 10
-0.698901569
 20
18.190187499
 10
-0.6925237724
 20
18.1986571995
 10
-0.6868473501
 20
18.2072357153
 10
-0.6818757107
 20
18.2159235692
 10
-0.6776054456
 20
18.2247202385
 10
-0.6740572247
 20
18.2335830804
 10
-0.671234552
 20
18.2425124193
 10
-0.6691339235
 20
18.2515079308
 10
-0.6677654966
 20
18.2605260004
 10
-0.6671328265
 20
18.2695667333
 10
-0.6670843291
 20
18.272872174
  0
LINE
  5
2E2
100
AcDbEntity
  8
268200010
100
AcDbLine
 62
7
  6
CONTINUOUS
 10
-5.6443972077
 20
15.4033383206
 11
-4.0612235423
 21
16.2155363788
  0
LINE
  5
2E3
100
AcDbEntity
  8
268200010
100
AcDbLine
 62
250
  6
CONTINUOUS
 10
-5.5313115415
 20
15.3968903455
 11
-3.9485549384
 21
16.2088744428
  0
LINE
  5
2E4
100
AcDbEntity
  8
268200010
100
AcDbLine
 62
250
  6
CONTINUOUS
 10
-3.8527734711
 20
14.5576213103
 11
-2.2514926803
 21
15.3603433138
  0
LINE
  5
2E5
100
AcDbEntity
  8
268200010
100
AcDbLine
 62
7
  6
CONTINUOUS
 10
-4.0612235443
 20
16.2155363778
 11
-4.0594871277
 21
16.2164046005
  0
LINE
  5
2E6
100
AcDbEntity
  8
268200010
100
AcDbLine
 62
7
  6
CONTINUOUS
 10
3.9792534608
 20
18.5041878575
 11
-1.6938493401
 21
15.6710714204
  0
LINE
  5
2E7
100
AcDbEntity
  8
268200010
100
AcDbLine
 62
7
  6
CONTINUOUS
 10
-6.1052276294
 20
15.4685574404
 11
-0.7979169632
 21
18.1152327104
  0
LINE
  5
2E8
100
AcDbEntity
  8
268200010
100
AcDbLine
 62
250
  6
CONTINUOUS
 10
-2.2514926803
 20
15.3603433138
 11
-1.7232255086
 21
15.6237821338
  0
LINE
  5
2E9
100
AcDbEntity
  8
218140580
100
AcDbLine
 62
7
  6
CONTINUOUS
 10
12.6684574111
 20
22.443752839
 11
8.425816724
 21
20.3677786306
  0
LWPOLYLINE
  5
2EA
100
AcDbEntity
  8
268200010
100
AcDbPolyline
 62
250
  6
CONTINUOUS
 90
16
 70
0
 10
-5.6443972077
 20
15.4033383206
 10
-5.6409994834
 20
15.404995945
 10
-5.6342542625
 20
15.4078084928
 10
-5.6272735235
 20
15.4101070462
 10
-5.6200730795
 20
15.4118863986
 10
-5.6126692411
 20
15.4131425193
 10
-5.6050787797
 20
15.4138725629
 10
-5.5973188893
 20
15.4140748758
 10
-5.5894071478
 20
15.4137489995
 10
-5.5813614771
 20
15.4128956724
 10
-5.5732001024
 20
15.4115168273
 10
-5.5649415111
 20
15.4096155877
 10
-5.5566044107
 20
15.4071962604
 10
-5.5482076867
 20
15.4042643255
 10
-5.5397703595
 20
15.4008264247
 10
-5.5313115415
 20
15.3968903455
  0
LINE
  5
2EB
100
AcDbEntity
  8
268200010
100
AcDbLine
 62
7
  6
CONTINUOUS
 10
-4.0594871285
 20
16.2164046001
 11
-3.5246171708
 21
16.4769567004
  0
LINE
  5
2EC
100
AcDbEntity
  8
268200010
100
AcDbLine
 62
250
  6
CONTINUOUS
 10
-3.9485549384
 20
16.2088744428
 11
-3.4141050597
 21
16.4692219094
  0
LINE
  5
2ED
100
AcDbEntity
  8
218140580
100
AcDbLine
 62
7
  6
CONTINUOUS
 10
8.082950706
 20
21.7283015594
 11
11.6201379543
 21
23.4212771901
  0
LINE
  5
2EE
100
AcDbEntity
  8
218140580
100
AcDbLine
 62
7
  6
CONTINUOUS
 10
8.425816724
 20
20.7962954064
 11
12.6636292958
 21
22.8246057298
  0
LWPOLYLINE
  5
2EF
100
AcDbEntity
  8
268200010
100
AcDbPolyline
 62
250
  6
CONTINUOUS
 90
3
 70
0
 10
-3.5246171708
 20
16.4769567004
 10
-3.5229616344
 20
16.4777431925
 10
-3.5162361155
 20
16.4805458892
  0
LWPOLYLINE
  5
2F0
100
AcDbEntity
  8
268200010
100
AcDbPolyline
 62
7
  6
CONTINUOUS
 90
16
 70
0
 10
-4.0594871277
 20
16.2164046005
 10
-4.0578294994
 20
16.2171921089
 10
-4.0510940105
 20
16.2199996469
 10
-4.0441262713
 20
16.2222915084
 10
-4.0369420142
 20
16.2240625283
 10
-4.0295574986
 20
16.2253087033
 10
-4.0219895442
 20
16.2260271685
 10
-4.0142552227
 20
16.2262163336
 10
-4.0063720168
 20
16.2258757904
 10
-3.9983579173
 20
16.2250062487
 10
-3.9902309869
 20
16.2236097257
 10
-3.9820095759
 20
16.2216894159
 10
-3.9737124792
 20
16.2192495892
 10
-3.9653584858
 20
16.2162957782
 10
-3.9569663367
 20
16.2128347652
 10
-3.9485549384
 20
16.2088744428
  0
LWPOLYLINE
  5
2F1
100
AcDbEntity
  8
268200010
100
AcDbPolyline
 62
250
  6
CONTINUOUS
 90
14
 70
0
 10
-3.5162361155
 20
16.4805458892
 10
-3.5092815766
 20
16.4828313427
 10
-3.5021137712
 20
16.4845943758
 10
-3.4947489359
 20
16.4858309949
 10
-3.4872037539
 20
16.4865383988
 10
-3.4794953166
 20
16.4867149851
 10
-3.4716410853
 20
16.4863603537
 10
-3.4636588518
 20
16.485475308
 10
-3.4555666974
 20
16.4840618528
 10
-3.4473829527
 20
16.4821231899
 10
-3.4391261559
 20
16.4796637108
 10
-3.4308150103
 20
16.4766889867
 10
-3.4224683425
 20
16.4732057562
 10
-3.4141050597
 20
16.4692219094
  0
LINE
  5
2F2
100
AcDbEntity
  8
268200010
100
AcDbLine
 62
7
  6
CONTINUOUS
 10
-3.1143967373
 20
-16.9050379672
 11
-2.32220635
 21
-17.3011331608
  0
LINE
  5
2F3
100
AcDbEntity
  8
268200010
100
AcDbLine
 62
7
  6
CONTINUOUS
 10
-3.1143967373
 20
-15.9957112932
 11
-3.1353791484
 21
-15.9852200877
  0
LINE
  5
2F4
100
AcDbEntity
  8
268200010
100
AcDbLine
 62
7
  6
CONTINUOUS
 10
-14.3783769693
 20
19.6051321103
 11
-14.3783769693
 21
21.2072827713
  0
LINE
  5
2F5
100
AcDbEntity
  8
268200010
100
AcDbLine
 62
250
  6
CONTINUOUS
 10
-13.8501097975
 20
21.4707215913
 11
-13.8501097975
 21
21.1231900746
  0
LINE
  5
2F6
100
AcDbEntity
  8
268200010
100
AcDbLine
 62
7
  6
CONTINUOUS
 10
-13.7779119405
 20
21.5585942235
 11
-13.7779119405
 21
21.2110627067
  0
LINE
  5
2F7
100
AcDbEntity
  8
268200010
100
AcDbLine
 62
7
  6
CONTINUOUS
 10
-13.4529674134
 20
19.459850224
 11
-13.4529674134
 21
18.0136874583
  0
LINE
  5
2F8
100
AcDbEntity
  8
268200010
100
AcDbLine
 62
7
  6
CONTINUOUS
 10
-12.7873867116
 20
17.6808971074
 11
-12.7873867116
 21
19.1270598731
  0
LINE
  5
2F9
100
AcDbEntity
  8
268200010
100
AcDbLine
 62
7
  6
CONTINUOUS
 10
-12.0802799304
 20
19.3134513178
 11
-12.0802799304
 21
18.0798369662
  0
LWPOLYLINE
  5
2FA
100
AcDbEntity
  8
268200010
100
AcDbPolyline
 62
250
  6
CONTINUOUS
 90
18
 70
0
 10
-13.7779119405
 20
21.5585942235
 10
-13.7779655021
 20
21.5560068554
 10
-13.7784919295
 20
21.5500845512
 10
-13.7795793418
 20
21.5441813785
 10
-13.7812252964
 20
21.5383106117
 10
-13.7834260937
 20
21.5324854572
 10
-13.7861767865
 20
21.5267190163
 10
-13.7894711904
 20
21.5210242599
 10
-13.7933018949
 20
21.515414001
 10
-13.7976602845
 20
21.5099008593
 10
-13.8025365581
 20
21.5044972342
 10
-13.8079197476
 20
21.4992152815
 10
-13.8137977487
 20
21.4940668788
 10
-13.8201573389
 20
21.4890636089
 10
-13.8269842017
 20
21.484216734
 10
-13.8342629758
 20
21.479537158
 10
-13.8419772919
 20
21.4750354022
 10
-13.8501097975
 20
21.4707215913
  0
LWPOLYLINE
  5
2FB
100
AcDbEntity
  8
268200010
100
AcDbPolyline
 62
250
  6
CONTINUOUS
 90
18
 70
0
 10
-13.7779119414
 20
21.2110520038
 10
-13.7779663634
 20
21.2084546193
 10
-13.7784947165
 20
21.2025326374
 10
-13.7795839885
 20
21.1966298603
 10
-13.7812317265
 20
21.1907595543
 10
-13.7834342267
 20
21.1849349082
 10
-13.7861865583
 20
21.1791689785
 10
-13.7894825173
 20
21.1734747761
 10
-13.7933146087
 20
21.1678652187
 10
-13.7976741207
 20
21.1623529892
 10
-13.8025512665
 20
21.1569504009
 10
-13.8079351617
 20
21.15166949
 10
-13.8138141967
 20
21.1465217196
 10
-13.8201747336
 20
21.1415191002
 10
-13.8270008933
 20
21.1366739457
 10
-13.8342764657
 20
21.1319973811
 10
-13.8419852993
 20
21.1274994312
 10
-13.8501097975
 20
21.1231900746
  0
LWPOLYLINE
  5
2FC
100
AcDbEntity
  8
268200010
100
AcDbPolyline
 62
7
  6
CONTINUOUS
 90
31
 70
0
 10
-12.0802799304
 20
19.3134513178
 10
-12.0800832005
 20
19.322621552
 10
-12.0795071107
 20
19.3319081294
 10
-12.0785516609
 20
19.34131105
 10
-12.0772122027
 20
19.350856453
 10
-12.0754933845
 20
19.3605181992
 10
-12.073409152
 20
19.3702178707
 10
-12.0709565073
 20
19.3799558493
 10
-12.0681384482
 20
19.3897317532
 10
-12.0649779138
 20
19.3994660182
 10
-12.0614721641
 20
19.409158182
 10
-12.057623939
 20
19.4188087069
 10
-12.053464398
 20
19.4283394158
 10
-12.0489909488
 20
19.4377494678
 10
-12.0442061837
 20
19.4470397039
 10
-12.0391490389
 20
19.4561344692
 10
-12.0338172767
 20
19.4650321581
 10
-12.0282131347
 20
19.4737343763
 10
-12.0223822617
 20
19.4821702864
 10
-12.0163228981
 20
19.4903376061
 10
-12.0100368035
 20
19.4982386178
 10
-12.0035749065
 20
19.5058093313
 10
-11.996935695
 20
19.5130471576
 10
-11.990120681
 20
19.5199546858
 10
-11.9831853291
 20
19.5264756935
 10
-11.9761287101
 20
19.5326069802
 10
-11.9689517531
 20
19.5383517464
 10
-11.961712711
 20
19.5436633706
 10
-11.9544310011
 20
19.5485263123
 10
-11.947087206
 20
19.5529561121
 10
-11.9396813256
 20
19.5569527698
  0
LWPOLYLINE
  5
2FD
100
AcDbEntity
  8
268200010
100
AcDbPolyline
 62
7
  6
CONTINUOUS
 90
25
 70
0
 10
-6.1052276294
 20
15.9293306323
 10
-6.0996496392
 20
15.941357501
 10
-6.0945425432
 20
15.9538220408
 10
-6.0899063414
 20
15.9667242516
 10
-6.0857358811
 20
15.9800835583
 10
-6.082036315
 20
15.9938805361
 10
-6.0788231014
 20
16.0080569103
 10
-6.0760982763
 20
16.0226142598
 10
-6.0738598038
 20
16.0375510058
 10
-6.072117034
 20
16.0528041363
 10
-6.0708720404
 20
16.0683749704
 10
-6.0701227494
 20
16.084262189
 10
-6.0698722903
 20
16.1003988237
 10
-6.0701227494
 20
16.1167859174
 10
-6.0708720404
 20
16.133422427
 10
-6.072117034
 20
16.1502382547
 10
-6.0738598038
 20
16.1672341551
 10
-6.0760982763
 20
16.1844093735
 10
-6.0788231014
 20
16.2016915481
 10
-6.082036315
 20
16.2190811359
 10
-6.0857358811
 20
16.2365776797
 10
-6.0899063414
 20
16.2541074468
 10
-6.0945425432
 20
16.2716458594
 10
-6.0996496392
 20
16.2892174951
 10
-6.1052276294
 20
16.3068223541
  0
LWPOLYLINE
  5
2FE
100
AcDbEntity
  8
268200010
100
AcDbPolyline
 62
7
  6
CONTINUOUS
 90
31
 70
0
 10
-0.8327804723
 20
18.5328645803
 10
-0.8244676728
 20
18.543557885
 10
-0.8166883462
 20
18.5548728079
 10
-0.8094424926
 20
18.566809349
 10
-0.8027195023
 20
18.5793901394
 10
-0.796529985
 20
18.592592548
 10
-0.7909057698
 20
18.6063486817
 10
-0.7858497688
 20
18.620661393
 10
-0.7813590699
 20
18.6355278295
 10
-0.7774567662
 20
18.650871541
 10
-0.7741458888
 20
18.6666949862
 10
-0.7714234065
 20
18.6829957063
 10
-0.7693033196
 20
18.6996898756
 10
-0.7677887312
 20
18.716779521
 10
-0.7668765382
 20
18.7342626155
 10
-0.7665714314
 20
18.7520492531
 10
-0.7668765382
 20
18.7701409975
 10
-0.7677887312
 20
18.7885362851
 10
-0.7693033196
 20
18.8071405188
 10
-0.7714234065
 20
18.825954775
 10
-0.7741458888
 20
18.8449779774
 10
-0.7774567662
 20
18.8641123
 10
-0.7813590699
 20
18.8833583152
 10
-0.7858497688
 20
18.9027154506
 10
-0.7909057698
 20
18.9220841629
 10
-0.796529985
 20
18.9414645119
 10
-0.8027195023
 20
18.9608564378
 10
-0.8094424926
 20
18.9801602184
 10
-0.8166883462
 20
18.9993426131
 10
-0.8244676728
 20
19.0184368626
 10
-0.8327804723
 20
19.0374429668
  0
LWPOLYLINE
  5
2FF
100
AcDbEntity
  8
290200030
100
AcDbPolyline
 62
250
  6
CONTINUOUS
 90
19
 70
0
 10
-6.3576592627
 20
10.7612873114
 10
-6.4116808415
 20
10.72880382
 10
-6.4651684987
 20
10.6916111694
 10
-6.5178156458
 20
10.6499258653
 10
-6.5693233135
 20
10.6039912557
 10
-6.6193934638
 20
10.5540733659
 10
-6.6677308034
 20
10.5004596134
 10
-6.7140575316
 20
10.4434622593
 10
-6.7581092869
 20
10.383411575
 10
-6.7996281223
 20
10.3206511079
 10
-6.8383756622
 20
10.2555444873
 10
-6.8741303532
 20
10.1884693085
 10
-6.9066828101
 20
10.1198098722
 10
-6.9358461282
 20
10.0499626676
 10
-6.9614530015
 20
9.979333293
 10
-6.9833523614
 20
9.9083297923
 10
-7.0014172685
 20
9.8373629209
 10
-7.0155454722
 20
9.7668437427
 10
-7.0256559106
 20
9.6971803478
  0
LINE
  5
300
100
AcDbEntity
  8
268200010
100
AcDbLine
 62
7
  6
CONTINUOUS
 10
-2.0747189766
 20
13.453303114
 11
-2.9647791594
 21
12.9566221927
  0
LINE
  5
301
100
AcDbEntity
  8
290200030
100
AcDbLine
 62
250
  6
CONTINUOUS
 10
-5.1433969791
 20
11.4241887833
 11
-6.3576592627
 21
10.7612873114
  0
LINE
  5
302
100
AcDbEntity
  8
268200010
100
AcDbLine
 62
250
  6
CONTINUOUS
 10
-1.7215135911
 20
13.2767004212
 11
-2.8006876551
 21
12.6875475791
  0
LINE
  5
303
100
AcDbEntity
  8
268200010
100
AcDbLine
 62
7
  6
CONTINUOUS
 10
4.9373536243
 20
17.2115444369
 11
-1.4421267418
 21
13.8390753893
  0
LINE
  5
304
100
AcDbEntity
  8
0
100
AcDbLine
 62
7
  6
CONTINUOUS
 10
8.1371185183
 20
19.4428403246
 11
8.7288644317
 21
19.7548796455
  0
LINE
  5
305
100
AcDbEntity
  8
218140580
100
AcDbLine
 62
7
  6
CONTINUOUS
 10
-0.9929721216
 20
13.6132289218
 11
5.6349709843
 21
17.0949535225
  0
LINE
  5
306
100
AcDbEntity
  8
268200010
100
AcDbLine
 62
7
  6
CONTINUOUS
 10
4.9373536243
 20
17.6374758378
 11
-1.6689688001
 21
14.1748443694
  0
LINE
  5
307
100
AcDbEntity
  8
268200010
100
AcDbLine
 62
250
  6
CONTINUOUS
 10
-1.0199166035
 20
13.6279703202
 11
-1.7208525573
 21
13.2763699043
  0
LINE
  5
308
100
AcDbEntity
  8
268200010
100
AcDbLine
 62
250
  6
CONTINUOUS
 10
-3.6759997675
 20
14.2527317715
 11
-2.0747189766
 21
15.055453775
  0
LINE
  5
309
100
AcDbEntity
  8
0
100
AcDbLine
 62
7
  6
CONTINUOUS
 10
8.8571518605
 20
19.5317879141
 11
9.3521266073
 21
19.7792752875
  0
LINE
  5
30A
100
AcDbEntity
  8
RACCORDO
100
AcDbLine
 62
7
  6
CONTINUOUS
 10
11.8203045199
 20
19.9597751398
 11
10.5088402088
 21
19.3040429843
  0
LINE
  5
30B
100
AcDbEntity
  8
268200010
100
AcDbLine
 62
250
  6
CONTINUOUS
 10
-2.0747189766
 20
15.055453775
 11
-1.5464518049
 21
15.318892595
  0
LINE
  5
30C
100
AcDbEntity
  8
218140580
100
AcDbLine
 62
7
  6
CONTINUOUS
 10
16.216332032
 20
21.1231801512
 11
12.6791447838
 21
19.4302045205
  0
LWPOLYLINE
  5
30D
100
AcDbEntity
  8
218140580
100
AcDbPolyline
 62
7
  6
CONTINUOUS
 90
88
 70
0
 10
12.6791447838
 20
19.4302045205
 10
12.6250419296
 20
19.4046818184
 10
12.5697741577
 20
19.379824851
 10
12.5133414679
 20
19.3556336184
 10
12.4557121838
 20
19.3320959543
 10
12.3969179819
 20
19.3092240249
 10
12.3370538919
 20
19.287054329
 10
12.2761187119
 20
19.2655880574
 10
12.2141136438
 20
19.2448240192
 10
12.1511373232
 20
19.2247951406
 10
12.0871861178
 20
19.205502003
 10
12.02226366
 20
19.1869440249
 10
11.9564794824
 20
19.1691523873
 10
11.8898340761
 20
19.1521288738
 10
11.8223269501
 20
19.1358717007
 10
11.7540661649
 20
19.120406698
 10
11.6850494056
 20
19.1057348811
 10
11.6152789871
 20
19.0918552346
 10
11.5448699138
 20
19.0787905426
 10
11.4738207641
 20
19.0665421471
 10
11.4021329597
 20
19.0551087061
 10
11.3299257701
 20
19.0445089785
 10
11.2572008159
 20
19.034744594
 10
11.1839564765
 20
19.0258139229
 10
11.1103071603
 20
19.0177308347
 10
11.0362472944
 20
19.0104963024
 10
10.9617824517
 20
19.0041093531
 10
10.8870437586
 20
18.9985809379
 10
10.8120383033
 20
18.9939128892
 10
10.7367589976
 20
18.9901033746
 10
10.661315704
 20
18.9871578474
 10
10.5856983218
 20
18.9850774667
 10
10.5099169517
 20
18.9838610734
 10
10.4341117587
 20
18.9835106441
 10
10.3582946767
 20
18.9840275114
 10
10.2824537718
 20
18.9854103427
 10
10.2066934076
 20
18.9876571156
 10
10.131001171
 20
18.9907696584
 10
10.0553894751
 20
18.994746143
 10
9.9799999238
 20
18.9995790625
 10
9.904844556
 20
19.0052690292
 10
9.8299113327
 20
19.0118154309
 10
9.7553057409
 20
19.0192089245
 10
9.681018227
 20
19.0274518782
 10
9.6070583445
 20
19.0365419238
 10
9.5335602413
 20
19.0464626136
 10
9.4605320643
 20
19.0572143743
 10
9.3879656666
 20
19.0687967792
 10
9.3159707556
 20
19.0811921004
 10
9.2445443057
 20
19.0944022353
 10
9.1736893426
 20
19.1084252866
 10
9.1035246503
 20
19.1232378347
 10
9.0340515676
 20
19.13884128
 10
8.9652687558
 20
19.1552342222
 10
8.8972909822
 20
19.172389041
 10
8.8301231016
 20
19.1903059001
 10
8.7637602594
 20
19.2089846358
 10
8.698302659
 20
19.2283971374
 10
8.6337449146
 20
19.248546848
 10
8.5700924121
 20
19.2694303244
 10
8.5074615137
 20
19.2910091262
 10
8.4458633763
 20
19.3132809053
 10
8.3852868429
 20
19.3362480097
 10
8.3258148044
 20
19.3598790428
 10
8.2674380173
 20
19.3841796699
 10
8.2101657251
 20
19.4091442256
 10
8.1541085489
 20
19.4347243181
 10
8.099280231
 20
19.4609153823
 10
8.0456670291
 20
19.4877219833
 10
7.9933383376
 20
19.5151094237
 10
7.9422851275
 20
19.5430845244
 10
7.8925164278
 20
19.5716404646
 10
7.8441287203
 20
19.6007220849
 10
7.7971333809
 20
19.6303247407
 10
7.7515190337
 20
19.6604530766
 10
7.7073480328
 20
19.6910658666
 10
7.6646158235
 20
19.7221686187
 10
7.6233269606
 20
19.753755825
 10
7.5835574626
 20
19.7857697357
 10
7.5453142486
 20
19.8182076412
 10
7.5085903996
 20
19.8510722511
 10
7.4734411763
 20
19.884313944
 10
7.4398670192
 20
19.9179350905
 10
7.4078674878
 20
19.9519333199
 10
7.3774965224
 20
19.9862518987
 10
7.3487570137
 20
20.020891451
 10
7.3216460709
 20
20.0558513527
 10
7.2980551549
 20
20.0884272022
  0
LWPOLYLINE
  5
30E
100
AcDbEntity
  8
268200010
100
AcDbPolyline
 62
7
  6
CONTINUOUS
 90
23
 70
0
 10
-4.2516959401
 20
11.2919267076
 10
-4.2305348675
 20
11.3016764183
 10
-4.1967814627
 20
11.3115950647
 10
-4.1605754831
 20
11.3161172142
 10
-4.1230269766
 20
11.3150883044
 10
-4.0840584505
 20
11.308328511
 10
-4.0437473975
 20
11.2960176584
 10
-4.0034363446
 20
11.2785406571
 10
-3.9631252916
 20
11.2557066054
 10
-3.9228142387
 20
11.2277064051
 10
-3.8838457125
 20
11.1954976723
 10
-3.8462972061
 20
11.1589780757
 10
-3.8100912264
 20
11.1182499466
 10
-3.7763378216
 20
11.0745778954
 10
-3.7450897407
 20
11.027837752
 10
-3.7162942345
 20
10.9781536866
 10
-3.6909031043
 20
10.9271628197
 10
-3.6690386761
 20
10.874842016
 10
-3.6505786239
 20
10.8212144109
 10
-3.6361077705
 20
10.7679865306
 10
-3.625821057
 20
10.7157272172
 10
-3.6195235424
 20
10.6638676286
 10
-3.6172152268
 20
10.6124077649
  0
LWPOLYLINE
  5
30F
100
AcDbEntity
  8
RACCORDO
100
AcDbPolyline
 62
7
  6
CONTINUOUS
 90
10
 70
0
 10
12.6688063317
 20
19.5354979083
 10
12.680202796
 20
19.5406665636
 10
12.6914231984
 20
19.54471846
 10
12.7024675392
 20
19.5476535975
 10
12.7134307981
 20
19.5494721288
 10
12.7242179952
 20
19.5501739013
 10
12.7345441907
 20
19.5497584569
 10
12.7443144044
 20
19.548225643
 10
12.7536236164
 20
19.5455756123
 10
12.7624718268
 20
19.5418083647
  0
LWPOLYLINE
  5
310
100
AcDbEntity
  8
268200010
100
AcDbPolyline
 62
250
  6
CONTINUOUS
 90
26
 70
0
 10
-4.3252998883
 20
11.2531349322
 10
-4.3016819139
 20
11.2637468968
 10
-4.2700140477
 20
11.2728741948
 10
-4.2355760645
 20
11.2772028983
 10
-4.1989523311
 20
11.2763382814
 10
-4.1603997333
 20
11.2700450314
 10
-4.1203410355
 20
11.2581031838
 10
-4.079780889
 20
11.2406860056
 10
-4.0391757463
 20
11.218012597
 10
-3.9989838183
 20
11.1903078458
 10
-3.9602192419
 20
11.1583604321
 10
-3.9233022917
 20
11.122790719
 10
-3.8885111675
 20
11.0840990145
 10
-3.856480762
 20
11.0432875638
 10
-3.8274322632
 20
11.0011200753
 10
-3.8013629197
 20
10.9580629828
 10
-3.7783856039
 20
10.9147656213
 10
-3.7584686397
 20
10.871747838
 10
-3.7415086153
 20
10.8293994311
 10
-3.7274086489
 20
10.788111363
 10
-3.7160153595
 20
10.7481965864
 10
-3.7071432227
 20
10.709889915
 10
-3.7006055841
 20
10.673383376
 10
-3.6961994787
 20
10.6388174949
 10
-3.693710005
 20
10.6062872426
 10
-3.6929273439
 20
10.575850937
  0
LINE
  5
311
100
AcDbEntity
  8
290200030
100
AcDbLine
 62
250
  6
CONTINUOUS
 10
-7.8005224268
 20
-9.5493957774
 11
-22.7259859153
 21
-2.0866640331
  0
LWPOLYLINE
  5
312
100
AcDbEntity
  8
290200030
100
AcDbPolyline
 62
250
  6
CONTINUOUS
 90
8
 70
0
 10
-22.5522944702
 20
-1.7831497958
 10
-22.5669090464
 20
-1.7751614119
 10
-22.5799612264
 20
-1.7666551091
 10
-22.5914510103
 20
-1.7576308875
 10
-22.6014550749
 20
-1.7480090867
 10
-22.6098967434
 20
-1.7378693671
 10
-22.6165459853
 20
-1.7274507096
 10
-22.6213509868
 20
-1.716748434
  0
LWPOLYLINE
  5
313
100
AcDbEntity
  8
290200030
100
AcDbPolyline
 62
250
  6
CONTINUOUS
 90
9
 70
0
 10
-22.7259681082
 20
-2.0866551116
 10
-22.7606570704
 20
-2.0674029509
 10
-22.7911752459
 20
-2.0464197825
 10
-22.8171707921
 20
-2.0239370918
 10
-22.8384026876
 20
-2.0002018108
 10
-22.8546380954
 20
-1.975458473
 10
-22.8657072074
 20
-1.9499635951
 10
-22.8715134253
 20
-1.9239987865
 10
-22.872433287
 20
-1.908812889
  0
LWPOLYLINE
  5
314
100
AcDbEntity
  8
268200010
100
AcDbPolyline
 62
250
  6
CONTINUOUS
 90
13
 70
0
 10
-1.5493772419
 20
-26.1027594853
 10
-1.5540181338
 20
-26.0931135554
 10
-1.5590432647
 20
-26.083799973
 10
-1.5644412877
 20
-26.0748397719
 10
-1.5702000017
 20
-26.0662532025
 10
-1.576306395
 20
-26.0580596569
 10
-1.582746693
 20
-26.0502776089
 10
-1.5895063745
 20
-26.0429246024
 10
-1.5965703657
 20
-26.0360170635
 10
-1.6039225548
 20
-26.0295707757
 10
-1.6115457761
 20
-26.0236007108
 10
-1.6194225712
 20
-26.0181203639
 10
-1.6275352967
 20
-26.0131418388
  0
LINE
  5
315
100
AcDbEntity
  8
268200010
100
AcDbLine
 62
250
  6
CONTINUOUS
 10
-10.4539343337
 20
17.2666641678
 11
-10.4539343337
 21
18.5002785195
  0
LINE
  5
316
100
AcDbEntity
  8
268200010
100
AcDbLine
 62
250
  6
CONTINUOUS
 10
-10.1710916212
 20
17.2757414615
 11
-10.1710916212
 21
18.5002785195
  0
LWPOLYLINE
  5
317
100
AcDbEntity
  8
268200010
100
AcDbPolyline
 62
250
  6
CONTINUOUS
 90
31
 70
0
 10
-10.4539343337
 20
18.5002785195
 10
-10.4537418734
 20
18.5094079331
 10
-10.4531650148
 20
18.5187049795
 10
-10.4522053254
 20
18.528144355
 10
-10.4508654131
 20
18.5377003778
 10
-10.4491489232
 20
18.5473470292
 10
-10.4470605322
 20
18.5570580231
 10
-10.4446059273
 20
18.5668069201
 10
-10.4417917889
 20
18.5765671926
 10
-10.4386257802
 20
18.5863122673
 10
-10.4351165199
 20
18.5960156203
 10
-10.4312735613
 20
18.6056508408
 10
-10.4271073697
 20
18.6151916955
 10
-10.4226292837
 20
18.6246122234
 10
-10.4178514967
 20
18.6338867782
 10
-10.4127870304
 20
18.642990091
 10
-10.4074496948
 20
18.6518973537
 10
-10.4018540017
 20
18.6605843626
 10
-10.3960151333
 20
18.6690275504
 10
-10.3899488974
 20
18.6772040408
 10
-10.3836718782
 20
18.6850914637
 10
-10.3772013613
 20
18.6926681192
 10
-10.3705551043
 20
18.6999132742
 10
-10.363751083
 20
18.7068073921
 10
-10.3568076292
 20
18.7133319192
 10
-10.3497421702
 20
18.7194703247
 10
-10.342575358
 20
18.7252045136
 10
-10.3353310027
 20
18.7305158646
 10
-10.3280303733
 20
18.7353897737
 10
-10.3206919633
 20
18.7398148754
 10
-10.3133357289
 20
18.7437799714
  0
LINE
  5
318
100
AcDbEntity
  8
268200010
100
AcDbLine
 62
250
  6
CONTINUOUS
 10
-2.0747189766
 20
14.3284089225
 11
-1.5464518049
 21
14.9713610782
  0
LINE
  5
319
100
AcDbEntity
  8
268200010
100
AcDbLine
 62
7
  6
CONTINUOUS
 10
-2.0747189766
 20
14.2388784562
 11
-1.5310912325
 21
14.9005259117
  0
LWPOLYLINE
  5
31A
100
AcDbEntity
  8
268200010
100
AcDbPolyline
 62
7
  6
CONTINUOUS
 90
41
 70
0
 10
-2.9647791594
 20
13.7642543145
 10
-2.9705178426
 20
13.757541542
 10
-2.9764435623
 20
13.7509003102
 10
-2.9825550439
 20
13.7443390539
 10
-2.9888536202
 20
13.737867141
 10
-2.9953346755
 20
13.7314922154
 10
-3.0019877031
 20
13.7252202322
 10
-3.0088105877
 20
13.7190599143
 10
-3.01580079
 20
13.7130198212
 10
-3.0229469067
 20
13.7071057906
 10
-3.030246091
 20
13.7013266234
 10
-3.0376951088
 20
13.6956909363
 10
-3.0452817173
 20
13.6902044187
 10
-3.0530023127
 20
13.6848758852
 10
-3.0608529482
 20
13.6797139396
 10
-3.068820608
 20
13.6747240912
 10
-3.0769009325
 20
13.6699150843
 10
-3.0850892193
 20
13.6652954563
 10
-3.0933716734
 20
13.6608705496
 10
-3.1017431514
 20
13.6566489638
 10
-3.1101981745
 20
13.6526390883
 10
-3.1187221613
 20
13.6488460944
 10
-3.1273091613
 20
13.6452783464
 10
-3.1359528908
 20
13.6419439953
 10
-3.144637959
 20
13.6388480256
 10
-3.1533575814
 20
13.63599846
 10
-3.1621046457
 20
13.6334031006
 10
-3.1708629275
 20
13.6310667023
 10
-3.1796247788
 20
13.628996819
 10
-3.1883822458
 20
13.6272007677
 10
-3.1971182685
 20
13.6256829899
 10
-3.2058243071
 20
13.6244504177
 10
-3.2144915721
 20
13.623509717
 10
-3.2231022219
 20
13.6228648812
 10
-3.2316467759
 20
13.6225220392
 10
-3.2401156708
 20
13.6224870075
 10
-3.2484905162
 20
13.6227631499
 10
-3.2567609196
 20
13.6233555888
 10
-3.2649165755
 20
13.6242690896
 10
-3.2729387962
 20
13.6255061994
 10
-3.2786469926
 20
13.6266039166
  0
LWPOLYLINE
  5
31B
100
AcDbEntity
  8
290200030
100
AcDbPolyline
 62
250
  6
CONTINUOUS
 90
19
 70
0
 10
-5.9918265227
 20
10.1582848656
 10
-6.0191585103
 20
10.142092283
 10
-6.0459733763
 20
10.1237380851
 10
-6.0722711207
 20
10.103222272
 10
-6.0982155783
 20
10.0803927184
 10
-6.1236429143
 20
10.0554015495
 10
-6.1480616243
 20
10.0287051418
 10
-6.1714397115
 20
10.0002780232
 10
-6.1938091728
 20
9.9701456657
 10
-6.2147744942
 20
9.9388408625
 10
-6.2343066558
 20
9.9063472685
 10
-6.2524346776
 20
9.8726812287
 10
-6.2688501053
 20
9.8384245715
 10
-6.2835259241
 20
9.8035478712
 10
-6.2964891489
 20
9.7680805536
 10
-6.3075123706
 20
9.7326927236
 10
-6.316519786
 20
9.6976077495
 10
-6.3235871983
 20
9.6626022631
 10
-6.3287146074
 20
9.6276762642
  0
LWPOLYLINE
  5
31C
100
AcDbEntity
  8
290200030
100
AcDbPolyline
 62
7
  6
CONTINUOUS
 90
12
 70
0
 10
-22.6711872496
 20
-1.5992580217
 10
-22.6906681282
 20
-1.6103702851
 10
-22.7263846433
 20
-1.634246377
 10
-22.7582287403
 20
-1.6604208364
 10
-22.7862990986
 20
-1.6887760036
 10
-22.8106051787
 20
-1.7191874937
 10
-22.8309582262
 20
-1.7512929404
 10
-22.8473043309
 20
-1.7848153825
 10
-22.8596441691
 20
-1.8195870654
 10
-22.8678637186
 20
-1.8551228031
 10
-22.8719410446
 20
-1.8910046477
 10
-22.8724332818
 20
-1.9086387584
  0
LINE
  5
31D
100
AcDbEntity
  8
290200030
100
AcDbLine
 62
250
  6
CONTINUOUS
 10
-4.7901127131
 20
10.8143357568
 11
-5.9918265227
 21
10.1582848656
  0
LINE
  5
31E
100
AcDbEntity
  8
268200010
100
AcDbLine
 62
250
  6
CONTINUOUS
 10
-1.3682128905
 20
12.6668563668
 11
-2.4474033891
 21
12.0776945525
  0
LWPOLYLINE
  5
31F
100
AcDbEntity
  8
268200010
100
AcDbPolyline
 62
7
  6
CONTINUOUS
 90
13
 70
0
 10
-4.3255017954
 20
11.2530283071
 10
-4.3302878109
 20
11.2504565011
 10
-4.3643564422
 20
11.229521859
 10
-4.3963761255
 20
11.2050150331
 10
-4.4259818188
 20
11.1771299618
 10
-4.452826372
 20
11.146145385
 10
-4.4768590434
 20
11.1119920205
 10
-4.4977827942
 20
11.0748262994
 10
-4.5152648006
 20
11.0349898293
 10
-4.5291609818
 20
10.9925023132
 10
-4.539240882
 20
10.9474450767
 10
-4.5452389268
 20
10.9001231311
 10
-4.5469688244
 20
10.8566147005
  0
LINE
  5
320
100
AcDbEntity
  8
268200010
100
AcDbLine
 62
7
  6
CONTINUOUS
 10
-4.2517266079
 20
11.2919865785
 11
-4.3254510879
 21
11.253055086
  0
LINE
  5
321
100
AcDbEntity
  8
218140580
100
AcDbLine
 62
250
  6
CONTINUOUS
 10
17.3672342491
 20
20.1631872273
 11
-0.0139957181
 21
11.320438034
  0
LINE
  5
322
100
AcDbEntity
  8
268200010
100
AcDbLine
 62
250
  6
CONTINUOUS
 10
-0.6663677003
 20
13.0181978225
 11
-1.3673036541
 21
12.6665974066
  0
LINE
  5
323
100
AcDbEntity
  8
RACCORDO
100
AcDbLine
 62
7
  6
CONTINUOUS
 10
12.6688352276
 20
19.5355123563
 11
11.9148461272
 21
19.1585178061
  0
LINE
  5
324
100
AcDbEntity
  8
268200010
100
AcDbLine
 62
7
  6
CONTINUOUS
 10
-4.7901127131
 20
8.9862215296
 11
-4.546969533
 21
9.1077931196
  0
LINE
  5
325
100
AcDbEntity
  8
218140580
100
AcDbLine
 62
250
  6
CONTINUOUS
 10
17.2603324094
 20
20.347565627
 11
17.2976351076
 21
20.3659430079
  0
LINE
  5
326
100
AcDbEntity
  8
218140580
100
AcDbLine
 62
250
  6
CONTINUOUS
 10
17.3672342491
 20
20.1631872273
 11
17.404512881
 21
20.1815528656
  0
LINE
  5
327
100
AcDbEntity
  8
218140580
100
AcDbLine
 62
250
  6
CONTINUOUS
 10
6.38049792
 20
15.8091097636
 11
16.7604085619
 21
20.8511418863
  0
LINE
  5
328
100
AcDbEntity
  8
218140580
100
AcDbLine
 62
250
  6
CONTINUOUS
 10
6.7181662539
 20
15.2267180366
 11
17.2603324094
 21
20.347565627
  0
LINE
  5
329
100
AcDbEntity
  8
268200010
100
AcDbLine
 62
250
  6
CONTINUOUS
 10
-3.6172152268
 20
10.6124077649
 11
-3.6929270012
 21
10.5758507596
  0
LWPOLYLINE
  5
32A
100
AcDbEntity
  8
218140580
100
AcDbPolyline
 62
250
  6
CONTINUOUS
 90
31
 70
0
 10
17.2976351076
 20
20.3659430079
 10
17.3333035555
 20
20.3831699563
 10
17.3504915869
 20
20.3913358693
 10
17.3672316954
 20
20.3991952472
 10
17.3835114473
 20
20.4067422518
 10
17.3993187165
 20
20.4139712607
 10
17.4146417159
 20
20.4208768833
 10
17.4294690411
 20
20.4274539801
 10
17.4437896775
 20
20.4336976651
 10
17.457592978
 20
20.4396032966
 10
17.4708686794
 20
20.4451664832
 10
17.4836069086
 20
20.4503830876
 10
17.4957981916
 20
20.45524923
 10
17.5074334625
 20
20.4597612918
 10
17.5185040699
 20
20.463915918
 10
17.5290017818
 20
20.4677100192
 10
17.5389187919
 20
20.4711407742
 10
17.5482477261
 20
20.4742056318
 10
17.5569816473
 20
20.476902313
 10
17.565114061
 20
20.4792288126
 10
17.57263892
 20
20.4811834006
 10
17.5795506288
 20
20.4827646235
 10
17.5858440478
 20
20.4839713055
 10
17.5915144973
 20
20.4848025494
 10
17.5965577607
 20
20.4852577371
 10
17.6009700879
 20
20.48533653
 10
17.6047481978
 20
20.4850388697
 10
17.607889281
 20
20.4843649773
 10
17.6103910019
 20
20.4833153541
 10
17.6122515002
 20
20.4818907805
 10
17.6131756582
 20
20.4806639844
  0
LWPOLYLINE
  5
32B
100
AcDbEntity
  8
218140580
100
AcDbPolyline
 62
250
  6
CONTINUOUS
 90
31
 70
0
 10
17.404512881
 20
20.1815528656
 10
17.4401594409
 20
20.1987696
 10
17.4573374127
 20
20.206931012
 10
17.4740680629
 20
20.2147862988
 10
17.4903389672
 20
20.2223296269
 10
17.5061380429
 20
20.2295553946
 10
17.5214535573
 20
20.236458236
 10
17.5362741372
 20
20.2430330251
 10
17.5505887766
 20
20.2492748793
 10
17.5643868454
 20
20.2551791634
 10
17.5776580972
 20
20.2607414929
 10
17.5903926766
 20
20.2659577371
 10
17.6025811269
 20
20.2708240225
 10
17.6142143967
 20
20.2753367353
 10
17.6252838473
 20
20.2794925243
 10
17.6357812584
 20
20.2832883034
 10
17.6456988344
 20
20.2867212539
 10
17.6550292107
 20
20.2897888265
 10
17.6637654584
 20
20.292488743
 10
17.6719010899
 20
20.2948189987
 10
17.6794300636
 20
20.2967778629
 10
17.6863467885
 20
20.2983638811
 10
17.6926461283
 20
20.2995758754
 10
17.6983234048
 20
20.3004129459
 10
17.7033744023
 20
20.3008744709
 10
17.7077953698
 20
20.3009601076
 10
17.7115830242
 20
20.3006697925
 10
17.7147345529
 20
20.3000037412
 10
17.7172476155
 20
20.2989624483
 10
17.7191203457
 20
20.2975466871
 10
17.720077483
 20
20.2962856104
  0
LWPOLYLINE
  5
32C
100
AcDbEntity
  8
218140580
100
AcDbPolyline
 62
250
  6
CONTINUOUS
 90
26
 70
0
 10
16.7604085619
 20
20.8511418863
 10
16.7796684741
 20
20.8600384973
 10
16.7989049195
 20
20.8682809023
 10
16.818103613
 20
20.8758629804
 10
16.8372502976
 20
20.882779101
 10
16.8563307548
 20
20.8890241282
 10
16.8753308153
 20
20.8945934245
 10
16.8942363697
 20
20.899482854
 10
16.9130333786
 20
20.9036887858
 10
16.9317078831
 20
20.9072080965
 10
16.9502460155
 20
20.9100381728
 10
16.9686340093
 20
20.9121769129
 10
16.9868582095
 20
20.9136227287
 10
17.0049050826
 20
20.9143745465
 10
17.022761227
 20
20.9144318079
 10
17.0404133826
 20
20.9137944704
 10
17.0578484408
 20
20.9124630074
 10
17.0750534542
 20
20.9104384076
 10
17.0920156463
 20
20.9077221744
 10
17.1087224208
 20
20.904316325
 10
17.1251613713
 20
20.9002233885
 10
17.1413202901
 20
20.8954464044
 10
17.1571871774
 20
20.8899889201
 10
17.1727502505
 20
20.8838549884
 10
17.1879979521
 20
20.8770491643
 10
17.1952814424
 20
20.8735052159
  0
LWPOLYLINE
  5
32D
100
AcDbEntity
  8
268200010
100
AcDbPolyline
 62
250
  6
CONTINUOUS
 90
13
 70
0
 10
-3.6929270012
 20
10.5758507596
 10
-3.7225271165
 20
10.5633030983
 10
-3.755118993
 20
10.5527708664
 10
-3.7901572811
 20
10.5444302967
 10
-3.827055696
 20
10.5384209493
 10
-3.8651968278
 20
10.5348433766
 10
-3.903942473
 20
10.5337574412
 10
-3.9426443127
 20
10.5351813136
 10
-3.980654761
 20
10.5390911686
 10
-4.0173378009
 20
10.5454215839
 10
-4.0520796264
 20
10.5540666345
 10
-4.0842989135
 20
10.5648816656
 10
-4.1134565467
 20
10.5776857125
  0
LWPOLYLINE
  5
32E
100
AcDbEntity
  8
290200030
100
AcDbPolyline
 62
250
  6
CONTINUOUS
 90
16
 70
0
 10
-7.8005046227
 20
-8.6389264807
 10
-7.7620401282
 20
-8.6562908752
 10
-7.7202022898
 20
-8.6716142122
 10
-7.6754517518
 20
-8.684719407
 10
-7.6282736427
 20
-8.6954815812
 10
-7.5791551063
 20
-8.7037833547
 10
-7.528612315
 20
-8.709541393
 10
-7.4771967479
 20
-8.712701527
 10
-7.4254598939
 20
-8.7132149956
 10
-7.3739510729
 20
-8.7110792839
 10
-7.3232219181
 20
-8.7063291466
 10
-7.2738253684
 20
-8.6990044235
 10
-7.2262848363
 20
-8.6891850269
 10
-7.1810893865
 20
-8.6769808847
 10
-7.1387256431
 20
-8.6624986583
 10
-7.099660225
 20
-8.6458941
  0
LWPOLYLINE
  5
32F
100
AcDbEntity
  8
290200030
100
AcDbPolyline
 62
7
  6
CONTINUOUS
 90
14
 70
0
 10
-7.7358755297
 20
-8.7741704116
 10
-7.7219421552
 20
-8.7808880403
 10
-7.6780623044
 20
-8.7989451716
 10
-7.6318562924
 20
-8.8136023215
 10
-7.5835578872
 20
-8.82492489
 10
-7.5340634853
 20
-8.8328090149
 10
-7.4835645963
 20
-8.8373230812
 10
-7.4322921918
 20
-8.838432979
 10
-7.3814919003
 20
-8.8360996422
 10
-7.3313933174
 20
-8.8303490565
 10
-7.2822257495
 20
-8.8210918966
 10
-7.2349395516
 20
-8.8084000927
 10
-7.1897798343
 20
-8.7921949607
 10
-7.1681379153
 20
-8.7827733519
  0
LINE
  5
330
100
AcDbEntity
  8
290200030
100
AcDbLine
 62
250
  6
CONTINUOUS
 10
-7.6268309818
 20
-9.2458815401
 11
-22.5522944702
 21
-1.7831497958
  0
LINE
  5
331
100
AcDbEntity
  8
290200030
100
AcDbLine
 62
250
  6
CONTINUOUS
 10
-22.7259859153
 20
-1.1762036205
 11
-7.8005224268
 21
-8.6389353648
  0
LINE
  5
332
100
AcDbEntity
  8
290200030
100
AcDbLine
 62
7
  6
CONTINUOUS
 10
-22.661220487
 20
-1.3115130249
 11
-7.7355492335
 21
-8.7743489739
  0
LWPOLYLINE
  5
333
100
AcDbEntity
  8
268200010
100
AcDbPolyline
 62
7
  6
CONTINUOUS
 90
18
 70
0
 10
-4.5268522507
 20
-22.9904523617
 10
-4.5118468112
 20
-23.0414091534
 10
-4.4896831893
 20
-23.0976557413
 10
-4.4627149404
 20
-23.151792909
 10
-4.4309730206
 20
-23.2036294772
 10
-4.3952685521
 20
-23.2518008655
 10
-4.3555863806
 20
-23.2962095993
 10
-4.3120014908
 20
-23.3364613149
 10
-4.2658655678
 20
-23.3711581841
 10
-4.2175485863
 20
-23.4000463402
 10
-4.1671050451
 20
-23.4230682515
 10
-4.1159958475
 20
-23.4395903954
 10
-4.0654509964
 20
-23.4495542247
 10
-4.0154537118
 20
-23.4533625872
 10
-3.9660354407
 20
-23.4511810617
 10
-3.9179117579
 20
-23.4431154178
 10
-3.8717569856
 20
-23.429416119
 10
-3.8385691153
 20
-23.4155623897
  0
LWPOLYLINE
  5
334
100
AcDbEntity
  8
290200030
100
AcDbPolyline
 62
250
  6
CONTINUOUS
 90
19
 70
0
 10
-6.3287146074
 20
-27.0776500669
 10
-6.3235871982
 20
-27.1076245843
 10
-6.316519786
 20
-27.13580515
 10
-6.3075123706
 20
-27.1621917641
 10
-6.2964891489
 20
-27.1869345927
 10
-6.2835259241
 20
-27.2098834697
 10
-6.2688501053
 20
-27.2305878965
 10
-6.2524346776
 20
-27.2489923593
 10
-6.2343066558
 20
-27.265152372
 10
-6.2147744942
 20
-27.2787839768
 10
-6.1938091728
 20
-27.2898428045
 10
-6.1714397115
 20
-27.2983732243
 10
-6.1480616243
 20
-27.3042243866
 10
-6.1236429143
 20
-27.3073399201
 10
-6.0982155783
 20
-27.3077761961
 10
-6.0722711207
 20
-27.3055514783
 10
-6.0459733763
 20
-27.3006718547
 10
-6.0191585103
 20
-27.2931312375
 10
-5.9918265227
 20
-27.2829296265
  0
LWPOLYLINE
  5
335
100
AcDbEntity
  8
290200030
100
AcDbPolyline
 62
250
  6
CONTINUOUS
 90
11
 70
0
 10
-7.0256559106
 20
-27.1370963682
 10
-7.0155454722
 20
-27.1968272253
 10
-7.0014172685
 20
-27.2534621618
 10
-6.9833523614
 20
-27.3066741497
 10
-6.9614530015
 20
-27.3561569125
 10
-6.9358461282
 20
-27.4016240973
 10
-6.9066828101
 20
-27.4428111182
 10
-6.8741303532
 20
-27.4794806695
 10
-6.8383756622
 20
-27.5114221801
 10
-6.7996281223
 20
-27.538450164
 10
-6.77210204
 20
-27.5537318841
  0
LWPOLYLINE
  5
336
100
AcDbEntity
  8
290200030
100
AcDbPolyline
 62
250
  6
CONTINUOUS
 90
13
 70
0
 10
-7.0996426163
 20
-9.5485471102
 10
-7.1015374213
 20
-9.519724611
 10
-7.1063703309
 20
-9.4898572742
 10
-7.1140586215
 20
-9.4594559931
 10
-7.1244707429
 20
-9.4290407499
 10
-7.1374285435
 20
-9.3991318039
 10
-7.1527102982
 20
-9.3702407866
 10
-7.1700545592
 20
-9.3428618256
 10
-7.1891646306
 20
-9.3174631378
 10
-7.2097135958
 20
-9.294479091
 10
-7.2313499578
 20
-9.2743027054
 10
-7.2537036597
 20
-9.2572789447
 10
-7.2763923876
 20
-9.2436988485
  0
LWPOLYLINE
  5
337
100
AcDbEntity
  8
290200030
100
AcDbPolyline
 62
250
  6
CONTINUOUS
 90
8
 70
0
 10
-7.8005224268
 20
-8.6389353648
 10
-7.7990622006
 20
-8.6661717072
 10
-7.7946648433
 20
-8.6914740384
 10
-7.7874040826
 20
-8.7144185033
 10
-7.7774016049
 20
-8.7346207776
 10
-7.7648250383
 20
-8.7517424521
 10
-7.7498851641
 20
-8.7654967261
 10
-7.7358813996
 20
-8.7741820668
  0
LWPOLYLINE
  5
338
100
AcDbEntity
  8
290200030
100
AcDbPolyline
 62
250
  6
CONTINUOUS
 90
8
 70
0
 10
-7.6728763446
 20
-19.5829655002
 10
-7.6210630323
 20
-20.6860063589
 10
-7.555673002
 20
-21.7814682856
 10
-7.4767200334
 20
-22.8691211279
 10
-7.3842212666
 20
-23.9487361707
 10
-7.2781960748
 20
-25.0200866363
 10
-7.1586660642
 20
-26.0829477342
 10
-7.0256559106
 20
-27.1370963682
  0
LWPOLYLINE
  5
339
100
AcDbEntity
  8
290200030
100
AcDbPolyline
 62
250
  6
CONTINUOUS
 90
9
 70
0
 10
-7.0104018024
 20
-18.4615949433
 10
-6.9723876544
 20
-19.5657265496
 10
-6.9208724883
 20
-20.6623326092
 10
-6.8558394707
 20
-21.7516458042
 10
-6.777305435
 20
-22.8334334524
 10
-6.6853208809
 20
-23.9069975074
 10
-6.5799026415
 20
-24.9721052871
 10
-6.4610338837
 20
-26.0289894736
 10
-6.3287146074
 20
-27.0776500669
  0
LWPOLYLINE
  5
33A
100
AcDbEntity
  8
290200030
100
AcDbPolyline
 62
250
  6
CONTINUOUS
 90
3
 70
0
 10
-7.7357336864
 20
-17.3550748402
 10
-7.7111025254
 20
-18.4725772526
 10
-7.6728763446
 20
-19.5829655002
  0
LINE
  5
33B
100
AcDbEntity
  8
290200030
100
AcDbLine
 62
250
  6
CONTINUOUS
 10
-7.0349149323
 20
-17.3499377902
 11
-7.0104018024
 21
-18.4615949433
  0
LWPOLYLINE
  5
33C
100
AcDbEntity
  8
290200030
100
AcDbPolyline
 62
250
  6
CONTINUOUS
 90
10
 70
0
 10
-7.8005224268
 20
-9.5493957774
 10
-7.7991429436
 20
-10.4195633253
 10
-7.7963085856
 20
-11.2890197257
 10
-7.7920193816
 20
-12.1577614709
 10
-7.7862753839
 20
-13.0257825754
 10
-7.7790766232
 20
-13.8930820226
 10
-7.7704230666
 20
-14.7596637447
 10
-7.7603146991
 20
-15.6255267016
 10
-7.7487515634
 20
-16.490664903
 10
-7.7357336864
 20
-17.3550748402
  0
LWPOLYLINE
  5
33D
100
AcDbEntity
  8
290200030
100
AcDbPolyline
 62
250
  6
CONTINUOUS
 90
10
 70
0
 10
-7.0996426163
 20
-9.5485471102
 10
-7.0982693742
 20
-10.4182421772
 10
-7.095441445
 20
-11.2872197102
 10
-7.0911588289
 20
-12.1554797092
 10
-7.0854215172
 20
-13.0230234221
 10
-7.0782295185
 20
-13.889849601
 10
-7.0695828581
 20
-14.7559545016
 10
-7.0594815445
 20
-15.621336876
 10
-7.0479255692
 20
-16.4859979722
 10
-7.0349149323
 20
-17.3499377902
  0
LINE
  5
33E
100
AcDbEntity
  8
268200010
100
AcDbLine
 62
7
  6
CONTINUOUS
 10
-9.2518528057
 20
18.9563710554
 11
-9.2518528057
 21
17.7444422698
  0
LINE
  5
33F
100
AcDbEntity
  8
268200010
100
AcDbLine
 62
7
  6
CONTINUOUS
 10
-8.8154567026
 20
17.7224610602
 11
-8.8154567026
 21
16.4915053863
  0
LINE
  5
340
100
AcDbEntity
  8
268200010
100
AcDbLine
 62
250
  6
CONTINUOUS
 10
-8.7568780588
 20
17.651750382
 11
-8.7568780588
 21
16.4181360304
  0
LINE
  5
341
100
AcDbEntity
  8
268200010
100
AcDbLine
 62
7
  6
CONTINUOUS
 10
-7.8376392433
 20
16.652186139
 11
-7.8376392433
 21
15.2060233732
  0
LINE
  5
342
100
AcDbEntity
  8
268200010
100
AcDbLine
 62
7
  6
CONTINUOUS
 10
-7.1720585415
 20
14.8732330223
 11
-7.1720585415
 21
16.3193957881
  0
LWPOLYLINE
  5
343
100
AcDbEntity
  8
290200030
100
AcDbPolyline
 62
250
  6
CONTINUOUS
 90
10
 70
0
 10
-7.7357336864
 20
-0.7706883577
 10
-7.7487515634
 20
-1.6476699504
 10
-7.7603146991
 20
-2.5239749323
 10
-7.7704230666
 20
-3.3995997682
 10
-7.7790766232
 20
-4.2745384241
 10
-7.7862753839
 20
-5.148789876
 10
-7.7920193816
 20
-6.0223580891
 10
-7.7963085856
 20
-6.8952420168
 10
-7.7991429436
 20
-7.7674356208
 10
-7.8005224268
 20
-8.6389353648
  0
LWPOLYLINE
  5
344
100
AcDbEntity
  8
268200010
100
AcDbPolyline
 62
250
  6
CONTINUOUS
 90
13
 70
0
 10
-8.7568780588
 20
17.651750382
 10
-8.7566865422
 20
17.6608571678
 10
-8.7561120584
 20
17.6701363352
 10
-8.7551554878
 20
17.6795629962
 10
-8.7538184526
 20
17.6891136778
 10
-8.7521040701
 20
17.6987607496
 10
-8.7500176855
 20
17.7084723393
 10
-8.7475655219
 20
17.7182199971
 10
-8.7447538605
 20
17.727979193
 10
-8.7415902596
 20
17.7377236422
 10
-8.7380832275
 20
17.7474270136
 10
-8.7342423396
 20
17.7570627024
 10
-8.7300781564
 20
17.7666041824
  0
LWPOLYLINE
  5
345
100
AcDbEntity
  8
290200030
100
AcDbPolyline
 62
250
  6
CONTINUOUS
 90
13
 70
0
 10
-7.8005224268
 20
-9.5493957774
 10
-7.7990623173
 20
-9.5207004554
 10
-7.7946652905
 20
-9.4910018826
 10
-7.7874050056
 20
-9.4607975718
 10
-7.7774030876
 20
-9.4305935082
 10
-7.7648270895
 20
-9.4008956731
 10
-7.7498876857
 20
-9.3722015669
 10
-7.7328351423
 20
-9.3449918757
 10
-7.713955125
 20
-9.3197224187
 10
-7.6935639134
 20
-9.2968165119
 10
-7.6720031029
 20
-9.276657877
 10
-7.649633882
 20
-9.2595842133
 10
-7.6268309818
 20
-9.2458815401
  0
LWPOLYLINE
  5
346
100
AcDbEntity
  8
290200030
100
AcDbPolyline
 62
250
  6
CONTINUOUS
 90
8
 70
0
 10
-6.5799026415
 20
7.2795620195
 10
-6.6853208809
 20
6.1126530294
 10
-6.777305435
 20
4.950260523
 10
-6.8558394707
 20
3.7926334381
 10
-6.9208724883
 20
2.640518588
 10
-6.9723876544
 20
1.4941649108
 10
-7.0104018024
 20
0.3533234684
 10
-7.0349149323
 20
-0.782005739
  0
LWPOLYLINE
  5
347
100
AcDbEntity
  8
290200030
100
AcDbPolyline
 62
250
  6
CONTINUOUS
 90
10
 70
0
 10
-7.0256559106
 20
9.6971803478
 10
-7.1586660642
 20
8.5145616255
 10
-7.2781960748
 20
7.3362490624
 10
-7.3842212666
 20
6.1624904306
 10
-7.4767200334
 20
4.9935326923
 10
-7.555673002
 20
3.829621433
 10
-7.6210630323
 20
2.6710008105
 10
-7.6728763446
 20
1.5179141913
 10
-7.7111025254
 20
0.3706040977
 10
-7.7357336864
 20
-0.7706883577
  0
LWPOLYLINE
  5
348
100
AcDbEntity
  8
290200030
100
AcDbPolyline
 62
250
  6
CONTINUOUS
 90
3
 70
0
 10
-6.3287146074
 20
9.6276762642
 10
-6.4610338837
 20
8.4512364311
 10
-6.5799026415
 20
7.2795620195
  0
LWPOLYLINE
  5
349
100
AcDbEntity
  8
268200010
100
AcDbPolyline
 62
250
  6
CONTINUOUS
 90
30
 70
0
 10
-3.6759997675
 20
13.9127578373
 10
-3.6804162549
 20
13.9018757768
 10
-3.6852198572
 20
13.8912161795
 10
-3.6904000014
 20
13.8808032306
 10
-3.695945678
 20
13.8706598432
 10
-3.7018442421
 20
13.8608098766
 10
-3.7080811837
 20
13.8512778555
 10
-3.7146418802
 20
13.8420860264
 10
-3.7215120154
 20
13.8332543506
 10
-3.7286762304
 20
13.8248025948
 10
-3.7361184738
 20
13.8167497537
 10
-3.7438218689
 20
13.8091141446
 10
-3.7517688801
 20
13.8019131691
 10
-3.7599415071
 20
13.7951631304
 10
-3.7683213601
 20
13.7888792102
 10
-3.7768895423
 20
13.7830755809
 10
-3.7856267266
 20
13.7777653389
 10
-3.7945131795
 20
13.7729604829
 10
-3.8035288225
 20
13.7686718711
 10
-3.812653298
 20
13.7649091867
 10
-3.8218660156
 20
13.7616809199
 10
-3.8311461797
 20
13.7589943579
 10
-3.8404728424
 20
13.7568555651
 10
-3.8498249502
 20
13.7552693695
 10
-3.8591813923
 20
13.7542393517
 10
-3.868521059
 20
13.7537678367
 10
-3.8778228569
 20
13.7538558902
 10
-3.8870657565
 20
13.7545033102
 10
-3.896228873
 20
13.755708626
 10
-3.902843261
 20
13.7569366765
  0
LINE
  5
34A
100
AcDbEntity
  8
268200010
100
AcDbLine
 62
7
  6
CONTINUOUS
 10
-4.1977934199
 20
8.0473193118
 11
-4.3580068501
 21
7.8586166784
  0
LINE
  5
34B
100
AcDbEntity
  8
290200030
100
AcDbLine
 62
7
  6
CONTINUOUS
 10
-22.6711938725
 20
-1.5992458067
 11
-22.3896043365
 21
-1.4473214224
  0
LINE
  5
34C
100
AcDbEntity
  8
290200030
100
AcDbLine
 62
250
  6
CONTINUOUS
 10
-22.5553553288
 20
-1.6042173779
 11
-22.3247000522
 21
-1.4797735646
  0
LWPOLYLINE
  5
34D
100
AcDbEntity
  8
218140580
100
AcDbPolyline
 62
250
  6
CONTINUOUS
 90
30
 70
0
 10
17.7813847247
 20
18.7315536526
 10
17.8000458633
 20
18.7414829956
 10
17.8181589584
 20
18.7516628936
 10
17.8357105589
 20
18.7620857869
 10
17.8526876312
 20
18.7727439355
 10
17.8690775678
 20
18.7836294245
 10
17.8848681975
 20
18.7947341703
 10
17.9000477941
 20
18.8060499264
 10
17.9146050852
 20
18.8175682898
 10
17.9285292604
 20
18.8292807068
 10
17.9418099796
 20
18.8411784797
 10
17.9544373804
 20
18.8532527731
 10
17.9664020857
 20
18.8654946207
 10
17.9776952103
 20
18.8778949316
 10
17.988308368
 20
18.8904444972
 10
17.9982336774
 20
18.9031339981
 10
18.0074637679
 20
18.9159540111
 10
18.0159917851
 20
18.9288950159
 10
18.0238113961
 20
18.9419474025
 10
18.0309167941
 20
18.9551014781
 10
18.0373027025
 20
18.9683474745
 10
18.0429643791
 20
18.981675555
 10
18.0478976195
 20
18.9950758221
 10
18.0520987603
 20
19.0085383248
 10
18.0555646816
 20
19.0220530657
 10
18.0582928097
 20
19.0356100087
 10
18.0602811187
 20
19.0491990864
 10
18.0615281319
 20
19.0628102074
 10
18.0620329235
 20
19.076433264
 10
18.0620449244
 20
19.0788813281
  0
LINE
  5
34E
100
AcDbEntity
  8
218140580
100
AcDbLine
 62
250
  6
CONTINUOUS
 10
17.7813847247
 20
18.7315536526
 11
0.4001547575
 21
9.8888044593
  0
LINE
  5
34F
100
AcDbEntity
  8
268200010
100
AcDbLine
 62
7
  6
CONTINUOUS
 10
-0.6663677003
 20
10.1019472668
 11
0.3850362304
 21
10.6322097272
  0
LINE
  5
350
100
AcDbEntity
  8
268200010
100
AcDbLine
 62
7
  6
CONTINUOUS
 10
-3.6929270012
 20
8.3016991022
 11
-4.1977934199
 21
8.0473193118
  0
LWPOLYLINE
  5
351
100
AcDbEntity
  8
290200030
100
AcDbPolyline
 62
250
  6
CONTINUOUS
 90
7
 70
0
 10
-22.6709761053
 20
-1.5991279468
 10
-22.6641759317
 20
-1.595803937
 10
-22.6448433463
 20
-1.589625945
 10
-22.6239274213
 20
-1.5873736212
 10
-22.6017858952
 20
-1.5890854884
 10
-22.578797469
 20
-1.5947322675
 10
-22.5553553288
 20
-1.6042173779
  0
LINE
  5
352
100
AcDbEntity
  8
268200010
100
AcDbLine
 62
7
  6
CONTINUOUS
 10
-3.1334427534
 20
-7.5472578295
 11
-2.8977658508
 21
-7.6650962808
  0
LINE
  5
353
100
AcDbEntity
  8
290200030
100
AcDbLine
 62
7
  6
CONTINUOUS
 10
-3.3121289198
 20
-7.2462823579
 11
-3.5661505545
 21
-7.1192715405
  0
LWPOLYLINE
  5
354
100
AcDbEntity
  8
268200010
100
AcDbPolyline
 62
250
  6
CONTINUOUS
 90
5
 70
0
 10
-1.5348519744
 20
-26.1442211913
 10
-1.5378602173
 20
-26.1334702766
 10
-1.5412891579
 20
-26.1229606393
 10
-1.5451310564
 20
-26.112716002
 10
-1.5493772419
 20
-26.1027594853
  0
LWPOLYLINE
  5
355
100
AcDbEntity
  8
290200030
100
AcDbPolyline
 62
250
  6
CONTINUOUS
 90
16
 70
0
 10
-5.9918265227
 20
10.1582848656
 10
-5.995693084
 20
10.2034926314
 10
-6.0033182124
 20
10.2501737706
 10
-6.0146184972
 20
10.2978174553
 10
-6.0294703094
 20
10.3459023199
 10
-6.0477111513
 20
10.3939021572
 10
-6.069141431
 20
10.4412916761
 10
-6.0935266556
 20
10.4875522715
 10
-6.1205999875
 20
10.5321776771
 10
-6.1500651556
 20
10.5746794997
 10
-6.1815997232
 20
10.6145926049
 10
-6.2148585988
 20
10.651480177
 10
-6.2494777948
 20
10.6849384875
 10
-6.2850784467
 20
10.7146013557
 10
-6.3212709618
 20
10.7401441489
 10
-6.3576592598
 20
10.761287313
  0
LWPOLYLINE
  5
356
100
AcDbEntity
  8
268200010
100
AcDbPolyline
 62
250
  6
CONTINUOUS
 90
20
 70
0
 10
-5.7070597975
 20
14.7525395964
 10
-5.7068915016
 20
14.743178646
 10
-5.7063869344
 20
14.734003815
 10
-5.7055470566
 20
14.7250325727
 10
-5.7043734709
 20
14.716282024
 10
-5.7028684099
 20
14.707768806
 10
-5.7010347236
 20
14.6995090632
 10
-5.6988758795
 20
14.6915184755
 10
-5.6963959921
 20
14.6838123219
 10
-5.6935998123
 20
14.676405373
 10
-5.6904926898
 20
14.6693117736
 10
-5.6870805277
 20
14.6625449773
 10
-5.6833697997
 20
14.6561178203
 10
-5.679367539
 20
14.6500425004
 10
-5.6750813898
 20
14.6443306366
 10
-5.6705195803
 20
14.6389931836
 10
-5.6656908508
 20
14.6340403335
 10
-5.660604365
 20
14.6294814531
 10
-5.6552697501
 20
14.6253251599
 10
-5.649710387
 20
14.621588291
  0
LINE
  5
357
100
AcDbEntity
  8
268200010
100
AcDbLine
 62
250
  6
CONTINUOUS
 10
-6.3902218627
 20
20.909534732
 11
-6.3902218627
 21
22.293490835
  0
LINE
  5
358
100
AcDbEntity
  8
268200010
100
AcDbLine
 62
250
  6
CONTINUOUS
 10
-6.3527150028
 20
19.6972108247
 11
-6.3527150028
 21
20.9280209122
  0
LINE
  5
359
100
AcDbEntity
  8
268200010
100
AcDbLine
 62
7
  6
CONTINUOUS
 10
-6.2575287251
 20
21.0680954726
 11
-6.2575287251
 21
22.3163595953
  0
LINE
  5
35A
100
AcDbEntity
  8
268200010
100
AcDbLine
 62
7
  6
CONTINUOUS
 10
-6.1052276294
 20
15.4685574404
 11
-6.1052276294
 21
16.8541980864
  0
LINE
  5
35B
100
AcDbEntity
  8
268200010
100
AcDbLine
 62
7
  6
CONTINUOUS
 10
-5.7802831022
 20
15.1809018782
 11
-5.7802831022
 21
14.840927944
  0
LINE
  5
35C
100
AcDbEntity
  8
268200010
100
AcDbLine
 62
250
  6
CONTINUOUS
 10
-5.7070597975
 20
15.0925135305
 11
-5.7070597975
 21
14.7525395964
  0
LINE
  5
35D
100
AcDbEntity
  8
268200010
100
AcDbLine
 62
7
  6
CONTINUOUS
 10
-5.3867891765
 20
21.0530670624
 11
-5.3867891765
 21
20.489504404
  0
LINE
  5
35E
100
AcDbEntity
  8
268200010
100
AcDbLine
 62
7
  6
CONTINUOUS
 10
-5.0772901479
 20
14.3349229697
 11
-5.0772901479
 21
13.880948868
  0
LINE
  5
35F
100
AcDbEntity
  8
268200010
100
AcDbLine
 62
250
  6
CONTINUOUS
 10
-5.0040668432
 20
14.2983113174
 11
-5.0040668432
 21
13.7892371732
  0
LINE
  5
360
100
AcDbEntity
  8
268200010
100
AcDbLine
 62
250
  6
CONTINUOUS
 10
-4.9385014404
 20
19.8364084913
 11
-4.9385014404
 21
20.3600948814
  0
LINE
  5
361
100
AcDbEntity
  8
290200030
100
AcDbLine
 62
7
  6
CONTINUOUS
 10
-4.7901127131
 20
10.8143357568
 11
-4.7901127131
 21
7.2383148593
  0
LINE
  5
362
100
AcDbEntity
  8
290200030
100
AcDbLine
 62
7
  6
CONTINUOUS
 10
-4.7901127131
 20
-26.7784989812
 11
-4.7901127131
 21
-23.2024780837
  0
LWPOLYLINE
  5
363
100
AcDbEntity
  8
268200010
100
AcDbPolyline
 62
250
  6
CONTINUOUS
 90
37
 70
0
 10
-4.4591015674
 20
10.7505082228
 10
-4.4589125097
 20
10.7639186667
 10
-4.4577847168
 20
10.777246933
 10
-4.4557181886
 20
10.7904930216
 10
-4.4527968691
 20
10.8038258873
 10
-4.4489368143
 20
10.8170765753
 10
-4.4438861926
 20
10.829738222
 10
-4.4376111382
 20
10.8418554992
 10
-4.430145517
 20
10.8533837351
 10
-4.421339095
 20
10.86368205
 10
-4.4111203409
 20
10.8727654749
 10
-4.3995607861
 20
10.8806189788
 10
-4.3867247901
 20
10.8865565895
 10
-4.3724801498
 20
10.8905117133
 10
-4.3569590684
 20
10.8925509438
 10
-4.3406225159
 20
10.8921880907
 10
-4.3233591907
 20
10.8892349622
 10
-4.3052803943
 20
10.88387975
 10
-4.2871810017
 20
10.876200839
 10
-4.2690579984
 20
10.8659951277
 10
-4.250914399
 20
10.8534657175
 10
-4.2335541213
 20
10.8393002981
 10
-4.2170810891
 20
10.8234083605
 10
-4.2013913787
 20
10.8058804137
 10
-4.1869771365
 20
10.7876756737
 10
-4.1739765181
 20
10.7688582057
 10
-4.162251368
 20
10.7493639446
 10
-4.1518793655
 20
10.7299599111
 10
-4.1429349473
 20
10.7107337023
 10
-4.1353436769
 20
10.6915977212
 10
-4.1289599239
 20
10.6730561974
 10
-4.1238191252
 20
10.6551888154
 10
-4.119885844
 20
10.6379158908
 10
-4.1169081397
 20
10.6215026005
 10
-4.1148020319
 20
10.6060373368
 10
-4.1136515009
 20
10.5914317075
 10
-4.1134565467
 20
10.5776857125
  0
LWPOLYLINE
  5
364
100
AcDbEntity
  8
290200030
100
AcDbPolyline
 62
250
  6
CONTINUOUS
 90
10
 70
0
 10
-7.0349149323
 20
-0.782005739
 10
-7.0479255692
 20
-1.658509783
 10
-7.0594815445
 20
-2.5343303548
 10
-7.0695828581
 20
-3.4094674543
 10
-7.0782295185
 20
-4.2839223379
 10
-7.0854215172
 20
-5.1576937492
 10
-7.0911588289
 20
-6.0307779196
 10
-7.095441445
 20
-6.9031735929
 10
-7.0982693742
 20
-7.7748820253
 10
-7.0996426163
 20
-8.6459032169
  0
LWPOLYLINE
  5
365
100
AcDbEntity
  8
268200010
100
AcDbPolyline
 62
250
  6
CONTINUOUS
 90
34
 70
0
 10
-5.7070597975
 20
15.0925135305
 10
-5.7068609948
 20
15.1028780087
 10
-5.7062650324
 20
15.1134179936
 10
-5.7052732493
 20
15.1241097792
 10
-5.7038878732
 20
15.1349293251
 10
-5.7021120191
 20
15.1458522894
 10
-5.699949684
 20
15.1568540834
 10
-5.6974057334
 20
15.1679099555
 10
-5.6944858887
 20
15.1789950446
 10
-5.6911967187
 20
15.1900844143
 10
-5.6875456217
 20
15.2011531242
 10
-5.6835408112
 20
15.2121762766
 10
-5.6791912989
 20
15.2231290698
 10
-5.6745068703
 20
15.2339868675
 10
-5.6694980622
 20
15.2447252506
 10
-5.6641761436
 20
15.2553200638
 10
-5.6585530833
 20
15.2657474835
 10
-5.6526415326
 20
15.2759840523
 10
-5.6464548008
 20
15.2860067292
 10
-5.6400068242
 20
15.2957929472
 10
-5.6333120909
 20
15.305320727
 10
-5.6263856147
 20
15.314568702
 10
-5.6192429043
 20
15.3235161524
 10
-5.6119000868
 20
15.3321428632
 10
-5.6043738401
 20
15.3404292536
 10
-5.5966812059
 20
15.3483566021
 10
-5.5888393933
 20
15.355907215
 10
-5.5808658943
 20
15.3630642642
 10
-5.5727774169
 20
15.3698126372
 10
-5.5645933456
 20
15.3761360472
 10
-5.5563356748
 20
15.3820178231
 10
-5.5480242541
 20
15.3874445731
 10
-5.5396766218
 20
15.3924055871
 10
-5.5313115415
 20
15.3968903455
  0
LWPOLYLINE
  5
366
100
AcDbEntity
  8
290200030
100
AcDbPolyline
 62
250
  6
CONTINUOUS
 90
8
 70
0
 10
-7.0996426163
 20
-8.6459032169
 10
-7.1015372877
 20
-8.6735819931
 10
-7.1063698521
 20
-8.699249444
 10
-7.1140576549
 20
-8.7224665622
 10
-7.1244692066
 20
-8.7428362505
 10
-7.1374264316
 20
-8.7600101126
 10
-7.1527077141
 20
-8.7736944129
 10
-7.1681323917
 20
-8.7827852114
  0
LWPOLYLINE
  5
367
100
AcDbEntity
  8
RACCORDO
100
AcDbPolyline
 62
250
  6
CONTINUOUS
 90
47
 70
0
 10
8.325154091
 20
19.3601540794
 10
8.3330159547
 20
19.3706631447
 10
8.382299173
 20
19.4274438221
 10
8.4374328476
 20
19.4830344365
 10
8.497936326
 20
19.5369769588
 10
8.5638086776
 20
19.5892298583
 10
8.6350508329
 20
19.6398346657
 10
8.7111849306
 20
19.6884579442
 10
8.7922015596
 20
19.7350856867
 10
8.878110131
 20
19.7797319003
 10
8.9684610167
 20
19.8221051694
 10
9.0635112969
 20
19.8622643674
 10
9.1630038914
 20
19.9001506209
 10
9.2657179317
 20
19.9352958941
 10
9.3720588005
 20
19.967673614
 10
9.4816211151
 20
19.9973103535
 10
9.5919678595
 20
20.0238177957
 10
9.7030723764
 20
20.0470171892
 10
9.8149613231
 20
20.0670872852
 10
9.9252776552
 20
20.084176021
 10
10.0336681451
 20
20.0981499168
 10
10.1404860204
 20
20.1091424524
 10
10.2444339195
 20
20.1177020037
 10
10.345269754
 20
20.1238045732
 10
10.4432356122
 20
20.1274741584
 10
10.5377603986
 20
20.1293311272
 10
10.6286821387
 20
20.1293969961
 10
10.7161628068
 20
20.1276502485
 10
10.8001172302
 20
20.1246467032
 10
10.8804213036
 20
20.1204279025
 10
10.9571991322
 20
20.114952304
 10
11.0307378587
 20
20.1086510984
 10
11.1010043923
 20
20.1015650646
 10
11.1680318239
 20
20.0936534237
 10
11.232206568
 20
20.0852250296
 10
11.2935143149
 20
20.076314389
 10
11.3519693743
 20
20.0668869952
 10
11.4080010908
 20
20.0571481814
 10
11.4616056743
 20
20.0471266597
 10
11.512786915
 20
20.0367937179
 10
11.5619855273
 20
20.0262685532
 10
11.6092046722
 20
20.0155740141
 10
11.6544411888
 20
20.0046872519
 10
11.6981263087
 20
19.9936589183
 10
11.7404037757
 20
19.982505897
 10
11.7811298462
 20
19.9712113042
 10
11.8203045199
 20
19.9597751398
  0
LWPOLYLINE
  5
368
100
AcDbEntity
  8
RACCORDO
100
AcDbPolyline
 62
250
  6
CONTINUOUS
 90
9
 70
0
 10
8.2474279048
 20
19.3929019254
 10
8.26758665
 20
19.4160559006
 10
8.3266655205
 20
19.4753151179
 10
8.3917583
 20
19.5329230511
 10
8.4626341318
 20
19.5886965187
 10
8.5391272696
 20
19.6425244542
 10
8.6211186733
 20
19.6943256379
 10
8.7083672703
 20
19.7439432773
 10
8.7288644317
 20
19.7548796455
  0
LINE
  5
369
100
AcDbEntity
  8
268200010
100
AcDbLine
 62
7
  6
CONTINUOUS
 10
-3.1353791484
 20
5.7060025955
 11
-2.32220635
 21
6.0815527414
  0
LWPOLYLINE
  5
36A
100
AcDbEntity
  8
268200010
100
AcDbPolyline
 62
7
  6
CONTINUOUS
 90
5
 70
0
 10
-6.2575287251
 20
22.3163575282
 10
-6.2577746622
 20
22.3186473237
 10
-6.2587444232
 20
22.3210475841
 10
-6.2604179299
 20
22.322978883
 10
-6.2625436996
 20
22.324365069
  0
LWPOLYLINE
  5
36B
100
AcDbEntity
  8
268200010
100
AcDbPolyline
 62
250
  6
CONTINUOUS
 90
3
 70
0
 10
-5.7795991211
 20
14.831687777
 10
-5.7801949195
 20
14.8376081712
 10
-5.7802831022
 20
14.840927944
  0
LWPOLYLINE
  5
36C
100
AcDbEntity
  8
268200010
100
AcDbPolyline
 62
250
  6
CONTINUOUS
 90
20
 70
0
 10
-4.0285217271
 20
-27.7263075123
 10
-4.0283229792
 20
-27.7364717992
 10
-4.0277271824
 20
-27.7464144831
 10
-4.0267356765
 20
-27.756113207
 10
-4.0253506908
 20
-27.7655461627
 10
-4.0235753397
 20
-27.7746921394
 10
-4.0214136151
 20
-27.7835305717
 10
-4.0188703779
 20
-27.7920415858
 10
-4.0159513467
 20
-27.8002060439
 10
-4.0126630851
 20
-27.8080055877
 10
-4.0090129872
 20
-27.8154226793
 10
-4.0050092603
 20
-27.8224406408
 10
-4.0006609072
 20
-27.8290436918
 10
-3.9959777055
 20
-27.8352169848
 10
-3.9909701857
 20
-27.8409466388
 10
-3.9856496076
 20
-27.8462197701
 10
-3.9800279349
 20
-27.8510245218
 10
-3.9741178085
 20
-27.8553500899
 10
-3.9679325175
 20
-27.8591867481
 10
-3.9635484307
 20
-27.8615259624
  0
LWPOLYLINE
  5
36D
100
AcDbEntity
  8
268200010
100
AcDbPolyline
 62
250
  6
CONTINUOUS
 90
22
 70
0
 10
-4.0285217271
 20
13.9132705612
 10
-4.0283538949
 20
13.9039223918
 10
-4.0278504882
 20
13.8947567151
 10
-4.0270121211
 20
13.8857911457
 10
-4.0258398945
 20
13.8770419663
 10
-4.024335776
 20
13.8685270921
 10
-4.0225029728
 20
13.8602657583
 10
-4.0203452479
 20
13.8522746192
 10
-4.0178665138
 20
13.8445679049
 10
-4.0150714565
 20
13.8371602058
 10
-4.0119653596
 20
13.8300655778
 10
-4.0085541493
 20
13.8232976044
 10
-4.0048443649
 20
13.8168692714
 10
-4.0008431017
 20
13.8107928574
 10
-3.9965579558
 20
13.8050798832
 10
-3.9919970557
 20
13.7997411874
 10
-3.9871690497
 20
13.794786909
 10
-3.9820831566
 20
13.7902265228
 10
-3.9767491265
 20
13.7860687677
 10
-3.9711771619
 20
13.782321575
 10
-3.9653778416
 20
13.7789920387
 10
-3.9635509013
 20
13.7780533464
  0
LWPOLYLINE
  5
36E
100
AcDbEntity
  8
268200010
100
AcDbPolyline
 62
7
  6
CONTINUOUS
 90
27
 70
0
 10
-2.5343383844
 20
21.5979660561
 10
-2.5347695235
 20
21.6279168113
 10
-2.5360509981
 20
21.6573372802
 10
-2.5381828082
 20
21.6862274627
 10
-2.5411702437
 20
21.7146244708
 10
-2.5450080147
 20
21.7424911925
 10
-2.5496802517
 20
21.7697162916
 10
-2.5551879426
 20
21.7962888456
 10
-2.5615300995
 20
21.8222197769
 10
-2.5686878888
 20
21.8474305168
 10
-2.5766679869
 20
21.8719295443
 10
-2.5854637175
 20
21.8957083803
 10
-2.5950362183
 20
21.9186630183
 10
-2.6053825193
 20
21.9407781176
 10
-2.6165055904
 20
21.962069019
 10
-2.6283754792
 20
21.9824777387
 10
-2.6410028996
 20
22.0020136929
 10
-2.6543771377
 20
22.0206674655
 10
-2.6684360991
 20
22.0383528248
 10
-2.6831721172
 20
22.0550543817
 10
-2.6985928587
 20
22.0707875252
 10
-2.7146592292
 20
22.0855121905
 10
-2.7313855441
 20
22.0992350374
 10
-2.748757488
 20
22.1119494061
 10
-2.7666930207
 20
22.1235952519
 10
-2.7851809435
 20
22.1341605614
 10
-2.7942313218
 20
22.138840353
  0
LINE
  5
36F
100
AcDbEntity
  8
268200010
100
AcDbLine
 62
7
  6
CONTINUOUS
 10
-4.546969533
 20
8.5792950283
 11
-4.546969533
 21
10.8565742363
  0
LINE
  5
370
100
AcDbEntity
  8
268200010
100
AcDbLine
 62
250
  6
CONTINUOUS
 10
-4.4591015674
 20
-22.9444632621
 11
-4.4591015674
 21
-22.9358870562
  0
LINE
  5
371
100
AcDbEntity
  8
268200010
100
AcDbLine
 62
250
  6
CONTINUOUS
 10
-4.4591015674
 20
8.4719007525
 11
-4.4591015674
 21
10.7505082228
  0
LINE
  5
372
100
AcDbEntity
  8
268200010
100
AcDbLine
 62
7
  6
CONTINUOUS
 10
-4.3896574624
 20
-23.6250524318
 11
-4.3896574624
 21
-23.2580802948
  0
LINE
  5
373
100
AcDbEntity
  8
268200010
100
AcDbLine
 62
7
  6
CONTINUOUS
 10
-4.3896574624
 20
11.2101572797
 11
-4.3896574624
 21
11.9273387124
  0
LINE
  5
374
100
AcDbEntity
  8
268200010
100
AcDbLine
 62
250
  6
CONTINUOUS
 10
-4.1134565467
 20
10.5776857125
 11
-4.1134565467
 21
8.2990782421
  0
LINE
  5
375
100
AcDbEntity
  8
268200010
100
AcDbLine
 62
250
  6
CONTINUOUS
 10
-4.1134565467
 20
-22.6575101424
 11
-4.1134565467
 21
-23.1172857724
  0
LINE
  5
376
100
AcDbEntity
  8
268200010
100
AcDbLine
 62
250
  6
CONTINUOUS
 10
-4.0285217271
 20
-27.7263075123
 11
-4.0285217271
 21
-27.3863335782
  0
LINE
  5
377
100
AcDbEntity
  8
268200010
100
AcDbLine
 62
250
  6
CONTINUOUS
 10
-4.0285217271
 20
13.9132705612
 11
-4.0285217271
 21
14.2532444953
  0
LINE
  5
378
100
AcDbEntity
  8
268200010
100
AcDbLine
 62
250
  6
CONTINUOUS
 10
-3.6929270012
 20
10.5758507596
 11
-3.6929270012
 21
8.3016991022
  0
LINE
  5
379
100
AcDbEntity
  8
268200010
100
AcDbLine
 62
250
  6
CONTINUOUS
 10
-3.6929270012
 20
-22.3188224424
 11
-3.6929270012
 21
-23.1191207253
  0
LINE
  5
37A
100
AcDbEntity
  8
268200010
100
AcDbLine
 62
250
  6
CONTINUOUS
 10
-3.6759997675
 20
-27.7268202362
 11
-3.6759997675
 21
-27.3868463021
  0
LINE
  5
37B
100
AcDbEntity
  8
268200010
100
AcDbLine
 62
250
  6
CONTINUOUS
 10
-3.6759997675
 20
13.9127578373
 11
-3.6759997675
 21
14.2527317715
  0
LINE
  5
37C
100
AcDbEntity
  8
268200010
100
AcDbLine
 62
7
  6
CONTINUOUS
 10
-3.6172152268
 20
10.6124077649
 11
-3.6172152268
 21
9.7128513763
  0
LINE
  5
37D
100
AcDbEntity
  8
268200010
100
AcDbLine
 62
7
  6
CONTINUOUS
 10
-3.6172152268
 20
-22.2578454028
 11
-3.6172152268
 21
-23.0825637199
  0
LINE
  5
37E
100
AcDbEntity
  8
268200010
100
AcDbLine
 62
250
  6
CONTINUOUS
 10
-3.317301119
 20
-26.4098371011
 11
-3.317301119
 21
-25.7159243738
  0
LINE
  5
37F
100
AcDbEntity
  8
268200010
100
AcDbLine
 62
250
  6
CONTINUOUS
 10
-3.317301119
 20
12.9458543111
 11
-3.317301119
 21
13.6266040567
  0
LINE
  5
380
100
AcDbEntity
  8
290200030
100
AcDbLine
 62
7
  6
CONTINUOUS
 10
-3.1353791484
 20
-7.5511306195
 11
-3.1353791484
 21
-21.869782412
  0
LINE
  5
381
100
AcDbEntity
  8
290200030
100
AcDbLine
 62
7
  6
CONTINUOUS
 10
-3.1353791484
 20
-6.8150749762
 11
-3.1353791484
 21
7.5035768162
  0
LINE
  5
382
100
AcDbEntity
  8
268200010
100
AcDbLine
 62
7
  6
CONTINUOUS
 10
-3.1143967373
 20
2.3207259968
 11
-3.1143967373
 21
2.1475209161
  0
LINE
  5
383
100
AcDbEntity
  8
268200010
100
AcDbLine
 62
7
  6
CONTINUOUS
 10
-3.1143967373
 20
-15.9957112932
 11
-3.1143967373
 21
-16.9050379672
  0
LINE
  5
384
100
AcDbEntity
  8
268200010
100
AcDbLine
 62
7
  6
CONTINUOUS
 10
-3.1143967373
 20
5.568321261
 11
-3.1143967373
 21
5.7156929683
  0
LINE
  5
385
100
AcDbEntity
  8
268200010
100
AcDbLine
 62
250
  6
CONTINUOUS
 10
-2.9647791594
 20
-26.5353498249
 11
-2.9647791594
 21
-25.8921853537
  0
LINE
  5
386
100
AcDbEntity
  8
268200010
100
AcDbLine
 62
250
  6
CONTINUOUS
 10
-2.9647791594
 20
12.9566221927
 11
-2.9647791594
 21
13.7642543145
  0
LINE
  5
387
100
AcDbEntity
  8
268200010
100
AcDbLine
 62
7
  6
CONTINUOUS
 10
-2.8977658508
 20
-4.1102954878
 11
-2.8977658508
 21
-7.6650962808
  0
LINE
  5
388
100
AcDbEntity
  8
268200010
100
AcDbLine
 62
7
  6
CONTINUOUS
 10
-2.5343383844
 20
21.5979660561
 11
-2.5343383844
 21
21.1363069366
  0
LINE
  5
389
100
AcDbEntity
  8
268200010
100
AcDbLine
 62
7
  6
CONTINUOUS
 10
-2.4474033891
 20
12.0776945525
 11
-2.4474033891
 21
9.1279454575
  0
LINE
  5
38A
100
AcDbEntity
  8
268200010
100
AcDbLine
 62
7
  6
CONTINUOUS
 10
-2.4474033891
 20
-22.7679132501
 11
-2.4474033891
 21
-25.7176623452
  0
LINE
  5
38B
100
AcDbEntity
  8
268200010
100
AcDbLine
 62
7
  6
CONTINUOUS
 10
-2.32220635
 20
-20.8077657776
 11
-2.32220635
 21
-17.3011331608
  0
LINE
  5
38C
100
AcDbEntity
  8
268200010
100
AcDbLine
 62
7
  6
CONTINUOUS
 10
-2.32220635
 20
-12.9710061419
 11
-2.32220635
 21
1.7514257224
  0
LINE
  5
38D
100
AcDbEntity
  8
268200010
100
AcDbLine
 62
7
  6
CONTINUOUS
 10
-2.32220635
 20
6.0815527414
 11
-2.32220635
 21
8.8563814758
  0
LWPOLYLINE
  5
38E
100
AcDbEntity
  8
268200010
100
AcDbPolyline
 62
250
  6
CONTINUOUS
 90
37
 70
0
 10
-4.1134565467
 20
-23.1172857724
 10
-4.1136514954
 20
-23.1308368176
 10
-4.1148020236
 20
-23.1442919181
 10
-4.1169081312
 20
-23.1576510739
 10
-4.1198858398
 20
-23.1710866559
 10
-4.1238191278
 20
-23.1844262932
 10
-4.1289599306
 20
-23.1971528733
 10
-4.1353436815
 20
-23.2093106469
 10
-4.1429349472
 20
-23.2208553632
 10
-4.1518793621
 20
-23.2311371574
 10
-4.1622513652
 20
-23.2401691869
 10
-4.1739765177
 20
-23.2479382942
 10
-4.1869771377
 20
-23.2537551413
 10
-4.2013913798
 20
-23.2575456396
 10
-4.2170810895
 20
-23.2593838778
 10
-4.233554121
 20
-23.2588027845
 10
-4.2509143987
 20
-23.2556079262
 10
-4.2690579983
 20
-23.2499937364
 10
-4.2871810017
 20
-23.2420764441
 10
-4.3052803942
 20
-23.231655962
 10
-4.3233591904
 20
-23.2189323774
 10
-4.3406225157
 20
-23.2046221807
 10
-4.3569590688
 20
-23.1886484821
 10
-4.3724801511
 20
-23.1710881713
 10
-4.3867247915
 20
-23.1528884078
 10
-4.3995607854
 20
-23.1341148001
 10
-4.4111203375
 20
-23.1147017397
 10
-4.4213390908
 20
-23.0953995598
 10
-4.430145517
 20
-23.0762948232
 10
-4.4376111445
 20
-23.057300967
 10
-4.4438862013
 20
-23.0389086365
 10
-4.4489368173
 20
-23.0211963693
 10
-4.4527968627
 20
-23.0040856276
 10
-4.4557181764
 20
-22.9878314429
 10
-4.457784705
 20
-22.9725188256
 10
-4.458912502
 20
-22.9580627654
 10
-4.4591015674
 20
-22.9444632621
  0
LWPOLYLINE
  5
38F
100
AcDbEntity
  8
268200010
100
AcDbPolyline
 62
250
  6
CONTINUOUS
 90
25
 70
0
 10
-4.0285217271
 20
-27.3863335782
 10
-4.0283534312
 20
-27.3768043319
 10
-4.027848864
 20
-27.3671249337
 10
-4.0270089862
 20
-27.3573138136
 10
-4.0258354004
 20
-27.3473896792
 10
-4.0243303395
 20
-27.3373714002
 10
-4.0224966531
 20
-27.327277971
 10
-4.0203378091
 20
-27.3171285393
 10
-4.0178579217
 20
-27.3069424983
 10
-4.0150617419
 20
-27.2967393696
 10
-4.0119546194
 20
-27.2865386477
 10
-4.0085424573
 20
-27.2763596894
 10
-4.0048317293
 20
-27.2662218043
 10
-4.0008294686
 20
-27.2561442237
 10
-3.9965433194
 20
-27.2461462107
 10
-3.9919815099
 20
-27.2362469482
 10
-3.9871527804
 20
-27.2264653686
 10
-3.9820662946
 20
-27.2168200024
 10
-3.9767316796
 20
-27.2073290943
 10
-3.9711584095
 20
-27.1980096071
 10
-3.9653577235
 20
-27.1888804384
 10
-3.9593427983
 20
-27.1799620398
 10
-3.9531260334
 20
-27.1712721535
 10
-3.9467187709
 20
-27.1628260123
 10
-3.9401333795
 20
-27.1546394044
  0
LWPOLYLINE
  5
390
100
AcDbEntity
  8
268200010
100
AcDbPolyline
 62
250
  6
CONTINUOUS
 90
34
 70
0
 10
-4.0285217271
 20
14.2532444953
 10
-4.0283229792
 20
14.2636075301
 10
-4.0277271824
 20
14.2741460107
 10
-4.0267356765
 20
14.2848362406
 10
-4.0253506908
 20
14.2956541819
 10
-4.0235753397
 20
14.3065755098
 10
-4.0214136151
 20
14.3175756667
 10
-4.0188703779
 20
14.328629918
 10
-4.0159513467
 20
14.3397134073
 10
-4.0126630851
 20
14.3508012127
 10
-4.0090129872
 20
14.3618684022
 10
-4.0050092603
 20
14.3728900906
 10
-4.0006609072
 20
14.3838414947
 10
-3.9959777055
 20
14.3946979894
 10
-3.9909701857
 20
14.4054351632
 10
-3.9856496076
 20
14.4160288726
 10
-3.9800279349
 20
14.4264552969
 10
-3.9741178085
 20
14.4366909915
 10
-3.9679325175
 20
14.4467129406
 10
-3.9614859703
 20
14.4564986092
 10
-3.9547926622
 20
14.4660259935
 10
-3.9478676437
 20
14.4752736703
 10
-3.9407264862
 20
14.4842208456
 10
-3.9333852472
 20
14.4928474009
 10
-3.9258604341
 20
14.501133939
 10
-3.9181689668
 20
14.5090618267
 10
-3.9103281402
 20
14.5166132376
 10
-3.9023555852
 20
14.523771192
 10
-3.8942692284
 20
14.5305195944
 10
-3.8860872528
 20
14.5368432707
 10
-3.8778280561
 20
14.5427280016
 10
-3.8695102098
 20
14.5481605548
 10
-3.8611524171
 20
14.5531287148
 10
-3.8527734711
 20
14.5576213103
  0
LWPOLYLINE
  5
391
100
AcDbEntity
  8
268200010
100
AcDbPolyline
 62
250
  6
CONTINUOUS
 90
20
 70
0
 10
-3.6759997675
 20
-27.7268202362
 10
-3.6762480973
 20
-27.7370466541
 10
-3.6768940777
 20
-27.747048477
 10
-3.6779362464
 20
-27.7568030412
 10
-3.6793722445
 20
-27.7662882486
 10
-3.6811988192
 20
-27.7754826003
 10
-3.6834118291
 20
-27.7843652468
 10
-3.686006258
 20
-27.7929160576
 10
-3.6889762277
 20
-27.8011156625
 10
-3.6923150071
 20
-27.8089454802
 10
-3.6960150307
 20
-27.8163877715
 10
-3.7000679136
 20
-27.8234256728
 10
-3.7044644682
 20
-27.8300432333
 10
-3.7091947302
 20
-27.8362254597
 10
-3.7142479809
 20
-27.8419583469
 10
-3.7196127673
 20
-27.8472289058
 10
-3.7252769349
 20
-27.852025199
 10
-3.7312276454
 20
-27.8563363588
 10
-3.7374514026
 20
-27.8601526131
 10
-3.7420972202
 20
-27.8625907063
  0
LWPOLYLINE
  5
392
100
AcDbEntity
  8
268200010
100
AcDbPolyline
 62
250
  6
CONTINUOUS
 90
13
 70
0
 10
-3.6929273592
 20
-23.11912054
 10
-3.6937099884
 20
-23.1487746083
 10
-3.6961994697
 20
-23.1788154223
 10
-3.7006056049
 20
-23.2089750234
 10
-3.7071432729
 20
-23.2389437728
 10
-3.716015428
 20
-23.2683782894
 10
-3.7274087293
 20
-23.2968998375
 10
-3.7415087087
 20
-23.3240880024
 10
-3.7584687517
 20
-23.3494764025
 10
-3.7783857387
 20
-23.3725772093
 10
-3.8013630794
 20
-23.3928972361
 10
-3.8274324474
 20
-23.4098849782
 10
-3.8384621838
 20
-23.4155118921
  0
LWPOLYLINE
  5
393
100
AcDbEntity
  8
268200010
100
AcDbPolyline
 62
7
  6
CONTINUOUS
 90
10
 70
0
 10
-3.6172152268
 20
-23.0825637199
 10
-3.6195235424
 20
-23.131715268
 10
-3.625821057
 20
-23.1772773419
 10
-3.6361077705
 20
-23.2192499418
 10
-3.6505786239
 20
-23.2580069688
 10
-3.6690386761
 20
-23.2931745217
 10
-3.6909031043
 20
-23.3236308971
 10
-3.7162942345
 20
-23.3492306338
 10
-3.7450897407
 20
-23.3701191931
 10
-3.7632503132
 20
-23.3799369886
  0
LWPOLYLINE
  5
394
100
AcDbEntity
  8
290200030
100
AcDbPolyline
 62
250
  6
CONTINUOUS
 90
10
 70
0
 10
-5.9918265227
 20
-27.2829296265
 10
-5.9956931887
 20
-27.3280689245
 10
-6.0033185308
 20
-27.3707462207
 10
-6.0146191014
 20
-27.4104944767
 10
-6.0294712327
 20
-27.4468787082
 10
-6.0477123908
 20
-27.4795007451
 10
-6.0691429538
 20
-27.5080035885
 10
-6.0935283968
 20
-27.5320753182
 10
-6.120601858
 20
-27.5514525055
 10
-6.1456337673
 20
-27.5641253245
  0
LWPOLYLINE
  5
395
100
AcDbEntity
  8
218140580
100
AcDbPolyline
 62
7
  6
CONTINUOUS
 90
24
 70
0
 10
19.662771706
 20
15.4224560904
 10
19.6686329428
 20
15.4259978888
 10
19.6742676519
 20
15.4296097909
 10
19.6796704896
 20
15.4332882324
 10
19.6848363336
 20
15.4370294499
 10
19.6897602973
 20
15.4408298411
 10
19.6944377334
 20
15.4446859683
 10
19.6988642254
 20
15.4485939259
 10
19.7030355938
 20
15.4525498285
 10
19.7069479089
 20
15.4565501703
 10
19.7105974912
 20
15.4605908609
 10
19.7139809114
 20
15.464667841
 10
19.717094995
 20
15.4687775707
 10
19.7199368313
 20
15.4729158097
 10
19.72250377
 20
15.4770783602
 10
19.7247934217
 20
15.4812616837
 10
19.7268036695
 20
15.4854614263
 10
19.7285326638
 20
15.4896732886
 10
19.7299788224
 20
15.4938937685
 10
19.731140839
 20
15.4981184368
 10
19.7320176798
 20
15.5023429297
 10
19.7326085829
 20
15.5065638176
 10
19.732913063
 20
15.5107766344
 10
19.7329583731
 20
15.5131400115
  0
LWPOLYLINE
  5
396
100
AcDbEntity
  8
218140580
100
AcDbPolyline
 62
7
  6
CONTINUOUS
 90
10
 70
0
 10
19.662771706
 20
15.4224560904
 10
19.6613426413
 20
15.4216653589
 10
19.6598856029
 20
15.4209719401
 10
19.6584002684
 20
15.4203760545
 10
19.6568904311
 20
15.419875051
 10
19.6553517291
 20
15.4194720032
 10
19.6537712914
 20
15.419175868
 10
19.652144261
 20
15.4189899572
 10
19.6504741482
 20
15.4189117791
 10
19.6487603132
 20
15.4189417457
  0
LINE
  5
397
100
AcDbEntity
  8
268200010
100
AcDbLine
 62
7
  6
CONTINUOUS
 10
-3.1353791484
 20
2.1362004239
 11
-3.1143967373
 21
2.1475209161
  0
LINE
  5
398
100
AcDbEntity
  8
268200010
100
AcDbLine
 62
7
  6
CONTINUOUS
 10
-2.32220635
 20
1.7514257224
 11
-3.1353791484
 21
1.341704025
  0
LINE
  5
399
100
AcDbEntity
  8
284140580
100
AcDbLine
 62
7
  6
CONTINUOUS
 10
-3.1143967373
 20
2.2557106753
 11
-3.1353791484
 21
2.2451855704
  0
LINE
  5
39A
100
AcDbEntity
  8
290200030
100
AcDbLine
 62
250
  6
CONTINUOUS
 10
-22.663417971
 20
6.6931537846
 11
-7.7357336864
 21
-0.7706883577
  0
LWPOLYLINE
  5
39B
100
AcDbEntity
  8
268200010
100
AcDbPolyline
 62
250
  6
CONTINUOUS
 90
7
 70
0
 10
-4.546969533
 20
10.8565742363
 10
-4.5441103331
 20
10.835914221
 10
-4.5362905978
 20
10.816909008
 10
-4.5236297528
 20
10.7985675075
 10
-4.5063396536
 20
10.781196621
 10
-4.4847096143
 20
10.7650870078
 10
-4.4591015674
 20
10.7505082228
  0
LWPOLYLINE
  5
39C
100
AcDbEntity
  8
268200010
100
AcDbPolyline
 62
250
  6
CONTINUOUS
 90
5
 70
0
 10
-1.5271472234
 20
-26.1891453263
 10
-1.5284144906
 20
-26.1776765648
 10
-1.5301237751
 20
-26.1663493074
 10
-1.5322712187
 20
-26.1551891198
 10
-1.5348519744
 20
-26.1442211913
  0
LWPOLYLINE
  5
39D
100
AcDbEntity
  8
268200010
100
AcDbPolyline
 62
7
  6
CONTINUOUS
 90
43
 70
0
 10
-1.3673036541
 20
12.6665974066
 10
-1.3675485449
 20
12.6828271387
 10
-1.3682840349
 20
12.6993091816
 10
-1.3695118821
 20
12.7160217254
 10
-1.3712348094
 20
12.7329560407
 10
-1.3734522975
 20
12.7500759153
 10
-1.3761566132
 20
12.7673165546
 10
-1.3793410886
 20
12.7846433843
 10
-1.3830019234
 20
12.802041905
 10
-1.387130171
 20
12.8194761997
 10
-1.3917120889
 20
12.8368991682
 10
-1.3967446035
 20
12.8543090027
 10
-1.4022373502
 20
12.8717377496
 10
-1.4081951286
 20
12.8891884819
 10
-1.4146038941
 20
12.9066087801
 10
-1.4214463655
 20
12.9239474203
 10
-1.4287149483
 20
12.9411834268
 10
-1.4363986278
 20
12.958288731
 10
-1.4444694042
 20
12.9752029633
 10
-1.452902637
 20
12.9918817615
 10
-1.4616947346
 20
13.0083248429
 10
-1.4708479411
 20
13.0245385317
 10
-1.4803496218
 20
13.0405004251
 10
-1.4901864102
 20
13.0561881208
 10
-1.5003623766
 20
13.071605833
 10
-1.5108787521
 20
13.0867499054
 10
-1.521709254
 20
13.1015770333
 10
-1.5328155873
 20
13.1160331568
 10
-1.5441788364
 20
13.1300951849
 10
-1.5557852262
 20
13.1437473856
 10
-1.5676006593
 20
13.1569518137
 10
-1.5795878304
 20
13.1696725763
 10
-1.5917473748
 20
13.1819160263
 10
-1.604102767
 20
13.1937060502
 10
-1.6166545628
 20
13.2050393853
 10
-1.6293690872
 20
13.2158818918
 10
-1.642219495
 20
13.2262085379
 10
-1.6551950236
 20
13.2360092591
 10
-1.6682704454
 20
13.2452634985
 10
-1.6813959314
 20
13.2539367876
 10
-1.6945420417
 20
13.2620138067
 10
-1.7077004512
 20
13.2694938679
 10
-1.7208525573
 20
13.2763699043
  0
LINE
  5
39E
100
AcDbEntity
  8
268200010
100
AcDbLine
 62
7
  6
CONTINUOUS
 10
-1.3673036541
 20
12.6665974066
 11
-1.3322568564
 21
8.9744466179
  0
LINE
  5
39F
100
AcDbEntity
  8
268200010
100
AcDbLine
 62
7
  6
CONTINUOUS
 10
-2.0747189766
 20
-25.7778582309
 11
-2.0747189766
 21
-26.9467856365
  0
LINE
  5
3A0
100
AcDbEntity
  8
268200010
100
AcDbLine
 62
7
  6
CONTINUOUS
 10
-2.0747189766
 20
13.453303114
 11
-2.0747189766
 21
15.055453775
  0
LINE
  5
3A1
100
AcDbEntity
  8
268200010
100
AcDbLine
 62
250
  6
CONTINUOUS
 10
-1.5464518049
 20
15.318892595
 11
-1.5464518049
 21
14.9713610782
  0
LINE
  5
3A2
100
AcDbEntity
  8
268200010
100
AcDbLine
 62
250
  6
CONTINUOUS
 10
-1.5464518049
 20
-26.3282430611
 11
-1.5464518049
 21
-26.6757745779
  0
LINE
  5
3A3
100
AcDbEntity
  8
268200010
100
AcDbLine
 62
7
  6
CONTINUOUS
 10
-1.4742539479
 20
15.4067652272
 11
-1.4742539479
 21
15.0592337104
  0
LINE
  5
3A4
100
AcDbEntity
  8
268200010
100
AcDbLine
 62
7
  6
CONTINUOUS
 10
-1.4742539479
 20
-26.240370429
 11
-1.4742539479
 21
-26.5879019457
  0
LINE
  5
3A5
100
AcDbEntity
  8
268200010
100
AcDbLine
 62
7
  6
CONTINUOUS
 10
-1.1570228679
 20
9.0055936171
 11
-1.1570228679
 21
-21.3903575186
  0
LINE
  5
3A6
100
AcDbEntity
  8
268200010
100
AcDbLine
 62
250
  6
CONTINUOUS
 10
-0.7979169632
 20
18.1152327104
 11
-0.7979169632
 21
18.5896340858
  0
LINE
  5
3A7
100
AcDbEntity
  8
268200010
100
AcDbLine
 62
250
  6
CONTINUOUS
 10
-0.7979169632
 20
18.9458099523
 11
-0.7979169632
 21
19.4989806754
  0
LINE
  5
3A8
100
AcDbEntity
  8
268200010
100
AcDbLine
 62
7
  6
CONTINUOUS
 10
-0.6670821121
 20
18.2728721661
 11
-0.6670821121
 21
19.5211362888
  0
LINE
  5
3A9
100
AcDbEntity
  8
268200010
100
AcDbLine
 62
7
  6
CONTINUOUS
 10
-0.6663677003
 20
13.0181978225
 11
-0.6663677003
 21
10.1019472668
  0
LINE
  5
3AA
100
AcDbEntity
  8
268200010
100
AcDbLine
 62
7
  6
CONTINUOUS
 10
-0.6663677003
 20
-21.9874168424
 11
-0.6663677003
 21
-24.903667398
  0
LINE
  5
3AB
100
AcDbEntity
  8
268200010
100
AcDbLine
 62
250
  6
CONTINUOUS
 10
-1.4742539479
 20
-26.5879019457
 11
-1.4742540929
 21
-26.5880365694
  0
LINE
  5
3AC
100
AcDbEntity
  8
268200010
100
AcDbLine
 62
7
  6
CONTINUOUS
 10
-1.3322568564
 20
-21.5375299216
 11
-1.3673036541
 21
-25.2653445907
  0
LWPOLYLINE
  5
3AD
100
AcDbEntity
  8
268200010
100
AcDbPolyline
 62
250
  6
CONTINUOUS
 90
20
 70
0
 10
-1.5464518049
 20
-26.6757745779
 10
-1.5466045868
 20
-26.6859532218
 10
-1.5471598961
 20
-26.6959097091
 10
-1.5481164762
 20
-26.705621479
 10
-1.549472162
 20
-26.7150665304
 10
-1.5512238828
 20
-26.7242234551
 10
-1.553367667
 20
-26.7330714887
 10
-1.5558986551
 20
-26.7415905792
 10
-1.5588111127
 20
-26.749761428
 10
-1.5620984391
 20
-26.7575655192
 10
-1.5657531853
 20
-26.7649851718
 10
-1.5697670689
 20
-26.7720035734
 10
-1.5741309908
 20
-26.7786048176
 10
-1.5788350607
 20
-26.7847739479
 10
-1.583868619
 20
-26.7904969889
 10
-1.5892202573
 20
-26.7957609738
 10
-1.5948778509
 20
-26.80055398
 10
-1.6008285766
 20
-26.8048651474
 10
-1.6070589378
 20
-26.8086847036
 10
-1.6101398424
 20
-26.8103383882
  0
LWPOLYLINE
  5
3AE
100
AcDbEntity
  8
268200010
100
AcDbPolyline
 62
7
  6
CONTINUOUS
 90
20
 70
0
 10
-2.0747189766
 20
-26.9467856365
 10
-2.0749193555
 20
-26.9569872277
 10
-2.0755195245
 20
-26.9669653925
 10
-2.0765182281
 20
-26.9766975798
 10
-2.0779133864
 20
-26.986161836
 10
-2.0797018473
 20
-26.9953367239
 10
-2.0818793932
 20
-27.0042013712
 10
-2.0844411519
 20
-27.0127357266
 10
-2.0873814127
 20
-27.0209205024
 10
-2.090693387
 20
-27.0287370882
 10
-2.0943696109
 20
-27.0361677955
 10
-2.0984018299
 20
-27.0431958271
 10
-2.1027808217
 20
-27.0498052138
 10
-2.1074966828
 20
-27.0559809905
 10
-2.1125387825
 20
-27.0617091928
 10
-2.1178956529
 20
-27.0669768186
 10
-2.1235551523
 20
-27.0717719312
 10
-2.1295044902
 20
-27.0760836834
 10
-2.1357301868
 20
-27.0799023056
 10
-2.1388240783
 20
-27.0815634086
  0
LWPOLYLINE
  5
3AF
100
AcDbEntity
  8
268200010
100
AcDbPolyline
 62
250
  6
CONTINUOUS
 90
18
 70
0
 10
-1.4742539479
 20
15.4067652272
 10
-1.4743075094
 20
15.404177859
 10
-1.4748339368
 20
15.3982555549
 10
-1.4759213491
 20
15.3923523822
 10
-1.4775673038
 20
15.3864816154
 10
-1.4797681011
 20
15.3806564609
 10
-1.4825187939
 20
15.37489002
 10
-1.4858131977
 20
15.3691952635
 10
-1.4896439022
 20
15.3635850047
 10
-1.4940022918
 20
15.3580718629
 10
-1.4988785655
 20
15.3526682379
 10
-1.5042617549
 20
15.3473862851
 10
-1.5101397561
 20
15.3422378824
 10
-1.5164993462
 20
15.3372346125
 10
-1.5233262091
 20
15.3323877377
 10
-1.5306049831
 20
15.3277081616
 10
-1.5383192993
 20
15.3232064059
 10
-1.5464518049
 20
15.318892595
  0
LWPOLYLINE
  5
3B0
100
AcDbEntity
  8
268200010
100
AcDbPolyline
 62
250
  6
CONTINUOUS
 90
18
 70
0
 10
-1.4742539488
 20
15.0592230075
 10
-1.4743083708
 20
15.056625623
 10
-1.4748367238
 20
15.050703641
 10
-1.4759259958
 20
15.044800864
 10
-1.4775737338
 20
15.0389305579
 10
-1.479776234
 20
15.0331059118
 10
-1.4825285657
 20
15.0273399822
 10
-1.4858245246
 20
15.0216457798
 10
-1.4896566161
 20
15.0160362223
 10
-1.4940161281
 20
15.0105239929
 10
-1.4988932738
 20
15.0051214046
 10
-1.5042771691
 20
14.9998404937
 10
-1.5101562041
 20
14.9946927232
 10
-1.5165167409
 20
14.9896901039
 10
-1.5233429006
 20
14.9848449494
 10
-1.5306184731
 20
14.9801683847
 10
-1.5383273067
 20
14.9756704349
 10
-1.5464518049
 20
14.9713610782
  0
LWPOLYLINE
  5
3B1
100
AcDbEntity
  8
268200010
100
AcDbPolyline
 62
250
  6
CONTINUOUS
 90
18
 70
0
 10
-1.4742540929
 20
-26.5880365694
 10
-1.4743075094
 20
-26.5904893138
 10
-1.4748339368
 20
-26.596411618
 10
-1.4759213491
 20
-26.6023147907
 10
-1.4775673038
 20
-26.6081855575
 10
-1.4797681011
 20
-26.614010712
 10
-1.4825187939
 20
-26.6197771529
 10
-1.4858131977
 20
-26.6254719093
 10
-1.4896439022
 20
-26.6310821682
 10
-1.4940022918
 20
-26.6365953099
 10
-1.4988785655
 20
-26.641998935
 10
-1.5042617549
 20
-26.6472808877
 10
-1.5101397561
 20
-26.6524292904
 10
-1.5164993462
 20
-26.6574325603
 10
-1.5233262091
 20
-26.6622794352
 10
-1.5306049831
 20
-26.6669590112
 10
-1.5383192993
 20
-26.671460767
 10
-1.5464518049
 20
-26.6757745779
  0
LWPOLYLINE
  5
3B2
100
AcDbEntity
  8
268200010
100
AcDbPolyline
 62
250
  6
CONTINUOUS
 90
18
 70
0
 10
-1.4742542296
 20
-26.2405580968
 10
-1.4743079623
 20
-26.2429687116
 10
-1.4748353376
 20
-26.2488903593
 10
-1.4759235729
 20
-26.2547928495
 10
-1.4775702212
 20
-26.260662909
 10
-1.4797715799
 20
-26.266487338
 10
-1.4825226988
 20
-26.2722530386
 10
-1.4858173918
 20
-26.2779470464
 10
-1.4896482523
 20
-26.2835565598
 10
-1.4940066709
 20
-26.2890689697
 10
-1.4988828447
 20
-26.294471875
 10
-1.5042657962
 20
-26.299753114
 10
-1.5101434096
 20
-26.3049008044
 10
-1.5165024727
 20
-26.309903379
 10
-1.5233286963
 20
-26.3147495982
 10
-1.5306067353
 20
-26.3194285674
 10
-1.5383202198
 20
-26.3239297623
 10
-1.5464518049
 20
-26.3282430611
  0
LWPOLYLINE
  5
3B3
100
AcDbEntity
  8
218140580
100
AcDbPolyline
 62
7
  6
CONTINUOUS
 90
43
 70
0
 10
17.7813847247
 20
13.0496451135
 10
17.7906537944
 20
13.0565626311
 10
17.7997467797
 20
13.0631238466
 10
17.8086639947
 20
13.0693269838
 10
17.8173859894
 20
13.0751561959
 10
17.8259336287
 20
13.0806235784
 10
17.8343650673
 20
13.0857704636
 10
17.8426815817
 20
13.0906062847
 10
17.8508773562
 20
13.0951205087
 10
17.8589948875
 20
13.0993265656
 10
17.8670236837
 20
13.103230157
 10
17.8749652503
 20
13.1068259901
 10
17.88287427
 20
13.1101130888
 10
17.8907457847
 20
13.1131030955
 10
17.8985678081
 20
13.1157870473
 10
17.9063777244
 20
13.1181352035
 10
17.9141594819
 20
13.1201570785
 10
17.9219047238
 20
13.1218472472
 10
17.9296546001
 20
13.1231556815
 10
17.9373964346
 20
13.1240930315
 10
17.9451066238
 20
13.1246546708
 10
17.9528014576
 20
13.1247695934
 10
17.9604601174
 20
13.1244431852
 10
17.9680559702
 20
13.1236767311
 10
17.9755889908
 20
13.1223943269
 10
17.9830342794
 20
13.1205950109
 10
17.9903571199
 20
13.1182861479
 10
17.9975365764
 20
13.1154048236
 10
18.0045373287
 20
13.1119467709
 10
18.0113253402
 20
13.1079206738
 10
18.0178758122
 20
13.1032830231
 10
18.0241414779
 20
13.0980349645
 10
18.0300887426
 20
13.0921768801
 10
18.0357012573
 20
13.0856645096
 10
18.0409195827
 20
13.0785047726
 10
18.0456982668
 20
13.0706891649
 10
18.0500155258
 20
13.0621513181
 10
18.0538051228
 20
13.0528541217
 10
18.0569774098
 20
13.042828383
 10
18.0594535553
 20
13.0321086277
 10
18.0611521494
 20
13.0206324639
 10
18.0619782452
 20
13.0084435055
 10
18.0620449243
 20
13.0038044149
  0
LWPOLYLINE
  5
3B4
100
AcDbEntity
  8
218140580
100
AcDbPolyline
 62
7
  6
CONTINUOUS
 90
9
 70
0
 10
19.6613426413
 20
14.6518631134
 10
19.6598856029
 20
14.65085876
 10
19.6584002684
 20
14.6497499309
 10
19.6568904311
 20
14.6485443413
 10
19.6553517291
 20
14.6472346985
 10
19.6537712914
 20
14.6457988607
 10
19.652144261
 20
14.6442297736
 10
19.6504741482
 20
14.6425353119
 10
19.6487603132
 20
14.6407158872
  0
LWPOLYLINE
  5
3B5
100
AcDbEntity
  8
218140580
100
AcDbPolyline
 62
7
  6
CONTINUOUS
 90
34
 70
0
 10
19.02659209
 20
13.4914711459
 10
19.0594052028
 20
13.5134038459
 10
19.0916826334
 20
13.5364152069
 10
19.1234035677
 20
13.5605004356
 10
19.1545422659
 20
13.5856496809
 10
19.1850841013
 20
13.611860849
 10
19.2150247431
 20
13.6391416151
 10
19.2443452761
 20
13.6674876075
 10
19.2730247764
 20
13.696891642
 10
19.3010551831
 20
13.7273596446
 10
19.3284196432
 20
13.7588891074
 10
19.3550962423
 20
13.7914709625
 10
19.3810693922
 20
13.8251028332
 10
19.4063236892
 20
13.8597826329
 10
19.4308379574
 20
13.8954997261
 10
19.4545893628
 20
13.9322388432
 10
19.4775637106
 20
13.969996334
 10
19.4997422678
 20
14.0087605082
 10
19.5210982758
 20
14.0485023139
 10
19.5416192038
 20
14.0892153829
 10
19.561289584
 20
14.1308869377
 10
19.5800823671
 20
14.1734752728
 10
19.597987063
 20
14.2169702176
 10
19.6149920449
 20
14.2613581907
 10
19.6310734634
 20
14.3065885131
 10
19.6462232576
 20
14.3526468566
 10
19.6604336459
 20
14.3995189607
 10
19.6736863169
 20
14.4471501445
 10
19.6859758962
 20
14.4955224233
 10
19.6972979846
 20
14.5446206686
 10
19.7076405466
 20
14.5943906055
 10
19.7169990549
 20
14.6448010334
 10
19.7253741058
 20
14.6958458209
 10
19.7321598475
 20
14.7429865301
  0
LINE
  5
3B6
100
AcDbEntity
  8
218140580
100
AcDbLine
 62
7
  6
CONTINUOUS
 10
19.0265920901
 20
13.4914711459
 11
18.0620449244
 21
12.8676101827
  0
LWPOLYLINE
  5
3B7
100
AcDbEntity
  8
218140580
100
AcDbPolyline
 62
7
  6
CONTINUOUS
 90
21
 70
0
 10
19.6613426413
 20
14.6518631134
 10
19.6686329428
 20
14.656429948
 10
19.6742676519
 20
14.6602044152
 10
19.6796704896
 20
14.6640826079
 10
19.6848363336
 20
14.6680609954
 10
19.6897602973
 20
14.6721357426
 10
19.6944377334
 20
14.6763027142
 10
19.6988642254
 20
14.6805580946
 10
19.7030355938
 20
14.6848979082
 10
19.7069479089
 20
14.6893176819
 10
19.7105974912
 20
14.6938134138
 10
19.7139809114
 20
14.698380956
 10
19.717094995
 20
14.7030155347
 10
19.7199368313
 20
14.7077129967
 10
19.72250377
 20
14.7124690572
 10
19.7247934217
 20
14.7172786823
 10
19.7268036695
 20
14.7221376034
 10
19.7285326638
 20
14.727041436
 10
19.7299788224
 20
14.7319849283
 10
19.731140839
 20
14.7369637332
 10
19.7320176798
 20
14.7419734049
  0
LWPOLYLINE
  5
3B8
100
AcDbEntity
  8
290200030
100
AcDbPolyline
 62
250
  6
CONTINUOUS
 90
16
 70
0
 10
-7.0349149323
 20
-0.782005739
 10
-7.0739485114
 20
-0.7981404576
 10
-7.1162852777
 20
-0.8121754885
 10
-7.1614716202
 20
-0.8239604555
 10
-7.2090233966
 20
-0.8333690903
 10
-7.2584311205
 20
-0.8403005855
 10
-7.3091654202
 20
-0.8446806746
 10
-7.3606827107
 20
-0.8464624278
 10
-7.4124310177
 20
-0.8456267548
 10
-7.4638558916
 20
-0.8421826093
 10
-7.5144063484
 20
-0.836166893
 10
-7.5635407727
 20
-0.8276440604
 10
-7.6107327212
 20
-0.8167054283
 10
-7.6554765627
 20
-0.8034681968
 10
-7.697292896
 20
-0.7880741943
 10
-7.7357336863
 20
-0.7706883577
  0
LWPOLYLINE
  5
3B9
100
AcDbEntity
  8
218140580
100
AcDbPolyline
 62
7
  6
CONTINUOUS
 90
40
 70
0
 10
17.7813847247
 20
3.1251379181
 10
17.8640294547
 20
3.1477630481
 10
17.9442802668
 20
3.1694301121
 10
18.0221371611
 20
3.19013911
 10
18.0975316705
 20
3.2098619347
 10
18.170532262
 20
3.2286266933
 10
18.2413443363
 20
3.2465177072
 10
18.3099761944
 20
3.263538194
 10
18.3764195353
 20
3.279684936
 10
18.4408548559
 20
3.2950326019
 10
18.5032875546
 20
3.3095835364
 10
18.563712233
 20
3.3233353948
 10
18.6222931935
 20
3.3363558119
 10
18.6790350315
 20
3.3486468772
 10
18.7339331515
 20
3.3602065012
 10
18.7871380696
 20
3.3710960499
 10
18.8386538664
 20
3.3813174601
 10
18.8884764614
 20
3.3908687951
 10
18.9367441288
 20
3.3998056111
 10
18.9834615061
 20
3.4081298753
 10
19.0286239559
 20
3.4158396206
 10
19.0723558399
 20
3.422984502
 10
19.1146601376
 20
3.4295661592
 10
19.1555338695
 20
3.4355829525
 10
19.195092458
 20
3.4410796173
 10
19.2333393792
 20
3.4460578725
 10
19.270271157
 20
3.4505159992
 10
19.3059927853
 20
3.4544935762
 10
19.3405067042
 20
3.4579922449
 10
19.3738104735
 20
3.4610103638
 10
19.406001767
 20
3.4635825872
 10
19.4370864971
 20
3.4657106935
 10
19.4670587513
 20
3.4673929042
 10
19.4959984655
 20
3.4686585375
 10
19.5239083207
 20
3.4695089093
 10
19.5507856359
 20
3.4699427037
 10
19.5767023035
 20
3.4699852903
 10
19.6016822876
 20
3.4696451258
 10
19.6257016242
 20
3.4689137535
 10
19.6487603132
 20
3.4677911734
  0
LWPOLYLINE
  5
3BA
100
AcDbEntity
  8
268200010
100
AcDbPolyline
 62
250
  6
CONTINUOUS
 90
16
 70
0
 10
-13.8501097975
 20
21.1231900746
 10
-13.8461370838
 20
21.1164951994
 10
-13.8425746251
 20
21.1100137575
 10
-13.8394304619
 20
21.1037603772
 10
-13.8367116902
 20
21.0977491718
 10
-13.8344244462
 20
21.0919937084
 10
-13.832573892
 20
21.0865069767
 10
-13.8311642043
 20
21.0813013599
 10
-13.8301985645
 20
21.0763886069
 10
-13.8296791522
 20
21.0717798053
 10
-13.8296071396
 20
21.067485357
 10
-13.8299826892
 20
21.0635149542
 10
-13.8308049535
 20
21.0598775581
 10
-13.8320720765
 20
21.0565813779
 10
-13.8337811986
 20
21.0536338529
 10
-13.8347492251
 20
21.052354908
  0
LWPOLYLINE
  5
3BB
100
AcDbEntity
  8
268200010
100
AcDbPolyline
 62
7
  6
CONTINUOUS
 90
5
 70
0
 10
-0.6670821121
 20
19.5211344128
 10
-0.6672825331
 20
19.5232143235
 10
-0.6681898741
 20
19.5256425701
 10
-0.6697978851
 20
19.5276046515
 10
-0.6720970022
 20
19.5291427928
  0
LINE
  5
3BC
100
AcDbEntity
  8
268200010
100
AcDbLine
 62
7
  6
CONTINUOUS
 10
0.3850362304
 20
10.6322097272
 11
0.3850362304
 21
-21.4477628899
  0
LINE
  5
3BD
100
AcDbEntity
  8
218140580
100
AcDbLine
 62
7
  6
CONTINUOUS
 10
0.4001547575
 20
9.8888044593
 11
0.4001547575
 21
-20.7194761491
  0
LINE
  5
3BE
100
AcDbEntity
  8
268200010
100
AcDbLine
 62
7
  6
CONTINUOUS
 10
-3.1353791484
 20
-4.2200331828
 11
-2.8977658508
 21
-4.1102954878
  0
LINE
  5
3BF
100
AcDbEntity
  8
268200010
100
AcDbLine
 62
7
  6
CONTINUOUS
 10
-3.1143967373
 20
2.1475209161
 11
-2.32220635
 21
1.7514257224
  0
LINE
  5
3C0
100
AcDbEntity
  8
268200010
100
AcDbLine
 62
7
  6
CONTINUOUS
 10
-3.1143967373
 20
2.3207259968
 11
-3.1353791484
 21
2.3312172024
  0
LINE
  5
3C1
100
AcDbEntity
  8
268200010
100
AcDbLine
 62
250
  6
CONTINUOUS
 10
4.9373536243
 20
17.6374758378
 11
4.9373536243
 21
17.2115444369
  0
LINE
  5
3C2
100
AcDbEntity
  8
268200010
100
AcDbLine
 62
250
  6
CONTINUOUS
 10
4.9373536243
 20
-19.3847711705
 11
4.9373536243
 21
-19.5579768369
  0
LINE
  5
3C3
100
AcDbEntity
  8
268200010
100
AcDbLine
 62
7
  6
CONTINUOUS
 10
5.0776837241
 20
17.9342153872
 11
5.0776837241
 21
17.3878151262
  0
LINE
  5
3C4
100
AcDbEntity
  8
268200010
100
AcDbLine
 62
7
  6
CONTINUOUS
 10
5.0776837241
 20
-19.3110543698
 11
5.0776837241
 21
-19.5073872011
  0
LWPOLYLINE
  5
3C5
100
AcDbEntity
  8
218140580
100
AcDbPolyline
 62
7
  6
CONTINUOUS
 90
40
 70
0
 10
19.6487603132
 20
14.6407158872
 10
19.6257016637
 20
14.6157153782
 10
19.6016823691
 20
14.5901112985
 10
19.5767024294
 20
14.5639036481
 10
19.5507858101
 20
14.5371087874
 10
19.5239085457
 20
14.509710356
 10
19.4959987398
 20
14.4816592729
 10
19.4670590715
 20
14.4529569967
 10
19.4370868617
 20
14.4236020688
 10
19.4060021761
 20
14.3935410333
 10
19.3738109279
 20
14.3627782348
 10
19.340507204
 20
14.3313093288
 10
19.3059933302
 20
14.2990678251
 10
19.2702717477
 20
14.2660546098
 10
19.2333400153
 20
14.2322687968
 10
19.1950931362
 20
14.197641238
 10
19.1555345855
 20
14.1621738132
 10
19.1146608882
 20
14.1258646426
 10
19.0723566212
 20
14.0886389381
 10
19.0286247646
 20
14.0504981457
 10
18.9834623384
 20
14.0114408195
 10
18.9367449801
 20
13.9713878337
 10
18.8884773274
 20
13.9303420236
 10
18.8386547426
 20
13.8883005538
 10
18.7871389497
 20
13.8451757925
 10
18.7339340294
 20
13.8009700285
 10
18.6790359011
 20
13.7556809729
 10
18.6222940474
 20
13.7092141271
 10
18.5637130635
 20
13.6615721601
 10
18.5032883541
 20
13.6127524028
 10
18.4408556162
 20
13.5626523497
 10
18.376420248
 20
13.5112752462
 10
18.3099768513
 20
13.458617847
 10
18.2413449282
 20
13.4045679101
 10
18.1705327803
 20
13.3491308143
 10
18.0975321062
 20
13.292301181
 10
18.0221375037
 20
13.233950632
 10
17.9442805057
 20
13.1740363748
 10
17.8640295793
 20
13.1126012019
 10
17.7813847247
 20
13.0496451135
  0
LINE
  5
3C6
100
AcDbEntity
  8
290200030
100
AcDbLine
 62
250
  6
CONTINUOUS
 10
-3.3121289198
 20
-7.2462823579
 11
-7.2763923876
 21
-9.2436988485
  0
LINE
  5
3C7
100
AcDbEntity
  8
290200030
100
AcDbLine
 62
250
  6
CONTINUOUS
 10
-7.0996426163
 20
-8.6459032169
 11
-3.1353791484
 21
-6.8150749762
  0
LINE
  5
3C8
100
AcDbEntity
  8
290200030
100
AcDbLine
 62
7
  6
CONTINUOUS
 10
-7.1684875314
 20
-8.7829501338
 11
-3.2029562326
 21
-6.9515363668
  0
LINE
  5
3C9
100
AcDbEntity
  8
268200010
100
AcDbLine
 62
7
  6
CONTINUOUS
 10
-3.1353791484
 20
5.5788124666
 11
-3.1143967373
 21
5.568321261
  0
LWPOLYLINE
  5
3CA
100
AcDbEntity
  8
218140580
100
AcDbPolyline
 62
7
  6
CONTINUOUS
 90
35
 70
0
 10
7.6203603723
 20
19.8534752244
 10
7.6207235423
 20
19.8753376118
 10
7.6225074779
 20
19.9066109514
 10
7.6257797617
 20
19.9378461794
 10
7.6305384429
 20
19.969020513
 10
7.6367800753
 20
20.0001125899
 10
7.6445018457
 20
20.0311092638
 10
7.6537013947
 20
20.0620001021
 10
7.66437572
 20
20.0927709585
 10
7.6765190168
 20
20.1234015664
 10
7.6901237724
 20
20.1538723816
 10
7.7051818539
 20
20.1841643878
 10
7.7216862346
 20
20.2142627175
 10
7.7396296658
 20
20.2441541838
 10
7.7590036964
 20
20.2738229956
 10
7.7797978403
 20
20.3032515002
 10
7.8020008462
 20
20.3324238488
 10
7.8256010392
 20
20.3613234842
 10
7.8505861899
 20
20.3899342831
 10
7.8769429175
 20
20.4182412747
 10
7.9046568741
 20
20.4462280229
 10
7.9337138476
 20
20.4738791953
 10
7.9640996504
 20
20.5011816894
 10
7.9957992775
 20
20.5281207742
 10
8.0287951826
 20
20.5546803374
 10
8.0630682379
 20
20.5808454985
 10
8.0985989946
 20
20.6066005649
 10
8.1353695493
 20
20.6319317387
 10
8.1733620321
 20
20.6568272997
 10
8.2125565267
 20
20.6812731353
 10
8.252931947
 20
20.7052550569
 10
8.2944679311
 20
20.7287614815
 10
8.3371428109
 20
20.751779559
 10
8.3809335175
 20
20.7742952223
 10
8.425816724
 20
20.7962954064
  0
LWPOLYLINE
  5
3CB
100
AcDbEntity
  8
268200010
100
AcDbPolyline
 62
250
  6
CONTINUOUS
 90
13
 70
0
 10
-1.5464518049
 20
-26.3282430611
 10
-1.5424790201
 20
-26.3171274494
 10
-1.5389165061
 20
-26.3058385951
 10
-1.5357723035
 20
-26.2944019774
 10
-1.5330535103
 20
-26.2828434155
 10
-1.5307662609
 20
-26.2711889912
 10
-1.528915715
 20
-26.259464989
 10
-1.5275060501
 20
-26.247697855
 10
-1.5265404527
 20
-26.2359141629
 10
-1.526021105
 20
-26.2241405353
 10
-1.5259491784
 20
-26.2124035557
 10
-1.526324834
 20
-26.2007297049
 10
-1.5271472234
 20
-26.1891453263
  0
LWPOLYLINE
  5
3CC
100
AcDbEntity
  8
218140580
100
AcDbPolyline
 62
7
  6
CONTINUOUS
 90
24
 70
0
 10
19.662771706
 20
3.4713055182
 10
19.6686329428
 20
3.4748473165
 10
19.6742676519
 20
3.4784592187
 10
19.6796704896
 20
3.4821376602
 10
19.6848363336
 20
3.4858788777
 10
19.6897602973
 20
3.4896792689
 10
19.6944377334
 20
3.493535396
 10
19.6988642254
 20
3.4974433537
 10
19.7030355938
 20
3.5013992563
 10
19.7069479089
 20
3.5053995981
 10
19.7105974912
 20
3.5094402887
 10
19.7139809114
 20
3.5135172687
 10
19.717094995
 20
3.5176269985
 10
19.7199368313
 20
3.5217652374
 10
19.72250377
 20
3.525927788
 10
19.7247934217
 20
3.5301111114
 10
19.7268036695
 20
3.534310854
 10
19.7285326638
 20
3.5385227164
 10
19.7299788224
 20
3.5427431963
 10
19.731140839
 20
3.5469678645
 10
19.7320176798
 20
3.5511923575
 10
19.7326085829
 20
3.5554132454
 10
19.732913063
 20
3.5596260622
 10
19.7329583731
 20
3.5619894393
  0
LWPOLYLINE
  5
3CD
100
AcDbEntity
  8
218140580
100
AcDbPolyline
 62
7
  6
CONTINUOUS
 90
10
 70
0
 10
19.662771706
 20
3.4713055182
 10
19.6613426413
 20
3.4705147867
 10
19.6598856029
 20
3.4698213679
 10
19.6584002684
 20
3.4692254823
 10
19.6568904311
 20
3.4687244788
 10
19.6553517291
 20
3.468321431
 10
19.6537712914
 20
3.4680252958
 10
19.652144261
 20
3.4678393849
 10
19.6504741482
 20
3.4677612069
 10
19.6487603132
 20
3.4677911734
  0
LINE
  5
3CE
100
AcDbEntity
  8
290200030
100
AcDbLine
 62
250
  6
CONTINUOUS
 10
-3.1353791484
 20
-7.5511306195
 11
-7.0996426163
 21
-9.5485471102
  0
LINE
  5
3CF
100
AcDbEntity
  8
268200010
100
AcDbLine
 62
7
  6
CONTINUOUS
 10
-2.8977658508
 20
-7.6650962808
 11
-3.1353791484
 21
-7.78481908
  0
LWPOLYLINE
  5
3D0
100
AcDbEntity
  8
290200030
100
AcDbPolyline
 62
250
  6
CONTINUOUS
 90
19
 70
0
 10
-7.2763923876
 20
-9.2436988485
 10
-7.2926085957
 20
-9.2511967643
 10
-7.3097730834
 20
-9.2578965148
 10
-7.3278858508
 20
-9.2637981001
 10
-7.3471045678
 20
-9.26894008
 10
-7.3672715645
 20
-9.2732838946
 10
-7.3879138309
 20
-9.2767138649
 10
-7.4090360104
 20
-9.2792046798
 10
-7.4306334597
 20
-9.2807816503
 10
-7.4522192387
 20
-9.2814050316
 10
-7.4737967051
 20
-9.2810506489
 10
-7.4953625012
 20
-9.2797426768
 10
-7.5164196147
 20
-9.2775138949
 10
-7.5369599656
 20
-9.274337756
 10
-7.5569916338
 20
-9.2702408073
 10
-7.5760418468
 20
-9.2653354693
 10
-7.5939530136
 20
-9.2596592155
 10
-7.6108827253
 20
-9.2531745724
 10
-7.6268309818
 20
-9.2458815401
  0
LWPOLYLINE
  5
3D1
100
AcDbEntity
  8
290200030
100
AcDbPolyline
 62
250
  6
CONTINUOUS
 90
16
 70
0
 10
-7.0996602248
 20
-9.5485379934
 10
-7.1387256426
 20
-9.5659512118
 10
-7.1810893857
 20
-9.5812468978
 10
-7.2262848355
 20
-9.5942523032
 10
-7.2738253677
 20
-9.6048384753
 10
-7.3232219174
 20
-9.6128870029
 10
-7.3739510723
 20
-9.6183240537
 10
-7.4254598933
 20
-9.6210973201
 10
-7.4771967473
 20
-9.6211571252
 10
-7.5286123145
 20
-9.6185110413
 10
-7.5791551058
 20
-9.6131999676
 10
-7.6282736422
 20
-9.6052663333
 10
-7.6754517513
 20
-9.5947966122
 10
-7.7202022894
 20
-9.5819062607
 10
-7.7620401279
 20
-9.5667114221
 10
-7.8005046225
 20
-9.5493868543
  0
LINE
  5
3D2
100
AcDbEntity
  8
290200030
100
AcDbLine
 62
7
  6
CONTINUOUS
 10
-3.9698922458
 20
7.9208333649
 11
-3.1353791484
 21
7.5035768162
  0
LINE
  5
3D3
100
AcDbEntity
  8
268200010
100
AcDbLine
 62
7
  6
CONTINUOUS
 10
-4.1977934199
 20
8.0473193118
 11
-4.7901127131
 21
8.3434789584
  0
LINE
  5
3D4
100
AcDbEntity
  8
290200030
100
AcDbLine
 62
250
  6
CONTINUOUS
 10
-21.9775707936
 20
17.1731377893
 11
-7.0256559106
 21
9.6971803478
  0
LINE
  5
3D5
100
AcDbEntity
  8
268200010
100
AcDbLine
 62
7
  6
CONTINUOUS
 10
-4.4591015674
 20
8.4719007525
 11
-4.1134565467
 21
8.2990782421
  0
LINE
  5
3D6
100
AcDbEntity
  8
268200010
100
AcDbLine
 62
7
  6
CONTINUOUS
 10
-4.7901127131
 20
8.9262956497
 11
-4.546969533
 21
8.8047240596
  0
LINE
  5
3D7
100
AcDbEntity
  8
268200010
100
AcDbLine
 62
7
  6
CONTINUOUS
 10
-4.546969533
 20
8.8223272294
 11
-4.7901127131
 21
8.9438988194
  0
LINE
  5
3D8
100
AcDbEntity
  8
290200030
100
AcDbLine
 62
250
  6
CONTINUOUS
 10
-21.3211331886
 20
18.2430242743
 11
-6.3576592627
 21
10.7612873114
  0
LINE
  5
3D9
100
AcDbEntity
  8
268200010
100
AcDbLine
 62
7
  6
CONTINUOUS
 10
-4.546969533
 20
9.9132204605
 11
-4.7901127131
 21
10.0347920505
  0
LINE
  5
3DA
100
AcDbEntity
  8
268200010
100
AcDbLine
 62
7
  6
CONTINUOUS
 10
-3.4850004077
 20
9.441280363
 11
-2.3151885701
 21
8.8563744442
  0
LINE
  5
3DB
100
AcDbEntity
  8
268200010
100
AcDbLine
 62
250
  6
CONTINUOUS
 10
-3.6172152268
 20
9.7128513763
 11
-2.4474033891
 21
9.1279454575
  0
LWPOLYLINE
  5
3DC
100
AcDbEntity
  8
268200010
100
AcDbPolyline
 62
250
  6
CONTINUOUS
 90
16
 70
0
 10
-1.5464518049
 20
14.9713610782
 10
-1.5424790911
 20
14.9646662031
 10
-1.5389166325
 20
14.9581847612
 10
-1.5357724692
 20
14.9519313808
 10
-1.5330536975
 20
14.9459201755
 10
-1.5307664535
 20
14.9401647121
 10
-1.5289158994
 20
14.9346779804
 10
-1.5275062116
 20
14.9294723636
 10
-1.5265405719
 20
14.9245596105
 10
-1.5260211596
 20
14.9199508089
 10
-1.525949147
 20
14.9156563606
 10
-1.5263246966
 20
14.9116859579
 10
-1.5271469608
 20
14.9080485618
 10
-1.5284140839
 20
14.9047523816
 10
-1.530123206
 20
14.9018048566
 10
-1.5310912325
 20
14.9005259117
  0
LINE
  5
3DD
100
AcDbEntity
  8
268200010
100
AcDbLine
 62
7
  6
CONTINUOUS
 10
-1.6689688001
 20
14.1748443694
 11
-1.4874224584
 21
13.8617232476
  0
LINE
  5
3DE
100
AcDbEntity
  8
268200010
100
AcDbLine
 62
7
  6
CONTINUOUS
 10
-0.6663677003
 20
12.4456132644
 11
0.3850362304
 21
10.6322097272
  0
LINE
  5
3DF
100
AcDbEntity
  8
218140580
100
AcDbLine
 62
7
  6
CONTINUOUS
 10
-0.6663677003
 20
12.4456132644
 11
-0.0139957181
 21
11.320438034
  0
LINE
  5
3E0
100
AcDbEntity
  8
218140580
100
AcDbLine
 62
250
  6
CONTINUOUS
 10
8.425816724
 20
20.3677786306
 11
8.425816724
 21
20.7962954064
  0
LINE
  5
3E1
100
AcDbEntity
  8
218140580
100
AcDbLine
 62
7
  6
CONTINUOUS
 10
9.0975681661
 20
20.2693739984
 11
9.0975681661
 21
20.6964745469
  0
LINE
  5
3E2
100
AcDbEntity
  8
0
100
AcDbLine
 62
7
  6
CONTINUOUS
 10
10.0590955475
 20
19.4257908175
 11
10.0590955475
 21
18.9945512374
  0
LWPOLYLINE
  5
3E3
100
AcDbEntity
  8
218140580
100
AcDbPolyline
 62
7
  6
CONTINUOUS
 90
43
 70
0
 10
17.7813847247
 20
1.0984945413
 10
17.7906537944
 20
1.1054120589
 10
17.7997467797
 20
1.1119732743
 10
17.8086639947
 20
1.1181764115
 10
17.8173859894
 20
1.1240056237
 10
17.8259336287
 20
1.1294730062
 10
17.8343650673
 20
1.1346198914
 10
17.8426815817
 20
1.1394557125
 10
17.8508773562
 20
1.1439699365
 10
17.8589948875
 20
1.1481759934
 10
17.8670236837
 20
1.1520795848
 10
17.8749652503
 20
1.1556754179
 10
17.88287427
 20
1.1589625166
 10
17.8907457847
 20
1.1619525233
 10
17.8985678081
 20
1.1646364751
 10
17.9063777244
 20
1.1669846313
 10
17.9141594819
 20
1.1690065063
 10
17.9219047238
 20
1.170696675
 10
17.9296546001
 20
1.1720051093
 10
17.9373964346
 20
1.1729424593
 10
17.9451066238
 20
1.1735040986
 10
17.9528014576
 20
1.1736190211
 10
17.9604601174
 20
1.173292613
 10
17.9680559702
 20
1.1725261589
 10
17.9755889908
 20
1.1712437547
 10
17.9830342794
 20
1.1694444387
 10
17.9903571199
 20
1.1671355757
 10
17.9975365764
 20
1.1642542514
 10
18.0045373287
 20
1.1607961987
 10
18.0113253402
 20
1.1567701016
 10
18.0178758122
 20
1.1521324509
 10
18.0241414779
 20
1.1468843923
 10
18.0300887426
 20
1.1410263078
 10
18.0357012573
 20
1.1345139373
 10
18.0409195827
 20
1.1273542004
 10
18.0456982668
 20
1.1195385927
 10
18.0500155258
 20
1.1110007459
 10
18.0538051228
 20
1.1017035495
 10
18.0569774098
 20
1.0916778107
 10
18.0594535553
 20
1.0809580555
 10
18.0611521494
 20
1.0694818917
 10
18.0619782452
 20
1.0572929333
 10
18.0620449243
 20
1.0526538426
  0
LWPOLYLINE
  5
3E4
100
AcDbEntity
  8
218140580
100
AcDbPolyline
 62
7
  6
CONTINUOUS
 90
9
 70
0
 10
19.6613426413
 20
2.7007125412
 10
19.6598856029
 20
2.6997081878
 10
19.6584002684
 20
2.6985993587
 10
19.6568904311
 20
2.697393769
 10
19.6553517291
 20
2.6960841262
 10
19.6537712914
 20
2.6946482885
 10
19.652144261
 20
2.6930792014
 10
19.6504741482
 20
2.6913847397
 10
19.6487603132
 20
2.689565315
  0
LWPOLYLINE
  5
3E5
100
AcDbEntity
  8
218140580
100
AcDbPolyline
 62
7
  6
CONTINUOUS
 90
34
 70
0
 10
19.0265920901
 20
1.5403205737
 10
19.0594052168
 20
1.5622532834
 10
19.0916826468
 20
1.5852646445
 10
19.1234035804
 20
1.6093498733
 10
19.1545422779
 20
1.6344991187
 10
19.1850841127
 20
1.6607102869
 10
19.2150247539
 20
1.687991053
 10
19.2443452862
 20
1.7163370454
 10
19.273024786
 20
1.7457410798
 10
19.3010551921
 20
1.7762090824
 10
19.3284196516
 20
1.807738545
 10
19.3550962501
 20
1.8403204001
 10
19.3810693994
 20
1.8739522706
 10
19.4063236959
 20
1.9086320701
 10
19.4308379636
 20
1.9443491631
 10
19.4545893685
 20
1.98108828
 10
19.4775637157
 20
2.0188457706
 10
19.4997422725
 20
2.0576099444
 10
19.52109828
 20
2.0973517498
 10
19.5416192076
 20
2.1380648185
 10
19.5612895873
 20
2.1797363728
 10
19.58008237
 20
2.2223247075
 10
19.5979870656
 20
2.2658196518
 10
19.6149920471
 20
2.3102076245
 10
19.6310734653
 20
2.3554379464
 10
19.6462232592
 20
2.4014962894
 10
19.6604336472
 20
2.4483683929
 10
19.6736863179
 20
2.4959995761
 10
19.685975897
 20
2.5443718544
 10
19.6972979852
 20
2.593470099
 10
19.707640547
 20
2.6432400353
 10
19.7169990552
 20
2.6936504625
 10
19.7253741059
 20
2.7446952494
 10
19.7321598475
 20
2.7918359579
  0
LINE
  5
3E6
100
AcDbEntity
  8
218140580
100
AcDbLine
 62
7
  6
CONTINUOUS
 10
19.0265920901
 20
1.5403205737
 11
18.0620449244
 21
0.9164596105
  0
LWPOLYLINE
  5
3E7
100
AcDbEntity
  8
218140580
100
AcDbPolyline
 62
7
  6
CONTINUOUS
 90
21
 70
0
 10
19.6613426413
 20
2.7007125412
 10
19.6686329428
 20
2.7052793757
 10
19.6742676519
 20
2.709053843
 10
19.6796704896
 20
2.7129320357
 10
19.6848363336
 20
2.7169104231
 10
19.6897602973
 20
2.7209851703
 10
19.6944377334
 20
2.7251521419
 10
19.6988642254
 20
2.7294075223
 10
19.7030355938
 20
2.733747336
 10
19.7069479089
 20
2.7381671097
 10
19.7105974912
 20
2.7426628416
 10
19.7139809114
 20
2.7472303838
 10
19.717094995
 20
2.7518649625
 10
19.7199368313
 20
2.7565624245
 10
19.72250377
 20
2.761318485
 10
19.7247934217
 20
2.7661281101
 10
19.7268036695
 20
2.7709870311
 10
19.7285326638
 20
2.7758908638
 10
19.7299788224
 20
2.7808343561
 10
19.731140839
 20
2.785813161
 10
19.7320176798
 20
2.7908228327
  0
LWPOLYLINE
  5
3E8
100
AcDbEntity
  8
218140580
100
AcDbPolyline
 62
7
  6
CONTINUOUS
 90
40
 70
0
 10
17.7813847247
 20
15.0762884903
 10
17.8640294547
 20
15.0989136203
 10
17.9442802668
 20
15.1205806843
 10
18.0221371611
 20
15.1412896822
 10
18.0975316705
 20
15.1610125069
 10
18.170532262
 20
15.1797772655
 10
18.2413443363
 20
15.1976682794
 10
18.3099761944
 20
15.2146887662
 10
18.3764195353
 20
15.2308355082
 10
18.4408548559
 20
15.2461831742
 10
18.5032875546
 20
15.2607341087
 10
18.563712233
 20
15.274485967
 10
18.6222931935
 20
15.2875063841
 10
18.6790350315
 20
15.2997974494
 10
18.7339331515
 20
15.3113570734
 10
18.7871380696
 20
15.3222466221
 10
18.8386538664
 20
15.3324680323
 10
18.8884764614
 20
15.3420193673
 10
18.9367441288
 20
15.3509561833
 10
18.9834615061
 20
15.3592804475
 10
19.0286239559
 20
15.3669901928
 10
19.0723558399
 20
15.3741350742
 10
19.1146601376
 20
15.3807167314
 10
19.1555338695
 20
15.3867335247
 10
19.195092458
 20
15.3922301895
 10
19.2333393792
 20
15.3972084447
 10
19.270271157
 20
15.4016665715
 10
19.3059927853
 20
15.4056441484
 10
19.3405067042
 20
15.4091428171
 10
19.3738104735
 20
15.4121609361
 10
19.406001767
 20
15.4147331594
 10
19.4370864971
 20
15.4168612657
 10
19.4670587513
 20
15.4185434765
 10
19.4959984655
 20
15.4198091097
 10
19.5239083207
 20
15.4206594816
 10
19.5507856359
 20
15.4210932759
 10
19.5767023035
 20
15.4211358625
 10
19.6016822876
 20
15.420795698
 10
19.6257016242
 20
15.4200643257
 10
19.6487603132
 20
15.4189417457
  0
LINE
  5
3E9
100
AcDbEntity
  8
268200010
100
AcDbLine
 62
7
  6
CONTINUOUS
 10
-1.3322568564
 20
8.9744466179
 11
-1.1570228679
 21
9.0055936171
  0
LINE
  5
3EA
100
AcDbEntity
  8
290200030
100
AcDbLine
 62
7
  6
CONTINUOUS
 10
-3.1353791484
 20
7.5035768162
 11
-4.7901127131
 21
7.2383148593
  0
LINE
  5
3EB
100
AcDbEntity
  8
290200030
100
AcDbLine
 62
7
  6
CONTINUOUS
 10
-3.9698922458
 20
7.9208333649
 11
-4.7901127131
 21
7.789347976
  0
LINE
  5
3EC
100
AcDbEntity
  8
268200010
100
AcDbLine
 62
7
  6
CONTINUOUS
 10
-1.3322568564
 20
8.9744466179
 11
-2.1807823014
 21
8.8384238014
  0
LINE
  5
3ED
100
AcDbEntity
  8
290200030
100
AcDbLine
 62
7
  6
CONTINUOUS
 10
-20.1485337317
 20
18.9267571596
 11
-5.1433969791
 21
11.4241887833
  0
LINE
  5
3EE
100
AcDbEntity
  8
268200010
100
AcDbLine
 62
7
  6
CONTINUOUS
 10
-16.2353684925
 20
17.8501942274
 11
-4.3896574624
 21
11.9273387124
  0
LINE
  5
3EF
100
AcDbEntity
  8
268200010
100
AcDbLine
 62
7
  6
CONTINUOUS
 10
-2.8006876551
 20
12.6875475791
 11
-3.317301119
 21
12.9458543111
  0
LINE
  5
3F0
100
AcDbEntity
  8
268200010
100
AcDbLine
 62
7
  6
CONTINUOUS
 10
-5.0040668432
 20
13.7892371732
 11
-7.1720585415
 21
14.8732330223
  0
LINE
  5
3F1
100
AcDbEntity
  8
268200010
100
AcDbLine
 62
7
  6
CONTINUOUS
 10
-7.8376392433
 20
15.2060233732
 11
-12.7873867116
 21
17.6808971074
  0
LINE
  5
3F2
100
AcDbEntity
  8
268200010
100
AcDbLine
 62
7
  6
CONTINUOUS
 10
-13.4529674134
 20
18.0136874583
 11
-15.6209591117
 21
19.0976833074
  0
LINE
  5
3F3
100
AcDbEntity
  8
268200010
100
AcDbLine
 62
7
  6
CONTINUOUS
 10
-17.3077248359
 20
19.9410661695
 11
-17.8243382998
 21
20.1993729015
  0
LWPOLYLINE
  5
3F4
100
AcDbEntity
  8
268200010
100
AcDbPolyline
 62
250
  6
CONTINUOUS
 90
17
 70
0
 10
-18.0107177902
 20
20.9043685927
 10
-18.018897159
 20
20.9086569191
 10
-18.026661396
 20
20.913134573
 10
-18.0339929594
 20
20.9177915292
 10
-18.040875431
 20
20.9226174712
 10
-18.0472930609
 20
20.9276014751
 10
-18.0532309145
 20
20.9327319976
 10
-18.0586755128
 20
20.9379973718
 10
-18.0636147631
 20
20.9433858807
 10
-18.068037568
 20
20.9488854198
 10
-18.0719339847
 20
20.9544836325
 10
-18.0752952402
 20
20.9601679218
 10
-18.0781137654
 20
20.9659254897
 10
-18.0803832211
 20
20.9717433826
 10
-18.0820985085
 20
20.9776085242
 10
-18.0832557723
 20
20.9835077293
 10
-18.083791428
 20
20.9888226517
  0
LWPOLYLINE
  5
3F5
100
AcDbEntity
  8
268200010
100
AcDbPolyline
 62
250
  6
CONTINUOUS
 90
3
 70
0
 10
-5.6496964799
 20
14.621578943
 10
-5.6438957939
 20
14.6182504602
 10
-5.6420865011
 20
14.6173211463
  0
LWPOLYLINE
  5
3F6
100
AcDbEntity
  8
218140580
100
AcDbPolyline
 62
250
  6
CONTINUOUS
 90
33
 70
0
 10
11.8577011798
 20
-6.4039262992
 10
11.8577620958
 20
-6.4274760721
 10
11.8572769208
 20
-6.450744314
 10
11.8562460232
 20
-6.4737133621
 10
11.8546701854
 20
-6.4963657808
 10
11.8525506037
 20
-6.5186843748
 10
11.849888887
 20
-6.5406522024
 10
11.8466870559
 20
-6.5622525878
 10
11.8429475407
 20
-6.5834691345
 10
11.8386731802
 20
-6.604285737
 10
11.833867219
 20
-6.6246865939
 10
11.8285333052
 20
-6.6446562188
 10
11.8226754877
 20
-6.664179453
 10
11.8162982132
 20
-6.6832414767
 10
11.8094063227
 20
-6.7018278199
 10
11.8020050476
 20
-6.719924374
 10
11.7941000062
 20
-6.7375174021
 10
11.7856971993
 20
-6.7545935493
 10
11.7768030052
 20
-6.7711398533
 10
11.7674241755
 20
-6.7871437541
 10
11.7575678296
 20
-6.8025931031
 10
11.7472414493
 20
-6.8174761729
 10
11.7364528734
 20
-6.8317816658
 10
11.7252102912
 20
-6.8454987228
 10
11.7135222371
 20
-6.8586169312
 10
11.7013975832
 20
-6.8711263333
 10
11.6888455334
 20
-6.8830174331
 10
11.6758756157
 20
-6.8942812043
 10
11.6624976755
 20
-6.9049090966
 10
11.6487218679
 20
-6.9148930425
 10
11.63455865
 20
-6.9242254632
 10
11.620018773
 20
-6.9328992747
 10
11.6131851999
 20
-6.9366779849
  0
LINE
  5
3F7
100
AcDbEntity
  8
0
100
AcDbLine
 62
7
  6
CONTINUOUS
 10
10.5088402088
 20
19.3040429843
 11
10.5088402088
 21
18.9838560959
  0
LINE
  5
3F8
100
AcDbEntity
  8
218140580
100
AcDbLine
 62
7
  6
CONTINUOUS
 10
10.5471370676
 20
20.1559803674
 11
10.5471370676
 21
20.6377971457
  0
LINE
  5
3F9
100
AcDbEntity
  8
218140580
100
AcDbLine
 62
250
  6
CONTINUOUS
 10
10.8337428606
 20
-15.2232964162
 11
10.8337428606
 21
-8.2329364948
  0
LWPOLYLINE
  5
3FA
100
AcDbEntity
  8
218140580
100
AcDbPolyline
 62
7
  6
CONTINUOUS
 90
79
 70
0
 10
11.1144030603
 20
-14.875967231
 10
11.1144209231
 20
-7.8808747118
 10
11.114568388
 20
-7.8710779302
 10
11.1148757423
 20
-7.8608013311
 10
11.1153558915
 20
-7.8500485876
 10
11.1160211964
 20
-7.8388298944
 10
11.1168830554
 20
-7.8271622469
 10
11.1179527571
 20
-7.8150543473
 10
11.119241154
 20
-7.8025153466
 10
11.1207575923
 20
-7.7895646195
 10
11.1225114947
 20
-7.7762146325
 10
11.1245120312
 20
-7.7624758968
 10
11.1267668439
 20
-7.7483660287
 10
11.1292837754
 20
-7.7338984605
 10
11.1320702261
 20
-7.7190863959
 10
11.1351320921
 20
-7.7039478649
 10
11.1384756034
 20
-7.6884968735
 10
11.1421062116
 20
-7.6727493412
 10
11.1460273605
 20
-7.656726806
 10
11.150243849
 20
-7.6404425687
 10
11.1547585727
 20
-7.6239162665
 10
11.1595701791
 20
-7.6071796032
 10
11.1646803641
 20
-7.5902497426
 10
11.1700899929
 20
-7.5731452579
 10
11.1757940978
 20
-7.5559006018
 10
11.1817915992
 20
-7.53853466
 10
11.1880809023
 20
-7.5210661232
 10
11.1946540121
 20
-7.5035295
 10
11.2015074119
 20
-7.4859440537
 10
11.2086369365
 20
-7.4683289097
 10
11.2160315312
 20
-7.4507183565
 10
11.2236853117
 20
-7.4331316247
 10
11.2315917576
 20
-7.4155876582
 10
11.2397369112
 20
-7.3981199308
 10
11.2481128396
 20
-7.3807467816
 10
11.256710731
 20
-7.363486796
 10
11.2655134813
 20
-7.3463730532
 10
11.2745111224
 20
-7.3294227769
 10
11.2836929015
 20
-7.3126533466
 10
11.293038807
 20
-7.2960968872
 10
11.3025367916
 20
-7.2797693879
 10
11.3121746738
 20
-7.2636860726
 10
11.3219306092
 20
-7.247876314
 10
11.3317903889
 20
-7.2323549921
 10
11.3417411511
 20
-7.2171341374
 10
11.3517616566
 20
-7.2022370494
 10
11.3618372282
 20
-7.1876754033
 10
11.3719535332
 20
-7.1734597626
 10
11.3820887517
 20
-7.1596099198
 10
11.3922276789
 20
-7.1461348934
 10
11.4023552514
 20
-7.1330427902
 10
11.4124491654
 20
-7.1203500992
 10
11.4224938852
 20
-7.1080632413
 10
11.4324741592
 20
-7.0961874549
 10
11.4423677988
 20
-7.0847354357
 10
11.4521595169
 20
-7.0737106278
 10
11.4618340873
 20
-7.0631156111
 10
11.4713693336
 20
-7.0529596871
 10
11.4807490885
 20
-7.0432447375
 10
11.4899600039
 20
-7.0339690187
 10
11.4989842586
 20
-7.0251346176
 10
11.5078052068
 20
-7.0167417693
 10
11.5164113464
 20
-7.008785295
 10
11.5247924789
 20
-7.001258537
 10
11.5329347203
 20
-6.9941578582
 10
11.5408248063
 20
-6.9874787365
 10
11.5484527985
 20
-6.9812134685
 10
11.5558059939
 20
-6.9753562912
 10
11.5628706681
 20
-6.9699017817
 10
11.5696345988
 20
-6.9648429687
 10
11.5760860158
 20
-6.9601720817
 10
11.582211039
 20
-6.9558823356
 10
11.5879935634
 20
-6.9519678209
 10
11.5934216715
 20
-6.9484191684
 10
11.5984833623
 20
-6.9452265527
 10
11.6031619827
 20
-6.942382386
 10
11.6074440885
 20
-6.9398763297
 10
11.6113201482
 20
-6.9376952567
 10
11.6131826892
 20
-6.936679324
  0
LWPOLYLINE
  5
3FB
100
AcDbEntity
  8
218140580
100
AcDbPolyline
 62
250
  6
CONTINUOUS
 90
67
 70
0
 10
10.8337428606
 20
-8.2329364948
 10
10.8340201014
 20
-8.2025543129
 10
10.8348689068
 20
-8.1718629945
 10
10.8362892768
 20
-8.1408625395
 10
10.8382802973
 20
-8.1095292822
 10
10.8408428824
 20
-8.0778868883
 10
10.8439797751
 20
-8.0460063554
 10
10.8476933215
 20
-8.0138874838
 10
10.8519811755
 20
-7.9815304732
 10
10.8568390417
 20
-7.9490069191
 10
10.862269306
 20
-7.9163158455
 10
10.8682695824
 20
-7.8834582284
 10
10.8748284181
 20
-7.8505085921
 10
10.8819479336
 20
-7.8174671521
 10
10.8896260084
 20
-7.784333693
 10
10.8978448275
 20
-7.751182093
 10
10.9066046
 20
-7.7180176936
 10
10.9159051169
 20
-7.6848351534
 10
10.9257279364
 20
-7.6516923263
 10
10.9360721773
 20
-7.6185940707
 10
10.9469387208
 20
-7.5855355282
 10
10.9583117687
 20
-7.5525599781
 10
10.9701915871
 20
-7.5196671603
 10
10.9825779098
 20
-7.4868573348
 10
10.9954541398
 20
-7.4541745601
 10
11.0088219496
 20
-7.4216159388
 10
11.0226796667
 20
-7.3891843682
 10
11.0370056769
 20
-7.3569325986
 10
11.0518015706
 20
-7.3248592905
 10
11.0670657573
 20
-7.2929657833
 10
11.0827718511
 20
-7.2613088464
 10
11.098920721
 20
-7.2298890612
 10
11.1155114981
 20
-7.1987058462
 10
11.1325151901
 20
-7.167814226
 10
11.1499326376
 20
-7.1372148059
 10
11.167763
 20
-7.1069069806
 10
11.1859747637
 20
-7.076943959
 10
11.2045687994
 20
-7.0473263278
 10
11.2235442365
 20
-7.0180535002
 10
11.2428669488
 20
-6.9891769254
 10
11.2625366531
 20
-6.9606986787
 10
11.2825536326
 20
-6.9326166847
 10
11.3028846107
 20
-6.9049761662
 10
11.3235280201
 20
-6.8777800878
 10
11.3444854281
 20
-6.8510254849
 10
11.3657282599
 20
-6.824748687
 10
11.3872562364
 20
-6.7989503191
 10
11.4090696367
 20
-6.7736297561
 10
11.431140724
 20
-6.7488214525
 10
11.4534727558
 20
-6.7245226207
 10
11.4760624746
 20
-6.7007360483
 10
11.4988723706
 20
-6.677504553
 10
11.5219068488
 20
-6.6548258924
 10
11.5451615042
 20
-6.632702309
 10
11.5685856127
 20
-6.6111833482
 10
11.5921805277
 20
-6.5902707797
 10
11.6159448958
 20
-6.5699628338
 10
11.6398239326
 20
-6.5503037463
 10
11.6638179074
 20
-6.531296349
 10
11.6879265509
 20
-6.5129378101
 10
11.7120942704
 20
-6.4952638703
 10
11.7363221212
 20
-6.4782768875
 10
11.760609048
 20
-6.4619745039
 10
11.784896293
 20
-6.4463853865
 10
11.8091642703
 20
-6.4315190911
 10
11.833432566
 20
-6.417366062
 10
11.8577011798
 20
-6.4039262992
  0
LWPOLYLINE
  5
3FC
100
AcDbEntity
  8
218140580
100
AcDbPolyline
 62
7
  6
CONTINUOUS
 90
40
 70
0
 10
19.6487603132
 20
2.689565315
 10
19.6257016637
 20
2.6645648059
 10
19.6016823691
 20
2.6389607262
 10
19.5767024294
 20
2.6127530759
 10
19.5507858101
 20
2.5859582151
 10
19.5239085457
 20
2.5585597837
 10
19.4959987398
 20
2.5305087007
 10
19.4670590715
 20
2.5018064244
 10
19.4370868617
 20
2.4724514965
 10
19.4060021761
 20
2.442390461
 10
19.3738109279
 20
2.4116276626
 10
19.340507204
 20
2.3801587566
 10
19.3059933302
 20
2.3479172529
 10
19.2702717477
 20
2.3149040376
 10
19.2333400153
 20
2.2811182246
 10
19.1950931362
 20
2.2464906658
 10
19.1555345855
 20
2.211023241
 10
19.1146608882
 20
2.1747140703
 10
19.0723566212
 20
2.1374883659
 10
19.0286247646
 20
2.0993475735
 10
18.9834623384
 20
2.0602902473
 10
18.9367449801
 20
2.0202372614
 10
18.8884773274
 20
1.9791914513
 10
18.8386547426
 20
1.9371499816
 10
18.7871389497
 20
1.8940252203
 10
18.7339340294
 20
1.8498194563
 10
18.6790359011
 20
1.8045304007
 10
18.6222940474
 20
1.7580635549
 10
18.5637130635
 20
1.7104215878
 10
18.5032883541
 20
1.6616018306
 10
18.4408556162
 20
1.6115017775
 10
18.376420248
 20
1.560124674
 10
18.3099768513
 20
1.5074672747
 10
18.2413449282
 20
1.4534173379
 10
18.1705327803
 20
1.3979802421
 10
18.0975321062
 20
1.3411506088
 10
18.0221375037
 20
1.2828000598
 10
17.9442805057
 20
1.2228858026
 10
17.8640295793
 20
1.1614506297
 10
17.7813847247
 20
1.0984945413
  0
LWPOLYLINE
  5
3FD
100
AcDbEntity
  8
218140580
100
AcDbPolyline
 62
250
  6
CONTINUOUS
 90
32
 70
0
 10
17.5368687448
 20
-3.7407148131
 10
17.5437023179
 20
-3.7369361029
 10
17.558242195
 20
-3.7282622914
 10
17.5724054129
 20
-3.7189298707
 10
17.5861812204
 20
-3.7089459248
 10
17.5995591606
 20
-3.6983180325
 10
17.6125290783
 20
-3.6870542613
 10
17.6250811282
 20
-3.6751631615
 10
17.637205782
 20
-3.6626537594
 10
17.6488938362
 20
-3.649535551
 10
17.6601364183
 20
-3.635818494
 10
17.6709249942
 20
-3.6215130011
 10
17.6812513745
 20
-3.6066299313
 10
17.6911077204
 20
-3.5911805823
 10
17.7004865501
 20
-3.5751766815
 10
17.7093807442
 20
-3.5586303775
 10
17.7177835511
 20
-3.5415542303
 10
17.7256885925
 20
-3.5239612022
 10
17.7330898676
 20
-3.5058646481
 10
17.7399817581
 20
-3.4872783049
 10
17.7463590326
 20
-3.4682162812
 10
17.7522168501
 20
-3.448693047
 10
17.7575507639
 20
-3.428723422
 10
17.7623567252
 20
-3.4083225652
 10
17.7666310857
 20
-3.3875059626
 10
17.7703706008
 20
-3.366289416
 10
17.773572432
 20
-3.3446890306
 10
17.7762341486
 20
-3.322721203
 10
17.7783537303
 20
-3.300402609
 10
17.7799295681
 20
-3.2777501903
 10
17.7809604658
 20
-3.2547811422
 10
17.7814456407
 20
-3.2315129003
  0
LINE
  5
3FE
100
AcDbEntity
  8
218140580
100
AcDbLine
 62
250
  6
CONTINUOUS
 10
11.8577011798
 20
-6.4039262992
 11
17.7813847247
 21
-3.2079631273
  0
LINE
  5
3FF
100
AcDbEntity
  8
218140580
100
AcDbLine
 62
7
  6
CONTINUOUS
 10
11.6131851999
 20
-6.9366779849
 11
17.5368687448
 21
-3.7407148131
  0
LWPOLYLINE
  5
400
100
AcDbEntity
  8
218140580
100
AcDbPolyline
 62
250
  6
CONTINUOUS
 90
30
 70
0
 10
17.7813847247
 20
-3.2079631273
 10
17.8000458632
 20
-3.1980337844
 10
17.8181589582
 20
-3.1878538864
 10
17.8357105587
 20
-3.1774309932
 10
17.8526876309
 20
-3.1667728447
 10
17.8690775674
 20
-3.1558873558
 10
17.8848681971
 20
-3.14478261
 10
17.9000477937
 20
-3.1334668539
 10
17.9146050847
 20
-3.1219484906
 10
17.9285292599
 20
-3.1102360737
 10
17.9418099791
 20
-3.0983383008
 10
17.9544373798
 20
-3.0862640074
 10
17.9664020851
 20
-3.0740221599
 10
17.9776952097
 20
-3.0616218491
 10
17.9883083674
 20
-3.0490722835
 10
17.9982336768
 20
-3.0363827826
 10
18.0074637673
 20
-3.0235627697
 10
18.0159917846
 20
-3.0106217649
 10
18.0238113956
 20
-2.9975693784
 10
18.0309167936
 20
-2.9844153028
 10
18.037302702
 20
-2.9711693065
 10
18.0429643787
 20
-2.9578412261
 10
18.0478976191
 20
-2.944440959
 10
18.05209876
 20
-2.9309784563
 10
18.0555646814
 20
-2.9174637154
 10
18.0582928095
 20
-2.9039067724
 10
18.0602811185
 20
-2.8903176948
 10
18.0615281319
 20
-2.8767065738
 10
18.0620329235
 20
-2.8630835172
 10
18.0620449244
 20
-2.8606339421
  0
LWPOLYLINE
  5
401
100
AcDbEntity
  8
218140580
100
AcDbPolyline
 62
250
  6
CONTINUOUS
 90
30
 70
0
 10
10.8337428606
 20
-8.2329364948
 10
10.8524040007
 20
-8.223007151
 10
10.8705170971
 20
-8.2128272522
 10
10.8880686988
 20
-8.2024043581
 10
10.9050457721
 20
-8.1917462087
 10
10.9214357096
 20
-8.1808607189
 10
10.9372263401
 20
-8.1697559724
 10
10.9524059374
 20
-8.1584402154
 10
10.9669632289
 20
-8.1469218513
 10
10.9808874045
 20
-8.1352094336
 10
10.994168124
 20
-8.12331166
 10
11.0067955249
 20
-8.1112373658
 10
11.0187602302
 20
-8.0989955176
 10
11.0300533548
 20
-8.0865952061
 10
11.0406665123
 20
-8.0740456399
 10
11.0505918215
 20
-8.0613561385
 10
11.0598219116
 20
-8.048536125
 10
11.0683499284
 20
-8.0355951197
 10
11.076169539
 20
-8.0225427327
 10
11.0832749364
 20
-8.0093886567
 10
11.0896608442
 20
-7.9961426601
 10
11.0953225202
 20
-7.9828145793
 10
11.1002557599
 20
-7.969414312
 10
11.1044569
 20
-7.9559518091
 10
11.1079228206
 20
-7.942437068
 10
11.110650948
 20
-7.928880125
 10
11.1126392562
 20
-7.9152910473
 10
11.1138862687
 20
-7.9016799263
 10
11.1143910595
 20
-7.8880568698
 10
11.1144030603
 20
-7.8856073096
  0
LINE
  5
402
100
AcDbEntity
  8
268200010
100
AcDbLine
 62
7
  6
CONTINUOUS
 10
-3.1353791484
 20
-13.3465562878
 11
-2.32220635
 21
-12.9710061419
  0
LWPOLYLINE
  5
403
100
AcDbEntity
  8
290200030
100
AcDbPolyline
 62
250
  6
CONTINUOUS
 90
16
 70
0
 10
-6.3287146074
 20
9.6276762642
 10
-6.3673452858
 20
9.6175526589
 10
-6.4092842824
 20
9.6094648373
 10
-6.4540821374
 20
9.6034994765
 10
-6.5012587527
 20
9.5997205071
 10
-6.550308537
 20
9.5981684283
 10
-6.6007058245
 20
9.5988598738
 10
-6.651910508
 20
9.6017874333
 10
-6.7033738274
 20
9.6069197322
 10
-6.7545442509
 20
9.6142017677
 10
-6.8048733859
 20
9.6235554984
 10
-6.8538218554
 20
9.6348806804
 10
-6.9008650793
 20
9.648055942
 10
-6.9454988959
 20
9.6629400842
 10
-6.987244965
 20
9.6793735937
 10
-7.0256558947
 20
9.6971803528
  0
LWPOLYLINE
  5
404
100
AcDbEntity
  8
268200010
100
AcDbPolyline
 62
250
  6
CONTINUOUS
 90
16
 70
0
 10
-8.6162794541
 20
17.895251834
 10
-8.6230086008
 20
17.8984211031
 10
-8.6297206454
 20
17.9011916539
 10
-8.6364003783
 20
17.9035572065
 10
-8.6430326673
 20
17.9055123998
 10
-8.6496024791
 20
17.9070527998
 10
-8.6560949132
 20
17.9081749122
 10
-8.6624952541
 20
17.9088761945
 10
-8.6687890025
 20
17.9091550591
 10
-8.6749618953
 20
17.9090108746
 10
-8.6809999463
 20
17.9084439685
 10
-8.6868894722
 20
17.9074556263
 10
-8.6926171229
 20
17.90604809
 10
-8.6981699188
 20
17.9042245515
 10
-8.7035352799
 20
17.9019891446
 10
-8.7059147605
 20
17.9008352168
  0
LWPOLYLINE
  5
405
100
AcDbEntity
  8
268200010
100
AcDbPolyline
 62
250
  6
CONTINUOUS
 90
34
 70
0
 10
-10.4539343337
 20
18.5002785195
 10
-10.4470440256
 20
18.4969935946
 10
-10.4398488614
 20
18.4938763377
 10
-10.4323651438
 20
18.4909338133
 10
-10.4246098245
 20
18.4881726882
 10
-10.4166004805
 20
18.485599222
 10
-10.4083552769
 20
18.4832192516
 10
-10.3998929024
 20
18.481038171
 10
-10.3912325285
 20
18.4790609208
 10
-10.3823937822
 20
18.4772919816
 10
-10.3733966906
 20
18.4757353611
 10
-10.3642616433
 20
18.4743945865
 10
-10.3550093485
 20
18.4732726964
 10
-10.345660775
 20
18.4723722321
 10
-10.3362371043
 20
18.4716952328
 10
-10.3267596913
 20
18.4712432313
 10
-10.3172500048
 20
18.4710172508
 10
-10.3077296004
 20
18.4710178026
 10
-10.2982200728
 20
18.4712448834
 10
-10.2887429978
 20
18.4716979743
 10
-10.2793198208
 20
18.4723760464
 10
-10.2699718318
 20
18.4732775671
 10
-10.2607201291
 20
18.4744005067
 10
-10.2515857631
 20
18.475742315
 10
-10.2425896184
 20
18.4772999188
 10
-10.2337521857
 20
18.4790697523
 10
-10.2250933603
 20
18.4810478132
 10
-10.216632595
 20
18.4832296507
 10
-10.208387761
 20
18.4856107177
 10
-10.2003789119
 20
18.4881852856
 10
-10.1926277093
 20
18.4909462053
 10
-10.1851524685
 20
18.4938865051
 10
-10.1779684982
 20
18.4969996998
 10
-10.1710916212
 20
18.5002785195
  0
LWPOLYLINE
  5
406
100
AcDbEntity
  8
268200010
100
AcDbPolyline
 62
250
  6
CONTINUOUS
 90
34
 70
0
 10
-4.0285217271
 20
13.9132705612
 10
-4.0199427352
 20
13.9091798131
 10
-4.0109855381
 20
13.9052970113
 10
-4.0016702766
 20
13.9016308865
 10
-3.9920178968
 20
13.8981896823
 10
-3.9820501029
 20
13.8949811365
 10
-3.9717893082
 20
13.8920124637
 10
-3.9612585849
 20
13.8892903393
 10
-3.950481612
 20
13.8868208841
 10
-3.9394826224
 20
13.8846096508
 10
-3.9282863483
 20
13.8826616117
 10
-3.9169179652
 20
13.880981147
 10
-3.9054030358
 20
13.8795720354
 10
-3.8937674523
 20
13.8784374454
 10
-3.8820373783
 20
13.8775799282
 10
-3.8702391896
 20
13.8770014119
 10
-3.8583994154
 20
13.8767031975
 10
-3.8465446783
 20
13.8766859554
 10
-3.8347016346
 20
13.8769497245
 10
-3.8228969143
 20
13.8774939116
 10
-3.8111570612
 20
13.8783172931
 10
-3.7995084731
 20
13.8794180176
 10
-3.787977343
 20
13.88079361
 10
-3.7765895993
 20
13.8824409771
 10
-3.7653708483
 20
13.8843564148
 10
-3.7543463161
 20
13.886535616
 10
-3.7435407924
 20
13.8889736807
 10
-3.7329785741
 20
13.8916651266
 10
-3.7226834111
 20
13.8946039019
 10
-3.712678453
 20
13.8977833984
 10
-3.7029861966
 20
13.9011964669
 10
-3.6936284357
 20
13.9048354328
 10
-3.6846262119
 20
13.9086921136
 10
-3.6759997675
 20
13.9127578373
  0
LWPOLYLINE
  5
407
100
AcDbEntity
  8
268200010
100
AcDbPolyline
 62
250
  6
CONTINUOUS
 90
34
 70
0
 10
-16.3321797198
 20
20.0650995575
 10
-16.3236000993
 20
20.0610085237
 10
-16.3146422208
 20
20.0571254665
 10
-16.3053262297
 20
20.0534591186
 10
-16.295673088
 20
20.0500177292
 10
-16.285704494
 20
20.046809033
 10
-16.2754428295
 20
20.0438402362
 10
-16.2649111442
 20
20.0411180118
 10
-16.2541331442
 20
20.0386484918
 10
-16.243133105
 20
20.0364372399
 10
-16.2319357782
 20
20.0344892312
 10
-16.2205663335
 20
20.0328088441
 10
-16.2090503405
 20
20.0313998575
 10
-16.1974136984
 20
20.0302654404
 10
-16.185682577
 20
20.0294081438
 10
-16.1738833585
 20
20.0288298957
 10
-16.1620425701
 20
20.0285319965
 10
-16.1501868496
 20
20.0285151166
 10
-16.1383428857
 20
20.0287792931
 10
-16.1265373315
 20
20.0293239291
 10
-16.1147967195
 20
20.0301477981
 10
-16.1031474273
 20
20.0312490482
 10
-16.091615568
 20
20.0326252141
 10
-16.0802271631
 20
20.0342731935
 10
-16.0690080483
 20
20.0361892392
 10
-16.0579835893
 20
20.0383689953
 10
-16.0471784127
 20
20.0408075681
 10
-16.036616591
 20
20.0434995157
 10
-16.0263210501
 20
20.0464390333
 10
-16.0163158113
 20
20.0496193017
 10
-16.0066255023
 20
20.0530323815
 10
-15.9972723731
 20
20.0566701678
 10
-15.9882764733
 20
20.0605245845
 10
-15.9796577601
 20
20.0645868336
  0
LWPOLYLINE
  5
408
100
AcDbEntity
  8
268200010
100
AcDbPolyline
 62
250
  6
CONTINUOUS
 90
34
 70
0
 10
-4.0285217271
 20
14.2532444953
 10
-4.0199567954
 20
14.2491601408
 10
-4.0110110121
 20
14.245281471
 10
-4.0017039831
 20
14.241617453
 10
-3.9920547981
 20
14.2381761256
 10
-3.9820860109
 20
14.2349660379
 10
-3.9718240195
 20
14.2319959004
 10
-3.961293458
 20
14.2292727718
 10
-3.9505165373
 20
14.2268023269
 10
-3.9395172998
 20
14.2245900848
 10
-3.9283203297
 20
14.2226410116
 10
-3.9169509369
 20
14.220959534
 10
-3.9054349192
 20
14.2195494739
 10
-3.8937982829
 20
14.2184140091
 10
-3.882067099
 20
14.2175556772
 10
-3.8702676765
 20
14.2169764035
 10
-3.8584265207
 20
14.2166774932
 10
-3.8465702956
 20
14.2166596237
 10
-3.8347256873
 20
14.2169228374
 10
-3.8229193418
 20
14.2174665436
 10
-3.8111778082
 20
14.2182895209
 10
-3.7995274993
 20
14.2193899195
 10
-3.7879946175
 20
14.220765266
 10
-3.7766051045
 20
14.2224124679
 10
-3.7653845868
 20
14.2243278201
 10
-3.7543583033
 20
14.2265070149
 10
-3.7435510532
 20
14.2289451517
 10
-3.7329871477
 20
14.2316367465
 10
-3.7226903424
 20
14.234575747
 10
-3.7126838025
 20
14.2377555421
 10
-3.7029900528
 20
14.2411689735
 10
-3.6936309007
 20
14.2448083606
 10
-3.6846273893
 20
14.2486655187
 10
-3.6759997675
 20
14.2527317715
  0
LWPOLYLINE
  5
409
100
AcDbEntity
  8
268200010
100
AcDbPolyline
 62
250
  6
CONTINUOUS
 90
34
 70
0
 10
-16.3321797198
 20
20.4050734916
 10
-16.3235995169
 20
20.4009821929
 10
-16.3146409935
 20
20.3970988936
 10
-16.3053242978
 20
20.3934323289
 10
-16.2956703769
 20
20.3899907445
 10
-16.2857009492
 20
20.3867818847
 10
-16.2754384565
 20
20.3838129735
 10
-16.2649059876
 20
20.3810906897
 10
-16.2541272271
 20
20.3786211542
 10
-16.2431264227
 20
20.376409922
 10
-16.2319283161
 20
20.3744619656
 10
-16.2205580964
 20
20.3727816663
 10
-16.2090413468
 20
20.3713728038
 10
-16.1974039735
 20
20.3702385457
 10
-16.1856721496
 20
20.3693814419
 10
-16.1738722665
 20
20.3688034189
 10
-16.1620308583
 20
20.3685057752
 10
-16.1501745647
 20
20.3684891791
 10
-16.1383300742
 20
20.3687536656
 10
-16.1265240595
 20
20.3692986348
 10
-16.11478304
 20
20.3701228584
 10
-16.1031333459
 20
20.3712244875
 10
-16.0916010721
 20
20.372601061
 10
-16.0802122674
 20
20.3742494762
 10
-16.0689927887
 20
20.3761659835
 10
-16.0579680062
 20
20.3783462265
 10
-16.0471625506
 20
20.3807853113
 10
-16.0366005128
 20
20.3834777913
 10
-16.0263041189
 20
20.3864180718
 10
-16.0162981381
 20
20.3895991528
 10
-16.0066091974
 20
20.3930123532
 10
-15.9972599771
 20
20.3966491637
 10
-15.9882696005
 20
20.4005016077
 10
-15.9796577601
 20
20.4045607678
  0
LINE
  5
40A
100
AcDbEntity
  8
268200010
100
AcDbLine
 62
7
  6
CONTINUOUS
 10
-17.9457444937
 20
20.7691501426
 11
-16.2672064233
 21
19.9298811074
  0
LINE
  5
40B
100
AcDbEntity
  8
268200010
100
AcDbLine
 62
7
  6
CONTINUOUS
 10
-5.6420865011
 20
14.6173211463
 11
-3.9635484307
 21
13.7780521111
  0
LINE
  5
40C
100
AcDbEntity
  8
268200010
100
AcDbLine
 62
250
  6
CONTINUOUS
 10
-18.0107177902
 20
20.9043685927
 11
-16.3321797198
 21
20.0650995575
  0
LINE
  5
40D
100
AcDbEntity
  8
268200010
100
AcDbLine
 62
250
  6
CONTINUOUS
 10
-5.7070597975
 20
14.7525395964
 11
-4.0285217271
 21
13.9132705612
  0
LINE
  5
40E
100
AcDbEntity
  8
268200010
100
AcDbLine
 62
7
  6
CONTINUOUS
 10
-7.8376392433
 20
15.9585166226
 11
-8.7568780588
 21
16.4181360304
  0
LINE
  5
40F
100
AcDbEntity
  8
268200010
100
AcDbLine
 62
7
  6
CONTINUOUS
 10
-10.4539343337
 20
17.2666641678
 11
-12.0802799304
 21
18.0798369662
  0
LINE
  5
410
100
AcDbEntity
  8
268200010
100
AcDbLine
 62
250
  6
CONTINUOUS
 10
-4.0285217271
 20
14.2532444953
 11
-5.7070597975
 21
15.0925135305
  0
LINE
  5
411
100
AcDbEntity
  8
268200010
100
AcDbLine
 62
250
  6
CONTINUOUS
 10
-16.3321797198
 20
20.4050734916
 11
-18.0107177902
 21
21.2443425268
  0
LINE
  5
412
100
AcDbEntity
  8
268200010
100
AcDbLine
 62
7
  6
CONTINUOUS
 10
-9.9589595869
 20
17.3954234191
 11
-8.8154567026
 21
16.823671977
  0
LINE
  5
413
100
AcDbEntity
  8
268200010
100
AcDbLine
 62
7
  6
CONTINUOUS
 10
-1.7208525573
 20
13.2763699043
 11
-2.0747189766
 21
13.453303114
  0
LINE
  5
414
100
AcDbEntity
  8
268200010
100
AcDbLine
 62
7
  6
CONTINUOUS
 10
-5.7534120306
 20
15.292649641
 11
-6.1052276294
 21
15.4685574404
  0
LINE
  5
415
100
AcDbEntity
  8
268200010
100
AcDbLine
 62
7
  6
CONTINUOUS
 10
-13.4529674134
 20
19.1424273324
 11
-14.3783769693
 21
19.6051321103
  0
LINE
  5
416
100
AcDbEntity
  8
268200010
100
AcDbLine
 62
250
  6
CONTINUOUS
 10
-3.8527734711
 20
14.5576213103
 11
-5.5313115415
 21
15.3968903455
  0
LINE
  5
417
100
AcDbEntity
  8
268200010
100
AcDbLine
 62
250
  6
CONTINUOUS
 10
-16.1564314638
 20
20.7094503066
 11
-17.8349695342
 21
21.5487193418
  0
LINE
  5
418
100
AcDbEntity
  8
268200010
100
AcDbLine
 62
7
  6
CONTINUOUS
 10
-13.4529674134
 20
19.459850224
 11
-12.7873867116
 21
19.1270598731
  0
LINE
  5
419
100
AcDbEntity
  8
268200010
100
AcDbLine
 62
7
  6
CONTINUOUS
 10
-7.8376392433
 20
16.652186139
 11
-7.1720585415
 21
16.3193957881
  0
LINE
  5
41A
100
AcDbEntity
  8
268200010
100
AcDbLine
 62
7
  6
CONTINUOUS
 10
-1.0199166035
 20
13.6279703202
 11
-2.0747189766
 21
14.1553715068
  0
LINE
  5
41B
100
AcDbEntity
  8
268200010
100
AcDbLine
 62
7
  6
CONTINUOUS
 10
-13.6884743167
 20
19.9622491768
 11
-14.3783769693
 21
20.3072005031
  0
LINE
  5
41C
100
AcDbEntity
  8
268200010
100
AcDbLine
 62
7
  6
CONTINUOUS
 10
-8.8154567026
 20
17.5262442183
 11
-9.2518528057
 21
17.7444422698
  0
LINE
  5
41D
100
AcDbEntity
  8
268200010
100
AcDbLine
 62
250
  6
CONTINUOUS
 10
-7.3015144884
 20
16.9240685968
 11
-8.7568780588
 21
17.651750382
  0
LINE
  5
41E
100
AcDbEntity
  8
268200010
100
AcDbLine
 62
250
  6
CONTINUOUS
 10
-10.4539343337
 20
18.5002785195
 11
-12.0802799304
 21
19.3134513178
  0
LINE
  5
41F
100
AcDbEntity
  8
268200010
100
AcDbLine
 62
7
  6
CONTINUOUS
 10
-9.2518528057
 20
18.2034191988
 11
-8.6765093253
 21
17.9157474586
  0
LINE
  5
420
100
AcDbEntity
  8
268200010
100
AcDbLine
 62
250
  6
CONTINUOUS
 10
-6.9899338573
 20
17.0820790357
 11
-8.6162794541
 21
17.895251834
  0
LINE
  5
421
100
AcDbEntity
  8
268200010
100
AcDbLine
 62
250
  6
CONTINUOUS
 10
-10.3133357289
 20
18.7437799714
 11
-11.9396813256
 21
19.5569527698
  0
LINE
  5
422
100
AcDbEntity
  8
268200010
100
AcDbLine
 62
7
  6
CONTINUOUS
 10
-12.3984779819
 20
20.0008232627
 11
-10.1003809431
 21
18.8517747433
  0
LINE
  5
423
100
AcDbEntity
  8
268200010
100
AcDbLine
 62
7
  6
CONTINUOUS
 10
-8.4033246682
 20
18.0032466058
 11
-6.1052276294
 21
16.8541980864
  0
LWPOLYLINE
  5
424
100
AcDbEntity
  8
268200010
100
AcDbPolyline
 62
250
  6
CONTINUOUS
 90
16
 70
0
 10
-5.7070597975
 20
14.7525395964
 10
-5.7152418652
 20
14.7568294066
 10
-5.7230079795
 20
14.7613083458
 10
-5.7303406753
 20
14.7659663414
 10
-5.7372234542
 20
14.7707929123
 10
-5.7436408465
 20
14.7757772093
 10
-5.7495784401
 20
14.7809080415
 10
-5.7550228889
 20
14.7861738841
 10
-5.759961929
 20
14.7915628842
 10
-5.7643844328
 20
14.7970629038
 10
-5.7682804501
 20
14.8026615672
 10
-5.7716412244
 20
14.8083462895
 10
-5.7744591974
 20
14.814104286
 10
-5.7767280317
 20
14.8199226071
 10
-5.7784426249
 20
14.8257881678
 10
-5.7795991211
 20
14.831687777
  0
LWPOLYLINE
  5
425
100
AcDbEntity
  8
268200010
100
AcDbPolyline
 62
250
  6
CONTINUOUS
 90
18
 70
0
 10
-18.0107177902
 20
21.2443425268
 10
-18.0189003875
 20
21.2486326283
 10
-18.0266669862
 20
21.2531118899
 10
-18.0340001157
 20
21.2577702378
 10
-18.0408832845
 20
21.2625971983
 10
-18.047301004
 20
21.2675819121
 10
-18.0532388264
 20
21.2727131585
 10
-18.0586833941
 20
21.2779793929
 10
-18.063622465
 20
21.2833687731
 10
-18.0680449295
 20
21.2888691754
 10
-18.0719408422
 20
21.2944682287
 10
-18.0753014408
 20
21.3001533385
 10
-18.0781191659
 20
21.3059117133
 10
-18.0803876819
 20
21.3117304
 10
-18.0821018896
 20
21.3175963119
 10
-18.0832579357
 20
21.3234962535
 10
-18.0838532231
 20
21.3294169575
 10
-18.0839410949
 20
21.3327308745
  0
LWPOLYLINE
  5
426
100
AcDbEntity
  8
268200010
100
AcDbPolyline
 62
250
  6
CONTINUOUS
 90
18
 70
0
 10
-5.7070597975
 20
15.0925135305
 10
-5.7152423949
 20
15.096803632
 10
-5.7230089936
 20
15.1012828936
 10
-5.730342123
 20
15.1059412415
 10
-5.7372252918
 20
15.1107682019
 10
-5.7436430113
 20
15.1157529158
 10
-5.7495808338
 20
15.1208841621
 10
-5.7550254015
 20
15.1261503966
 10
-5.7599644724
 20
15.1315397768
 10
-5.7643869369
 20
15.137040179
 10
-5.7682828496
 20
15.1426392323
 10
-5.7716434482
 20
15.1483243422
 10
-5.7744611733
 20
15.154082717
 10
-5.7767296893
 20
15.1599014037
 10
-5.778443897
 20
15.1657673156
 10
-5.779599943
 20
15.1716672571
 10
-5.7801952304
 20
15.1775879612
 10
-5.7802831022
 20
15.1809018782
  0
LWPOLYLINE
  5
427
100
AcDbEntity
  8
268200010
100
AcDbPolyline
 62
250
  6
CONTINUOUS
 90
18
 70
0
 10
-8.7568780588
 20
17.651750382
 10
-8.7634469755
 20
17.6551950228
 10
-8.7696806466
 20
17.6587920428
 10
-8.7755649508
 20
17.6625332935
 10
-8.7810865583
 20
17.6664102999
 10
-8.786232961
 20
17.6704142794
 10
-8.7909925005
 20
17.6745361615
 10
-8.795354395
 20
17.6787666089
 10
-8.7993087633
 20
17.6830960384
 10
-8.8028466476
 20
17.6875146422
 10
-8.8059600334
 20
17.6920124109
 10
-8.8086418679
 20
17.6965791557
 10
-8.8108860758
 20
17.7012045312
 10
-8.8126875733
 20
17.7058780596
 10
-8.8140422795
 20
17.7105891539
 10
-8.8149471255
 20
17.7153271418
 10
-8.8154000615
 20
17.7200812904
 10
-8.8154567026
 20
17.7224610602
  0
LWPOLYLINE
  5
428
100
AcDbEntity
  8
268200010
100
AcDbPolyline
 62
7
  6
CONTINUOUS
 90
37
 70
0
 10
-10.1003809431
 20
18.8517747433
 10
-10.094212173
 20
18.8485254864
 10
-10.0880551358
 20
18.8449527054
 10
-10.0819215564
 20
18.8410631998
 10
-10.0758231314
 20
18.8368643638
 10
-10.0697714667
 20
18.8323641922
 10
-10.0637780554
 20
18.8275712656
 10
-10.0578543312
 20
18.8224946954
 10
-10.0520115808
 20
18.8171441408
 10
-10.0462608824
 20
18.8115298095
 10
-10.0406132158
 20
18.8056623726
 10
-10.0350793508
 20
18.7995529901
 10
-10.0296697612
 20
18.7932133227
 10
-10.024394785
 20
18.7866554183
 10
-10.0192644907
 20
18.7798917466
 10
-10.0142885686
 20
18.7729352219
 10
-10.0094765377
 20
18.7657990625
 10
-10.0048375933
 20
18.7584968349
 10
-10.0003804759
 20
18.7510424854
 10
-9.9961137231
 20
18.7434501768
 10
-9.9920454995
 20
18.7357343401
 10
-9.9881834462
 20
18.7279097149
 10
-9.9845349734
 20
18.7199911663
 10
-9.981107075
 20
18.7119937427
 10
-9.9779061627
 20
18.7039327249
 10
-9.9749383917
 20
18.6958234258
 10
-9.9722094664
 20
18.6876812537
 10
-9.9697244585
 20
18.6795217692
 10
-9.9674881638
 20
18.6713604708
 10
-9.9655048989
 20
18.6632128633
 10
-9.9637783095
 20
18.6550945207
 10
-9.9623117496
 20
18.6470208621
 10
-9.9611080743
 20
18.6390072234
 10
-9.9601694407
 20
18.6310689257
 10
-9.9594976358
 20
18.623221079
 10
-9.9590940726
 20
18.6154785538
 10
-9.9589595869
 20
18.6078560532
  0
LWPOLYLINE
  5
429
100
AcDbEntity
  8
268200010
100
AcDbPolyline
 62
250
  6
CONTINUOUS
 90
34
 70
0
 10
-10.3133357289
 20
18.7437799714
 10
-10.3066056979
 20
18.7402197086
 10
-10.2998890489
 20
18.7362760842
 10
-10.293200997
 20
18.7319580318
 10
-10.2865566931
 20
18.7272753332
 10
-10.2799711884
 20
18.7222385963
 10
-10.2734594014
 20
18.7168592309
 10
-10.2670360833
 20
18.7111494229
 10
-10.260715785
 20
18.7051221069
 10
-10.254512824
 20
18.6987909367
 10
-10.2484412519
 20
18.6921702545
 10
-10.242514823
 20
18.6852750582
 10
-10.2367469624
 20
18.6781209677
 10
-10.2311507362
 20
18.6707241893
 10
-10.2257388216
 20
18.663101479
 10
-10.2205234784
 20
18.6552701048
 10
-10.215516521
 20
18.6472478072
 10
-10.2107292917
 20
18.6390527594
 10
-10.2061726353
 20
18.6307035257
 10
-10.2018568739
 20
18.6222190198
 10
-10.1977917842
 20
18.6136184619
 10
-10.1939865749
 20
18.604921335
 10
-10.190449866
 20
18.5961473409
 10
-10.1871896694
 20
18.5873163556
 10
-10.1842133703
 20
18.5784483839
 10
-10.1815277111
 20
18.5695635148
 10
-10.1791387757
 20
18.5606818754
 10
-10.1770519757
 20
18.5518235853
 10
-10.1752720385
 20
18.5430087115
 10
-10.1738029961
 20
18.5342572225
 10
-10.1726481764
 20
18.5255889433
 10
-10.1718101956
 20
18.5170235102
 10
-10.1712909517
 20
18.5085803267
 10
-10.1710916212
 20
18.5002785195
  0
LWPOLYLINE
  5
42A
100
AcDbEntity
  8
268200010
100
AcDbPolyline
 62
7
  6
CONTINUOUS
 90
34
 70
0
 10
-14.555150673
 20
21.5121723101
 10
-14.5467395975
 20
21.5077213957
 10
-14.5383473799
 20
21.5027902253
 10
-14.5299931322
 20
21.4973899157
 10
-14.5216959582
 20
21.491532607
 10
-14.5134746598
 20
21.4852315622
 10
-14.505347694
 20
21.4785011371
 10
-14.4973335287
 20
21.4713565463
 10
-14.4894504093
 20
21.4638139269
 10
-14.4817160671
 20
21.45589043
 10
-14.4741480596
 20
21.4476039838
 10
-14.4667636026
 20
21.4389733225
 10
-14.4595793401
 20
21.4300180428
 10
-14.4526115614
 20
21.4207584223
 10
-14.4458761022
 20
21.4112154104
 10
-14.4393881795
 20
21.4014106506
 10
-14.4331624829
 20
21.3913663566
 10
-14.4272131449
 20
21.3811052665
 10
-14.4215536455
 20
21.3706506296
 10
-14.4161967751
 20
21.3600261432
 10
-14.4111546755
 20
21.3492558709
 10
-14.4064388143
 20
21.3383641936
 10
-14.4020598225
 20
21.3273758096
 10
-14.3980276036
 20
21.3163156178
 10
-14.3943513797
 20
21.3052086333
 10
-14.3910394054
 20
21.2940800526
 10
-14.3880991445
 20
21.2829551024
 10
-14.3855373859
 20
21.2718589226
 10
-14.38335984
 20
21.2608166939
 10
-14.3815713791
 20
21.2498534578
 10
-14.3801762208
 20
21.2389939661
 10
-14.3791775171
 20
21.2282628208
 10
-14.3785773481
 20
21.2176844185
 10
-14.3783769693
 20
21.2072827713
  0
LWPOLYLINE
  5
42B
100
AcDbEntity
  8
268200010
100
AcDbPolyline
 62
7
  6
CONTINUOUS
 90
34
 70
0
 10
-2.2514926803
 20
15.3603433138
 10
-2.2430816049
 20
15.3558923993
 10
-2.2346893873
 20
15.350961229
 10
-2.2263351395
 20
15.3455609194
 10
-2.2180379656
 20
15.3397036107
 10
-2.2098166672
 20
15.3334025659
 10
-2.2016897014
 20
15.3266721408
 10
-2.193675536
 20
15.31952755
 10
-2.1857924167
 20
15.3119849306
 10
-2.1780580745
 20
15.3040614337
 10
-2.1704900669
 20
15.2957749875
 10
-2.16310561
 20
15.2871443262
 10
-2.1559213474
 20
15.2781890465
 10
-2.1489535688
 20
15.268929426
 10
-2.1422181096
 20
15.259386414
 10
-2.1357301868
 20
15.2495816542
 10
-2.1295044902
 20
15.2395373603
 10
-2.1235551523
 20
15.2292762702
 10
-2.1178956529
 20
15.2188216333
 10
-2.1125387825
 20
15.2081971469
 10
-2.1074966828
 20
15.1974268746
 10
-2.1027808217
 20
15.1865351973
 10
-2.0984018299
 20
15.1755468133
 10
-2.0943696109
 20
15.1644866214
 10
-2.090693387
 20
15.153379637
 10
-2.0873814127
 20
15.1422510563
 10
-2.0844411519
 20
15.1311261061
 10
-2.0818793932
 20
15.1200299263
 10
-2.0797018473
 20
15.1089876976
 10
-2.0779133864
 20
15.0980244615
 10
-2.0765182281
 20
15.0871649697
 10
-2.0755195245
 20
15.0764338244
 10
-2.0749193555
 20
15.0658554222
 10
-2.0747189766
 20
15.055453775
  0
LWPOLYLINE
  5
42C
100
AcDbEntity
  8
268200010
100
AcDbPolyline
 62
250
  6
CONTINUOUS
 90
34
 70
0
 10
-16.1564314638
 20
20.7094503066
 10
-16.148068181
 20
20.7049753354
 10
-16.1397215132
 20
20.7000212388
 10
-16.1314103676
 20
20.6945992388
 10
-16.1231535707
 20
20.6887216176
 10
-16.1149698261
 20
20.6824016892
 10
-16.1068776717
 20
20.6756537697
 10
-16.0988954381
 20
20.6684931447
 10
-16.0910412069
 20
20.6609360346
 10
-16.0833327696
 20
20.6529995579
 10
-16.0757875876
 20
20.6447016925
 10
-16.0684227523
 20
20.636061235
 10
-16.0612549469
 20
20.6270977579
 10
-16.054300408
 20
20.6178315655
 10
-16.0475748891
 20
20.6082836478
 10
-16.0410936251
 20
20.598475633
 10
-16.0348712975
 20
20.5884297385
 10
-16.0289220013
 20
20.5781687203
 10
-16.0232592129
 20
20.5677158221
 10
-16.0178957599
 20
20.557094722
 10
-16.0128437917
 20
20.5463294792
 10
-16.008114752
 20
20.5354444793
 10
-16.0037193533
 20
20.5244643793
 10
-15.999667552
 20
20.5134140516
 10
-15.9959685265
 20
20.5023185277
 10
-15.9926306559
 20
20.4912029414
 10
-15.9896615011
 20
20.480092472
 10
-15.987067788
 20
20.4690122873
 10
-15.984855392
 20
20.4579874862
 10
-15.9830293245
 20
20.4470430425
 10
-15.9815937221
 20
20.4362037478
 10
-15.9805518367
 20
20.4254941555
 10
-15.9799060284
 20
20.4149385252
 10
-15.9796577601
 20
20.4045607678
  0
LWPOLYLINE
  5
42D
100
AcDbEntity
  8
268200010
100
AcDbPolyline
 62
250
  6
CONTINUOUS
 90
34
 70
0
 10
-3.8527734711
 20
14.5576213103
 10
-3.8444239357
 20
14.5531540957
 10
-3.8360873542
 20
14.5482070863
 10
-3.8277825985
 20
14.5427908521
 10
-3.8195273323
 20
14.5369161766
 10
-3.8113415215
 20
14.5305965259
 10
-3.8032472739
 20
14.5238486472
 10
-3.7952641153
 20
14.5166889312
 10
-3.787408916
 20
14.5091326231
 10
-3.77969933
 20
14.5011966904
 10
-3.772152733
 20
14.4928989793
 10
-3.7647863372
 20
14.4842583739
 10
-3.7576169954
 20
14.4752946291
 10
-3.7506610137
 20
14.4660281453
 10
-3.7439340834
 20
14.4564798387
 10
-3.7374514026
 20
14.4466712812
 10
-3.7312276454
 20
14.4366246657
 10
-3.7252769349
 20
14.4263627803
 10
-3.7196127673
 20
14.4159088934
 10
-3.7142479809
 20
14.4052866963
 10
-3.7091947302
 20
14.3945202507
 10
-3.7044644682
 20
14.3836339545
 10
-3.7000679136
 20
14.3726524721
 10
-3.6960150307
 20
14.3616006872
 10
-3.6923150071
 20
14.3505036497
 10
-3.6889762277
 20
14.3393865056
 10
-3.686006258
 20
14.3282744431
 10
-3.6834118291
 20
14.3171926442
 10
-3.6811988192
 20
14.3061662135
 10
-3.6793722445
 20
14.295220141
 10
-3.6779362464
 20
14.2843792478
 10
-3.6768940777
 20
14.2736681035
 10
-3.6762480973
 20
14.2631109713
 10
-3.6759997675
 20
14.2527317715
  0
LWPOLYLINE
  5
42E
100
AcDbEntity
  8
218140580
100
AcDbPolyline
 62
7
  6
CONTINUOUS
 90
6
 70
0
 10
7.6285373306
 20
19.7497697372
 10
7.62846028
 20
19.7501958984
 10
7.6242968218
 20
19.7814675425
 10
7.6216191975
 20
19.8127557346
 10
7.6204278591
 20
19.8440484151
 10
7.6203603723
 20
19.8534752244
  0
LWPOLYLINE
  5
42F
100
AcDbEntity
  8
218140580
100
AcDbPolyline
 62
7
  6
CONTINUOUS
 90
10
 70
0
 10
12.6684574111
 20
22.725990024
 10
12.6683976537
 20
22.7372141404
 10
12.6682186534
 20
22.7483729404
 10
12.6679204102
 20
22.7594664241
 10
12.6675028336
 20
22.7704964416
 10
12.666966014
 20
22.7814611428
 10
12.6663102233
 20
22.7923549772
 10
12.6655355519
 20
22.8031760948
 10
12.6646419095
 20
22.8139263457
 10
12.6636292958
 20
22.8246057298
  0
LINE
  5
430
100
AcDbEntity
  8
218140580
100
AcDbLine
 62
7
  6
CONTINUOUS
 10
12.6684574111
 20
22.725990024
 11
12.6684574111
 21
22.443752839
  0
LINE
  5
431
100
AcDbEntity
  8
268200010
100
AcDbLine
 62
250
  6
CONTINUOUS
 10
-3.3178153474
 20
-26.4095799869
 11
-3.9401333795
 21
-27.1546394044
  0
LINE
  5
432
100
AcDbEntity
  8
268200010
100
AcDbLine
 62
250
  6
CONTINUOUS
 10
-2.9647791594
 20
-26.5353498249
 11
-3.6759997675
 21
-27.3868463021
  0
LINE
  5
433
100
AcDbEntity
  8
268200010
100
AcDbLine
 62
7
  6
CONTINUOUS
 10
-2.32220635
 20
-20.8077657776
 11
-3.1353791484
 21
-21.4626820082
  0
LINE
  5
434
100
AcDbEntity
  8
290200030
100
AcDbLine
 62
7
  6
CONTINUOUS
 10
-3.1353791484
 20
-21.869782412
 11
-4.7901127131
 21
-23.2024780837
  0
LINE
  5
435
100
AcDbEntity
  8
268200010
100
AcDbLine
 62
7
  6
CONTINUOUS
 10
-3.1353791484
 20
-16.9163584594
 11
-3.1143967373
 21
-16.9050379672
  0
LINE
  5
436
100
AcDbEntity
  8
268200010
100
AcDbLine
 62
7
  6
CONTINUOUS
 10
-2.32220635
 20
-17.3011331608
 11
-3.1353791484
 21
-17.7108548583
  0
LINE
  5
437
100
AcDbEntity
  8
284140580
100
AcDbLine
 62
7
  6
CONTINUOUS
 10
-3.1143967373
 20
-16.0174253445
 11
-3.1353791484
 21
-16.0279504495
  0
LWPOLYLINE
  5
438
100
AcDbEntity
  8
290200030
100
AcDbPolyline
 62
250
  6
CONTINUOUS
 90
16
 70
0
 10
-7.0349149323
 20
-17.3499377902
 10
-7.0739485121
 20
-17.3677736835
 10
-7.1162852784
 20
-17.3834916622
 10
-7.1614716203
 20
-17.3969233184
 10
-7.2090233956
 20
-17.4079247406
 10
-7.258431118
 20
-17.4163780556
 10
-7.3091654158
 20
-17.4221926919
 10
-7.360682704
 20
-17.4253063492
 10
-7.4124310085
 20
-17.4256856668
 10
-7.4638558798
 20
-17.4233265806
 10
-7.5144063338
 20
-17.4182543666
 10
-7.5635407554
 20
-17.4105233703
 10
-7.6107327012
 20
-17.4002164243
 10
-7.6554765402
 20
-17.3874439609
 10
-7.6972928712
 20
-17.3723428285
 10
-7.7357336596
 20
-17.3550748261
  0
LINE
  5
439
100
AcDbEntity
  8
268200010
100
AcDbLine
 62
7
  6
CONTINUOUS
 10
-3.902843261
 20
13.7569366765
 11
-3.2786476639
 21
13.6266040567
  0
LINE
  5
43A
100
AcDbEntity
  8
268200010
100
AcDbLine
 62
250
  6
CONTINUOUS
 10
-3.6759997675
 20
13.9127578373
 11
-2.9647791594
 21
13.7642543145
  0
LWPOLYLINE
  5
43B
100
AcDbEntity
  8
268200010
100
AcDbPolyline
 62
7
  6
CONTINUOUS
 90
17
 70
0
 10
-8.4033246682
 20
18.0032466058
 10
-8.4094934631
 20
18.0061661314
 10
-8.4156504974
 20
18.0087503862
 10
-8.421784055
 20
18.0109944491
 10
-8.4278824808
 20
18.0128940385
 10
-8.4339341632
 20
18.0144455405
 10
-8.4399275559
 20
18.0156460158
 10
-8.4458512749
 20
18.0164931673
 10
-8.4516940545
 20
18.0169853776
 10
-8.4574447289
 20
18.0171217327
 10
-8.4630923843
 20
18.0169019569
 10
-8.4686262895
 20
18.0163264595
 10
-8.4740358501
 20
18.0153963671
 10
-8.4793108094
 20
18.0141134305
 10
-8.4844411541
 20
18.0124800783
 10
-8.4894170427
 20
18.010499459
 10
-8.4923824357
 20
18.0091174084
  0
LWPOLYLINE
  5
43C
100
AcDbEntity
  8
268200010
100
AcDbPolyline
 62
250
  6
CONTINUOUS
 90
16
 70
0
 10
-3.3033301002
 20
16.4758118005
 10
-3.305409777
 20
16.4768197938
 10
-3.3121045103
 20
16.4796528402
 10
-3.3190309865
 20
16.4819743391
 10
-3.326173697
 20
16.4837790791
 10
-3.3335165144
 20
16.4850629724
 10
-3.3410427611
 20
16.4858231161
 10
-3.3487353954
 20
16.4860578304
 10
-3.356577208
 20
16.4857666306
 10
-3.3645507069
 20
16.4849501809
 10
-3.3726391844
 20
16.4836100765
 10
-3.3808232557
 20
16.4817494151
 10
-3.3890809265
 20
16.4793735202
 10
-3.3973923471
 20
16.4764888496
 10
-3.4057399795
 20
16.4731022313
 10
-3.4141050597
 20
16.4692219094
  0
LWPOLYLINE
  5
43D
100
AcDbEntity
  8
268200010
100
AcDbPolyline
 62
250
  6
CONTINUOUS
 90
16
 70
0
 10
-1.612450549
 20
15.6303720249
 10
-1.6145130094
 20
15.6313719319
 10
-1.6212063175
 20
15.634206008
 10
-1.628131336
 20
15.6365286664
 10
-1.6352724935
 20
15.6383346842
 10
-1.6426137324
 20
15.6396200006
 10
-1.6501385456
 20
15.6403817254
 10
-1.6578300129
 20
15.6406181458
 10
-1.6656708395
 20
15.6403287303
 10
-1.6736433945
 20
15.6395141295
 10
-1.6817297513
 20
15.6381761752
 10
-1.6899117269
 20
15.6363178759
 10
-1.6981709236
 20
15.6339434101
 10
-1.7064887699
 20
15.6310581169
 10
-1.7148465626
 20
15.6276684842
 10
-1.7232255086
 20
15.6237821338
  0
LWPOLYLINE
  5
43E
100
AcDbEntity
  8
268200010
100
AcDbPolyline
 62
250
  6
CONTINUOUS
 90
16
 70
0
 10
-13.9161085417
 20
21.7822010212
 10
-13.9181710021
 20
21.7832009282
 10
-13.9248643102
 20
21.7860350044
 10
-13.9317893287
 20
21.7883576627
 10
-13.9389304861
 20
21.7901636805
 10
-13.9462717251
 20
21.7914489969
 10
-13.9537965383
 20
21.7922107217
 10
-13.9614880056
 20
21.7924471422
 10
-13.9693288321
 20
21.7921577266
 10
-13.9773013872
 20
21.7913431258
 10
-13.9853877439
 20
21.7900051716
 10
-13.9935697195
 20
21.7881468722
 10
-14.0018289162
 20
21.7857724064
 10
-14.0101467626
 20
21.7828871132
 10
-14.0185045553
 20
21.7794974805
 10
-14.0268835012
 20
21.7756111301
  0
LWPOLYLINE
  5
43F
100
AcDbEntity
  8
268200010
100
AcDbPolyline
 62
250
  6
CONTINUOUS
 90
3
 70
0
 10
-15.6069880928
 20
22.6276407968
 10
-15.6090505532
 20
22.6286407038
 10
-15.6157438613
 20
22.6314747799
  0
LINE
  5
440
100
AcDbEntity
  8
268200010
100
AcDbLine
 62
7
  6
CONTINUOUS
 10
-2.2514926803
 20
15.3603433138
 11
-3.9485549384
 21
16.2088744428
  0
LINE
  5
441
100
AcDbEntity
  8
268200010
100
AcDbLine
 62
7
  6
CONTINUOUS
 10
-14.555150673
 20
21.5121723101
 11
-16.252212931
 21
22.3607034391
  0
LINE
  5
442
100
AcDbEntity
  8
268200010
100
AcDbLine
 62
7
  6
CONTINUOUS
 10
-6.0698722903
 20
17.5385888097
 11
-7.6962178871
 21
18.351761608
  0
LINE
  5
443
100
AcDbEntity
  8
268200010
100
AcDbLine
 62
7
  6
CONTINUOUS
 10
-9.3932741619
 20
19.2002897455
 11
-11.0196197586
 21
20.0134625438
  0
LINE
  5
444
100
AcDbEntity
  8
268200010
100
AcDbLine
 62
250
  6
CONTINUOUS
 10
-15.7177630524
 20
22.6210509057
 11
-14.0268835012
 21
21.7756111301
  0
LINE
  5
445
100
AcDbEntity
  8
268200010
100
AcDbLine
 62
250
  6
CONTINUOUS
 10
-3.4141050597
 20
16.4692219094
 11
-1.7232255086
 21
15.6237821338
  0
LINE
  5
446
100
AcDbEntity
  8
268200010
100
AcDbLine
 62
7
  6
CONTINUOUS
 10
-15.6069880928
 20
22.6276407968
 11
-13.9161085417
 21
21.7822010212
  0
LINE
  5
447
100
AcDbEntity
  8
268200010
100
AcDbLine
 62
7
  6
CONTINUOUS
 10
-3.3033301002
 20
16.4758118005
 11
-1.612450549
 21
15.6303720249
  0
LINE
  5
448
100
AcDbEntity
  8
218140580
100
AcDbLine
 62
7
  6
CONTINUOUS
 10
-3.8618864044
 20
18.6268490645
 11
-6.0699261382
 21
19.7308689314
  0
LWPOLYLINE
  5
449
100
AcDbEntity
  8
268200010
100
AcDbPolyline
 62
250
  6
CONTINUOUS
 90
34
 70
0
 10
-14.0268835012
 20
21.7756111301
 10
-14.0184385838
 20
21.7711916066
 10
-14.0100114418
 20
21.7662898774
 10
-14.0016211582
 20
21.7609164072
 10
-13.9932855855
 20
21.7550818848
 10
-13.9850248912
 20
21.748799676
 10
-13.9768613883
 20
21.7420864249
 10
-13.9688147685
 20
21.7349584395
 10
-13.9609020352
 20
21.7274308984
 10
-13.9531409718
 20
21.7195207044
 10
-13.9455490705
 20
21.7112456454
 10
-13.9381436472
 20
21.7026245538
 10
-13.9309416439
 20
21.6936771397
 10
-13.9239594411
 20
21.6844237665
 10
-13.9172127891
 20
21.6748853208
 10
-13.9107169304
 20
21.6650833522
 10
-13.9044865692
 20
21.6550400387
 10
-13.8985358436
 20
21.6447781608
 10
-13.8928782499
 20
21.634320987
 10
-13.8875266116
 20
21.6236922158
 10
-13.8824930533
 20
21.6129159241
 10
-13.8777889834
 20
21.6020165317
 10
-13.8734250616
 20
21.591018733
 10
-13.869411178
 20
21.5799474485
 10
-13.8657564318
 20
21.5688277723
 10
-13.8624691054
 20
21.5576849017
 10
-13.8595566477
 20
21.5465440831
 10
-13.8570256596
 20
21.5354305638
 10
-13.8548818755
 20
21.5243695203
 10
-13.8531301547
 20
21.5133860208
 10
-13.8517744689
 20
21.5025049714
 10
-13.8508178888
 20
21.4917510328
 10
-13.8502625794
 20
21.4811485651
 10
-13.8501097975
 20
21.4707215913
  0
LWPOLYLINE
  5
44A
100
AcDbEntity
  8
268200010
100
AcDbPolyline
 62
250
  6
CONTINUOUS
 90
34
 70
0
 10
-1.7232255086
 20
15.6237821338
 10
-1.7147805911
 20
15.6193626103
 10
-1.7063534491
 20
15.6144608811
 10
-1.6979631655
 20
15.6090874109
 10
-1.6896275929
 20
15.6032528885
 10
-1.6813668986
 20
15.5969706796
 10
-1.6732033957
 20
15.5902574285
 10
-1.6651567758
 20
15.5831294432
 10
-1.6572440426
 20
15.575601902
 10
-1.6494829792
 20
15.5676917081
 10
-1.6418910779
 20
15.5594166491
 10
-1.6344856545
 20
15.5507955575
 10
-1.6272836512
 20
15.5418481434
 10
-1.6203014485
 20
15.5325947702
 10
-1.6135547964
 20
15.5230563245
 10
-1.6070589378
 20
15.5132543559
 10
-1.6008285766
 20
15.5032110424
 10
-1.5948778509
 20
15.4929491645
 10
-1.5892202573
 20
15.4824919907
 10
-1.583868619
 20
15.4718632195
 10
-1.5788350607
 20
15.4610869277
 10
-1.5741309908
 20
15.4501875354
 10
-1.5697670689
 20
15.4391897367
 10
-1.5657531853
 20
15.4281184522
 10
-1.5620984391
 20
15.416998776
 10
-1.5588111127
 20
15.4058559053
 10
-1.5558986551
 20
15.3947150868
 10
-1.553367667
 20
15.3836015675
 10
-1.5512238828
 20
15.372540524
 10
-1.549472162
 20
15.3615570245
 10
-1.5481164762
 20
15.3506759751
 10
-1.5471598961
 20
15.3399220365
 10
-1.5466045868
 20
15.3293195688
 10
-1.5464518049
 20
15.318892595
  0
LINE
  5
44B
100
AcDbEntity
  8
218140580
100
AcDbLine
 62
7
  6
CONTINUOUS
 10
6.7181662539
 20
15.2267180366
 11
5.6349709843
 21
17.0949535225
  0
LINE
  5
44C
100
AcDbEntity
  8
218140580
100
AcDbLine
 62
250
  6
CONTINUOUS
 10
8.425816724
 20
20.7962954064
 11
8.082950706
 21
21.7283015594
  0
LWPOLYLINE
  5
44D
100
AcDbEntity
  8
218140580
100
AcDbPolyline
 62
250
  6
CONTINUOUS
 90
33
 70
0
 10
19.662771706
 20
14.6527627707
 10
19.6556305745
 20
14.6027813604
 10
19.6475621041
 20
14.5534615412
 10
19.6385699382
 20
14.504825576
 10
19.6286581397
 20
14.4568954314
 10
19.6178311818
 20
14.4096927303
 10
19.6060939437
 20
14.3632387441
 10
19.5934517161
 20
14.3175544212
 10
19.5799102105
 20
14.2726604084
 10
19.5654755497
 20
14.2285770042
 10
19.5501542576
 20
14.1853241272
 10
19.5339532452
 20
14.1429212813
 10
19.5168798153
 20
14.1013875801
 10
19.4989416669
 20
14.0607417572
 10
19.4801469036
 20
14.0210021787
 10
19.4605040202
 20
13.982186806
 10
19.4400218916
 20
13.9443131732
 10
19.4187097578
 20
13.9073983629
 10
19.3965772295
 20
13.8714590214
 10
19.3736342905
 20
13.8365113634
 10
19.3498913034
 20
13.8025711755
 10
19.3253589947
 20
13.7696537916
 10
19.3000484445
 20
13.7377740773
 10
19.2739710737
 20
13.706946416
 10
19.2471386473
 20
13.6771847156
 10
19.2195632737
 20
13.6485024074
 10
19.1912574044
 20
13.6209124438
 10
19.1622338212
 20
13.5944272834
 10
19.1325056279
 20
13.5690588834
 10
19.1020862424
 20
13.5448186938
 10
19.0709893957
 20
13.521717656
 10
19.0392291258
 20
13.4997661983
 10
19.02659209
 20
13.4914711459
  0
LWPOLYLINE
  5
44E
100
AcDbEntity
  8
268200010
100
AcDbPolyline
 62
7
  6
CONTINUOUS
 90
20
 70
0
 10
-1.452902637
 20
-25.505030005
 10
-1.4444694042
 20
-25.4967843972
 10
-1.4363986278
 20
-25.4879408584
 10
-1.4287149483
 20
-25.4785192546
 10
-1.4214463655
 20
-25.4685518929
 10
-1.4146038941
 20
-25.4580556892
 10
-1.4081951286
 20
-25.4470441107
 10
-1.4022373502
 20
-25.4355512376
 10
-1.3967446035
 20
-25.4236153133
 10
-1.3917120889
 20
-25.4112379361
 10
-1.387130171
 20
-25.398396867
 10
-1.3830019234
 20
-25.3850908115
 10
-1.3793410886
 20
-25.371353066
 10
-1.3761566132
 20
-25.3572107796
 10
-1.3734522975
 20
-25.3426744434
 10
-1.3712348094
 20
-25.3277719411
 10
-1.3695118821
 20
-25.3125606816
 10
-1.3682840349
 20
-25.2970762912
 10
-1.3675485449
 20
-25.2813298193
 10
-1.3673036541
 20
-25.2653445907
  0
LINE
  5
44F
100
AcDbEntity
  8
268200010
100
AcDbLine
 62
7
  6
CONTINUOUS
 10
-1.3322568564
 20
-21.5375299216
 11
-1.1570228679
 21
-21.3903575186
  0
LINE
  5
450
100
AcDbEntity
  8
268200010
100
AcDbLine
 62
7
  6
CONTINUOUS
 10
-1.3322568564
 20
-21.5375299216
 11
-2.1807823014
 21
-22.2209186025
  0
LWPOLYLINE
  5
451
100
AcDbEntity
  8
268200010
100
AcDbPolyline
 62
7
  6
CONTINUOUS
 90
41
 70
0
 10
-15.5823059713
 20
19.7784359317
 10
-15.5764878622
 20
19.7773160469
 10
-15.5684545739
 20
19.7760807617
 10
-15.560293635
 20
19.7751749875
 10
-15.5520171476
 20
19.7745853419
 10
-15.5436390199
 20
19.774312417
 10
-15.5351728646
 20
19.7743560257
 10
-15.5266298433
 20
19.7747014245
 10
-15.5180231662
 20
19.7753483924
 10
-15.5093657132
 20
19.7762961826
 10
-15.5006676361
 20
19.7775291396
 10
-15.4919413574
 20
19.7790463488
 10
-15.4831989585
 20
19.780846582
 10
-15.4744495736
 20
19.7829136516
 10
-15.4657047658
 20
19.7852460704
 10
-15.456975804
 20
19.7878421918
 10
-15.4482709054
 20
19.7906855786
 10
-15.4396007556
 20
19.7937742757
 10
-15.4309757997
 20
19.7971062712
 10
-15.4224034611
 20
19.8006650661
 10
-15.4138935534
 20
19.8044483226
 10
-15.4054556983
 20
19.8084537102
 10
-15.3970966445
 20
19.8126647826
 10
-15.3888253515
 20
19.8170788857
 10
-15.3806506238
 20
19.8216934119
 10
-15.3725786337
 20
19.8264920328
 10
-15.3646175085
 20
19.8314718277
 10
-15.356775243
 20
19.8366299511
 10
-15.3490574984
 20
19.841950232
 10
-15.3414715915
 20
19.8474295211
 10
-15.334024713
 20
19.8530647713
 10
-15.3267220462
 20
19.8588400031
 10
-15.3195701167
 20
19.8647518653
 10
-15.3125753132
 20
19.8707971479
 10
-15.3057423353
 20
19.8769601107
 10
-15.2990769313
 20
19.8832372259
 10
-15.2925846908
 20
19.8896251566
 10
-15.2862698015
 20
19.8961084706
 10
-15.2801369528
 20
19.902679675
 10
-15.274191249
 20
19.9093391638
 10
-15.268437152
 20
19.9160833108
  0
LINE
  5
452
100
AcDbEntity
  8
268200010
100
AcDbLine
 62
7
  6
CONTINUOUS
 10
-16.2065012536
 20
19.9087656729
 11
-15.5823056566
 21
19.7784330531
  0
LINE
  5
453
100
AcDbEntity
  8
268200010
100
AcDbLine
 62
250
  6
CONTINUOUS
 10
-15.9796577601
 20
20.0645868336
 11
-15.268437152
 21
19.9160833108
  0
LWPOLYLINE
  5
454
100
AcDbEntity
  8
268200010
100
AcDbPolyline
 62
250
  6
CONTINUOUS
 90
14
 70
0
 10
-15.6157438613
 20
22.6314747799
 10
-15.6226688798
 20
22.6337974383
 10
-15.6298100373
 20
22.6356034561
 10
-15.6371512762
 20
22.6368887725
 10
-15.6446760894
 20
22.6376504973
 10
-15.6523675567
 20
22.6378869177
 10
-15.6602083832
 20
22.6375975022
 10
-15.6681809383
 20
22.6367829014
 10
-15.6762672951
 20
22.6354449471
 10
-15.6844492707
 20
22.6335866478
 10
-15.6927084674
 20
22.631212182
 10
-15.7010263137
 20
22.6283268888
 10
-15.7093841064
 20
22.6249372561
 10
-15.7177630524
 20
22.6210509057
  0
LWPOLYLINE
  5
455
100
AcDbEntity
  8
218140580
100
AcDbPolyline
 62
250
  6
CONTINUOUS
 90
17
 70
0
 10
-4.992048593
 20
19.8631683932
 10
-4.9965845057
 20
19.8651687003
 10
-5.0013396233
 20
19.8668961235
 10
-5.0062285673
 20
19.868313637
 10
-5.0112430645
 20
19.8694188419
 10
-5.016374629
 20
19.8702098679
 10
-5.0216145768
 20
19.8706853765
 10
-5.0269540408
 20
19.8708445628
 10
-5.0323839851
 20
19.8706871577
 10
-5.0378952209
 20
19.8702134273
 10
-5.0434784219
 20
19.8694241734
 10
-5.0491241397
 20
19.8683207317
 10
-5.0548228204
 20
19.8669049693
 10
-5.0605648204
 20
19.8651792821
 10
-5.0663404228
 20
19.8631465905
 10
-5.0721398537
 20
19.8608103341
 10
-5.0779532991
 20
19.8581744667
  0
LWPOLYLINE
  5
456
100
AcDbEntity
  8
218140580
100
AcDbPolyline
 62
7
  6
CONTINUOUS
 90
21
 70
0
 10
-6.071531063
 20
19.7316554571
 10
-6.0832715635
 20
19.7370865541
 10
-6.0949470521
 20
19.7420691159
 10
-6.1065452847
 20
19.7465975652
 10
-6.1180532341
 20
19.7506669352
 10
-6.1294595064
 20
19.7542726205
 10
-6.1407543393
 20
19.7574102338
 10
-6.1519254004
 20
19.7600762427
 10
-6.162960854
 20
19.762267481
 10
-6.1738517389
 20
19.7639806312
 10
-6.1845859409
 20
19.7652136528
 10
-6.1951518306
 20
19.765964823
 10
-6.2055412604
 20
19.7662318402
 10
-6.215742273
 20
19.76601419
 10
-6.2257436915
 20
19.7653116481
 10
-6.2355386534
 20
19.7641228901
 10
-6.2451157501
 20
19.7624488931
 10
-6.2544640163
 20
19.7602909204
 10
-6.2635774287
 20
19.7576487066
 10
-6.2724444885
 20
19.754525035
 10
-6.2810553676
 20
19.750922635
  0
LWPOLYLINE
  5
457
100
AcDbEntity
  8
218140580
100
AcDbPolyline
 62
7
  6
CONTINUOUS
 90
64
 70
0
 10
-4.9909753675
 20
19.8626454515
 10
-5.0020839951
 20
19.8680582607
 10
-5.01953004
 20
19.8760145206
 10
-5.0374436083
 20
19.8835432867
 10
-5.0557936409
 20
19.8906384567
 10
-5.0745711302
 20
19.8973056106
 10
-5.0937882414
 20
19.9035577576
 10
-5.1134225038
 20
19.9093962346
 10
-5.1334518809
 20
19.9148242287
 10
-5.1538849894
 20
19.9198532985
 10
-5.1746708146
 20
19.924480399
 10
-5.1958203973
 20
19.9287174661
 10
-5.2174336862
 20
19.9325889572
 10
-5.2394633785
 20
19.9360879716
 10
-5.2619273206
 20
19.9392187037
 10
-5.2850239434
 20
19.942002918
 10
-5.3088246074
 20
19.9444350575
 10
-5.3332346612
 20
19.9464913357
 10
-5.3582016439
 20
19.9481563657
 10
-5.3838260242
 20
19.9494236449
 10
-5.4099799911
 20
19.9502732491
 10
-5.4362654034
 20
19.9506905879
 10
-5.4626494673
 20
19.9506824383
 10
-5.4891377491
 20
19.9502548569
 10
-5.5153903428
 20
19.9494253967
 10
-5.5413218635
 20
19.9482166485
 10
-5.5669991057
 20
19.9466438259
 10
-5.5923127328
 20
19.9447311362
 10
-5.617242568
 20
19.9424988467
 10
-5.6417972583
 20
19.9399637854
 10
-5.6659118568
 20
19.9371502068
 10
-5.6895658544
 20
19.9340787021
 10
-5.7127744553
 20
19.9307646546
 10
-5.735526554
 20
19.9272261214
 10
-5.7578133006
 20
19.9234806418
 10
-5.7796418245
 20
19.9195426224
 10
-5.8010239646
 20
19.9154246841
 10
-5.8219601194
 20
19.911140871
 10
-5.8424497844
 20
19.906705066
 10
-5.8625018156
 20
19.9021286986
 10
-5.8821184155
 20
19.8974241875
 10
-5.9012981024
 20
19.8926046111
 10
-5.9200425329
 20
19.8876821248
 10
-5.9383626329
 20
19.8826661032
 10
-5.9562483878
 20
19.877571432
 10
-5.9736692142
 20
19.8724195677
 10
-5.9906128948
 20
19.8672274935
 10
-6.0070945952
 20
19.8620038122
 10
-6.0231236234
 20
19.8567583786
 10
-6.0386783726
 20
19.8515112027
 10
-6.0537822216
 20
19.8462672529
 10
-6.0685071168
 20
19.8410129654
 10
-6.0828516997
 20
19.8357592358
 10
-6.0968109461
 20
19.8305184451
 10
-6.1104436128
 20
19.8252783946
 10
-6.1237326959
 20
19.8200550093
 10
-6.1366783824
 20
19.8148579303
 10
-6.149355042
 20
19.8096662201
 10
-6.1617253646
 20
19.804503817
 10
-6.173790436
 20
19.7993795683
 10
-6.1856644618
 20
19.7942532925
 10
-6.1973012671
 20
19.7891529579
 10
-6.2086679872
 20
19.7841022856
 10
-6.2308912905
 20
19.7740538271
  0
LINE
  5
458
100
AcDbEntity
  8
218140580
100
AcDbLine
 62
250
  6
CONTINUOUS
 10
-4.9909787228
 20
19.8626471325
 11
-4.992048593
 21
19.8631683932
  0
LINE
  5
459
100
AcDbEntity
  8
218140580
100
AcDbLine
 62
250
  6
CONTINUOUS
 10
-5.0804438094
 20
19.8594068147
 11
-3.2341213996
 21
18.9362585169
  0
LINE
  5
45A
100
AcDbEntity
  8
218140580
100
AcDbLine
 62
7
  6
CONTINUOUS
 10
-4.9909787228
 20
19.8626471325
 11
-3.1858172614
 21
18.9600664018
  0
LINE
  5
45B
100
AcDbEntity
  8
268200010
100
AcDbLine
 62
7
  6
CONTINUOUS
 10
-4.9385014404
 20
20.3600948814
 11
-2.6583726399
 21
19.2200304812
  0
LINE
  5
45C
100
AcDbEntity
  8
268200010
100
AcDbLine
 62
7
  6
CONTINUOUS
 10
-4.2828223074
 20
21.0414878385
 11
-1.6418973669
 21
19.7210253683
  0
LINE
  5
45D
100
AcDbEntity
  8
268200010
100
AcDbLine
 62
7
  6
CONTINUOUS
 10
-0.6670821121
 20
19.2336177409
 11
-0.599866072
 21
19.2000097208
  0
LINE
  5
45E
100
AcDbEntity
  8
268200010
100
AcDbLine
 62
250
  6
CONTINUOUS
 10
-0.8307355602
 20
19.4845072203
 11
-1.471621334
 21
19.8049501072
  0
LINE
  5
45F
100
AcDbEntity
  8
268200010
100
AcDbLine
 62
250
  6
CONTINUOUS
 10
-6.4213688023
 20
22.2798238413
 11
-7.062254576
 21
22.6002667282
  0
LINE
  5
460
100
AcDbEntity
  8
268200010
100
AcDbLine
 62
7
  6
CONTINUOUS
 10
-0.6720970108
 20
19.5291426874
 11
-1.1873466742
 21
19.7867675191
  0
LINE
  5
461
100
AcDbEntity
  8
268200010
100
AcDbLine
 62
7
  6
CONTINUOUS
 10
-6.2625436238
 20
22.3243659939
 11
-6.7777932872
 21
22.5819908256
  0
LWPOLYLINE
  5
462
100
AcDbEntity
  8
218140580
100
AcDbPolyline
 62
250
  6
CONTINUOUS
 90
58
 70
0
 10
18.0620449244
 20
6.3774742418
 10
18.0761191548
 20
6.3665992221
 10
18.1191501191
 20
6.3321685885
 10
18.1619473515
 20
6.2967380597
 10
18.2044915537
 20
6.2603236097
 10
18.2467634987
 20
6.2229416933
 10
18.2887440733
 20
6.1846092125
 10
18.3304143079
 20
6.1453434905
 10
18.3717554118
 20
6.1051622359
 10
18.4127487502
 20
6.0640835608
 10
18.4533758345
 20
6.0221259902
 10
18.4936183076
 20
5.9793084806
 10
18.5334579799
 20
5.9356503854
 10
18.5728768533
 20
5.8911714294
 10
18.6118571483
 20
5.8458916761
 10
18.6503812879
 20
5.7998315431
 10
18.6884318929
 20
5.7530118081
 10
18.7259917745
 20
5.7054536193
 10
18.7630439626
 20
5.6571784645
 10
18.7995717229
 20
5.6082081475
 10
18.8355585753
 20
5.5585647637
 10
18.8709882855
 20
5.508270708
 10
18.9058448655
 20
5.4573486752
 10
18.9401125744
 20
5.4058216605
 10
18.9737759365
 20
5.3537129337
 10
19.0068197528
 20
5.3010460225
 10
19.0392291101
 20
5.247844697
 10
19.0709893808
 20
5.1941329688
 10
19.1020862285
 20
5.1399350834
 10
19.1325056148
 20
5.0852755074
 10
19.162233809
 20
5.0301789132
 10
19.1912573928
 20
4.9746701692
 10
19.2195632627
 20
4.9187743359
 10
19.2471386369
 20
4.8625166536
 10
19.2739710642
 20
4.8059225256
 10
19.300048436
 20
4.749017492
 10
19.325358987
 20
4.6918272263
 10
19.3498912961
 20
4.6343775333
 10
19.3736342836
 20
4.5766943582
 10
19.3965772229
 20
4.5188037607
 10
19.4187097521
 20
4.4607318895
 10
19.4400218868
 20
4.4025049434
 10
19.4605040161
 20
4.3441491806
 10
19.4801468998
 20
4.2856909242
 10
19.4989416632
 20
4.2271565825
 10
19.5168798119
 20
4.1685726109
 10
19.5339532424
 20
4.1099654782
 10
19.5501542556
 20
4.0513616175
 10
19.5654755482
 20
3.9927874468
 10
19.5799102092
 20
3.9342693815
 10
19.5934517147
 20
3.8758338637
 10
19.6060939424
 20
3.8175073129
 10
19.617831181
 20
3.7593160868
 10
19.6286581394
 20
3.7012864254
 10
19.6385699382
 20
3.6434444805
 10
19.6475621043
 20
3.5858163488
 10
19.6556305746
 20
3.5284280592
 10
19.662771706
 20
3.4713055182
  0
LWPOLYLINE
  5
463
100
AcDbEntity
  8
218140580
100
AcDbPolyline
 62
7
  6
CONTINUOUS
 90
49
 70
0
 10
7.2980551549
 20
20.0884272022
 10
7.2724494962
 20
20.1265548643
 10
7.2503638644
 20
20.1622984743
 10
7.2299858993
 20
20.1982497846
 10
7.211316651
 20
20.2344127705
 10
7.1943550696
 20
20.2707834569
 10
7.1791318385
 20
20.3072958757
 10
7.1656515889
 20
20.3439453028
 10
7.1539096897
 20
20.3807364623
 10
7.1439229309
 20
20.4176175589
 10
7.1356928266
 20
20.4545944672
 10
7.1292178627
 20
20.4916613126
 10
7.1245102872
 20
20.5287486758
 10
7.1215735653
 20
20.5658504459
 10
7.1204042317
 20
20.6029727339
 10
7.1210041395
 20
20.6400644537
 10
7.1233762732
 20
20.6771314127
 10
7.1275176482
 20
20.7141678035
 10
7.1334211635
 20
20.7511051177
 10
7.141088967
 20
20.7879383899
 10
7.1505189107
 20
20.8246725855
 10
7.1616974496
 20
20.8612540924
 10
7.1746284836
 20
20.8976863372
 10
7.1893081129
 20
20.9339658932
 10
7.2057110923
 20
20.9700288687
 10
7.2238392883
 20
21.005872517
 10
7.2436908346
 20
21.0414995847
 10
7.2652348865
 20
21.0768544203
 10
7.2884748102
 20
21.1119377809
 10
7.3134072396
 20
21.1467489093
 10
7.3399912322
 20
21.1812298835
 10
7.368229499
 20
21.2153799786
 10
7.3981193289
 20
21.2491999194
 10
7.429611646
 20
21.2826339575
 10
7.4627084745
 20
21.3156809385
 10
7.4974077901
 20
21.3483420168
 10
7.5336544437
 20
21.3805649066
 10
7.5714520914
 20
21.4123498092
 10
7.6107970771
 20
21.4436965234
 10
7.6516232839
 20
21.4745521603
 10
7.693931821
 20
21.5049149306
 10
7.7377215792
 20
21.5347866237
 10
7.7829231132
 20
21.5641197183
 10
7.8295388305
 20
21.5929136006
 10
7.8775663236
 20
21.6211688844
 10
7.9269289245
 20
21.6488398901
 10
7.9776010772
 20
21.6759113912
 10
8.0296083377
 20
21.7023986143
 10
8.082950706
 20
21.7283015594
  0
LINE
  5
464
100
AcDbEntity
  8
0
100
AcDbLine
 62
7
  6
CONTINUOUS
 10
9.5536259653
 20
19.1835508617
 11
9.3521266073
 21
19.7792752875
  0
LWPOLYLINE
  5
465
100
AcDbEntity
  8
218140580
100
AcDbPolyline
 62
7
  6
CONTINUOUS
 90
4
 70
0
 10
19.7329583731
 20
3.5619894393
 10
19.7329309089
 20
3.5638264177
 10
19.7326621838
 20
3.5680109903
 10
19.7325280634
 20
3.5692431007
  0
LWPOLYLINE
  5
466
100
AcDbEntity
  8
218140580
100
AcDbPolyline
 62
7
  6
CONTINUOUS
 90
4
 70
0
 10
19.7329583731
 20
15.5131400115
 10
19.7329309089
 20
15.5149769899
 10
19.7326621838
 20
15.5191615626
 10
19.7325280634
 20
15.5203936729
  0
LWPOLYLINE
  5
467
100
AcDbEntity
  8
218140580
100
AcDbPolyline
 62
7
  6
CONTINUOUS
 90
31
 70
0
 10
18.0620449165
 20
19.0788813281
 10
18.0617495739
 20
19.1138392476
 10
18.0606051498
 20
19.1562664323
 10
18.0586064145
 20
19.1987568131
 10
18.055759677
 20
19.2413155919
 10
18.052072396
 20
19.2839223801
 10
18.047555475
 20
19.3265278887
 10
18.0422168459
 20
19.3691260332
 10
18.0360637302
 20
19.4117090942
 10
18.0291106158
 20
19.4542232212
 10
18.0213660682
 20
19.4966618639
 10
18.012837581
 20
19.5390184633
 10
18.0035434285
 20
19.581237577
 10
17.993493093
 20
19.6233104751
 10
17.9826942163
 20
19.6652329102
 10
17.97116691
 20
19.7069547853
 10
17.9589231633
 20
19.7484599366
 10
17.9459689474
 20
19.7897518377
 10
17.9323173034
 20
19.8308085704
 10
17.9179772872
 20
19.8716204681
 10
17.9029554133
 20
19.9121839736
 10
17.8872611419
 20
19.9524850213
 10
17.8709012304
 20
19.9925165244
 10
17.8538814992
 20
20.0322715642
 10
17.8362106994
 20
20.0717354507
 10
17.8178946605
 20
20.1108998655
 10
17.7989377099
 20
20.1497576296
 10
17.7793466067
 20
20.1882961133
 10
17.7591256921
 20
20.2265062748
 10
17.7382781933
 20
20.2643804232
 10
17.7200774779
 20
20.2962856074
  0
LWPOLYLINE
  5
468
100
AcDbEntity
  8
218140580
100
AcDbPolyline
 62
250
  6
CONTINUOUS
 90
37
 70
0
 10
17.7813847247
 20
18.7315536526
 10
17.7811547958
 20
18.7695559287
 10
17.7802463122
 20
18.8078734815
 10
17.7786596661
 20
18.8464880517
 10
17.7763955409
 20
18.8853811499
 10
17.7734550157
 20
18.9245343359
 10
17.7698395526
 20
18.9639292322
 10
17.7655508258
 20
19.0035471959
 10
17.7605908406
 20
19.0433692438
 10
17.7549620363
 20
19.0833763324
 10
17.7486670855
 20
19.1235493558
 10
17.7417089439
 20
19.1638692417
 10
17.7340909592
 20
19.2043168792
 10
17.7258167455
 20
19.2448730188
 10
17.7168902156
 20
19.2855183509
 10
17.707315632
 20
19.3262335998
 10
17.6970975396
 20
19.3669994218
 10
17.6862407884
 20
19.407796384
 10
17.6747505619
 20
19.4486050429
 10
17.6626323344
 20
19.4894059858
 10
17.6498918644
 20
19.5301797962
 10
17.6365352171
 20
19.5709070329
 10
17.6225687756
 20
19.611568298
 10
17.6079991789
 20
19.6521442752
 10
17.5928333151
 20
19.6926156944
 10
17.5770784244
 20
19.7329633119
 10
17.5607420129
 20
19.7731679365
 10
17.5438317872
 20
19.8132104669
 10
17.5263557985
 20
19.8530719276
 10
17.5083224024
 20
19.8927333011
 10
17.489740174
 20
19.9321755568
 10
17.4706180547
 20
19.9713798374
 10
17.4509651217
 20
20.0103276203
 10
17.4307905401
 20
20.049000547
 10
17.4101038683
 20
20.0873802853
 10
17.3889150633
 20
20.1254485427
 10
17.3672342491
 20
20.1631872273
  0
LINE
  5
469
100
AcDbEntity
  8
218140580
100
AcDbLine
 62
250
  6
CONTINUOUS
 10
17.7814456407
 20
-3.2315129003
 11
17.7813847247
 21
1.0984945413
  0
LINE
  5
46A
100
AcDbEntity
  8
218140580
100
AcDbLine
 62
250
  6
CONTINUOUS
 10
17.7813847247
 20
3.1251379181
 11
17.7813847247
 21
13.0496451135
  0
LINE
  5
46B
100
AcDbEntity
  8
218140580
100
AcDbLine
 62
250
  6
CONTINUOUS
 10
17.7813847247
 20
15.0762884903
 11
17.7813847247
 21
18.7315536526
  0
LINE
  5
46C
100
AcDbEntity
  8
218140580
100
AcDbLine
 62
7
  6
CONTINUOUS
 10
18.0620449244
 20
-2.8606339421
 11
18.0620449244
 21
1.0526751865
  0
LINE
  5
46D
100
AcDbEntity
  8
218140580
100
AcDbLine
 62
250
  6
CONTINUOUS
 10
19.6487603132
 20
15.4189417457
 11
19.6487603132
 21
14.6407158872
  0
LINE
  5
46E
100
AcDbEntity
  8
218140580
100
AcDbLine
 62
250
  6
CONTINUOUS
 10
19.6487603132
 20
3.4677911734
 11
19.6487603132
 21
2.689565315
  0
LINE
  5
46F
100
AcDbEntity
  8
218140580
100
AcDbLine
 62
7
  6
CONTINUOUS
 10
19.7329583731
 20
15.5131400545
 11
19.7329583731
 21
14.7549150895
  0
LINE
  5
470
100
AcDbEntity
  8
218140580
100
AcDbLine
 62
7
  6
CONTINUOUS
 10
19.7329583731
 20
3.5619894822
 11
19.7329583731
 21
2.8037645173
  0
LWPOLYLINE
  5
471
100
AcDbEntity
  8
218140580
100
AcDbPolyline
 62
7
  6
CONTINUOUS
 90
43
 70
0
 10
18.0620449244
 20
19.0788828379
 10
18.0619750005
 20
15.8002116684
 10
18.0611409697
 20
15.7573464737
 10
18.0594355918
 20
15.7161954397
 10
18.0569538278
 20
15.676899043
 10
18.0537771
 20
15.6393355246
 10
18.0499839909
 20
15.6035284392
 10
18.0456639065
 20
15.5695811552
 10
18.0408830539
 20
15.5373965835
 10
18.035663206
 20
15.5066966219
 10
18.0300497705
 20
15.4774419641
 10
18.0241021265
 20
15.4496734843
 10
18.017836671
 20
15.4232343745
 10
18.0112870325
 20
15.398100039
 10
18.0045004068
 20
15.3742935294
 10
17.9975015047
 20
15.3517299023
 10
17.9903241844
 20
15.3304102056
 10
17.9830038684
 20
15.3103289713
 10
17.9755618729
 20
15.2913914528
 10
17.9680330868
 20
15.2736090848
 10
17.9604422901
 20
15.2569640023
 10
17.9527894986
 20
15.2413179986
 10
17.9451017044
 20
15.2266712228
 10
17.9373994122
 20
15.2130168285
 10
17.9296652166
 20
15.2002073959
 10
17.9219224678
 20
15.1882409199
 10
17.9141839288
 20
15.177113418
 10
17.906407712
 20
15.166676481
 10
17.8986017309
 20
15.1569139187
 10
17.8907822506
 20
15.1478378999
 10
17.8829121196
 20
15.1393446833
 10
17.8750031946
 20
15.1314276567
 10
17.8670604163
 20
15.1240908044
 10
17.8590295562
 20
15.1172484069
 10
17.8509090293
 20
15.1108869462
 10
17.8427093299
 20
15.1050195644
 10
17.834388599
 20
15.0996025954
 10
17.8259526473
 20
15.0946310662
 10
17.8174001957
 20
15.0901110578
 10
17.808673793
 20
15.086017506
 10
17.7997528398
 20
15.0823437261
 10
17.7906565797
 20
15.0791001323
 10
17.7813847247
 20
15.0762884903
  0
LWPOLYLINE
  5
472
100
AcDbEntity
  8
218140580
100
AcDbPolyline
 62
7
  6
CONTINUOUS
 90
43
 70
0
 10
18.0620449244
 20
13.0038257587
 10
18.0619750005
 20
3.8490610962
 10
18.0611409697
 20
3.8061959015
 10
18.0594355918
 20
3.7650448674
 10
18.0569538278
 20
3.7257484708
 10
18.0537771
 20
3.6881849523
 10
18.0499839909
 20
3.652377867
 10
18.0456639065
 20
3.618430583
 10
18.0408830539
 20
3.5862460113
 10
18.035663206
 20
3.5555460497
 10
18.0300497705
 20
3.5262913919
 10
18.0241021265
 20
3.498522912
 10
18.017836671
 20
3.4720838023
 10
18.0112870325
 20
3.4469494668
 10
18.0045004068
 20
3.4231429571
 10
17.9975015047
 20
3.4005793301
 10
17.9903241844
 20
3.3792596334
 10
17.9830038684
 20
3.3591783991
 10
17.9755618729
 20
3.3402408805
 10
17.9680330868
 20
3.3224585125
 10
17.9604422901
 20
3.3058134301
 10
17.9527894986
 20
3.2901674264
 10
17.9451017044
 20
3.2755206506
 10
17.9373994122
 20
3.2618662563
 10
17.9296652166
 20
3.2490568237
 10
17.9219224678
 20
3.2370903477
 10
17.9141839288
 20
3.2259628458
 10
17.906407712
 20
3.2155259088
 10
17.8986017309
 20
3.2057633465
 10
17.8907822506
 20
3.1966873277
 10
17.8829121196
 20
3.1881941111
 10
17.8750031946
 20
3.1802770844
 10
17.8670604163
 20
3.1729402322
 10
17.8590295562
 20
3.1660978347
 10
17.8509090293
 20
3.159736374
 10
17.8427093299
 20
3.1538689922
 10
17.834388599
 20
3.1484520232
 10
17.8259526473
 20
3.143480494
 10
17.8174001957
 20
3.1389604856
 10
17.808673793
 20
3.1348669338
 10
17.7997528398
 20
3.1311931539
 10
17.7906565797
 20
3.12794956
 10
17.7813847247
 20
3.1251379181
  0
LWPOLYLINE
  5
473
100
AcDbEntity
  8
218140580
100
AcDbPolyline
 62
7
  6
CONTINUOUS
 90
4
 70
0
 10
19.7321598468
 20
14.7429866813
 10
19.7326085829
 20
14.7470085175
 10
19.732913063
 20
14.7520646837
 10
19.7329583731
 20
14.7549151298
  0
LWPOLYLINE
  5
474
100
AcDbEntity
  8
218140580
100
AcDbPolyline
 62
7
  6
CONTINUOUS
 90
4
 70
0
 10
19.7321598468
 20
2.7918361091
 10
19.7326085829
 20
2.7958579453
 10
19.732913063
 20
2.8009141115
 10
19.7329583731
 20
2.8037645576
  0
LWPOLYLINE
  5
475
100
AcDbEntity
  8
218140580
100
AcDbPolyline
 62
250
  6
CONTINUOUS
 90
33
 70
0
 10
19.662771706
 20
2.7016121984
 10
19.6556305744
 20
2.6516307876
 10
19.647562104
 20
2.6023109679
 10
19.6385699379
 20
2.5536750022
 10
19.6286581392
 20
2.5057448571
 10
19.6178311812
 20
2.4585421555
 10
19.6060939428
 20
2.4120881688
 10
19.5934517151
 20
2.3664038455
 10
19.5799102093
 20
2.3215098323
 10
19.5654755482
 20
2.2774264277
 10
19.5501542559
 20
2.2341735503
 10
19.5339532432
 20
2.1917707039
 10
19.516879813
 20
2.1502370024
 10
19.4989416643
 20
2.1095911793
 10
19.4801469007
 20
2.0698516004
 10
19.4605040168
 20
2.0310362274
 10
19.4400218879
 20
1.9931625944
 10
19.4187097537
 20
1.9562477838
 10
19.396577225
 20
1.9203084422
 10
19.3736342856
 20
1.8853607839
 10
19.349891298
 20
1.8514205959
 10
19.3253589889
 20
1.8185032119
 10
19.3000484383
 20
1.7866234974
 10
19.273971067
 20
1.755795836
 10
19.2471386401
 20
1.7260341356
 10
19.219563266
 20
1.6973518275
 10
19.1912573962
 20
1.6697618638
 10
19.1622338125
 20
1.6432767034
 10
19.1325056186
 20
1.6179083035
 10
19.1020862326
 20
1.593668114
 10
19.0709893853
 20
1.5705670763
 10
19.0392291149
 20
1.5486156188
 10
19.0265920901
 20
1.5403205737
  0
LWPOLYLINE
  5
476
100
AcDbEntity
  8
218140580
100
AcDbPolyline
 62
250
  6
CONTINUOUS
 90
34
 70
0
 10
10.483148676
 20
-16.189533541
 10
10.5033232576
 20
-16.1708539085
 10
10.5229761906
 20
-16.1513899818
 10
10.5420983099
 20
-16.1311508777
 10
10.5606805383
 20
-16.1101461754
 10
10.5787139344
 20
-16.0883859442
 10
10.5961899231
 20
-16.0658805743
 10
10.6131001488
 20
-16.042640822
 10
10.6294365603
 20
-16.0186777332
 10
10.645191451
 20
-15.9940026582
 10
10.6603573148
 20
-15.9686273429
 10
10.6749269115
 20
-15.9425638749
 10
10.688893353
 20
-15.9158246083
 10
10.7022500003
 20
-15.8884222449
 10
10.7149904703
 20
-15.8603698479
 10
10.7271086978
 20
-15.8316807843
 10
10.7385989243
 20
-15.8023687001
 10
10.7494556755
 20
-15.7724475457
 10
10.7596737679
 20
-15.7419315901
 10
10.7692483515
 20
-15.7108353676
 10
10.7781748814
 20
-15.679173653
 10
10.7864490951
 20
-15.6469614869
 10
10.7940670798
 20
-15.6142141824
 10
10.8010252214
 20
-15.5809473137
 10
10.8073201722
 20
-15.5471766885
 10
10.8129489765
 20
-15.5129183023
 10
10.8179089617
 20
-15.4781884934
 10
10.8221976885
 20
-15.4430039314
 10
10.8258131516
 20
-15.407381441
 10
10.8287536768
 20
-15.3713378569
 10
10.831017802
 20
-15.3348901713
 10
10.8326044481
 20
-15.2980556525
 10
10.8335129317
 20
-15.2608518433
 10
10.8337428606
 20
-15.2232964162
  0
LWPOLYLINE
  5
477
100
AcDbEntity
  8
218140580
100
AcDbPolyline
 62
250
  6
CONTINUOUS
 90
4
 70
0
 10
10.419592385
 20
-16.2407795152
 10
10.4412731992
 20
-16.2245047251
 10
10.4624620042
 20
-16.2074200126
 10
10.483148676
 20
-16.189533541
  0
LWPOLYLINE
  5
478
100
AcDbEntity
  8
218140580
100
AcDbPolyline
 62
7
  6
CONTINUOUS
 90
40
 70
0
 10
10.4941700512
 20
-16.1944100701
 10
10.5147363234
 20
-16.1792128699
 10
10.5427773628
 20
-16.1575227824
 10
10.5703271692
 20
-16.1350657738
 10
10.5973578124
 20
-16.1118593698
 10
10.6238563012
 20
-16.0879096414
 10
10.649823931
 20
-16.0632090321
 10
10.6752408612
 20
-16.0377688433
 10
10.7000878443
 20
-16.0116008006
 10
10.7243656347
 20
-15.9846950274
 10
10.748055085
 20
-15.9570624103
 10
10.7711364575
 20
-15.9287157469
 10
10.7936079483
 20
-15.8996452698
 10
10.8154510782
 20
-15.8698610217
 10
10.8366459757
 20
-15.8393766878
 10
10.8571873105
 20
-15.8081849406
 10
10.877056277
 20
-15.776297255
 10
10.8962345465
 20
-15.7437258891
 10
10.9147163921
 20
-15.7104617254
 10
10.9324823301
 20
-15.6765184929
 10
10.9495157337
 20
-15.6419057436
 10
10.9658134485
 20
-15.6066045936
 10
10.9813592389
 20
-15.5706202485
 10
10.9961322831
 20
-15.5339690002
 10
11.0101211737
 20
-15.496645067
 10
11.0233136469
 20
-15.4586415538
 10
11.0356853235
 20
-15.4199855977
 10
11.0472097048
 20
-15.3807205893
 10
11.0578727972
 20
-15.3408562293
 10
11.067660059
 20
-15.300403944
 10
11.0765506085
 20
-15.2594087827
 10
11.0845338243
 20
-15.2178790496
 10
11.0915980573
 20
-15.1758266898
 10
11.0977272142
 20
-15.1333013821
 10
11.1029131615
 20
-15.0903124524
 10
11.107147261
 20
-15.0468698822
 10
11.1104185436
 20
-15.0030229344
 10
11.1127202142
 20
-14.9587931324
 10
11.114046937
 20
-14.9141773079
 10
11.1144030524
 20
-14.8759682519
  0
LINE
  5
479
100
AcDbEntity
  8
218140580
100
AcDbLine
 62
7
  6
CONTINUOUS
 10
-0.0139957181
 20
-21.7369592481
 11
-0.6663677003
 21
-22.2097624964
  0
LINE
  5
47A
100
AcDbEntity
  8
268200010
100
AcDbLine
 62
7
  6
CONTINUOUS
 10
0.3850362304
 20
-21.4477628899
 11
-0.6663677003
 21
-22.2097624964
  0
LINE
  5
47B
100
AcDbEntity
  8
218140580
100
AcDbLine
 62
7
  6
CONTINUOUS
 10
5.6349709843
 20
-19.0183058153
 11
6.7181662539
 21
-18.233265599
  0
LINE
  5
47C
100
AcDbEntity
  8
218140580
100
AcDbLine
 62
250
  6
CONTINUOUS
 10
10.2403892991
 20
-16.3706560327
 11
10.419592385
 21
-16.2407795152
  0
LINE
  5
47D
100
AcDbEntity
  8
218140580
100
AcDbLine
 62
7
  6
CONTINUOUS
 10
10.3149568931
 20
-16.3242938999
 11
10.494159979
 21
-16.1944173824
  0
LWPOLYLINE
  5
47E
100
AcDbEntity
  8
290200030
100
AcDbPolyline
 62
250
  6
CONTINUOUS
 90
16
 70
0
 10
-6.3287146075
 20
-27.0776500668
 10
-6.3673447896
 20
-27.1011056951
 10
-6.4092830855
 20
-27.1223826659
 10
-6.4540800576
 20
-27.1412529617
 10
-6.5012556332
 20
-27.1575143566
 10
-6.5503042488
 20
-27.170992583
 10
-6.6007002682
 20
-27.1815431997
 10
-6.6519036159
 20
-27.1890531396
 10
-6.7033655641
 20
-27.1934419214
 10
-6.7545346139
 20
-27.1946625121
 10
-6.8048624053
 20
-27.1927018311
 10
-6.8538095936
 20
-27.1875808903
 10
-6.9008516299
 20
-27.179354569
 10
-6.9454843815
 20
-27.1681110257
 10
-6.9872295357
 20
-27.1539707534
 10
-7.0256397249
 20
-27.1370852881
  0
LWPOLYLINE
  5
47F
100
AcDbEntity
  8
218140580
100
AcDbPolyline
 62
250
  6
CONTINUOUS
 90
29
 70
0
 10
10.8524039991
 20
-15.2133670733
 10
10.8705170941
 20
-15.2031871753
 10
10.8880686946
 20
-15.1927642821
 10
10.9050457668
 20
-15.1821061336
 10
10.9214357033
 20
-15.1712206446
 10
10.937226333
 20
-15.1601158989
 10
10.9524059296
 20
-15.1488001428
 10
10.9669632206
 20
-15.1372817795
 10
10.9808873958
 20
-15.1255693625
 10
10.994168115
 20
-15.1136715897
 10
11.0067955157
 20
-15.1015972963
 10
11.018760221
 20
-15.0893554487
 10
11.0300533456
 20
-15.0769551379
 10
11.0406665034
 20
-15.0644055724
 10
11.0505918127
 20
-15.0517160715
 10
11.0598219032
 20
-15.0388960586
 10
11.0683499205
 20
-15.0259550538
 10
11.0761695315
 20
-15.0129026672
 10
11.0832749295
 20
-14.9997485917
 10
11.0896608379
 20
-14.9865025954
 10
11.0953225146
 20
-14.9731745149
 10
11.100255755
 20
-14.9597742478
 10
11.1044568959
 20
-14.9463117452
 10
11.1079228173
 20
-14.9327970043
 10
11.1106509454
 20
-14.9192400613
 10
11.1126392544
 20
-14.9056509836
 10
11.1138862678
 20
-14.8920398627
 10
11.1143910594
 20
-14.8784168061
 10
11.1144030603
 20
-14.8759682519
  0
LWPOLYLINE
  5
480
100
AcDbEntity
  8
218140580
100
AcDbPolyline
 62
250
  6
CONTINUOUS
 90
4
 70
0
 10
10.1956013691
 20
-16.3985907267
 10
10.2107493675
 20
-16.3901194296
 10
10.2257797986
 20
-16.380754046
 10
10.2403892991
 20
-16.3706560327
  0
LWPOLYLINE
  5
481
100
AcDbEntity
  8
218140580
100
AcDbPolyline
 62
250
  6
CONTINUOUS
 90
5
 70
0
 10
10.419592385
 20
-16.2407795152
 10
10.4384289003
 20
-16.2304193074
 10
10.4568710171
 20
-16.2194310702
 10
10.47490504
 20
-16.2078229637
 10
10.494159979
 20
-16.1944173824
  0
LWPOLYLINE
  5
482
100
AcDbEntity
  8
218140580
100
AcDbPolyline
 62
250
  6
CONTINUOUS
 90
5
 70
0
 10
10.2403892991
 20
-16.3706560327
 10
10.2592258143
 20
-16.3602958248
 10
10.277667931
 20
-16.3493075877
 10
10.2957019539
 20
-16.3376994813
 10
10.3149568931
 20
-16.3242938999
  0
LINE
  5
483
100
AcDbEntity
  8
218140580
100
AcDbLine
 62
250
  6
CONTINUOUS
 10
10.2403892991
 20
-16.3706560327
 11
6.7181662539
 21
-18.233265599
  0
LINE
  5
484
100
AcDbEntity
  8
218140580
100
AcDbLine
 62
7
  6
CONTINUOUS
 10
10.1956013691
 20
-16.3985907267
 11
6.6964741516
 21
-18.2489868389
  0
LINE
  5
485
100
AcDbEntity
  8
218140580
100
AcDbLine
 62
250
  6
CONTINUOUS
 10
0.4001547575
 20
-20.7194761491
 11
10.8524039991
 21
-15.2133670733
  0
LINE
  5
486
100
AcDbEntity
  8
218140580
100
AcDbLine
 62
250
  6
CONTINUOUS
 10
-0.0139957181
 20
-21.7369592481
 11
10.419592385
 21
-16.2407795152
  0
LINE
  5
487
100
AcDbEntity
  8
218140580
100
AcDbLine
 62
7
  6
CONTINUOUS
 10
-0.6663677003
 20
-22.3284618569
 11
5.6349709843
 21
-19.0183058153
  0
LINE
  5
488
100
AcDbEntity
  8
268200010
100
AcDbLine
 62
7
  6
CONTINUOUS
 10
3.9792534608
 20
-20.1778086746
 11
-0.6663677003
 21
-22.56444457
  0
LINE
  5
489
100
AcDbEntity
  8
268200010
100
AcDbLine
 62
7
  6
CONTINUOUS
 10
-0.6663677003
 20
-21.9874168424
 11
0.3850362304
 21
-21.4477628899
  0
LINE
  5
48A
100
AcDbEntity
  8
268200010
100
AcDbLine
 62
7
  6
CONTINUOUS
 10
4.9373536243
 20
-19.5579768369
 11
-0.6663677003
 21
-22.4236710442
  0
LINE
  5
48B
100
AcDbEntity
  8
268200010
100
AcDbLine
 62
250
  6
CONTINUOUS
 10
-3.6929270012
 20
-23.1191207253
 11
-3.6172152268
 21
-23.0825637199
  0
LINE
  5
48C
100
AcDbEntity
  8
268200010
100
AcDbLine
 62
7
  6
CONTINUOUS
 10
-3.7632358989
 20
-23.3799663245
 11
-3.8385764158
 21
-23.4155658408
  0
LWPOLYLINE
  5
48D
100
AcDbEntity
  8
268200010
100
AcDbPolyline
 62
250
  6
CONTINUOUS
 90
13
 70
0
 10
-3.6929270012
 20
-23.1191207253
 10
-3.7225271549
 20
-23.1316684003
 10
-3.7551190701
 20
-23.1422006388
 10
-3.7901573937
 20
-23.1505412091
 10
-3.8270558393
 20
-23.1565505521
 10
-3.8651969939
 20
-23.1601281162
 10
-3.9039426486
 20
-23.1612140407
 10
-3.9426444824
 20
-23.1597901573
 10
-3.9806549114
 20
-23.1558802936
 10
-4.0173379217
 20
-23.149549874
 10
-4.0520797103
 20
-23.1409048247
 10
-4.0842989557
 20
-23.1300898024
 10
-4.1134565467
 20
-23.1172857724
  0
LWPOLYLINE
  5
48E
100
AcDbEntity
  8
268200010
100
AcDbPolyline
 62
7
  6
CONTINUOUS
 90
10
 70
0
 10
-0.717375293
 20
19.5258789318
 10
-0.7247415808
 20
19.5239302556
 10
-0.7325158459
 20
19.5217012821
 10
-0.7407053934
 20
19.5192043561
 10
-0.7492999749
 20
19.516445829
 10
-0.7582798663
 20
19.5134306561
 10
-0.767643972
 20
19.5101705008
 10
-0.7773833559
 20
19.5066731065
 10
-0.787479174
 20
19.5029415342
 10
-0.7979169632
 20
19.4989806754
  0
LWPOLYLINE
  5
48F
100
AcDbEntity
  8
268200010
100
AcDbPolyline
 62
7
  6
CONTINUOUS
 90
17
 70
0
 10
-1.4182791255
 20
19.8257032026
 10
-1.4066241528
 20
19.8283516181
 10
-1.3946175165
 20
19.8303968294
 10
-1.3822645925
 20
19.8318291814
 10
-1.3695580258
 20
19.8326326883
 10
-1.356515334
 20
19.8328013175
 10
-1.3431419435
 20
19.8323260257
 10
-1.3294096466
 20
19.8311835346
 10
-1.3153438969
 20
19.8293715976
 10
-1.3009425161
 20
19.8268741999
 10
-1.2861308144
 20
19.8236410049
 10
-1.2709018424
 20
19.8196582812
 10
-1.2552842932
 20
19.8149113919
 10
-1.2392539165
 20
19.80934202
 10
-1.2228196859
 20
19.8029317627
 10
-1.2060031116
 20
19.7956666275
 10
-1.1873471842
 20
19.7867668014
  0
LWPOLYLINE
  5
490
100
AcDbEntity
  8
268200010
100
AcDbPolyline
 62
7
  6
CONTINUOUS
 90
19
 70
0
 10
-5.3867891765
 20
20.489504404
 10
-5.3587682602
 20
20.4855298233
 10
-5.3310364309
 20
20.4811579627
 10
-5.3035936887
 20
20.4763888222
 10
-5.276417352
 20
20.4712177121
 10
-5.2495301023
 20
20.465649322
 10
-5.2229999843
 20
20.4596977216
 10
-5.1968278952
 20
20.4533619446
 10
-5.1710129379
 20
20.4466429573
 10
-5.1456204657
 20
20.4395577272
 10
-5.1206514546
 20
20.4321052952
 10
-5.0961049285
 20
20.4242866204
 10
-5.0720433125
 20
20.4161215487
 10
-5.0484681608
 20
20.4076093469
 10
-5.025377919
 20
20.3987507483
 10
-5.0028303499
 20
20.3895677979
 10
-4.9808447075
 20
20.3800678442
 10
-4.9594017377
 20
20.3702435387
 10
-4.9385014404
 20
20.3600948814
  0
LWPOLYLINE
  5
491
100
AcDbEntity
  8
268200010
100
AcDbPolyline
 62
7
  6
CONTINUOUS
 90
10
 70
0
 10
-6.2625436996
 20
22.324365069
 10
-6.2657385792
 20
22.3255353525
 10
-6.2693160162
 20
22.3261820359
 10
-6.2734647508
 20
22.3264509147
 10
-6.2781507867
 20
22.3263498562
 10
-6.283343269
 20
22.3258862146
 10
-6.2890250055
 20
22.3250972658
 10
-6.2951611377
 20
22.3239944555
 10
-6.3017300155
 20
22.3225772474
 10
-6.3087475907
 20
22.3208664751
  0
LWPOLYLINE
  5
492
100
AcDbEntity
  8
268200010
100
AcDbPolyline
 62
7
  6
CONTINUOUS
 90
10
 70
0
 10
-0.6720970022
 20
19.5291427928
 10
-0.6749803617
 20
19.5302282876
 10
-0.6784861529
 20
19.5309113203
 10
-0.6825617619
 20
19.5312176528
 10
-0.6871737727
 20
19.5311549029
 10
-0.6922914583
 20
19.5307306973
 10
-0.697896495
 20
19.5299822713
 10
-0.7039539322
 20
19.5289206432
 10
-0.7104420983
 20
19.527545606
 10
-0.717375293
 20
19.5258789318
  0
LWPOLYLINE
  5
493
100
AcDbEntity
  8
268200010
100
AcDbPolyline
 62
7
  6
CONTINUOUS
 90
21
 70
0
 10
-2.7942313218
 20
22.138840353
 10
-2.8042324551
 20
22.1436573481
 10
-2.8237991107
 20
22.1520616078
 10
-2.8438965602
 20
22.1593750168
 10
-2.8645091537
 20
22.1655958988
 10
-2.8855414962
 20
22.1706952206
 10
-2.9069815881
 20
22.1746657744
 10
-2.9288414289
 20
22.1775147681
 10
-2.9510616225
 20
22.1792347916
 10
-2.9736558895
 20
22.1798227199
 10
-2.9966105093
 20
22.1792816782
 10
-3.0198249231
 20
22.1776136319
 10
-3.0432895214
 20
22.1748151405
 10
-3.0670139138
 20
22.1708896446
 10
-3.0909263712
 20
22.1658494311
 10
-3.115035414
 20
22.1596890904
 10
-3.1393325217
 20
22.152414032
 10
-3.1637204041
 20
22.1440527714
 10
-3.1881666309
 20
22.1346148138
 10
-3.2127036323
 20
22.124090654
 10
-3.2373314083
 20
22.112480292
  0
LINE
  5
494
100
AcDbEntity
  8
268200010
100
AcDbLine
 62
7
  6
CONTINUOUS
 10
0.3761494468
 20
19.681063021
 11
-2.5343383844
 21
21.1363069366
  0
LINE
  5
495
100
AcDbEntity
  8
218140580
100
AcDbLine
 62
7
  6
CONTINUOUS
 10
5.0766236467
 20
17.3741271913
 11
5.6349709843
 21
17.0949535225
  0
LINE
  5
496
100
AcDbEntity
  8
268200010
100
AcDbLine
 62
250
  6
CONTINUOUS
 10
-6.2112755903
 20
23.599452383
 11
-3.2373314083
 21
22.112480292
  0
LINE
  5
497
100
AcDbEntity
  8
268200010
100
AcDbLine
 62
250
  6
CONTINUOUS
 10
1.0053092788
 20
19.9911599485
 11
3.9792534608
 21
18.5041878575
  0
LINE
  5
498
100
AcDbEntity
  8
268200010
100
AcDbLine
 62
7
  6
CONTINUOUS
 10
-5.922079424
 20
23.7027637834
 11
-2.7942315701
 21
22.1388398565
  0
LINE
  5
499
100
AcDbEntity
  8
268200010
100
AcDbLine
 62
7
  6
CONTINUOUS
 10
1.448409117
 20
20.0175195129
 11
4.576256971
 21
18.4535955859
  0
LINE
  5
49A
100
AcDbEntity
  8
218140580
100
AcDbLine
 62
250
  6
CONTINUOUS
 10
2.4338672401
 20
21.0945100318
 11
-3.4707522914
 21
24.0468197976
  0
LWPOLYLINE
  5
49B
100
AcDbEntity
  8
218140580
100
AcDbPolyline
 62
7
  6
CONTINUOUS
 90
59
 70
0
 10
19.7325280638
 20
3.5692429733
 10
19.7261398868
 20
3.6198704835
 10
19.7180043617
 20
3.6774784367
 10
19.7089335873
 20
3.7352273003
 10
19.6989347748
 20
3.7930932335
 10
19.6880152648
 20
3.8510529434
 10
19.6761825591
 20
3.9090833368
 10
19.6634484034
 20
3.9671434828
 10
19.6498174683
 20
4.0252269692
 10
19.6352846319
 20
4.0833621964
 10
19.6198471303
 20
4.1415581503
 10
19.6035192798
 20
4.1997584778
 10
19.5863217522
 20
4.2578932607
 10
19.5682676932
 20
4.3159258162
 10
19.5493626522
 20
4.3738453185
 10
19.5296187809
 20
4.4316205123
 10
19.5090490771
 20
4.4892198025
 10
19.4876611629
 20
4.546627714
 10
19.465459177
 20
4.6038369765
 10
19.4424501417
 20
4.6608314939
 10
19.418647217
 20
4.7175803345
 10
19.3940637257
 20
4.774053868
 10
19.3687121773
 20
4.8302256997
 10
19.342602458
 20
4.886075962
 10
19.3157444509
 20
4.9415849291
 10
19.2881490955
 20
4.9967309202
 10
19.2598287667
 20
5.0514898969
 10
19.2307957144
 20
5.1058387252
 10
19.2010640699
 20
5.1597514795
 10
19.1706444125
 20
5.2132092946
 10
19.1395435817
 20
5.2661996537
 10
19.1077738855
 20
5.3187004528
 10
19.0753480591
 20
5.3706893503
 10
19.0422731025
 20
5.422153268
 10
19.0085556041
 20
5.4730791378
 10
18.9742142967
 20
5.5234357181
 10
18.9392748977
 20
5.5731834188
 10
18.9037572199
 20
5.6222931549
 10
18.8676694924
 20
5.6707525096
 10
18.8310205332
 20
5.718547783
 10
18.7938284475
 20
5.765653281
 10
18.7561034245
 20
5.8120538673
 10
18.7178414309
 20
5.8577509268
 10
18.6790426505
 20
5.9027388646
 10
18.6397341344
 20
5.9469808153
 10
18.5999521683
 20
5.9904321039
 10
18.559715844
 20
6.0330691951
 10
18.5190360114
 20
6.0748777504
 10
18.477937471
 20
6.1158295362
 10
18.4364506405
 20
6.1558924777
 10
18.3945761575
 20
6.1950640202
 10
18.3522931564
 20
6.2333592748
 10
18.3095935433
 20
6.2707784011
 10
18.2665143235
 20
6.3072816361
 10
18.2231017057
 20
6.3428246496
 10
18.1793654754
 20
6.3773951692
 10
18.1353268094
 20
6.4109720083
 10
18.0910500916
 20
6.4435037033
 10
18.0620449244
 20
6.4640195347
  0
LWPOLYLINE
  5
49C
100
AcDbEntity
  8
268200010
100
AcDbPolyline
 62
7
  6
CONTINUOUS
 90
6
 70
0
 10
-1.495119044
 20
-25.5346916009
 10
-1.4901864102
 20
-25.532052538
 10
-1.4803496218
 20
-25.5262016782
 10
-1.4708479411
 20
-25.5197414289
 10
-1.4616947346
 20
-25.5126809349
 10
-1.452902637
 20
-25.505030005
  0
LINE
  5
49D
100
AcDbEntity
  8
268200010
100
AcDbLine
 62
250
  6
CONTINUOUS
 10
-1.3673036541
 20
-25.2653445907
 11
-0.6663677003
 21
-24.903667398
  0
LINE
  5
49E
100
AcDbEntity
  8
268200010
100
AcDbLine
 62
7
  6
CONTINUOUS
 10
-1.495119044
 20
-25.5346916009
 11
-0.794183102
 21
-25.1730144143
  0
LINE
  5
49F
100
AcDbEntity
  8
218140580
100
AcDbLine
 62
250
  6
CONTINUOUS
 10
-5.74605192
 20
19.8656309403
 11
-5.7361630689
 21
19.8684078302
  0
LINE
  5
4A0
100
AcDbEntity
  8
218140580
100
AcDbLine
 62
250
  6
CONTINUOUS
 10
-5.7361630689
 20
19.8684078302
 11
-5.7260949326
 21
19.8711455645
  0
LINE
  5
4A1
100
AcDbEntity
  8
218140580
100
AcDbLine
 62
250
  6
CONTINUOUS
 10
-5.7260949326
 20
19.8711455645
 11
-5.7158469948
 21
19.8738401432
  0
LWPOLYLINE
  5
4A2
100
AcDbEntity
  8
218140580
100
AcDbPolyline
 62
250
  6
CONTINUOUS
 90
3
 70
0
 10
-5.7158469948
 20
19.8738401432
 10
-5.705419209
 20
19.8764874294
 10
-5.7001378557
 20
19.8777928241
  0
LWPOLYLINE
  5
4A3
100
AcDbEntity
  8
218140580
100
AcDbPolyline
 62
250
  6
CONTINUOUS
 90
3
 70
0
 10
-5.7001378557
 20
19.8777928241
 10
-5.6894406288
 20
19.8803628605
 10
-5.6840247553
 20
19.8816275021
  0
LWPOLYLINE
  5
4A4
100
AcDbEntity
  8
218140580
100
AcDbPolyline
 62
250
  6
CONTINUOUS
 90
4
 70
0
 10
-5.6840247553
 20
19.8816275021
 10
-5.673060132
 20
19.8841114972
 10
-5.6675113823
 20
19.8853308507
 10
-5.6619187509
 20
19.8865336331
  0
LWPOLYLINE
  5
4A5
100
AcDbEntity
  8
218140580
100
AcDbPolyline
 62
250
  6
CONTINUOUS
 90
125
 70
0
 10
-5.6619187509
 20
19.8865336331
 10
-5.6506013861
 20
19.8888895736
 10
-5.6448779859
 20
19.8900410767
 10
-5.6391109591
 20
19.8911745357
 10
-5.6333011554
 20
19.892289813
 10
-5.6274522293
 20
19.8933848848
 10
-5.6215632247
 20
19.8944598486
 10
-5.6156350977
 20
19.8955146068
 10
-5.6096743718
 20
19.8965468434
 10
-5.6036792789
 20
19.8975567063
 10
-5.597651587
 20
19.8985440476
 10
-5.5916031233
 20
19.8995061072
 10
-5.5855331508
 20
19.900442778
 10
-5.5794424064
 20
19.9013541671
 10
-5.5733449283
 20
19.9022378362
 10
-5.5672397348
 20
19.9030936573
 10
-5.5611278076
 20
19.9039217585
 10
-5.5550261305
 20
19.9047200846
 10
-5.5489386063
 20
19.905487953
 10
-5.5428613322
 20
19.9062260464
 10
-5.5367995828
 20
19.9069343583
 10
-5.5307547237
 20
19.9076127004
 10
-5.5247253894
 20
19.9082612609
 10
-5.5187127578
 20
19.9088805979
 10
-5.5127164732
 20
19.9094707434
 10
-5.5067368914
 20
19.9100316654
 10
-5.5007762574
 20
19.9105638254
 10
-5.4948345985
 20
19.9110672081
 10
-5.4889118876
 20
19.9115418288
 10
-5.4830102882
 20
19.9119881955
 10
-5.4771298851
 20
19.9124062915
 10
-5.4712705935
 20
19.9127961334
 10
-5.465434324
 20
19.9131582793
 10
-5.4596210417
 20
19.9134927214
 10
-5.4538307815
 20
19.9137994675
 10
-5.4480655578
 20
19.9140790986
 10
-5.4423251764
 20
19.9143316069
 10
-5.4366098315
 20
19.9145570003
 10
-5.4309221213
 20
19.9147558834
 10
-5.4252620025
 20
19.9149282334
 10
-5.4196295183
 20
19.9150740732
 10
-5.4140273968
 20
19.9151940762
 10
-5.4084558651
 20
19.9152882175
 10
-5.4029146961
 20
19.9153565219
 10
-5.3974059366
 20
19.9153997382
 10
-5.3919297695
 20
19.9154178542
 10
-5.3864860119
 20
19.915410882
 10
-5.3810761617
 20
19.9153796062
 10
-5.3757002683
 20
19.915324021
 10
-5.3703582824
 20
19.9152441323
 10
-5.3650515536
 20
19.9151407425
 10
-5.3597800875
 20
19.9150138452
 10
-5.3545438786
 20
19.9148634467
 10
-5.3493442602
 20
19.9146903689
 10
-5.3441812723
 20
19.9144946059
 10
-5.339054875
 20
19.9142761634
 10
-5.333966282
 20
19.9140358802
 10
-5.3289155464
 20
19.9137737525
 10
-5.323902615
 20
19.913489784
 10
-5.3189285429
 20
19.9131848251
 10
-5.3139933614
 20
19.9128588715
 10
-5.3090970391
 20
19.9125119274
 10
-5.3042405366
 20
19.9121448553
 10
-5.2994237832
 20
19.9117576404
 10
-5.2946468496
 20
19.9113502975
 10
-5.2899109086
 20
19.910923734
 10
-5.2852161702
 20
19.9104779617
 10
-5.2805624243
 20
19.9100129688
 10
-5.2759502139
 20
19.9095296273
 10
-5.2713797141
 20
19.9090279576
 10
-5.2668507498
 20
19.9085079394
 10
-5.2623633381
 20
19.9079703832
 10
-5.2579175251
 20
19.9074153013
 10
-5.2535132647
 20
19.9068426814
 10
-5.2491504364
 20
19.906253298
 10
-5.2448290498
 20
19.905647159
 10
-5.2405490953
 20
19.9050242564
 10
-5.2363104235
 20
19.9043853408
 10
-5.2321130517
 20
19.9037304209
 10
-5.2279569625
 20
19.9030594879
 10
-5.2238419537
 20
19.9023732666
 10
-5.2197680649
 20
19.9016717699
 10
-5.2157352566
 20
19.9009549848
 10
-5.2117432085
 20
19.9002235968
 10
-5.2077919927
 20
19.8994776282
 10
-5.2038815372
 20
19.8987170567
 10
-5.2000113049
 20
19.8979425011
 10
-5.1961813357
 20
19.8971539811
 10
-5.1923915897
 20
19.896351477
 10
-5.1886414113
 20
19.8955355482
 10
-5.1849308119
 20
19.8947062102
 10
-5.1812597801
 20
19.8938634475
 10
-5.1776276253
 20
19.8930077734
 10
-5.1740343751
 20
19.8921392083
 10
-5.1704800018
 20
19.8912577316
 10
-5.1669637322
 20
19.8903637949
 10
-5.1634855845
 20
19.8894574185
 10
-5.1600455405
 20
19.888538582
 10
-5.1566427719
 20
19.8876076758
 10
-5.1532772799
 20
19.8866647168
 10
-5.1499490634
 20
19.8857096881
 10
-5.1466572905
 20
19.8847429288
 10
-5.1434019706
 20
19.8837644595
 10
-5.1401830943
 20
19.8827742595
 10
-5.1369998013
 20
19.8817726064
 10
-5.1338520972
 20
19.8807595212
 10
-5.1307399763
 20
19.8797349828
 10
-5.1276625617
 20
19.8786992052
 10
-5.1246198452
 20
19.8776522064
 10
-5.1216118348
 20
19.8765939684
 10
-5.1186376781
 20
19.8755246514
 10
-5.1156973522
 20
19.8744442681
 10
-5.1127908799
 20
19.8733528058
 10
-5.1099174763
 20
19.8722503871
 10
-5.1070771097
 20
19.8711370203
 10
-5.1042698117
 20
19.870012697
 10
-5.1014948922
 20
19.8688775149
 10
-5.0987523299
 20
19.8677314841
 10
-5.0960421459
 20
19.8665745944
 10
-5.0933637137
 20
19.8654069126
 10
-5.0907170226
 20
19.8642284559
 10
-5.0881020831
 20
19.8630392072
 10
-5.0855183005
 20
19.8618391823
 10
-5.0829654765
 20
19.8606283866
 10
-5.0804438094
 20
19.8594068147
  0
LINE
  5
4A6
100
AcDbEntity
  8
268200010
100
AcDbLine
 62
7
  6
CONTINUOUS
 10
-2.5343383844
 20
21.1363069366
 11
-4.2828223074
 21
21.0414878385
  0
LWPOLYLINE
  5
4A7
100
AcDbEntity
  8
RACCORDO
100
AcDbPolyline
 62
7
  6
CONTINUOUS
 90
9
 70
0
 10
11.9019030076
 20
19.9708902141
 10
11.895786267
 20
19.9724897118
 10
11.8860160533
 20
19.9740225256
 10
11.8756898578
 20
19.97443797
 10
11.8649026607
 20
19.9737361975
 10
11.8539394017
 20
19.9719176662
 10
11.842895061
 20
19.9689825287
 10
11.8316746585
 20
19.9649306323
 10
11.8202781943
 20
19.959761977
  0
LINE
  5
4A8
100
AcDbEntity
  8
0
100
AcDbLine
 62
7
  6
CONTINUOUS
 10
10.5088402088
 20
19.3040429843
 11
10.0590955475
 21
19.4257908175
  0
LWPOLYLINE
  5
4A9
100
AcDbEntity
  8
RACCORDO
100
AcDbPolyline
 62
7
  6
CONTINUOUS
 90
28
 70
0
 10
11.9018928713
 20
19.9708662616
 10
11.7931775248
 20
20.0021521074
 10
11.6783224818
 20
20.0315057844
 10
11.5610610578
 20
20.0578328546
 10
11.441687893
 20
20.0810949463
 10
11.3204675214
 20
20.1012654991
 10
11.1976381519
 20
20.1183247744
 10
11.0734893545
 20
20.132248616
 10
10.9483058914
 20
20.143019285
 10
10.8223253739
 20
20.1506266847
 10
10.6958389878
 20
20.1550600634
 10
10.5691362649
 20
20.1563146181
 10
10.4424545194
 20
20.154389845
 10
10.3160832496
 20
20.14928851
 10
10.190313659
 20
20.1410192979
 10
10.0653840597
 20
20.1295914224
 10
9.9415851851
 20
20.1150215901
 10
9.8192004327
 20
20.0973315686
 10
9.6984519965
 20
20.0765373932
 10
9.5796170754
 20
20.0526657932
 10
9.462981252
 20
20.0257507414
 10
9.348769679
 20
19.9958159741
 10
9.2372545008
 20
19.9628988702
 10
9.1287083044
 20
19.9270422354
 10
9.0233414128
 20
19.8882706178
 10
8.9213946303
 20
19.8466178095
 10
8.8231484929
 20
19.8021370349
 10
8.7288644317
 20
19.7548796455
  0
LWPOLYLINE
  5
4AA
100
AcDbEntity
  8
218140580
100
AcDbPolyline
 62
250
  6
CONTINUOUS
 90
24
 70
0
 10
-3.4707522914
 20
24.0468197976
 10
-3.4911710504
 20
24.056803204
 10
-3.5115829768
 20
24.0660405501
 10
-3.5319708055
 20
24.0745240227
 10
-3.5523172921
 20
24.0822464462
 10
-3.5726052268
 20
24.0892012889
 10
-3.5928174495
 20
24.095382668
 10
-3.6129368643
 20
24.1007853552
 10
-3.6329464534
 20
24.1054047808
 10
-3.6528292924
 20
24.1092370375
 10
-3.6725685636
 20
24.1122788839
 10
-3.692147571
 20
24.1145277471
 10
-3.7115497543
 20
24.1159817249
 10
-3.7307587024
 20
24.1166395876
 10
-3.749758168
 20
24.1165007788
 10
-3.7685320807
 20
24.1155654157
 10
-3.787064561
 20
24.1138342896
 10
-3.8053399337
 20
24.1113088647
 10
-3.8233427408
 20
24.1079912771
 10
-3.8410577552
 20
24.1038843329
 10
-3.858469993
 20
24.0989915058
 10
-3.8755647264
 20
24.0933169344
 10
-3.8923274963
 20
24.0868654184
 10
-3.9096370419
 20
24.0792227326
  0
LINE
  5
4AB
100
AcDbEntity
  8
218140580
100
AcDbLine
 62
7
  6
CONTINUOUS
 10
2.8716427652
 20
21.1154332198
 11
-3.0358794109
 21
24.0691831272
  0
LWPOLYLINE
  5
4AC
100
AcDbEntity
  8
218140580
100
AcDbPolyline
 62
250
  6
CONTINUOUS
 90
25
 70
0
 10
4.5365149676
 20
21.0630562027
 10
4.5173730328
 20
21.072626445
 10
4.4982362608
 20
21.0815274462
 10
4.4791191782
 20
21.0897524496
 10
4.4600362967
 20
21.0972952116
 10
4.4410021019
 20
21.1041500066
 10
4.4220310424
 20
21.1103116312
 10
4.4031375192
 20
21.1157754081
 10
4.384335874
 20
21.12053719
 10
4.365640379
 20
21.124593362
 10
4.3470652259
 20
21.1279408454
 10
4.3286245148
 20
21.130577099
 10
4.310332244
 20
21.1325001216
 10
4.292202299
 20
21.1337084536
 10
4.2742484421
 20
21.1342011777
 10
4.2564843018
 20
21.1339779199
 10
4.2389233628
 20
21.1330388497
 10
4.2215789554
 20
21.1313846799
 10
4.2044642457
 20
21.1290166662
 10
4.1875922252
 20
21.1259366063
 10
4.1709757014
 20
21.122146838
 10
4.1546272876
 20
21.1176502383
 10
4.138559394
 20
21.1124502204
 10
4.1227842174
 20
21.1065507316
 10
4.1073137326
 20
21.0999562503
  0
LINE
  5
4AD
100
AcDbEntity
  8
0
100
AcDbLine
 62
7
  6
CONTINUOUS
 10
9.5641208006
 20
19.1783034441
 11
8.8571518605
 21
19.5317879141
  0
LINE
  5
4AE
100
AcDbEntity
  8
0
100
AcDbLine
 62
7
  6
CONTINUOUS
 10
10.0590955475
 20
19.4257908175
 11
9.3521266073
 21
19.7792752875
  0
LINE
  5
4AF
100
AcDbEntity
  8
218140580
100
AcDbLine
 62
7
  6
CONTINUOUS
 10
9.0975681661
 20
20.2693739984
 11
8.6658533693
 21
20.4852313968
  0
LINE
  5
4B0
100
AcDbEntity
  8
0
100
AcDbLine
 62
7
  6
CONTINUOUS
 10
9.5641208006
 20
19.1783034441
 11
9.7338081885
 21
19.0215942962
  0
LWPOLYLINE
  5
4B1
100
AcDbEntity
  8
218140580
100
AcDbPolyline
 62
7
  6
CONTINUOUS
 90
59
 70
0
 10
19.7325280638
 20
15.5203935456
 10
19.7261398867
 20
15.571021056
 10
19.7180043617
 20
15.6286290095
 10
19.7089335871
 20
15.6863778733
 10
19.6989347746
 20
15.7442438068
 10
19.6880152645
 20
15.802203517
 10
19.6761825588
 20
15.8602339106
 10
19.663448403
 20
15.9182940568
 10
19.6498174678
 20
15.9763775436
 10
19.6352846313
 20
16.034512771
 10
19.6198471296
 20
16.0927087252
 10
19.603519279
 20
16.150909053
 10
19.5863217512
 20
16.2090438361
 10
19.5682676921
 20
16.2670763919
 10
19.549362651
 20
16.3249958944
 10
19.5296187795
 20
16.3827710884
 10
19.5090490756
 20
16.4403703788
 10
19.4876611612
 20
16.4977782907
 10
19.4654591751
 20
16.5549875534
 10
19.4424501397
 20
16.611982071
 10
19.4186472148
 20
16.6687309118
 10
19.3940637234
 20
16.7252044455
 10
19.3687121747
 20
16.7813762775
 10
19.3426024552
 20
16.83722654
 10
19.3157444479
 20
16.8927355074
 10
19.2881490924
 20
16.9478814986
 10
19.2598287633
 20
17.0026404756
 10
19.2307957108
 20
17.0569893041
 10
19.2010640661
 20
17.1109020586
 10
19.1706444085
 20
17.1643598739
 10
19.1395435774
 20
17.2173502331
 10
19.107773881
 20
17.2698510323
 10
19.0753480544
 20
17.32183993
 10
19.0422730975
 20
17.3733038479
 10
19.0085555988
 20
17.4242297178
 10
18.9742142912
 20
17.4745862983
 10
18.9392748919
 20
17.5243339991
 10
18.9037572139
 20
17.5734437353
 10
18.8676694862
 20
17.6219030901
 10
18.8310205267
 20
17.6696983636
 10
18.7938284407
 20
17.7168038617
 10
18.7561034174
 20
17.7632044481
 10
18.7178414236
 20
17.8089015076
 10
18.6790426429
 20
17.8538894455
 10
18.6397341265
 20
17.8981313963
 10
18.5999521601
 20
17.9415826849
 10
18.5597158356
 20
17.9842197761
 10
18.5190360026
 20
18.0260283315
 10
18.477937462
 20
18.0669801172
 10
18.4364506313
 20
18.1070430587
 10
18.3945761479
 20
18.1462146012
 10
18.3522931466
 20
18.1845098558
 10
18.3095935332
 20
18.221928982
 10
18.2665143131
 20
18.258432217
 10
18.2231016951
 20
18.2939752304
 10
18.1793654645
 20
18.3285457499
 10
18.1353267982
 20
18.3621225889
 10
18.0910500801
 20
18.3946542838
 10
18.0620449244
 20
18.4151701069
  0
LINE
  5
4B2
100
AcDbEntity
  8
268200010
100
AcDbLine
 62
250
  6
CONTINUOUS
 10
-2.0747189766
 20
-26.9467856365
 11
-1.5464518049
 21
-26.6757745779
  0
LINE
  5
4B3
100
AcDbEntity
  8
268200010
100
AcDbLine
 62
7
  6
CONTINUOUS
 10
-2.1388240764
 20
-27.0815634076
 11
-1.6101398424
 21
-26.8103383882
  0
LINE
  5
4B4
100
AcDbEntity
  8
268200010
100
AcDbLine
 62
7
  6
CONTINUOUS
 10
-2.1388240783
 20
-27.0815634086
 11
-2.1405604894
 21
-27.0824316285
  0
LINE
  5
4B5
100
AcDbEntity
  8
268200010
100
AcDbLine
 62
250
  6
CONTINUOUS
 10
-3.6759997675
 20
-27.7268202362
 11
-2.0747189766
 21
-26.9467856365
  0
LINE
  5
4B6
100
AcDbEntity
  8
268200010
100
AcDbLine
 62
7
  6
CONTINUOUS
 10
-3.74226136
 20
-27.8626708624
 11
-2.1405604902
 21
-27.0824316289
  0
LWPOLYLINE
  5
4B7
100
AcDbEntity
  8
268200010
100
AcDbPolyline
 62
7
  6
CONTINUOUS
 90
3
 70
0
 10
-1.5091982911
 20
-25.5412335133
 10
-1.5003623766
 20
-25.5372942945
 10
-1.495119044
 20
-25.5346916009
  0
LINE
  5
4B8
100
AcDbEntity
  8
268200010
100
AcDbLine
 62
250
  6
CONTINUOUS
 10
-2.4474033891
 20
-25.7176623452
 11
-1.3682128905
 21
-25.2646620091
  0
LINE
  5
4B9
100
AcDbEntity
  8
290200030
100
AcDbLine
 62
250
  6
CONTINUOUS
 10
-5.9918265227
 20
-27.2829296265
 11
-4.7901127131
 21
-26.7784989812
  0
LINE
  5
4BA
100
AcDbEntity
  8
268200010
100
AcDbLine
 62
7
  6
CONTINUOUS
 10
-2.5886691428
 20
-25.9935936347
 11
-1.5094690815
 21
-25.5405892846
  0
LINE
  5
4BB
100
AcDbEntity
  8
290200030
100
AcDbLine
 62
7
  6
CONTINUOUS
 10
-4.9313784668
 20
-27.0544302708
 11
-6.1459198612
 21
-27.5642451497
  0
LWPOLYLINE
  5
4BC
100
AcDbEntity
  8
268200010
100
AcDbPolyline
 62
7
  6
CONTINUOUS
 90
10
 70
0
 10
-6.3087475907
 20
22.3208664751
 10
-6.3162030495
 20
22.3188717577
 10
-6.3240707885
 20
22.3165951432
 10
-6.3323574087
 20
22.3140486355
 10
-6.3410524757
 20
22.3112386043
 10
-6.3501364887
 20
22.3081702369
 10
-6.3596080048
 20
22.3048551267
 10
-6.3694579015
 20
22.3013010664
 10
-6.3796673714
 20
22.2975112997
 10
-6.3902218627
 20
22.293490835
  0
LWPOLYLINE
  5
4BD
100
AcDbEntity
  8
268200010
100
AcDbPolyline
 62
7
  6
CONTINUOUS
 90
17
 70
0
 10
-7.0068524087
 20
22.6213995942
 10
-6.9952010285
 20
22.6239380544
 10
-6.9832016658
 20
22.6258783872
 10
-6.9708592742
 20
22.6272108608
 10
-6.9581656675
 20
22.627919156
 10
-6.9451385715
 20
22.6279974366
 10
-6.9317827192
 20
22.6274364538
 10
-6.9180676186
 20
22.626211862
 10
-6.9040169326
 20
22.6243211346
 10
-6.8896296131
 20
22.6217482134
 10
-6.8748331817
 20
22.6184420755
 10
-6.8596203626
 20
22.6143884718
 10
-6.8440199857
 20
22.6095732329
 10
-6.8280110192
 20
22.603939147
 10
-6.8116031615
 20
22.5974679721
 10
-6.7948172415
 20
22.5901459037
 10
-6.7777932358
 20
22.5819908979
  0
LWPOLYLINE
  5
4BE
100
AcDbEntity
  8
RACCORDO
100
AcDbPolyline
 62
7
  6
CONTINUOUS
 90
3
 70
0
 10
11.9139436893
 20
19.9660724334
 10
11.905095479
 20
19.969839681
 10
11.9019030076
 20
19.9708902141
  0
LINE
  5
4BF
100
AcDbEntity
  8
218140580
100
AcDbLine
 62
7
  6
CONTINUOUS
 10
13.2181611847
 20
20.1171776395
 11
12.7234916755
 21
20.3645123941
  0
LINE
  5
4C0
100
AcDbEntity
  8
RACCORDO
100
AcDbLine
 62
7
  6
CONTINUOUS
 10
12.7624718268
 20
19.5418083647
 11
12.8357317219
 21
19.5051504738
  0
LWPOLYLINE
  5
4C1
100
AcDbEntity
  8
RACCORDO
100
AcDbPolyline
 62
7
  6
CONTINUOUS
 90
6
 70
0
 10
12.3458170727
 20
19.7482218344
 10
12.2558098433
 20
19.7939604661
 10
12.1676232153
 20
19.8386152692
 10
12.0812427719
 20
19.8821848193
 10
11.9966829299
 20
19.9246705407
 10
11.9139436893
 20
19.9660724334
  0
LINE
  5
4C2
100
AcDbEntity
  8
RACCORDO
100
AcDbLine
 62
7
  6
CONTINUOUS
 10
12.531437504
 20
19.653507327
 11
12.3458170727
 21
19.7482218344
  0
LINE
  5
4C3
100
AcDbEntity
  8
RACCORDO
100
AcDbLine
 62
7
  6
CONTINUOUS
 10
12.7245277595
 20
19.5544760197
 11
12.531437504
 21
19.653507327
  0
LINE
  5
4C4
100
AcDbEntity
  8
RACCORDO
100
AcDbLine
 62
7
  6
CONTINUOUS
 10
12.7322861881
 20
19.5498895476
 11
12.7245277595
 21
19.5544760197
  0
LWPOLYLINE
  5
4C5
100
AcDbEntity
  8
RACCORDO
100
AcDbPolyline
 62
250
  6
CONTINUOUS
 90
4
 70
0
 10
12.7624718268
 20
19.5418083647
 10
12.7869948171
 20
19.5213039863
 10
12.8113605787
 20
19.5000257219
 10
12.8160564423
 20
19.4957334521
  0
LWPOLYLINE
  5
4C6
100
AcDbEntity
  8
RACCORDO
100
AcDbPolyline
 62
250
  6
CONTINUOUS
 90
5
 70
0
 10
12.6688352276
 20
19.5355123563
 10
12.691695657
 20
19.5159336228
 10
12.7142731953
 20
19.4955805763
 10
12.7365678425
 20
19.4744532167
 10
12.7479814325
 20
19.4631512549
  0
LWPOLYLINE
  5
4C7
100
AcDbEntity
  8
218140580
100
AcDbPolyline
 62
250
  6
CONTINUOUS
 90
26
 70
0
 10
11.1055417282
 20
23.918375073
 10
11.0982582379
 20
23.9219190214
 10
11.0830105363
 20
23.9287248455
 10
11.0674474633
 20
23.9348587772
 10
11.0515805759
 20
23.9403162615
 10
11.0354216572
 20
23.9450932456
 10
11.0189827067
 20
23.949186182
 10
11.0022759321
 20
23.9525920315
 10
10.98531374
 20
23.9553082646
 10
10.9681087266
 20
23.9573328645
 10
10.9506736684
 20
23.9586643275
 10
10.9330215129
 20
23.959301665
 10
10.9151653685
 20
23.9592444035
 10
10.8971184953
 20
23.9584925858
 10
10.8788942952
 20
23.95704677
 10
10.8605063014
 20
23.9549080299
 10
10.8419681689
 20
23.9520779536
 10
10.8232936644
 20
23.9485586428
 10
10.8044966556
 20
23.944352711
 10
10.7855911012
 20
23.9394632816
 10
10.7665910406
 20
23.9338939853
 10
10.7475105834
 20
23.9276489581
 10
10.7283638988
 20
23.9207328375
 10
10.7091652053
 20
23.9131507594
 10
10.6899287599
 20
23.9049083544
 10
10.6706688477
 20
23.8960117433
  0
LINE
  5
4C8
100
AcDbEntity
  8
218140580
100
AcDbLine
 62
7
  6
CONTINUOUS
 10
15.7530636574
 20
20.9014497158
 11
12.6684574111
 21
22.443752839
  0
LINE
  5
4C9
100
AcDbEntity
  8
218140580
100
AcDbLine
 62
250
  6
CONTINUOUS
 10
16.7604085619
 20
20.8511418863
 11
16.216332032
 21
21.1231801512
  0
LWPOLYLINE
  5
4CA
100
AcDbEntity
  8
218140580
100
AcDbPolyline
 62
250
  6
CONTINUOUS
 90
26
 70
0
 10
11.6201379543
 20
23.4212771901
 10
10.6515269154
 20
23.9055819845
 10
10.6323901458
 20
23.9144829847
 10
10.6132730656
 20
23.9227079873
 10
10.5941901863
 20
23.9302507487
 10
10.5751559935
 20
23.9371055433
 10
10.556184936
 20
23.9432671677
 10
10.5372914146
 20
23.9487309447
 10
10.5184897711
 20
23.9534927266
 10
10.4997942777
 20
23.957548899
 10
10.481219126
 20
23.9608963828
 10
10.4627784162
 20
23.963532637
 10
10.4444861466
 20
23.9654556603
 10
10.4263562026
 20
23.9666639932
 10
10.4084023465
 20
23.9671567182
 10
10.390638207
 20
23.9669334614
 10
10.3730772686
 20
23.9659943923
 10
10.3557328617
 20
23.9643402236
 10
10.3386181523
 20
23.9619722112
 10
10.3217461321
 20
23.9588921524
 10
10.3051296084
 20
23.9551023855
 10
10.2887811946
 20
23.950605787
 10
10.2727133008
 20
23.9454057704
 10
10.256938124
 20
23.9395062829
 10
10.2414676389
 20
23.9329118029
 10
10.2390494226
 20
23.9318054497
  0
LINE
  5
4CB
100
AcDbEntity
  8
218140580
100
AcDbLine
 62
7
  6
CONTINUOUS
 10
11.1055417282
 20
23.918375073
 11
12.1425733303
 21
23.3998592719
  0
LINE
  5
4CC
100
AcDbEntity
  8
218140580
100
AcDbLine
 62
7
  6
CONTINUOUS
 10
17.1952814424
 20
20.8735052159
 11
16.563642417
 21
21.1893247286
  0
LWPOLYLINE
  5
4CD
100
AcDbEntity
  8
218140580
100
AcDbPolyline
 62
250
  6
CONTINUOUS
 90
58
 70
0
 10
18.0620449244
 20
18.3286248139
 10
18.0761191815
 20
18.3177497733
 10
18.1191501452
 20
18.2833191394
 10
18.161947377
 20
18.2478886104
 10
18.2044915786
 20
18.2114741603
 10
18.246763523
 20
18.1740922438
 10
18.2887440969
 20
18.1357597628
 10
18.3304143309
 20
18.0964940407
 10
18.3717554342
 20
18.0563127861
 10
18.4127487719
 20
18.0152341109
 10
18.4533758556
 20
17.9732765404
 10
18.493618328
 20
17.9304590308
 10
18.5334579996
 20
17.8868009357
 10
18.5728768724
 20
17.8423219797
 10
18.6118571667
 20
17.7970422265
 10
18.6503813057
 20
17.7509820937
 10
18.68843191
 20
17.7041623589
 10
18.725991791
 20
17.6566041703
 10
18.7630439785
 20
17.6083290157
 10
18.7995717382
 20
17.559358699
 10
18.8355585899
 20
17.5097153154
 10
18.8709882996
 20
17.45942126
 10
18.9058448789
 20
17.4084992276
 10
18.9401125872
 20
17.3569722132
 10
18.9737759487
 20
17.3048634867
 10
19.0068197644
 20
17.2521965759
 10
19.0392291211
 20
17.1989952508
 10
19.0709893913
 20
17.1452835231
 10
19.1020862383
 20
17.0910856381
 10
19.1325056242
 20
17.0364260626
 10
19.1622338178
 20
16.9813294689
 10
19.1912574011
 20
16.9258207253
 10
19.2195632704
 20
16.8699248925
 10
19.2471386441
 20
16.8136672108
 10
19.273971071
 20
16.7570730833
 10
19.3000484422
 20
16.7001680503
 10
19.3253589928
 20
16.6429777852
 10
19.3498913014
 20
16.5855280928
 10
19.3736342885
 20
16.5278449183
 10
19.3965772274
 20
16.4699543214
 10
19.4187097562
 20
16.4118824507
 10
19.4400218905
 20
16.3536555053
 10
19.4605040194
 20
16.2952997431
 10
19.4801469028
 20
16.2368414873
 10
19.4989416659
 20
16.1783071463
 10
19.5168798142
 20
16.1197231753
 10
19.5339532445
 20
16.0611160432
 10
19.5501542574
 20
16.0025121833
 10
19.5654755497
 20
15.9439380132
 10
19.5799102104
 20
15.8854199486
 10
19.5934517157
 20
15.8269844314
 10
19.6060939432
 20
15.7686578813
 10
19.6178311816
 20
15.7104666558
 10
19.6286581398
 20
15.6524369951
 10
19.6385699385
 20
15.5945950508
 10
19.6475621044
 20
15.5369669197
 10
19.6556305747
 20
15.4795786308
 10
19.662771706
 20
15.4224560904
  0
LWPOLYLINE
  5
4CE
100
AcDbEntity
  8
218140580
100
AcDbPolyline
 62
250
  6
CONTINUOUS
 90
27
 70
0
 10
17.245722909
 20
20.3725599461
 10
17.2306924779
 20
20.3972214472
 10
17.2152538294
 20
20.4215292709
 10
17.1994200219
 20
20.4454628569
 10
17.183204448
 20
20.4690019615
 10
17.1666208235
 20
20.4921266748
 10
17.1496831751
 20
20.5148174371
 10
17.1324058292
 20
20.537055056
 10
17.1148033994
 20
20.5588207223
 10
17.0968907745
 20
20.580096026
 10
17.0786831053
 20
20.6008629718
 10
17.0601957925
 20
20.6211039944
 10
17.0414444731
 20
20.6408019735
 10
17.0224450076
 20
20.659940248
 10
17.0032134661
 20
20.6785026301
 10
16.9837661153
 20
20.6964734192
 10
16.9641194044
 20
20.7138374152
 10
16.9442899509
 20
20.7305799312
 10
16.9242945274
 20
20.7466868057
 10
16.9041500463
 20
20.7621444152
 10
16.8838735466
 20
20.7769396853
 10
16.8634821785
 20
20.7910601015
 10
16.8429931898
 20
20.8044937206
 10
16.8224239106
 20
20.8172291799
 10
16.801791739
 20
20.8292557075
 10
16.7811141261
 20
20.840563131
 10
16.7604085619
 20
20.8511418863
  0
LINE
  5
4CF
100
AcDbEntity
  8
218140580
100
AcDbLine
 62
250
  6
CONTINUOUS
 10
17.3672342491
 20
20.1631872273
 11
17.245722909
 21
20.3725599461
  0
LINE
  5
4D0
100
AcDbEntity
  8
218140580
100
AcDbLine
 62
7
  6
CONTINUOUS
 10
17.7200774979
 20
20.2962855847
 11
17.6131756582
 21
20.4806639844
  0
ARC
  5
4D1
100
AcDbEntity
  8
218140580
100
AcDbCircle
 62
7
  6
CONTINUOUS
 10
10.6583281327
 20
23.023947882
 40
1.0
100
AcDbArc
 50
63.4349488229
 51
114.7894524371
  0
ARC
  5
4D2
100
AcDbEntity
  8
218140580
100
AcDbCircle
 62
7
  6
CONTINUOUS
 10
17.0620449244
 20
-2.8606339421
 40
1.0
100
AcDbArc
 50
298.3476707551
 51
360.0
  0
ARC
  5
4D3
100
AcDbEntity
  8
218140580
100
AcDbCircle
 62
7
  6
CONTINUOUS
 10
16.7480678469
 20
19.9790780249
 40
1.0
100
AcDbArc
 50
30.1049527557
 51
63.4349488229
  0
ARC
  5
4D4
100
AcDbEntity
  8
218140580
100
AcDbCircle
 62
7
  6
CONTINUOUS
 10
-3.4830930064
 20
23.1747559362
 40
1.0
100
AcDbArc
 50
63.4349373369
 51
115.2504241015
  0
ARC
  5
4D5
100
AcDbEntity
  8
218140580
100
AcDbCircle
 62
7
  6
CONTINUOUS
 10
9.7281247366
 20
-15.5145852979
 40
1.0
100
AcDbArc
 50
297.8702635617
 51
305.9325291988
  0
ARC
  5
4D6
100
AcDbEntity
  8
268200010
100
AcDbCircle
 62
7
  6
CONTINUOUS
 10
-1.7242539479
 20
-26.240370429
 40
0.25
100
AcDbArc
 50
359.9569896646
 51
63.4349488229
  0
ARC
  5
4D7
100
AcDbEntity
  8
268200010
100
AcDbCircle
 62
7
  6
CONTINUOUS
 10
-1.7242539479
 20
15.0592337104
 40
0.25
100
AcDbArc
 50
320.5925343592
 51
359.9975470757
  0
ARC
  5
4D8
100
AcDbEntity
  8
268200010
100
AcDbCircle
 62
7
  6
CONTINUOUS
 10
-3.8517450318
 20
14.0016589088
 40
0.25
100
AcDbArc
 50
243.4343157736
 51
258.2056474489
  0
ARC
  5
4D9
100
AcDbEntity
  8
268200010
100
AcDbCircle
 62
7
  6
CONTINUOUS
 10
-5.5302831022
 20
14.840927944
 40
0.25
100
AcDbArc
 50
179.9936221471
 51
243.4636106875
  0
ARC
  5
4DA
100
AcDbEntity
  8
268200010
100
AcDbCircle
 62
7
  6
CONTINUOUS
 10
-14.0279119405
 20
21.2110627067
 40
0.25
100
AcDbArc
 50
320.5925343592
 51
359.9975470757
  0
ARC
  5
4DB
100
AcDbEntity
  8
268200010
100
AcDbCircle
 62
7
  6
CONTINUOUS
 10
-16.1554030245
 20
20.1534879052
 40
0.25
100
AcDbArc
 50
243.4329149157
 51
258.2060367178
  0
ARC
  5
4DC
100
AcDbEntity
  8
268200010
100
AcDbCircle
 62
7
  6
CONTINUOUS
 10
-17.8339410949
 20
20.9927569404
 40
0.25
100
AcDbArc
 50
179.9569896646
 51
243.4349488229
  0
ARC
  5
4DD
100
AcDbEntity
  8
268200010
100
AcDbCircle
 62
7
  6
CONTINUOUS
 10
-17.8339410949
 20
21.3327308745
 40
0.25
100
AcDbArc
 50
117.1586821941
 51
179.9961222374
  0
ARC
  5
4DE
100
AcDbEntity
  8
268200010
100
AcDbCircle
 62
7
  6
CONTINUOUS
 10
-3.415133499
 20
16.2522050027
 40
0.25
100
AcDbArc
 50
63.3939681258
 51
115.9721801256
  0
ARC
  5
4DF
100
AcDbEntity
  8
268200010
100
AcDbCircle
 62
7
  6
CONTINUOUS
 10
-5.5302831022
 20
15.1809018782
 40
0.25
100
AcDbArc
 50
117.1586821941
 51
179.9961222374
  0
ARC
  5
4E0
100
AcDbEntity
  8
268200010
100
AcDbCircle
 62
7
  6
CONTINUOUS
 10
-1.7242539479
 20
15.4067652272
 40
0.25
100
AcDbArc
 50
0.0057333847
 51
63.4349488229
  0
ARC
  5
4E1
100
AcDbEntity
  8
268200010
100
AcDbCircle
 62
7
  6
CONTINUOUS
 10
-1.7242539479
 20
-26.5879019457
 40
0.25
100
AcDbArc
 50
297.1142389129
 51
359.9691465085
  0
ARC
  5
4E2
100
AcDbEntity
  8
268200010
100
AcDbCircle
 62
7
  6
CONTINUOUS
 10
-15.7187914917
 20
22.4040339991
 40
0.25
100
AcDbArc
 50
63.4349488229
 51
116.0140441013
  0
ARC
  5
4E3
100
AcDbEntity
  8
268200010
100
AcDbCircle
 62
7
  6
CONTINUOUS
 10
-14.0279119405
 20
21.5585942235
 40
0.25
100
AcDbArc
 50
0.0057333847
 51
63.4349488229
  0
ARC
  5
4E4
100
AcDbEntity
  8
268200010
100
AcDbCircle
 62
7
  6
CONTINUOUS
 10
-3.8517450318
 20
-27.6379191647
 40
0.25
100
AcDbArc
 50
243.4349488229
 51
296.0140441013
  0
ARC
  5
4E5
100
AcDbEntity
  8
268200010
100
AcDbCircle
 62
7
  6
CONTINUOUS
 10
-8.6154567026
 20
17.7224610602
 40
0.2
100
AcDbArc
 50
116.894582951
 51
180.0
  0
ELLIPSE
  5
4E6
100
AcDbEntity
  8
290200030
100
AcDbEllipse
 62
7
  6
CONTINUOUS
 10
-3.3121827718
 20
-7.4627947628
 30
0.0
 11
-0.1117903878
 21
0.2236141634
 31
0.0
 40
0.6125552124
 41
-2.255296188
 42
-0.6848044477
  0
ELLIPSE
  5
4E7
100
AcDbEntity
  8
290200030
100
AcDbEllipse
 62
7
  6
CONTINUOUS
 10
-5.1437199598
 20
-26.6012993063
 30
0.0
 11
-0.2234618187
 21
0.4480306886
 31
0.0
 40
0.6116748051
 41
-3.1815309157
 42
-2.2548620396
  0
ELLIPSE
  5
4E8
100
AcDbEntity
  8
290200030
100
AcDbEllipse
 62
7
  6
CONTINUOUS
 10
-20.1482107509
 20
18.4929887241
 30
0.0
 11
-0.2234618187
 21
0.4480306886
 31
0.0
 40
0.6116748051
 41
-0.6831523243
 42
0.03993823
  0
ELLIPSE
  5
4E9
100
AcDbEntity
  8
290200030
100
AcDbEllipse
 62
7
  6
CONTINUOUS
 10
-3.3121827718
 20
-6.7266072096
 30
0.0
 11
-0.1118504554
 21
0.2236675568
 31
0.0
 40
0.6121897086
 41
-3.1606090139
 42
-2.2557347926
  0
ELLIPSE
  5
4EA
100
AcDbEntity
  8
290200030
100
AcDbEllipse
 62
7
  6
CONTINUOUS
 10
-5.1437199598
 20
10.9907433286
 30
0.0
 11
-0.2230998035
 21
0.4477110033
 31
0.0
 40
0.6127700112
 41
-2.2535417632
 42
-0.6836588249
  0
ELLIPSE
  5
4EB
100
AcDbEntity
  8
268200010
100
AcDbEllipse
 62
7
  6
CONTINUOUS
 10
-7.0643234212
 20
22.1662388982
 30
0.0
 11
0.2257019663
 21
0.4461636818
 31
0.0
 40
0.6159267166
 41
0.5882567743
 42
0.6817883054
  0
ELLIPSE
  5
4EC
100
AcDbEntity
  8
268200010
100
AcDbEllipse
 62
7
  6
CONTINUOUS
 10
-9.3932741619
 20
19.0270817335
 30
0.0
 11
-0.0894407211
 21
0.1788887077
 31
0.0
 40
0.6123703628
 41
-2.2554972904
 42
-0.6847009636
  0
ELLIPSE
  5
4ED
100
AcDbEntity
  8
268200010
100
AcDbEllipse
 62
7
  6
CONTINUOUS
 10
-7.6962178871
 20
18.1785535961
 30
0.0
 11
-0.0894407211
 21
0.1788887077
 31
0.0
 40
0.6123703628
 41
-0.6847009636
 42
-0.0034907027
  0
ELLIPSE
  5
4EE
100
AcDbEntity
  8
268200010
100
AcDbEllipse
 62
7
  6
CONTINUOUS
 10
4.5776837241
 20
17.3851430796
 30
0.0
 11
0.499996712
 21
0.0035883639
 31
0.0
 40
0.5053247124
 41
-0.7715714568
 42
-0.0036266526
  0
ELLIPSE
  5
4EF
100
AcDbEntity
  8
268200010
100
AcDbEllipse
 62
7
  6
CONTINUOUS
 10
-6.9225349328
 20
23.0849575491
 30
0.0
 11
1.004787277
 21
0.6140102217
 31
0.0
 40
0.0864918533
 41
0.0540072115
 42
0.7329085821
  0
ELLIPSE
  5
4F0
100
AcDbEntity
  8
268200010
100
AcDbEllipse
 62
7
  6
CONTINUOUS
 10
4.6822852888
 20
-19.667427598
 30
0.0
 11
0.9927147821
 21
0.620457446
 31
0.0
 40
0.0764819879
 41
-2.4043514965
 42
-1.2246750713
  0
ELLIPSE
  5
4F1
100
AcDbEntity
  8
268200010
100
AcDbEllipse
 62
7
  6
CONTINUOUS
 10
-1.0199345536
 20
13.1949592653
 30
0.0
 11
-0.223611546
 21
0.4472115081
 31
0.0
 40
0.6124054886
 41
-2.2555017776
 42
-0.6847562194
  0
ELLIPSE
  5
4F2
100
AcDbEntity
  8
268200010
100
AcDbEllipse
 62
7
  6
CONTINUOUS
 10
-1.0199345536
 20
-24.7268619875
 30
0.0
 11
-0.2236315662
 21
0.4472293059
 31
0.0
 40
0.6123445654
 41
-3.1338271467
 42
-2.2555748796
  0
ELLIPSE
  5
4F3
100
AcDbEntity
  8
268200010
100
AcDbEllipse
 62
7
  6
CONTINUOUS
 10
-4.8272901479
 20
13.8889721379
 30
0.0
 11
0.249929385
 21
0.0111824824
 31
0.0
 40
0.5313301283
 41
3.1178240551
 42
3.9032222197
  0
ELLIPSE
  5
4F4
100
AcDbEntity
  8
268200010
100
AcDbEllipse
 62
7
  6
CONTINUOUS
 10
-17.1309481406
 20
20.0408011342
 30
0.0
 11
0.249929385
 21
0.0111824824
 31
0.0
 40
0.5313301283
 41
3.1178240551
 42
3.9032222197
  0
ELLIPSE
  5
4F5
100
AcDbEntity
  8
268200010
100
AcDbEllipse
 62
7
  6
CONTINUOUS
 10
-15.4441824164
 20
19.1974182721
 30
0.0
 11
0.249929385
 21
0.0111824824
 31
0.0
 40
0.5313301283
 41
-2.3799630874
 42
-0.8149845248
  0
ELLIPSE
  5
4F6
100
AcDbEntity
  8
268200010
100
AcDbEllipse
 62
7
  6
CONTINUOUS
 10
4.5776837241
 20
-19.8173522635
 30
0.0
 11
0.499443764
 21
0.3120915671
 31
0.0
 40
0.0755486457
 41
5.9989940659
 42
7.0039564932
  0
ELLIPSE
  5
4F7
100
AcDbEntity
  8
268200010
100
AcDbEllipse
 62
7
  6
CONTINUOUS
 10
4.5776837241
 20
18.2441804497
 30
0.0
 11
-0.3739417019
 21
0.598522373
 31
0.0
 40
0.554557473
 41
-3.1836090632
 42
-2.178646636
  0
ELLIPSE
  5
4F8
100
AcDbEntity
  8
268200010
100
AcDbEllipse
 62
7
  6
CONTINUOUS
 10
-3.9013245124
 20
8.4096792182
 30
0.0
 11
0.2999918237
 21
0.0043377328
 31
0.0
 40
0.5106100819
 41
-2.3635775243
 42
-0.81023449
  0
ELLIPSE
  5
4F9
100
AcDbEntity
  8
268200010
100
AcDbEllipse
 62
7
  6
CONTINUOUS
 10
-4.246969533
 20
8.5825017285
 30
0.0
 11
0.2999918237
 21
0.0043377328
 31
0.0
 40
0.5106100819
 41
3.1342096197
 42
3.9196077829
  0
ELLIPSE
  5
4FA
100
AcDbEntity
  8
268200010
100
AcDbEllipse
 62
7
  6
CONTINUOUS
 10
-2.0876787011
 20
-22.5942222035
 30
0.0
 11
0.2299769236
 21
0.4440064614
 31
0.0
 40
0.6229838795
 41
0.9554048099
 42
2.2644017489
  0
ELLIPSE
  5
4FB
100
AcDbEntity
  8
268200010
100
AcDbEllipse
 62
7
  6
CONTINUOUS
 10
-2.0876787011
 20
9.3016365041
 30
0.0
 11
0.2299769236
 21
0.4440064614
 31
0.0
 40
0.6229838795
 41
-4.0187835583
 42
-2.7097866193
  0
ELLIPSE
  5
4FC
100
AcDbEntity
  8
268200010
100
AcDbEllipse
 62
7
  6
CONTINUOUS
 10
48.2701734572
 20
43.623975088
 30
0.0
 11
60.4168605605
 21
30.5632322457
 31
0.0
 40
0.005706723
 41
2.5167363259
 42
2.6876789752
  0
ELLIPSE
  5
4FD
100
AcDbEntity
  8
268200010
100
AcDbEllipse
 62
7
  6
CONTINUOUS
 10
-0.8327804723
 20
19.0504674238
 30
0.0
 11
0.221538876
 21
0.4482453432
 31
0.0
 40
0.6088015717
 41
0.5825560023
 42
0.6760875334
  0
ELLIPSE
  5
4FE
100
AcDbEntity
  8
268200010
100
AcDbEllipse
 62
7
  6
CONTINUOUS
 10
48.2701734572
 20
43.623975088
 30
0.0
 11
60.4168605605
 21
30.5632322457
 31
0.0
 40
0.005706723
 41
-2.6934527084
 42
-2.5225100591
  0
ELLIPSE
  5
4FF
100
AcDbEntity
  8
268200010
100
AcDbEllipse
 62
7
  6
CONTINUOUS
 10
-3.2574905388
 20
9.8865424229
 30
0.0
 11
0.2299769236
 21
0.4440064614
 31
0.0
 40
0.6229838795
 41
-4.0187835583
 42
-3.1327064366
  0
ELLIPSE
  5
500
100
AcDbEntity
  8
268200010
100
AcDbEllipse
 62
7
  6
CONTINUOUS
 10
-17.8240153191
 20
19.765604466
 30
0.0
 11
-0.2234618187
 21
0.4480306886
 31
0.0
 40
0.6116748051
 41
-0.6831523234
 42
0.886730614
  0
ELLIPSE
  5
501
100
AcDbEntity
  8
268200010
100
AcDbEllipse
 62
7
  6
CONTINUOUS
 10
-2.8010106358
 20
-25.5404626703
 30
0.0
 11
-0.2234618187
 21
0.4480306886
 31
0.0
 40
0.6116748051
 41
2.4584403302
 42
4.0283232676
  0
ELLIPSE
  5
502
100
AcDbEntity
  8
268200010
100
AcDbEllipse
 62
7
  6
CONTINUOUS
 10
-2.8010106358
 20
12.2541021243
 30
0.0
 11
-0.2230998035
 21
0.4477110033
 31
0.0
 40
0.6127700112
 41
-2.2535417632
 42
-0.6836588258
  0
ELLIPSE
  5
503
100
AcDbEntity
  8
268200010
100
AcDbEllipse
 62
7
  6
CONTINUOUS
 10
-8.6154567026
 20
16.4979240022
 30
0.0
 11
0.199943508
 21
0.008945986
 31
0.0
 40
0.5313301283
 41
3.1178240563
 42
3.9032222197
  0
ELLIPSE
  5
504
100
AcDbEntity
  8
268200010
100
AcDbEllipse
 62
7
  6
CONTINUOUS
 10
-10.3125129774
 20
17.3464521396
 30
0.0
 11
0.199943508
 21
0.008945986
 31
0.0
 40
0.5313301283
 41
-2.3799630874
 42
-0.8091667606
  0
ELLIPSE
  5
505
100
AcDbEntity
  8
268200010
100
AcDbEllipse
 62
7
  6
CONTINUOUS
 10
4.6822852888
 20
17.2825474383
 30
0.0
 11
-0.7356038977
 21
1.2035991204
 31
0.0
 40
0.5552491559
 41
5.0559943874
 42
6.2356708126
  0
ELLIPSE
  5
506
100
AcDbEntity
  8
268200010
100
AcDbEllipse
 62
7
  6
CONTINUOUS
 10
-3.1405244237
 20
13.0455892758
 30
0.0
 11
0.249929385
 21
0.0111824824
 31
0.0
 40
0.5313301283
 41
-2.3799630874
 42
-0.8149845248
  0
ELLIPSE
  5
507
100
AcDbEntity
  8
218140580
100
AcDbEllipse
 62
7
  6
CONTINUOUS
 10
11.0421118144
 20
19.2971021743
 30
0.0
 11
2.7499831596
 21
-0.0194567514
 31
0.0
 40
0.4946372042
 41
0.4291636923
 42
2.3596941457
  0
ELLIPSE
  5
508
100
AcDbEntity
  8
218140580
100
AcDbEllipse
 62
7
  6
CONTINUOUS
 10
10.3703603723
 20
19.3955068065
 30
0.0
 11
2.7499831596
 21
-0.0194567514
 31
0.0
 40
0.4946372042
 41
2.3596941457
 42
2.9254696648
  0
ELLIPSE
  5
509
100
AcDbEntity
  8
218140580
100
AcDbEllipse
 62
7
  6
CONTINUOUS
 10
15.7957430266
 20
20.455240435
 30
0.0
 11
0.7964780511
 21
0.7125399777
 31
0.0
 40
0.2888664458
 41
0.1139832129
 42
0.7812491238
  0
ELLIPSE
  5
50A
100
AcDbEntity
  8
218140580
100
AcDbEllipse
 62
7
  6
CONTINUOUS
 10
12.0160455298
 20
22.3450891834
 30
0.0
 11
-0.309899001
 21
1.1085475855
 31
0.0
 40
0.6753891016
 41
4.9647984111
 42
6.4012160802
  0
ELLIPSE
  5
50B
100
AcDbEntity
  8
218140580
100
AcDbEllipse
 62
7
  6
CONTINUOUS
 10
11.0421118144
 20
19.7242027228
 30
0.0
 11
2.7499831596
 21
-0.0194567514
 31
0.0
 40
0.4946372042
 41
0.1760698615
 42
2.3596941457
  0
ELLIPSE
  5
50C
100
AcDbEntity
  8
218140580
100
AcDbEllipse
 62
7
  6
CONTINUOUS
 10
-1.0142742292
 20
10.5958003972
 30
0.0
 11
-0.894612936
 21
1.7887945813
 31
0.0
 40
0.6124635976
 41
-2.2555607096
 42
-2.1095619722
  0
ELLIPSE
  5
50D
100
AcDbEntity
  8
218140580
100
AcDbEllipse
 62
7
  6
CONTINUOUS
 10
-1.0142742292
 20
-20.0120431002
 30
0.0
 11
-0.894811907
 21
1.788971565
 31
0.0
 40
0.6123121697
 41
-2.4017410744
 42
-2.2557423369
  0
ELLIPSE
  5
50E
100
AcDbEntity
  8
218140580
100
AcDbEllipse
 62
7
  6
CONTINUOUS
 10
-7.2525237305
 20
18.7515239182
 30
0.0
 11
1.2141619185
 21
0.9541526469
 31
0.0
 40
0.2329077568
 41
0.1095198182
 42
0.114024621
  0
ENDSEC
  0
SECTION
  2
OBJECTS
  0
DICTIONARY
  5
C
100
AcDbDictionary
280
0
281
1
  3
ACAD_GROUP
350
D
  3
ACAD_MLINESTYLE
350
17
  3
ACAD_LAYOUT
350
1A
  3
ACAD_PLOTSETTINGS
350
19
  3
ACAD_PLOTSTYLENAME
350
E
  0
DICTIONARY
  5
D
102
{ACAD_REACTORS
330
C
102
}
100
AcDbDictionary
280
0
281
1
  0
ACDBDICTIONARYWDFLT
  5
E
102
{ACAD_REACTORS
330
C
102
}
100
AcDbDictionary
281
1
  3
Normal
350
F
100
AcDbDictionaryWithDefault
340
F
  0
DICTIONARY
  5
17
102
{ACAD_REACTORS
330
C
102
}
100
AcDbDictionary
280
0
281
1
  3
Standard
350
18
  0
DICTIONARY
  5
19
102
{ACAD_REACTORS
330
C
102
}
100
AcDbDictionary
281
1
  0
DICTIONARY
  5
1A
102
{ACAD_REACTORS
330
C
102
}
100
AcDbDictionary
281
1
  3
Model
350
50F
  3
Layout1
350
510
  0
ACDBPLACEHOLDER
  5
F
102
{ACAD_REACTORS
330
E
102
}
  0
MLINESTYLE
  5
18
102
{ACAD_REACTORS
330
17
102
}
100
AcDbMlineStyle
  2
STANDARD
 70
0
  3

 62
256
 51
90.0
 52
90.0
 71
2
 49
0.5
 62
256
  6
BYLAYER
 49
-0.5
 62
256
  6
BYLAYER
  0
LAYOUT
  5
50F
102
{ACAD_REACTORS
330
1A
102
}
100
AcDbPlotSettings
  1

  2
none_device
  4
ANSI_C_(22.00_x_17.00_Inches)
  6

 40
0.0
 41
0.0
 42
0.0
 43
0.0
 44
558.8
 45
431.8
 46
0.0
 47
0.0
 48
0.0
 49
0.0
140
0.0
141
0.0
142
1.0
143
1.0
 70
1024
 72
1
 73
0
 74
0
  7

 75
0
147
1.0
148
0.0
149
0.0
100
AcDbLayout
  1
Model
 70
0
 71
0
 10
0.0
 20
0.0
 11
558.8
 21
431.8
 12
0.0
 22
0.0
 32
0.0
 14
0.0
 24
0.0
 34
0.0
 15
0.0
 25
0.0
 35
0.0
146
0.0
 13
0.0
 23
0.0
 33
0.0
 16
1.0
 26
0.0
 36
0.0
 17
0.0
 27
1.0
 37
0.0
 76
0
330
22E
345
0
346
0
  0
LAYOUT
  5
510
102
{ACAD_REACTORS
330
1A
102
}
100
AcDbPlotSettings
  1

  2
none_device
  4
ANSI_C_(22.00_x_17.00_Inches)
  6

 40
0.0
 41
0.0
 42
0.0
 43
0.0
 44
558.8
 45
431.8
 46
0.0
 47
0.0
 48
0.0
 49
0.0
140
0.0
141
0.0
142
1.0
143
1.0
 70
0
 72
1
 73
0
 74
0
  7

 75
0
147
1.0
148
0.0
149
0.0
100
AcDbLayout
  1
Layout1
 70
0
 71
1
 10
0.0
 20
0.0
 11
558.8
 21
431.8
 12
0.0
 22
0.0
 32
0.0
 14
0.0
 24
0.0
 34
0.0
 15
0.0
 25
0.0
 35
0.0
146
0.0
 13
0.0
 23
0.0
 33
0.0
 16
1.0
 26
0.0
 36
0.0
 17
0.0
 27
1.0
 37
0.0
 76
0
330
22F
345
0
346
0
  0
ENDSEC
  0
EOF
