  0
SECTION
  2
HEADER
  9
$ACADVER
  1
AC1021
  9
$DWGCODEPAGE
  3
ANSI_1252
  9
$EXTMAX
 10
297.0
 20
210.0
 30
0.0
  9
$EXTMIN
 10
0.0
 20
0.0
 30
0.0
  9
$LIMMIN
 10
0.0
 20
0.0
  9
$LIMMAX
 10
297.0
 20
210.0
  9
$VIEWCTR
 10
148.5
 20
105.0
  9
$VIEWSIZE
 40
210.0
  9
$CLAYER
  8
0
  9
$LTSCALE
 40
16.335
  9
$CELTYPE
  6
BYLAYER
  9
$DIMSCALE
 40
1.0
  9
$DIMASZ
 40
3.0
  9
$DIMEXO
 40
0.5
  9
$DIMDLI
 40
11.286
  9
$DIMEXE
 40
1.5
  9
$DIMCEN
 40
2.673
  9
$DIMLFAC
 40
1.0
  9
$DIMBLK
  1
_FILLED
  9
$DIMALT
 70
0
  9
$DIMALTF
 40
25.4
  9
$DIMTXT
 40
3.0
  9
$DIMTOL
 70
1
  9
$DIMLIM
 70
0
  9
$DIMTFAC
 40
1.0
  9
$DIMTP
 40
0.01
  9
$DIMTM
 40
0.01
  9
$DIMGAP
 40
0.625
  9
$DIMDSEP
 70
44
  9
$AUNITS
 70
0
  9
$PDMODE
 70
3
  9
$PDSIZE
 40
3.0
  9
$HANDSEED
  5
51F
  9
$TILEMODE
 70
1
  9
$MEASUREMENT
 70
1
  9
$INSUNITS
 70
4
  0
ENDSEC
  0
SECTION
  2
CLASSES
  0
CLASS
  1
ACDBDICTIONARYWDFLT
  2
AcDbDictionaryWithDefault
  3
AutoCAD 2000
 90
0
 91
1
280
0
281
0
  0
CLASS
  1
ACDBPLACEHOLDER
  2
AcDbPlaceHolder
  3
AutoCAD 2000
 90
0
 91
1
280
0
281
0
  0
CLASS
  1
LAYOUT
  2
AcDbLayout
  3
AutoCAD 2000
 90
0
 91
0
280
0
281
0
  0
ENDSEC
  0
SECTION
  2
TABLES
  0
TABLE
  2
VPORT
  5
8
100
AcDbSymbolTable
 70
2
  0
VPORT
  5
1F4
100
AcDbSymbolTableRecord
100
AcDbViewportTableRecord
  2
*ACTIVE
 70
0
 10
0.0
 20
0.0
 11
1.0
 21
1.0
 12
148.5
 22
105.0
 13
0.0
 23
0.0
 14
1.0
 24
1.0
 15
0.0
 25
0.0
 16
0.0
 26
0.0
 36
1.0
 17
0.0
 27
0.0
 37
0.0
 40
210.0
 41
1.4142857143
 42
50.0
 43
0.0
 44
0.0
 50
0.0
 51
0.0
 71
0
 72
100
 73
1
 74
1
 75
0
 76
0
 77
0
 78
0
  0
ENDTAB
  0
TABLE
  2
LTYPE
  5
5
100
AcDbSymbolTable
 70
6
  0
LTYPE
  5
14
100
AcDbSymbolTableRecord
100
AcDbLinetypeTableRecord
  2
BYBLOCK
 70
0
  3

 72
65
 73
0
 40
0.0
  0
LTYPE
  5
15
100
AcDbSymbolTableRecord
100
AcDbLinetypeTableRecord
  2
BYLAYER
 70
0
  3

 72
65
 73
0
 40
0.0
  0
LTYPE
  5
16
100
AcDbSymbolTableRecord
100
AcDbLinetypeTableRecord
  2
CONTINUOUS
 70
64
  3
Solid line
 72
65
 73
0
 40
0.0
  0
LTYPE
  5
1F5
100
AcDbSymbolTableRecord
100
AcDbLinetypeTableRecord
  2
CENTER
 70
64
  3
____ _ ____ _ ____ _ ____ _ ____ _ ____ _ ____
 72
65
 73
4
 40
0.6
 49
0.375
 74
0
 49
-0.075
 74
0
 49
0.075
 74
0
 49
-0.075
 74
0
  0
LTYPE
  5
1F6
100
AcDbSymbolTableRecord
100
AcDbLinetypeTableRecord
  2
HIDDEN
 70
64
  3
- - - - - - - - - - - - - - - - - - - -
 72
65
 73
2
 40
0.2
 49
0.1
 74
0
 49
-0.1
 74
0
  0
LTYPE
  5
1F7
100
AcDbSymbolTableRecord
100
AcDbLinetypeTableRecord
  2
PHANTOM
 70
64
  3
_____ _ _ _____ _ _ _____ _ _ _____
 72
65
 73
6
 40
0.8
 49
0.45
 74
0
 49
-0.05
 74
0
 49
0.1
 74
0
 49
-0.05
 74
0
 49
0.1
 74
0
 49
-0.05
 74
0
  0
LTYPE
  5
1F8
100
AcDbSymbolTableRecord
100
AcDbLinetypeTableRecord
  2
DOT
 70
64
  3
. . . . . . . . . . . . . . . . . . . .
 72
65
 73
2
 40
0.2
 49
0.1
 74
0
 49
-0.1
 74
0
  0
LTYPE
  5
1F9
100
AcDbSymbolTableRecord
100
AcDbLinetypeTableRecord
  2
DASHED
 70
64
  3
- - - - - - - - - - - - - - - - - - - -
 72
65
 73
2
 40
0.2
 49
0.1
 74
0
 49
-0.1
 74
0
  0
ENDTAB
  0
TABLE
  2
LAYER
  5
2
100
AcDbSymbolTable
 70
36
  0
LAYER
  5
10
100
AcDbSymbolTableRecord
100
AcDbLayerTableRecord
  2
0
 70
0
 62
7
  6
CONTINUOUS
370
-3
390
F
  0
LAYER
  5
1FA
100
AcDbSymbolTableRecord
100
AcDbLayerTableRecord
  2
DEFAULT_1
 70
0
 62
7
  6
CENTER
370
-3
390
F
  0
LAYER
  5
1FB
100
AcDbSymbolTableRecord
100
AcDbLayerTableRecord
  2
DEFAULT_2
 70
0
 62
7
  6
HIDDEN
370
-3
390
F
  0
LAYER
  5
1FC
100
AcDbSymbolTableRecord
100
AcDbLayerTableRecord
  2
DEFAULT_3
 70
0
 62
7
  6
PHANTOM
370
-3
390
F
  0
LAYER
  5
1FD
100
AcDbSymbolTableRecord
100
AcDbLayerTableRecord
  2
ASSI
 70
0
 62
7
  6
CONTINUOUS
370
-3
390
F
  0
LAYER
  5
1FE
100
AcDbSymbolTableRecord
100
AcDbLayerTableRecord
  2
COORDINATE
 70
0
 62
7
  6
CONTINUOUS
370
-3
390
F
  0
LAYER
  5
1FF
100
AcDbSymbolTableRecord
100
AcDbLayerTableRecord
  2
COORD_ORIGINE
 70
0
 62
7
  6
CONTINUOUS
370
-3
390
F
  0
LAYER
  5
200
100
AcDbSymbolTableRecord
100
AcDbLayerTableRecord
  2
COPY_PUBLISH
 70
0
 62
7
  6
CONTINUOUS
370
-3
390
F
  0
LAYER
  5
201
100
AcDbSymbolTableRecord
100
AcDbLayerTableRecord
  2
COSMETICI
 70
0
 62
7
  6
CONTINUOUS
370
-3
390
F
  0
LAYER
  5
202
100
AcDbSymbolTableRecord
100
AcDbLayerTableRecord
  2
CURVE
 70
0
 62
7
  6
CONTINUOUS
370
-3
390
F
  0
LAYER
  5
203
100
AcDbSymbolTableRecord
100
AcDbLayerTableRecord
  2
DRAFT
 70
0
 62
7
  6
CONTINUOUS
370
-3
390
F
  0
LAYER
  5
204
100
AcDbSymbolTableRecord
100
AcDbLayerTableRecord
  2
IMPORT_AI
 70
0
 62
7
  6
CONTINUOUS
370
-3
390
F
  0
LAYER
  5
205
100
AcDbSymbolTableRecord
100
AcDbLayerTableRecord
  2
IMPORT_IGES
 70
0
 62
7
  6
CONTINUOUS
370
-3
390
F
  0
LAYER
  5
206
100
AcDbSymbolTableRecord
100
AcDbLayerTableRecord
  2
INTF_1
 70
0
 62
7
  6
CONTINUOUS
370
-3
390
F
  0
LAYER
  5
207
100
AcDbSymbolTableRecord
100
AcDbLayerTableRecord
  2
INTF_10
 70
0
 62
7
  6
CONTINUOUS
370
-3
390
F
  0
LAYER
  5
208
100
AcDbSymbolTableRecord
100
AcDbLayerTableRecord
  2
INTF_11
 70
0
 62
7
  6
CONTINUOUS
370
-3
390
F
  0
LAYER
  5
209
100
AcDbSymbolTableRecord
100
AcDbLayerTableRecord
  2
INTF_2
 70
0
 62
7
  6
CONTINUOUS
370
-3
390
F
  0
LAYER
  5
20A
100
AcDbSymbolTableRecord
100
AcDbLayerTableRecord
  2
INTF_3
 70
0
 62
7
  6
CONTINUOUS
370
-3
390
F
  0
LAYER
  5
20B
100
AcDbSymbolTableRecord
100
AcDbLayerTableRecord
  2
INTF_7
 70
0
 62
7
  6
CONTINUOUS
370
-3
390
F
  0
LAYER
  5
20C
100
AcDbSymbolTableRecord
100
AcDbLayerTableRecord
  2
INTF_BLANK
 70
0
 62
7
  6
CONTINUOUS
370
-3
390
F
  0
LAYER
  5
20D
100
AcDbSymbolTableRecord
100
AcDbLayerTableRecord
  2
INTF_CYAN
 70
0
 62
7
  6
CONTINUOUS
370
-3
390
F
  0
LAYER
  5
20E
100
AcDbSymbolTableRecord
100
AcDbLayerTableRecord
  2
INTF_YELLOW
 70
0
 62
7
  6
CONTINUOUS
370
-3
390
F
  0
LAYER
  5
20F
100
AcDbSymbolTableRecord
100
AcDbLayerTableRecord
  2
NOTE
 70
0
 62
7
  6
CONTINUOUS
370
-3
390
F
  0
LAYER
  5
210
100
AcDbSymbolTableRecord
100
AcDbLayerTableRecord
  2
PIANI
 70
0
 62
7
  6
CONTINUOUS
370
-3
390
F
  0
LAYER
  5
211
100
AcDbSymbolTableRecord
100
AcDbLayerTableRecord
  2
PIANI_ORIGINE
 70
0
 62
7
  6
CONTINUOUS
370
-3
390
F
  0
LAYER
  5
212
100
AcDbSymbolTableRecord
100
AcDbLayerTableRecord
  2
PIANI_RIFERIMENTO
 70
0
 62
7
  6
CONTINUOUS
370
-3
390
F
  0
LAYER
  5
213
100
AcDbSymbolTableRecord
100
AcDbLayerTableRecord
  2
PUNTI
 70
0
 62
7
  6
CONTINUOUS
370
-3
390
F
  0
LAYER
  5
214
100
AcDbSymbolTableRecord
100
AcDbLayerTableRecord
  2
RACCORDO
 70
0
 62
7
  6
CONTINUOUS
370
-3
390
F
  0
LAYER
  5
215
100
AcDbSymbolTableRecord
100
AcDbLayerTableRecord
  2
RGB__255__255__255__
 70
0
 62
7
  6
CONTINUOUS
370
-3
390
F
  0
LAYER
  5
216
100
AcDbSymbolTableRecord
100
AcDbLayerTableRecord
  2
RGB____0____0____0__
 70
0
 62
7
  6
CONTINUOUS
370
-3
390
F
  0
LAYER
  5
217
100
AcDbSymbolTableRecord
100
AcDbLayerTableRecord
  2
SIMBOLI
 70
0
 62
7
  6
CONTINUOUS
370
-3
390
F
  0
LAYER
  5
218
100
AcDbSymbolTableRecord
100
AcDbLayerTableRecord
  2
SMUSSO
 70
0
 62
7
  6
CONTINUOUS
370
-3
390
F
  0
LAYER
  5
219
100
AcDbSymbolTableRecord
100
AcDbLayerTableRecord
  2
SNAPLINE
 70
0
 62
7
  6
CONTINUOUS
370
-3
390
F
  0
LAYER
  5
21A
100
AcDbSymbolTableRecord
100
AcDbLayerTableRecord
  2
SUPERFICI
 70
0
 62
7
  6
CONTINUOUS
370
-3
390
F
  0
LAYER
  5
21B
100
AcDbSymbolTableRecord
100
AcDbLayerTableRecord
  2
TRASH
 70
0
 62
7
  6
CONTINUOUS
370
-3
390
F
  0
LAYER
  5
21C
100
AcDbSymbolTableRecord
100
AcDbLayerTableRecord
  2
XSEC_DATUMS
 70
0
 62
7
  6
CONTINUOUS
370
-3
390
F
  0
LAYER
  5
21D
100
AcDbSymbolTableRecord
100
AcDbLayerTableRecord
  2
_BLACK_HOLE
 70
0
 62
7
  6
CONTINUOUS
370
-3
390
F
  0
ENDTAB
  0
TABLE
  2
STYLE
  5
3
100
AcDbSymbolTable
 70
1
  0
STYLE
  5
11
100
AcDbSymbolTableRecord
100
AcDbTextStyleTableRecord
  2
STANDARD
 70
0
 40
0.0
 41
0.8
 50
0.0
 71
0
 42
0.2
  3
txt
  4

  0
STYLE
  5
21E
100
AcDbSymbolTableRecord
100
AcDbTextStyleTableRecord
  2
TEXTSTYLE_1
 70
0
 40
0.0
 41
0.8
 50
0.0
 71
0
 42
0.2
  3
gdt
  4

  0
ENDTAB
  0
TABLE
  2
VIEW
  5
6
100
AcDbSymbolTable
 70
0
  0
ENDTAB
  0
TABLE
  2
UCS
  5
7
100
AcDbSymbolTable
 70
0
  0
ENDTAB
  0
TABLE
  2
APPID
  5
9
100
AcDbSymbolTable
 70
1
  0
APPID
  5
21F
100
AcDbSymbolTableRecord
100
AcDbRegAppTableRecord
  2
ACAD
 70
0
  0
ENDTAB
  0
TABLE
  2
BLOCK_RECORD
  5
1
100
AcDbSymbolTable
 70
0
  0
BLOCK_RECORD
  5
220
100
AcDbSymbolTableRecord
100
AcDbBlockTableRecord
  2
*Model_Space
  0
BLOCK_RECORD
  5
221
100
AcDbSymbolTableRecord
100
AcDbBlockTableRecord
  2
*Paper_Space
  0
BLOCK_RECORD
  5
222
100
AcDbSymbolTableRecord
100
AcDbBlockTableRecord
  2
_FILLED
  0
ENDTAB
  0
TABLE
  2
DIMSTYLE
  5
A
100
AcDbSymbolTable
 70
1
100
AcDbDimStyleTable
 71
0
  0
DIMSTYLE
105
223
100
AcDbSymbolTableRecord
100
AcDbDimStyleTableRecord
  2
STANDARD
 70
0
  3

  4

 40
1.0
 41
3.0
 42
0.5
 43
0.38
 44
1.5
 45
0.0
 46
0.0
 47
0.01
 48
0.01
140
3.0
141
0.09
142
0.0
143
25.4
144
1.0
145
0.0
146
1.0
147
0.625
 71
1.0
 72
0.0
 73
0
 74
0
 75
0
 76
0
 77
1
 78
8
 79
2
170
0
171
1
172
0
173
0
174
0
175
0
176
0
177
0
178
0
270
2
179
2
271
2
272
2
273
2
274
2
275
0
280
0
281
0
282
0
283
1
284
8
285
0
286
0
287
3
288
0
340
11
278
44
341
222
342
222
343
222
344
222
  0
ENDTAB
  0
ENDSEC
  0
SECTION
  2
BLOCKS
  0
BLOCK
  5
20
100
AcDbEntity
  8
0
100
AcDbBlockBegin
  2
*Model_Space
 70
0
 10
0.0
 20
0.0
 30
0.0
  3
*Model_Space
  1

  0
ENDBLK
  5
21
100
AcDbEntity
  8
0
100
AcDbBlockEnd
  0
BLOCK
  5
1C
100
AcDbEntity
  8
0
100
AcDbBlockBegin
  2
*Paper_Space
 70
0
 10
0.0
 20
0.0
 30
0.0
  3
*Paper_Space
  1

  0
ENDBLK
  5
1D
100
AcDbEntity
  8
0
100
AcDbBlockEnd
  0
BLOCK
  5
224
100
AcDbEntity
  8
0
100
AcDbBlockBegin
  2
_FILLED
 70
64
 10
0.0
 20
0.0
  3
_FILLED
  1

  0
SOLID
  5
225
100
AcDbEntity
  8
0
  6
BYBLOCK
 62
0
100
AcDbTrace
 10
0.0
 20
0.0
 11
-1.0
 21
0.3166666667
 12
-1.0
 22
-0.3166666667
 13
-1.0
 23
-0.3166666667
  0
ENDBLK
  5
226
100
AcDbEntity
  8
0
  6
BYBLOCK
 62
0
100
AcDbBlockEnd
  0
ENDSEC
  0
SECTION
  2
ENTITIES
  0
LINE
  5
227
100
AcDbEntity
  8
0
100
AcDbLine
 62
7
  6
CONTINUOUS
 10
-21.3106831024
 20
27.2565316033
 11
-19.0233168805
 21
28.6050333018
  0
LINE
  5
228
100
AcDbEntity
  8
0
100
AcDbLine
 62
250
  6
CONTINUOUS
 10
-21.1846444302
 20
27.2447516103
 11
-18.8976595593
 21
28.5930284859
  0
LWPOLYLINE
  5
229
100
AcDbEntity
  8
ASSI
100
AcDbPolyline
 62
7
  6
CONTINUOUS
 90
21
 70
0
 10
-14.6617257169
 20
27.9637304898
 10
-14.6867750445
 20
27.9466207571
 10
-14.7092740396
 20
27.9258169046
 10
-14.729081694
 20
27.901283146
 10
-14.7462577864
 20
27.8731023282
 10
-14.7604150751
 20
27.8419097991
 10
-14.7714849844
 20
27.8076371444
 10
-14.77953609
 20
27.7703527784
 10
-14.7843868763
 20
27.7308972921
 10
-14.7859646446
 20
27.6892213661
 10
-14.7843420937
 20
27.6453743198
 10
-14.7795558046
 20
27.6003447024
 10
-14.7715339096
 20
27.5541056506
 10
-14.7603482764
 20
27.5066840277
 10
-14.7462510897
 20
27.4591489733
 10
-14.7291762102
 20
27.4114979107
 10
-14.7091897771
 20
27.3637334165
 10
-14.6867423927
 20
27.3169323605
 10
-14.6619842576
 20
27.2714536991
 10
-14.634765171
 20
27.2269384759
 10
-14.605085133
 20
27.1833866909
  0
LWPOLYLINE
  5
22A
100
AcDbEntity
  8
0
100
AcDbPolyline
 62
7
  6
CONTINUOUS
 90
31
 70
0
 10
-24.866352645
 20
23.7616767876
 10
-24.8849600168
 20
23.7491074465
 10
-24.9148247985
 20
23.7276595465
 10
-24.9439365061
 20
23.7051814755
 10
-24.9723138255
 20
23.6817049478
 10
-24.9999589072
 20
23.6572689398
 10
-25.0268471196
 20
23.6319343703
 10
-25.0529841414
 20
23.605732502
 10
-25.0783739105
 20
23.5786904683
 10
-25.1029805915
 20
23.5508768592
 10
-25.1268046989
 20
23.5223192516
 10
-25.149846913
 20
23.493040876
 10
-25.1720667878
 20
23.4631145823
 10
-25.1934599109
 20
23.4325685722
 10
-25.2140235064
 20
23.4014220046
 10
-25.2337208176
 20
23.3697456496
 10
-25.2525393845
 20
23.3375724263
 10
-25.2704777616
 20
23.3049132625
 10
-25.2875145861
 20
23.2718082768
 10
-25.3036376273
 20
23.2382789657
 10
-25.3188339674
 20
23.2043407611
 10
-25.3330827621
 20
23.170021833
 10
-25.3463666551
 20
23.1353356708
 10
-25.3586641262
 20
23.1002982118
 10
-25.3699483632
 20
23.0649326689
 10
-25.38019364
 20
23.0292494561
 10
-25.3893699748
 20
22.993262177
 10
-25.3974429728
 20
22.9569841069
 10
-25.404376612
 20
22.9204189838
 10
-25.4101278965
 20
22.8835778027
 10
-25.4129558297
 20
22.8616501413
  0
LINE
  5
22B
100
AcDbEntity
  8
0
100
AcDbLine
 62
7
  6
CONTINUOUS
 10
-24.8663682396
 20
23.7616666144
 11
-20.9197601583
 21
26.3644175275
  0
LINE
  5
22C
100
AcDbEntity
  8
0
100
AcDbLine
 62
250
  6
CONTINUOUS
 10
-24.6095988176
 20
23.7412561305
 11
-20.7663517435
 21
26.2758414315
  0
LWPOLYLINE
  5
22D
100
AcDbEntity
  8
0
100
AcDbPolyline
 62
250
  6
CONTINUOUS
 90
22
 70
0
 10
-24.8663526956
 20
23.7616768642
 10
-24.8631853797
 20
23.7637103065
 10
-24.8534708236
 20
23.7693040858
 10
-24.8433311882
 20
23.7742092503
 10
-24.8327829008
 20
23.778417853
 10
-24.8218430509
 20
23.7819230754
 10
-24.8105293622
 20
23.7847192388
 10
-24.7988601645
 20
23.7868018129
 10
-24.786854363
 20
23.7881674238
 10
-24.7745314087
 20
23.788813859
 10
-24.7619112661
 20
23.7887400712
 10
-24.7490143814
 20
23.78794618
 10
-24.7358616492
 20
23.7864334716
 10
-24.7224743782
 20
23.7842043966
 10
-24.7088742576
 20
23.7812625666
 10
-24.6950833211
 20
23.7776127475
 10
-24.6811239116
 20
23.7732608526
 10
-24.6670186451
 20
23.7682139324
 10
-24.6527903738
 20
23.7624801635
 10
-24.6384621491
 20
23.7560688354
 10
-24.6240571844
 20
23.748990335
 10
-24.6095988176
 20
23.7412561305
  0
LWPOLYLINE
  5
22E
100
AcDbEntity
  8
0
100
AcDbPolyline
 62
250
  6
CONTINUOUS
 90
34
 70
0
 10
-19.5116588377
 20
26.2787906966
 10
-19.5200410383
 20
26.2736705808
 10
-19.5284022942
 20
26.2681038802
 10
-19.5367237902
 20
26.2621031216
 10
-19.5449868012
 20
26.2556818079
 10
-19.5531727331
 20
26.2488543888
 10
-19.5612631656
 20
26.2416362276
 10
-19.5692398934
 20
26.2340435671
 10
-19.5770849667
 20
26.2260934925
 10
-19.5847807321
 20
26.2178038934
 10
-19.5923098724
 20
26.2091934237
 10
-19.5996554451
 20
26.2002814588
 10
-19.6068009208
 20
26.1910880531
 10
-19.6137302205
 20
26.1816338938
 10
-19.6204277515
 20
26.1719402552
 10
-19.6268784427
 20
26.1620289504
 10
-19.6330677784
 20
26.1519222823
 10
-19.6389818312
 20
26.1416429933
 10
-19.6446072928
 20
26.1312142145
 10
-19.6499315048
 20
26.1206594131
 10
-19.6549424862
 20
26.1100023401
 10
-19.6596289611
 20
26.0992669764
 10
-19.6639803837
 20
26.0884774795
 10
-19.6679869624
 20
26.0776581282
 10
-19.6716396813
 20
26.0668332688
 10
-19.6749303209
 20
26.05602726
 10
-19.6778514764
 20
26.0452644178
 10
-19.6803965745
 20
26.0345689614
 10
-19.6825598882
 20
26.0239649582
 10
-19.6843365493
 20
26.0134762698
 10
-19.6857225601
 20
26.0031264984
 10
-19.6867148015
 20
25.9929389335
 10
-19.6873110409
 20
25.9829364997
 10
-19.6875099366
 20
25.9731417048
  0
LINE
  5
22F
100
AcDbEntity
  8
0
100
AcDbLine
 62
250
  6
CONTINUOUS
 10
-19.5116588377
 20
26.2787906966
 11
-17.2005984381
 21
27.6131666636
  0
LINE
  5
230
100
AcDbEntity
  8
RACCORDO
100
AcDbLine
 62
7
  6
CONTINUOUS
 10
-14.779252798
 20
28.9764721575
 11
-15.1328061886
 21
28.7723348608
  0
LINE
  5
231
100
AcDbEntity
  8
0
100
AcDbLine
 62
250
  6
CONTINUOUS
 10
-19.3348845656
 20
25.9726086762
 11
-17.023824166
 21
27.3069846432
  0
LINE
  5
232
100
AcDbEntity
  8
RACCORDO
100
AcDbLine
 62
250
  6
CONTINUOUS
 10
-13.7744002669
 20
28.1252725942
 11
-13.4208468763
 21
28.3294098908
  0
LWPOLYLINE
  5
233
100
AcDbEntity
  8
0
100
AcDbPolyline
 62
250
  6
CONTINUOUS
 90
34
 70
0
 10
-19.3348845656
 20
25.7369411524
 10
-19.3435095541
 20
25.7322415575
 10
-19.3525108374
 20
25.727783417
 10
-19.3618681602
 20
25.7235767628
 10
-19.3715604663
 20
25.719631061
 10
-19.3815659455
 20
25.7159551903
 10
-19.3918620832
 20
25.7125574224
 10
-19.4024257103
 20
25.7094454031
 10
-19.4132330563
 20
25.7066261352
 10
-19.4242598017
 20
25.7041059628
 10
-19.4354811338
 20
25.7018905568
 10
-19.4468718018
 20
25.6999849025
 10
-19.4584061738
 20
25.6983932881
 10
-19.4700582947
 20
25.6971192951
 10
-19.4818019443
 20
25.6961657903
 10
-19.4936106964
 20
25.6955349193
 10
-19.5054579785
 20
25.6952281017
 10
-19.5173171313
 20
25.695246028
 10
-19.5291614686
 20
25.6955886578
 10
-19.5409643379
 20
25.6962552201
 10
-19.5526991798
 20
25.6972442151
 10
-19.5643395879
 20
25.6985534171
 10
-19.5758593685
 20
25.7001798801
 10
-19.5872325991
 20
25.7021199444
 10
-19.5984336873
 20
25.7043692441
 10
-19.6094374277
 20
25.7069227178
 10
-19.6202190593
 20
25.7097746196
 10
-19.6307543208
 20
25.712918532
 10
-19.641019505
 20
25.7163473804
 10
-19.650991513
 20
25.720053449
 10
-19.6606479051
 20
25.7240283983
 10
-19.6699669522
 20
25.7282632837
 10
-19.6789276839
 20
25.7327485756
 10
-19.6875099366
 20
25.737474181
  0
LWPOLYLINE
  5
234
100
AcDbEntity
  8
RACCORDO
100
AcDbPolyline
 62
7
  6
CONTINUOUS
 90
21
 70
0
 10
-15.132779551
 20
28.7722886949
 10
-15.0785001497
 20
28.7993887814
 10
-15.0210783025
 20
28.8199733563
 10
-14.9605114885
 20
28.8339225051
 10
-14.8968448802
 20
28.8413315628
 10
-14.8310017717
 20
28.8420933038
 10
-14.7629504595
 20
28.8361108364
 10
-14.6927226471
 20
28.8234810523
 10
-14.6213367382
 20
28.8043874009
 10
-14.5487758855
 20
28.778735677
 10
-14.4750569362
 20
28.7466200857
 10
-14.401248836
 20
28.708506692
 10
-14.3273503287
 20
28.6643081017
 10
-14.2533626705
 20
28.6141117089
 10
-14.1803585757
 20
28.5586457607
 10
-14.1083524306
 20
28.497833499
 10
-14.037329849
 20
28.4317516818
 10
-13.9683203862
 20
28.3613588306
 10
-13.9016672275
 20
28.2869744525
 10
-13.8370271877
 20
28.2082790404
 10
-13.7744002669
 20
28.1252725942
  0
LWPOLYLINE
  5
235
100
AcDbEntity
  8
0
100
AcDbPolyline
 62
7
  6
CONTINUOUS
 90
16
 70
0
 10
-29.5418005065
 20
-9.6973454431
 10
-29.3445942624
 20
-10.2564178878
 10
-29.1315653451
 20
-10.8114523702
 10
-28.9031628736
 20
-11.3618020143
 10
-28.6598541291
 20
-11.9067689808
 10
-28.4020359137
 20
-12.4458025374
 10
-28.1300307523
 20
-12.9784631176
 10
-27.8442709555
 20
-13.5040612955
 10
-27.545130334
 20
-14.0220109138
 10
-27.2328065841
 20
-14.5319879059
 10
-26.9076582782
 20
-15.0333521307
 10
-26.5700591971
 20
-15.5254327168
 10
-26.2201695095
 20
-16.0078418029
 10
-25.8582484994
 20
-16.4800006109
 10
-25.4846948281
 20
-16.9411327205
 10
-25.0998481789
 20
-17.3905368978
  0
LINE
  5
236
100
AcDbEntity
  8
RACCORDO
100
AcDbLine
 62
250
  6
CONTINUOUS
 10
-29.7895204136
 20
-8.9111731218
 11
-29.6011407002
 21
-9.5187220738
  0
LWPOLYLINE
  5
237
100
AcDbEntity
  8
RACCORDO
100
AcDbPolyline
 62
250
  6
CONTINUOUS
 90
8
 70
0
 10
-30.4862238992
 20
-4.8047514931
 10
-30.4552249355
 20
-5.3656177057
 10
-30.4010699819
 20
-5.9374275843
 10
-30.3238908659
 20
-6.5187891942
 10
-30.2238754616
 20
-7.1082873504
 10
-30.1012672322
 20
-7.7044870607
 10
-29.9563646389
 20
-8.3059370151
 10
-29.7895204136
 20
-8.9111731218
  0
LINE
  5
238
100
AcDbEntity
  8
0
100
AcDbLine
 62
7
  6
CONTINUOUS
 10
-17.7346333834
 20
26.0620440336
 11
-17.023824166
 21
26.9395702207
  0
LWPOLYLINE
  5
239
100
AcDbEntity
  8
0
100
AcDbPolyline
 62
7
  6
CONTINUOUS
 90
25
 70
0
 10
-16.6271364328
 20
24.9850664049
 10
-16.6323733131
 20
24.9817250711
 10
-16.6373503874
 20
24.9780929499
 10
-16.6420606433
 20
24.974183532
 10
-16.6464893448
 20
24.9700050759
 10
-16.6506389453
 20
24.9655756895
 10
-16.6545290861
 20
24.9609233703
 10
-16.6581542744
 20
24.9560620164
 10
-16.6615110913
 20
24.9510027209
 10
-16.6646230085
 20
24.9457685715
 10
-16.6674869609
 20
24.9403722086
 10
-16.6700999153
 20
24.9348233913
 10
-16.6724857936
 20
24.929139614
 10
-16.6746432247
 20
24.923331661
 10
-16.6765696103
 20
24.9174082025
 10
-16.6782871293
 20
24.9113821551
 10
-16.6797953385
 20
24.9052628212
 10
-16.6810922499
 20
24.8990575783
 10
-16.6821975781
 20
24.8927751441
 10
-16.683111456
 20
24.8864229545
 10
-16.6838323253
 20
24.8800077638
 10
-16.6843770633
 20
24.8735361652
 10
-16.6847460082
 20
24.8670143982
 10
-16.6849380938
 20
24.8604483814
 10
-16.684975042
 20
24.8560149519
  0
LINE
  5
23A
100
AcDbEntity
  8
0
100
AcDbLine
 62
7
  6
CONTINUOUS
 10
-17.7346333834
 20
25.3495514663
 11
-18.6240753481
 21
24.7878060171
  0
LINE
  5
23B
100
AcDbEntity
  8
0
100
AcDbLine
 62
7
  6
CONTINUOUS
 10
-15.4328339083
 20
23.5908520073
 11
-16.0047008836
 21
23.2320701574
  0
LWPOLYLINE
  5
23C
100
AcDbEntity
  8
0
100
AcDbPolyline
 62
250
  6
CONTINUOUS
 90
34
 70
0
 10
-16.1456232136
 20
24.7070467069
 10
-16.1523289741
 20
24.7029506142
 10
-16.1590179788
 20
24.6984972538
 10
-16.1656751757
 20
24.6936966469
 10
-16.1722855844
 20
24.6885595959
 10
-16.1788343299
 20
24.6830976607
 10
-16.185306676
 20
24.6773231317
 10
-16.1916880582
 20
24.6712490033
 10
-16.1979641168
 20
24.6648889436
 10
-16.2041207292
 20
24.6582572644
 10
-16.2101440414
 20
24.6513688886
 10
-16.2160204996
 20
24.6442393167
 10
-16.2217368801
 20
24.6368845921
 10
-16.2272803199
 20
24.6293212647
 10
-16.2326383447
 20
24.6215663538
 10
-16.2377988976
 20
24.6136373099
 10
-16.2427503662
 20
24.6055519754
 10
-16.2474816084
 20
24.5973285443
 10
-16.2519819777
 20
24.5889855212
 10
-16.2562413473
 20
24.5805416801
 10
-16.2602501324
 20
24.5720160217
 10
-16.2639993123
 20
24.5634277308
 10
-16.2674804505
 20
24.5547961332
 10
-16.2706857134
 20
24.5461406522
 10
-16.2736078885
 20
24.5374807647
 10
-16.2762404002
 20
24.5288359576
 10
-16.2785773246
 20
24.5202256839
 10
-16.2806134031
 20
24.5116693188
 10
-16.282344054
 20
24.5031861162
 10
-16.2837653829
 20
24.4947951655
 10
-16.2848741915
 20
24.4865153484
 10
-16.2856679847
 20
24.4783652965
 10
-16.2861449762
 20
24.4703633494
 10
-16.2863040927
 20
24.4625275135
  0
LINE
  5
23D
100
AcDbEntity
  8
0
100
AcDbLine
 62
7
  6
CONTINUOUS
 10
-16.6271364328
 20
24.9850664049
 11
-15.0085698396
 21
25.939281685
  0
LINE
  5
23E
100
AcDbEntity
  8
0
100
AcDbLine
 62
7
  6
CONTINUOUS
 10
-14.2312623475
 20
25.490474081
 11
-9.8124200119
 21
28.0598305967
  0
LINE
  5
23F
100
AcDbEntity
  8
ASSI
100
AcDbLine
 62
250
  6
CONTINUOUS
 10
-14.605085133
 20
27.1833866909
 11
-14.2515317425
 21
27.3875239876
  0
LINE
  5
240
100
AcDbEntity
  8
0
100
AcDbLine
 62
250
  6
CONTINUOUS
 10
-15.432345605
 20
25.1160334093
 11
-16.1456232136
 21
24.7070467069
  0
LINE
  5
241
100
AcDbEntity
  8
0
100
AcDbLine
 62
250
  6
CONTINUOUS
 10
-15.4328339083
 20
24.7897212274
 11
-16.0047008836
 21
24.4618180581
  0
LINE
  5
242
100
AcDbEntity
  8
0
100
AcDbLine
 62
7
  6
CONTINUOUS
 10
-10.3845882057
 20
28.3901933409
 11
-14.8656735969
 21
25.8567751854
  0
LINE
  5
243
100
AcDbEntity
  8
0
100
AcDbLine
 62
7
  6
CONTINUOUS
 10
-9.9419545166
 20
29.7846692998
 11
-17.0632933319
 21
25.773727236
  0
LINE
  5
244
100
AcDbEntity
  8
0
100
AcDbLine
 62
7
  6
CONTINUOUS
 10
-9.7281721216
 20
28.0968455969
 11
-9.7462869589
 21
28.0905306065
  0
LWPOLYLINE
  5
245
100
AcDbEntity
  8
0
100
AcDbPolyline
 62
7
  6
CONTINUOUS
 90
21
 70
0
 10
-10.3185258404
 20
28.4200150981
 10
-10.3088519615
 20
28.4230246811
 10
-10.2988403865
 20
28.4255322532
 10
-10.2884990253
 20
28.427530038
 10
-10.2778494958
 20
28.4290144624
 10
-10.2668883203
 20
28.4299743469
 10
-10.2555836624
 20
28.4303883348
 10
-10.2439476994
 20
28.4302507225
 10
-10.2319840695
 20
28.4295478669
 10
-10.2196429838
 20
28.4282407988
 10
-10.2069154623
 20
28.4263160417
 10
-10.1938248323
 20
28.423759796
 10
-10.1803675976
 20
28.4205282727
 10
-10.1665556437
 20
28.416606887
 10
-10.1523989995
 20
28.4119815989
 10
-10.1378923194
 20
28.4066074376
 10
-10.1230447607
 20
28.4004648604
 10
-10.1078772454
 20
28.3935421573
 10
-10.0924039455
 20
28.3858047802
 10
-10.076652378
 20
28.3772391483
 10
-10.0723742019
 20
28.3747947248
  0
LWPOLYLINE
  5
246
100
AcDbEntity
  8
RACCORDO
100
AcDbPolyline
 62
250
  6
CONTINUOUS
 90
44
 70
0
 10
-21.8837913737
 20
-20.293151729
 10
-21.4138219179
 20
-20.6047443798
 10
-20.9427056399
 20
-20.8901846324
 10
-20.4715893608
 20
-21.1487776499
 10
-20.001619903
 20
-21.379893948
 10
-19.5339412954
 20
-21.5829709287
 10
-19.0696919906
 20
-21.7575142491
 10
-18.6100020953
 20
-21.9030990237
 10
-18.1559906185
 20
-22.0193708599
 10
-17.7087627446
 20
-22.1060467213
 10
-17.2694071443
 20
-22.1629156161
 10
-16.8389933262
 20
-22.1898391103
 10
-16.4185690325
 20
-22.1867516655
 10
-16.0091576859
 20
-22.1536607976
 10
-15.6117558994
 20
-22.0906470583
 10
-15.2273310528
 20
-21.9978638389
 10
-14.8568189397
 20
-21.8755369983
 10
-14.5011214872
 20
-21.7239643131
 10
-14.1611045585
 20
-21.5435147525
 10
-13.837595843
 20
-21.3346275783
 10
-13.5313828445
 20
-21.0978112757
 10
-13.2432109657
 20
-20.8336423172
 10
-12.9737816945
 20
-20.5427637605
 10
-12.7237508947
 20
-20.2258836826
 10
-12.493727208
 20
-19.8837734551
 10
-12.2842705719
 20
-19.5172658638
 10
-12.0958908581
 20
-19.1272530834
 10
-11.9290466324
 20
-18.7146845064
 10
-11.7841440386
 20
-18.2805644351
 10
-11.6615358088
 20
-17.8259496352
 10
-11.5615204041
 20
-17.3519467612
 10
-11.4843412877
 20
-16.8597096602
 10
-11.4301863336
 20
-16.3504365649
 10
-11.3991873694
 20
-15.8253671789
 10
-11.3914198553
 20
-15.2857796616
 10
-11.4069026995
 20
-14.7329875149
 10
-11.4455982122
 20
-14.1683363833
 10
-11.5074121982
 20
-13.5932007753
 10
-11.5921941862
 20
-13.0089807202
 10
-11.6997377949
 20
-12.417098362
 10
-11.8297812348
 20
-11.8189945011
 10
-11.9820079449
 20
-11.2161250838
 10
-12.1560473643
 20
-10.6099576559
 10
-12.3514758354
 20
-10.0019677874
  0
LWPOLYLINE
  5
247
100
AcDbEntity
  8
RACCORDO
100
AcDbPolyline
 62
250
  6
CONTINUOUS
 90
8
 70
0
 10
-25.0464179503
 20
-17.4509749911
 10
-24.6160041325
 20
-17.9210825854
 10
-24.1766485326
 20
-18.3715705253
 10
-23.7294206588
 20
-18.801342203
 10
-23.2754091813
 20
-19.2093514411
 10
-22.8157192851
 20
-19.5946050363
 10
-22.35146998
 20
-19.9561651769
 10
-21.8837913737
 20
-20.293151729
  0
LWPOLYLINE
  5
248
100
AcDbEntity
  8
RACCORDO
100
AcDbPolyline
 62
7
  6
CONTINUOUS
 90
25
 70
0
 10
-25.1009294521
 20
-17.3893089382
 10
-24.9014101414
 20
-17.6126573529
 10
-24.4531401421
 20
-18.0915101945
 10
-23.9952246931
 20
-18.5495527466
 10
-23.5287565135
 20
-18.9856126242
 10
-23.0548423895
 20
-19.3985683289
 10
-22.5745771123
 20
-19.7873684609
 10
-22.0889942458
 20
-20.1510590305
 10
-21.5993269937
 20
-20.488589743
 10
-21.1069509186
 20
-20.7989046677
 10
-20.6127843922
 20
-21.0813063924
 10
-20.1181973235
 20
-21.3348810851
 10
-19.6251963056
 20
-21.5585525555
 10
-19.1350924562
 20
-21.751759098
 10
-18.648792348
 20
-21.9141626395
 10
-18.16762101
 20
-22.0453303657
 10
-17.6923457991
 20
-22.1450422796
 10
-17.2243377286
 20
-22.2129858103
 10
-16.7657431712
 20
-22.2489498049
 10
-16.3177640059
 20
-22.2530632546
 10
-15.8811974955
 20
-22.2255381905
 10
-15.4575227235
 20
-22.1667198729
 10
-15.0478784099
 20
-22.0770995473
 10
-14.6530607073
 20
-21.957198893
 10
-14.2740021479
 20
-21.8076451914
  0
LINE
  5
249
100
AcDbEntity
  8
RACCORDO
100
AcDbLine
 62
250
  6
CONTINUOUS
 10
-25.0998481789
 20
-17.3905368978
 11
-25.0464179503
 21
-17.4509749911
  0
LWPOLYLINE
  5
24A
100
AcDbEntity
  8
0
100
AcDbPolyline
 62
250
  6
CONTINUOUS
 90
21
 70
0
 10
-26.0950887635
 20
12.937957307
 10
-26.0949029463
 20
12.9272558394
 10
-26.0939346697
 20
12.9159842485
 10
-26.0921752401
 20
12.9047348103
 10
-26.0896274482
 20
12.8935253683
 10
-26.0862953354
 20
12.8823737027
 10
-26.0821841868
 20
12.8712975018
 10
-26.0773005236
 20
12.8603143345
 10
-26.0716520919
 20
12.8494416218
 10
-26.0652478512
 20
12.8386966098
 10
-26.0580979597
 20
12.8280963418
 10
-26.0502137584
 20
12.8176576318
 10
-26.0416077529
 20
12.8073970373
 10
-26.0322935939
 20
12.7973308333
 10
-26.0222860551
 20
12.7874749866
 10
-26.0116010103
 20
12.7778451302
 10
-26.0002554076
 20
12.7684565388
 10
-25.9882672433
 20
12.7593241041
 10
-25.9756555326
 20
12.7504623118
 10
-25.9624402798
 20
12.7418852183
 10
-25.9486424465
 20
12.7336064283
  0
LWPOLYLINE
  5
24B
100
AcDbEntity
  8
0
100
AcDbPolyline
 62
250
  6
CONTINUOUS
 90
9
 70
0
 10
-26.0082316022
 20
3.3077712754
 10
-26.0096098419
 20
3.6479146649
 10
-26.0113516899
 20
4.9396458735
 10
-26.0096098431
 20
6.2334599384
 10
-26.0043843222
 20
7.5293438813
 10
-25.9956749715
 20
8.827310787
 10
-25.9834815729
 20
10.1273564677
 10
-25.967804083
 20
11.4294593272
 10
-25.9486424481
 20
12.7336064273
  0
LWPOLYLINE
  5
24C
100
AcDbEntity
  8
0
100
AcDbPolyline
 62
7
  6
CONTINUOUS
 90
9
 70
0
 10
-26.095088765
 20
12.9379573084
 10
-26.1141150332
 20
11.6439040874
 10
-26.1298419289
 20
10.3396776775
 10
-26.1420738522
 20
9.0374829235
 10
-26.1508106112
 20
7.7373344485
 10
-26.1560521158
 20
6.439245127
 10
-26.157798299
 20
5.1432271351
 10
-26.1560491029
 20
3.849293166
 10
-26.1534203598
 20
3.2017847083
  0
LWPOLYLINE
  5
24D
100
AcDbEntity
  8
0
100
AcDbPolyline
 62
250
  6
CONTINUOUS
 90
16
 70
0
 10
-25.9486424481
 20
12.7336064273
 10
-25.9359851733
 20
13.3783509723
 10
-25.9186251226
 20
14.0257537628
 10
-25.8965636245
 20
14.6757661084
 10
-25.8698024103
 20
15.3283391247
 10
-25.8383434857
 20
15.9834237401
 10
-25.8021891288
 20
16.6409706997
 10
-25.761342121
 20
17.3009306212
 10
-25.7158055711
 20
17.9632538321
 10
-25.6655827863
 20
18.6278903754
 10
-25.6106776335
 20
19.2947902543
 10
-25.5510942932
 20
19.9639033749
 10
-25.4868370812
 20
20.6351793849
 10
-25.4179108327
 20
21.3085678143
 10
-25.3443209035
 20
21.984018078
 10
-25.2660729251
 20
22.6614794191
  0
LWPOLYLINE
  5
24E
100
AcDbEntity
  8
0
100
AcDbPolyline
 62
250
  6
CONTINUOUS
 90
23
 70
0
 10
-25.4129558297
 20
22.8616501413
 10
-25.4132607347
 20
22.8587758897
 10
-25.4137645276
 20
22.8491393357
 10
-25.4134792895
 20
22.8394291145
 10
-25.4124054728
 20
22.8296606319
 10
-25.4105447812
 20
22.8198493862
 10
-25.407900167
 20
22.8100109436
 10
-25.4044758257
 20
22.8001609132
 10
-25.4002771905
 20
22.7903149228
 10
-25.3953109227
 20
22.7804885935
 10
-25.3895849015
 20
22.7706975155
 10
-25.3831082117
 20
22.7609572229
 10
-25.3758911288
 20
22.7512831692
 10
-25.3679451032
 20
22.7416907028
 10
-25.3592827418
 20
22.7321950428
 10
-25.3499177879
 20
22.7228112547
 10
-25.3398650995
 20
22.7135542263
 10
-25.3291406259
 20
22.7044386444
 10
-25.317761382
 20
22.6954789715
 10
-25.3057454217
 20
22.6866894226
 10
-25.2931118089
 20
22.6780839429
 10
-25.2798805878
 20
22.6696761855
 10
-25.2660727504
 20
22.6614794897
  0
LWPOLYLINE
  5
24F
100
AcDbEntity
  8
0
100
AcDbPolyline
 62
7
  6
CONTINUOUS
 90
16
 70
0
 10
-25.4129537775
 20
22.8616686205
 10
-25.4898907951
 20
22.1957946991
 10
-25.5636819739
 20
21.5190373968
 10
-25.6327925261
 20
20.8443149003
 10
-25.69721589
 20
20.171684553
 10
-25.7569471608
 20
19.501194975
 10
-25.8119819385
 20
18.8328907888
 10
-25.8623156787
 20
18.1668192471
 10
-25.9079441094
 20
17.5030321437
 10
-25.9488631608
 20
16.8415809035
 10
-25.9850689239
 20
16.1825171428
 10
-26.0165584271
 20
15.5258873283
 10
-26.0433289257
 20
14.8717351537
 10
-26.0653776384
 20
14.2201080777
 10
-26.0827023119
 20
13.5710612858
 10
-26.0950887635
 20
12.937957307
  0
LWPOLYLINE
  5
250
100
AcDbEntity
  8
0
100
AcDbPolyline
 62
250
  6
CONTINUOUS
 90
43
 70
0
 10
-25.2660729251
 20
22.6614794191
 10
-25.2623104364
 20
22.6899450067
 10
-25.2578151578
 20
22.7186840375
 10
-25.2525919245
 20
22.7476659855
 10
-25.2466464444
 20
22.7768599656
 10
-25.2399850217
 20
22.8062350822
 10
-25.2326145157
 20
22.8357604705
 10
-25.2245427664
 20
22.8654050404
 10
-25.2157784474
 20
22.8951370856
 10
-25.206330784
 20
22.9249246363
 10
-25.1962099724
 20
22.9547359671
 10
-25.1854268103
 20
22.9845395646
 10
-25.1739925191
 20
23.0143037438
 10
-25.1619193633
 20
23.0439969649
 10
-25.1492202746
 20
23.0735877
 10
-25.1359084917
 20
23.1030443983
 10
-25.1219982801
 20
23.1323358695
 10
-25.107504549
 20
23.1614310065
 10
-25.0924424678
 20
23.1902986515
 10
-25.07682822
 20
23.2189081776
 10
-25.0606785135
 20
23.2472292865
 10
-25.0440101938
 20
23.2752317296
 10
-25.0268411441
 20
23.3028858419
 10
-25.0091897581
 20
23.3301623121
 10
-24.9910744495
 20
23.3570319786
 10
-24.9725146283
 20
23.3834664167
 10
-24.9535302017
 20
23.4094375859
 10
-24.9341410473
 20
23.4349176008
 10
-24.9143679939
 20
23.4598794575
 10
-24.8942322066
 20
23.4842967603
 10
-24.8737546864
 20
23.508143367
 10
-24.8529574108
 20
23.53139403
 10
-24.8318626581
 20
23.5540241589
 10
-24.810492391
 20
23.5760095413
 10
-24.7888694377
 20
23.5973270133
 10
-24.7670170621
 20
23.617953923
 10
-24.7449582907
 20
23.6378679062
 10
-24.7227169671
 20
23.6570477703
 10
-24.7003167582
 20
23.6754734332
 10
-24.6777807174
 20
23.6931253532
 10
-24.6551326824
 20
23.7099848329
 10
-24.6323972568
 20
23.7260340785
 10
-24.6095988176
 20
23.7412561305
  0
LWPOLYLINE
  5
251
100
AcDbEntity
  8
0
100
AcDbPolyline
 62
250
  6
CONTINUOUS
 90
27
 70
0
 10
-18.8017776525
 20
25.6880017916
 10
-18.8061967381
 20
25.6773089646
 10
-18.8110028748
 20
25.6668719321
 10
-18.8161852112
 20
25.6567142588
 10
-18.8217320469
 20
25.6468588783
 10
-18.8276308582
 20
25.6373280422
 10
-18.8338683269
 20
25.6281432689
 10
-18.8404303702
 20
25.6193252955
 10
-18.8473021724
 20
25.6108940313
 10
-18.8544682182
 20
25.6028685125
 10
-18.8619123282
 20
25.5952668589
 10
-18.8696176951
 20
25.5881062334
 10
-18.8775669211
 20
25.5814028038
 10
-18.8857420582
 20
25.5751717049
 10
-18.8941246488
 20
25.5694270048
 10
-18.9026957663
 20
25.5641816739
 10
-18.9114360586
 20
25.5594475548
 10
-18.9203257921
 20
25.5552353357
 10
-18.9293448958
 20
25.5515545265
 10
-18.9384730066
 20
25.5484134373
 10
-18.947689515
 20
25.5458191598
 10
-18.9569736125
 20
25.5437775507
 10
-18.9663043376
 20
25.5422932194
 10
-18.9756606236
 20
25.5413695169
 10
-18.9850213465
 20
25.5410085283
 10
-18.9943653717
 20
25.5412110686
 10
-19.0004803002
 20
25.5416502682
  0
LINE
  5
252
100
AcDbEntity
  8
0
100
AcDbLine
 62
7
  6
CONTINUOUS
 10
-13.5329125632
 20
22.6642291407
 11
-12.6044067836
 21
23.2467615051
  0
LWPOLYLINE
  5
253
100
AcDbEntity
  8
0
100
AcDbPolyline
 62
250
  6
CONTINUOUS
 90
63
 70
0
 10
-11.9642375723
 20
23.1094618946
 10
-11.9677493
 20
23.1072617717
 10
-11.971256709
 20
23.1049633791
 10
-11.9747576632
 20
23.1025680738
 10
-11.9782499618
 20
23.1000773185
 10
-11.9817313419
 20
23.0974926899
 10
-11.9851999796
 20
23.0948154944
 10
-11.9886533889
 20
23.0920476028
 10
-11.99208834
 20
23.0891916195
 10
-11.9955023606
 20
23.0862496815
 10
-11.9988937175
 20
23.0832233643
 10
-12.0022603279
 20
23.0801145921
 10
-12.0055997663
 20
23.0769256885
 10
-12.0089103565
 20
23.0736583383
 10
-12.0121911406
 20
23.070313502
 10
-12.0154405282
 20
23.0668927411
 10
-12.0186560476
 20
23.0633985973
 10
-12.0218354266
 20
23.0598335156
 10
-12.0249768073
 20
23.0561995637
 10
-12.0280781344
 20
23.0524991034
 10
-12.0311369076
 20
23.0487351407
 10
-12.034151057
 20
23.0449102907
 10
-12.0371189519
 20
23.0410266918
 10
-12.0400388158
 20
23.0370867246
 10
-12.0429084683
 20
23.0330934117
 10
-12.0457265783
 20
23.0290486874
 10
-12.0484926216
 20
23.0249532793
 10
-12.051205318
 20
23.0208089407
 10
-12.053862456
 20
23.0166189051
 10
-12.0564621088
 20
23.0123861162
 10
-12.0590028077
 20
23.0081128737
 10
-12.0614827689
 20
23.0038020837
 10
-12.0638997167
 20
22.999457684
 10
-12.0662521279
 20
22.9950824638
 10
-12.0685386213
 20
22.990679045
 10
-12.0707572968
 20
22.9862511901
 10
-12.0729064444
 20
22.9818025204
 10
-12.0749852439
 20
22.9773349491
 10
-12.0769931701
 20
22.9728496892
 10
-12.0789289039
 20
22.968349694
 10
-12.080791336
 20
22.9638375493
 10
-12.0825801449
 20
22.959313895
 10
-12.0842946515
 20
22.954780068
 10
-12.0859331051
 20
22.9502403013
 10
-12.0874936483
 20
22.9456995856
 10
-12.0889750946
 20
22.9411614259
 10
-12.0903767737
 20
22.9366279317
 10
-12.0916977919
 20
22.9321020027
 10
-12.09293753
 20
22.9275857135
 10
-12.0940950084
 20
22.9230825834
 10
-12.0951689976
 20
22.9185976468
 10
-12.0961585476
 20
22.9141356096
 10
-12.0970636712
 20
22.9096972135
 10
-12.0978845812
 20
22.9052815507
 10
-12.0986209568
 20
22.9008897276
 10
-12.0992719451
 20
22.8965261371
 10
-12.0998369103
 20
22.8921948113
 10
-12.1003154949
 20
22.887898535
 10
-12.100707422
 20
22.883639847
 10
-12.1010123932
 20
22.879422323
 10
-12.101230269
 20
22.8752488492
 10
-12.1013610029
 20
22.8711216497
 10
-12.101404576
 20
22.8670432358
  0
LWPOLYLINE
  5
254
100
AcDbEntity
  8
0
100
AcDbPolyline
 62
250
  6
CONTINUOUS
 90
64
 70
0
 10
-13.6738348932
 20
24.1006913636
 10
-13.6773487686
 20
24.098590829
 10
-13.6808604962
 20
24.0963907061
 10
-13.6843679052
 20
24.0940923135
 10
-13.6878688594
 20
24.0916970082
 10
-13.6913611581
 20
24.0892062529
 10
-13.6948425382
 20
24.0866216243
 10
-13.6983111759
 20
24.0839444287
 10
-13.7017645852
 20
24.0811765372
 10
-13.7051995363
 20
24.0783205539
 10
-13.7086135569
 20
24.0753786159
 10
-13.7120049137
 20
24.0723522987
 10
-13.7153715242
 20
24.0692435265
 10
-13.7187109625
 20
24.0660546229
 10
-13.7220215528
 20
24.0627872727
 10
-13.7253023368
 20
24.0594424364
 10
-13.7285517245
 20
24.0560216755
 10
-13.7317672439
 20
24.0525275317
 10
-13.7349466229
 20
24.04896245
 10
-13.7380880036
 20
24.0453284981
 10
-13.7411893307
 20
24.0416280378
 10
-13.7442481038
 20
24.0378640751
 10
-13.7472622533
 20
24.0340392251
 10
-13.7502301482
 20
24.0301556262
 10
-13.753150012
 20
24.026215659
 10
-13.7560196646
 20
24.0222223461
 10
-13.7588377746
 20
24.0181776218
 10
-13.7616038179
 20
24.0140822137
 10
-13.7643165143
 20
24.0099378751
 10
-13.7669736522
 20
24.0057478395
 10
-13.7695733051
 20
24.0015150506
 10
-13.7721140039
 20
23.9972418081
 10
-13.7745939651
 20
23.9929310181
 10
-13.777010913
 20
23.9885866184
 10
-13.7793633241
 20
23.9842113982
 10
-13.7816498175
 20
23.9798079794
 10
-13.783868493
 20
23.9753801245
 10
-13.7860176407
 20
23.9709314548
 10
-13.7880964402
 20
23.9664638835
 10
-13.7901043664
 20
23.9619786236
 10
-13.7920401002
 20
23.9574786284
 10
-13.7939025323
 20
23.9529664837
 10
-13.7956913411
 20
23.9484428294
 10
-13.7974058478
 20
23.9439090024
 10
-13.7990443014
 20
23.9393692357
 10
-13.8006048445
 20
23.93482852
 10
-13.8020862909
 20
23.9302903603
 10
-13.80348797
 20
23.9257568661
 10
-13.8048089882
 20
23.9212309371
 10
-13.8060487263
 20
23.9167146479
 10
-13.8072062046
 20
23.9122115178
 10
-13.8082801938
 20
23.9077265812
 10
-13.8092697438
 20
23.903264544
 10
-13.8101748674
 20
23.8988261479
 10
-13.8109957775
 20
23.8944104851
 10
-13.811732153
 20
23.890018662
 10
-13.8123831414
 20
23.8856550715
 10
-13.8129481065
 20
23.8813237457
 10
-13.8134266912
 20
23.8770274694
 10
-13.8138186182
 20
23.8727687814
 10
-13.8141235895
 20
23.8685512574
 10
-13.8143414653
 20
23.8643777836
 10
-13.8144721991
 20
23.8602505841
 10
-13.8145157723
 20
23.8561721702
  0
LINE
  5
255
100
AcDbEntity
  8
0
100
AcDbLine
 62
7
  6
CONTINUOUS
 10
-11.1494754366
 20
23.6624459068
 11
-12.0620786162
 21
23.120676438
  0
LINE
  5
256
100
AcDbEntity
  8
0
100
AcDbLine
 62
250
  6
CONTINUOUS
 10
-11.0487729419
 20
23.6529445842
 11
-11.9642375723
 21
23.1094618946
  0
LINE
  5
257
100
AcDbEntity
  8
0
100
AcDbLine
 62
7
  6
CONTINUOUS
 10
-13.2048731473
 20
24.8978498205
 11
-9.7462869589
 21
26.9065170631
  0
LINE
  5
258
100
AcDbEntity
  8
0
100
AcDbLine
 62
7
  6
CONTINUOUS
 10
-7.0051829509
 20
28.0890142042
 11
-12.8513197567
 21
24.6937125239
  0
LINE
  5
259
100
AcDbEntity
  8
0
100
AcDbLine
 62
7
  6
CONTINUOUS
 10
-12.6044067836
 20
24.3063661938
 11
-7.8947179644
 21
27.0256861188
  0
LINE
  5
25A
100
AcDbEntity
  8
0
100
AcDbLine
 62
250
  6
CONTINUOUS
 10
-12.7458270628
 20
24.6328023646
 11
-13.6738348932
 21
24.1006913636
  0
LINE
  5
25B
100
AcDbEntity
  8
0
100
AcDbLine
 62
250
  6
CONTINUOUS
 10
-12.6044067836
 20
24.3878592353
 11
-13.5329125632
 21
23.8554627148
  0
LWPOLYLINE
  5
25C
100
AcDbEntity
  8
0
100
AcDbPolyline
 62
250
  6
CONTINUOUS
 90
64
 70
0
 10
-13.5329125632
 20
23.8554627148
 10
-13.5364925128
 20
23.8534812335
 10
-13.5401569528
 20
23.8515513525
 10
-13.5439036633
 20
23.8496742799
 10
-13.5477304111
 20
23.8478511744
 10
-13.551634836
 20
23.8460831992
 10
-13.555614445
 20
23.8443715158
 10
-13.5596672327
 20
23.8427170286
 10
-13.5637903192
 20
23.8411209544
 10
-13.5679797536
 20
23.839584806
 10
-13.5722323544
 20
23.8381096747
 10
-13.5765459994
 20
23.8366962223
 10
-13.580918212
 20
23.8353452091
 10
-13.5853459047
 20
23.8340575348
 10
-13.5898266846
 20
23.8328338416
 10
-13.5943591251
 20
23.8316745106
 10
-13.5989410479
 20
23.8305801403
 10
-13.6035690756
 20
23.8295515782
 10
-13.6082399716
 20
23.8285895594
 10
-13.6129510459
 20
23.8276946483
 10
-13.6176992289
 20
23.8268674381
 10
-13.6224806441
 20
23.8261085878
 10
-13.6272919468
 20
23.8254185809
 10
-13.6321305487
 20
23.8247977419
 10
-13.6369936655
 20
23.8242463946
 10
-13.6418776908
 20
23.8237649056
 10
-13.6467802242
 20
23.8233534695
 10
-13.6517002997
 20
23.8230121838
 10
-13.6566357567
 20
23.8227412772
 10
-13.6615827295
 20
23.822541041
 10
-13.6665376937
 20
23.8224116677
 10
-13.6714979365
 20
23.8223532745
 10
-13.6764600758
 20
23.8223659477
 10
-13.6814195735
 20
23.8224496831
 10
-13.6863732484
 20
23.8226043996
 10
-13.6913181853
 20
23.8228299789
 10
-13.6962502593
 20
23.8231261846
 10
-13.7011655078
 20
23.8234926864
 10
-13.7060618775
 20
23.8239292386
 10
-13.7109381157
 20
23.8244356954
 10
-13.7157910701
 20
23.8250117304
 10
-13.7206179212
 20
23.8256570098
 10
-13.725417879
 20
23.826371482
 10
-13.7301894254
 20
23.8271550594
 10
-13.7349280829
 20
23.8280071462
 10
-13.739628654
 20
23.8289268605
 10
-13.744287549
 20
23.8299134827
 10
-13.7489026076
 20
23.8309665379
 10
-13.7534708696
 20
23.8320853473
 10
-13.7579902256
 20
23.8332694058
 10
-13.762457183
 20
23.83451781
 10
-13.7668668368
 20
23.8358291241
 10
-13.7712146793
 20
23.8372018306
 10
-13.7755000672
 20
23.8386355473
 10
-13.7797238864
 20
23.8401305427
 10
-13.7838850301
 20
23.8416865449
 10
-13.7879792923
 20
23.8433021029
 10
-13.7920028765
 20
23.8449757552
 10
-13.7959532061
 20
23.8467064232
 10
-13.7998279647
 20
23.8484930856
 10
-13.8036239293
 20
23.8503342223
 10
-13.8073385484
 20
23.8522285197
 10
-13.8109698859
 20
23.8541749128
 10
-13.8145157723
 20
23.8561721702
  0
LWPOLYLINE
  5
25D
100
AcDbEntity
  8
0
100
AcDbPolyline
 62
7
  6
CONTINUOUS
 90
20
 70
0
 10
-4.7150896842
 20
25.1855803559
 10
-4.7054110686
 20
25.1885301082
 10
-4.6953964061
 20
25.1909798423
 10
-4.6850534812
 20
25.1929217898
 10
-4.6744040337
 20
25.1943524865
 10
-4.6634442223
 20
25.1952606556
 10
-4.6521413304
 20
25.1956245952
 10
-4.6405068052
 20
25.1954385452
 10
-4.628544706
 20
25.1946887921
 10
-4.6162061598
 20
25.1933360195
 10
-4.6034822115
 20
25.1913665971
 10
-4.5903960861
 20
25.1887668853
 10
-4.576945148
 20
25.1854933372
 10
-4.5631412447
 20
25.1815313195
 10
-4.5489944349
 20
25.1768669502
 10
-4.5345004171
 20
25.171455935
 10
-4.5196685345
 20
25.1652788458
 10
-4.5045195447
 20
25.1583241276
 10
-4.4890681717
 20
25.1505580788
 10
-4.4733420998
 20
25.1419674163
  0
LINE
  5
25E
100
AcDbEntity
  8
0
100
AcDbLine
 62
7
  6
CONTINUOUS
 10
10.4789271859
 20
-28.1493187474
 11
11.1897364034
 21
-28.2145712284
  0
LWPOLYLINE
  5
25F
100
AcDbEntity
  8
RACCORDO
100
AcDbPolyline
 62
250
  6
CONTINUOUS
 90
60
 70
0
 10
-21.1502641637
 20
-19.3546674763
 10
-20.7512207618
 20
-19.5492683279
 10
-20.3553619525
 20
-19.7185117939
 10
-19.9627132388
 20
-19.8621949569
 10
-19.5732491177
 20
-19.9805207345
 10
-19.190077673
 20
-20.0725448686
 10
-18.8132492683
 20
-20.1380569031
 10
-18.44271354
 20
-20.1772672943
 10
-18.0814274808
 20
-20.1898631526
 10
-17.729465104
 20
-20.175631527
 10
-17.3867523963
 20
-20.1347853684
 10
-17.0560243112
 20
-20.0676506407
 10
-16.7373767368
 20
-19.9740169989
 10
-16.430713785
 20
-19.854094788
 10
-16.1384827448
 20
-19.7088410061
 10
-15.8607990831
 20
-19.5380529521
 10
-15.597547333
 20
-19.3419333272
 10
-15.3508283829
 20
-19.1220472328
 10
-15.12077452
 20
-18.8782044763
 10
-14.9072534572
 20
-18.6105952503
 10
-14.7119692207
 20
-18.3213552336
 10
-14.5350677526
 20
-18.0103113497
 10
-14.376403111
 20
-17.6776366752
 10
-14.2372414965
 20
-17.3259861187
 10
-14.1177389681
 20
-16.9552078056
 10
-14.0177394668
 20
-16.5654536105
 10
-13.9380410159
 20
-16.1598340667
 10
-13.8788060571
 20
-15.7382224168
 10
-13.8398721486
 20
-15.300745418
 10
-13.8215499886
 20
-14.850893876
 10
-13.8240045371
 20
-14.388568314
 10
-13.8470708341
 20
-13.9138682087
 10
-13.8905646977
 20
-13.4305827954
 10
-13.9546494614
 20
-12.9386441607
 10
-14.0391617918
 20
-12.438120218
 10
-14.1434275073
 20
-11.9330039429
 10
-14.2676045048
 20
-11.4232584917
 10
-14.4115348875
 20
-10.9089207082
 10
-14.5740707828
 20
-10.3940940987
 10
-14.7553638725
 20
-9.8787693835
 10
-14.9552624747
 20
-9.3629558423
 10
-15.1721636719
 20
-8.8507848215
 10
-15.4061902132
 20
-8.342308638
 10
-15.6572193493
 20
-7.8374749749
 10
-15.9232799157
 20
-7.3402582272
 10
-16.2045317062
 20
-6.850659202
 10
-16.5008149269
 20
-6.3686770923
 10
-16.8096790311
 20
-5.8982838723
 10
-17.1311568715
 20
-5.4396672679
 10
-17.4652155953
 20
-4.9926395533
 10
-17.8093060977
 20
-4.5606095245
 10
-18.1635698617
 20
-4.1436142978
 10
-18.5278654042
 20
-3.7416167569
 10
-18.899219172
 20
-3.3579143491
 10
-19.2779932247
 20
-2.9924809242
 10
-19.6638255026
 20
-2.6453426324
 10
-20.0526562723
 20
-2.3198753711
 10
-20.4431322895
 20
-2.0172044395
 10
-20.8366067986
 20
-1.7362045385
 10
-21.2330797996
 20
-1.476875668
  0
LINE
  5
260
100
AcDbEntity
  8
0
100
AcDbLine
 62
7
  6
CONTINUOUS
 10
-9.4968393826
 20
20.593152454
 11
-10.4216357196
 21
20.0090782205
  0
LINE
  5
261
100
AcDbEntity
  8
0
100
AcDbLine
 62
7
  6
CONTINUOUS
 10
-11.0045038581
 20
21.6892217732
 11
-10.402517246
 21
22.0465928346
  0
LINE
  5
262
100
AcDbEntity
  8
0
100
AcDbLine
 62
250
  6
CONTINUOUS
 10
-10.9031489388
 20
21.6801077643
 11
-10.202212985
 21
22.0962203835
  0
LINE
  5
263
100
AcDbEntity
  8
0
100
AcDbLine
 62
7
  6
CONTINUOUS
 10
-10.7037360164
 20
21.2392226722
 11
-8.7860301652
 21
22.3464652638
  0
LINE
  5
264
100
AcDbEntity
  8
0
100
AcDbLine
 62
7
  6
CONTINUOUS
 10
-4.2102189741
 20
24.8251899296
 11
-8.7860301652
 21
22.1831712084
  0
LINE
  5
265
100
AcDbEntity
  8
0
100
AcDbLine
 62
7
  6
CONTINUOUS
 10
-9.4894345101
 20
20.5888769734
 11
-4.144844815
 21
23.6711699516
  0
LINE
  5
266
100
AcDbEntity
  8
0
100
AcDbLine
 62
7
  6
CONTINUOUS
 10
-9.279033797
 20
22.631119382
 11
-4.7823871679
 21
25.1555526737
  0
LINE
  5
267
100
AcDbEntity
  8
0
100
AcDbLine
 62
7
  6
CONTINUOUS
 10
-2.6390539155
 20
25.5680660196
 11
-4.0280253099
 21
24.7892175812
  0
LINE
  5
268
100
AcDbEntity
  8
RACCORDO
100
AcDbLine
 62
250
  6
CONTINUOUS
 10
5.3233031639
 20
28.976111249
 11
5.6262456563
 21
29.1409793077
  0
LWPOLYLINE
  5
269
100
AcDbEntity
  8
RACCORDO
100
AcDbPolyline
 62
7
  6
CONTINUOUS
 90
28
 70
0
 10
5.3233031639
 20
28.976111249
 10
5.7423446312
 20
29.2013849814
 10
6.1772339552
 20
29.4021653895
 10
6.6273645349
 20
29.577717912
 10
7.0919633716
 20
29.7273235478
 10
7.570478752
 20
29.850409292
 10
8.0626561852
 20
29.9464813959
 10
8.568437668
 20
30.0150242936
 10
9.0865947923
 20
30.0553799352
 10
9.6151364505
 20
30.0670728846
 10
10.1526390738
 20
30.0499222763
 10
10.6991302321
 20
30.0037752479
 10
11.254831635
 20
29.9283312751
 10
11.8203340487
 20
29.8230632125
 10
12.3938017278
 20
29.6878583369
 10
12.971787937
 20
29.5233601215
 10
13.5528922096
 20
29.3300375037
 10
14.1370902708
 20
29.1079532176
 10
14.7229019455
 20
28.857713672
 10
15.3097223056
 20
28.5796503518
 10
15.8966918047
 20
28.2742280362
 10
16.4818844418
 20
27.9425819855
 10
17.0642374128
 20
27.585536787
 10
17.6433239042
 20
27.20356178
 10
18.2181263543
 20
26.7975189802
 10
18.7878053203
 20
26.3682053043
 10
19.351717113
 20
25.9162979163
 10
19.9091029048
 20
25.4425805625
  0
LWPOLYLINE
  5
26A
100
AcDbEntity
  8
RACCORDO
100
AcDbPolyline
 62
250
  6
CONTINUOUS
 90
35
 70
0
 10
5.6262456563
 20
29.1409793077
 10
6.0425659411
 20
29.3368226484
 10
6.4732223052
 20
29.5054208943
 10
6.9175669833
 20
29.6465204162
 10
7.3749316184
 20
29.7599089533
 10
7.8446283288
 20
29.8454159419
 10
8.3259507171
 20
29.9029127496
 10
8.8181751277
 20
29.9323128667
 10
9.3205609414
 20
29.9335719933
 10
9.8323516979
 20
29.9066882638
 10
10.3527772017
 20
29.8517022619
 10
10.8810550176
 20
29.7686967808
 10
11.4163908351
 20
29.6577966975
 10
11.9579793615
 20
29.5191688914
 10
12.505006071
 20
29.3530219071
 10
13.0566487415
 20
29.1596054842
 10
13.6120778699
 20
28.9392104163
 10
14.170457834
 20
28.6921682342
 10
14.7309487107
 20
28.4188505164
 10
15.2927075503
 20
28.1196682921
 10
15.8548893344
 20
27.7950715759
 10
16.4166481761
 20
27.4455487722
 10
16.9771390586
 20
27.0716256712
 10
17.5355190304
 20
26.6738646614
 10
18.0909481633
 20
26.2528640903
 10
18.6425908338
 20
25.8092573843
 10
19.1896175403
 20
25.3437116383
 10
19.7312060598
 20
24.8569265954
 10
20.2665418646
 20
24.3496343075
 10
20.7948196644
 20
23.8225978257
 10
21.3152451542
 20
23.2766095172
 10
21.8270358993
 20
22.7124901247
 10
22.3294217037
 20
22.1310884672
 10
22.8216461106
 20
21.533279947
 10
23.3029685027
 20
20.919964109
  0
LWPOLYLINE
  5
26B
100
AcDbEntity
  8
0
100
AcDbPolyline
 62
7
  6
CONTINUOUS
 90
54
 70
0
 10
-1.2822410854
 20
25.1181715107
 10
-0.9559815074
 20
25.2601678694
 10
-0.4631070802
 20
25.4324461275
 10
0.0466394981
 20
25.5695936307
 10
0.5731625443
 20
25.6718096083
 10
1.1134647715
 20
25.7385121853
 10
1.6676247682
 20
25.7694988136
 10
2.2355639459
 20
25.7649720414
 10
2.8140492521
 20
25.7249576376
 10
3.403140836
 20
25.6492532013
 10
4.0027785485
 20
25.5380611336
 10
4.6095488898
 20
25.3920144066
 10
5.2234925406
 20
25.2109142296
 10
5.8445688202
 20
24.9949593934
 10
6.469242188
 20
24.7453792433
 10
7.0975331595
 20
24.4619819998
 10
7.7294212191
 20
24.1449594423
 10
8.3613092786
 20
23.7961162546
 10
8.9931973382
 20
23.41527095
 10
9.6250853978
 20
23.0026050151
 10
10.2533763693
 20
22.5604675934
 10
10.878049737
 20
22.0886905964
 10
11.4991260167
 20
21.5874421127
 10
12.1130696674
 20
21.0595755509
 10
12.7198400088
 20
20.5049390968
 10
13.3194777212
 20
19.9236845647
 10
13.9085693051
 20
19.319120806
 10
14.4870546114
 20
18.6911148783
 10
15.0549937891
 20
18.0397997241
 10
15.6091537858
 20
17.368883022
 10
16.149456013
 20
16.6782529763
 10
16.6759790591
 20
15.9680213828
 10
17.1857256374
 20
15.2422313082
 10
17.6786000646
 20
14.5007940159
 10
18.1546980239
 20
13.7437982426
 10
18.6113092786
 20
12.9755532648
 10
19.0483226877
 20
12.1959949237
 10
19.4658493921
 20
11.4051873781
 10
19.861512578
 20
10.6076323818
 10
20.2351875483
 20
9.8032914511
 10
20.5869990001
 20
8.9922030697
 10
20.9149442104
 20
8.1789844419
 10
21.2188870597
 20
7.363623418
 10
21.4989636675
 20
6.5461321477
 10
21.7535796686
 20
5.7311642846
 10
21.9825898505
 20
4.9187342208
 10
22.1861394257
 20
4.108827564
 10
22.3630696674
 20
3.3060547917
 10
22.5132287541
 20
2.5104565914
 10
22.6367685072
 20
1.7219922756
 10
22.7329856639
 20
0.9451502588
 10
22.8016458033
 20
0.1814266792
 10
22.8429833463
 20
-0.5706746013
 10
22.8569982929
 20
-1.3111535829
  0
LINE
  5
26C
100
AcDbEntity
  8
0
100
AcDbLine
 62
7
  6
CONTINUOUS
 10
-4.1266130004
 20
24.8617698857
 11
-4.144844815
 21
24.8554090485
  0
LWPOLYLINE
  5
26D
100
AcDbEntity
  8
0
100
AcDbPolyline
 62
7
  6
CONTINUOUS
 90
27
 70
0
 10
5.6641670089
 20
-29.9758140994
 10
5.6812612899
 20
-29.9853572947
 10
5.7052076767
 20
-29.997660675
 10
5.7296930815
 20
-30.0090265769
 10
5.7546932778
 20
-30.0194360128
 10
5.7802088281
 20
-30.0288791737
 10
5.8062053085
 20
-30.0373313323
 10
5.8326430717
 20
-30.0447684064
 10
5.859517431
 20
-30.0511773763
 10
5.8867903244
 20
-30.0565365507
 10
5.9144223918
 20
-30.0608262202
 10
5.9424105124
 20
-30.0640323878
 10
5.9707159814
 20
-30.0661363854
 10
5.9992998132
 20
-30.0671221491
 10
6.0281634381
 20
-30.0669745572
 10
6.0572756989
 20
-30.0656763894
 10
6.0865930058
 20
-30.0632136416
 10
6.1161049799
 20
-30.0595704283
 10
6.1457817953
 20
-30.0547317274
 10
6.1755844005
 20
-30.0486861636
 10
6.2054969175
 20
-30.0414189346
 10
6.2354880344
 20
-30.0329178204
 10
6.2655287244
 20
-30.023171334
 10
6.2956157762
 20
-30.0121591127
 10
6.3257329417
 20
-29.9998619726
 10
6.3558424832
 20
-29.9862703148
 10
6.3726925038
 20
-29.9780874912
  0
LINE
  5
26E
100
AcDbEntity
  8
0
100
AcDbLine
 62
7
  6
CONTINUOUS
 10
5.6642205511
 20
-29.9758453228
 11
-10.9956407878
 21
-20.3566501828
  0
LINE
  5
26F
100
AcDbEntity
  8
0
100
AcDbLine
 62
250
  6
CONTINUOUS
 10
5.463244792
 20
-29.6338634061
 11
-10.7741267381
 21
-20.2586085867
  0
LWPOLYLINE
  5
270
100
AcDbEntity
  8
0
100
AcDbPolyline
 62
250
  6
CONTINUOUS
 90
18
 70
0
 10
-21.4337188338
 20
27.0411712669
 10
-21.4336328242
 20
27.0373851988
 10
-21.4330405569
 20
27.0305454801
 10
-21.4318871025
 20
27.0237296692
 10
-21.4301750542
 20
27.0169531045
 10
-21.4279082631
 20
27.0102310414
 10
-21.4250918286
 20
27.0035786095
 10
-21.4217320879
 20
26.9970107843
 10
-21.4178366042
 20
26.9905423543
 10
-21.4134141454
 20
26.9841878806
 10
-21.4084746642
 20
26.9779616656
 10
-21.4030292794
 20
26.9718777259
 10
-21.397090244
 20
26.9659497531
 10
-21.3906709285
 20
26.9601910937
 10
-21.3837857948
 20
26.9546147207
 10
-21.3764503476
 20
26.9492331884
 10
-21.3686810959
 20
26.9440586056
 10
-21.3604955291
 20
26.9391026185
  0
LINE
  5
271
100
AcDbEntity
  8
0
100
AcDbLine
 62
7
  6
CONTINUOUS
 10
-21.4337188338
 20
27.0411712669
 11
-21.4337188338
 21
26.805503743
  0
LINE
  5
272
100
AcDbEntity
  8
0
100
AcDbLine
 62
250
  6
CONTINUOUS
 10
-21.3604955291
 20
26.9391026185
 11
-21.3604955291
 21
26.7034350947
  0
LINE
  5
273
100
AcDbEntity
  8
0
100
AcDbLine
 62
7
  6
CONTINUOUS
 10
-20.7303144889
 20
26.2550339723
 11
-20.7303144889
 21
25.8531359316
  0
LINE
  5
274
100
AcDbEntity
  8
0
100
AcDbLine
 62
250
  6
CONTINUOUS
 10
-20.6570911842
 20
26.2127557539
 11
-20.6570911842
 21
25.7479341024
  0
LINE
  5
275
100
AcDbEntity
  8
0
100
AcDbLine
 62
250
  6
CONTINUOUS
 10
-19.6875099366
 20
25.737474181
 11
-19.6875099366
 21
25.9731417048
  0
LINE
  5
276
100
AcDbEntity
  8
RACCORDO
100
AcDbLine
 62
250
  6
CONTINUOUS
 10
-21.8655357719
 20
-2.4770576291
 11
-21.8655281225
 21
-1.1040494642
  0
LINE
  5
277
100
AcDbEntity
  8
RACCORDO
100
AcDbLine
 62
250
  6
CONTINUOUS
 10
-21.2330725958
 20
-1.4692213588
 11
-21.2330801226
 21
-2.8422008302
  0
LINE
  5
278
100
AcDbEntity
  8
RACCORDO
100
AcDbLine
 62
250
  6
CONTINUOUS
 10
-21.789261068
 20
-2.493879733
 11
-21.7892493657
 21
-1.1210527174
  0
LINE
  5
279
100
AcDbEntity
  8
RACCORDO
100
AcDbLine
 62
7
  6
CONTINUOUS
 10
-21.2622391336
 20
-1.396848307
 11
-21.2623691214
 21
-2.8013713024
  0
LINE
  5
27A
100
AcDbEntity
  8
RACCORDO
100
AcDbLine
 62
7
  6
CONTINUOUS
 10
-21.2623696808
 20
-2.8013893593
 11
-21.2624114648
 21
-2.8054265945
  0
LWPOLYLINE
  5
27B
100
AcDbEntity
  8
RACCORDO
100
AcDbPolyline
 62
250
  6
CONTINUOUS
 90
37
 70
0
 10
-21.7892493657
 20
-1.1210527174
 10
-21.787922078
 20
-1.0280760472
 10
-21.7845999955
 20
-0.9364959887
 10
-21.7794518339
 20
-0.8464613098
 10
-21.772650641
 20
-0.7581980277
 10
-21.7643524997
 20
-0.6717448021
 10
-21.7546789825
 20
-0.5869458635
 10
-21.7437630141
 20
-0.5038720189
 10
-21.7317410216
 20
-0.422642575
 10
-21.7187089336
 20
-0.3431515095
 10
-21.704788584
 20
-0.2655013066
 10
-21.6900881001
 20
-0.1897282485
 10
-21.6746549759
 20
-0.1156099455
 10
-21.6585871457
 20
-0.0432176148
 10
-21.641971117
 20
0.027422944
 10
-21.6248057796
 20
0.0966162149
 10
-21.607160162
 20
0.1643355586
 10
-21.5891055358
 20
0.2305412271
 10
-21.5706147178
 20
0.2955278521
 10
-21.5517143976
 20
0.3593604035
 10
-21.5324817351
 20
0.4219279008
 10
-21.5129491159
 20
0.4832663818
 10
-21.4931473427
 20
0.5434084779
 10
-21.4731385172
 20
0.6022880878
 10
-21.4530010614
 20
0.6597960927
 10
-21.4328496361
 20
0.7157336206
 10
-21.4126646929
 20
0.770277017
 10
-21.3923107456
 20
0.8238818751
 10
-21.3719390819
 20
0.8762298574
 10
-21.3514617494
 20
0.9276241585
 10
-21.3303328607
 20
0.9794493252
 10
-21.3084371994
 20
1.0319455772
 10
-21.2858673847
 20
1.0848494589
 10
-21.2623353973
 20
1.138782021
 10
-21.2377204189
 20
1.1939373277
 10
-21.2120878365
 20
1.2500857417
 10
-21.1854119827
 20
1.3072075636
  0
LWPOLYLINE
  5
27C
100
AcDbEntity
  8
RACCORDO
100
AcDbPolyline
 62
250
  6
CONTINUOUS
 90
34
 70
0
 10
-21.8655281225
 20
-1.1040494642
 10
-21.8640074
 20
-1.0021131912
 10
-21.8601091711
 20
-0.9018490158
 10
-21.8540568808
 20
-0.8034436942
 10
-21.8460861886
 20
-0.7071789374
 10
-21.8363974282
 20
-0.6131005056
 10
-21.8251298346
 20
-0.5210095097
 10
-21.8124552236
 20
-0.4309910394
 10
-21.7985522828
 20
-0.3431870778
 10
-21.7835254978
 20
-0.257454168
 10
-21.767532272
 20
-0.1739267962
 10
-21.7507096526
 20
-0.0926300246
 10
-21.7330894884
 20
-0.0132344681
 10
-21.7147888483
 20
0.0641885175
 10
-21.6959172672
 20
0.1396041441
 10
-21.6764490142
 20
0.2134134104
 10
-21.6564565794
 20
0.2856177088
 10
-21.6360333321
 20
0.356145676
 10
-21.6151470699
 20
0.4252994439
 10
-21.5938063725
 20
0.493225922
 10
-21.572125214
 20
0.559730448
 10
-21.5502197429
 20
0.6246078686
 10
-21.5282058476
 20
0.6876974354
 10
-21.5060993832
 20
0.7491276723
 10
-21.4838613819
 20
0.8091306186
 10
-21.4617239722
 20
0.8672213045
 10
-21.4395645693
 20
0.923866033
 10
-21.4167506292
 20
0.980720337
 10
-21.393273238
 20
1.0377772296
 10
-21.3691351098
 20
1.0950173238
 10
-21.3436214834
 20
1.1540624276
 10
-21.3164367414
 20
1.2154309709
 10
-21.287759354
 20
1.2785476526
 10
-21.2575355781
 20
1.3433801183
  0
LINE
  5
27D
100
AcDbEntity
  8
RACCORDO
100
AcDbLine
 62
250
  6
CONTINUOUS
 10
-21.2312865839
 20
-1.3525100655
 11
-21.2330725958
 21
-1.4692213588
  0
LWPOLYLINE
  5
27E
100
AcDbEntity
  8
0
100
AcDbPolyline
 62
250
  6
CONTINUOUS
 90
34
 70
0
 10
-21.3604955291
 20
26.9391026185
 10
-21.3602965783
 20
26.9488987852
 10
-21.3597001727
 20
26.9589026603
 10
-21.3587076529
 20
26.969091727
 10
-21.3573212501
 20
26.9794430583
 10
-21.3555440839
 20
26.9899333489
 10
-21.3533801572
 20
27.0005389662
 10
-21.3508343428
 20
27.0112360323
 10
-21.3479123705
 20
27.0220004748
 10
-21.3446208187
 20
27.0328080607
 10
-21.3409670968
 20
27.0436344649
 10
-21.33695943
 20
27.0544553167
 10
-21.3326068435
 20
27.0652462514
 10
-21.3279191366
 20
27.0759829784
 10
-21.3229068617
 20
27.0866413328
 10
-21.3175813038
 20
27.097197321
 10
-21.3119544489
 20
27.1076271889
 10
-21.3060389664
 20
27.117907456
 10
-21.299848184
 20
27.1280149656
 10
-21.2933960573
 20
27.1379269425
 10
-21.2866970948
 20
27.1476211073
 10
-21.2797663313
 20
27.1570757035
 10
-21.2726192974
 20
27.1662695328
 10
-21.2652721414
 20
27.17518181
 10
-21.2577415621
 20
27.1837922916
 10
-21.2500446214
 20
27.1920815076
 10
-21.2421985528
 20
27.2000309359
 10
-21.234220876
 20
27.2076228404
 10
-21.2261283215
 20
27.2148411911
 10
-21.217940297
 20
27.2216685701
 10
-21.2096788254
 20
27.22808692
 10
-21.2013637805
 20
27.2340815067
 10
-21.1930127204
 20
27.2396403724
 10
-21.1846444302
 20
27.2447516103
  0
LINE
  5
27F
100
AcDbEntity
  8
RACCORDO
100
AcDbLine
 62
250
  6
CONTINUOUS
 10
-21.2330801226
 20
-2.8422008302
 11
-21.2334086413
 21
-2.8545688516
  0
LINE
  5
280
100
AcDbEntity
  8
RACCORDO
100
AcDbLine
 62
7
  6
CONTINUOUS
 10
-21.2624114648
 20
-2.8054265945
 11
-21.2628813331
 21
-2.8152614445
  0
LWPOLYLINE
  5
281
100
AcDbEntity
  8
RACCORDO
100
AcDbPolyline
 62
250
  6
CONTINUOUS
 90
51
 70
0
 10
-21.2334086413
 20
-2.8545688516
 10
-21.2341462935
 20
-2.8662731574
 10
-21.2352930791
 20
-2.8773137477
 10
-21.2368854587
 20
-2.8876716846
 10
-21.2388869717
 20
-2.8973659059
 10
-21.2411882366
 20
-2.9064532255
 10
-21.2437816925
 20
-2.91492801
 10
-21.2466749002
 20
-2.9227958927
 10
-21.2497811607
 20
-2.9301305881
 10
-21.2530884355
 20
-2.9369272141
 10
-21.256608763
 20
-2.9431906529
 10
-21.2602915598
 20
-2.9490092648
 10
-21.264125716
 20
-2.9543877174
 10
-21.2681223415
 20
-2.9593213432
 10
-21.2722641821
 20
-2.9638844996
 10
-21.2765452859
 20
-2.96808707
 10
-21.2809716048
 20
-2.971919171
 10
-21.2855437406
 20
-2.9754255095
 10
-21.2902576413
 20
-2.978614272
 10
-21.2951173588
 20
-2.981477272
 10
-21.3001356506
 20
-2.9840346573
 10
-21.3053049737
 20
-2.9862927109
 10
-21.310632871
 20
-2.9882451498
 10
-21.3161547288
 20
-2.9898932727
 10
-21.3218563622
 20
-2.9912455273
 10
-21.3277519561
 20
-2.9922934661
 10
-21.3339194506
 20
-2.9930130447
 10
-21.340355552
 20
-2.9934143904
 10
-21.347063554
 20
-2.993487376
 10
-21.3541312782
 20
-2.9931775756
 10
-21.3616079908
 20
-2.9924715718
 10
-21.3694444256
 20
-2.9913827822
 10
-21.3775806054
 20
-2.9898970327
 10
-21.3860619905
 20
-2.987976835
 10
-21.3948431206
 20
-2.9856596776
 10
-21.4037276376
 20
-2.9830438514
 10
-21.4126728803
 20
-2.980132701
 10
-21.4217215099
 20
-2.9769228818
 10
-21.4308051522
 20
-2.9735026512
 10
-21.4398816196
 20
-2.9698972808
 10
-21.4489930996
 20
-2.9660814989
 10
-21.4581977814
 20
-2.9620677486
 10
-21.4674819926
 20
-2.9578734176
 10
-21.4768594055
 20
-2.9534811182
 10
-21.4864292256
 20
-2.9488511298
 10
-21.4961792648
 20
-2.9439995821
 10
-21.5061217112
 20
-2.9389103455
 10
-21.5163923354
 20
-2.9334953102
 10
-21.5270363944
 20
-2.9277251063
 10
-21.5380086313
 20
-2.9216291037
 10
-21.549309046
 20
-2.9152073024
  0
LINE
  5
282
100
AcDbEntity
  8
RACCORDO
100
AcDbLine
 62
7
  6
CONTINUOUS
 10
-21.2628802041
 20
-2.8152517135
 11
-21.2629093769
 21
-2.8156288248
  0
LWPOLYLINE
  5
283
100
AcDbEntity
  8
RACCORDO
100
AcDbPolyline
 62
250
  6
CONTINUOUS
 90
3
 70
0
 10
-21.2629093769
 20
-2.8156288248
 10
-21.2630475413
 20
-2.8173110541
 10
-21.2639928042
 20
-2.8261173714
  0
LWPOLYLINE
  5
284
100
AcDbEntity
  8
RACCORDO
100
AcDbPolyline
 62
7
  6
CONTINUOUS
 90
5
 70
0
 10
-21.2426231387
 20
-1.0177386823
 10
-21.2506459451
 20
-1.1139621892
 10
-21.2565928282
 20
-1.2092680637
 10
-21.2604589449
 20
-1.3035885876
 10
-21.2622391336
 20
-1.396848307
  0
LWPOLYLINE
  5
285
100
AcDbEntity
  8
RACCORDO
100
AcDbPolyline
 62
250
  6
CONTINUOUS
 90
4
 70
0
 10
-21.2086448967
 20
-1.0146384585
 10
-21.218791342
 20
-1.1249187935
 10
-21.2264307617
 20
-1.237651464
 10
-21.2312865839
 20
-1.3525100655
  0
LINE
  5
286
100
AcDbEntity
  8
RACCORDO
100
AcDbLine
 62
7
  6
CONTINUOUS
 10
-21.2403764632
 20
-0.9943852524
 11
-21.2426231387
 21
-1.0177386823
  0
LINE
  5
287
100
AcDbEntity
  8
RACCORDO
100
AcDbLine
 62
250
  6
CONTINUOUS
 10
-21.1962666799
 20
-0.9069602379
 11
-21.2086448967
 21
-1.0146384585
  0
LWPOLYLINE
  5
288
100
AcDbEntity
  8
RACCORDO
100
AcDbPolyline
 62
250
  6
CONTINUOUS
 90
4
 70
0
 10
-21.2639928042
 20
-2.8261173714
 10
-21.2652468128
 20
-2.8344014201
 10
-21.266779856
 20
-2.8421750305
 10
-21.2685650262
 20
-2.8494623862
  0
LWPOLYLINE
  5
289
100
AcDbEntity
  8
RACCORDO
100
AcDbPolyline
 62
250
  6
CONTINUOUS
 90
3
 70
0
 10
-21.1658311334
 20
-0.6994897797
 10
-21.1819148765
 20
-0.8018505772
 10
-21.1962666799
 20
-0.9069602379
  0
LWPOLYLINE
  5
28A
100
AcDbEntity
  8
RACCORDO
100
AcDbPolyline
 62
7
  6
CONTINUOUS
 90
5
 70
0
 10
-21.1901305444
 20
-0.6263840679
 10
-21.2060226004
 20
-0.7234013784
 10
-21.2196548259
 20
-0.8175200892
 10
-21.2317480483
 20
-0.9138659365
 10
-21.2403764632
 20
-0.9943852524
  0
LINE
  5
28B
100
AcDbEntity
  8
RACCORDO
100
AcDbLine
 62
250
  6
CONTINUOUS
 10
-21.1482437628
 20
-0.6000329486
 11
-21.1658311334
 21
-0.6994897797
  0
LINE
  5
28C
100
AcDbEntity
  8
RACCORDO
100
AcDbLine
 62
250
  6
CONTINUOUS
 10
-21.2575355629
 20
1.3433801101
 11
-21.2544061148
 21
1.3499372494
  0
LINE
  5
28D
100
AcDbEntity
  8
RACCORDO
100
AcDbLine
 62
250
  6
CONTINUOUS
 10
-21.1854119827
 20
1.3072075636
 11
-21.1829232184
 21
1.3123744847
  0
LWPOLYLINE
  5
28E
100
AcDbEntity
  8
RACCORDO
100
AcDbPolyline
 62
250
  6
CONTINUOUS
 90
19
 70
0
 10
-21.2544061148
 20
1.3499372494
 10
-21.2467291803
 20
1.365293366
 10
-21.2384717506
 20
1.3810165515
 10
-21.2296112445
 20
1.397072998
 10
-21.2201368258
 20
1.413403139
 10
-21.2100196924
 20
1.429987034
 10
-21.1992087425
 20
1.4468411279
 10
-21.1876961378
 20
1.4638929832
 10
-21.1754551081
 20
1.4811007623
 10
-21.1623988035
 20
1.4985081893
 10
-21.1485071774
 20
1.5160369134
 10
-21.133772292
 20
1.5335948503
 10
-21.118119131
 20
1.5511765153
 10
-21.1015405467
 20
1.5686655603
 10
-21.0840411568
 20
1.5859347195
 10
-21.0655645277
 20
1.6029255566
 10
-21.0461052832
 20
1.6195012133
 10
-21.0257157577
 20
1.6354599413
 10
-21.0044396691
 20
1.6506160077
  0
LWPOLYLINE
  5
28F
100
AcDbEntity
  8
0
100
AcDbPolyline
 62
7
  6
CONTINUOUS
 90
10
 70
0
 10
-20.0616082448
 20
7.6487561162
 10
-20.002214662
 20
7.7351921977
 10
-19.8977086755
 20
7.8784727268
 10
-19.789939659
 20
8.0176960166
 10
-19.6788748001
 20
8.152896291
 10
-19.5645524739
 20
8.2840361262
 10
-19.4471445326
 20
8.410915909
 10
-19.3267104551
 20
8.5334678515
 10
-19.2031969489
 20
8.651756213
 10
-19.0766070067
 20
8.7657792903
  0
LINE
  5
290
100
AcDbEntity
  8
0
100
AcDbLine
 62
7
  6
CONTINUOUS
 10
-8.7860301652
 20
22.1831712084
 11
-9.2177255886
 21
21.6419892452
  0
LINE
  5
291
100
AcDbEntity
  8
0
100
AcDbLine
 62
7
  6
CONTINUOUS
 10
-8.7860301652
 20
22.1831712084
 11
-9.4968393826
 21
21.3056450213
  0
LWPOLYLINE
  5
292
100
AcDbEntity
  8
0
100
AcDbPolyline
 62
7
  6
CONTINUOUS
 90
22
 70
0
 10
-9.4894345101
 20
21.0029183259
 10
-9.4820049332
 20
21.0109735528
 10
-9.4749902077
 20
21.019539839
 10
-9.4683903337
 20
21.0286171846
 10
-9.462197525
 20
21.0382192053
 10
-9.4564195677
 20
21.0483322853
 10
-9.4510798201
 20
21.0589155773
 10
-9.4461800541
 20
21.0699709839
 10
-9.4417184978
 20
21.0814966024
 10
-9.4377131932
 20
21.0934458779
 10
-9.4341659855
 20
21.1058205248
 10
-9.4310750295
 20
21.1186188286
 10
-9.4284528322
 20
21.1317890906
 10
-9.4263012897
 20
21.1453328315
 10
-9.4246185059
 20
21.1592485306
 10
-9.4234112987
 20
21.1734799273
 10
-9.4226815898
 20
21.1880282403
 10
-9.4224274576
 20
21.2028922508
 10
-9.4226499547
 20
21.218012042
 10
-9.423349432
 20
21.2333676417
 10
-9.4245255387
 20
21.2489790221
 10
-9.4261782747
 20
21.2648461832
  0
LWPOLYLINE
  5
293
100
AcDbEntity
  8
0
100
AcDbPolyline
 62
250
  6
CONTINUOUS
 90
34
 70
0
 10
-7.208000845
 20
19.1748127727
 10
-7.2163830457
 20
19.1696926569
 10
-7.2247443015
 20
19.1641259563
 10
-7.2330657976
 20
19.1581251977
 10
-7.2413288085
 20
19.151703884
 10
-7.2495147404
 20
19.1448764649
 10
-7.257605173
 20
19.1376583037
 10
-7.2655819007
 20
19.1300656432
 10
-7.273426974
 20
19.1221155686
 10
-7.2811227395
 20
19.1138259695
 10
-7.2886518798
 20
19.1052154998
 10
-7.2959974525
 20
19.0963035349
 10
-7.3031429282
 20
19.0871101292
 10
-7.3100722279
 20
19.0776559699
 10
-7.3167697588
 20
19.0679623313
 10
-7.32322045
 20
19.0580510265
 10
-7.3294097858
 20
19.0479443584
 10
-7.3353238385
 20
19.0376650694
 10
-7.3409493002
 20
19.0272362906
 10
-7.3462735121
 20
19.0166814892
 10
-7.3512844935
 20
19.0060244161
 10
-7.3559709684
 20
18.9952890525
 10
-7.3603223911
 20
18.9844995556
 10
-7.3643289698
 20
18.9736802043
 10
-7.3679816887
 20
18.9628553449
 10
-7.3712723282
 20
18.9520493361
 10
-7.3741934837
 20
18.9412864939
 10
-7.3767385819
 20
18.9305910375
 10
-7.3789018955
 20
18.9199870343
 10
-7.3806785567
 20
18.9094983459
 10
-7.3820645674
 20
18.8991485745
 10
-7.3830568089
 20
18.8889610096
 10
-7.3836530483
 20
18.8789585758
 10
-7.3838519439
 20
18.8691637809
  0
LINE
  5
294
100
AcDbEntity
  8
0
100
AcDbLine
 62
7
  6
CONTINUOUS
 10
-9.0070251098
 20
20.1525536794
 11
-6.7196588878
 21
21.5010553779
  0
LINE
  5
295
100
AcDbEntity
  8
0
100
AcDbLine
 62
250
  6
CONTINUOUS
 10
-8.8809864375
 20
20.1407736864
 11
-6.5940015667
 21
21.489050562
  0
LINE
  5
296
100
AcDbEntity
  8
0
100
AcDbLine
 62
7
  6
CONTINUOUS
 10
0.2977176501
 20
23.872410924
 11
-5.20814385
 21
20.6888736852
  0
LINE
  5
297
100
AcDbEntity
  8
0
100
AcDbLine
 62
7
  6
CONTINUOUS
 10
-1.3203275335
 20
25.1401621485
 11
5.3233031639
 21
28.976111249
  0
LINE
  5
298
100
AcDbEntity
  8
0
100
AcDbLine
 62
250
  6
CONTINUOUS
 10
-7.208000845
 20
19.1748127727
 11
-4.8969404454
 21
20.5091887397
  0
LINE
  5
299
100
AcDbEntity
  8
0
100
AcDbLine
 62
250
  6
CONTINUOUS
 10
-7.0312265729
 20
18.8686307523
 11
-4.7201661733
 21
20.2030067193
  0
LWPOLYLINE
  5
29A
100
AcDbEntity
  8
0
100
AcDbPolyline
 62
250
  6
CONTINUOUS
 90
34
 70
0
 10
-7.0312265729
 20
18.6329632285
 10
-7.0398515615
 20
18.6282636336
 10
-7.0488528447
 20
18.6238054931
 10
-7.0582101675
 20
18.6195988389
 10
-7.0679024736
 20
18.6156531371
 10
-7.0779079529
 20
18.6119772664
 10
-7.0882040905
 20
18.6085794985
 10
-7.0987677177
 20
18.6054674792
 10
-7.1095750636
 20
18.6026482113
 10
-7.1206018091
 20
18.6001280389
 10
-7.1318231412
 20
18.5979126329
 10
-7.1432138092
 20
18.5960069786
 10
-7.1547481812
 20
18.5944153642
 10
-7.166400302
 20
18.5931413712
 10
-7.1781439516
 20
18.5921878664
 10
-7.1899527038
 20
18.5915569954
 10
-7.2017999859
 20
18.5912501778
 10
-7.2136591386
 20
18.5912681041
 10
-7.225503476
 20
18.5916107339
 10
-7.2373063453
 20
18.5922772962
 10
-7.2490411871
 20
18.5932662912
 10
-7.2606815953
 20
18.5945754932
 10
-7.2722013758
 20
18.5962019562
 10
-7.2835746065
 20
18.5981420204
 10
-7.2947756946
 20
18.6003913202
 10
-7.3057794351
 20
18.6029447939
 10
-7.3165610667
 20
18.6057966957
 10
-7.3270963281
 20
18.6089406081
 10
-7.3373615124
 20
18.6123694565
 10
-7.3473335204
 20
18.6160755251
 10
-7.3569899125
 20
18.6200504744
 10
-7.3663089595
 20
18.6242853598
 10
-7.3752696913
 20
18.6287706517
 10
-7.3838519439
 20
18.6334962571
  0
LWPOLYLINE
  5
29B
100
AcDbEntity
  8
0
100
AcDbPolyline
 62
250
  6
CONTINUOUS
 90
34
 70
0
 10
8.5260506328
 20
-29.6523619351
 10
8.5346335162
 20
-29.6570878717
 10
8.5435949317
 20
-29.6615734595
 10
8.552914711
 20
-29.6658086034
 10
8.5625718678
 20
-29.6697837673
 10
8.5725446788
 20
-29.6734900101
 10
8.5828107359
 20
-29.6769190021
 10
8.5933469627
 20
-29.6800630302
 10
8.604129625
 20
-29.682915007
 10
8.6151344188
 20
-29.6854685022
 10
8.6263365632
 20
-29.6877177664
 10
8.6377108591
 20
-29.6896577406
 10
8.6492317069
 20
-29.6912840585
 10
8.6608731774
 20
-29.6925930599
 10
8.6726090702
 20
-29.6935817989
 10
8.6844129727
 20
-29.6942480501
 10
8.6962583276
 20
-29.6945903144
 10
8.7081184668
 20
-29.6946078207
 10
8.719966672
 20
-29.6943005307
 10
8.7317762609
 20
-29.6936691392
 10
8.7435206722
 20
-29.6927150691
 10
8.7551734994
 20
-29.6914404666
 10
8.7667086017
 20
-29.6898481874
 10
8.7780999314
 20
-29.6879418234
 10
8.7893216279
 20
-29.6857257126
 10
8.8003483017
 20
-29.6832048965
 10
8.811155302
 20
-29.6803850387
 10
8.8217185318
 20
-29.6772724374
 10
8.8320150449
 20
-29.6738738098
 10
8.8420208003
 20
-29.6701970461
 10
8.8517111493
 20
-29.6662513327
 10
8.8610638255
 20
-29.6620460469
 10
8.8700587666
 20
-29.6575905313
 10
8.8786760038
 20
-29.6528949638
  0
LINE
  5
29C
100
AcDbEntity
  8
0
100
AcDbLine
 62
7
  6
CONTINUOUS
 10
7.5338738922
 20
-29.3997015316
 11
8.577821288
 21
-30.0024636742
  0
LINE
  5
29D
100
AcDbEntity
  8
0
100
AcDbLine
 62
250
  6
CONTINUOUS
 10
7.6124823191
 20
-29.3605465643
 11
8.5260506328
 21
-29.888029459
  0
LINE
  5
29E
100
AcDbEntity
  8
0
100
AcDbLine
 62
250
  6
CONTINUOUS
 10
8.5260506328
 20
-29.6523619351
 11
7.8316082733
 21
-29.2513996202
  0
LINE
  5
29F
100
AcDbEntity
  8
0
100
AcDbLine
 62
250
  6
CONTINUOUS
 10
8.6144389804
 20
-29.4245566107
 11
8.0908760889
 21
-29.1222579589
  0
LINE
  5
2A0
100
AcDbEntity
  8
0
100
AcDbLine
 62
250
  6
CONTINUOUS
 10
9.1475458935
 20
-28.7664119703
 11
8.9890294052
 21
-28.6748865367
  0
LWPOLYLINE
  5
2A1
100
AcDbEntity
  8
0
100
AcDbPolyline
 62
250
  6
CONTINUOUS
 90
34
 70
0
 10
9.147545893
 20
-28.7664119701
 10
9.1560099611
 20
-28.7714434109
 10
9.1646544803
 20
-28.7767473767
 10
9.1734599331
 20
-28.7823118923
 10
9.1824064389
 20
-28.7881243943
 10
9.1914737986
 20
-28.7941717594
 10
9.2006415406
 20
-28.8004403346
 10
9.2098889665
 20
-28.8069159667
 10
9.2191951975
 20
-28.8135840355
 10
9.2285392227
 20
-28.8204294863
 10
9.2378999456
 20
-28.8274368635
 10
9.2472562316
 20
-28.8345903464
 10
9.2565869567
 20
-28.8418737841
 10
9.2658710542
 20
-28.8492707324
 10
9.2750875626
 20
-28.8567644907
 10
9.2842156734
 20
-28.86433814
 10
9.2932347771
 20
-28.8719745807
 10
9.3021245107
 20
-28.8796565715
 10
9.310864803
 20
-28.8873667681
 10
9.3194359204
 20
-28.8950877629
 10
9.3278185111
 20
-28.9028021234
 10
9.3359936482
 20
-28.9104924317
 10
9.3439428742
 20
-28.9181413249
 10
9.3516482411
 20
-28.9257315334
 10
9.3590923512
 20
-28.9332459192
 10
9.3662583969
 20
-28.9406675164
 10
9.3731301991
 20
-28.9479795687
 10
9.3796922424
 20
-28.9551655669
 10
9.3859297112
 20
-28.9622092864
 10
9.3918285225
 20
-28.969094824
 10
9.3973753581
 20
-28.9758066338
 10
9.4025576946
 20
-28.982329562
 10
9.4073638312
 20
-28.988648881
 10
9.4117829169
 20
-28.9947503234
  0
LWPOLYLINE
  5
2A2
100
AcDbEntity
  8
RACCORDO
100
AcDbPolyline
 62
250
  6
CONTINUOUS
 90
11
 70
0
 10
-21.2735434055
 20
-2.7023346527
 10
-21.2804288302
 20
-2.6844496462
 10
-21.2888413829
 20
-2.6670819926
 10
-21.2987705259
 20
-2.6502793792
 10
-21.3101878431
 20
-2.6340401688
 10
-21.3230652542
 20
-2.6184074582
 10
-21.3373701724
 20
-2.6034363259
 10
-21.3530538889
 20
-2.589140392
 10
-21.3700672048
 20
-2.5755538081
 10
-21.3883636202
 20
-2.562732141
 10
-21.407888802
 20
-2.5507181111
  0
LWPOLYLINE
  5
2A3
100
AcDbEntity
  8
RACCORDO
100
AcDbPolyline
 62
250
  6
CONTINUOUS
 90
3
 70
0
 10
-21.2740091642
 20
-1.3449744265
 10
-21.2657401241
 20
-1.371516933
 10
-21.2622142438
 20
-1.395544389
  0
LWPOLYLINE
  5
2A4
100
AcDbEntity
  8
0
100
AcDbPolyline
 62
250
  6
CONTINUOUS
 90
34
 70
0
 10
-19.3348845656
 20
25.9726086762
 10
-19.335128067
 20
25.9824129632
 10
-19.3357694678
 20
25.9924275301
 10
-19.3368073162
 20
26.0026296859
 10
-19.3382392632
 20
26.0129963207
 10
-19.340062065
 20
26.0235039395
 10
-19.3422715888
 20
26.0341287149
 10
-19.3448628262
 20
26.0448465671
 10
-19.3478299062
 20
26.0556332156
 10
-19.3511661042
 20
26.0664642156
 10
-19.3548638604
 20
26.0773150269
 10
-19.358914795
 20
26.0881610611
 10
-19.3633097247
 20
26.0989777343
 10
-19.3680386889
 20
26.1097405359
 10
-19.3730909717
 20
26.1204250808
 10
-19.378455122
 20
26.1310071562
 10
-19.3841189866
 20
26.1414627907
 10
-19.390069728
 20
26.1517682889
 10
-19.3962938498
 20
26.161900283
 10
-19.4027772281
 20
26.1718357908
 10
-19.409505187
 20
26.1815523309
 10
-19.4164625255
 20
26.1910279505
 10
-19.4236335485
 20
26.2002412616
 10
-19.4310019464
 20
26.2091712974
 10
-19.4385508629
 20
26.2177976414
 10
-19.4462630824
 20
26.2261006591
 10
-19.4541212209
 20
26.2340616724
 10
-19.4621076134
 20
26.2416627986
 10
-19.4702053826
 20
26.2488878672
 10
-19.4783949936
 20
26.2557193428
 10
-19.4866543214
 20
26.262139073
 10
-19.4949633874
 20
26.2681322303
 10
-19.5033045203
 20
26.2736867649
 10
-19.5116588377
 20
26.2787906966
  0
LWPOLYLINE
  5
2A5
100
AcDbEntity
  8
0
100
AcDbPolyline
 62
250
  6
CONTINUOUS
 90
19
 70
0
 10
-19.6875099366
 20
25.737474181
 10
-19.6873423095
 20
25.7286840309
 10
-19.6868394372
 20
25.7201002183
 10
-19.6860018117
 20
25.7117393392
 10
-19.6848304004
 20
25.7036166299
 10
-19.6833270546
 20
25.6957489207
 10
-19.6814949098
 20
25.6881542803
 10
-19.6793375526
 20
25.6808478395
 10
-19.6768588622
 20
25.6738429608
 10
-19.674063819
 20
25.6671538483
 10
-19.6709579561
 20
25.660793575
 10
-19.6675470584
 20
25.654773836
 10
-19.6638374353
 20
25.6491057746
 10
-19.6598359868
 20
25.6438000469
 10
-19.6555504266
 20
25.6388669855
 10
-19.650989108
 20
25.6343162209
 10
-19.6461608292
 20
25.6301564798
 10
-19.6410747113
 20
25.6263955724
 10
-19.6357393019
 20
25.6230399776
  0
LWPOLYLINE
  5
2A6
100
AcDbEntity
  8
0
100
AcDbPolyline
 62
250
  6
CONTINUOUS
 90
28
 70
0
 10
-18.6240753481
 20
25.4359940043
 10
-18.6243322946
 20
25.4515423869
 10
-18.6251204879
 20
25.4667629093
 10
-18.6264399278
 20
25.4816555714
 10
-18.6282920383
 20
25.4962516423
 10
-18.6306753955
 20
25.5105198528
 10
-18.633585728
 20
25.5243663961
 10
-18.6370303913
 20
25.5377900476
 10
-18.6410020299
 20
25.5507920317
 10
-18.645474306
 20
25.563282215
 10
-18.6504476168
 20
25.5752456191
 10
-18.6559215651
 20
25.5866972224
 10
-18.6618686214
 20
25.5975918261
 10
-18.6682861745
 20
25.6079238152
 10
-18.6751768357
 20
25.6176988047
 10
-18.6825209095
 20
25.626888442
 10
-18.690323105
 20
25.6354969083
 10
-18.6985787132
 20
25.6435200224
 10
-18.7072539115
 20
25.6509168872
 10
-18.7163574834
 20
25.6576867207
 10
-18.7258806454
 20
25.6638303049
 10
-18.7357632241
 20
25.6693090892
 10
-18.7460114009
 20
25.6741154861
 10
-18.7566189945
 20
25.6782570829
 10
-18.7675072881
 20
25.6817180908
 10
-18.7786500429
 20
25.6844932467
 10
-18.7900734977
 20
25.6865878136
 10
-18.8017776525
 20
25.6880017916
  0
LINE
  5
2A7
100
AcDbEntity
  8
0
100
AcDbLine
 62
250
  6
CONTINUOUS
 10
-19.3348845656
 20
25.7369411524
 11
-19.3348845656
 21
25.9726086762
  0
LINE
  5
2A8
100
AcDbEntity
  8
0
100
AcDbLine
 62
250
  6
CONTINUOUS
 10
-18.9767007191
 20
24.7776977081
 11
-18.9767007191
 21
25.4365270329
  0
LINE
  5
2A9
100
AcDbEntity
  8
0
100
AcDbLine
 62
250
  6
CONTINUOUS
 10
-18.6240753481
 20
24.7878060171
 11
-18.6240753481
 21
25.4359940043
  0
LINE
  5
2AA
100
AcDbEntity
  8
0
100
AcDbLine
 62
7
  6
CONTINUOUS
 10
-17.7346333834
 20
25.3495514663
 11
-17.7346333834
 21
26.0620440336
  0
LINE
  5
2AB
100
AcDbEntity
  8
0
100
AcDbLine
 62
7
  6
CONTINUOUS
 10
-17.023824166
 20
27.3069846432
 11
-17.023824166
 21
26.9395702207
  0
LWPOLYLINE
  5
2AC
100
AcDbEntity
  8
ASSI
100
AcDbPolyline
 62
7
  6
CONTINUOUS
 90
14
 70
0
 10
-14.4270765741
 20
27.9655926802
 10
-14.4308334857
 20
27.9350345888
 10
-14.432411254
 20
27.8933586628
 10
-14.4307887031
 20
27.8495116164
 10
-14.426002414
 20
27.8044819991
 10
-14.417980519
 20
27.7582429473
 10
-14.4067948858
 20
27.7108213244
 10
-14.3926976991
 20
27.66328627
 10
-14.3756228196
 20
27.6156352074
 10
-14.3556363866
 20
27.5678707132
 10
-14.3331890021
 20
27.5210696571
 10
-14.308430867
 20
27.4755909958
 10
-14.2812117804
 20
27.4310757726
 10
-14.2515317425
 20
27.3875239876
  0
LWPOLYLINE
  5
2AD
100
AcDbEntity
  8
RACCORDO
100
AcDbPolyline
 62
250
  6
CONTINUOUS
 90
3
 70
0
 10
-21.2685650262
 20
-2.8494623862
 10
-21.2705745685
 20
-2.8562738788
 10
-21.2727833684
 20
-2.8626219406
  0
LWPOLYLINE
  5
2AE
100
AcDbEntity
  8
RACCORDO
100
AcDbPolyline
 62
250
  6
CONTINUOUS
 90
31
 70
0
 10
-21.2727833684
 20
-2.8626219406
 10
-21.2751722453
 20
-2.8685344144
 10
-21.2777167261
 20
-2.8740226918
 10
-21.2803984799
 20
-2.8791050882
 10
-21.2832142681
 20
-2.8838177761
 10
-21.2861481216
 20
-2.8881783186
 10
-21.2891864014
 20
-2.8921985102
 10
-21.2923383479
 20
-2.8959027019
 10
-21.2955976026
 20
-2.8993144583
 10
-21.2989532899
 20
-2.9024381568
 10
-21.3024164481
 20
-2.9052696918
 10
-21.3059864437
 20
-2.9078387278
 10
-21.3096562091
 20
-2.9101469427
 10
-21.31343497
 20
-2.9121559754
 10
-21.3173257854
 20
-2.9139083413
 10
-21.3213269358
 20
-2.9154035275
 10
-21.3254504594
 20
-2.9165574744
 10
-21.3297075035
 20
-2.9174384084
 10
-21.3341023195
 20
-2.9180408285
 10
-21.338654581
 20
-2.9182063062
 10
-21.3434057737
 20
-2.9180227201
 10
-21.3483611473
 20
-2.9175018278
 10
-21.3535161266
 20
-2.9164212374
 10
-21.3589654736
 20
-2.9147982876
 10
-21.3647225766
 20
-2.9127461165
 10
-21.3706767897
 20
-2.9101963194
 10
-21.3768913891
 20
-2.9070533552
 10
-21.3834358937
 20
-2.903453662
 10
-21.3901500348
 20
-2.8996216608
 10
-21.3969687761
 20
-2.8955010595
 10
-21.4184259921
 20
-2.8819859066
  0
LWPOLYLINE
  5
2AF
100
AcDbEntity
  8
RACCORDO
100
AcDbPolyline
 62
250
  6
CONTINUOUS
 90
23
 70
0
 10
-20.6278756902
 20
0.9798223905
 10
-20.6512510847
 20
0.9297210061
 10
-20.6750486813
 20
0.8776534881
 10
-20.6992187902
 20
0.8236185125
 10
-20.7236641205
 20
0.7677285577
 10
-20.7483771069
 20
0.7098741965
 10
-20.7734297028
 20
0.6497226833
 10
-20.7988528691
 20
0.587028935
 10
-20.8244672108
 20
0.5220517828
 10
-20.8500282092
 20
0.4552185815
 10
-20.8754108808
 20
0.3867063323
 10
-20.9006088385
 20
0.3163734912
 10
-20.9255630802
 20
0.2441755454
 10
-20.9501514359
 20
0.1702832707
 10
-20.9743449731
 20
0.094581884
 10
-20.9981991778
 20
0.0166060989
 10
-21.0215928759
 20
-0.0635375352
 10
-21.0444354701
 20
-0.1458672972
 10
-21.0667729189
 20
-0.2310199062
 10
-21.0884781997
 20
-0.3190111987
 10
-21.1093698458
 20
-0.4096793277
 10
-21.1293513265
 20
-0.5033689537
 10
-21.1482437628
 20
-0.6000329486
  0
LWPOLYLINE
  5
2B0
100
AcDbEntity
  8
RACCORDO
100
AcDbPolyline
 62
250
  6
CONTINUOUS
 90
26
 70
0
 10
-20.6605801514
 20
1.0107750205
 10
-20.681673858
 20
0.9656451667
 10
-20.7031163501
 20
0.9189165786
 10
-20.7248695239
 20
0.8705871134
 10
-20.7468503846
 20
0.8207547135
 10
-20.7690622887
 20
0.7693209395
 10
-20.7915863559
 20
0.7159894202
 10
-20.8144464893
 20
0.6605723474
 10
-20.8375059234
 20
0.6032623857
 10
-20.8606013122
 20
0.5443361979
 10
-20.8836571857
 20
0.4838635141
 10
-20.9066433136
 20
0.4217941966
 10
-20.929472108
 20
0.358229367
 10
-20.9520499752
 20
0.2932963839
 10
-20.9743607518
 20
0.2269010037
 10
-20.9964243557
 20
0.1588157948
 10
-21.0181482038
 20
0.0891382439
 10
-21.03948454
 20
0.0178208399
 10
-21.0604896785
 20
-0.055574584
 10
-21.0810674345
 20
-0.1310132981
 10
-21.1011169453
 20
-0.2084517808
 10
-21.1206432076
 20
-0.2883022785
 10
-21.1395306837
 20
-0.3705696212
 10
-21.1576288997
 20
-0.4551254788
 10
-21.1748489342
 20
-0.5421641291
 10
-21.1901305444
 20
-0.6263840679
  0
LWPOLYLINE
  5
2B1
100
AcDbEntity
  8
RACCORDO
100
AcDbPolyline
 62
250
  6
CONTINUOUS
 90
22
 70
0
 10
-21.1829232184
 20
1.3123744847
 10
-21.1767781404
 20
1.3246903842
 10
-21.1702338725
 20
1.3372609735
 10
-21.1632774864
 20
1.3500669902
 10
-21.155902419
 20
1.3630761332
 10
-21.1480921749
 20
1.3762761279
 10
-21.1398183666
 20
1.3896735443
 10
-21.1310762301
 20
1.4032293278
 10
-21.1218502452
 20
1.4169217098
 10
-21.1120925342
 20
1.4307753561
 10
-21.1017942468
 20
1.4447475689
 10
-21.090946764
 20
1.4587956836
 10
-21.0794986089
 20
1.4729320952
 10
-21.0674421475
 20
1.4871013414
 10
-21.0547759259
 20
1.501240417
 10
-21.0414560006
 20
1.5153343695
 10
-21.0274826497
 20
1.5293073407
 10
-21.0128643392
 20
1.5430756389
 10
-20.9975713066
 20
1.5565934562
 10
-20.9816053882
 20
1.5697737477
 10
-20.9650031935
 20
1.5824946638
 10
-20.9477950656
 20
1.5946429926
  0
LWPOLYLINE
  5
2B2
100
AcDbEntity
  8
0
100
AcDbPolyline
 62
7
  6
CONTINUOUS
 90
7
 70
0
 10
-19.0766070067
 20
8.7657792903
 10
-18.9417669061
 20
8.8797212965
 10
-18.8035047529
 20
8.9890441886
 10
-18.6618404581
 20
9.0937358218
 10
-18.5167388656
 20
9.1938255066
 10
-18.3682736792
 20
9.2892606782
 10
-18.2218651307
 20
9.3768869167
  0
LWPOLYLINE
  5
2B3
100
AcDbEntity
  8
RACCORDO
100
AcDbPolyline
 62
7
  6
CONTINUOUS
 90
25
 70
0
 10
-27.9548518274
 20
1.8867549472
 10
-28.2740329046
 20
1.6331113512
 10
-28.575616352
 20
1.350741972
 10
-28.8585450226
 20
1.0400807686
 10
-29.1219507973
 20
0.7014542029
 10
-29.3647459992
 20
0.3355901701
 10
-29.5857546755
 20
-0.0562935336
 10
-29.7843606757
 20
-0.4736213095
 10
-29.959824251
 20
-0.9154358019
 10
-30.1111789965
 20
-1.3796222897
 10
-30.2380031281
 20
-1.8648136604
 10
-30.3401015497
 20
-2.3702294989
 10
-30.4171651875
 20
-2.8943408819
 10
-30.4690479215
 20
-3.4361155891
 10
-30.4956080091
 20
-3.994151991
 10
-30.4967969906
 20
-4.5661316641
 10
-30.4727450066
 20
-5.1503846103
 10
-30.4236199418
 20
-5.7457399291
 10
-30.3496761342
 20
-6.3504352032
 10
-30.2512371925
 20
-6.9628360551
 10
-30.1286373927
 20
-7.5815689591
 10
-29.9822574724
 20
-8.2051799371
 10
-29.8125339419
 20
-8.8321499494
 10
-29.6199612335
 20
-9.4609212494
 10
-29.5412990592
 20
-9.6988322226
  0
LINE
  5
2B4
100
AcDbEntity
  8
0
100
AcDbLine
 62
7
  6
CONTINUOUS
 10
-18.1855305214
 20
9.0182770138
 11
-27.9548518274
 21
1.8867549472
  0
LWPOLYLINE
  5
2B5
100
AcDbEntity
  8
0
100
AcDbPolyline
 62
7
  6
CONTINUOUS
 90
12
 70
0
 10
-17.9408541074
 20
9.5277982615
 10
-18.0776574986
 20
9.434116525
 10
-18.2187794754
 20
9.3302576368
 10
-18.3566992258
 20
9.2213633286
 10
-18.4914204946
 20
9.1074394891
 10
-18.6227856056
 20
8.9886194534
 10
-18.7507906293
 20
8.864897489
 10
-18.8754394952
 20
8.7362793284
 10
-18.9965863156
 20
8.6029155049
 10
-19.1142269903
 20
8.4648004621
 10
-19.2283656196
 20
8.3219397564
 10
-19.3358081107
 20
8.1785840859
  0
LINE
  5
2B6
100
AcDbEntity
  8
0
100
AcDbLine
 62
7
  6
CONTINUOUS
 10
-5.4309753908
 20
18.2455735424
 11
-6.3204173555
 21
17.6838280932
  0
LINE
  5
2B7
100
AcDbEntity
  8
0
100
AcDbLine
 62
7
  6
CONTINUOUS
 10
-4.3843313552
 20
19.2648525969
 11
1.2374175532
 21
22.6837632223
  0
LINE
  5
2B8
100
AcDbEntity
  8
0
100
AcDbLine
 62
7
  6
CONTINUOUS
 10
1.2374175532
 20
23.0609946679
 11
-4.7238761846
 21
19.4609015258
  0
LINE
  5
2B9
100
AcDbEntity
  8
0
100
AcDbLine
 62
7
  6
CONTINUOUS
 10
-5.4007805257
 20
18.0703532534
 11
-3.1134143038
 21
19.418854952
  0
LINE
  5
2BA
100
AcDbEntity
  8
0
100
AcDbLine
 62
250
  6
CONTINUOUS
 10
-5.2747418535
 20
18.0585732604
 11
-2.9877569826
 21
19.406850136
  0
LINE
  5
2BB
100
AcDbEntity
  8
RACCORDO
100
AcDbLine
 62
250
  6
CONTINUOUS
 10
0.1126777116
 20
20.9854099131
 11
6.4766387422
 21
24.659881253
  0
LINE
  5
2BC
100
AcDbEntity
  8
RACCORDO
100
AcDbLine
 62
250
  6
CONTINUOUS
 10
0.5124240075
 20
20.3498656146
 11
6.8763850381
 21
24.0243369546
  0
LWPOLYLINE
  5
2BD
100
AcDbEntity
  8
0
100
AcDbPolyline
 62
7
  6
CONTINUOUS
 90
42
 70
0
 10
-18.2218651307
 20
9.3768869167
 10
-18.0618206413
 20
9.4657441847
 10
-17.9038721915
 20
9.5467694478
 10
-17.7429805605
 20
9.6228638836
 10
-17.5791488782
 20
9.6940131555
 10
-17.4124133476
 20
9.7602091815
 10
-17.2430223247
 20
9.8213425539
 10
-17.0710211604
 20
9.8773866484
 10
-16.8964036813
 20
9.9283463292
 10
-16.7193421374
 20
9.97415894
 10
-16.5398124947
 20
10.0148160274
 10
-16.3578761622
 20
10.0503057447
 10
-16.173834455
 20
10.0805600048
 10
-15.9877503519
 20
10.1055550896
 10
-15.7995971535
 20
10.1252954433
 10
-15.6095422043
 20
10.13975505
 10
-15.4175529163
 20
10.1489211732
 10
-15.22369529
 20
10.1527891294
 10
-15.0282847129
 20
10.1513449933
 10
-14.8313807617
 20
10.1445742047
 10
-14.6329549388
 20
10.1324754071
 10
-14.4331904555
 20
10.1150545882
 10
-14.232065882
 20
10.0922957193
 10
-14.0296301882
 20
10.064200938
 10
-13.8261717651
 20
10.0308037469
 10
-13.6217229822
 20
9.9920940692
 10
-13.4162755621
 20
9.9480699926
 10
-13.2100563557
 20
9.8987775896
 10
-13.0030749284
 20
9.8442072546
 10
-12.7953418054
 20
9.784358707
 10
-12.5870844623
 20
9.7192924339
 10
-12.3782933095
 20
9.6489916851
 10
-12.1689938198
 20
9.5734654659
 10
-11.9594651276
 20
9.4928133675
 10
-11.749749446
 20
9.4070425494
 10
-11.5398160693
 20
9.3161402793
 10
-11.3298337057
 20
9.2201768277
 10
-11.1197595572
 20
9.1191227306
 10
-10.9096433645
 20
9.0130041051
 10
-10.6997915194
 20
8.9019751383
 10
-10.4902588814
 20
8.7860591117
 10
-10.2809929187
 20
8.6652316243
  0
LWPOLYLINE
  5
2BE
100
AcDbEntity
  8
0
100
AcDbPolyline
 62
7
  6
CONTINUOUS
 90
13
 70
0
 10
-4.5139668404
 20
-17.4878765756
 10
-4.4300227667
 20
-17.4790997996
 10
-4.2481740354
 20
-17.4544268876
 10
-4.068581935
 20
-17.4243235805
 10
-3.8912438267
 20
-17.388796229
 10
-3.7163672647
 20
-17.3478864139
 10
-3.5439551313
 20
-17.3015878332
 10
-3.3740045443
 20
-17.2499067889
 10
-3.206714412
 20
-17.192903768
 10
-3.0420878494
 20
-17.1305725391
 10
-2.8801217415
 20
-17.0629193336
 10
-2.7210056516
 20
-16.990023332
 10
-2.65299433
 20
-16.9560117656
  0
LINE
  5
2BF
100
AcDbEntity
  8
0
100
AcDbLine
 62
7
  6
CONTINUOUS
 10
11.1897364034
 20
-28.2145712284
 11
10.5985076661
 21
-27.8732031654
  0
LWPOLYLINE
  5
2C0
100
AcDbEntity
  8
0
100
AcDbPolyline
 62
250
  6
CONTINUOUS
 90
34
 70
0
 10
-16.0047008836
 20
24.4618180581
 10
-16.0048952649
 20
24.4696623758
 10
-16.0054068803
 20
24.477675582
 10
-16.0062345721
 20
24.4858395181
 10
-16.0073764672
 20
24.4941356899
 10
-16.0088299791
 20
24.5025452918
 10
-16.0105918117
 20
24.5110492496
 10
-16.0126579717
 20
24.5196282895
 10
-16.0150237769
 20
24.528262972
 10
-16.0176838623
 20
24.5369337184
 10
-16.0206321957
 20
24.545620871
 10
-16.0238620966
 20
24.5543047514
 10
-16.0273662498
 20
24.5629656935
 10
-16.0311367248
 20
24.5715840927
 10
-16.035164968
 20
24.5801403955
 10
-16.039441823
 20
24.5886151582
 10
-16.0439575627
 20
24.5969891231
 10
-16.048701977
 20
24.6052433719
 10
-16.0536643777
 20
24.613359309
 10
-16.0588335991
 20
24.6213186523
 10
-16.0641978618
 20
24.6291032442
 10
-16.0697448466
 20
24.636695218
 10
-16.075461856
 20
24.6440772381
 10
-16.0813360334
 20
24.6512327455
 10
-16.0873542422
 20
24.6581457476
 10
-16.0935030858
 20
24.6648008234
 10
-16.0997684067
 20
24.6711826178
 10
-16.1061354704
 20
24.677276163
 10
-16.112590708
 20
24.6830684833
 10
-16.1191186181
 20
24.688545679
 10
-16.1257011545
 20
24.6936929713
 10
-16.1323222477
 20
24.6984985189
 10
-16.1389679462
 20
24.7029529151
 10
-16.1456232136
 20
24.7070467069
  0
LWPOLYLINE
  5
2C1
100
AcDbEntity
  8
0
100
AcDbPolyline
 62
7
  6
CONTINUOUS
 90
31
 70
0
 10
-16.6849677398
 20
24.8538433813
 10
-16.6848353762
 20
24.847204695
 10
-16.6845403308
 20
24.8405375401
 10
-16.6840950138
 20
24.8338464337
 10
-16.6834998933
 20
24.8271359256
 10
-16.6827546101
 20
24.8204106564
 10
-16.6818700004
 20
24.8136748233
 10
-16.6808465479
 20
24.8069323626
 10
-16.6796841506
 20
24.8001874561
 10
-16.6783924759
 20
24.7934443423
 10
-16.6769720227
 20
24.7867064491
 10
-16.6754229128
 20
24.7799775868
 10
-16.6737540209
 20
24.7732623351
 10
-16.671965875
 20
24.7665636837
 10
-16.6700588084
 20
24.7598851377
 10
-16.6680412542
 20
24.753231879
 10
-16.6659138692
 20
24.7466067115
 10
-16.6636771355
 20
24.7400126674
 10
-16.6613391437
 20
24.7334551297
 10
-16.6589005591
 20
24.7269363385
 10
-16.6563621289
 20
24.7204592823
 10
-16.6537320695
 20
24.7140303318
 10
-16.651011203
 20
24.7076514595
 10
-16.6482004756
 20
24.7013253148
 10
-16.6453084018
 20
24.6950591203
 10
-16.6423359917
 20
24.6888545183
 10
-16.6392844259
 20
24.6827138455
 10
-16.6361626947
 20
24.6766451527
 10
-16.632974739
 20
24.6706521884
 10
-16.6297193353
 20
24.6647344508
 10
-16.6263978943
 20
24.6588934121
  0
LINE
  5
2C2
100
AcDbEntity
  8
0
100
AcDbLine
 62
7
  6
CONTINUOUS
 10
-15.4328983699
 20
24.8033668062
 11
-15.4328358133
 21
24.7905698795
  0
LINE
  5
2C3
100
AcDbEntity
  8
0
100
AcDbLine
 62
7
  6
CONTINUOUS
 10
-16.684975042
 20
24.8560149519
 11
-16.684976538
 21
23.5048237766
  0
LINE
  5
2C4
100
AcDbEntity
  8
0
100
AcDbLine
 62
250
  6
CONTINUOUS
 10
-16.6263978943
 20
24.6588934121
 11
-16.6263978943
 21
23.4206623132
  0
LINE
  5
2C5
100
AcDbEntity
  8
0
100
AcDbLine
 62
250
  6
CONTINUOUS
 10
-16.2863040927
 20
23.2242964146
 11
-16.2863040927
 21
24.4625275135
  0
LINE
  5
2C6
100
AcDbEntity
  8
0
100
AcDbLine
 62
250
  6
CONTINUOUS
 10
-16.0047008836
 20
23.2320701574
 11
-16.0047008836
 21
24.4618180581
  0
LINE
  5
2C7
100
AcDbEntity
  8
0
100
AcDbLine
 62
7
  6
CONTINUOUS
 10
-15.4328339083
 20
24.7897212274
 11
-15.4328339083
 21
23.5908520073
  0
LINE
  5
2C8
100
AcDbEntity
  8
0
100
AcDbLine
 62
7
  6
CONTINUOUS
 10
-15.4329312234
 20
24.9868207336
 11
-15.4328983699
 21
24.8033668062
  0
LINE
  5
2C9
100
AcDbEntity
  8
0
100
AcDbLine
 62
7
  6
CONTINUOUS
 10
-15.432345605
 20
25.1160334093
 11
-15.4329312234
 21
24.9868207336
  0
LINE
  5
2CA
100
AcDbEntity
  8
0
100
AcDbLine
 62
7
  6
CONTINUOUS
 10
-4.7201661733
 20
19.8355922968
 11
-5.4309753908
 21
18.9580661097
  0
LWPOLYLINE
  5
2CB
100
AcDbEntity
  8
RACCORDO
100
AcDbPolyline
 62
250
  6
CONTINUOUS
 90
19
 70
0
 10
-20.4265207073
 20
1.2499200033
 10
-20.4418865517
 20
1.2364193763
 10
-20.4565887274
 20
1.2226768985
 10
-20.4706892991
 20
1.2087143862
 10
-20.4841902354
 20
1.1945917891
 10
-20.4970739924
 20
1.1803868413
 10
-20.5093753808
 20
1.1661295704
 10
-20.5210787912
 20
1.1518952337
 10
-20.5322024956
 20
1.1377164311
 10
-20.5428300473
 20
1.1235434084
 10
-20.5529003129
 20
1.1095068324
 10
-20.5624838316
 20
1.0955532031
 10
-20.5718402199
 20
1.0813270689
 10
-20.5808134421
 20
1.0670792897
 10
-20.5895414881
 20
1.0525944612
 10
-20.5986443034
 20
1.0367582978
 10
-20.6082405483
 20
1.0191696389
 10
-20.6180151362
 20
1.0001884441
 10
-20.6278597306
 20
0.9798125678
  0
LINE
  5
2CC
100
AcDbEntity
  8
0
100
AcDbLine
 62
7
  6
CONTINUOUS
 10
-1.8247308067
 20
16.1633731164
 11
-2.7141727714
 21
15.6016276672
  0
LWPOLYLINE
  5
2CD
100
AcDbEntity
  8
0
100
AcDbPolyline
 62
250
  6
CONTINUOUS
 90
34
 70
0
 10
-3.601756261
 20
17.0926123468
 10
-3.6101384616
 20
17.0874922309
 10
-3.6184997175
 20
17.0819255304
 10
-3.6268212135
 20
17.0759247717
 10
-3.6350842245
 20
17.069503458
 10
-3.6432701564
 20
17.0626760389
 10
-3.6513605889
 20
17.0554578778
 10
-3.6593373167
 20
17.0478652172
 10
-3.66718239
 20
17.0399151426
 10
-3.6748781554
 20
17.0316255436
 10
-3.6824072957
 20
17.0230150738
 10
-3.6897528684
 20
17.014103109
 10
-3.6968983442
 20
17.0049097032
 10
-3.7038276438
 20
16.9954555439
 10
-3.7105251748
 20
16.9857619053
 10
-3.716975866
 20
16.9758506005
 10
-3.7231652017
 20
16.9657439324
 10
-3.7290792545
 20
16.9554646434
 10
-3.7347047161
 20
16.9450358646
 10
-3.7400289281
 20
16.9344810632
 10
-3.7450399095
 20
16.9238239902
 10
-3.7497263844
 20
16.9130886266
 10
-3.754077807
 20
16.9022991296
 10
-3.7580843857
 20
16.8914797783
 10
-3.7617371046
 20
16.880654919
 10
-3.7650277442
 20
16.8698489101
 10
-3.7679488997
 20
16.8590860679
 10
-3.7704939978
 20
16.8483906116
 10
-3.7726573115
 20
16.8377866084
 10
-3.7744339726
 20
16.82729792
 10
-3.7758199834
 20
16.8169481486
 10
-3.7768122248
 20
16.8067605837
 10
-3.7774084642
 20
16.7967581498
 10
-3.7776073599
 20
16.786963355
  0
LINE
  5
2CE
100
AcDbEntity
  8
0
100
AcDbLine
 62
7
  6
CONTINUOUS
 10
-0.7172338561
 20
15.7988880551
 11
0.9013327371
 21
16.7531033352
  0
LINE
  5
2CF
100
AcDbEntity
  8
RACCORDO
100
AcDbLine
 62
7
  6
CONTINUOUS
 10
-0.1946827737
 20
18.9378064137
 11
-0.2218214897
 21
18.9219447554
  0
LWPOLYLINE
  5
2D0
100
AcDbEntity
  8
RACCORDO
100
AcDbPolyline
 62
7
  6
CONTINUOUS
 90
3
 70
0
 10
-0.7797455175
 20
18.6000261625
 10
-0.8626658803
 20
18.5516721029
 10
-0.9017895549
 20
18.5295712753
  0
LINE
  5
2D1
100
AcDbEntity
  8
0
100
AcDbLine
 62
250
  6
CONTINUOUS
 10
-3.601756261
 20
17.0926123468
 11
-1.2906958614
 21
18.4269883138
  0
LINE
  5
2D2
100
AcDbEntity
  8
RACCORDO
100
AcDbLine
 62
7
  6
CONTINUOUS
 10
-0.1946827737
 20
18.9378064137
 11
6.8763850381
 21
23.020552347
  0
LINE
  5
2D3
100
AcDbEntity
  8
0
100
AcDbLine
 62
250
  6
CONTINUOUS
 10
-3.4249819889
 20
16.7864303264
 11
-1.1139215893
 21
18.1208062933
  0
LINE
  5
2D4
100
AcDbEntity
  8
RACCORDO
100
AcDbLine
 62
7
  6
CONTINUOUS
 10
9.9497748296
 20
22.5384520932
 11
6.5677254915
 21
20.5856991924
  0
LINE
  5
2D5
100
AcDbEntity
  8
RACCORDO
100
AcDbLine
 62
250
  6
CONTINUOUS
 10
10.245979815
 20
22.4835109586
 11
6.7634053372
 21
20.472716102
  0
LINE
  5
2D6
100
AcDbEntity
  8
RACCORDO
100
AcDbLine
 62
7
  6
CONTINUOUS
 10
-0.693178334
 20
18.6499725189
 11
-0.7797455175
 21
18.6000261625
  0
LINE
  5
2D7
100
AcDbEntity
  8
RACCORDO
100
AcDbLine
 62
7
  6
CONTINUOUS
 10
-0.2218214897
 20
18.9219447554
 11
-0.693178334
 21
18.6499725189
  0
LINE
  5
2D8
100
AcDbEntity
  8
0
100
AcDbLine
 62
7
  6
CONTINUOUS
 10
5.525314371
 20
19.204014991
 11
1.0442289798
 21
16.6705968355
  0
LINE
  5
2D9
100
AcDbEntity
  8
0
100
AcDbLine
 62
7
  6
CONTINUOUS
 10
5.9679480601
 20
20.5984909499
 11
-0.4416709332
 21
16.9884098823
  0
LWPOLYLINE
  5
2DA
100
AcDbEntity
  8
0
100
AcDbPolyline
 62
250
  6
CONTINUOUS
 90
34
 70
0
 10
-3.4249819889
 20
16.5507628025
 10
-3.4336069774
 20
16.5460632076
 10
-3.4426082607
 20
16.5416050671
 10
-3.4519655835
 20
16.5373984129
 10
-3.4616578896
 20
16.5334527111
 10
-3.4716633688
 20
16.5297768404
 10
-3.4819595065
 20
16.5263790725
 10
-3.4925231336
 20
16.5232670532
 10
-3.5033304796
 20
16.5204477853
 10
-3.514357225
 20
16.5179276129
 10
-3.5255785571
 20
16.5157122069
 10
-3.5369692251
 20
16.5138065526
 10
-3.5485035971
 20
16.5122149382
 10
-3.560155718
 20
16.5109409452
 10
-3.5718993676
 20
16.5099874404
 10
-3.5837081197
 20
16.5093565694
 10
-3.5955554018
 20
16.5090497518
 10
-3.6074145546
 20
16.5090676781
 10
-3.6192588919
 20
16.5094103079
 10
-3.6310617612
 20
16.5100768703
 10
-3.6427966031
 20
16.5110658652
 10
-3.6544370112
 20
16.5123750672
 10
-3.6659567918
 20
16.5140015303
 10
-3.6773300224
 20
16.5159415945
 10
-3.6885311106
 20
16.5181908942
 10
-3.699534851
 20
16.5207443679
 10
-3.7103164826
 20
16.5235962697
 10
-3.7208517441
 20
16.5267401821
 10
-3.7311169284
 20
16.5301690305
 10
-3.7410889363
 20
16.5338750991
 10
-3.7507453284
 20
16.5378500485
 10
-3.7600643755
 20
16.5420849339
 10
-3.7690251072
 20
16.5465702258
 10
-3.7776073599
 20
16.5512958312
  0
LWPOLYLINE
  5
2DB
100
AcDbEntity
  8
RACCORDO
100
AcDbPolyline
 62
7
  6
CONTINUOUS
 90
11
 70
0
 10
9.9497940088
 20
22.5384189479
 10
9.9666899967
 20
22.5469782792
 10
9.9927701012
 20
22.5558509041
 10
10.0209199054
 20
22.560803106
 10
10.0503961708
 20
22.5617041319
 10
10.0812342307
 20
22.5584460691
 10
10.1133987516
 20
22.5511368303
 10
10.1460404945
 20
22.5399694013
 10
10.1788763795
 20
22.5250081106
 10
10.2121894863
 20
22.5061886297
 10
10.245979815
 20
22.4835109586
  0
LINE
  5
2DC
100
AcDbEntity
  8
0
100
AcDbLine
 62
7
  6
CONTINUOUS
 10
6.1817304551
 20
18.910667247
 11
6.1636156178
 21
18.9043522567
  0
LWPOLYLINE
  5
2DD
100
AcDbEntity
  8
0
100
AcDbPolyline
 62
7
  6
CONTINUOUS
 90
21
 70
0
 10
5.5913767363
 20
19.2338367483
 10
5.6010506152
 20
19.2368463312
 10
5.6110621902
 20
19.2393539033
 10
5.6214035514
 20
19.2413516881
 10
5.6320530809
 20
19.2428361125
 10
5.6430142564
 20
19.243795997
 10
5.6543189143
 20
19.2442099849
 10
5.6659548773
 20
19.2440723726
 10
5.6779185072
 20
19.243369517
 10
5.6902595929
 20
19.242062449
 10
5.7029871144
 20
19.2401376918
 10
5.7160777444
 20
19.2375814461
 10
5.7295349791
 20
19.2343499229
 10
5.743346933
 20
19.2304285371
 10
5.7575035772
 20
19.225803249
 10
5.7720102573
 20
19.2204290878
 10
5.786857816
 20
19.2142865105
 10
5.8020253313
 20
19.2073638074
 10
5.8174986312
 20
19.1996264303
 10
5.8332501987
 20
19.1910607985
 10
5.8375283748
 20
19.188616375
  0
LINE
  5
2DE
100
AcDbEntity
  8
0
100
AcDbLine
 62
250
  6
CONTINUOUS
 10
4.7565604725
 20
-20.5081281715
 11
-2.115474969
 21
-16.5403010345
  0
LWPOLYLINE
  5
2DF
100
AcDbEntity
  8
RACCORDO
100
AcDbPolyline
 62
250
  6
CONTINUOUS
 90
3
 70
0
 10
-21.4184259921
 20
-2.8819859066
 10
-21.4258236241
 20
-2.8772681786
 10
-21.4334289436
 20
-2.8724806579
  0
LWPOLYLINE
  5
2E0
100
AcDbEntity
  8
RACCORDO
100
AcDbPolyline
 62
250
  6
CONTINUOUS
 90
3
 70
0
 10
-16.1437570378
 20
-3.0963296905
 10
-16.5569354144
 20
-2.5960634967
 10
-16.9807899168
 20
-2.1134828003
  0
LINE
  5
2E1
100
AcDbEntity
  8
RACCORDO
100
AcDbLine
 62
250
  6
CONTINUOUS
 10
-15.7422605733
 20
-3.6130636003
 11
-16.1437570378
 21
-3.0963296905
  0
LINE
  5
2E2
100
AcDbEntity
  8
RACCORDO
100
AcDbLine
 62
250
  6
CONTINUOUS
 10
-15.3534233672
 20
-4.1450073619
 11
-15.7422605733
 21
-3.6130636003
  0
LWPOLYLINE
  5
2E3
100
AcDbEntity
  8
RACCORDO
100
AcDbPolyline
 62
250
  6
CONTINUOUS
 90
19
 70
0
 10
-20.9477953817
 20
1.5946435034
 10
-20.9227596955
 20
1.5562904888
 10
-20.895928816
 20
1.5192162457
 10
-20.8675280715
 20
1.4837321159
 10
-20.8377959832
 20
1.4501360973
 10
-20.8069822314
 20
1.4187103061
 10
-20.7753455553
 20
1.3897186161
 10
-20.7431516237
 20
1.3634044867
 10
-20.7106708076
 20
1.3399889109
 10
-20.678175877
 20
1.3196685301
 10
-20.6459397198
 20
1.302613992
 10
-20.6142330507
 20
1.2889685183
 10
-20.5833221384
 20
1.2788467017
 10
-20.5534665786
 20
1.2723335454
 10
-20.5249170829
 20
1.2694837414
 10
-20.4979133785
 20
1.2703212244
 10
-20.4726822358
 20
1.2748389746
 10
-20.4494355583
 20
1.282999064
 10
-20.4283685757
 20
1.2947329756
  0
LWPOLYLINE
  5
2E4
100
AcDbEntity
  8
RACCORDO
100
AcDbPolyline
 62
250
  6
CONTINUOUS
 90
8
 70
0
 10
-13.0610850598
 20
-8.181864161
 10
-13.3368099405
 20
-7.5813749202
 10
-13.631049583
 20
-6.9864356132
 10
-13.9430877309
 20
-6.3984944775
 10
-14.2721648026
 20
-5.8189827138
 10
-14.617479739
 20
-5.2493110052
 10
-14.978191951
 20
-4.6908660857
 10
-15.3534233672
 20
-4.1450073619
  0
LINE
  5
2E5
100
AcDbEntity
  8
RACCORDO
100
AcDbLine
 62
250
  6
CONTINUOUS
 10
-12.8045461294
 20
-8.7864415836
 11
-13.0610850598
 21
-8.181864161
  0
LWPOLYLINE
  5
2E6
100
AcDbEntity
  8
RACCORDO
100
AcDbPolyline
 62
250
  6
CONTINUOUS
 90
3
 70
0
 10
-12.3514758354
 20
-10.0019677874
 10
-12.5678176345
 20
-9.3936354834
 10
-12.8045461294
 20
-8.7864415836
  0
LWPOLYLINE
  5
2E7
100
AcDbEntity
  8
0
100
AcDbPolyline
 62
250
  6
CONTINUOUS
 90
34
 70
0
 10
-13.5329125632
 20
23.8554627148
 10
-13.5331068694
 20
23.8633053466
 10
-13.5336182739
 20
23.8713167848
 10
-13.5344456184
 20
23.8794788818
 10
-13.5355870287
 20
23.8877731493
 10
-13.5370399194
 20
23.8961807989
 10
-13.5388009995
 20
23.9046827853
 10
-13.5408662796
 20
23.9132598495
 10
-13.5432310815
 20
23.9218925632
 10
-13.5458900486
 20
23.9305613718
 10
-13.5488371579
 20
23.9392466391
 10
-13.5520657337
 20
23.9479286911
 10
-13.5555684623
 20
23.9565878607
 10
-13.5593374092
 20
23.9652045329
 10
-13.5633640372
 20
23.9737591897
 10
-13.5676392255
 20
23.9822324536
 10
-13.5721532899
 20
23.9906051313
 10
-13.5768960052
 20
23.9988582569
 10
-13.5818566284
 20
24.0069731354
 10
-13.5870239227
 20
24.0149313853
 10
-13.5923861831
 20
24.0227149795
 10
-13.5979312629
 20
24.0303062861
 10
-13.603646601
 20
24.0376881092
 10
-13.6095192513
 20
24.0448437278
 10
-13.6155359117
 20
24.0517569336
 10
-13.6216829534
 20
24.0584120671
 10
-13.6279464519
 20
24.0647940528
 10
-13.6343122191
 20
24.0708884342
 10
-13.6407658352
 20
24.0766814062
 10
-13.6472926816
 20
24.0821598466
 10
-13.6538779735
 20
24.0873113457
 10
-13.6605067938
 20
24.0921242343
 10
-13.667164127
 20
24.0965876103
 10
-13.6738348932
 20
24.1006913636
  0
LWPOLYLINE
  5
2E8
100
AcDbEntity
  8
0
100
AcDbPolyline
 62
250
  6
CONTINUOUS
 90
33
 70
0
 10
-12.1599832198
 20
22.9486981544
 10
-12.1599548986
 20
22.9467548647
 10
-12.159809874
 20
22.9438913129
 10
-12.1595419144
 20
22.9410311231
 10
-12.1591512248
 20
22.9381759785
 10
-12.1586382145
 20
22.9353282607
 10
-12.1580034556
 20
22.9324902578
 10
-12.1572473739
 20
22.9296631554
 10
-12.1563702214
 20
22.9268476765
 10
-12.1553725637
 20
22.9240456415
 10
-12.1542549791
 20
22.9212586781
 10
-12.1530175567
 20
22.9184872427
 10
-12.1516604482
 20
22.9157322116
 10
-12.1501846857
 20
22.9129961701
 10
-12.1485917964
 20
22.9102821193
 10
-12.1468830267
 20
22.9075921317
 10
-12.145059199
 20
22.9049274547
 10
-12.1431214892
 20
22.9022897975
 10
-12.1410707719
 20
22.899680378
 10
-12.1389086117
 20
22.8971012128
 10
-12.1366374954
 20
22.8945551339
 10
-12.1342600511
 20
22.8920447442
 10
-12.1317769409
 20
22.8895704149
 10
-12.1291876998
 20
22.8871316346
 10
-12.1264927986
 20
22.8847290424
 10
-12.1236947502
 20
22.8823650667
 10
-12.1207960863
 20
22.8800418996
 10
-12.1177986744
 20
22.8777610288
 10
-12.1147042838
 20
22.8755237918
 10
-12.1115155469
 20
22.8733320494
 10
-12.1082347389
 20
22.8711872749
 10
-12.1048637043
 20
22.8690905861
 10
-12.101404576
 20
22.8670432358
  0
LINE
  5
2E9
100
AcDbEntity
  8
0
100
AcDbLine
 62
250
  6
CONTINUOUS
 10
-13.8145157723
 20
22.6564553979
 11
-13.8145157723
 21
23.8561721702
  0
LINE
  5
2EA
100
AcDbEntity
  8
0
100
AcDbLine
 62
250
  6
CONTINUOUS
 10
-13.5329125632
 20
22.6642291407
 11
-13.5329125632
 21
23.8554627148
  0
LINE
  5
2EB
100
AcDbEntity
  8
0
100
AcDbLine
 62
7
  6
CONTINUOUS
 10
-12.6044067836
 20
23.2467615051
 11
-12.6044067836
 21
24.3878592353
  0
LINE
  5
2EC
100
AcDbEntity
  8
0
100
AcDbLine
 62
7
  6
CONTINUOUS
 10
-12.1599832198
 20
22.9486981544
 11
-12.1599832198
 21
21.7514879268
  0
LINE
  5
2ED
100
AcDbEntity
  8
0
100
AcDbLine
 62
250
  6
CONTINUOUS
 10
-12.101404576
 20
22.8670432358
 11
-12.101404576
 21
21.6673264635
  0
LINE
  5
2EE
100
AcDbEntity
  8
0
100
AcDbLine
 62
7
  6
CONTINUOUS
 10
-11.1024084617
 20
21.5172434895
 11
-11.1024084617
 21
20.2815189353
  0
LINE
  5
2EF
100
AcDbEntity
  8
0
100
AcDbLine
 62
250
  6
CONTINUOUS
 10
-11.0438298179
 20
21.4355885709
 11
-11.0438298179
 21
20.197357472
  0
LWPOLYLINE
  5
2F0
100
AcDbEntity
  8
0
100
AcDbPolyline
 62
250
  6
CONTINUOUS
 90
34
 70
0
 10
-11.0438298179
 20
21.4355885709
 10
-11.0436706337
 20
21.4434260925
 10
-11.043193438
 20
21.4514298087
 10
-11.0423993033
 20
21.4595817022
 10
-11.0412900144
 20
21.4678634283
 10
-11.0398680672
 20
21.4762563377
 10
-11.0381366651
 20
21.4847415178
 10
-11.0360997067
 20
21.4932998637
 10
-11.0337617773
 20
21.501912111
 10
-11.031128144
 20
21.5105588604
 10
-11.0282047397
 20
21.5192206378
 10
-11.0249981448
 20
21.5278779516
 10
-11.0215155735
 20
21.5365113255
 10
-11.0177648557
 20
21.5451013465
 10
-11.0137544438
 20
21.5536286537
 10
-11.0094933942
 20
21.5620739963
 10
-11.0049913346
 20
21.5704183092
 10
-11.0002583769
 20
21.5786428662
 10
-10.9953051123
 20
21.5867292624
 10
-10.9901426113
 20
21.5946594035
 10
-10.9847825611
 20
21.6024153164
 10
-10.9792371924
 20
21.6099793144
 10
-10.973519117
 20
21.6173342383
 10
-10.9676411083
 20
21.6244637006
 10
-10.9616162227
 20
21.6313518747
 10
-10.9554577804
 20
21.637983499
 10
-10.9491798698
 20
21.6443433705
 10
-10.9427971643
 20
21.650416665
 10
-10.936323165
 20
21.656190546
 10
-10.9297733277
 20
21.6616512394
 10
-10.9231656844
 20
21.6667840767
 10
-10.9165162804
 20
21.671577323
 10
-10.9098390273
 20
21.6760216736
 10
-10.9031489388
 20
21.6801077643
  0
LWPOLYLINE
  5
2F1
100
AcDbEntity
  8
0
100
AcDbPolyline
 62
250
  6
CONTINUOUS
 90
27
 70
0
 10
-6.4981196598
 20
18.5840238677
 10
-6.5025387455
 20
18.5733310407
 10
-6.5073448821
 20
18.5628940082
 10
-6.5125272186
 20
18.5527363349
 10
-6.5180740542
 20
18.5428809544
 10
-6.5239728655
 20
18.5333501183
 10
-6.5302103342
 20
18.5241653449
 10
-6.5367723776
 20
18.5153473716
 10
-6.5436441798
 20
18.5069161074
 10
-6.5508102255
 20
18.4988905886
 10
-6.5582543355
 20
18.491288935
 10
-6.5659597025
 20
18.4841283095
 10
-6.5739089284
 20
18.4774248799
 10
-6.5820840656
 20
18.471193781
 10
-6.5904666562
 20
18.4654490809
 10
-6.5990377736
 20
18.46020375
 10
-6.6077780659
 20
18.4554696309
 10
-6.6166677994
 20
18.4512574118
 10
-6.6256869032
 20
18.4475766026
 10
-6.6348150139
 20
18.4444355134
 10
-6.6440315224
 20
18.4418412358
 10
-6.6533156199
 20
18.4397996268
 10
-6.662646345
 20
18.4383152955
 10
-6.672002631
 20
18.437391593
 10
-6.6813633538
 20
18.4370306044
 10
-6.6907073791
 20
18.4372331447
 10
-6.6968223076
 20
18.4376723443
  0
LINE
  5
2F2
100
AcDbEntity
  8
0
100
AcDbLine
 62
7
  6
CONTINUOUS
 10
-1.8247308067
 20
16.8758656837
 11
-1.1139215893
 21
17.7533918708
  0
LWPOLYLINE
  5
2F3
100
AcDbEntity
  8
RACCORDO
100
AcDbPolyline
 62
250
  6
CONTINUOUS
 90
39
 70
0
 10
-13.4979568203
 20
6.6492915987
 10
-13.4895346776
 20
6.6554585115
 10
-13.4810071586
 20
6.6612189986
 10
-13.4724123196
 20
6.6665740151
 10
-13.4637865792
 20
6.671521724
 10
-13.4551635871
 20
6.6760765846
 10
-13.4465729623
 20
6.6802671263
 10
-13.4380481543
 20
6.6841063595
 10
-13.4296101201
 20
6.6876047879
 10
-13.4212644799
 20
6.6907870567
 10
-13.4130442283
 20
6.6936665893
 10
-13.4049565171
 20
6.6962587374
 10
-13.396963139
 20
6.6985893517
 10
-13.3890824548
 20
6.7006789724
 10
-13.3813235683
 20
6.7025348184
 10
-13.3736307978
 20
6.7041618606
 10
-13.3660111471
 20
6.7055858863
 10
-13.3584770854
 20
6.7068098922
 10
-13.3509800634
 20
6.7078093009
 10
-13.3435251476
 20
6.7086183067
 10
-13.3361223277
 20
6.7092386721
 10
-13.3287308732
 20
6.7096106843
 10
-13.3213608254
 20
6.7097867244
 10
-13.3140131
 20
6.7097656944
 10
-13.3066327342
 20
6.709434599
 10
-13.2992245923
 20
6.7088776365
 10
-13.291786129
 20
6.7080896804
 10
-13.2842429582
 20
6.7068710198
 10
-13.2765553735
 20
6.7053263197
 10
-13.2687368549
 20
6.7034759145
 10
-13.2607583461
 20
6.7010494475
 10
-13.2524565689
 20
6.6980086079
 10
-13.2438786252
 20
6.6945398772
 10
-13.2352719958
 20
6.6906841422
 10
-13.2265630982
 20
6.6862914925
 10
-13.2176612948
 20
6.6814855369
 10
-13.2088379399
 20
6.6766331084
 10
-13.2001956604
 20
6.6717167697
 10
-13.1744810353
 20
6.6565035858
  0
LWPOLYLINE
  5
2F4
100
AcDbEntity
  8
RACCORDO
100
AcDbPolyline
 62
250
  6
CONTINUOUS
 90
4
 70
0
 10
-20.3765634515
 20
1.2880881488
 10
-20.3938204146
 20
1.2758621422
 10
-20.4104826255
 20
1.2631057979
 10
-20.4265207073
 20
1.2499200033
  0
LWPOLYLINE
  5
2F5
100
AcDbEntity
  8
RACCORDO
100
AcDbPolyline
 62
250
  6
CONTINUOUS
 90
25
 70
0
 10
-20.4283688382
 20
1.2947327978
 10
-20.4426008899
 20
1.2847121877
 10
-20.4563955604
 20
1.2742941823
 10
-20.4697350201
 20
1.2635458406
 10
-20.4825904001
 20
1.2525440413
 10
-20.4949661639
 20
1.2413377257
 10
-20.5068980774
 20
1.2299423509
 10
-20.5183864559
 20
1.2184009186
 10
-20.5294206207
 20
1.2067668918
 10
-20.5400208712
 20
1.1950603601
 10
-20.5501842227
 20
1.1833239903
 10
-20.5599141883
 20
1.1715927429
 10
-20.5692408631
 20
1.1598671726
 10
-20.5781431784
 20
1.1482098699
 10
-20.5866497327
 20
1.1366192131
 10
-20.5948593147
 20
1.1249870963
 10
-20.6027440416
 20
1.1133739931
 10
-20.6103333036
 20
1.1017575764
 10
-20.6177940573
 20
1.0898861435
 10
-20.625118687
 20
1.0777596935
 10
-20.6322909953
 20
1.0653922089
 10
-20.6394388071
 20
1.0525344901
 10
-20.6465801994
 20
1.0391014788
 10
-20.6536382417
 20
1.0251818279
 10
-20.6605826186
 20
1.0107815688
  0
LINE
  5
2F6
100
AcDbEntity
  8
RACCORDO
100
AcDbLine
 62
250
  6
CONTINUOUS
 10
-21.00443935
 20
1.6506158354
 11
-13.5540653688
 21
6.7055377005
  0
LINE
  5
2F7
100
AcDbEntity
  8
RACCORDO
100
AcDbLine
 62
250
  6
CONTINUOUS
 10
-20.9477953817
 20
1.5946435034
 11
-13.4979600058
 21
6.6492672506
  0
LINE
  5
2F8
100
AcDbEntity
  8
RACCORDO
100
AcDbLine
 62
7
  6
CONTINUOUS
 10
-12.9780679778
 20
6.349072253
 11
-20.4283685757
 21
1.2947329756
  0
LINE
  5
2F9
100
AcDbEntity
  8
RACCORDO
100
AcDbLine
 62
250
  6
CONTINUOUS
 10
-12.9259284315
 20
6.3428397682
 11
-20.3765637703
 21
1.2880883448
  0
LWPOLYLINE
  5
2FA
100
AcDbEntity
  8
RACCORDO
100
AcDbPolyline
 62
250
  6
CONTINUOUS
 90
55
 70
0
 10
-13.5540653688
 20
6.7055377005
 10
-13.5432618372
 20
6.7124924594
 10
-13.5324244785
 20
6.7190025934
 10
-13.5215531982
 20
6.7250679597
 10
-13.5106135222
 20
6.7306713294
 10
-13.499639747
 20
6.7358294904
 10
-13.4887349672
 20
6.7405933314
 10
-13.4779119532
 20
6.7449612028
 10
-13.4671578433
 20
6.7489342678
 10
-13.4565373335
 20
6.7525677574
 10
-13.4460710276
 20
6.7558604473
 10
-13.4357382889
 20
6.7588131403
 10
-13.4255419798
 20
6.7614842313
 10
-13.4154941088
 20
6.7638777678
 10
-13.4055826624
 20
6.7659893441
 10
-13.3957744773
 20
6.767864747
 10
-13.386071113
 20
6.769510046
 10
-13.3764710121
 20
6.7709188221
 10
-13.3669363331
 20
6.7721181447
 10
-13.3574651593
 20
6.7731131245
 10
-13.3480594098
 20
6.7738982677
 10
-13.338686991
 20
6.7744847136
 10
-13.3293517974
 20
6.7748766284
 10
-13.3200499372
 20
6.7750694026
 10
-13.3107376285
 20
6.7750609424
 10
-13.3014261362
 20
6.7748573331
 10
-13.2921041947
 20
6.7744519188
 10
-13.2826942124
 20
6.7738233187
 10
-13.2732036526
 20
6.7729793975
 10
-13.2636250392
 20
6.7719114164
 10
-13.2538583504
 20
6.7705727518
 10
-13.2438566628
 20
6.7689547142
 10
-13.2336668691
 20
6.7670645106
 10
-13.22332967
 20
6.7648791296
 10
-13.2127809374
 20
6.7623631422
 10
-13.202084799
 20
6.7595502615
 10
-13.1914743791
 20
6.7565216993
 10
-13.1809817305
 20
6.7532684362
 10
-13.1705748797
 20
6.7497988841
 10
-13.1603909497
 20
6.7462214026
 10
-13.1505030353
 20
6.7425658586
 10
-13.1408381405
 20
6.7388027952
 10
-13.1313142462
 20
6.7349519607
 10
-13.1219315616
 20
6.7310234364
 10
-13.1126899426
 20
6.7270072638
 10
-13.1035068188
 20
6.72289289
 10
-13.0943921794
 20
6.7186926524
 10
-13.0853360841
 20
6.7143940441
 10
-13.0762260539
 20
6.7099488108
 10
-13.0670602055
 20
6.7053632151
 10
-13.0578404629
 20
6.700630222
 10
-13.0484600519
 20
6.6956810081
 10
-13.0388833974
 20
6.6904919765
 10
-13.0291461243
 20
6.6850851251
 10
-13.019248261
 20
6.6794596612
  0
LWPOLYLINE
  5
2FB
100
AcDbEntity
  8
0
100
AcDbPolyline
 62
7
  6
CONTINUOUS
 90
25
 70
0
 10
-0.7172338561
 20
15.7988880551
 10
-0.7224707364
 20
15.7955467213
 10
-0.7274478107
 20
15.7919146
 10
-0.7321580666
 20
15.7880051821
 10
-0.7365867681
 20
15.7838267261
 10
-0.7407363686
 20
15.7793973396
 10
-0.7446265094
 20
15.7747450204
 10
-0.7482516977
 20
15.7698836666
 10
-0.7516085146
 20
15.764824371
 10
-0.7547204318
 20
15.7595902217
 10
-0.7575843842
 20
15.7541938588
 10
-0.7601973386
 20
15.7486450415
 10
-0.7625832169
 20
15.7429612641
 10
-0.764740648
 20
15.7371533111
 10
-0.7666670336
 20
15.7312298526
 10
-0.7683845526
 20
15.7252038052
 10
-0.7698927618
 20
15.7190844713
 10
-0.7711896732
 20
15.7128792284
 10
-0.7722950014
 20
15.7065967942
 10
-0.7732088793
 20
15.7002446046
 10
-0.7739297486
 20
15.6938294139
 10
-0.7744744866
 20
15.6873578153
 10
-0.7748434315
 20
15.6808360483
 10
-0.7750355171
 20
15.6742700315
 10
-0.7750724653
 20
15.669836602
  0
LINE
  5
2FC
100
AcDbEntity
  8
0
100
AcDbLine
 62
7
  6
CONTINUOUS
 10
0.4770686684
 20
14.4046736574
 11
-0.0947983069
 21
14.0458918075
  0
LWPOLYLINE
  5
2FD
100
AcDbEntity
  8
0
100
AcDbPolyline
 62
250
  6
CONTINUOUS
 90
34
 70
0
 10
-0.2357206369
 20
15.5208683571
 10
-0.2424263974
 20
15.5167722644
 10
-0.2491154021
 20
15.5123189039
 10
-0.255772599
 20
15.507518297
 10
-0.2623830077
 20
15.5023812461
 10
-0.2689317532
 20
15.4969193108
 10
-0.2754040993
 20
15.4911447819
 10
-0.2817854815
 20
15.4850706534
 10
-0.2880615401
 20
15.4787105937
 10
-0.2942181525
 20
15.4720789145
 10
-0.3002414647
 20
15.4651905387
 10
-0.3061179229
 20
15.4580609668
 10
-0.3118343035
 20
15.4507062422
 10
-0.3173777432
 20
15.4431429148
 10
-0.322735768
 20
15.4353880039
 10
-0.3278963209
 20
15.4274589601
 10
-0.3328477895
 20
15.4193736256
 10
-0.3375790317
 20
15.4111501944
 10
-0.342079401
 20
15.4028071713
 10
-0.3463387706
 20
15.3943633302
 10
-0.3503475557
 20
15.3858376718
 10
-0.3540967356
 20
15.3772493809
 10
-0.3575778738
 20
15.3686177833
 10
-0.3607831367
 20
15.3599623023
 10
-0.3637053118
 20
15.3513024148
 10
-0.3663378235
 20
15.3426576077
 10
-0.3686747479
 20
15.334047334
 10
-0.3707108264
 20
15.3254909689
 10
-0.3724414773
 20
15.3170077663
 10
-0.3738628062
 20
15.3086168156
 10
-0.3749716148
 20
15.3003369985
 10
-0.375765408
 20
15.2921869466
 10
-0.3762423995
 20
15.2841849995
 10
-0.376401516
 20
15.2763491636
  0
LWPOLYLINE
  5
2FE
100
AcDbEntity
  8
0
100
AcDbPolyline
 62
250
  6
CONTINUOUS
 90
64
 70
0
 10
2.2360676835
 20
14.9145130137
 10
2.2325538081
 20
14.9124124791
 10
2.2290420805
 20
14.9102123562
 10
2.2255346715
 20
14.9079139637
 10
2.2220337173
 20
14.9055186583
 10
2.2185414186
 20
14.903027903
 10
2.2150600385
 20
14.9004432744
 10
2.2115914008
 20
14.8977660789
 10
2.2081379915
 20
14.8949981873
 10
2.2047030404
 20
14.892142204
 10
2.2012890198
 20
14.889200266
 10
2.197897663
 20
14.8861739488
 10
2.1945310525
 20
14.8830651766
 10
2.1911916142
 20
14.8798762731
 10
2.1878810239
 20
14.8766089228
 10
2.1846002399
 20
14.8732640865
 10
2.1813508522
 20
14.8698433256
 10
2.1781353328
 20
14.8663491818
 10
2.1749559538
 20
14.8627841001
 10
2.1718145731
 20
14.8591501483
 10
2.168713246
 20
14.8554496879
 10
2.1656544729
 20
14.8516857253
 10
2.1626403234
 20
14.8478608752
 10
2.1596724285
 20
14.8439772763
 10
2.1567525647
 20
14.8400373091
 10
2.1538829121
 20
14.8360439962
 10
2.1510648021
 20
14.8319992719
 10
2.1482987588
 20
14.8279038638
 10
2.1455860624
 20
14.8237595252
 10
2.1429289245
 20
14.8195694896
 10
2.1403292716
 20
14.8153367007
 10
2.1377885727
 20
14.8110634582
 10
2.1353086116
 20
14.8067526683
 10
2.1328916637
 20
14.8024082685
 10
2.1305392526
 20
14.7980330484
 10
2.1282527592
 20
14.7936296295
 10
2.1260340837
 20
14.7892017746
 10
2.123884936
 20
14.784753105
 10
2.1218061365
 20
14.7802855337
 10
2.1197982103
 20
14.7758002737
 10
2.1178624765
 20
14.7713002785
 10
2.1160000444
 20
14.7667881338
 10
2.1142112356
 20
14.7622644796
 10
2.1124967289
 20
14.7577306525
 10
2.1108582753
 20
14.7531908858
 10
2.1092977322
 20
14.7486501702
 10
2.1078162858
 20
14.7441120104
 10
2.1064146067
 20
14.7395785162
 10
2.1050935885
 20
14.7350525872
 10
2.1038538504
 20
14.730536298
 10
2.1026963721
 20
14.7260331679
 10
2.1016223829
 20
14.7215482313
 10
2.1006328329
 20
14.7170861941
 10
2.0997277093
 20
14.712647798
 10
2.0989067992
 20
14.7082321352
 10
2.0981704237
 20
14.7038403121
 10
2.0975194353
 20
14.6994767217
 10
2.0969544702
 20
14.6951453959
 10
2.0964758855
 20
14.6908491195
 10
2.0960839585
 20
14.6865904315
 10
2.0957789872
 20
14.6823729075
 10
2.0955611114
 20
14.6781994338
 10
2.0954303776
 20
14.6740722342
 10
2.0953868044
 20
14.6699938203
  0
LINE
  5
2FF
100
AcDbEntity
  8
0
100
AcDbLine
 62
7
  6
CONTINUOUS
 10
6.0974825648
 20
18.8736522468
 11
1.6786402292
 21
16.3042957312
  0
LINE
  5
300
100
AcDbEntity
  8
0
100
AcDbLine
 62
7
  6
CONTINUOUS
 10
2.7050294294
 20
15.7116714707
 11
6.1636156178
 21
17.7203387132
  0
LINE
  5
301
100
AcDbEntity
  8
0
100
AcDbLine
 62
7
  6
CONTINUOUS
 10
8.9047196258
 20
18.9028358543
 11
3.05858282
 21
15.507534174
  0
LINE
  5
302
100
AcDbEntity
  8
0
100
AcDbLine
 62
7
  6
CONTINUOUS
 10
3.3054957931
 20
15.1201878439
 11
8.0151846123
 21
17.8395077689
  0
LINE
  5
303
100
AcDbEntity
  8
0
100
AcDbLine
 62
250
  6
CONTINUOUS
 10
0.4775569717
 20
15.9298550594
 11
-0.2357206369
 21
15.5208683571
  0
LINE
  5
304
100
AcDbEntity
  8
0
100
AcDbLine
 62
250
  6
CONTINUOUS
 10
0.4770686684
 20
15.6035428775
 11
-0.0947983069
 21
15.2756397083
  0
LINE
  5
305
100
AcDbEntity
  8
0
100
AcDbLine
 62
250
  6
CONTINUOUS
 10
3.1640755139
 20
15.4466240147
 11
2.2360676835
 21
14.9145130137
  0
LINE
  5
306
100
AcDbEntity
  8
0
100
AcDbLine
 62
250
  6
CONTINUOUS
 10
3.3054957931
 20
15.2016808854
 11
2.3769900135
 21
14.6692843649
  0
LWPOLYLINE
  5
307
100
AcDbEntity
  8
0
100
AcDbPolyline
 62
250
  6
CONTINUOUS
 90
64
 70
0
 10
2.3769900135
 20
14.6692843649
 10
2.3734100639
 20
14.6673028836
 10
2.3697456239
 20
14.6653730026
 10
2.3659989134
 20
14.6634959301
 10
2.3621721656
 20
14.6616728246
 10
2.3582677407
 20
14.6599048493
 10
2.3542881317
 20
14.658193166
 10
2.350235344
 20
14.6565386788
 10
2.3461122575
 20
14.6549426045
 10
2.3419228231
 20
14.6534064561
 10
2.3376702223
 20
14.6519313248
 10
2.3333565773
 20
14.6505178724
 10
2.3289843647
 20
14.6491668593
 10
2.324556672
 20
14.647879185
 10
2.3200758921
 20
14.6466554917
 10
2.3155434516
 20
14.6454961607
 10
2.3109615288
 20
14.6444017905
 10
2.3063335011
 20
14.6433732283
 10
2.3016626051
 20
14.6424112096
 10
2.2969515308
 20
14.6415162984
 10
2.2922033478
 20
14.6406890882
 10
2.2874219326
 20
14.6399302379
 10
2.2826106299
 20
14.6392402311
 10
2.277772028
 20
14.638619392
 10
2.2729089112
 20
14.6380680447
 10
2.2680248859
 20
14.6375865557
 10
2.2631223525
 20
14.6371751197
 10
2.258202277
 20
14.6368338339
 10
2.25326682
 20
14.6365629274
 10
2.2483198472
 20
14.6363626911
 10
2.243364883
 20
14.6362333178
 10
2.2384046402
 20
14.6361749246
 10
2.2334425009
 20
14.6361875978
 10
2.2284830032
 20
14.6362713332
 10
2.2235293283
 20
14.6364260497
 10
2.2185843914
 20
14.636651629
 10
2.2136523174
 20
14.6369478347
 10
2.2087370689
 20
14.6373143365
 10
2.2038406992
 20
14.6377508887
 10
2.198964461
 20
14.6382573455
 10
2.1941115066
 20
14.6388333805
 10
2.1892846555
 20
14.6394786599
 10
2.1844846977
 20
14.6401931321
 10
2.1797131513
 20
14.6409767095
 10
2.1749744938
 20
14.6418287963
 10
2.1702739227
 20
14.6427485106
 10
2.1656150277
 20
14.6437351329
 10
2.1609999691
 20
14.6447881881
 10
2.1564317071
 20
14.6459069975
 10
2.1519123511
 20
14.6470910559
 10
2.1474453937
 20
14.6483394601
 10
2.1430357399
 20
14.6496507742
 10
2.1386878974
 20
14.6510234807
 10
2.1344025095
 20
14.6524571974
 10
2.1301786903
 20
14.6539521928
 10
2.1260175465
 20
14.655508195
 10
2.1219232844
 20
14.657123753
 10
2.1178997002
 20
14.6587974053
 10
2.1139493706
 20
14.6605280733
 10
2.110074612
 20
14.6623147357
 10
2.1062786474
 20
14.6641558724
 10
2.1025640283
 20
14.6660501698
 10
2.0989326907
 20
14.667996563
 10
2.0953868044
 20
14.6699938203
  0
LWPOLYLINE
  5
308
100
AcDbEntity
  8
0
100
AcDbPolyline
 62
7
  6
CONTINUOUS
 90
20
 70
0
 10
11.1948128925
 20
15.999402006
 10
11.2044915081
 20
16.0023517584
 10
11.2145061706
 20
16.0048014924
 10
11.2248490955
 20
16.0067434399
 10
11.235498543
 20
16.0081741366
 10
11.2464583544
 20
16.0090823057
 10
11.2577612463
 20
16.0094462453
 10
11.2693957715
 20
16.0092601954
 10
11.2813578707
 20
16.0085104422
 10
11.2936964169
 20
16.0071576696
 10
11.3064203652
 20
16.0051882472
 10
11.3195064906
 20
16.0025885354
 10
11.3329574287
 20
15.9993149873
 10
11.346761332
 20
15.9953529696
 10
11.3609081418
 20
15.9906886003
 10
11.3754021596
 20
15.9852775851
 10
11.3902340422
 20
15.9791004959
 10
11.405383032
 20
15.9721457777
 10
11.420834405
 20
15.9643797289
 10
11.4365604769
 20
15.9557890664
  0
LWPOLYLINE
  5
309
100
AcDbEntity
  8
RACCORDO
100
AcDbPolyline
 62
250
  6
CONTINUOUS
 90
10
 70
0
 10
-21.8655357719
 20
-2.4770576291
 10
-21.8586288192
 20
-2.4806893711
 10
-21.8511650511
 20
-2.4839331226
 10
-21.8432096036
 20
-2.4867605754
 10
-21.8348319035
 20
-2.4891470548
 10
-21.8261050623
 20
-2.4910717341
 10
-21.8171052388
 20
-2.4925178166
 10
-21.807910974
 20
-2.4934726824
 10
-21.7986025055
 20
-2.4939279985
 10
-21.789261068
 20
-2.4938797915
  0
LWPOLYLINE
  5
30A
100
AcDbEntity
  8
RACCORDO
100
AcDbPolyline
 62
250
  6
CONTINUOUS
 90
10
 70
0
 10
-21.8655353316
 20
-1.1117037704
 10
-21.8586283426
 20
-1.1153354806
 10
-21.8511645429
 20
-1.1185791986
 10
-21.8432090685
 20
-1.1214066165
 10
-21.8348313463
 20
-1.1237930598
 10
-21.8261044882
 20
-1.1257177019
 10
-21.817104653
 20
-1.1271637468
 10
-21.8079103815
 20
-1.1281185747
 10
-21.7986019117
 20
-1.1285738531
 10
-21.7892604779
 20
-1.1285256087
  0
LWPOLYLINE
  5
30B
100
AcDbEntity
  8
RACCORDO
100
AcDbPolyline
 62
250
  6
CONTINUOUS
 90
10
 70
0
 10
-21.8655281225
 20
-1.1040494642
 10
-21.8586211358
 20
-1.1076974239
 10
-21.8511571943
 20
-1.1109587669
 10
-21.8432014467
 20
-1.1138050274
 10
-21.8348233335
 20
-1.1162113625
 10
-21.8260959828
 20
-1.1181567691
 10
-21.8170955725
 20
-1.1196242669
 10
-21.8079006627
 20
-1.1206010479
 10
-21.7985915092
 20
-1.1210785872
 10
-21.7425434245
 20
-1.1208120686
  0
LWPOLYLINE
  5
30C
100
AcDbEntity
  8
RACCORDO
100
AcDbPolyline
 62
250
  6
CONTINUOUS
 90
16
 70
0
 10
-21.407888802
 20
-2.5507181111
 10
-21.4285971825
 20
-2.5395048754
 10
-21.4503556447
 20
-2.5292078752
 10
-21.4730895109
 20
-2.5198584505
 10
-21.4967187143
 20
-2.5114711764
 10
-21.5211660828
 20
-2.5040860272
 10
-21.5463585417
 20
-2.4977692257
 10
-21.5722325909
 20
-2.4925319841
 10
-21.5986849845
 20
-2.4884042004
 10
-21.6255781285
 20
-2.4854718565
 10
-21.6528715561
 20
-2.4837344212
 10
-21.680427796
 20
-2.4832081663
 10
-21.7079542654
 20
-2.4839754177
 10
-21.7352915554
 20
-2.4860402179
 10
-21.7624208584
 20
-2.4893502404
 10
-21.789261068
 20
-2.493879733
  0
LWPOLYLINE
  5
30D
100
AcDbEntity
  8
RACCORDO
100
AcDbPolyline
 62
250
  6
CONTINUOUS
 90
25
 70
0
 10
-21.6250419578
 20
-2.7629074685
 10
-21.6495825993
 20
-2.7496325376
 10
-21.6611239589
 20
-2.7432977152
 10
-21.6720767413
 20
-2.7367695458
 10
-21.6825925579
 20
-2.7299542914
 10
-21.6928281154
 20
-2.7228005761
 10
-21.7027640534
 20
-2.7149057319
 10
-21.712406203
 20
-2.7058767108
 10
-21.7218074065
 20
-2.6957791403
 10
-21.7309469808
 20
-2.6848834494
 10
-21.7396125839
 20
-2.6728638117
 10
-21.7476002212
 20
-2.6597317478
 10
-21.7549615091
 20
-2.6464061262
 10
-21.7615564443
 20
-2.633098679
 10
-21.7672228842
 20
-2.619536418
 10
-21.7722255776
 20
-2.6060609846
 10
-21.7765927016
 20
-2.5928439116
 10
-21.7802074709
 20
-2.5797541369
 10
-21.7832421131
 20
-2.5667278583
 10
-21.7857378903
 20
-2.5536738745
 10
-21.787601511
 20
-2.5407477205
 10
-21.7888581021
 20
-2.5282588565
 10
-21.7895442739
 20
-2.5163200195
 10
-21.7896709209
 20
-2.5048556192
 10
-21.7892616174
 20
-2.493879314
  0
LWPOLYLINE
  5
30E
100
AcDbEntity
  8
RACCORDO
100
AcDbPolyline
 62
250
  6
CONTINUOUS
 90
4
 70
0
 10
-21.5703317341
 20
-2.7923264323
 10
-21.5983443548
 20
-2.7771048069
 10
-21.6118527417
 20
-2.7698604532
 10
-21.6250419578
 20
-2.7629074685
  0
LINE
  5
30F
100
AcDbEntity
  8
RACCORDO
100
AcDbLine
 62
250
  6
CONTINUOUS
 10
-21.556121416
 20
-2.8001843163
 11
-21.5703317341
 21
-2.7923264323
  0
LWPOLYLINE
  5
310
100
AcDbEntity
  8
RACCORDO
100
AcDbPolyline
 62
250
  6
CONTINUOUS
 90
3
 70
0
 10
-21.5139535825
 20
-2.8240852413
 10
-21.5279697422
 20
-2.816102331
 10
-21.556121416
 20
-2.8001843163
  0
LWPOLYLINE
  5
311
100
AcDbEntity
  8
RACCORDO
100
AcDbPolyline
 62
250
  6
CONTINUOUS
 90
34
 70
0
 10
-21.549309046
 20
-2.9152073024
 10
-21.5642756794
 20
-2.9064201255
 10
-21.5790745733
 20
-2.8974380506
 10
-21.5937057275
 20
-2.8882610777
 10
-21.608255812
 20
-2.8788342853
 10
-21.6226381568
 20
-2.8692125949
 10
-21.6365927528
 20
-2.8595607704
 10
-21.6500473404
 20
-2.849931747
 10
-21.663074179
 20
-2.8402725896
 10
-21.6756300378
 20
-2.8305892563
 10
-21.687594613
 20
-2.8210137205
 10
-21.6990882082
 20
-2.8114140088
 10
-21.7104285036
 20
-2.801400159
 10
-21.7216317201
 20
-2.7910412502
 10
-21.7326816368
 20
-2.7802682035
 10
-21.7438472703
 20
-2.7684838197
 10
-21.7553362111
 20
-2.7554883749
 10
-21.7669408687
 20
-2.7414815931
 10
-21.7783074879
 20
-2.7264654472
 10
-21.7895173108
 20
-2.7101612363
 10
-21.8004890953
 20
-2.6928476613
 10
-21.8106253596
 20
-2.6753627973
 10
-21.8197379928
 20
-2.6578712298
 10
-21.8280151058
 20
-2.6402083734
 10
-21.8354235501
 20
-2.622718547
 10
-21.8419193224
 20
-2.6055313068
 10
-21.847546426
 20
-2.5885170966
 10
-21.8524037219
 20
-2.5716315667
 10
-21.8565257745
 20
-2.5547071316
 10
-21.8598780193
 20
-2.5379113769
 10
-21.8624556247
 20
-2.5217027086
 10
-21.8642569799
 20
-2.506233929
 10
-21.8652836957
 20
-2.4913522358
 10
-21.8655357719
 20
-2.4770576291
  0
LWPOLYLINE
  5
312
100
AcDbEntity
  8
RACCORDO
100
AcDbPolyline
 62
250
  6
CONTINUOUS
 90
3
 70
0
 10
-21.4838488471
 20
-2.8417114042
 10
-21.4934817657
 20
-2.8360187971
 10
-21.5139535829
 20
-2.8240852418
  0
LWPOLYLINE
  5
313
100
AcDbEntity
  8
RACCORDO
100
AcDbPolyline
 62
250
  6
CONTINUOUS
 90
5
 70
0
 10
-21.4334289436
 20
-2.8724806579
 10
-21.4491673031
 20
-2.8626963983
 10
-21.4574028859
 20
-2.8576379165
 10
-21.4659053255
 20
-2.8524811342
 10
-21.4838488471
 20
-2.8417114042
  0
LWPOLYLINE
  5
314
100
AcDbEntity
  8
RACCORDO
100
AcDbPolyline
 62
250
  6
CONTINUOUS
 90
10
 70
0
 10
-21.2330725958
 20
-1.4692213588
 10
-21.239363616
 20
-1.4652489557
 10
-21.2449825939
 20
-1.4609563876
 10
-21.2498804851
 20
-1.4563811216
 10
-21.2540145389
 20
-1.4515630922
 10
-21.2573486717
 20
-1.4465443529
 10
-21.2598537819
 20
-1.4413687092
 10
-21.261508004
 20
-1.4360813359
 10
-21.2622968994
 20
-1.4307283832
 10
-21.2623683769
 20
-1.4285506704
  0
LWPOLYLINE
  5
315
100
AcDbEntity
  8
RACCORDO
100
AcDbPolyline
 62
250
  6
CONTINUOUS
 90
10
 70
0
 10
-21.2330801225
 20
-2.8422008302
 10
-21.2393715989
 20
-2.8382112073
 10
-21.2449907138
 20
-2.8338999401
 10
-21.2498884049
 20
-2.8293046696
 10
-21.2540221064
 20
-2.8244651799
 10
-21.2573554443
 20
-2.8194240387
 10
-21.2598589824
 20
-2.8142263229
 10
-21.2615112014
 20
-2.8089178269
 10
-21.2622982478
 20
-2.8035445695
 10
-21.262369109
 20
-2.8014000906
  0
LWPOLYLINE
  5
316
100
AcDbEntity
  8
RACCORDO
100
AcDbPolyline
 62
250
  6
CONTINUOUS
 90
10
 70
0
 10
-21.2330797996
 20
-1.476875668
 10
-21.2393697012
 20
-1.472887659
 10
-21.2449876236
 20
-1.4685781545
 10
-21.2498845397
 20
-1.4639847632
 10
-21.2540177143
 20
-1.4591475714
 10
-21.2573510775
 20
-1.4541087929
 10
-21.2598555392
 20
-1.4489124008
 10
-21.2615092431
 20
-1.4436037438
 10
-21.2622977576
 20
-1.4382291501
 10
-21.2623691214
 20
-1.436048209
  0
LWPOLYLINE
  5
317
100
AcDbEntity
  8
RACCORDO
100
AcDbPolyline
 62
250
  6
CONTINUOUS
 90
9
 70
0
 10
-16.9807899168
 20
-2.1134828003
 10
-17.4142887716
 20
-1.6497623297
 10
-17.8563767335
 20
-1.2060308979
 10
-18.3059783985
 20
-0.7833679796
 10
-18.7619985839
 20
-0.382803209
 10
-19.2233248999
 20
-0.0053134947
 10
-19.6888335161
 20
0.3481820431
 10
-20.1573919924
 20
0.6768239309
 10
-20.6278597306
 20
0.9798125678
  0
LWPOLYLINE
  5
318
100
AcDbEntity
  8
0
100
AcDbPolyline
 62
250
  6
CONTINUOUS
 90
18
 70
0
 10
-11.1024084617
 20
21.5172434895
 10
-11.1023307958
 20
21.5140256062
 10
-11.1018430104
 20
21.5085661262
 10
-11.1009082565
 20
21.5031260241
 10
-11.0995286226
 20
21.4977175279
 10
-11.0977072051
 20
21.4923527932
 10
-11.0954480927
 20
21.487043857
 10
-11.0927563442
 20
21.4818026038
 10
-11.0896379875
 20
21.4766407725
 10
-11.0861000062
 20
21.4715699274
 10
-11.0821503303
 20
21.4666014386
 10
-11.077797816
 20
21.4617464479
 10
-11.0730522161
 20
21.4570158348
 10
-11.0679241678
 20
21.4524202034
 10
-11.0624251768
 20
21.4479698635
 10
-11.0565675744
 20
21.4436747914
 10
-11.0503644867
 20
21.4395446087
 10
-11.0438298179
 20
21.4355885709
  0
LWPOLYLINE
  5
319
100
AcDbEntity
  8
0
100
AcDbPolyline
 62
250
  6
CONTINUOUS
 90
18
 70
0
 10
-9.1300608412
 20
19.937193343
 10
-9.1299748316
 20
19.9334072749
 10
-9.1293825643
 20
19.9265675561
 10
-9.1282291099
 20
19.9197517453
 10
-9.1265170615
 20
19.9129751806
 10
-9.1242502704
 20
19.9062531174
 10
-9.1214338359
 20
19.8996006856
 10
-9.1180740953
 20
19.8930328604
 10
-9.1141786116
 20
19.8865644304
 10
-9.1097561528
 20
19.8802099567
 10
-9.1048166716
 20
19.8739837417
 10
-9.0993712867
 20
19.867899802
 10
-9.0934322514
 20
19.8619718292
 10
-9.0870129358
 20
19.8562131698
 10
-9.0801278022
 20
19.8506367968
 10
-9.072792355
 20
19.8452552645
 10
-9.0650231033
 20
19.8400806817
 10
-9.0568375365
 20
19.8351246946
  0
LINE
  5
31A
100
AcDbEntity
  8
0
100
AcDbLine
 62
250
  6
CONTINUOUS
 10
-10.7037360164
 20
20.0009915733
 11
-10.7037360164
 21
21.2392226722
  0
LINE
  5
31B
100
AcDbEntity
  8
0
100
AcDbLine
 62
250
  6
CONTINUOUS
 10
-10.4216357196
 20
20.0090782205
 11
-10.4216357196
 21
21.4020880663
  0
LINE
  5
31C
100
AcDbEntity
  8
0
100
AcDbLine
 62
250
  6
CONTINUOUS
 10
-9.7462869589
 20
26.9065170631
 11
-9.7462869589
 21
28.0905306065
  0
LINE
  5
31D
100
AcDbEntity
  8
0
100
AcDbLine
 62
7
  6
CONTINUOUS
 10
-9.6304574994
 20
27.0686498237
 11
-9.6304574994
 21
28.1176477839
  0
LINE
  5
31E
100
AcDbEntity
  8
0
100
AcDbLine
 62
7
  6
CONTINUOUS
 10
-9.4968393826
 20
20.593152454
 11
-9.4968393826
 21
21.3056450213
  0
LINE
  5
31F
100
AcDbEntity
  8
0
100
AcDbLine
 62
7
  6
CONTINUOUS
 10
-9.4894345101
 20
20.5888769734
 11
-9.4894345101
 21
21.0029183259
  0
LINE
  5
320
100
AcDbEntity
  8
0
100
AcDbLine
 62
7
  6
CONTINUOUS
 10
-9.1300608412
 20
19.937193343
 11
-9.1300608412
 21
19.7015258191
  0
LINE
  5
321
100
AcDbEntity
  8
0
100
AcDbLine
 62
250
  6
CONTINUOUS
 10
-9.0568375365
 20
19.8351246946
 11
-9.0568375365
 21
19.5994571708
  0
LINE
  5
322
100
AcDbEntity
  8
0
100
AcDbLine
 62
7
  6
CONTINUOUS
 10
-8.7860301652
 20
22.3464652638
 11
-8.7860301652
 21
22.1831712084
  0
LINE
  5
323
100
AcDbEntity
  8
0
100
AcDbLine
 62
7
  6
CONTINUOUS
 10
-8.4266564963
 20
19.1510560484
 11
-8.4266564963
 21
18.7491580077
  0
LINE
  5
324
100
AcDbEntity
  8
0
100
AcDbLine
 62
250
  6
CONTINUOUS
 10
-8.3534331916
 20
19.10877783
 11
-8.3534331916
 21
18.6439561785
  0
LWPOLYLINE
  5
325
100
AcDbEntity
  8
0
100
AcDbPolyline
 62
250
  6
CONTINUOUS
 90
34
 70
0
 10
-9.0568375365
 20
19.8351246946
 10
-9.0566385857
 20
19.8449208613
 10
-9.0560421801
 20
19.8549247364
 10
-9.0550496602
 20
19.8651138031
 10
-9.0536632575
 20
19.8754651344
 10
-9.0518860913
 20
19.885955425
 10
-9.0497221646
 20
19.8965610423
 10
-9.0471763502
 20
19.9072581084
 10
-9.0442543778
 20
19.9180225509
 10
-9.0409628261
 20
19.9288301368
 10
-9.0373091041
 20
19.939656541
 10
-9.0333014374
 20
19.9504773928
 10
-9.0289488508
 20
19.9612683275
 10
-9.024261144
 20
19.9720050545
 10
-9.019248869
 20
19.9826634089
 10
-9.0139233112
 20
19.9932193971
 10
-9.0082964563
 20
20.003649265
 10
-9.0023809737
 20
20.0139295321
 10
-8.9961901914
 20
20.0240370417
 10
-8.9897380647
 20
20.0339490186
 10
-8.9830391022
 20
20.0436431834
 10
-8.9761083387
 20
20.0530977796
 10
-8.9689613047
 20
20.0622916089
 10
-8.9616141488
 20
20.0712038861
 10
-8.9540835694
 20
20.0798143677
 10
-8.9463866287
 20
20.0881035837
 10
-8.9385405602
 20
20.096053012
 10
-8.9305628834
 20
20.1036449165
 10
-8.9224703289
 20
20.1108632672
 10
-8.9142823044
 20
20.1176906462
 10
-8.9060208328
 20
20.1241089961
 10
-8.8977057879
 20
20.1301035828
 10
-8.8893547277
 20
20.1356624485
 10
-8.8809864375
 20
20.1407736864
  0
LWPOLYLINE
  5
326
100
AcDbEntity
  8
0
100
AcDbPolyline
 62
250
  6
CONTINUOUS
 90
27
 70
0
 10
-2.8918750758
 20
16.5018234417
 10
-2.8962941614
 20
16.4911306147
 10
-2.9011002981
 20
16.4806935822
 10
-2.9062826345
 20
16.4705359089
 10
-2.9118294702
 20
16.4606805285
 10
-2.9177282815
 20
16.4511496923
 10
-2.9239657502
 20
16.441964919
 10
-2.9305277935
 20
16.4331469456
 10
-2.9373995957
 20
16.4247156814
 10
-2.9445656415
 20
16.4166901626
 10
-2.9520097515
 20
16.409088509
 10
-2.9597151184
 20
16.4019278835
 10
-2.9676643444
 20
16.3952244539
 10
-2.9758394815
 20
16.388993355
 10
-2.9842220721
 20
16.3832486549
 10
-2.9927931896
 20
16.378003324
 10
-3.0015334819
 20
16.3732692049
 10
-3.0104232154
 20
16.3690569858
 10
-3.0194423191
 20
16.3653761766
 10
-3.0285704299
 20
16.3622350875
 10
-3.0377869383
 20
16.3596408099
 10
-3.0470710358
 20
16.3575992008
 10
-3.0564017609
 20
16.3561148696
 10
-3.0657580469
 20
16.355191167
 10
-3.0751187698
 20
16.3548301785
 10
-3.084462795
 20
16.3550327187
 10
-3.0905777235
 20
16.3554719183
  0
LINE
  5
327
100
AcDbEntity
  8
0
100
AcDbLine
 62
7
  6
CONTINUOUS
 10
2.3769900135
 20
13.4780507908
 11
3.3054957931
 21
14.0605831552
  0
LWPOLYLINE
  5
328
100
AcDbEntity
  8
0
100
AcDbPolyline
 62
250
  6
CONTINUOUS
 90
63
 70
0
 10
3.9456650044
 20
13.9232835447
 10
3.9421532767
 20
13.9210834219
 10
3.9386458677
 20
13.9187850293
 10
3.9351449135
 20
13.9163897239
 10
3.9316526149
 20
13.9138989686
 10
3.9281712348
 20
13.91131434
 10
3.924702597
 20
13.9086371445
 10
3.9212491878
 20
13.9058692529
 10
3.9178142367
 20
13.9030132696
 10
3.9144002161
 20
13.9000713316
 10
3.9110088592
 20
13.8970450144
 10
3.9076422488
 20
13.8939362422
 10
3.9043028104
 20
13.8907473387
 10
3.9009922202
 20
13.8874799884
 10
3.8977114361
 20
13.8841351521
 10
3.8944620485
 20
13.8807143912
 10
3.8912465291
 20
13.8772202474
 10
3.8880671501
 20
13.8736551657
 10
3.8849257694
 20
13.8700212139
 10
3.8818244423
 20
13.8663207535
 10
3.8787656691
 20
13.8625567909
 10
3.8757515197
 20
13.8587319409
 10
3.8727836248
 20
13.8548483419
 10
3.8698637609
 20
13.8509083747
 10
3.8669941084
 20
13.8469150618
 10
3.8641759984
 20
13.8428703375
 10
3.8614099551
 20
13.8387749294
 10
3.8586972587
 20
13.8346305908
 10
3.8560401207
 20
13.8304405552
 10
3.8534404679
 20
13.8262077663
 10
3.850899769
 20
13.8219345238
 10
3.8484198078
 20
13.8176237339
 10
3.84600286
 20
13.8132793341
 10
3.8436504488
 20
13.808904114
 10
3.8413639554
 20
13.8045006951
 10
3.8391452799
 20
13.8000728402
 10
3.8369961323
 20
13.7956241706
 10
3.8349173328
 20
13.7911565993
 10
3.8329094066
 20
13.7866713393
 10
3.8309736728
 20
13.7821713441
 10
3.8291112407
 20
13.7776591994
 10
3.8273224318
 20
13.7731355452
 10
3.8256079252
 20
13.7686017181
 10
3.8239694716
 20
13.7640619514
 10
3.8224089284
 20
13.7595212358
 10
3.8209274821
 20
13.754983076
 10
3.819525803
 20
13.7504495818
 10
3.8182047848
 20
13.7459236528
 10
3.8169650467
 20
13.7414073636
 10
3.8158075683
 20
13.7369042335
 10
3.8147335791
 20
13.7324192969
 10
3.8137440291
 20
13.7279572597
 10
3.8128389055
 20
13.7235188636
 10
3.8120179955
 20
13.7191032008
 10
3.8112816199
 20
13.7147113777
 10
3.8106306316
 20
13.7103477873
 10
3.8100656664
 20
13.7060164615
 10
3.8095870818
 20
13.7017201852
 10
3.8091951547
 20
13.6974614971
 10
3.8088901835
 20
13.6932439731
 10
3.8086723077
 20
13.6890704994
 10
3.8085415738
 20
13.6849432998
 10
3.8084980007
 20
13.6808648859
  0
LINE
  5
329
100
AcDbEntity
  8
0
100
AcDbLine
 62
7
  6
CONTINUOUS
 10
4.7604271401
 20
14.4762675569
 11
3.8478239605
 21
13.9344980882
  0
LINE
  5
32A
100
AcDbEntity
  8
0
100
AcDbLine
 62
250
  6
CONTINUOUS
 10
4.8611296348
 20
14.4667662344
 11
3.9456650044
 21
13.9232835447
  0
LINE
  5
32B
100
AcDbEntity
  8
0
100
AcDbLine
 62
7
  6
CONTINUOUS
 10
4.9053987186
 20
12.5030434233
 11
5.5073853307
 21
12.8604144848
  0
LINE
  5
32C
100
AcDbEntity
  8
0
100
AcDbLine
 62
250
  6
CONTINUOUS
 10
5.0067536379
 20
12.4939294144
 11
5.7076895917
 21
12.9100420336
  0
LINE
  5
32D
100
AcDbEntity
  8
0
100
AcDbLine
 62
7
  6
CONTINUOUS
 10
11.1275154088
 20
15.9693743238
 11
6.6308687797
 21
13.4449410321
  0
LWPOLYLINE
  5
32E
100
AcDbEntity
  8
RACCORDO
100
AcDbPolyline
 62
250
  6
CONTINUOUS
 90
62
 70
0
 10
-21.8655353316
 20
-1.1117037704
 10
-22.2620083326
 20
-0.9131955572
 10
-22.6554828416
 20
-0.739820958
 10
-23.0459588588
 20
-0.5915799725
 10
-23.4347896286
 20
-0.4680352073
 10
-23.8206219064
 20
-0.3696240559
 10
-24.1993959592
 20
-0.297658699
 10
-24.5707497269
 20
-0.2525310842
 10
-24.9350452695
 20
-0.2338492638
 10
-25.2893090334
 20
-0.2417495758
 10
-25.6333995359
 20
-0.2764325174
 10
-25.9674582597
 20
-0.3376975913
 10
-26.2889361
 20
-0.4250796437
 10
-26.5978002042
 20
-0.5388043382
 10
-26.8940834249
 20
-0.6786460112
 10
-27.1753352154
 20
-0.8434625186
 10
-27.4413957818
 20
-1.0334391932
 10
-27.692424918
 20
-1.2483907022
 10
-27.9264514592
 20
-1.4866189019
 10
-28.1433526564
 20
-1.748317857
 10
-28.3432512587
 20
-2.0332935029
 10
-28.5245443483
 20
-2.3392655025
 10
-28.6870802436
 20
-2.6663997341
 10
-28.8310106263
 20
-3.0145303195
 10
-28.9551876239
 20
-3.3808792865
 10
-29.0594533394
 20
-3.7655921269
 10
-29.1439656697
 20
-4.1685233489
 10
-29.2080504334
 20
-4.5864585048
 10
-29.2515442971
 20
-5.0195182946
 10
-29.2746105941
 20
-5.4675820183
 10
-29.2770651426
 20
-5.9270731292
 10
-29.2587429826
 20
-6.3980826423
 10
-29.2198090741
 20
-6.8805195427
 10
-29.1605741152
 20
-7.3705342383
 10
-29.0808756643
 20
-7.8681875555
 10
-28.980876163
 20
-8.3734186681
 10
-28.8613736347
 20
-8.8821955056
 10
-28.7222120201
 20
-9.3945464063
 10
-28.5635473785
 20
-9.9104430319
 10
-28.3866459104
 20
-10.425768297
 10
-28.191361674
 20
-10.9405176549
 10
-27.9778406111
 20
-11.4546956522
 10
-27.7477867482
 20
-11.964198843
 10
-27.5010677981
 20
-12.4689897968
 10
-27.2378160481
 20
-12.9691059441
 10
-26.9601323864
 20
-13.4605561302
 10
-26.6679013461
 20
-13.9432709923
 10
-26.3612383943
 20
-14.4173198932
 10
-26.0425908199
 20
-14.8789197667
 10
-25.7118627348
 20
-15.3279709971
 10
-25.3691500272
 20
-15.7645732
 10
-25.0171876504
 20
-16.1852421562
 10
-24.6559015912
 20
-16.5898503831
 10
-24.2853658628
 20
-16.9785253632
 10
-23.9085374581
 20
-17.3481653248
 10
-23.5253660134
 20
-17.6986179705
 10
-23.1359018923
 20
-18.0300355978
 10
-22.7432531787
 20
-18.3397733272
 10
-22.3473943694
 20
-18.6276576916
 10
-21.9483509675
 20
-18.8938621582
 10
-21.5493075656
 20
-19.1362622494
 10
-21.1502641637
 20
-19.3546674763
  0
LWPOLYLINE
  5
32F
100
AcDbEntity
  8
RACCORDO
100
AcDbPolyline
 62
250
  6
CONTINUOUS
 90
33
 70
0
 10
-21.2575355629
 20
1.3433801101
 10
-21.7280104226
 20
1.5836801713
 10
-22.1965742247
 20
1.7961206382
 10
-22.6620863601
 20
1.9801842763
 10
-23.1234138281
 20
2.135422982
 10
-23.5794334299
 20
2.2614586778
 10
-24.0290345261
 20
2.3579843533
 10
-24.4711224881
 20
2.4247650192
 10
-24.9046213432
 20
2.4616381607
 10
-25.3284758458
 20
2.46851402
 10
-25.7416542227
 20
2.4453758594
 10
-26.1431506877
 20
2.3922800035
 10
-26.531987894
 20
2.3093557014
 10
-26.9072193104
 20
2.1968048121
 10
-27.2679315225
 20
2.0549013141
 10
-27.6132464592
 20
1.883990639
 10
-27.9423235312
 20
1.6844888297
 10
-28.2543616796
 20
1.4568815261
 10
-28.5486013225
 20
1.2017227833
 10
-28.8243262035
 20
0.919633724
 10
-29.0808651342
 20
0.6113010283
 10
-29.3175936295
 20
0.2774752612
 10
-29.533935429
 20
-0.0810309555
 10
-29.7293639005
 20
-0.4633449238
 10
-29.9034033204
 20
-0.8685359922
 10
-30.0556300309
 20
-1.29561782
 10
-30.1856734711
 20
-1.7435507758
 10
-30.2932170803
 20
-2.2112444699
 10
-30.3779990687
 20
-2.6975604101
 10
-30.4398130551
 20
-3.2013147762
 10
-30.4785085683
 20
-3.7212812993
 10
-30.4939914129
 20
-4.2561942454
 10
-30.4862238992
 20
-4.8047514931
  0
LWPOLYLINE
  5
330
100
AcDbEntity
  8
RACCORDO
100
AcDbPolyline
 62
250
  6
CONTINUOUS
 90
10
 70
0
 10
-20.37656345
 20
1.2880881153
 10
-20.3832360207
 20
1.2918961906
 10
-20.3898121984
 20
1.2949773005
 10
-20.3962321375
 20
1.2973036577
 10
-20.4024371587
 20
1.2988544856
 10
-20.4083710258
 20
1.2996157116
 10
-20.4139804368
 20
1.2995801018
 10
-20.4192145132
 20
1.2987479889
 10
-20.4240252814
 20
1.2971272612
 10
-20.4283688403
 20
1.2947328015
  0
LWPOLYLINE
  5
331
100
AcDbEntity
  8
RACCORDO
100
AcDbPolyline
 62
250
  6
CONTINUOUS
 90
10
 70
0
 10
-21.2575355629
 20
1.3433801101
 10
-21.2507113257
 20
1.3394717342
 10
-21.243429876
 20
1.3354461118
 10
-21.2357562664
 20
1.3313392078
 10
-21.2277590529
 20
1.3271877135
 10
-21.2195096831
 20
1.3230287186
 10
-21.2110818571
 20
1.3188993798
 10
-21.2025508697
 20
1.3148365889
 10
-21.1939929372
 20
1.3108766432
 10
-21.1854845166
 20
1.3070549213
  0
LINE
  5
332
100
AcDbEntity
  8
DRAFT
100
AcDbLine
 62
7
  6
CONTINUOUS
 10
16.8386280552
 20
-20.2047431248
 11
17.1412036203
 21
-20.379446464
  0
LINE
  5
333
100
AcDbEntity
  8
0
100
AcDbLine
 62
7
  6
CONTINUOUS
 10
15.4089117034
 20
-18.6977067241
 11
12.5932798162
 21
-17.0719961606
  0
LWPOLYLINE
  5
334
100
AcDbEntity
  8
RACCORDO
100
AcDbPolyline
 62
250
  6
CONTINUOUS
 90
10
 70
0
 10
-21.00443935
 20
1.6506158354
 10
-20.9976502803
 20
1.6466472152
 10
-20.9908450987
 20
1.641998542
 10
-20.984085074
 20
1.6367122635
 10
-20.9774306112
 20
1.6308369216
 10
-20.9709420434
 20
1.6244257887
 10
-20.9646790896
 20
1.6175363787
 10
-20.9586985342
 20
1.6102311552
 10
-20.9530537156
 20
1.6025769643
 10
-20.9477953818
 20
1.5946435034
  0
LWPOLYLINE
  5
335
100
AcDbEntity
  8
RACCORDO
100
AcDbPolyline
 62
250
  6
CONTINUOUS
 90
10
 70
0
 10
-21.2544061148
 20
1.3499372494
 10
-21.2476313188
 20
1.3459244275
 10
-21.2404038312
 20
1.3417833368
 10
-21.2327882784
 20
1.3375510058
 10
-21.2248527567
 20
1.333265279
 10
-21.2166682233
 20
1.3289644782
 10
-21.2083078624
 20
1.32468706
 10
-21.1998464302
 20
1.3204712721
 10
-21.1913595864
 20
1.3163548109
 10
-21.1829232184
 20
1.3123744847
  0
LWPOLYLINE
  5
336
100
AcDbEntity
  8
RACCORDO
100
AcDbPolyline
 62
250
  6
CONTINUOUS
 90
10
 70
0
 10
-20.6278755081
 20
0.9798223387
 10
-20.6341396951
 20
0.9842121434
 10
-20.639848306
 20
0.9884372309
 10
-20.6449481328
 20
0.9924647888
 10
-20.6493888004
 20
0.9962687729
 10
-20.6531310329
 20
0.999815408
 10
-20.6561466799
 20
1.003063365
 10
-20.6584087021
 20
1.0059837365
 10
-20.6598917824
 20
1.008560337
 10
-20.6605801341
 20
1.0107750588
  0
LWPOLYLINE
  5
337
100
AcDbEntity
  8
0
100
AcDbPolyline
 62
250
  6
CONTINUOUS
 90
34
 70
0
 10
8.8786760038
 20
-29.6528949638
 10
8.8742569241
 20
-29.6467935295
 10
8.8694507945
 20
-29.6404742191
 10
8.864268466
 20
-29.6339513001
 10
8.8587216392
 20
-29.6272394999
 10
8.8528228377
 20
-29.6203539722
 10
8.8465853795
 20
-29.613310263
 10
8.8400233475
 20
-29.6061242754
 10
8.8331515573
 20
-29.5988122339
 10
8.8259855239
 20
-29.5913906473
 10
8.8185414266
 20
-29.583876272
 10
8.8108360725
 20
-29.5762860738
 10
8.8028868587
 20
-29.5686371896
 10
8.7947117325
 20
-29.5609468889
 10
8.7863291518
 20
-29.5532325348
 10
8.7777580425
 20
-29.5455115445
 10
8.7690177562
 20
-29.5378013503
 10
8.7601280266
 20
-29.5301193601
 10
8.7511089247
 20
-29.5224829182
 10
8.7419808137
 20
-29.5149092659
 10
8.7327643028
 20
-29.5074155029
 10
8.7234802009
 20
-29.5000185485
 10
8.7141494693
 20
-29.4927351032
 10
8.7047931749
 20
-29.4855816116
 10
8.695432442
 20
-29.4785742246
 10
8.6860884051
 20
-29.4717287633
 10
8.676782161
 20
-29.4650606833
 10
8.6675347211
 20
-29.4585850397
 10
8.6583669641
 20
-29.4523164529
 10
8.6492995888
 20
-29.4462690761
 10
8.6403530672
 20
-29.4404565629
 10
8.6315475986
 20
-29.4348920366
 10
8.6229030639
 20
-29.4295880608
 10
8.6144389804
 20
-29.4245566107
  0
LWPOLYLINE
  5
338
100
AcDbEntity
  8
RACCORDO
100
AcDbPolyline
 62
250
  6
CONTINUOUS
 90
13
 70
0
 10
-13.4979600058
 20
6.6492672506
 10
-13.4840586802
 20
6.6182080216
 10
-13.4685597292
 20
6.5879453721
 10
-13.4515330902
 20
6.5586186989
 10
-13.4329933256
 20
6.5303681006
 10
-13.4130865212
 20
6.5033373138
 10
-13.3920975517
 20
6.4776611535
 10
-13.3701580597
 20
6.4534740998
 10
-13.3473491078
 20
6.4308890233
 10
-13.3238943482
 20
6.4099865979
 10
-13.2999471912
 20
6.3908602923
 10
-13.2755888858
 20
6.3736210874
 10
-13.2509394476
 20
6.3583608291
  0
LWPOLYLINE
  5
339
100
AcDbEntity
  8
0
100
AcDbPolyline
 62
250
  6
CONTINUOUS
 90
34
 70
0
 10
-7.0312265729
 20
18.8686307523
 10
-7.0314700743
 20
18.8784350393
 10
-7.0321114752
 20
18.8884496062
 10
-7.0331493236
 20
18.898651762
 10
-7.0345812705
 20
18.9090183968
 10
-7.0364040723
 20
18.9195260156
 10
-7.0386135961
 20
18.930150791
 10
-7.0412048335
 20
18.9408686432
 10
-7.0441719135
 20
18.9516552917
 10
-7.0475081115
 20
18.9624862917
 10
-7.0512058677
 20
18.973337103
 10
-7.0552568023
 20
18.9841831372
 10
-7.059651732
 20
18.9949998104
 10
-7.0643806963
 20
19.005762612
 10
-7.0694329791
 20
19.0164471569
 10
-7.0747971294
 20
19.0270292323
 10
-7.080460994
 20
19.0374848668
 10
-7.0864117354
 20
19.047790365
 10
-7.0926358571
 20
19.0579223591
 10
-7.0991192355
 20
19.0678578669
 10
-7.1058471944
 20
19.077574407
 10
-7.1128045328
 20
19.0870500266
 10
-7.1199755559
 20
19.0962633377
 10
-7.1273439538
 20
19.1051933735
 10
-7.1348928703
 20
19.1138197175
 10
-7.1426050897
 20
19.1221227352
 10
-7.1504632283
 20
19.1300837485
 10
-7.1584496208
 20
19.1376848747
 10
-7.16654739
 20
19.1449099433
 10
-7.1747370009
 20
19.1517414189
 10
-7.1829963287
 20
19.1581611491
 10
-7.1913053947
 20
19.1641543064
 10
-7.1996465277
 20
19.169708841
 10
-7.208000845
 20
19.1748127727
  0
LWPOLYLINE
  5
33A
100
AcDbEntity
  8
0
100
AcDbPolyline
 62
250
  6
CONTINUOUS
 90
19
 70
0
 10
-7.3838519439
 20
18.6334962571
 10
-7.3836843168
 20
18.624706107
 10
-7.3831814445
 20
18.6161222944
 10
-7.382343819
 20
18.6077614153
 10
-7.3811724078
 20
18.599638706
 10
-7.379669062
 20
18.5917709968
 10
-7.3778369172
 20
18.5841763564
 10
-7.37567956
 20
18.5768699156
 10
-7.3732008696
 20
18.5698650369
 10
-7.3704058264
 20
18.5631759244
 10
-7.3672999635
 20
18.5568156511
 10
-7.3638890657
 20
18.5507959121
 10
-7.3601794426
 20
18.5451278507
 10
-7.3561779942
 20
18.539822123
 10
-7.3518924339
 20
18.5348890616
 10
-7.3473311154
 20
18.5303382969
 10
-7.3425028366
 20
18.5261785559
 10
-7.3374167186
 20
18.5224176485
 10
-7.3320813093
 20
18.5190620537
  0
LWPOLYLINE
  5
33B
100
AcDbEntity
  8
0
100
AcDbPolyline
 62
250
  6
CONTINUOUS
 90
28
 70
0
 10
-6.3204173555
 20
18.3320160804
 10
-6.320674302
 20
18.347564463
 10
-6.3214624952
 20
18.3627849854
 10
-6.3227819352
 20
18.3776776475
 10
-6.3246340456
 20
18.3922737183
 10
-6.3270174028
 20
18.4065419289
 10
-6.3299277353
 20
18.4203884722
 10
-6.3333723986
 20
18.4338121237
 10
-6.3373440373
 20
18.4468141078
 10
-6.3418163134
 20
18.4593042911
 10
-6.3467896242
 20
18.4712676952
 10
-6.3522635724
 20
18.4827192985
 10
-6.3582106288
 20
18.4936139022
 10
-6.3646281819
 20
18.5039458913
 10
-6.371518843
 20
18.5137208808
 10
-6.3788629168
 20
18.5229105181
 10
-6.3866651124
 20
18.5315189844
 10
-6.3949207206
 20
18.5395420985
 10
-6.4035959189
 20
18.5469389633
 10
-6.4126994908
 20
18.5537087968
 10
-6.4222226527
 20
18.559852381
 10
-6.4321052315
 20
18.5653311653
 10
-6.4423534083
 20
18.5701375622
 10
-6.4529610018
 20
18.574279159
 10
-6.4638492955
 20
18.5777401669
 10
-6.4749920502
 20
18.5805153228
 10
-6.486415505
 20
18.5826098897
 10
-6.4981196598
 20
18.5840238677
  0
LINE
  5
33C
100
AcDbEntity
  8
0
100
AcDbLine
 62
250
  6
CONTINUOUS
 10
-7.3838519439
 20
18.6334962571
 11
-7.3838519439
 21
18.8691637809
  0
LINE
  5
33D
100
AcDbEntity
  8
0
100
AcDbLine
 62
250
  6
CONTINUOUS
 10
-7.0312265729
 20
18.6329632285
 11
-7.0312265729
 21
18.8686307523
  0
LINE
  5
33E
100
AcDbEntity
  8
0
100
AcDbLine
 62
250
  6
CONTINUOUS
 10
-6.6730427265
 20
17.6737197842
 11
-6.6730427265
 21
18.332549109
  0
LINE
  5
33F
100
AcDbEntity
  8
0
100
AcDbLine
 62
250
  6
CONTINUOUS
 10
-6.3204173555
 20
17.6838280932
 11
-6.3204173555
 21
18.3320160804
  0
LINE
  5
340
100
AcDbEntity
  8
0
100
AcDbLine
 62
7
  6
CONTINUOUS
 10
-6.3083248542
 20
27.6819993361
 11
-6.3083248542
 21
27.2852054376
  0
LINE
  5
341
100
AcDbEntity
  8
0
100
AcDbLine
 62
7
  6
CONTINUOUS
 10
-5.5238162571
 20
17.854992917
 11
-5.5238162571
 21
17.6193253932
  0
LINE
  5
342
100
AcDbEntity
  8
0
100
AcDbLine
 62
250
  6
CONTINUOUS
 10
-5.4505929524
 20
17.7529242687
 11
-5.4505929524
 21
17.5172567448
  0
LINE
  5
343
100
AcDbEntity
  8
0
100
AcDbLine
 62
7
  6
CONTINUOUS
 10
-5.4309753908
 20
18.2455735424
 11
-5.4309753908
 21
18.9580661097
  0
LWPOLYLINE
  5
344
100
AcDbEntity
  8
0
100
AcDbPolyline
 62
250
  6
CONTINUOUS
 90
34
 70
0
 10
-5.4505929524
 20
17.7529242687
 10
-5.4503940016
 20
17.7627204354
 10
-5.449797596
 20
17.7727243104
 10
-5.4488050762
 20
17.7829133771
 10
-5.4474186734
 20
17.7932647085
 10
-5.4456415072
 20
17.803754999
 10
-5.4434775805
 20
17.8143606163
 10
-5.4409317661
 20
17.8250576825
 10
-5.4380097938
 20
17.835822125
 10
-5.434718242
 20
17.8466297108
 10
-5.4310645201
 20
17.857456115
 10
-5.4270568533
 20
17.8682769669
 10
-5.4227042668
 20
17.8790679015
 10
-5.4180165599
 20
17.8898046286
 10
-5.413004285
 20
17.9004629829
 10
-5.4076787271
 20
17.9110189711
 10
-5.4020518722
 20
17.9214488391
 10
-5.3961363897
 20
17.9317291061
 10
-5.3899456073
 20
17.9418366157
 10
-5.3834934806
 20
17.9517485926
 10
-5.3767945181
 20
17.9614427575
 10
-5.3698637546
 20
17.9708973537
 10
-5.3627167207
 20
17.9800911829
 10
-5.3553695647
 20
17.9890034601
 10
-5.3478389854
 20
17.9976139417
 10
-5.3401420447
 20
18.0059031577
 10
-5.3322959761
 20
18.0138525861
 10
-5.3243182993
 20
18.0214444905
 10
-5.3162257448
 20
18.0286628412
 10
-5.3080377203
 20
18.0354902202
 10
-5.2997762487
 20
18.0419085702
 10
-5.2914612038
 20
18.0479031568
 10
-5.2831101437
 20
18.0534620225
 10
-5.2747418535
 20
18.0585732604
  0
LINE
  5
345
100
AcDbEntity
  8
0
100
AcDbLine
 62
7
  6
CONTINUOUS
 10
6.4130631941
 20
11.4069741042
 11
5.4882668571
 21
10.8228998706
  0
LINE
  5
346
100
AcDbEntity
  8
0
100
AcDbLine
 62
7
  6
CONTINUOUS
 10
6.9028774669
 20
10.9663753295
 11
9.1902436889
 21
12.3148770281
  0
LINE
  5
347
100
AcDbEntity
  8
0
100
AcDbLine
 62
250
  6
CONTINUOUS
 10
7.0289161392
 20
10.9545953365
 11
9.31590101
 21
12.3028722121
  0
LINE
  5
348
100
AcDbEntity
  8
0
100
AcDbLine
 62
7
  6
CONTINUOUS
 10
5.2061665603
 20
12.0530443224
 11
7.1238724115
 21
13.1602869139
  0
LINE
  5
349
100
AcDbEntity
  8
0
100
AcDbLine
 62
7
  6
CONTINUOUS
 10
11.6996836026
 20
15.6390115797
 11
7.1238724115
 21
12.9969928585
  0
LINE
  5
34A
100
AcDbEntity
  8
0
100
AcDbLine
 62
7
  6
CONTINUOUS
 10
6.4204680666
 20
11.4026986235
 11
11.7650577617
 21
14.4849916017
  0
LINE
  5
34B
100
AcDbEntity
  8
0
100
AcDbLine
 62
7
  6
CONTINUOUS
 10
13.2708486612
 20
16.3818876697
 11
11.8818772668
 21
15.6030392314
  0
LWPOLYLINE
  5
34C
100
AcDbEntity
  8
RACCORDO
100
AcDbPolyline
 62
250
  6
CONTINUOUS
 90
19
 70
0
 10
-21.1829232184
 20
1.3123744847
 10
-21.1413690081
 20
1.2937417658
 10
-21.0995680362
 20
1.2744491193
 10
-21.057876527
 20
1.2546609206
 10
-21.016649495
 20
1.2345456303
 10
-20.9762386766
 20
1.214274824
 10
-20.9369894575
 20
1.1940217372
 10
-20.8992366666
 20
1.173959156
 10
-20.8633017322
 20
1.1542579047
 10
-20.8294908586
 20
1.1350858606
 10
-20.7980922161
 20
1.1166064275
 10
-20.7693734158
 20
1.0989771057
 10
-20.7435791846
 20
1.082348121
 10
-20.7209288538
 20
1.0668608336
 10
-20.70161619
 20
1.0526476887
 10
-20.6858068592
 20
1.0398307327
 10
-20.6736350766
 20
1.0285191418
 10
-20.6652033237
 20
1.0188086294
 10
-20.6605826186
 20
1.0107815688
  0
LWPOLYLINE
  5
34D
100
AcDbEntity
  8
RACCORDO
100
AcDbPolyline
 62
250
  6
CONTINUOUS
 90
18
 70
0
 10
-21.00443935
 20
1.6506158354
 10
-21.481929912
 20
1.8948117355
 10
-21.9574933215
 20
2.1107343972
 10
-22.4299715085
 20
2.2978579994
 10
-22.8982138425
 20
2.4557268281
 10
-23.3610801529
 20
2.5839564625
 10
-23.8174434956
 20
2.6822346644
 10
-24.2661928455
 20
2.7503220878
 10
-24.7062350934
 20
2.7880527907
 10
-25.1364979674
 20
2.7953348449
 10
-25.5559332663
 20
2.772150646
 10
-25.9635201284
 20
2.7185567617
 10
-26.3582667591
 20
2.634683606
 10
-26.7392123121
 20
2.5207351848
 10
-27.105428595
 20
2.3769889856
 10
-27.4560231362
 20
2.203795323
 10
-27.7901418042
 20
2.0015763178
 10
-27.9548518274
 20
1.8867549472
  0
LINE
  5
34E
100
AcDbEntity
  8
DRAFT
100
AcDbLine
 62
7
  6
CONTINUOUS
 10
16.8386280552
 20
-18.4934250615
 11
16.5009998599
 21
-18.298482773
  0
LWPOLYLINE
  5
34F
100
AcDbEntity
  8
0
100
AcDbPolyline
 62
7
  6
CONTINUOUS
 90
4
 70
0
 10
-9.6304574994
 20
28.1176466859
 10
-9.6305612454
 20
28.1185520061
 10
-9.6312574017
 20
28.1198826994
 10
-9.6322467222
 20
28.1206705587
  0
LWPOLYLINE
  5
350
100
AcDbEntity
  8
0
100
AcDbPolyline
 62
250
  6
CONTINUOUS
 90
34
 70
0
 10
-3.4249819889
 20
16.7864303264
 10
-3.4252254903
 20
16.7962346133
 10
-3.4258668911
 20
16.8062491802
 10
-3.4269047395
 20
16.8164513361
 10
-3.4283366865
 20
16.8268179709
 10
-3.4301594883
 20
16.8373255896
 10
-3.4323690121
 20
16.847950365
 10
-3.4349602495
 20
16.8586682173
 10
-3.4379273295
 20
16.8694548658
 10
-3.4412635275
 20
16.8802858658
 10
-3.4449612837
 20
16.891136677
 10
-3.4490122183
 20
16.9019827112
 10
-3.453407148
 20
16.9127993844
 10
-3.4581361123
 20
16.923562186
 10
-3.463188395
 20
16.9342467309
 10
-3.4685525453
 20
16.9448288064
 10
-3.4742164099
 20
16.9552844409
 10
-3.4801671513
 20
16.965589939
 10
-3.4863912731
 20
16.9757219331
 10
-3.4928746514
 20
16.9856574409
 10
-3.4996026103
 20
16.995373981
 10
-3.5065599488
 20
17.0048496006
 10
-3.5137309718
 20
17.0140629117
 10
-3.5210993697
 20
17.0229929475
 10
-3.5286482862
 20
17.0316192915
 10
-3.5363605057
 20
17.0399223092
 10
-3.5442186443
 20
17.0478833225
 10
-3.5522050367
 20
17.0554844487
 10
-3.5603028059
 20
17.0627095174
 10
-3.5684924169
 20
17.0695409929
 10
-3.5767517447
 20
17.0759607231
 10
-3.5850608107
 20
17.0819538804
 10
-3.5934019436
 20
17.087508415
 10
-3.601756261
 20
17.0926123468
  0
LWPOLYLINE
  5
351
100
AcDbEntity
  8
0
100
AcDbPolyline
 62
250
  6
CONTINUOUS
 90
18
 70
0
 10
-5.5238162571
 20
17.854992917
 10
-5.5237302475
 20
17.8512068489
 10
-5.5231379802
 20
17.8443671302
 10
-5.5219845258
 20
17.8375513194
 10
-5.5202724775
 20
17.8307747546
 10
-5.5180056864
 20
17.8240526915
 10
-5.5151892519
 20
17.8174002597
 10
-5.5118295112
 20
17.8108324344
 10
-5.5079340275
 20
17.8043640044
 10
-5.5035115687
 20
17.7980095307
 10
-5.4985720875
 20
17.7917833157
 10
-5.4931267027
 20
17.7856993761
 10
-5.4871876673
 20
17.7797714032
 10
-5.4807683518
 20
17.7740127438
 10
-5.4738832181
 20
17.7684363708
 10
-5.4665477709
 20
17.7630548386
 10
-5.4587785192
 20
17.7578802557
 10
-5.4505929524
 20
17.7529242687
  0
LWPOLYLINE
  5
352
100
AcDbEntity
  8
0
100
AcDbPolyline
 62
250
  6
CONTINUOUS
 90
19
 70
0
 10
-3.7776073599
 20
16.5512958312
 10
-3.7774397328
 20
16.5425056811
 10
-3.7769368605
 20
16.5339218684
 10
-3.776099235
 20
16.5255609894
 10
-3.7749278237
 20
16.5174382801
 10
-3.7734244779
 20
16.5095705708
 10
-3.7715923332
 20
16.5019759304
 10
-3.7694349759
 20
16.4946694896
 10
-3.7669562855
 20
16.4876646109
 10
-3.7641612423
 20
16.4809754984
 10
-3.7610553794
 20
16.4746152252
 10
-3.7576444817
 20
16.4685954861
 10
-3.7539348586
 20
16.4629274247
 10
-3.7499334101
 20
16.4576216971
 10
-3.7456478499
 20
16.4526886357
 10
-3.7410865313
 20
16.448137871
 10
-3.7362582525
 20
16.4439781299
 10
-3.7311721346
 20
16.4402172225
 10
-3.7258367252
 20
16.4368616278
  0
LINE
  5
353
100
AcDbEntity
  8
0
100
AcDbLine
 62
7
  6
CONTINUOUS
 10
-4.8204119122
 20
17.0688556225
 11
-4.8204119122
 21
16.6669575817
  0
LINE
  5
354
100
AcDbEntity
  8
0
100
AcDbLine
 62
250
  6
CONTINUOUS
 10
-4.7471886075
 20
17.026577404
 11
-4.7471886075
 21
16.5617557525
  0
LINE
  5
355
100
AcDbEntity
  8
0
100
AcDbLine
 62
7
  6
CONTINUOUS
 10
-4.7201661733
 20
20.2030067193
 11
-4.7201661733
 21
19.8355922968
  0
LINE
  5
356
100
AcDbEntity
  8
0
100
AcDbLine
 62
250
  6
CONTINUOUS
 10
-4.144844815
 20
23.6711699516
 11
-4.144844815
 21
24.1276193801
  0
LINE
  5
357
100
AcDbEntity
  8
0
100
AcDbLine
 62
250
  6
CONTINUOUS
 10
-4.144844815
 20
24.4329265965
 11
-4.144844815
 21
24.8554090485
  0
LINE
  5
358
100
AcDbEntity
  8
0
100
AcDbLine
 62
7
  6
CONTINUOUS
 10
-4.0280253099
 20
23.8338756925
 11
-4.0280253099
 21
24.8828736526
  0
LINE
  5
359
100
AcDbEntity
  8
0
100
AcDbLine
 62
250
  6
CONTINUOUS
 10
-3.7776073599
 20
16.5512958312
 11
-3.7776073599
 21
16.786963355
  0
LINE
  5
35A
100
AcDbEntity
  8
0
100
AcDbLine
 62
250
  6
CONTINUOUS
 10
-3.4249819889
 20
16.5507628025
 11
-3.4249819889
 21
16.7864303264
  0
LINE
  5
35B
100
AcDbEntity
  8
0
100
AcDbLine
 62
7
  6
CONTINUOUS
 10
-3.417077435
 20
19.239832352
 11
-3.417077435
 21
19.8530956435
  0
LINE
  5
35C
100
AcDbEntity
  8
0
100
AcDbLine
 62
250
  6
CONTINUOUS
 10
-3.0667981424
 20
15.5915193582
 11
-3.0667981424
 21
16.250348683
  0
LINE
  5
35D
100
AcDbEntity
  8
0
100
AcDbLine
 62
250
  6
CONTINUOUS
 10
-2.7141727714
 20
15.6016276672
 11
-2.7141727714
 21
16.2498156544
  0
LINE
  5
35E
100
AcDbEntity
  8
0
100
AcDbLine
 62
7
  6
CONTINUOUS
 10
7.1238724115
 20
12.9969928585
 11
6.6921769881
 21
12.4558108953
  0
LINE
  5
35F
100
AcDbEntity
  8
0
100
AcDbLine
 62
7
  6
CONTINUOUS
 10
7.1238724115
 20
12.9969928585
 11
6.4130631941
 21
12.1194666714
  0
LWPOLYLINE
  5
360
100
AcDbEntity
  8
0
100
AcDbPolyline
 62
7
  6
CONTINUOUS
 90
22
 70
0
 10
6.4204680666
 20
11.816739976
 10
6.4278976435
 20
11.8247952029
 10
6.434912369
 20
11.8333614892
 10
6.441512243
 20
11.8424388347
 10
6.4477050517
 20
11.8520408554
 10
6.453483009
 20
11.8621539354
 10
6.4588227566
 20
11.8727372274
 10
6.4637225226
 20
11.883792634
 10
6.4681840789
 20
11.8953182525
 10
6.4721893835
 20
11.907267528
 10
6.4757365912
 20
11.9196421749
 10
6.4788275472
 20
11.9324404787
 10
6.4814497445
 20
11.9456107408
 10
6.483601287
 20
11.9591544817
 10
6.4852840708
 20
11.9730701807
 10
6.486491278
 20
11.9873015774
 10
6.4872209869
 20
12.0018498904
 10
6.4874751191
 20
12.0167139009
 10
6.487252622
 20
12.0318336922
 10
6.4865531447
 20
12.0471892918
 10
6.485377038
 20
12.0628006722
 10
6.483724302
 20
12.0786678333
  0
LWPOLYLINE
  5
361
100
AcDbEntity
  8
0
100
AcDbPolyline
 62
250
  6
CONTINUOUS
 90
34
 70
0
 10
8.7019017317
 20
9.9886344229
 10
8.693519531
 20
9.983514307
 10
8.6851582752
 20
9.9779476065
 10
8.6768367791
 20
9.9719468478
 10
8.6685737682
 20
9.9655255341
 10
8.6603878363
 20
9.958698115
 10
8.6522974037
 20
9.9514799538
 10
8.644320676
 20
9.9438872933
 10
8.6364756027
 20
9.9359372187
 10
8.6287798372
 20
9.9276476197
 10
8.6212506969
 20
9.9190371499
 10
8.6139051242
 20
9.9101251851
 10
8.6067596485
 20
9.9009317793
 10
8.5998303488
 20
9.89147762
 10
8.5931328178
 20
9.8817839814
 10
8.5866821267
 20
9.8718726766
 10
8.5804927909
 20
9.8617660085
 10
8.5745787382
 20
9.8514867195
 10
8.5689532765
 20
9.8410579407
 10
8.5636290646
 20
9.8305031393
 10
8.5586180832
 20
9.8198460663
 10
8.5539316083
 20
9.8091107027
 10
8.5495801856
 20
9.7983212057
 10
8.5455736069
 20
9.7875018544
 10
8.541920888
 20
9.7766769951
 10
8.5386302485
 20
9.7658709862
 10
8.5357090929
 20
9.755108144
 10
8.5331639948
 20
9.7444126876
 10
8.5310006812
 20
9.7338086844
 10
8.52922402
 20
9.7233199961
 10
8.5278380093
 20
9.7129702247
 10
8.5268457678
 20
9.7027826598
 10
8.5262495284
 20
9.6927802259
 10
8.5260506328
 20
9.6829854311
  0
LINE
  5
362
100
AcDbEntity
  8
0
100
AcDbLine
 62
7
  6
CONTINUOUS
 10
17.1473201299
 20
13.4975848725
 11
10.8408237871
 21
9.6622397322
  0
LINE
  5
363
100
AcDbEntity
  8
0
100
AcDbLine
 62
7
  6
CONTINUOUS
 10
17.1473201299
 20
13.874816318
 11
10.5991398061
 21
9.9202956865
  0
LINE
  5
364
100
AcDbEntity
  8
0
100
AcDbLine
 62
7
  6
CONTINUOUS
 10
16.2076202268
 20
14.6862325741
 11
10.7017587267
 21
11.5026953354
  0
LINE
  5
365
100
AcDbEntity
  8
0
100
AcDbLine
 62
250
  6
CONTINUOUS
 10
8.7019017317
 20
9.9886344229
 11
11.0129621313
 21
11.3230103898
  0
LINE
  5
366
100
AcDbEntity
  8
0
100
AcDbLine
 62
250
  6
CONTINUOUS
 10
8.8786760038
 20
9.6824524025
 11
11.1897364034
 21
11.0168283694
  0
LWPOLYLINE
  5
367
100
AcDbEntity
  8
0
100
AcDbPolyline
 62
250
  6
CONTINUOUS
 90
34
 70
0
 10
8.8786760038
 20
9.4467848786
 10
8.8700510152
 20
9.4420852837
 10
8.861049732
 20
9.4376271432
 10
8.8516924092
 20
9.433420489
 10
8.8420001031
 20
9.4294747872
 10
8.8319946238
 20
9.4257989165
 10
8.8216984862
 20
9.4224011486
 10
8.811134859
 20
9.4192891293
 10
8.8003275131
 20
9.4164698614
 10
8.7893007676
 20
9.413949689
 10
8.7780794355
 20
9.411734283
 10
8.7666887675
 20
9.4098286287
 10
8.7551543955
 20
9.4082370143
 10
8.7435022746
 20
9.4069630213
 10
8.7317586251
 20
9.4060095165
 10
8.7199498729
 20
9.4053786455
 10
8.7081025908
 20
9.4050718279
 10
8.6962434381
 20
9.4050897542
 10
8.6843991007
 20
9.405432384
 10
8.6725962314
 20
9.4060989464
 10
8.6608613896
 20
9.4070879413
 10
8.6492209814
 20
9.4083971433
 10
8.6377012009
 20
9.4100236064
 10
8.6263279702
 20
9.4119636706
 10
8.6151268821
 20
9.4142129703
 10
8.6041231416
 20
9.416766444
 10
8.59334151
 20
9.4196183458
 10
8.5828062486
 20
9.4227622582
 10
8.5725410643
 20
9.4261911066
 10
8.5625690563
 20
9.4298971752
 10
8.5529126642
 20
9.4338721246
 10
8.5435936172
 20
9.43810701
 10
8.5346328854
 20
9.4425923019
 10
8.5260506328
 20
9.4473179073
  0
LWPOLYLINE
  5
368
100
AcDbEntity
  8
0
100
AcDbPolyline
 62
250
  6
CONTINUOUS
 90
34
 70
0
 10
-0.0947983069
 20
15.2756397083
 10
-0.0949926882
 20
15.283484026
 10
-0.0955043036
 20
15.2914972321
 10
-0.0963319954
 20
15.2996611683
 10
-0.0974738905
 20
15.30795734
 10
-0.0989274024
 20
15.3163669419
 10
-0.100689235
 20
15.3248708997
 10
-0.102755395
 20
15.3334499397
 10
-0.1051212002
 20
15.3420846221
 10
-0.1077812856
 20
15.3507553685
 10
-0.110729619
 20
15.3594425211
 10
-0.1139595199
 20
15.3681264015
 10
-0.1174636731
 20
15.3767873436
 10
-0.1212341481
 20
15.3854057428
 10
-0.1252623913
 20
15.3939620456
 10
-0.1295392463
 20
15.4024368084
 10
-0.1340549861
 20
15.4108107732
 10
-0.1387994003
 20
15.419065022
 10
-0.143761801
 20
15.4271809591
 10
-0.1489310224
 20
15.4351403025
 10
-0.1542952851
 20
15.4429248944
 10
-0.1598422699
 20
15.4505168681
 10
-0.1655592793
 20
15.4578988883
 10
-0.1714334567
 20
15.4650543956
 10
-0.1774516655
 20
15.4719673977
 10
-0.1836005091
 20
15.4786224735
 10
-0.18986583
 20
15.4850042679
 10
-0.1962328937
 20
15.4910978131
 10
-0.2026881313
 20
15.4968901334
 10
-0.2092160414
 20
15.5023673291
 10
-0.2157985778
 20
15.5075146214
 10
-0.222419671
 20
15.512320169
 10
-0.2290653695
 20
15.5167745652
 10
-0.2357206369
 20
15.5208683571
  0
LWPOLYLINE
  5
369
100
AcDbEntity
  8
0
100
AcDbPolyline
 62
7
  6
CONTINUOUS
 90
31
 70
0
 10
-0.7750651631
 20
15.6676650314
 10
-0.7749327995
 20
15.6610263452
 10
-0.7746377541
 20
15.6543591902
 10
-0.7741924371
 20
15.6476680838
 10
-0.7735973166
 20
15.6409575757
 10
-0.7728520334
 20
15.6342323066
 10
-0.7719674237
 20
15.6274964734
 10
-0.7709439712
 20
15.6207540127
 10
-0.7697815739
 20
15.6140091062
 10
-0.7684898992
 20
15.6072659924
 10
-0.767069446
 20
15.6005280992
 10
-0.7655203361
 20
15.5937992369
 10
-0.7638514442
 20
15.5870839852
 10
-0.7620632983
 20
15.5803853338
 10
-0.7601562317
 20
15.5737067879
 10
-0.7581386775
 20
15.5670535291
 10
-0.7560112925
 20
15.5604283616
 10
-0.7537745588
 20
15.5538343175
 10
-0.751436567
 20
15.5472767799
 10
-0.7489979824
 20
15.5407579886
 10
-0.7464595522
 20
15.5342809325
 10
-0.7438294928
 20
15.5278519819
 10
-0.7411086264
 20
15.5214731097
 10
-0.7382978989
 20
15.515146965
 10
-0.7354058251
 20
15.5088807705
 10
-0.732433415
 20
15.5026761684
 10
-0.7293818492
 20
15.4965354957
 10
-0.726260118
 20
15.4904668029
 10
-0.7230721623
 20
15.4844738385
 10
-0.7198167586
 20
15.4785561009
 10
-0.7164953176
 20
15.4727150623
  0
LWPOLYLINE
  5
36A
100
AcDbEntity
  8
0
100
AcDbPolyline
 62
250
  6
CONTINUOUS
 90
28
 70
0
 10
-2.7141727714
 20
16.2498156544
 10
-2.7144297179
 20
16.2653640371
 10
-2.7152179112
 20
16.2805845594
 10
-2.7165373511
 20
16.2954772215
 10
-2.7183894616
 20
16.3100732924
 10
-2.7207728188
 20
16.324341503
 10
-2.7236831513
 20
16.3381880462
 10
-2.7271278146
 20
16.3516116977
 10
-2.7310994532
 20
16.3646136818
 10
-2.7355717293
 20
16.3771038651
 10
-2.7405450401
 20
16.3890672692
 10
-2.7460189884
 20
16.4005188725
 10
-2.7519660447
 20
16.4114134763
 10
-2.7583835978
 20
16.4217454653
 10
-2.765274259
 20
16.4315204548
 10
-2.7726183328
 20
16.4407100921
 10
-2.7804205283
 20
16.4493185584
 10
-2.7886761365
 20
16.4573416725
 10
-2.7973513348
 20
16.4647385373
 10
-2.8064549067
 20
16.4715083708
 10
-2.8159780687
 20
16.4776519551
 10
-2.8258606475
 20
16.4831307393
 10
-2.8361088242
 20
16.4879371362
 10
-2.8467164178
 20
16.492078733
 10
-2.8576047114
 20
16.4955397409
 10
-2.8687474662
 20
16.4983148968
 10
-2.880170921
 20
16.5004094638
 10
-2.8918750758
 20
16.5018234417
  0
LWPOLYLINE
  5
36B
100
AcDbEntity
  8
RACCORDO
100
AcDbPolyline
 62
250
  6
CONTINUOUS
 90
25
 70
0
 10
-0.9017895549
 20
19.1176828387
 10
-0.9026266856
 20
19.2027030646
 10
-0.8988354562
 20
19.2891780881
 10
-0.8905512107
 20
19.3766585168
 10
-0.8779622473
 20
19.4643787417
 10
-0.8612375901
 20
19.5522501668
 10
-0.8403644333
 20
19.6408938753
 10
-0.8152921594
 20
19.7303017602
 10
-0.7861725392
 20
19.8197432331
 10
-0.7531916045
 20
19.908781406
 10
-0.7164835695
 20
19.9970345946
 10
-0.6761798216
 20
20.0841475663
 10
-0.6325055723
 20
20.1697332311
 10
-0.5858107015
 20
20.2531412227
 10
-0.5361343199
 20
20.3343496052
 10
-0.4831616736
 20
20.4138558383
 10
-0.4268283942
 20
20.491486223
 10
-0.3674498855
 20
20.5665662691
 10
-0.3052103353
 20
20.6387490383
 10
-0.2401983492
 20
20.7077084878
 10
-0.17272627
 20
20.7728805852
 10
-0.1033719503
 20
20.833610619
 10
-0.0325361992
 20
20.8894669684
 10
0.039586778
 20
20.940177936
 10
0.1126777116
 20
20.9854099131
  0
LINE
  5
36C
100
AcDbEntity
  8
0
100
AcDbLine
 62
7
  6
CONTINUOUS
 10
-1.8247308067
 20
16.1633731164
 11
-1.8247308067
 21
16.8758656837
  0
LINE
  5
36D
100
AcDbEntity
  8
0
100
AcDbLine
 62
7
  6
CONTINUOUS
 10
-1.1139215893
 20
18.1208062933
 11
-1.1139215893
 21
17.7533918708
  0
LINE
  5
36E
100
AcDbEntity
  8
RACCORDO
100
AcDbLine
 62
250
  6
CONTINUOUS
 10
-0.9017895549
 20
18.5295712753
 11
-0.9017895549
 21
19.1176828461
  0
LINE
  5
36F
100
AcDbEntity
  8
0
100
AcDbLine
 62
7
  6
CONTINUOUS
 10
-0.7750724653
 20
15.669836602
 11
-0.7750739613
 21
14.3186454267
  0
LINE
  5
370
100
AcDbEntity
  8
0
100
AcDbLine
 62
250
  6
CONTINUOUS
 10
-0.7164953176
 20
15.4727150623
 11
-0.7164953176
 21
14.2344839634
  0
LINE
  5
371
100
AcDbEntity
  8
0
100
AcDbLine
 62
250
  6
CONTINUOUS
 10
-0.376401516
 20
14.0381180647
 11
-0.376401516
 21
15.2763491636
  0
LINE
  5
372
100
AcDbEntity
  8
RACCORDO
100
AcDbLine
 62
250
  6
CONTINUOUS
 10
-0.1946827737
 20
18.9378064137
 11
-0.1946827737
 21
19.1176828387
  0
LINE
  5
373
100
AcDbEntity
  8
0
100
AcDbLine
 62
250
  6
CONTINUOUS
 10
-0.0947983069
 20
14.0458918075
 11
-0.0947983069
 21
15.2756397083
  0
LINE
  5
374
100
AcDbEntity
  8
0
100
AcDbLine
 62
7
  6
CONTINUOUS
 10
0.4775569717
 20
15.9298550594
 11
0.4773598403
 21
15.8999306747
  0
LWPOLYLINE
  5
375
100
AcDbEntity
  8
0
100
AcDbPolyline
 62
7
  6
CONTINUOUS
 90
37
 70
0
 10
0.1588706169
 20
-10.1707122581
 10
0.1570531765
 20
-10.4020746305
 10
0.151610564
 20
-10.6309967621
 10
0.1425424617
 20
-10.8574787613
 10
0.1298411148
 20
-11.0816173918
 10
0.113513743
 20
-11.3033160503
 10
0.0935820427
 20
-11.5222850544
 10
0.0700466614
 20
-11.7384762484
 10
0.0429053789
 20
-11.9519385546
 10
0.0121749181
 20
-12.1625282995
 10
-0.0221577594
 20
-12.3702950475
 10
-0.060081525
 20
-12.5751902038
 10
-0.1015440978
 20
-12.7769232621
 10
-0.1465402499
 20
-12.9754422586
 10
-0.1950781417
 20
-13.1708007335
 10
-0.2471262548
 20
-13.3628668373
 10
-0.3026999744
 20
-13.5516771453
 10
-0.3617871454
 20
-13.7371968447
 10
-0.4243155469
 20
-13.9191873649
 10
-0.4902852899
 20
-14.0976259345
 10
-0.5597002984
 20
-14.2725375744
 10
-0.632494744
 20
-14.443755801
 10
-0.7086725145
 20
-14.6112777036
 10
-0.788234224
 20
-14.7751087337
 10
-0.871109667
 20
-14.9350952694
 10
-0.9573158606
 20
-15.0912523875
 10
-1.0468406894
 20
-15.2435678056
 10
-1.1395708373
 20
-15.3918472149
 10
-1.2354900217
 20
-15.5360564385
 10
-1.3346200393
 20
-15.6762328295
 10
-1.4369051589
 20
-15.8122896564
 10
-1.542382178
 20
-15.9442634311
 10
-1.6510198622
 20
-16.0721208658
 10
-1.7626609011
 20
-16.1956708132
 10
-1.8772550524
 20
-16.3148508417
 10
-1.9948587442
 20
-16.429726998
 10
-2.115474969
 20
-16.5403010345
  0
LWPOLYLINE
  5
376
100
AcDbEntity
  8
RACCORDO
100
AcDbPolyline
 62
250
  6
CONTINUOUS
 90
25
 70
0
 10
-0.1946827737
 20
19.1176828387
 10
-0.1929076749
 20
19.1739407402
 10
-0.1883074593
 20
19.2306122413
 10
-0.180882127
 20
19.2876973418
 10
-0.1705836415
 20
19.3452358008
 10
-0.1574600393
 20
19.4031878592
 10
-0.1416554302
 20
19.4614342405
 10
-0.1231255717
 20
19.5201937812
 10
-0.1019147063
 20
19.5792476446
 10
-0.0782996717
 20
19.6378200439
 10
-0.052247808
 20
19.6958944287
 10
-0.0237917751
 20
19.7534873494
 10
0.0066936102
 20
19.8098726708
 10
0.0390856187
 20
19.8648671091
 10
0.0735069795
 20
19.9186539481
 10
0.1099510642
 20
19.9710569035
 10
0.1485381677
 20
20.0222813344
 10
0.189147995
 20
20.0721218816
 10
0.2314130316
 20
20.119786183
 10
0.275455351
 20
20.1653293953
 10
0.3211528797
 20
20.2086963617
 10
0.3677718832
 20
20.2489292501
 10
0.4150677832
 20
20.285708783
 10
0.463285158
 20
20.3193542379
 10
0.5124240075
 20
20.3498656146
  0
LWPOLYLINE
  5
377
100
AcDbEntity
  8
0
100
AcDbPolyline
 62
250
  6
CONTINUOUS
 90
43
 70
0
 10
6.1312785853
 20
5.9918587918
 10
6.1080779762
 20
5.9768689477
 10
6.0849423518
 20
5.9610507718
 10
6.0618960891
 20
5.9444212238
 10
6.0389633805
 20
5.9269983348
 10
6.0161684749
 20
5.9088005648
 10
5.9935356596
 20
5.8898467431
 10
5.9710885981
 20
5.8701569537
 10
5.9488511376
 20
5.8497523872
 10
5.9268475486
 20
5.8286546895
 10
5.9051011178
 20
5.8068864994
 10
5.8836346506
 20
5.7844709937
 10
5.8624712855
 20
5.7614317062
 10
5.8416333155
 20
5.7377932187
 10
5.8211427035
 20
5.7135807873
 10
5.8010215817
 20
5.6888199008
 10
5.7812911373
 20
5.6635369425
 10
5.7619721771
 20
5.6377589289
 10
5.7430856438
 20
5.6115131302
 10
5.7246514699
 20
5.5848275725
 10
5.7066890401
 20
5.5577306951
 10
5.6892177582
 20
5.5302510879
 10
5.6722560461
 20
5.502418046
 10
5.6558217586
 20
5.4742612505
 10
5.6399326469
 20
5.4458104274
 10
5.6246054496
 20
5.4170958572
 10
5.6098563195
 20
5.3881481844
 10
5.5957012388
 20
5.3589980974
 10
5.5821551505
 20
5.3296766841
 10
5.5692322864
 20
5.3002151541
 10
5.5569465978
 20
5.2706446468
 10
5.5453110529
 20
5.240996669
 10
5.5343378798
 20
5.2113027814
 10
5.5240389022
 20
5.1815943215
 10
5.5144249535
 20
5.1519027818
 10
5.5055061944
 20
5.1222599085
 10
5.4972923449
 20
5.0926973854
 10
5.4897921206
 20
5.0632468948
 10
5.4830133197
 20
5.0339395509
 10
5.4769631709
 20
5.0048060052
 10
5.4716481019
 20
4.975877082
 10
5.4670736972
 20
4.9471837376
 10
5.463244792
 20
4.918756498
  0
LWPOLYLINE
  5
378
100
AcDbEntity
  8
0
100
AcDbPolyline
 62
250
  6
CONTINUOUS
 90
43
 70
0
 10
6.4971113253
 20
5.3871979535
 10
6.4853981494
 20
5.3797518356
 10
6.473740003
 20
5.3719074724
 10
6.4621368859
 20
5.363664864
 10
6.450575911
 20
5.3550139937
 10
6.4390699655
 20
5.345964878
 10
6.4276577113
 20
5.3365475667
 10
6.4163400869
 20
5.3267612744
 10
6.4051161539
 20
5.3166067863
 10
6.3940217585
 20
5.3061165076
 10
6.3830573634
 20
5.2952894042
 10
6.3722225059
 20
5.2841265101
 10
6.3615516446
 20
5.2726633318
 10
6.3510452927
 20
5.260898908
 10
6.3407029369
 20
5.2488341999
 10
6.3305574958
 20
5.2365075977
 10
6.320609575
 20
5.223918234
 10
6.3108585688
 20
5.2110669762
 10
6.3013355789
 20
5.1979948157
 10
6.2920413523
 20
5.1847010701
 10
6.2829751419
 20
5.1711864219
 10
6.2741658086
 20
5.1574939105
 10
6.265614176
 20
5.1436229775
 10
6.2573194204
 20
5.1295741813
 10
6.2493079322
 20
5.1153922369
 10
6.2415806057
 20
5.1010767032
 10
6.2341365465
 20
5.0866280214
 10
6.2269994616
 20
5.0720922288
 10
6.2201703401
 20
5.0574690676
 10
6.2136481928
 20
5.0427587957
 10
6.2074537595
 20
5.028008225
 10
6.2015880839
 20
5.0132172395
 10
6.1960501222
 20
4.9983859553
 10
6.1908574833
 20
4.9835615323
 10
6.1860112573
 20
4.9687439314
 10
6.181510354
 20
4.9539331918
 10
6.1773691118
 20
4.9391765909
 10
6.173588559
 20
4.9244733341
 10
6.1701676673
 20
4.909824216
 10
6.1671176909
 20
4.8952788985
 10
6.1644423811
 20
4.8808539355
 10
6.1621379866
 20
4.866532773
 10
6.1602045072
 20
4.852315411
  0
LINE
  5
379
100
AcDbEntity
  8
0
100
AcDbLine
 62
7
  6
CONTINUOUS
 10
10.4789271859
 20
9.0593951925
 11
9.5894852212
 21
8.4976497433
  0
LINE
  5
37A
100
AcDbEntity
  8
0
100
AcDbLine
 62
250
  6
CONTINUOUS
 10
10.8010967984
 20
8.873378496
 11
6.1312785853
 21
5.9918587918
  0
LINE
  5
37B
100
AcDbEntity
  8
0
100
AcDbLine
 62
250
  6
CONTINUOUS
 10
11.1543810643
 20
8.2609745992
 11
6.4971113253
 21
5.3871979535
  0
LINE
  5
37C
100
AcDbEntity
  8
0
100
AcDbLine
 62
250
  6
CONTINUOUS
 10
11.5017681149
 20
9.2806187609
 11
10.8008321611
 21
8.8735312943
  0
LINE
  5
37D
100
AcDbEntity
  8
0
100
AcDbLine
 62
250
  6
CONTINUOUS
 10
11.8553170181
 20
8.6682627339
 11
11.1543810643
 21
8.2611752673
  0
LINE
  5
37E
100
AcDbEntity
  8
0
100
AcDbLine
 62
7
  6
CONTINUOUS
 10
11.8553170181
 20
7.5228896619
 11
11.8968431846
 21
7.54686635
  0
LINE
  5
37F
100
AcDbEntity
  8
0
100
AcDbLine
 62
7
  6
CONTINUOUS
 10
12.5562529719
 20
6.0617296489
 11
11.1543810643
 21
5.5259860229
  0
LWPOLYLINE
  5
380
100
AcDbEntity
  8
0
100
AcDbPolyline
 62
250
  6
CONTINUOUS
 90
40
 70
0
 10
6.1602045072
 20
4.852315411
 10
6.1457645504
 20
4.8469978471
 10
6.130796445
 20
4.8420181989
 10
6.1153239387
 20
4.8373843669
 10
6.0993715797
 20
4.833103703
 10
6.0829646773
 20
4.8291829987
 10
6.0661292621
 20
4.8256284745
 10
6.0488920444
 20
4.8224457697
 10
6.031280372
 20
4.819639934
 10
6.0133221871
 20
4.8172154189
 10
5.9950459812
 20
4.8151760712
 10
5.9764807508
 20
4.8135251263
 10
5.9576559506
 20
4.8122652035
 10
5.9386014472
 20
4.811398302
 10
5.9193474719
 20
4.8109257969
 10
5.8999245722
 20
4.810848438
 10
5.8803635637
 20
4.8111663479
 10
5.860695481
 20
4.8118790224
 10
5.8409515288
 20
4.8129853308
 10
5.8211630321
 20
4.8144835177
 10
5.8013613863
 20
4.8163712062
 10
5.7815780082
 20
4.8186454015
 10
5.7618442851
 20
4.8213024953
 10
5.7421915258
 20
4.824338272
 10
5.7226509105
 20
4.8277479153
 10
5.7032534416
 20
4.8315260153
 10
5.6840298944
 20
4.8356665781
 10
5.6650107682
 20
4.8401630343
 10
5.6462262379
 20
4.8450082501
 10
5.6277061063
 20
4.8501945382
 10
5.6094797566
 20
4.8557136703
 10
5.5915761062
 20
4.8615568899
 10
5.5740235602
 20
4.8677149264
 10
5.5568499667
 20
4.8741780097
 10
5.5400825728
 20
4.8809358859
 10
5.5237479808
 20
4.887977833
 10
5.5078721065
 20
4.8952926786
 10
5.4924801381
 20
4.9028688173
 10
5.4775964957
 20
4.9106942291
 10
5.4632447931
 20
4.9187564985
  0
LINE
  5
381
100
AcDbEntity
  8
0
100
AcDbLine
 62
7
  6
CONTINUOUS
 10
12.5932798162
 20
6.040350813
 11
11.1543810643
 21
5.5259860229
  0
LWPOLYLINE
  5
382
100
AcDbEntity
  8
RACCORDO
100
AcDbPolyline
 62
250
  6
CONTINUOUS
 90
15
 70
0
 10
-21.7425434245
 20
-1.1208120686
 10
-21.6960023803
 20
-1.1230888987
 10
-21.6500323723
 20
-1.1278633388
 10
-21.6050345567
 20
-1.135093725
 10
-21.5614016056
 20
-1.1447169615
 10
-21.519514281
 20
-1.1566490713
 10
-21.4797381116
 20
-1.1707859293
 10
-21.4424202031
 20
-1.1870041705
 10
-21.4078862093
 20
-1.2051622668
 10
-21.3764374902
 20
-1.225101762
 10
-21.3483484822
 20
-1.2466486546
 10
-21.3238643034
 20
-1.2696149163
 10
-21.3031986143
 20
-1.2938001326
 10
-21.2865317536
 20
-1.3189932517
 10
-21.2740091642
 20
-1.3449744265
  0
LWPOLYLINE
  5
383
100
AcDbEntity
  8
RACCORDO
100
AcDbPolyline
 62
250
  6
CONTINUOUS
 90
16
 70
0
 10
-13.2509394476
 20
6.3583608291
 10
-13.2311530115
 20
6.347602301
 10
-13.2113777175
 20
6.3382211166
 10
-13.1916738294
 20
6.330242372
 10
-13.172110128
 20
6.3236780747
 10
-13.152734888
 20
6.3185541833
 10
-13.1335752543
 20
6.3149089444
 10
-13.1146871295
 20
6.3127453253
 10
-13.0961213015
 20
6.3120701683
 10
-13.0778924906
 20
6.3129159442
 10
-13.0600216279
 20
6.3152739058
 10
-13.0425802944
 20
6.3191345645
 10
-13.0256408265
 20
6.3244936585
 10
-13.0092359044
 20
6.3313063681
 10
-12.9933731434
 20
6.3395163682
 10
-12.9780679778
 20
6.349072253
  0
LINE
  5
384
100
AcDbEntity
  8
RACCORDO
100
AcDbLine
 62
250
  6
CONTINUOUS
 10
-13.0074840768
 20
6.5595956466
 11
-12.981377085
 21
6.5450942886
  0
LWPOLYLINE
  5
385
100
AcDbEntity
  8
RACCORDO
100
AcDbPolyline
 62
250
  6
CONTINUOUS
 90
10
 70
0
 10
-12.9259284142
 20
6.3428394386
 10
-12.9326414971
 20
6.3465937435
 10
-12.9392574709
 20
6.349622175
 10
-12.9457164997
 20
6.3518973422
 10
-12.951960167
 20
6.3533986669
 10
-12.9579320034
 20
6.3541125695
 10
-12.9635779976
 20
6.3540325921
 10
-12.9688470857
 20
6.3531594571
 10
-12.9736916122
 20
6.3515010603
 10
-12.9780677617
 20
6.3490723997
  0
LINE
  5
386
100
AcDbEntity
  8
RACCORDO
100
AcDbLine
 62
250
  6
CONTINUOUS
 10
-13.0341094449
 20
6.5745593393
 11
-13.0074840768
 21
6.5595956466
  0
LWPOLYLINE
  5
387
100
AcDbEntity
  8
RACCORDO
100
AcDbPolyline
 62
250
  6
CONTINUOUS
 90
39
 70
0
 10
-12.981377085
 20
6.5450942886
 10
-12.9627587616
 20
6.5345975768
 10
-12.9569215913
 20
6.5311749673
 10
-12.9513005264
 20
6.5277708364
 10
-12.9458773086
 20
6.5243902846
 10
-12.9407567443
 20
6.5209513982
 10
-12.9359261409
 20
6.5174027218
 10
-12.931360397
 20
6.5137725315
 10
-12.9271455063
 20
6.5100624809
 10
-12.9233242287
 20
6.5062012826
 10
-12.9198670962
 20
6.5021808867
 10
-12.9167625478
 20
6.4980772678
 10
-12.9140634084
 20
6.4938502453
 10
-12.9117749703
 20
6.489454064
 10
-12.9098084642
 20
6.4849707667
 10
-12.9081852479
 20
6.4803920622
 10
-12.9069456347
 20
6.4756689099
 10
-12.9060105446
 20
6.4708504312
 10
-12.9053901844
 20
6.4659400926
 10
-12.905127681
 20
6.4609033551
 10
-12.9051794547
 20
6.4557547396
 10
-12.9055570723
 20
6.4505049244
 10
-12.9062988035
 20
6.4451303102
 10
-12.9073987937
 20
6.4396092342
 10
-12.9088760345
 20
6.4339527944
 10
-12.9107691734
 20
6.4281523122
 10
-12.9131107464
 20
6.4221679713
 10
-12.9159446524
 20
6.4159880516
 10
-12.919303837
 20
6.409644387
 10
-12.9232083069
 20
6.4031697642
 10
-12.9277412927
 20
6.3965118563
 10
-12.9328954498
 20
6.3897597808
 10
-12.9385100178
 20
6.3831486165
 10
-12.9445855194
 20
6.3766776348
 10
-12.9511027167
 20
6.3703647984
 10
-12.9577871705
 20
6.3644409172
 10
-12.9644967743
 20
6.3589659503
 10
-12.9712684809
 20
6.3538503059
 10
-12.9780591474
 20
6.3490793445
  0
LINE
  5
388
100
AcDbEntity
  8
RACCORDO
100
AcDbLine
 62
250
  6
CONTINUOUS
 10
-13.062173353
 20
6.5905540367
 11
-13.0341094449
 21
6.5745593393
  0
LINE
  5
389
100
AcDbEntity
  8
0
100
AcDbLine
 62
250
  6
CONTINUOUS
 10
4.7565604725
 20
-4.9951929125
 11
-2.115474969
 21
-1.0273657754
  0
LINE
  5
38A
100
AcDbEntity
  8
0
100
AcDbLine
 62
250
  6
CONTINUOUS
 10
-19.0766070067
 20
8.7657792903
 11
-25.9486424481
 21
12.7336064273
  0
LINE
  5
38B
100
AcDbEntity
  8
RACCORDO
100
AcDbLine
 62
250
  6
CONTINUOUS
 10
-13.0868041651
 20
6.604758755
 11
-13.062173353
 21
6.5905540367
  0
LWPOLYLINE
  5
38C
100
AcDbEntity
  8
RACCORDO
100
AcDbPolyline
 62
250
  6
CONTINUOUS
 90
55
 70
0
 10
-13.0192482614
 20
6.679459661
 10
-13.0110696176
 20
6.6746787466
 10
-13.0030928088
 20
6.6699196915
 10
-12.9953178534
 20
6.6651828639
 10
-12.9877731331
 20
6.6604853052
 10
-12.9804303
 20
6.65581074
 10
-12.9732042789
 20
6.6511093336
 10
-12.9660836224
 20
6.6463790329
 10
-12.9590798107
 20
6.6416221339
 10
-12.9521421652
 20
6.6367949512
 10
-12.9452549288
 20
6.6318915883
 10
-12.9384338987
 20
6.6269178663
 10
-12.9316757363
 20
6.6218474669
 10
-12.9249475199
 20
6.61665817
 10
-12.9182822231
 20
6.6113719728
 10
-12.9117753546
 20
6.6060290406
 10
-12.9054390432
 20
6.600640304
 10
-12.8992612064
 20
6.595195116
 10
-12.8933010352
 20
6.5897015848
 10
-12.8875682839
 20
6.584174755
 10
-12.8820532435
 20
6.5786000499
 10
-12.8767859202
 20
6.5729412124
 10
-12.8717526223
 20
6.5671826688
 10
-12.8669671033
 20
6.561340337
 10
-12.8625005454
 20
6.5554252786
 10
-12.8583625381
 20
6.5494347431
 10
-12.854543546
 20
6.5433720597
 10
-12.8510860585
 20
6.5372575962
 10
-12.848002643
 20
6.5311021036
 10
-12.8452807672
 20
6.5248955509
 10
-12.8429252668
 20
6.518627192
 10
-12.840934828
 20
6.5123021238
 10
-12.8393107944
 20
6.5059158759
 10
-12.8380619938
 20
6.4994433013
 10
-12.8371802492
 20
6.4928866335
 10
-12.8366737688
 20
6.486244159
 10
-12.8365759676
 20
6.4794847649
 10
-12.8368730058
 20
6.4726139983
 10
-12.8375787568
 20
6.4656267747
 10
-12.8387682177
 20
6.4584760254
 10
-12.8404213513
 20
6.4511609004
 10
-12.8425582348
 20
6.4436826843
 10
-12.8453140463
 20
6.4359975695
 10
-12.848691471
 20
6.4280673496
 10
-12.8526878594
 20
6.4199307208
 10
-12.8574303572
 20
6.4116594273
 10
-12.8630145588
 20
6.4031687415
 10
-12.8693448199
 20
6.3945440825
 10
-12.8762613145
 20
6.3861126673
 10
-12.8838519984
 20
6.3778880272
 10
-12.8920286736
 20
6.3698573358
 10
-12.9003671856
 20
6.3623083
 10
-12.9087260568
 20
6.3553368951
 10
-12.9172465095
 20
6.348847378
 10
-12.9259284315
 20
6.3428397682
  0
LINE
  5
38D
100
AcDbEntity
  8
RACCORDO
100
AcDbLine
 62
250
  6
CONTINUOUS
 10
-13.1145188317
 20
6.6209222373
 11
-13.0868041651
 21
6.604758755
  0
LINE
  5
38E
100
AcDbEntity
  8
RACCORDO
100
AcDbLine
 62
250
  6
CONTINUOUS
 10
-13.1405628024
 20
6.636273989
 11
-13.1145188317
 21
6.6209222373
  0
LWPOLYLINE
  5
38F
100
AcDbEntity
  8
RACCORDO
100
AcDbPolyline
 62
250
  6
CONTINUOUS
 90
10
 70
0
 10
-13.5540662977
 20
6.7055465411
 10
-13.5473320017
 20
6.7015368329
 10
-13.5405836145
 20
6.6968492824
 10
-13.5338821523
 20
6.6915262992
 10
-13.5272879982
 20
6.685615841
 10
-13.5208609806
 20
6.6791715289
 10
-13.5146597726
 20
6.6722523218
 10
-13.5087405294
 20
6.6649211458
 10
-13.5031564456
 20
6.657244165
 10
-13.4979578577
 20
6.6492908423
  0
LWPOLYLINE
  5
390
100
AcDbEntity
  8
RACCORDO
100
AcDbPolyline
 62
250
  6
CONTINUOUS
 90
3
 70
0
 10
-13.1744810353
 20
6.6565035858
 10
-13.1660045122
 20
6.6514109247
 10
-13.1405628024
 20
6.636273989
  0
LWPOLYLINE
  5
391
100
AcDbEntity
  8
0
100
AcDbPolyline
 62
7
  6
CONTINUOUS
 90
37
 70
0
 10
-2.115474969
 20
-1.0273657754
 10
-1.9948592428
 20
-1.2841219156
 10
-1.8772561369
 20
-1.5416271489
 10
-1.7626626594
 20
-1.7998797721
 10
-1.651022474
 20
-2.0590070896
 10
-1.5423857317
 20
-2.3188782693
 10
-1.4369094683
 20
-2.5791045644
 10
-1.3346248312
 20
-2.839608596
 10
-1.2354951092
 20
-3.1004645427
 10
-1.139576018
 20
-3.3615112507
 10
-1.0468456277
 20
-3.6228067438
 10
-0.9573203527
 20
-3.8842898059
 10
-0.8711138927
 20
-4.1456206808
 10
-0.7882386258
 20
-4.4067660414
 10
-0.7086772739
 20
-4.6677563498
 10
-0.6324996398
 20
-4.9283478588
 10
-0.5597048535
 20
-5.1885425116
 10
-0.4902892806
 20
-5.4483357059
 10
-0.4243191097
 20
-5.7074741728
 10
-0.3617906095
 20
-5.9659825989
 10
-0.3027034782
 20
-6.223833889
 10
-0.2471297209
 20
-6.4806974774
 10
-0.1950813976
 20
-6.7365204166
 10
-0.1465432173
 20
-6.9913536862
 10
-0.1015467654
 20
-7.2450229539
 10
-0.0600838892
 20
-7.4975886151
 10
-0.0221598086
 20
-7.7489884641
 10
0.0121731507
 20
-7.9988646518
 10
0.0429038322
 20
-8.2471527538
 10
0.0700453014
 20
-8.4939159591
 10
0.0935808726
 20
-8.7389882331
 10
0.1135127838
 20
-8.9824193171
 10
0.1298403697
 20
-9.22415842
 10
0.1425419191
 20
-9.463889092
 10
0.1516102094
 20
-9.7015057914
 10
0.1570530021
 20
-9.9371135999
 10
0.1588706169
 20
-10.1707122581
  0
LWPOLYLINE
  5
392
100
AcDbEntity
  8
0
100
AcDbPolyline
 62
7
  6
CONTINUOUS
 90
4
 70
0
 10
-4.0280253099
 20
24.8828724131
 10
-4.028148384
 20
24.8838530676
 10
-4.0288795722
 20
24.8851684455
 10
-4.0298145296
 20
24.885896482
  0
LWPOLYLINE
  5
393
100
AcDbEntity
  8
0
100
AcDbPolyline
 62
250
  6
CONTINUOUS
 90
34
 70
0
 10
2.3769900135
 20
14.6692843649
 10
2.3767957073
 20
14.6771269967
 10
2.3762843028
 20
14.6851384349
 10
2.3754569583
 20
14.6933005319
 10
2.374315548
 20
14.7015947994
 10
2.3728626573
 20
14.710002449
 10
2.3711015772
 20
14.7185044354
 10
2.3690362971
 20
14.7270814996
 10
2.3666714952
 20
14.7357142133
 10
2.3640125281
 20
14.7443830219
 10
2.3610654188
 20
14.7530682892
 10
2.357836843
 20
14.7617503412
 10
2.3543341144
 20
14.7704095108
 10
2.3505651675
 20
14.779026183
 10
2.3465385395
 20
14.7875808398
 10
2.3422633512
 20
14.7960541037
 10
2.3377492868
 20
14.8044267814
 10
2.3330065715
 20
14.812679907
 10
2.3280459483
 20
14.8207947855
 10
2.322878654
 20
14.8287530354
 10
2.3175163936
 20
14.8365366296
 10
2.3119713138
 20
14.8441279362
 10
2.3062559757
 20
14.8515097593
 10
2.3003833253
 20
14.8586653779
 10
2.294366665
 20
14.8655785837
 10
2.2882196233
 20
14.8722337172
 10
2.2819561248
 20
14.878615703
 10
2.2755903576
 20
14.8847100843
 10
2.2691367415
 20
14.8905030563
 10
2.2626098951
 20
14.8959814968
 10
2.2560246032
 20
14.9011329958
 10
2.2493957829
 20
14.9059458844
 10
2.2427384497
 20
14.9104092605
 10
2.2360676835
 20
14.9145130137
  0
LINE
  5
394
100
AcDbEntity
  8
0
100
AcDbLine
 62
7
  6
CONTINUOUS
 10
0.4770042068
 20
15.6171884563
 11
0.4770667634
 21
15.6043915296
  0
LINE
  5
395
100
AcDbEntity
  8
0
100
AcDbLine
 62
7
  6
CONTINUOUS
 10
0.4770686684
 20
15.6035428775
 11
0.4770686684
 21
14.4046736574
  0
LINE
  5
396
100
AcDbEntity
  8
0
100
AcDbLine
 62
250
  6
CONTINUOUS
 10
1.2374175532
 20
23.0609946679
 11
1.2374175532
 21
22.6837632223
  0
LINE
  5
397
100
AcDbEntity
  8
0
100
AcDbLine
 62
7
  6
CONTINUOUS
 10
1.377747653
 20
23.3775706303
 11
1.377747653
 21
22.8867637132
  0
LINE
  5
398
100
AcDbEntity
  8
0
100
AcDbLine
 62
250
  6
CONTINUOUS
 10
2.0953868044
 20
13.470277048
 11
2.0953868044
 21
14.6699938203
  0
LINE
  5
399
100
AcDbEntity
  8
0
100
AcDbLine
 62
250
  6
CONTINUOUS
 10
2.3769900135
 20
13.4780507908
 11
2.3769900135
 21
14.6692843649
  0
LINE
  5
39A
100
AcDbEntity
  8
0
100
AcDbLine
 62
7
  6
CONTINUOUS
 10
0.4769713533
 20
15.8006423838
 11
0.4770042068
 21
15.6171884563
  0
LINE
  5
39B
100
AcDbEntity
  8
0
100
AcDbLine
 62
7
  6
CONTINUOUS
 10
0.4773598403
 20
15.8999306747
 11
0.4769713533
 21
15.8006423838
  0
LINE
  5
39C
100
AcDbEntity
  8
0
100
AcDbLine
 62
7
  6
CONTINUOUS
 10
11.1897364034
 20
10.6494139469
 11
10.4789271859
 21
9.7718877598
  0
LINE
  5
39D
100
AcDbEntity
  8
DRAFT
100
AcDbLine
 62
7
  6
CONTINUOUS
 10
11.8553170181
 20
8.4176624573
 11
16.8386280552
 21
12.3691514013
  0
LINE
  5
39E
100
AcDbEntity
  8
0
100
AcDbLine
 62
7
  6
CONTINUOUS
 10
11.8553170181
 20
5.9857723166
 11
12.5562529719
 21
6.4047350965
  0
LWPOLYLINE
  5
39F
100
AcDbEntity
  8
0
100
AcDbPolyline
 62
7
  6
CONTINUOUS
 90
18
 70
0
 10
-10.2355990666
 20
8.5679079277
 10
-10.7932179716
 20
8.8727040613
 10
-11.3462973268
 20
9.1417846295
 10
-11.8948371322
 20
9.3751496322
 10
-12.4403133115
 20
9.5732421084
 10
-12.9812499411
 20
9.7356190192
 10
-13.5132192499
 20
9.860951248
 10
-14.0361476363
 20
9.9489347407
 10
-14.5501087019
 20
9.9998735516
 10
-15.050895481
 20
10.0133507271
 10
-15.538399842
 20
9.9890587907
 10
-16.0127299164
 20
9.927305219
 10
-16.4700031332
 20
9.8285954884
 10
-16.9100794936
 20
9.692626271
 10
-17.3330989963
 20
9.5197008947
 10
-17.7355990666
 20
9.3112348191
 10
-18.1174112857
 20
9.0669363342
 10
-18.1854271536
 20
9.0181119485
  0
LWPOLYLINE
  5
3A0
100
AcDbEntity
  8
0
100
AcDbPolyline
 62
7
  6
CONTINUOUS
 90
47
 70
0
 10
-10.2809929187
 20
8.6652316243
 10
-10.072137783
 20
8.5395758945
 10
-9.8636401185
 20
8.4090551528
 10
-9.6555509532
 20
8.273707288
 10
-9.4481698613
 20
8.1337280615
 10
-9.2415410238
 20
7.9891456691
 10
-9.0356133172
 20
7.8399352614
 10
-8.8305422342
 20
7.6862135772
 10
-8.6262868666
 20
7.5279518145
 10
-8.4228766148
 20
7.3651843482
 10
-8.2205713864
 20
7.1981231974
 10
-8.0193830006
 20
7.0267812222
 10
-7.819283756
 20
6.8511533069
 10
-7.6204733455
 20
6.6714249796
 10
-7.4229421092
 20
6.4875965729
 10
-7.226679614
 20
6.2996776413
 10
-7.0318835781
 20
6.1078679734
 10
-6.838525344
 20
5.9121486052
 10
-6.6466094798
 20
5.7125504885
 10
-6.4563829724
 20
5.5093486083
 10
-6.2678657853
 20
5.3025802572
 10
-6.0810104127
 20
5.0922220349
 10
-5.8959622181
 20
4.8784581534
 10
-5.7126662203
 20
4.661242015
 10
-5.5311463231
 20
4.4406361331
 10
-5.3516661529
 20
4.2169884933
 10
-5.1742561896
 20
3.990359411
 10
-4.9988525401
 20
3.760705991
 10
-4.8255774296
 20
3.5282214139
 10
-4.6543720956
 20
3.2928517519
 10
-4.48525902
 20
3.0546702072
 10
-4.3184828428
 20
2.8140604838
 10
-4.1540662093
 20
2.5710833567
 10
-3.9919491032
 20
2.3256983488
 10
-3.8322530716
 20
2.0781369457
 10
-3.6749349295
 20
1.8283650975
 10
-3.5199986766
 20
1.576438618
 10
-3.3676378198
 20
1.3227233071
 10
-3.2178501049
 20
1.0672478763
 10
-3.0705984654
 20
0.810006026
 10
-2.926025949
 20
0.5513102544
 10
-2.7841161868
 20
0.2911690122
 10
-2.6448461294
 20
0.0295969294
 10
-2.5083507422
 20
-0.233085113
 10
-2.3746626583
 20
-0.4967626728
 10
-2.2437107034
 20
-0.7615269414
 10
-2.115474969
 20
-1.0273657754
  0
LINE
  5
3A1
100
AcDbEntity
  8
0
100
AcDbLine
 62
7
  6
CONTINUOUS
 10
-10.2355990666
 20
8.5679079277
 11
-9.6779801616
 21
8.2287797271
  0
LWPOLYLINE
  5
3A2
100
AcDbEntity
  8
0
100
AcDbPolyline
 62
7
  6
CONTINUOUS
 90
5
 70
0
 10
-9.6779801616
 20
8.2287797271
 10
-9.1249008064
 20
7.8591781193
 10
-8.576361001
 20
7.4591031043
 10
-8.0308848216
 20
7.0272933614
 10
-7.7243099164
 20
6.7652951806
  0
LWPOLYLINE
  5
3A3
100
AcDbEntity
  8
0
100
AcDbPolyline
 62
250
  6
CONTINUOUS
 90
16
 70
0
 10
-19.0060740618
 20
25.5320603875
 10
-19.0023821694
 20
25.52745251
 10
-18.9989230033
 20
25.5225604579
 10
-18.995696139
 20
25.5173836098
 10
-18.9927055588
 20
25.5119263857
 10
-18.9899578871
 20
25.506198752
 10
-18.9874574516
 20
25.5002075018
 10
-18.9852069332
 20
25.4939554378
 10
-18.9832127071
 20
25.4874563332
 10
-18.98148243
 20
25.4807356079
 10
-18.9800181279
 20
25.4738068703
 10
-18.9788202251
 20
25.4666791331
 10
-18.9778904883
 20
25.4593737925
 10
-18.9772284018
 20
25.4519067101
 10
-18.9768323315
 20
25.4442872884
 10
-18.9767007197
 20
25.4365281888
  0
LWPOLYLINE
  5
3A4
100
AcDbEntity
  8
RACCORDO
100
AcDbPolyline
 62
7
  6
CONTINUOUS
 90
26
 70
0
 10
-15.0504922292
 20
26.9073944885
 10
-15.0506840565
 20
26.9076725427
 10
-15.1064626399
 20
26.9958642697
 10
-15.1584753801
 20
27.0859379451
 10
-15.2069384159
 20
27.1783492243
 10
-15.2516356085
 20
27.2726424519
 10
-15.2919185412
 20
27.3674506619
 10
-15.3277229068
 20
27.4627814276
 10
-15.3591130124
 20
27.5586271758
 10
-15.3856333628
 20
27.6535982209
 10
-15.4072129954
 20
27.7476818696
 10
-15.4239228728
 20
27.8408908153
 10
-15.4355203882
 20
27.9318734534
 10
-15.4419310293
 20
28.0205973748
 10
-15.4432293084
 20
28.1070949887
 10
-15.4393961548
 20
28.1901119175
 10
-15.4303567696
 20
28.2695974526
 10
-15.4161859518
 20
28.3456023026
 10
-15.3970890272
 20
28.4170242162
 10
-15.372994186
 20
28.4837964036
 10
-15.3439732381
 20
28.5459856544
 10
-15.3104469386
 20
28.6026900867
 10
-15.2723496121
 20
28.6538297534
 10
-15.2297469339
 20
28.6994846016
 10
-15.1832566857
 20
28.73899259
 10
-15.132779551
 20
28.7722886949
  0
LWPOLYLINE
  5
3A5
100
AcDbEntity
  8
0
100
AcDbPolyline
 62
250
  6
CONTINUOUS
 90
43
 70
0
 10
6.1602045072
 20
-29.5790155321
 10
6.1621379866
 20
-29.5910767684
 10
6.1644423811
 20
-29.6028281779
 10
6.1671176909
 20
-29.6142697607
 10
6.1701676673
 20
-29.6254138873
 10
6.173588559
 20
-29.6362481871
 10
6.1773691118
 20
-29.6467355484
 10
6.181510354
 20
-29.6568740299
 10
6.1860112573
 20
-29.6666655728
 10
6.1908574833
 20
-29.6760788893
 10
6.1960501222
 20
-29.6851127244
 10
6.2015880839
 20
-29.6937683331
 10
6.2074537595
 20
-29.7020181916
 10
6.2136481928
 20
-29.7098610202
 10
6.2201703401
 20
-29.7172980988
 10
6.2269994616
 20
-29.7243057434
 10
6.2341365465
 20
-29.7308825929
 10
6.2415806057
 20
-29.7370300084
 10
6.2493079322
 20
-29.7427283892
 10
6.2573194204
 20
-29.747976297
 10
6.265614176
 20
-29.7527751701
 10
6.2741658086
 20
-29.7571097227
 10
6.2829751419
 20
-29.7609784779
 10
6.2920413523
 20
-29.7643829127
 10
6.3013355789
 20
-29.7673121718
 10
6.3108585688
 20
-29.7697647397
 10
6.320609575
 20
-29.7717421319
 10
6.3305574958
 20
-29.7732380399
 10
6.3407029369
 20
-29.7742509211
 10
6.3510452927
 20
-29.7747823181
 10
6.3615516446
 20
-29.7748305501
 10
6.3722225059
 20
-29.7743940833
 10
6.3830573634
 20
-29.7734744515
 10
6.3940217585
 20
-29.7720745746
 10
6.4051161539
 20
-29.770192903
 10
6.4163400869
 20
-29.7678309864
 10
6.4276577113
 20
-29.7649963937
 10
6.4390699655
 20
-29.7616872934
 10
6.450575911
 20
-29.7579055171
 10
6.4621368859
 20
-29.7536641293
 10
6.473740003
 20
-29.7489674848
 10
6.4853981494
 20
-29.7438112288
 10
6.4971113253
 20
-29.7381953612
  0
LWPOLYLINE
  5
3A6
100
AcDbEntity
  8
0
100
AcDbPolyline
 62
250
  6
CONTINUOUS
 90
21
 70
0
 10
5.463244792
 20
-29.6338634061
 10
5.4670736972
 20
-29.657945818
 10
5.4716481019
 20
-29.6814481274
 10
5.4769631709
 20
-29.7043453917
 10
5.4830133197
 20
-29.7266132459
 10
5.4897921206
 20
-29.7482281458
 10
5.4972923449
 20
-29.7691673609
 10
5.5055061944
 20
-29.7894088302
 10
5.5144249535
 20
-29.8089308876
 10
5.5240389022
 20
-29.8277125025
 10
5.5343378798
 20
-29.8457337029
 10
5.5453110529
 20
-29.8629754652
 10
5.5569465978
 20
-29.87941941
 10
5.5692322864
 20
-29.8950481397
 10
5.5821551505
 20
-29.9098450804
 10
5.5957012388
 20
-29.9237943804
 10
5.6098563195
 20
-29.9368813037
 10
5.6246054496
 20
-29.9490919791
 10
5.6399326469
 20
-29.9604132355
 10
5.6558217586
 20
-29.9708331167
 10
5.6641658235
 20
-29.975813717
  0
LWPOLYLINE
  5
3A7
100
AcDbEntity
  8
0
100
AcDbPolyline
 62
250
  6
CONTINUOUS
 90
18
 70
0
 10
4.807494115
 20
12.3310651397
 10
4.8075717809
 20
12.3278472563
 10
4.8080595663
 20
12.3223877764
 10
4.8089943202
 20
12.3169476743
 10
4.8103739541
 20
12.311539178
 10
4.8121953716
 20
12.3061744433
 10
4.814454484
 20
12.3008655072
 10
4.8171462325
 20
12.295624254
 10
4.8202645892
 20
12.2904624226
 10
4.8238025705
 20
12.2853915776
 10
4.8277522464
 20
12.2804230887
 10
4.8321047607
 20
12.275568098
 10
4.8368503606
 20
12.2708374849
 10
4.8419784089
 20
12.2662418535
 10
4.8474773999
 20
12.2617915136
 10
4.8533350023
 20
12.2574964415
 10
4.85953809
 20
12.2533662589
 10
4.8660727588
 20
12.249410221
  0
LWPOLYLINE
  5
3A8
100
AcDbEntity
  8
0
100
AcDbPolyline
 62
250
  6
CONTINUOUS
 90
16
 70
0
 10
4.7565604725
 20
-20.5081281715
 10
4.7696650211
 20
-21.1379981626
 10
4.787638377
 20
-21.764999887
 10
4.8104792116
 20
-22.3890861883
 10
4.8381858772
 20
-23.0102101334
 10
4.8707562846
 20
-23.6283250148
 10
4.9081879051
 20
-24.2433843532
 10
4.9504779947
 20
-24.8553419566
 10
4.9976234074
 20
-25.4641517639
 10
5.0496204726
 20
-26.069767847
 10
5.1064653609
 20
-26.6721446528
 10
5.1681538544
 20
-27.2712369366
 10
5.2346811627
 20
-27.8669996039
 10
5.3060422925
 20
-28.4593878592
 10
5.3822320461
 20
-29.0483572113
 10
5.463244792
 20
-29.6338634061
  0
LWPOLYLINE
  5
3A9
100
AcDbEntity
  8
0
100
AcDbPolyline
 62
250
  6
CONTINUOUS
 90
16
 70
0
 10
5.4573792262
 20
-20.50394015
 10
5.470414965
 20
-21.1303882014
 10
5.488289703
 20
-21.753891227
 10
5.5110034403
 20
-22.3744492268
 10
5.5385586137
 20
-22.992108572
 10
5.5709527863
 20
-23.6068228914
 10
5.6081786479
 20
-24.2184530714
 10
5.6502372889
 20
-24.8269983044
 10
5.6971276188
 20
-25.432459398
 10
5.7488390563
 20
-26.0346996618
 10
5.8053727138
 20
-26.6337185289
 10
5.8667274789
 20
-27.2295165662
 10
5.9328894327
 20
-27.8219587841
 10
6.0038539355
 20
-28.4110001861
 10
6.079625627
 20
-28.9966857688
 10
6.1602045072
 20
-29.5790155321
  0
LWPOLYLINE
  5
3AA
100
AcDbEntity
  8
0
100
AcDbPolyline
 62
250
  6
CONTINUOUS
 90
33
 70
0
 10
3.7499193569
 20
13.7625198045
 10
3.7499476781
 20
13.7605765148
 10
3.7500927027
 20
13.757712963
 10
3.7503606623
 20
13.7548527732
 10
3.7507513519
 20
13.7519976286
 10
3.7512643622
 20
13.7491499109
 10
3.7518991211
 20
13.746311908
 10
3.7526552028
 20
13.7434848055
 10
3.7535323553
 20
13.7406693267
 10
3.754530013
 20
13.7378672916
 10
3.7556475976
 20
13.7350803283
 10
3.75688502
 20
13.7323088928
 10
3.7582421285
 20
13.7295538617
 10
3.759717891
 20
13.7268178203
 10
3.7613107803
 20
13.7241037694
 10
3.76301955
 20
13.7214137818
 10
3.7648433777
 20
13.7187491049
 10
3.7667810875
 20
13.7161114476
 10
3.7688318048
 20
13.7135020281
 10
3.770993965
 20
13.7109228629
 10
3.7732650813
 20
13.7083767841
 10
3.7756425256
 20
13.7058663943
 10
3.7781256358
 20
13.703392065
 10
3.7807148769
 20
13.7009532848
 10
3.7834097781
 20
13.6985506925
 10
3.7862078265
 20
13.6961867168
 10
3.7891064904
 20
13.6938635497
 10
3.7921039023
 20
13.691582679
 10
3.7951982929
 20
13.6893454419
 10
3.7983870298
 20
13.6871536995
 10
3.8016678378
 20
13.685008925
 10
3.8050388724
 20
13.6829122362
 10
3.8084980007
 20
13.6808648859
  0
LINE
  5
3AB
100
AcDbEntity
  8
0
100
AcDbLine
 62
7
  6
CONTINUOUS
 10
3.3054957931
 20
14.0605831552
 11
3.3054957931
 21
15.2016808854
  0
LINE
  5
3AC
100
AcDbEntity
  8
0
100
AcDbLine
 62
7
  6
CONTINUOUS
 10
3.7499193569
 20
13.7625198045
 11
3.7499193569
 21
12.5653095769
  0
LINE
  5
3AD
100
AcDbEntity
  8
0
100
AcDbLine
 62
250
  6
CONTINUOUS
 10
3.8084980007
 20
13.6808648859
 11
3.8084980007
 21
12.4811481136
  0
LINE
  5
3AE
100
AcDbEntity
  8
0
100
AcDbLine
 62
7
  6
CONTINUOUS
 10
4.807494115
 20
12.3310651397
 11
4.807494115
 21
11.0953405854
  0
LINE
  5
3AF
100
AcDbEntity
  8
0
100
AcDbLine
 62
250
  6
CONTINUOUS
 10
4.8660727588
 20
12.249410221
 11
4.8660727588
 21
11.0111791221
  0
LINE
  5
3B0
100
AcDbEntity
  8
0
100
AcDbLine
 62
250
  6
CONTINUOUS
 10
5.2061665603
 20
10.8148132235
 11
5.2061665603
 21
12.0530443224
  0
LINE
  5
3B1
100
AcDbEntity
  8
0
100
AcDbLine
 62
250
  6
CONTINUOUS
 10
5.4882668571
 20
10.8228998706
 11
5.4882668571
 21
12.2159097164
  0
LWPOLYLINE
  5
3B2
100
AcDbEntity
  8
0
100
AcDbPolyline
 62
250
  6
CONTINUOUS
 90
13
 70
0
 10
4.7565604725
 20
-4.9951929125
 10
4.7367187169
 20
-6.2989473194
 10
4.7204847672
 20
-7.6007288859
 10
4.7078585695
 20
-8.900524674
 10
4.6988400838
 20
-10.198313089
 10
4.6934290888
 20
-11.4940899414
 10
4.6916254193
 20
-12.7878683107
 10
4.69342909
 20
-14.079635215
 10
4.698840086
 20
-15.3693777078
 10
4.7078585722
 20
-16.6571087064
 10
4.7204847697
 20
-17.9428237749
 10
4.7367187187
 20
-19.2265012633
 10
4.7565604725
 20
-20.5081281715
  0
LWPOLYLINE
  5
3B3
100
AcDbEntity
  8
0
100
AcDbPolyline
 62
250
  6
CONTINUOUS
 90
13
 70
0
 10
5.4573792262
 20
-5.0065178262
 10
5.4375571219
 20
-6.3089896503
 10
5.4213391106
 20
-7.6094648914
 10
5.4087251923
 20
-8.9079435493
 10
5.3997154572
 20
-10.2044299047
 10
5.3943098151
 20
-11.4989196771
 10
5.3925079951
 20
-12.7914000249
 10
5.394309817
 20
-14.0818710516
 10
5.399715461
 20
-15.3703326538
 10
5.4087251969
 20
-16.6567716799
 10
5.4213391147
 20
-17.9411837461
 10
5.4375571245
 20
-19.2235732361
 10
5.4573792262
 20
-20.50394015
  0
LWPOLYLINE
  5
3B4
100
AcDbEntity
  8
0
100
AcDbPolyline
 62
250
  6
CONTINUOUS
 90
34
 70
0
 10
4.8660727588
 20
12.249410221
 10
4.866231943
 20
12.2572477427
 10
4.8667091387
 20
12.2652514588
 10
4.8675032734
 20
12.2734033524
 10
4.8686125623
 20
12.2816850785
 10
4.8700345095
 20
12.2900779878
 10
4.8717659116
 20
12.2985631679
 10
4.87380287
 20
12.3071215138
 10
4.8761407994
 20
12.3157337612
 10
4.8787744327
 20
12.3243805106
 10
4.881697837
 20
12.3330422879
 10
4.8849044319
 20
12.3416996017
 10
4.8883870032
 20
12.3503329756
 10
4.892137721
 20
12.3589229966
 10
4.8961481329
 20
12.3674503039
 10
4.9004091825
 20
12.3758956464
 10
4.9049112421
 20
12.3842399593
 10
4.9096441998
 20
12.3924645164
 10
4.9145974644
 20
12.4005509125
 10
4.9197599654
 20
12.4084810537
 10
4.9251200156
 20
12.4162369665
 10
4.9306653843
 20
12.4238009645
 10
4.9363834597
 20
12.4311558885
 10
4.9422614684
 20
12.4382853508
 10
4.948286354
 20
12.4451735249
 10
4.9544447963
 20
12.4518051491
 10
4.9607227069
 20
12.4581650206
 10
4.9671054124
 20
12.4642383151
 10
4.9735794117
 20
12.4700121961
 10
4.980129249
 20
12.4754728895
 10
4.9867368923
 20
12.4806057269
 10
4.9933862963
 20
12.4853989731
 10
5.0000635494
 20
12.4898433237
 10
5.0067536379
 20
12.4939294144
  0
LWPOLYLINE
  5
3B5
100
AcDbEntity
  8
0
100
AcDbPolyline
 62
250
  6
CONTINUOUS
 90
16
 70
0
 10
5.463244792
 20
4.918756498
 10
5.3822320461
 20
4.2428914991
 10
5.3060422925
 20
3.5689423414
 10
5.2346811627
 20
2.896959782
 10
5.1681538544
 20
2.2269944971
 10
5.1064653609
 20
1.5590968656
 10
5.0496204726
 20
0.8933169656
 10
4.9976234074
 20
0.2297048696
 10
4.9504779948
 20
-0.4316894041
 10
4.9081879051
 20
-1.0908161082
 10
4.8707562846
 20
-1.7476255918
 10
4.8381858772
 20
-2.402068451
 10
4.8104792116
 20
-3.0540955755
 10
4.787638377
 20
-3.703657942
 10
4.7696650211
 20
-4.3507066178
 10
4.7565604725
 20
-4.9951929125
  0
LWPOLYLINE
  5
3B6
100
AcDbEntity
  8
0
100
AcDbPolyline
 62
250
  6
CONTINUOUS
 90
16
 70
0
 10
6.1602045072
 20
4.852315411
 10
6.0796255394
 20
4.1801270363
 10
6.0038537853
 20
3.5099437985
 10
5.9328892449
 20
2.8417656975
 10
5.8667272868
 20
2.1755426307
 10
5.8053725424
 20
1.5113247007
 10
5.748838906
 20
0.8492622159
 10
5.697127482
 20
0.1893557824
 10
5.650237166
 20
-0.4683952058
 10
5.6081785388
 20
-1.1238422588
 10
5.5709526892
 20
-1.7769850328
 10
5.5385585285
 20
-2.4278238715
 10
5.5110033704
 20
-3.0762113161
 10
5.488289653
 20
-3.7220982136
 10
5.4704149382
 20
-4.3655337169
 10
5.4573792262
 20
-5.0065178262
  0
LWPOLYLINE
  5
3B7
100
AcDbEntity
  8
0
100
AcDbPolyline
 62
250
  6
CONTINUOUS
 90
27
 70
0
 10
9.4117829169
 20
9.3978455178
 10
9.4073638312
 20
9.3871526908
 10
9.4025576946
 20
9.3767156583
 10
9.3973753581
 20
9.366557985
 10
9.3918285225
 20
9.3567026046
 10
9.3859297112
 20
9.3471717684
 10
9.3796922425
 20
9.3379869951
 10
9.3731301991
 20
9.3291690217
 10
9.3662583969
 20
9.3207377575
 10
9.3590923512
 20
9.3127122387
 10
9.3516482411
 20
9.3051105851
 10
9.3439428742
 20
9.2979499596
 10
9.3359936483
 20
9.29124653
 10
9.3278185111
 20
9.2850154311
 10
9.3194359205
 20
9.279270731
 10
9.3108648031
 20
9.2740254001
 10
9.3021245108
 20
9.269291281
 10
9.2932347773
 20
9.2650790619
 10
9.2842156735
 20
9.2613982527
 10
9.2750875628
 20
9.2582571636
 10
9.2658710543
 20
9.255662886
 10
9.2565869568
 20
9.2536212769
 10
9.2472562317
 20
9.2521369457
 10
9.2378999457
 20
9.2512132431
 10
9.2285392229
 20
9.2508522546
 10
9.2191951976
 20
9.2510547948
 10
9.2130802691
 20
9.2514939944
  0
LWPOLYLINE
  5
3B8
100
AcDbEntity
  8
ASSI
100
AcDbPolyline
 62
7
  6
CONTINUOUS
 90
17
 70
0
 10
-14.1183893878
 20
27.7049506229
 10
-14.1500376381
 20
27.7463931877
 10
-14.1827846431
 20
27.7849844575
 10
-14.2166304029
 20
27.8207244325
 10
-14.2518478383
 20
27.8538405568
 10
-14.2881640286
 20
27.8841053863
 10
-14.3247602104
 20
27.9108365882
 10
-14.3616427443
 20
27.9339538922
 10
-14.3988052697
 20
27.9535375686
 10
-14.4354099428
 20
27.9691460956
 10
-14.4714440913
 20
27.9806891732
 10
-14.5069203873
 20
27.9882571014
 10
-14.5410390037
 20
27.9916792581
 10
-14.5737690991
 20
27.9908614677
 10
-14.6051415148
 20
27.9858979058
 10
-14.634448947
 20
27.976900478
 10
-14.6617257169
 20
27.9637304898
  0
LINE
  5
3B9
100
AcDbEntity
  8
ASSI
100
AcDbLine
 62
7
  6
CONTINUOUS
 10
-14.605085133
 20
27.1833866909
 11
-14.5921941039
 21
27.165521124
  0
LINE
  5
3BA
100
AcDbEntity
  8
ASSI
100
AcDbLine
 62
7
  6
CONTINUOUS
 10
-14.2515317425
 20
27.3875239876
 11
-14.2360724278
 21
27.3660990557
  0
LINE
  5
3BB
100
AcDbEntity
  8
ASSI
100
AcDbLine
 62
7
  6
CONTINUOUS
 10
-13.9785472569
 20
27.5111446106
 11
-14.1183893878
 21
27.7049506229
  0
LINE
  5
3BC
100
AcDbEntity
  8
RACCORDO
100
AcDbLine
 62
7
  6
CONTINUOUS
 10
-13.7744002669
 20
28.1252725942
 11
-13.5183121217
 21
27.7703622256
  0
LINE
  5
3BD
100
AcDbEntity
  8
RACCORDO
100
AcDbLine
 62
7
  6
CONTINUOUS
 10
-13.4208468763
 20
28.3294098908
 11
-13.1621904455
 21
27.9709401573
  0
LWPOLYLINE
  5
3BE
100
AcDbEntity
  8
0
100
AcDbPolyline
 62
250
  6
CONTINUOUS
 90
40
 70
0
 10
6.4971113253
 20
5.3871979535
 10
6.4960725712
 20
5.4033497785
 10
6.4944727859
 20
5.4198118838
 10
6.4923145611
 20
5.436557599
 10
6.4896013936
 20
5.4535597939
 10
6.4863376788
 20
5.4707909231
 10
6.4825287044
 20
5.48822307
 10
6.4781806413
 20
5.5058279926
 10
6.4733005339
 20
5.5235771688
 10
6.4678962886
 20
5.5414418429
 10
6.4619766608
 20
5.5593930719
 10
6.455551241
 20
5.5774017729
 10
6.4486304391
 20
5.5954387695
 10
6.4412254677
 20
5.6134748396
 10
6.4333483236
 20
5.6314807629
 10
6.4250117688
 20
5.6494273674
 10
6.4162293094
 20
5.6672855776
 10
6.407015174
 20
5.6850264611
 10
6.3973842907
 20
5.7026212755
 10
6.3873522625
 20
5.7200415151
 10
6.3769353426
 20
5.7372589572
 10
6.3661504076
 20
5.7542457073
 10
6.3550149303
 20
5.770974245
 10
6.3435469515
 20
5.7874174681
 10
6.3317650507
 20
5.8035487364
 10
6.319688316
 20
5.8193419156
 10
6.3073363131
 20
5.8347714186
 10
6.2947290537
 20
5.849812248
 10
6.2818869631
 20
5.8644400358
 10
6.2688308469
 20
5.8786310831
 10
6.2555818577
 20
5.8923623989
 10
6.2421614603
 20
5.9056117367
 10
6.2285913974
 20
5.9183576311
 10
6.2148936542
 20
5.9305794321
 10
6.2010904225
 20
5.942257339
 10
6.1872040652
 20
5.9533724323
 10
6.1732570799
 20
5.963906704
 10
6.1592720625
 20
5.9738430875
 10
6.1452716701
 20
5.9831654845
 10
6.1312785853
 20
5.9918587918
  0
LWPOLYLINE
  5
3BF
100
AcDbEntity
  8
0
100
AcDbPolyline
 62
250
  6
CONTINUOUS
 90
18
 70
0
 10
6.7798417355
 20
10.7510149931
 10
6.7799277451
 20
10.747228925
 10
6.7805200124
 20
10.7403892063
 10
6.7816734668
 20
10.7335733955
 10
6.7833855152
 20
10.7267968307
 10
6.7856523063
 20
10.7200747676
 10
6.7884687408
 20
10.7134223358
 10
6.7918284814
 20
10.7068545105
 10
6.7957239651
 20
10.7003860805
 10
6.8001464239
 20
10.6940316068
 10
6.8050859051
 20
10.6878053918
 10
6.81053129
 20
10.6817214522
 10
6.8164703253
 20
10.6757934793
 10
6.8228896409
 20
10.6700348199
 10
6.8297747745
 20
10.6644584469
 10
6.8371102217
 20
10.6590769147
 10
6.8448794734
 20
10.6539023318
 10
6.8530650402
 20
10.6489463448
  0
LWPOLYLINE
  5
3C0
100
AcDbEntity
  8
0
100
AcDbPolyline
 62
250
  6
CONTINUOUS
 90
18
 70
0
 10
8.5260506328
 20
-29.888029459
 10
8.5262495835
 20
-29.8975958823
 10
8.5268459892
 20
-29.9069110431
 10
8.527838509
 20
-29.9159539727
 10
8.5292249117
 20
-29.924704321
 10
8.5310020779
 20
-29.9331423845
 10
8.5331660046
 20
-29.9412491536
 10
8.535711819
 20
-29.949006377
 10
8.5386337914
 20
-29.956396599
 10
8.5419253431
 20
-29.9634031835
 10
8.5455790651
 20
-29.9700103612
 10
8.5495867318
 20
-29.9762032599
 10
8.5539393184
 20
-29.9819679367
 10
8.5586270253
 20
-29.9872914174
 10
8.5636393002
 20
-29.9921617222
 10
8.568964858
 20
-29.9965678898
 10
8.5745917129
 20
-30.0005000067
 10
8.577821288
 20
-30.0024636742
  0
LWPOLYLINE
  5
3C1
100
AcDbEntity
  8
0
100
AcDbPolyline
 62
250
  6
CONTINUOUS
 90
19
 70
0
 10
8.5260506328
 20
9.4473179073
 10
8.5262182599
 20
9.4385277572
 10
8.5267211322
 20
9.4299439445
 10
8.5275587577
 20
9.4215830655
 10
8.5287301689
 20
9.4134603562
 10
8.5302335147
 20
9.4055926469
 10
8.5320656595
 20
9.3979980065
 10
8.5342230167
 20
9.3906915657
 10
8.5367017071
 20
9.383686687
 10
8.5394967503
 20
9.3769975745
 10
8.5426026132
 20
9.3706373013
 10
8.546013511
 20
9.3646175622
 10
8.5497231341
 20
9.3589495008
 10
8.5537245825
 20
9.3536437731
 10
8.5580101428
 20
9.3487107118
 10
8.5625714613
 20
9.3441599471
 10
8.5673997401
 20
9.340000206
 10
8.5724858581
 20
9.3362392986
 10
8.5778212674
 20
9.3328837038
  0
LINE
  5
3C2
100
AcDbEntity
  8
0
100
AcDbLine
 62
250
  6
CONTINUOUS
 10
6.1636156178
 20
17.7203387132
 11
6.1636156178
 21
18.9043522567
  0
LINE
  5
3C3
100
AcDbEntity
  8
0
100
AcDbLine
 62
7
  6
CONTINUOUS
 10
6.2794450773
 20
17.8824714739
 11
6.2794450773
 21
18.931469434
  0
LINE
  5
3C4
100
AcDbEntity
  8
0
100
AcDbLine
 62
7
  6
CONTINUOUS
 10
6.4130631941
 20
11.4069741042
 11
6.4130631941
 21
12.1194666714
  0
LINE
  5
3C5
100
AcDbEntity
  8
0
100
AcDbLine
 62
7
  6
CONTINUOUS
 10
6.4204680666
 20
11.4026986235
 11
6.4204680666
 21
11.816739976
  0
LINE
  5
3C6
100
AcDbEntity
  8
0
100
AcDbLine
 62
7
  6
CONTINUOUS
 10
6.7798417355
 20
10.7510149931
 11
6.7798417355
 21
10.5153474693
  0
LINE
  5
3C7
100
AcDbEntity
  8
0
100
AcDbLine
 62
250
  6
CONTINUOUS
 10
6.8530650402
 20
10.6489463448
 11
6.8530650402
 21
10.4132788209
  0
LINE
  5
3C8
100
AcDbEntity
  8
RACCORDO
100
AcDbLine
 62
7
  6
CONTINUOUS
 10
6.8763850381
 20
24.0243369546
 11
6.8763850381
 21
23.020552347
  0
LINE
  5
3C9
100
AcDbEntity
  8
0
100
AcDbLine
 62
7
  6
CONTINUOUS
 10
7.1238724115
 20
13.1602869139
 11
7.1238724115
 21
12.9969928585
  0
LINE
  5
3CA
100
AcDbEntity
  8
0
100
AcDbLine
 62
7
  6
CONTINUOUS
 10
7.4832460804
 20
9.9648776986
 11
7.4832460804
 21
9.5629796578
  0
LINE
  5
3CB
100
AcDbEntity
  8
0
100
AcDbLine
 62
250
  6
CONTINUOUS
 10
7.5564693851
 20
9.9225994801
 11
7.5564693851
 21
9.4577778286
  0
LINE
  5
3CC
100
AcDbEntity
  8
0
100
AcDbLine
 62
250
  6
CONTINUOUS
 10
8.5260506328
 20
-29.888029459
 11
8.5260506328
 21
-29.6523619351
  0
LINE
  5
3CD
100
AcDbEntity
  8
0
100
AcDbLine
 62
250
  6
CONTINUOUS
 10
8.5260506328
 20
9.4473179073
 11
8.5260506328
 21
9.6829854311
  0
LINE
  5
3CE
100
AcDbEntity
  8
0
100
AcDbLine
 62
250
  6
CONTINUOUS
 10
8.8786760038
 20
-29.8885624876
 11
8.8786760038
 21
-29.6528949638
  0
LINE
  5
3CF
100
AcDbEntity
  8
0
100
AcDbLine
 62
250
  6
CONTINUOUS
 10
8.8786760038
 20
9.4467848786
 11
8.8786760038
 21
9.6824524025
  0
LWPOLYLINE
  5
3D0
100
AcDbEntity
  8
0
100
AcDbPolyline
 62
250
  6
CONTINUOUS
 90
34
 70
0
 10
6.8530650402
 20
10.6489463448
 10
6.853263991
 20
10.6587425115
 10
6.8538603966
 20
10.6687463865
 10
6.8548529165
 20
10.6789354532
 10
6.8562393192
 20
10.6892867846
 10
6.8580164854
 20
10.6997770751
 10
6.8601804121
 20
10.7103826924
 10
6.8627262265
 20
10.7210797586
 10
6.8656481989
 20
10.731844201
 10
6.8689397506
 20
10.7426517869
 10
6.8725934726
 20
10.7534781911
 10
6.8766011393
 20
10.764299043
 10
6.8809537259
 20
10.7750899776
 10
6.8856414327
 20
10.7858267047
 10
6.8906537077
 20
10.796485059
 10
6.8959792655
 20
10.8070410472
 10
6.9016061204
 20
10.8174709152
 10
6.907521603
 20
10.8277511822
 10
6.9137123853
 20
10.8378586918
 10
6.920164512
 20
10.8477706687
 10
6.9268634745
 20
10.8574648336
 10
6.933794238
 20
10.8669194298
 10
6.940941272
 20
10.876113259
 10
6.9482884279
 20
10.8850255362
 10
6.9558190073
 20
10.8936360178
 10
6.963515948
 20
10.9019252338
 10
6.9713620165
 20
10.9098746622
 10
6.9793396933
 20
10.9174665666
 10
6.9874322478
 20
10.9246849173
 10
6.9956202723
 20
10.9315122963
 10
7.0038817439
 20
10.9379306463
 10
7.0121967888
 20
10.9439252329
 10
7.020547849
 20
10.9494840986
 10
7.0289161392
 20
10.9545953365
  0
LWPOLYLINE
  5
3D1
100
AcDbEntity
  8
0
100
AcDbPolyline
 62
250
  6
CONTINUOUS
 90
22
 70
0
 10
6.4971113253
 20
-29.7381953612
 10
6.496072571
 20
-29.7548553548
 10
6.4944727853
 20
-29.771151909
 10
6.49231456
 20
-29.7870586216
 10
6.4896013918
 20
-29.8025497218
 10
6.4863376762
 20
-29.8176001122
 10
6.4825287009
 20
-29.8321854094
 10
6.4781806368
 20
-29.8462819835
 10
6.4733005284
 20
-29.8598669964
 10
6.467896282
 20
-29.8729184386
 10
6.4619766531
 20
-29.8854151655
 10
6.4555512322
 20
-29.8973369307
 10
6.4486304293
 20
-29.9086644197
 10
6.4412254568
 20
-29.9193792805
 10
6.4333483118
 20
-29.9294641538
 10
6.425011756
 20
-29.9389027009
 10
6.4162292957
 20
-29.9476796303
 10
6.4070151596
 20
-29.9557807223
 10
6.3973842756
 20
-29.9631928522
 10
6.3873522469
 20
-29.9699040114
 10
6.3769353265
 20
-29.9759033271
 10
6.3727088994
 20
-29.9780794375
  0
LWPOLYLINE
  5
3D2
100
AcDbEntity
  8
0
100
AcDbPolyline
 62
7
  6
CONTINUOUS
 90
10
 70
0
 10
-0.5746917672
 20
-14.307798681
 10
-0.7850477366
 20
-14.6958223537
 10
-1.0498615869
 20
-15.1058255685
 10
-1.3405314303
 20
-15.4856879912
 10
-1.6546780243
 20
-15.8323003043
 10
-1.9924940606
 20
-16.1453895983
 10
-2.3537868474
 20
-16.4252287825
 10
-2.7355990666
 20
-16.6695272675
 10
-3.1380991369
 20
-16.8779933431
 10
-3.2136265172
 20
-16.9121368001
  0
LWPOLYLINE
  5
3D3
100
AcDbEntity
  8
0
100
AcDbPolyline
 62
250
  6
CONTINUOUS
 90
40
 70
0
 10
5.4573792262
 20
-5.0065178262
 10
5.4427847054
 20
-5.0140281986
 10
5.4276624107
 20
-5.0211972599
 10
5.4120363286
 20
-5.0280136389
 10
5.3959312447
 20
-5.0344665236
 10
5.3793727045
 20
-5.0405456786
 10
5.3623869726
 20
-5.0462414613
 10
5.3450009914
 20
-5.0515448373
 10
5.3272423378
 20
-5.0564473945
 10
5.3091391802
 20
-5.0609413566
 10
5.2907202333
 20
-5.0650195954
 10
5.2720147126
 20
-5.0686756422
 10
5.2530522884
 20
-5.0719036978
 10
5.2338630382
 20
-5.0746986419
 10
5.2144773994
 20
-5.0770560414
 10
5.1949261211
 20
-5.0789721569
 10
5.1752402148
 20
-5.0804439493
 10
5.1554509058
 20
-5.0814690839
 10
5.1355895833
 20
-5.0820459347
 10
5.1156877507
 20
-5.0821735869
 10
5.0957769757
 20
-5.0818518377
 10
5.0758888403
 20
-5.0810811978
 10
5.0560548903
 20
-5.0798628893
 10
5.0363065859
 20
-5.0781988447
 10
5.0166752511
 20
-5.0760917036
 10
4.9971920248
 20
-5.0735448081
 10
4.9778878104
 20
-5.0705621981
 10
4.9587932279
 20
-5.0671486046
 10
4.9399385645
 20
-5.063309442
 10
4.9213537269
 20
-5.0590507999
 10
4.9030681939
 20
-5.0543794333
 10
4.8851109694
 20
-5.0493027518
 10
4.8675105366
 20
-5.0438288078
 10
4.8502948128
 20
-5.0379662839
 10
4.8334911051
 20
-5.0317244791
 10
4.817126067
 20
-5.025113294
 10
4.8012256564
 20
-5.018143215
 10
4.7858150938
 20
-5.0108252979
 10
4.7709188232
 20
-5.0031711501
 10
4.7565604726
 20
-4.9951929124
  0
LINE
  5
3D4
100
AcDbEntity
  8
0
100
AcDbLine
 62
250
  6
CONTINUOUS
 10
-25.2660729251
 20
22.6614794191
 11
5.463244792
 21
4.918756498
  0
LINE
  5
3D5
100
AcDbEntity
  8
0
100
AcDbLine
 62
250
  6
CONTINUOUS
 10
-24.6095988176
 20
23.7412561305
 11
6.1312785853
 21
5.9918587918
  0
LWPOLYLINE
  5
3D6
100
AcDbEntity
  8
0
100
AcDbPolyline
 62
250
  6
CONTINUOUS
 90
4
 70
0
 10
-19.0174415145
 20
25.5432073123
 10
-19.0141406251
 20
25.5403976153
 10
-19.009995957
 20
25.5363787002
 10
-19.0060740618
 20
25.5320603875
  0
LWPOLYLINE
  5
3D7
100
AcDbEntity
  8
0
100
AcDbPolyline
 62
250
  6
CONTINUOUS
 90
16
 70
0
 10
-6.7024160691
 20
18.4280824636
 10
-6.6987241768
 20
18.4234745861
 10
-6.6952650107
 20
18.418582534
 10
-6.6920381463
 20
18.4134056859
 10
-6.6890475661
 20
18.4079484618
 10
-6.6862998944
 20
18.4022208281
 10
-6.6837994589
 20
18.3962295779
 10
-6.6815489405
 20
18.3899775139
 10
-6.6795547144
 20
18.3834784093
 10
-6.6778244373
 20
18.376757684
 10
-6.6763601353
 20
18.3698289464
 10
-6.6751622324
 20
18.3627012092
 10
-6.6742324957
 20
18.3553958686
 10
-6.6735704091
 20
18.3479287862
 10
-6.6731743388
 20
18.3403093645
 10
-6.6730427271
 20
18.3325502649
  0
LWPOLYLINE
  5
3D8
100
AcDbEntity
  8
0
100
AcDbPolyline
 62
250
  6
CONTINUOUS
 90
16
 70
0
 10
-3.0961714851
 20
16.3458820376
 10
-3.0924795927
 20
16.3412741601
 10
-3.0890204266
 20
16.3363821081
 10
-3.0857935623
 20
16.3312052599
 10
-3.0828029821
 20
16.3257480358
 10
-3.0800553104
 20
16.3200204021
 10
-3.0775548749
 20
16.3140291519
 10
-3.0753043565
 20
16.3077770879
 10
-3.0733101304
 20
16.3012779833
 10
-3.0715798533
 20
16.294557258
 10
-3.0701155512
 20
16.2876285205
 10
-3.0689176484
 20
16.2805007832
 10
-3.0679879116
 20
16.2731954426
 10
-3.0673258251
 20
16.2657283603
 10
-3.0669297548
 20
16.2581089385
 10
-3.066798143
 20
16.2503498389
  0
LWPOLYLINE
  5
3D9
100
AcDbEntity
  8
RACCORDO
100
AcDbPolyline
 62
7
  6
CONTINUOUS
 90
21
 70
0
 10
-13.4208468763
 20
28.3294098908
 10
-13.4834737972
 20
28.412416337
 10
-13.5481138369
 20
28.4911117492
 10
-13.6147669956
 20
28.5654961273
 10
-13.6837764584
 20
28.6358889785
 10
-13.75479904
 20
28.7019707957
 10
-13.8268051851
 20
28.7627830574
 10
-13.8998092799
 20
28.8182490056
 10
-13.9737969381
 20
28.8684453984
 10
-14.0476954454
 20
28.9126439886
 10
-14.1215035456
 20
28.9507573824
 10
-14.1952224949
 20
28.9828729736
 10
-14.2677833476
 20
29.0085246975
 10
-14.3391692565
 20
29.027618349
 10
-14.4093970689
 20
29.0402481331
 10
-14.4774483811
 20
29.0462306005
 10
-14.5432914896
 20
29.0454688595
 10
-14.6069580979
 20
29.0380598017
 10
-14.667524912
 20
29.024110653
 10
-14.7249467591
 20
29.0035260781
 10
-14.7792261604
 20
28.9764259916
  0
LWPOLYLINE
  5
3DA
100
AcDbEntity
  8
0
100
AcDbPolyline
 62
7
  6
CONTINUOUS
 90
40
 70
0
 10
-4.2139019233
 20
24.598308213
 10
-4.2048136209
 20
24.5813400718
 10
-4.1961457874
 20
24.564257606
 10
-4.1878984228
 20
24.5470608154
 10
-4.1800606015
 20
24.5297239794
 10
-4.1726432492
 20
24.5122728188
 10
-4.165679142
 20
24.4947844955
 10
-4.1591702863
 20
24.4772588467
 10
-4.1531146758
 20
24.4596960354
 10
-4.147539068
 20
24.4421737118
 10
-4.1424455874
 20
24.4246920563
 10
-4.1378321095
 20
24.4072508886
 10
-4.1337190189
 20
24.3899273176
 10
-4.1301085297
 20
24.3727218646
 10
-4.1269984278
 20
24.3556340083
 10
-4.1244024545
 20
24.3387392939
 10
-4.1223228849
 20
24.3220385765
 10
-4.1207574439
 20
24.305531001
 10
-4.1197130481
 20
24.2892895471
 10
-4.119192003
 20
24.2733153926
 10
-4.119192003
 20
24.2576073596
 10
-4.1197130481
 20
24.242234895
 10
-4.1207574439
 20
24.2271994832
 10
-4.1223228849
 20
24.2124996397
 10
-4.1244024545
 20
24.1982003572
 10
-4.1269984278
 20
24.1843034077
 10
-4.1301085297
 20
24.1708070191
 10
-4.1337190189
 20
24.1577708684
 10
-4.1378321095
 20
24.1451969914
 10
-4.1424455874
 20
24.1330833523
 10
-4.147539068
 20
24.1214835207
 10
-4.1531146758
 20
24.1103997691
 10
-4.1591702863
 20
24.099829825
 10
-4.165679142
 20
24.0898204397
 10
-4.1726432492
 20
24.0803740928
 10
-4.1800606015
 20
24.0714883047
 10
-4.1878984228
 20
24.0632023883
 10
-4.1961457874
 20
24.0555294477
 10
-4.2048136209
 20
24.0484563787
 10
-4.2139019233
 20
24.0419831813
  0
LWPOLYLINE
  5
3DB
100
AcDbEntity
  8
0
100
AcDbPolyline
 62
7
  6
CONTINUOUS
 90
4
 70
0
 10
6.2794450773
 20
18.931468336
 10
6.2793413313
 20
18.9323736562
 10
6.278645175
 20
18.9337043495
 10
6.2776558545
 20
18.9344922089
  0
LWPOLYLINE
  5
3DC
100
AcDbEntity
  8
0
100
AcDbPolyline
 62
250
  6
CONTINUOUS
 90
34
 70
0
 10
8.8786760038
 20
9.6824524025
 10
8.8784325023
 20
9.6922566894
 10
8.8777911015
 20
9.7022712563
 10
8.8767532531
 20
9.7124734122
 10
8.8753213062
 20
9.722840047
 10
8.8734985043
 20
9.7333476657
 10
8.8712889805
 20
9.7439724411
 10
8.8686977432
 20
9.7546902934
 10
8.8657306631
 20
9.7654769419
 10
8.8623944652
 20
9.7763079419
 10
8.858696709
 20
9.7871587531
 10
8.8546457744
 20
9.7980047873
 10
8.8502508447
 20
9.8088214605
 10
8.8455218804
 20
9.8195842621
 10
8.8404695976
 20
9.830268807
 10
8.8351054473
 20
9.8408508825
 10
8.8294415827
 20
9.8513065169
 10
8.8234908413
 20
9.8616120151
 10
8.8172667196
 20
9.8717440092
 10
8.8107833412
 20
9.881679517
 10
8.8040553823
 20
9.8913960571
 10
8.7970980439
 20
9.9008716767
 10
8.7899270208
 20
9.9100849878
 10
8.7825586229
 20
9.9190150236
 10
8.7750097064
 20
9.9276413676
 10
8.767297487
 20
9.9359443853
 10
8.7594393484
 20
9.9439053986
 10
8.7514529559
 20
9.9515065248
 10
8.7433551867
 20
9.9587315935
 10
8.7351655758
 20
9.965563069
 10
8.726906248
 20
9.9719827992
 10
8.718597182
 20
9.9779759565
 10
8.710256049
 20
9.9835304911
 10
8.7019017317
 20
9.9886344229
  0
LWPOLYLINE
  5
3DD
100
AcDbEntity
  8
0
100
AcDbPolyline
 62
250
  6
CONTINUOUS
 90
28
 70
0
 10
9.5894852212
 20
9.1458377305
 10
9.5892282747
 20
9.1613861131
 10
9.5884400815
 20
9.1766066355
 10
9.5871206415
 20
9.1914992976
 10
9.5852685311
 20
9.2060953685
 10
9.5828851739
 20
9.2203635791
 10
9.5799748414
 20
9.2342101223
 10
9.5765301781
 20
9.2476337738
 10
9.5725585394
 20
9.2606357579
 10
9.5680862633
 20
9.2731259412
 10
9.5631129525
 20
9.2850893453
 10
9.5576390043
 20
9.2965409486
 10
9.5516919479
 20
9.3074355524
 10
9.5452743948
 20
9.3177675414
 10
9.5383837337
 20
9.3275425309
 10
9.5310396599
 20
9.3367321682
 10
9.5232374643
 20
9.3453406345
 10
9.5149818561
 20
9.3533637486
 10
9.5063066578
 20
9.3607606134
 10
9.4972030859
 20
9.3675304469
 10
9.487679924
 20
9.3736740312
 10
9.4777973452
 20
9.3791528154
 10
9.4675491684
 20
9.3839592123
 10
9.4569415749
 20
9.3881008091
 10
9.4460532812
 20
9.391561817
 10
9.4349105265
 20
9.3943369729
 10
9.4234870717
 20
9.3964315399
 10
9.4117829169
 20
9.3978455178
  0
LWPOLYLINE
  5
3DE
100
AcDbEntity
  8
0
100
AcDbPolyline
 62
7
  6
CONTINUOUS
 90
40
 70
0
 10
11.1543810643
 20
8.2609745992
 10
11.1542961621
 20
8.2776858181
 10
11.1535890767
 20
8.2946668998
 10
11.1522624309
 20
8.3118912884
 10
11.1503124849
 20
8.3293242599
 10
11.1477510988
 20
8.3469460412
 10
11.144604792
 20
8.3647522221
 10
11.1408830043
 20
8.3827188838
 10
11.1365878086
 20
8.4008139203
 10
11.1317346775
 20
8.4190205495
 10
11.1263296259
 20
8.4373214572
 10
11.1203819882
 20
8.4556762708
 10
11.113915143
 20
8.4740331418
 10
11.1069484788
 20
8.4923467109
 10
11.0994884966
 20
8.5106037008
 10
11.0915406371
 20
8.5288001907
 10
11.0831098065
 20
8.5469239188
 10
11.0742162262
 20
8.5649283752
 10
11.0648895681
 20
8.5827587147
 10
11.0551567596
 20
8.6003689001
 10
11.0450255545
 20
8.6177492313
 10
11.0344978641
 20
8.6348995692
 10
11.0235794988
 20
8.651808339
 10
11.0122979591
 20
8.6684306054
 10
11.0006882547
 20
8.6847168613
 10
10.9887809282
 20
8.7006272856
 10
10.976585876
 20
8.7161516316
 10
10.9641080686
 20
8.7312855034
 10
10.9513552211
 20
8.7460173744
 10
10.9383596348
 20
8.7603080215
 10
10.925163771
 20
8.7741129862
 10
10.9117993125
 20
8.7874015663
 10
10.8982791037
 20
8.8001638076
 10
10.884618283
 20
8.812388839
 10
10.8708308773
 20
8.8240637341
 10
10.856947396
 20
8.8351629174
 10
10.8430078853
 20
8.8456588285
 10
10.8290408694
 20
8.8555337631
 10
10.8150630505
 20
8.8647777819
 10
10.8010967984
 20
8.873378496
  0
LINE
  5
3DF
100
AcDbEntity
  8
0
100
AcDbLine
 62
250
  6
CONTINUOUS
 10
9.2368598502
 20
8.4875414343
 11
9.2368598502
 21
9.1463707591
  0
LINE
  5
3E0
100
AcDbEntity
  8
0
100
AcDbLine
 62
250
  6
CONTINUOUS
 10
9.5894852212
 20
-28.5396741096
 11
9.5894852212
 21
-28.3757986555
  0
LINE
  5
3E1
100
AcDbEntity
  8
0
100
AcDbLine
 62
250
  6
CONTINUOUS
 10
9.5894852212
 20
8.4976497433
 11
9.5894852212
 21
9.1458377305
  0
LINE
  5
3E2
100
AcDbEntity
  8
0
100
AcDbLine
 62
7
  6
CONTINUOUS
 10
9.6015777225
 20
18.4958209862
 11
9.6015777225
 21
18.0990270878
  0
LINE
  5
3E3
100
AcDbEntity
  8
0
100
AcDbLine
 62
7
  6
CONTINUOUS
 10
10.4789271859
 20
-28.1493187474
 11
10.4789271859
 21
-27.9327663697
  0
LINE
  5
3E4
100
AcDbEntity
  8
0
100
AcDbLine
 62
7
  6
CONTINUOUS
 10
10.4789271859
 20
9.0593951925
 11
10.4789271859
 21
9.7718877598
  0
LINE
  5
3E5
100
AcDbEntity
  8
0
100
AcDbLine
 62
7
  6
CONTINUOUS
 10
11.1543810643
 20
8.2611752673
 11
11.1543810643
 21
5.5259860229
  0
LINE
  5
3E6
100
AcDbEntity
  8
0
100
AcDbLine
 62
7
  6
CONTINUOUS
 10
11.1543810643
 20
-27.4186034628
 11
11.1543810643
 21
-24.6834142184
  0
LINE
  5
3E7
100
AcDbEntity
  8
0
100
AcDbLine
 62
7
  6
CONTINUOUS
 10
11.1897364034
 20
11.0168283694
 11
11.1897364034
 21
10.6494139469
  0
LINE
  5
3E8
100
AcDbEntity
  8
0
100
AcDbLine
 62
7
  6
CONTINUOUS
 10
11.1897364034
 20
-28.2145712284
 11
11.1897364034
 21
-28.581985651
  0
LINE
  5
3E9
100
AcDbEntity
  8
0
100
AcDbLine
 62
250
  6
CONTINUOUS
 10
11.7650577617
 20
14.4849916017
 11
11.7650577617
 21
14.9414410302
  0
LINE
  5
3EA
100
AcDbEntity
  8
0
100
AcDbLine
 62
250
  6
CONTINUOUS
 10
11.7650577617
 20
15.2467482467
 11
11.7650577617
 21
15.6692306986
  0
LWPOLYLINE
  5
3EB
100
AcDbEntity
  8
0
100
AcDbPolyline
 62
7
  6
CONTINUOUS
 90
21
 70
0
 10
11.1543810643
 20
-27.4184027948
 10
11.1542961621
 20
-27.4345607021
 10
11.1535890767
 20
-27.4503874396
 10
11.1522624309
 20
-27.4658567715
 10
11.1503124849
 20
-27.4809443566
 10
11.1477510988
 20
-27.4956241548
 10
11.144604792
 20
-27.5098676964
 10
11.1408830043
 20
-27.5236495076
 10
11.1365878086
 20
-27.5369472662
 10
11.1317346775
 20
-27.5497371317
 10
11.1263296259
 20
-27.5620025651
 10
11.1203819882
 20
-27.5737153066
 10
11.113915143
 20
-27.5848370997
 10
11.1069484788
 20
-27.5953410413
 10
11.0994884966
 20
-27.605221493
 10
11.0915406371
 20
-27.6144736383
 10
11.0831098065
 20
-27.6230882841
 10
11.0742162262
 20
-27.6310409691
 10
11.0648895681
 20
-27.6383060633
 10
11.0551567596
 20
-27.6448667402
 10
11.0519249093
 20
-27.6468367393
  0
LWPOLYLINE
  5
3EC
100
AcDbEntity
  8
0
100
AcDbPolyline
 62
250
  6
CONTINUOUS
 90
27
 70
0
 10
9.2365039234
 20
-28.5516191333
 10
9.2363321676
 20
-28.5551175168
 10
9.235670081
 20
-28.5633332786
 10
9.2347403443
 20
-28.5716899681
 10
9.2335424414
 20
-28.5801723368
 10
9.2320781394
 20
-28.588757
 10
9.2303478623
 20
-28.5974343671
 10
9.2283536362
 20
-28.6061885783
 10
9.2261031178
 20
-28.6149856883
 10
9.2236026822
 20
-28.6238045571
 10
9.2208550106
 20
-28.6326392911
 10
9.2178644304
 20
-28.6414784312
 10
9.214637566
 20
-28.650304393
 10
9.2111783999
 20
-28.659108126
 10
9.2074865076
 20
-28.667890978
 10
9.2035646123
 20
-28.6766443568
 10
9.1994199443
 20
-28.6853501376
 10
9.195058234
 20
-28.6939952535
 10
9.1904826125
 20
-28.7025715541
 10
9.1857020193
 20
-28.711060501
 10
9.1807324556
 20
-28.7194340594
 10
9.1755814076
 20
-28.7276805156
 10
9.1702575521
 20
-28.7357869371
 10
9.1647811473
 20
-28.743725229
 10
9.1591658466
 20
-28.7514794726
 10
9.153417496
 20
-28.7590449867
 10
9.1475458339
 20
-28.7664120434
  0
LWPOLYLINE
  5
3ED
100
AcDbEntity
  8
0
100
AcDbPolyline
 62
7
  6
CONTINUOUS
 90
7
 70
0
 10
-2.115474969
 20
-16.5403010345
 10
-2.2437101502
 20
-16.6504293683
 10
-2.3746614126
 20
-16.7555309988
 10
-2.5083486653
 20
-16.8556167729
 10
-2.6448428061
 20
-16.95073665
 10
-2.7841114807
 20
-17.0408619277
 10
-2.9211255996
 20
-17.1230639898
  0
LWPOLYLINE
  5
3EE
100
AcDbEntity
  8
0
100
AcDbPolyline
 62
250
  6
CONTINUOUS
 90
27
 70
0
 10
8.679973356
 20
9.3004333552
 10
8.686093941
 20
9.2999938621
 10
8.6954387748
 20
9.2997916703
 10
8.7048002822
 20
9.3001531017
 10
8.7141573343
 20
9.3010773396
 10
8.7234888013
 20
9.3025622968
 10
8.7327736111
 20
9.30460462
 10
8.7419907974
 20
9.3071996974
 10
8.7511195468
 20
9.3103416688
 10
8.7601392516
 20
9.3140234421
 10
8.7690295374
 20
9.3182367012
 10
8.7777703098
 20
9.3229719211
 10
8.7863418198
 20
9.328218398
 10
8.7947247257
 20
9.3339642876
 10
8.8029001163
 20
9.3401966257
 10
8.8108495886
 20
9.3469013903
 10
8.8185551304
 20
9.3540633966
 10
8.8259991949
 20
9.3616663153
 10
8.833164896
 20
9.369692843
 10
8.8400361721
 20
9.3781249299
 10
8.8465976548
 20
9.3869436933
 10
8.852835021
 20
9.3961299802
 10
8.8587336417
 20
9.4056623473
 10
8.8642789999
 20
9.4155170357
 10
8.8694584473
 20
9.4256708261
 10
8.8742609731
 20
9.4361013397
 10
8.8786760038
 20
9.4467848786
  0
LINE
  5
3EF
100
AcDbEntity
  8
0
100
AcDbLine
 62
7
  6
CONTINUOUS
 10
9.2130802691
 20
9.2514939944
 11
8.679973356
 21
9.3004333552
  0
LINE
  5
3F0
100
AcDbEntity
  8
0
100
AcDbLine
 62
7
  6
CONTINUOUS
 10
9.2130802691
 20
9.2514939944
 11
9.2130429482
 21
9.2514974251
  0
LINE
  5
3F1
100
AcDbEntity
  8
0
100
AcDbLine
 62
250
  6
CONTINUOUS
 10
9.4117829169
 20
9.3978455178
 11
8.8786760038
 21
9.4467848786
  0
LINE
  5
3F2
100
AcDbEntity
  8
0
100
AcDbLine
 62
7
  6
CONTINUOUS
 10
12.5932798162
 20
6.040350813
 11
12.5562529719
 21
6.0617296489
  0
LWPOLYLINE
  5
3F3
100
AcDbEntity
  8
0
100
AcDbPolyline
 62
250
  6
CONTINUOUS
 90
18
 70
0
 10
-21.3604955291
 20
26.7034350947
 10
-21.368680564
 20
26.708390744
 10
-21.3764493295
 20
26.713564953
 10
-21.3837843412
 20
26.7189460768
 10
-21.3906690836
 20
26.7245219981
 10
-21.3970880708
 20
26.7302801742
 10
-21.4030268766
 20
26.7362076669
 10
-21.4084721421
 20
26.7422911522
 10
-21.4134115926
 20
26.7485169263
 10
-21.417834091
 20
26.7548709563
 10
-21.42172968
 20
26.7613389341
 10
-21.4250895973
 20
26.76790631
 10
-21.4279062811
 20
26.7745583031
 10
-21.430173392
 20
26.7812799423
 10
-21.4318858278
 20
26.7880560997
 10
-21.4330397345
 20
26.7948715251
 10
-21.4336325154
 20
26.8017108845
 10
-21.4337188338
 20
26.805503743
  0
LWPOLYLINE
  5
3F4
100
AcDbEntity
  8
0
100
AcDbPolyline
 62
250
  6
CONTINUOUS
 90
19
 70
0
 10
-21.3087248738
 20
26.5890008794
 10
-21.3140307644
 20
26.5923363236
 10
-21.3191186983
 20
26.5960952545
 10
-21.3239486186
 20
26.6002529489
 10
-21.3285110855
 20
26.6048011813
 10
-21.3327977209
 20
26.6097314949
 10
-21.3368005935
 20
26.6150347746
 10
-21.3405121746
 20
26.6207011532
 10
-21.3439252273
 20
26.6267196979
 10
-21.3470330846
 20
26.633078672
 10
-21.349829789
 20
26.6397658104
 10
-21.3523100944
 20
26.6467684861
 10
-21.3544693192
 20
26.6540734475
 10
-21.3563033633
 20
26.6616668248
 10
-21.3578087232
 20
26.6695341135
 10
-21.3589825306
 20
26.6776602973
 10
-21.3598225556
 20
26.6860298848
 10
-21.3603272067
 20
26.6946269427
 10
-21.3604955291
 20
26.7034350947
  0
LWPOLYLINE
  5
3F5
100
AcDbEntity
  8
0
100
AcDbPolyline
 62
250
  6
CONTINUOUS
 90
19
 70
0
 10
-9.0050668812
 20
19.4850229555
 10
-9.0103727718
 20
19.4883583997
 10
-9.0154607056
 20
19.4921173306
 10
-9.020290626
 20
19.496275025
 10
-9.0248530929
 20
19.5008232574
 10
-9.0291397283
 20
19.505753571
 10
-9.0331426009
 20
19.5110568507
 10
-9.0368541819
 20
19.5167232292
 10
-9.0402672346
 20
19.522741774
 10
-9.043375092
 20
19.5291007481
 10
-9.0461717963
 20
19.5357878865
 10
-9.0486521017
 20
19.5427905622
 10
-9.0508113265
 20
19.5500955236
 10
-9.0526453707
 20
19.5576889009
 10
-9.0541507305
 20
19.5655561896
 10
-9.055324538
 20
19.5736823734
 10
-9.056164563
 20
19.5820519609
 10
-9.056669214
 20
19.5906490188
 10
-9.0568375365
 20
19.5994571708
  0
LWPOLYLINE
  5
3F6
100
AcDbEntity
  8
0
100
AcDbPolyline
 62
250
  6
CONTINUOUS
 90
4
 70
0
 10
-6.7137835218
 20
18.4392293884
 10
-6.7104826324
 20
18.4364196914
 10
-6.7063379644
 20
18.4324007763
 10
-6.7024160691
 20
18.4280824636
  0
LWPOLYLINE
  5
3F7
100
AcDbEntity
  8
0
100
AcDbPolyline
 62
250
  6
CONTINUOUS
 90
4
 70
0
 10
-3.1075389378
 20
16.3570289625
 10
-3.1042380484
 20
16.3542192654
 10
-3.1000933803
 20
16.3502003503
 10
-3.0961714851
 20
16.3458820376
  0
LINE
  5
3F8
100
AcDbEntity
  8
0
100
AcDbLine
 62
7
  6
CONTINUOUS
 10
11.8553170181
 20
-27.002015826
 11
11.8553170181
 21
-24.3195254087
  0
LINE
  5
3F9
100
AcDbEntity
  8
0
100
AcDbLine
 62
7
  6
CONTINUOUS
 10
11.8553170181
 20
5.9857723166
 11
11.8553170181
 21
8.6682627339
  0
LINE
  5
3FA
100
AcDbEntity
  8
0
100
AcDbLine
 62
7
  6
CONTINUOUS
 10
11.8818772668
 20
14.6476973426
 11
11.8818772668
 21
15.6966953028
  0
LINE
  5
3FB
100
AcDbEntity
  8
0
100
AcDbLine
 62
7
  6
CONTINUOUS
 10
12.5562529719
 20
6.4047350965
 11
12.5562529719
 21
6.0617296489
  0
LINE
  5
3FC
100
AcDbEntity
  8
0
100
AcDbLine
 62
7
  6
CONTINUOUS
 10
12.5562529719
 20
-23.6212410484
 11
12.5562529719
 21
-23.9148130851
  0
LINE
  5
3FD
100
AcDbEntity
  8
0
100
AcDbLine
 62
7
  6
CONTINUOUS
 10
12.5932798162
 20
6.040350813
 11
12.5932798162
 21
-23.5931864734
  0
LWPOLYLINE
  5
3FE
100
AcDbEntity
  8
0
100
AcDbPolyline
 62
7
  6
CONTINUOUS
 90
15
 70
0
 10
-2.9211255996
 20
-17.1230639898
 10
-3.0705937523
 20
-17.2058146495
 10
-3.2178467546
 20
-17.280664524
 10
-3.3676352656
 20
-17.3503481749
 10
-3.5199956132
 20
-17.4148740374
 10
-3.6749308004
 20
-17.4742566771
 10
-3.8322483096
 20
-17.5284189543
 10
-3.9919447033
 20
-17.5773584648
 10
-4.1540625979
 20
-17.6211010949
 10
-4.318479737
 20
-17.6596130233
 10
-4.4852557792
 20
-17.6929063501
 10
-4.6543684406
 20
-17.7209918349
 10
-4.8255734517
 20
-17.7438343433
 10
-4.9988484548
 20
-17.7614336149
 10
-5.1573049493
 20
-17.7726165057
  0
LWPOLYLINE
  5
3FF
100
AcDbEntity
  8
RACCORDO
100
AcDbPolyline
 62
250
  6
CONTINUOUS
 90
50
 70
0
 10
-14.2740021479
 20
-21.8076451914
 10
-14.1533229137
 20
-21.752141112
 10
-13.8082949101
 20
-21.5689250012
 10
-13.4800264623
 20
-21.3568447102
 10
-13.1693161903
 20
-21.1164161868
 10
-12.8769203262
 20
-20.8482243498
 10
-12.6035514895
 20
-20.5529225574
 10
-12.3498760698
 20
-20.2312306718
 10
-12.1165121193
 20
-19.8839327982
 10
-11.9040273711
 20
-19.5118742177
 10
-11.7129386836
 20
-19.1159599376
 10
-11.5437111847
 20
-18.6971531778
 10
-11.3967574354
 20
-18.2564744166
 10
-11.2724357057
 20
-17.7949980242
 10
-11.1710488121
 20
-17.31384879
 10
-11.09284329
 20
-16.8141976086
 10
-11.038009357
 20
-16.2972597676
 10
-11.0066806059
 20
-15.76429298
 10
-10.9989335566
 20
-15.2165960147
 10
-11.0147870974
 20
-14.6555041748
 10
-11.0542024247
 20
-14.0823849599
 10
-11.1170834634
 20
-13.4986329999
 10
-11.2032772637
 20
-12.9056681811
 10
-11.3125742478
 20
-12.3049333201
 10
-11.4447082181
 20
-11.6978923526
 10
-11.5993570548
 20
-11.0860251514
 10
-11.7761437498
 20
-10.4708227972
 10
-11.9746379639
 20
-9.8537823536
 10
-12.1943568294
 20
-9.2364048565
 10
-12.4347657757
 20
-8.6201927274
 10
-12.6952791064
 20
-8.0066475397
 10
-12.9752618345
 20
-7.3972647851
 10
-13.2740316467
 20
-6.7935292658
 10
-13.5908613258
 20
-6.1969102598
 10
-13.924979993
 20
-5.6088593942
 10
-14.2755745369
 20
-5.03080794
 10
-14.6417908244
 20
-4.464164351
 10
-15.0227363801
 20
-3.9103095517
 10
-15.4174830085
 20
-3.370592886
 10
-15.8250698657
 20
-2.8463279174
 10
-16.2445051609
 20
-2.3387903541
 10
-16.6747680336
 20
-1.8492156283
 10
-17.1148102815
 20
-1.3787965738
 10
-17.5635596337
 20
-0.9286794944
 10
-18.0199229834
 20
-0.4999607415
 10
-18.4827893031
 20
-0.0936839559
 10
-18.9510316412
 20
0.2891617275
 10
-19.4235098241
 20
0.6476440879
 10
-19.8990732239
 20
0.9808901231
 10
-20.3765637703
 20
1.2880883448
  0
LINE
  5
400
100
AcDbEntity
  8
0
100
AcDbLine
 62
7
  6
CONTINUOUS
 10
-3.2135353402
 20
-16.9123086596
 11
-14.2740021479
 21
-21.8076451914
  0
LWPOLYLINE
  5
401
100
AcDbEntity
  8
0
100
AcDbPolyline
 62
7
  6
CONTINUOUS
 90
32
 70
0
 10
5.7076895917
 20
12.9100420336
 10
5.7009859532
 20
12.9099567259
 10
5.6942497968
 20
12.9097802915
 10
5.6874831387
 20
12.9095099769
 10
5.680685038
 20
12.909141706
 10
5.6738606789
 20
12.9086740499
 10
5.6670213589
 20
12.9081083599
 10
5.6601697121
 20
12.9074420093
 10
5.6533077181
 20
12.9066725077
 10
5.6464457681
 20
12.905801614
 10
5.6395866519
 20
12.9048268616
 10
5.6327325395
 20
12.9037458869
 10
5.6258929768
 20
12.9025606829
 10
5.6190709497
 20
12.9012689046
 10
5.6122687801
 20
12.8998682794
 10
5.6054951359
 20
12.8983608462
 10
5.5987529188
 20
12.8967442565
 10
5.5920449242
 20
12.8950163398
 10
5.5853798224
 20
12.8931792204
 10
5.5787608467
 20
12.8912306201
 10
5.5721908919
 20
12.8891683784
 10
5.5656783449
 20
12.8869945026
 10
5.5592265995
 20
12.8847066791
 10
5.552838911
 20
12.882302772
 10
5.5465237731
 20
12.8797846226
 10
5.5402847904
 20
12.8771498398
 10
5.5341256455
 20
12.8743962877
 10
5.5280553752
 20
12.871525627
 10
5.522077853
 20
12.8685353566
 10
5.5161972769
 20
12.8654233306
 10
5.5104237294
 20
12.8621910541
 10
5.5073859316
 20
12.8604148415
  0
LWPOLYLINE
  5
402
100
AcDbEntity
  8
0
100
AcDbPolyline
 62
250
  6
CONTINUOUS
 90
18
 70
0
 10
5.0067536379
 20
12.4939294144
 10
4.9999671109
 20
12.4975957335
 10
4.993197634
 20
12.5008848292
 10
4.9864605413
 20
12.503789251
 10
4.9797710936
 20
12.5063024199
 10
4.9731444439
 20
12.5084186431
 10
4.9665956027
 20
12.5101331269
 10
4.9601394044
 20
12.5114419878
 10
4.9537904735
 20
12.5123422608
 10
4.9475631916
 20
12.5128319068
 10
4.9414716645
 20
12.5129098165
 10
4.9355296909
 20
12.5125758134
 10
4.9297507303
 20
12.5118306543
 10
4.9241478733
 20
12.5106760269
 10
4.9187338113
 20
12.5091145468
 10
4.9135208083
 20
12.5071497509
 10
4.9085206726
 20
12.50478609
 10
4.9053987186
 20
12.5030434233
  0
LWPOLYLINE
  5
403
100
AcDbEntity
  8
0
100
AcDbPolyline
 62
250
  6
CONTINUOUS
 90
18
 70
0
 10
-10.9031489388
 20
21.6801077643
 10
-10.9099354658
 20
21.6837740834
 10
-10.9167049427
 20
21.687063179
 10
-10.9234420354
 20
21.6899676009
 10
-10.9301314831
 20
21.6924807698
 10
-10.9367581328
 20
21.694596993
 10
-10.943306974
 20
21.6963114768
 10
-10.9497631723
 20
21.6976203377
 10
-10.9561121032
 20
21.6985206107
 10
-10.9623393851
 20
21.6990102566
 10
-10.9684309122
 20
21.6990881663
 10
-10.9743728858
 20
21.6987541633
 10
-10.9801518464
 20
21.6980090042
 10
-10.9857547034
 20
21.6968543768
 10
-10.9911687654
 20
21.6952928967
 10
-10.9963817684
 20
21.6933281008
 10
-11.0013819041
 20
21.6909644399
 10
-11.0045038581
 20
21.6892217732
  0
LWPOLYLINE
  5
404
100
AcDbEntity
  8
0
100
AcDbPolyline
 62
250
  6
CONTINUOUS
 90
18
 70
0
 10
3.9491788798
 20
13.9253840793
 10
3.9423923542
 20
13.9290503977
 10
3.9356228783
 20
13.9323394929
 10
3.9288857863
 20
13.9352439146
 10
3.9221963388
 20
13.9377570836
 10
3.9155696889
 20
13.9398733071
 10
3.9090208474
 20
13.9415877912
 10
3.9025646487
 20
13.9428966523
 10
3.8962157173
 20
13.9437969255
 10
3.889988435
 20
13.9442865716
 10
3.883896908
 20
13.9443644814
 10
3.8779549345
 20
13.9440304785
 10
3.8721759739
 20
13.9432853195
 10
3.8665731164
 20
13.9421306921
 10
3.8611590537
 20
13.9405692118
 10
3.8559460502
 20
13.9386044158
 10
3.8509459142
 20
13.9362407547
 10
3.8478239605
 20
13.9344980882
  0
LWPOLYLINE
  5
405
100
AcDbEntity
  8
0
100
AcDbPolyline
 62
250
  6
CONTINUOUS
 90
18
 70
0
 10
-11.9607236969
 20
23.1115624292
 10
-11.9675102225
 20
23.1152287475
 10
-11.9742796984
 20
23.1185178428
 10
-11.9810167904
 20
23.1214222645
 10
-11.9877062379
 20
23.1239354335
 10
-11.9943328878
 20
23.126051657
 10
-12.0008817293
 20
23.1277661411
 10
-12.007337928
 20
23.1290750021
 10
-12.0136868594
 20
23.1299752754
 10
-12.0199141417
 20
23.1304649215
 10
-12.0260056687
 20
23.1305428313
 10
-12.0319476422
 20
23.1302088284
 10
-12.0377266028
 20
23.1294636693
 10
-12.0433294603
 20
23.128309042
 10
-12.048743523
 20
23.1267475617
 10
-12.0539565265
 20
23.1247827657
 10
-12.0589566625
 20
23.1224191046
 10
-12.0620786162
 20
23.120676438
  0
LWPOLYLINE
  5
406
100
AcDbEntity
  8
0
100
AcDbPolyline
 62
250
  6
CONTINUOUS
 90
18
 70
0
 10
7.0289161392
 20
10.9545953365
 10
7.020462036
 20
10.9591955335
 10
7.0120291801
 20
10.963324151
 10
7.003636674
 20
10.9669718367
 10
6.9953035287
 20
10.9701303278
 10
6.9870486208
 20
10.9727924696
 10
6.9788906497
 20
10.9749522315
 10
6.9708480952
 20
10.9766047213
 10
6.9629391756
 20
10.9777461956
 10
6.9551818065
 20
10.9783740688
 10
6.9475935603
 20
10.9784869185
 10
6.9401916261
 20
10.9780844891
 10
6.9329927712
 20
10.9771676922
 10
6.9260133026
 20
10.9757386046
 10
6.9192690307
 20
10.9738004635
 10
6.9127752327
 20
10.9713576592
 10
6.9065466188
 20
10.9684157254
 10
6.9028774669
 20
10.9663753295
  0
LWPOLYLINE
  5
407
100
AcDbEntity
  8
0
100
AcDbPolyline
 62
250
  6
CONTINUOUS
 90
18
 70
0
 10
-5.2747418535
 20
18.0585732604
 10
-5.2831959567
 20
18.0631734574
 10
-5.2916288125
 20
18.0673020749
 10
-5.3000213187
 20
18.0709497606
 10
-5.3083544639
 20
18.0741082517
 10
-5.3166093718
 20
18.0767703935
 10
-5.3247673429
 20
18.0789301554
 10
-5.3328098974
 20
18.0805826452
 10
-5.3407188171
 20
18.0817241195
 10
-5.3484761861
 20
18.0823519927
 10
-5.3560644324
 20
18.0824648424
 10
-5.3634663666
 20
18.082062413
 10
-5.3706652215
 20
18.0811456161
 10
-5.37764469
 20
18.0797165285
 10
-5.384388962
 20
18.0777783874
 10
-5.3908827599
 20
18.0753355831
 10
-5.3971113738
 20
18.0723936493
 10
-5.4007805257
 20
18.0703532534
  0
LWPOLYLINE
  5
408
100
AcDbEntity
  8
0
100
AcDbPolyline
 62
250
  6
CONTINUOUS
 90
18
 70
0
 10
-8.8809864375
 20
20.1407736864
 10
-8.8894405407
 20
20.1453738833
 10
-8.8978733966
 20
20.1495025008
 10
-8.9062659027
 20
20.1531501866
 10
-8.914599048
 20
20.1563086777
 10
-8.9228539559
 20
20.1589708194
 10
-8.931011927
 20
20.1611305814
 10
-8.9390544815
 20
20.1627830712
 10
-8.9469634011
 20
20.1639245455
 10
-8.9547207702
 20
20.1645524186
 10
-8.9623090164
 20
20.1646652683
 10
-8.9697109506
 20
20.1642628389
 10
-8.9769098055
 20
20.163346042
 10
-8.9838892741
 20
20.1619169544
 10
-8.990633546
 20
20.1599788133
 10
-8.997127344
 20
20.1575360091
 10
-9.0033559579
 20
20.1545940753
 10
-9.0070251098
 20
20.1525536794
  0
LWPOLYLINE
  5
409
100
AcDbEntity
  8
0
100
AcDbPolyline
 62
250
  6
CONTINUOUS
 90
18
 70
0
 10
-21.1846444302
 20
27.2447516103
 10
-21.1930985334
 20
27.2493518072
 10
-21.2015313892
 20
27.2534804247
 10
-21.2099238954
 20
27.2571281105
 10
-21.2182570406
 20
27.2602866016
 10
-21.2265119485
 20
27.2629487433
 10
-21.2346699196
 20
27.2651085053
 10
-21.2427124741
 20
27.2667609951
 10
-21.2506213938
 20
27.2679024694
 10
-21.2583787628
 20
27.2685303425
 10
-21.2659670091
 20
27.2686431922
 10
-21.2733689433
 20
27.2682407628
 10
-21.2805677982
 20
27.267323966
 10
-21.2875472667
 20
27.2658948783
 10
-21.2942915387
 20
27.2639567372
 10
-21.3007853366
 20
27.261513933
 10
-21.3070139505
 20
27.2585719992
 10
-21.3106831024
 20
27.2565316033
  0
LWPOLYLINE
  5
40A
100
AcDbEntity
  8
0
100
AcDbPolyline
 62
250
  6
CONTINUOUS
 90
34
 70
0
 10
9.2368598482
 20
9.1463707603
 10
9.2454420855
 20
9.1416451628
 10
9.2544028009
 20
9.1371598779
 10
9.2637218307
 20
9.1329249985
 10
9.2733782045
 20
9.1289500543
 10
9.2833501934
 20
9.1252439896
 10
9.293615359
 20
9.1218151439
 10
9.3041506022
 20
9.1186712329
 10
9.3149322163
 20
9.1158193313
 10
9.3259359405
 20
9.1132658566
 10
9.3371370138
 20
9.1110165547
 10
9.3485102313
 20
9.1090764874
 10
9.3600300008
 20
9.1074500203
 10
9.3716704002
 20
9.1061408135
 10
9.3834052357
 20
9.1051518132
 10
9.3952081014
 20
9.1044852452
 10
9.4070524379
 20
9.1041426094
 10
9.4189115926
 20
9.1041246772
 10
9.4307588796
 20
9.104431489
 10
9.4425676397
 20
9.1050623547
 10
9.4543113001
 20
9.1060158549
 10
9.4659634336
 20
9.107289844
 10
9.4774978203
 20
9.1088814555
 10
9.4888885045
 20
9.1107871078
 10
9.5001098532
 20
9.1130025128
 10
9.5111366152
 20
9.1155226851
 10
9.5219439778
 20
9.1183419538
 10
9.5325076212
 20
9.1214539748
 10
9.5428037744
 20
9.1248517451
 10
9.5528092687
 20
9.128527619
 10
9.562501589
 20
9.1324733248
 10
9.5718589253
 20
9.1366799837
 10
9.5808602211
 20
9.1411381296
 10
9.5894852212
 20
9.1458377305
  0
LWPOLYLINE
  5
40B
100
AcDbEntity
  8
0
100
AcDbPolyline
 62
250
  6
CONTINUOUS
 90
34
 70
0
 10
8.5260506328
 20
9.6829854311
 10
8.534618735
 20
9.6782672559
 10
8.543567977
 20
9.6737867668
 10
8.5528787331
 20
9.6695543315
 10
8.5625318991
 20
9.6655792423
 10
8.5725048926
 20
9.6618713857
 10
8.5827712715
 20
9.6584408366
 10
8.5933063694
 20
9.6552957556
 10
8.6040879529
 20
9.6524427007
 10
8.6150919467
 20
9.6498880521
 10
8.6262937358
 20
9.6476375492
 10
8.6376679821
 20
9.6456963068
 10
8.6491888584
 20
9.6440687401
 10
8.6608303285
 20
9.6427585201
 10
8.6725662905
 20
9.6417685772
 10
8.6843704045
 20
9.6411011335
 10
8.6962161347
 20
9.6407576942
 10
8.7080767873
 20
9.6407390381
 10
8.7199256461
 20
9.6410452097
 10
8.7317360362
 20
9.6416755213
 10
8.7434813792
 20
9.6426285562
 10
8.7551352341
 20
9.6439021704
 10
8.766671371
 20
9.6454934991
 10
8.7780638214
 20
9.6473989615
 10
8.7892869332
 20
9.6496142684
 10
8.8003154428
 20
9.6521344337
 10
8.8111245275
 20
9.6549537859
 10
8.8216898539
 20
9.6580659787
 10
8.8319876455
 20
9.661464009
 10
8.8419947175
 20
9.6651402273
 10
8.8516885272
 20
9.6690863515
 10
8.8610472506
 20
9.6732934959
 10
8.8700498301
 20
9.6777521918
 10
8.8786760038
 20
9.6824524025
  0
LWPOLYLINE
  5
40C
100
AcDbEntity
  8
0
100
AcDbPolyline
 62
250
  6
CONTINUOUS
 90
34
 70
0
 10
-3.0667981444
 20
16.2503486842
 10
-3.0582159071
 20
16.2456230867
 10
-3.0492551917
 20
16.2411378018
 10
-3.039936162
 20
16.2369029224
 10
-3.0302797882
 20
16.2329279782
 10
-3.0203077992
 20
16.2292219135
 10
-3.0100426337
 20
16.2257930678
 10
-2.9995073904
 20
16.2226491568
 10
-2.9887257763
 20
16.2197972552
 10
-2.9777220522
 20
16.2172437805
 10
-2.9665209788
 20
16.2149944786
 10
-2.9551477613
 20
16.2130544113
 10
-2.9436279918
 20
16.2114279442
 10
-2.9319875924
 20
16.2101187374
 10
-2.9202527569
 20
16.2091297372
 10
-2.9084498913
 20
16.2084631691
 10
-2.8966055547
 20
16.2081205333
 10
-2.8847464
 20
16.2081026011
 10
-2.872899113
 20
16.2084094129
 10
-2.8610903529
 20
16.2090402786
 10
-2.8493466926
 20
16.2099937788
 10
-2.837694559
 20
16.2112677679
 10
-2.8261601724
 20
16.2128593794
 10
-2.8147694881
 20
16.2147650317
 10
-2.8035481394
 20
16.2169804367
 10
-2.7925213774
 20
16.219500609
 10
-2.7817140148
 20
16.2223198777
 10
-2.7711503714
 20
16.2254318987
 10
-2.7608542182
 20
16.228829669
 10
-2.750848724
 20
16.2325055429
 10
-2.7411564037
 20
16.2364512487
 10
-2.7317990674
 20
16.2406579076
 10
-2.7227977716
 20
16.2451160535
 10
-2.7141727714
 20
16.2498156544
  0
LWPOLYLINE
  5
40D
100
AcDbEntity
  8
0
100
AcDbPolyline
 62
250
  6
CONTINUOUS
 90
34
 70
0
 10
-6.6730427285
 20
18.3325491102
 10
-6.6644604911
 20
18.3278235127
 10
-6.6554997758
 20
18.3233382278
 10
-6.646180746
 20
18.3191033484
 10
-6.6365243722
 20
18.3151284041
 10
-6.6265523833
 20
18.3114223395
 10
-6.6162872177
 20
18.3079934938
 10
-6.6057519745
 20
18.3048495828
 10
-6.5949703604
 20
18.3019976812
 10
-6.5839666362
 20
18.2994442064
 10
-6.5727655628
 20
18.2971949046
 10
-6.5613923454
 20
18.2952548373
 10
-6.5498725759
 20
18.2936283702
 10
-6.5382321765
 20
18.2923191634
 10
-6.526497341
 20
18.2913301631
 10
-6.5146944753
 20
18.2906635951
 10
-6.5028501388
 20
18.2903209593
 10
-6.4909909841
 20
18.2903030271
 10
-6.4791436971
 20
18.2906098389
 10
-6.467334937
 20
18.2912407046
 10
-6.4555912766
 20
18.2921942048
 10
-6.4439391431
 20
18.2934681939
 10
-6.4324047564
 20
18.2950598053
 10
-6.4210140722
 20
18.2969654577
 10
-6.4097927235
 20
18.2991808627
 10
-6.3987659615
 20
18.301701035
 10
-6.3879585989
 20
18.3045203037
 10
-6.3773949555
 20
18.3076323247
 10
-6.3670988023
 20
18.311030095
 10
-6.357093308
 20
18.3147059689
 10
-6.3474009877
 20
18.3186516747
 10
-6.3380436514
 20
18.3228583335
 10
-6.3290423556
 20
18.3273164794
 10
-6.3204173555
 20
18.3320160804
  0
LWPOLYLINE
  5
40E
100
AcDbEntity
  8
0
100
AcDbPolyline
 62
250
  6
CONTINUOUS
 90
34
 70
0
 10
-3.7776073599
 20
16.786963355
 10
-3.7690392576
 20
16.7822451798
 10
-3.7600900157
 20
16.7777646907
 10
-3.7507792596
 20
16.7735322554
 10
-3.7411260935
 20
16.7695571662
 10
-3.7311531
 20
16.7658493096
 10
-3.7208867211
 20
16.7624187605
 10
-3.7103516233
 20
16.7592736795
 10
-3.6995700397
 20
16.7564206246
 10
-3.6885660459
 20
16.753865976
 10
-3.6773642568
 20
16.7516154731
 10
-3.6659900105
 20
16.7496742307
 10
-3.6544691342
 20
16.748046664
 10
-3.6428276642
 20
16.746736444
 10
-3.6310917022
 20
16.7457465011
 10
-3.6192875881
 20
16.7450790574
 10
-3.6074418579
 20
16.7447356181
 10
-3.5955812054
 20
16.744716962
 10
-3.5837323465
 20
16.7450231336
 10
-3.5719219565
 20
16.7456534452
 10
-3.5601766134
 20
16.7466064801
 10
-3.5485227585
 20
16.7478800943
 10
-3.5369866216
 20
16.749471423
 10
-3.5255941713
 20
16.7513768854
 10
-3.5143710594
 20
16.7535921923
 10
-3.5033425499
 20
16.7561123576
 10
-3.4925334651
 20
16.7589317098
 10
-3.4819681387
 20
16.7620439026
 10
-3.4716703471
 20
16.7654419329
 10
-3.4616632751
 20
16.7691181512
 10
-3.4519694655
 20
16.7730642755
 10
-3.442610742
 20
16.7772714198
 10
-3.4336081625
 20
16.7817301157
 10
-3.4249819889
 20
16.7864303264
  0
LWPOLYLINE
  5
40F
100
AcDbEntity
  8
0
100
AcDbPolyline
 62
250
  6
CONTINUOUS
 90
34
 70
0
 10
-7.3838519439
 20
18.8691637809
 10
-7.3752838417
 20
18.8644456057
 10
-7.3663345997
 20
18.8599651167
 10
-7.3570238436
 20
18.8557326814
 10
-7.3473706776
 20
18.8517575922
 10
-7.3373976841
 20
18.8480497356
 10
-7.3271313051
 20
18.8446191864
 10
-7.3165962073
 20
18.8414741055
 10
-7.3058146238
 20
18.8386210505
 10
-7.29481063
 20
18.836066402
 10
-7.2836088409
 20
18.8338158991
 10
-7.2722345945
 20
18.8318746567
 10
-7.2607137183
 20
18.83024709
 10
-7.2490722482
 20
18.82893687
 10
-7.2373362862
 20
18.8279469271
 10
-7.2255321722
 20
18.8272794834
 10
-7.213686442
 20
18.8269360441
 10
-7.2018257894
 20
18.826917388
 10
-7.1899769306
 20
18.8272235596
 10
-7.1781665405
 20
18.8278538712
 10
-7.1664211975
 20
18.8288069061
 10
-7.1547673426
 20
18.8300805203
 10
-7.1432312057
 20
18.8316718489
 10
-7.1318387553
 20
18.8335773113
 10
-7.1206156435
 20
18.8357926183
 10
-7.1095871339
 20
18.8383127836
 10
-7.0987780492
 20
18.8411321358
 10
-7.0882127228
 20
18.8442443285
 10
-7.0779149312
 20
18.8476423589
 10
-7.0679078592
 20
18.8513185771
 10
-7.0582140495
 20
18.8552647014
 10
-7.0488553261
 20
18.8594718458
 10
-7.0398527466
 20
18.8639305417
 10
-7.0312265729
 20
18.8686307523
  0
LWPOLYLINE
  5
410
100
AcDbEntity
  8
0
100
AcDbPolyline
 62
250
  6
CONTINUOUS
 90
34
 70
0
 10
-18.9767007211
 20
25.4365270341
 10
-18.9681184838
 20
25.4318014366
 10
-18.9591577684
 20
25.4273161517
 10
-18.9498387387
 20
25.4230812723
 10
-18.9401823649
 20
25.419106328
 10
-18.9302103759
 20
25.4154002634
 10
-18.9199452104
 20
25.4119714177
 10
-18.9094099671
 20
25.4088275067
 10
-18.898628353
 20
25.4059756051
 10
-18.8876246289
 20
25.4034221303
 10
-18.8764235555
 20
25.4011728285
 10
-18.865050338
 20
25.3992327612
 10
-18.8535305685
 20
25.3976062941
 10
-18.8418901691
 20
25.3962970873
 10
-18.8301553336
 20
25.395308087
 10
-18.818352468
 20
25.394641519
 10
-18.8065081314
 20
25.3942988832
 10
-18.7946489767
 20
25.394280951
 10
-18.7828016897
 20
25.3945877628
 10
-18.7709929296
 20
25.3952186285
 10
-18.7592492693
 20
25.3961721287
 10
-18.7475971357
 20
25.3974461178
 10
-18.7360627491
 20
25.3990377293
 10
-18.7246720648
 20
25.4009433816
 10
-18.7134507161
 20
25.4031587866
 10
-18.7024239541
 20
25.4056789589
 10
-18.6916165915
 20
25.4084982276
 10
-18.6810529481
 20
25.4116102486
 10
-18.6707567949
 20
25.4150080189
 10
-18.6607513007
 20
25.4186838928
 10
-18.6510589804
 20
25.4226295986
 10
-18.6417016441
 20
25.4268362574
 10
-18.6327003483
 20
25.4312944033
 10
-18.6240753481
 20
25.4359940043
  0
LWPOLYLINE
  5
411
100
AcDbEntity
  8
0
100
AcDbPolyline
 62
250
  6
CONTINUOUS
 90
34
 70
0
 10
-19.6875099366
 20
25.9731417048
 10
-19.6789418343
 20
25.9684235296
 10
-19.6699925924
 20
25.9639430406
 10
-19.6606818363
 20
25.9597106053
 10
-19.6510286702
 20
25.9557355161
 10
-19.6410556767
 20
25.9520276595
 10
-19.6307892978
 20
25.9485971103
 10
-19.6202542
 20
25.9454520294
 10
-19.6094726164
 20
25.9425989744
 10
-19.5984686226
 20
25.9400443259
 10
-19.5872668335
 20
25.937793823
 10
-19.5758925872
 20
25.9358525806
 10
-19.5643717109
 20
25.9342250139
 10
-19.5527302409
 20
25.9329147939
 10
-19.5409942789
 20
25.931924851
 10
-19.5291901648
 20
25.9312574073
 10
-19.5173444346
 20
25.930913968
 10
-19.5054837821
 20
25.9308953119
 10
-19.4936349232
 20
25.9312014835
 10
-19.4818245332
 20
25.9318317951
 10
-19.4700791901
 20
25.93278483
 10
-19.4584253352
 20
25.9340584442
 10
-19.4468891983
 20
25.9356497728
 10
-19.435496748
 20
25.9375552352
 10
-19.4242736361
 20
25.9397705422
 10
-19.4132451266
 20
25.9422907075
 10
-19.4024360418
 20
25.9451100597
 10
-19.3918707154
 20
25.9482222524
 10
-19.3815729238
 20
25.9516202828
 10
-19.3715658518
 20
25.955296501
 10
-19.3618720422
 20
25.9592426253
 10
-19.3525133187
 20
25.9634497697
 10
-19.3435107392
 20
25.9679084656
 10
-19.3348845656
 20
25.9726086762
  0
LWPOLYLINE
  5
412
100
AcDbEntity
  8
0
100
AcDbPolyline
 62
250
  6
CONTINUOUS
 90
34
 70
0
 10
-0.376401516
 20
15.2763491636
 10
-0.3695671217
 20
15.2725851734
 10
-0.3624285663
 20
15.269009766
 10
-0.3550013045
 20
15.2656312453
 10
-0.3473002355
 20
15.2624570095
 10
-0.3393433267
 20
15.2594950635
 10
-0.3311519639
 20
15.2567536556
 10
-0.3227455772
 20
15.2542392948
 10
-0.314141893
 20
15.2519572893
 10
-0.3053608692
 20
15.2499129604
 10
-0.2964225191
 20
15.2481109456
 10
-0.2873465571
 20
15.2465551979
 10
-0.2781530552
 20
15.2452491632
 10
-0.268862432
 20
15.2441957666
 10
-0.2594956763
 20
15.2433974122
 10
-0.2500740382
 20
15.242855917
 10
-0.2406187614
 20
15.2425724914
 10
-0.23115091
 20
15.2425477566
 10
-0.2216915827
 20
15.2427817676
 10
-0.2122619204
 20
15.2432740084
 10
-0.2028831159
 20
15.24402338
 10
-0.1935762456
 20
15.2450282007
 10
-0.1843621906
 20
15.2462862152
 10
-0.1752615777
 20
15.2477946062
 10
-0.1662947903
 20
15.2495499959
 10
-0.1574819174
 20
15.2515484531
 10
-0.1488427187
 20
15.2537854986
 10
-0.140396567
 20
15.2562561165
 10
-0.132162389
 20
15.258954771
 10
-0.124158642
 20
15.2618754132
 10
-0.116403281
 20
15.2650114905
 10
-0.1089136908
 20
15.2683559704
 10
-0.1017066493
 20
15.2719013587
 10
-0.0947983069
 20
15.2756397083
  0
LWPOLYLINE
  5
413
100
AcDbEntity
  8
0
100
AcDbPolyline
 62
250
  6
CONTINUOUS
 90
34
 70
0
 10
-16.2863040927
 20
24.4625275135
 10
-16.2794696984
 20
24.4587635233
 10
-16.272331143
 20
24.4551881158
 10
-16.2649038812
 20
24.4518095952
 10
-16.2572028122
 20
24.4486353594
 10
-16.2492459034
 20
24.4456734134
 10
-16.2410545406
 20
24.4429320055
 10
-16.2326481539
 20
24.4404176447
 10
-16.2240444697
 20
24.4381356391
 10
-16.2152634459
 20
24.4360913103
 10
-16.2063250958
 20
24.4342892955
 10
-16.1972491338
 20
24.4327335477
 10
-16.1880556319
 20
24.431427513
 10
-16.1787650087
 20
24.4303741165
 10
-16.169398253
 20
24.4295757621
 10
-16.1599766149
 20
24.4290342668
 10
-16.1505213381
 20
24.4287508413
 10
-16.1410534867
 20
24.4287261065
 10
-16.1315941594
 20
24.4289601175
 10
-16.1221644971
 20
24.4294523583
 10
-16.1127856926
 20
24.4302017299
 10
-16.1034788223
 20
24.4312065506
 10
-16.0942647673
 20
24.4324645651
 10
-16.0851641544
 20
24.4339729561
 10
-16.076197367
 20
24.4357283458
 10
-16.0673844941
 20
24.437726803
 10
-16.0587452954
 20
24.4399638484
 10
-16.0502991437
 20
24.4424344664
 10
-16.0420649657
 20
24.4451331209
 10
-16.0340612187
 20
24.4480537631
 10
-16.0263058577
 20
24.4511898403
 10
-16.0188162675
 20
24.4545343203
 10
-16.011609226
 20
24.4580797086
 10
-16.0047008836
 20
24.4618180581
  0
LINE
  5
414
100
AcDbEntity
  8
0
100
AcDbLine
 62
7
  6
CONTINUOUS
 10
-20.6570911842
 20
25.7479341024
 11
-18.9767007191
 21
24.7776977081
  0
LINE
  5
415
100
AcDbEntity
  8
0
100
AcDbLine
 62
7
  6
CONTINUOUS
 10
-8.3534331916
 20
18.6439561785
 11
-6.6730427265
 21
17.6737197842
  0
LINE
  5
416
100
AcDbEntity
  8
0
100
AcDbLine
 62
7
  6
CONTINUOUS
 10
9.2368598502
 20
8.4875414343
 11
7.5564693851
 21
9.4577778286
  0
LINE
  5
417
100
AcDbEntity
  8
0
100
AcDbLine
 62
7
  6
CONTINUOUS
 10
5.2061665603
 20
10.8148132235
 11
4.8660727588
 21
11.0111791221
  0
LINE
  5
418
100
AcDbEntity
  8
0
100
AcDbLine
 62
7
  6
CONTINUOUS
 10
-0.376401516
 20
14.0381180647
 11
-0.7164953176
 21
14.2344839634
  0
LINE
  5
419
100
AcDbEntity
  8
0
100
AcDbLine
 62
7
  6
CONTINUOUS
 10
-3.0667981424
 20
15.5915193582
 11
-4.7471886075
 21
16.5617557525
  0
LINE
  5
41A
100
AcDbEntity
  8
0
100
AcDbLine
 62
7
  6
CONTINUOUS
 10
-10.7037360164
 20
20.0009915733
 11
-11.0438298179
 21
20.197357472
  0
LINE
  5
41B
100
AcDbEntity
  8
0
100
AcDbLine
 62
7
  6
CONTINUOUS
 10
-16.2863040927
 20
23.2242964146
 11
-16.6263978943
 21
23.4206623132
  0
LINE
  5
41C
100
AcDbEntity
  8
0
100
AcDbLine
 62
7
  6
CONTINUOUS
 10
-21.3087248738
 20
26.5890008794
 11
-19.6357392813
 21
25.6230399657
  0
LINE
  5
41D
100
AcDbEntity
  8
0
100
AcDbLine
 62
7
  6
CONTINUOUS
 10
-9.0050668812
 20
19.4850229555
 11
-7.3320812887
 21
18.5190620418
  0
LINE
  5
41E
100
AcDbEntity
  8
0
100
AcDbLine
 62
7
  6
CONTINUOUS
 10
-5.3988222971
 20
17.4028225296
 11
-3.7258367046
 21
16.4368616159
  0
LINE
  5
41F
100
AcDbEntity
  8
0
100
AcDbLine
 62
7
  6
CONTINUOUS
 10
6.9048356955
 20
10.2988446057
 11
8.577821288
 21
9.332883692
  0
LINE
  5
420
100
AcDbEntity
  8
0
100
AcDbLine
 62
250
  6
CONTINUOUS
 10
-21.3604955291
 20
26.7034350947
 11
-19.6875099366
 21
25.737474181
  0
LINE
  5
421
100
AcDbEntity
  8
0
100
AcDbLine
 62
250
  6
CONTINUOUS
 10
-9.0568375365
 20
19.5994571708
 11
-7.3838519439
 21
18.6334962571
  0
LINE
  5
422
100
AcDbEntity
  8
0
100
AcDbLine
 62
250
  6
CONTINUOUS
 10
-5.4505929524
 20
17.5172567448
 11
-3.7776073599
 21
16.5512958312
  0
LINE
  5
423
100
AcDbEntity
  8
0
100
AcDbLine
 62
250
  6
CONTINUOUS
 10
6.8530650402
 20
10.4132788209
 11
8.5260506328
 21
9.4473179073
  0
LINE
  5
424
100
AcDbEntity
  8
0
100
AcDbLine
 62
7
  6
CONTINUOUS
 10
11.8553170181
 20
7.5708430381
 11
11.8968431846
 21
7.54686635
  0
LINE
  5
425
100
AcDbEntity
  8
0
100
AcDbLine
 62
250
  6
CONTINUOUS
 10
-19.1886920252
 20
25.5589281562
 11
-18.9767007191
 21
25.4365270329
  0
LINE
  5
426
100
AcDbEntity
  8
0
100
AcDbLine
 62
250
  6
CONTINUOUS
 10
-6.8850340326
 20
18.4549502323
 11
-6.6730427265
 21
18.332549109
  0
LINE
  5
427
100
AcDbEntity
  8
0
100
AcDbLine
 62
250
  6
CONTINUOUS
 10
-3.2787894485
 20
16.3727498063
 11
-3.0667981424
 21
16.250348683
  0
LINE
  5
428
100
AcDbEntity
  8
0
100
AcDbLine
 62
250
  6
CONTINUOUS
 10
9.0248685441
 20
9.2687718824
 11
9.2368598502
 21
9.1463707591
  0
LINE
  5
429
100
AcDbEntity
  8
0
100
AcDbLine
 62
250
  6
CONTINUOUS
 10
8.5260506328
 20
9.6829854311
 11
6.8530650402
 21
10.6489463448
  0
LINE
  5
42A
100
AcDbEntity
  8
0
100
AcDbLine
 62
250
  6
CONTINUOUS
 10
-3.7776073599
 20
16.786963355
 11
-5.4505929524
 21
17.7529242687
  0
LINE
  5
42B
100
AcDbEntity
  8
0
100
AcDbLine
 62
250
  6
CONTINUOUS
 10
-7.3838519439
 20
18.8691637809
 11
-9.0568375365
 21
19.8351246946
  0
LINE
  5
42C
100
AcDbEntity
  8
0
100
AcDbLine
 62
250
  6
CONTINUOUS
 10
-19.6875099366
 20
25.9731417048
 11
-21.3604955291
 21
26.9391026185
  0
LINE
  5
42D
100
AcDbEntity
  8
0
100
AcDbLine
 62
7
  6
CONTINUOUS
 10
-15.4328339083
 20
23.5908520073
 11
-13.8145157723
 21
22.6564553979
  0
LINE
  5
42E
100
AcDbEntity
  8
0
100
AcDbLine
 62
7
  6
CONTINUOUS
 10
-12.101404576
 20
21.6673264635
 11
-11.1024084617
 21
21.0905186274
  0
LINE
  5
42F
100
AcDbEntity
  8
0
100
AcDbLine
 62
7
  6
CONTINUOUS
 10
0.4770686684
 20
14.4046736574
 11
2.0953868044
 21
13.470277048
  0
LINE
  5
430
100
AcDbEntity
  8
0
100
AcDbLine
 62
7
  6
CONTINUOUS
 10
3.8084980007
 20
12.4811481136
 11
4.807494115
 21
11.9043402776
  0
LINE
  5
431
100
AcDbEntity
  8
0
100
AcDbLine
 62
250
  6
CONTINUOUS
 10
8.7019017317
 20
9.9886344229
 11
7.0289161392
 21
10.9545953365
  0
LINE
  5
432
100
AcDbEntity
  8
0
100
AcDbLine
 62
250
  6
CONTINUOUS
 10
-3.601756261
 20
17.0926123468
 11
-5.2747418535
 21
18.0585732604
  0
LINE
  5
433
100
AcDbEntity
  8
0
100
AcDbLine
 62
250
  6
CONTINUOUS
 10
-7.208000845
 20
19.1748127727
 11
-8.8809864375
 21
20.1407736864
  0
LINE
  5
434
100
AcDbEntity
  8
0
100
AcDbLine
 62
250
  6
CONTINUOUS
 10
-19.5116588377
 20
26.2787906966
 11
-21.1846444302
 21
27.2447516103
  0
LINE
  5
435
100
AcDbEntity
  8
0
100
AcDbLine
 62
250
  6
CONTINUOUS
 10
5.2061665603
 20
12.0530443224
 11
4.8660727588
 21
12.249410221
  0
LINE
  5
436
100
AcDbEntity
  8
0
100
AcDbLine
 62
250
  6
CONTINUOUS
 10
-0.376401516
 20
15.2763491636
 11
-0.7164953176
 21
15.4727150623
  0
LINE
  5
437
100
AcDbEntity
  8
0
100
AcDbLine
 62
250
  6
CONTINUOUS
 10
-10.7037360164
 20
21.2392226722
 11
-11.0438298179
 21
21.4355885709
  0
LINE
  5
438
100
AcDbEntity
  8
0
100
AcDbLine
 62
250
  6
CONTINUOUS
 10
-16.2863040927
 20
24.4625275135
 11
-16.6263978943
 21
24.6588934121
  0
LINE
  5
439
100
AcDbEntity
  8
0
100
AcDbLine
 62
7
  6
CONTINUOUS
 10
-17.7346333834
 20
25.3495514663
 11
-16.684976538
 21
24.7434927591
  0
LINE
  5
43A
100
AcDbEntity
  8
0
100
AcDbLine
 62
7
  6
CONTINUOUS
 10
-9.4968393826
 20
20.593152454
 11
-8.8718104587
 21
20.2322685868
  0
LINE
  5
43B
100
AcDbEntity
  8
0
100
AcDbLine
 62
7
  6
CONTINUOUS
 10
-5.4309753908
 20
18.2455735424
 11
-5.2655658746
 21
18.1500681608
  0
LINE
  5
43C
100
AcDbEntity
  8
0
100
AcDbLine
 62
7
  6
CONTINUOUS
 10
-1.8247308067
 20
16.1633731164
 11
-0.7750739613
 21
15.5573144092
  0
LINE
  5
43D
100
AcDbEntity
  8
0
100
AcDbLine
 62
7
  6
CONTINUOUS
 10
6.4130631941
 20
11.4069741042
 11
7.038092118
 21
11.0460902369
  0
LINE
  5
43E
100
AcDbEntity
  8
0
100
AcDbLine
 62
7
  6
CONTINUOUS
 10
10.4789271859
 20
9.0593951925
 11
10.8010967984
 21
8.873378496
  0
LINE
  5
43F
100
AcDbEntity
  8
0
100
AcDbLine
 62
250
  6
CONTINUOUS
 10
5.4882668571
 20
12.2159097164
 11
5.0067536379
 21
12.4939294144
  0
LINE
  5
440
100
AcDbEntity
  8
0
100
AcDbLine
 62
250
  6
CONTINUOUS
 10
-0.2357206369
 20
15.5208683571
 11
-0.7172338561
 21
15.7988880551
  0
LINE
  5
441
100
AcDbEntity
  8
0
100
AcDbLine
 62
250
  6
CONTINUOUS
 10
-10.4216357196
 20
21.4020880663
 11
-10.9031489388
 21
21.6801077643
  0
LINE
  5
442
100
AcDbEntity
  8
0
100
AcDbLine
 62
250
  6
CONTINUOUS
 10
-16.1456232136
 20
24.7070467069
 11
-16.6271364328
 21
24.9850664049
  0
LINE
  5
443
100
AcDbEntity
  8
0
100
AcDbLine
 62
7
  6
CONTINUOUS
 10
6.483724302
 20
12.0786678333
 11
6.4130631941
 21
12.1194666714
  0
LINE
  5
444
100
AcDbEntity
  8
0
100
AcDbLine
 62
7
  6
CONTINUOUS
 10
-9.4261782747
 20
21.2648461832
 11
-9.4968393826
 21
21.3056450213
  0
LINE
  5
445
100
AcDbEntity
  8
0
100
AcDbLine
 62
250
  6
CONTINUOUS
 10
5.3703568695
 20
12.7790671497
 11
3.8084980007
 21
13.6808648859
  0
LINE
  5
446
100
AcDbEntity
  8
0
100
AcDbLine
 62
250
  6
CONTINUOUS
 10
2.0953868044
 20
14.6699938203
 11
0.4770667634
 21
15.6043915296
  0
LINE
  5
447
100
AcDbEntity
  8
0
100
AcDbLine
 62
250
  6
CONTINUOUS
 10
-10.5395457072
 20
21.9652454996
 11
-12.101404576
 21
22.8670432358
  0
LINE
  5
448
100
AcDbEntity
  8
0
100
AcDbLine
 62
250
  6
CONTINUOUS
 10
-13.8145157723
 20
23.8561721702
 11
-15.4328358133
 21
24.7905698795
  0
LINE
  5
449
100
AcDbEntity
  8
0
100
AcDbLine
 62
7
  6
CONTINUOUS
 10
-17.6798264196
 20
26.1297057138
 11
-17.0632933319
 21
25.773727236
  0
LINE
  5
44A
100
AcDbEntity
  8
0
100
AcDbLine
 62
7
  6
CONTINUOUS
 10
10.5337341497
 20
9.83954944
 11
11.5017681149
 21
9.2806187609
  0
LINE
  5
44B
100
AcDbEntity
  8
0
100
AcDbLine
 62
7
  6
CONTINUOUS
 10
-12.6044067836
 20
23.2467615051
 11
-12.1560227442
 21
22.9878701803
  0
LINE
  5
44C
100
AcDbEntity
  8
0
100
AcDbLine
 62
7
  6
CONTINUOUS
 10
3.3054957931
 20
14.0605831552
 11
3.7538798325
 21
13.8016918304
  0
LINE
  5
44D
100
AcDbEntity
  8
0
100
AcDbLine
 62
250
  6
CONTINUOUS
 10
5.7076895917
 20
12.9100420336
 11
3.9491788798
 21
13.9253840793
  0
LINE
  5
44E
100
AcDbEntity
  8
0
100
AcDbLine
 62
250
  6
CONTINUOUS
 10
2.2360676835
 20
14.9145130137
 11
0.4775569717
 21
15.9298550594
  0
LINE
  5
44F
100
AcDbEntity
  8
0
100
AcDbLine
 62
250
  6
CONTINUOUS
 10
-10.202212985
 20
22.0962203835
 11
-11.9607236969
 21
23.1115624292
  0
LINE
  5
450
100
AcDbEntity
  8
0
100
AcDbLine
 62
250
  6
CONTINUOUS
 10
-13.6738348932
 20
24.1006913636
 11
-15.432345605
 21
25.1160334093
  0
LINE
  5
451
100
AcDbEntity
  8
0
100
AcDbLine
 62
7
  6
CONTINUOUS
 10
-0.4416709332
 20
16.9884098823
 11
-1.3218944729
 21
17.4966399223
  0
LINE
  5
452
100
AcDbEntity
  8
0
100
AcDbLine
 62
7
  6
CONTINUOUS
 10
-3.8742253718
 20
18.9703237952
 11
-4.9281390569
 21
19.5788403483
  0
LWPOLYLINE
  5
453
100
AcDbEntity
  8
0
100
AcDbPolyline
 62
250
  6
CONTINUOUS
 90
18
 70
0
 10
-9.0568375365
 20
19.5994571708
 10
-9.0650225714
 20
19.6044128201
 10
-9.0727913368
 20
19.6095870291
 10
-9.0801263486
 20
19.6149681529
 10
-9.0870110909
 20
19.6205440742
 10
-9.0934300782
 20
19.6263022503
 10
-9.0993688839
 20
19.632229743
 10
-9.1048141495
 20
19.6383132283
 10
-9.1097535999
 20
19.6445390024
 10
-9.1141760984
 20
19.6508930324
 10
-9.1180716873
 20
19.6573610102
 10
-9.1214316047
 20
19.6639283861
 10
-9.1242482884
 20
19.6705803792
 10
-9.1265153993
 20
19.6773020184
 10
-9.1282278351
 20
19.6840781758
 10
-9.1293817418
 20
19.6908936012
 10
-9.1299745227
 20
19.6977329606
 10
-9.1300608412
 20
19.7015258191
  0
LWPOLYLINE
  5
454
100
AcDbEntity
  8
0
100
AcDbPolyline
 62
250
  6
CONTINUOUS
 90
18
 70
0
 10
-5.4505929524
 20
17.5172567448
 10
-5.4587779873
 20
17.5222123942
 10
-5.4665467528
 20
17.5273866032
 10
-5.4738817645
 20
17.532767727
 10
-5.4807665069
 20
17.5383436483
 10
-5.4871854941
 20
17.5441018243
 10
-5.4931242999
 20
17.550029317
 10
-5.4985695654
 20
17.5561128023
 10
-5.5035090159
 20
17.5623385764
 10
-5.5079315143
 20
17.5686926064
 10
-5.5118271033
 20
17.5751605842
 10
-5.5151870206
 20
17.5817279601
 10
-5.5180037044
 20
17.5883799532
 10
-5.5202708153
 20
17.5951015924
 10
-5.5219832511
 20
17.6018777498
 10
-5.5231371578
 20
17.6086931752
 10
-5.5237299387
 20
17.6155325346
 10
-5.5238162571
 20
17.6193253932
  0
LWPOLYLINE
  5
455
100
AcDbEntity
  8
0
100
AcDbPolyline
 62
250
  6
CONTINUOUS
 90
18
 70
0
 10
6.8530650402
 20
10.4132788209
 10
6.8448800053
 20
10.4182344703
 10
6.8371112399
 20
10.4234086793
 10
6.8297762281
 20
10.4287898031
 10
6.8228914858
 20
10.4343657244
 10
6.8164724985
 20
10.4401239004
 10
6.8105336928
 20
10.4460513931
 10
6.8050884272
 20
10.4521348784
 10
6.8001489768
 20
10.4583606525
 10
6.7957264783
 20
10.4647146825
 10
6.7918308894
 20
10.4711826603
 10
6.788470972
 20
10.4777500362
 10
6.7856542883
 20
10.4844020293
 10
6.7833871774
 20
10.4911236685
 10
6.7816747416
 20
10.4978998259
 10
6.7805208348
 20
10.5047152513
 10
6.779928054
 20
10.5115546107
 10
6.7798417355
 20
10.5153474693
  0
LWPOLYLINE
  5
456
100
AcDbEntity
  8
0
100
AcDbPolyline
 62
250
  6
CONTINUOUS
 90
19
 70
0
 10
-5.3988222971
 20
17.4028225296
 10
-5.4041281877
 20
17.4061579737
 10
-5.4092161216
 20
17.4099169047
 10
-5.4140460419
 20
17.414074599
 10
-5.4186085088
 20
17.4186228314
 10
-5.4228951442
 20
17.423553145
 10
-5.4268980168
 20
17.4288564248
 10
-5.4306095979
 20
17.4345228033
 10
-5.4340226506
 20
17.4405413481
 10
-5.4371305079
 20
17.4469003222
 10
-5.4399272123
 20
17.4535874605
 10
-5.4424075177
 20
17.4605901362
 10
-5.4445667425
 20
17.4678950976
 10
-5.4464007866
 20
17.4754884749
 10
-5.4479061465
 20
17.4833557636
 10
-5.4490799539
 20
17.4914819474
 10
-5.4499199789
 20
17.4998515349
 10
-5.45042463
 20
17.5084485928
 10
-5.4505929524
 20
17.5172567448
  0
LWPOLYLINE
  5
457
100
AcDbEntity
  8
0
100
AcDbPolyline
 62
250
  6
CONTINUOUS
 90
19
 70
0
 10
6.9048356955
 20
10.2988446057
 10
6.8995298049
 20
10.3021800498
 10
6.8944418711
 20
10.3059389808
 10
6.8896119507
 20
10.3100966751
 10
6.8850494838
 20
10.3146449075
 10
6.8807628484
 20
10.3195752211
 10
6.8767599758
 20
10.3248785009
 10
6.8730483948
 20
10.3305448794
 10
6.8696353421
 20
10.3365634242
 10
6.8665274847
 20
10.3429223982
 10
6.8637307804
 20
10.3496095366
 10
6.861250475
 20
10.3566122123
 10
6.8590912501
 20
10.3639171737
 10
6.857257206
 20
10.371510551
 10
6.8557518461
 20
10.3793778397
 10
6.8545780387
 20
10.3875040235
 10
6.8537380137
 20
10.395873611
 10
6.8532333627
 20
10.4044706689
 10
6.8530650402
 20
10.4132788209
  0
LWPOLYLINE
  5
458
100
AcDbEntity
  8
0
100
AcDbPolyline
 62
250
  6
CONTINUOUS
 90
4
 70
0
 10
9.1961190548
 20
9.2530510386
 10
9.1994199443
 20
9.2502413415
 10
9.2035646123
 20
9.2462224264
 10
9.2074865076
 20
9.2419041137
  0
LWPOLYLINE
  5
459
100
AcDbEntity
  8
0
100
AcDbPolyline
 62
250
  6
CONTINUOUS
 90
16
 70
0
 10
9.2074865076
 20
9.2419041137
 10
9.2111783999
 20
9.2372962362
 10
9.214637566
 20
9.2324041842
 10
9.2178644304
 20
9.227227336
 10
9.2208550106
 20
9.2217701119
 10
9.2236026822
 20
9.2160424782
 10
9.2261031178
 20
9.210051228
 10
9.2283536362
 20
9.203799164
 10
9.2303478623
 20
9.1973000594
 10
9.2320781394
 20
9.1905793341
 10
9.2335424414
 20
9.1836505966
 10
9.2347403443
 20
9.1765228593
 10
9.235670081
 20
9.1692175187
 10
9.2363321676
 20
9.1617504364
 10
9.2367282379
 20
9.1541310146
 10
9.2368598496
 20
9.146371915
  0
LINE
  5
45A
100
AcDbEntity
  8
0
100
AcDbLine
 62
7
  6
CONTINUOUS
 10
11.8968431846
 20
7.54686635
 11
12.5562529719
 21
6.4047350965
  0
LWPOLYLINE
  5
45B
100
AcDbEntity
  8
0
100
AcDbPolyline
 62
7
  6
CONTINUOUS
 90
4
 70
0
 10
11.8818772668
 20
15.6966940633
 10
11.8817541927
 20
15.6976747177
 10
11.8810230045
 20
15.6989900956
 10
11.8800880471
 20
15.6997181321
  0
LINE
  5
45C
100
AcDbEntity
  8
DRAFT
100
AcDbLine
 62
7
  6
CONTINUOUS
 10
16.8386280552
 20
-20.2047431248
 11
16.8386280552
 21
-18.4934250615
  0
LINE
  5
45D
100
AcDbEntity
  8
DRAFT
100
AcDbLine
 62
7
  6
CONTINUOUS
 10
16.8386280552
 20
12.3691514013
 11
16.8386280552
 21
13.3098513697
  0
LINE
  5
45E
100
AcDbEntity
  8
0
100
AcDbLine
 62
250
  6
CONTINUOUS
 10
17.1473201299
 20
-21.1578582868
 11
17.1473201299
 21
-20.7806268412
  0
LINE
  5
45F
100
AcDbEntity
  8
0
100
AcDbLine
 62
250
  6
CONTINUOUS
 10
17.1473201299
 20
13.4975848725
 11
17.1473201299
 21
13.874816318
  0
LINE
  5
460
100
AcDbEntity
  8
0
100
AcDbLine
 62
7
  6
CONTINUOUS
 10
17.2876502297
 20
-21.0733472122
 11
17.2876502297
 21
-20.5825402951
  0
LINE
  5
461
100
AcDbEntity
  8
0
100
AcDbLine
 62
7
  6
CONTINUOUS
 10
17.2876502297
 20
13.7005853633
 11
17.2876502297
 21
14.1913922804
  0
LWPOLYLINE
  5
462
100
AcDbEntity
  8
RACCORDO
100
AcDbPolyline
 62
250
  6
CONTINUOUS
 90
28
 70
0
 10
12.5932798162
 20
-11.5039550076
 10
12.8057100443
 20
-11.1739422693
 10
13.0318526099
 20
-10.7754165101
 10
13.2400597355
 20
-10.3577538324
 10
13.4302546703
 20
-9.9208696376
 10
13.6025141652
 20
-9.4648485243
 10
13.7560871379
 20
-8.9916797279
 10
13.8908923061
 20
-8.5012876346
 10
14.0070109522
 20
-7.993747858
 10
14.103935841
 20
-7.4712764749
 10
14.1815831177
 20
-6.933809683
 10
14.2400366371
 20
-6.3814112846
 10
14.2790407281
 20
-5.8164887629
 10
14.2985106334
 20
-5.2389855311
 10
14.2985311104
 20
-4.6489581761
 10
14.2791007602
 20
-4.048983942
 10
14.2401340095
 20
-3.4390177094
 10
14.1817164316
 20
-2.8191045977
 10
14.1041033476
 20
-2.1919572091
 10
14.0072111574
 20
-1.5575470922
 10
13.8911234612
 20
-0.9159026985
 10
13.7563463809
 20
-0.2698219843
 10
13.6027994343
 20
0.3807123431
 10
13.4305631035
 20
1.0356829909
 10
13.2403849568
 20
1.6922401236
 10
13.0321875117
 20
2.3503909765
 10
12.8060482505
 20
3.0101283142
 10
12.5932798162
 20
3.5864230439
  0
LINE
  5
463
100
AcDbEntity
  8
0
100
AcDbLine
 62
7
  6
CONTINUOUS
 10
8.0151846123
 20
17.8395077689
 11
9.6015777225
 21
18.0990270878
  0
LWPOLYLINE
  5
464
100
AcDbEntity
  8
0
100
AcDbPolyline
 62
250
  6
CONTINUOUS
 90
27
 70
0
 10
-3.6236846367
 20
16.4044112791
 10
-3.6175640517
 20
16.403971786
 10
-3.6082192179
 20
16.4037695942
 10
-3.5988577105
 20
16.4041310256
 10
-3.5895006584
 20
16.4050552635
 10
-3.5801691914
 20
16.4065402207
 10
-3.5708843816
 20
16.4085825439
 10
-3.5616671952
 20
16.4111776213
 10
-3.5525384459
 20
16.4143195927
 10
-3.543518741
 20
16.418001366
 10
-3.5346284553
 20
16.4222146251
 10
-3.5258876829
 20
16.426949845
 10
-3.5173161729
 20
16.4321963219
 10
-3.508933267
 20
16.4379422115
 10
-3.5007578763
 20
16.4441745496
 10
-3.492808404
 20
16.4508793142
 10
-3.4851028623
 20
16.4580413205
 10
-3.4776587977
 20
16.4656442392
 10
-3.4704930966
 20
16.4736707669
 10
-3.4636218205
 20
16.4821028538
 10
-3.4570603379
 20
16.4909216172
 10
-3.4508229717
 20
16.5001079041
 10
-3.444924351
 20
16.5096402712
 10
-3.4393789927
 20
16.5194949596
 10
-3.4341995454
 20
16.52964875
 10
-3.4293970196
 20
16.5400792636
 10
-3.4249819889
 20
16.5507628025
  0
LINE
  5
465
100
AcDbEntity
  8
0
100
AcDbLine
 62
7
  6
CONTINUOUS
 10
-3.0905777235
 20
16.3554719183
 11
-3.6236846367
 21
16.4044112791
  0
LINE
  5
466
100
AcDbEntity
  8
0
100
AcDbLine
 62
250
  6
CONTINUOUS
 10
-2.8918750758
 20
16.5018234417
 11
-3.4249819889
 21
16.5507628025
  0
LWPOLYLINE
  5
467
100
AcDbEntity
  8
RACCORDO
100
AcDbPolyline
 62
250
  6
CONTINUOUS
 90
11
 70
0
 10
-0.9017895549
 20
19.1176828461
 10
-1.1695678373
 20
19.2258197796
 10
-1.4335426547
 20
19.3265227149
 10
-1.693714007
 20
19.4197916519
 10
-1.9497588253
 20
19.5053712576
 10
-2.2020001785
 20
19.5835168651
 10
-2.4514072739
 20
19.6549944733
 10
-2.6980503838
 20
19.7199208841
 10
-2.9418592359
 20
19.7781792957
 10
-3.1835922202
 20
19.8301853016
 10
-3.3898916109
 20
19.8696289153
  0
LWPOLYLINE
  5
468
100
AcDbEntity
  8
RACCORDO
100
AcDbPolyline
 62
250
  6
CONTINUOUS
 90
16
 70
0
 10
-0.9017895549
 20
19.1176828387
 10
-0.8628960788
 20
19.0974628398
 10
-0.820555105
 20
19.0797009908
 10
-0.7752305424
 20
19.0645918916
 10
-0.7274189804
 20
19.0523010756
 10
-0.6776442686
 20
19.0429632012
 10
-0.6264517789
 20
19.0366805729
 10
-0.574402396
 20
19.0335220147
 10
-0.5220663865
 20
19.033522122
 10
-0.4700171719
 20
19.036680882
 10
-0.4188250136
 20
19.0429636729
 10
-0.3690507746
 20
19.0523016466
 10
-0.3212397891
 20
19.0645924798
 10
-0.2759158713
 20
19.0797014984
 10
-0.2335755773
 20
19.0974631545
 10
-0.1946827737
 20
19.1176828387
  0
LINE
  5
469
100
AcDbEntity
  8
0
100
AcDbLine
 62
7
  6
CONTINUOUS
 10
-15.0085698396
 20
25.939281685
 11
-12.7458270628
 21
24.6328023646
  0
LINE
  5
46A
100
AcDbEntity
  8
0
100
AcDbLine
 62
7
  6
CONTINUOUS
 10
-11.0487729419
 20
23.6529445842
 11
-8.7860301652
 21
22.3464652638
  0
LINE
  5
46B
100
AcDbEntity
  8
0
100
AcDbLine
 62
7
  6
CONTINUOUS
 10
0.9013327371
 20
16.7531033352
 11
3.1640755139
 21
15.4466240147
  0
LINE
  5
46C
100
AcDbEntity
  8
0
100
AcDbLine
 62
7
  6
CONTINUOUS
 10
4.8611296348
 20
14.4667662344
 11
7.1238724115
 21
13.1602869139
  0
LINE
  5
46D
100
AcDbEntity
  8
0
100
AcDbLine
 62
7
  6
CONTINUOUS
 10
-18.8976595593
 20
28.5930284859
 11
-17.2005984381
 21
27.6131666636
  0
LINE
  5
46E
100
AcDbEntity
  8
0
100
AcDbLine
 62
7
  6
CONTINUOUS
 10
-2.9877569826
 20
19.406850136
 11
-1.2906958614
 21
18.4269883138
  0
LINE
  5
46F
100
AcDbEntity
  8
0
100
AcDbLine
 62
7
  6
CONTINUOUS
 10
11.0129621313
 20
11.3230103898
 11
9.31590101
 21
12.3028722121
  0
LINE
  5
470
100
AcDbEntity
  8
0
100
AcDbLine
 62
7
  6
CONTINUOUS
 10
-4.8969404454
 20
20.5091887397
 11
-6.5940015667
 21
21.489050562
  0
LINE
  5
471
100
AcDbEntity
  8
RACCORDO
100
AcDbLine
 62
250
  6
CONTINUOUS
 10
0.6765796735
 20
17.6182406645
 11
-0.9017895549
 21
18.5295712753
  0
LINE
  5
472
100
AcDbEntity
  8
RACCORDO
100
AcDbLine
 62
250
  6
CONTINUOUS
 10
1.3924293952
 20
18.0214277385
 11
-0.1946827737
 21
18.9378064137
  0
LWPOLYLINE
  5
473
100
AcDbEntity
  8
RACCORDO
100
AcDbPolyline
 62
250
  6
CONTINUOUS
 90
43
 70
0
 10
12.4245484686
 20
8.8690313898
 10
12.6658404198
 20
8.4346933043
 10
13.016915497
 20
7.7696877823
 10
13.3529741276
 20
7.0987055632
 10
13.6735583555
 20
6.4226609707
 10
13.9782312813
 20
5.7424752897
 10
14.2665776879
 20
5.0590754569
 10
14.5382046021
 20
4.3733928105
 10
14.7927418805
 20
3.6863616881
 10
15.0298426869
 20
2.9989181897
 10
15.249183985
 20
2.3119988073
 10
15.450466736
 20
1.6265399316
 10
15.6334164208
 20
0.943476437
 10
15.7977836699
 20
0.2637395582
 10
15.9433446483
 20
-0.4117448331
 10
16.0699011124
 20
-1.0820567012
 10
16.1772806919
 20
-1.7462832303
 10
16.2653369252
 20
-2.4035186158
 10
16.3339496839
 20
-3.0528658073
 10
16.3830254917
 20
-3.693438323
 10
16.4124978035
 20
-4.3243650137
 10
16.4223265841
 20
-4.9447896365
 10
16.4124981618
 20
-5.5538688889
 10
16.3830256517
 20
-6.1507702831
 10
16.3339493468
 20
-6.7346769965
 10
16.2653364731
 20
-7.3047918367
 10
16.1772805498
 20
-7.8603396397
 10
16.0699013831
 20
-8.400564893
 10
15.9433451467
 20
-8.9247318713
 10
15.7977843616
 20
-9.4321257568
 10
15.6334173636
 20
-9.9220550714
 10
15.4504681308
 20
-10.3938521094
 10
15.2491859317
 20
-10.8468739631
 10
15.0298449762
 20
-11.2805033664
 10
14.7927440225
 20
-11.6941495312
 10
14.5382062269
 20
-12.0872485373
 10
14.2665787082
 20
-12.459264278
 10
13.9782316939
 20
-12.809689752
 10
13.6735580884
 20
-13.1380475183
 10
13.3529732462
 20
-13.4438899996
 10
13.0169141578
 20
-13.7268004028
 10
12.6658387371
 20
-13.9863933318
 10
12.5932798162
 20
-14.0332139145
  0
LWPOLYLINE
  5
474
100
AcDbEntity
  8
RACCORDO
100
AcDbPolyline
 62
7
  6
CONTINUOUS
 90
55
 70
0
 10
18.5617730254
 20
-10.6081076661
 10
18.6954178961
 20
-10.5288531474
 10
19.106798571
 20
-10.2577869462
 10
19.4988044495
 20
-9.9571189991
 10
19.8713344365
 20
-9.6266948115
 10
20.2244896272
 20
-9.266668878
 10
20.556429843
 20
-8.8789164674
 10
20.8670443829
 20
-8.4632928658
 10
21.1564439479
 20
-8.0199427871
 10
21.4231204635
 20
-7.5511756419
 10
21.6669553547
 20
-7.0568587625
 10
21.8880671964
 20
-6.5371248165
 10
22.0853036391
 20
-5.9946812166
 10
22.2585400899
 20
-5.4294094191
 10
22.4079011416
 20
-4.8414279677
 10
22.5326082235
 20
-4.2337999058
 10
22.6325326686
 20
-3.6064225522
 10
22.7078031439
 20
-2.9593985881
 10
22.7580270797
 20
-2.296099101
 10
22.7830736193
 20
-1.6164384765
 10
22.7830736193
 20
-0.920502329
 10
22.7580270797
 20
-0.2119185885
 10
22.7078031439
 20
0.5093782407
 10
22.6325326686
 20
1.243322663
 10
22.5326082235
 20
1.9860902612
 10
22.4079011416
 20
2.7377269354
 10
22.2585400899
 20
3.4981867854
 10
22.0853036391
 20
4.2635076939
 10
21.8880671964
 20
5.033714994
 10
21.6669553547
 20
5.8087833524
 10
21.4231204635
 20
6.5846746522
 10
21.1564439479
 20
7.3613931532
 10
20.8670443829
 20
8.1389345955
 10
20.556429843
 20
8.9132480818
 10
20.2244896272
 20
9.6843167332
 10
19.8713344365
 20
10.4521574288
 10
19.4988044495
 20
11.2127699076
 10
19.106798571
 20
11.9661164173
 10
18.6954178961
 20
12.7122347103
 10
18.2668058882
 20
13.4472377837
 10
17.8208726405
 20
14.1710676032
 10
17.3577080599
 20
14.883782203
 10
16.8797253301
 20
15.581668684
 10
16.3868471394
 20
16.2646496387
 10
15.8791507994
 20
16.9328024746
 10
15.3592814289
 20
17.5826465135
 10
14.8271755209
 20
18.2140861881
 10
14.2828965825
 20
18.8272170657
 10
13.729280253
 20
19.4188451709
 10
13.1662046538
 20
19.9889116478
 10
12.5937916636
 20
20.5374753522
 10
12.0152425572
 20
21.0615188763
 10
11.431624426
 20
21.5600364174
 10
10.8418701787
 20
22.0340337782
 10
10.245979815
 20
22.4835109586
  0
LINE
  5
475
100
AcDbEntity
  8
0
100
AcDbLine
 62
7
  6
CONTINUOUS
 10
18.5618021455
 20
-10.6081580909
 11
12.5932798162
 21
-14.0543080806
  0
LINE
  5
476
100
AcDbEntity
  8
0
100
AcDbLine
 62
7
  6
CONTINUOUS
 10
18.6118045615
 20
-10.6947592363
 11
25.8242937296
 21
-6.5303583844
  0
LWPOLYLINE
  5
477
100
AcDbEntity
  8
0
100
AcDbPolyline
 62
7
  6
CONTINUOUS
 90
4
 70
0
 10
18.6118045613
 20
-10.6947592361
 10
18.1546980239
 20
-10.936006925
 10
17.6786000646
 20
-11.1432167087
 10
17.5684010497
 20
-11.1817354334
  0
LWPOLYLINE
  5
478
100
AcDbEntity
  8
0
100
AcDbPolyline
 62
250
  6
CONTINUOUS
 90
27
 70
0
 10
-7.2299292207
 20
18.4866117051
 10
-7.2238086357
 20
18.4861722119
 10
-7.2144638019
 20
18.4859700201
 10
-7.2051022945
 20
18.4863314516
 10
-7.1957452424
 20
18.4872556894
 10
-7.1864137754
 20
18.4887406467
 10
-7.1771289656
 20
18.4907829699
 10
-7.1679117793
 20
18.4933780472
 10
-7.1587830299
 20
18.4965200186
 10
-7.1497633251
 20
18.5002017919
 10
-7.1408730393
 20
18.504415051
 10
-7.1321322669
 20
18.509150271
 10
-7.1235607569
 20
18.5143967478
 10
-7.115177851
 20
18.5201426375
 10
-7.1070024604
 20
18.5263749756
 10
-7.0990529881
 20
18.5330797402
 10
-7.0913474463
 20
18.5402417465
 10
-7.0839033818
 20
18.5478446652
 10
-7.0767376807
 20
18.5558711929
 10
-7.0698664046
 20
18.5643032798
 10
-7.0633049219
 20
18.5731220432
 10
-7.0570675557
 20
18.5823083301
 10
-7.051168935
 20
18.5918406971
 10
-7.0456235768
 20
18.6016953856
 10
-7.0404441294
 20
18.611849176
 10
-7.0356416036
 20
18.6222796896
 10
-7.0312265729
 20
18.6329632285
  0
LINE
  5
479
100
AcDbEntity
  8
0
100
AcDbLine
 62
7
  6
CONTINUOUS
 10
-6.6968223076
 20
18.4376723443
 11
-6.6968596285
 21
18.4376757749
  0
LINE
  5
47A
100
AcDbEntity
  8
0
100
AcDbLine
 62
7
  6
CONTINUOUS
 10
-6.6968223076
 20
18.4376723443
 11
-7.2299292207
 21
18.4866117051
  0
LINE
  5
47B
100
AcDbEntity
  8
0
100
AcDbLine
 62
250
  6
CONTINUOUS
 10
-6.4981196598
 20
18.5840238677
 11
-7.0312265729
 21
18.6329632285
  0
LWPOLYLINE
  5
47C
100
AcDbEntity
  8
RACCORDO
100
AcDbPolyline
 62
250
  6
CONTINUOUS
 90
5
 70
0
 10
0.1126777116
 20
20.9854099131
 10
-0.158657091
 20
21.0977560514
 10
-0.4264022804
 20
21.20263965
 10
-0.6904887459
 20
21.3002217339
 10
-0.9113781783
 20
21.3769562699
  0
LWPOLYLINE
  5
47D
100
AcDbEntity
  8
RACCORDO
100
AcDbPolyline
 62
250
  6
CONTINUOUS
 90
19
 70
0
 10
0.1126777116
 20
20.9854099131
 10
0.1459751161
 20
20.9694121121
 10
0.1793877064
 20
20.9497037725
 10
0.2126170329
 20
20.926460934
 10
0.2453662828
 20
20.8998912075
 10
0.2773429318
 20
20.8702319204
 10
0.3082613565
 20
20.8377479969
 10
0.3378453858
 20
20.8027295915
 10
0.3658307679
 20
20.7654894974
 10
0.3919675303
 20
20.7263603524
 10
0.4160222129
 20
20.6856916677
 10
0.4377799534
 20
20.6438467062
 10
0.4570464061
 20
20.6011992375
 10
0.4736494782
 20
20.5581301995
 10
0.4874408671
 20
20.5150242955
 10
0.4982973846
 20
20.4722665582
 10
0.5061220575
 20
20.4302389105
 10
0.5108449939
 20
20.3893167536
 10
0.5124240075
 20
20.3498656146
  0
LWPOLYLINE
  5
47E
100
AcDbEntity
  8
0
100
AcDbPolyline
 62
7
  6
CONTINUOUS
 90
20
 70
0
 10
11.8800880471
 20
15.6997181321
 10
11.8796592464
 20
15.6999397584
 10
11.8776882831
 20
15.7005479974
 10
11.875135249
 20
15.7008250145
 10
11.8720278716
 20
15.7007842702
 10
11.8683921789
 20
15.7004535123
 10
11.8642564823
 20
15.6998402039
 10
11.8596465971
 20
15.6989542299
 10
11.8545823708
 20
15.6978259092
 10
11.8490880447
 20
15.6964611984
 10
11.8431889062
 20
15.6948667872
 10
11.8369027713
 20
15.6930735891
 10
11.8302608777
 20
15.6910904754
 10
11.8232789359
 20
15.688916941
 10
11.8159439784
 20
15.6865710836
 10
11.8082700584
 20
15.684060836
 10
11.8002766612
 20
15.6813873898
 10
11.7919491388
 20
15.6785616897
 10
11.7832895763
 20
15.6755915358
 10
11.7650577617
 20
15.6692306986
  0
LWPOLYLINE
  5
47F
100
AcDbEntity
  8
0
100
AcDbPolyline
 62
7
  6
CONTINUOUS
 90
18
 70
0
 10
-4.0298145296
 20
24.885896482
 10
-4.0302433303
 20
24.8861181082
 10
-4.0322142936
 20
24.8867263472
 10
-4.0347673277
 20
24.8870033643
 10
-4.0378747051
 20
24.8869626201
 10
-4.0415103978
 20
24.8866318622
 10
-4.0456460944
 20
24.8860185538
 10
-4.0502559796
 20
24.8851325798
 10
-4.0553202059
 20
24.884004259
 10
-4.060814532
 20
24.8826395483
 10
-4.0667136705
 20
24.881045137
 10
-4.0729998054
 20
24.8792519389
 10
-4.079641699
 20
24.8772688253
 10
-4.0866236408
 20
24.8750952909
 10
-4.0939585983
 20
24.8727494335
 10
-4.1016325183
 20
24.8702391859
 10
-4.1096259155
 20
24.8675657397
 10
-4.1266130004
 20
24.8617698857
  0
LWPOLYLINE
  5
480
100
AcDbEntity
  8
0
100
AcDbPolyline
 62
7
  6
CONTINUOUS
 90
18
 70
0
 10
6.2776558545
 20
18.9344922089
 10
6.2773183845
 20
18.9346705864
 10
6.2753860644
 20
18.9352962209
 10
6.2728730232
 20
18.9355914378
 10
6.2698066838
 20
18.9355696724
 10
6.266212923
 20
18.9352582315
 10
6.2621197548
 20
18.9346645002
 10
6.2575528215
 20
18.9337984541
 10
6.2525321949
 20
18.9326902043
 10
6.2470820275
 20
18.9313456064
 10
6.2412275003
 20
18.9297714476
 10
6.2349868484
 20
18.9279986833
 10
6.2283912471
 20
18.9260360241
 10
6.2214564699
 20
18.9238830768
 10
6.21417036
 20
18.9215583116
 10
6.2065474446
 20
18.9190696733
 10
6.1986069471
 20
18.9164181661
 10
6.1817304551
 20
18.910667247
  0
LWPOLYLINE
  5
481
100
AcDbEntity
  8
0
100
AcDbPolyline
 62
7
  6
CONTINUOUS
 90
18
 70
0
 10
-9.6322467222
 20
28.1206705587
 10
-9.6325841922
 20
28.1208489363
 10
-9.6345165123
 20
28.1214745708
 10
-9.6370295535
 20
28.1217697876
 10
-9.6400958929
 20
28.1217480223
 10
-9.6436896537
 20
28.1214365814
 10
-9.6477828219
 20
28.12084285
 10
-9.6523497552
 20
28.1199768039
 10
-9.6573703818
 20
28.1188685542
 10
-9.6628205492
 20
28.1175239563
 10
-9.6686750764
 20
28.1159497975
 10
-9.6749157283
 20
28.1141770331
 10
-9.6815113296
 20
28.112214374
 10
-9.6884461068
 20
28.1100614266
 10
-9.6957322167
 20
28.1077366614
 10
-9.7033551321
 20
28.1052480231
 10
-9.7112956296
 20
28.1025965159
 10
-9.7281721216
 20
28.0968455969
  0
LINE
  5
482
100
AcDbEntity
  8
0
100
AcDbLine
 62
7
  6
CONTINUOUS
 10
-10.3845882057
 20
28.3901933409
 11
-9.8124200119
 21
28.0598305967
  0
LINE
  5
483
100
AcDbEntity
  8
0
100
AcDbLine
 62
7
  6
CONTINUOUS
 10
-4.7823871679
 20
25.1555526737
 11
-4.2102189741
 21
24.8251899296
  0
LINE
  5
484
100
AcDbEntity
  8
0
100
AcDbLine
 62
7
  6
CONTINUOUS
 10
5.525314371
 20
19.204014991
 11
6.0974825648
 21
18.8736522468
  0
LINE
  5
485
100
AcDbEntity
  8
0
100
AcDbLine
 62
7
  6
CONTINUOUS
 10
11.1275154088
 20
15.9693743238
 11
11.6996836026
 21
15.6390115797
  0
LINE
  5
486
100
AcDbEntity
  8
0
100
AcDbLine
 62
7
  6
CONTINUOUS
 10
11.8852939914
 20
15.6049551172
 11
11.8818772668
 21
15.6069278912
  0
LINE
  5
487
100
AcDbEntity
  8
0
100
AcDbLine
 62
7
  6
CONTINUOUS
 10
11.1996059638
 20
16.0008627907
 11
8.0151846123
 21
17.8395077689
  0
LINE
  5
488
100
AcDbEntity
  8
0
100
AcDbLine
 62
7
  6
CONTINUOUS
 10
-4.0246085853
 20
24.7911334671
 11
-4.0280253099
 21
24.7931062411
  0
LINE
  5
489
100
AcDbEntity
  8
0
100
AcDbLine
 62
7
  6
CONTINUOUS
 10
-4.7102966129
 20
25.1870411406
 11
-7.8947179644
 21
27.0256861188
  0
LINE
  5
48A
100
AcDbEntity
  8
0
100
AcDbLine
 62
7
  6
CONTINUOUS
 10
-10.0723732505
 20
28.3747957896
 11
-9.6322466282
 21
28.120672194
  0
LINE
  5
48B
100
AcDbEntity
  8
0
100
AcDbLine
 62
7
  6
CONTINUOUS
 10
-4.4733420998
 20
25.1419674163
 11
-4.0298144387
 21
24.8858980627
  0
LINE
  5
48C
100
AcDbEntity
  8
0
100
AcDbLine
 62
7
  6
CONTINUOUS
 10
5.8375293262
 20
19.1886174397
 11
6.2776559485
 21
18.9344938441
  0
LINE
  5
48D
100
AcDbEntity
  8
0
100
AcDbLine
 62
7
  6
CONTINUOUS
 10
11.4365604769
 20
15.9557890664
 11
11.880088138
 21
15.6997197129
  0
LWPOLYLINE
  5
48E
100
AcDbEntity
  8
0
100
AcDbPolyline
 62
7
  6
CONTINUOUS
 90
40
 70
0
 10
11.6960006534
 20
15.4121298631
 10
11.7050889558
 20
15.3951617219
 10
11.7137567893
 20
15.3780792561
 10
11.7220041539
 20
15.3608824655
 10
11.7298419752
 20
15.3435456296
 10
11.7372593275
 20
15.3260944689
 10
11.7442234347
 20
15.3086061456
 10
11.7507322904
 20
15.2910804969
 10
11.7567879009
 20
15.2735176855
 10
11.7623635087
 20
15.2559953619
 10
11.7674569893
 20
15.2385137065
 10
11.7720704672
 20
15.2210725388
 10
11.7761835578
 20
15.2037489678
 10
11.779794047
 20
15.1865435147
 10
11.7829041489
 20
15.1694556584
 10
11.7855001221
 20
15.152560944
 10
11.7875796918
 20
15.1358602266
 10
11.7891451328
 20
15.1193526511
 10
11.7901895286
 20
15.1031111973
 10
11.7907105737
 20
15.0871370427
 10
11.7907105737
 20
15.0714290098
 10
11.7901895286
 20
15.0560565451
 10
11.7891451328
 20
15.0410211333
 10
11.7875796918
 20
15.0263212898
 10
11.7855001221
 20
15.0120220074
 10
11.7829041489
 20
14.9981250578
 10
11.779794047
 20
14.9846286692
 10
11.7761835578
 20
14.9715925185
 10
11.7720704672
 20
14.9590186416
 10
11.7674569893
 20
14.9469050025
 10
11.7623635087
 20
14.9353051708
 10
11.7567879009
 20
14.9242214192
 10
11.7507322904
 20
14.9136514751
 10
11.7442234347
 20
14.9036420898
 10
11.7372593275
 20
14.8941957429
 10
11.7298419752
 20
14.8853099548
 10
11.7220041539
 20
14.8770240384
 10
11.7137567893
 20
14.8693510978
 10
11.7050889558
 20
14.8622780288
 10
11.6960006534
 20
14.8558048314
  0
LWPOLYLINE
  5
48F
100
AcDbEntity
  8
0
100
AcDbPolyline
 62
7
  6
CONTINUOUS
 90
19
 70
0
 10
22.8569982929
 20
-1.3111535829
 10
22.8429833463
 20
-2.0354484554
 10
22.8016458033
 20
-2.7398141775
 10
22.7329856639
 20
-3.4242507491
 10
22.6367685072
 20
-4.0899836051
 10
22.5132287541
 20
-4.7357873106
 10
22.3630696674
 20
-5.3579855615
 10
22.1861394257
 20
-5.9564437256
 10
21.9825898505
 20
-6.531296435
 10
21.7535796686
 20
-7.0792712812
 10
21.4989636675
 20
-7.6002149683
 10
21.2188870597
 20
-8.0942807923
 10
20.9149442104
 20
-8.5586562324
 10
20.5869990001
 20
-8.9931719516
 10
20.2351875483
 20
-9.397997287
 10
19.861512578
 20
-9.7708277284
 10
19.4658493921
 20
-10.1114807953
 10
19.0483226877
 20
-10.4201389683
 10
18.6118045613
 20
-10.6947592361
  0
LWPOLYLINE
  5
490
100
AcDbEntity
  8
0
100
AcDbPolyline
 62
250
  6
CONTINUOUS
 90
40
 70
0
 10
5.4573792262
 20
-20.50394015
 10
5.4427847054
 20
-20.5120683238
 10
5.4276624107
 20
-20.5198542066
 10
5.4120363286
 20
-20.5272854487
 10
5.3959312447
 20
-20.534350263
 10
5.3793727045
 20
-20.5410374433
 10
5.3623869726
 20
-20.5473363827
 10
5.3450009913
 20
-20.55323709
 10
5.3272423378
 20
-20.5587302057
 10
5.3091391802
 20
-20.5638070167
 10
5.2907202333
 20
-20.5684594703
 10
5.2720147127
 20
-20.5726801871
 10
5.2530522884
 20
-20.5764624721
 10
5.2338630383
 20
-20.5798003261
 10
5.2144773996
 20
-20.5826884546
 10
5.1949261212
 20
-20.5851222766
 10
5.175240215
 20
-20.5870979316
 10
5.155450906
 20
-20.588612286
 10
5.1355895835
 20
-20.5896629376
 10
5.115687751
 20
-20.5902482199
 10
5.0957769761
 20
-20.5903672046
 10
5.0758888407
 20
-20.5900197031
 10
5.0560548907
 20
-20.5892062663
 10
5.0363065863
 20
-20.5879281847
 10
5.0166752516
 20
-20.5861874855
 10
4.9971920253
 20
-20.5839869297
 10
4.977887811
 20
-20.5813300078
 10
4.9587932285
 20
-20.578220934
 10
4.9399385652
 20
-20.57466464
 10
4.9213537276
 20
-20.5706667666
 10
4.9030681946
 20
-20.5662336552
 10
4.8851109701
 20
-20.5613723373
 10
4.8675105374
 20
-20.5560905239
 10
4.8502948136
 20
-20.5503965928
 10
4.833491106
 20
-20.5442995756
 10
4.817126068
 20
-20.5378091432
 10
4.8012256573
 20
-20.5309355906
 10
4.7858150948
 20
-20.5236898202
 10
4.7709188243
 20
-20.5160833253
 10
4.7565604736
 20
-20.5081281709
  0
LINE
  5
491
100
AcDbEntity
  8
DRAFT
100
AcDbLine
 62
7
  6
CONTINUOUS
 10
16.5009998599
 20
-18.298482773
 11
12.5932798162
 21
-19.7269896441
  0
LWPOLYLINE
  5
492
100
AcDbEntity
  8
0
100
AcDbPolyline
 62
7
  6
CONTINUOUS
 90
32
 70
0
 10
-10.202212985
 20
22.0962203835
 10
-10.2089166235
 20
22.0961350758
 10
-10.2156527799
 20
22.0959586414
 10
-10.222419438
 20
22.0956883267
 10
-10.2292175387
 20
22.0953200559
 10
-10.2360418978
 20
22.0948523998
 10
-10.2428812178
 20
22.0942867098
 10
-10.2497328646
 20
22.0936203592
 10
-10.2565948586
 20
22.0928508576
 10
-10.2634568086
 20
22.0919799639
 10
-10.2703159248
 20
22.0910052114
 10
-10.2771700372
 20
22.0899242368
 10
-10.2840095999
 20
22.0887390327
 10
-10.290831627
 20
22.0874472544
 10
-10.2976337966
 20
22.0860466293
 10
-10.3044074408
 20
22.084539196
 10
-10.3111496579
 20
22.0829226064
 10
-10.3178576525
 20
22.0811946896
 10
-10.3245227543
 20
22.0793575702
 10
-10.33114173
 20
22.0774089699
 10
-10.3377116848
 20
22.0753467282
 10
-10.3442242318
 20
22.0731728524
 10
-10.3506759772
 20
22.070885029
 10
-10.3570636657
 20
22.0684811219
 10
-10.3633788036
 20
22.0659629725
 10
-10.3696177863
 20
22.0633281896
 10
-10.3757769312
 20
22.0605746376
 10
-10.3818472015
 20
22.0577039769
 10
-10.3878247237
 20
22.0547137064
 10
-10.3937052998
 20
22.0516016804
 10
-10.3994788473
 20
22.0483694039
 10
-10.4025166451
 20
22.0465931914
  0
LINE
  5
493
100
AcDbEntity
  8
0
100
AcDbLine
 62
7
  6
CONTINUOUS
 10
-6.3083248542
 20
27.2852054376
 11
-2.9917846118
 21
25.3702766677
  0
LINE
  5
494
100
AcDbEntity
  8
0
100
AcDbLine
 62
7
  6
CONTINUOUS
 10
9.6015777225
 20
18.0990270878
 11
12.9181179649
 21
16.1840983178
  0
LINE
  5
495
100
AcDbEntity
  8
0
100
AcDbLine
 62
250
  6
CONTINUOUS
 10
-9.9419545166
 20
29.7846692998
 11
-7.0051829509
 21
28.0890142042
  0
LINE
  5
496
100
AcDbEntity
  8
0
100
AcDbLine
 62
250
  6
CONTINUOUS
 10
-2.6390539155
 20
25.5680660196
 11
0.2977176501
 21
23.872410924
  0
LINE
  5
497
100
AcDbEntity
  8
0
100
AcDbLine
 62
250
  6
CONTINUOUS
 10
5.9679480601
 20
20.5984909499
 11
8.9047196258
 21
18.9028358543
  0
LINE
  5
498
100
AcDbEntity
  8
0
100
AcDbLine
 62
250
  6
CONTINUOUS
 10
13.2708486612
 20
16.3818876697
 11
16.2076202268
 21
14.6862325741
  0
LINE
  5
499
100
AcDbEntity
  8
0
100
AcDbLine
 62
7
  6
CONTINUOUS
 10
-9.6470427347
 20
29.9479031475
 11
-6.5136002926
 21
28.1386927526
  0
LINE
  5
49A
100
AcDbEntity
  8
0
100
AcDbLine
 62
7
  6
CONTINUOUS
 10
-2.1388157681
 20
25.6127469971
 11
0.994626674
 21
23.8035366023
  0
LINE
  5
49B
100
AcDbEntity
  8
0
100
AcDbLine
 62
7
  6
CONTINUOUS
 10
6.262859842
 20
20.7617247976
 11
9.3963022841
 21
18.9525144028
  0
LINE
  5
49C
100
AcDbEntity
  8
0
100
AcDbLine
 62
7
  6
CONTINUOUS
 10
13.7710868086
 20
16.4265686473
 11
16.9045292507
 21
14.6173582524
  0
LWPOLYLINE
  5
49D
100
AcDbEntity
  8
0
100
AcDbPolyline
 62
250
  6
CONTINUOUS
 90
25
 70
0
 10
8.6144389804
 20
-29.4245566107
 10
8.6078575914
 20
-29.4329675544
 10
8.6014533444
 20
-29.4416050841
 10
8.5952386572
 20
-29.4504531058
 10
8.589224886
 20
-29.4594962151
 10
8.5834245455
 20
-29.4687163838
 10
8.5778510111
 20
-29.4780927878
 10
8.5725153974
 20
-29.4876068184
 10
8.5674274636
 20
-29.4972411679
 10
8.5625975433
 20
-29.5069763331
 10
8.5580350763
 20
-29.516793188
 10
8.553748441
 20
-29.5266736007
 10
8.5497455683
 20
-29.5365992974
 10
8.5460339873
 20
-29.5465517167
 10
8.5426209346
 20
-29.5565115692
 10
8.5395130773
 20
-29.566459419
 10
8.5367163729
 20
-29.5763761215
 10
8.5342360675
 20
-29.5862429916
 10
8.5320768427
 20
-29.5960413718
 10
8.5302427985
 20
-29.6057526573
 10
8.5287374387
 20
-29.6153582978
 10
8.5275636313
 20
-29.6248399649
 10
8.5267236062
 20
-29.6341795923
 10
8.5262189552
 20
-29.6433594086
 10
8.5260506328
 20
-29.6523619351
  0
LWPOLYLINE
  5
49E
100
AcDbEntity
  8
0
100
AcDbPolyline
 62
250
  6
CONTINUOUS
 90
28
 70
0
 10
9.4117829169
 20
-28.9947503234
 10
9.4234870718
 20
-28.9799614807
 10
9.4349105267
 20
-28.9648128176
 10
9.4460532814
 20
-28.949304334
 10
9.4569415749
 20
-28.9334007825
 10
9.4675491684
 20
-28.9171374106
 10
9.4777973451
 20
-28.9006199605
 10
9.4876799239
 20
-28.8838479084
 10
9.4972030859
 20
-28.8668217781
 10
9.5063066579
 20
-28.8496488831
 10
9.5149818561
 20
-28.8323384785
 10
9.5232374643
 20
-28.8148813091
 10
9.5310396598
 20
-28.7973569225
 10
9.5383837337
 20
-28.7797748813
 10
9.5452743948
 20
-28.7621256229
 10
9.5516919479
 20
-28.744460007
 10
9.5576390043
 20
-28.7267694341
 10
9.5631129525
 20
-28.7090625036
 10
9.5680862633
 20
-28.6914158733
 10
9.5725585394
 20
-28.6738150186
 10
9.5765301781
 20
-28.6562744642
 10
9.5799748414
 20
-28.6389144408
 10
9.5828851739
 20
-28.6217421295
 10
9.5852685309
 20
-28.6047503494
 10
9.5871206413
 20
-28.5880377885
 10
9.5884400813
 20
-28.5716373429
 10
9.5892282746
 20
-28.5555161166
 10
9.5894852212
 20
-28.5396741096
  0
LINE
  5
49F
100
AcDbEntity
  8
0
100
AcDbLine
 62
250
  6
CONTINUOUS
 10
8.6144389804
 20
-29.4245566107
 11
9.1475458935
 21
-28.7664119703
  0
LINE
  5
4A0
100
AcDbEntity
  8
0
100
AcDbLine
 62
250
  6
CONTINUOUS
 10
8.8786760038
 20
-29.6528949638
 11
9.4117829169
 21
-28.9947503234
  0
LINE
  5
4A1
100
AcDbEntity
  8
DRAFT
100
AcDbLine
 62
7
  6
CONTINUOUS
 10
16.8386280552
 20
-20.2047431248
 11
12.5932798162
 21
-22.6559581622
  0
LINE
  5
4A2
100
AcDbEntity
  8
DRAFT
100
AcDbLine
 62
7
  6
CONTINUOUS
 10
16.8386280552
 20
-18.4934250615
 11
12.5932798162
 21
-20.1158402384
  0
LWPOLYLINE
  5
4A3
100
AcDbEntity
  8
0
100
AcDbPolyline
 62
250
  6
CONTINUOUS
 90
27
 70
0
 10
-19.5335872133
 20
25.590589629
 10
-19.5274666284
 20
25.5901501358
 10
-19.5181217946
 20
25.589947944
 10
-19.5087602872
 20
25.5903093755
 10
-19.499403235
 20
25.5912336133
 10
-19.4900717681
 20
25.5927185706
 10
-19.4807869582
 20
25.5947608938
 10
-19.4715697719
 20
25.5973559711
 10
-19.4624410226
 20
25.6004979425
 10
-19.4534213177
 20
25.6041797158
 10
-19.444531032
 20
25.6083929749
 10
-19.4357902596
 20
25.6131281949
 10
-19.4272187496
 20
25.6183746717
 10
-19.4188358437
 20
25.6241205614
 10
-19.410660453
 20
25.6303528995
 10
-19.4027109807
 20
25.6370576641
 10
-19.395005439
 20
25.6442196704
 10
-19.3875613744
 20
25.6518225891
 10
-19.3803956733
 20
25.6598491168
 10
-19.3735243972
 20
25.6682812037
 10
-19.3669629146
 20
25.6770999671
 10
-19.3607255484
 20
25.686286254
 10
-19.3548269277
 20
25.695818621
 10
-19.3492815694
 20
25.7056733095
 10
-19.3441021221
 20
25.7158270999
 10
-19.3392995963
 20
25.7262576135
 10
-19.3348845656
 20
25.7369411524
  0
LINE
  5
4A4
100
AcDbEntity
  8
0
100
AcDbLine
 62
7
  6
CONTINUOUS
 10
-19.0004803002
 20
25.5416502682
 11
-19.0005176212
 21
25.5416536989
  0
LINE
  5
4A5
100
AcDbEntity
  8
0
100
AcDbLine
 62
7
  6
CONTINUOUS
 10
-19.0004803002
 20
25.5416502682
 11
-19.5335872133
 21
25.590589629
  0
LINE
  5
4A6
100
AcDbEntity
  8
0
100
AcDbLine
 62
250
  6
CONTINUOUS
 10
-18.8017776525
 20
25.6880017916
 11
-19.3348845656
 21
25.7369411524
  0
LWPOLYLINE
  5
4A7
100
AcDbEntity
  8
RACCORDO
100
AcDbPolyline
 62
7
  6
CONTINUOUS
 90
16
 70
0
 10
6.4766387422
 20
24.659881253
 10
5.8807483786
 20
24.8985233281
 10
5.2909941312
 20
25.1055593895
 10
4.7073760001
 20
25.2809894373
 10
4.1288268936
 20
25.4250399195
 10
3.5564139034
 20
25.5374843882
 10
2.9933383043
 20
25.6176434991
 10
2.4397219747
 20
25.6653176544
 10
1.8954430363
 20
25.680706452
 10
1.3633371284
 20
25.6637293422
 10
0.8434677579
 20
25.6142174214
 10
0.3357714179
 20
25.5323395931
 10
-0.1571067728
 20
25.4185220185
 10
-0.6350895027
 20
25.272598013
 10
-1.0982540833
 20
25.0947342612
 10
-1.177423284
 20
25.0576510259
  0
LWPOLYLINE
  5
4A8
100
AcDbEntity
  8
RACCORDO
100
AcDbPolyline
 62
7
  6
CONTINUOUS
 90
19
 70
0
 10
6.4766387422
 20
24.659881253
 10
6.5104290709
 20
24.6435386996
 10
6.5437421778
 20
24.6238890398
 10
6.5765780628
 20
24.6009322735
 10
6.6092198056
 20
24.5744058361
 10
6.6413843266
 20
24.5445722923
 10
6.6722223865
 20
24.5122193365
 10
6.7016986518
 20
24.4772798582
 10
6.7298484561
 20
24.439820968
 10
6.7559285605
 20
24.4008316922
 10
6.7798838338
 20
24.3602712652
 10
6.8017694072
 20
24.3181804527
 10
6.8210074365
 20
24.2756705774
 10
6.8375273979
 20
24.2327304767
 10
6.8513998152
 20
24.1893713132
 10
6.8622584152
 20
24.1467378982
 10
6.8699811068
 20
24.1052118353
 10
6.8746899811
 20
24.0644115207
 10
6.8763850381
 20
24.0243369546
  0
LINE
  5
4A9
100
AcDbEntity
  8
0
100
AcDbLine
 62
7
  6
CONTINUOUS
 10
6.8763850381
 20
23.020552347
 11
8.8305641029
 21
21.8922338466
  0
LINE
  5
4AA
100
AcDbEntity
  8
0
100
AcDbLine
 62
7
  6
CONTINUOUS
 10
11.1543810643
 20
-24.6834142184
 11
12.5932798162
 21
-23.5931864734
  0
LWPOLYLINE
  5
4AB
100
AcDbEntity
  8
0
100
AcDbPolyline
 62
250
  6
CONTINUOUS
 90
40
 70
0
 10
6.1602045072
 20
-29.5790155321
 10
6.1457645517
 20
-29.5891639892
 10
6.1307964479
 20
-29.598966866
 10
6.1153239437
 20
-29.6084086099
 10
6.0993715871
 20
-29.6174742408
 10
6.0829646874
 20
-29.6261493756
 10
6.0661292753
 20
-29.6344202507
 10
6.0488920609
 20
-29.6422737439
 10
6.0312803922
 20
-29.6496973951
 10
6.0133222112
 20
-29.6566794263
 10
5.9950460096
 20
-29.66320876
 10
5.9764807836
 20
-29.6692750372
 10
5.957655988
 20
-29.6748686332
 10
5.9386014896
 20
-29.6799806736
 10
5.9193475193
 20
-29.6846030477
 10
5.8999246248
 20
-29.6887284219
 10
5.8803636216
 20
-29.6923502511
 10
5.8606955445
 20
-29.695462789
 10
5.8409515979
 20
-29.6980610973
 10
5.8211631068
 20
-29.7001410538
 10
5.8013614668
 20
-29.7016993584
 10
5.7815780944
 20
-29.7027335388
 10
5.7618443771
 20
-29.7032419542
 10
5.7421916236
 20
-29.7032237979
 10
5.7226510141
 20
-29.7026790989
 10
5.703253551
 20
-29.7016087212
 10
5.6840300094
 20
-29.7000143631
 10
5.6650108888
 20
-29.6978985542
 10
5.6462263639
 20
-29.6952646512
 10
5.6277062376
 20
-29.6921168331
 10
5.6094798932
 20
-29.688460094
 10
5.5915762478
 20
-29.6843002356
 10
5.5740237067
 20
-29.6796438577
 10
5.5568501178
 20
-29.6744983479
 10
5.5400827283
 20
-29.66887187
 10
5.5237481404
 20
-29.6627733506
 10
5.5078722701
 20
-29.6562124654
 10
5.4924803053
 20
-29.6491996236
 10
5.4775966663
 20
-29.6417459515
 10
5.4632449668
 20
-29.6338632749
  0
LINE
  5
4AC
100
AcDbEntity
  8
0
100
AcDbLine
 62
7
  6
CONTINUOUS
 10
17.1473201299
 20
-21.1578582868
 11
12.5562529719
 21
-23.87527911
  0
LINE
  5
4AD
100
AcDbEntity
  8
0
100
AcDbLine
 62
7
  6
CONTINUOUS
 10
17.1473201299
 20
-20.7806268412
 11
12.5932798162
 21
-23.4567932314
  0
LINE
  5
4AE
100
AcDbEntity
  8
0
100
AcDbLine
 62
7
  6
CONTINUOUS
 10
11.8553170181
 20
-24.3195254087
 11
12.5562529719
 21
-23.9148130851
  0
LINE
  5
4AF
100
AcDbEntity
  8
0
100
AcDbLine
 62
7
  6
CONTINUOUS
 10
-7.8947179644
 20
27.0256861188
 11
-6.3083248542
 21
27.2852054376
  0
LINE
  5
4B0
100
AcDbEntity
  8
RACCORDO
100
AcDbLine
 62
7
  6
CONTINUOUS
 10
30.2816194954
 20
7.8747880374
 11
30.2816194954
 21
6.5278612444
  0
LWPOLYLINE
  5
4B1
100
AcDbEntity
  8
RACCORDO
100
AcDbPolyline
 62
250
  6
CONTINUOUS
 90
22
 70
0
 10
30.069487461
 20
2.8532472691
 10
30.0585860333
 20
2.2105339462
 10
30.0258981454
 20
1.5813760016
 10
29.9714729613
 20
0.9667197482
 10
29.8953923387
 20
0.3674896808
 10
29.7977707085
 20
-0.215412895
 10
29.6787549051
 20
-0.7811112203
 10
29.5385239595
 20
-1.3287543614
 10
29.3772887779
 20
-1.8575186886
 10
29.1952918032
 20
-2.3666090733
 10
28.9928066507
 20
-2.8552600059
 10
28.7701379387
 20
-3.3227362348
 10
28.5276208354
 20
-3.7683341344
 10
28.2656203004
 20
-4.1913833077
 10
27.984530322
 20
-4.5912477488
 10
27.6847735575
 20
-4.9673262753
 10
27.3668009373
 20
-5.3190531835
 10
27.0310906772
 20
-5.6458995297
 10
26.6781473307
 20
-5.9473740366
 10
26.3085015083
 20
-6.2230233309
 10
25.9227093314
 20
-6.4724325715
 10
25.8242937296
 20
-6.5303583844
  0
LWPOLYLINE
  5
4B2
100
AcDbEntity
  8
RACCORDO
100
AcDbPolyline
 62
7
  6
CONTINUOUS
 90
22
 70
0
 10
30.5088272893
 20
3.4656591591
 10
30.4973262808
 20
2.8036850563
 10
30.4628094716
 20
2.1544888063
 10
30.4052660182
 20
1.5188842898
 10
30.3246356707
 20
0.8972562698
 10
30.2209705903
 20
0.2908615156
 10
30.094590082
 20
-0.2983089071
 10
29.9456350001
 20
-0.8697564687
 10
29.7743458657
 20
-1.4226384624
 10
29.5815519476
 20
-1.9547477597
 10
29.3677810368
 20
-2.4654107792
 10
29.1334218018
 20
-2.9543745809
 10
28.8794493683
 20
-3.4203370555
 10
28.6066527622
 20
-3.8627190361
 10
28.3155600094
 20
-4.2814583289
 10
28.0069609529
 20
-4.6761335489
 10
27.6819279156
 20
-5.0461279617
 10
27.3409789359
 20
-5.3915675007
 10
26.9840576494
 20
-5.7129894251
 10
26.6116214186
 20
-6.0102635381
 10
26.2247547141
 20
-6.2828073019
 10
25.8242937296
 20
-6.5303583844
  0
LWPOLYLINE
  5
4B3
100
AcDbEntity
  8
0
100
AcDbPolyline
 62
250
  6
CONTINUOUS
 90
18
 70
0
 10
8.8258648579
 20
-30.0035883967
 10
8.8294545607
 20
-30.0014382849
 10
8.8351170399
 20
-29.9975157769
 10
8.8404798507
 20
-29.9931140456
 10
8.8455308453
 20
-29.988243062
 10
8.8502585817
 20
-29.98291386
 10
8.8546523506
 20
-29.9771385116
 10
8.858702199
 20
-29.9709300993
 10
8.862398953
 20
-29.9643026868
 10
8.8657342386
 20
-29.9572712866
 10
8.8687005004
 20
-29.9498518266
 10
8.8712910194
 20
-29.9420611137
 10
8.8734999271
 20
-29.9339167957
 10
8.8753222201
 20
-29.9254373216
 10
8.8767537703
 20
-29.9166418993
 10
8.8777913349
 20
-29.9075504527
 10
8.8784325635
 20
-29.898183576
 10
8.8786760038
 20
-29.8885624876
  0
LINE
  5
4B4
100
AcDbEntity
  8
0
100
AcDbLine
 62
250
  6
CONTINUOUS
 10
11.1543810643
 20
-27.4186034628
 11
11.8553170181
 21
-27.002015826
  0
LINE
  5
4B5
100
AcDbEntity
  8
0
100
AcDbLine
 62
7
  6
CONTINUOUS
 10
11.0519247295
 20
-27.6468368291
 11
11.753594564
 21
-27.2298130246
  0
LINE
  5
4B6
100
AcDbEntity
  8
0
100
AcDbLine
 62
250
  6
CONTINUOUS
 10
8.8786760038
 20
-29.8885624876
 11
11.1897364034
 21
-28.581985651
  0
LINE
  5
4B7
100
AcDbEntity
  8
0
100
AcDbLine
 62
7
  6
CONTINUOUS
 10
8.8258648579
 20
-30.0035883967
 11
11.1373106239
 21
-28.6967936902
  0
LWPOLYLINE
  5
4B8
100
AcDbEntity
  8
0
100
AcDbPolyline
 62
7
  6
CONTINUOUS
 90
3
 70
0
 10
11.0519249093
 20
-27.6468367393
 10
11.0450255545
 20
-27.6507216164
 10
11.0409205685
 20
-27.6528366804
  0
LWPOLYLINE
  5
4B9
100
AcDbEntity
  8
0
100
AcDbPolyline
 62
250
  6
CONTINUOUS
 90
33
 70
0
 10
9.5894852212
 20
-28.5396741096
 10
9.5808602211
 20
-28.5443737106
 10
9.5718589253
 20
-28.5488318564
 10
9.562501589
 20
-28.5530385153
 10
9.5528092687
 20
-28.5569842211
 10
9.5428037745
 20
-28.560660095
 10
9.5325076213
 20
-28.5640578653
 10
9.5219439779
 20
-28.5671698863
 10
9.5111366153
 20
-28.569989155
 10
9.5001098533
 20
-28.5725093273
 10
9.4888885046
 20
-28.5747247323
 10
9.4774978204
 20
-28.5766303846
 10
9.4659634337
 20
-28.5782219961
 10
9.4543113002
 20
-28.5794959852
 10
9.4425676399
 20
-28.5804494854
 10
9.4307588798
 20
-28.5810803511
 10
9.4189115928
 20
-28.5813871629
 10
9.4070524381
 20
-28.5813692307
 10
9.3952081015
 20
-28.5810265949
 10
9.3834052359
 20
-28.5803600269
 10
9.3716704004
 20
-28.5793710266
 10
9.360030001
 20
-28.5780618198
 10
9.3485102315
 20
-28.5764353527
 10
9.337137014
 20
-28.5744952854
 10
9.3259359406
 20
-28.5722459836
 10
9.3149322164
 20
-28.5696925088
 10
9.3041506023
 20
-28.5668406072
 10
9.2936153591
 20
-28.5636966962
 10
9.2833501935
 20
-28.5602678505
 10
9.2733782045
 20
-28.5565617859
 10
9.2637218307
 20
-28.5525868416
 10
9.254402801
 20
-28.5483519622
 10
9.2487468878
 20
-28.5455208956
  0
LWPOLYLINE
  5
4BA
100
AcDbEntity
  8
0
100
AcDbPolyline
 62
250
  6
CONTINUOUS
 90
34
 70
0
 10
8.8786760038
 20
-29.8885624876
 10
8.8700656586
 20
-29.8932544739
 10
8.861076258
 20
-29.8977077016
 10
8.8517275058
 20
-29.9019118547
 10
8.8420385361
 20
-29.9058577053
 10
8.8320320453
 20
-29.9095354084
 10
8.8217346826
 20
-29.9129349194
 10
8.8111712358
 20
-29.9160481388
 10
8.800363952
 20
-29.9188685918
 10
8.7893369507
 20
-29.9213899737
 10
8.7781148889
 20
-29.9236066201
 10
8.7667231589
 20
-29.9255134895
 10
8.7551876411
 20
-29.9271062417
 10
8.74353441
 20
-29.9283812841
 10
8.7317895889
 20
-29.9293357657
 10
8.719979537
 20
-29.9299675439
 10
8.7081308029
 20
-29.9302751936
 10
8.6962700882
 20
-29.9302580165
 10
8.6844241111
 20
-29.9299160488
 10
8.6726195411
 20
-29.9292500587
 10
8.6608829428
 20
-29.9282615434
 10
8.649240738
 20
-29.9269527267
 10
8.6377191304
 20
-29.9253265527
 10
8.6263440562
 20
-29.9233866805
 10
8.6151411286
 20
-29.9211374771
 10
8.6041355664
 20
-29.9185840048
 10
8.5933521404
 20
-29.9157320102
 10
8.5828151268
 20
-29.9125879133
 10
8.572548238
 20
-29.9091587887
 10
8.56257459
 20
-29.9054523564
 10
8.5529166509
 20
-29.9014769665
 10
8.5435961641
 20
-29.8972415712
 10
8.5346341011
 20
-29.8927557026
 10
8.5260506328
 20
-29.888029459
  0
LINE
  5
4BB
100
AcDbEntity
  8
0
100
AcDbLine
 62
250
  6
CONTINUOUS
 10
6.4971113253
 20
-29.7381953612
 11
11.1543810643
 21
-27.4184027948
  0
LINE
  5
4BC
100
AcDbEntity
  8
0
100
AcDbLine
 62
7
  6
CONTINUOUS
 10
6.3727088994
 20
-29.9780794375
 11
11.0409206165
 21
-27.6528366565
  0
LWPOLYLINE
  5
4BD
100
AcDbEntity
  8
RACCORDO
100
AcDbPolyline
 62
250
  6
CONTINUOUS
 90
11
 70
0
 10
23.3029685027
 20
20.919964109
 10
23.7726652218
 20
20.2920631248
 10
24.2300298658
 20
19.6505213621
 10
24.6743745511
 20
18.9963037361
 10
25.1050309227
 20
18.3303943068
 10
25.5213512167
 20
17.6537947236
 10
25.9227093242
 20
16.9675225638
 10
26.3085015153
 20
16.2726101619
 10
26.6781473481
 20
15.5701031165
 10
27.0310907001
 20
14.8610584662
 10
27.3668009628
 20
14.1465423181
  0
LWPOLYLINE
  5
4BE
100
AcDbEntity
  8
RACCORDO
100
AcDbPolyline
 62
250
  6
CONTINUOUS
 90
17
 70
0
 10
27.3668009628
 20
14.1465423181
 10
27.6847735817
 20
13.4276285978
 10
27.9845303396
 20
12.7053984858
 10
28.2656203093
 20
11.9809384037
 10
28.5276208381
 20
11.2553375959
 10
28.7701379389
 20
10.5296870313
 10
28.9928066502
 20
9.8050785575
 10
29.1952918028
 20
9.0826028463
 10
29.3772887782
 20
8.3633469142
 10
29.5385239608
 20
7.6483922356
 10
29.678754907
 20
6.9388139096
 10
29.7977707103
 20
6.2356791162
 10
29.8953923402
 20
5.5400455283
 10
29.9714729624
 20
4.852959466
 10
30.025898146
 20
4.1754543767
 10
30.0585860334
 20
3.5085492824
 10
30.069487461
 20
2.8532472691
  0
LWPOLYLINE
  5
4BF
100
AcDbEntity
  8
RACCORDO
100
AcDbPolyline
 62
7
  6
CONTINUOUS
 90
8
 70
0
 10
29.9518595961
 20
8.3712458015
 10
30.0981629767
 20
7.6513579766
 10
30.2225655271
 20
6.9368133696
 10
30.3248868405
 20
6.2282323926
 10
30.4049546849
 20
5.5258977736
 10
30.4624952467
 20
4.8305672387
 10
30.4972043099
 20
4.143484533
 10
30.5088272893
 20
3.4656591591
  0
LINE
  5
4C0
100
AcDbEntity
  8
RACCORDO
100
AcDbLine
 62
7
  6
CONTINUOUS
 10
18.8691206886
 20
26.3030408297
 11
20.0285711682
 21
25.6335886542
  0
LWPOLYLINE
  5
4C1
100
AcDbEntity
  8
RACCORDO
100
AcDbPolyline
 62
7
  6
CONTINUOUS
 90
27
 70
0
 10
19.9091029048
 20
25.4425805625
 10
20.4592678059
 20
24.9478077981
 10
21.0014437513
 20
24.4328247279
 10
21.5347468004
 20
23.898631997
 10
22.0583116592
 20
23.3462748969
 10
22.5716110555
 20
22.7764807414
 10
23.0742531496
 20
22.1898101518
 10
23.5656761249
 20
21.5870004902
 10
24.0450731505
 20
20.9691154378
 10
24.5116808024
 20
20.337227246
 10
24.9647682719
 20
19.6924268004
 10
25.4038113294
 20
19.0355548155
 10
25.8283662718
 20
18.3673339471
 10
26.237873337
 20
17.6886711441
 10
26.6316999923
 20
17.0006316999
 10
27.0092995169
 20
16.3041812585
 10
27.3701024205
 20
15.6003705633
 10
27.713600375
 20
14.8901803996
 10
28.0393559472
 20
14.1744741762
 10
28.3468867764
 20
13.4542366505
 10
28.6356940919
 20
12.7305426243
 10
28.9053369655
 20
12.0043822169
 10
29.1553576044
 20
11.2768499821
 10
29.3853617946
 20
10.5489251393
 10
29.595020653
 20
9.8214058748
 10
29.7840010516
 20
9.0950877778
 10
29.9518595961
 20
8.3712458015
  0
LINE
  5
4C2
100
AcDbEntity
  8
RACCORDO
100
AcDbLine
 62
7
  6
CONTINUOUS
 10
25.1572508246
 20
20.2194226759
 11
28.1572508246
 21
15.0232702586
  0
ARC
  5
4C3
100
AcDbEntity
  8
0
100
AcDbCircle
 62
7
  6
CONTINUOUS
 10
-21.1837188338
 20
27.0411712669
 40
0.25
100
AcDbArc
 50
120.5211956794
 51
179.9997926627
  0
ARC
  5
4C4
100
AcDbEntity
  8
0
100
AcDbCircle
 62
7
  6
CONTINUOUS
 10
-8.8800608412
 20
19.937193343
 40
0.25
100
AcDbArc
 50
120.5211956794
 51
179.9997926627
  0
ARC
  5
4C5
100
AcDbEntity
  8
0
100
AcDbCircle
 62
7
  6
CONTINUOUS
 10
-19.5107332413
 20
25.8395428294
 40
0.25
100
AcDbArc
 50
239.9983961183
 51
264.754929238
  0
ARC
  5
4C6
100
AcDbEntity
  8
0
100
AcDbCircle
 62
7
  6
CONTINUOUS
 10
-21.1837188338
 20
26.805503743
 40
0.25
100
AcDbArc
 50
179.9977551614
 51
240.011613776
  0
ARC
  5
4C7
100
AcDbEntity
  8
0
100
AcDbCircle
 62
7
  6
CONTINUOUS
 10
-7.2070752486
 20
18.7355649055
 40
0.25
100
AcDbArc
 50
239.9983961183
 51
264.754929238
  0
ARC
  5
4C8
100
AcDbEntity
  8
0
100
AcDbCircle
 62
7
  6
CONTINUOUS
 10
-8.8800608412
 20
19.7015258191
 40
0.25
100
AcDbArc
 50
179.9977551614
 51
240.011613776
  0
ARC
  5
4C9
100
AcDbEntity
  8
0
100
AcDbCircle
 62
7
  6
CONTINUOUS
 10
-5.2738162571
 20
17.854992917
 40
0.25
100
AcDbArc
 50
120.5211956794
 51
179.9997926627
  0
ARC
  5
4CA
100
AcDbEntity
  8
0
100
AcDbCircle
 62
7
  6
CONTINUOUS
 10
8.7028273281
 20
-29.7859608106
 40
0.25
100
AcDbArc
 50
239.9986111413
 51
299.4820009274
  0
ARC
  5
4CB
100
AcDbEntity
  8
0
100
AcDbCircle
 62
7
  6
CONTINUOUS
 10
7.0298417355
 20
10.7510149931
 40
0.25
100
AcDbArc
 50
120.5211956794
 51
179.9997926627
  0
ARC
  5
4CC
100
AcDbEntity
  8
0
100
AcDbCircle
 62
7
  6
CONTINUOUS
 10
-3.6008306646
 20
16.6533644795
 40
0.25
100
AcDbArc
 50
239.9983961183
 51
264.754929238
  0
ARC
  5
4CD
100
AcDbEntity
  8
0
100
AcDbCircle
 62
7
  6
CONTINUOUS
 10
-5.2738162571
 20
17.6193253932
 40
0.25
100
AcDbArc
 50
179.9977551614
 51
240.011613776
  0
ARC
  5
4CE
100
AcDbEntity
  8
0
100
AcDbCircle
 62
7
  6
CONTINUOUS
 10
8.7028273281
 20
9.5493865556
 40
0.25
100
AcDbArc
 50
239.9983961183
 51
264.754929238
  0
ARC
  5
4CF
100
AcDbEntity
  8
0
100
AcDbCircle
 62
7
  6
CONTINUOUS
 10
7.0298417355
 20
10.5153474693
 40
0.25
100
AcDbArc
 50
179.9977551614
 51
240.011613776
  0
ARC
  5
4D0
100
AcDbEntity
  8
0
100
AcDbCircle
 62
7
  6
CONTINUOUS
 10
3.9499193569
 20
13.7625198045
 40
0.2
100
AcDbArc
 50
120.6963937649
 51
179.9996204144
  0
ARC
  5
4D1
100
AcDbEntity
  8
0
100
AcDbCircle
 62
7
  6
CONTINUOUS
 10
-11.9599832198
 20
22.9486981544
 40
0.2
100
AcDbArc
 50
120.6963937649
 51
179.9996204144
  0
ARC
  5
4D2
100
AcDbEntity
  8
0
100
AcDbCircle
 62
7
  6
CONTINUOUS
 10
-10.9024084617
 20
21.5172434895
 40
0.2
100
AcDbArc
 50
120.69560649
 51
179.9995463042
  0
ARC
  5
4D3
100
AcDbEntity
  8
0
100
AcDbCircle
 62
7
  6
CONTINUOUS
 10
5.007494115
 20
12.3310651397
 40
0.2
100
AcDbArc
 50
120.69560649
 51
179.9995463042
  0
ELLIPSE
  5
4D4
100
AcDbEntity
  8
RACCORDO
100
AcDbEllipse
 62
7
  6
CONTINUOUS
 10
24.4190096716
 20
19.7931714865
 30
0.0
 11
-0.4999357615
 21
0.866062489
 31
0.0
 40
0.8524611862
 41
-1.5707093137
 42
-0.3525024364
  0
ELLIPSE
  5
4D5
100
AcDbEntity
  8
RACCORDO
100
AcDbEllipse
 62
7
  6
CONTINUOUS
 10
27.4190096716
 20
14.5970190692
 30
0.0
 11
-0.4999357615
 21
0.866062489
 31
0.0
 40
0.8524611862
 41
-2.788859948
 42
-1.5707093137
  0
ELLIPSE
  5
4D6
100
AcDbEntity
  8
RACCORDO
100
AcDbEllipse
 62
7
  6
CONTINUOUS
 10
29.5433783424
 20
7.448536848
 30
0.0
 11
0.5439934163
 21
0.8660502101
 31
0.0
 40
0.5762602363
 41
5.5408289753
 42
6.5220581902
  0
ELLIPSE
  5
4D7
100
AcDbEntity
  8
RACCORDO
100
AcDbEllipse
 62
7
  6
CONTINUOUS
 10
19.2903300152
 20
25.2073374647
 30
0.0
 11
1.0220169846
 21
0.038066069
 31
0.0
 40
0.5763181679
 41
-0.2425188217
 42
0.7423981387
  0
ELLIPSE
  5
4D8
100
AcDbEntity
  8
0
100
AcDbEllipse
 62
7
  6
CONTINUOUS
 10
4.8611360968
 20
14.3034662095
 30
0.0
 11
-0.1000133607
 21
0.1732086229
 31
0.0
 40
0.5773052889
 41
-0.7854480009
 42
0.006980788
  0
ELLIPSE
  5
4D9
100
AcDbEntity
  8
0
100
AcDbEllipse
 62
7
  6
CONTINUOUS
 10
-11.0487664799
 20
23.4896445593
 30
0.0
 11
-0.1000133607
 21
0.1732086229
 31
0.0
 40
0.5773052889
 41
-0.7854480009
 42
0.006980788
  0
ELLIPSE
  5
4DA
100
AcDbEntity
  8
0
100
AcDbEllipse
 62
7
  6
CONTINUOUS
 10
3.1640690518
 20
15.283331452
 30
0.0
 11
-0.100008793
 21
0.1732007077
 31
0.0
 40
0.5773580476
 41
-2.356244341
 42
-0.785493706
  0
ELLIPSE
  5
4DB
100
AcDbEntity
  8
0
100
AcDbEllipse
 62
7
  6
CONTINUOUS
 10
11.0129572848
 20
-28.4799100075
 30
0.0
 11
-0.1250094667
 21
0.2165087995
 31
0.0
 40
0.5773158418
 41
-3.1468282452
 42
-2.3562565166
  0
ELLIPSE
  5
4DC
100
AcDbEntity
  8
0
100
AcDbEllipse
 62
7
  6
CONTINUOUS
 10
11.0129572848
 20
11.1188928209
 30
0.0
 11
-0.1250060405
 21
0.2165028633
 31
0.0
 40
0.5773474973
 41
-2.3562291066
 42
-0.7854601952
  0
ELLIPSE
  5
4DD
100
AcDbEntity
  8
0
100
AcDbEllipse
 62
7
  6
CONTINUOUS
 10
-1.2907007078
 20
18.2228707448
 30
0.0
 11
-0.1250060405
 21
0.2165028633
 31
0.0
 40
0.5773474973
 41
-2.3562291066
 42
-0.7854601952
  0
ELLIPSE
  5
4DE
100
AcDbEntity
  8
0
100
AcDbEllipse
 62
7
  6
CONTINUOUS
 10
-18.8976547129
 20
28.3889053204
 30
0.0
 11
-0.1250094667
 21
0.2165087995
 31
0.0
 40
0.5773158418
 41
-0.7854327745
 42
0.0052355916
  0
ELLIPSE
  5
4DF
100
AcDbEntity
  8
0
100
AcDbEllipse
 62
7
  6
CONTINUOUS
 10
-6.5939967202
 20
21.2849273965
 30
0.0
 11
-0.1250094667
 21
0.2165087995
 31
0.0
 40
0.5773158418
 41
-0.7854327745
 42
0.0052355916
  0
ELLIPSE
  5
4E0
100
AcDbEntity
  8
0
100
AcDbEllipse
 62
7
  6
CONTINUOUS
 10
5.2566887176
 20
20.1879562568
 30
0.0
 11
1.0061852078
 21
0.5737549327
 31
0.0
 40
0.0052693892
 41
0.0030798314
 42
0.7827085602
  0
ELLIPSE
  5
4E1
100
AcDbEntity
  8
0
100
AcDbEllipse
 62
7
  6
CONTINUOUS
 10
-12.7458335249
 20
24.4695098019
 30
0.0
 11
-0.100008793
 21
0.1732007077
 31
0.0
 40
0.5773580476
 41
-2.356244341
 42
-0.785493706
  0
ELLIPSE
  5
4E2
100
AcDbEntity
  8
0
100
AcDbEllipse
 62
7
  6
CONTINUOUS
 10
-2.9877521362
 20
19.2027269705
 30
0.0
 11
-0.1250094667
 21
0.2165087995
 31
0.0
 40
0.5773158418
 41
-0.7854327745
 42
0.0052355916
  0
ELLIPSE
  5
4E3
100
AcDbEntity
  8
0
100
AcDbEllipse
 62
7
  6
CONTINUOUS
 10
-17.2006032845
 20
27.4090490947
 30
0.0
 11
-0.1250060405
 21
0.2165028633
 31
0.0
 40
0.5773474973
 41
-2.3562291066
 42
-0.7854601952
  0
ELLIPSE
  5
4E4
100
AcDbEntity
  8
0
100
AcDbEllipse
 62
7
  6
CONTINUOUS
 10
-4.8969452919
 20
20.3050711708
 30
0.0
 11
-0.1250060405
 21
0.2165028633
 31
0.0
 40
0.5773474973
 41
-2.3562291066
 42
-0.7854601952
  0
ELLIPSE
  5
4E5
100
AcDbEntity
  8
0
100
AcDbEllipse
 62
7
  6
CONTINUOUS
 10
9.3159058565
 20
12.0987490466
 30
0.0
 11
-0.1250094667
 21
0.2165087995
 31
0.0
 40
0.5773158418
 41
-0.7854327745
 42
0.0052355916
  0
ELLIPSE
  5
4E6
100
AcDbEntity
  8
0
100
AcDbEllipse
 62
7
  6
CONTINUOUS
 10
-2.643203573
 20
24.7492550565
 30
0.0
 11
0.5066221626
 21
0.862190468
 31
0.0
 40
0.5823475934
 41
0.004440142
 42
0.7840688627
  0
ELLIPSE
  5
4E7
100
AcDbEntity
  8
0
100
AcDbEllipse
 62
7
  6
CONTINUOUS
 10
0.877747653
 20
22.8842445646
 30
0.0
 11
0.4999950703
 21
0.0038122721
 31
0.0
 40
0.5824033911
 41
-0.7723854459
 42
-0.0044405753
  0
ELLIPSE
  5
4E8
100
AcDbEntity
  8
0
100
AcDbEllipse
 62
7
  6
CONTINUOUS
 10
13.2666990037
 20
15.5630767066
 30
0.0
 11
0.5066221626
 21
0.862190468
 31
0.0
 40
0.5823475934
 41
0.004440142
 42
0.7840688627
  0
ELLIPSE
  5
4E9
100
AcDbEntity
  8
0
100
AcDbEllipse
 62
7
  6
CONTINUOUS
 10
11.5017501648
 20
-26.7978500302
 30
0.0
 11
-0.2500332324
 21
0.4330240487
 31
0.0
 40
0.5773023583
 41
-3.1343210679
 42
-2.3562893423
  0
ELLIPSE
  5
4EA
100
AcDbEntity
  8
0
100
AcDbEllipse
 62
7
  6
CONTINUOUS
 10
11.5017501648
 20
8.8723870779
 30
0.0
 11
-0.2500205442
 21
0.4330020622
 31
0.0
 40
0.577360979
 41
-2.3562385877
 42
-0.7854930296
  0
ELLIPSE
  5
4EB
100
AcDbEntity
  8
0
100
AcDbEllipse
 62
7
  6
CONTINUOUS
 10
16.7876502297
 20
-21.3655756609
 30
0.0
 11
0.4999975532
 21
0.2922382515
 31
0.0
 40
0.0053525714
 41
-0.7710733282
 42
-0.0031284726
  0
ELLIPSE
  5
4EC
100
AcDbEntity
  8
0
100
AcDbEllipse
 62
7
  6
CONTINUOUS
 10
16.7876502297
 20
13.6980662148
 30
0.0
 11
0.4999950703
 21
0.0038122721
 31
0.0
 40
0.5824033911
 41
-0.7723854459
 42
-0.0044405753
  0
ELLIPSE
  5
4ED
100
AcDbEntity
  8
0
100
AcDbEllipse
 62
7
  6
CONTINUOUS
 10
5.5215926507
 20
18.7936757477
 30
0.0
 11
0.2519850909
 21
0.4318645151
 31
0.0
 40
0.5803466004
 41
0.5904568538
 42
0.7776200615
  0
ELLIPSE
  5
4EE
100
AcDbEntity
  8
0
100
AcDbEllipse
 62
7
  6
CONTINUOUS
 10
-10.388309926
 20
27.9798540976
 30
0.0
 11
0.2519850909
 21
0.4318645151
 31
0.0
 40
0.5803466004
 41
0.5904568538
 42
0.7776200615
  0
ELLIPSE
  5
4EF
100
AcDbEntity
  8
0
100
AcDbEllipse
 62
7
  6
CONTINUOUS
 10
-10.6532138591
 20
29.3741346067
 30
0.0
 11
1.0061852078
 21
0.5737549327
 31
0.0
 40
0.0052693892
 41
0.0030798314
 42
0.7827085602
  0
ELLIPSE
  5
4F0
100
AcDbEntity
  8
0
100
AcDbEllipse
 62
7
  6
CONTINUOUS
 10
11.1237807642
 20
15.5590425428
 30
0.0
 11
0.2533110813
 21
0.431095234
 31
0.0
 40
0.5823475934
 41
0.5893746678
 42
0.7794146514
  0
ELLIPSE
  5
4F1
100
AcDbEntity
  8
0
100
AcDbEllipse
 62
7
  6
CONTINUOUS
 10
-4.7861218124
 20
24.7452208927
 30
0.0
 11
0.2533110813
 21
0.431095234
 31
0.0
 40
0.5823475934
 41
0.5893746678
 42
0.7794146514
  0
ELLIPSE
  5
4F2
100
AcDbEntity
  8
0
100
AcDbEllipse
 62
7
  6
CONTINUOUS
 10
5.8755056146
 20
17.8838282328
 30
0.0
 11
0.4039377927
 21
-0.0020235049
 31
0.0
 40
0.5740189913
 41
-0.7737960074
 42
0.0028755094
  0
ELLIPSE
  5
4F3
100
AcDbEntity
  8
0
100
AcDbEllipse
 62
7
  6
CONTINUOUS
 10
11.4779378041
 20
14.6490541015
 30
0.0
 11
0.4039377927
 21
-0.0020235049
 31
0.0
 40
0.5740189913
 41
-0.7772866659
 42
0.0028755093
  0
ELLIPSE
  5
4F4
100
AcDbEntity
  8
0
100
AcDbEllipse
 62
7
  6
CONTINUOUS
 10
-15.5742606496
 20
24.8713717941
 30
0.0
 11
-0.100008793
 21
0.1732007077
 31
0.0
 40
0.5773580476
 41
-2.356244341
 42
-2.3510540451
  0
ELLIPSE
  5
4F5
100
AcDbEntity
  8
0
100
AcDbEllipse
 62
7
  6
CONTINUOUS
 10
16.7876502297
 20
14.4836207292
 30
0.0
 11
-0.3567823072
 21
0.610519958
 31
0.0
 40
0.573764555
 41
-3.1333143349
 42
-2.152900686
  0
ELLIPSE
  5
4F6
100
AcDbEntity
  8
0
100
AcDbEllipse
 62
7
  6
CONTINUOUS
 10
16.7876502297
 20
-20.5800211466
 30
0.0
 11
0.4999954027
 21
-0.0037463081
 31
0.0
 40
0.5723275643
 41
-0.763656627
 42
0.7896864073
  0
ELLIPSE
  5
4F7
100
AcDbEntity
  8
0
100
AcDbEllipse
 62
7
  6
CONTINUOUS
 10
60.8595150139
 20
43.8191934261
 30
0.0
 11
67.1693181951
 21
39.1920756672
 31
0.0
 40
0.0045340887
 41
-2.5183994339
 42
-2.3945942809
  0
ELLIPSE
  5
4F8
100
AcDbEntity
  8
0
100
AcDbEllipse
 62
7
  6
CONTINUOUS
 10
60.8595150139
 20
43.8191934261
 30
0.0
 11
67.1693181951
 21
39.1920756672
 31
0.0
 40
0.0045340887
 41
2.3893031766
 42
2.5062353936
  0
ELLIPSE
  5
4F9
100
AcDbEntity
  8
0
100
AcDbEllipse
 62
7
  6
CONTINUOUS
 10
11.6960006534
 20
15.2286499504
 30
0.0
 11
0.2480579158
 21
0.4341320996
 31
0.0
 40
0.5743009078
 41
0.5852205791
 42
0.7723837867
  0
ELLIPSE
  5
4FA
100
AcDbEntity
  8
0
100
AcDbEllipse
 62
7
  6
CONTINUOUS
 10
44.9496124372
 20
53.005371776
 30
0.0
 11
67.1693181951
 21
39.1920756672
 31
0.0
 40
0.0045340887
 41
-2.5183994339
 42
-2.3945942809
  0
ELLIPSE
  5
4FB
100
AcDbEntity
  8
0
100
AcDbEllipse
 62
7
  6
CONTINUOUS
 10
44.9496124372
 20
53.005371776
 30
0.0
 11
67.1693181951
 21
39.1920756672
 31
0.0
 40
0.0045340887
 41
2.3893031766
 42
2.5062353936
  0
ELLIPSE
  5
4FC
100
AcDbEntity
  8
0
100
AcDbEllipse
 62
7
  6
CONTINUOUS
 10
-4.2139019233
 20
24.4148283003
 30
0.0
 11
0.2480579158
 21
0.4341320996
 31
0.0
 40
0.5743009078
 41
0.5852205791
 42
0.7723837867
  0
ELLIPSE
  5
4FD
100
AcDbEntity
  8
0
100
AcDbEllipse
 62
7
  6
CONTINUOUS
 10
1.0007494781
 20
22.6452822342
 30
0.0
 11
-0.7006352283
 21
1.22850495
 31
0.0
 40
0.5737642108
 41
5.1239243361
 42
6.2865911274
  0
ELLIPSE
  5
4FE
100
AcDbEntity
  8
0
100
AcDbEllipse
 62
7
  6
CONTINUOUS
 10
-7.009260808
 20
27.2701617844
 30
0.0
 11
0.4935308613
 21
0.8697499888
 31
0.0
 40
0.5722717666
 41
5.4935476323
 42
7.0585261949
  0
ELLIPSE
  5
4FF
100
AcDbEntity
  8
0
100
AcDbEllipse
 62
7
  6
CONTINUOUS
 10
7.7332460804
 20
9.5705438255
 30
0.0
 11
0.249894357
 21
0.0119767658
 31
0.0
 40
0.6067642562
 41
3.1125202645
 42
3.8979184282
  0
ELLIPSE
  5
500
100
AcDbEntity
  8
0
100
AcDbEllipse
 62
7
  6
CONTINUOUS
 10
9.4136365455
 20
8.6003074312
 30
0.0
 11
0.249894357
 21
0.0119767658
 31
0.0
 40
0.6067642562
 41
-2.385266879
 42
-0.8197065399
  0
ELLIPSE
  5
501
100
AcDbEntity
  8
0
100
AcDbEllipse
 62
7
  6
CONTINUOUS
 10
-4.5704119122
 20
16.6745217494
 30
0.0
 11
0.249894357
 21
0.0119767658
 31
0.0
 40
0.6067642562
 41
3.1125202645
 42
3.8979184282
  0
ELLIPSE
  5
502
100
AcDbEntity
  8
0
100
AcDbEllipse
 62
7
  6
CONTINUOUS
 10
-2.8900214471
 20
15.7042853551
 30
0.0
 11
0.249894357
 21
0.0119767658
 31
0.0
 40
0.6067642562
 41
-2.385266879
 42
-0.8197065399
  0
ELLIPSE
  5
503
100
AcDbEntity
  8
0
100
AcDbEllipse
 62
7
  6
CONTINUOUS
 10
-6.4962660312
 20
17.786485781
 30
0.0
 11
0.249894357
 21
0.0119767658
 31
0.0
 40
0.6067642562
 41
-2.385266879
 42
-0.8197065399
  0
ELLIPSE
  5
504
100
AcDbEntity
  8
0
100
AcDbEllipse
 62
7
  6
CONTINUOUS
 10
-8.1766564963
 20
18.7567221753
 30
0.0
 11
0.249894357
 21
0.0119767658
 31
0.0
 40
0.6067642562
 41
3.1125202645
 42
3.8979184282
  0
ELLIPSE
  5
505
100
AcDbEntity
  8
0
100
AcDbEllipse
 62
7
  6
CONTINUOUS
 10
-18.7999240238
 20
24.8904637049
 30
0.0
 11
0.249894357
 21
0.0119767658
 31
0.0
 40
0.6067642562
 41
-2.385266879
 42
-0.8197065399
  0
ELLIPSE
  5
506
100
AcDbEntity
  8
0
100
AcDbEllipse
 62
7
  6
CONTINUOUS
 10
-20.4803144889
 20
25.8607000992
 30
0.0
 11
0.249894357
 21
0.0119767658
 31
0.0
 40
0.6067642562
 41
3.1125202645
 42
3.8979184282
  0
ELLIPSE
  5
507
100
AcDbEntity
  8
0
100
AcDbEllipse
 62
7
  6
CONTINUOUS
 10
0.877747653
 20
23.669799079
 30
0.0
 11
-0.3567823072
 21
0.610519958
 31
0.0
 40
0.573764555
 41
-3.1333143349
 42
-2.152900686
  0
ELLIPSE
  5
508
100
AcDbEntity
  8
0
100
AcDbEllipse
 62
7
  6
CONTINUOUS
 10
8.9006417687
 20
18.0839834345
 30
0.0
 11
0.4935308613
 21
0.8697499888
 31
0.0
 40
0.5722717666
 41
5.4935476323
 42
7.0585261949
  0
ELLIPSE
  5
509
100
AcDbEntity
  8
0
100
AcDbEllipse
 62
7
  6
CONTINUOUS
 10
16.9106520548
 20
13.4591038843
 30
0.0
 11
-0.7006352283
 21
1.22850495
 31
0.0
 40
0.5737642108
 41
5.1239243361
 42
6.2865911274
  0
ELLIPSE
  5
50A
100
AcDbEntity
  8
0
100
AcDbEllipse
 62
7
  6
CONTINUOUS
 10
6.0449455327
 20
12.1699479955
 30
0.0
 11
0.6376710281
 21
0.7439227357
 31
0.0
 40
0.4107608182
 41
-1.3482544923
 42
-0.8613584239
  0
ELLIPSE
  5
50B
100
AcDbEntity
  8
0
100
AcDbEllipse
 62
7
  6
CONTINUOUS
 10
-9.864957044
 20
21.3561263454
 30
0.0
 11
0.6376710281
 21
0.7439227357
 31
0.0
 40
0.4107608182
 41
-1.3482544923
 42
-0.8613584239
  0
ELLIPSE
  5
50C
100
AcDbEntity
  8
0
100
AcDbEllipse
 62
7
  6
CONTINUOUS
 10
6.0938125398
 20
18.4632831553
 30
0.0
 11
0.2467654307
 21
0.4348749944
 31
0.0
 40
0.5722717666
 41
0.5806466928
 42
0.7706866764
  0
ELLIPSE
  5
50D
100
AcDbEntity
  8
0
100
AcDbEllipse
 62
7
  6
CONTINUOUS
 10
-9.8160900369
 20
27.6494615052
 30
0.0
 11
0.2467654307
 21
0.4348749944
 31
0.0
 40
0.5722717666
 41
0.5806466928
 42
0.7706866764
  0
ELLIPSE
  5
50E
100
AcDbEntity
  8
0
100
AcDbEllipse
 62
7
  6
CONTINUOUS
 10
0.3356419271
 20
15.6851934442
 30
0.0
 11
-0.100008793
 21
0.1732007077
 31
0.0
 40
0.5773580476
 41
-2.356244341
 42
-2.3510540451
  0
ELLIPSE
  5
50F
100
AcDbEntity
  8
0
100
AcDbEllipse
 62
7
  6
CONTINUOUS
 10
3.9499193569
 20
12.5713609111
 30
0.0
 11
0.1999154856
 21
0.0095814127
 31
0.0
 40
0.6067642562
 41
3.1125202644
 42
3.8979184282
  0
ELLIPSE
  5
510
100
AcDbEntity
  8
0
100
AcDbEllipse
 62
7
  6
CONTINUOUS
 10
2.2368081607
 20
13.5604898455
 30
0.0
 11
0.1999154856
 21
0.0095814127
 31
0.0
 40
0.6067642562
 41
-2.385266879
 42
-0.8231971985
  0
ELLIPSE
  5
511
100
AcDbEntity
  8
0
100
AcDbEllipse
 62
7
  6
CONTINUOUS
 10
5.3475879165
 20
10.9050260209
 30
0.0
 11
0.1999154856
 21
0.0095814127
 31
0.0
 40
0.6067642562
 41
-2.385266879
 42
-0.8197065399
  0
ELLIPSE
  5
512
100
AcDbEntity
  8
0
100
AcDbEllipse
 62
7
  6
CONTINUOUS
 10
-0.2349801598
 20
14.1283308622
 30
0.0
 11
0.1999154856
 21
0.0095814127
 31
0.0
 40
0.6067642562
 41
-2.385266879
 42
-0.8231971985
  0
ELLIPSE
  5
513
100
AcDbEntity
  8
0
100
AcDbEllipse
 62
7
  6
CONTINUOUS
 10
5.007494115
 20
11.1013919196
 30
0.0
 11
0.1999154856
 21
0.0095814127
 31
0.0
 40
0.6067642562
 41
3.1125202644
 42
3.8979184282
  0
ELLIPSE
  5
514
100
AcDbEntity
  8
0
100
AcDbEllipse
 62
7
  6
CONTINUOUS
 10
-0.5750739613
 20
14.3246967608
 30
0.0
 11
0.1999154856
 21
0.0095814127
 31
0.0
 40
0.6067642562
 41
3.1125202645
 42
3.8979184282
  0
ELLIPSE
  5
515
100
AcDbEntity
  8
0
100
AcDbEllipse
 62
7
  6
CONTINUOUS
 10
-11.9599832198
 20
21.757539261
 30
0.0
 11
0.1999154856
 21
0.0095814127
 31
0.0
 40
0.6067642562
 41
3.1125202644
 42
3.8979184282
  0
ELLIPSE
  5
516
100
AcDbEntity
  8
0
100
AcDbEllipse
 62
7
  6
CONTINUOUS
 10
-10.9024084617
 20
20.2875702694
 30
0.0
 11
0.1999154856
 21
0.0095814127
 31
0.0
 40
0.6067642562
 41
3.1125202644
 42
3.8979184282
  0
ELLIPSE
  5
517
100
AcDbEntity
  8
0
100
AcDbEllipse
 62
7
  6
CONTINUOUS
 10
-10.5623146602
 20
20.0912043708
 30
0.0
 11
0.1999154856
 21
0.0095814127
 31
0.0
 40
0.6067642562
 41
-2.385266879
 42
-0.8197065399
  0
ELLIPSE
  5
518
100
AcDbEntity
  8
0
100
AcDbEllipse
 62
7
  6
CONTINUOUS
 10
-16.484976538
 20
23.5108751107
 30
0.0
 11
0.1999154856
 21
0.0095814127
 31
0.0
 40
0.6067642562
 41
3.1125202645
 42
3.8979184282
  0
ELLIPSE
  5
519
100
AcDbEntity
  8
0
100
AcDbEllipse
 62
7
  6
CONTINUOUS
 10
-13.673094416
 20
22.7466681953
 30
0.0
 11
0.1999154856
 21
0.0095814127
 31
0.0
 40
0.6067642562
 41
-2.385266879
 42
-0.8231971985
  0
ELLIPSE
  5
51A
100
AcDbEntity
  8
0
100
AcDbEllipse
 62
7
  6
CONTINUOUS
 10
-16.1448827365
 20
23.3145092121
 30
0.0
 11
0.1999154856
 21
0.0095814127
 31
0.0
 40
0.6067642562
 41
-2.385266879
 42
-0.8231971985
  0
ELLIPSE
  5
51B
100
AcDbEntity
  8
0
100
AcDbEllipse
 62
7
  6
CONTINUOUS
 10
-4.4319647726
 20
23.8352324514
 30
0.0
 11
0.4039377927
 21
-0.0020235049
 31
0.0
 40
0.5740189913
 41
-0.7772866659
 42
0.0028755093
  0
ELLIPSE
  5
51C
100
AcDbEntity
  8
0
100
AcDbEllipse
 62
7
  6
CONTINUOUS
 10
-10.0343969621
 20
27.0700065826
 30
0.0
 11
0.4039377927
 21
-0.0020235049
 31
0.0
 40
0.5740189913
 41
-0.7737960074
 42
0.0028755094
  0
ENDSEC
  0
SECTION
  2
OBJECTS
  0
DICTIONARY
  5
C
100
AcDbDictionary
280
0
281
1
  3
ACAD_GROUP
350
D
  3
ACAD_MLINESTYLE
350
17
  3
ACAD_LAYOUT
350
1A
  3
ACAD_PLOTSETTINGS
350
19
  3
ACAD_PLOTSTYLENAME
350
E
  0
DICTIONARY
  5
D
102
{ACAD_REACTORS
330
C
102
}
100
AcDbDictionary
280
0
281
1
  0
ACDBDICTIONARYWDFLT
  5
E
102
{ACAD_REACTORS
330
C
102
}
100
AcDbDictionary
281
1
  3
Normal
350
F
100
AcDbDictionaryWithDefault
340
F
  0
DICTIONARY
  5
17
102
{ACAD_REACTORS
330
C
102
}
100
AcDbDictionary
280
0
281
1
  3
Standard
350
18
  0
DICTIONARY
  5
19
102
{ACAD_REACTORS
330
C
102
}
100
AcDbDictionary
281
1
  0
DICTIONARY
  5
1A
102
{ACAD_REACTORS
330
C
102
}
100
AcDbDictionary
281
1
  3
Model
350
51D
  3
Layout1
350
51E
  0
ACDBPLACEHOLDER
  5
F
102
{ACAD_REACTORS
330
E
102
}
  0
MLINESTYLE
  5
18
102
{ACAD_REACTORS
330
17
102
}
100
AcDbMlineStyle
  2
STANDARD
 70
0
  3

 62
256
 51
90.0
 52
90.0
 71
2
 49
0.5
 62
256
  6
BYLAYER
 49
-0.5
 62
256
  6
BYLAYER
  0
LAYOUT
  5
51D
102
{ACAD_REACTORS
330
1A
102
}
100
AcDbPlotSettings
  1

  2
none_device
  4
ISO_A4_(297.00_x_210.00_MM)
  6

 40
0.0
 41
0.0
 42
0.0
 43
0.0
 44
297.0
 45
210.0
 46
0.0
 47
0.0
 48
0.0
 49
0.0
140
0.0
141
0.0
142
1.0
143
1.0
 70
1024
 72
1
 73
0
 74
0
  7

 75
0
147
1.0
148
0.0
149
0.0
100
AcDbLayout
  1
Model
 70
0
 71
0
 10
0.0
 20
0.0
 11
297.0
 21
210.0
 12
0.0
 22
0.0
 32
0.0
 14
0.0
 24
0.0
 34
0.0
 15
0.0
 25
0.0
 35
0.0
146
0.0
 13
0.0
 23
0.0
 33
0.0
 16
1.0
 26
0.0
 36
0.0
 17
0.0
 27
1.0
 37
0.0
 76
0
330
220
345
0
346
0
  0
LAYOUT
  5
51E
102
{ACAD_REACTORS
330
1A
102
}
100
AcDbPlotSettings
  1

  2
none_device
  4
ISO_A4_(297.00_x_210.00_MM)
  6

 40
0.0
 41
0.0
 42
0.0
 43
0.0
 44
297.0
 45
210.0
 46
0.0
 47
0.0
 48
0.0
 49
0.0
140
0.0
141
0.0
142
1.0
143
1.0
 70
0
 72
1
 73
0
 74
0
  7

 75
0
147
1.0
148
0.0
149
0.0
100
AcDbLayout
  1
Layout1
 70
0
 71
1
 10
0.0
 20
0.0
 11
297.0
 21
210.0
 12
0.0
 22
0.0
 32
0.0
 14
0.0
 24
0.0
 34
0.0
 15
0.0
 25
0.0
 35
0.0
146
0.0
 13
0.0
 23
0.0
 33
0.0
 16
1.0
 26
0.0
 36
0.0
 17
0.0
 27
1.0
 37
0.0
 76
0
330
221
345
0
346
0
  0
ENDSEC
  0
EOF
