  0
SECTION
  2
HEADER
  9
$ACADVER
  1
AC1015
  9
$DWGCODEPAGE
  3
ANSI_1252
  9
$EXTMAX
 10
297.0
 20
210.0
 30
0.0
  9
$EXTMIN
 10
0.0
 20
0.0
 30
0.0
  9
$LIMMIN
 10
0.0
 20
0.0
  9
$LIMMAX
 10
297.0
 20
210.0
  9
$VIEWCTR
 10
148.5
 20
105.0
  9
$VIEWSIZE
 40
210.0
  9
$CLAYER
  8
0
  9
$LTSCALE
 40
16.335
  9
$CELTYPE
  6
BYLAYER
  9
$DIMSCALE
 40
1.0
  9
$DIMASZ
 40
3.0
  9
$DIMEXO
 40
1.85625
  9
$DIMDLI
 40
11.286
  9
$DIMEXE
 40
5.346
  9
$DIMCEN
 40
2.673
  9
$DIMLFAC
 40
1.0
  9
$DIMBLK
  1
_FILLED
  9
$DIMTXT
 40
3.0
  9
$DIMTOL
 70
1
  9
$DIMLIM
 70
0
  9
$DIMTFAC
 40
1.0
  9
$DIMTP
 40
0.01
  9
$DIMTM
 40
0.01
  9
$PDMODE
 70
3
  9
$PDSIZE
 40
3.0
  9
$HANDSEED
  5
6C1
  9
$TILEMODE
 70
1
  9
$MEASUREMENT
 70
1
  9
$INSUNITS
 70
4
  0
ENDSEC
  0
SECTION
  2
CLASSES
  0
CLASS
  1
ACDBDICTIONARYWDFLT
  2
AcDbDictionaryWithDefault
  3
AutoCAD 2000
 90
0
280
0
281
0
  0
CLASS
  1
ACDBPLACEHOLDER
  2
AcDbPlaceHolder
  3
AutoCAD 2000
 90
0
280
0
281
0
  0
CLASS
  1
LAYOUT
  2
AcDbLayout
  3
AutoCAD 2000
 90
0
280
0
281
0
  0
ENDSEC
  0
SECTION
  2
TABLES
  0
TABLE
  2
VPORT
  5
8
100
AcDbSymbolTable
 70
2
  0
VPORT
  5
1F4
100
AcDbSymbolTableRecord
100
AcDbViewportTableRecord
  2
*ACTIVE
 70
0
 10
0.0
 20
0.0
 11
1.0
 21
1.0
 12
148.5
 22
105.0
 13
0.0
 23
0.0
 14
1.0
 24
1.0
 15
0.0
 25
0.0
 16
0.0
 26
0.0
 36
1.0
 17
0.0
 27
0.0
 37
0.0
 40
210.0
 41
1.4142857143
 42
50.0
 43
0.0
 44
0.0
 50
0.0
 51
0.0
 71
0
 72
100
 73
1
 74
1
 75
0
 76
0
 77
0
 78
0
  0
ENDTAB
  0
TABLE
  2
LTYPE
  5
5
100
AcDbSymbolTable
 70
6
  0
LTYPE
  5
14
100
AcDbSymbolTableRecord
100
AcDbLinetypeTableRecord
  2
BYBLOCK
 70
0
  3

 72
65
 73
0
 40
0.0
  0
LTYPE
  5
15
100
AcDbSymbolTableRecord
100
AcDbLinetypeTableRecord
  2
BYLAYER
 70
0
  3

 72
65
 73
0
 40
0.0
  0
LTYPE
  5
16
100
AcDbSymbolTableRecord
100
AcDbLinetypeTableRecord
  2
CONTINUOUS
 70
64
  3
Solid line
 72
65
 73
0
 40
0.0
  0
LTYPE
  5
1F5
100
AcDbSymbolTableRecord
100
AcDbLinetypeTableRecord
  2
CENTER
 70
64
  3
____ _ ____ _ ____ _ ____ _ ____ _ ____ _ ____
 72
65
 73
4
 40
0.6
 49
0.375
 74
0
 49
-0.075
 74
0
 49
0.075
 74
0
 49
-0.075
 74
0
  0
LTYPE
  5
1F6
100
AcDbSymbolTableRecord
100
AcDbLinetypeTableRecord
  2
HIDDEN
 70
64
  3
- - - - - - - - - - - - - - - - - - - -
 72
65
 73
2
 40
0.2
 49
0.1
 74
0
 49
-0.1
 74
0
  0
LTYPE
  5
1F7
100
AcDbSymbolTableRecord
100
AcDbLinetypeTableRecord
  2
PHANTOM
 70
64
  3
_____ _ _ _____ _ _ _____ _ _ _____
 72
65
 73
6
 40
0.8
 49
0.45
 74
0
 49
-0.05
 74
0
 49
0.1
 74
0
 49
-0.05
 74
0
 49
0.1
 74
0
 49
-0.05
 74
0
  0
LTYPE
  5
1F8
100
AcDbSymbolTableRecord
100
AcDbLinetypeTableRecord
  2
DOT
 70
64
  3
. . . . . . . . . . . . . . . . . . . .
 72
65
 73
2
 40
0.2
 49
0.1
 74
0
 49
-0.1
 74
0
  0
LTYPE
  5
1F9
100
AcDbSymbolTableRecord
100
AcDbLinetypeTableRecord
  2
DASHED
 70
64
  3
- - - - - - - - - - - - - - - - - - - -
 72
65
 73
2
 40
0.2
 49
0.1
 74
0
 49
-0.1
 74
0
  0
ENDTAB
  0
TABLE
  2
LAYER
  5
2
100
AcDbSymbolTable
 70
36
  0
LAYER
  5
10
100
AcDbSymbolTableRecord
100
AcDbLayerTableRecord
  2
0
 70
0
 62
7
  6
CONTINUOUS
370
-3
390
F
  0
LAYER
  5
1FA
100
AcDbSymbolTableRecord
100
AcDbLayerTableRecord
  2
DEFAULT_1
 70
0
 62
7
  6
CENTER
370
-3
390
F
  0
LAYER
  5
1FB
100
AcDbSymbolTableRecord
100
AcDbLayerTableRecord
  2
DEFAULT_2
 70
0
 62
7
  6
HIDDEN
370
-3
390
F
  0
LAYER
  5
1FC
100
AcDbSymbolTableRecord
100
AcDbLayerTableRecord
  2
DEFAULT_3
 70
0
 62
7
  6
PHANTOM
370
-3
390
F
  0
LAYER
  5
1FD
100
AcDbSymbolTableRecord
100
AcDbLayerTableRecord
  2
ASSI
 70
0
 62
7
  6
CONTINUOUS
370
-3
390
F
  0
LAYER
  5
1FE
100
AcDbSymbolTableRecord
100
AcDbLayerTableRecord
  2
COLOR9
 70
0
 62
7
  6
CONTINUOUS
370
-3
390
F
  0
LAYER
  5
1FF
100
AcDbSymbolTableRecord
100
AcDbLayerTableRecord
  2
COLORE_TOP
 70
0
 62
7
  6
CONTINUOUS
370
-3
390
F
  0
LAYER
  5
200
100
AcDbSymbolTableRecord
100
AcDbLayerTableRecord
  2
COORDINATE
 70
0
 62
7
  6
CONTINUOUS
370
-3
390
F
  0
LAYER
  5
201
100
AcDbSymbolTableRecord
100
AcDbLayerTableRecord
  2
COORD_ORIGINE
 70
0
 62
7
  6
CONTINUOUS
370
-3
390
F
  0
LAYER
  5
202
100
AcDbSymbolTableRecord
100
AcDbLayerTableRecord
  2
COPY-PUBBLISH
 70
0
 62
7
  6
CONTINUOUS
370
-3
390
F
  0
LAYER
  5
203
100
AcDbSymbolTableRecord
100
AcDbLayerTableRecord
  2
COPY_PUBLISH
 70
0
 62
7
  6
CONTINUOUS
370
-3
390
F
  0
LAYER
  5
204
100
AcDbSymbolTableRecord
100
AcDbLayerTableRecord
  2
COSMETIC
 70
0
 62
7
  6
CONTINUOUS
370
-3
390
F
  0
LAYER
  5
205
100
AcDbSymbolTableRecord
100
AcDbLayerTableRecord
  2
COSMETICHE
 70
0
 62
7
  6
CONTINUOUS
370
-3
390
F
  0
LAYER
  5
206
100
AcDbSymbolTableRecord
100
AcDbLayerTableRecord
  2
COSMETICI
 70
0
 62
7
  6
CONTINUOUS
370
-3
390
F
  0
LAYER
  5
207
100
AcDbSymbolTableRecord
100
AcDbLayerTableRecord
  2
CURVE
 70
0
 62
7
  6
CONTINUOUS
370
-3
390
F
  0
LAYER
  5
208
100
AcDbSymbolTableRecord
100
AcDbLayerTableRecord
  2
DRAFT
 70
0
 62
7
  6
CONTINUOUS
370
-3
390
F
  0
LAYER
  5
209
100
AcDbSymbolTableRecord
100
AcDbLayerTableRecord
  2
IMPORTED
 70
0
 62
7
  6
CONTINUOUS
370
-3
390
F
  0
LAYER
  5
20A
100
AcDbSymbolTableRecord
100
AcDbLayerTableRecord
  2
IMPORT_IGES
 70
0
 62
7
  6
CONTINUOUS
370
-3
390
F
  0
LAYER
  5
20B
100
AcDbSymbolTableRecord
100
AcDbLayerTableRecord
  2
INCISIONI_LASER
 70
0
 62
7
  6
CONTINUOUS
370
-3
390
F
  0
LAYER
  5
20C
100
AcDbSymbolTableRecord
100
AcDbLayerTableRecord
  2
INTF_1
 70
0
 62
7
  6
CONTINUOUS
370
-3
390
F
  0
LAYER
  5
20D
100
AcDbSymbolTableRecord
100
AcDbLayerTableRecord
  2
INTF_YELLOW
 70
0
 62
7
  6
CONTINUOUS
370
-3
390
F
  0
LAYER
  5
20E
100
AcDbSymbolTableRecord
100
AcDbLayerTableRecord
  2
NOTE
 70
0
 62
7
  6
CONTINUOUS
370
-3
390
F
  0
LAYER
  5
20F
100
AcDbSymbolTableRecord
100
AcDbLayerTableRecord
  2
PIANI
 70
0
 62
7
  6
CONTINUOUS
370
-3
390
F
  0
LAYER
  5
210
100
AcDbSymbolTableRecord
100
AcDbLayerTableRecord
  2
PIANI_DI_RIFERIMENTO
 70
0
 62
7
  6
CONTINUOUS
370
-3
390
F
  0
LAYER
  5
211
100
AcDbSymbolTableRecord
100
AcDbLayerTableRecord
  2
PIANI_ORIGINE
 70
0
 62
7
  6
CONTINUOUS
370
-3
390
F
  0
LAYER
  5
212
100
AcDbSymbolTableRecord
100
AcDbLayerTableRecord
  2
PIANI_RIFERIMENTO
 70
0
 62
7
  6
CONTINUOUS
370
-3
390
F
  0
LAYER
  5
213
100
AcDbSymbolTableRecord
100
AcDbLayerTableRecord
  2
PIANI_SFORMO
 70
0
 62
7
  6
CONTINUOUS
370
-3
390
F
  0
LAYER
  5
214
100
AcDbSymbolTableRecord
100
AcDbLayerTableRecord
  2
PUNTI
 70
0
 62
7
  6
CONTINUOUS
370
-3
390
F
  0
LAYER
  5
215
100
AcDbSymbolTableRecord
100
AcDbLayerTableRecord
  2
RACCORDO
 70
0
 62
7
  6
CONTINUOUS
370
-3
390
F
  0
LAYER
  5
216
100
AcDbSymbolTableRecord
100
AcDbLayerTableRecord
  2
SIMBOLI
 70
0
 62
7
  6
CONTINUOUS
370
-3
390
F
  0
LAYER
  5
217
100
AcDbSymbolTableRecord
100
AcDbLayerTableRecord
  2
SMUSSO
 70
0
 62
7
  6
CONTINUOUS
370
-3
390
F
  0
LAYER
  5
218
100
AcDbSymbolTableRecord
100
AcDbLayerTableRecord
  2
SNAPLINE
 70
0
 62
7
  6
CONTINUOUS
370
-3
390
F
  0
LAYER
  5
219
100
AcDbSymbolTableRecord
100
AcDbLayerTableRecord
  2
SUPERFICI
 70
0
 62
7
  6
CONTINUOUS
370
-3
390
F
  0
LAYER
  5
21A
100
AcDbSymbolTableRecord
100
AcDbLayerTableRecord
  2
SUP_COLORE
 70
0
 62
7
  6
CONTINUOUS
370
-3
390
F
  0
LAYER
  5
21B
100
AcDbSymbolTableRecord
100
AcDbLayerTableRecord
  2
TRASH
 70
0
 62
7
  6
CONTINUOUS
370
-3
390
F
  0
LAYER
  5
21C
100
AcDbSymbolTableRecord
100
AcDbLayerTableRecord
  2
XSEC_DATUMS
 70
0
 62
7
  6
CONTINUOUS
370
-3
390
F
  0
ENDTAB
  0
TABLE
  2
STYLE
  5
3
100
AcDbSymbolTable
 70
1
  0
STYLE
  5
11
100
AcDbSymbolTableRecord
100
AcDbTextStyleTableRecord
  2
STANDARD
 70
0
 40
0.0
 41
0.8
 50
0.0
 71
0
 42
0.2
  3
txt
  4

  0
STYLE
  5
21D
100
AcDbSymbolTableRecord
100
AcDbTextStyleTableRecord
  2
TEXTSTYLE_1
 70
0
 40
0.0
 41
0.8
 50
0.0
 71
0
 42
0.2
  3
gdt
  4

  0
ENDTAB
  0
TABLE
  2
VIEW
  5
6
100
AcDbSymbolTable
 70
0
  0
ENDTAB
  0
TABLE
  2
UCS
  5
7
100
AcDbSymbolTable
 70
0
  0
ENDTAB
  0
TABLE
  2
APPID
  5
9
100
AcDbSymbolTable
 70
1
  0
APPID
  5
21E
100
AcDbSymbolTableRecord
100
AcDbRegAppTableRecord
  2
ACAD
 70
0
  0
ENDTAB
  0
TABLE
  2
BLOCK_RECORD
  5
1
100
AcDbSymbolTable
 70
0
  0
BLOCK_RECORD
  5
21F
100
AcDbSymbolTableRecord
100
AcDbBlockTableRecord
  2
*Model_Space
  0
BLOCK_RECORD
  5
220
100
AcDbSymbolTableRecord
100
AcDbBlockTableRecord
  2
*Paper_Space
  0
ENDTAB
  0
TABLE
  2
DIMSTYLE
  5
A
100
AcDbSymbolTable
 70
1
100
AcDbDimStyleTable
 71
0
  0
DIMSTYLE
105
221
100
AcDbSymbolTableRecord
100
AcDbDimStyleTableRecord
  2
STANDARD
 70
0
  3

  4

 40
1.0
 41
3.0
 42
0.0625
 43
0.38
 44
0.18
 45
0.0
 46
0.0
 47
0.01
 48
0.01
140
3.0
141
0.09
142
0.0
143
25.4
144
1.0
145
0.0
146
1.0
147
0.09
 71
1.0
 72
0.0
 73
0
 74
0
 75
0
 76
0
 77
1
 78
8
170
0
171
2
172
0
173
0
174
0
175
0
176
0
177
0
178
0
270
2
271
2
272
2
273
2
274
2
275
0
280
0
281
0
282
0
283
1
284
8
285
0
286
0
287
3
288
0
340
11
  0
ENDTAB
  0
ENDSEC
  0
SECTION
  2
BLOCKS
  0
BLOCK
  5
20
100
AcDbEntity
  8
0
100
AcDbBlockBegin
  2
*Model_Space
 70
0
 10
0.0
 20
0.0
 30
0.0
  3
*Model_Space
  1

  0
ENDBLK
  5
21
100
AcDbEntity
  8
0
100
AcDbBlockEnd
  0
BLOCK
  5
1C
100
AcDbEntity
  8
0
100
AcDbBlockBegin
  2
*Paper_Space
 70
0
 10
0.0
 20
0.0
 30
0.0
  3
*Paper_Space
  1

  0
ENDBLK
  5
1D
100
AcDbEntity
  8
0
100
AcDbBlockEnd
  0
ENDSEC
  0
SECTION
  2
ENTITIES
  0
LINE
  5
222
100
AcDbEntity
  8
0
100
AcDbLine
 62
253
  6
CONTINUOUS
 10
106.5998303854
 20
67.8948246257
 11
106.0415939749
 21
67.9398106767
  0
LINE
  5
223
100
AcDbEntity
  8
0
100
AcDbLine
 62
253
  6
CONTINUOUS
 10
106.5266731035
 20
68.1572862926
 11
106.0415939749
 21
68.1963768894
  0
LWPOLYLINE
  5
224
100
AcDbEntity
  8
0
100
AcDbPolyline
 62
7
  6
CONTINUOUS
 90
16
 70
0
 10
105.1037985616
 20
67.5095503939
 10
105.0894367078
 20
67.5111149092
 10
105.0738968317
 20
67.5136124088
 10
105.0572166363
 20
67.5169665578
 10
105.0393834698
 20
67.5209957181
 10
105.0205362492
 20
67.5256907444
 10
105.0009617539
 20
67.5312167593
 10
104.9807615953
 20
67.5374430968
 10
104.9600595999
 20
67.5442393962
 10
104.9391969538
 20
67.5517548112
 10
104.9183573583
 20
67.5598169386
 10
104.897689177
 20
67.5682740506
 10
104.8775040767
 20
67.5772829485
 10
104.8580559258
 20
67.586757977
 10
104.8395403576
 20
67.5963841876
 10
104.8222112718
 20
67.605953545
  0
LWPOLYLINE
  5
225
100
AcDbEntity
  8
0
100
AcDbPolyline
 62
253
  6
CONTINUOUS
 90
13
 70
0
 10
104.1039961553
 20
66.6384255644
 10
104.1234654186
 20
66.628554667
 10
104.1449821126
 20
66.6202196044
 10
104.1681852783
 20
66.6135604255
 10
104.192685898
 20
66.6086890216
 10
104.2180725183
 20
66.6056874334
 10
104.2439180647
 20
66.6046062351
 10
104.2698065547
 20
66.6054648175
 10
104.295284922
 20
66.6082501422
 10
104.3198737666
 20
66.612903517
 10
104.3431521116
 20
66.6193301787
 10
104.3647594439
 20
66.6274147355
 10
104.3843491856
 20
66.637012926
  0
LWPOLYLINE
  5
226
100
AcDbEntity
  8
RACCORDO
100
AcDbPolyline
 62
7
  6
CONTINUOUS
 90
12
 70
0
 10
101.2561611055
 20
66.1492128406
 10
101.2636174554
 20
66.1449555244
 10
101.3296528141
 20
66.1124131443
 10
101.3985237263
 20
66.0873122172
 10
101.4697309391
 20
66.0696757367
 10
101.543616421
 20
66.059484259
 10
101.6195931315
 20
66.0570643546
 10
101.6968250856
 20
66.0626330992
 10
101.7755890414
 20
66.0764801646
 10
101.8556852857
 20
66.0990657238
 10
101.9361857866
 20
66.1306234471
 10
101.9838221189
 20
66.1536239358
  0
LINE
  5
227
100
AcDbEntity
  8
RACCORDO
100
AcDbLine
 62
7
  6
CONTINUOUS
 10
86.3832521929
 20
74.7366373364
 11
86.3826315145
 21
74.7369947955
  0
LINE
  5
228
100
AcDbEntity
  8
ASSI
100
AcDbLine
 62
7
  6
CONTINUOUS
 10
101.2569921306
 20
66.1487253953
 11
86.3825970899
 21
74.7370146718
  0
LINE
  5
229
100
AcDbEntity
  8
RACCORDO
100
AcDbLine
 62
253
  6
CONTINUOUS
 10
101.0552028891
 20
66.4905877941
 11
86.1860935686
 21
75.075825162
  0
LINE
  5
22A
100
AcDbEntity
  8
0
100
AcDbLine
 62
7
  6
CONTINUOUS
 10
104.1454126795
 20
66.184077313
 11
102.7899225958
 21
66.9667202991
  0
LINE
  5
22B
100
AcDbEntity
  8
0
100
AcDbLine
 62
253
  6
CONTINUOUS
 10
104.1039961553
 20
66.2756246853
 11
102.7899225958
 21
67.0343542893
  0
LINE
  5
22C
100
AcDbEntity
  8
0
100
AcDbLine
 62
253
  6
CONTINUOUS
 10
104.1453769815
 20
66.1840979394
 11
104.1454128019
 21
66.1840772423
  0
LINE
  5
22D
100
AcDbEntity
  8
RACCORDO
100
AcDbLine
 62
7
  6
CONTINUOUS
 10
101.2560724367
 20
66.1492581822
 11
101.256957999
 21
66.1487451024
  0
LWPOLYLINE
  5
22E
100
AcDbEntity
  8
RACCORDO
100
AcDbPolyline
 62
253
  6
CONTINUOUS
 90
9
 70
0
 10
86.3750174351
 20
74.7415307198
 10
86.3389329632
 20
74.7672182163
 10
86.30606716
 20
74.7979446579
 10
86.2766187206
 20
74.8335261501
 10
86.2507687113
 20
74.8737472559
 10
86.2286691518
 20
74.9183682568
 10
86.2104526497
 20
74.9671212748
 10
86.196231919
 20
75.0197122767
 10
86.1860935686
 20
75.075825162
  0
LWPOLYLINE
  5
22F
100
AcDbEntity
  8
RACCORDO
100
AcDbPolyline
 62
7
  6
CONTINUOUS
 90
8
 70
0
 10
86.1215747415
 20
75.0116004442
 10
86.1535502649
 20
74.9565768635
 10
86.1895710936
 20
74.9056819655
 10
86.2292712899
 20
74.8591079005
 10
86.2726384831
 20
74.8166628803
 10
86.3194266865
 20
74.7785181838
 10
86.3690690075
 20
74.7450524651
 10
86.3833351595
 20
74.7365947048
  0
LWPOLYLINE
  5
230
100
AcDbEntity
  8
0
100
AcDbPolyline
 62
253
  6
CONTINUOUS
 90
6
 70
0
 10
103.0454130924
 20
71.8702435026
 10
103.0290190576
 20
71.8700774359
 10
103.0118241406
 20
71.8724080416
 10
102.9940008114
 20
71.8772259426
 10
102.9757570512
 20
71.8844909295
 10
102.9572946032
 20
71.8941356495
  0
LWPOLYLINE
  5
231
100
AcDbEntity
  8
0
100
AcDbPolyline
 62
253
  6
CONTINUOUS
 90
19
 70
0
 10
103.2736136763
 20
70.7734378135
 10
103.3143877201
 20
70.7625082053
 10
103.3545330206
 20
70.7554971149
 10
103.3933147655
 20
70.7525623811
 10
103.430688462
 20
70.7537834426
 10
103.466698603
 20
70.7590808607
 10
103.5007438537
 20
70.7683741582
 10
103.5327930765
 20
70.7817324227
 10
103.5628774092
 20
70.7990865666
 10
103.5904889302
 20
70.8201488506
 10
103.6155852139
 20
70.8449853316
 10
103.638208686
 20
70.8735299526
 10
103.6579787018
 20
70.9052968038
 10
103.6748447414
 20
70.9403648857
 10
103.6888573248
 20
70.9786551976
 10
103.6997873674
 20
71.0194448278
 10
103.7075585078
 20
71.0624928058
 10
103.7122471073
 20
71.108040102
 10
103.7138531661
 20
71.1560867166
  0
LWPOLYLINE
  5
232
100
AcDbEntity
  8
0
100
AcDbPolyline
 62
253
  6
CONTINUOUS
 90
13
 70
0
 10
105.4871442953
 20
68.2761371383
 10
105.50646749
 20
68.2663311868
 10
105.5278108559
 20
68.2580384982
 10
105.5508212572
 20
68.2513962789
 10
105.5751179759
 20
68.2465144276
 10
105.6002990114
 20
68.2434737168
 10
105.6259477318
 20
68.2423244565
 10
105.6516397669
 20
68.2430856617
 10
105.67695003
 20
68.245744738
 10
105.701459751
 20
68.2502576898
 10
105.7247634049
 20
68.2565498482
 10
105.746475422
 20
68.2645171066
 10
105.7662365667
 20
68.2740276429
  0
LWPOLYLINE
  5
233
100
AcDbEntity
  8
0
100
AcDbPolyline
 62
7
  6
CONTINUOUS
 90
10
 70
0
 10
105.3166614861
 20
68.062003231
 10
105.3539615007
 20
68.0426377149
 10
105.3957387597
 20
68.025958475
 10
105.4375390616
 20
68.0143787285
 10
105.4791752458
 20
68.0078791353
 10
105.5202218656
 20
68.0064526873
 10
105.5598669858
 20
68.0099624383
 10
105.5974917879
 20
68.0180880611
 10
105.6328164719
 20
68.0304575255
 10
105.6488990744
 20
68.0377929116
  0
LWPOLYLINE
  5
234
100
AcDbEntity
  8
0
100
AcDbPolyline
 62
253
  6
CONTINUOUS
 90
19
 70
0
 10
105.2752302633
 20
68.1535524463
 10
105.2939219789
 20
68.1437446199
 10
105.3122039133
 20
68.1359679611
 10
105.3300760665
 20
68.1302224701
 10
105.3476701986
 20
68.1264942765
 10
105.3648545495
 20
68.1247972505
 10
105.3812338389
 20
68.125173003
 10
105.3967870788
 20
68.1276693506
 10
105.4115352572
 20
68.1322384766
 10
105.4251460582
 20
68.1387785417
 10
105.4375934645
 20
68.1473348162
 10
105.4489034934
 20
68.1578620298
 10
105.4588218804
 20
68.1701225327
 10
105.4673177559
 20
68.1841657078
 10
105.4744219894
 20
68.1999421722
 10
105.4799729257
 20
68.2170661273
 10
105.4839166795
 20
68.2354089736
 10
105.4863071361
 20
68.2550993106
 10
105.4871442953
 20
68.2761371383
  0
LWPOLYLINE
  5
235
100
AcDbEntity
  8
0
100
AcDbPolyline
 62
253
  6
CONTINUOUS
 90
4
 70
0
 10
106.5558626362
 20
68.1483046046
 10
106.5531346359
 20
68.149789702
 10
106.5404816612
 20
68.1547656172
 10
106.5266731035
 20
68.1572862926
  0
LINE
  5
236
100
AcDbEntity
  8
0
100
AcDbLine
 62
253
  6
CONTINUOUS
 10
104.1039961553
 20
66.6384255644
 11
102.7899225958
 21
67.3971551684
  0
LINE
  5
237
100
AcDbEntity
  8
0
100
AcDbLine
 62
253
  6
CONTINUOUS
 10
104.1747068334
 20
66.8206698239
 11
102.7899225958
 21
67.6202268873
  0
LINE
  5
238
100
AcDbEntity
  8
0
100
AcDbLine
 62
7
  6
CONTINUOUS
 10
103.089046669
 20
68.606661065
 11
104.8222112718
 21
67.605953545
  0
LINE
  5
239
100
AcDbEntity
  8
0
100
AcDbLine
 62
7
  6
CONTINUOUS
 10
102.7899225958
 20
69.5209039551
 11
103.0303273001
 21
69.3820972918
  0
LINE
  5
23A
100
AcDbEntity
  8
0
100
AcDbLine
 62
7
  6
CONTINUOUS
 10
104.9637636891
 20
68.2657553524
 11
105.3166467869
 21
68.0620050744
  0
LINE
  5
23B
100
AcDbEntity
  8
0
100
AcDbLine
 62
253
  6
CONTINUOUS
 10
102.7899225958
 20
69.5885379453
 11
103.0878124096
 21
69.4165401003
  0
LINE
  5
23C
100
AcDbEntity
  8
0
100
AcDbLine
 62
253
  6
CONTINUOUS
 10
104.8234455312
 20
68.4144072884
 11
105.2752302633
 21
68.1535524463
  0
LINE
  5
23D
100
AcDbEntity
  8
0
100
AcDbLine
 62
7
  6
CONTINUOUS
 10
103.0727538478
 20
68.6161904966
 11
103.0878124096
 21
68.6073737109
  0
LWPOLYLINE
  5
23E
100
AcDbEntity
  8
0
100
AcDbPolyline
 62
7
  6
CONTINUOUS
 90
10
 70
0
 10
90.2072973925
 20
113.180269946
 10
90.189373813
 20
113.1673146605
 10
90.1613979774
 20
113.1425615493
 10
90.1359681555
 20
113.1137420618
 10
90.1135346068
 20
113.0809202805
 10
90.0946846127
 20
113.0444571017
 10
90.0799301731
 20
113.0049770192
 10
90.0694691423
 20
112.9628436319
 10
90.0634301502
 20
112.9181813952
 10
90.0618872492
 20
112.8800781244
  0
LWPOLYLINE
  5
23F
100
AcDbEntity
  8
RACCORDO
100
AcDbPolyline
 62
7
  6
CONTINUOUS
 90
15
 70
0
 10
86.5978784487
 20
110.8642407895
 10
86.5611830619
 20
110.8396232572
 10
86.4975098396
 20
110.791148844
 10
86.4374781174
 20
110.7381019937
 10
86.3808904228
 20
110.6807438502
 10
86.3277696823
 20
110.6193823641
 10
86.2784440644
 20
110.5546471951
 10
86.2329484015
 20
110.4868136597
 10
86.1913851205
 20
110.4160772018
 10
86.1541606292
 20
110.3432058927
 10
86.1213895299
 20
110.2684212171
 10
86.093242876
 20
110.1918939886
 10
86.0700714258
 20
110.1142795244
 10
86.0521128541
 20
110.0358169843
 10
86.0391208377
 20
109.9526572967
  0
LINE
  5
240
100
AcDbEntity
  8
0
100
AcDbLine
 62
7
  6
CONTINUOUS
 10
90.2068661746
 20
113.1799857227
 11
90.4505274841
 21
113.3433801203
  0
LINE
  5
241
100
AcDbEntity
  8
0
100
AcDbLine
 62
253
  6
CONTINUOUS
 10
90.4663896192
 20
113.1614042363
 11
90.60486862
 21
113.2542654828
  0
LINE
  5
242
100
AcDbEntity
  8
RACCORDO
100
AcDbLine
 62
7
  6
CONTINUOUS
 10
86.5977233486
 20
110.8641586861
 11
87.2577084271
 21
111.2862114925
  0
LINE
  5
243
100
AcDbEntity
  8
0
100
AcDbLine
 62
253
  6
CONTINUOUS
 10
86.8578423494
 20
110.8456767247
 11
87.5142553395
 21
111.2654452221
  0
LINE
  5
244
100
AcDbEntity
  8
0
100
AcDbLine
 62
7
  6
CONTINUOUS
 10
90.125618471
 20
114.2340872035
 11
91.7269935051
 21
115.2244015458
  0
LINE
  5
245
100
AcDbEntity
  8
0
100
AcDbLine
 62
253
  6
CONTINUOUS
 10
90.2283434438
 20
114.2258301425
 11
91.8287261339
 21
115.2155308043
  0
LINE
  5
246
100
AcDbEntity
  8
0
100
AcDbLine
 62
253
  6
CONTINUOUS
 10
90.125662231
 20
114.234114242
 11
90.1256178652
 21
114.2340868289
  0
LWPOLYLINE
  5
247
100
AcDbEntity
  8
0
100
AcDbPolyline
 62
7
  6
CONTINUOUS
 90
3
 70
0
 10
91.7270046368
 20
115.2244084271
 10
91.7287387522
 20
115.2254448445
 10
91.7304937237
 20
115.2264229821
  0
LINE
  5
248
100
AcDbEntity
  8
0
100
AcDbLine
 62
7
  6
CONTINUOUS
 10
91.7305051253
 20
115.2264291135
 11
92.3096035194
 21
115.5378494895
  0
LINE
  5
249
100
AcDbEntity
  8
0
100
AcDbLine
 62
253
  6
CONTINUOUS
 10
91.8287261339
 20
115.2155308043
 11
92.4067968593
 21
115.5263985333
  0
LWPOLYLINE
  5
24A
100
AcDbEntity
  8
0
100
AcDbPolyline
 62
253
  6
CONTINUOUS
 90
7
 70
0
 10
92.4067968593
 20
115.5263985333
 10
92.4246348267
 20
115.5350307468
 10
92.4422663318
 20
115.5409177669
 10
92.4593954457
 20
115.5439055051
 10
92.4757597015
 20
115.543880968
 10
92.4910245244
 20
115.5407731421
 10
92.5043334258
 20
115.5349066352
  0
LWPOLYLINE
  5
24B
100
AcDbEntity
  8
0
100
AcDbPolyline
 62
7
  6
CONTINUOUS
 90
6
 70
0
 10
92.3096035194
 20
115.5378494895
 10
92.3323673267
 20
115.5483089989
 10
92.3565949931
 20
115.5559240944
 10
92.3818547593
 20
115.5604375654
 10
92.4076991504
 20
115.5616758429
 10
92.4335738104
 20
115.5595545153
  0
LWPOLYLINE
  5
24C
100
AcDbEntity
  8
0
100
AcDbPolyline
 62
7
  6
CONTINUOUS
 90
4
 70
0
 10
91.7304937237
 20
115.2264229821
 10
91.7426461724
 20
115.2314975318
 10
91.7580265983
 20
115.234482983
 10
91.7746134959
 20
115.2343485578
  0
LWPOLYLINE
  5
24D
100
AcDbEntity
  8
0
100
AcDbPolyline
 62
253
  6
CONTINUOUS
 90
7
 70
0
 10
92.3096035194
 20
115.5378494895
 10
92.3217242995
 20
115.542907168
 10
92.3370123161
 20
115.5458434452
 10
92.353451689
 20
115.5456302702
 10
92.3707612448
 20
115.5422712889
 10
92.388644927
 20
115.5358239523
 10
92.4067968593
 20
115.5263985333
  0
LWPOLYLINE
  5
24E
100
AcDbEntity
  8
0
100
AcDbPolyline
 62
253
  6
CONTINUOUS
 90
13
 70
0
 10
103.7138531661
 20
71.1560867166
 10
103.7332915881
 20
71.1462295218
 10
103.7547711126
 20
71.1379035709
 10
103.7779323295
 20
71.1312481793
 10
103.8023876892
 20
71.1263747098
 10
103.8277279879
 20
71.1233647086
 10
103.8535292142
 20
71.122268541
 10
103.8793596444
 20
71.123104549
 10
103.9047870657
 20
71.1258587438
 10
103.9293860091
 20
71.1304850398
 10
103.9527448681
 20
71.1369060264
 10
103.974472786
 20
71.1450142634
 10
103.9942061965
 20
71.1546740782
  0
LWPOLYLINE
  5
24F
100
AcDbEntity
  8
0
100
AcDbPolyline
 62
253
  6
CONTINUOUS
 90
4
 70
0
 10
103.1482538978
 20
70.8295799059
 10
103.1906692339
 20
70.8069473573
 10
103.2324558268
 20
70.7882333265
 10
103.2736136763
 20
70.7734378135
  0
LWPOLYLINE
  5
250
100
AcDbEntity
  8
0
100
AcDbPolyline
 62
7
  6
CONTINUOUS
 90
13
 70
0
 10
103.1896740971
 20
70.7380474998
 10
103.2372125769
 20
70.7124084176
 10
103.2922258412
 20
70.6872094521
 10
103.3468626798
 20
70.666930797
 10
103.4009959536
 20
70.6515264345
 10
103.4544429668
 20
70.6409750356
 10
103.5069228561
 20
70.6352699922
 10
103.5582685444
 20
70.634356524
 10
103.6082291014
 20
70.6381537429
 10
103.6563254694
 20
70.6465128918
 10
103.7022205319
 20
70.6592199512
 10
103.7457597426
 20
70.676051715
 10
103.777638417
 20
70.6916962384
  0
LINE
  5
251
100
AcDbEntity
  8
0
100
AcDbLine
 62
253
  6
CONTINUOUS
 10
106.5266731035
 20
68.1572862926
 11
106.2362529674
 21
68.3249712393
  0
LINE
  5
252
100
AcDbEntity
  8
0
100
AcDbLine
 62
7
  6
CONTINUOUS
 10
106.5559672574
 20
68.1482443239
 11
106.2436353403
 21
68.3285808584
  0
LINE
  5
253
100
AcDbEntity
  8
0
100
AcDbLine
 62
253
  6
CONTINUOUS
 10
102.7899225958
 20
70.3306060354
 11
105.4220675641
 21
68.8108385192
  0
LINE
  5
254
100
AcDbEntity
  8
0
100
AcDbLine
 62
253
  6
CONTINUOUS
 10
102.7899225958
 20
70.654334908
 11
105.3634889203
 21
69.1683899665
  0
LINE
  5
255
100
AcDbEntity
  8
0
100
AcDbLine
 62
7
  6
CONTINUOUS
 10
102.7899225958
 20
70.9688419186
 11
103.18967042
 21
70.7380325349
  0
LINE
  5
256
100
AcDbEntity
  8
0
100
AcDbLine
 62
253
  6
CONTINUOUS
 10
102.7899225958
 20
71.0364759088
 11
103.1482538978
 21
70.8295799059
  0
LINE
  5
257
100
AcDbEntity
  8
0
100
AcDbLine
 62
7
  6
CONTINUOUS
 10
104.2038520491
 20
70.9208906035
 11
105.3634889203
 21
70.2513308078
  0
LINE
  5
258
100
AcDbEntity
  8
0
100
AcDbLine
 62
253
  6
CONTINUOUS
 10
102.8521685708
 20
71.7109546456
 11
102.7899225958
 21
71.7468946915
  0
LINE
  5
259
100
AcDbEntity
  8
0
100
AcDbLine
 62
7
  6
CONTINUOUS
 10
103.6390015238
 20
71.3252326772
 11
103.7138531661
 21
71.282014277
  0
LINE
  5
25A
100
AcDbEntity
  8
0
100
AcDbLine
 62
253
  6
CONTINUOUS
 10
102.9572945628
 20
71.8941356247
 11
102.7899225958
 21
71.9907741009
  0
LINE
  5
25B
100
AcDbEntity
  8
0
100
AcDbLine
 62
7
  6
CONTINUOUS
 10
105.3635311855
 20
70.7550832431
 11
104.6048140364
 21
71.1931570161
  0
LINE
  5
25C
100
AcDbEntity
  8
0
100
AcDbLine
 62
253
  6
CONTINUOUS
 10
105.4220675641
 20
70.788919062
 11
104.6055872289
 21
71.2603445746
  0
LINE
  5
25D
100
AcDbEntity
  8
0
100
AcDbLine
 62
7
  6
CONTINUOUS
 10
105.4871442953
 20
71.2034106424
 11
104.6442218594
 21
71.6901034925
  0
LINE
  5
25E
100
AcDbEntity
  8
0
100
AcDbLine
 62
7
  6
CONTINUOUS
 10
103.0885847435
 20
72.7745422969
 11
102.7899225958
 21
72.9469860779
  0
LINE
  5
25F
100
AcDbEntity
  8
0
100
AcDbLine
 62
253
  6
CONTINUOUS
 10
103.1350005135
 20
72.8322849008
 11
102.7899225958
 21
73.0315285656
  0
LWPOLYLINE
  5
260
100
AcDbEntity
  8
0
100
AcDbPolyline
 62
253
  6
CONTINUOUS
 90
7
 70
0
 10
103.1350005135
 20
71.8742267018
 10
103.1221296684
 20
71.8826944775
 10
103.1112714976
 20
71.8920552273
 10
103.1026097084
 20
71.9021505398
 10
103.0962908383
 20
71.9128095776
 10
103.0924217753
 20
71.9238519693
 10
103.091066538
 20
71.9354408222
  0
LWPOLYLINE
  5
261
100
AcDbEntity
  8
0
100
AcDbPolyline
 62
253
  6
CONTINUOUS
 90
4
 70
0
 10
106.5266731035
 20
68.1572862926
 10
106.5446954425
 20
68.1451051005
 10
106.5612125971
 20
68.1300372475
 10
106.5759440476
 20
68.1123381261
  0
LWPOLYLINE
  5
262
100
AcDbEntity
  8
RACCORDO
100
AcDbPolyline
 62
253
  6
CONTINUOUS
 90
8
 70
0
 10
86.0404586385
 20
75.2696949836
 10
86.0457871322
 20
75.2435517762
 10
86.057203582
 20
75.2111708806
 10
86.073691101
 20
75.1801411933
 10
86.0950749482
 20
75.1507915789
 10
86.121128489
 20
75.1234330961
 10
86.1515755978
 20
75.0983557011
 10
86.1860935842
 20
75.0758251738
  0
LWPOLYLINE
  5
263
100
AcDbEntity
  8
RACCORDO
100
AcDbPolyline
 62
7
  6
CONTINUOUS
 90
5
 70
0
 10
86.0404745495
 20
75.2696972125
 10
86.0530787992
 20
75.2000475487
 10
86.0711018554
 20
75.1332198439
 10
86.0940419757
 20
75.0704120517
 10
86.1215747415
 20
75.0116004442
  0
LINE
  5
264
100
AcDbEntity
  8
RACCORDO
100
AcDbLine
 62
7
  6
CONTINUOUS
 10
86.0403825881
 20
75.2702403992
 11
86.0404586385
 21
75.2696949836
  0
LWPOLYLINE
  5
265
100
AcDbEntity
  8
RACCORDO
100
AcDbPolyline
 62
253
  6
CONTINUOUS
 90
9
 70
0
 10
85.3551755723
 20
84.4455305513
 10
85.3561979878
 20
84.429325757
 10
85.3621620341
 20
84.3993014004
 10
85.3733485844
 20
84.3698525387
 10
85.3896391237
 20
84.3412911658
 10
85.4108610628
 20
84.3139198733
 10
85.4367895675
 20
84.2880286444
 10
85.46714994
 20
84.2638917819
 10
85.5016205294
 20
84.2417650021
  0
LWPOLYLINE
  5
266
100
AcDbEntity
  8
RACCORDO
100
AcDbPolyline
 62
253
  6
CONTINUOUS
 90
9
 70
0
 10
85.3551730797
 20
99.9589791556
 10
85.3561980036
 20
99.9381343145
 10
85.3621620507
 20
99.9091334616
 10
85.3733486016
 20
99.8805766297
 10
85.3896391411
 20
99.8527663619
 10
85.4108610801
 20
99.8259972924
 10
85.4367895845
 20
99.8005530241
 10
85.4671499563
 20
99.7767031245
 10
85.5016205449
 20
99.7547002697
  0
LWPOLYLINE
  5
267
100
AcDbEntity
  8
RACCORDO
100
AcDbPolyline
 62
7
  6
CONTINUOUS
 90
10
 70
0
 10
85.355175594
 20
84.4455307925
 10
85.3775816441
 20
83.4361299028
 10
85.4144104539
 20
82.3753976376
 10
85.464707928
 20
81.3234880765
 10
85.5284667399
 20
80.2806596645
 10
85.6056757488
 20
79.2471221734
 10
85.6963240582
 20
78.2230667386
 10
85.8003981753
 20
77.2087019143
 10
85.9178742564
 20
76.2042752993
 10
86.0403825881
 20
75.2702403992
  0
LWPOLYLINE
  5
268
100
AcDbEntity
  8
RACCORDO
100
AcDbPolyline
 62
253
  6
CONTINUOUS
 90
10
 70
0
 10
85.5016205291
 20
84.2417650019
 10
85.4770659857
 20
85.9504123939
 10
85.4586502963
 20
87.6628671121
 10
85.4463734123
 20
89.3790983898
 10
85.4402352155
 20
91.0990520411
 10
85.4402352187
 20
92.8227204332
 10
85.446373421
 20
94.5501429805
 10
85.4586503077
 20
96.2813126113
 10
85.4770659948
 20
98.0161752753
 10
85.5016205291
 20
99.754700261
  0
LWPOLYLINE
  5
269
100
AcDbEntity
  8
RACCORDO
100
AcDbPolyline
 62
7
  6
CONTINUOUS
 90
10
 70
0
 10
85.3551730682
 20
99.9589793628
 10
85.3311999076
 20
98.2672146707
 10
85.3124934675
 20
96.5181629865
 10
85.3000254658
 20
94.7728173512
 10
85.2937963065
 20
93.031213567
 10
85.2938061161
 20
91.2933813249
 10
85.30005497
 20
89.559348014
 10
85.3125428889
 20
87.8291433249
 10
85.3312696162
 20
86.1028027252
 10
85.3551755723
 20
84.4455305513
  0
LWPOLYLINE
  5
26A
100
AcDbEntity
  8
RACCORDO
100
AcDbPolyline
 62
253
  6
CONTINUOUS
 90
10
 70
0
 10
85.5016205291
 20
99.754700261
 10
85.5253170226
 20
100.83800686
 10
85.5621308129
 20
101.9287699784
 10
85.6120539101
 20
103.0267587856
 10
85.6750750399
 20
104.1317411491
 10
85.7511809474
 20
105.2434831264
 10
85.8403564075
 20
106.3617490171
 10
85.9425824899
 20
107.4863021556
 10
86.0578365557
 20
108.6169049566
 10
86.1860935686
 20
109.7533184106
  0
LWPOLYLINE
  5
26B
100
AcDbEntity
  8
RACCORDO
100
AcDbPolyline
 62
253
  6
CONTINUOUS
 90
10
 70
0
 10
86.0391208377
 20
109.9526572967
 10
86.0386064258
 20
109.9470442689
 10
86.0395736705
 20
109.9219986239
 10
86.045798773
 20
109.8966581139
 10
86.057215759
 20
109.8712913005
 10
86.0737036298
 20
109.8461670245
 10
86.0950876451
 20
109.8215515563
 10
86.1211411744
 20
109.7977057735
 10
86.1515880993
 20
109.7748823967
 10
86.1861057395
 20
109.7533233108
  0
LWPOLYLINE
  5
26C
100
AcDbEntity
  8
RACCORDO
100
AcDbPolyline
 62
7
  6
CONTINUOUS
 90
10
 70
0
 10
86.0391391628
 20
109.9528956598
 10
85.9163072893
 20
108.866647624
 10
85.7991609756
 20
107.7218386221
 10
85.6953633855
 20
106.5831161748
 10
85.6049442425
 20
105.450759089
 10
85.5279230361
 20
104.3249964213
 10
85.4643168478
 20
103.2060386924
 10
85.4141427006
 20
102.0941142378
 10
85.3774137364
 20
100.98949428
 10
85.3551730797
 20
99.9589791556
  0
LWPOLYLINE
  5
26D
100
AcDbEntity
  8
RACCORDO
100
AcDbPolyline
 62
253
  6
CONTINUOUS
 90
19
 70
0
 10
86.1860935686
 20
109.7533184106
 10
86.1962318586
 20
109.8214546615
 10
86.2104525805
 20
109.8909022008
 10
86.2286691994
 20
109.9612449331
 10
86.2507691714
 20
110.0320636004
 10
86.2766198783
 20
110.1029322481
 10
86.3060689864
 20
110.1734207918
 10
86.3389351951
 20
110.2431063461
 10
86.3750199254
 20
110.3115739124
 10
86.4141139613
 20
110.3784126101
 10
86.4559790362
 20
110.4432235848
 10
86.500361383
 20
110.5056196273
 10
86.5470041379
 20
110.5652251054
 10
86.5956249712
 20
110.6216857415
 10
86.6459277891
 20
110.67466266
 10
86.6976172239
 20
110.7238314877
 10
86.7503824677
 20
110.7688965626
 10
86.8038993104
 20
110.8095923359
 10
86.8578423494
 20
110.8456767247
  0
LINE
  5
26E
100
AcDbEntity
  8
0
100
AcDbLine
 62
253
  6
CONTINUOUS
 10
94.2961723928
 20
113.8880494032
 11
93.7379359823
 21
113.1755217684
  0
LINE
  5
26F
100
AcDbEntity
  8
0
100
AcDbLine
 62
7
  6
CONTINUOUS
 10
94.3097404147
 20
113.8449221245
 11
93.7379359823
 21
113.1150763958
  0
LWPOLYLINE
  5
270
100
AcDbEntity
  8
0
100
AcDbPolyline
 62
7
  6
CONTINUOUS
 90
13
 70
0
 10
92.8001405689
 20
112.5599965032
 10
92.7857716102
 20
112.5435665957
 10
92.7701121492
 20
112.5280820827
 10
92.7532772788
 20
112.5136281999
 10
92.7354175388
 20
112.5002015526
 10
92.7166671354
 20
112.4879573874
 10
92.6971371418
 20
112.4772185153
 10
92.6770124174
 20
112.4680460124
 10
92.6564863586
 20
112.4605022493
 10
92.6357032696
 20
112.4549189875
 10
92.6148644551
 20
112.4513436795
 10
92.5942540598
 20
112.4498092998
 10
92.5742750435
 20
112.4505999432
  0
LWPOLYLINE
  5
271
100
AcDbEntity
  8
0
100
AcDbPolyline
 62
253
  6
CONTINUOUS
 90
7
 70
0
 10
94.2961723928
 20
114.2722275948
 10
94.3129026079
 20
114.2836214185
 10
94.3269455837
 20
114.2961668459
 10
94.3380663433
 20
114.3096539582
 10
94.3460788066
 20
114.3238570797
 10
94.3508489034
 20
114.338538554
 10
94.3523044327
 20
114.3524450022
  0
LWPOLYLINE
  5
272
100
AcDbEntity
  8
0
100
AcDbPolyline
 62
7
  6
CONTINUOUS
 90
4
 70
0
 10
90.5332092161
 20
109.634075674
 10
90.5038369794
 20
109.6143580782
 10
90.4675058581
 20
109.5850679221
 10
90.451626446
 20
109.5694439591
  0
LWPOLYLINE
  5
273
100
AcDbEntity
  8
0
100
AcDbPolyline
 62
253
  6
CONTINUOUS
 90
13
 70
0
 10
91.9392913759
 20
113.2379502497
 10
91.9214534084
 20
113.2259836255
 10
91.9038219034
 20
113.2115102255
 10
91.8866927894
 20
113.1947176922
 10
91.8703285337
 20
113.1757961229
 10
91.8550637108
 20
113.155060862
 10
91.8412699067
 20
113.132982912
 10
91.8292047175
 20
113.1099849464
 10
91.8190428271
 20
113.0864117664
 10
91.8109597644
 20
113.0626725173
 10
91.8050906439
 20
113.0391719592
 10
91.8015308982
 20
113.0163031401
 10
91.8003381626
 20
112.994451221
  0
LINE
  5
274
100
AcDbEntity
  8
0
100
AcDbLine
 62
7
  6
CONTINUOUS
 10
92.8001405689
 20
111.8199210428
 11
93.7379359823
 21
112.3985893846
  0
LWPOLYLINE
  5
275
100
AcDbEntity
  8
0
100
AcDbPolyline
 62
7
  6
CONTINUOUS
 90
9
 70
0
 10
90.4473167449
 20
110.4367213044
 10
90.4273187683
 20
110.4246355072
 10
90.406756706
 20
110.4128752201
 10
90.3860531449
 20
110.4013501391
 10
90.3656922676
 20
110.3897588753
 10
90.3458599733
 20
110.3781352294
 10
90.3264277048
 20
110.3669259859
 10
90.3075387225
 20
110.3561168264
 10
90.2894025854
 20
110.3455323205
  0
LWPOLYLINE
  5
276
100
AcDbEntity
  8
0
100
AcDbPolyline
 62
7
  6
CONTINUOUS
 90
9
 70
0
 10
92.6665654434
 20
111.7427318432
 10
92.6464574765
 20
111.7310371264
 10
92.6265404448
 20
111.7195936194
 10
92.6070961044
 20
111.7084185272
 10
92.5882292731
 20
111.6974305958
 10
92.5698668298
 20
111.6868752095
 10
92.5521451349
 20
111.676843761
 10
92.535377081
 20
111.667220374
 10
92.5197875386
 20
111.6579648855
  0
LINE
  5
277
100
AcDbEntity
  8
0
100
AcDbLine
 62
253
  6
CONTINUOUS
 10
91.9392913759
 20
113.2379502497
 11
94.1547725757
 21
114.5171392619
  0
LINE
  5
278
100
AcDbEntity
  8
0
100
AcDbLine
 62
253
  6
CONTINUOUS
 10
92.080691193
 20
112.9930385826
 11
94.2961723928
 21
114.2722275948
  0
LWPOLYLINE
  5
279
100
AcDbEntity
  8
0
100
AcDbPolyline
 62
7
  6
CONTINUOUS
 90
4
 70
0
 10
92.7950350161
 20
111.816873569
 10
92.7629314961
 20
111.7983018614
 10
92.7451243796
 20
111.7880567413
 10
92.7066970056
 20
111.7657916758
  0
LWPOLYLINE
  5
27A
100
AcDbEntity
  8
0
100
AcDbPolyline
 62
7
  6
CONTINUOUS
 90
7
 70
0
 10
90.2894025854
 20
110.3455323205
 10
90.2552107954
 20
110.3258709114
 10
90.2393747486
 20
110.3166454931
 10
90.2244280009
 20
110.3080399044
 10
90.2104204175
 20
110.3000962246
 10
90.1974397866
 20
110.2926351107
 10
90.1855323841
 20
110.2855859237
  0
LINE
  5
27B
100
AcDbEntity
  8
0
100
AcDbLine
 62
7
  6
CONTINUOUS
 10
92.7066970056
 20
111.7657916758
 11
92.6665654434
 21
111.7427318432
  0
LINE
  5
27C
100
AcDbEntity
  8
0
100
AcDbLine
 62
7
  6
CONTINUOUS
 10
100.6984790515
 20
116.8425409455
 11
93.9820583484
 21
113.059933835
  0
LINE
  5
27D
100
AcDbEntity
  8
0
100
AcDbLine
 62
253
  6
CONTINUOUS
 10
100.9469279124
 20
116.8168852958
 11
94.1272298561
 21
112.9761136259
  0
LINE
  5
27E
100
AcDbEntity
  8
DRAFT
100
AcDbLine
 62
7
  6
CONTINUOUS
 10
101.1783538597
 20
116.6832628543
 11
107.8958409684
 21
120.371755653
  0
LINE
  5
27F
100
AcDbEntity
  8
RACCORDO
100
AcDbLine
 62
7
  6
CONTINUOUS
 10
114.989988589
 20
124.2458515825
 11
107.9146755572
 21
120.3608807975
  0
LINE
  5
280
100
AcDbEntity
  8
0
100
AcDbLine
 62
7
  6
CONTINUOUS
 10
94.2645000554
 20
112.8968555331
 11
95.2068148495
 21
113.4129357823
  0
LWPOLYLINE
  5
281
100
AcDbEntity
  8
RACCORDO
100
AcDbPolyline
 62
253
  6
CONTINUOUS
 90
9
 70
0
 10
86.5978707578
 20
110.8642528435
 10
86.6176228412
 20
110.8750543439
 10
86.6465103268
 20
110.885423531
 10
86.6778125034
 20
110.8909488384
 10
86.7111867165
 20
110.8915697826
 10
86.7462676298
 20
110.8872795662
 10
86.7826712243
 20
110.8781251525
 10
86.8199990024
 20
110.8642067521
 10
86.8578423494
 20
110.8456767247
  0
LINE
  5
282
100
AcDbEntity
  8
0
100
AcDbLine
 62
7
  6
CONTINUOUS
 10
109.2495654405
 20
120.2915931267
 11
109.2324998061
 21
120.2824113083
  0
LWPOLYLINE
  5
283
100
AcDbEntity
  8
RACCORDO
100
AcDbPolyline
 62
7
  6
CONTINUOUS
 90
37
 70
0
 10
114.989988589
 20
124.2458515825
 10
115.0056617585
 20
124.2541821028
 10
115.0214363985
 20
124.2620195848
 10
115.0373037099
 20
124.2693623862
 10
115.0532538489
 20
124.276208559
 10
115.0692789891
 20
124.2825574923
 10
115.0853733607
 20
124.2884098338
 10
115.1015280884
 20
124.2937647693
 10
115.117734377
 20
124.2986217916
 10
115.13398662
 20
124.3029822302
 10
115.1502759482
 20
124.3068458881
 10
115.1665936036
 20
124.3102128832
 10
115.1829341918
 20
124.3130852527
 10
115.1992888797
 20
124.3154634097
 10
115.2156489748
 20
124.3173480825
 10
115.2320093434
 20
124.3187420257
 10
115.2483612216
 20
124.3196462508
 10
115.2646960107
 20
124.3200620779
 10
115.281008884
 20
124.3199929724
 10
115.2972911807
 20
124.3194405275
 10
115.3135344245
 20
124.3184066334
 10
115.3297341367
 20
124.3168954441
 10
115.3458817919
 20
124.3149091146
 10
115.3619690656
 20
124.3124500788
 10
115.3779918647
 20
124.309523145
 10
115.3939418367
 20
124.3061310034
 10
115.409810831
 20
124.3022766041
 10
115.425595154
 20
124.2979653681
 10
115.4412866497
 20
124.2932004947
 10
115.4568773736
 20
124.2879854193
 10
115.4723640578
 20
124.2823261238
 10
115.4877387729
 20
124.2762262856
 10
115.5029938021
 20
124.2696897935
 10
115.5181263136
 20
124.2627231349
 10
115.5331286318
 20
124.2553304312
 10
115.5479932867
 20
124.2475159926
 10
115.5634255523
 20
124.238878858
  0
LINE
  5
284
100
AcDbEntity
  8
0
100
AcDbLine
 62
7
  6
CONTINUOUS
 10
109.2586224295
 20
120.2964090819
 11
109.2495654405
 21
120.2915931267
  0
LINE
  5
285
100
AcDbEntity
  8
0
100
AcDbLine
 62
7
  6
CONTINUOUS
 10
109.2663336548
 20
120.3004592226
 11
109.2586224295
 21
120.2964090819
  0
LWPOLYLINE
  5
286
100
AcDbEntity
  8
0
100
AcDbPolyline
 62
253
  6
CONTINUOUS
 90
13
 70
0
 10
92.080691193
 20
112.6302377035
 10
92.0609577828
 20
112.620577887
 10
92.0392298651
 20
112.6124696488
 10
92.0158710064
 20
112.6060486615
 10
91.9912720631
 20
112.6014223657
 10
91.9658446419
 20
112.5986681715
 10
91.9400142118
 20
112.5978321642
 10
91.9142129853
 20
112.5989283323
 10
91.8888726865
 20
112.601938334
 10
91.8644173265
 20
112.6068118039
 10
91.8412561095
 20
112.6134671958
 10
91.8197765848
 20
112.6217931469
 10
91.8003381626
 20
112.6316503419
  0
LWPOLYLINE
  5
287
100
AcDbEntity
  8
0
100
AcDbPolyline
 62
253
  6
CONTINUOUS
 90
3
 70
0
 10
101.2606061094
 20
115.3786936812
 10
101.225796481
 20
115.3646700556
 10
101.1906938425
 20
115.3472166314
  0
LINE
  5
288
100
AcDbEntity
  8
0
100
AcDbLine
 62
253
  6
CONTINUOUS
 10
101.2948919236
 20
115.3891924552
 11
101.2606061094
 21
115.3786936812
  0
LINE
  5
289
100
AcDbEntity
  8
0
100
AcDbLine
 62
253
  6
CONTINUOUS
 10
102.7899225958
 20
73.3819055979
 11
103.0616906539
 21
73.2249901273
  0
LINE
  5
28A
100
AcDbEntity
  8
0
100
AcDbLine
 62
253
  6
CONTINUOUS
 10
102.7899225958
 20
73.7894466481
 11
103.0177566711
 21
73.6578981085
  0
LINE
  5
28B
100
AcDbEntity
  8
RACCORDO
100
AcDbLine
 62
253
  6
CONTINUOUS
 10
100.3341287774
 20
75.6776606343
 11
85.5016205291
 21
84.2417650019
  0
LINE
  5
28C
100
AcDbEntity
  8
0
100
AcDbLine
 62
7
  6
CONTINUOUS
 10
103.6390015238
 20
74.2710004786
 11
103.7138531661
 21
74.2277820784
  0
LINE
  5
28D
100
AcDbEntity
  8
0
100
AcDbLine
 62
7
  6
CONTINUOUS
 10
107.4389684409
 20
72.2247982946
 11
106.4658580436
 21
72.786660042
  0
LINE
  5
28E
100
AcDbEntity
  8
0
100
AcDbLine
 62
7
  6
CONTINUOUS
 10
106.5719240608
 20
72.81955552
 11
106.8547667733
 21
72.6562456826
  0
LINE
  5
28F
100
AcDbEntity
  8
0
100
AcDbLine
 62
7
  6
CONTINUOUS
 10
103.3451523164
 20
75.1688949094
 11
103.0616906539
 21
75.3325621207
  0
LINE
  5
290
100
AcDbEntity
  8
0
100
AcDbLine
 62
7
  6
CONTINUOUS
 10
105.4871442953
 20
74.0550417769
 11
104.6442218594
 21
74.5417346271
  0
LINE
  5
291
100
AcDbEntity
  8
0
100
AcDbLine
 62
7
  6
CONTINUOUS
 10
103.2485221892
 20
75.5658898818
 11
103.2131668502
 21
75.5863036115
  0
LINE
  5
292
100
AcDbEntity
  8
0
100
AcDbLine
 62
253
  6
CONTINUOUS
 10
105.4220675641
 20
74.5261304568
 11
104.6442218594
 21
74.975248818
  0
LINE
  5
293
100
AcDbEntity
  8
0
100
AcDbLine
 62
253
  6
CONTINUOUS
 10
105.3634889203
 20
74.8836819041
 11
104.78560051
 21
75.2173474295
  0
LWPOLYLINE
  5
294
100
AcDbEntity
  8
0
100
AcDbPolyline
 62
7
  6
CONTINUOUS
 90
7
 70
0
 10
104.6047039347
 20
71.1932205904
 10
104.5998799897
 20
71.1974790742
 10
104.596612688
 20
71.2047833788
 10
104.595416685
 20
71.2148892975
 10
104.5962879531
 20
71.2277581
 10
104.5996309461
 20
71.2430101308
 10
104.6055872289
 20
71.2603445746
  0
LWPOLYLINE
  5
295
100
AcDbEntity
  8
RACCORDO
100
AcDbPolyline
 62
253
  6
CONTINUOUS
 90
10
 70
0
 10
86.1860935686
 20
75.075825162
 10
86.0578365558
 20
76.0562085113
 10
85.94258249
 20
77.0466024143
 10
85.8403564078
 20
78.0467967731
 10
85.751180948
 20
79.0565791517
 10
85.6750750409
 20
80.075735738
 10
85.6120539113
 20
81.1040513943
 10
85.5621308139
 20
82.1413084777
 10
85.5253170232
 20
83.1872868815
 10
85.5016205291
 20
84.2417650019
  0
LWPOLYLINE
  5
296
100
AcDbEntity
  8
0
100
AcDbPolyline
 62
253
  6
CONTINUOUS
 90
5
 70
0
 10
94.3459877861
 20
113.9394739928
 10
94.3379284238
 20
113.9252767021
 10
94.3267978364
 20
113.9118360774
 10
94.3127958754
 20
113.8993602745
 10
94.2961723928
 20
113.8880494032
  0
LWPOLYLINE
  5
297
100
AcDbEntity
  8
0
100
AcDbPolyline
 62
7
  6
CONTINUOUS
 90
6
 70
0
 10
94.3097404147
 20
113.8449221245
 10
94.3241817847
 20
113.8660016512
 10
94.3357935885
 20
113.8886946926
 10
94.3444144171
 20
113.9126452868
 10
94.3499311629
 20
113.9375475368
 10
94.3522344787
 20
113.9629775289
  0
LWPOLYLINE
  5
298
100
AcDbEntity
  8
0
100
AcDbPolyline
 62
253
  6
CONTINUOUS
 90
13
 70
0
 10
95.3264580969
 20
111.7048082261
 10
95.3086306883
 20
111.6928494668
 10
95.2910059883
 20
111.6783838092
 10
95.2738798343
 20
111.6615973219
 10
95.2575139991
 20
111.6426775862
 10
95.2422446976
 20
111.6219398549
 10
95.2284466896
 20
111.5998584294
 10
95.2163783292
 20
111.5768573594
 10
95.2062137068
 20
111.5532805269
 10
95.1981286451
 20
111.5295378063
 10
95.1922582544
 20
111.5060343099
 10
95.1886978224
 20
111.4831630274
 10
95.1875048837
 20
111.4613091974
  0
LINE
  5
299
100
AcDbEntity
  8
0
100
AcDbLine
 62
7
  6
CONTINUOUS
 10
95.4703475962
 20
110.2811764761
 11
96.0360330211
 21
110.642027666
  0
LINE
  5
29A
100
AcDbEntity
  8
0
100
AcDbLine
 62
7
  6
CONTINUOUS
 10
90.5329691538
 20
109.6339354767
 11
92.2038640071
 21
110.667241918
  0
LINE
  5
29B
100
AcDbEntity
  8
0
100
AcDbLine
 62
253
  6
CONTINUOUS
 10
91.042664345
 20
109.5902200032
 11
92.7125234537
 21
110.6228859245
  0
LINE
  5
29C
100
AcDbEntity
  8
0
100
AcDbLine
 62
7
  6
CONTINUOUS
 10
95.7575021579
 20
112.4890012254
 11
94.8508913102
 21
111.9283394777
  0
LINE
  5
29D
100
AcDbEntity
  8
0
100
AcDbLine
 62
253
  6
CONTINUOUS
 10
95.8592347867
 20
112.480130484
 11
94.9536162829
 21
111.9200824167
  0
LINE
  5
29E
100
AcDbEntity
  8
0
100
AcDbLine
 62
253
  6
CONTINUOUS
 10
94.8509350702
 20
111.9283665162
 11
94.8508907043
 21
111.928339103
  0
LWPOLYLINE
  5
29F
100
AcDbEntity
  8
0
100
AcDbPolyline
 62
7
  6
CONTINUOUS
 90
6
 70
0
 10
95.4627523612
 20
110.2765670083
 10
95.4458590191
 20
110.2664171575
 10
95.4282903926
 20
110.2563538677
 10
95.4103753066
 20
110.2463261768
 10
95.3924868906
 20
110.2361143942
 10
95.3747993855
 20
110.2257698816
  0
LWPOLYLINE
  5
2A0
100
AcDbEntity
  8
0
100
AcDbPolyline
 62
7
  6
CONTINUOUS
 90
3
 70
0
 10
95.7575132896
 20
112.4890081068
 10
95.759247405
 20
112.4900445241
 10
95.7610023764
 20
112.4910226617
  0
LINE
  5
2A1
100
AcDbEntity
  8
0
100
AcDbLine
 62
253
  6
CONTINUOUS
 10
95.3264580969
 20
111.7048082261
 11
96.0335648781
 21
112.1273343611
  0
LINE
  5
2A2
100
AcDbEntity
  8
0
100
AcDbLine
 62
253
  6
CONTINUOUS
 10
95.4703475962
 20
111.4613091974
 11
96.0360330211
 21
111.7993301054
  0
LINE
  5
2A3
100
AcDbEntity
  8
0
100
AcDbLine
 62
7
  6
CONTINUOUS
 10
101.7911128351
 20
116.3294635016
 11
97.7703576591
 21
114.0079259047
  0
LINE
  5
2A4
100
AcDbEntity
  8
0
100
AcDbLine
 62
253
  6
CONTINUOUS
 10
97.7976075102
 20
111.108798254
 11
98.5741899581
 21
111.5571879152
  0
LINE
  5
2A5
100
AcDbEntity
  8
0
100
AcDbLine
 62
7
  6
CONTINUOUS
 10
98.6979838858
 20
111.5472232087
 11
104.5213143954
 21
114.9095412615
  0
LINE
  5
2A6
100
AcDbEntity
  8
0
100
AcDbLine
 62
7
  6
CONTINUOUS
 10
95.2757027695
 20
110.1685578902
 11
95.2207827166
 21
110.1368691751
  0
LWPOLYLINE
  5
2A7
100
AcDbEntity
  8
0
100
AcDbPolyline
 62
7
  6
CONTINUOUS
 90
3
 70
0
 10
95.3232573922
 20
110.1960141801
 10
95.2909968549
 20
110.1774546758
 10
95.2757027695
 20
110.1685578902
  0
LWPOLYLINE
  5
2A8
100
AcDbEntity
  8
0
100
AcDbPolyline
 62
7
  6
CONTINUOUS
 90
3
 70
0
 10
95.3747993855
 20
110.2257698816
 10
95.3400297497
 20
110.2057894503
 10
95.3232573922
 20
110.1960141801
  0
LWPOLYLINE
  5
2A9
100
AcDbEntity
  8
0
100
AcDbPolyline
 62
7
  6
CONTINUOUS
 90
4
 70
0
 10
95.2207827166
 20
110.1368691751
 10
95.2088734862
 20
110.130087271
 10
95.197772516
 20
110.1236999417
 10
95.1875048837
 20
110.1176583248
  0
LWPOLYLINE
  5
2AA
100
AcDbEntity
  8
0
100
AcDbPolyline
 62
7
  6
CONTINUOUS
 90
6
 70
0
 10
94.4027521259
 20
109.7807987331
 10
94.4095030839
 20
109.7846391387
 10
94.4170776828
 20
109.7890296861
 10
94.4253815113
 20
109.793922072
 10
94.4344561277
 20
109.7991827624
 10
94.4442682322
 20
109.8047257623
  0
LINE
  5
2AB
100
AcDbEntity
  8
0
100
AcDbLine
 62
253
  6
CONTINUOUS
 10
96.8163186234
 20
112.5721607926
 11
101.4881596652
 21
115.1754635935
  0
LINE
  5
2AC
100
AcDbEntity
  8
0
100
AcDbLine
 62
253
  6
CONTINUOUS
 10
101.6271128785
 20
114.9291144152
 11
97.1588146833
 21
112.4392323531
  0
LINE
  5
2AD
100
AcDbEntity
  8
0
100
AcDbLine
 62
7
  6
CONTINUOUS
 10
108.1275589794
 20
117.4083423168
 11
101.757435025
 21
113.8587006692
  0
LINE
  5
2AE
100
AcDbEntity
  8
0
100
AcDbLine
 62
253
  6
CONTINUOUS
 10
108.8446662607
 20
117.567248681
 11
111.4571312085
 21
119.0229996912
  0
LINE
  5
2AF
100
AcDbEntity
  8
0
100
AcDbLine
 62
253
  6
CONTINUOUS
 10
109.0934848057
 20
117.3821200629
 11
111.5960844217
 21
118.7766505128
  0
LINE
  5
2B0
100
AcDbEntity
  8
0
100
AcDbLine
 62
7
  6
CONTINUOUS
 10
109.2034379786
 20
120.2665853015
 11
94.9829315165
 21
112.4820422116
  0
LINE
  5
2B1
100
AcDbEntity
  8
0
100
AcDbLine
 62
253
  6
CONTINUOUS
 10
109.3265676796
 20
120.2531603705
 11
95.0547913026
 21
112.4405512717
  0
LINE
  5
2B2
100
AcDbEntity
  8
0
100
AcDbLine
 62
7
  6
CONTINUOUS
 10
109.2324998061
 20
120.2824113083
 11
109.203424642
 21
120.2665776126
  0
LINE
  5
2B3
100
AcDbEntity
  8
0
100
AcDbLine
 62
7
  6
CONTINUOUS
 10
101.0935005014
 20
115.3586675869
 11
95.7610137781
 21
112.4910287931
  0
LINE
  5
2B4
100
AcDbEntity
  8
0
100
AcDbLine
 62
253
  6
CONTINUOUS
 10
101.1906938425
 20
115.3472166314
 11
95.8592347867
 21
112.480130484
  0
LWPOLYLINE
  5
2B5
100
AcDbEntity
  8
RACCORDO
100
AcDbPolyline
 62
253
  6
CONTINUOUS
 90
19
 70
0
 10
108.1643061787
 20
116.5907029927
 10
108.1687632956
 20
116.5930561815
 10
108.1734022837
 20
116.5950751851
 10
108.1782143125
 20
116.5967561603
 10
108.183190222
 20
116.5980959072
 10
108.1883205402
 20
116.5990918755
 10
108.1935955014
 20
116.5997421694
 10
108.1990050644
 20
116.6000455511
 10
108.2045389316
 20
116.6000014429
 10
108.2101865691
 20
116.5996099289
 10
108.2159372263
 20
116.5988717544
 10
108.2217799565
 20
116.5977883246
 10
108.2277036377
 20
116.5963617017
 10
108.2336969938
 20
116.5945946015
 10
108.2397486162
 20
116.5924903878
 10
108.2458469852
 20
116.590053066
 10
108.2519804923
 20
116.5872872758
 10
108.2581374619
 20
116.584198282
 10
108.264306174
 20
116.5807919647
  0
LWPOLYLINE
  5
2B6
100
AcDbEntity
  8
0
100
AcDbPolyline
 62
253
  6
CONTINUOUS
 90
9
 70
0
 10
111.4571312085
 20
119.0229996912
 10
111.493639829
 20
119.0411561786
 10
111.5296911741
 20
119.05470667
 10
111.5648989786
 20
119.0635059812
 10
111.5988860154
 20
119.0674598335
 10
111.6312881367
 20
119.0665258639
 10
111.6617581762
 20
119.0607140794
 10
111.6899696684
 20
119.0500867492
 10
111.700972931
 20
119.0442697692
  0
LWPOLYLINE
  5
2B7
100
AcDbEntity
  8
0
100
AcDbPolyline
 62
253
  6
CONTINUOUS
 90
16
 70
0
 10
111.5960844217
 20
118.7766505128
 10
111.618139217
 20
118.7875925339
 10
111.6395522422
 20
118.7956677014
 10
111.6603234976
 20
118.8008760153
 10
111.680695729
 20
118.8032245573
 10
111.7004261905
 20
118.8027062458
 10
111.7187866437
 20
118.7992998359
 10
111.7356908916
 20
118.7929048106
 10
111.7512251312
 20
118.7836216869
 10
111.7649197145
 20
118.7717307714
 10
111.7767292363
 20
118.7571066387
 10
111.7866991016
 20
118.7398747141
 10
111.7944958781
 20
118.7206915798
 10
111.8000084215
 20
118.6997760967
 10
111.803347876
 20
118.6769094038
 10
111.8045142416
 20
118.6520915013
  0
LINE
  5
2B8
100
AcDbEntity
  8
0
100
AcDbLine
 62
7
  6
CONTINUOUS
 10
91.5181943312
 20
110.904241453
 11
90.4697649252
 21
110.4480775094
  0
LWPOLYLINE
  5
2B9
100
AcDbEntity
  8
0
100
AcDbPolyline
 62
7
  6
CONTINUOUS
 90
4
 70
0
 10
95.7610023764
 20
112.4910226617
 10
95.7731548252
 20
112.4960972115
 10
95.788535251
 20
112.4990826626
 10
95.8051221487
 20
112.4989482374
  0
LINE
  5
2BA
100
AcDbEntity
  8
0
100
AcDbLine
 62
7
  6
CONTINUOUS
 10
103.0616906539
 20
77.4620973712
 11
103.3451523164
 21
77.2984301599
  0
LWPOLYLINE
  5
2BB
100
AcDbEntity
  8
0
100
AcDbPolyline
 62
7
  6
CONTINUOUS
 90
5
 70
0
 10
106.6185013866
 20
68.09157995
 10
106.6053586738
 20
68.1080110392
 10
106.5905583833
 20
68.1229742044
 10
106.574341312
 20
68.1362451322
 10
106.5558626362
 20
68.1483046046
  0
LWPOLYLINE
  5
2BC
100
AcDbEntity
  8
0
100
AcDbPolyline
 62
253
  6
CONTINUOUS
 90
13
 70
0
 10
104.3843491856
 20
66.637012926
 10
104.3738374195
 20
66.6508673277
 10
104.3611526645
 20
66.6658928828
 10
104.3465095589
 20
66.6818353445
 10
104.3301558782
 20
66.6984249508
 10
104.3123683424
 20
66.7153809897
 10
104.293447934
 20
66.7324165486
 10
104.2737148043
 20
66.7492433693
 10
104.2535028571
 20
66.7655767258
 10
104.2331540981
 20
66.781140242
 10
104.2130128479
 20
66.795670568
 10
104.1934199159
 20
66.8089218367
 10
104.1747068334
 20
66.8206698239
  0
LINE
  5
2BD
100
AcDbEntity
  8
DRAFT
100
AcDbLine
 62
7
  6
CONTINUOUS
 10
90.3080288307
 20
88.7413414993
 11
90.2958218479
 21
88.7805554014
  0
LWPOLYLINE
  5
2BE
100
AcDbEntity
  8
DRAFT
100
AcDbPolyline
 62
7
  6
CONTINUOUS
 90
22
 70
0
 10
90.2958218479
 20
88.7805554014
 10
90.2846459653
 20
88.8195838563
 10
90.2745012675
 20
88.8584269127
 10
90.2653767391
 20
88.897139427
 10
90.2572835749
 20
88.9356666461
 10
90.2502551445
 20
88.9738441872
 10
90.2442961058
 20
89.0116633962
 10
90.2394019145
 20
89.0491329924
 10
90.2355920788
 20
89.0861146186
 10
90.2328715556
 20
89.1226078455
 10
90.2312354482
 20
89.1586131368
 10
90.2306884269
 20
89.193993442
 10
90.2312334871
 20
89.2287471942
 10
90.2328676338
 20
89.26287596
 10
90.2355864917
 20
89.2962473553
 10
90.2393949783
 20
89.3288562517
 10
90.2442881164
 20
89.3607077426
 10
90.2502466306
 20
89.3916847429
 10
90.2572751392
 20
89.4217902082
 10
90.2653689104
 20
89.4510211169
 10
90.2744945846
 20
89.4792513849
 10
90.2846409709
 20
89.5064389428
  0
LINE
  5
2BF
100
AcDbEntity
  8
0
100
AcDbLine
 62
7
  6
CONTINUOUS
 10
90.0308115867
 20
113.7011851534
 11
90.0308115867
 21
114.0639860324
  0
LINE
  5
2C0
100
AcDbEntity
  8
0
100
AcDbLine
 62
7
  6
CONTINUOUS
 10
90.0618770091
 20
112.8800227664
 11
90.0618770091
 21
109.9502295041
  0
LINE
  5
2C1
100
AcDbEntity
  8
0
100
AcDbLine
 62
253
  6
CONTINUOUS
 10
90.0893902305
 20
113.6195302347
 11
90.0893902305
 21
113.9823311138
  0
LINE
  5
2C2
100
AcDbEntity
  8
0
100
AcDbLine
 62
253
  6
CONTINUOUS
 10
90.1204556529
 20
112.7983678474
 11
90.1204556529
 21
109.8710943434
  0
LINE
  5
2C3
100
AcDbEntity
  8
0
100
AcDbLine
 62
253
  6
CONTINUOUS
 10
90.1855323841
 20
110.2855859237
 11
90.1855323841
 21
112.2636664665
  0
LINE
  5
2C4
100
AcDbEntity
  8
0
100
AcDbLine
 62
253
  6
CONTINUOUS
 10
90.4473167449
 20
110.4367213044
 11
90.4473167449
 21
112.0448814672
  0
LINE
  5
2C5
100
AcDbEntity
  8
0
100
AcDbLine
 62
7
  6
CONTINUOUS
 10
90.7255757732
 20
112.8559563925
 11
90.7255757732
 21
113.1845706854
  0
LINE
  5
2C6
100
AcDbEntity
  8
0
100
AcDbLine
 62
253
  6
CONTINUOUS
 10
90.7841544169
 20
112.6600976973
 11
90.7841544169
 21
113.1507481107
  0
LINE
  5
2C7
100
AcDbEntity
  8
0
100
AcDbLine
 62
7
  6
CONTINUOUS
 10
91.5181943312
 20
111.4265701702
 11
91.5181943312
 21
110.904241453
  0
LWPOLYLINE
  5
2C8
100
AcDbEntity
  8
0
100
AcDbPolyline
 62
253
  6
CONTINUOUS
 90
13
 70
0
 10
90.0893902305
 20
113.9823311138
 10
90.0905228215
 20
114.0036100191
 10
90.0939331685
 20
114.0260104869
 10
90.0996115787
 20
114.0491849959
 10
90.1075287954
 20
114.0728127933
 10
90.1175846578
 20
114.0964481838
 10
90.1295639365
 20
114.1195344235
 10
90.1432338735
 20
114.1416349406
 10
90.1583864345
 20
114.162423885
 10
90.1747593615
 20
114.1815424339
 10
90.1920727211
 20
114.1986669203
 10
90.2100353146
 20
114.2135123554
 10
90.2283434438
 20
114.2258301425
  0
LWPOLYLINE
  5
2C9
100
AcDbEntity
  8
0
100
AcDbPolyline
 62
253
  6
CONTINUOUS
 90
13
 70
0
 10
90.3323696849
 20
112.9209525394
 10
90.3335002821
 20
112.9422121999
 10
90.3368740226
 20
112.9644376604
 10
90.3424370029
 20
112.9872735668
 10
90.3501003119
 20
113.0103547902
 10
90.3597414537
 20
113.0333122748
 10
90.3712063082
 20
113.0557789389
 10
90.3843115973
 20
113.0773955443
 10
90.3988477851
 20
113.097816397
 10
90.4145824237
 20
113.1167148944
 10
90.4312639093
 20
113.1337888045
 10
90.4486255138
 20
113.1487650901
 10
90.466389617
 20
113.1614042376
  0
LWPOLYLINE
  5
2CA
100
AcDbEntity
  8
0
100
AcDbPolyline
 62
253
  6
CONTINUOUS
 90
13
 70
0
 10
90.9037111317
 20
109.3467209745
 10
90.9048941705
 20
109.3684814509
 10
90.908423551
 20
109.3912442888
 10
90.9142403086
 20
109.4146286709
 10
90.9222472102
 20
109.4382433753
 10
90.9323103594
 20
109.4616932648
 10
90.9442614186
 20
109.4845859008
 10
90.957900475
 20
109.5065382157
 10
90.9729993471
 20
109.5271828351
 10
90.9893053545
 20
109.5461741907
 10
91.0065456362
 20
109.563194435
 10
91.0244317322
 20
109.5779587419
 10
91.0426643464
 20
109.5902200023
  0
LWPOLYLINE
  5
2CB
100
AcDbEntity
  8
0
100
AcDbPolyline
 62
7
  6
CONTINUOUS
 90
9
 70
0
 10
90.0308115867
 20
114.0639860324
 10
90.0324100451
 20
114.0892165954
 10
90.0372669518
 20
114.1143875545
 10
90.0454048014
 20
114.1389815253
 10
90.0567593001
 20
114.162503998
 10
90.0711350412
 20
114.1844160692
 10
90.0882308933
 20
114.2042384687
 10
90.1079007184
 20
114.2217608334
 10
90.125662231
 20
114.234114242
  0
LWPOLYLINE
  5
2CC
100
AcDbEntity
  8
0
100
AcDbPolyline
 62
253
  6
CONTINUOUS
 90
7
 70
0
 10
98.7155897752
 20
111.3122762481
 10
98.7323199903
 20
111.3236700718
 10
98.7463629661
 20
111.3362154992
 10
98.7574837257
 20
111.3497026115
 10
98.765496189
 20
111.363905733
 10
98.7702662858
 20
111.3785872073
 10
98.7717218151
 20
111.3924936555
  0
LWPOLYLINE
  5
2CD
100
AcDbEntity
  8
0
100
AcDbPolyline
 62
253
  6
CONTINUOUS
 90
13
 70
0
 10
97.7976075102
 20
111.108798254
 10
97.7797695428
 20
111.0968316298
 10
97.7621380377
 20
111.0823582297
 10
97.7450089238
 20
111.0655656965
 10
97.728644668
 20
111.0466441271
 10
97.7133798451
 20
111.0259088663
 10
97.699586041
 20
111.0038309163
 10
97.6875208518
 20
110.9808329507
 10
97.6773589614
 20
110.9572597707
 10
97.6692758987
 20
110.9335205216
 10
97.6634067782
 20
110.9100199635
 10
97.6598470326
 20
110.8871511444
 10
97.658654297
 20
110.8652992253
  0
LINE
  5
2CE
100
AcDbEntity
  8
0
100
AcDbLine
 62
7
  6
CONTINUOUS
 10
99.6112341154
 20
110.2639046918
 11
99.399387454
 21
110.1328955386
  0
LINE
  5
2CF
100
AcDbEntity
  8
0
100
AcDbLine
 62
253
  6
CONTINUOUS
 10
99.7129667441
 20
110.2550339503
 11
99.5021124268
 21
110.1246384776
  0
LINE
  5
2D0
100
AcDbEntity
  8
0
100
AcDbLine
 62
253
  6
CONTINUOUS
 10
99.399431214
 20
110.1329225771
 11
99.3993868482
 21
110.132895164
  0
LINE
  5
2D1
100
AcDbEntity
  8
0
100
AcDbLine
 62
7
  6
CONTINUOUS
 10
97.9390073273
 20
109.7121423623
 11
98.1573533647
 21
109.8468731763
  0
LWPOLYLINE
  5
2D2
100
AcDbEntity
  8
RACCORDO
100
AcDbPolyline
 62
7
  6
CONTINUOUS
 90
5
 70
0
 10
108.1040858217
 20
116.5559325127
 10
108.1023821607
 20
116.5549021007
 10
108.0995350909
 20
116.5529557744
 10
108.0968332482
 20
116.5508127451
 10
108.095670207
 20
116.54978909
  0
LWPOLYLINE
  5
2D3
100
AcDbEntity
  8
0
100
AcDbPolyline
 62
7
  6
CONTINUOUS
 90
3
 70
0
 10
99.611245247
 20
110.2639115731
 10
99.6129793624
 20
110.2649479905
 10
99.6147343339
 20
110.2659261281
  0
LINE
  5
2D4
100
AcDbEntity
  8
0
100
AcDbLine
 62
253
  6
CONTINUOUS
 10
97.9390073273
 20
110.8638865869
 11
98.7155897752
 21
111.3122762481
  0
LINE
  5
2D5
100
AcDbEntity
  8
0
100
AcDbLine
 62
7
  6
CONTINUOUS
 10
109.0934848057
 20
117.222827588
 11
110.1781686448
 21
117.8491104425
  0
LINE
  5
2D6
100
AcDbEntity
  8
RACCORDO
100
AcDbLine
 62
7
  6
CONTINUOUS
 10
108.1041060743
 20
116.5559442071
 11
108.164301342
 21
116.5907002003
  0
LINE
  5
2D7
100
AcDbEntity
  8
RACCORDO
100
AcDbLine
 62
253
  6
CONTINUOUS
 10
108.1982696575
 20
116.5426633078
 11
108.264306174
 21
116.5807919647
  0
LINE
  5
2D8
100
AcDbEntity
  8
0
100
AcDbLine
 62
7
  6
CONTINUOUS
 10
96.1163208648
 20
108.7716695378
 11
95.0797237156
 21
108.17315332
  0
LINE
  5
2D9
100
AcDbEntity
  8
0
100
AcDbLine
 62
7
  6
CONTINUOUS
 10
98.1573533647
 20
109.8468731763
 11
98.7155897752
 21
110.1691929901
  0
LWPOLYLINE
  5
2DA
100
AcDbEntity
  8
RACCORDO
100
AcDbPolyline
 62
253
  6
CONTINUOUS
 90
55
 70
0
 10
108.264306174
 20
116.5807919647
 10
108.2800568141
 20
116.5896462261
 10
108.2961858577
 20
116.5982434179
 10
108.3126933049
 20
116.6065835399
 10
108.3295925434
 20
116.6146726225
 10
108.3468701854
 20
116.6225046353
 10
108.3644860676
 20
116.630061488
 10
108.3824406261
 20
116.6373422955
 10
108.4007334248
 20
116.6443479427
 10
108.419322992
 20
116.651062994
 10
108.4382099224
 20
116.6574867099
 10
108.4573936214
 20
116.6636198297
 10
108.4768308332
 20
116.6694491362
 10
108.4965220296
 20
116.6749738814
 10
108.5164667389
 20
116.6801948133
 10
108.5366202901
 20
116.6851009577
 10
108.5569831425
 20
116.6896915775
 10
108.5775548368
 20
116.6939674098
 10
108.598289324
 20
116.6979196926
 10
108.6191868351
 20
116.7015476542
 10
108.6402471391
 20
116.7048520664
 10
108.661423495
 20
116.7078264821
 10
108.6827160606
 20
116.7104701402
 10
108.7041246782
 20
116.7127838018
 10
108.7256021326
 20
116.7147633034
 10
108.747148409
 20
116.7164078878
 10
108.7687635223
 20
116.7177183124
 10
108.7904003021
 20
116.718692685
 10
108.8120586968
 20
116.7193302674
 10
108.8337387581
 20
116.7196317979
 10
108.8553934706
 20
116.7195975995
 10
108.8770226191
 20
116.7192269514
 10
108.898626419
 20
116.7185205743
 10
108.9201585003
 20
116.717480954
 10
108.9416186232
 20
116.716107389
 10
108.9630070275
 20
116.7144005806
 10
108.9842780631
 20
116.7123651191
 10
109.0054313318
 20
116.7100003338
 10
109.0264672318
 20
116.7073068953
 10
109.0473413069
 20
116.7042914053
 10
109.0680530846
 20
116.7009532297
 10
109.0886030375
 20
116.6972930027
 10
109.1089481267
 20
116.6933192288
 10
109.1290878122
 20
116.6890313106
 10
109.149022634
 20
116.6844298455
 10
109.1687111734
 20
116.6795251307
 10
109.1881529593
 20
116.6743165643
 10
109.2073484628
 20
116.6688047481
 10
109.2262576793
 20
116.6630017852
 10
109.2448800934
 20
116.6569070544
 10
109.2632162205
 20
116.6505211768
 10
109.2812276014
 20
116.6438581187
 10
109.2989014164
 20
116.6369225354
 10
109.3162504852
 20
116.6297097714
 10
109.3332748078
 20
116.6222198269
  0
LINE
  5
2DB
100
AcDbEntity
  8
0
100
AcDbLine
 62
7
  6
CONTINUOUS
 10
100.1938441297
 20
110.5773526355
 11
99.6147457355
 21
110.2659322595
  0
LINE
  5
2DC
100
AcDbEntity
  8
0
100
AcDbLine
 62
253
  6
CONTINUOUS
 10
100.2910374695
 20
110.5659016793
 11
99.7129667441
 21
110.2550339503
  0
LWPOLYLINE
  5
2DD
100
AcDbEntity
  8
0
100
AcDbPolyline
 62
253
  6
CONTINUOUS
 90
7
 70
0
 10
100.2910374695
 20
110.5659016793
 10
100.3088754369
 20
110.5745338928
 10
100.326506942
 20
110.5804209129
 10
100.3436360559
 20
110.5834086511
 10
100.3600003117
 20
110.583384114
 10
100.3752651346
 20
110.5802762881
 10
100.3885740361
 20
110.5744097812
  0
LWPOLYLINE
  5
2DE
100
AcDbEntity
  8
0
100
AcDbPolyline
 62
253
  6
CONTINUOUS
 90
3
 70
0
 10
106.7659787529
 20
112.1766364654
 10
106.7434072511
 20
112.1661570095
 10
106.720749846
 20
112.1542316029
  0
LWPOLYLINE
  5
2DF
100
AcDbEntity
  8
0
100
AcDbPolyline
 62
7
  6
CONTINUOUS
 90
6
 70
0
 10
100.1938441297
 20
110.5773526355
 10
100.2166079369
 20
110.5878121449
 10
100.2408356034
 20
110.5954272404
 10
100.2660953695
 20
110.5999407114
 10
100.2919397606
 20
110.6011789889
 10
100.3178144207
 20
110.5990576613
  0
LWPOLYLINE
  5
2E0
100
AcDbEntity
  8
0
100
AcDbPolyline
 62
7
  6
CONTINUOUS
 90
4
 70
0
 10
99.6147343339
 20
110.2659261281
 10
99.6268867827
 20
110.2710006778
 10
99.6422672085
 20
110.273986129
 10
99.6588541061
 20
110.2738517038
  0
LWPOLYLINE
  5
2E1
100
AcDbEntity
  8
0
100
AcDbPolyline
 62
253
  6
CONTINUOUS
 90
7
 70
0
 10
100.1938441297
 20
110.5773526355
 10
100.2059649098
 20
110.582410314
 10
100.2212529264
 20
110.5853465912
 10
100.2376922992
 20
110.5851334162
 10
100.2550018551
 20
110.5817744349
 10
100.2728855372
 20
110.5753270983
 10
100.2910374695
 20
110.5659016793
  0
LWPOLYLINE
  5
2E2
100
AcDbEntity
  8
0
100
AcDbPolyline
 62
253
  6
CONTINUOUS
 90
3
 70
0
 10
106.8106064782
 20
112.1931419595
 10
106.7883998518
 20
112.1856400248
 10
106.7659787529
 20
112.1766364654
  0
LINE
  5
2E3
100
AcDbEntity
  8
0
100
AcDbLine
 62
7
  6
CONTINUOUS
 10
103.0152722794
 20
80.2994694883
 11
102.7899225958
 21
80.4295835713
  0
LINE
  5
2E4
100
AcDbEntity
  8
0
100
AcDbLine
 62
253
  6
CONTINUOUS
 10
103.0616906539
 20
80.3572105884
 11
102.7899225958
 21
80.5141260591
  0
LINE
  5
2E5
100
AcDbEntity
  8
0
100
AcDbLine
 62
253
  6
CONTINUOUS
 10
102.7899225958
 20
81.0567261998
 11
103.1350005135
 21
80.8574825349
  0
LINE
  5
2E6
100
AcDbEntity
  8
0
100
AcDbLine
 62
253
  6
CONTINUOUS
 10
102.7899225958
 20
81.46426725
 11
103.0910665307
 21
81.2903905162
  0
LINE
  5
2E7
100
AcDbEntity
  8
SUPERFICI
100
AcDbLine
 62
7
  6
CONTINUOUS
 10
95.4004297343
 20
85.8010530404
 11
94.5153141788
 21
86.312107669
  0
LINE
  5
2E8
100
AcDbEntity
  8
DRAFT
100
AcDbLine
 62
7
  6
CONTINUOUS
 10
95.4004297343
 20
85.8010530404
 11
94.5153141788
 21
86.312107669
  0
LINE
  5
2E9
100
AcDbEntity
  8
SUPERFICI
100
AcDbLine
 62
7
  6
CONTINUOUS
 10
93.3851754079
 20
86.9646356313
 11
92.3232831571
 21
87.5777589083
  0
LINE
  5
2EA
100
AcDbEntity
  8
DRAFT
100
AcDbLine
 62
7
  6
CONTINUOUS
 10
93.3851754079
 20
86.9646356313
 11
92.3232831571
 21
87.5777589083
  0
LINE
  5
2EB
100
AcDbEntity
  8
SUPERFICI
100
AcDbLine
 62
7
  6
CONTINUOUS
 10
91.1931443863
 20
88.2302868707
 11
90.3080288307
 21
88.7413414993
  0
LINE
  5
2EC
100
AcDbEntity
  8
DRAFT
100
AcDbLine
 62
7
  6
CONTINUOUS
 10
91.1931443863
 20
88.2302868707
 11
90.3080288307
 21
88.7413414993
  0
LINE
  5
2ED
100
AcDbEntity
  8
SUPERFICI
100
AcDbLine
 62
7
  6
CONTINUOUS
 10
95.4004297343
 20
86.6175233171
 11
94.5153141788
 21
87.1285779458
  0
LINE
  5
2EE
100
AcDbEntity
  8
DRAFT
100
AcDbLine
 62
7
  6
CONTINUOUS
 10
95.4004297343
 20
86.6175233171
 11
94.5153141788
 21
87.1285779458
  0
LINE
  5
2EF
100
AcDbEntity
  8
SUPERFICI
100
AcDbLine
 62
7
  6
CONTINUOUS
 10
93.3851754079
 20
87.7811059081
 11
92.3232831571
 21
88.3942291851
  0
LINE
  5
2F0
100
AcDbEntity
  8
DRAFT
100
AcDbLine
 62
7
  6
CONTINUOUS
 10
93.3851754079
 20
87.7811059081
 11
92.3232831571
 21
88.3942291851
  0
LINE
  5
2F1
100
AcDbEntity
  8
SUPERFICI
100
AcDbLine
 62
7
  6
CONTINUOUS
 10
91.1931443863
 20
89.0467571474
 11
90.3080288307
 21
89.5578117761
  0
LINE
  5
2F2
100
AcDbEntity
  8
DRAFT
100
AcDbLine
 62
7
  6
CONTINUOUS
 10
91.1931443863
 20
89.0467571474
 11
90.3080288307
 21
89.5578117761
  0
LWPOLYLINE
  5
2F3
100
AcDbEntity
  8
0
100
AcDbPolyline
 62
253
  6
CONTINUOUS
 90
3
 70
0
 10
106.5759440476
 20
68.1123381261
 10
106.5886397032
 20
68.092307526
 10
106.599083564
 20
68.0702854494
  0
LWPOLYLINE
  5
2F4
100
AcDbEntity
  8
0
100
AcDbPolyline
 62
7
  6
CONTINUOUS
 90
9
 70
0
 10
104.8234455312
 20
68.4144072884
 10
104.8390350736
 20
68.3889457373
 10
104.8558031275
 20
68.3652451446
 10
104.8735248224
 20
68.3433456733
 10
104.8918872656
 20
68.3232213619
 10
104.9107540969
 20
68.3049226555
 10
104.9301984374
 20
68.2886296831
 10
104.9501154691
 20
68.2743189649
 10
104.9647918393
 20
68.265153471
  0
LINE
  5
2F5
100
AcDbEntity
  8
DRAFT
100
AcDbLine
 62
7
  6
CONTINUOUS
 10
92.3232831571
 20
87.5777589083
 11
92.3110761743
 21
87.6169728104
  0
LWPOLYLINE
  5
2F6
100
AcDbEntity
  8
DRAFT
100
AcDbPolyline
 62
7
  6
CONTINUOUS
 90
25
 70
0
 10
91.1931443863
 20
89.0467571474
 10
91.2052978001
 20
89.0075123153
 10
91.2164239177
 20
88.9684551268
 10
91.2265228235
 20
88.9295856306
 10
91.2356056474
 20
88.8908490367
 10
91.2436614389
 20
88.852300239
 10
91.2506571328
 20
88.8141037963
 10
91.2565881898
 20
88.776268431
 10
91.2614592629
 20
88.7387854867
 10
91.2652510163
 20
88.7017934199
 10
91.2679585523
 20
88.6652926944
 10
91.269586829
 20
88.6292828818
 10
91.2701312366
 20
88.5939010674
 10
91.26958878
 20
88.5591488186
 10
91.2679624547
 20
88.5250245687
 10
91.265256576
 20
88.4916606674
 10
91.2614661657
 20
88.459062208
 10
91.2565961421
 20
88.4272240632
 10
91.2506656081
 20
88.3962632183
 10
91.2436698363
 20
88.3661766548
 10
91.2356134404
 20
88.3369673261
 10
91.2265294755
 20
88.3087611406
 10
91.2164288888
 20
88.2816000268
 10
91.2053005539
 20
88.255441953
 10
91.1931443863
 20
88.2302868707
  0
LWPOLYLINE
  5
2F7
100
AcDbEntity
  8
DRAFT
100
AcDbPolyline
 62
7
  6
CONTINUOUS
 90
25
 70
0
 10
93.3851754079
 20
87.7811059081
 10
93.3973288218
 20
87.741861076
 10
93.4084549393
 20
87.7028038874
 10
93.4185538452
 20
87.6639343913
 10
93.427636669
 20
87.6251977973
 10
93.4356924605
 20
87.5866489997
 10
93.4426881545
 20
87.548452557
 10
93.4486192115
 20
87.5106171917
 10
93.4534902846
 20
87.4731342474
 10
93.4572820379
 20
87.4361421806
 10
93.459989574
 20
87.3996414551
 10
93.4616178507
 20
87.3636316425
 10
93.4621622582
 20
87.3282498281
 10
93.4616198017
 20
87.2934975792
 10
93.4599934763
 20
87.2593733294
 10
93.4572875977
 20
87.2260094281
 10
93.4534971873
 20
87.1934109687
 10
93.4486271638
 20
87.1615728239
 10
93.4426966298
 20
87.130611979
 10
93.435700858
 20
87.1005254155
 10
93.4276444621
 20
87.0713160867
 10
93.4185604972
 20
87.0431099013
 10
93.4084599105
 20
87.0159487874
 10
93.3973315756
 20
86.9897907137
 10
93.3851754079
 20
86.9646356313
  0
LINE
  5
2F8
100
AcDbEntity
  8
SUPERFICI
100
AcDbLine
 62
7
  6
CONTINUOUS
 10
91.2069770747
 20
89.0018112362
 11
91.1931443863
 21
89.0467571474
  0
LINE
  5
2F9
100
AcDbEntity
  8
SUPERFICI
100
AcDbLine
 62
7
  6
CONTINUOUS
 10
93.3990080964
 20
87.7361599969
 11
93.3851754079
 21
87.7811059081
  0
LWPOLYLINE
  5
2FA
100
AcDbEntity
  8
DRAFT
100
AcDbPolyline
 62
7
  6
CONTINUOUS
 90
22
 70
0
 10
92.3110761743
 20
87.6169728104
 10
92.2999002917
 20
87.6560012653
 10
92.2897555939
 20
87.6948443217
 10
92.2806310655
 20
87.733556836
 10
92.2725379013
 20
87.7720840551
 10
92.2655094709
 20
87.8102615962
 10
92.2595504322
 20
87.8480808053
 10
92.2546562409
 20
87.8855504014
 10
92.2508464052
 20
87.9225320276
 10
92.2481258819
 20
87.9590252545
 10
92.2464897746
 20
87.9950305458
 10
92.2459427533
 20
88.0304108511
 10
92.2464878135
 20
88.0651646032
 10
92.2481219602
 20
88.099293369
 10
92.2508408181
 20
88.1326647643
 10
92.2546493047
 20
88.1652736607
 10
92.2595424428
 20
88.1971251516
 10
92.265500957
 20
88.2281021519
 10
92.2725294656
 20
88.2582076172
 10
92.2806232367
 20
88.287438526
 10
92.289748911
 20
88.315668794
 10
92.2998952973
 20
88.3428563518
  0
LWPOLYLINE
  5
2FB
100
AcDbEntity
  8
0
100
AcDbPolyline
 62
253
  6
CONTINUOUS
 90
13
 70
0
 10
92.080691193
 20
112.9930385826
 10
92.0791754559
 20
113.0148730873
 10
92.0753094045
 20
113.0377549008
 10
92.0691591623
 20
113.0612926606
 10
92.060829921
 20
113.0850837849
 10
92.050464141
 20
113.1087213587
 10
92.038239115
 20
113.1318010932
 10
92.0243639356
 20
113.1539282405
 10
92.009075919
 20
113.1747243458
 10
91.9926365461
 20
113.1938337196
 10
91.9753269903
 20
113.2109295218
 10
91.9574433081
 20
113.2257193519
 10
91.9392913759
 20
113.2379502497
  0
LWPOLYLINE
  5
2FC
100
AcDbEntity
  8
0
100
AcDbPolyline
 62
253
  6
CONTINUOUS
 90
8
 70
0
 10
91.8003381626
 20
112.6316503419
 10
91.8012659501
 20
112.6135119786
 10
91.804055785
 20
112.5966016029
 10
91.8086984556
 20
112.5811649571
 10
91.8151709867
 20
112.5674127295
 10
91.8234056447
 20
112.5555863373
 10
91.8332625411
 20
112.5459203065
 10
91.841745983
 20
112.5401079961
  0
LINE
  5
2FD
100
AcDbEntity
  8
0
100
AcDbLine
 62
253
  6
CONTINUOUS
 10
91.8003381626
 20
112.6316503419
 11
91.8003381626
 21
112.994451221
  0
LINE
  5
2FE
100
AcDbEntity
  8
0
100
AcDbLine
 62
253
  6
CONTINUOUS
 10
92.080691193
 20
112.6302377035
 11
92.080691193
 21
112.9930385826
  0
LINE
  5
2FF
100
AcDbEntity
  8
0
100
AcDbLine
 62
253
  6
CONTINUOUS
 10
92.5197875386
 20
112.4559203563
 11
92.5197875386
 21
111.6579648855
  0
LINE
  5
300
100
AcDbEntity
  8
0
100
AcDbLine
 62
253
  6
CONTINUOUS
 10
92.8001405689
 20
112.5599965032
 11
92.8001405689
 21
111.8199210428
  0
LINE
  5
301
100
AcDbEntity
  8
0
100
AcDbLine
 62
253
  6
CONTINUOUS
 10
93.5487628361
 20
110.2541453644
 11
93.5487628361
 21
110.1400517856
  0
LINE
  5
302
100
AcDbEntity
  8
0
100
AcDbLine
 62
7
  6
CONTINUOUS
 10
93.7379359823
 20
112.3985893846
 11
93.7379359823
 21
113.949907781
  0
LINE
  5
303
100
AcDbEntity
  8
0
100
AcDbLine
 62
253
  6
CONTINUOUS
 10
94.2961723928
 20
114.2722275948
 11
94.2961723928
 21
113.8880494032
  0
LINE
  5
304
100
AcDbEntity
  8
0
100
AcDbLine
 62
7
  6
CONTINUOUS
 10
94.3522344787
 20
113.9629775289
 11
94.3523044325
 21
113.9682720176
  0
LWPOLYLINE
  5
305
100
AcDbEntity
  8
0
100
AcDbPolyline
 62
253
  6
CONTINUOUS
 90
13
 70
0
 10
94.8146630697
 20
111.676583388
 10
94.8157956606
 20
111.6978622933
 10
94.8192060076
 20
111.7202627611
 10
94.8248844179
 20
111.74343727
 10
94.8328016345
 20
111.7670650675
 10
94.842857497
 20
111.790700458
 10
94.8548367756
 20
111.8137866977
 10
94.8685067127
 20
111.8358872148
 10
94.8836592737
 20
111.8566761592
 10
94.9000322007
 20
111.8757947081
 10
94.9173455602
 20
111.8929191945
 10
94.9353081538
 20
111.9077646296
 10
94.9536162829
 20
111.9200824167
  0
LWPOLYLINE
  5
306
100
AcDbEntity
  8
0
100
AcDbPolyline
 62
7
  6
CONTINUOUS
 90
9
 70
0
 10
94.7560844259
 20
111.7582383066
 10
94.7576828842
 20
111.7834688696
 10
94.762539791
 20
111.8086398287
 10
94.7706776406
 20
111.8332337995
 10
94.7820321392
 20
111.8567562722
 10
94.7964078804
 20
111.8786683434
 10
94.8135037325
 20
111.8984907429
 10
94.8331735576
 20
111.9160131076
 10
94.8509350702
 20
111.9283665162
  0
LWPOLYLINE
  5
307
100
AcDbEntity
  8
0
100
AcDbPolyline
 62
253
  6
CONTINUOUS
 90
3
 70
0
 10
94.3523044327
 20
113.968266752
 10
94.3508117993
 20
113.9541848827
 10
94.3459877861
 20
113.9394739928
  0
LWPOLYLINE
  5
308
100
AcDbEntity
  8
DRAFT
100
AcDbPolyline
 62
7
  6
CONTINUOUS
 90
3
 70
0
 10
90.2846409709
 20
89.5064389428
 10
90.2958190811
 20
89.5326257562
 10
90.3080288307
 20
89.5578117761
  0
LINE
  5
309
100
AcDbEntity
  8
RACCORDO
100
AcDbLine
 62
7
  6
CONTINUOUS
 10
108.0956547518
 20
116.5497750493
 11
105.6028291269
 21
114.2850882101
  0
LINE
  5
30A
100
AcDbEntity
  8
0
100
AcDbLine
 62
253
  6
CONTINUOUS
 10
108.1982696575
 20
116.5426633078
 11
105.6703556044
 21
114.2460992683
  0
LWPOLYLINE
  5
30B
100
AcDbEntity
  8
0
100
AcDbPolyline
 62
253
  6
CONTINUOUS
 90
13
 70
0
 10
100.9318900917
 20
108.4683020449
 10
100.9140521243
 20
108.4563354206
 10
100.8964206192
 20
108.4418620206
 10
100.8792915053
 20
108.4250694874
 10
100.8629272495
 20
108.406147918
 10
100.8476624266
 20
108.3854126572
 10
100.8338686225
 20
108.3633347072
 10
100.8218034333
 20
108.3403367416
 10
100.8116415429
 20
108.3167635616
 10
100.8035584802
 20
108.2930243125
 10
100.7976893597
 20
108.2695237544
 10
100.7941296141
 20
108.2466549352
 10
100.7929368785
 20
108.2248030161
  0
LINE
  5
30C
100
AcDbEntity
  8
0
100
AcDbLine
 62
7
  6
CONTINUOUS
 10
102.0110853221
 20
107.6217766427
 11
101.0732899088
 21
107.0431083009
  0
LWPOLYLINE
  5
30D
100
AcDbEntity
  8
0
100
AcDbPolyline
 62
7
  6
CONTINUOUS
 90
25
 70
0
 10
106.8869411664
 20
110.8944390335
 10
106.8917262309
 20
110.8973324702
 10
106.9076725672
 20
110.9087167483
 10
106.922273636
 20
110.9219993373
 10
106.9355867356
 20
110.9372624006
 10
106.9475545676
 20
110.9544237749
 10
106.958005237
 20
110.9732369696
 10
106.9669168476
 20
110.9937258241
 10
106.9743112956
 20
111.0158664991
 10
106.9800823737
 20
111.0393409858
 10
106.9842066532
 20
111.0641685341
 10
106.9867075628
 20
111.0903298942
 10
106.9875491817
 20
111.117449308
 10
106.9867075628
 20
111.1455406021
 10
106.9842066532
 20
111.17458995
 10
106.9800823737
 20
111.2041801128
 10
106.9743112956
 20
111.2343188959
 10
106.9669168476
 20
111.264998494
 10
106.958005237
 20
111.2957782531
 10
106.9475545676
 20
111.3266596188
 10
106.9355867356
 20
111.3576411455
 10
106.922273636
 20
111.3882778426
 10
106.9076725672
 20
111.4184213798
 10
106.8917262309
 20
111.4482200874
 10
106.874434627
 20
111.4776739653
  0
LWPOLYLINE
  5
30E
100
AcDbEntity
  8
0
100
AcDbPolyline
 62
7
  6
CONTINUOUS
 90
6
 70
0
 10
101.068184356
 20
107.040060827
 10
101.0512910139
 20
107.0299109763
 10
101.0337223874
 20
107.0198476865
 10
101.0158073013
 20
107.0098199956
 10
100.9979188854
 20
106.999608213
 10
100.9802313802
 20
106.9892637004
  0
LINE
  5
30F
100
AcDbEntity
  8
0
100
AcDbLine
 62
7
  6
CONTINUOUS
 10
100.4589277084
 20
108.6934165921
 11
101.0663108616
 21
109.056353652
  0
LINE
  5
310
100
AcDbEntity
  8
0
100
AcDbLine
 62
253
  6
CONTINUOUS
 10
101.2661550589
 20
109.1061023705
 11
100.5590482777
 21
108.6835762355
  0
LINE
  5
311
100
AcDbEntity
  8
0
100
AcDbLine
 62
253
  6
CONTINUOUS
 10
100.4589593205
 20
108.6934354694
 11
100.4589275925
 21
108.6934165228
  0
LINE
  5
312
100
AcDbEntity
  8
DRAFT
100
AcDbLine
 62
7
  6
CONTINUOUS
 10
106.8868386453
 20
110.8943472894
 11
106.1435711982
 21
110.4630729305
  0
LINE
  5
313
100
AcDbEntity
  8
0
100
AcDbLine
 62
253
  6
CONTINUOUS
 10
107.0182156687
 20
111.982478565
 11
100.9318900917
 21
108.4683020449
  0
LINE
  5
314
100
AcDbEntity
  8
0
100
AcDbLine
 62
253
  6
CONTINUOUS
 10
107.1596154857
 20
111.7375668979
 11
101.0732899088
 21
108.2233903778
  0
LINE
  5
315
100
AcDbEntity
  8
0
100
AcDbLine
 62
7
  6
CONTINUOUS
 10
102.0110853221
 20
107.6217766427
 11
107.2901935926
 21
110.6698780612
  0
LINE
  5
316
100
AcDbEntity
  8
0
100
AcDbLine
 62
7
  6
CONTINUOUS
 10
100.8811347643
 20
106.9320517089
 11
100.8262147113
 21
106.9003629939
  0
LWPOLYLINE
  5
317
100
AcDbEntity
  8
0
100
AcDbPolyline
 62
7
  6
CONTINUOUS
 90
3
 70
0
 10
100.928689387
 20
106.9595079988
 10
100.8964288497
 20
106.9409484946
 10
100.8811347643
 20
106.9320517089
  0
LWPOLYLINE
  5
318
100
AcDbEntity
  8
0
100
AcDbPolyline
 62
7
  6
CONTINUOUS
 90
3
 70
0
 10
100.9802313802
 20
106.9892637004
 10
100.9454617445
 20
106.9692832691
 10
100.928689387
 20
106.9595079988
  0
LWPOLYLINE
  5
319
100
AcDbEntity
  8
0
100
AcDbPolyline
 62
7
  6
CONTINUOUS
 90
4
 70
0
 10
100.8262147113
 20
106.9003629939
 10
100.814305481
 20
106.8935810898
 10
100.8032045107
 20
106.8871937604
 10
100.7929368785
 20
106.8811521435
  0
LINE
  5
31A
100
AcDbEntity
  8
0
100
AcDbLine
 62
7
  6
CONTINUOUS
 10
106.6209292877
 20
112.1642442613
 11
102.0470752745
 21
109.6155430412
  0
LINE
  5
31B
100
AcDbEntity
  8
0
100
AcDbLine
 62
253
  6
CONTINUOUS
 10
106.720749846
 20
112.1542316029
 11
102.0489088042
 21
109.550928802
  0
LINE
  5
31C
100
AcDbEntity
  8
0
100
AcDbLine
 62
7
  6
CONTINUOUS
 10
115.8827940498
 20
116.4200549523
 11
113.3508858226
 21
115.0091927846
  0
LINE
  5
31D
100
AcDbEntity
  8
0
100
AcDbLine
 62
253
  6
CONTINUOUS
 10
115.982614608
 20
116.4100422939
 11
113.3701496603
 21
114.9542912837
  0
LINE
  5
31E
100
AcDbEntity
  8
0
100
AcDbLine
 62
7
  6
CONTINUOUS
 10
107.4049038198
 20
111.3895716849
 11
113.0773064477
 21
114.5504201635
  0
LINE
  5
31F
100
AcDbEntity
  8
0
100
AcDbLine
 62
7
  6
CONTINUOUS
 10
119.6667825607
 20
117.4969182182
 11
123.2398562592
 21
119.4824813849
  0
LWPOLYLINE
  5
320
100
AcDbEntity
  8
0
100
AcDbPolyline
 62
253
  6
CONTINUOUS
 90
11
 70
0
 10
118.1131781369
 20
115.1798816146
 10
118.140863305
 20
115.1936239416
 10
118.1695960853
 20
115.2042712608
 10
118.1992061715
 20
115.2117035731
 10
118.229495283
 20
115.2158111568
 10
118.2603110378
 20
115.2165103325
 10
118.2915413869
 20
115.2137207715
 10
118.323034945
 20
115.2073448919
 10
118.3545637372
 20
115.1973364461
 10
118.3858868457
 20
115.1836864806
 10
118.4053295319
 20
115.1732581884
  0
LWPOLYLINE
  5
321
100
AcDbEntity
  8
0
100
AcDbPolyline
 62
253
  6
CONTINUOUS
 90
13
 70
0
 10
118.2383602355
 20
115.0480212925
 10
118.2524307227
 20
115.0548401343
 10
118.2674200261
 20
115.0597055511
 10
118.2833281457
 20
115.0626175429
 10
118.3002431069
 20
115.06362305
 10
118.3180768843
 20
115.0626751321
 10
118.3365654014
 20
115.0596329679
 10
118.3557351368
 20
115.0544630824
 10
118.3755596119
 20
115.0471989506
 10
118.3956953148
 20
115.0378001756
 10
118.4160277415
 20
115.0262532916
 10
118.436671396
 20
115.0125717643
 10
118.4576262783
 20
114.9967555938
  0
LWPOLYLINE
  5
322
100
AcDbEntity
  8
0
100
AcDbPolyline
 62
253
  6
CONTINUOUS
 90
7
 70
0
 10
104.7104548519
 20
108.4224206094
 10
104.7282928194
 20
108.4310528229
 10
104.7459243244
 20
108.436939843
 10
104.7630534384
 20
108.4399275812
 10
104.7794176941
 20
108.4399030441
 10
104.794682517
 20
108.4367952182
 10
104.8079914185
 20
108.4309287113
  0
LWPOLYLINE
  5
323
100
AcDbEntity
  8
0
100
AcDbPolyline
 62
7
  6
CONTINUOUS
 90
6
 70
0
 10
104.6132615121
 20
108.4338715656
 10
104.6360253193
 20
108.444331075
 10
104.6602529858
 20
108.4519461705
 10
104.685512752
 20
108.4564596415
 10
104.711357143
 20
108.457697919
 10
104.7372318031
 20
108.4555765914
  0
LINE
  5
324
100
AcDbEntity
  8
RACCORDO
100
AcDbLine
 62
253
  6
CONTINUOUS
 10
120.1191363307
 20
115.533020501
 11
120.01098157
 21
115.4867875369
  0
LWPOLYLINE
  5
325
100
AcDbEntity
  8
0
100
AcDbPolyline
 62
7
  6
CONTINUOUS
 90
4
 70
0
 10
104.0341517163
 20
108.1224450582
 10
104.0463041651
 20
108.1275196079
 10
104.0616845909
 20
108.130505059
 10
104.0782714886
 20
108.1303706339
  0
LWPOLYLINE
  5
326
100
AcDbEntity
  8
0
100
AcDbPolyline
 62
253
  6
CONTINUOUS
 90
7
 70
0
 10
104.6132615121
 20
108.4338715656
 10
104.6253822922
 20
108.4389292441
 10
104.6406703088
 20
108.4418655213
 10
104.6571096816
 20
108.4416523463
 10
104.6744192375
 20
108.438293365
 10
104.6923029197
 20
108.4318460284
 10
104.7104548519
 20
108.4224206094
  0
LWPOLYLINE
  5
327
100
AcDbEntity
  8
RACCORDO
100
AcDbPolyline
 62
7
  6
CONTINUOUS
 90
8
 70
0
 10
120.2544419961
 20
115.585382284
 10
120.1133894882
 20
115.5307087454
 10
119.9652519481
 20
115.4671747932
 10
119.8223566921
 20
115.3992960073
 10
119.684993435
 20
115.3271695055
 10
119.5535381846
 20
115.2509464223
 10
119.4284335164
 20
115.1708460874
 10
119.3175331586
 20
115.092372807
  0
LINE
  5
328
100
AcDbEntity
  8
RACCORDO
100
AcDbLine
 62
253
  6
CONTINUOUS
 10
120.2543168649
 20
115.5853361424
 11
120.1191363307
 21
115.533020501
  0
LINE
  5
329
100
AcDbEntity
  8
0
100
AcDbLine
 62
7
  6
CONTINUOUS
 10
120.2543168873
 20
115.5853361506
 11
120.8593945769
 21
115.8084659608
  0
LWPOLYLINE
  5
32A
100
AcDbEntity
  8
0
100
AcDbPolyline
 62
253
  6
CONTINUOUS
 90
13
 70
0
 10
103.7138531661
 20
83.0424236653
 10
103.7332893191
 20
83.032567461
 10
103.7547666117
 20
83.0242419977
 10
103.7779258482
 20
83.0175866535
 10
103.8023796354
 20
83.0127128815
 10
103.8277189217
 20
83.0097023281
 10
103.8535198436
 20
83.0086054781
 10
103.8793507909
 20
83.0094408208
 10
103.90477943
 20
83.0121945147
 10
103.9293800172
 20
83.0168205656
 10
103.9527407699
 20
83.0232416238
 10
103.9744707442
 20
83.0313503217
 10
103.9942061964
 20
83.0410110301
  0
LINE
  5
32B
100
AcDbEntity
  8
0
100
AcDbLine
 62
7
  6
CONTINUOUS
 10
104.2844971714
 20
81.925021121
 11
104.8395124469
 21
81.6045622569
  0
LINE
  5
32C
100
AcDbEntity
  8
0
100
AcDbLine
 62
7
  6
CONTINUOUS
 10
105.4220675641
 20
81.6693510559
 11
105.2991318547
 21
81.7403325938
  0
LINE
  5
32D
100
AcDbEntity
  8
0
100
AcDbLine
 62
7
  6
CONTINUOUS
 10
104.8395124469
 20
82.364026367
 11
104.2844971714
 21
82.684485231
  0
LINE
  5
32E
100
AcDbEntity
  8
0
100
AcDbLine
 62
7
  6
CONTINUOUS
 10
102.9185755333
 20
83.6143267776
 11
103.091567432
 21
83.5144434234
  0
LINE
  5
32F
100
AcDbEntity
  8
0
100
AcDbLine
 62
253
  6
CONTINUOUS
 10
103.5724102675
 20
83.2873850777
 11
103.1350005135
 21
83.5399399876
  0
LINE
  5
330
100
AcDbEntity
  8
0
100
AcDbLine
 62
253
  6
CONTINUOUS
 10
102.8875131401
 20
83.6829873068
 11
102.9656794767
 21
83.6378550437
  0
LINE
  5
331
100
AcDbEntity
  8
0
100
AcDbLine
 62
7
  6
CONTINUOUS
 10
105.4220675641
 20
82.4430667076
 11
105.2991318547
 21
82.5140482455
  0
LINE
  5
332
100
AcDbEntity
  8
0
100
AcDbLine
 62
253
  6
CONTINUOUS
 10
103.713919138
 20
83.532283522
 11
103.2485221892
 21
83.8009978875
  0
LINE
  5
333
100
AcDbEntity
  8
0
100
AcDbLine
 62
7
  6
CONTINUOUS
 10
103.8849182923
 20
84.1684450215
 11
104.0970503266
 21
84.0459626435
  0
LINE
  5
334
100
AcDbEntity
  8
0
100
AcDbLine
 62
253
  6
CONTINUOUS
 10
103.134871305
 20
83.5400148698
 11
102.965679497
 21
83.6377794496
  0
LWPOLYLINE
  5
335
100
AcDbEntity
  8
0
100
AcDbPolyline
 62
253
  6
CONTINUOUS
 90
7
 70
0
 10
102.8875131401
 20
83.6829873068
 10
102.8745935761
 20
83.6914917076
 10
102.863700376
 20
83.7008994145
 10
102.8550218458
 20
83.7110507075
 10
102.8487079947
 20
83.7217745345
 10
102.8448709616
 20
83.7328865051
 10
102.8435791577
 20
83.7442218932
  0
LWPOLYLINE
  5
336
100
AcDbEntity
  8
0
100
AcDbPolyline
 62
253
  6
CONTINUOUS
 90
7
 70
0
 10
102.9185734399
 20
83.6143279864
 10
102.9094032402
 20
83.62111332
 10
102.9016991279
 20
83.6299911996
 10
102.8955695451
 20
83.6408200322
 10
102.891118099
 20
83.6534105254
 10
102.8884179108
 20
83.6675472576
 10
102.8875131401
 20
83.6829873068
  0
LINE
  5
337
100
AcDbEntity
  8
DRAFT
100
AcDbLine
 62
7
  6
CONTINUOUS
 10
94.5153141788
 20
86.312107669
 11
94.503107196
 21
86.3513215711
  0
LWPOLYLINE
  5
338
100
AcDbEntity
  8
DRAFT
100
AcDbPolyline
 62
7
  6
CONTINUOUS
 90
25
 70
0
 10
95.4004297343
 20
86.6175233171
 10
95.4125831482
 20
86.578278485
 10
95.4237092657
 20
86.5392212964
 10
95.4338081716
 20
86.5003518003
 10
95.4428909954
 20
86.4616152063
 10
95.4509467869
 20
86.4230664086
 10
95.4579424809
 20
86.3848699659
 10
95.4638735379
 20
86.3470346006
 10
95.468744611
 20
86.3095516562
 10
95.4725363643
 20
86.2725595895
 10
95.4752439004
 20
86.2360588639
 10
95.4768721771
 20
86.2000490513
 10
95.4774165846
 20
86.1646672369
 10
95.4768741281
 20
86.1299149881
 10
95.4752478027
 20
86.0957907382
 10
95.4725419241
 20
86.062426837
 10
95.4687515137
 20
86.0298283776
 10
95.4638814902
 20
85.9979902328
 10
95.4579509561
 20
85.9670293879
 10
95.4509551843
 20
85.9369428245
 10
95.4428987884
 20
85.9077334957
 10
95.4338148236
 20
85.8795273102
 10
95.4237142368
 20
85.8523661964
 10
95.4125859019
 20
85.8262081227
 10
95.4004297343
 20
85.8010530404
  0
LINE
  5
339
100
AcDbEntity
  8
SUPERFICI
100
AcDbLine
 62
7
  6
CONTINUOUS
 10
95.4142624227
 20
86.5725774059
 11
95.4004297343
 21
86.6175233171
  0
LWPOLYLINE
  5
33A
100
AcDbEntity
  8
DRAFT
100
AcDbPolyline
 62
7
  6
CONTINUOUS
 90
22
 70
0
 10
94.503107196
 20
86.3513215711
 10
94.4919313134
 20
86.390350026
 10
94.4817866155
 20
86.4291930824
 10
94.4726620872
 20
86.4679055968
 10
94.4645689229
 20
86.5064328159
 10
94.4575404926
 20
86.544610357
 10
94.4515814539
 20
86.5824295661
 10
94.4466872626
 20
86.6198991622
 10
94.4428774269
 20
86.6568807885
 10
94.4401569036
 20
86.6933740153
 10
94.4385207963
 20
86.7293793066
 10
94.437973775
 20
86.7647596119
 10
94.4385188352
 20
86.799513364
 10
94.4401529818
 20
86.8336421298
 10
94.4428718398
 20
86.8670135252
 10
94.4466803264
 20
86.8996224215
 10
94.4515734645
 20
86.9314739124
 10
94.4575319787
 20
86.9624509127
 10
94.4645604873
 20
86.992556378
 10
94.4726542584
 20
87.0217872867
 10
94.4817799327
 20
87.0500175547
 10
94.491926319
 20
87.0772051125
  0
LWPOLYLINE
  5
33B
100
AcDbEntity
  8
0
100
AcDbPolyline
 62
253
  6
CONTINUOUS
 90
7
 70
0
 10
90.0308115867
 20
114.0639860324
 10
90.0327176987
 20
114.0480810092
 10
90.0379308387
 20
114.0334498382
 10
90.0463713924
 20
114.0193296199
 10
90.0578981266
 20
114.0059566235
 10
90.072318168
 20
113.9935546151
 10
90.0893902305
 20
113.9823311138
  0
LWPOLYLINE
  5
33C
100
AcDbEntity
  8
0
100
AcDbPolyline
 62
253
  6
CONTINUOUS
 90
13
 70
0
 10
95.4703475962
 20
111.4613091974
 10
95.4688155596
 20
111.4831326619
 10
95.4648899779
 20
111.5059798593
 10
95.458638019
 20
111.5294598675
 10
95.4501666556
 20
111.5531709372
 10
95.439620835
 20
111.5767073653
 10
95.4271809993
 20
111.599666437
 10
95.4130599974
 20
111.6216553164
 10
95.3974994435
 20
111.6422977675
 10
95.3807655832
 20
111.6612405922
 10
95.3631447373
 20
111.6781596737
 10
95.3449384034
 20
111.6927655217
 10
95.3264580969
 20
111.7048082261
  0
LWPOLYLINE
  5
33D
100
AcDbEntity
  8
0
100
AcDbPolyline
 62
7
  6
CONTINUOUS
 90
9
 70
0
 10
94.3523044327
 20
114.3524450022
 10
94.3506888026
 20
114.3778101523
 10
94.3457785211
 20
114.4031166255
 10
94.3375506127
 20
114.4278363333
 10
94.3260778023
 20
114.4514541167
 10
94.3115580997
 20
114.4734336839
 10
94.294279389
 20
114.4933105828
 10
94.2743930126
 20
114.5108569575
 10
94.2522883916
 20
114.52565934
  0
LWPOLYLINE
  5
33E
100
AcDbEntity
  8
0
100
AcDbPolyline
 62
7
  6
CONTINUOUS
 90
13
 70
0
 10
93.7379359823
 20
113.949907781
 10
93.7367323654
 20
113.9719209533
 10
93.7331231353
 20
113.9949498975
 10
93.7271742259
 20
114.0186033635
 10
93.7189920937
 20
114.0424799065
 10
93.7087175591
 20
114.0661715079
 10
93.6965235469
 20
114.0892705662
 10
93.6826161267
 20
114.111380515
 10
93.6672357008
 20
114.1321246085
 10
93.6506488032
 20
114.1511492836
 10
93.6331383826
 20
114.1681285691
 10
93.6149988786
 20
114.1827695371
 10
93.5965361652
 20
114.1948194481
  0
LWPOLYLINE
  5
33F
100
AcDbEntity
  8
0
100
AcDbPolyline
 62
7
  6
CONTINUOUS
 90
12
 70
0
 10
94.7560712944
 20
110.5294931187
 10
94.7561778616
 20
110.5234538968
 10
94.7573024817
 20
110.5039011376
 10
94.7596704581
 20
110.4841856537
 10
94.763311022
 20
110.4644234645
 10
94.7679803983
 20
110.4447254655
 10
94.7736623466
 20
110.42515211
 10
94.7803547056
 20
110.4058050066
 10
94.7878435915
 20
110.3868427999
 10
94.7960432802
 20
110.3683570483
 10
94.8049930311
 20
110.3503715719
 10
94.8146630697
 20
110.3329325154
  0
LINE
  5
340
100
AcDbEntity
  8
0
100
AcDbLine
 62
7
  6
CONTINUOUS
 10
96.036011482
 20
111.8021928502
 11
96.0356991298
 21
111.8199366907
  0
LINE
  5
341
100
AcDbEntity
  8
0
100
AcDbLine
 62
7
  6
CONTINUOUS
 10
96.0356991298
 20
111.8199366907
 11
96.03471985
 21
111.9044429176
  0
LINE
  5
342
100
AcDbEntity
  8
0
100
AcDbLine
 62
7
  6
CONTINUOUS
 10
96.0342364913
 20
111.9734319202
 11
96.0336943421
 21
112.0445255698
  0
LWPOLYLINE
  5
343
100
AcDbEntity
  8
0
100
AcDbPolyline
 62
7
  6
CONTINUOUS
 90
3
 70
0
 10
96.03471985
 20
111.9044429176
 10
96.0344752941
 20
111.9505106057
 10
96.0342364913
 20
111.9734319202
  0
LINE
  5
344
100
AcDbEntity
  8
0
100
AcDbLine
 62
7
  6
CONTINUOUS
 10
94.3523044327
 20
114.3524450022
 11
94.3523044327
 21
113.9682668106
  0
LINE
  5
345
100
AcDbEntity
  8
0
100
AcDbLine
 62
7
  6
CONTINUOUS
 10
94.3856895884
 20
109.7718384496
 11
94.3856895884
 21
108.4592897588
  0
LINE
  5
346
100
AcDbEntity
  8
0
100
AcDbLine
 62
253
  6
CONTINUOUS
 10
94.4442682322
 20
109.8047257623
 11
94.4442682322
 21
108.3767971007
  0
LINE
  5
347
100
AcDbEntity
  8
0
100
AcDbLine
 62
7
  6
CONTINUOUS
 10
94.7560844259
 20
111.7582383066
 11
94.7560844259
 21
110.5291390553
  0
LINE
  5
348
100
AcDbEntity
  8
0
100
AcDbLine
 62
253
  6
CONTINUOUS
 10
94.7993706853
 20
108.1717653948
 11
94.7993706853
 21
109.5996940563
  0
LINE
  5
349
100
AcDbEntity
  8
0
100
AcDbLine
 62
253
  6
CONTINUOUS
 10
94.8146630697
 20
111.676583388
 11
94.8146630697
 21
110.3329325154
  0
LINE
  5
34A
100
AcDbEntity
  8
0
100
AcDbLine
 62
253
  6
CONTINUOUS
 10
95.0797237156
 20
108.17315332
 11
95.0797237156
 21
109.3701877401
  0
LINE
  5
34B
100
AcDbEntity
  8
0
100
AcDbLine
 62
253
  6
CONTINUOUS
 10
95.1875048837
 20
110.1176583248
 11
95.1875048837
 21
111.4613091974
  0
LINE
  5
34C
100
AcDbEntity
  8
0
100
AcDbLine
 62
7
  6
CONTINUOUS
 10
95.2068148495
 20
113.2021972054
 11
95.2068148495
 21
113.4129357823
  0
LINE
  5
34D
100
AcDbEntity
  8
0
100
AcDbLine
 62
253
  6
CONTINUOUS
 10
95.4703475962
 20
110.2811764761
 11
95.4703475962
 21
111.4613091974
  0
LINE
  5
34E
100
AcDbEntity
  8
0
100
AcDbLine
 62
7
  6
CONTINUOUS
 10
95.5250129011
 20
113.2292122153
 11
95.5250129011
 21
113.0184736384
  0
LWPOLYLINE
  5
34F
100
AcDbEntity
  8
0
100
AcDbPolyline
 62
7
  6
CONTINUOUS
 90
5
 70
0
 10
96.0336943421
 20
112.0445255698
 10
96.033695175
 20
112.0673194679
 10
96.0338422052
 20
112.0886892996
 10
96.0338542975
 20
112.1087347472
 10
96.0335648781
 20
112.1273343611
  0
LINE
  5
350
100
AcDbEntity
  8
0
100
AcDbLine
 62
7
  6
CONTINUOUS
 10
96.0360330211
 20
111.8021804137
 11
96.0360330211
 21
110.642027666
  0
LWPOLYLINE
  5
351
100
AcDbEntity
  8
0
100
AcDbPolyline
 62
253
  6
CONTINUOUS
 90
13
 70
0
 10
101.757435025
 20
114.9646468274
 10
101.7650522792
 20
114.9891602808
 10
101.7701196694
 20
115.0146515553
 10
101.7725504392
 20
115.040684533
 10
101.7723029403
 20
115.0668138088
 10
101.7693813485
 20
115.0925923184
 10
101.763835592
 20
115.1175789867
 10
101.7557604913
 20
115.1413462872
 10
101.745294163
 20
115.1634874905
 10
101.7326156794
 20
115.1836236487
 10
101.7179419649
 20
115.2014101661
 10
101.7015240644
 20
115.2165426794
 10
101.683642885
 20
115.2287622119
  0
LWPOLYLINE
  5
352
100
AcDbEntity
  8
DRAFT
100
AcDbPolyline
 62
7
  6
CONTINUOUS
 90
3
 70
0
 10
92.2998952973
 20
88.3428563518
 10
92.3110734075
 20
88.3690431652
 10
92.3232831571
 20
88.3942291851
  0
LWPOLYLINE
  5
353
100
AcDbEntity
  8
SUPERFICI
100
AcDbPolyline
 62
7
  6
CONTINUOUS
 90
21
 70
0
 10
91.1931443863
 20
88.2302868707
 10
91.2069577695
 20
88.2591436863
 10
91.2194224415
 20
88.2892803005
 10
91.2305385207
 20
88.3206967815
 10
91.2403206044
 20
88.353450955
 10
91.2487543479
 20
88.3874851407
 10
91.2557964097
 20
88.4226261198
 10
91.26143942
 20
88.4588783483
 10
91.2656908987
 20
88.4962374563
 10
91.2685297408
 20
88.5345169295
 10
91.2699492164
 20
88.5737195407
 10
91.2699561064
 20
88.6138425459
 10
91.2685494718
 20
88.6546910984
 10
91.2657229623
 20
88.6962685965
 10
91.26148288
 20
88.7385716133
 10
91.2558471656
 20
88.7813950069
 10
91.248807328
 20
88.8247478738
 10
91.240371714
 20
88.8686210334
 10
91.2305834217
 20
88.9127818708
 10
91.2194567137
 20
88.9571527878
 10
91.2069770747
 20
89.0018112362
  0
LWPOLYLINE
  5
354
100
AcDbEntity
  8
SUPERFICI
100
AcDbPolyline
 62
7
  6
CONTINUOUS
 90
22
 70
0
 10
90.3080288307
 20
89.5578117761
 10
90.2941544722
 20
89.5289197541
 10
90.2816338856
 20
89.4987508555
 10
90.2704671893
 20
89.4673051489
 10
90.2606399537
 20
89.4345249052
 10
90.2521668611
 20
89.4004679998
 10
90.2450916509
 20
89.3653078812
 10
90.2394218424
 20
89.3290401798
 10
90.2351500665
 20
89.2916693525
 10
90.232297631
 20
89.2533820306
 10
90.2308713172
 20
89.2141754711
 10
90.230864395
 20
89.1740524474
 10
90.2322778052
 20
89.133207807
 10
90.2351178498
 20
89.0916381239
 10
90.2393781787
 20
89.0493467972
 10
90.2450406551
 20
89.0065388556
 10
90.2521136284
 20
88.9632051209
 10
90.2605886049
 20
88.9193546887
 10
90.2704220822
 20
88.8752199405
 10
90.2815994563
 20
88.8308782775
 10
90.2941350786
 20
88.7862521532
 10
90.3080288307
 20
88.7413414993
  0
LWPOLYLINE
  5
355
100
AcDbEntity
  8
0
100
AcDbPolyline
 62
7
  6
CONTINUOUS
 90
8
 70
0
 10
113.3519744409
 20
115.0098503835
 10
113.3499455518
 20
115.0082583355
 10
113.3467159243
 20
115.0037133218
 10
113.3437149345
 20
114.9966208633
 10
113.3410455419
 20
114.9871553326
 10
113.3388846135
 20
114.9759384658
 10
113.3373340814
 20
114.9631837455
 10
113.3364054498
 20
114.948693743
  0
LWPOLYLINE
  5
356
100
AcDbEntity
  8
0
100
AcDbPolyline
 62
253
  6
CONTINUOUS
 90
13
 70
0
 10
104.2429493685
 20
106.1339723258
 10
104.2247175559
 20
106.1217116661
 10
104.2068321091
 20
106.1069480729
 10
104.1895923
 20
106.089928581
 10
104.1732865967
 20
106.0709379721
 10
104.1581878377
 20
106.0502940103
 10
104.1445486657
 20
106.0283421245
 10
104.1325973007
 20
106.0054496289
 10
104.1225337213
 20
105.9819995764
 10
104.1145263182
 20
105.9583843495
 10
104.1087090767
 20
105.9349990944
 10
104.1051793351
 20
105.9122351094
 10
104.1039961553
 20
105.8904732971
  0
LINE
  5
357
100
AcDbEntity
  8
0
100
AcDbLine
 62
7
  6
CONTINUOUS
 10
104.0306514978
 20
108.1204236219
 11
102.4292764636
 21
107.1301092796
  0
LINE
  5
358
100
AcDbEntity
  8
0
100
AcDbLine
 62
253
  6
CONTINUOUS
 10
104.1323841265
 20
108.1115528804
 11
102.5320014364
 21
107.1218522186
  0
LINE
  5
359
100
AcDbEntity
  8
0
100
AcDbLine
 62
253
  6
CONTINUOUS
 10
102.4293202236
 20
107.1301363181
 11
102.4292758578
 21
107.130108905
  0
LWPOLYLINE
  5
35A
100
AcDbEntity
  8
0
100
AcDbPolyline
 62
7
  6
CONTINUOUS
 90
3
 70
0
 10
104.0306626294
 20
108.1204305032
 10
104.0323967448
 20
108.1214669206
 10
104.0341517163
 20
108.1224450582
  0
LINE
  5
35B
100
AcDbEntity
  8
0
100
AcDbLine
 62
7
  6
CONTINUOUS
 10
107.2083201639
 20
107.535668174
 11
106.7293907902
 21
107.2542269472
  0
LINE
  5
35C
100
AcDbEntity
  8
0
100
AcDbLine
 62
7
  6
CONTINUOUS
 10
120.0607684945
 20
116.492212337
 11
124.2771482723
 21
118.9695621082
  0
LINE
  5
35D
100
AcDbEntity
  8
DRAFT
100
AcDbLine
 62
7
  6
CONTINUOUS
 10
120.0607684945
 20
116.105466574
 11
124.2832052591
 21
118.5577606475
  0
LINE
  5
35E
100
AcDbEntity
  8
0
100
AcDbLine
 62
253
  6
CONTINUOUS
 10
106.4584305683
 20
107.413161338
 11
104.2429493685
 21
106.1339723258
  0
LINE
  5
35F
100
AcDbEntity
  8
0
100
AcDbLine
 62
7
  6
CONTINUOUS
 10
102.4802818954
 20
105.0971981978
 11
101.4436847463
 21
104.49868198
  0
LINE
  5
360
100
AcDbEntity
  8
0
100
AcDbLine
 62
7
  6
CONTINUOUS
 10
120.508998718
 20
115.3140605848
 11
121.0039734648
 21
115.5998528001
  0
LINE
  5
361
100
AcDbEntity
  8
0
100
AcDbLine
 62
253
  6
CONTINUOUS
 10
106.5998303854
 20
107.1682496709
 11
104.3843491856
 21
105.8890606587
  0
LWPOLYLINE
  5
362
100
AcDbEntity
  8
0
100
AcDbPolyline
 62
7
  6
CONTINUOUS
 90
6
 70
0
 10
100.7667131566
 20
106.1063273931
 10
100.7734641145
 20
106.1101677988
 10
100.7810387134
 20
106.1145583462
 10
100.789342542
 20
106.1194507321
 10
100.7984171583
 20
106.1247114224
 10
100.8082292629
 20
106.1302544223
  0
LINE
  5
363
100
AcDbEntity
  8
0
100
AcDbLine
 62
253
  6
CONTINUOUS
 10
105.5052044332
 20
108.0283666547
 11
118.1131781369
 21
115.1798816146
  0
LINE
  5
364
100
AcDbEntity
  8
0
100
AcDbLine
 62
253
  6
CONTINUOUS
 10
105.6824407652
 20
107.9260326179
 11
118.2383602355
 21
115.0480212925
  0
LINE
  5
365
100
AcDbEntity
  8
0
100
AcDbLine
 62
253
  6
CONTINUOUS
 10
118.4905619511
 20
114.1282634989
 11
106.6018892171
 21
107.3847515827
  0
LINE
  5
366
100
AcDbEntity
  8
0
100
AcDbLine
 62
253
  6
CONTINUOUS
 10
118.540607286
 20
113.9530819401
 11
108.2786575148
 21
108.1322824183
  0
LINE
  5
367
100
AcDbEntity
  8
0
100
AcDbLine
 62
253
  6
CONTINUOUS
 10
106.7297006657
 20
107.253680643
 11
106.6559624254
 21
107.2118547207
  0
LINE
  5
368
100
AcDbEntity
  8
0
100
AcDbLine
 62
7
  6
CONTINUOUS
 10
112.2012634239
 20
110.3187730214
 11
107.2083201639
 21
107.535668174
  0
LINE
  5
369
100
AcDbEntity
  8
0
100
AcDbLine
 62
7
  6
CONTINUOUS
 10
104.6132615121
 20
108.4338715656
 11
104.0341631179
 21
108.1224511896
  0
LINE
  5
36A
100
AcDbEntity
  8
0
100
AcDbLine
 62
253
  6
CONTINUOUS
 10
104.7104548519
 20
108.4224206094
 11
104.1323841265
 21
108.1115528804
  0
LINE
  5
36B
100
AcDbEntity
  8
DRAFT
100
AcDbLine
 62
7
  6
CONTINUOUS
 10
115.6936015381
 20
111.7777084396
 11
119.3627933555
 21
113.7508810593
  0
LWPOLYLINE
  5
36C
100
AcDbEntity
  8
0
100
AcDbPolyline
 62
253
  6
CONTINUOUS
 90
13
 70
0
 10
104.3843491856
 20
105.5262597796
 10
104.3646157754
 20
105.5165999631
 10
104.3428878577
 20
105.5084917249
 10
104.319528999
 20
105.5020707376
 10
104.2949300558
 20
105.4974444418
 10
104.2695026345
 20
105.4946902476
 10
104.2436722044
 20
105.4938542403
 10
104.217870978
 20
105.4949504084
 10
104.1925306791
 20
105.4979604101
 10
104.1680753192
 20
105.50283388
 10
104.1449141021
 20
105.5094892719
 10
104.1234345774
 20
105.517815223
 10
104.1039961553
 20
105.527672418
  0
LWPOLYLINE
  5
36D
100
AcDbEntity
  8
RACCORDO
100
AcDbPolyline
 62
253
  6
CONTINUOUS
 90
7
 70
0
 10
119.9731993197
 20
115.4706367414
 10
119.8327716647
 20
115.4041708724
 10
119.6981954431
 20
115.3337847811
 10
119.5697986824
 20
115.25965001
 10
119.447894307
 20
115.1819472276
 10
119.3327793521
 20
115.1008657619
 10
119.3184326609
 20
115.0896770085
  0
LINE
  5
36E
100
AcDbEntity
  8
0
100
AcDbLine
 62
7
  6
CONTINUOUS
 10
105.3344871937
 20
84.5563058851
 11
105.3634889203
 21
84.5395606517
  0
LWPOLYLINE
  5
36F
100
AcDbEntity
  8
0
100
AcDbPolyline
 62
7
  6
CONTINUOUS
 90
5
 70
0
 10
90.0423559471
 20
113.6342189661
 10
90.0362125671
 20
113.6550200277
 10
90.0323392297
 20
113.6765128313
 10
90.030830371
 20
113.698444132
 10
90.0308115907
 20
113.7012081482
  0
LWPOLYLINE
  5
370
100
AcDbEntity
  8
RACCORDO
100
AcDbPolyline
 62
253
  6
CONTINUOUS
 90
19
 70
0
 10
101.7489654477
 20
66.5440142637
 10
101.754269309
 20
66.5157560855
 10
101.7616001413
 20
66.4894571329
 10
101.7709579446
 20
66.4651174059
 10
101.7824247661
 20
66.4425961576
 10
101.7959185586
 20
66.4220341348
 10
101.8111931807
 20
66.4038535785
 10
101.8282776101
 20
66.3881138815
 10
101.8471428692
 20
66.374755651
 10
101.8674558832
 20
66.3640229488
 10
101.8892472443
 20
66.3559638733
 10
101.9124863603
 20
66.3505303261
 10
101.9367483811
 20
66.3478220743
 10
101.9620674
 20
66.3478996351
 10
101.9884093237
 20
66.3507024911
 10
102.0152470218
 20
66.3561488574
 10
102.0424047843
 20
66.3642114723
 10
102.0700583213
 20
66.3749175974
 10
102.0982076328
 20
66.3882672327
  0
LWPOLYLINE
  5
371
100
AcDbEntity
  8
RACCORDO
100
AcDbPolyline
 62
253
  6
CONTINUOUS
 90
10
 70
0
 10
101.0552028891
 20
66.4905877941
 10
101.0656150777
 20
66.434316798
 10
101.080212288
 20
66.3815084215
 10
101.0989079112
 20
66.3324787651
 10
101.1215933129
 20
66.2875195061
 10
101.1481318059
 20
66.2469008785
 10
101.1783591312
 20
66.2108696674
 10
101.2120958
 20
66.1796403987
 10
101.2491415399
 20
66.1533978782
 10
101.2560724367
 20
66.1492581822
  0
LWPOLYLINE
  5
372
100
AcDbEntity
  8
0
100
AcDbPolyline
 62
253
  6
CONTINUOUS
 90
7
 70
0
 10
94.7560844259
 20
111.7582383066
 10
94.7579905379
 20
111.7423332834
 10
94.7632036779
 20
111.7277021124
 10
94.7716442316
 20
111.7135818941
 10
94.7831709658
 20
111.7002088977
 10
94.7975910071
 20
111.6878068893
 10
94.8146630697
 20
111.676583388
  0
LWPOLYLINE
  5
373
100
AcDbEntity
  8
0
100
AcDbPolyline
 62
253
  6
CONTINUOUS
 90
13
 70
0
 10
97.9390073273
 20
110.8638865869
 10
97.9374915902
 20
110.8857210916
 10
97.9336255388
 20
110.9086029051
 10
97.9274752967
 20
110.9321406648
 10
97.9191460554
 20
110.9559317892
 10
97.9087802754
 20
110.979569363
 10
97.8965552494
 20
111.0026490974
 10
97.8826800699
 20
111.0247762448
 10
97.8673920533
 20
111.0455723501
 10
97.8509526805
 20
111.0646817239
 10
97.8336431246
 20
111.0817775261
 10
97.8157594425
 20
111.0965673562
 10
97.7976075102
 20
111.108798254
  0
LWPOLYLINE
  5
374
100
AcDbEntity
  8
0
100
AcDbPolyline
 62
7
  6
CONTINUOUS
 90
9
 70
0
 10
98.7717218151
 20
111.3924936555
 10
98.770106185
 20
111.4178588056
 10
98.7651959035
 20
111.4431652788
 10
98.7569679951
 20
111.4678849866
 10
98.7454951847
 20
111.49150277
 10
98.7309754821
 20
111.5134823372
 10
98.7136967714
 20
111.5333592361
 10
98.693810395
 20
111.5509056108
 10
98.671705774
 20
111.5657079933
  0
LWPOLYLINE
  5
375
100
AcDbEntity
  8
0
100
AcDbPolyline
 62
7
  6
CONTINUOUS
 90
13
 70
0
 10
98.1573533647
 20
110.9899564343
 10
98.1561497478
 20
111.0119696066
 10
98.1525405178
 20
111.0349985509
 10
98.1465916083
 20
111.0586520168
 10
98.1384094761
 20
111.0825285598
 10
98.1281349415
 20
111.1062201613
 10
98.1159409293
 20
111.1293192195
 10
98.1020335091
 20
111.1514291683
 10
98.0866530832
 20
111.1721732618
 10
98.0700661856
 20
111.191197937
 10
98.052555765
 20
111.2081772224
 10
98.034416261
 20
111.2228181905
 10
98.0159535476
 20
111.2348681014
  0
LINE
  5
376
100
AcDbEntity
  8
0
100
AcDbLine
 62
253
  6
CONTINUOUS
 10
97.658654297
 20
109.7051464775
 11
97.658654297
 21
110.8652992253
  0
LINE
  5
377
100
AcDbEntity
  8
0
100
AcDbLine
 62
253
  6
CONTINUOUS
 10
97.9390073273
 20
109.7121423623
 11
97.9390073273
 21
110.8638865869
  0
LINE
  5
378
100
AcDbEntity
  8
0
100
AcDbLine
 62
7
  6
CONTINUOUS
 10
98.1573533647
 20
109.8468731763
 11
98.1573533647
 21
110.9899564343
  0
LINE
  5
379
100
AcDbEntity
  8
0
100
AcDbLine
 62
253
  6
CONTINUOUS
 10
98.7155897752
 20
111.3122762481
 11
98.7155897752
 21
110.1691929901
  0
LINE
  5
37A
100
AcDbEntity
  8
0
100
AcDbLine
 62
7
  6
CONTINUOUS
 10
98.7717218151
 20
111.3924936555
 11
98.7717218151
 21
110.2474475733
  0
LINE
  5
37B
100
AcDbEntity
  8
0
100
AcDbLine
 62
7
  6
CONTINUOUS
 10
99.3045805698
 20
109.9627943676
 11
99.3045805698
 21
108.8051572131
  0
LINE
  5
37C
100
AcDbEntity
  8
0
100
AcDbLine
 62
253
  6
CONTINUOUS
 10
99.3631592136
 20
109.8811394489
 11
99.3631592136
 21
108.7209867011
  0
LWPOLYLINE
  5
37D
100
AcDbEntity
  8
0
100
AcDbPolyline
 62
253
  6
CONTINUOUS
 90
13
 70
0
 10
99.3631592136
 20
109.8811394489
 10
99.3642918045
 20
109.9024183542
 10
99.3677021515
 20
109.924818822
 10
99.3733805618
 20
109.947993331
 10
99.3812977784
 20
109.9716211284
 10
99.3913536408
 20
109.9952565189
 10
99.4033329195
 20
110.0183427586
 10
99.4170028566
 20
110.0404432757
 10
99.4321554176
 20
110.0612322201
 10
99.4485283446
 20
110.080350769
 10
99.4658417041
 20
110.0974752555
 10
99.4838042977
 20
110.1123206906
 10
99.5021124268
 20
110.1246384776
  0
LWPOLYLINE
  5
37E
100
AcDbEntity
  8
0
100
AcDbPolyline
 62
7
  6
CONTINUOUS
 90
9
 70
0
 10
99.3045805698
 20
109.9627943676
 10
99.3061790281
 20
109.9880249305
 10
99.3110359348
 20
110.0131958896
 10
99.3191737845
 20
110.0377898604
 10
99.3305282831
 20
110.0613123331
 10
99.3449040243
 20
110.0832244043
 10
99.3619998764
 20
110.1030468038
 10
99.3816697015
 20
110.1205691686
 10
99.399431214
 20
110.1329225771
  0
LWPOLYLINE
  5
37F
100
AcDbEntity
  8
0
100
AcDbPolyline
 62
7
  6
CONTINUOUS
 90
9
 70
0
 10
100.3615164207
 20
108.5217321254
 10
100.3631236353
 20
108.5470314077
 10
100.3680077612
 20
108.5722715789
 10
100.3761915479
 20
108.5969298084
 10
100.3876064849
 20
108.6205011621
 10
100.4020558102
 20
108.642447932
 10
100.4192449091
 20
108.6622981846
 10
100.4390250314
 20
108.679832817
 10
100.4589593205
 20
108.6934354694
  0
LWPOLYLINE
  5
380
100
AcDbEntity
  8
0
100
AcDbPolyline
 62
253
  6
CONTINUOUS
 90
11
 70
0
 10
101.8771450487
 20
115.0181838275
 10
101.8769739466
 20
115.0168770964
 10
101.87439935
 20
115.0124165621
 10
101.8688252146
 20
115.0073929621
 10
101.8603729395
 20
115.0018710412
 10
101.8491886192
 20
114.9959616309
 10
101.8354258609
 20
114.9898039704
 10
101.8192077927
 20
114.9834954795
 10
101.8006789676
 20
114.9771369837
 10
101.780026828
 20
114.9708264132
 10
101.757435025
 20
114.9646468274
  0
LWPOLYLINE
  5
381
100
AcDbEntity
  8
DRAFT
100
AcDbPolyline
 62
7
  6
CONTINUOUS
 90
3
 70
0
 10
94.491926319
 20
87.0772051125
 10
94.5031044292
 20
87.1033919259
 10
94.5153141788
 20
87.1285779458
  0
LWPOLYLINE
  5
382
100
AcDbEntity
  8
0
100
AcDbPolyline
 62
7
  6
CONTINUOUS
 90
10
 70
0
 10
102.0110853221
 20
108.0970072928
 10
102.0250263045
 20
108.1272821585
 10
102.0354820413
 20
108.1601789843
 10
102.0424525325
 20
108.1956977704
 10
102.0459377781
 20
108.234244932
 10
102.0459377781
 20
108.2754140538
 10
102.0424525325
 20
108.3179858896
 10
102.0354820413
 20
108.3615540242
 10
102.0250263045
 20
108.4065248728
 10
102.0110853221
 20
108.4528984355
  0
LWPOLYLINE
  5
383
100
AcDbEntity
  8
SUPERFICI
100
AcDbPolyline
 62
7
  6
CONTINUOUS
 90
21
 70
0
 10
93.3851754079
 20
86.9646356313
 10
93.3989887912
 20
86.993492447
 10
93.4114534632
 20
87.0236290612
 10
93.4225695423
 20
87.0550455421
 10
93.4323516261
 20
87.0877997157
 10
93.4407853696
 20
87.1218339014
 10
93.4478274314
 20
87.1569748805
 10
93.4534704417
 20
87.193227109
 10
93.4577219204
 20
87.230586217
 10
93.4605607625
 20
87.2688656902
 10
93.4619802381
 20
87.3080683014
 10
93.4619871281
 20
87.3481913066
 10
93.4605804935
 20
87.3890398591
 10
93.457753984
 20
87.4306173572
 10
93.4535139016
 20
87.472920374
 10
93.4478781873
 20
87.5157437676
 10
93.4408383497
 20
87.5590966345
 10
93.4324027357
 20
87.6029697941
 10
93.4226144434
 20
87.6471306315
 10
93.4114877354
 20
87.6915015485
 10
93.3990080964
 20
87.7361599969
  0
LWPOLYLINE
  5
384
100
AcDbEntity
  8
SUPERFICI
100
AcDbPolyline
 62
7
  6
CONTINUOUS
 90
22
 70
0
 10
92.3232831571
 20
88.3942291851
 10
92.3094087986
 20
88.3653371631
 10
92.296888212
 20
88.3351682645
 10
92.2857215157
 20
88.3037225579
 10
92.2758942801
 20
88.2709423142
 10
92.2674211875
 20
88.2368854089
 10
92.2603459772
 20
88.2017252902
 10
92.2546761688
 20
88.1654575888
 10
92.2504043929
 20
88.1280867615
 10
92.2475519574
 20
88.0897994396
 10
92.2461256436
 20
88.0505928802
 10
92.2461187214
 20
88.0104698564
 10
92.2475321316
 20
87.969625216
 10
92.2503721762
 20
87.9280555329
 10
92.2546325051
 20
87.8857642062
 10
92.2602949814
 20
87.8429562646
 10
92.2673679548
 20
87.79962253
 10
92.2758429312
 20
87.7557720977
 10
92.2856764085
 20
87.7116373496
 10
92.2968537827
 20
87.6672956866
 10
92.309389405
 20
87.6226695622
 10
92.3232831571
 20
87.5777589083
  0
LWPOLYLINE
  5
385
100
AcDbEntity
  8
SUPERFICI
100
AcDbPolyline
 62
7
  6
CONTINUOUS
 90
22
 70
0
 10
94.5153141788
 20
87.1285779458
 10
94.5014398203
 20
87.0996859238
 10
94.4889192336
 20
87.0695170252
 10
94.4777525374
 20
87.0380713186
 10
94.4679253018
 20
87.0052910749
 10
94.4594522092
 20
86.9712341695
 10
94.4523769989
 20
86.9360740509
 10
94.4467071904
 20
86.8998063495
 10
94.4424354146
 20
86.8624355222
 10
94.4395829791
 20
86.8241482003
 10
94.4381566653
 20
86.7849416408
 10
94.4381497431
 20
86.7448186171
 10
94.4395631532
 20
86.7039739767
 10
94.4424031979
 20
86.6624042936
 10
94.4466635268
 20
86.6201129669
 10
94.4523260031
 20
86.5773050253
 10
94.4593989765
 20
86.5339712906
 10
94.4678739529
 20
86.4901208584
 10
94.4777074302
 20
86.4459861102
 10
94.4888848044
 20
86.4016444472
 10
94.5014204266
 20
86.3570183229
 10
94.5153141788
 20
86.312107669
  0
LWPOLYLINE
  5
386
100
AcDbEntity
  8
0
100
AcDbPolyline
 62
7
  6
CONTINUOUS
 90
13
 70
0
 10
105.1037985616
 20
105.4560185793
 10
105.0894296029
 20
105.4395886718
 10
105.0737701418
 20
105.4241041588
 10
105.0569352714
 20
105.409650276
 10
105.0390755314
 20
105.3962236287
 10
105.0203251281
 20
105.3839794635
 10
105.0007951345
 20
105.3732405914
 10
104.98067041
 20
105.3640680885
 10
104.9601443513
 20
105.3565243254
 10
104.9393612622
 20
105.3509410636
 10
104.9185224478
 20
105.3473657556
 10
104.8979120525
 20
105.3458313759
 10
104.8779330361
 20
105.3466220193
  0
LWPOLYLINE
  5
387
100
AcDbEntity
  8
0
100
AcDbPolyline
 62
253
  6
CONTINUOUS
 90
7
 70
0
 10
106.5998303854
 20
107.1682496709
 10
106.6162244641
 20
107.179382773
 10
106.6301378379
 20
107.1917097855
 10
106.6412891076
 20
107.2050514535
 10
106.6494491943
 20
107.2192369541
 10
106.6543893252
 20
107.2340120193
 10
106.6559624254
 20
107.2484669348
  0
LWPOLYLINE
  5
388
100
AcDbEntity
  8
RACCORDO
100
AcDbPolyline
 62
253
  6
CONTINUOUS
 90
19
 70
0
 10
101.7447753961
 20
102.2501481606
 10
101.6893871421
 20
102.2148982209
 10
101.6344534411
 20
102.1750205238
 10
101.5802996956
 20
102.1307571523
 10
101.5272422214
 20
102.0823782135
 10
101.4755997206
 20
102.030174811
 10
101.4256912448
 20
101.9744576436
 10
101.377813724
 20
101.9155651039
 10
101.3322486514
 20
101.8538519524
 10
101.289274066
 20
101.7896815952
 10
101.2491450211
 20
101.7234404987
 10
101.212098497
 20
101.6555282601
 10
101.1783610256
 20
101.586345762
 10
101.1481329183
 20
101.5163070026
 10
101.1215937432
 20
101.4458358678
 10
101.0989079533
 20
101.3753554445
 10
101.0802122063
 20
101.3052893547
 10
101.0656150067
 20
101.2360591889
 10
101.0552028891
 20
101.1680810426
  0
LWPOLYLINE
  5
389
100
AcDbEntity
  8
RACCORDO
100
AcDbPolyline
 62
253
  6
CONTINUOUS
 90
19
 70
0
 10
102.0982076328
 20
101.6379855703
 10
102.0700652802
 20
101.6204909202
 10
102.0424214513
 20
101.6009010965
 10
102.0152761459
 20
101.5792160992
 10
101.9884554296
 20
101.5552718353
 10
101.9621332369
 20
101.5292323978
 10
101.9368313713
 20
101.5015900658
 10
101.9125847114
 20
101.4723262494
 10
101.8893583786
 20
101.4414595384
 10
101.8675695412
 20
101.4095379826
 10
101.8472420665
 20
101.3765366343
 10
101.8283520872
 20
101.342480441
 10
101.8112451694
 20
101.3079922952
 10
101.7959540439
 20
101.2730469901
 10
101.78244598
 20
101.2376697324
 10
101.770968351
 20
101.2025590344
 10
101.7616036149
 20
101.1679477334
 10
101.7542693138
 20
101.1336029921
 10
101.7489654477
 20
101.0995248104
  0
LINE
  5
38A
100
AcDbEntity
  8
0
100
AcDbLine
 62
7
  6
CONTINUOUS
 10
106.0415939749
 20
105.2946114607
 11
105.1037985616
 21
104.7159431189
  0
LINE
  5
38B
100
AcDbEntity
  8
0
100
AcDbLine
 62
253
  6
CONTINUOUS
 10
106.3601553636
 20
105.1106781074
 11
105.4092501976
 21
104.5335838164
  0
LINE
  5
38C
100
AcDbEntity
  8
0
100
AcDbLine
 62
253
  6
CONTINUOUS
 10
106.713345417
 20
104.4985152667
 11
105.7662365667
 21
103.9237249196
  0
LINE
  5
38D
100
AcDbEntity
  8
0
100
AcDbLine
 62
7
  6
CONTINUOUS
 10
107.0475888418
 20
106.5762212789
 11
106.1376060228
 21
106.0414729526
  0
LINE
  5
38E
100
AcDbEntity
  8
0
100
AcDbLine
 62
7
  6
CONTINUOUS
 10
102.7899225958
 20
101.5815382156
 11
102.9091444504
 21
101.651339893
  0
LINE
  5
38F
100
AcDbEntity
  8
0
100
AcDbLine
 62
253
  6
CONTINUOUS
 10
102.7899225958
 20
101.4446181728
 11
102.9941554012
 21
101.5641918236
  0
LWPOLYLINE
  5
390
100
AcDbEntity
  8
0
100
AcDbPolyline
 62
7
  6
CONTINUOUS
 90
9
 70
0
 10
104.9702234361
 20
104.6387539193
 10
104.9501154692
 20
104.6270592025
 10
104.9301984375
 20
104.6156156955
 10
104.9107540971
 20
104.6044406033
 10
104.8918872658
 20
104.5934526719
 10
104.8735248225
 20
104.5828972856
 10
104.8558031276
 20
104.5728658371
 10
104.8390350736
 20
104.5632424501
 10
104.8234455312
 20
104.5539869616
  0
LINE
  5
391
100
AcDbEntity
  8
DRAFT
100
AcDbLine
 62
7
  6
CONTINUOUS
 10
112.6840439118
 20
110.0400216184
 11
115.6936015381
 21
111.7777084396
  0
LINE
  5
392
100
AcDbEntity
  8
0
100
AcDbLine
 62
7
  6
CONTINUOUS
 10
106.7803050019
 20
106.5198090413
 11
106.1591721111
 21
106.1611740846
  0
LINE
  5
393
100
AcDbEntity
  8
RACCORDO
100
AcDbLine
 62
7
  6
CONTINUOUS
 10
123.4721513773
 20
115.8082895052
 11
122.1606870663
 21
115.0510664485
  0
LINE
  5
394
100
AcDbEntity
  8
RACCORDO
100
AcDbLine
 62
7
  6
CONTINUOUS
 10
121.4594633244
 20
114.6461886483
 11
120.9875611836
 21
114.3737182665
  0
LINE
  5
395
100
AcDbEntity
  8
0
100
AcDbLine
 62
253
  6
CONTINUOUS
 10
107.0546100607
 20
105.5120063138
 11
106.3598458743
 21
105.1108568026
  0
LINE
  5
396
100
AcDbEntity
  8
RACCORDO
100
AcDbLine
 62
7
  6
CONTINUOUS
 10
124.3206820851
 20
115.3183614772
 11
123.0092152037
 21
114.5611369365
  0
LINE
  5
397
100
AcDbEntity
  8
0
100
AcDbLine
 62
253
  6
CONTINUOUS
 10
102.4364903591
 20
102.6495337413
 11
101.7447753961
 21
102.2501481606
  0
LINE
  5
398
100
AcDbEntity
  8
0
100
AcDbLine
 62
7
  6
CONTINUOUS
 10
123.0092152037
 20
114.4795846007
 11
122.7177717433
 21
114.3113087992
  0
LINE
  5
399
100
AcDbEntity
  8
0
100
AcDbLine
 62
253
  6
CONTINUOUS
 10
105.016396838
 20
103.5187836362
 11
103.2872071111
 21
102.5203744702
  0
LINE
  5
39A
100
AcDbEntity
  8
0
100
AcDbLine
 62
253
  6
CONTINUOUS
 10
107.4081096034
 20
104.899727146
 11
106.713345417
 21
104.4985776349
  0
LINE
  5
39B
100
AcDbEntity
  8
0
100
AcDbLine
 62
253
  6
CONTINUOUS
 10
102.7899225958
 20
102.037371151
 11
102.0982076328
 21
101.6379855703
  0
LWPOLYLINE
  5
39C
100
AcDbEntity
  8
0
100
AcDbPolyline
 62
7
  6
CONTINUOUS
 90
4
 70
0
 10
105.0986930087
 20
104.7128956451
 10
105.0665894887
 20
104.6943239375
 10
105.0487823722
 20
104.6840788174
 10
105.0103549983
 20
104.6618137519
  0
LINE
  5
39D
100
AcDbEntity
  8
0
100
AcDbLine
 62
7
  6
CONTINUOUS
 10
105.0103549983
 20
104.6618137519
 11
104.9702234361
 21
104.6387539193
  0
LINE
  5
39E
100
AcDbEntity
  8
0
100
AcDbLine
 62
253
  6
CONTINUOUS
 10
106.2748762222
 20
105.9622148598
 11
113.0454483466
 21
109.8313512272
  0
LINE
  5
39F
100
AcDbEntity
  8
0
100
AcDbLine
 62
253
  6
CONTINUOUS
 10
106.628940017
 20
105.7577828622
 11
113.2954388274
 21
109.5674451058
  0
LINE
  5
3A0
100
AcDbEntity
  8
DRAFT
100
AcDbLine
 62
7
  6
CONTINUOUS
 10
113.4036648207
 20
109.3799921868
 11
120.2386709143
 21
113.2451603342
  0
LINE
  5
3A1
100
AcDbEntity
  8
RACCORDO
100
AcDbLine
 62
7
  6
CONTINUOUS
 10
128.7255539097
 20
116.3151083135
 11
120.9913649983
 21
111.9414559396
  0
LINE
  5
3A2
100
AcDbEntity
  8
0
100
AcDbLine
 62
7
  6
CONTINUOUS
 10
127.900307442
 20
116.7915952811
 11
124.3368766055
 21
114.8004644468
  0
LWPOLYLINE
  5
3A3
100
AcDbEntity
  8
RACCORDO
100
AcDbPolyline
 62
7
  6
CONTINUOUS
 90
37
 70
0
 10
128.7255539097
 20
116.3151083135
 10
128.7408645436
 20
116.3236481572
 10
128.7559941884
 20
116.3318580514
 10
128.7709370223
 20
116.3397346344
 10
128.7856878994
 20
116.3472732461
 10
128.8002409148
 20
116.3544721658
 10
128.8145893573
 20
116.3613325849
 10
128.8287283024
 20
116.367851408
 10
128.8426526953
 20
116.3740259682
 10
128.8563558416
 20
116.3798582233
 10
128.8698333484
 20
116.3853453917
 10
128.8830807268
 20
116.3904851262
 10
128.8960913651
 20
116.395280167
 10
128.9088614074
 20
116.3997280536
 10
128.9213869353
 20
116.4038267573
 10
128.9336614811
 20
116.4075798034
 10
128.9456817291
 20
116.4109850576
 10
128.9574443329
 20
116.4140408071
 10
128.9689430229
 20
116.4167513507
 10
128.9801750241
 20
116.4191148832
 10
128.9911375596
 20
116.4211300038
 10
129.0018246036
 20
116.4228017601
 10
129.0122339183
 20
116.4241286764
 10
129.0223632908
 20
116.4251096581
 10
129.0322069787
 20
116.4257504657
 10
129.0417632775
 20
116.4260499508
 10
129.0510305251
 20
116.4260073174
 10
129.0600032828
 20
116.4256289938
 10
129.0686803667
 20
116.4249141538
 10
129.0770606567
 20
116.4238622926
 10
129.0851390432
 20
116.4224804554
 10
129.092914851
 20
116.420768131
 10
129.1003874851
 20
116.4187250963
 10
129.1075521771
 20
116.4163589568
 10
129.1144087463
 20
116.4136695065
 10
129.1209571029
 20
116.4106567943
 10
129.1274860603
 20
116.4071603182
  0
LWPOLYLINE
  5
3A4
100
AcDbEntity
  8
RACCORDO
100
AcDbPolyline
 62
7
  6
CONTINUOUS
 90
10
 70
0
 10
124.3206531892
 20
115.3183447931
 10
124.3320496534
 20
115.324425695
 10
124.3432700559
 20
115.3294350782
 10
124.3543143966
 20
115.3333729427
 10
124.3652776556
 20
115.3362495002
 10
124.3760648527
 20
115.3380545391
 10
124.3863910481
 20
115.3387574245
 10
124.3961612619
 20
115.3383479446
 10
124.4054704739
 20
115.3368363113
 10
124.4143186842
 20
115.3342225244
  0
LWPOLYLINE
  5
3A5
100
AcDbEntity
  8
0
100
AcDbPolyline
 62
7
  6
CONTINUOUS
 90
10
 70
0
 10
105.3634889229
 20
103.4324780531
 10
105.3644335082
 20
103.4329188587
 10
105.3670457714
 20
103.4345400743
 10
105.3712056527
 20
103.436922641
 10
105.3767994727
 20
103.4400912373
 10
105.3836836918
 20
103.4441479824
 10
105.3917668403
 20
103.448790615
 10
105.4009466653
 20
103.4539468076
 10
105.4110876874
 20
103.459768367
 10
105.4220675641
 20
103.4662820122
  0
LWPOLYLINE
  5
3A6
100
AcDbEntity
  8
RACCORDO
100
AcDbPolyline
 62
253
  6
CONTINUOUS
 90
16
 70
0
 10
101.7489654477
 20
101.0995248104
 10
101.7102717716
 20
101.0867055522
 10
101.6683404604
 20
101.0762415781
 10
101.6236159186
 20
101.0682437895
 10
101.5765721543
 20
101.0627969499
 10
101.5277077561
 20
101.0599587873
 10
101.4775406079
 20
101.0597593815
 10
101.426602401
 20
101.0622008459
 10
101.3754329984
 20
101.067257305
 10
101.3245747136
 20
101.0748751683
 10
101.2745665628
 20
101.0849736988
 10
101.2259385519
 20
101.0974458683
 10
101.1792060598
 20
101.112159492
 10
101.1348643758
 20
101.1289586294
 10
101.0933834505
 20
101.1476652364
 10
101.0552029151
 20
101.1680810531
  0
LWPOLYLINE
  5
3A7
100
AcDbEntity
  8
RACCORDO
100
AcDbPolyline
 62
7
  6
CONTINUOUS
 90
19
 70
0
 10
129.6001460643
 20
110.7362041351
 10
129.5923608645
 20
110.7338873766
 10
129.5847093472
 20
110.7318761607
 10
129.5771915124
 20
110.7301704873
 10
129.5698003254
 20
110.7287738784
 10
129.562542821
 20
110.727682812
 10
129.555440103
 20
110.7268867225
 10
129.5484968229
 20
110.7263893971
 10
129.5417083293
 20
110.7261870487
 10
129.5350817713
 20
110.7262577497
 10
129.528620472
 20
110.7266037548
 10
129.5223211084
 20
110.7272228093
 10
129.5161808607
 20
110.7280862221
 10
129.5102015002
 20
110.7291953707
 10
129.5043812555
 20
110.7305488776
 10
129.4987119927
 20
110.7321139194
 10
129.4931910004
 20
110.733879555
 10
129.4878209899
 20
110.7358567255
 10
129.4826019613
 20
110.738045431
  0
LINE
  5
3A8
100
AcDbEntity
  8
0
100
AcDbLine
 62
7
  6
CONTINUOUS
 10
109.8537350894
 20
87.6682330262
 11
109.257843339
 21
87.9343987633
  0
LWPOLYLINE
  5
3A9
100
AcDbEntity
  8
0
100
AcDbPolyline
 62
253
  6
CONTINUOUS
 90
7
 70
0
 10
102.9926535684
 20
89.9077375757
 10
102.9786391757
 20
89.9146408028
 10
102.9648780387
 20
89.9193224718
 10
102.9516081042
 20
89.9216995102
 10
102.9390575132
 20
89.9217283816
 10
102.9274460295
 20
89.9194057559
 10
102.9166481492
 20
89.9145757523
  0
LWPOLYLINE
  5
3AA
100
AcDbEntity
  8
0
100
AcDbPolyline
 62
7
  6
CONTINUOUS
 90
11
 70
0
 10
103.6139300859
 20
89.2376753377
 10
103.6215603437
 20
89.2333857707
 10
103.6557136953
 20
89.2168957742
 10
103.6903281537
 20
89.2045196283
 10
103.725253826
 20
89.1962510864
 10
103.7602635526
 20
89.1921266941
 10
103.7949968843
 20
89.1922010231
 10
103.8290240679
 20
89.1964585393
 10
103.8617960134
 20
89.2047623637
 10
103.8927818116
 20
89.2168593566
 10
103.9104413735
 20
89.2258629721
  0
LINE
  5
3AB
100
AcDbEntity
  8
0
100
AcDbLine
 62
7
  6
CONTINUOUS
 10
103.6138267931
 20
89.2377177529
 11
103.1062971868
 21
89.5307589867
  0
LINE
  5
3AC
100
AcDbEntity
  8
RACCORDO
100
AcDbLine
 62
253
  6
CONTINUOUS
 10
100.3341287774
 20
91.1905958934
 11
85.5016205291
 21
99.754700261
  0
LINE
  5
3AD
100
AcDbEntity
  8
0
100
AcDbLine
 62
253
  6
CONTINUOUS
 10
103.134871305
 20
89.5818945466
 11
102.8875131401
 21
89.7245649319
  0
LINE
  5
3AE
100
AcDbEntity
  8
0
100
AcDbLine
 62
253
  6
CONTINUOUS
 10
103.5724102675
 20
89.3292651259
 11
103.1350005135
 21
89.5818200358
  0
LINE
  5
3AF
100
AcDbEntity
  8
0
100
AcDbLine
 62
253
  6
CONTINUOUS
 10
103.0910665307
 20
89.8509151647
 11
102.9926535684
 21
89.9077375757
  0
LINE
  5
3B0
100
AcDbEntity
  8
0
100
AcDbLine
 62
7
  6
CONTINUOUS
 10
104.2844971714
 20
90.0897238889
 11
104.8395124469
 21
89.7692650249
  0
LINE
  5
3B1
100
AcDbEntity
  8
0
100
AcDbLine
 62
7
  6
CONTINUOUS
 10
105.4220675641
 20
89.8340538238
 11
105.2991318547
 21
89.9050353617
  0
LINE
  5
3B2
100
AcDbEntity
  8
0
100
AcDbLine
 62
7
  6
CONTINUOUS
 10
104.8395124469
 20
90.5287291349
 11
104.2844971714
 21
90.849187999
  0
LWPOLYLINE
  5
3B3
100
AcDbEntity
  8
0
100
AcDbPolyline
 62
7
  6
CONTINUOUS
 90
11
 70
0
 10
103.1066218908
 20
89.5305844654
 10
103.0889601371
 20
89.5417201335
 10
103.072498621
 20
89.5536988438
 10
103.0566546998
 20
89.5669048087
 10
103.0414070883
 20
89.5810360044
 10
103.0268049551
 20
89.5960481504
 10
103.0129439616
 20
89.6118785263
 10
102.9998621729
 20
89.6282124924
 10
102.9875997075
 20
89.6449094397
 10
102.9761970858
 20
89.6620008604
 10
102.9656794767
 20
89.6794326688
  0
LWPOLYLINE
  5
3B4
100
AcDbEntity
  8
0
100
AcDbPolyline
 62
253
  6
CONTINUOUS
 90
7
 70
0
 10
103.6138267931
 20
89.2377177529
 10
103.6016345186
 20
89.2467317198
 10
103.5913571367
 20
89.2585577833
 10
103.5831753273
 20
89.2729908073
 10
103.5772290834
 20
89.2897838387
 10
103.5736201468
 20
89.308649544
 10
103.5724102675
 20
89.3292651259
  0
LWPOLYLINE
  5
3B5
100
AcDbEntity
  8
0
100
AcDbPolyline
 62
253
  6
CONTINUOUS
 90
7
 70
0
 10
106.599083564
 20
68.0702854494
 10
106.607097747
 20
68.0466466273
 10
106.6125490647
 20
68.0217750578
 10
106.6153385597
 20
67.9961092018
 10
106.6154215265
 20
67.970139945
 10
106.612816312
 20
67.9443257339
 10
106.6075845811
 20
67.9190811077
  0
LWPOLYLINE
  5
3B6
100
AcDbEntity
  8
0
100
AcDbPolyline
 62
253
  6
CONTINUOUS
 90
13
 70
0
 10
101.0732899088
 20
108.2233903778
 10
101.0717741717
 20
108.2452248825
 10
101.0679081203
 20
108.268106696
 10
101.0617578782
 20
108.2916444557
 10
101.0534286369
 20
108.31543558
 10
101.0430628569
 20
108.3390731539
 10
101.0308378309
 20
108.3621528883
 10
101.0169626514
 20
108.3842800357
 10
101.0016746348
 20
108.4050761409
 10
100.985235262
 20
108.4241855147
 10
100.9679257061
 20
108.441281317
 10
100.950042024
 20
108.4560711471
 10
100.9318900917
 20
108.4683020449
  0
LWPOLYLINE
  5
3B7
100
AcDbEntity
  8
RACCORDO
100
AcDbPolyline
 62
253
  6
CONTINUOUS
 90
16
 70
0
 10
102.0982076328
 20
101.6379855703
 10
102.0953323365
 20
101.6812263179
 10
102.08872108
 20
101.726286167
 10
102.0784461867
 20
101.7726719033
 10
102.0646200832
 20
101.8198757926
 10
102.0473940739
 20
101.8673811268
 10
102.0269566881
 20
101.9146678792
 10
102.0035316061
 20
101.9612184237
 10
101.9773752234
 20
102.006523172
 10
101.9487738556
 20
102.0500861426
 10
101.9180405706
 20
102.0914304468
 10
101.8855117852
 20
102.130103467
 10
101.8515436064
 20
102.165681794
 10
101.8165078852
 20
102.1977759216
 10
101.7807881417
 20
102.2260345025
 10
101.7447753985
 20
102.2501481621
  0
LWPOLYLINE
  5
3B8
100
AcDbEntity
  8
0
100
AcDbPolyline
 62
253
  6
CONTINUOUS
 90
7
 70
0
 10
104.1039961553
 20
66.2756246853
 10
104.1051888909
 20
66.2551501074
 10
104.1087486365
 20
66.2363919933
 10
104.114617757
 20
66.2196689484
 10
104.1227008197
 20
66.2052638175
 10
104.1328627101
 20
66.1934253338
 10
104.1453769815
 20
66.1840979394
  0
LWPOLYLINE
  5
3B9
100
AcDbEntity
  8
0
100
AcDbPolyline
 62
253
  6
CONTINUOUS
 90
7
 70
0
 10
103.1482538978
 20
70.8295799059
 10
103.149436936
 20
70.8091855727
 10
103.1529663159
 20
70.7904983745
 10
103.1587830729
 20
70.773831038
 10
103.1667899737
 20
70.7594625024
 10
103.1768531222
 20
70.7476332849
 10
103.189666696
 20
70.7380346852
  0
LWPOLYLINE
  5
3BA
100
AcDbEntity
  8
0
100
AcDbPolyline
 62
7
  6
CONTINUOUS
 90
8
 70
0
 10
103.0292339996
 20
68.660342439
 10
103.0292895295
 20
68.6591405444
 10
103.0308667749
 20
68.6536345928
 10
103.0346773655
 20
68.6473780177
 10
103.0407740882
 20
68.6405323848
 10
103.0491698615
 20
68.632977348
 10
103.0598449303
 20
68.6247792224
 10
103.0727538478
 20
68.6161904966
  0
LWPOLYLINE
  5
3BB
100
AcDbEntity
  8
0
100
AcDbPolyline
 62
253
  6
CONTINUOUS
 90
13
 70
0
 10
101.6271128785
 20
114.9291144152
 10
101.6262251565
 20
114.9513098989
 10
101.622932865
 20
114.9745227501
 10
101.6172923361
 20
114.9983557904
 10
101.6094000809
 20
115.0224012298
 10
101.5993911378
 20
115.0462476443
 10
101.5874367629
 20
115.069487015
 10
101.5737414986
 20
115.0917217099
 10
101.5585396749
 20
115.1125712873
 10
101.542091399
 20
115.131679005
 10
101.5246781057
 20
115.1487179247
 10
101.506597741
 20
115.1633965057
 10
101.4881596652
 20
115.1754635935
  0
LWPOLYLINE
  5
3BC
100
AcDbEntity
  8
RACCORDO
100
AcDbPolyline
 62
253
  6
CONTINUOUS
 90
10
 70
0
 10
100.3341287774
 20
75.6776606343
 10
100.3590933675
 20
74.6224503312
 10
100.3978755722
 20
73.5753353898
 10
100.4504674014
 20
72.5365374141
 10
100.5168584412
 20
71.5062760139
 10
100.5970345764
 20
70.4847693289
 10
100.6909780004
 20
69.4722339875
 10
100.7986689225
 20
68.4688842987
 10
100.9200855642
 20
67.4749322016
 10
101.0552028891
 20
66.4905877941
  0
LWPOLYLINE
  5
3BD
100
AcDbEntity
  8
RACCORDO
100
AcDbPolyline
 62
253
  6
CONTINUOUS
 90
10
 70
0
 10
101.0317956337
 20
75.6801065131
 10
101.0566417628
 20
74.6304127631
 10
101.0952106498
 20
73.5891970305
 10
101.1475022946
 20
72.5564593153
 10
101.2135339061
 20
71.5319795112
 10
101.2932882754
 20
70.5159777245
 10
101.3867137768
 20
69.5091142745
 10
101.4937932016
 20
68.5116092675
 10
101.6145437586
 20
67.5232425973
 10
101.7489654477
 20
66.5440142637
  0
LWPOLYLINE
  5
3BE
100
AcDbEntity
  8
0
100
AcDbPolyline
 62
7
  6
CONTINUOUS
 90
12
 70
0
 10
100.3615032892
 20
107.2929869374
 10
100.3616098564
 20
107.2869477156
 10
100.3627344764
 20
107.2673949563
 10
100.3651024529
 20
107.2476794725
 10
100.3687430168
 20
107.2279172832
 10
100.3734123931
 20
107.2082192842
 10
100.3790943414
 20
107.1886459288
 10
100.3857867004
 20
107.1692988254
 10
100.3932755863
 20
107.1503366187
 10
100.401475275
 20
107.131850867
 10
100.4104250258
 20
107.1138653907
 10
100.4200950645
 20
107.0964263341
  0
LINE
  5
3BF
100
AcDbEntity
  8
0
100
AcDbLine
 62
7
  6
CONTINUOUS
 10
101.877144865
 20
115.0182458114
 11
101.8771450487
 21
115.0181838275
  0
LINE
  5
3C0
100
AcDbEntity
  8
0
100
AcDbLine
 62
7
  6
CONTINUOUS
 10
100.3615164207
 20
108.5217321254
 11
100.3615164207
 21
107.2926328741
  0
LINE
  5
3C1
100
AcDbEntity
  8
0
100
AcDbLine
 62
253
  6
CONTINUOUS
 10
100.4200950645
 20
108.4400772067
 11
100.4200950645
 21
107.0964263341
  0
LINE
  5
3C2
100
AcDbEntity
  8
0
100
AcDbLine
 62
7
  6
CONTINUOUS
 10
100.7496506191
 20
106.0973671097
 11
100.7496506191
 21
104.7848184188
  0
LINE
  5
3C3
100
AcDbEntity
  8
0
100
AcDbLine
 62
253
  6
CONTINUOUS
 10
100.7929368785
 20
106.8811521435
 11
100.7929368785
 21
108.2248030161
  0
LINE
  5
3C4
100
AcDbEntity
  8
0
100
AcDbLine
 62
253
  6
CONTINUOUS
 10
100.8082292629
 20
106.1302544223
 11
100.8082292629
 21
104.7023257608
  0
LINE
  5
3C5
100
AcDbEntity
  8
0
100
AcDbLine
 62
253
  6
CONTINUOUS
 10
101.0732899088
 20
107.0431083009
 11
101.0732899088
 21
108.2233903778
  0
LINE
  5
3C6
100
AcDbEntity
  8
0
100
AcDbLine
 62
253
  6
CONTINUOUS
 10
101.163331716
 20
104.4972940548
 11
101.163331716
 21
105.9252227164
  0
LINE
  5
3C7
100
AcDbEntity
  8
0
100
AcDbLine
 62
253
  6
CONTINUOUS
 10
101.4436847463
 20
104.49868198
 11
101.4436847463
 21
105.6957164001
  0
LINE
  5
3C8
100
AcDbEntity
  8
0
100
AcDbLine
 62
253
  6
CONTINUOUS
 10
101.757435025
 20
114.9646468274
 11
101.757435025
 21
113.8587006692
  0
LINE
  5
3C9
100
AcDbEntity
  8
0
100
AcDbLine
 62
7
  6
CONTINUOUS
 10
101.7911128351
 20
116.3294635016
 11
101.7911128351
 21
116.2089545392
  0
LINE
  5
3CA
100
AcDbEntity
  8
0
100
AcDbLine
 62
7
  6
CONTINUOUS
 10
101.8771450791
 20
115.0178579747
 11
101.8771450791
 21
114.021500091
  0
LINE
  5
3CB
100
AcDbEntity
  8
0
100
AcDbLine
 62
7
  6
CONTINUOUS
 10
102.0110853221
 20
107.6217766427
 11
102.0110853221
 21
108.7648599007
  0
LINE
  5
3CC
100
AcDbEntity
  8
0
100
AcDbLine
 62
7
  6
CONTINUOUS
 10
102.3344695794
 20
106.9600081085
 11
102.3344695794
 21
106.5972072294
  0
LINE
  5
3CD
100
AcDbEntity
  8
0
100
AcDbLine
 62
253
  6
CONTINUOUS
 10
102.3930482232
 20
106.8783531899
 11
102.3930482232
 21
106.5155523108
  0
LWPOLYLINE
  5
3CE
100
AcDbEntity
  8
RACCORDO
100
AcDbPolyline
 62
253
  6
CONTINUOUS
 90
10
 70
0
 10
100.3341287774
 20
91.1905958934
 10
100.3082550674
 20
89.4528325833
 10
100.2888499985
 20
87.7185411759
 10
100.2759135239
 20
85.9877523829
 10
100.2694455275
 20
84.2605202546
 10
100.2694455241
 20
82.5368518626
 10
100.2759135148
 20
80.8167077924
 10
100.2888499867
 20
79.1000956769
 10
100.308255058
 20
77.387069702
 10
100.3341287774
 20
75.6776606343
  0
LWPOLYLINE
  5
3CF
100
AcDbEntity
  8
RACCORDO
100
AcDbPolyline
 62
253
  6
CONTINUOUS
 90
10
 70
0
 10
101.0317956337
 20
91.1775288369
 10
101.005947411
 20
89.4414544645
 10
100.9865612424
 20
87.708908885
 10
100.9736371277
 20
85.9798920983
 10
100.9671750648
 20
84.2543963086
 10
100.9671750558
 20
82.5324293119
 10
100.9736371075
 20
80.8140144952
 10
100.9865612222
 20
79.0991596544
 10
101.0059473976
 20
77.3878569937
 10
101.0317956337
 20
75.6801065131
  0
LWPOLYLINE
  5
3D0
100
AcDbEntity
  8
0
100
AcDbPolyline
 62
253
  6
CONTINUOUS
 90
13
 70
0
 10
100.4200950645
 20
108.4400772067
 10
100.4212260708
 20
108.4613408215
 10
100.4246327404
 20
108.4837301454
 10
100.4303070262
 20
108.5068987248
 10
100.438221945
 20
108.5305281313
 10
100.4482784785
 20
108.5541709226
 10
100.460259829
 20
108.577264766
 10
100.4739324816
 20
108.5993717687
 10
100.48908874
 20
108.6201667772
 10
100.5054646603
 20
108.6392890269
 10
100.5227793565
 20
108.6564146459
 10
100.5407418344
 20
108.6712597109
 10
100.5590482777
 20
108.6835762355
  0
LWPOLYLINE
  5
3D1
100
AcDbEntity
  8
0
100
AcDbPolyline
 62
253
  6
CONTINUOUS
 90
13
 70
0
 10
102.3930482232
 20
106.8783531899
 10
102.3941808141
 20
106.8996320952
 10
102.3975911611
 20
106.922032563
 10
102.4032695714
 20
106.945207072
 10
102.411186788
 20
106.9688348694
 10
102.4212426504
 20
106.9924702599
 10
102.4332219291
 20
107.0155564996
 10
102.4468918662
 20
107.0376570167
 10
102.4620444272
 20
107.0584459611
 10
102.4784173542
 20
107.07756451
 10
102.4957307137
 20
107.0946889964
 10
102.5136933073
 20
107.1095344315
 10
102.5320014364
 20
107.1218522186
  0
LWPOLYLINE
  5
3D2
100
AcDbEntity
  8
0
100
AcDbPolyline
 62
7
  6
CONTINUOUS
 90
9
 70
0
 10
102.3344695794
 20
106.9600081085
 10
102.3360680377
 20
106.9852386715
 10
102.3409249444
 20
107.0104096306
 10
102.3490627941
 20
107.0350036014
 10
102.3604172927
 20
107.0585260741
 10
102.3747930339
 20
107.0804381453
 10
102.391888886
 20
107.1002605448
 10
102.4115587111
 20
107.1177829095
 10
102.4293202236
 20
107.1301363181
  0
LWPOLYLINE
  5
3D3
100
AcDbEntity
  8
RACCORDO
100
AcDbPolyline
 62
253
  6
CONTINUOUS
 90
10
 70
0
 10
101.0552028891
 20
101.1680810426
 10
100.9200855632
 20
100.0356286474
 10
100.798668921
 20
98.9085840408
 10
100.6909779989
 20
97.7871862323
 10
100.5970345753
 20
96.6716733039
 10
100.5168584408
 20
95.5622814247
 10
100.4504674015
 20
94.4592448046
 10
100.3978755726
 20
93.3627968897
 10
100.3590933679
 20
92.2731703092
 10
100.3341287774
 20
91.1905958934
  0
LWPOLYLINE
  5
3D4
100
AcDbEntity
  8
RACCORDO
100
AcDbPolyline
 62
253
  6
CONTINUOUS
 90
10
 70
0
 10
101.7489654477
 20
101.0995248104
 10
101.6145448591
 20
99.9730030317
 10
101.4937950539
 20
98.852321442
 10
101.386716032
 20
97.737480041
 10
101.2932904868
 20
96.6282398203
 10
101.213535725
 20
95.5248397883
 10
101.1475036667
 20
94.4279969714
 10
101.0952116188
 20
93.3379503782
 10
101.0566422744
 20
92.2544610001
 10
101.0317956337
 20
91.1775288369
  0
LWPOLYLINE
  5
3D5
100
AcDbEntity
  8
SUPERFICI
100
AcDbPolyline
 62
7
  6
CONTINUOUS
 90
21
 70
0
 10
95.4004297343
 20
85.8010530404
 10
95.4142431176
 20
85.829909856
 10
95.4267077895
 20
85.8600464702
 10
95.4378238687
 20
85.8914629512
 10
95.4476059525
 20
85.9242171247
 10
95.456039696
 20
85.9582513104
 10
95.4630817578
 20
85.9933922895
 10
95.468724768
 20
86.029644518
 10
95.4729762468
 20
86.067003626
 10
95.4758150889
 20
86.1052830992
 10
95.4772345645
 20
86.1444857104
 10
95.4772414545
 20
86.1846087156
 10
95.4758348199
 20
86.2254572681
 10
95.4730083103
 20
86.2670347662
 10
95.468768228
 20
86.309337783
 10
95.4631325137
 20
86.3521611766
 10
95.4560926761
 20
86.3955140435
 10
95.4476570621
 20
86.4393872031
 10
95.4378687697
 20
86.4835480405
 10
95.4267420618
 20
86.5279189575
 10
95.4142624227
 20
86.5725774059
  0
LWPOLYLINE
  5
3D6
100
AcDbEntity
  8
0
100
AcDbPolyline
 62
253
  6
CONTINUOUS
 90
5
 70
0
 10
106.6496457787
 20
106.8354960689
 10
106.6415864165
 20
106.8212987782
 10
106.6304558291
 20
106.8078581535
 10
106.6164538681
 20
106.7953823506
 10
106.5998303854
 20
106.7840714793
  0
LWPOLYLINE
  5
3D7
100
AcDbEntity
  8
0
100
AcDbPolyline
 62
7
  6
CONTINUOUS
 90
6
 70
0
 10
106.6133984073
 20
106.7409442006
 10
106.6278397773
 20
106.7620237273
 10
106.6394515811
 20
106.7847167687
 10
106.6480724097
 20
106.8086673629
 10
106.6535891555
 20
106.8335696129
 10
106.6558924713
 20
106.858999605
  0
LINE
  5
3D8
100
AcDbEntity
  8
0
100
AcDbLine
 62
253
  6
CONTINUOUS
 10
106.0415939749
 20
106.0715438445
 11
106.5998303854
 21
106.7840714793
  0
LINE
  5
3D9
100
AcDbEntity
  8
0
100
AcDbLine
 62
7
  6
CONTINUOUS
 10
106.0415939749
 20
106.0110984719
 11
106.6133984073
 21
106.7409442006
  0
LWPOLYLINE
  5
3DA
100
AcDbEntity
  8
0
100
AcDbPolyline
 62
7
  6
CONTINUOUS
 90
9
 70
0
 10
103.0616906539
 20
99.9814262845
 10
103.0504303869
 20
99.9711580613
 10
103.0409673943
 20
99.9617464558
 10
103.0332180906
 20
99.9532543414
 10
103.0270245598
 20
99.9457868171
 10
103.0223592715
 20
99.9393081075
 10
103.0193474143
 20
99.9336643205
 10
103.0179239529
 20
99.9288631892
 10
103.0177658417
 20
99.9270740017
  0
LINE
  5
3DB
100
AcDbEntity
  8
RACCORDO
100
AcDbLine
 62
253
  6
CONTINUOUS
 10
129.0684514857
 20
115.7211922907
 11
114.6261179676
 21
107.2088006854
  0
LINE
  5
3DC
100
AcDbEntity
  8
RACCORDO
100
AcDbLine
 62
253
  6
CONTINUOUS
 10
129.4826019613
 20
114.3275795187
 11
114.8804287397
 21
105.7209775042
  0
LINE
  5
3DD
100
AcDbEntity
  8
0
100
AcDbLine
 62
253
  6
CONTINUOUS
 10
114.4367926008
 20
107.5905623829
 11
107.4389684409
 21
103.5084296108
  0
LINE
  5
3DE
100
AcDbEntity
  8
0
100
AcDbLine
 62
253
  6
CONTINUOUS
 10
114.8509903912
 20
106.1967903972
 11
107.4911628763
 21
101.9034854485
  0
LINE
  5
3DF
100
AcDbEntity
  8
0
100
AcDbLine
 62
253
  6
CONTINUOUS
 10
104.6442218594
 20
101.6711257874
 11
103.9942061965
 21
101.2958161347
  0
LINE
  5
3E0
100
AcDbEntity
  8
RACCORDO
100
AcDbLine
 62
253
  6
CONTINUOUS
 10
129.4222123267
 20
115.925472942
 11
129.0684514857
 21
115.7211922907
  0
LINE
  5
3E1
100
AcDbEntity
  8
0
100
AcDbLine
 62
253
  6
CONTINUOUS
 10
102.7899225958
 20
99.949403606
 11
102.8811083751
 21
100.0011497412
  0
LINE
  5
3E2
100
AcDbEntity
  8
0
100
AcDbLine
 62
253
  6
CONTINUOUS
 10
102.7899225958
 20
99.4616273677
 11
103.0177566711
 21
99.5909187215
  0
LINE
  5
3E3
100
AcDbEntity
  8
0
100
AcDbLine
 62
7
  6
CONTINUOUS
 10
104.6442218594
 20
101.4852537612
 11
103.9942061965
 21
101.161480051
  0
LINE
  5
3E4
100
AcDbEntity
  8
0
100
AcDbLine
 62
7
  6
CONTINUOUS
 10
107.4389684409
 20
101.806001593
 11
105.7662365667
 21
100.9881175559
  0
LINE
  5
3E5
100
AcDbEntity
  8
0
100
AcDbLine
 62
7
  6
CONTINUOUS
 10
105.4220675641
 20
90.6077694755
 11
105.2991318547
 21
90.6787510134
  0
LINE
  5
3E6
100
AcDbEntity
  8
0
100
AcDbLine
 62
7
  6
CONTINUOUS
 10
109.9497282431
 20
88.0971711086
 11
110.0045508265
 21
88.065517236
  0
LINE
  5
3E7
100
AcDbEntity
  8
0
100
AcDbLine
 62
7
  6
CONTINUOUS
 10
110.1074579667
 20
88.0856389031
 11
110.0766038298
 21
88.1034536951
  0
LINE
  5
3E8
100
AcDbEntity
  8
0
100
AcDbLine
 62
7
  6
CONTINUOUS
 10
103.0885847487
 20
93.0230051583
 11
102.7899225958
 21
93.1954489423
  0
LINE
  5
3E9
100
AcDbEntity
  8
0
100
AcDbLine
 62
253
  6
CONTINUOUS
 10
103.1350005135
 20
93.0807477652
 11
102.7899225958
 21
93.2799914301
  0
LINE
  5
3EA
100
AcDbEntity
  8
0
100
AcDbLine
 62
253
  6
CONTINUOUS
 10
102.7899225958
 20
93.8225915708
 11
103.0616906539
 21
93.6656761001
  0
LINE
  5
3EB
100
AcDbEntity
  8
0
100
AcDbLine
 62
253
  6
CONTINUOUS
 10
102.8305018464
 20
94.2074164859
 11
103.0177566711
 21
94.099297897
  0
LINE
  5
3EC
100
AcDbEntity
  8
0
100
AcDbLine
 62
7
  6
CONTINUOUS
 10
109.298748289
 20
87.8818373306
 11
110.2925775115
 21
87.202422235
  0
LWPOLYLINE
  5
3ED
100
AcDbEntity
  8
0
100
AcDbPolyline
 62
7
  6
CONTINUOUS
 90
9
 70
0
 10
90.7841544169
 20
112.6600976973
 10
90.7701204592
 20
112.6864574236
 10
90.7579300268
 20
112.7128010777
 10
90.7476526798
 20
112.7389988221
 10
90.7393662814
 20
112.7649409156
 10
90.7330353724
 20
112.7904777064
 10
90.7286034437
 20
112.8154386572
 10
90.7261205259
 20
112.8398156142
 10
90.7255757838
 20
112.8571517424
  0
LWPOLYLINE
  5
3EE
100
AcDbEntity
  8
0
100
AcDbPolyline
 62
253
  6
CONTINUOUS
 90
7
 70
0
 10
99.3045805698
 20
109.9627943676
 10
99.3064866817
 20
109.9468893443
 10
99.3116998218
 20
109.9322581734
 10
99.3201403755
 20
109.918137955
 10
99.3316671096
 20
109.9047649586
 10
99.346087151
 20
109.8923629502
 10
99.3631592136
 20
109.8811394489
  0
LWPOLYLINE
  5
3EF
100
AcDbEntity
  8
0
100
AcDbPolyline
 62
253
  6
CONTINUOUS
 90
7
 70
0
 10
102.8435791573
 20
89.7858061209
 10
102.844934602
 20
89.7741893464
 10
102.8488038273
 20
89.7631470368
 10
102.85512279
 20
89.7524881406
 10
102.8637845672
 20
89.7423930166
 10
102.8746425933
 20
89.733032484
 10
102.8875131401
 20
89.7245649319
  0
LWPOLYLINE
  5
3F0
100
AcDbEntity
  8
0
100
AcDbPolyline
 62
253
  6
CONTINUOUS
 90
7
 70
0
 10
100.3615164207
 20
108.5217321254
 10
100.3632274484
 20
108.5066592879
 10
100.3683312554
 20
108.4918443508
 10
100.3767405142
 20
108.4775408019
 10
100.38831134
 20
108.4639933787
 10
100.4028457526
 20
108.4514338815
 10
100.4200950645
 20
108.4400772067
  0
LWPOLYLINE
  5
3F1
100
AcDbEntity
  8
0
100
AcDbPolyline
 62
253
  6
CONTINUOUS
 90
13
 70
0
 10
104.3843491856
 20
105.8890606587
 10
104.3828221154
 20
105.9109891656
 10
104.3789237571
 20
105.9339788484
 10
104.3727193809
 20
105.9576337082
 10
104.364313012
 20
105.9815486576
 10
104.3538487287
 20
106.0053075514
 10
104.3415107061
 20
106.0284907793
 10
104.3274823645
 20
106.0507421458
 10
104.3120310853
 20
106.0716273559
 10
104.2955368935
 20
106.0906656313
 10
104.2783409066
 20
106.1075332586
 10
104.2607114865
 20
106.122033081
 10
104.2429493685
 20
106.1339723258
  0
LWPOLYLINE
  5
3F2
100
AcDbEntity
  8
0
100
AcDbPolyline
 62
253
  6
CONTINUOUS
 90
7
 70
0
 10
102.8521685708
 20
101.7374126158
 10
102.8530659763
 20
101.7220331427
 10
102.8557429918
 20
101.7079502711
 10
102.8601542967
 20
101.6954022867
 10
102.8662252232
 20
101.684601501
 10
102.8738530251
 20
101.6757306503
 10
102.8832309664
 20
101.6687520852
  0
LWPOLYLINE
  5
3F3
100
AcDbEntity
  8
0
100
AcDbPolyline
 62
253
  6
CONTINUOUS
 90
8
 70
0
 10
105.2752302633
 20
68.1535524463
 10
105.2763608595
 20
68.1335983706
 10
105.2797345993
 20
68.1152688206
 10
105.2852975793
 20
68.0988569042
 10
105.2929608882
 20
68.0846250779
 10
105.3026020302
 20
68.0728009424
 10
105.3140668852
 20
68.0635736052
 10
105.3166467636
 20
68.0620050879
  0
LWPOLYLINE
  5
3F4
100
AcDbEntity
  8
0
100
AcDbPolyline
 62
7
  6
CONTINUOUS
 90
13
 70
0
 10
102.0110853221
 20
108.7648599007
 10
102.0098817053
 20
108.786873073
 10
102.0062724752
 20
108.8099020172
 10
102.0003235658
 20
108.8335554832
 10
101.9921414336
 20
108.8574320261
 10
101.981866899
 20
108.8811236276
 10
101.9696728868
 20
108.9042226858
 10
101.9557654665
 20
108.9263326347
 10
101.9403850407
 20
108.9470767281
 10
101.923798143
 20
108.9661014033
 10
101.9062877225
 20
108.9830806888
 10
101.8881482185
 20
108.9977216568
 10
101.8696855051
 20
109.0097715678
  0
LWPOLYLINE
  5
3F5
100
AcDbEntity
  8
0
100
AcDbPolyline
 62
253
  6
CONTINUOUS
 90
8
 70
0
 10
104.1039961553
 20
105.527672418
 10
104.1049239427
 20
105.5095340547
 10
104.1077137777
 20
105.492623679
 10
104.1123564482
 20
105.4771870332
 10
104.1188289793
 20
105.4634348056
 10
104.1270636373
 20
105.4516084134
 10
104.1369205338
 20
105.4419423826
 10
104.1454039756
 20
105.4361300722
  0
LINE
  5
3F6
100
AcDbEntity
  8
0
100
AcDbLine
 62
253
  6
CONTINUOUS
 10
103.1332757713
 20
101.2833779872
 11
103.1350005135
 21
101.2475333216
  0
LWPOLYLINE
  5
3F7
100
AcDbEntity
  8
0
100
AcDbPolyline
 62
253
  6
CONTINUOUS
 90
16
 70
0
 10
103.7138531661
 20
83.0424236653
 10
103.7130373054
 20
83.060140529
 10
103.710752999
 20
83.0781952656
 10
103.707000247
 20
83.0965878754
 10
103.7017059719
 20
83.1155387502
 10
103.6949432511
 20
83.1348274981
 10
103.6869313171
 20
83.1537929429
 10
103.6776298173
 20
83.1724119829
 10
103.6670791042
 20
83.1907077198
 10
103.6556194684
 20
83.2080882819
 10
103.6432178432
 20
83.2245261627
 10
103.6299072953
 20
83.2400488688
 10
103.6161273147
 20
83.2541470485
 10
103.6020243983
 20
83.2666509179
 10
103.5874520492
 20
83.277730261
 10
103.5724102675
 20
83.2873850777
  0
LWPOLYLINE
  5
3F8
100
AcDbEntity
  8
0
100
AcDbPolyline
 62
253
  6
CONTINUOUS
 90
16
 70
0
 10
103.9942061965
 20
83.0410110269
 10
103.9926691071
 20
83.0760495338
 10
103.9880785288
 20
83.1125098424
 10
103.9804842726
 20
83.1499922682
 10
103.9699674709
 20
83.1880850087
 10
103.9566435862
 20
83.2263709078
 10
103.9406611437
 20
83.2644320349
 10
103.9221929441
 20
83.3018501842
 10
103.9014401776
 20
83.3382147024
 10
103.8786341409
 20
83.373129261
 10
103.854019115
 20
83.4062132605
 10
103.827865379
 20
83.4370991779
 10
103.8004738128
 20
83.4654424109
 10
103.7721485016
 20
83.4909324625
 10
103.7431919198
 20
83.5132936553
 10
103.7139183486
 20
83.5322830662
  0
LWPOLYLINE
  5
3F9
100
AcDbEntity
  8
0
100
AcDbPolyline
 62
7
  6
CONTINUOUS
 90
10
 70
0
 10
101.8771566589
 20
115.0182347632
 10
101.876443724
 20
115.0360320185
 10
101.8721710674
 20
115.0650160626
 10
101.8641040304
 20
115.0931036941
 10
101.852403536
 20
115.1197758068
 10
101.8373364009
 20
115.1445345205
 10
101.8191763335
 20
115.1670393261
 10
101.7981689615
 20
115.1870407612
 10
101.7744206092
 20
115.2043972621
 10
101.7657765263
 20
115.2096403864
  0
LWPOLYLINE
  5
3FA
100
AcDbEntity
  8
0
100
AcDbPolyline
 62
7
  6
CONTINUOUS
 90
10
 70
0
 10
105.3634954959
 20
69.0079294207
 10
105.364350371
 20
68.985043541
 10
105.3670614381
 20
68.962536206
 10
105.3712056527
 20
68.9399725925
 10
105.3767475441
 20
68.9174621998
 10
105.3837037764
 20
68.8951599563
 10
105.3917668403
 20
68.8732455998
 10
105.4008229673
 20
68.8518423931
 10
105.4109358863
 20
68.8310149034
 10
105.4220675641
 20
68.8108385192
  0
LWPOLYLINE
  5
3FB
100
AcDbEntity
  8
0
100
AcDbPolyline
 62
7
  6
CONTINUOUS
 90
10
 70
0
 10
105.3634954959
 20
74.7232213583
 10
105.364350371
 20
74.7003354785
 10
105.3670614381
 20
74.6778281436
 10
105.3712056527
 20
74.65526453
 10
105.3767475441
 20
74.6327541374
 10
105.3837037764
 20
74.6104518938
 10
105.3917668403
 20
74.5885375373
 10
105.4008229673
 20
74.5671343306
 10
105.4109358863
 20
74.5463068409
 10
105.4220675641
 20
74.5261304568
  0
LWPOLYLINE
  5
3FC
100
AcDbEntity
  8
0
100
AcDbPolyline
 62
253
  6
CONTINUOUS
 90
22
 70
0
 10
103.9942061965
 20
101.2958161347
 10
103.9920542022
 20
101.3578721879
 10
103.9859676336
 20
101.4218660569
 10
103.9759843973
 20
101.4874420134
 10
103.962166398
 20
101.5542365789
 10
103.9445914506
 20
101.6218767139
 10
103.9233527256
 20
101.689981916
 10
103.8985698918
 20
101.7581722141
 10
103.8703845907
 20
101.8260679259
 10
103.8389518331
 20
101.8932879472
 10
103.8044471898
 20
101.9594558867
 10
103.7670651793
 20
102.0242033483
 10
103.7270140811
 20
102.087169561
 10
103.6845156161
 20
102.1480019125
 10
103.6398080074
 20
102.2063600843
 10
103.5931439567
 20
102.2619191103
 10
103.5447815156
 20
102.314366466
 10
103.4949898876
 20
102.3634085643
 10
103.4440520659
 20
102.4087744135
 10
103.3922522311
 20
102.4502101094
 10
103.3398742063
 20
102.4874803496
 10
103.2872071111
 20
102.5203744702
  0
LWPOLYLINE
  5
3FD
100
AcDbEntity
  8
0
100
AcDbPolyline
 62
253
  6
CONTINUOUS
 90
22
 70
0
 10
103.7138531661
 20
101.297228773
 10
103.7122471073
 20
101.347130024
 10
103.7075585077
 20
101.3980915975
 10
103.6997873674
 20
101.4501134936
 10
103.6888573248
 20
101.5035248631
 10
103.6748447414
 20
101.5579965551
 10
103.6579787018
 20
101.6125411167
 10
103.638208686
 20
101.6671378866
 10
103.6155852139
 20
101.7218075261
 10
103.5904889302
 20
101.7756245665
 10
103.5628774092
 20
101.8285719428
 10
103.5327930765
 20
101.88066672
 10
103.5007438537
 20
101.9310346236
 10
103.466698603
 20
101.9796425233
 10
103.430688462
 20
102.0265235495
 10
103.3933147654
 20
102.070902819
 10
103.3545330206
 20
102.1127522721
 10
103.3143877201
 20
102.1520999685
 10
103.2736136764
 20
102.188255204
 10
103.2324558268
 20
102.220987744
 10
103.1906692339
 20
102.2505278232
 10
103.1482538978
 20
102.2768754415
  0
LWPOLYLINE
  5
3FE
100
AcDbEntity
  8
0
100
AcDbPolyline
 62
7
  6
CONTINUOUS
 90
10
 70
0
 10
103.0910669463
 20
89.7292003031
 10
103.0912136922
 20
89.7218496201
 10
103.0926210356
 20
89.703724238
 10
103.0954240302
 20
89.6855484377
 10
103.0995146249
 20
89.6673833651
 10
103.1047559144
 20
89.6492935544
 10
103.1110425108
 20
89.6316139312
 10
103.1182638601
 20
89.6144800832
 10
103.1262901067
 20
89.5978249405
 10
103.1350005135
 20
89.5816688243
  0
LWPOLYLINE
  5
3FF
100
AcDbEntity
  8
0
100
AcDbPolyline
 62
7
  6
CONTINUOUS
 90
9
 70
0
 10
103.0910746032
 20
81.0343775459
 10
103.0912483168
 20
81.0245111839
 10
103.0926982083
 20
81.0021525789
 10
103.0957257937
 20
80.9791055665
 10
103.1003957528
 20
80.9554654874
 10
103.1065856846
 20
80.9313432761
 10
103.1143241234
 20
80.9068707905
 10
103.1237678553
 20
80.8821977213
 10
103.1350005135
 20
80.8574825349
  0
LWPOLYLINE
  5
400
100
AcDbEntity
  8
0
100
AcDbPolyline
 62
7
  6
CONTINUOUS
 90
9
 70
0
 10
103.0910746109
 20
100.4663701421
 10
103.0912483243
 20
100.4565037195
 10
103.0926982242
 20
100.4341450059
 10
103.0957258277
 20
100.4110979374
 10
103.100395808
 20
100.3874578303
 10
103.1065857529
 20
100.3633356276
 10
103.1143241891
 20
100.3388631887
 10
103.1237679
 20
100.3141901995
 10
103.1350005135
 20
100.2894751226
  0
LWPOLYLINE
  5
401
100
AcDbEntity
  8
0
100
AcDbPolyline
 62
7
  6
CONTINUOUS
 90
9
 70
0
 10
103.0177658756
 20
73.4018841836
 10
103.0179227797
 20
73.3925320477
 10
103.0193431433
 20
73.3701184442
 10
103.0223509247
 20
73.3470101714
 10
103.027011529
 20
73.3233027736
 10
103.0332021645
 20
73.2991060465
 10
103.040952244
 20
73.2745523919
 10
103.0504201514
 20
73.2497936969
 10
103.0616906539
 20
73.2249901273
  0
LWPOLYLINE
  5
402
100
AcDbEntity
  8
0
100
AcDbPolyline
 62
7
  6
CONTINUOUS
 90
9
 70
0
 10
103.017765999
 20
93.8425706148
 10
103.0179228052
 20
93.8332200826
 10
103.0193432815
 20
93.810803006
 10
103.022351841
 20
93.7876907178
 10
103.0270137363
 20
93.7639792702
 10
103.0332053658
 20
93.7397809172
 10
103.0409555187
 20
93.7152288035
 10
103.0504224795
 20
93.6904738785
 10
103.0616906539
 20
93.6656761001
  0
LINE
  5
403
100
AcDbEntity
  8
0
100
AcDbLine
 62
7
  6
CONTINUOUS
 10
102.7899225958
 20
102.037371151
 11
102.7899225958
 21
66.7468909195
  0
LINE
  5
404
100
AcDbEntity
  8
0
100
AcDbLine
 62
7
  6
CONTINUOUS
 10
102.8435791573
 20
89.7858061209
 11
102.8435791573
 21
83.7442284958
  0
LINE
  5
405
100
AcDbEntity
  8
0
100
AcDbLine
 62
253
  6
CONTINUOUS
 10
102.8875131401
 20
89.7245649319
 11
102.8875131401
 21
83.6829873068
  0
LINE
  5
406
100
AcDbEntity
  8
0
100
AcDbLine
 62
253
  6
CONTINUOUS
 10
102.9656794767
 20
83.6378550437
 11
102.9656794767
 21
89.6794326688
  0
LINE
  5
407
100
AcDbEntity
  8
0
100
AcDbLine
 62
7
  6
CONTINUOUS
 10
103.0177566711
 20
99.9279877809
 11
103.0177566711
 21
97.9344689003
  0
LINE
  5
408
100
AcDbEntity
  8
0
100
AcDbLine
 62
7
  6
CONTINUOUS
 10
103.0177566711
 20
95.8061868093
 11
103.0177566711
 21
93.8415972839
  0
LINE
  5
409
100
AcDbEntity
  8
0
100
AcDbLine
 62
7
  6
CONTINUOUS
 10
103.0177566711
 20
80.3037723037
 11
103.0177566711
 21
77.5227119804
  0
LINE
  5
40A
100
AcDbEntity
  8
0
100
AcDbLine
 62
7
  6
CONTINUOUS
 10
103.0177566711
 20
75.3944298895
 11
103.0177566711
 21
73.4009115681
  0
LINE
  5
40B
100
AcDbEntity
  8
0
100
AcDbLine
 62
7
  6
CONTINUOUS
 10
103.0292337658
 20
68.6595056393
 11
103.0292337658
 21
69.3839912425
  0
LINE
  5
40C
100
AcDbEntity
  8
0
100
AcDbLine
 62
7
  6
CONTINUOUS
 10
103.0292337658
 20
105.7519784686
 11
103.0292337658
 21
106.0805927615
  0
LINE
  5
40D
100
AcDbEntity
  8
0
100
AcDbLine
 62
253
  6
CONTINUOUS
 10
103.0616906539
 20
99.9814262845
 11
103.0616906539
 21
97.873854291
  0
LINE
  5
40E
100
AcDbEntity
  8
0
100
AcDbLine
 62
253
  6
CONTINUOUS
 10
103.0616906539
 20
95.7443190405
 11
103.0616906539
 21
93.6656761001
  0
LINE
  5
40F
100
AcDbEntity
  8
0
100
AcDbLine
 62
253
  6
CONTINUOUS
 10
103.0616906539
 20
80.3572105884
 11
103.0616906539
 21
77.4620973712
  0
LINE
  5
410
100
AcDbEntity
  8
0
100
AcDbLine
 62
253
  6
CONTINUOUS
 10
103.0616906539
 20
75.3325621207
 11
103.0616906539
 21
73.2249901273
  0
LINE
  5
411
100
AcDbEntity
  8
0
100
AcDbLine
 62
253
  6
CONTINUOUS
 10
103.0878124096
 20
68.6073737109
 11
103.0878124096
 21
69.4165401003
  0
LINE
  5
412
100
AcDbEntity
  8
0
100
AcDbLine
 62
253
  6
CONTINUOUS
 10
103.0878124096
 20
105.5561197734
 11
103.0878124096
 21
106.0467701868
  0
LINE
  5
413
100
AcDbEntity
  8
0
100
AcDbLine
 62
7
  6
CONTINUOUS
 10
103.0910665307
 20
101.3087745106
 11
103.0910665307
 21
100.4654023186
  0
LINE
  5
414
100
AcDbEntity
  8
0
100
AcDbLine
 62
7
  6
CONTINUOUS
 10
103.0910665307
 20
72.7788406015
 11
103.0910665307
 21
71.9354678899
  0
LINE
  5
415
100
AcDbEntity
  8
0
100
AcDbLine
 62
7
  6
CONTINUOUS
 10
103.0910665307
 20
81.0334097398
 11
103.0910665307
 21
83.5153106631
  0
LINE
  5
416
100
AcDbEntity
  8
0
100
AcDbLine
 62
7
  6
CONTINUOUS
 10
103.0910665307
 20
89.7289317383
 11
103.0910665307
 21
93.0273034539
  0
LINE
  5
417
100
AcDbEntity
  8
0
100
AcDbLine
 62
253
  6
CONTINUOUS
 10
103.1350005135
 20
101.2475333216
 11
103.1350005135
 21
100.2894751226
  0
LINE
  5
418
100
AcDbEntity
  8
0
100
AcDbLine
 62
253
  6
CONTINUOUS
 10
103.1350005135
 20
93.0807477652
 11
103.1350005135
 21
89.5818200358
  0
LINE
  5
419
100
AcDbEntity
  8
0
100
AcDbLine
 62
253
  6
CONTINUOUS
 10
103.1350005135
 20
83.5399399876
 11
103.1350005135
 21
80.8574825349
  0
LINE
  5
41A
100
AcDbEntity
  8
0
100
AcDbLine
 62
253
  6
CONTINUOUS
 10
103.1350005135
 20
72.8322849008
 11
103.1350005135
 21
71.8742267018
  0
LINE
  5
41B
100
AcDbEntity
  8
0
100
AcDbLine
 62
7
  6
CONTINUOUS
 10
103.2131668502
 20
75.5483198347
 11
103.2131668502
 21
75.5863036115
  0
LINE
  5
41C
100
AcDbEntity
  8
0
100
AcDbLine
 62
7
  6
CONTINUOUS
 10
103.2131668502
 20
95.9600767546
 11
103.2131668502
 21
95.9980605313
  0
LINE
  5
41D
100
AcDbEntity
  8
0
100
AcDbLine
 62
253
  6
CONTINUOUS
 10
103.2485221892
 20
83.8009978875
 11
103.2485221892
 21
89.4486400528
  0
LINE
  5
41E
100
AcDbEntity
  8
0
100
AcDbLine
 62
7
  6
CONTINUOUS
 10
103.3451523164
 20
97.7101870797
 11
103.3451523164
 21
95.5806518292
  0
LINE
  5
41F
100
AcDbEntity
  8
0
100
AcDbLine
 62
7
  6
CONTINUOUS
 10
103.3451523164
 20
77.2984301599
 11
103.3451523164
 21
75.1688949094
  0
LINE
  5
420
100
AcDbEntity
  8
0
100
AcDbLine
 62
253
  6
CONTINUOUS
 10
103.6390015238
 20
101.2145196128
 11
103.6390015238
 21
98.2687518113
  0
LINE
  5
421
100
AcDbEntity
  8
0
100
AcDbLine
 62
253
  6
CONTINUOUS
 10
103.6390015238
 20
74.2710004786
 11
103.6390015238
 21
71.3252326772
  0
LINE
  5
422
100
AcDbEntity
  8
0
100
AcDbLine
 62
253
  6
CONTINUOUS
 10
103.7138531661
 20
98.2255334112
 11
103.7138531661
 21
89.4108918243
  0
LINE
  5
423
100
AcDbEntity
  8
0
100
AcDbLine
 62
253
  6
CONTINUOUS
 10
103.7138531661
 20
71.1560867166
 11
103.7138531661
 21
71.282014277
  0
LINE
  5
424
100
AcDbEntity
  8
0
100
AcDbLine
 62
253
  6
CONTINUOUS
 10
103.7138531661
 20
74.2277820784
 11
103.7138531661
 21
83.0424236653
  0
LINE
  5
425
100
AcDbEntity
  8
0
100
AcDbLine
 62
253
  6
CONTINUOUS
 10
103.7138531661
 20
101.1713012126
 11
103.7138531661
 21
101.297228773
  0
LINE
  5
426
100
AcDbEntity
  8
0
100
AcDbLine
 62
7
  6
CONTINUOUS
 10
103.8849182923
 20
89.2137894038
 11
103.8849182923
 21
84.1684450215
  0
LINE
  5
427
100
AcDbEntity
  8
0
100
AcDbLine
 62
253
  6
CONTINUOUS
 10
103.9193545541
 20
101.1390526507
 11
103.9193545541
 21
98.2757476962
  0
LINE
  5
428
100
AcDbEntity
  8
0
100
AcDbLine
 62
253
  6
CONTINUOUS
 10
103.9193545541
 20
74.1955335166
 11
103.9193545541
 21
71.332228562
  0
LINE
  5
429
100
AcDbEntity
  8
0
100
AcDbLine
 62
253
  6
CONTINUOUS
 10
103.9942061965
 20
98.232529296
 11
103.9942061965
 21
89.4094791859
  0
LINE
  5
42A
100
AcDbEntity
  8
0
100
AcDbLine
 62
253
  6
CONTINUOUS
 10
103.9942061965
 20
71.1546740782
 11
103.9942061965
 21
71.2890101618
  0
LINE
  5
42B
100
AcDbEntity
  8
0
100
AcDbLine
 62
253
  6
CONTINUOUS
 10
103.9942061965
 20
74.2179609168
 11
103.9942061965
 21
83.0410110269
  0
LINE
  5
42C
100
AcDbEntity
  8
0
100
AcDbLine
 62
253
  6
CONTINUOUS
 10
103.9942061965
 20
101.161480051
 11
103.9942061965
 21
101.2958161347
  0
LINE
  5
42D
100
AcDbEntity
  8
0
100
AcDbLine
 62
253
  6
CONTINUOUS
 10
104.0970503266
 20
89.3299111712
 11
104.0970503266
 21
84.0459626435
  0
LINE
  5
42E
100
AcDbEntity
  8
0
100
AcDbLine
 62
253
  6
CONTINUOUS
 10
104.1039961553
 20
105.8904732971
 11
104.1039961553
 21
105.527672418
  0
LINE
  5
42F
100
AcDbEntity
  8
0
100
AcDbLine
 62
253
  6
CONTINUOUS
 10
104.1039961553
 20
66.6384255644
 11
104.1039961553
 21
66.2756246853
  0
LINE
  5
430
100
AcDbEntity
  8
0
100
AcDbLine
 62
253
  6
CONTINUOUS
 10
104.1801574556
 20
104.001617775
 11
104.1801574556
 21
104.1157113538
  0
LINE
  5
431
100
AcDbEntity
  8
0
100
AcDbLine
 62
7
  6
CONTINUOUS
 10
104.2844971714
 20
90.849187999
 11
104.2844971714
 21
90.0897238889
  0
LINE
  5
432
100
AcDbEntity
  8
0
100
AcDbLine
 62
7
  6
CONTINUOUS
 10
104.2844971714
 20
82.684485231
 11
104.2844971714
 21
81.925021121
  0
LINE
  5
433
100
AcDbEntity
  8
0
100
AcDbLine
 62
253
  6
CONTINUOUS
 10
104.3843491856
 20
105.8890606587
 11
104.3843491856
 21
105.5262597796
  0
LINE
  5
434
100
AcDbEntity
  8
0
100
AcDbLine
 62
253
  6
CONTINUOUS
 10
104.3843491856
 20
66.637012926
 11
104.3843491856
 21
66.2742120469
  0
LINE
  5
435
100
AcDbEntity
  8
0
100
AcDbLine
 62
253
  6
CONTINUOUS
 10
104.4506037172
 20
89.5270442671
 11
104.4506037172
 21
84.0459626435
  0
LINE
  5
436
100
AcDbEntity
  8
0
100
AcDbLine
 62
7
  6
CONTINUOUS
 10
104.6442218594
 20
101.6711257874
 11
104.6442218594
 21
101.4852537612
  0
LINE
  5
437
100
AcDbEntity
  8
0
100
AcDbLine
 62
7
  6
CONTINUOUS
 10
104.6442218594
 20
98.6336226267
 11
104.6442218594
 21
98.2001084358
  0
LINE
  5
438
100
AcDbEntity
  8
0
100
AcDbLine
 62
7
  6
CONTINUOUS
 10
104.6442218594
 20
74.975248818
 11
104.6442218594
 21
74.5417346271
  0
LINE
  5
439
100
AcDbEntity
  8
0
100
AcDbLine
 62
7
  6
CONTINUOUS
 10
104.6442218594
 20
71.6901034925
 11
104.6442218594
 21
71.5042314664
  0
LINE
  5
43A
100
AcDbEntity
  8
0
100
AcDbLine
 62
253
  6
CONTINUOUS
 10
104.8234455312
 20
105.3519424324
 11
104.8234455312
 21
104.5539869616
  0
LINE
  5
43B
100
AcDbEntity
  8
0
100
AcDbLine
 62
253
  6
CONTINUOUS
 10
104.8234455312
 20
68.4144072884
 11
104.8234455312
 21
67.6052408991
  0
LINE
  5
43C
100
AcDbEntity
  8
0
100
AcDbLine
 62
253
  6
CONTINUOUS
 10
104.8395124469
 20
81.6045622569
 11
104.8395124469
 21
82.364026367
  0
LINE
  5
43D
100
AcDbEntity
  8
0
100
AcDbLine
 62
253
  6
CONTINUOUS
 10
104.8395124469
 20
89.7692650249
 11
104.8395124469
 21
90.5287291349
  0
LINE
  5
43E
100
AcDbEntity
  8
0
100
AcDbLine
 62
253
  6
CONTINUOUS
 10
105.0516444812
 20
81.6024245257
 11
105.0516444812
 21
82.3661640982
  0
LINE
  5
43F
100
AcDbEntity
  8
0
100
AcDbLine
 62
253
  6
CONTINUOUS
 10
105.0516444812
 20
89.7671272936
 11
105.0516444812
 21
90.5308668661
  0
LINE
  5
440
100
AcDbEntity
  8
0
100
AcDbLine
 62
253
  6
CONTINUOUS
 10
105.1037985616
 20
105.4560185793
 11
105.1037985616
 21
104.7159431189
  0
LINE
  5
441
100
AcDbEntity
  8
0
100
AcDbLine
 62
253
  6
CONTINUOUS
 10
105.1037985616
 20
68.1849009721
 11
105.1037985616
 21
67.5095503939
  0
LWPOLYLINE
  5
442
100
AcDbEntity
  8
0
100
AcDbPolyline
 62
7
  6
CONTINUOUS
 90
5
 70
0
 10
103.0910657563
 20
71.9354408218
 10
103.0905967768
 20
71.9213153025
 10
103.089200527
 20
71.9083476938
 10
103.0871387585
 20
71.8976804122
 10
103.0847324668
 20
71.8894305968
  0
LWPOLYLINE
  5
443
100
AcDbEntity
  8
0
100
AcDbPolyline
 62
253
  6
CONTINUOUS
 90
9
 70
0
 10
103.9942061965
 20
89.4094791859
 10
103.9926691061
 20
89.3762440213
 10
103.9880785116
 20
89.3451783929
 10
103.9804842243
 20
89.3166224219
 10
103.9699673758
 20
89.2908878638
 10
103.9566434305
 20
89.2682568339
 10
103.9406609219
 20
89.2489787407
 10
103.9221926437
 20
89.2332635809
 10
103.9104127144
 20
89.2258464103
  0
LWPOLYLINE
  5
444
100
AcDbEntity
  8
0
100
AcDbPolyline
 62
253
  6
CONTINUOUS
 90
16
 70
0
 10
103.7138531661
 20
89.4108918243
 10
103.7130282293
 20
89.3940727335
 10
103.7107332656
 20
89.3786238418
 10
103.7069682751
 20
89.3645451493
 10
103.701659817
 20
89.3517035516
 10
103.6948813322
 20
89.3402321531
 10
103.6868531427
 20
89.3305302665
 10
103.6775345877
 20
89.3226651972
 10
103.6669663281
 20
89.3165696399
 10
103.6554906683
 20
89.3124409906
 10
103.6430682154
 20
89.3103488938
 10
103.6297383624
 20
89.3102237051
 10
103.6159615928
 20
89.3120538877
 10
103.601891401
 20
89.3158355958
 10
103.5873742926
 20
89.3215726753
 10
103.5724102675
 20
89.3292651259
  0
LINE
  5
445
100
AcDbEntity
  8
0
100
AcDbLine
 62
253
  6
CONTINUOUS
 10
103.1350005135
 20
71.8742267018
 11
103.133298282
 21
71.8404134766
  0
LWPOLYLINE
  5
446
100
AcDbEntity
  8
0
100
AcDbPolyline
 62
253
  6
CONTINUOUS
 90
13
 70
0
 10
105.2752302633
 20
104.2931321195
 10
105.2763609342
 20
104.314392496
 10
105.2797348673
 20
104.3366185874
 10
105.2852981132
 20
104.359454996
 10
105.2929617149
 20
104.3825365655
 10
105.3026031307
 20
104.4054942192
 10
105.3140681934
 20
104.427960862
 10
105.3271735756
 20
104.4495772499
 10
105.3417097207
 20
104.4699977348
 10
105.357444194
 20
104.4888957913
 10
105.3741253995
 20
104.5059692377
 10
105.3914866032
 20
104.5209450678
 10
105.4092501976
 20
104.5335838164
  0
LWPOLYLINE
  5
447
100
AcDbEntity
  8
0
100
AcDbPolyline
 62
253
  6
CONTINUOUS
 90
3
 70
0
 10
102.8875131401
 20
89.7245649319
 10
102.888371097
 20
89.7406060387
 10
102.8909550376
 20
89.7574982962
  0
LWPOLYLINE
  5
448
100
AcDbEntity
  8
0
100
AcDbPolyline
 62
253
  6
CONTINUOUS
 90
13
 70
0
 10
103.1482538978
 20
102.2768754415
 10
103.1494370776
 20
102.2986372536
 10
103.1529668193
 20
102.3214012385
 10
103.1587840606
 20
102.3447864935
 10
103.1667914637
 20
102.3684017203
 10
103.176855043
 20
102.3918517728
 10
103.1888064079
 20
102.4147442684
 10
103.2024455799
 20
102.4366961542
 10
103.2175443389
 20
102.4573401161
 10
103.2338500422
 20
102.4763307251
 10
103.2510898514
 20
102.4933502171
 10
103.2689752983
 20
102.5081138104
 10
103.2872071111
 20
102.5203744702
  0
LWPOLYLINE
  5
449
100
AcDbEntity
  8
0
100
AcDbPolyline
 62
253
  6
CONTINUOUS
 90
13
 70
0
 10
102.8521685708
 20
71.7109546456
 10
102.8530659402
 20
71.7273700835
 10
102.8557428639
 20
71.7445440161
 10
102.8601540459
 20
71.7621858439
 10
102.8662248447
 20
71.7799970505
 10
102.8738525366
 20
71.7976762529
 10
102.8829080538
 20
71.8149243023
 10
102.8932381681
 20
71.831449345
 10
102.9046680842
 20
71.8469717615
 10
102.9170043968
 20
71.8612288976
 10
102.9300383639
 20
71.8739795089
 10
102.9435494381
 20
71.8850078428
 10
102.9573089991
 20
71.8941272894
  0
LWPOLYLINE
  5
44A
100
AcDbEntity
  8
0
100
AcDbPolyline
 62
253
  6
CONTINUOUS
 90
13
 70
0
 10
103.5724102675
 20
83.2873850777
 10
103.5736201469
 20
83.3093977979
 10
103.5772290837
 20
83.3324310126
 10
103.5831753282
 20
83.3560906169
 10
103.5913571383
 20
83.3799717885
 10
103.6016345211
 20
83.403665914
 10
103.6138316275
 20
83.4267675804
 10
103.6277397621
 20
83.4488815116
 10
103.6431209525
 20
83.4696293323
 10
103.659712021
 20
83.4886560423
 10
103.6772290894
 20
83.5056360895
 10
103.6953724362
 20
83.5202789404
 10
103.7138316237
 20
83.5323340517
  0
LWPOLYLINE
  5
44B
100
AcDbEntity
  8
0
100
AcDbPolyline
 62
7
  6
CONTINUOUS
 90
9
 70
0
 10
102.8435791573
 20
89.7858061209
 10
102.8447891059
 20
89.8048160711
 10
102.848465929
 20
89.8237805619
 10
102.8546266392
 20
89.8423056583
 10
102.863220959
 20
89.8600134879
 10
102.8740995329
 20
89.876495785
 10
102.8870347673
 20
89.8913915979
 10
102.9019154273
 20
89.9045400369
 10
102.9166481492
 20
89.9145757523
  0
LWPOLYLINE
  5
44C
100
AcDbEntity
  8
RACCORDO
100
AcDbPolyline
 62
253
  6
CONTINUOUS
 90
9
 70
0
 10
102.0982076328
 20
66.3882672327
 10
102.09533221
 20
66.3462310378
 10
102.0887206713
 20
66.3069473505
 10
102.078445391
 20
66.2708461961
 10
102.0646188492
 20
66.2383227616
 10
102.0473924004
 20
66.2097330701
 10
102.0269546165
 20
66.1853900833
 10
102.0035292231
 20
66.1655602755
 10
101.9841670132
 20
66.1537896402
  0
LWPOLYLINE
  5
44D
100
AcDbEntity
  8
0
100
AcDbPolyline
 62
253
  6
CONTINUOUS
 90
5
 70
0
 10
102.8909550376
 20
89.7574982962
 10
102.8952581887
 20
89.7749771515
 10
102.9012590076
 20
89.7927988238
 10
102.9088811321
 20
89.8106225707
 10
102.9179589622
 20
89.8280216306
  0
LWPOLYLINE
  5
44E
100
AcDbEntity
  8
0
100
AcDbPolyline
 62
253
  6
CONTINUOUS
 90
13
 70
0
 10
107.2901935923
 20
111.774286371
 10
107.2977629097
 20
111.7987313721
 10
107.3027691654
 20
111.8241200986
 10
107.3051276314
 20
111.8500228606
 10
107.3047983924
 20
111.8760012682
 10
107.3017870206
 20
111.9016156515
 10
107.2961444813
 20
111.9264325015
 10
107.2879662713
 20
111.9500318071
 10
107.2773908024
 20
111.9720141634
 10
107.2645970584
 20
111.9920075317
 10
107.2498015662
 20
112.0096735356
 10
107.2332547312
 20
112.0247131878
 10
107.2152365992
 20
112.0368719507
  0
LWPOLYLINE
  5
44F
100
AcDbEntity
  8
0
100
AcDbPolyline
 62
253
  6
CONTINUOUS
 90
9
 70
0
 10
107.4049034637
 20
111.8264193488
 10
107.4038698453
 20
111.8231272327
 10
107.3987441272
 20
111.8174386598
 10
107.3895256475
 20
111.8109898953
 10
107.3764503764
 20
111.8040396264
 10
107.359720535
 20
111.7967229398
 10
107.3395665326
 20
111.7892067264
 10
107.3162897009
 20
111.781679417
 10
107.2901935926
 20
111.7742863709
  0
LINE
  5
450
100
AcDbEntity
  8
0
100
AcDbLine
 62
7
  6
CONTINUOUS
 10
106.8547667733
 20
99.9824253151
 11
106.4658580436
 21
99.7301791762
  0
LINE
  5
451
100
AcDbEntity
  8
0
100
AcDbLine
 62
7
  6
CONTINUOUS
 10
103.9193545541
 20
98.2757476962
 11
106.8547667733
 21
100.087049071
  0
LINE
  5
452
100
AcDbEntity
  8
0
100
AcDbLine
 62
7
  6
CONTINUOUS
 10
104.6442218594
 20
98.6336226267
 11
103.9942061965
 21
98.232529296
  0
LINE
  5
453
100
AcDbEntity
  8
0
100
AcDbLine
 62
7
  6
CONTINUOUS
 10
103.3451523164
 20
96.1600626524
 11
102.7899225958
 21
95.8174571575
  0
LINE
  5
454
100
AcDbEntity
  8
0
100
AcDbLine
 62
7
  6
CONTINUOUS
 10
103.2131668502
 20
95.9980605313
 11
102.7899225958
 21
95.736896905
  0
LWPOLYLINE
  5
455
100
AcDbEntity
  8
RACCORDO
100
AcDbPolyline
 62
253
  6
CONTINUOUS
 90
29
 70
0
 10
129.4826019613
 20
114.3275795187
 10
129.5012630998
 20
114.3390467311
 10
129.5193761948
 20
114.3508032637
 10
129.5369277953
 20
114.362840387
 10
129.5539048674
 20
114.3751491617
 10
129.570294804
 20
114.3877204492
 10
129.5860854337
 20
114.4005449178
 10
129.6012650302
 20
114.4136130448
 10
129.6158223213
 20
114.4269151265
 10
129.6297464965
 20
114.4404412887
 10
129.6430272156
 20
114.4541814874
 10
129.6556546164
 20
114.4681255197
 10
129.6676193217
 20
114.4822630347
 10
129.6789124463
 20
114.4965835344
 10
129.689525604
 20
114.511076385
 10
129.6994509134
 20
114.5257308277
 10
129.7086810039
 20
114.5405359807
 10
129.7172090211
 20
114.5554808502
 10
129.7250286322
 20
114.5705543415
 10
129.7321340302
 20
114.5857452617
 10
129.7385199386
 20
114.6010423304
 10
129.7441816152
 20
114.6164341909
 10
129.7491148557
 20
114.6319094138
 10
129.7533159965
 20
114.6474565077
 10
129.7567819179
 20
114.6630639295
 10
129.7595100461
 20
114.6787200899
 10
129.7614983551
 20
114.694413363
 10
129.7627453684
 20
114.7101320967
 10
129.7632501601
 20
114.725864619
  0
LINE
  5
456
100
AcDbEntity
  8
0
100
AcDbLine
 62
7
  6
CONTINUOUS
 10
106.5719240608
 20
99.7630746541
 11
106.8547667733
 21
99.9350107551
  0
LINE
  5
457
100
AcDbEntity
  8
0
100
AcDbLine
 62
7
  6
CONTINUOUS
 10
107.4389684409
 20
99.1683174287
 11
105.7662365667
 21
98.1531541407
  0
LINE
  5
458
100
AcDbEntity
  8
0
100
AcDbLine
 62
7
  6
CONTINUOUS
 10
103.0613210606
 20
95.868717543
 11
103.3451523164
 21
96.0394868466
  0
LINE
  5
459
100
AcDbEntity
  8
0
100
AcDbLine
 62
7
  6
CONTINUOUS
 10
103.0177566711
 20
98.164406989
 11
102.7899225958
 21
98.0509225177
  0
LWPOLYLINE
  5
45A
100
AcDbEntity
  8
RACCORDO
100
AcDbPolyline
 62
253
  6
CONTINUOUS
 90
54
 70
0
 10
129.6001539866
 20
109.2094080565
 10
129.6071976818
 20
109.2128270085
 10
129.6143058276
 20
109.216062448
 10
129.6214774706
 20
109.2191157324
 10
129.6286932633
 20
109.2219968364
 10
129.6359703409
 20
109.2246988101
 10
129.6433619127
 20
109.2271983433
 10
129.6508928897
 20
109.2295108081
 10
129.6585343208
 20
109.2316261403
 10
129.6662575801
 20
109.2334841706
 10
129.6740779918
 20
109.2350871483
 10
129.681973946
 20
109.236440743
 10
129.6898606185
 20
109.2374907639
 10
129.6977170509
 20
109.238232448
 10
129.7055563469
 20
109.2386801121
 10
129.7133442181
 20
109.2388087222
 10
129.7210591798
 20
109.2386248244
 10
129.7287130813
 20
109.2381334857
 10
129.7363203152
 20
109.2373090266
 10
129.7438749649
 20
109.2361659303
 10
129.7513698427
 20
109.2347056699
 10
129.7588148353
 20
109.2328862549
 10
129.7662146385
 20
109.230719725
 10
129.7735461586
 20
109.2282167698
 10
129.7807746805
 20
109.2253369688
 10
129.7878929835
 20
109.2220933482
 10
129.7948850653
 20
109.2185020511
 10
129.8017006296
 20
109.2145303324
 10
129.8083201111
 20
109.2102044709
 10
129.8147355394
 20
109.2055336148
 10
129.8209102521
 20
109.2004641662
 10
129.8268281498
 20
109.1950362707
 10
129.8324697695
 20
109.1892569348
 10
129.8377854829
 20
109.1830332594
 10
129.8427663173
 20
109.1764096603
 10
129.847370837
 20
109.1694107476
 10
129.8514892525
 20
109.1619293276
 10
129.8551078838
 20
109.1539955315
 10
129.8581709599
 20
109.145678024
 10
129.8604990133
 20
109.1369366958
 10
129.8620505439
 20
109.1277757063
 10
129.8627904575
 20
109.1183061024
 10
129.8625624215
 20
109.1086297272
 10
129.8613058875
 20
109.0987428344
 10
129.8590314406
 20
109.0887335275
 10
129.8557256592
 20
109.0787893645
 10
129.8513642744
 20
109.0689191203
 10
129.8459692536
 20
109.0591315497
 10
129.8396325458
 20
109.0495600121
 10
129.8323812397
 20
109.0402179697
 10
129.824213964
 20
109.0310654879
 10
129.8151948101
 20
109.0221324684
 10
129.8053338285
 20
109.0134037695
 10
129.7946450522
 20
109.0048682119
  0
LWPOLYLINE
  5
45B
100
AcDbEntity
  8
0
100
AcDbPolyline
 62
7
  6
CONTINUOUS
 90
10
 70
0
 10
105.3634889229
 20
97.7171861156
 10
105.3644335082
 20
97.7176269211
 10
105.3670457714
 20
97.7192481368
 10
105.3712056527
 20
97.7216307034
 10
105.3767994727
 20
97.7247992997
 10
105.3836836918
 20
97.7288560449
 10
105.3917668403
 20
97.7334986775
 10
105.4009466653
 20
97.73865487
 10
105.4110876874
 20
97.7444764294
 10
105.4220675641
 20
97.7509900746
  0
LINE
  5
45C
100
AcDbEntity
  8
0
100
AcDbLine
 62
7
  6
CONTINUOUS
 10
103.3451523164
 20
95.5806518292
 11
103.0616906539
 21
95.7443190405
  0
LINE
  5
45D
100
AcDbEntity
  8
0
100
AcDbLine
 62
7
  6
CONTINUOUS
 10
103.2485221892
 20
95.9776468016
 11
103.2131668502
 21
95.9980605313
  0
LINE
  5
45E
100
AcDbEntity
  8
0
100
AcDbLine
 62
7
  6
CONTINUOUS
 10
113.9626057126
 20
90.1154037703
 11
114.8509903912
 21
89.602461591
  0
LINE
  5
45F
100
AcDbEntity
  8
0
100
AcDbLine
 62
7
  6
CONTINUOUS
 10
103.0616906539
 20
97.873854291
 11
103.3451523164
 21
97.7101870797
  0
LWPOLYLINE
  5
460
100
AcDbEntity
  8
0
100
AcDbPolyline
 62
253
  6
CONTINUOUS
 90
6
 70
0
 10
94.2961723928
 20
113.8880494032
 10
94.3039711962
 20
113.8757614322
 10
94.3092036514
 20
113.8650387415
 10
94.3117812203
 20
113.8560627695
 10
94.3116602879
 20
113.8489853983
 10
94.3097404147
 20
113.8449221245
  0
LWPOLYLINE
  5
461
100
AcDbEntity
  8
0
100
AcDbPolyline
 62
253
  6
CONTINUOUS
 90
4
 70
0
 10
103.1104962271
 20
101.3945269067
 10
103.1210935567
 20
101.3566802038
 10
103.128640119
 20
101.3197602813
 10
103.1332757713
 20
101.2833779872
  0
LWPOLYLINE
  5
462
100
AcDbEntity
  8
0
100
AcDbPolyline
 62
253
  6
CONTINUOUS
 90
7
 70
0
 10
102.3344695794
 20
106.9600081085
 10
102.3363756913
 20
106.9441030853
 10
102.3415888314
 20
106.9294719143
 10
102.3500293851
 20
106.915351696
 10
102.3615561192
 20
106.9019786996
 10
102.3759761606
 20
106.8895766912
 10
102.3930482232
 20
106.8783531899
  0
LWPOLYLINE
  5
463
100
AcDbEntity
  8
0
100
AcDbPolyline
 62
253
  6
CONTINUOUS
 90
19
 70
0
 10
105.7662365667
 20
103.9237249196
 10
105.7642562204
 20
103.9597238345
 10
105.7596180678
 20
103.9970047962
 10
105.7523647679
 20
104.0352884283
 10
105.7425637922
 20
104.0742908166
 10
105.7302906434
 20
104.1137157939
 10
105.7156282345
 20
104.1532571674
 10
105.698691641
 20
104.1926162031
 10
105.6796158929
 20
104.2314978015
 10
105.6585385496
 20
104.269602818
 10
105.6356209709
 20
104.3066422024
 10
105.611041732
 20
104.3423376975
 10
105.5849837204
 20
104.3764176911
 10
105.5576435623
 20
104.4086227418
 10
105.5292312237
 20
104.4387095283
 10
105.4999627922
 20
104.4664508913
 10
105.4700595036
 20
104.4916357272
 10
105.4397461381
 20
104.5140707834
 10
105.4092501976
 20
104.5335838164
  0
LWPOLYLINE
  5
464
100
AcDbEntity
  8
0
100
AcDbPolyline
 62
7
  6
CONTINUOUS
 90
7
 70
0
 10
106.6559624254
 20
67.9750420331
 10
106.6549240454
 20
67.9953942499
 10
106.6517794031
 20
68.0157319777
 10
106.6465146018
 20
68.0357863172
 10
106.639164239
 20
68.0552735315
 10
106.6297992027
 20
68.0739398171
 10
106.6185013866
 20
68.09157995
  0
LWPOLYLINE
  5
465
100
AcDbEntity
  8
0
100
AcDbPolyline
 62
7
  6
CONTINUOUS
 90
16
 70
0
 10
106.713345417
 20
104.4985152667
 10
106.7114315375
 20
104.5419655511
 10
106.7056173872
 20
104.5872852088
 10
106.6959386147
 20
104.6340132532
 10
106.6824061163
 20
104.6818323976
 10
106.6651819755
 20
104.7300627001
 10
106.6447016868
 20
104.7776642575
 10
106.6214829585
 20
104.8237392103
 10
106.5956726002
 20
104.8682168282
 10
106.5671845772
 20
104.9112763976
 10
106.5359974676
 20
104.952766361
 10
106.5026649557
 20
104.991786983
 10
106.4679672223
 20
105.0274417669
 10
106.4324559806
 20
105.0592611091
 10
106.3963876024
 20
105.0870898609
 10
106.3601553636
 20
105.1106781074
  0
LWPOLYLINE
  5
466
100
AcDbEntity
  8
0
100
AcDbPolyline
 62
253
  6
CONTINUOUS
 90
13
 70
0
 10
107.1596154857
 20
111.7375668979
 10
107.1587015288
 20
111.7597488623
 10
107.1553425365
 20
111.7829234448
 10
107.14959596
 20
111.8066942753
 10
107.1415600867
 20
111.8306547859
 10
107.1313723594
 20
111.8543951643
 10
107.1192070252
 20
111.8775093636
 10
107.1052721559
 20
111.8996020467
 10
107.0898060883
 20
111.9202953479
 10
107.0730733483
 20
111.9392353358
 10
107.0553601263
 20
111.9560980672
 10
107.0369693835
 20
111.9705951279
 10
107.0182156687
 20
111.982478565
  0
LWPOLYLINE
  5
467
100
AcDbEntity
  8
0
100
AcDbPolyline
 62
253
  6
CONTINUOUS
 90
19
 70
0
 10
105.4871442953
 20
103.9258344151
 10
105.4863071359
 20
103.9478389733
 10
105.4839166793
 20
103.9702897496
 10
105.4799729255
 20
103.993186744
 10
105.4744219893
 20
104.0167207812
 10
105.4673177559
 20
104.0407010364
 10
105.4588218805
 20
104.0645550355
 10
105.4489034935
 20
104.0882690431
 10
105.4375934646
 20
104.1118567946
 10
105.4251460582
 20
104.1347870219
 10
105.4115352572
 20
104.1570444988
 10
105.3967870787
 20
104.1786444515
 10
105.3812338389
 20
104.1991012907
 10
105.3648545495
 20
104.2183914361
 10
105.3476701986
 20
104.2365384679
 10
105.3300760665
 20
104.253127537
 10
105.3122039133
 20
104.2680203605
 10
105.2939219789
 20
104.2813552213
 10
105.2752302633
 20
104.2931321195
  0
LWPOLYLINE
  5
468
100
AcDbEntity
  8
0
100
AcDbPolyline
 62
7
  6
CONTINUOUS
 90
10
 70
0
 10
105.3634954959
 20
101.6852923709
 10
105.364350371
 20
101.6624064912
 10
105.3670614381
 20
101.6398991562
 10
105.3712056527
 20
101.6173355426
 10
105.3767475441
 20
101.59482515
 10
105.3837037764
 20
101.5725229065
 10
105.3917668403
 20
101.5506085499
 10
105.4008229673
 20
101.5292053433
 10
105.4109358863
 20
101.5083778536
 10
105.4220675641
 20
101.4882014694
  0
LINE
  5
469
100
AcDbEntity
  8
0
100
AcDbLine
 62
7
  6
CONTINUOUS
 10
105.2991318547
 20
81.7403325938
 11
105.2991318547
 21
82.5140482455
  0
LINE
  5
46A
100
AcDbEntity
  8
0
100
AcDbLine
 62
7
  6
CONTINUOUS
 10
105.2991318547
 20
89.9050353617
 11
105.2991318547
 21
90.6787510134
  0
LINE
  5
46B
100
AcDbEntity
  8
0
100
AcDbLine
 62
7
  6
CONTINUOUS
 10
105.3344871937
 20
89.884621632
 11
105.3344871937
 21
84.5563058851
  0
LINE
  5
46C
100
AcDbEntity
  8
0
100
AcDbLine
 62
7
  6
CONTINUOUS
 10
105.3634889203
 20
103.4325203048
 11
105.3634889203
 21
101.6852730141
  0
LINE
  5
46D
100
AcDbEntity
  8
0
100
AcDbLine
 62
7
  6
CONTINUOUS
 10
105.3634889203
 20
97.7172283673
 11
105.3634889203
 21
90.6902779182
  0
LINE
  5
46E
100
AcDbEntity
  8
0
100
AcDbLine
 62
7
  6
CONTINUOUS
 10
105.3634889203
 20
89.8678763986
 11
105.3634889203
 21
82.5255751502
  0
LINE
  5
46F
100
AcDbEntity
  8
0
100
AcDbLine
 62
7
  6
CONTINUOUS
 10
105.3634889203
 20
81.7031736306
 11
105.3634889203
 21
74.7232020015
  0
LINE
  5
470
100
AcDbEntity
  8
0
100
AcDbLine
 62
7
  6
CONTINUOUS
 10
105.3634889203
 20
70.7551573546
 11
105.3634889203
 21
69.0079100639
  0
LINE
  5
471
100
AcDbEntity
  8
0
100
AcDbLine
 62
253
  6
CONTINUOUS
 10
105.4220675641
 20
103.4662820122
 11
105.4220675641
 21
101.4882014694
  0
LINE
  5
472
100
AcDbEntity
  8
0
100
AcDbLine
 62
253
  6
CONTINUOUS
 10
105.4220675641
 20
97.7509900746
 11
105.4220675641
 21
90.6077694755
  0
LINE
  5
473
100
AcDbEntity
  8
0
100
AcDbLine
 62
253
  6
CONTINUOUS
 10
105.4220675641
 20
89.8340538238
 11
105.4220675641
 21
82.4430667076
  0
LINE
  5
474
100
AcDbEntity
  8
0
100
AcDbLine
 62
253
  6
CONTINUOUS
 10
105.4220675641
 20
81.6693510559
 11
105.4220675641
 21
74.5261304568
  0
LINE
  5
475
100
AcDbEntity
  8
0
100
AcDbLine
 62
253
  6
CONTINUOUS
 10
105.4220675641
 20
70.788919062
 11
105.4220675641
 21
68.8108385192
  0
LINE
  5
476
100
AcDbEntity
  8
0
100
AcDbLine
 62
253
  6
CONTINUOUS
 10
105.4871442953
 20
68.2761371383
 11
105.4871442953
 21
71.2034106424
  0
LINE
  5
477
100
AcDbEntity
  8
0
100
AcDbLine
 62
253
  6
CONTINUOUS
 10
105.4871442953
 20
74.0550417769
 11
105.4871442953
 21
98.1469297765
  0
LINE
  5
478
100
AcDbEntity
  8
0
100
AcDbLine
 62
253
  6
CONTINUOUS
 10
105.4871442953
 20
100.998560911
 11
105.4871442953
 21
103.9258344151
  0
LINE
  5
479
100
AcDbEntity
  8
0
100
AcDbLine
 62
253
  6
CONTINUOUS
 10
105.7662365667
 20
68.2740276429
 11
105.7662365667
 21
71.2096350065
  0
LINE
  5
47A
100
AcDbEntity
  8
0
100
AcDbLine
 62
253
  6
CONTINUOUS
 10
105.7662365667
 20
74.0445984217
 11
105.7662365667
 21
98.1531541407
  0
LINE
  5
47B
100
AcDbEntity
  8
0
100
AcDbLine
 62
253
  6
CONTINUOUS
 10
105.7662365667
 20
100.9881175559
 11
105.7662365667
 21
103.9237249196
  0
LINE
  5
47C
100
AcDbEntity
  8
0
100
AcDbLine
 62
7
  6
CONTINUOUS
 10
106.0415939749
 20
67.165424664
 11
106.0415939749
 21
68.229792517
  0
LINE
  5
47D
100
AcDbEntity
  8
0
100
AcDbLine
 62
7
  6
CONTINUOUS
 10
106.0415939749
 20
105.2946114607
 11
106.0415939749
 21
106.8459298571
  0
LINE
  5
47E
100
AcDbEntity
  8
0
100
AcDbLine
 62
7
  6
CONTINUOUS
 10
106.5719240608
 20
99.7630746541
 11
106.5719240608
 21
99.6689379872
  0
LINE
  5
47F
100
AcDbEntity
  8
0
100
AcDbLine
 62
7
  6
CONTINUOUS
 10
106.5719240608
 20
72.81955552
 11
106.5719240608
 21
72.725418853
  0
LINE
  5
480
100
AcDbEntity
  8
0
100
AcDbLine
 62
253
  6
CONTINUOUS
 10
106.5998303854
 20
67.510646434
 11
106.5998303854
 21
67.8948246257
  0
LINE
  5
481
100
AcDbEntity
  8
0
100
AcDbLine
 62
253
  6
CONTINUOUS
 10
106.5998303854
 20
106.7840714793
 11
106.5998303854
 21
107.1682496709
  0
LINE
  5
482
100
AcDbEntity
  8
0
100
AcDbLine
 62
7
  6
CONTINUOUS
 10
106.6559624254
 20
67.5908638414
 11
106.6559624254
 21
67.9750420331
  0
LINE
  5
483
100
AcDbEntity
  8
0
100
AcDbLine
 62
7
  6
CONTINUOUS
 10
106.6559624254
 20
106.8642888867
 11
106.6559624254
 21
107.2484670783
  0
LINE
  5
484
100
AcDbEntity
  8
0
100
AcDbLine
 62
7
  6
CONTINUOUS
 10
106.713345417
 20
104.4985152667
 11
106.713345417
 21
104.171927348
  0
LINE
  5
485
100
AcDbEntity
  8
0
100
AcDbLine
 62
7
  6
CONTINUOUS
 10
106.713345417
 20
68.7371175271
 11
106.713345417
 21
69.0637054459
  0
LINE
  5
486
100
AcDbEntity
  8
0
100
AcDbLine
 62
7
  6
CONTINUOUS
 10
106.7293907902
 20
106.549206269
 11
106.7293907902
 21
107.2542269472
  0
LINE
  5
487
100
AcDbEntity
  8
0
100
AcDbLine
 62
7
  6
CONTINUOUS
 10
106.8547667733
 20
74.5768364292
 11
106.8547667733
 21
72.6562456826
  0
LINE
  5
488
100
AcDbEntity
  8
0
100
AcDbLine
 62
7
  6
CONTINUOUS
 10
106.8547667733
 20
99.5997648168
 11
106.8547667733
 21
101.5203555634
  0
LINE
  5
489
100
AcDbEntity
  8
0
100
AcDbLine
 62
253
  6
CONTINUOUS
 10
107.2901935926
 20
111.7742863709
 11
107.2901935926
 21
110.6698780612
  0
LINE
  5
48A
100
AcDbEntity
  8
0
100
AcDbLine
 62
7
  6
CONTINUOUS
 10
107.4049038198
 20
111.8252699662
 11
107.4049038198
 21
110.829841735
  0
LINE
  5
48B
100
AcDbEntity
  8
0
100
AcDbLine
 62
7
  6
CONTINUOUS
 10
107.4081096034
 20
69.1667077535
 11
107.4081096034
 21
69.8957231972
  0
LINE
  5
48C
100
AcDbEntity
  8
0
100
AcDbLine
 62
7
  6
CONTINUOUS
 10
107.4081096034
 20
104.1159390667
 11
107.4081096034
 21
104.899727146
  0
LINE
  5
48D
100
AcDbEntity
  8
0
100
AcDbLine
 62
7
  6
CONTINUOUS
 10
107.4389684409
 20
69.9326783268
 11
107.4389684409
 21
72.2247982946
  0
LINE
  5
48E
100
AcDbEntity
  8
0
100
AcDbLine
 62
7
  6
CONTINUOUS
 10
107.4389684409
 20
74.8624824588
 11
107.4389684409
 21
99.1683174287
  0
LINE
  5
48F
100
AcDbEntity
  8
0
100
AcDbLine
 62
7
  6
CONTINUOUS
 10
107.4389684409
 20
101.806001593
 11
107.4389684409
 21
104.0981215607
  0
LINE
  5
490
100
AcDbEntity
  8
RACCORDO
100
AcDbLine
 62
7
  6
CONTINUOUS
 10
107.4911628763
 20
101.9034854485
 11
107.4911628763
 21
72.0670416133
  0
LINE
  5
491
100
AcDbEntity
  8
0
100
AcDbLine
 62
7
  6
CONTINUOUS
 10
107.4049037751
 20
111.826497401
 11
107.4049034637
 21
111.8264193488
  0
LINE
  5
492
100
AcDbEntity
  8
0
100
AcDbLine
 62
7
  6
CONTINUOUS
 10
106.6558924713
 20
106.858999605
 11
106.6559624252
 21
106.8642940937
  0
LWPOLYLINE
  5
493
100
AcDbEntity
  8
0
100
AcDbPolyline
 62
253
  6
CONTINUOUS
 90
3
 70
0
 10
106.6559624254
 20
106.8642888281
 10
106.6544697919
 20
106.8502069588
 10
106.6496457787
 20
106.8354960689
  0
LWPOLYLINE
  5
494
100
AcDbEntity
  8
0
100
AcDbPolyline
 62
253
  6
CONTINUOUS
 90
15
 70
0
 10
103.133298282
 20
71.8404134766
 10
103.1286733244
 20
71.8094054242
 10
103.1211256407
 20
71.7812025446
 10
103.110509224
 20
71.7555661704
 10
103.0969700812
 20
71.732734969
 10
103.0809462331
 20
71.7134249423
 10
103.0623525364
 20
71.6977448476
 10
103.0412741344
 20
71.6855859277
 10
103.0184044785
 20
71.6773379122
 10
102.993707628
 20
71.6731234381
 10
102.9672195236
 20
71.6728198686
 10
102.9397414383
 20
71.6764490227
 10
102.9115404633
 20
71.6840181734
 10
102.8823495075
 20
71.6955200477
 10
102.8521685708
 20
71.7109546456
  0
LWPOLYLINE
  5
495
100
AcDbEntity
  8
0
100
AcDbPolyline
 62
253
  6
CONTINUOUS
 90
3
 70
0
 10
102.9179589622
 20
89.8280216306
 10
102.9283138606
 20
89.8446628391
 10
102.9397865929
 20
89.8602983563
  0
LWPOLYLINE
  5
496
100
AcDbEntity
  8
0
100
AcDbPolyline
 62
7
  6
CONTINUOUS
 90
9
 70
0
 10
103.1350005135
 20
93.0807477652
 10
103.1237780126
 20
93.0705135872
 10
103.1143391769
 20
93.0611296728
 10
103.1066015356
 20
93.0526584948
 10
103.1004087626
 20
93.0452043762
 10
103.0957341778
 20
93.0387324027
 10
103.0927025463
 20
93.0330905932
 10
103.0912495589
 20
93.0282867396
 10
103.091074571
 20
93.0263960729
  0
LINE
  5
497
100
AcDbEntity
  8
0
100
AcDbLine
 62
253
  6
CONTINUOUS
 10
103.0043069514
 20
93.0716661022
 11
102.7899225958
 21
92.9485669731
  0
LINE
  5
498
100
AcDbEntity
  8
0
100
AcDbLine
 62
253
  6
CONTINUOUS
 10
103.0910665307
 20
92.6784628881
 11
102.7899225958
 21
92.5055465574
  0
LINE
  5
499
100
AcDbEntity
  8
0
100
AcDbLine
 62
253
  6
CONTINUOUS
 10
103.0177566711
 20
94.4120733398
 11
102.7899225958
 21
94.2895515471
  0
LINE
  5
49A
100
AcDbEntity
  8
0
100
AcDbLine
 62
7
  6
CONTINUOUS
 10
103.0177566711
 20
94.3081160708
 11
102.7899225958
 21
94.1855942782
  0
LINE
  5
49B
100
AcDbEntity
  8
0
100
AcDbLine
 62
7
  6
CONTINUOUS
 10
103.6390015238
 20
98.2687518113
 11
103.7138531661
 21
98.2255334112
  0
LINE
  5
49C
100
AcDbEntity
  8
0
100
AcDbLine
 62
7
  6
CONTINUOUS
 10
104.6863638128
 20
98.1081422099
 11
105.3635311855
 21
97.7171542558
  0
LINE
  5
49D
100
AcDbEntity
  8
0
100
AcDbLine
 62
253
  6
CONTINUOUS
 10
104.6442218594
 20
98.2001084358
 11
105.4220675641
 21
97.7509900746
  0
LINE
  5
49E
100
AcDbEntity
  8
0
100
AcDbLine
 62
7
  6
CONTINUOUS
 10
105.4871442953
 20
98.1469297765
 11
104.6442218594
 21
98.6336226267
  0
LINE
  5
49F
100
AcDbEntity
  8
0
100
AcDbLine
 62
7
  6
CONTINUOUS
 10
103.0152723741
 20
99.9236851297
 11
102.7899225958
 21
100.0537992674
  0
LINE
  5
4A0
100
AcDbEntity
  8
0
100
AcDbLine
 62
253
  6
CONTINUOUS
 10
103.0616906539
 20
99.9814262845
 11
102.7899225958
 21
100.1383417552
  0
LINE
  5
4A1
100
AcDbEntity
  8
RACCORDO
100
AcDbLine
 62
253
  6
CONTINUOUS
 10
101.0552028891
 20
101.1680810426
 11
86.1860935686
 21
109.7533184106
  0
LINE
  5
4A2
100
AcDbEntity
  8
0
100
AcDbLine
 62
253
  6
CONTINUOUS
 10
102.7899225958
 20
100.4887187875
 11
103.1350005135
 21
100.2894751226
  0
LINE
  5
4A3
100
AcDbEntity
  8
0
100
AcDbLine
 62
253
  6
CONTINUOUS
 10
102.7899225958
 20
100.8962598376
 11
103.0910665307
 21
100.7223831038
  0
LWPOLYLINE
  5
4A4
100
AcDbEntity
  8
0
100
AcDbPolyline
 62
253
  6
CONTINUOUS
 90
7
 70
0
 10
103.1350005135
 20
101.2475333216
 10
103.1221299667
 20
101.2560008736
 10
103.1112719406
 20
101.2653614062
 10
103.1026101634
 20
101.2754565302
 10
103.0962912007
 20
101.2861154264
 10
103.0924219754
 20
101.297157736
 10
103.0910665307
 20
101.3087745106
  0
LWPOLYLINE
  5
4A5
100
AcDbEntity
  8
0
100
AcDbPolyline
 62
253
  6
CONTINUOUS
 90
3
 70
0
 10
102.9114711528
 20
101.695866275
 10
102.9396705564
 20
101.670869259
 10
102.9671817444
 20
101.6427262567
  0
LWPOLYLINE
  5
4A6
100
AcDbEntity
  8
0
100
AcDbPolyline
 62
253
  6
CONTINUOUS
 90
8
 70
0
 10
102.9671817444
 20
101.6427262567
 10
102.9937250075
 20
101.6117673574
 10
103.0184612183
 20
101.5789828294
 10
103.041338763
 20
101.5443041619
 10
103.0624092554
 20
101.5077998656
 10
103.0809884096
 20
101.4706657416
 10
103.0969879874
 20
101.432911238
 10
103.1104962271
 20
101.3945269067
  0
LWPOLYLINE
  5
4A7
100
AcDbEntity
  8
0
100
AcDbPolyline
 62
7
  6
CONTINUOUS
 90
9
 70
0
 10
103.0878124096
 20
105.5561197734
 10
103.0737784519
 20
105.5824794996
 10
103.0615880194
 20
105.6088231537
 10
103.0513106724
 20
105.6350208981
 10
103.0430242741
 20
105.6609629916
 10
103.0366933651
 20
105.6864997824
 10
103.0322614363
 20
105.7114607332
 10
103.0297785185
 20
105.7358376903
 10
103.0292337765
 20
105.7531738185
  0
LWPOLYLINE
  5
4A8
100
AcDbEntity
  8
0
100
AcDbPolyline
 62
7
  6
CONTINUOUS
 90
5
 70
0
 10
102.3460139398
 20
106.5302410422
 10
102.3398705597
 20
106.5510421038
 10
102.3359972223
 20
106.5725349074
 10
102.3344883636
 20
106.5944662081
 10
102.3344695834
 20
106.5972302243
  0
LWPOLYLINE
  5
4A9
100
AcDbEntity
  8
0
100
AcDbPolyline
 62
7
  6
CONTINUOUS
 90
13
 70
0
 10
104.6055872289
 20
101.9596269821
 10
104.5996309461
 20
101.9869007124
 10
104.5962879531
 20
102.015029377
 10
104.595416685
 20
102.0435486848
 10
104.596612688
 20
102.0721024447
 10
104.5998799897
 20
102.1001660597
 10
104.6056603732
 20
102.1270484086
 10
104.6137752084
 20
102.1523943753
 10
104.6238958788
 20
102.175824147
 10
104.6362181294
 20
102.1966654082
 10
104.6506021061
 20
102.2145465656
 10
104.6665907464
 20
102.2293830614
 10
104.683894106
 20
102.2410174653
  0
LWPOLYLINE
  5
4AA
100
AcDbEntity
  8
0
100
AcDbPolyline
 62
7
  6
CONTINUOUS
 90
16
 70
0
 10
109.0934848057
 20
117.3821200629
 10
109.0924377113
 20
117.3991075391
 10
109.0889314015
 20
117.4161582271
 10
109.0829588711
 20
117.4332566679
 10
109.0743703322
 20
117.45068013
 10
109.0632877685
 20
117.4680858483
 10
109.0501095393
 20
117.4845199706
 10
109.0349107926
 20
117.4997052835
 10
109.0175836793
 20
117.5138157351
 10
108.9982566733
 20
117.5265749418
 10
108.9768010274
 20
117.537965773
 10
108.9533227944
 20
117.5478617864
 10
108.9283134692
 20
117.5558367652
 10
108.9019430021
 20
117.5617134896
 10
108.8740555098
 20
117.5655413677
 10
108.8446662607
 20
117.567248681
  0
LWPOLYLINE
  5
4AB
100
AcDbEntity
  8
0
100
AcDbPolyline
 62
7
  6
CONTINUOUS
 90
10
 70
0
 10
107.4049110336
 20
111.8266274351
 10
107.4043296699
 20
111.8427135271
 10
107.4003049636
 20
111.8716174717
 10
107.3924868498
 20
111.8997185314
 10
107.3810226991
 20
111.9264646321
 10
107.3661817618
 20
111.951329268
 10
107.348218625
 20
111.9739871394
 10
107.327334833
 20
111.9942068597
 10
107.303603102
 20
112.0118285807
 10
107.2936742125
 20
112.0179011653
  0
LINE
  5
4AC
100
AcDbEntity
  8
0
100
AcDbLine
 62
253
  6
CONTINUOUS
 10
108.1275589794
 20
116.5694856206
 11
108.1275589794
 21
117.4083423168
  0
LINE
  5
4AD
100
AcDbEntity
  8
0
100
AcDbLine
 62
7
  6
CONTINUOUS
 10
109.0934848057
 20
117.3821200629
 11
109.0934848057
 21
117.222827588
  0
LINE
  5
4AE
100
AcDbEntity
  8
0
100
AcDbLine
 62
253
  6
CONTINUOUS
 10
109.5417725418
 20
116.5694856206
 11
109.5417725418
 21
117.0733887151
  0
LINE
  5
4AF
100
AcDbEntity
  8
0
100
AcDbLine
 62
7
  6
CONTINUOUS
 10
110.1074579667
 20
88.0856389031
 11
110.1074579667
 21
89.3711523834
  0
LWPOLYLINE
  5
4B0
100
AcDbEntity
  8
0
100
AcDbPolyline
 62
253
  6
CONTINUOUS
 90
7
 70
0
 10
106.5998303854
 20
67.510646434
 10
106.5989074251
 20
67.490132544
 10
106.5955177519
 20
67.4713508792
 10
106.5897177719
 20
67.4546271844
 10
106.5816044643
 20
67.440250489
 10
106.5713166885
 20
67.4284735742
 10
106.5611644467
 20
67.4207681787
  0
LWPOLYLINE
  5
4B1
100
AcDbEntity
  8
0
100
AcDbPolyline
 62
7
  6
CONTINUOUS
 90
9
 70
0
 10
106.713345417
 20
68.737055159
 10
106.711386507
 20
68.6957739142
 10
106.7055745867
 20
68.6569683041
 10
106.695917552
 20
68.6210921891
 10
106.68238483
 20
68.58844556
 10
106.6651280816
 20
68.5595916472
 10
106.644617092
 20
68.5351992035
 10
106.6213742826
 20
68.515602117
 10
106.613101506
 20
68.5101461745
  0
LWPOLYLINE
  5
4B2
100
AcDbEntity
  8
0
100
AcDbPolyline
 62
7
  6
CONTINUOUS
 90
6
 70
0
 10
106.6559624246
 20
67.5908739482
 10
106.654441659
 20
67.5662469
 10
106.6496777631
 20
67.541120823
 10
106.6417150356
 20
67.5167290468
 10
106.6306321154
 20
67.4934446473
 10
106.6165523252
 20
67.4716544288
  0
LWPOLYLINE
  5
4B3
100
AcDbEntity
  8
0
100
AcDbPolyline
 62
253
  6
CONTINUOUS
 90
7
 70
0
 10
106.6559624254
 20
67.5908639996
 10
106.6545813208
 20
67.5773163285
 10
106.649856081
 20
67.5625468251
 10
106.6418535817
 20
67.5482603222
 10
106.6307134239
 20
67.5346994761
 10
106.6166256036
 20
67.5220908541
 10
106.5998303854
 20
67.510646434
  0
LWPOLYLINE
  5
4B4
100
AcDbEntity
  8
0
100
AcDbPolyline
 62
253
  6
CONTINUOUS
 90
7
 70
0
 10
111.8630928853
 20
118.7337464199
 10
111.8613818576
 20
118.7186735824
 10
111.8562780506
 20
118.7038586453
 10
111.8478687918
 20
118.6895550964
 10
111.8362979661
 20
118.6760076732
 10
111.8217635534
 20
118.663448176
 10
111.8045142416
 20
118.6520915013
  0
LWPOLYLINE
  5
4B5
100
AcDbEntity
  8
0
100
AcDbPolyline
 62
253
  6
CONTINUOUS
 90
4
 70
0
 10
102.9397865929
 20
89.8602983563
 10
102.9521756625
 20
89.8746544857
 10
102.9652664788
 20
89.8874853934
 10
102.9788364714
 20
89.8985756025
  0
LWPOLYLINE
  5
4B6
100
AcDbEntity
  8
RACCORDO
100
AcDbPolyline
 62
253
  6
CONTINUOUS
 90
100
 70
0
 10
130.8161317644
 20
109.7504694186
 10
130.8321834437
 20
109.7624362255
 10
130.8603467236
 20
109.7846832849
 10
130.8878057718
 20
109.8080092536
 10
130.9145485389
 20
109.8324038991
 10
130.9405632829
 20
109.8578565106
 10
130.9658385908
 20
109.8843559177
 10
130.9903634032
 20
109.9118905215
 10
131.0141269946
 20
109.9404482804
 10
131.037118964
 20
109.9700166989
 10
131.0593292212
 20
110.0005828052
 10
131.0807480147
 20
110.0321331792
 10
131.1013659483
 20
110.0646539756
 10
131.1211740006
 20
110.09813096
 10
131.140163508
 20
110.1325494903
 10
131.1583261576
 20
110.1678945043
 10
131.1756539793
 20
110.2041504971
 10
131.1921393668
 20
110.2413015533
 10
131.2077750897
 20
110.279331374
 10
131.2225543055
 20
110.3182233112
 10
131.2364705483
 20
110.357960349
 10
131.2495177243
 20
110.3985250931
 10
131.2616901095
 20
110.4398997519
 10
131.2729823626
 20
110.4820661706
 10
131.2833895325
 20
110.5250058559
 10
131.2929070636
 20
110.5687000058
 10
131.30153079
 20
110.6131294943
 10
131.3092569342
 20
110.6582748654
 10
131.3160821075
 20
110.7041163248
 10
131.3220033168
 20
110.7506337685
 10
131.3270179667
 20
110.7978068033
 10
131.3311238615
 20
110.8456147665
 10
131.334319203
 20
110.8940367188
 10
131.3366025909
 20
110.9430514464
 10
131.3379730241
 20
110.9926374667
 10
131.3384299018
 20
111.0427730476
 10
131.337973024
 20
111.0934362194
 10
131.3366025907
 20
111.1446047817
 10
131.3343192027
 20
111.1962563086
 10
131.3311238611
 20
111.2483681611
 10
131.3270179662
 20
111.3009175087
 10
131.3220033162
 20
111.3538813356
 10
131.3160821069
 20
111.4072364434
 10
131.3092569334
 20
111.4609594419
 10
131.3015307891
 20
111.5150267708
 10
131.2929070626
 20
111.5694147225
 10
131.2833895314
 20
111.6240994788
 10
131.2729823615
 20
111.6790571029
 10
131.2616901083
 20
111.7342635325
 10
131.249517723
 20
111.7896945566
 10
131.2364705469
 20
111.8453258526
 10
131.222554304
 20
111.9011330188
 10
131.2077750881
 20
111.9570916241
 10
131.1921393651
 20
112.0131771856
 10
131.1756539775
 20
112.0693651542
 10
131.1583261557
 20
112.1256308811
 10
131.140163506
 20
112.1819496677
 10
131.1211739986
 20
112.2382968051
 10
131.1013659462
 20
112.2946476318
 10
131.0807480125
 20
112.3509775013
 10
131.059329219
 20
112.407261761
 10
131.0371189617
 20
112.4634757157
 10
131.0141269922
 20
112.519594684
 10
130.9903634007
 20
112.5755940427
 10
130.9658385882
 20
112.6314492852
 10
130.9405632802
 20
112.6871359844
 10
130.9145485361
 20
112.7426297702
 10
130.887805769
 20
112.7979062927
 10
130.8603467207
 20
112.852941282
 10
130.8321834408
 20
112.9077105911
 10
130.8033282559
 20
112.9621902518
 10
130.7737937865
 20
113.0163564361
 10
130.7435929574
 20
113.070185437
 10
130.7127390175
 20
113.1236536369
 10
130.681245511
 20
113.1767375644
 10
130.6491262551
 20
113.2294139325
 10
130.6163953098
 20
113.2816596852
 10
130.5830669947
 20
113.3334519655
 10
130.5491558987
 20
113.3847680998
 10
130.5146768954
 20
113.4355855781
 10
130.479645115
 20
113.4858821008
 10
130.4440759222
 20
113.5356356099
 10
130.4079848908
 20
113.5848243226
 10
130.3713878177
 20
113.6334267097
 10
130.3343007282
 20
113.6814214873
 10
130.2967398844
 20
113.7287876091
 10
130.2587217601
 20
113.7755043007
 10
130.2202630234
 20
113.8215510813
 10
130.1813805191
 20
113.8669077836
 10
130.1420912753
 20
113.9115545442
 10
130.1024125036
 20
113.9554718042
 10
130.062361596
 20
113.998640313
 10
130.0219561076
 20
114.0410411488
 10
129.9812137459
 20
114.0826557301
 10
129.9401523625
 20
114.123465823
 10
129.8987899514
 20
114.1634535439
 10
129.8571446399
 20
114.2026013681
 10
129.8152346747
 20
114.2408921435
 10
129.7730784146
 20
114.2783090965
 10
129.763262161
 20
114.2867687745
  0
LINE
  5
4B7
100
AcDbEntity
  8
RACCORDO
100
AcDbLine
 62
253
  6
CONTINUOUS
 10
129.7946450522
 20
109.0048682119
 11
129.7934626572
 21
109.003987168
  0
LINE
  5
4B8
100
AcDbEntity
  8
DRAFT
100
AcDbLine
 62
7
  6
CONTINUOUS
 10
129.7933018014
 20
109.0038121818
 11
130.8161317642
 21
109.7504694185
  0
LINE
  5
4B9
100
AcDbEntity
  8
0
100
AcDbLine
 62
253
  6
CONTINUOUS
 10
102.9788364714
 20
89.8985756025
 11
102.9926535684
 21
89.9077375757
  0
LINE
  5
4BA
100
AcDbEntity
  8
0
100
AcDbLine
 62
7
  6
CONTINUOUS
 10
102.9166208428
 20
89.9145594426
 11
103.0910665307
 21
90.0188289553
  0
LINE
  5
4BB
100
AcDbEntity
  8
0
100
AcDbLine
 62
253
  6
CONTINUOUS
 10
102.9926535684
 20
89.9077375757
 11
103.0910665307
 21
89.9665608791
  0
LINE
  5
4BC
100
AcDbEntity
  8
0
100
AcDbLine
 62
7
  6
CONTINUOUS
 10
105.2991318547
 20
90.6787510134
 11
105.0516444812
 21
90.5308668661
  0
LINE
  5
4BD
100
AcDbEntity
  8
0
100
AcDbLine
 62
253
  6
CONTINUOUS
 10
102.9166481492
 20
89.9145757523
 11
102.9166207505
 21
89.9145593874
  0
LINE
  5
4BE
100
AcDbEntity
  8
0
100
AcDbLine
 62
253
  6
CONTINUOUS
 10
102.7899225958
 20
90.2589887431
 11
103.0910665307
 21
90.4328649003
  0
LINE
  5
4BF
100
AcDbEntity
  8
0
100
AcDbLine
 62
7
  6
CONTINUOUS
 10
102.7899225958
 20
90.1575003366
 11
103.0910665307
 21
90.3313764939
  0
LINE
  5
4C0
100
AcDbEntity
  8
0
100
AcDbLine
 62
7
  6
CONTINUOUS
 10
105.3634889203
 20
91.4721822461
 11
104.2844971714
 21
90.849187999
  0
LWPOLYLINE
  5
4C1
100
AcDbEntity
  8
RACCORDO
100
AcDbPolyline
 62
253
  6
CONTINUOUS
 90
16
 70
0
 10
101.0317956337
 20
91.1775288369
 10
100.9926975375
 20
91.1590120343
 10
100.950367301
 20
91.1429099973
 10
100.905253389
 20
91.1293933179
 10
100.8578337576
 20
91.1186051976
 10
100.8086107909
 20
91.1106599303
 10
100.7581059781
 20
91.1056416917
 10
100.706854389
 20
91.1036036471
 10
100.655399005
 20
91.1045673885
 10
100.6042849666
 20
91.1085227055
 10
100.5540537979
 20
91.1154276939
 10
100.5052376695
 20
91.1252091992
 10
100.4583537605
 20
91.137763592
 10
100.4138987792
 20
91.1529578655
 10
100.3723437009
 20
91.1706310452
 10
100.3341287779
 20
91.1905958937
  0
LWPOLYLINE
  5
4C2
100
AcDbEntity
  8
RACCORDO
100
AcDbPolyline
 62
7
  6
CONTINUOUS
 90
16
 70
0
 10
129.6001461751
 20
99.4689143522
 10
129.5911332756
 20
99.4662469275
 10
129.5822455773
 20
99.463990404
 10
129.5734830802
 20
99.4621447819
 10
129.5648238994
 20
99.4607091446
 10
129.5562899199
 20
99.4596844087
 10
129.5479467966
 20
99.4590733233
 10
129.5398047635
 20
99.4588882751
 10
129.5318535867
 20
99.4591168773
 10
129.5241282188
 20
99.4597247201
 10
129.5166397897
 20
99.4607192737
 10
129.5093771695
 20
99.4620930678
 10
129.5023419203
 20
99.4637892807
 10
129.4955345629
 20
99.465788972
 10
129.4889545766
 20
99.4681110822
 10
129.4826019613
 20
99.4707556113
  0
LWPOLYLINE
  5
4C3
100
AcDbEntity
  8
0
100
AcDbPolyline
 62
253
  6
CONTINUOUS
 90
13
 70
0
 10
103.7138531661
 20
101.297228773
 10
103.7332905058
 20
101.2873720604
 10
103.7547689866
 20
101.2790463428
 10
103.7779293046
 20
101.2723909705
 10
103.8023840055
 20
101.2675173518
 10
103.82772394
 20
101.264507092
 10
103.853525106
 20
101.2634106194
 10
103.8793558113
 20
101.2642463369
 10
103.9047838023
 20
101.2670003171
 10
103.9293834771
 20
101.2716265101
 10
103.9527431507
 20
101.278047526
 10
103.9744719365
 20
101.2861559523
 10
103.9942061965
 20
101.2958161316
  0
LWPOLYLINE
  5
4C4
100
AcDbEntity
  8
0
100
AcDbPolyline
 62
253
  6
CONTINUOUS
 90
12
 70
0
 10
91.042664345
 20
109.5902200032
 10
90.9896532546
 20
109.6183431425
 10
90.9369474456
 20
109.6417469909
 10
90.8848451258
 20
109.660303097
 10
90.8336433246
 20
109.6739113859
 10
90.7836285114
 20
109.6824962758
 10
90.7350750131
 20
109.6860069689
 10
90.6882549762
 20
109.6844244834
 10
90.643433131
 20
109.6777594963
 10
90.6008575794
 20
109.6660478157
 10
90.5607660968
 20
109.6493549248
 10
90.5332391542
 20
109.6341023642
  0
LWPOLYLINE
  5
4C5
100
AcDbEntity
  8
0
100
AcDbPolyline
 62
253
  6
CONTINUOUS
 90
6
 70
0
 10
90.9037111317
 20
109.3467209745
 10
90.8612957956
 20
109.3693535231
 10
90.8195092028
 20
109.3880675539
 10
90.7783513532
 20
109.4028630669
 10
90.7375773094
 20
109.4137926751
 10
90.7141054597
 20
109.4178918663
  0
LINE
  5
4C6
100
AcDbEntity
  8
RACCORDO
100
AcDbLine
 62
253
  6
CONTINUOUS
 10
101.7447753961
 20
102.2501481606
 11
86.8578423494
 21
110.8456767247
  0
LINE
  5
4C7
100
AcDbEntity
  8
0
100
AcDbLine
 62
7
  6
CONTINUOUS
 10
103.6390015238
 20
101.2145196128
 11
103.7138531661
 21
101.1713012126
  0
LINE
  5
4C8
100
AcDbEntity
  8
0
100
AcDbLine
 62
7
  6
CONTINUOUS
 10
102.7899225958
 20
101.722627169
 11
102.8832309648
 21
101.6687520862
  0
LINE
  5
4C9
100
AcDbEntity
  8
0
100
AcDbLine
 62
253
  6
CONTINUOUS
 10
102.7899225958
 20
101.7733526616
 11
102.8521685708
 21
101.7374126158
  0
LINE
  5
4CA
100
AcDbEntity
  8
0
100
AcDbLine
 62
7
  6
CONTINUOUS
 10
107.4389684409
 20
99.1683174287
 11
106.4658580436
 21
99.7301791762
  0
LINE
  5
4CB
100
AcDbEntity
  8
0
100
AcDbLine
 62
7
  6
CONTINUOUS
 10
106.5719240608
 20
99.7630746541
 11
106.8547667733
 21
99.5997648168
  0
LINE
  5
4CC
100
AcDbEntity
  8
0
100
AcDbLine
 62
7
  6
CONTINUOUS
 10
102.4364903591
 20
102.6495337413
 11
87.5142553395
 21
111.2654452221
  0
LINE
  5
4CD
100
AcDbEntity
  8
0
100
AcDbLine
 62
253
  6
CONTINUOUS
 10
103.1482538978
 20
102.2768754415
 11
90.9037111317
 21
109.3467209745
  0
LINE
  5
4CE
100
AcDbEntity
  8
0
100
AcDbLine
 62
7
  6
CONTINUOUS
 10
105.4871442953
 20
100.998560911
 11
104.6442218594
 21
101.4852537612
  0
LINE
  5
4CF
100
AcDbEntity
  8
0
100
AcDbLine
 62
7
  6
CONTINUOUS
 10
90.5326571486
 20
109.6330943658
 11
90.1204556529
 21
109.8710943434
  0
LINE
  5
4D0
100
AcDbEntity
  8
0
100
AcDbLine
 62
253
  6
CONTINUOUS
 10
103.2872071111
 20
102.5203744702
 11
91.042664345
 21
109.5902200032
  0
LINE
  5
4D1
100
AcDbEntity
  8
0
100
AcDbLine
 62
253
  6
CONTINUOUS
 10
90.1855323841
 20
110.2855859237
 11
90.9101592189
 21
109.867195471
  0
LINE
  5
4D2
100
AcDbEntity
  8
0
100
AcDbLine
 62
253
  6
CONTINUOUS
 10
104.6055872289
 20
101.9596269821
 11
105.4220675641
 21
101.4882014694
  0
LINE
  5
4D3
100
AcDbEntity
  8
0
100
AcDbLine
 62
253
  6
CONTINUOUS
 10
90.4697649252
 20
110.4480775094
 11
91.1832845064
 21
110.0361002457
  0
LINE
  5
4D4
100
AcDbEntity
  8
0
100
AcDbLine
 62
253
  6
CONTINUOUS
 10
104.683894106
 20
102.2410174653
 11
105.3634889203
 21
101.8486279369
  0
LINE
  5
4D5
100
AcDbEntity
  8
0
100
AcDbLine
 62
7
  6
CONTINUOUS
 10
101.163331716
 20
104.4972940548
 11
100.8082292629
 21
104.7023257608
  0
LINE
  5
4D6
100
AcDbEntity
  8
0
100
AcDbLine
 62
7
  6
CONTINUOUS
 10
94.7993706853
 20
108.1717653948
 11
94.4442682322
 21
108.3767971007
  0
LINE
  5
4D7
100
AcDbEntity
  8
0
100
AcDbLine
 62
7
  6
CONTINUOUS
 10
92.0709845837
 20
110.5850672893
 11
91.5181943312
 21
110.904241453
  0
LWPOLYLINE
  5
4D8
100
AcDbEntity
  8
0
100
AcDbPolyline
 62
7
  6
CONTINUOUS
 90
10
 70
0
 10
90.3269150431
 20
112.1143999024
 10
90.3076218597
 20
112.1266291939
 10
90.2893869186
 20
112.1401732386
 10
90.2719342439
 20
112.1550527141
 10
90.255262724
 20
112.1711369987
 10
90.2393546639
 20
112.1882705691
 10
90.2244280009
 20
112.2062219695
 10
90.2105441155
 20
112.2248376889
 10
90.1975915877
 20
112.2440256241
 10
90.1855323841
 20
112.2636664665
  0
LWPOLYLINE
  5
4D9
100
AcDbEntity
  8
0
100
AcDbPolyline
 62
7
  6
CONTINUOUS
 90
17
 70
0
 10
102.8832464877
 20
101.6687422223
 10
102.902380879
 20
101.6564895111
 10
102.9213834802
 20
101.6420213948
 10
102.9410635582
 20
101.6246521232
 10
102.9609596238
 20
101.604529599
 10
102.9806740845
 20
101.5818259048
 10
102.9996538228
 20
101.5569996764
 10
103.0175290752
 20
101.5304226285
 10
103.0339770582
 20
101.5024955941
 10
103.0486360602
 20
101.4738130753
 10
103.0612947526
 20
101.4448495115
 10
103.0717839785
 20
101.4161207658
 10
103.0799472712
 20
101.388343201
 10
103.0858058418
 20
101.3619630784
 10
103.0894267447
 20
101.3375022541
 10
103.0909617334
 20
101.3157676458
 10
103.0910666284
 20
101.3088129271
  0
LWPOLYLINE
  5
4DA
100
AcDbEntity
  8
0
100
AcDbPolyline
 62
253
  6
CONTINUOUS
 90
3
 70
0
 10
102.8521685708
 20
101.7374126158
 10
102.8823038242
 20
101.7180473939
 10
102.9114711528
 20
101.695866275
  0
LWPOLYLINE
  5
4DB
100
AcDbEntity
  8
0
100
AcDbPolyline
 62
253
  6
CONTINUOUS
 90
8
 70
0
 10
90.1204556529
 20
112.7983678474
 10
90.1034723408
 20
112.8095248178
 10
90.0891099082
 20
112.8218482099
 10
90.0776059882
 20
112.8351341272
 10
90.0691509186
 20
112.8491627481
 10
90.0638845924
 20
112.8637019625
 10
90.0618941436
 20
112.8785112123
 10
90.0618770091
 20
112.8800227664
  0
LWPOLYLINE
  5
4DC
100
AcDbEntity
  8
0
100
AcDbPolyline
 62
253
  6
CONTINUOUS
 90
8
 70
0
 10
90.1308546607
 20
113.5279552286
 10
90.1227954582
 20
113.5334173044
 10
90.1129142288
 20
113.5429290324
 10
90.1045953758
 20
113.5546507693
 10
90.0980054642
 20
113.5683811083
 10
90.0932413803
 20
113.5839055632
 10
90.0903563785
 20
113.6010331761
 10
90.0893902305
 20
113.6195302347
  0
LWPOLYLINE
  5
4DD
100
AcDbEntity
  8
0
100
AcDbPolyline
 62
7
  6
CONTINUOUS
 90
9
 70
0
 10
102.0481583463
 20
109.6161865143
 10
102.0482371911
 20
109.6160371768
 10
102.0484118413
 20
109.6140638661
 10
102.0485798662
 20
109.6095450071
 10
102.0487793402
 20
109.6023625553
 10
102.0487785073
 20
109.5928147551
 10
102.0486314771
 20
109.5810881903
 10
102.0486193848
 20
109.5671025707
 10
102.0489088042
 20
109.550928802
  0
LWPOLYLINE
  5
4DE
100
AcDbEntity
  8
0
100
AcDbPolyline
 62
7
  6
CONTINUOUS
 90
10
 70
0
 10
111.8630928853
 20
118.7337464199
 10
111.8606102681
 20
118.7818081047
 10
111.8533921886
 20
118.8268368393
 10
111.841805978
 20
118.868588099
 10
111.82633216
 20
118.9066982287
 10
111.8073309756
 20
118.9412478796
 10
111.7849182972
 20
118.9725063936
 10
111.7593663494
 20
119.0003050216
 10
111.731220099
 20
119.0242760421
 10
111.700972931
 20
119.0442697692
  0
LINE
  5
4DF
100
AcDbEntity
  8
0
100
AcDbLine
 62
253
  6
CONTINUOUS
 10
111.8045142416
 20
118.6520915013
 11
111.8045142416
 21
118.2623351489
  0
LINE
  5
4E0
100
AcDbEntity
  8
0
100
AcDbLine
 62
7
  6
CONTINUOUS
 10
111.8630928853
 20
118.7337464199
 11
111.8630928853
 21
118.3117164405
  0
LINE
  5
4E1
100
AcDbEntity
  8
0
100
AcDbLine
 62
253
  6
CONTINUOUS
 10
113.0773064477
 20
114.5504201635
 11
113.0773064477
 21
115.0320157485
  0
LINE
  5
4E2
100
AcDbEntity
  8
0
100
AcDbLine
 62
7
  6
CONTINUOUS
 10
113.3364054498
 20
114.948693743
 11
113.3361254928
 21
114.9324725029
  0
LINE
  5
4E3
100
AcDbEntity
  8
0
100
AcDbLine
 62
7
  6
CONTINUOUS
 10
110.0317698067
 20
89.5752941888
 11
109.8537350894
 21
87.6682330262
  0
LINE
  5
4E4
100
AcDbEntity
  8
0
100
AcDbLine
 62
7
  6
CONTINUOUS
 10
109.8934060341
 20
87.7945750515
 11
109.8537350894
 21
87.6682330262
  0
LINE
  5
4E5
100
AcDbEntity
  8
0
100
AcDbLine
 62
7
  6
CONTINUOUS
 10
103.0847324668
 20
71.8894305968
 11
103.0835236407
 21
71.8862545636
  0
LINE
  5
4E6
100
AcDbEntity
  8
0
100
AcDbLine
 62
7
  6
CONTINUOUS
 10
110.2925775115
 20
90.0600682037
 11
109.298748289
 21
88.2127969249
  0
LWPOLYLINE
  5
4E7
100
AcDbEntity
  8
RACCORDO
100
AcDbPolyline
 62
253
  6
CONTINUOUS
 90
57
 70
0
 10
129.4826019613
 20
109.0670084686
 10
129.4884028745
 20
109.0725385548
 10
129.4941828984
 20
109.0778738001
 10
129.4999408095
 20
109.0830143947
 10
129.5056703677
 20
109.0879625806
 10
129.5113754207
 20
109.0927164229
 10
129.5170694279
 20
109.0972700556
 10
129.5227527799
 20
109.1016266639
 10
129.5284215853
 20
109.10578383
 10
129.5340821594
 20
109.109727614
 10
129.53973422
 20
109.1134599112
 10
129.5453738651
 20
109.1169797736
 10
129.5510015855
 20
109.1202691451
 10
129.5566141102
 20
109.1233277044
 10
129.5622101989
 20
109.1261566958
 10
129.5677930387
 20
109.1287405215
 10
129.5733491828
 20
109.1310782123
 10
129.5788871794
 20
109.1331716412
 10
129.5844414313
 20
109.1350101619
 10
129.58999601
 20
109.1366019052
 10
129.59555856
 20
109.1379407661
 10
129.6011940205
 20
109.1389965636
 10
129.6069044011
 20
109.1397841673
 10
129.6126712536
 20
109.1402933364
 10
129.6185232528
 20
109.1404581443
 10
129.6244705249
 20
109.1402797493
 10
129.6304797619
 20
109.1397631003
 10
129.6365134539
 20
109.138848085
 10
129.6425648354
 20
109.1375233813
 10
129.6486188749
 20
109.1358048041
 10
129.6546293694
 20
109.1336714895
 10
129.6605695229
 20
109.1311248703
 10
129.6664489868
 20
109.1281655753
 10
129.672276898
 20
109.1247710478
 10
129.6780339115
 20
109.1209512322
 10
129.6837170497
 20
109.116698675
 10
129.6893538227
 20
109.1119660201
 10
129.6949314287
 20
109.1067549005
 10
129.700428859
 20
109.1010675274
 10
129.7058532016
 20
109.0948588641
 10
129.7111900042
 20
109.0881182657
 10
129.7164092436
 20
109.0808603247
 10
129.7214899897
 20
109.073078211
 10
129.7264026558
 20
109.0647767966
 10
129.7311285154
 20
109.055953079
 10
129.7356578685
 20
109.0465884744
 10
129.7399529303
 20
109.0366994255
 10
129.7439916465
 20
109.0262697041
 10
129.74777278
 20
109.0152326895
 10
129.7512512527
 20
109.0035891651
 10
129.7543836053
 20
108.9913369364
 10
129.757145422
 20
108.9784058811
 10
129.7594786137
 20
108.9647523047
 10
129.7613116028
 20
108.9504136858
 10
129.7625790158
 20
108.9354406205
 10
129.7632082552
 20
108.9197357028
 10
129.7632617489
 20
108.9141106564
  0
LWPOLYLINE
  5
4E8
100
AcDbEntity
  8
RACCORDO
100
AcDbPolyline
 62
7
  6
CONTINUOUS
 90
136
 70
0
 10
129.6001460692
 20
109.2094010263
 10
129.6595122969
 20
109.2618333464
 10
129.717001722
 20
109.3129141352
 10
129.7726143444
 20
109.3626433927
 10
129.8262950944
 20
109.4109824673
 10
129.8780990418
 20
109.4579700106
 10
129.9281913958
 20
109.5037219774
 10
129.9765795758
 20
109.5482439684
 10
130.0232561625
 20
109.5915303828
 10
130.0683641074
 20
109.6336803735
 10
130.1119076388
 20
109.6746968117
 10
130.1538825284
 20
109.7145768261
 10
130.1944190432
 20
109.7534109548
 10
130.2335210767
 20
109.791201855
 10
130.2711847354
 20
109.8279468695
 10
130.3075286058
 20
109.8637285652
 10
130.3425562836
 20
109.8985494206
 10
130.3762641732
 20
109.9324069571
 10
130.4087600735
 20
109.9653763067
 10
130.4400473049
 20
109.997459795
 10
130.470122547
 20
110.0286550963
 10
130.4990836376
 20
110.0590303649
 10
130.5269336444
 20
110.0885878072
 10
130.5536694998
 20
110.1173252168
 10
130.5793798382
 20
110.1453041294
 10
130.6040674887
 20
110.1725266657
 10
130.6277296223
 20
110.1989907049
 10
130.650446386
 20
110.2247514205
 10
130.6722203742
 20
110.2498108848
 10
130.6930489926
 20
110.2741670254
 10
130.7130046052
 20
110.2978687989
 10
130.7320895588
 20
110.3209182675
 10
130.7503015067
 20
110.343313369
 10
130.7677057734
 20
110.3650968735
 10
130.7843044165
 20
110.3862708641
 10
130.8000953784
 20
110.4068332578
 10
130.8151378108
 20
110.426820575
 10
130.8294334012
 20
110.4462349304
 10
130.842980462
 20
110.4650742094
 10
130.8558330823
 20
110.4833685888
 10
130.8679924463
 20
110.501120175
 10
130.8794573698
 20
110.5183268617
 10
130.8902783895
 20
110.5350125065
 10
130.9004559391
 20
110.5511789493
 10
130.9099895848
 20
110.5668243503
 10
130.9189285626
 20
110.5819670478
 10
130.9272725972
 20
110.5966087396
 10
130.9350219638
 20
110.6107477279
 10
130.9422267242
 20
110.6243972582
 10
130.9488855251
 20
110.6375579829
 10
130.9549997197
 20
110.6502292495
 10
130.9606234295
 20
110.6624223454
 10
130.9657519867
 20
110.6741280767
 10
130.9703900591
 20
110.6853556373
 10
130.974605772
 20
110.6961438967
 10
130.9783971456
 20
110.7064798131
 10
130.9817661597
 20
110.7163764283
 10
130.9847868787
 20
110.7259117373
 10
130.9874646841
 20
110.7350843174
 10
130.9897941945
 20
110.7438955912
 10
130.9918333303
 20
110.752427821
 10
130.99358951
 20
110.7606866242
 10
130.9950553151
 20
110.7686663834
 10
130.9962664113
 20
110.7764325089
 10
130.9972290646
 20
110.7839897164
 10
130.9979370089
 20
110.7913332902
 10
130.9984071112
 20
110.798514493
 10
130.9986449934
 20
110.8055369716
 10
130.9986450335
 20
110.8123970791
 10
130.9984072332
 20
110.8191351376
 10
130.9979372147
 20
110.8257542215
 10
130.9972293557
 20
110.8322512564
 10
130.9962667911
 20
110.8386573413
 10
130.9950557869
 20
110.8449752559
 10
130.9935900771
 20
110.8512022207
 10
130.9918339989
 20
110.8573609959
 10
130.9897949715
 20
110.8634548331
 10
130.9874655758
 20
110.8694804808
 10
130.9847878911
 20
110.8754509457
 10
130.9817673016
 20
110.881374084
 10
130.9783984232
 20
110.8872420396
 10
130.974607183
 20
110.8930442507
 10
130.9703915998
 20
110.8987913964
 10
130.9657536548
 20
110.9044727976
 10
130.9606252187
 20
110.9100458547
 10
130.9550016221
 20
110.9155141807
 10
130.9488875343
 20
110.9208741625
 10
130.9422288341
 20
110.9260723625
 10
130.9350241696
 20
110.931106508
 10
130.9272748926
 20
110.9359788717
 10
130.9189309378
 20
110.940642833
 10
130.9099920287
 20
110.9450963657
 10
130.9004584418
 20
110.949341496
 10
130.8902809406
 20
110.9533376832
 10
130.8794599587
 20
110.9570836055
 10
130.8679950626
 20
110.9605805846
 10
130.8558357153
 20
110.9637920444
 10
130.8429831007
 20
110.9667172944
 10
130.8294360349
 20
110.9693570252
 10
130.8151404295
 20
110.9716767324
 10
130.8000979718
 20
110.9736763192
 10
130.7843069746
 20
110.9753558826
 10
130.7677082871
 20
110.9766812086
 10
130.7503039669
 20
110.9776526744
 10
130.7320919564
 20
110.978269903
 10
130.7130069327
 20
110.9784975489
 10
130.6930512423
 20
110.9783363559
 10
130.6722225386
 20
110.9777855803
 10
130.6504484593
 20
110.9768076455
 10
130.6277315987
 20
110.9754035814
 10
130.6040693625
 20
110.973572358
 10
130.5793816057
 20
110.9712733092
 10
130.5536711572
 20
110.9685076972
 10
130.526935188
 20
110.9652742596
 10
130.4990850658
 20
110.9615285434
 10
130.4701238582
 20
110.9572720106
 10
130.4400484975
 20
110.9525031992
 10
130.4087611483
 20
110.9471732697
 10
130.3762651309
 20
110.9412838668
 10
130.3425571251
 20
110.9348333458
 10
130.3075293343
 20
110.9277679331
 10
130.2711853543
 20
110.9200894502
 10
130.2335215893
 20
110.9117960756
 10
130.1944194557
 20
110.9028285712
 10
130.1538828468
 20
110.8931889359
 10
130.1119078692
 20
110.8828751709
 10
130.0683642592
 20
110.8718220422
 10
130.023256245
 20
110.8600317344
 10
129.9765795983
 20
110.8475020629
 10
129.9281913709
 20
110.83416124
 10
129.878098982
 20
110.8200125368
 10
129.8262950124
 20
110.8050526822
 10
129.7726142564
 20
110.7892000749
 10
129.7170016454
 20
110.7724275144
 10
129.6595122481
 20
110.7547622011
 10
129.6001460643
 20
110.7362041351
  0
LINE
  5
4E9
100
AcDbEntity
  8
0
100
AcDbLine
 62
253
  6
CONTINUOUS
 10
103.9942061965
 20
89.4094791859
 11
104.7412387252
 21
89.8260070401
  0
LINE
  5
4EA
100
AcDbEntity
  8
0
100
AcDbLine
 62
7
  6
CONTINUOUS
 10
103.9103666651
 20
89.2258207307
 11
104.8645211532
 21
89.7578349419
  0
LINE
  5
4EB
100
AcDbEntity
  8
0
100
AcDbLine
 62
7
  6
CONTINUOUS
 10
105.2991318547
 20
89.9050353617
 11
105.0516444812
 21
89.7671272936
  0
LWPOLYLINE
  5
4EC
100
AcDbEntity
  8
0
100
AcDbPolyline
 62
253
  6
CONTINUOUS
 90
13
 70
0
 10
103.9942061965
 20
89.4094791859
 10
103.9744711306
 20
89.3998186725
 10
103.9527415457
 20
89.391710084
 10
103.9293811516
 20
89.3852890577
 10
103.9047808761
 20
89.3806629755
 10
103.8793524681
 20
89.377909198
 10
103.8535216194
 20
89.3770737347
 10
103.8277206407
 20
89.3781704538
 10
103.8023811635
 20
89.381180895
 10
103.7779270786
 20
89.3860545963
 10
103.7547674665
 20
89.3927099306
 10
103.7332897501
 20
89.401035462
 10
103.7138531661
 20
89.4108918243
  0
LINE
  5
4ED
100
AcDbEntity
  8
DRAFT
100
AcDbLine
 62
7
  6
CONTINUOUS
 10
106.713345417
 20
104.171927348
 11
107.4081096034
 21
104.1159390667
  0
LINE
  5
4EE
100
AcDbEntity
  8
DRAFT
100
AcDbLine
 62
7
  6
CONTINUOUS
 10
106.713345417
 20
104.171927348
 11
107.4389684409
 21
104.0981215607
  0
LWPOLYLINE
  5
4EF
100
AcDbEntity
  8
0
100
AcDbPolyline
 62
253
  6
CONTINUOUS
 90
8
 70
0
 10
102.5320014364
 20
107.1218522186
 10
102.5131696504
 20
107.1309621702
 10
102.4947000174
 20
107.137124985
 10
102.4769117202
 20
107.1402317365
 10
102.4601106144
 20
107.1402259421
 10
102.4445902772
 20
107.1371044561
 10
102.4306251691
 20
107.130921469
 10
102.4293202236
 20
107.1301363181
  0
LWPOLYLINE
  5
4F0
100
AcDbEntity
  8
0
100
AcDbPolyline
 62
7
  6
CONTINUOUS
 90
5
 70
0
 10
104.1454039756
 20
105.4361300722
 10
104.167496728
 20
105.4251308343
 10
104.1916384849
 20
105.4166934449
 10
104.2167437355
 20
105.4113934725
 10
104.225985936
 20
105.4102735402
  0
LWPOLYLINE
  5
4F1
100
AcDbEntity
  8
0
100
AcDbPolyline
 62
7
  6
CONTINUOUS
 90
5
 70
0
 10
91.841745983
 20
112.5401079961
 10
91.8638387353
 20
112.5291087582
 10
91.8879804922
 20
112.5206713688
 10
91.9130857429
 20
112.5153713964
 10
91.9223279433
 20
112.5142514641
  0
LWPOLYLINE
  5
4F2
100
AcDbEntity
  8
0
100
AcDbPolyline
 62
253
  6
CONTINUOUS
 90
13
 70
0
 10
100.7929368785
 20
108.2248030161
 10
100.8124581154
 20
108.2149090398
 10
100.8340434326
 20
108.2065566532
 10
100.8573304452
 20
108.1998885372
 10
100.8819310411
 20
108.1950185797
 10
100.9074271257
 20
108.1920321563
 10
100.9333766013
 20
108.1909818323
 10
100.9593935184
 20
108.1918887297
 10
100.9849830333
 20
108.1947410994
 10
101.0095514581
 20
108.1994526312
 10
101.0326584162
 20
108.2058912346
 10
101.0540080526
 20
108.2139246422
 10
101.0732899088
 20
108.2233903778
  0
LWPOLYLINE
  5
4F3
100
AcDbEntity
  8
0
100
AcDbPolyline
 62
253
  6
CONTINUOUS
 90
13
 70
0
 10
105.4871442953
 20
103.9258344151
 10
105.5064662993
 20
103.916028994
 10
105.527808501
 20
103.9077365689
 10
105.5508178773
 20
103.9010943804
 10
105.5751137983
 20
103.8962123751
 10
105.6002943373
 20
103.893171381
 10
105.6259429207
 20
103.892021772
 10
105.651635231
 20
103.8927826369
 10
105.6769461246
 20
103.8954414553
 10
105.7014566895
 20
103.8999542773
 10
105.7247613115
 20
103.9062464641
 10
105.7464743785
 20
103.9142139452
 10
105.7662365667
 20
103.9237249203
  0
LWPOLYLINE
  5
4F4
100
AcDbEntity
  8
0
100
AcDbPolyline
 62
253
  6
CONTINUOUS
 90
13
 70
0
 10
104.1039961553
 20
105.8904732971
 10
104.1229910623
 20
105.8808137635
 10
104.1440960702
 20
105.8725661797
 10
104.1670053609
 20
105.8658959281
 10
104.1914265187
 20
105.860938061
 10
104.216923472
 20
105.8578286976
 10
104.2429064467
 20
105.8566598244
 10
104.2688809805
 20
105.8574481548
 10
104.2944608627
 20
105.860176449
 10
104.3192042175
 20
105.8647969918
 10
104.3426907787
 20
105.8712291793
 10
104.3645281456
 20
105.8793633102
 10
104.3843491856
 20
105.8890606587
  0
LWPOLYLINE
  5
4F5
100
AcDbEntity
  8
0
100
AcDbPolyline
 62
253
  6
CONTINUOUS
 90
11
 70
0
 10
90.4663896192
 20
113.1614042363
 10
90.4353136724
 20
113.1774420393
 10
90.4045287268
 20
113.1902843822
 10
90.3742711872
 20
113.1998356545
 10
90.3447735123
 20
113.2060251049
 10
90.3162601449
 20
113.2088065077
 10
90.2889459017
 20
113.2081582232
 10
90.2630362183
 20
113.2040837255
 10
90.2387289585
 20
113.1966146819
 10
90.2162108936
 20
113.1858092688
 10
90.2073294837
 20
113.1802954882
  0
LWPOLYLINE
  5
4F6
100
AcDbEntity
  8
0
100
AcDbPolyline
 62
253
  6
CONTINUOUS
 90
19
 70
0
 10
90.3323696849
 20
112.9209525394
 10
90.3136779693
 20
112.9307603658
 10
90.2953960349
 20
112.9385370246
 10
90.2775238817
 20
112.9442825157
 10
90.2599297496
 20
112.9480107093
 10
90.2427453987
 20
112.9497077352
 10
90.2263661093
 20
112.9493319827
 10
90.2108128694
 20
112.9468356351
 10
90.196064691
 20
112.9422665091
 10
90.18245389
 20
112.935726444
 10
90.1700064836
 20
112.9271701696
 10
90.1586964547
 20
112.916642956
 10
90.1487780677
 20
112.9043824531
 10
90.1402821923
 20
112.8903392779
 10
90.1331779588
 20
112.8745628135
 10
90.1276270225
 20
112.8574388584
 10
90.1236832687
 20
112.8390960121
 10
90.1212928121
 20
112.8194056751
 10
90.1204556529
 20
112.7983678474
  0
LINE
  5
4F7
100
AcDbEntity
  8
0
100
AcDbLine
 62
7
  6
CONTINUOUS
 10
92.7125234537
 20
110.6228859245
 11
93.5487628361
 21
110.1400517856
  0
LINE
  5
4F8
100
AcDbEntity
  8
0
100
AcDbLine
 62
7
  6
CONTINUOUS
 10
104.1801574556
 20
104.001617775
 11
105.016396838
 21
103.5187836362
  0
LINE
  5
4F9
100
AcDbEntity
  8
0
100
AcDbLine
 62
7
  6
CONTINUOUS
 10
105.3635311855
 20
103.4324461933
 11
101.3039432553
 21
105.7764013856
  0
LINE
  5
4FA
100
AcDbEntity
  8
0
100
AcDbLine
 62
7
  6
CONTINUOUS
 10
100.750450772
 20
106.0959810086
 11
94.9399822246
 21
109.4508727256
  0
LINE
  5
4FB
100
AcDbEntity
  8
0
100
AcDbLine
 62
7
  6
CONTINUOUS
 10
94.3864897413
 20
109.7704523486
 11
90.3269018111
 21
112.1144075409
  0
LINE
  5
4FC
100
AcDbEntity
  8
0
100
AcDbLine
 62
253
  6
CONTINUOUS
 10
105.4220675641
 20
103.4662820122
 11
101.163331716
 21
105.9252227164
  0
LINE
  5
4FD
100
AcDbEntity
  8
0
100
AcDbLine
 62
253
  6
CONTINUOUS
 10
100.8082292629
 20
106.1302544223
 11
94.7993706853
 21
109.5996940563
  0
LINE
  5
4FE
100
AcDbEntity
  8
0
100
AcDbLine
 62
253
  6
CONTINUOUS
 10
94.4442682322
 20
109.8047257623
 11
90.1855323841
 21
112.2636664665
  0
LINE
  5
4FF
100
AcDbEntity
  8
0
100
AcDbLine
 62
253
  6
CONTINUOUS
 10
105.2752302633
 20
104.2931321195
 11
104.8234455312
 21
104.5539869616
  0
LINE
  5
500
100
AcDbEntity
  8
0
100
AcDbLine
 62
253
  6
CONTINUOUS
 10
103.0878124096
 20
105.5561197734
 11
100.7929368785
 21
106.8811521435
  0
LINE
  5
501
100
AcDbEntity
  8
0
100
AcDbLine
 62
253
  6
CONTINUOUS
 10
100.4200950645
 20
107.0964263341
 11
95.1875048837
 21
110.1176583248
  0
LINE
  5
502
100
AcDbEntity
  8
0
100
AcDbLine
 62
253
  6
CONTINUOUS
 10
94.8146630697
 20
110.3329325154
 11
92.5197875386
 21
111.6579648855
  0
LINE
  5
503
100
AcDbEntity
  8
0
100
AcDbLine
 62
253
  6
CONTINUOUS
 10
90.7841544169
 20
112.6600976973
 11
90.3323696849
 21
112.9209525394
  0
LINE
  5
504
100
AcDbEntity
  8
0
100
AcDbLine
 62
253
  6
CONTINUOUS
 10
105.4092501976
 20
104.5335838164
 11
105.0986930087
 21
104.7128956451
  0
LINE
  5
505
100
AcDbEntity
  8
0
100
AcDbLine
 62
253
  6
CONTINUOUS
 10
103.0292337658
 20
105.9077754755
 11
101.068184356
 21
107.040060827
  0
LINE
  5
506
100
AcDbEntity
  8
0
100
AcDbLine
 62
253
  6
CONTINUOUS
 10
100.3615164207
 20
107.4480820362
 11
95.4627523612
 21
110.2765670083
  0
LINE
  5
507
100
AcDbEntity
  8
0
100
AcDbLine
 62
253
  6
CONTINUOUS
 10
94.7560844259
 20
110.6845882175
 11
92.7950350161
 21
111.816873569
  0
LINE
  5
508
100
AcDbEntity
  8
0
100
AcDbLine
 62
253
  6
CONTINUOUS
 10
90.7255757732
 20
113.0117533994
 11
90.4663896192
 21
113.1614042363
  0
LINE
  5
509
100
AcDbEntity
  8
0
100
AcDbLine
 62
7
  6
CONTINUOUS
 10
104.1454126795
 20
105.4361250458
 11
102.4344647474
 21
106.4240049386
  0
LINE
  5
50A
100
AcDbEntity
  8
0
100
AcDbLine
 62
7
  6
CONTINUOUS
 10
91.8417546868
 20
112.5401029697
 11
90.1308067547
 21
113.5279828625
  0
LINE
  5
50B
100
AcDbEntity
  8
0
100
AcDbLine
 62
253
  6
CONTINUOUS
 10
104.1039961553
 20
105.527672418
 11
102.3930482232
 21
106.5155523108
  0
LINE
  5
50C
100
AcDbEntity
  8
0
100
AcDbLine
 62
253
  6
CONTINUOUS
 10
91.8003381626
 20
112.6316503419
 11
90.0893902305
 21
113.6195302347
  0
LINE
  5
50D
100
AcDbEntity
  8
0
100
AcDbLine
 62
253
  6
CONTINUOUS
 10
104.1039961553
 20
105.8904732971
 11
102.3930482232
 21
106.8783531899
  0
LINE
  5
50E
100
AcDbEntity
  8
0
100
AcDbLine
 62
253
  6
CONTINUOUS
 10
91.8003381626
 20
112.994451221
 11
90.0893902305
 21
113.9823311138
  0
LINE
  5
50F
100
AcDbEntity
  8
0
100
AcDbLine
 62
7
  6
CONTINUOUS
 10
100.3615164207
 20
108.1445477621
 11
99.3631592136
 21
108.7209867011
  0
LINE
  5
510
100
AcDbEntity
  8
0
100
AcDbLine
 62
7
  6
CONTINUOUS
 10
97.658654297
 20
109.7051464775
 11
96.0360330211
 21
110.642027666
  0
LINE
  5
511
100
AcDbEntity
  8
DRAFT
100
AcDbLine
 62
7
  6
CONTINUOUS
 10
107.4081096034
 20
104.1159390667
 11
107.4389684409
 21
104.0981215607
  0
LINE
  5
512
100
AcDbEntity
  8
0
100
AcDbLine
 62
253
  6
CONTINUOUS
 10
104.2429493685
 20
106.1339723258
 11
102.5320014364
 21
107.1218522186
  0
LINE
  5
513
100
AcDbEntity
  8
0
100
AcDbLine
 62
253
  6
CONTINUOUS
 10
91.9392913759
 20
113.2379502497
 11
90.2283434438
 21
114.2258301425
  0
LINE
  5
514
100
AcDbEntity
  8
0
100
AcDbLine
 62
253
  6
CONTINUOUS
 10
100.7929368785
 20
108.2248030161
 11
100.4200950645
 21
108.4400772067
  0
LINE
  5
515
100
AcDbEntity
  8
0
100
AcDbLine
 62
253
  6
CONTINUOUS
 10
95.1875048837
 20
111.4613091974
 11
94.8146630697
 21
111.676583388
  0
LINE
  5
516
100
AcDbEntity
  8
0
100
AcDbLine
 62
7
  6
CONTINUOUS
 10
106.3601553636
 20
105.1106781074
 11
106.0415939749
 21
105.2946114607
  0
LINE
  5
517
100
AcDbEntity
  8
0
100
AcDbLine
 62
7
  6
CONTINUOUS
 10
93.7379359823
 20
112.3985893846
 11
94.7622543966
 21
111.8071607699
  0
LINE
  5
518
100
AcDbEntity
  8
0
100
AcDbLine
 62
7
  6
CONTINUOUS
 10
98.1573533647
 20
109.8468731763
 11
99.3045805698
 21
109.1844785662
  0
LINE
  5
519
100
AcDbEntity
  8
0
100
AcDbLine
 62
7
  6
CONTINUOUS
 10
102.0110853221
 20
107.6217766427
 11
102.6385159041
 21
107.2595060882
  0
LINE
  5
51A
100
AcDbEntity
  8
0
100
AcDbLine
 62
253
  6
CONTINUOUS
 10
100.9318900917
 20
108.4683020449
 11
100.5590482777
 21
108.6835762355
  0
LINE
  5
51B
100
AcDbEntity
  8
0
100
AcDbLine
 62
253
  6
CONTINUOUS
 10
95.3264580969
 20
111.7048082261
 11
94.9536162829
 21
111.9200824167
  0
LWPOLYLINE
  5
51C
100
AcDbEntity
  8
0
100
AcDbPolyline
 62
7
  6
CONTINUOUS
 90
12
 70
0
 10
94.9403016024
 20
109.4506919282
 10
94.9380965466
 20
109.4519983546
 10
94.9213363685
 20
109.4627328413
 10
94.9050626409
 20
109.4746941156
 10
94.8893997678
 20
109.4878483214
 10
94.8743250207
 20
109.5019051935
 10
94.8598848484
 20
109.5168178729
 10
94.8461730306
 20
109.5325295972
 10
94.8332279896
 20
109.5487497145
 10
94.8210890711
 20
109.5653464912
 10
94.8097951279
 20
109.5823454765
 10
94.7993706853
 20
109.5996940563
  0
LWPOLYLINE
  5
51D
100
AcDbEntity
  8
0
100
AcDbPolyline
 62
7
  6
CONTINUOUS
 90
12
 70
0
 10
101.3042626331
 20
105.7762205883
 10
101.3020575773
 20
105.7775270146
 10
101.2852973992
 20
105.7882615013
 10
101.2690236716
 20
105.8002227756
 10
101.2533607985
 20
105.8133769814
 10
101.2382860513
 20
105.8274338536
 10
101.2238458791
 20
105.842346533
 10
101.2101340613
 20
105.8580582573
 10
101.1971890203
 20
105.8742783746
 10
101.1850501018
 20
105.8908751512
 10
101.1737561585
 20
105.9078741365
 10
101.163331716
 20
105.9252227164
  0
LWPOLYLINE
  5
51E
100
AcDbEntity
  8
0
100
AcDbPolyline
 62
7
  6
CONTINUOUS
 90
8
 70
0
 10
90.1309440089
 20
113.5279038309
 10
90.1196701076
 20
113.5349100592
 10
90.1027259319
 20
113.5475818878
 10
90.0871512671
 20
113.5620387823
 10
90.073192177
 20
113.5780750196
 10
90.0609990327
 20
113.5955267582
 10
90.050668435
 20
113.6143033666
 10
90.0423559471
 20
113.6342189661
  0
LWPOLYLINE
  5
51F
100
AcDbEntity
  8
0
100
AcDbPolyline
 62
7
  6
CONTINUOUS
 90
8
 70
0
 10
102.4346020015
 20
106.423925907
 10
102.4233281002
 20
106.4309321353
 10
102.4063839245
 20
106.4436039639
 10
102.3908092598
 20
106.4580608584
 10
102.3768501697
 20
106.4740970957
 10
102.3646570254
 20
106.4915488343
 10
102.3543264276
 20
106.5103254427
 10
102.3460139398
 20
106.5302410422
  0
LWPOLYLINE
  5
520
100
AcDbEntity
  8
0
100
AcDbPolyline
 62
253
  6
CONTINUOUS
 90
7
 70
0
 10
90.0893902305
 20
113.6195302347
 10
90.0722944362
 20
113.6307715433
 10
90.0578586144
 20
113.6431950128
 10
90.0463253213
 20
113.6565922298
 10
90.0378883457
 20
113.6707385806
 10
90.0326897774
 20
113.685396497
 10
90.0308115867
 20
113.701185212
  0
LWPOLYLINE
  5
521
100
AcDbEntity
  8
0
100
AcDbPolyline
 62
253
  6
CONTINUOUS
 90
7
 70
0
 10
102.3930482232
 20
106.5155523108
 10
102.3759524288
 20
106.5267936194
 10
102.361516607
 20
106.5392170889
 10
102.3499833139
 20
106.5526143059
 10
102.3415463384
 20
106.5667606567
 10
102.33634777
 20
106.5814185731
 10
102.3344695794
 20
106.5972072881
  0
LWPOLYLINE
  5
522
100
AcDbEntity
  8
0
100
AcDbPolyline
 62
253
  6
CONTINUOUS
 90
8
 70
0
 10
102.4345126534
 20
106.4239773047
 10
102.4264534508
 20
106.4294393805
 10
102.4165722214
 20
106.4389511085
 10
102.4082533685
 20
106.4506728454
 10
102.4016634569
 20
106.4644031844
 10
102.3968993729
 20
106.4799276393
 10
102.3940143711
 20
106.4970552522
 10
102.3930482232
 20
106.5155523108
  0
LWPOLYLINE
  5
523
100
AcDbEntity
  8
0
100
AcDbPolyline
 62
253
  6
CONTINUOUS
 90
6
 70
0
 10
106.5998303854
 20
106.7840714793
 10
106.6076291888
 20
106.7717835082
 10
106.6128616441
 20
106.7610608176
 10
106.6154392129
 20
106.7520848456
 10
106.6153182805
 20
106.7450074744
 10
106.6133984073
 20
106.7409442006
  0
LWPOLYLINE
  5
524
100
AcDbEntity
  8
SMUSSO
100
AcDbPolyline
 62
7
  6
CONTINUOUS
 90
5
 70
0
 10
114.4034108361
 20
91.7308449898
 10
114.3997401556
 20
91.7692311152
 10
114.3969871451
 20
91.8071495108
 10
114.3951518048
 20
91.8446001765
 10
114.3942341347
 20
91.8816245266
  0
LWPOLYLINE
  5
525
100
AcDbEntity
  8
0
100
AcDbPolyline
 62
7
  6
CONTINUOUS
 90
4
 70
0
 10
113.3701496603
 20
114.9542912837
 10
113.3694236131
 20
114.969971942
 10
113.3679340541
 20
114.9831058861
 10
113.3658051763
 20
114.9936843002
  0
LINE
  5
526
100
AcDbEntity
  8
SMUSSO
100
AcDbLine
 62
7
  6
CONTINUOUS
 10
114.3942341347
 20
91.8816245266
 11
114.3924897969
 21
92.2182555871
  0
LINE
  5
527
100
AcDbEntity
  8
0
100
AcDbLine
 62
7
  6
CONTINUOUS
 10
113.3701496603
 20
114.9542912837
 11
113.3701784504
 21
114.9485435865
  0
LWPOLYLINE
  5
528
100
AcDbEntity
  8
SMUSSO
100
AcDbPolyline
 62
7
  6
CONTINUOUS
 90
8
 70
0
 10
114.3924897969
 20
92.2182555871
 10
114.3924663123
 20
92.2275377024
 10
114.3928809186
 20
92.2662393414
 10
114.3941244868
 20
92.3044388101
 10
114.3961962653
 20
92.3421130188
 10
114.3990950018
 20
92.3792391952
 10
114.4028189442
 20
92.4157948984
 10
114.4034108761
 20
92.4204767126
  0
LINE
  5
529
100
AcDbEntity
  8
0
100
AcDbLine
 62
7
  6
CONTINUOUS
 10
113.3361254928
 20
114.9324725029
 11
113.3361254928
 21
114.8025749765
  0
LINE
  5
52A
100
AcDbEntity
  8
0
100
AcDbLine
 62
7
  6
CONTINUOUS
 10
113.9626057126
 20
90.1895594486
 11
113.9626057126
 21
92.4404478989
  0
LINE
  5
52B
100
AcDbEntity
  8
SMUSSO
100
AcDbLine
 62
7
  6
CONTINUOUS
 10
114.40341088
 20
92.7263540589
 11
114.4034109023
 21
89.8608883783
  0
LINE
  5
52C
100
AcDbEntity
  8
SMUSSO
100
AcDbLine
 62
7
  6
CONTINUOUS
 10
114.4058899373
 20
92.727961975
 11
114.4058899373
 21
89.8594570146
  0
LINE
  5
52D
100
AcDbEntity
  8
0
100
AcDbLine
 62
7
  6
CONTINUOUS
 10
114.8509903912
 20
76.4223252509
 11
114.8509903912
 21
89.602461591
  0
LINE
  5
52E
100
AcDbEntity
  8
0
100
AcDbLine
 62
7
  6
CONTINUOUS
 10
114.8509903912
 20
93.0166540571
 11
114.8509903912
 21
106.1967903972
  0
LINE
  5
52F
100
AcDbEntity
  8
RACCORDO
100
AcDbLine
 62
7
  6
CONTINUOUS
 10
114.8804287397
 20
105.7209775042
 11
114.8804287397
 21
76.8641434768
  0
LWPOLYLINE
  5
530
100
AcDbEntity
  8
SMUSSO
100
AcDbPolyline
 62
7
  6
CONTINUOUS
 90
6
 70
0
 10
114.3941379867
 20
91.8926049678
 10
114.3942341347
 20
91.9181811468
 10
114.3951518048
 20
91.9541457944
 10
114.3969871451
 20
91.9894770551
 10
114.3997401556
 20
92.0242163432
 10
114.4034108361
 20
92.0583636587
  0
LWPOLYLINE
  5
531
100
AcDbEntity
  8
RACCORDO
100
AcDbPolyline
 62
253
  6
CONTINUOUS
 90
18
 70
0
 10
119.7172850344
 20
114.8154679004
 10
119.7199419175
 20
114.8255264866
 10
119.7466545272
 20
114.9003924689
 10
119.7800614275
 20
114.9743837356
 10
119.8200730828
 20
115.0472895478
 10
119.8665708564
 20
115.1188921481
 10
119.9194335075
 20
115.189006731
 10
119.978512378
 20
115.2574377897
 10
120.0436051574
 20
115.3239619869
 10
120.1144809893
 20
115.3883677893
 10
120.190974127
 20
115.45052694
 10
120.2729655308
 20
115.5103456485
 10
120.3602141278
 20
115.5676428547
 10
120.4525184012
 20
115.6222813501
 10
120.5498469116
 20
115.6742173281
 10
120.6522259395
 20
115.7234040434
 10
120.7591799487
 20
115.7695547796
 10
120.8593945769
 20
115.8084659608
  0
LINE
  5
532
100
AcDbEntity
  8
0
100
AcDbLine
 62
253
  6
CONTINUOUS
 10
106.6075845811
 20
67.9190811077
 11
106.5998303854
 21
67.8948246257
  0
LWPOLYLINE
  5
533
100
AcDbEntity
  8
0
100
AcDbPolyline
 62
7
  6
CONTINUOUS
 90
4
 70
0
 10
106.0308322186
 20
67.109156488
 10
106.036781128
 20
67.1259501781
 10
106.040390358
 20
67.1448146148
 10
106.0415939749
 20
67.165424664
  0
LINE
  5
534
100
AcDbEntity
  8
RACCORDO
100
AcDbLine
 62
7
  6
CONTINUOUS
 10
129.7935795674
 20
109.0041143482
 11
129.7939462386
 21
109.0044889203
  0
LWPOLYLINE
  5
535
100
AcDbEntity
  8
0
100
AcDbPolyline
 62
7
  6
CONTINUOUS
 90
9
 70
0
 10
103.0616906539
 20
80.3572105884
 10
103.0504319599
 20
80.3469440114
 10
103.0409695579
 20
80.3375331169
 10
103.0332201326
 20
80.3290409408
 10
103.0270258342
 20
80.3215726445
 10
103.0223596082
 20
80.3150928818
 10
103.0193472671
 20
80.3094482819
 10
103.0179238978
 20
80.3046465563
 10
103.0177659609
 20
80.3028581361
  0
LINE
  5
536
100
AcDbEntity
  8
0
100
AcDbLine
 62
7
  6
CONTINUOUS
 10
114.8509903912
 20
93.0166540571
 11
110.2925775115
 21
90.0600682037
  0
LWPOLYLINE
  5
537
100
AcDbEntity
  8
0
100
AcDbPolyline
 62
7
  6
CONTINUOUS
 90
4
 70
0
 10
102.9998457489
 20
83.6574275749
 10
102.9876756012
 20
83.6502999435
 10
102.9762983834
 20
83.6437091689
 10
102.9656794767
 20
83.6377038321
  0
LINE
  5
538
100
AcDbEntity
  8
0
100
AcDbLine
 62
7
  6
CONTINUOUS
 10
103.8849182923
 20
84.1684450215
 11
103.2485221892
 21
83.8009978875
  0
LINE
  5
539
100
AcDbEntity
  8
0
100
AcDbLine
 62
7
  6
CONTINUOUS
 10
104.4506037172
 20
84.0459626435
 11
105.3344871937
 21
84.5563058851
  0
LINE
  5
53A
100
AcDbEntity
  8
0
100
AcDbLine
 62
7
  6
CONTINUOUS
 10
103.0566260123
 20
83.6902259443
 11
102.9998457489
 21
83.6574275749
  0
LINE
  5
53B
100
AcDbEntity
  8
0
100
AcDbLine
 62
7
  6
CONTINUOUS
 10
103.0725398087
 20
83.6993388326
 11
103.0566260123
 21
83.6902259443
  0
LWPOLYLINE
  5
53C
100
AcDbEntity
  8
0
100
AcDbPolyline
 62
7
  6
CONTINUOUS
 90
3
 70
0
 10
103.1233450621
 20
83.7286405553
 10
103.1059009006
 20
83.7186715079
 10
103.0725398087
 20
83.6993388326
  0
LINE
  5
53D
100
AcDbEntity
  8
0
100
AcDbLine
 62
253
  6
CONTINUOUS
 10
113.9626057126
 20
90.5959941139
 11
114.4034108923
 21
90.8460283312
  0
LINE
  5
53E
100
AcDbEntity
  8
0
100
AcDbLine
 62
253
  6
CONTINUOUS
 10
113.9626057126
 20
90.1895594486
 11
114.4034108964
 21
90.4395936683
  0
LINE
  5
53F
100
AcDbEntity
  8
0
100
AcDbLine
 62
253
  6
CONTINUOUS
 10
105.3634889203
 20
84.4521399203
 11
103.713919138
 21
83.532283522
  0
LWPOLYLINE
  5
540
100
AcDbEntity
  8
0
100
AcDbPolyline
 62
7
  6
CONTINUOUS
 90
10
 70
0
 10
103.0909816317
 20
83.5147821376
 10
103.0911310838
 20
83.5148649251
 10
103.092635232
 20
83.515620704
 10
103.0954240302
 20
83.5172463575
 10
103.0994664369
 20
83.5196376613
 10
103.1047806829
 20
83.5226247617
 10
103.1110425108
 20
83.5262612305
 10
103.1181226214
 20
83.5304840112
 10
103.1260810153
 20
83.5351072997
 10
103.134871305
 20
83.5400148698
  0
LWPOLYLINE
  5
541
100
AcDbEntity
  8
0
100
AcDbPolyline
 62
7
  6
CONTINUOUS
 90
7
 70
0
 10
103.2485221892
 20
83.8009978875
 10
103.2312727064
 20
83.7914697711
 10
103.2136052148
 20
83.7811824073
 10
103.1956669195
 20
83.7704807517
 10
103.1774607676
 20
83.7598430912
 10
103.1591486569
 20
83.7494165134
 10
103.1233450621
 20
83.7286405553
  0
LINE
  5
542
100
AcDbEntity
  8
0
100
AcDbLine
 62
7
  6
CONTINUOUS
 10
102.8607386118
 20
83.6751835575
 11
102.7899225958
 21
83.6364176859
  0
LINE
  5
543
100
AcDbEntity
  8
0
100
AcDbLine
 62
253
  6
CONTINUOUS
 10
102.8796983706
 20
83.6470734977
 11
102.7899225958
 21
83.5987949913
  0
LINE
  5
544
100
AcDbEntity
  8
0
100
AcDbLine
 62
253
  6
CONTINUOUS
 10
103.0910665307
 20
83.2790192226
 11
102.7899225958
 21
83.1170737598
  0
LINE
  5
545
100
AcDbEntity
  8
0
100
AcDbLine
 62
7
  6
CONTINUOUS
 10
110.0766038298
 20
88.1034536951
 11
109.9393326079
 21
88.0311793436
  0
LINE
  5
546
100
AcDbEntity
  8
0
100
AcDbLine
 62
7
  6
CONTINUOUS
 10
109.5270945891
 20
87.8141328637
 11
109.4540446522
 21
87.7756715115
  0
LINE
  5
547
100
AcDbEntity
  8
0
100
AcDbLine
 62
7
  6
CONTINUOUS
 10
113.9626057126
 20
90.1154037703
 11
110.1074579667
 21
88.0856389031
  0
LINE
  5
548
100
AcDbEntity
  8
0
100
AcDbLine
 62
7
  6
CONTINUOUS
 10
110.2925775115
 20
87.202422235
 11
114.8509903912
 21
89.602461591
  0
LWPOLYLINE
  5
549
100
AcDbEntity
  8
0
100
AcDbPolyline
 62
7
  6
CONTINUOUS
 90
16
 70
0
 10
104.4506037172
 20
84.0459626435
 10
104.4307451314
 20
84.0357153446
 10
104.4096521079
 20
84.0268668941
 10
104.3873246469
 20
84.0194172918
 10
104.3634930551
 20
84.0133159421
 10
104.3384270258
 20
84.0086134407
 10
104.3129356382
 20
84.0054615745
 10
104.2870050134
 20
84.0039109392
 10
104.2606490304
 20
84.0039109392
 10
104.2347184057
 20
84.0054615745
 10
104.2092270181
 20
84.0086134407
 10
104.1841609888
 20
84.0133159421
 10
104.160329397
 20
84.0194172918
 10
104.138001936
 20
84.0268668941
 10
104.1169089125
 20
84.0357153446
 10
104.0970503266
 20
84.0459626435
  0
LWPOLYLINE
  5
54A
100
AcDbEntity
  8
RACCORDO
100
AcDbPolyline
 62
253
  6
CONTINUOUS
 90
54
 70
0
 10
129.600152597
 20
97.9421170038
 10
129.6071515352
 20
97.9455140415
 10
129.6142088977
 20
97.9487286927
 10
129.6213237608
 20
97.9517622706
 10
129.6284791403
 20
97.954624329
 10
129.6356898771
 20
97.9573082421
 10
129.6430022724
 20
97.9597917091
 10
129.6504335959
 20
97.9620879027
 10
129.6579627718
 20
97.9641886414
 10
129.6655775775
 20
97.9660408489
 10
129.6732891659
 20
97.9676492651
 10
129.681080392
 20
97.9690167119
 10
129.688895564
 20
97.9700884025
 10
129.6967212236
 20
97.9708641253
 10
129.7045627533
 20
97.9713539861
 10
129.7123916745
 20
97.9715198391
 10
129.7201914896
 20
97.9713693223
 10
129.7279680969
 20
97.9709076643
 10
129.7357248385
 20
97.9700952129
 10
129.7434641958
 20
97.9689423127
 10
129.7511688275
 20
97.9674567769
 10
129.7588100217
 20
97.9655979586
 10
129.7663874719
 20
97.9633725971
 10
129.7738821779
 20
97.9607977786
 10
129.7812358072
 20
97.9578502681
 10
129.7884250296
 20
97.9545493044
 10
129.795451273
 20
97.9509031208
 10
129.8022911625
 20
97.9468747159
 10
129.8089275118
 20
97.9424965531
 10
129.8153498725
 20
97.937771759
 10
129.8215392219
 20
97.932626751
 10
129.8274915321
 20
97.9270920816
 10
129.8331715266
 20
97.9211893102
 10
129.8385052827
 20
97.9148419091
 10
129.8434773023
 20
97.908095411
 10
129.8480520981
 20
97.9009742891
 10
129.8521163956
 20
97.8933830989
 10
129.8556536647
 20
97.8853638805
 10
129.8586127137
 20
97.8769713882
 10
129.8608202528
 20
97.8681406116
 10
129.862234661
 20
97.8588593158
 10
129.8628159732
 20
97.8492624958
 10
129.8624082346
 20
97.8394856691
 10
129.8609436106
 20
97.8295154138
 10
129.8584437544
 20
97.8194445965
 10
129.8549313258
 20
97.809504027
 10
129.8504048144
 20
97.7997232342
 10
129.8448780488
 20
97.7900679472
 10
129.8384304664
 20
97.7806224579
 10
129.8310809147
 20
97.7713873195
 10
129.8228340186
 20
97.7623385761
 10
129.8137568243
 20
97.7535095631
 10
129.8038633137
 20
97.7448879838
 10
129.7934513367
 20
97.7366850236
  0
LINE
  5
54B
100
AcDbEntity
  8
0
100
AcDbLine
 62
7
  6
CONTINUOUS
 10
113.9626057126
 20
91.3352503151
 11
114.4034108853
 21
91.5333134698
  0
LINE
  5
54C
100
AcDbEntity
  8
0
100
AcDbLine
 62
253
  6
CONTINUOUS
 10
113.9626057126
 20
91.2656550853
 11
114.403410886
 21
91.4637182404
  0
LWPOLYLINE
  5
54D
100
AcDbEntity
  8
0
100
AcDbPolyline
 62
7
  6
CONTINUOUS
 90
6
 70
0
 10
100.7496537667
 20
106.0964418567
 10
100.7496826729
 20
106.0964453248
 10
100.7505991765
 20
106.0969895538
 10
100.7528213042
 20
106.0983254394
 10
100.756381942
 20
106.1003082648
 10
100.7667131566
 20
106.1063273931
  0
LWPOLYLINE
  5
54E
100
AcDbEntity
  8
0
100
AcDbPolyline
 62
253
  6
CONTINUOUS
 90
11
 70
0
 10
104.225985936
 20
105.4102735402
 10
104.2332451783
 20
105.4097835112
 10
104.2536264497
 20
105.4107159083
 10
104.2738691831
 20
105.41501993
 10
104.293628821
 20
105.422622496
 10
104.3125825309
 20
105.4334029084
 10
104.3303944184
 20
105.4471737843
 10
104.3467291397
 20
105.4636636738
 10
104.3613105361
 20
105.4825629876
 10
104.3739166674
 20
105.5035497274
 10
104.3843491856
 20
105.5262597796
  0
LINE
  5
54F
100
AcDbEntity
  8
0
100
AcDbLine
 62
7
  6
CONTINUOUS
 10
104.2259835366
 20
105.4102737745
 11
104.877937188
 21
105.3466223091
  0
LINE
  5
550
100
AcDbEntity
  8
0
100
AcDbLine
 62
253
  6
CONTINUOUS
 10
104.3843491856
 20
105.5262597796
 11
105.1037985616
 21
105.4560185793
  0
LWPOLYLINE
  5
551
100
AcDbEntity
  8
0
100
AcDbPolyline
 62
7
  6
CONTINUOUS
 90
4
 70
0
 10
104.0782714886
 20
108.1303706339
 10
104.0957819091
 20
108.127119449
 10
104.1139214131
 20
108.1208100316
 10
104.1323841265
 20
108.1115528804
  0
LWPOLYLINE
  5
552
100
AcDbEntity
  8
0
100
AcDbPolyline
 62
253
  6
CONTINUOUS
 90
7
 70
0
 10
106.5559671349
 20
107.4216694399
 10
106.5426582334
 20
107.4275359468
 10
106.5273934106
 20
107.4306437727
 10
106.5110291548
 20
107.4306683098
 10
106.4939000409
 20
107.4276805716
 10
106.4762685358
 20
107.4217935515
 10
106.4584305683
 20
107.413161338
  0
LWPOLYLINE
  5
553
100
AcDbEntity
  8
0
100
AcDbPolyline
 62
253
  6
CONTINUOUS
 90
7
 70
0
 10
98.671705774
 20
111.5657079933
 10
98.6592995284
 20
111.5712751117
 10
98.6441469674
 20
111.5745662584
 10
98.6277740403
 20
111.5747777616
 10
98.6104606808
 20
111.5719092145
 10
98.5924980872
 20
111.5660118968
 10
98.5741899581
 20
111.5571879152
  0
LWPOLYLINE
  5
554
100
AcDbEntity
  8
0
100
AcDbPolyline
 62
253
  6
CONTINUOUS
 90
8
 70
0
 10
94.9536162829
 20
111.9200824167
 10
94.9347844969
 20
111.9291923683
 10
94.916314864
 20
111.9353551831
 10
94.8985265667
 20
111.9384619346
 10
94.8817254609
 20
111.9384561402
 10
94.8662051238
 20
111.9353346542
 10
94.8522400156
 20
111.9291516671
 10
94.8509350702
 20
111.9283665162
  0
LWPOLYLINE
  5
555
100
AcDbEntity
  8
0
100
AcDbPolyline
 62
253
  6
CONTINUOUS
 90
8
 70
0
 10
90.2283434438
 20
114.2258301425
 10
90.2095116577
 20
114.2349400941
 10
90.1910420248
 20
114.2411029089
 10
90.1732537275
 20
114.2442096604
 10
90.1564526217
 20
114.244203866
 10
90.1409322846
 20
114.24108238
 10
90.1269671764
 20
114.2348993929
 10
90.125662231
 20
114.234114242
  0
LWPOLYLINE
  5
556
100
AcDbEntity
  8
0
100
AcDbPolyline
 62
253
  6
CONTINUOUS
 90
8
 70
0
 10
99.5021124268
 20
110.1246384776
 10
99.4832806408
 20
110.1337484292
 10
99.4648110079
 20
110.139911244
 10
99.4470227106
 20
110.1430179955
 10
99.4302216048
 20
110.1430122011
 10
99.4147012676
 20
110.1398907151
 10
99.4007361595
 20
110.133707728
 10
99.399431214
 20
110.1329225771
  0
LINE
  5
557
100
AcDbEntity
  8
0
100
AcDbLine
 62
7
  6
CONTINUOUS
 10
100.3677315844
 20
110.5848737155
 11
100.3886098565
 21
110.5743890842
  0
LINE
  5
558
100
AcDbEntity
  8
0
100
AcDbLine
 62
7
  6
CONTINUOUS
 10
104.7871489668
 20
108.4413926456
 11
104.8080272389
 21
108.4309080143
  0
LWPOLYLINE
  5
559
100
AcDbEntity
  8
0
100
AcDbPolyline
 62
253
  6
CONTINUOUS
 90
7
 70
0
 10
100.5590482777
 20
108.6835762355
 10
100.5405346407
 20
108.6928820366
 10
100.5223765186
 20
108.6992369782
 10
100.5048879545
 20
108.7025280973
 10
100.4883695777
 20
108.7026949811
 10
100.4731109709
 20
108.6997306366
 10
100.4589593205
 20
108.6934354694
  0
LWPOLYLINE
  5
55A
100
AcDbEntity
  8
0
100
AcDbPolyline
 62
253
  6
CONTINUOUS
 90
13
 70
0
 10
95.1875048837
 20
111.4613091974
 10
95.2072596813
 20
111.4513117012
 10
95.2291216487
 20
111.4428926175
 10
95.2527154255
 20
111.4361990815
 10
95.2776388759
 20
111.4313480751
 10
95.303458717
 20
111.4284266751
 10
95.3297168928
 20
111.427487525
 10
95.356013817
 20
111.4285506508
 10
95.3818378141
 20
111.4316011075
 10
95.4065765748
 20
111.4365454414
 10
95.4297780305
 20
111.4432432387
 10
95.4511402642
 20
111.4515548495
 10
95.4703475962
 20
111.4613091974
  0
LWPOLYLINE
  5
55B
100
AcDbEntity
  8
0
100
AcDbPolyline
 62
253
  6
CONTINUOUS
 90
13
 70
0
 10
91.8003381626
 20
112.994451221
 10
91.8198593995
 20
112.9845572447
 10
91.8414447167
 20
112.9762048581
 10
91.8647317293
 20
112.969536742
 10
91.8893323252
 20
112.9646667845
 10
91.9148284098
 20
112.9616803612
 10
91.9407778855
 20
112.9606300372
 10
91.9667948025
 20
112.9615369346
 10
91.9923843174
 20
112.9643893042
 10
92.0169527422
 20
112.969100836
 10
92.0400597003
 20
112.9755394394
 10
92.0614093368
 20
112.983572847
 10
92.080691193
 20
112.9930385826
  0
LWPOLYLINE
  5
55C
100
AcDbEntity
  8
0
100
AcDbPolyline
 62
253
  6
CONTINUOUS
 90
13
 70
0
 10
97.658654297
 20
110.8652992253
 10
97.6781755339
 20
110.8554052489
 10
97.6997608511
 20
110.8470528624
 10
97.7230478637
 20
110.8403847463
 10
97.7476484596
 20
110.8355147888
 10
97.7731445442
 20
110.8325283654
 10
97.7990940198
 20
110.8314780415
 10
97.8251109369
 20
110.8323849389
 10
97.8507004518
 20
110.8352373085
 10
97.8752688766
 20
110.8399488403
 10
97.8983758347
 20
110.8463874437
 10
97.9197254711
 20
110.8544208513
 10
97.9390073273
 20
110.8638865869
  0
LINE
  5
55D
100
AcDbEntity
  8
0
100
AcDbLine
 62
253
  6
CONTINUOUS
 10
100.931330339
 20
108.9756970949
 11
99.3631592136
 21
109.8811394489
  0
LINE
  5
55E
100
AcDbEntity
  8
0
100
AcDbLine
 62
253
  6
CONTINUOUS
 10
97.658654297
 20
110.8652992253
 11
96.0360330211
 21
111.8021804137
  0
LINE
  5
55F
100
AcDbEntity
  8
0
100
AcDbLine
 62
7
  6
CONTINUOUS
 10
107.0546100607
 20
105.5120063138
 11
106.087883572
 21
106.0701820725
  0
LINE
  5
560
100
AcDbEntity
  8
0
100
AcDbLine
 62
7
  6
CONTINUOUS
 10
95.0547913026
 20
112.4405512717
 11
93.7842255793
 21
113.1741599964
  0
LINE
  5
561
100
AcDbEntity
  8
0
100
AcDbLine
 62
7
  6
CONTINUOUS
 10
98.7717218151
 20
110.2944421779
 11
99.3060463005
 21
109.9859299167
  0
LINE
  5
562
100
AcDbEntity
  8
0
100
AcDbLine
 62
253
  6
CONTINUOUS
 10
101.2661550589
 20
109.1061023705
 11
99.5021124268
 21
110.1246384776
  0
LINE
  5
563
100
AcDbEntity
  8
0
100
AcDbLine
 62
253
  6
CONTINUOUS
 10
97.7976075102
 20
111.108798254
 11
96.0335648781
 21
112.1273343611
  0
LINE
  5
564
100
AcDbEntity
  8
0
100
AcDbLine
 62
7
  6
CONTINUOUS
 10
95.8592347867
 20
112.480130484
 11
98.0159535476
 21
111.2348681014
  0
LINE
  5
565
100
AcDbEntity
  8
0
100
AcDbLine
 62
7
  6
CONTINUOUS
 10
99.7129667441
 20
110.2550339503
 11
101.8696855051
 21
109.0097715678
  0
LINE
  5
566
100
AcDbEntity
  8
0
100
AcDbLine
 62
7
  6
CONTINUOUS
 10
95.2068148495
 20
113.2021972054
 11
95.5250129011
 21
113.0184736384
  0
LINE
  5
567
100
AcDbEntity
  8
0
100
AcDbLine
 62
7
  6
CONTINUOUS
 10
106.7293907902
 20
106.549206269
 11
106.8667026518
 21
106.4699241211
  0
LINE
  5
568
100
AcDbEntity
  8
0
100
AcDbLine
 62
7
  6
CONTINUOUS
 10
95.7381156812
 20
112.8954426546
 11
95.5250129011
 21
113.0184736384
  0
LINE
  5
569
100
AcDbEntity
  8
0
100
AcDbLine
 62
7
  6
CONTINUOUS
 10
91.8287261339
 20
115.2155308043
 11
93.5965361652
 21
114.1948194481
  0
LINE
  5
56A
100
AcDbEntity
  8
0
100
AcDbLine
 62
7
  6
CONTINUOUS
 10
104.1323841265
 20
108.1115528804
 11
105.9001941578
 21
107.0908415242
  0
LINE
  5
56B
100
AcDbEntity
  8
0
100
AcDbLine
 62
7
  6
CONTINUOUS
 10
95.2068148495
 20
113.4129357823
 11
95.5250129011
 21
113.2292122153
  0
LINE
  5
56C
100
AcDbEntity
  8
0
100
AcDbLine
 62
7
  6
CONTINUOUS
 10
106.7293907902
 20
106.7599448459
 11
107.0475888418
 21
106.5762212789
  0
LINE
  5
56D
100
AcDbEntity
  8
0
100
AcDbLine
 62
253
  6
CONTINUOUS
 10
96.8163186234
 20
112.5721607926
 11
98.5741899581
 21
111.5571879152
  0
LINE
  5
56E
100
AcDbEntity
  8
0
100
AcDbLine
 62
253
  6
CONTINUOUS
 10
100.2910374695
 20
110.5659016793
 11
102.0489088042
 21
109.550928802
  0
LINE
  5
56F
100
AcDbEntity
  8
0
100
AcDbLine
 62
7
  6
CONTINUOUS
 10
97.0110038615
 20
112.5245764691
 11
98.6717266472
 21
111.5656959464
  0
LINE
  5
570
100
AcDbEntity
  8
0
100
AcDbLine
 62
7
  6
CONTINUOUS
 10
100.3885741585
 20
110.5744097105
 11
102.0492965436
 21
109.6155294191
  0
LINE
  5
571
100
AcDbEntity
  8
0
100
AcDbLine
 62
253
  6
CONTINUOUS
 10
106.4584305683
 20
107.413161338
 11
104.7104548519
 21
108.4224206094
  0
LINE
  5
572
100
AcDbEntity
  8
0
100
AcDbLine
 62
253
  6
CONTINUOUS
 10
94.1547725757
 20
114.5171392619
 11
92.4067968593
 21
115.5263985333
  0
LINE
  5
573
100
AcDbEntity
  8
0
100
AcDbLine
 62
7
  6
CONTINUOUS
 10
106.5559672574
 20
107.4216693692
 11
104.8079915409
 21
108.4309286406
  0
LINE
  5
574
100
AcDbEntity
  8
0
100
AcDbLine
 62
7
  6
CONTINUOUS
 10
94.2523092647
 20
114.5256472931
 11
92.5043335483
 21
115.5349065645
  0
LWPOLYLINE
  5
575
100
AcDbEntity
  8
0
100
AcDbPolyline
 62
253
  6
CONTINUOUS
 90
13
 70
0
 10
106.4584305683
 20
107.413161338
 10
106.4771842805
 20
107.4012779004
 10
106.4955750215
 20
107.3867808398
 10
106.5132882424
 20
107.3699181087
 10
106.5300209825
 20
107.3509781214
 10
106.5454870509
 20
107.330284821
 10
106.5594219212
 20
107.3081921384
 10
106.5715872563
 20
107.2850779392
 10
106.5817749846
 20
107.2613375605
 10
106.5898108586
 20
107.2373770496
 10
106.5955574357
 20
107.2136062187
 10
106.5989164283
 20
107.1904316358
 10
106.5998303854
 20
107.1682496709
  0
LWPOLYLINE
  5
576
100
AcDbEntity
  8
0
100
AcDbPolyline
 62
253
  6
CONTINUOUS
 90
13
 70
0
 10
98.5741899581
 20
111.5571879152
 10
98.5930217442
 20
111.5452490033
 10
98.6114913771
 20
111.5306709657
 10
98.6292796743
 20
111.513703224
 10
98.6460807802
 20
111.4946343537
 10
98.6616011173
 20
111.4737941978
 10
98.6755662254
 20
111.4515502471
 10
98.687758133
 20
111.4282387515
 10
98.6979353239
 20
111.4043089375
 10
98.7058770088
 20
111.3803335063
 10
98.7114817782
 20
111.3567745488
 10
98.7147214636
 20
111.3339678798
 10
98.7155897752
 20
111.3122762481
  0
LWPOLYLINE
  5
577
100
AcDbEntity
  8
0
100
AcDbPolyline
 62
253
  6
CONTINUOUS
 90
13
 70
0
 10
94.1547725757
 20
114.5171392619
 10
94.1736043617
 20
114.50520035
 10
94.1920739947
 20
114.4906223124
 10
94.2098622919
 20
114.4736545707
 10
94.2266633977
 20
114.4545857004
 10
94.2421837349
 20
114.4337455445
 10
94.256148843
 20
114.4115015938
 10
94.2683407506
 20
114.3881900982
 10
94.2785179415
 20
114.3642602842
 10
94.2864596263
 20
114.340284853
 10
94.2920643957
 20
114.3167258955
 10
94.2953040812
 20
114.2939192265
 10
94.2961723928
 20
114.2722275948
  0
LWPOLYLINE
  5
578
100
AcDbEntity
  8
0
100
AcDbPolyline
 62
7
  6
CONTINUOUS
 90
13
 70
0
 10
105.9001941578
 20
107.0908415242
 10
105.9186454262
 20
107.078785005
 10
105.9367878233
 20
107.0641457074
 10
105.9543067958
 20
107.0471713597
 10
105.9708979944
 20
107.0281491679
 10
105.986276439
 20
107.0074039305
 10
106.0001815395
 20
106.9852926423
 10
106.0123778715
 20
106.9621949234
 10
106.0226543873
 20
106.9385044659
 10
106.0308322186
 20
106.9146254396
 10
106.036772576
 20
106.8909670358
 10
106.040378913
 20
106.8679364211
 10
106.0415939749
 20
106.8459298571
  0
LINE
  5
579
100
AcDbEntity
  8
0
100
AcDbLine
 62
253
  6
CONTINUOUS
 10
118.540607286
 20
113.9530819401
 11
118.540607286
 21
113.3087359982
  0
LWPOLYLINE
  5
57A
100
AcDbEntity
  8
0
100
AcDbPolyline
 62
253
  6
CONTINUOUS
 90
12
 70
0
 10
118.7700068585
 20
114.399965681
 10
118.7685901229
 20
114.3549094099
 10
118.7626221159
 20
114.298615853
 10
118.7522114729
 20
114.2456970869
 10
118.7375474738
 20
114.1959775191
 10
118.7189532592
 20
114.1498681847
 10
118.6967981547
 20
114.107689155
 10
118.6713336074
 20
114.0693641318
 10
118.6427331037
 20
114.0346842836
 10
118.6112129043
 20
114.003642937
 10
118.5770809609
 20
113.9764210024
 10
118.540607286
 20
113.9530819401
  0
LWPOLYLINE
  5
57B
100
AcDbEntity
  8
RACCORDO
100
AcDbPolyline
 62
253
  6
CONTINUOUS
 90
52
 70
0
 10
119.8241495804
 20
114.7589280605
 10
119.8284267327
 20
114.7828305716
 10
119.847434931
 20
114.8536125565
 10
119.8725965476
 20
114.9235744212
 10
119.9039662048
 20
114.9927203593
 10
119.9414892803
 20
115.061046177
 10
119.9848628121
 20
115.1279977398
 10
120.0341460305
 20
115.1935666428
 10
120.0892797051
 20
115.2577612908
 10
120.1497831835
 20
115.3200527635
 10
120.2156555351
 20
115.3803931021
 10
120.2868976904
 20
115.4388302652
 10
120.3630317881
 20
115.4949792085
 10
120.444048417
 20
115.5488237568
 10
120.5299569884
 20
115.6003800852
 10
120.6203078741
 20
115.6493116742
 10
120.7153581543
 20
115.6956865094
 10
120.8148507488
 20
115.7394366053
 10
120.9175647892
 20
115.7800214858
 10
121.0239056579
 20
115.8174104651
 10
121.1334679725
 20
115.8516342291
 10
121.2438147169
 20
115.8822443589
 10
121.3549192339
 20
115.9090344369
 10
121.4668081806
 20
115.9322108808
 10
121.5771245127
 20
115.9519445245
 10
121.6855150026
 20
115.9680812292
 10
121.7923328779
 20
115.9807751337
 10
121.896280777
 20
115.9906594889
 10
121.9971166114
 20
115.9977065833
 10
122.0950824697
 20
116.0019441283
 10
122.189607256
 20
116.0040885093
 10
122.2805289961
 20
116.004164573
 10
122.3680096643
 20
116.0021474728
 10
122.4519640877
 20
115.9986790539
 10
122.5322681611
 20
115.9938072886
 10
122.6090459896
 20
115.9874842048
 10
122.6825847161
 20
115.9802077305
 10
122.7528512498
 20
115.9720249563
 10
122.8198786814
 20
115.9628887917
 10
122.8840534255
 20
115.9531558933
 10
122.9453611723
 20
115.942866109
 10
123.0038162317
 20
115.9319795909
 10
123.0598479482
 20
115.9207334529
 10
123.1134525318
 20
115.9091608508
 10
123.1646337725
 20
115.8972286286
 10
123.2138323848
 20
115.8850744322
 10
123.2610515297
 20
115.8727246465
 10
123.3062880462
 20
115.8601528865
 10
123.3499731661
 20
115.8474176432
 10
123.3922506332
 20
115.8345384138
 10
123.4329767036
 20
115.8214957011
 10
123.4721513773
 20
115.8082895052
  0
LINE
  5
57C
100
AcDbEntity
  8
0
100
AcDbLine
 62
7
  6
CONTINUOUS
 10
105.2991318547
 20
82.5140482455
 11
105.0516444812
 21
82.3661640982
  0
LINE
  5
57D
100
AcDbEntity
  8
0
100
AcDbLine
 62
7
  6
CONTINUOUS
 10
105.3634889203
 20
83.3074794782
 11
104.2844971714
 21
82.684485231
  0
LINE
  5
57E
100
AcDbEntity
  8
0
100
AcDbLine
 62
253
  6
CONTINUOUS
 10
102.8217656681
 20
80.4111977804
 11
102.7899225958
 21
80.3928120505
  0
LINE
  5
57F
100
AcDbEntity
  8
0
100
AcDbLine
 62
253
  6
CONTINUOUS
 10
103.0177566711
 20
80.034529336
 11
102.7899225958
 21
79.9029812326
  0
LINE
  5
580
100
AcDbEntity
  8
0
100
AcDbLine
 62
253
  6
CONTINUOUS
 10
105.3634889203
 20
83.8044910266
 11
103.9942061965
 21
83.0410110269
  0
LINE
  5
581
100
AcDbEntity
  8
0
100
AcDbLine
 62
7
  6
CONTINUOUS
 10
105.2991318547
 20
81.7403325938
 11
105.0516444812
 21
81.6024245257
  0
LINE
  5
582
100
AcDbEntity
  8
0
100
AcDbLine
 62
253
  6
CONTINUOUS
 10
102.7899225958
 20
81.6869862222
 11
103.0910665307
 21
81.8498915116
  0
LINE
  5
583
100
AcDbEntity
  8
0
100
AcDbLine
 62
7
  6
CONTINUOUS
 10
102.7899225958
 20
81.5832392606
 11
103.0910665307
 21
81.7461445499
  0
LWPOLYLINE
  5
584
100
AcDbEntity
  8
0
100
AcDbPolyline
 62
7
  6
CONTINUOUS
 90
9
 70
0
 10
101.2661550589
 20
109.1061023705
 10
101.236029973
 20
109.1050550426
 10
101.2065578282
 20
109.1020170643
 10
101.1779049341
 20
109.0971117228
 10
101.1499212888
 20
109.0904949332
 10
101.1230901745
 20
109.0822948944
 10
101.0984712314
 20
109.0726963926
 10
101.0765661258
 20
109.06212901
 10
101.0650285535
 20
109.0556594296
  0
LWPOLYLINE
  5
585
100
AcDbEntity
  8
0
100
AcDbPolyline
 62
7
  6
CONTINUOUS
 90
4
 70
0
 10
99.6588541061
 20
110.2738517038
 10
99.6763645267
 20
110.2706005189
 10
99.6945040307
 20
110.2642911015
 10
99.7129667441
 20
110.2550339503
  0
LWPOLYLINE
  5
586
100
AcDbEntity
  8
0
100
AcDbPolyline
 62
7
  6
CONTINUOUS
 90
4
 70
0
 10
95.8051221487
 20
112.4989482374
 10
95.8226325692
 20
112.4956970525
 10
95.8407720732
 20
112.4893876352
 10
95.8592347867
 20
112.480130484
  0
LWPOLYLINE
  5
587
100
AcDbEntity
  8
0
100
AcDbPolyline
 62
7
  6
CONTINUOUS
 90
3
 70
0
 10
104.7372318031
 20
108.4555765914
 10
104.7625775622
 20
108.4501317518
 10
104.7871489668
 20
108.4413926456
  0
LWPOLYLINE
  5
588
100
AcDbEntity
  8
0
100
AcDbPolyline
 62
7
  6
CONTINUOUS
 90
3
 70
0
 10
100.3178144207
 20
110.5990576613
 10
100.3431601798
 20
110.5936128217
 10
100.3677315844
 20
110.5848737155
  0
LWPOLYLINE
  5
589
100
AcDbEntity
  8
0
100
AcDbPolyline
 62
253
  6
CONTINUOUS
 90
7
 70
0
 10
94.2522883916
 20
114.52565934
 10
94.2398821459
 20
114.5312264584
 10
94.2247295849
 20
114.5345176051
 10
94.2083566579
 20
114.5347291083
 10
94.1910432984
 20
114.5318605612
 10
94.1730807048
 20
114.5259632435
 10
94.1547725757
 20
114.5171392619
  0
LINE
  5
58A
100
AcDbEntity
  8
0
100
AcDbLine
 62
7
  6
CONTINUOUS
 10
92.4834909741
 20
115.5453705695
 11
92.5043692463
 21
115.5348859382
  0
LINE
  5
58B
100
AcDbEntity
  8
0
100
AcDbLine
 62
7
  6
CONTINUOUS
 10
114.4367926008
 20
107.5905623829
 11
113.2954388274
 21
109.5674451058
  0
LWPOLYLINE
  5
58C
100
AcDbEntity
  8
0
100
AcDbPolyline
 62
253
  6
CONTINUOUS
 90
10
 70
0
 10
118.540607286
 20
113.9530819401
 10
118.5401954865
 20
113.9714072263
 10
118.5384302794
 20
113.9903627968
 10
118.535325094
 20
114.009804444
 10
118.5309035541
 20
114.0295842622
 10
118.5251992972
 20
114.0495517736
 10
118.5182557181
 20
114.0695550733
 10
118.5101256406
 20
114.0894419833
 10
118.5008709161
 20
114.1090612106
 10
118.4905619511
 20
114.1282634989
  0
LWPOLYLINE
  5
58D
100
AcDbEntity
  8
0
100
AcDbPolyline
 62
7
  6
CONTINUOUS
 90
8
 70
0
 10
118.7700076872
 20
114.3998388818
 10
118.7698160707
 20
114.4194543657
 10
118.7661559491
 20
114.4881049497
 10
118.7578071723
 20
114.5585109176
 10
118.744771468
 20
114.6304398391
 10
118.7270640806
 20
114.7036075053
 10
118.7046190916
 20
114.7778070497
 10
118.6762397623
 20
114.8557332387
  0
LINE
  5
58E
100
AcDbEntity
  8
0
100
AcDbLine
 62
7
  6
CONTINUOUS
 10
118.7700069267
 20
114.4022822193
 11
118.7700069267
 21
113.6905357235
  0
LINE
  5
58F
100
AcDbEntity
  8
0
100
AcDbLine
 62
253
  6
CONTINUOUS
 10
120.0607684945
 20
116.492212337
 11
120.0607684945
 21
116.105466574
  0
LINE
  5
590
100
AcDbEntity
  8
DRAFT
100
AcDbLine
 62
7
  6
CONTINUOUS
 10
120.7434786925
 20
116.5019689412
 11
120.7434786925
 21
116.0937338028
  0
LWPOLYLINE
  5
591
100
AcDbEntity
  8
0
100
AcDbPolyline
 62
7
  6
CONTINUOUS
 90
38
 70
0
 10
119.2722072297
 20
115.3792977189
 10
119.2723914881
 20
115.3976781205
 10
119.2736889766
 20
115.4314144543
 10
119.2762278557
 20
115.4651272492
 10
119.2800069785
 20
115.4988012784
 10
119.2850246382
 20
115.532421333
 10
119.2912785685
 20
115.565972228
 10
119.2987659448
 20
115.5994388099
 10
119.3074833854
 20
115.6328059634
 10
119.3174269529
 20
115.6660586178
 10
119.3285921563
 20
115.6991817543
 10
119.3409739526
 20
115.7321604127
 10
119.3545667497
 20
115.7649796977
 10
119.3693644081
 20
115.7976247864
 10
119.3853602444
 20
115.8300809343
 10
119.4025470339
 20
115.8623334822
 10
119.4209170141
 20
115.8943678632
 10
119.4404618881
 20
115.9261696086
 10
119.4611728282
 20
115.9577243549
 10
119.4830404801
 20
115.9890178501
 10
119.5060549673
 20
116.0200359603
 10
119.5302058949
 20
116.0507646759
 10
119.555482355
 20
116.081190118
 10
119.5818729314
 20
116.1112985448
 10
119.6093657045
 20
116.1410763575
 10
119.6379482569
 20
116.1705101066
 10
119.6676076792
 20
116.1995864984
 10
119.6983305753
 20
116.2282924
 10
119.7301030691
 20
116.2566148464
 10
119.7629108103
 20
116.2845410454
 10
119.7967389809
 20
116.312058384
 10
119.8315723023
 20
116.3391544336
 10
119.8673950416
 20
116.3658169562
 10
119.9041910193
 20
116.3920339095
 10
119.941943616
 20
116.4177934522
 10
119.9806357807
 20
116.44308395
 10
120.0202500375
 20
116.4678939801
 10
120.0607684945
 20
116.492212337
  0
LWPOLYLINE
  5
592
100
AcDbEntity
  8
RACCORDO
100
AcDbPolyline
 62
7
  6
CONTINUOUS
 90
19
 70
0
 10
129.4826019613
 20
109.0669999646
 10
129.4878581019
 20
109.0754863951
 10
129.4932560602
 20
109.0839268414
 10
129.4987958361
 20
109.0923213036
 10
129.5044743277
 20
109.1006757517
 10
129.510294637
 20
109.1089842158
 10
129.5162660696
 20
109.1172287856
 10
129.5223887519
 20
109.1254086866
 10
129.5286625575
 20
109.1335246934
 10
129.5350964127
 20
109.1415612202
 10
129.5416929004
 20
109.1495203272
 10
129.5484494377
 20
109.1573999543
 10
129.5553672019
 20
109.1651783354
 10
129.5624508756
 20
109.1728585076
 10
129.5696957762
 20
109.1804374338
 10
129.577089033
 20
109.1878842365
 10
129.5846263556
 20
109.1951886233
 10
129.5923120343
 20
109.2023608865
 10
129.6001460692
 20
109.2094010263
  0
LINE
  5
593
100
AcDbEntity
  8
0
100
AcDbLine
 62
7
  6
CONTINUOUS
 10
103.0271649244
 20
68.6611264924
 11
102.7899225958
 21
68.3583126449
  0
LINE
  5
594
100
AcDbEntity
  8
0
100
AcDbLine
 62
253
  6
CONTINUOUS
 10
103.089046669
 20
68.606661065
 11
102.7899225958
 21
68.2248619483
  0
LWPOLYLINE
  5
595
100
AcDbEntity
  8
RACCORDO
100
AcDbPolyline
 62
253
  6
CONTINUOUS
 90
57
 70
0
 10
129.4826019613
 20
97.7997178711
 10
129.4883708654
 20
97.8052175769
 10
129.4941165808
 20
97.8105229478
 10
129.4998379731
 20
97.8156341338
 10
129.5055285498
 20
97.8205526668
 10
129.5111926015
 20
97.8252772409
 10
129.5168446967
 20
97.8298039729
 10
129.5224852488
 20
97.8341362122
 10
129.5281104897
 20
97.8382713277
 10
129.5337279381
 20
97.8421968272
 10
129.5393372677
 20
97.845914808
 10
129.5449347095
 20
97.8494241053
 10
129.5505221484
 20
97.8527075197
 10
129.5560967629
 20
97.8557651711
 10
129.5616568497
 20
97.8585978978
 10
129.5672055782
 20
97.8611897082
 10
129.5727311008
 20
97.8635398177
 10
129.57824032
 20
97.8656499633
 10
129.5837629572
 20
97.8675085419
 10
129.5892842105
 20
97.8691224373
 10
129.5948109894
 20
97.8704866707
 10
129.6004013305
 20
97.8715734475
 10
129.6060548972
 20
97.8723962916
 10
129.6117569575
 20
97.8729458614
 10
129.6175387285
 20
97.8731618707
 10
129.6234042834
 20
97.8730486245
 10
129.6293280394
 20
97.8726074652
 10
129.6352943494
 20
97.8717742689
 10
129.6412958796
 20
97.8705437763
 10
129.6473168593
 20
97.8689263053
 10
129.6533297879
 20
97.8668805555
 10
129.6593120826
 20
97.8644079779
 10
129.6652640015
 20
97.8615107598
 10
129.6711913624
 20
97.8581486447
 10
129.6770762966
 20
97.854326655
 10
129.6829085394
 20
97.8500436963
 10
129.6887002265
 20
97.8452512854
 10
129.6944426027
 20
97.8399394269
 10
129.7001063188
 20
97.8341227041
 10
129.7056691496
 20
97.8277898358
 10
129.7111096578
 20
97.8209365614
 10
129.7164089908
 20
97.8135699224
 10
129.7215479119
 20
97.8056951612
 10
129.7264901324
 20
97.797335874
 10
129.7312290881
 20
97.7884692101
 10
129.7357801449
 20
97.7790316256
 10
129.7401106411
 20
97.7690233272
 10
129.7441859043
 20
97.7584451181
 10
129.7479984632
 20
97.7472359456
 10
129.7515047943
 20
97.7353779982
 10
129.754652958
 20
97.7228878086
 10
129.7574041211
 20
97.7097560641
 10
129.7596976827
 20
97.6959786687
 10
129.7614755229
 20
97.6815521675
 10
129.7626804376
 20
97.6664670602
 10
129.7632358006
 20
97.6505965834
 10
129.7632617254
 20
97.6468398126
  0
LWPOLYLINE
  5
596
100
AcDbEntity
  8
0
100
AcDbPolyline
 62
7
  6
CONTINUOUS
 90
9
 70
0
 10
103.1350005135
 20
72.8322849008
 10
103.1237781071
 20
72.8220508172
 10
103.1143393149
 20
72.8126669541
 10
103.106601678
 20
72.8041957902
 10
103.1004088753
 20
72.7967416548
 10
103.0957342447
 20
72.7902696466
 10
103.0927025766
 20
72.7846277985
 10
103.091249571
 20
72.7798238993
 10
103.0910745805
 20
72.7779331992
  0
LWPOLYLINE
  5
597
100
AcDbEntity
  8
RACCORDO
100
AcDbPolyline
 62
7
  6
CONTINUOUS
 90
136
 70
0
 10
129.6001460072
 20
97.9421111487
 10
129.6595123944
 20
97.9945436124
 10
129.7170019357
 20
98.0456245063
 10
129.7726146311
 20
98.0953538304
 10
129.8262953964
 20
98.14369292
 10
129.8780993157
 20
98.1906804399
 10
129.9281916423
 20
98.2364323836
 10
129.9765798099
 20
98.2809543648
 10
130.0232563847
 20
98.32424077
 10
130.0683643183
 20
98.3663907516
 10
130.1119078388
 20
98.4074071812
 10
130.153882718
 20
98.4472871873
 10
130.1944192229
 20
98.486121308
 10
130.2335212468
 20
98.5239122004
 10
130.2711848964
 20
98.5606572075
 10
130.307528758
 20
98.5964388961
 10
130.3425564275
 20
98.6312597446
 10
130.376264309
 20
98.6651172745
 10
130.4087602016
 20
98.6980866177
 10
130.4400474257
 20
98.7301700999
 10
130.4701226608
 20
98.7613653953
 10
130.4990837448
 20
98.7917406582
 10
130.5269337452
 20
98.821298095
 10
130.5536695945
 20
98.8500354994
 10
130.579379927
 20
98.878014407
 10
130.604067572
 20
98.9052369384
 10
130.6277297003
 20
98.931700973
 10
130.650446459
 20
98.9574616842
 10
130.6722204424
 20
98.9825211441
 10
130.6930490561
 20
99.0068772806
 10
130.7130046645
 20
99.0305790501
 10
130.7320896139
 20
99.0536285148
 10
130.7503015579
 20
99.0760236127
 10
130.7677058208
 20
99.0978071137
 10
130.7843044604
 20
99.1189811009
 10
130.8000954189
 20
99.1395434913
 10
130.8151378481
 20
99.1595308054
 10
130.8294334354
 20
99.1789451577
 10
130.8429804934
 20
99.1977844338
 10
130.855833111
 20
99.2160788105
 10
130.8679924725
 20
99.233830394
 10
130.8794573936
 20
99.2510370781
 10
130.8902784111
 20
99.2677227205
 10
130.9004559585
 20
99.2838891609
 10
130.9099896022
 20
99.2995345596
 10
130.9189285782
 20
99.3146772549
 10
130.9272726111
 20
99.3293189447
 10
130.9350219761
 20
99.343457931
 10
130.9422267351
 20
99.3571074594
 10
130.9488855345
 20
99.3702681823
 10
130.9549997279
 20
99.3829394472
 10
130.9606234366
 20
99.3951325414
 10
130.9657519927
 20
99.4068382711
 10
130.9703900642
 20
99.4180658303
 10
130.9746057762
 20
99.4288540883
 10
130.9783971491
 20
99.4391900034
 10
130.9817661626
 20
99.4490866174
 10
130.9847868811
 20
99.4586219252
 10
130.987464686
 20
99.4677945043
 10
130.9897941959
 20
99.4766057772
 10
130.9918333314
 20
99.4851380061
 10
130.9935895108
 20
99.4933968085
 10
130.9950553157
 20
99.5013765669
 10
130.9962664116
 20
99.5091426917
 10
130.9972290648
 20
99.5166998986
 10
130.997937009
 20
99.5240434717
 10
130.9984071113
 20
99.5312246739
 10
130.9986449934
 20
99.5382471518
 10
130.9986450336
 20
99.5451072588
 10
130.9984072333
 20
99.5518453168
 10
130.9979372148
 20
99.5584644002
 10
130.997229356
 20
99.5649614345
 10
130.9962667916
 20
99.571367519
 10
130.9950557876
 20
99.5776854331
 10
130.993590078
 20
99.5839123974
 10
130.9918340002
 20
99.5900711722
 10
130.9897949731
 20
99.5961650088
 10
130.9874655778
 20
99.6021906561
 10
130.9847878936
 20
99.6081611206
 10
130.9817673047
 20
99.6140842585
 10
130.978398427
 20
99.6199522137
 10
130.9746071875
 20
99.6257544243
 10
130.9703916052
 20
99.6315015696
 10
130.9657536612
 20
99.6371829705
 10
130.9606252262
 20
99.6427560273
 10
130.9550016307
 20
99.6482243529
 10
130.9488875442
 20
99.6535843346
 10
130.9422288455
 20
99.6587825344
 10
130.9350241824
 20
99.6638166798
 10
130.9272749072
 20
99.6686890433
 10
130.9189309541
 20
99.6733530047
 10
130.9099920469
 20
99.6778065374
 10
130.900458462
 20
99.6820516679
 10
130.8902809629
 20
99.6860478552
 10
130.8794599834
 20
99.6897937778
 10
130.8679950897
 20
99.6932907572
 10
130.855835745
 20
99.6965022174
 10
130.8429831331
 20
99.6994274679
 10
130.8294360702
 20
99.7020671991
 10
130.8151404679
 20
99.704386907
 10
130.8000980135
 20
99.7063864945
 10
130.7843070197
 20
99.7080660586
 10
130.7677083358
 20
99.7093913855
 10
130.7503040194
 20
99.7103628524
 10
130.7320920129
 20
99.7109800819
 10
130.7130069935
 20
99.711207729
 10
130.6930513074
 20
99.7110465373
 10
130.6722226084
 20
99.710495763
 10
130.650448534
 20
99.7095178297
 10
130.6277316785
 20
99.7081137672
 10
130.6040694477
 20
99.7062825456
 10
130.5793816965
 20
99.7039834986
 10
130.5536712539
 20
99.7012178885
 10
130.5269352909
 20
99.697984453
 10
130.4990851752
 20
99.6942387391
 10
130.4701239743
 20
99.6899822086
 10
130.4400486207
 20
99.6852133997
 10
130.4087612789
 20
99.6798834729
 10
130.3762652693
 20
99.6739940728
 10
130.3425572715
 20
99.6675435548
 10
130.3075294892
 20
99.6604781453
 10
130.2711855181
 20
99.6527996658
 10
130.2335217624
 20
99.6445062947
 10
130.1944196384
 20
99.6355387942
 10
130.1538830396
 20
99.6258991628
 10
130.1119080725
 20
99.6155854019
 10
130.0683644735
 20
99.6045322776
 10
130.0232564708
 20
99.5927419745
 10
129.976579836
 20
99.5802123078
 10
129.9281916212
 20
99.56687149
 10
129.8780992537
 20
99.5527227949
 10
129.826295306
 20
99.5377629485
 10
129.7726145474
 20
99.521910342
 10
129.7170019009
 20
99.5051377722
 10
129.6595124435
 20
99.4874724423
 10
129.6001461751
 20
99.4689143522
  0
LWPOLYLINE
  5
598
100
AcDbEntity
  8
RACCORDO
100
AcDbPolyline
 62
253
  6
CONTINUOUS
 90
100
 70
0
 10
130.8161317644
 20
98.4831795989
 10
130.8321834437
 20
98.4951464057
 10
130.8603467236
 20
98.5173934652
 10
130.8878057718
 20
98.5407194338
 10
130.9145485389
 20
98.5651140793
 10
130.9405632829
 20
98.5905666908
 10
130.9658385908
 20
98.617066098
 10
130.9903634032
 20
98.6446007018
 10
131.0141269946
 20
98.6731584606
 10
131.037118964
 20
98.7027268791
 10
131.0593292212
 20
98.7332929855
 10
131.0807480147
 20
98.7648433595
 10
131.1013659483
 20
98.7973641559
 10
131.1211740006
 20
98.8308411403
 10
131.140163508
 20
98.8652596705
 10
131.1583261576
 20
98.9006046846
 10
131.1756539793
 20
98.9368606773
 10
131.1921393668
 20
98.9740117336
 10
131.2077750897
 20
99.0120415543
 10
131.2225543055
 20
99.0509334914
 10
131.2364705483
 20
99.0906705293
 10
131.2495177243
 20
99.1312352733
 10
131.2616901095
 20
99.1726099321
 10
131.2729823626
 20
99.2147763509
 10
131.2833895325
 20
99.2577160361
 10
131.2929070636
 20
99.301410186
 10
131.30153079
 20
99.3458396745
 10
131.3092569342
 20
99.3909850457
 10
131.3160821075
 20
99.436826505
 10
131.3220033168
 20
99.4833439487
 10
131.3270179667
 20
99.5305169836
 10
131.3311238615
 20
99.5783249468
 10
131.334319203
 20
99.626746899
 10
131.3366025909
 20
99.6757616267
 10
131.3379730241
 20
99.725347647
 10
131.3384299018
 20
99.7754832278
 10
131.337973024
 20
99.8261463997
 10
131.3366025907
 20
99.877314962
 10
131.3343192027
 20
99.9289664888
 10
131.3311238611
 20
99.9810783414
 10
131.3270179662
 20
100.033627689
 10
131.3220033162
 20
100.0865915159
 10
131.3160821069
 20
100.1399466237
 10
131.3092569334
 20
100.1936696222
 10
131.3015307891
 20
100.2477369511
 10
131.2929070626
 20
100.3021249027
 10
131.2833895314
 20
100.356809659
 10
131.2729823615
 20
100.4117672832
 10
131.2616901083
 20
100.4669737128
 10
131.249517723
 20
100.5224047369
 10
131.2364705469
 20
100.5780360329
 10
131.222554304
 20
100.6338431991
 10
131.2077750881
 20
100.6898018043
 10
131.1921393651
 20
100.7458873659
 10
131.1756539775
 20
100.8020753344
 10
131.1583261557
 20
100.8583410613
 10
131.140163506
 20
100.9146598479
 10
131.1211739986
 20
100.9710069854
 10
131.1013659462
 20
101.0273578121
 10
131.0807480125
 20
101.0836876815
 10
131.059329219
 20
101.1399719413
 10
131.0371189617
 20
101.1961858959
 10
131.0141269922
 20
101.2523048643
 10
130.9903634007
 20
101.308304223
 10
130.9658385882
 20
101.3641594655
 10
130.9405632802
 20
101.4198461647
 10
130.9145485361
 20
101.4753399505
 10
130.887805769
 20
101.530616473
 10
130.8603467207
 20
101.5856514622
 10
130.8321834408
 20
101.6404207714
 10
130.8033282559
 20
101.694900432
 10
130.7737937865
 20
101.7490666164
 10
130.7435929574
 20
101.8028956173
 10
130.7127390175
 20
101.8563638172
 10
130.681245511
 20
101.9094477446
 10
130.6491262551
 20
101.9621241127
 10
130.6163953098
 20
102.0143698655
 10
130.5830669947
 20
102.0661621457
 10
130.5491558987
 20
102.1174782801
 10
130.5146768954
 20
102.1682957584
 10
130.479645115
 20
102.2185922811
 10
130.4440759222
 20
102.2683457901
 10
130.4079848908
 20
102.3175345029
 10
130.3713878177
 20
102.3661368899
 10
130.3343007282
 20
102.4141316675
 10
130.2967398844
 20
102.4614977893
 10
130.2587217601
 20
102.508214481
 10
130.2202630234
 20
102.5542612616
 10
130.1813805191
 20
102.5996179639
 10
130.1420912753
 20
102.6442647245
 10
130.1024125036
 20
102.6881819844
 10
130.062361596
 20
102.7313504932
 10
130.0219561076
 20
102.773751329
 10
129.9812137459
 20
102.8153659103
 10
129.9401523625
 20
102.8561760032
 10
129.8987899514
 20
102.8961637241
 10
129.8571446399
 20
102.9353115484
 10
129.8152346747
 20
102.9736023237
 10
129.7730784146
 20
103.0110192768
 10
129.763262161
 20
103.0194789547
  0
LINE
  5
599
100
AcDbEntity
  8
DRAFT
100
AcDbLine
 62
7
  6
CONTINUOUS
 10
129.7933017994
 20
97.7365223606
 11
130.8161317642
 21
98.4831795987
  0
LINE
  5
59A
100
AcDbEntity
  8
RACCORDO
100
AcDbLine
 62
7
  6
CONTINUOUS
 10
123.5715373677
 20
89.2062432674
 11
129.2892277397
 21
92.7421595487
  0
LWPOLYLINE
  5
59B
100
AcDbEntity
  8
RACCORDO
100
AcDbPolyline
 62
253
  6
CONTINUOUS
 90
29
 70
0
 10
123.7673476723
 20
89.6571793841
 10
129.5012632767
 20
93.2030446351
 10
129.5193765403
 20
93.2148002449
 10
129.5369283006
 20
93.2268364666
 10
129.553905524
 20
93.2391443625
 10
129.5702956017
 20
93.2517147922
 10
129.5860863595
 20
93.2645384187
 10
129.6012660701
 20
93.2776057183
 10
129.6158234616
 20
93.2909069875
 10
129.6297477233
 20
93.3044323485
 10
129.6430285149
 20
93.3181717572
 10
129.6556559738
 20
93.3321150102
 10
129.6676207223
 20
93.3462517527
 10
129.6789138752
 20
93.3605714863
 10
129.689527046
 20
93.375063577
 10
129.6994523532
 20
93.3897172625
 10
129.7086824263
 20
93.4045216606
 10
129.7172104107
 20
93.4194657773
 10
129.7250299735
 20
93.4345385145
 10
129.7321353079
 20
93.4497286787
 10
129.7385211374
 20
93.4650249895
 10
129.7441827199
 20
93.4804160872
 10
129.7491158511
 20
93.495890542
 10
129.7533168677
 20
93.5114368624
 10
129.7567826503
 20
93.5270435028
 10
129.7595106252
 20
93.5426988735
 10
129.7614987669
 20
93.5583913485
 10
129.7627455991
 20
93.574109274
 10
129.7632501964
 20
93.5898409774
  0
LINE
  5
59C
100
AcDbEntity
  8
0
100
AcDbLine
 62
7
  6
CONTINUOUS
 10
103.0177566711
 20
77.7526500692
 11
102.7899225958
 21
77.6391655979
  0
LWPOLYLINE
  5
59D
100
AcDbEntity
  8
0
100
AcDbPolyline
 62
7
  6
CONTINUOUS
 90
6
 70
0
 10
94.3856927361
 20
109.7709131967
 10
94.3857216422
 20
109.7709166648
 10
94.3866381459
 20
109.7714608937
 10
94.3888602735
 20
109.7727967794
 10
94.3924209113
 20
109.7747796048
 10
94.4027521259
 20
109.7807987331
  0
LWPOLYLINE
  5
59E
100
AcDbEntity
  8
0
100
AcDbPolyline
 62
7
  6
CONTINUOUS
 90
8
 70
0
 10
106.8090193067
 20
112.2240415632
 10
106.7832300843
 20
112.2211087847
 10
106.756909403
 20
112.2163791842
 10
106.7301561635
 20
112.2097939764
 10
106.7031220438
 20
112.2013256834
 10
106.6758849142
 20
112.1909433597
 10
106.6484682924
 20
112.1785965827
 10
106.6209292877
 20
112.1642442613
  0
LWPOLYLINE
  5
59F
100
AcDbEntity
  8
0
100
AcDbPolyline
 62
253
  6
CONTINUOUS
 90
7
 70
0
 10
107.2901935926
 20
111.7742863709
 10
107.2695568507
 20
111.7741324648
 10
107.2484695984
 20
111.7715921564
 10
107.2269318358
 20
111.7666654454
 10
107.2049435628
 20
111.759352332
 10
107.1825047794
 20
111.7496528162
 10
107.1596154857
 20
111.7375668979
  0
LWPOLYLINE
  5
5A0
100
AcDbEntity
  8
0
100
AcDbPolyline
 62
253
  6
CONTINUOUS
 90
7
 70
0
 10
107.2152426992
 20
112.0368880799
 10
107.1845993119
 20
112.0368732417
 10
107.1527845295
 20
112.0331821933
 10
107.1200141282
 20
112.02583781
 10
107.0865103954
 20
112.0148874462
 10
107.0525006399
 20
112.0004026251
 10
107.0182156687
 20
111.982478565
  0
LINE
  5
5A1
100
AcDbEntity
  8
0
100
AcDbLine
 62
7
  6
CONTINUOUS
 10
95.5250129011
 20
113.2292122153
 11
96.3403292037
 21
113.2251044095
  0
LWPOLYLINE
  5
5A2
100
AcDbEntity
  8
0
100
AcDbPolyline
 62
253
  6
CONTINUOUS
 90
6
 70
0
 10
106.9162330658
 20
112.2075302213
 10
106.8960321036
 20
112.2077702683
 10
106.8753091025
 20
112.2064454518
 10
106.8541232797
 20
112.2035595575
 10
106.8325351752
 20
112.1991208321
 10
106.8106064782
 20
112.1931419595
  0
LWPOLYLINE
  5
5A3
100
AcDbEntity
  8
0
100
AcDbPolyline
 62
7
  6
CONTINUOUS
 90
3
 70
0
 10
106.858857353
 20
112.2248067467
 10
106.8342480103
 20
112.2252507956
 10
106.8090193067
 20
112.2240415632
  0
LWPOLYLINE
  5
5A4
100
AcDbEntity
  8
0
100
AcDbPolyline
 62
7
  6
CONTINUOUS
 90
9
 70
0
 10
96.8163186234
 20
112.5721607926
 10
96.8464437093
 20
112.5707803649
 10
96.8759158541
 20
112.5677562407
 10
96.9045687482
 20
112.5630196572
 10
96.9325523935
 20
112.5564026269
 10
96.9593835079
 20
112.5479723875
 10
96.9840024509
 20
112.538181442
 10
97.0059075565
 20
112.5274128491
 10
97.0123071723
 20
112.5238238754
  0
LINE
  5
5A5
100
AcDbEntity
  8
0
100
AcDbLine
 62
7
  6
CONTINUOUS
 10
106.858857353
 20
112.2248067467
 11
106.8588070403
 21
112.2248093191
  0
LWPOLYLINE
  5
5A6
100
AcDbEntity
  8
0
100
AcDbPolyline
 62
253
  6
CONTINUOUS
 90
11
 70
0
 10
91.9223279433
 20
112.5142514641
 10
91.9295871857
 20
112.5137614351
 10
91.9499684571
 20
112.5146938322
 10
91.9702111904
 20
112.5189978539
 10
91.9899708284
 20
112.5266004199
 10
92.0089245383
 20
112.5373808323
 10
92.0267364258
 20
112.5511517082
 10
92.043071147
 20
112.5676415977
 10
92.0576525435
 20
112.5865409115
 10
92.0702586747
 20
112.6075276513
 10
92.080691193
 20
112.6302377035
  0
LINE
  5
5A7
100
AcDbEntity
  8
0
100
AcDbLine
 62
7
  6
CONTINUOUS
 10
92.5742791953
 20
112.450600233
 11
91.9223255439
 21
112.5142516984
  0
LINE
  5
5A8
100
AcDbEntity
  8
0
100
AcDbLine
 62
253
  6
CONTINUOUS
 10
92.8001405689
 20
112.5599965032
 11
92.080691193
 21
112.6302377035
  0
LINE
  5
5A9
100
AcDbEntity
  8
0
100
AcDbLine
 62
7
  6
CONTINUOUS
 10
106.8876504442
 20
112.2219786784
 11
106.8588062253
 21
112.2247935675
  0
LWPOLYLINE
  5
5AA
100
AcDbEntity
  8
0
100
AcDbPolyline
 62
7
  6
CONTINUOUS
 90
4
 70
0
 10
91.7746134959
 20
115.2343485578
 10
91.7921239165
 20
115.2310973729
 10
91.8102634205
 20
115.2247879555
 10
91.8287261339
 20
115.2155308043
  0
LWPOLYLINE
  5
5AB
100
AcDbEntity
  8
0
100
AcDbPolyline
 62
7
  6
CONTINUOUS
 90
3
 70
0
 10
92.4335738104
 20
115.5595545153
 10
92.4589195696
 20
115.5541096757
 10
92.4834909741
 20
115.5453705695
  0
LWPOLYLINE
  5
5AC
100
AcDbEntity
  8
0
100
AcDbPolyline
 62
253
  6
CONTINUOUS
 90
4
 70
0
 10
106.9162330658
 20
112.2075302213
 10
106.8971952945
 20
112.2166273534
 10
106.8773261103
 20
112.2224468809
 10
106.858857353
 20
112.2248067467
  0
LWPOLYLINE
  5
5AD
100
AcDbEntity
  8
0
100
AcDbPolyline
 62
7
  6
CONTINUOUS
 90
5
 70
0
 10
107.0113539239
 20
112.1804671491
 10
106.9806929446
 20
112.1951197496
 10
106.9497973132
 20
112.2069835913
 10
106.9187406977
 20
112.2159760787
 10
106.8876504442
 20
112.2219786784
  0
LWPOLYLINE
  5
5AE
100
AcDbEntity
  8
0
100
AcDbPolyline
 62
253
  6
CONTINUOUS
 90
6
 70
0
 10
107.017193944
 20
112.1772489202
 10
106.9958622958
 20
112.1875526293
 10
106.9747126758
 20
112.1957655517
 10
106.9543315902
 20
112.2017597094
 10
106.9348068986
 20
112.2056458123
 10
106.9162330658
 20
112.2075302213
  0
LWPOLYLINE
  5
5AF
100
AcDbEntity
  8
0
100
AcDbPolyline
 62
253
  6
CONTINUOUS
 90
4
 70
0
 10
101.3923556045
 20
115.3989348056
 10
101.3736596283
 20
115.4079742598
 10
101.3541136971
 20
115.413773984
 10
101.3385545681
 20
115.4159787556
  0
LWPOLYLINE
  5
5B0
100
AcDbEntity
  8
0
100
AcDbPolyline
 62
7
  6
CONTINUOUS
 90
5
 70
0
 10
101.4864276783
 20
115.37061878
 10
101.456522233
 20
115.385205353
 10
101.4264282461
 20
115.3971383646
 10
101.3961968644
 20
115.4063325388
 10
101.3659211753
 20
115.4126906847
  0
LWPOLYLINE
  5
5B1
100
AcDbEntity
  8
0
100
AcDbPolyline
 62
253
  6
CONTINUOUS
 90
7
 70
0
 10
106.720749846
 20
112.1542316029
 10
106.7022695396
 20
112.1634807263
 10
106.6840632057
 20
112.1697536302
 10
106.6664423598
 20
112.1729429834
 10
106.6497084994
 20
112.1729942153
 10
106.6341479456
 20
112.1699064493
 10
106.6209292877
 20
112.1642442613
  0
LWPOLYLINE
  5
5B2
100
AcDbEntity
  8
0
100
AcDbPolyline
 62
253
  6
CONTINUOUS
 90
7
 70
0
 10
101.1906938425
 20
115.3472166314
 10
101.1725419088
 20
115.3566420499
 10
101.1546582257
 20
115.3630893862
 10
101.1373486693
 20
115.3664483671
 10
101.1209092965
 20
115.3666615421
 10
101.1056212804
 20
115.363725265
 10
101.0935272572
 20
115.3586819675
  0
LWPOLYLINE
  5
5B3
100
AcDbEntity
  8
0
100
AcDbPolyline
 62
253
  6
CONTINUOUS
 90
6
 70
0
 10
107.2931207947
 20
112.0182237369
 10
107.2873208128
 20
112.021271309
 10
107.2719362792
 20
112.0273836544
 10
107.2546763153
 20
112.031912275
 10
107.2357241468
 20
112.0350220762
 10
107.2152426992
 20
112.0368880799
  0
LWPOLYLINE
  5
5B4
100
AcDbEntity
  8
0
100
AcDbPolyline
 62
253
  6
CONTINUOUS
 90
7
 70
0
 10
101.7656243256
 20
115.209732192
 10
101.7600970582
 20
115.2126689773
 10
101.7472938
 20
115.2179952671
 10
101.7331393725
 20
115.2221634297
 10
101.7177475763
 20
115.2252764546
 10
101.7012171682
 20
115.2274402012
 10
101.683642885
 20
115.2287622119
  0
LWPOLYLINE
  5
5B5
100
AcDbEntity
  8
0
100
AcDbPolyline
 62
253
  6
CONTINUOUS
 90
6
 70
0
 10
101.4997435204
 20
115.3632471578
 10
101.488741588
 20
115.3692946952
 10
101.4630258148
 20
115.381366235
 10
101.4382914766
 20
115.3902084972
 10
101.414681974
 20
115.3960102787
 10
101.3923603542
 20
115.3989473681
  0
LINE
  5
5B6
100
AcDbEntity
  8
0
100
AcDbLine
 62
7
  6
CONTINUOUS
 10
107.0281540737
 20
112.1712091797
 11
107.0113539239
 21
112.1804671491
  0
LINE
  5
5B7
100
AcDbEntity
  8
0
100
AcDbLine
 62
7
  6
CONTINUOUS
 10
101.5010994023
 20
115.3624615158
 11
101.4864276783
 21
115.37061878
  0
LINE
  5
5B8
100
AcDbEntity
  8
0
100
AcDbLine
 62
7
  6
CONTINUOUS
 10
107.2936138302
 20
112.0179405595
 11
107.2931207947
 21
112.0182237369
  0
LINE
  5
5B9
100
AcDbEntity
  8
0
100
AcDbLine
 62
7
  6
CONTINUOUS
 10
101.7657985126
 20
115.2096318817
 11
101.7656243256
 21
115.209732192
  0
LINE
  5
5BA
100
AcDbEntity
  8
0
100
AcDbLine
 62
7
  6
CONTINUOUS
 10
107.0282186555
 20
112.1711764181
 11
107.0279836985
 21
112.1713118445
  0
LINE
  5
5BB
100
AcDbEntity
  8
0
100
AcDbLine
 62
7
  6
CONTINUOUS
 10
101.5010215408
 20
115.3625103657
 11
101.4997435204
 21
115.3632471578
  0
LINE
  5
5BC
100
AcDbEntity
  8
0
100
AcDbLine
 62
253
  6
CONTINUOUS
 10
101.1906938425
 20
115.3472166314
 11
101.4881596652
 21
115.1754635935
  0
LINE
  5
5BD
100
AcDbEntity
  8
0
100
AcDbLine
 62
253
  6
CONTINUOUS
 10
106.720749846
 20
112.1542316029
 11
107.0182156687
 21
111.982478565
  0
LINE
  5
5BE
100
AcDbEntity
  8
0
100
AcDbLine
 62
7
  6
CONTINUOUS
 10
101.5019229311
 20
115.3619903354
 11
101.7652398407
 21
115.2099544519
  0
LINE
  5
5BF
100
AcDbEntity
  8
0
100
AcDbLine
 62
7
  6
CONTINUOUS
 10
107.0288948776
 20
112.1707860027
 11
107.2922063706
 21
112.0187532467
  0
LINE
  5
5C0
100
AcDbEntity
  8
0
100
AcDbLine
 62
7
  6
CONTINUOUS
 10
100.9469279124
 20
116.8168852958
 11
101.7911128351
 21
116.3294635016
  0
LINE
  5
5C1
100
AcDbEntity
  8
0
100
AcDbLine
 62
7
  6
CONTINUOUS
 10
112.2012634239
 20
110.3187730214
 11
113.0454483466
 21
109.8313512272
  0
LINE
  5
5C2
100
AcDbEntity
  8
0
100
AcDbLine
 62
7
  6
CONTINUOUS
 10
104.5213143954
 20
114.9095412615
 11
109.0398307897
 21
112.3006065257
  0
LWPOLYLINE
  5
5C3
100
AcDbEntity
  8
0
100
AcDbPolyline
 62
7
  6
CONTINUOUS
 90
6
 70
0
 10
113.3658051763
 20
114.9936843002
 10
113.3631350986
 20
115.0016911556
 10
113.3600470283
 20
115.007134357
 10
113.3567280205
 20
115.010048221
 10
113.3533279214
 20
115.0104113951
 10
113.3519744409
 20
115.0098503835
  0
LWPOLYLINE
  5
5C4
100
AcDbEntity
  8
RACCORDO
100
AcDbPolyline
 62
253
  6
CONTINUOUS
 90
29
 70
0
 10
123.7673476723
 20
89.6571793841
 10
123.7674085883
 20
89.635041762
 10
123.7669234133
 20
89.613225406
 10
123.7658925157
 20
89.5917468769
 10
123.7643166779
 20
89.5706224789
 10
123.7621970962
 20
89.5498682472
 10
123.7595353795
 20
89.5294999362
 10
123.7563335484
 20
89.5095330074
 10
123.7525940332
 20
89.4899826174
 10
123.7483196727
 20
89.4708636069
 10
123.7435137115
 20
89.4521904888
 10
123.7381797977
 20
89.4339774379
 10
123.7323219802
 20
89.4162382793
 10
123.7259447057
 20
89.3989864789
 10
123.7190528151
 20
89.3822351323
 10
123.7116515401
 20
89.3659969553
 10
123.7037464987
 20
89.3502842742
 10
123.6953436918
 20
89.3351090163
 10
123.6864494977
 20
89.320482701
 10
123.677070668
 20
89.3064164311
 10
123.6672143221
 20
89.2929208841
 10
123.6568879418
 20
89.2800063044
 10
123.6460993658
 20
89.2676824953
 10
123.6348567837
 20
89.2559588118
 10
123.6231687296
 20
89.2448441531
 10
123.6110440757
 20
89.2343469564
 10
123.5984920259
 20
89.22447519
 10
123.5855221082
 20
89.2152363474
 10
123.5739734507
 20
89.2077605658
  0
LINE
  5
5C5
100
AcDbEntity
  8
0
100
AcDbLine
 62
7
  6
CONTINUOUS
 10
121.4594633244
 20
114.6461886483
 11
121.4594633244
 21
114.30411958
  0
LINE
  5
5C6
100
AcDbEntity
  8
0
100
AcDbLine
 62
7
  6
CONTINUOUS
 10
121.7109424049
 20
115.1916577945
 11
121.7109424049
 21
114.2835963476
  0
LINE
  5
5C7
100
AcDbEntity
  8
0
100
AcDbLine
 62
7
  6
CONTINUOUS
 10
122.1606870663
 20
115.0510664485
 11
122.1606870663
 21
114.2741476914
  0
LINE
  5
5C8
100
AcDbEntity
  8
DRAFT
100
AcDbLine
 62
7
  6
CONTINUOUS
 10
122.198983925
 20
116.5268218988
 11
122.198983925
 21
116.0403837216
  0
LINE
  5
5C9
100
AcDbEntity
  8
RACCORDO
100
AcDbLine
 62
253
  6
CONTINUOUS
 10
122.7433893531
 20
81.6322341018
 11
122.7433893531
 21
87.8204335402
  0
LINE
  5
5CA
100
AcDbEntity
  8
0
100
AcDbLine
 62
7
  6
CONTINUOUS
 10
123.0092152037
 20
114.5611369365
 11
123.0092152037
 21
114.3532498055
  0
LWPOLYLINE
  5
5CB
100
AcDbEntity
  8
RACCORDO
100
AcDbPolyline
 62
7
  6
CONTINUOUS
 90
81
 70
0
 10
123.0240495528
 20
82.0333211388
 10
123.0240566792
 20
88.2240431237
 10
123.0241458034
 20
88.230901291
 10
123.0243472899
 20
88.2382457165
 10
123.0246741399
 20
88.2460754401
 10
123.025138958
 20
88.254385212
 10
123.025753781
 20
88.263165458
 10
123.0265305741
 20
88.2724119755
 10
123.0274809214
 20
88.2821194015
 10
123.0286153188
 20
88.2922752833
 10
123.0299443221
 20
88.3028715728
 10
123.0314783929
 20
88.3139021936
 10
123.0332270074
 20
88.3253566694
 10
123.0351995013
 20
88.3372261218
 10
123.0374050967
 20
88.3495021097
 10
123.0398523642
 20
88.3621745069
 10
123.0425495609
 20
88.3752336736
 10
123.0455044825
 20
88.3886690101
 10
123.048724385
 20
88.4024685418
 10
123.0522168257
 20
88.4166232317
 10
123.0559876753
 20
88.4311187668
 10
123.0600406758
 20
88.4459344611
 10
123.0643816371
 20
88.4610590846
 10
123.0690146254
 20
88.4764768806
 10
123.0739390568
 20
88.4921592667
 10
123.0791578869
 20
88.5080911708
 10
123.0846735612
 20
88.5242573048
 10
123.0904827081
 20
88.5406277695
 10
123.0965859674
 20
88.5571864237
 10
123.1029835097
 20
88.5739166436
 10
123.1096691018
 20
88.5907873214
 10
123.1166410432
 20
88.6077814723
 10
123.1238971951
 20
88.6248817465
 10
123.1314285149
 20
88.6420563537
 10
123.1392310654
 20
88.6592877764
 10
123.1473004239
 20
88.6765584675
 10
123.1556248935
 20
88.6938366521
 10
123.1641988096
 20
88.7111054408
 10
123.1730152743
 20
88.728346732
 10
123.1820589387
 20
88.7455272694
 10
123.1913219332
 20
88.7626301335
 10
123.2007955921
 20
88.7796382354
 10
123.2104616173
 20
88.7965187822
 10
123.2203100797
 20
88.8132553408
 10
123.2303308428
 20
88.829832309
 10
123.2405037435
 20
88.8462191994
 10
123.2508169793
 20
88.8624005483
 10
123.2612593048
 20
88.8783626745
 10
123.2718100723
 20
88.8940790929
 10
123.2824566093
 20
88.9095367541
 10
123.2931862032
 20
88.9247230954
 10
123.3039769142
 20
88.9396139574
 10
123.314815199
 20
88.954198457
 10
123.325687437
 20
88.9684660462
 10
123.3365705101
 20
88.982394912
 10
123.347450406
 20
88.9959765527
 10
123.3583128512
 20
89.009202765
 10
123.3691337176
 20
89.0220542303
 10
123.3798987798
 20
89.0345249151
 10
123.3905936529
 20
89.04660935
 10
123.4011937289
 20
89.0582913401
 10
123.4116834516
 20
89.0695659489
 10
123.4220503277
 20
89.0804322536
 10
123.4322743536
 20
89.0908821589
 10
123.4423401087
 20
89.1009129814
 10
123.4522361289
 20
89.1105265394
 10
123.4619485107
 20
89.1197227603
 10
123.4714640432
 20
89.1285026858
 10
123.480770218
 20
89.1368682672
 10
123.4898540565
 20
89.1448215305
 10
123.4987036094
 20
89.1523659134
 10
123.5073062873
 20
89.1595046281
 10
123.5156481356
 20
89.1662401202
 10
123.5237184492
 20
89.1725780059
 10
123.5315048875
 20
89.1785230454
 10
123.5389913156
 20
89.1840776247
 10
123.5461671465
 20
89.1892487775
 10
123.5530224722
 20
89.1940443886
 10
123.5595427612
 20
89.1984695904
 10
123.5657169268
 20
89.2025323739
 10
123.5715373677
 20
89.2062432674
  0
LWPOLYLINE
  5
5CC
100
AcDbEntity
  8
RACCORDO
100
AcDbPolyline
 62
253
  6
CONTINUOUS
 90
67
 70
0
 10
122.7433893531
 20
87.8204335402
 10
122.7436666169
 20
87.8491091534
 10
122.7445155152
 20
87.8781390487
 10
122.745936048
 20
87.9075232261
 10
122.7479273174
 20
87.937284017
 10
122.7504902212
 20
87.96739909
 10
122.7536274532
 20
87.9978014508
 10
122.7573413595
 20
88.0284914368
 10
122.761629594
 20
88.0594687107
 10
122.7664878119
 20
88.090665266
 10
122.7719183997
 20
88.1220822796
 10
122.7779189709
 20
88.1537185747
 10
122.7844780221
 20
88.1855026145
 10
122.7915976581
 20
88.2174343776
 10
122.7992757741
 20
88.2495138854
 10
122.8074945516
 20
88.2816696658
 10
122.8162541862
 20
88.313896693
 10
122.8255544823
 20
88.3461999928
 10
122.8353770349
 20
88.3785231702
 10
122.8457209655
 20
88.4108615817
 10
122.8565871527
 20
88.443219871
 10
122.8679598268
 20
88.4755555744
 10
122.8798392612
 20
88.5078689915
 10
122.8922251825
 20
88.5401598228
 10
122.9051010012
 20
88.5723847067
 10
122.9184683932
 20
88.6045465645
 10
122.9323256826
 20
88.6366424749
 10
122.946651252
 20
88.6686203125
 10
122.9614466927
 20
88.7004815131
 10
122.9767104135
 20
88.7322246408
 10
122.9924160235
 20
88.7637932622
 10
123.0085643886
 20
88.7951869174
 10
123.025154643
 20
88.8264060663
 10
123.0421577989
 20
88.8573956556
 10
123.0595746964
 20
88.8881552068
 10
123.0774044953
 20
88.9186851985
 10
123.0956156877
 20
88.9489320132
 10
123.11420915
 20
88.9788952017
 10
123.1331840057
 20
89.0085752133
 10
123.1525061174
 20
89.0379197782
 10
123.1721752172
 20
89.0669269256
 10
123.1921915728
 20
89.0955986262
 10
123.2125218508
 20
89.1238885228
 10
123.2331644901
 20
89.1517936473
 10
123.2541210517
 20
89.1793169677
 10
123.2753628851
 20
89.2064210301
 10
123.2968896691
 20
89.2331051611
 10
123.318701725
 20
89.2593700341
 10
123.3407713656
 20
89.2851802153
 10
123.363101776
 20
89.3105386284
 10
123.3856897712
 20
89.3354423497
 10
123.4084981087
 20
89.3598471749
 10
123.4315311928
 20
89.3837557333
 10
123.4547846194
 20
89.4071653956
 10
123.4782079332
 20
89.4300240696
 10
123.5018025754
 20
89.4523303339
 10
123.525567105
 20
89.47408561
 10
123.5494467437
 20
89.4952420704
 10
123.5734417656
 20
89.5157970757
 10
123.5975518966
 20
89.5357532653
 10
123.6217215367
 20
89.5550707295
 10
123.6459517893
 20
89.5737473902
 10
123.6702415509
 20
89.5917853254
 10
123.694531911
 20
89.6091508599
 10
123.7188032329
 20
89.6258327687
 10
123.7430751533
 20
89.6418422767
 10
123.7673476723
 20
89.6571793841
  0
LWPOLYLINE
  5
5CD
100
AcDbEntity
  8
0
100
AcDbPolyline
 62
253
  6
CONTINUOUS
 90
10
 70
0
 10
104.1747068334
 20
66.8206698239
 10
104.1611648156
 20
66.802586117
 10
104.1486684313
 20
66.7833205817
 10
104.137401383
 20
66.7631140143
 10
104.1275201536
 20
66.7421916902
 10
104.1192013006
 20
66.7208635504
 10
104.112611389
 20
66.6995233467
 10
104.107847305
 20
66.678497447
 10
104.1049623032
 20
66.6580383064
 10
104.1039961553
 20
66.6384255644
  0
LINE
  5
5CE
100
AcDbEntity
  8
0
100
AcDbLine
 62
253
  6
CONTINUOUS
 10
104.8222112718
 20
67.605953545
 11
104.1747068334
 21
66.8206698239
  0
LINE
  5
5CF
100
AcDbEntity
  8
0
100
AcDbLine
 62
253
  6
CONTINUOUS
 10
105.1037985616
 20
67.5095503939
 11
104.3843491856
 21
66.637012926
  0
LINE
  5
5D0
100
AcDbEntity
  8
DRAFT
100
AcDbLine
 62
7
  6
CONTINUOUS
 10
107.4389684409
 20
69.9326783268
 11
106.713345417
 21
69.0637054459
  0
LINE
  5
5D1
100
AcDbEntity
  8
RACCORDO
100
AcDbLine
 62
7
  6
CONTINUOUS
 10
129.793580671
 20
97.7368257102
 11
129.7939468239
 21
97.7371997226
  0
LINE
  5
5D2
100
AcDbEntity
  8
0
100
AcDbLine
 62
7
  6
CONTINUOUS
 10
103.3451523164
 20
75.7483057326
 11
102.7899225958
 21
75.4057002376
  0
LINE
  5
5D3
100
AcDbEntity
  8
0
100
AcDbLine
 62
7
  6
CONTINUOUS
 10
103.2131668502
 20
75.5863036115
 11
102.7899225958
 21
75.3251399852
  0
LWPOLYLINE
  5
5D4
100
AcDbEntity
  8
RACCORDO
100
AcDbPolyline
 62
253
  6
CONTINUOUS
 90
29
 70
0
 10
122.7433893531
 20
87.8204335402
 10
122.7620504935
 20
87.8318996978
 10
122.7801635902
 20
87.84365519
 10
122.7977151922
 20
87.855691287
 10
122.8146922657
 20
87.867999051
 10
122.8310822034
 20
87.8805693419
 10
122.8468728341
 20
87.8933928251
 10
122.8620524315
 20
87.9064599778
 10
122.8766097232
 20
87.9197610962
 10
122.8905338989
 20
87.9332863028
 10
122.9038146184
 20
87.9470255537
 10
122.9164420193
 20
87.9609686461
 10
122.9284067247
 20
87.9751052258
 10
122.9396998492
 20
87.9894247948
 10
122.9503130067
 20
88.0039167194
 10
122.9602383158
 20
88.0185702378
 10
122.9694684059
 20
88.0333744681
 10
122.9779964226
 20
88.0483184168
 10
122.9858160331
 20
88.0633909862
 10
122.9929214304
 20
88.0785809835
 10
122.9993073381
 20
88.0938771285
 10
123.0049690139
 20
88.1092680622
 10
123.0099022535
 20
88.1247423551
 10
123.0141033934
 20
88.140288516
 10
123.0175693139
 20
88.1558950003
 10
123.0202974411
 20
88.1715502184
 10
123.0222857491
 20
88.1872425447
 10
123.0235327614
 20
88.202960326
 10
123.0240375521
 20
88.2186918902
  0
LINE
  5
5D5
100
AcDbEntity
  8
0
100
AcDbLine
 62
7
  6
CONTINUOUS
 10
103.0613210606
 20
75.4569606232
 11
103.3451523164
 21
75.6277299268
  0
LINE
  5
5D6
100
AcDbEntity
  8
0
100
AcDbLine
 62
7
  6
CONTINUOUS
 10
105.3634889203
 20
75.5510118486
 11
104.78560051
 21
75.2173474295
  0
LINE
  5
5D7
100
AcDbEntity
  8
0
100
AcDbLine
 62
253
  6
CONTINUOUS
 10
102.7899225958
 20
73.9144351352
 11
103.0177566711
 21
74.0392136774
  0
LINE
  5
5D8
100
AcDbEntity
  8
0
100
AcDbLine
 62
7
  6
CONTINUOUS
 10
102.7899225958
 20
73.8111246669
 11
103.0177566711
 21
73.9359032091
  0
LWPOLYLINE
  5
5D9
100
AcDbEntity
  8
RACCORDO
100
AcDbPolyline
 62
253
  6
CONTINUOUS
 90
16
 70
0
 10
101.0317956337
 20
75.6801065131
 10
100.9926975369
 20
75.6599945478
 10
100.9503673005
 20
75.6423142478
 10
100.905253389
 20
75.627252926
 10
100.8578337587
 20
75.6149701484
 10
100.8086107934
 20
75.6055960441
 10
100.7581059825
 20
75.5992299263
 10
100.7068543956
 20
75.5959392404
 10
100.655399014
 20
75.5957588494
 10
100.6042849781
 20
75.5986906644
 10
100.554053812
 20
75.6047036245
 10
100.5052376862
 20
75.6137340259
 10
100.4583537798
 20
75.6256861964
 10
100.4138988009
 20
75.6404335099
 10
100.3723437248
 20
75.6578197268
 10
100.3341288037
 20
75.6776606501
  0
LINE
  5
5DA
100
AcDbEntity
  8
0
100
AcDbLine
 62
7
  6
CONTINUOUS
 10
110.1781686448
 20
117.8491104425
 11
111.8045142416
 21
118.2623351489
  0
LWPOLYLINE
  5
5DB
100
AcDbEntity
  8
0
100
AcDbPolyline
 62
7
  6
CONTINUOUS
 90
5
 70
0
 10
116.0485279151
 20
116.4713874305
 10
116.0082999862
 20
116.4662917309
 10
115.9669706479
 20
116.4561765489
 10
115.92500966
 20
116.4408229295
 10
115.8827940498
 20
116.4200549523
  0
LWPOLYLINE
  5
5DC
100
AcDbEntity
  8
0
100
AcDbPolyline
 62
7
  6
CONTINUOUS
 90
6
 70
0
 10
101.2805189424
 20
115.4159359113
 10
101.2426781975
 20
115.4112761194
 10
101.2041488
 20
115.4029077516
 10
101.1650920101
 20
115.3907299503
 10
101.1256364422
 20
115.3746272419
 10
101.0935330543
 20
115.3586711859
  0
LWPOLYLINE
  5
5DD
100
AcDbEntity
  8
0
100
AcDbPolyline
 62
253
  6
CONTINUOUS
 90
10
 70
0
 10
101.757435025
 20
114.9646468274
 10
101.7438390834
 20
114.9647850831
 10
101.730006366
 20
114.9638974764
 10
101.7159368728
 20
114.9619840074
 10
101.7016096684
 20
114.9590389601
 10
101.6870456883
 20
114.9550680504
 10
101.6723077385
 20
114.9500884262
 10
101.6574167547
 20
114.9441058037
 10
101.6423518014
 20
114.9371144666
 10
101.6271128785
 20
114.9291144152
  0
LWPOLYLINE
  5
5DE
100
AcDbEntity
  8
0
100
AcDbPolyline
 62
253
  6
CONTINUOUS
 90
10
 70
0
 10
101.683642885
 20
115.2287622119
 10
101.6634419232
 20
115.2290022589
 10
101.6427189225
 20
115.2276774425
 10
101.6215331001
 20
115.2247915484
 10
101.599944996
 20
115.2203528231
 10
101.5780162996
 20
115.2143739508
 10
101.5558096733
 20
115.2068720163
 10
101.533388574
 20
115.1978684568
 10
101.5108170715
 20
115.1873890007
 10
101.4881596652
 20
115.1754635935
  0
LWPOLYLINE
  5
5DF
100
AcDbEntity
  8
0
100
AcDbPolyline
 62
253
  6
CONTINUOUS
 90
4
 70
0
 10
101.3923603542
 20
115.3989473681
 10
101.3609880194
 20
115.3993542316
 10
101.3284266401
 20
115.3960950299
 10
101.2948919236
 20
115.3891924552
  0
LWPOLYLINE
  5
5E0
100
AcDbEntity
  8
0
100
AcDbPolyline
 62
7
  6
CONTINUOUS
 90
3
 70
0
 10
101.3384239554
 20
115.4159885897
 10
101.3173974922
 20
115.4169866418
 10
101.2805189424
 20
115.4159359113
  0
LINE
  5
5E1
100
AcDbEntity
  8
0
100
AcDbLine
 62
7
  6
CONTINUOUS
 10
101.3385545681
 20
115.4159787556
 11
101.3384239554
 21
115.4159885897
  0
LINE
  5
5E2
100
AcDbEntity
  8
0
100
AcDbLine
 62
7
  6
CONTINUOUS
 10
101.3659211753
 20
115.4126906847
 11
101.3385527341
 21
115.4159556151
  0
LWPOLYLINE
  5
5E3
100
AcDbEntity
  8
RACCORDO
100
AcDbPolyline
 62
7
  6
CONTINUOUS
 90
24
 70
0
 10
108.1982696575
 20
116.5426633078
 10
108.193313487
 20
116.545438075
 10
108.18838963
 20
116.5480213975
 10
108.1835040664
 20
116.5504102028
 10
108.1786625586
 20
116.5526014927
 10
108.1738710409
 20
116.5545927803
 10
108.169135616
 20
116.5563820862
 10
108.1644617873
 20
116.5579671515
 10
108.1598551401
 20
116.5593460875
 10
108.1553217344
 20
116.5605178054
 10
108.150866726
 20
116.5614807365
 10
108.1464953177
 20
116.5622336884
 10
108.1422134426
 20
116.5627764881
 10
108.1380258487
 20
116.5631082749
 10
108.1339373034
 20
116.5632285629
 10
108.1299535409
 20
116.5631381021
 10
108.126078854
 20
116.5628367487
 10
108.1223175173
 20
116.5623247266
 10
108.1186749845
 20
116.5616037004
 10
108.1151550442
 20
116.5606742419
 10
108.1117614369
 20
116.5595372768
 10
108.1084992698
 20
116.5581953581
 10
108.105371788
 20
116.5566497624
 10
108.1040858217
 20
116.5559325127
  0
LINE
  5
5E4
100
AcDbEntity
  8
RACCORDO
100
AcDbLine
 62
7
  6
CONTINUOUS
 10
112.3503217333
 20
114.1453204766
 11
108.1982696575
 21
116.5426633078
  0
LWPOLYLINE
  5
5E5
100
AcDbEntity
  8
RACCORDO
100
AcDbPolyline
 62
7
  6
CONTINUOUS
 90
5
 70
0
 10
113.035128653
 20
114.538322883
 10
113.0182139526
 20
114.5529096779
 10
113.000643555
 20
114.567172282
 10
112.9824323904
 20
114.5810952022
 10
112.973648109
 20
114.5875235054
  0
LINE
  5
5E6
100
AcDbEntity
  8
RACCORDO
100
AcDbLine
 62
7
  6
CONTINUOUS
 10
113.0428661468
 20
114.5312289001
 11
113.035128653
 21
114.538322883
  0
LWPOLYLINE
  5
5E7
100
AcDbEntity
  8
RACCORDO
100
AcDbPolyline
 62
253
  6
CONTINUOUS
 90
11
 70
0
 10
112.9631812321
 20
114.4868258565
 10
112.9607896374
 20
114.4900263937
 10
112.951768701
 20
114.5012518755
 10
112.9422225509
 20
114.5123351566
 10
112.9321721501
 20
114.5232531374
 10
112.9216164227
 20
114.5340055199
 10
112.9105564445
 20
114.5445926021
 10
112.8990164055
 20
114.5549921778
 10
112.8870043689
 20
114.5651968449
 10
112.8745122713
 20
114.5752140053
 10
112.861540113
 20
114.5850436593
  0
LWPOLYLINE
  5
5E8
100
AcDbEntity
  8
0
100
AcDbPolyline
 62
7
  6
CONTINUOUS
 90
3
 70
0
 10
113.2760827889
 20
114.8682026019
 10
113.3093829298
 20
114.821784315
 10
113.3282222941
 20
114.7875439967
  0
LWPOLYLINE
  5
5E9
100
AcDbEntity
  8
0
100
AcDbPolyline
 62
253
  6
CONTINUOUS
 90
19
 70
0
 10
118.5720624615
 20
114.8377071396
 10
118.5906002225
 20
114.7885390723
 10
118.6066404324
 20
114.7388416438
 10
118.6201830913
 20
114.6886148541
 10
118.6314431988
 20
114.6372677127
 10
118.6402057553
 20
114.58539121
 10
118.6458257612
 20
114.5347583181
 10
118.6480570652
 20
114.4854471165
 10
118.6471458187
 20
114.4373795257
 10
118.643185477
 20
114.3920942786
 10
118.6360203356
 20
114.3499288665
 10
118.625806099
 20
114.3105457981
 10
118.6131033362
 20
114.2744713329
 10
118.5979206404
 20
114.2418917878
 10
118.5802494185
 20
114.2126208458
 10
118.5606244597
 20
114.1866258151
 10
118.5392240271
 20
114.1638957984
 10
118.5158698575
 20
114.144441693
 10
118.4905619511
 20
114.1282634989
  0
LWPOLYLINE
  5
5EA
100
AcDbEntity
  8
RACCORDO
100
AcDbPolyline
 62
7
  6
CONTINUOUS
 90
13
 70
0
 10
124.4275644504
 20
115.4264939802
 10
124.4271968541
 20
115.4380910335
 10
124.4260848222
 20
115.44912683
 10
124.4242283545
 20
115.4596013698
 10
124.4216108979
 20
115.4695817343
 10
124.4182490056
 20
115.479000842
 10
124.414192337
 20
115.4876574483
 10
124.4094199164
 20
115.4955272105
 10
124.4039527196
 20
115.5026344713
 10
124.3979033326
 20
115.5088510138
 10
124.3913092841
 20
115.5141340993
 10
124.3841330456
 20
115.5185264666
 10
124.3783186655
 20
115.5212569856
  0
LINE
  5
5EB
100
AcDbEntity
  8
DRAFT
100
AcDbLine
 62
7
  6
CONTINUOUS
 10
124.2832052591
 20
118.8660172625
 11
124.2832052591
 21
118.5577606475
  0
LINE
  5
5EC
100
AcDbEntity
  8
RACCORDO
100
AcDbLine
 62
7
  6
CONTINUOUS
 10
124.4275644504
 20
115.4264939802
 11
124.4275644504
 21
115.3293778748
  0
LWPOLYLINE
  5
5ED
100
AcDbEntity
  8
RACCORDO
100
AcDbPolyline
 62
7
  6
CONTINUOUS
 90
19
 70
0
 10
129.4826019613
 20
97.7997101449
 10
129.4878656838
 20
97.8082082281
 10
129.4932696162
 20
97.8166576024
 10
129.4988137586
 20
97.8250582679
 10
129.5044949199
 20
97.8334158652
 10
129.5103162913
 20
97.8417247537
 10
129.5162874453
 20
97.8499680112
 10
129.5224083477
 20
97.858144747
 10
129.5286790328
 20
97.8662558519
 10
129.535109177
 20
97.8742870766
 10
129.5417012332
 20
97.8822404876
 10
129.5484527485
 20
97.8901140185
 10
129.5553660404
 20
97.89788722
 10
129.5624456492
 20
97.9055631819
 10
129.5696870347
 20
97.9131388143
 10
129.5770788936
 20
97.9205843991
 10
129.5846174581
 20
97.92789003
 10
129.5923064959
 20
97.9350656132
 10
129.6001460072
 20
97.9421111487
  0
LWPOLYLINE
  5
5EE
100
AcDbEntity
  8
0
100
AcDbPolyline
 62
7
  6
CONTINUOUS
 90
4
 70
0
 10
106.6165523252
 20
67.4716544288
 10
106.5996806381
 20
67.4517772666
 10
106.5802944223
 20
67.4342063981
 10
106.5611644467
 20
67.4207681787
  0
LWPOLYLINE
  5
5EF
100
AcDbEntity
  8
0
100
AcDbPolyline
 62
7
  6
CONTINUOUS
 90
9
 70
0
 10
103.0292337799
 20
69.3827204363
 10
103.0297785186
 20
69.3830974526
 10
103.0322614364
 20
69.3844747207
 10
103.0366933651
 20
69.3869818345
 10
103.0430242741
 20
69.3907316815
 10
103.0513106725
 20
69.3954692858
 10
103.0615880195
 20
69.4012024612
 10
103.0737784519
 20
69.4081827868
 10
103.0878124096
 20
69.4165401003
  0
LINE
  5
5F0
100
AcDbEntity
  8
0
100
AcDbLine
 62
7
  6
CONTINUOUS
 10
106.8547667733
 20
73.0389061809
 11
106.4658580436
 21
72.786660042
  0
LINE
  5
5F1
100
AcDbEntity
  8
0
100
AcDbLine
 62
7
  6
CONTINUOUS
 10
106.8547667733
 20
73.1435299368
 11
103.9193545541
 21
71.332228562
  0
LINE
  5
5F2
100
AcDbEntity
  8
0
100
AcDbLine
 62
7
  6
CONTINUOUS
 10
104.6442218594
 20
71.6901034925
 11
103.9942061965
 21
71.2890101618
  0
LINE
  5
5F3
100
AcDbEntity
  8
0
100
AcDbLine
 62
7
  6
CONTINUOUS
 10
106.5719240608
 20
72.81955552
 11
106.8547667733
 21
72.991491621
  0
LWPOLYLINE
  5
5F4
100
AcDbEntity
  8
0
100
AcDbPolyline
 62
253
  6
CONTINUOUS
 90
12
 70
0
 10
103.7776423811
 20
70.6916890519
 10
103.8044471898
 20
70.707807339
 10
103.8389518331
 20
70.7341768581
 10
103.8703845907
 20
70.765188206
 10
103.8985698918
 20
70.8006682312
 10
103.9233527256
 20
70.8404200992
 10
103.9445914506
 20
70.8842199524
 10
103.962166398
 20
70.9318226414
 10
103.9759843973
 20
70.9829653048
 10
103.9859676336
 20
71.0373621344
 10
103.9920542022
 20
71.0947058749
 10
103.9942061965
 20
71.1546740782
  0
LINE
  5
5F5
100
AcDbEntity
  8
0
100
AcDbLine
 62
253
  6
CONTINUOUS
 10
102.9572945628
 20
71.8941356247
 11
103.0910665307
 21
71.9740929357
  0
LINE
  5
5F6
100
AcDbEntity
  8
0
100
AcDbLine
 62
253
  6
CONTINUOUS
 10
106.5719240608
 20
72.7798221403
 11
106.525223604
 21
72.7523831115
  0
LWPOLYLINE
  5
5F7
100
AcDbEntity
  8
0
100
AcDbPolyline
 62
253
  6
CONTINUOUS
 90
4
 70
0
 10
103.0829895108
 20
71.8821354741
 10
103.0752169414
 20
71.8780333847
 10
103.0608650175
 20
71.872902067
 10
103.0454130924
 20
71.8702435026
  0
LINE
  5
5F8
100
AcDbEntity
  8
0
100
AcDbLine
 62
7
  6
CONTINUOUS
 10
104.6442218594
 20
74.5417346271
 11
103.9942061965
 21
74.2179609168
  0
LINE
  5
5F9
100
AcDbEntity
  8
0
100
AcDbLine
 62
7
  6
CONTINUOUS
 10
107.4389684409
 20
74.8624824588
 11
105.7662365667
 21
74.0445984217
  0
LWPOLYLINE
  5
5FA
100
AcDbEntity
  8
0
100
AcDbPolyline
 62
7
  6
CONTINUOUS
 90
7
 70
0
 10
109.0934848057
 20
117.222827588
 10
109.1776644766
 20
117.2073867673
 10
109.2580581283
 20
117.1881596833
 10
109.3346657606
 20
117.1651463361
 10
109.4074873736
 20
117.1383467257
 10
109.4765229673
 20
117.107760852
 10
109.5417725418
 20
117.0733887151
  0
LWPOLYLINE
  5
5FB
100
AcDbEntity
  8
RACCORDO
100
AcDbPolyline
 62
7
  6
CONTINUOUS
 90
22
 70
0
 10
109.4226682044
 20
116.6379683163
 10
109.4188432111
 20
116.6395733837
 10
109.4152212253
 20
116.6408177013
 10
109.411499894
 20
116.6418402734
 10
109.4076840643
 20
116.6426397268
 10
109.4037786548
 20
116.6432149837
 10
109.39978805
 20
116.6435656138
 10
109.3957174427
 20
116.6436910516
 10
109.391572079
 20
116.6435910288
 10
109.3873565773
 20
116.6432659672
 10
109.3830764186
 20
116.6427161134
 10
109.3787371182
 20
116.6419420093
 10
109.3743434696
 20
116.6409449247
 10
109.3699011819
 20
116.6397259135
 10
109.3654159781
 20
116.6382863201
 10
109.3608927658
 20
116.6366282482
 10
109.3563374189
 20
116.6347535453
 10
109.351755806
 20
116.6326643417
 10
109.3471528877
 20
116.6303635516
 10
109.342534295
 20
116.6278539829
 10
109.3379063217
 20
116.6251383372
 10
109.3332749526
 20
116.6222197433
  0
LWPOLYLINE
  5
5FC
100
AcDbEntity
  8
RACCORDO
100
AcDbPolyline
 62
7
  6
CONTINUOUS
 90
51
 70
0
 10
109.4226681803
 20
116.6379683301
 10
109.4117858841
 20
116.6429128026
 10
109.3887218196
 20
116.6529232956
 10
109.3652945074
 20
116.6624707904
 10
109.3415198395
 20
116.6715562931
 10
109.317411687
 20
116.6801810684
 10
109.2929874972
 20
116.6883445695
 10
109.2682646882
 20
116.6960467471
 10
109.2432578568
 20
116.7032880383
 10
109.2179845803
 20
116.7100677842
 10
109.1924622226
 20
116.7163857882
 10
109.1667058948
 20
116.7222419917
 10
109.1407331356
 20
116.727635795
 10
109.1145616781
 20
116.7325668687
 10
109.0882077657
 20
116.7370348153
 10
109.0616899307
 20
116.7410391065
 10
109.0350252139
 20
116.7445796266
 10
109.0082283436
 20
116.7476561985
 10
108.9813185379
 20
116.7502684503
 10
108.9543122709
 20
116.7524163378
 10
108.9272206179
 20
116.7540998516
 10
108.9000615238
 20
116.7553187362
 10
108.87285273
 20
116.7560726653
 10
108.8456052155
 20
116.7563612794
 10
108.8183366311
 20
116.7561842988
 10
108.7910650902
 20
116.7555412743
 10
108.7638022256
 20
116.754431541
 10
108.7365656186
 20
116.7528547659
 10
108.709373615
 20
116.7508104331
 10
108.6822386847
 20
116.7482976668
 10
108.6551785834
 20
116.7453160751
 10
108.6282117123
 20
116.7418650908
 10
108.6013509354
 20
116.7379436203
 10
108.5746116391
 20
116.7335507145
 10
108.5480149368
 20
116.7286860822
 10
108.5215813264
 20
116.7233498858
 10
108.4953268193
 20
116.7175413486
 10
108.4692718651
 20
116.7112604554
 10
108.4434421317
 20
116.7045091574
 10
108.4178554099
 20
116.6972874884
 10
108.3925297724
 20
116.6895954651
 10
108.36748947
 20
116.681435474
 10
108.3427520285
 20
116.6728076959
 10
108.3183350679
 20
116.6637123831
 10
108.2942612031
 20
116.6541519731
 10
108.2705482231
 20
116.6441268277
 10
108.2472126869
 20
116.6336368247
 10
108.2242736182
 20
116.6226828609
 10
108.2017483653
 20
116.611264704
 10
108.1796550277
 20
116.5993828317
 10
108.164298975
 20
116.5906987968
  0
LWPOLYLINE
  5
5FD
100
AcDbEntity
  8
RACCORDO
100
AcDbPolyline
 62
7
  6
CONTINUOUS
 90
3
 70
0
 10
109.4274883277
 20
116.6354718935
 10
109.4257723304
 20
116.6364252198
 10
109.4226682044
 20
116.6379683163
  0
LWPOLYLINE
  5
5FE
100
AcDbEntity
  8
RACCORDO
100
AcDbPolyline
 62
7
  6
CONTINUOUS
 90
24
 70
0
 10
112.9673357846
 20
114.5916083366
 10
112.965417421
 20
114.5926785066
 10
112.9616041654
 20
114.5945943887
 10
112.9576688979
 20
114.596299784
 10
112.9536162024
 20
114.597792788
 10
112.9494513937
 20
114.5990714185
 10
112.9451792719
 20
114.6001343292
 10
112.9408048026
 20
114.6009804153
 10
112.9363337324
 20
114.6016084601
 10
112.9317712082
 20
114.6020179246
 10
112.9271225222
 20
114.6022085138
 10
112.9223937934
 20
114.6021797831
 10
112.9175904579
 20
114.601932005
 10
112.912718076
 20
114.6014656954
 10
112.9077830773
 20
114.6007811796
 10
112.9027911274
 20
114.5998795364
 10
112.8977479931
 20
114.5987620852
 10
112.8926603486
 20
114.5974299094
 10
112.8875340263
 20
114.5958848805
 10
112.8823749365
 20
114.5941291048
 10
112.8771899314
 20
114.5921644043
 10
112.8719852722
 20
114.5899932231
 10
112.8667666224
 20
114.5876186266
 10
112.8615399668
 20
114.5850437437
  0
LINE
  5
5FF
100
AcDbEntity
  8
RACCORDO
100
AcDbLine
 62
253
  6
CONTINUOUS
 10
112.861540113
 20
114.5850436593
 11
109.3332748078
 21
116.6222198269
  0
LINE
  5
600
100
AcDbEntity
  8
RACCORDO
100
AcDbLine
 62
7
  6
CONTINUOUS
 10
112.9673278448
 20
114.591612921
 11
109.4274967379
 21
116.6354670376
  0
LINE
  5
601
100
AcDbEntity
  8
0
100
AcDbLine
 62
7
  6
CONTINUOUS
 10
109.5417725418
 20
117.0733887151
 11
113.0773064477
 21
115.0320157485
  0
LINE
  5
602
100
AcDbEntity
  8
0
100
AcDbLine
 62
7
  6
CONTINUOUS
 10
110.1781686448
 20
117.8491104425
 11
114.239315725
 21
115.5042550165
  0
LWPOLYLINE
  5
603
100
AcDbEntity
  8
0
100
AcDbPolyline
 62
7
  6
CONTINUOUS
 90
5
 70
0
 10
113.0773064477
 20
115.0320157485
 10
113.1368368997
 20
114.994341462
 10
113.1898097739
 20
114.9544811754
 10
113.2362250703
 20
114.9124348887
 10
113.2760827889
 20
114.8682026019
  0
LWPOLYLINE
  5
604
100
AcDbEntity
  8
RACCORDO
100
AcDbPolyline
 62
7
  6
CONTINUOUS
 90
4
 70
0
 10
112.9736480567
 20
114.5875235354
 10
112.9726598701
 20
114.5882244337
 10
112.9691042653
 20
114.5905542778
 10
112.9673357846
 20
114.5916083366
  0
LWPOLYLINE
  5
605
100
AcDbEntity
  8
RACCORDO
100
AcDbPolyline
 62
7
  6
CONTINUOUS
 90
101
 70
0
 10
129.763262161
 20
103.1336116616
 10
129.80151569
 20
103.1029458039
 10
129.84505962
 20
103.0668960399
 10
129.8882878045
 20
103.0299626933
 10
129.9311891688
 20
102.9921606132
 10
129.9737525134
 20
102.953504553
 10
130.0159585283
 20
102.9140167707
 10
130.057783654
 20
102.873724389
 10
130.0992057138
 20
102.8326543655
 10
130.1402174104
 20
102.7908193852
 10
130.1808170722
 20
102.7482255827
 10
130.2209973815
 20
102.7048840154
 10
130.2607357618
 20
102.660822276
 10
130.3000074297
 20
102.6160717569
 10
130.3387898288
 20
102.5706628082
 10
130.3770773418
 20
102.5246065353
 10
130.4148703482
 20
102.477905784
 10
130.4521619716
 20
102.4305711327
 10
130.4889302797
 20
102.3826323665
 10
130.5251528984
 20
102.3341213015
 10
130.5608098024
 20
102.2850680818
 10
130.5958942472
 20
102.2354851961
 10
130.6304037469
 20
102.1853782617
 10
130.6643293514
 20
102.134761331
 10
130.6976528693
 20
102.0836624581
 10
130.7303577819
 20
102.0321082406
 10
130.7624287986
 20
101.980124288
 10
130.7938557843
 20
101.9277283944
 10
130.8246301486
 20
101.8749356511
 10
130.8547393924
 20
101.8217678201
 10
130.8841711955
 20
101.7682468069
 10
130.9129170335
 20
101.7143877849
 10
130.940967159
 20
101.6602079753
 10
130.9683070796
 20
101.6057341094
 10
130.9949215259
 20
101.5509956852
 10
131.0207949928
 20
101.4960242309
 10
131.045920993
 20
101.4408329446
 10
131.0702976361
 20
101.3854236525
 10
131.0939189449
 20
101.3298055661
 10
131.1167679226
 20
101.274013941
 10
131.1388264859
 20
101.2180894793
 10
131.1600789639
 20
101.1620699912
 10
131.1805217463
 20
101.1059627179
 10
131.2001548596
 20
101.0497622565
 10
131.2189734399
 20
100.9934737406
 10
131.2369610117
 20
100.9371369184
 10
131.2541004699
 20
100.8807978956
 10
131.2703782545
 20
100.824496024
 10
131.2857910822
 20
100.7682367414
 10
131.3003375255
 20
100.7120148473
 10
131.3140122434
 20
100.6558354557
 10
131.3268013797
 20
100.599738376
 10
131.3386910389
 20
100.5437698012
 10
131.3496710018
 20
100.4879653994
 10
131.3597368222
 20
100.4323335488
 10
131.3688839914
 20
100.3768787113
 10
131.3771063872
 20
100.3216100348
 10
131.3843939936
 20
100.2665625478
 10
131.390737034
 20
100.2117785401
 10
131.3961287257
 20
100.1572842384
 10
131.4005634843
 20
100.1030961564
 10
131.4040350085
 20
100.0492405188
 10
131.4065378392
 20
99.9957346113
 10
131.4080662486
 20
99.942602997
 10
131.4086149004
 20
99.8898812044
 10
131.4081792604
 20
99.8375796709
 10
131.4067548932
 20
99.7857283654
 10
131.4043400711
 20
99.7343893368
 10
131.4009341444
 20
99.6835929211
 10
131.3965352054
 20
99.6333452978
 10
131.3911425014
 20
99.5836696621
 10
131.3847509078
 20
99.5345542747
 10
131.3773625289
 20
99.4860471301
 10
131.3689935
 20
99.4382563597
 10
131.3596568937
 20
99.3912340889
 10
131.3493513839
 20
99.3449546099
 10
131.3380755845
 20
99.2994060148
 10
131.3258170058
 20
99.2545463492
 10
131.3125932108
 20
99.2104485421
 10
131.298455915
 20
99.1672668383
 10
131.2834445482
 20
99.1250781248
 10
131.2675503079
 20
99.08381744
 10
131.2507574856
 20
99.0434229257
 10
131.2330459658
 20
99.003841834
 10
131.2144520724
 20
98.9651515366
 10
131.1950493709
 20
98.9274821619
 10
131.174892556
 20
98.8908993247
 10
131.1539686189
 20
98.8553408752
 10
131.1322540448
 20
98.8207428749
 10
131.1097466278
 20
98.7870878593
 10
131.0864782504
 20
98.7544101002
 10
131.0624736234
 20
98.7227279897
 10
131.0377535344
 20
98.6920518027
 10
131.0123334236
 20
98.6623840282
 10
130.9862322787
 20
98.6337309006
 10
130.9594804125
 20
98.6061090669
 10
130.9320876179
 20
98.5795123428
 10
130.9040409693
 20
98.5539160482
 10
130.8753478097
 20
98.5293186299
 10
130.8460381846
 20
98.5057375877
 10
130.8161317638
 20
98.4831795985
  0
LINE
  5
606
100
AcDbEntity
  8
DRAFT
100
AcDbLine
 62
7
  6
CONTINUOUS
 10
120.9913649983
 20
111.9414559396
 11
120.2386709143
 21
113.2451603342
  0
LWPOLYLINE
  5
607
100
AcDbEntity
  8
0
100
AcDbPolyline
 62
253
  6
CONTINUOUS
 90
10
 70
0
 10
118.6762397623
 20
114.8557332387
 10
118.6758755235
 20
114.8563848428
 10
118.6724857912
 20
114.8583133705
 10
118.6660975525
 20
114.8590013074
 10
118.6567945672
 20
114.8584396364
 10
118.6446988124
 20
114.8566357251
 10
118.6299688829
 20
114.8536132292
 10
118.6127979124
 20
114.8494117823
 10
118.5934110406
 20
114.8440864765
 10
118.5720624615
 20
114.8377071396
  0
LWPOLYLINE
  5
608
100
AcDbEntity
  8
0
100
AcDbPolyline
 62
7
  6
CONTINUOUS
 90
4
 70
0
 10
118.6622538083
 20
114.8884702642
 10
118.6365294634
 20
114.9387226199
 10
118.6068717889
 20
114.9861835484
 10
118.5735757015
 20
115.0304741412
  0
LINE
  5
609
100
AcDbEntity
  8
0
100
AcDbLine
 62
7
  6
CONTINUOUS
 10
118.6762374325
 20
114.8557243713
 11
118.6622538083
 21
114.8884702642
  0
LINE
  5
60A
100
AcDbEntity
  8
0
100
AcDbLine
 62
253
  6
CONTINUOUS
 10
120.0607684945
 20
116.492212337
 11
119.6667825607
 21
117.4969182182
  0
LINE
  5
60B
100
AcDbEntity
  8
0
100
AcDbLine
 62
7
  6
CONTINUOUS
 10
121.2601030481
 20
114.8587972154
 11
121.0039734648
 21
115.5998528001
  0
LWPOLYLINE
  5
60C
100
AcDbEntity
  8
0
100
AcDbPolyline
 62
7
  6
CONTINUOUS
 90
11
 70
0
 10
119.323037593
 20
115.075876077
 10
119.3164883541
 20
115.0955040748
 10
119.30665421
 20
115.1287675758
 10
119.2980465672
 20
115.1621442307
 10
119.2906693137
 20
115.1956189648
 10
119.2845257813
 20
115.2291766589
 10
119.2796187448
 20
115.2628021564
 10
119.2759504206
 20
115.2964802701
 10
119.2735224654
 20
115.3301957889
 10
119.272335976
 20
115.363933485
 10
119.2722072297
 20
115.3792977189
  0
LINE
  5
60D
100
AcDbEntity
  8
RACCORDO
100
AcDbLine
 62
253
  6
CONTINUOUS
 10
129.4826628749
 20
93.1694404949
 11
129.4826019613
 21
97.7997101449
  0
LINE
  5
60E
100
AcDbEntity
  8
RACCORDO
100
AcDbLine
 62
253
  6
CONTINUOUS
 10
129.4826019613
 20
99.4707556113
 11
129.4826019613
 21
109.0669999646
  0
LINE
  5
60F
100
AcDbEntity
  8
RACCORDO
100
AcDbLine
 62
253
  6
CONTINUOUS
 10
129.4826019613
 20
110.738045431
 11
129.4826019613
 21
114.3275795187
  0
LWPOLYLINE
  5
610
100
AcDbEntity
  8
RACCORDO
100
AcDbPolyline
 62
7
  6
CONTINUOUS
 90
14
 70
0
 10
129.7632626734
 20
108.9136081664
 10
129.7635382818
 20
108.9230928706
 10
129.7647517159
 20
108.9356071228
 10
129.7667723089
 20
108.9472058602
 10
129.7694373891
 20
108.9578612979
 10
129.7725685135
 20
108.9674772146
 10
129.7759433429
 20
108.975897106
 10
129.7793582319
 20
108.9830805158
 10
129.7826697924
 20
108.9891064719
 10
129.7857439508
 20
108.9940344505
 10
129.7884325818
 20
108.9978865787
 10
129.7906488173
 20
109.000759667
 10
129.7923860523
 20
109.0028159888
 10
129.7935795674
 20
109.0041143482
  0
LWPOLYLINE
  5
611
100
AcDbEntity
  8
0
100
AcDbPolyline
 62
7
  6
CONTINUOUS
 90
4
 70
0
 10
106.0019156549
 20
67.0749203386
 10
106.0123755517
 20
67.082898961
 10
106.0226500863
 20
67.0947234996
 10
106.0308322186
 20
67.109156488
  0
LWPOLYLINE
  5
612
100
AcDbEntity
  8
RACCORDO
100
AcDbPolyline
 62
253
  6
CONTINUOUS
 90
16
 70
0
 10
101.7489654476
 20
66.5440142638
 10
101.7102722948
 20
66.5186511037
 10
101.6683417157
 20
66.4957761631
 10
101.6236180921
 20
66.4756318714
 10
101.5765754064
 20
66.4584317185
 10
101.5277122185
 20
66.4443579921
 10
101.4775463822
 20
66.433559846
 10
101.4266095566
 20
66.4261517194
 10
101.3754415719
 20
66.4222121238
 10
101.3245847082
 20
66.4217828113
 10
101.2745779481
 20
66.4248683317
 10
101.225951265
 20
66.4314359845
 10
101.1792200062
 20
66.4414161655
 10
101.134879431
 20
66.4547031043
 10
101.0933994624
 20
66.4711559855
 10
101.0552197064
 20
66.4906004411
  0
LWPOLYLINE
  5
613
100
AcDbEntity
  8
RACCORDO
100
AcDbPolyline
 62
253
  6
CONTINUOUS
 90
36
 70
0
 10
122.350919691
 20
80.7299403098
 10
122.3721084954
 20
80.7438231953
 10
122.3927951666
 20
80.7585139307
 10
122.4129697478
 20
80.7740054373
 10
122.4326226804
 20
80.7902903593
 10
122.4517447996
 20
80.8073610815
 10
122.4703270284
 20
80.8252095207
 10
122.4883604252
 20
80.8438271154
 10
122.5058364145
 20
80.8632049853
 10
122.5227466402
 20
80.8833338649
 10
122.5390830517
 20
80.9042041812
 10
122.5548379423
 20
80.9258060552
 10
122.5700038062
 20
80.9481292023
 10
122.584573403
 20
80.9711629851
 10
122.5985398447
 20
80.9948964896
 10
122.6118964923
 20
81.019318442
 10
122.6246369626
 20
81.044417198
 10
122.6367551903
 20
81.0701807992
 10
122.6482454171
 20
81.0965969922
 10
122.6591021686
 20
81.1236532036
 10
122.6693202612
 20
81.1513365295
 10
122.6788948449
 20
81.1796337862
 10
122.6878213748
 20
81.2085315289
 10
122.6960955884
 20
81.2380160266
 10
122.7037135731
 20
81.2680732657
 10
122.7106717145
 20
81.298688953
 10
122.7169666653
 20
81.329848536
 10
122.7225954698
 20
81.3615372609
 10
122.7275554551
 20
81.3937400174
 10
122.7318441819
 20
81.4264413404
 10
122.7354596449
 20
81.4596255964
 10
122.7384001699
 20
81.4932771061
 10
122.740664295
 20
81.5273799965
 10
122.7422509409
 20
81.5619181119
 10
122.7431594243
 20
81.5968750133
 10
122.7433893531
 20
81.6322341018
  0
LWPOLYLINE
  5
614
100
AcDbEntity
  8
RACCORDO
100
AcDbPolyline
 62
7
  6
CONTINUOUS
 90
43
 70
0
 10
122.3416473694
 20
80.7242152205
 10
122.3588449096
 20
80.7348223277
 10
122.3875144073
 20
80.7533213226
 10
122.4157235551
 20
80.7725623722
 10
122.4434448975
 20
80.7925278835
 10
122.4706677574
 20
80.8132109165
 10
122.4973971535
 20
80.8346173133
 10
122.5236143475
 20
80.8567352927
 10
122.5493011305
 20
80.8795525402
 10
122.5744615189
 20
80.9030769795
 10
122.5990769018
 20
80.9272966367
 10
122.6231291312
 20
80.9521988111
 10
122.64662097
 20
80.9777930715
 10
122.6695347536
 20
81.0040686053
 10
122.6918514307
 20
81.0310115978
 10
122.7135699137
 20
81.0586298807
 10
122.7346725273
 20
81.0869118299
 10
122.7551411204
 20
81.11584408
 10
122.7749725103
 20
81.1454344122
 10
122.7941491675
 20
81.1756703892
 10
122.812654016
 20
81.2065390915
 10
122.8304832028
 20
81.2380503455
 10
122.8476174313
 20
81.2701878422
 10
122.8640425348
 20
81.3029428897
 10
122.8797598072
 20
81.336340518
 10
122.8947493104
 20
81.3703649332
 10
122.9089960694
 20
81.4050090445
 10
122.92250381
 20
81.4403162153
 10
122.9352601471
 20
81.4762992045
 10
122.9472369463
 20
81.5129260708
 10
122.9584127593
 20
81.550177156
 10
122.9687707187
 20
81.5880454593
 10
122.9782927906
 20
81.6265184752
 10
122.9869592266
 20
81.6655708878
 10
122.9947552382
 20
81.7051952356
 10
123.0016655159
 20
81.7453806789
 10
123.0076731766
 20
81.7860995595
 10
123.0127652437
 20
81.8273444475
 10
123.0169285135
 20
81.8691063626
 10
123.0201489297
 20
81.9113586481
 10
123.0224144
 20
81.9540889297
 10
123.0237136183
 20
81.9972949524
 10
123.0240495431
 20
82.0333176457
  0
LWPOLYLINE
  5
615
100
AcDbEntity
  8
RACCORDO
100
AcDbPolyline
 62
253
  6
CONTINUOUS
 90
30
 70
0
 10
122.7433893531
 20
81.6322341018
 10
122.7620504916
 20
81.6437002582
 10
122.7801635866
 20
81.6554557492
 10
122.7977151871
 20
81.6674918451
 10
122.8146922593
 20
81.6797996078
 10
122.8310821958
 20
81.6923698975
 10
122.8468728255
 20
81.7051933796
 10
122.8620524221
 20
81.7182605311
 10
122.8766097131
 20
81.7315616483
 10
122.8905338883
 20
81.7450868538
 10
122.9038146074
 20
81.7588261037
 10
122.9164420082
 20
81.7727691951
 10
122.9284067135
 20
81.7869057737
 10
122.9396998381
 20
81.8012253418
 10
122.9503129958
 20
81.8157172655
 10
122.9602383052
 20
81.8303707831
 10
122.9694683957
 20
81.8451750127
 10
122.977996413
 20
81.8601189606
 10
122.985816024
 20
81.8751915294
 10
122.992921422
 20
81.8903815262
 10
122.9993073304
 20
81.9056776707
 10
123.0049690071
 20
81.9210686039
 10
123.0099022475
 20
81.9365428965
 10
123.0141033883
 20
81.9520890571
 10
123.0175693097
 20
81.9676955411
 10
123.0202974379
 20
81.9833507591
 10
123.0222857469
 20
81.9990430853
 10
123.0235327603
 20
82.0147608666
 10
123.0240375519
 20
82.0304924309
 10
123.0240495528
 20
82.0333176457
  0
LINE
  5
616
100
AcDbEntity
  8
0
100
AcDbLine
 62
7
  6
CONTINUOUS
 10
107.4389684409
 20
72.2247982946
 11
105.7662365667
 21
71.2096350065
  0
LINE
  5
617
100
AcDbEntity
  8
RACCORDO
100
AcDbLine
 62
253
  6
CONTINUOUS
 10
114.8804287397
 20
76.8641434768
 11
122.7433893531
 21
81.6322341018
  0
LINE
  5
618
100
AcDbEntity
  8
RACCORDO
100
AcDbLine
 62
7
  6
CONTINUOUS
 10
114.8317222363
 20
76.1702047904
 11
122.3416787168
 21
80.7242340994
  0
LINE
  5
619
100
AcDbEntity
  8
0
100
AcDbLine
 62
253
  6
CONTINUOUS
 10
107.4911628763
 20
72.0670416133
 11
114.8509903912
 21
76.4223252509
  0
LINE
  5
61A
100
AcDbEntity
  8
RACCORDO
100
AcDbLine
 62
7
  6
CONTINUOUS
 10
107.4389684409
 20
71.3657503735
 11
114.4430151009
 21
75.5104955804
  0
LINE
  5
61B
100
AcDbEntity
  8
0
100
AcDbLine
 62
253
  6
CONTINUOUS
 10
103.9942061965
 20
71.1546740782
 11
104.6442218594
 21
71.5042314664
  0
LINE
  5
61C
100
AcDbEntity
  8
0
100
AcDbLine
 62
7
  6
CONTINUOUS
 10
103.7772431008
 20
70.6914741167
 11
104.6556069988
 21
71.1638297961
  0
LWPOLYLINE
  5
61D
100
AcDbEntity
  8
0
100
AcDbPolyline
 62
7
  6
CONTINUOUS
 90
10
 70
0
 10
105.3634889229
 20
70.7551151029
 10
105.3644335082
 20
70.7555559085
 10
105.3670457714
 20
70.7571771241
 10
105.3712056527
 20
70.7595596908
 10
105.3767994727
 20
70.7627282871
 10
105.3836836918
 20
70.7667850322
 10
105.3917668403
 20
70.7714276649
 10
105.4009466653
 20
70.7765838574
 10
105.4110876874
 20
70.7824054168
 10
105.4220675641
 20
70.788919062
  0
LWPOLYLINE
  5
61E
100
AcDbEntity
  8
0
100
AcDbPolyline
 62
7
  6
CONTINUOUS
 90
19
 70
0
 10
109.4201937041
 20
120.3348839947
 10
109.4071540726
 20
120.335764889
 10
109.3943272669
 20
120.3359664268
 10
109.3817906424
 20
120.3355279031
 10
109.3695451168
 20
120.3344901686
 10
109.3576438644
 20
120.3328977376
 10
109.3462300426
 20
120.3308200628
 10
109.3351561336
 20
120.3282768787
 10
109.3245847329
 20
120.3253508558
 10
109.3150725679
 20
120.3222896315
 10
109.3066315391
 20
120.3192240171
 10
109.2991087967
 20
120.3162108941
 10
109.2927542812
 20
120.3134608735
 10
109.28779208
 20
120.3111888606
 10
109.2837885995
 20
120.3092837932
 10
109.2800758607
 20
120.3074674536
 10
109.2765569077
 20
120.3057093292
 10
109.2732821627
 20
120.3040473864
 10
109.2663336548
 20
120.3004592226
  0
LWPOLYLINE
  5
61F
100
AcDbEntity
  8
RACCORDO
100
AcDbPolyline
 62
7
  6
CONTINUOUS
 90
10
 70
0
 10
123.5650991886
 20
115.8244018643
 10
123.5569423365
 20
115.8267658233
 10
123.5476331245
 20
115.8282774566
 10
123.5378629107
 20
115.8286869365
 10
123.5275367153
 20
115.8279840511
 10
123.5167495181
 20
115.8261790122
 10
123.5057862592
 20
115.8233024547
 10
123.4947419185
 20
115.8193645901
 10
123.483521516
 20
115.814355207
 10
123.4721250517
 20
115.8082743051
  0
LINE
  5
620
100
AcDbEntity
  8
0
100
AcDbLine
 62
7
  6
CONTINUOUS
 10
122.1606870663
 20
115.0510664485
 11
121.7109424049
 21
115.1916577945
  0
LWPOLYLINE
  5
621
100
AcDbEntity
  8
RACCORDO
100
AcDbPolyline
 62
7
  6
CONTINUOUS
 90
22
 70
0
 10
123.5650983428
 20
115.8244001672
 10
123.4461880127
 20
115.8638577587
 10
123.3240148629
 20
115.8995445126
 10
123.1991037989
 20
115.9313273906
 10
123.071789476
 20
115.9591501559
 10
122.9423971907
 20
115.9829670419
 10
122.8112480049
 20
116.0027399213
 10
122.678690957
 20
116.0184339735
 10
122.5450599522
 20
116.0300248939
 10
122.4106621785
 20
116.0374967052
 10
122.2758454499
 20
116.0408368838
 10
122.1409530554
 20
116.0400415817
 10
122.0062875446
 20
116.0351130169
 10
121.8721905064
 20
116.0260598441
 10
121.7390097448
 20
116.0128995278
 10
121.6070537637
 20
115.9956528512
 10
121.4766637792
 20
115.9743507301
 10
121.3481757957
 20
115.9490317732
 10
121.22188163
 20
115.9197321421
 10
121.098095609
 20
115.8864971002
 10
120.9771585773
 20
115.8493867299
 10
120.8593945769
 20
115.8084659608
  0
LWPOLYLINE
  5
622
100
AcDbEntity
  8
RACCORDO
100
AcDbPolyline
 62
7
  6
CONTINUOUS
 90
6
 70
0
 10
124.4143186842
 20
115.3342225244
 10
124.4968743079
 20
115.3040277388
 10
124.5812955622
 20
115.2729876509
 10
124.6675824468
 20
115.2411022609
 10
124.7557193784
 20
115.2083693454
 10
124.8457219404
 20
115.1747911277
  0
LWPOLYLINE
  5
623
100
AcDbEntity
  8
RACCORDO
100
AcDbPolyline
 62
7
  6
CONTINUOUS
 90
3
 70
0
 10
123.7395481344
 20
115.7604168007
 10
123.6485297874
 20
115.7938894201
 10
123.5650991886
 20
115.8244018643
  0
LINE
  5
624
100
AcDbEntity
  8
0
100
AcDbLine
 62
7
  6
CONTINUOUS
 10
124.2143616408
 20
115.5853361506
 11
124.2126042435
 21
115.5859842124
  0
LINE
  5
625
100
AcDbEntity
  8
RACCORDO
100
AcDbLine
 62
7
  6
CONTINUOUS
 10
124.2352587016
 20
115.5775730852
 11
124.2143600757
 21
115.5853319348
  0
LWPOLYLINE
  5
626
100
AcDbEntity
  8
RACCORDO
100
AcDbPolyline
 62
7
  6
CONTINUOUS
 90
5
 70
0
 10
124.0895350115
 20
115.6301438854
 10
123.9976639302
 20
115.6645449111
 10
123.9076567007
 20
115.6981257191
 10
123.8194700727
 20
115.7308776969
 10
123.7395481344
 20
115.7604168007
  0
LINE
  5
627
100
AcDbEntity
  8
RACCORDO
100
AcDbLine
 62
7
  6
CONTINUOUS
 10
124.8457219404
 20
115.1747911277
 11
124.9421575632
 21
115.1386760282
  0
LWPOLYLINE
  5
628
100
AcDbEntity
  8
0
100
AcDbPolyline
 62
253
  6
CONTINUOUS
 90
8
 70
0
 10
116.215453068
 20
116.4371293519
 10
116.1872415758
 20
116.4477566821
 10
116.1567715363
 20
116.4535684666
 10
116.124369415
 20
116.4545024362
 10
116.0903823782
 20
116.4505485839
 10
116.0551745737
 20
116.4417492727
 10
116.0191232286
 20
116.4281987813
 10
115.982614608
 20
116.4100422939
  0
LINE
  5
629
100
AcDbEntity
  8
RACCORDO
100
AcDbLine
 62
7
  6
CONTINUOUS
 10
124.2119078867
 20
115.5841367154
 11
124.0895350115
 21
115.6301438854
  0
LWPOLYLINE
  5
62A
100
AcDbEntity
  8
RACCORDO
100
AcDbPolyline
 62
7
  6
CONTINUOUS
 90
3
 70
0
 10
124.3763746169
 20
115.5220281157
 10
124.2788975632
 20
115.5588869232
 10
124.2119078867
 20
115.5841367154
  0
LINE
  5
62B
100
AcDbEntity
  8
RACCORDO
100
AcDbLine
 62
253
  6
CONTINUOUS
 10
124.3763746169
 20
115.5220281157
 11
124.2143616338
 21
115.5853361532
  0
LINE
  5
62C
100
AcDbEntity
  8
RACCORDO
100
AcDbLine
 62
7
  6
CONTINUOUS
 10
124.3783192401
 20
115.52125809
 11
124.2352587016
 21
115.5775730852
  0
LWPOLYLINE
  5
62D
100
AcDbEntity
  8
0
100
AcDbPolyline
 62
253
  6
CONTINUOUS
 90
11
 70
0
 10
109.5217877062
 20
120.3025038866
 10
109.5145191738
 20
120.3058918067
 10
109.5011146129
 20
120.3091820255
 10
109.4855201276
 20
120.3099874873
 10
109.4677709242
 20
120.3084110779
 10
109.4479749833
 20
120.3045075267
 10
109.4263901254
 20
120.2983219231
 10
109.4032681795
 20
120.2899615794
 10
109.3788173258
 20
120.2795587295
 10
109.3531937026
 20
120.267242864
 10
109.3265676796
 20
120.2531603705
  0
LWPOLYLINE
  5
62E
100
AcDbEntity
  8
0
100
AcDbPolyline
 62
253
  6
CONTINUOUS
 90
7
 70
0
 10
115.982614608
 20
116.4100422939
 10
115.9641343016
 20
116.4192914173
 10
115.9459279677
 20
116.4255643212
 10
115.9283071218
 20
116.4287536744
 10
115.9115732615
 20
116.4288049063
 10
115.8960127076
 20
116.4257171402
 10
115.8827940498
 20
116.4200549523
  0
LWPOLYLINE
  5
62F
100
AcDbEntity
  8
0
100
AcDbPolyline
 62
7
  6
CONTINUOUS
 90
6
 70
0
 10
116.2264563306
 20
116.4313123719
 10
116.1950071911
 20
116.4470887729
 10
116.1611183269
 20
116.459339539
 10
116.1251155481
 20
116.4676768229
 10
116.0874772604
 20
116.4717677114
 10
116.0485279151
 20
116.4713874305
  0
LINE
  5
630
100
AcDbEntity
  8
0
100
AcDbLine
 62
253
  6
CONTINUOUS
 10
116.2264563306
 20
116.4313123719
 11
116.215453068
 21
116.4371293519
  0
LWPOLYLINE
  5
631
100
AcDbEntity
  8
0
100
AcDbPolyline
 62
253
  6
CONTINUOUS
 90
10
 70
0
 10
109.3265676796
 20
120.2531603705
 10
109.3112838247
 20
120.2613474152
 10
109.2960928117
 20
120.2679053691
 10
109.2811102534
 20
120.2727843234
 10
109.266450177
 20
120.2759471469
 10
109.252224153
 20
120.2773697708
 10
109.2385404472
 20
120.2770413696
 10
109.2255031999
 20
120.2749644423
 10
109.2132116335
 20
120.2711547949
 10
109.2034379787
 20
120.2665853016
  0
LWPOLYLINE
  5
632
100
AcDbEntity
  8
0
100
AcDbPolyline
 62
7
  6
CONTINUOUS
 90
9
 70
0
 10
109.5219930359
 20
120.3024084545
 10
109.5131076394
 20
120.3073065902
 10
109.5000915046
 20
120.3136672872
 10
109.4868848552
 20
120.3192034621
 10
109.4735419783
 20
120.3239234977
 10
109.4601485048
 20
120.3278302856
 10
109.4467536023
 20
120.3309444777
 10
109.4334070598
 20
120.3332884908
 10
109.4201937041
 20
120.3348839947
  0
LINE
  5
633
100
AcDbEntity
  8
DRAFT
100
AcDbLine
 62
7
  6
CONTINUOUS
 10
107.8958409684
 20
120.371755653
 11
108.6257198494
 21
119.9503327347
  0
LINE
  5
634
100
AcDbEntity
  8
DRAFT
100
AcDbLine
 62
7
  6
CONTINUOUS
 10
119.3627933555
 20
113.7508810593
 11
120.2386709143
 21
113.2451603342
  0
LINE
  5
635
100
AcDbEntity
  8
0
100
AcDbLine
 62
7
  6
CONTINUOUS
 10
111.8630928853
 20
118.3461000759
 11
115.5347657436
 21
116.2261221844
  0
LINE
  5
636
100
AcDbEntity
  8
0
100
AcDbLine
 62
253
  6
CONTINUOUS
 10
109.3265676796
 20
120.2531603705
 11
111.4571312085
 21
119.0229996912
  0
LINE
  5
637
100
AcDbEntity
  8
0
100
AcDbLine
 62
253
  6
CONTINUOUS
 10
115.982614608
 20
116.4100422939
 11
118.1131781369
 21
115.1798816146
  0
LINE
  5
638
100
AcDbEntity
  8
0
100
AcDbLine
 62
7
  6
CONTINUOUS
 10
109.5211988088
 20
120.3028440284
 11
111.700972931
 21
119.0442697692
  0
LINE
  5
639
100
AcDbEntity
  8
0
100
AcDbLine
 62
7
  6
CONTINUOUS
 10
121.2159676581
 20
114.9058655792
 11
120.508998718
 21
115.3140605848
  0
LINE
  5
63A
100
AcDbEntity
  8
0
100
AcDbLine
 62
7
  6
CONTINUOUS
 10
121.7109424049
 20
115.1916577945
 11
121.0039734648
 21
115.5998528001
  0
LINE
  5
63B
100
AcDbEntity
  8
0
100
AcDbLine
 62
7
  6
CONTINUOUS
 10
116.2264563306
 20
116.4313123719
 11
118.406448499
 21
115.1726105333
  0
LWPOLYLINE
  5
63C
100
AcDbEntity
  8
0
100
AcDbPolyline
 62
253
  6
CONTINUOUS
 90
10
 70
0
 10
118.1131781369
 20
115.1798816146
 10
118.1287128392
 20
115.1702752745
 10
118.1441042864
 20
115.1591751897
 10
118.1592353454
 20
115.1466662178
 10
118.1739907692
 20
115.1328440453
 10
118.1882585011
 20
115.1178140588
 10
118.2019304742
 20
115.1016904263
 10
118.2149028695
 20
115.0845958196
 10
118.2270769568
 20
115.0666605882
 10
118.2383602355
 20
115.0480212925
  0
LWPOLYLINE
  5
63D
100
AcDbEntity
  8
0
100
AcDbPolyline
 62
253
  6
CONTINUOUS
 90
13
 70
0
 10
111.4571312085
 20
119.0229996912
 10
111.4755692846
 20
119.0109326031
 10
111.4936496495
 20
118.9962540217
 10
111.5110629432
 20
118.9792151016
 10
111.5275112193
 20
118.9601073834
 10
111.5427130433
 20
118.9392578055
 10
111.5564083075
 20
118.9170231102
 10
111.5683626822
 20
118.8937837396
 10
111.5783716248
 20
118.8699373256
 10
111.5862638797
 20
118.8458918867
 10
111.5919044084
 20
118.8220588469
 10
111.5951966997
 20
118.7988459962
 10
111.5960844217
 20
118.7766505128
  0
LWPOLYLINE
  5
63E
100
AcDbEntity
  8
0
100
AcDbPolyline
 62
7
  6
CONTINUOUS
 90
4
 70
0
 10
118.4870716073
 20
115.1167406493
 10
118.4644130275
 20
115.1343829643
 10
118.4230186579
 20
115.1626668863
 10
118.4066850627
 20
115.1724948258
  0
LINE
  5
63F
100
AcDbEntity
  8
0
100
AcDbLine
 62
7
  6
CONTINUOUS
 10
118.4870138356
 20
115.1167571574
 11
118.4870575939
 21
115.1167215305
  0
LWPOLYLINE
  5
640
100
AcDbEntity
  8
0
100
AcDbPolyline
 62
253
  6
CONTINUOUS
 90
10
 70
0
 10
118.4576262783
 20
114.9967555938
 10
118.4732757969
 20
114.9832775585
 10
118.4882579709
 20
114.9686965735
 10
118.5025728003
 20
114.9530126389
 10
118.5163086213
 20
114.93615316
 10
118.5293770977
 20
114.9181907313
 10
118.5415132208
 20
114.8993431366
 10
118.5526286544
 20
114.8796829704
 10
118.5628117346
 20
114.8591376381
 10
118.5720624615
 20
114.8377071396
  0
LWPOLYLINE
  5
641
100
AcDbEntity
  8
0
100
AcDbPolyline
 62
7
  6
CONTINUOUS
 90
3
 70
0
 10
118.5371255541
 20
115.0710752512
 10
118.4978720436
 20
115.1077161729
 10
118.4870138356
 20
115.1167571574
  0
LINE
  5
642
100
AcDbEntity
  8
0
100
AcDbLine
 62
7
  6
CONTINUOUS
 10
121.2159676581
 20
114.9058655792
 11
121.4594633244
 21
114.6461886483
  0
LINE
  5
643
100
AcDbEntity
  8
0
100
AcDbLine
 62
7
  6
CONTINUOUS
 10
118.5735757015
 20
115.0304741412
 11
118.5371255541
 21
115.0710752512
  0
LWPOLYLINE
  5
644
100
AcDbEntity
  8
0
100
AcDbPolyline
 62
253
  6
CONTINUOUS
 90
9
 70
0
 10
118.4870575939
 20
115.1167215305
 10
118.4907591393
 20
115.1124540629
 10
118.4939234792
 20
115.1036252003
 10
118.4943953565
 20
115.0918371054
 10
118.492167051
 20
115.0772826329
 10
118.4872750194
 20
115.0601998941
 10
118.4797992976
 20
115.040868363
 10
118.4698621919
 20
115.0196043032
 10
118.4576262781
 20
114.9967555937
  0
LWPOLYLINE
  5
645
100
AcDbEntity
  8
RACCORDO
100
AcDbPolyline
 62
7
  6
CONTINUOUS
 90
31
 70
0
 10
129.7632621516
 20
114.7286979432
 10
129.7629720599
 20
114.7623134273
 10
129.7618260168
 20
114.8037535203
 10
129.7598147262
 20
114.8453232984
 10
129.7569415243
 20
114.8870382774
 10
129.7532120018
 20
114.9288711921
 10
129.7486380442
 20
114.9707491074
 10
129.743226878
 20
115.0126680313
 10
129.736985066
 20
115.0546221849
 10
129.7299310799
 20
115.0965340411
 10
129.7220741704
 20
115.1383991584
 10
129.7134224439
 20
115.1802129864
 10
129.7040010833
 20
115.2218958582
 10
129.6938217646
 20
115.2634401984
 10
129.6828936048
 20
115.3048448564
 10
129.67124566
 20
115.3460377586
 10
129.6588946415
 20
115.386999079
 10
129.6458474841
 20
115.4277403193
 10
129.6321224794
 20
115.4682343507
 10
129.617732353
 20
115.5084712928
 10
129.6026855557
 20
115.5484520462
 10
129.5869947257
 20
115.5881633844
 10
129.5706693315
 20
115.6275999389
 10
129.553717648
 20
115.6667571115
 10
129.5361514926
 20
115.7056209155
 10
129.5179793224
 20
115.7441847525
 10
129.4992078157
 20
115.7824436503
 10
129.4798468876
 20
115.8203854924
 10
129.4599037047
 20
115.8580025848
 10
129.4393834813
 20
115.8952900316
 10
129.4222123162
 20
115.925472936
  0
LINE
  5
646
100
AcDbEntity
  8
RACCORDO
100
AcDbLine
 62
7
  6
CONTINUOUS
 10
129.763262161
 20
93.592665404
 11
129.7632617254
 21
97.6468398126
  0
LINE
  5
647
100
AcDbEntity
  8
RACCORDO
100
AcDbLine
 62
7
  6
CONTINUOUS
 10
129.763262161
 20
114.7286935057
 11
129.7632617475
 21
111.6920578892
  0
LINE
  5
648
100
AcDbEntity
  8
RACCORDO
100
AcDbLine
 62
7
  6
CONTINUOUS
 10
129.7632617489
 20
108.9141106564
 11
129.7632617242
 21
100.4247200724
  0
LWPOLYLINE
  5
649
100
AcDbEntity
  8
RACCORDO
100
AcDbPolyline
 62
253
  6
CONTINUOUS
 90
57
 70
0
 10
129.7632617242
 20
100.4247200724
 10
129.7632359917
 20
100.4137046693
 10
129.7626812316
 20
100.3668305118
 10
129.7614770096
 20
100.3221328912
 10
129.7597001169
 20
100.2792967326
 10
129.757407489
 20
100.2381268347
 10
129.7546568918
 20
100.198601644
 10
129.7515089619
 20
100.1607502854
 10
129.7480026459
 20
100.1244524355
 10
129.7441898792
 20
100.0897487927
 10
129.7401141546
 20
100.0565999475
 10
129.7357831538
 20
100.0247656253
 10
129.7312316583
 20
99.9942488513
 10
129.7264923018
 20
99.9650455836
 10
129.7215497795
 20
99.9369065353
 10
129.716410896
 20
99.9097508185
 10
129.7111117883
 20
99.8836585614
 10
129.705671072
 20
99.8586229012
 10
129.7001072043
 20
99.8346417265
 10
129.6944418709
 20
99.8117143999
 10
129.6886975936
 20
99.7898358485
 10
129.6829036592
 20
99.7690443313
 10
129.6770688623
 20
99.7492970111
 10
129.671181611
 20
99.7304674814
 10
129.6652523472
 20
99.7125413095
 10
129.6592988508
 20
99.6955289793
 10
129.6533155104
 20
99.6793423914
 10
129.647302301
 20
99.6639545116
 10
129.6412816737
 20
99.6493887058
 10
129.6352807716
 20
99.6356324189
 10
129.6293153708
 20
99.622699096
 10
129.6233928248
 20
99.6105702237
 10
129.6175283917
 20
99.5991847835
 10
129.6117475108
 20
99.5885659264
 10
129.6060462252
 20
99.5786848622
 10
129.6003932964
 20
99.5694032747
 10
129.5948033984
 20
99.5607200856
 10
129.5892769059
 20
99.5526321978
 10
129.5837559114
 20
99.5450000706
 10
129.5782335269
 20
99.5377988295
 10
129.5727245293
 20
99.5310514452
 10
129.567199267
 20
99.5246917435
 10
129.5616508647
 20
99.5187058945
 10
129.5560911451
 20
99.5131067746
 10
129.5505169325
 20
99.5078688735
 10
129.5449299369
 20
99.5029912346
 10
129.5393329741
 20
99.4984738555
 10
129.5337241333
 20
99.4942927882
 10
129.5281071821
 20
99.4904483201
 10
129.5224824474
 20
99.4869392311
 10
129.5168423863
 20
99.483739498
 10
129.5111907656
 20
99.4808485284
 10
129.5055271714
 20
99.4782661973
 10
129.4998370109
 20
99.4759675434
 10
129.4941159842
 20
99.4739442587
 10
129.48837059
 20
99.4722044268
 10
129.4826019613
 20
99.4707478985
  0
LWPOLYLINE
  5
64A
100
AcDbEntity
  8
RACCORDO
100
AcDbPolyline
 62
253
  6
CONTINUOUS
 90
57
 70
0
 10
129.7632617475
 20
111.6920578892
 10
129.7632078537
 20
111.6754262351
 10
129.7625777829
 20
111.6290436315
 10
129.7613097842
 20
111.5846643329
 10
129.7594764464
 20
111.5420662953
 10
129.7571431184
 20
111.5012491969
 10
129.7543813163
 20
111.4623145639
 10
129.7512491381
 20
111.4251670807
 10
129.7477711353
 20
111.3895101182
 10
129.7439909388
 20
111.355334593
 10
129.7399535545
 20
111.3226509814
 10
129.7356599786
 20
111.291192962
 10
129.7311322518
 20
111.2609046315
 10
129.7264081108
 20
111.23184168
 10
129.7214968279
 20
111.203906165
 10
129.7164167361
 20
111.1770696341
 10
129.7111975958
 20
111.1513587063
 10
129.7058607713
 20
111.1267581037
 10
129.7004364163
 20
111.1033035609
 10
129.6949388466
 20
111.0809553986
 10
129.6893610994
 20
111.059585552
 10
129.6837242438
 20
111.0392036441
 10
129.6780410371
 20
111.0197962052
 10
129.6722839481
 20
111.0012019804
 10
129.6664559579
 20
110.9833901677
 10
129.6605764129
 20
110.9663890778
 10
129.6546361461
 20
110.9501274242
 10
129.6486254948
 20
110.9345622213
 10
129.642571265
 20
110.9197343941
 10
129.6365196596
 20
110.9056980362
 10
129.6304856991
 20
110.8924726993
 10
129.6244761596
 20
110.8800343399
 10
129.6185285851
 20
110.8683702006
 10
129.6126762938
 20
110.857520098
 10
129.6069091538
 20
110.8474381074
 10
129.6011985035
 20
110.8379829874
 10
129.5955628016
 20
110.82915776
 10
129.5900000325
 20
110.8209547731
 10
129.5844452459
 20
110.8132186935
 10
129.5788907991
 20
110.8059217418
 10
129.5733526207
 20
110.799089671
 10
129.5677962918
 20
110.7926492666
 10
129.5622132595
 20
110.7865842719
 10
129.5566169757
 20
110.7809100399
 10
129.5510042499
 20
110.775601459
 10
129.5453763206
 20
110.7706573366
 10
129.539736461
 20
110.7660779421
 10
129.5340841824
 20
110.7618404676
 10
129.5284233877
 20
110.7579455357
 10
129.5227543587
 20
110.7543915761
 10
129.5170707819
 20
110.7511526389
 10
129.5113765492
 20
110.7482283682
 10
129.5056712698
 20
110.7456183522
 10
129.4999414854
 20
110.7432968877
 10
129.4941833484
 20
110.7412553863
 10
129.4884030991
 20
110.7395021288
 10
129.4826019613
 20
110.7380369254
  0
LWPOLYLINE
  5
64B
100
AcDbEntity
  8
RACCORDO
100
AcDbPolyline
 62
7
  6
CONTINUOUS
 90
39
 70
0
 10
129.763262161
 20
93.5926651836
 10
129.7632165902
 20
93.5831187032
 10
129.7626016607
 20
93.5563258349
 10
129.7612679097
 20
93.5295423069
 10
129.759215375
 20
93.5027921853
 10
129.756444014
 20
93.4760900778
 10
129.7529527051
 20
93.4494431052
 10
129.7487400403
 20
93.4228615487
 10
129.743807842
 20
93.3963743766
 10
129.7381608983
 20
93.3700166853
 10
129.7318046983
 20
93.3438173514
 10
129.7247408892
 20
93.3177860574
 10
129.7169694838
 20
93.2919290705
 10
129.708492925
 20
93.2662625813
 10
129.69931629
 20
93.2408093717
 10
129.6894430543
 20
93.2155858993
 10
129.6788777658
 20
93.1906106015
 10
129.6676263116
 20
93.1659037809
 10
129.655694756
 20
93.1414846605
 10
129.6430897388
 20
93.1173724068
 10
129.6298183924
 20
93.0935859537
 10
129.6158883248
 20
93.0701439933
 10
129.6013076491
 20
93.0470650377
 10
129.5860852476
 20
93.0243677989
 10
129.5702307124
 20
93.0020709942
 10
129.5537534419
 20
92.9801921109
 10
129.5366642893
 20
92.9587496779
 10
129.5189760381
 20
92.9377634756
 10
129.5006990554
 20
92.9172493643
 10
129.4818466667
 20
92.8972257531
 10
129.4624375422
 20
92.8777152056
 10
129.4424920941
 20
92.8587398642
 10
129.4220179491
 20
92.8403085661
 10
129.401014728
 20
92.8224241021
 10
129.3794811608
 20
92.8050905541
 10
129.3574462809
 20
92.7883363472
 10
129.3349567891
 20
92.7721989195
 10
129.3120500017
 20
92.7567037387
 10
129.2892275425
 20
92.7421594267
  0
LWPOLYLINE
  5
64C
100
AcDbEntity
  8
RACCORDO
100
AcDbPolyline
 62
253
  6
CONTINUOUS
 90
28
 70
0
 10
129.4826628749
 20
93.1694404949
 10
129.482177685
 20
93.1476238944
 10
129.4811467598
 20
93.1261451268
 10
129.4795708817
 20
93.1050204963
 10
129.4774512468
 20
93.0842660397
 10
129.4747894643
 20
93.0638975139
 10
129.4715875548
 20
93.0439303816
 10
129.467847949
 20
93.0243797994
 10
129.4635734856
 20
93.0052606083
 10
129.4587674095
 20
92.9865873219
 10
129.453433369
 20
92.9683741153
 10
129.4475754134
 20
92.9506348147
 10
129.4411979895
 20
92.933382886
 10
129.4343059387
 20
92.9166314253
 10
129.4269044928
 20
92.900393149
 10
129.4189992705
 20
92.8846803834
 10
129.4105962727
 20
92.8695050564
 10
129.4017018785
 20
92.8548786877
 10
129.3923228397
 20
92.8408123802
 10
129.3824662763
 20
92.8273168118
 10
129.3721396706
 20
92.8144022272
 10
129.3613508619
 20
92.8020784297
 10
129.3501080401
 20
92.7903547743
 10
129.3384197402
 20
92.7792401607
 10
129.3262948349
 20
92.7687430258
 10
129.3137425286
 20
92.7588713379
 10
129.3007723503
 20
92.7496325906
 10
129.289227738
 20
92.7421595476
  0
LWPOLYLINE
  5
64D
100
AcDbEntity
  8
RACCORDO
100
AcDbPolyline
 62
7
  6
CONTINUOUS
 90
14
 70
0
 10
129.7632626857
 20
97.646316629
 10
129.763538407
 20
97.6558041264
 10
129.7647520487
 20
97.6683197199
 10
129.7667728659
 20
97.6799188101
 10
129.7694379924
 20
97.6905735152
 10
129.7725687285
 20
97.7001879107
 10
129.7759429771
 20
97.7086064641
 10
129.7793574735
 20
97.7157892167
 10
129.7826688191
 20
97.721814988
 10
129.7857431029
 20
97.7267433651
 10
129.7884324758
 20
97.7305966085
 10
129.7906497788
 20
97.7334710062
 10
129.7923876111
 20
97.7355279294
 10
129.793580671
 20
97.7368257102
  0
LWPOLYLINE
  5
64E
100
AcDbEntity
  8
0
100
AcDbPolyline
 62
253
  6
CONTINUOUS
 90
7
 70
0
 10
106.5998303854
 20
67.8948246257
 10
106.6165606006
 20
67.9062184494
 10
106.6306035763
 20
67.9187638767
 10
106.6417243359
 20
67.932250989
 10
106.6497367992
 20
67.9464541105
 10
106.6545068961
 20
67.9611355849
 10
106.6559624254
 20
67.9750420331
  0
LINE
  5
64F
100
AcDbEntity
  8
0
100
AcDbLine
 62
253
  6
CONTINUOUS
 10
106.713345417
 20
68.737055159
 11
107.4081096034
 21
69.1667077535
  0
LINE
  5
650
100
AcDbEntity
  8
0
100
AcDbLine
 62
7
  6
CONTINUOUS
 10
106.6132782684
 20
68.5102554837
 11
107.3090180537
 21
68.9405114032
  0
LINE
  5
651
100
AcDbEntity
  8
0
100
AcDbLine
 62
253
  6
CONTINUOUS
 10
106.0415939749
 20
67.165424664
 11
106.5998303854
 21
67.510646434
  0
LINE
  5
652
100
AcDbEntity
  8
0
100
AcDbLine
 62
7
  6
CONTINUOUS
 10
106.0019267866
 20
67.0749272199
 11
106.5611555411
 21
67.4207626704
  0
LWPOLYLINE
  5
653
100
AcDbEntity
  8
0
100
AcDbPolyline
 62
253
  6
CONTINUOUS
 90
8
 70
0
 10
104.3401427083
 20
66.181134388
 10
104.3418971077
 20
66.182112218
 10
104.3541221337
 20
66.1911437284
 10
104.3644879137
 20
66.2030167689
 10
104.372817155
 20
66.2175282673
 10
104.3789673971
 20
66.2344300239
 10
104.3828334485
 20
66.253432957
 10
104.3843491856
 20
66.2742120469
  0
LWPOLYLINE
  5
654
100
AcDbEntity
  8
0
100
AcDbPolyline
 62
7
  6
CONTINUOUS
 90
3
 70
0
 10
105.998426568
 20
67.0729057836
 10
106.0001815395
 20
67.0738839212
 10
106.0019156549
 20
67.0749203386
  0
LINE
  5
655
100
AcDbEntity
  8
0
100
AcDbLine
 62
7
  6
CONTINUOUS
 10
106.613101506
 20
68.5101461745
 11
106.5985984968
 21
68.5021401754
  0
LINE
  5
656
100
AcDbEntity
  8
0
100
AcDbLine
 62
253
  6
CONTINUOUS
 10
104.3843491856
 20
66.2742120469
 11
106.0415939749
 21
67.165424664
  0
LINE
  5
657
100
AcDbEntity
  8
0
100
AcDbLine
 62
7
  6
CONTINUOUS
 10
104.3401427083
 20
66.181134388
 11
105.9984151664
 21
67.0728996522
  0
LWPOLYLINE
  5
658
100
AcDbEntity
  8
0
100
AcDbPolyline
 62
253
  6
CONTINUOUS
 90
11
 70
0
 10
105.6489045259
 20
68.0377885153
 10
105.6585385496
 20
68.0429444872
 10
105.6796158929
 20
68.0573051008
 10
105.698691641
 20
68.0748810628
 10
105.7156282345
 20
68.095543175
 10
105.7302906434
 20
68.1191321289
 10
105.7425637922
 20
68.1454675011
 10
105.7523647679
 20
68.1743548586
 10
105.7596180678
 20
68.2055747639
 10
105.7642562204
 20
68.2388844574
 10
105.7662365667
 20
68.2740276429
  0
LINE
  5
659
100
AcDbEntity
  8
0
100
AcDbLine
 62
253
  6
CONTINUOUS
 10
102.0982076328
 20
66.3882672327
 11
102.7899225958
 21
66.7468909195
  0
LINE
  5
65A
100
AcDbEntity
  8
RACCORDO
100
AcDbLine
 62
7
  6
CONTINUOUS
 10
102.6796461713
 20
66.5143648961
 11
101.9838272567
 21
66.1536139865
  0
LWPOLYLINE
  5
65B
100
AcDbEntity
  8
0
100
AcDbPolyline
 62
253
  6
CONTINUOUS
 90
13
 70
0
 10
104.3843491856
 20
66.2742120469
 10
104.3650673294
 20
66.2647463113
 10
104.343717693
 20
66.2567129037
 10
104.3206107349
 20
66.2502743003
 10
104.2960423101
 20
66.2455627685
 10
104.2704527952
 20
66.2427103989
 10
104.2444358781
 20
66.2418035015
 10
104.2184864025
 20
66.2428538254
 10
104.1929903179
 20
66.2458402488
 10
104.168389722
 20
66.2507102063
 10
104.1451027094
 20
66.2573783224
 10
104.1235173922
 20
66.2657307089
 10
104.1039961553
 20
66.2756246853
  0
LINE
  5
65C
100
AcDbEntity
  8
0
100
AcDbLine
 62
253
  6
CONTINUOUS
 10
105.7662365667
 20
68.2740276429
 11
106.713345417
 21
68.7371175271
  0
LINE
  5
65D
100
AcDbEntity
  8
0
100
AcDbLine
 62
7
  6
CONTINUOUS
 10
105.6482155678
 20
68.0374497245
 11
106.5983759357
 21
68.5020316516
  0
LWPOLYLINE
  5
65E
100
AcDbEntity
  8
DRAFT
100
AcDbPolyline
 62
7
  6
CONTINUOUS
 90
10
 70
0
 10
124.4864426281
 20
116.1612407978
 10
124.5225482477
 20
116.1431019109
 10
124.5580828501
 20
116.1246157108
 10
124.5930464353
 20
116.1057821976
 10
124.6274491725
 20
116.0865954996
 10
124.6612808925
 20
116.0670614885
 10
124.6945110872
 20
116.0471977792
 10
124.7271295874
 20
116.0270102433
 10
124.7591465624
 20
116.0064930093
 10
124.7905620121
 20
115.985646077
  0
LINE
  5
65F
100
AcDbEntity
  8
DRAFT
100
AcDbLine
 62
7
  6
CONTINUOUS
 10
120.7434786925
 20
116.0937338028
 11
120.3909940869
 21
116.2972539963
  0
LINE
  5
660
100
AcDbEntity
  8
DRAFT
100
AcDbLine
 62
7
  6
CONTINUOUS
 10
124.4864426281
 20
116.1612407978
 11
124.7905620121
 21
115.985646077
  0
LWPOLYLINE
  5
661
100
AcDbEntity
  8
RACCORDO
100
AcDbPolyline
 62
253
  6
CONTINUOUS
 90
13
 70
0
 10
124.4143186842
 20
115.3342225244
 10
124.4388416745
 20
115.3105445822
 10
124.4632074362
 20
115.2859729758
 10
124.4873441864
 20
115.260496011
 10
124.5111090713
 20
115.2341806299
 10
124.5344988871
 20
115.2069412638
 10
124.557622193
 20
115.1785319675
 10
124.5803697665
 20
115.1489388226
 10
124.6026277642
 20
115.1181497642
 10
124.6244374483
 20
115.0859103786
 10
124.6456453671
 20
115.0522060081
 10
124.6660904764
 20
115.0170260136
 10
124.6794645406
 20
114.9918915945
  0
LWPOLYLINE
  5
662
100
AcDbEntity
  8
RACCORDO
100
AcDbPolyline
 62
253
  6
CONTINUOUS
 90
15
 70
0
 10
124.3206820851
 20
115.3183614772
 10
124.3435425145
 20
115.2957524466
 10
124.3661200528
 20
115.2722492587
 10
124.3884147
 20
115.2478519133
 10
124.4104601983
 20
115.2226433071
 10
124.4322228055
 20
115.1965405435
 10
124.4536012949
 20
115.1692949334
 10
124.4746409979
 20
115.1409085456
 10
124.495296583
 20
115.1113793112
 10
124.5153308288
 20
115.0804523344
 10
124.5348012023
 20
115.0481253866
 10
124.5536502365
 20
115.0144006964
 10
124.5714683089
 20
114.979030053
 10
124.5883244065
 20
114.9420053396
 10
124.5886707732
 20
114.94115895
  0
LINE
  5
663
100
AcDbEntity
  8
0
100
AcDbLine
 62
7
  6
CONTINUOUS
 10
123.1747507909
 20
114.384600845
 11
123.0092152037
 21
114.5611369365
  0
LWPOLYLINE
  5
664
100
AcDbEntity
  8
RACCORDO
100
AcDbPolyline
 62
253
  6
CONTINUOUS
 90
57
 70
0
 10
129.763262161
 20
101.1606794802
 10
129.7695430912
 20
101.1405179508
 10
129.7817089781
 20
101.0982087714
 10
129.7931494117
 20
101.054929073
 10
129.8038487443
 20
101.0106878007
 10
129.8137425013
 20
100.9655184002
 10
129.8228201986
 20
100.9194139329
 10
129.8310678166
 20
100.8723821441
 10
129.8384183014
 20
100.8244801261
 10
129.8448669803
 20
100.7756275963
 10
129.8503950667
 20
100.7259085408
 10
129.8549232245
 20
100.6756302982
 10
129.858437702
 20
100.6245044503
 10
129.8609398027
 20
100.5728288494
 10
129.8624065052
 20
100.5218020494
 10
129.8628159919
 20
100.4715198207
 10
129.8622361668
 20
100.4219124864
 10
129.8608230979
 20
100.3739433558
 10
129.8586169003
 20
100.3279424831
 10
129.8556592045
 20
100.2836084057
 10
129.8521232352
 20
100.2409603334
 10
129.8480602301
 20
100.2000816926
 10
129.8434866471
 20
100.1609076448
 10
129.8385154314
 20
100.1232328864
 10
129.8331818021
 20
100.0870527027
 10
129.8275014566
 20
100.0523829277
 10
129.8215487072
 20
100.0190472299
 10
129.8153589211
 20
99.9870767235
 10
129.8089360695
 20
99.9564470246
 10
129.8022993841
 20
99.9268972833
 10
129.7954595364
 20
99.8983794852
 10
129.7884335232
 20
99.8709453278
 10
129.7812442941
 20
99.8444827477
 10
129.7738904224
 20
99.8189464666
 10
129.7663952273
 20
99.7943839416
 10
129.7588165739
 20
99.7708219854
 10
129.7511730311
 20
99.748293543
 10
129.7434653155
 20
99.7267671967
 10
129.7357229463
 20
99.7061731491
 10
129.7279633713
 20
99.6865312218
 10
129.7201840241
 20
99.6678225927
 10
129.7123821012
 20
99.6499193782
 10
129.7045519019
 20
99.6327937816
 10
129.6967097468
 20
99.6164742291
 10
129.6888840892
 20
99.6009171113
 10
129.6810697296
 20
99.5861127002
 10
129.6732799498
 20
99.5720712943
 10
129.6655698682
 20
99.5587793687
 10
129.6579565316
 20
99.5462648744
 10
129.6504288811
 20
99.5345005026
 10
129.6429988495
 20
99.5233898514
 10
129.6356873698
 20
99.512951329
 10
129.6284773117
 20
99.5031671223
 10
129.6213225078
 20
99.4938864034
 10
129.6142081615
 20
99.4850590198
 10
129.607151212
 20
99.4767355769
 10
129.6001525825
 20
99.468916321
  0
LWPOLYLINE
  5
665
100
AcDbEntity
  8
0
100
AcDbPolyline
 62
7
  6
CONTINUOUS
 90
9
 70
0
 10
104.3401427083
 20
66.181134388
 10
104.3173789011
 20
66.1706748786
 10
104.2931512346
 20
66.1630597831
 10
104.2678914685
 20
66.1585463122
 10
104.2420470774
 20
66.1573080347
 10
104.2161724173
 20
66.1594293623
 10
104.1908266582
 20
66.1648742019
 10
104.1662552536
 20
66.173613308
 10
104.1453769815
 20
66.1840979394
  0
LINE
  5
666
100
AcDbEntity
  8
DRAFT
100
AcDbLine
 62
7
  6
CONTINUOUS
 10
127.616627846
 20
116.6330842235
 11
124.2832052591
 21
118.5577606475
  0
LINE
  5
667
100
AcDbEntity
  8
RACCORDO
100
AcDbLine
 62
253
  6
CONTINUOUS
 10
128.7255539097
 20
116.3151083135
 11
127.900307442
 21
116.7915952811
  0
LINE
  5
668
100
AcDbEntity
  8
0
100
AcDbLine
 62
253
  6
CONTINUOUS
 10
123.2398562592
 20
119.4824813849
 11
114.989988589
 21
124.2458515825
  0
LINE
  5
669
100
AcDbEntity
  8
RACCORDO
100
AcDbLine
 62
7
  6
CONTINUOUS
 10
129.1274793413
 20
116.4071640716
 11
128.2725658651
 21
116.9007803982
  0
LINE
  5
66A
100
AcDbEntity
  8
RACCORDO
100
AcDbLine
 62
7
  6
CONTINUOUS
 10
123.8429647265
 20
119.4583765797
 11
115.5634300478
 21
124.2388761362
  0
LWPOLYLINE
  5
66B
100
AcDbEntity
  8
RACCORDO
100
AcDbPolyline
 62
7
  6
CONTINUOUS
 90
10
 70
0
 10
129.1274860603
 20
116.4071603182
 10
129.1331162054
 20
116.4036859951
 10
129.138727643
 20
116.3997283068
 10
129.1440230597
 20
116.3954644147
 10
129.1490032076
 20
116.3908946895
 10
129.1536689486
 20
116.3860196916
 10
129.1580165481
 20
116.3808483606
 10
129.1620471948
 20
116.3753813368
 10
129.1657621939
 20
116.3696194188
 10
129.1668254117
 20
116.3678160535
  0
LWPOLYLINE
  5
66C
100
AcDbEntity
  8
RACCORDO
100
AcDbPolyline
 62
7
  6
CONTINUOUS
 90
101
 70
0
 10
129.763262161
 20
114.4009014813
 10
129.80151569
 20
114.3702356237
 10
129.84505962
 20
114.3341858596
 10
129.8882878045
 20
114.2972525131
 10
129.9311891688
 20
114.2594504329
 10
129.9737525134
 20
114.2207943727
 10
130.0159585283
 20
114.1813065904
 10
130.057783654
 20
114.1410142088
 10
130.0992057138
 20
114.0999441852
 10
130.1402174104
 20
114.058109205
 10
130.1808170722
 20
114.0155154024
 10
130.2209973815
 20
113.9721738351
 10
130.2607357618
 20
113.9281120957
 10
130.3000074297
 20
113.8833615766
 10
130.3387898288
 20
113.8379526279
 10
130.3770773418
 20
113.791896355
 10
130.4148703482
 20
113.7451956037
 10
130.4521619716
 20
113.6978609524
 10
130.4889302797
 20
113.6499221862
 10
130.5251528984
 20
113.6014111212
 10
130.5608098024
 20
113.5523579015
 10
130.5958942472
 20
113.5027750159
 10
130.6304037469
 20
113.4526680815
 10
130.6643293514
 20
113.4020511508
 10
130.6976528693
 20
113.3509522779
 10
130.7303577819
 20
113.2993980603
 10
130.7624287986
 20
113.2474141077
 10
130.7938557843
 20
113.1950182142
 10
130.8246301486
 20
113.1422254708
 10
130.8547393924
 20
113.0890576399
 10
130.8841711955
 20
113.0355366266
 10
130.9129170335
 20
112.9816776047
 10
130.940967159
 20
112.927497795
 10
130.9683070796
 20
112.8730239291
 10
130.9949215259
 20
112.818285505
 10
131.0207949928
 20
112.7633140507
 10
131.045920993
 20
112.7081227643
 10
131.0702976361
 20
112.6527134722
 10
131.0939189449
 20
112.5970953859
 10
131.1167679226
 20
112.5413037607
 10
131.1388264859
 20
112.485379299
 10
131.1600789639
 20
112.4293598109
 10
131.1805217463
 20
112.3732525376
 10
131.2001548596
 20
112.3170520763
 10
131.2189734399
 20
112.2607635603
 10
131.2369610117
 20
112.2044267381
 10
131.2541004699
 20
112.1480877153
 10
131.2703782545
 20
112.0917858438
 10
131.2857910822
 20
112.0355265611
 10
131.3003375255
 20
111.979304667
 10
131.3140122434
 20
111.9231252754
 10
131.3268013797
 20
111.8670281958
 10
131.3386910389
 20
111.8110596209
 10
131.3496710018
 20
111.7552552191
 10
131.3597368222
 20
111.6996233686
 10
131.3688839914
 20
111.6441685311
 10
131.3771063872
 20
111.5888998546
 10
131.3843939936
 20
111.5338523676
 10
131.390737034
 20
111.4790683599
 10
131.3961287257
 20
111.4245740581
 10
131.4005634843
 20
111.3703859762
 10
131.4040350085
 20
111.3165303386
 10
131.4065378392
 20
111.2630244311
 10
131.4080662486
 20
111.2098928167
 10
131.4086149004
 20
111.1571710242
 10
131.4081792604
 20
111.1048694906
 10
131.4067548932
 20
111.0530181851
 10
131.4043400711
 20
111.0016791565
 10
131.4009341444
 20
110.9508827409
 10
131.3965352054
 20
110.9006351176
 10
131.3911425014
 20
110.8509594818
 10
131.3847509078
 20
110.8018440944
 10
131.3773625289
 20
110.7533369498
 10
131.3689935
 20
110.7055461795
 10
131.3596568937
 20
110.6585239086
 10
131.3493513839
 20
110.6122444297
 10
131.3380755845
 20
110.5666958345
 10
131.3258170058
 20
110.521836169
 10
131.3125932108
 20
110.4777383619
 10
131.298455915
 20
110.434556658
 10
131.2834445482
 20
110.3923679445
 10
131.2675503079
 20
110.3511072598
 10
131.2507574856
 20
110.3107127454
 10
131.2330459658
 20
110.2711316537
 10
131.2144520724
 20
110.2324413563
 10
131.1950493709
 20
110.1947719817
 10
131.174892556
 20
110.1581891444
 10
131.1539686189
 20
110.1226306949
 10
131.1322540448
 20
110.0880326946
 10
131.1097466278
 20
110.054377679
 10
131.0864782504
 20
110.0216999199
 10
131.0624736234
 20
109.9900178094
 10
131.0377535344
 20
109.9593416224
 10
131.0123334236
 20
109.9296738479
 10
130.9862322787
 20
109.9010207203
 10
130.9594804125
 20
109.8733988866
 10
130.9320876179
 20
109.8468021626
 10
130.9040409693
 20
109.821205868
 10
130.8753478097
 20
109.7966084497
 10
130.8460381846
 20
109.7730274074
 10
130.8161317638
 20
109.7504694182
  0
LWPOLYLINE
  5
66D
100
AcDbEntity
  8
RACCORDO
100
AcDbPolyline
 62
253
  6
CONTINUOUS
 90
57
 70
0
 10
129.763262161
 20
112.427977461
 10
129.7710333563
 20
112.4028106819
 10
129.78321068
 20
112.3600290251
 10
129.7946540883
 20
112.3162309422
 10
129.805342622
 20
112.2714426848
 10
129.8152033019
 20
112.2257286973
 10
129.824222128
 20
112.1790998698
 10
129.8323890023
 20
112.1315467979
 10
129.8396397836
 20
112.0831052438
 10
129.8459758052
 20
112.0335921097
 10
129.8513700156
 20
111.983193722
 10
129.8557305029
 20
111.932506203
 10
129.8590353131
 20
111.8813947191
 10
129.8613085991
 20
111.8300089437
 10
129.8625637225
 20
111.7793843699
 10
129.8627900958
 20
111.7296214015
 10
129.8620484899
 20
111.6806463614
 10
129.860495584
 20
111.6332438892
 10
129.8581666175
 20
111.5876407252
 10
129.8551029956
 20
111.5436368927
 10
129.8514840716
 20
111.5013796886
 10
129.8473654915
 20
111.4610108873
 10
129.842761009
 20
111.4224072955
 10
129.8377805788
 20
111.3853170249
 10
129.8324657317
 20
111.3497581426
 10
129.8268253615
 20
111.3157233978
 10
129.8209090116
 20
111.2829207551
 10
129.8147363091
 20
111.2513070145
 10
129.8083231794
 20
111.2209314592
 10
129.8017056577
 20
111.1916395127
 10
129.794891483
 20
111.1633917184
 10
129.7879003874
 20
111.1362311542
 10
129.7807826237
 20
111.1101265406
 10
129.7735539977
 20
111.085091854
 10
129.7662218969
 20
111.0611154663
 10
129.7588215642
 20
111.0381274754
 10
129.7513763031
 20
111.0161594693
 10
129.7438812199
 20
110.9951813452
 10
129.7363263595
 20
110.975030439
 10
129.7287188923
 20
110.9556926164
 10
129.7210647544
 20
110.9371828357
 10
129.7133495369
 20
110.9193818695
 10
129.7055613905
 20
110.902250228
 10
129.6977218014
 20
110.8858278874
 10
129.689865044
 20
110.8701147707
 10
129.6819780024
 20
110.8550936764
 10
129.6740816481
 20
110.8407822896
 10
129.6662608286
 20
110.8272329713
 10
129.6585371533
 20
110.8144889467
 10
129.6508952997
 20
110.8025076511
 10
129.6433639204
 20
110.7912128324
 10
129.6359719785
 20
110.7806354492
 10
129.628694552
 20
110.7707451855
 10
129.6214784225
 20
110.7613737864
 10
129.6143064521
 20
110.7524652927
 10
129.6071979914
 20
110.7440761338
 10
129.6001539942
 20
110.7362065659
  0
LINE
  5
66E
100
AcDbEntity
  8
RACCORDO
100
AcDbLine
 62
253
  6
CONTINUOUS
 10
128.7255539097
 20
116.3151083135
 11
129.0684514857
 21
115.7211922907
  0
LINE
  5
66F
100
AcDbEntity
  8
RACCORDO
100
AcDbLine
 62
7
  6
CONTINUOUS
 10
129.1668615622
 20
116.3677534395
 11
129.4222123267
 21
115.925472942
  0
LWPOLYLINE
  5
670
100
AcDbEntity
  8
RACCORDO
100
AcDbPolyline
 62
253
  6
CONTINUOUS
 90
37
 70
0
 10
129.0684514857
 20
115.7211922907
 10
129.0901322933
 20
115.6833379443
 10
129.1113210935
 20
115.6452237969
 10
129.1320077621
 20
115.6068679577
 10
129.1521823423
 20
115.5682886992
 10
129.1718352753
 20
115.5295043084
 10
129.1909573953
 20
115.4905330749
 10
129.2095396253
 20
115.4513934087
 10
129.2275730237
 20
115.41210402
 10
129.245049014
 20
115.3726837693
 10
129.2619592397
 20
115.3331514631
 10
129.2782956507
 20
115.2935258301
 10
129.2940505413
 20
115.2538256978
 10
129.3092164058
 20
115.2140699473
 10
129.3237860035
 20
115.1742774809
 10
129.3377524461
 20
115.1344671992
 10
129.3511090947
 20
115.0946580143
 10
129.3638495661
 20
115.0548688858
 10
129.3759677947
 20
115.0151187876
 10
129.3874580219
 20
114.975426637
 10
129.3983147736
 20
114.9358113146
 10
129.4085328664
 20
114.8962916997
 10
129.41810745
 20
114.8568866328
 10
129.4270339799
 20
114.8176148347
 10
129.4353081936
 20
114.7784949261
 10
129.4429261786
 20
114.7395455352
 10
129.4498843204
 20
114.7007851995
 10
129.4561792716
 20
114.6622322865
 10
129.4618080764
 20
114.6239051027
 10
129.4667680621
 20
114.5858219547
 10
129.4710567891
 20
114.5480010498
 10
129.4746722521
 20
114.5104605155
 10
129.4776127771
 20
114.4732181176
 10
129.4798769024
 20
114.4362913266
 10
129.4814635486
 20
114.3996976506
 10
129.4823720323
 20
114.3634546224
 10
129.4826019613
 20
114.3275795187
  0
ARC
  5
671
100
AcDbEntity
  8
0
100
AcDbCircle
 62
7
  6
CONTINUOUS
 10
106.4559624254
 20
107.2484670783
 40
0.2
100
AcDbArc
 50
0.0446971545
 51
59.9553029355
  0
ARC
  5
672
100
AcDbEntity
  8
0
100
AcDbCircle
 62
7
  6
CONTINUOUS
 10
102.9935791573
 20
83.7442284958
 40
0.15
100
AcDbArc
 50
180.0044832252
 51
239.9955168228
  0
ELLIPSE
  5
673
100
AcDbEntity
  8
0
100
AcDbEllipse
 62
7
  6
CONTINUOUS
 10
109.6312453587
 20
87.7909796938
 30
0.0
 11
0.4303213785
 21
2.5208268256
 31
0.0
 40
0.1036264381
 41
-1.4978254465
 42
-0.6563143834
  0
ELLIPSE
  5
674
100
AcDbEntity
  8
0
100
AcDbEllipse
 62
7
  6
CONTINUOUS
 10
109.9049036776
 20
87.9215825834
 30
0.0
 11
0.0268950862
 21
0.1575516766
 31
0.0
 40
0.1036264381
 41
-2.4904822968
 42
-1.4978254465
  0
ELLIPSE
  5
675
100
AcDbEntity
  8
0
100
AcDbEllipse
 62
7
  6
CONTINUOUS
 10
87.5144976889
 20
110.8569302143
 30
0.0
 11
-0.2501834304
 21
0.4333025529
 31
0.0
 40
0.5769361983
 41
-0.7851038024
 42
0.0263715828
  0
ELLIPSE
  5
676
100
AcDbEntity
  8
0
100
AcDbEllipse
 62
7
  6
CONTINUOUS
 10
102.4362480098
 20
66.9513780248
 30
0.0
 11
-0.2501834304
 21
0.4333025529
 31
0.0
 40
0.5769361983
 41
-3.1679635486
 42
-2.3565853618
  0
ELLIPSE
  5
677
100
AcDbEntity
  8
0
100
AcDbEllipse
 62
7
  6
CONTINUOUS
 10
102.4362480098
 20
102.2412985924
 30
0.0
 11
-0.2500121049
 21
0.4330057129
 31
0.0
 40
0.5777274115
 41
-2.3559002616
 42
-0.7857891675
  0
ELLIPSE
  5
678
100
AcDbEntity
  8
0
100
AcDbEllipse
 62
7
  6
CONTINUOUS
 10
100.9469390651
 20
116.408628173
 30
0.0
 11
-0.2500097707
 21
0.4330290446
 31
0.0
 40
0.5773134593
 41
-0.7853991688
 42
-0.0063024085
  0
ELLIPSE
  5
679
100
AcDbEntity
  8
0
100
AcDbEllipse
 62
7
  6
CONTINUOUS
 10
109.453783547
 20
88.1384086757
 30
0.0
 11
0.1480592584
 21
0.2609249966
 31
0.0
 40
0.5722717666
 41
-4.6729952606
 42
-3.1894653964
  0
ELLIPSE
  5
67A
100
AcDbEntity
  8
0
100
AcDbEllipse
 62
7
  6
CONTINUOUS
 10
113.4367229778
 20
77.2389570408
 30
0.0
 11
-1.0001337089
 21
1.7320615496
 31
0.0
 40
0.5773134558
 41
-3.1353468544
 42
-2.3562901216
  0
ELLIPSE
  5
67B
100
AcDbEntity
  8
0
100
AcDbEllipse
 62
7
  6
CONTINUOUS
 10
113.4367229778
 20
107.0133191663
 30
0.0
 11
-1.0001021759
 21
1.7320069049
 31
0.0
 40
0.5773498789
 41
-2.3562585873
 42
-1.5708919678
  0
ELLIPSE
  5
67C
100
AcDbEntity
  8
0
100
AcDbEllipse
 62
7
  6
CONTINUOUS
 10
113.0454371939
 20
109.4231069833
 30
0.0
 11
-0.2500018852
 21
0.4330153847
 31
0.0
 40
0.5773498824
 41
-1.5707973348
 42
-0.7854307152
  0
ELLIPSE
  5
67D
100
AcDbEntity
  8
RACCORDO
100
AcDbEllipse
 62
7
  6
CONTINUOUS
 10
106.076895463
 20
72.8836734032
 30
0.0
 11
-1.0001337089
 21
1.7320615496
 31
0.0
 40
0.5773134558
 41
-2.628397271
 42
-2.3562901216
  0
ELLIPSE
  5
67E
100
AcDbEntity
  8
RACCORDO
100
AcDbEllipse
 62
7
  6
CONTINUOUS
 10
106.076895463
 20
102.7200142176
 30
0.0
 11
-1.0001021759
 21
1.7320069049
 31
0.0
 40
0.5773498789
 41
-2.3562585873
 42
-2.0841514379
  0
ELLIPSE
  5
67F
100
AcDbEntity
  8
DRAFT
100
AcDbEllipse
 62
7
  6
CONTINUOUS
 10
122.0222072297
 20
114.9924379635
 30
0.0
 11
2.7499886307
 21
-0.0137759221
 31
0.0
 40
0.5740189913
 41
2.3677966462
 42
3.0248413203
  0
ELLIPSE
  5
680
100
AcDbEntity
  8
DRAFT
100
AcDbEllipse
 62
7
  6
CONTINUOUS
 10
122.6939586718
 20
116.8347130531
 30
0.0
 11
2.7565418222
 21
-1.3447730235
 31
0.0
 40
0.0751809742
 41
0.7213341725
 42
0.7440192806
  0
ELLIPSE
  5
681
100
AcDbEntity
  8
0
100
AcDbEllipse
 62
7
  6
CONTINUOUS
 10
123.5822693053
 20
118.4541797108
 30
0.0
 11
0.4935308613
 21
0.8697499888
 31
0.0
 40
0.5722717666
 41
-0.7896376749
 42
-0.6580796393
  0
ELLIPSE
  5
682
100
AcDbEntity
  8
DRAFT
100
AcDbEllipse
 62
7
  6
CONTINUOUS
 10
122.6939586718
 20
116.8347130531
 30
0.0
 11
2.7565418222
 21
-1.3447730235
 31
0.0
 40
0.0751809742
 41
0.9000979355
 42
0.9227830436
  0
ELLIPSE
  5
683
100
AcDbEntity
  8
0
100
AcDbEllipse
 62
7
  6
CONTINUOUS
 10
127.4796573759
 20
116.2038766846
 30
0.0
 11
0.8076621174
 21
0.6847490259
 31
0.0
 40
0.2220858129
 41
0.0794645351
 42
0.8473730668
  0
ELLIPSE
  5
684
100
AcDbEntity
  8
DRAFT
100
AcDbEllipse
 62
7
  6
CONTINUOUS
 10
122.6939586718
 20
114.9675511079
 30
0.0
 11
2.758383836
 21
-0.0138179774
 31
0.0
 40
0.5740189913
 41
0.8889981087
 42
2.3590699999
  0
ELLIPSE
  5
685
100
AcDbEntity
  8
DRAFT
100
AcDbEllipse
 62
7
  6
CONTINUOUS
 10
122.6939586718
 20
114.9675511079
 30
0.0
 11
2.758383836
 21
-0.0138179774
 31
0.0
 40
0.5740189913
 41
0.2661147937
 42
0.6875492376
  0
ELLIPSE
  5
686
100
AcDbEntity
  8
RACCORDO
100
AcDbEllipse
 62
7
  6
CONTINUOUS
 10
113.465999753
 20
106.5374450248
 30
0.0
 11
-1.0002637881
 21
1.7319588718
 31
0.0
 40
0.5774045053
 41
-2.3563059395
 42
-2.152260301
  0
ELLIPSE
  5
687
100
AcDbEntity
  8
RACCORDO
100
AcDbEllipse
 62
7
  6
CONTINUOUS
 10
113.465999753
 20
77.6810230963
 30
0.0
 11
-1.000389877
 21
1.7321775001
 31
0.0
 40
0.5772588101
 41
-2.5604776697
 42
-2.3564320312
  0
ELLIPSE
  5
688
100
AcDbEntity
  8
DRAFT
100
AcDbEllipse
 62
7
  6
CONTINUOUS
 10
122.6939586718
 20
115.3757862463
 30
0.0
 11
2.758383836
 21
-0.0138179774
 31
0.0
 40
0.5740189913
 41
0.0383619583
 42
2.3590699999
  0
ELLIPSE
  5
689
100
AcDbEntity
  8
0
100
AcDbEllipse
 62
7
  6
CONTINUOUS
 10
123.6358248954
 20
118.4232573843
 30
0.0
 11
-0.2424707965
 21
1.1173683231
 31
0.0
 40
0.6927698807
 41
5.0678092394
 42
6.489594238
  0
ELLIPSE
  5
68A
100
AcDbEntity
  8
0
100
AcDbEllipse
 62
7
  6
CONTINUOUS
 10
121.9986741415
 20
116.1469330171
 30
0.0
 11
3.302225417
 21
-0.0489269168
 31
0.0
 40
0.5672256544
 41
2.3632218429
 42
5.5075170369
  0
ELLIPSE
  5
68B
100
AcDbEntity
  8
0
100
AcDbEllipse
 62
7
  6
CONTINUOUS
 10
107.0545023568
 20
105.1037711767
 30
0.0
 11
-0.2500120911
 21
0.4330057209
 31
0.0
 40
0.5775075436
 41
-2.3560905478
 42
-0.7855988075
  0
ELLIPSE
  5
68C
100
AcDbEntity
  8
0
100
AcDbEllipse
 62
7
  6
CONTINUOUS
 10
107.0545023568
 20
69.3710005079
 30
0.0
 11
-0.2500882309
 21
0.4331376414
 31
0.0
 40
0.5771558487
 41
-3.1240022405
 42
-2.3563950755
  0
ELLIPSE
  5
68D
100
AcDbEntity
  8
0
100
AcDbEllipse
 62
7
  6
CONTINUOUS
 10
117.9700069267
 20
113.4242091655
 30
0.0
 11
0.6743072232
 21
0.6168008505
 31
0.0
 40
0.6979176686
 41
-0.9493529708
 42
-0.5678691471
  0
ELLIPSE
  5
68E
100
AcDbEntity
  8
0
100
AcDbEllipse
 62
7
  6
CONTINUOUS
 10
112.3701996665
 20
114.9586947568
 30
0.0
 11
0.9999644838
 21
-0.0148582918
 31
0.0
 40
0.5672251703
 41
-0.7769700665
 42
0.0082976114
  0
ELLIPSE
  5
68F
100
AcDbEntity
  8
0
100
AcDbEllipse
 62
7
  6
CONTINUOUS
 10
104.9455784641
 20
81.6636657147
 30
0.0
 11
0.1499946726
 21
-0.0022287438
 31
0.0
 40
0.5672251703
 41
-2.3477663933
 42
-0.7769700665
  0
ELLIPSE
  5
690
100
AcDbEntity
  8
0
100
AcDbEllipse
 62
7
  6
CONTINUOUS
 10
104.9455784641
 20
89.8283684826
 30
0.0
 11
0.1499946726
 21
-0.0022287438
 31
0.0
 40
0.5672251703
 41
-2.3477663933
 42
-0.7769700665
  0
ELLIPSE
  5
691
100
AcDbEntity
  8
0
100
AcDbEllipse
 62
7
  6
CONTINUOUS
 10
105.6285656515
 20
101.0716579509
 30
0.0
 11
0.1999444062
 21
-0.00862956
 31
0.0
 40
0.5464172455
 41
-2.3326156034
 42
-0.7879992153
  0
ELLIPSE
  5
692
100
AcDbEntity
  8
0
100
AcDbEllipse
 62
7
  6
CONTINUOUS
 10
103.8552745224
 20
101.2443982525
 30
0.0
 11
0.1999444062
 21
-0.00862956
 31
0.0
 40
0.5464172455
 41
3.9505697038
 42
5.5039127381
  0
ELLIPSE
  5
693
100
AcDbEntity
  8
0
100
AcDbEllipse
 62
7
  6
CONTINUOUS
 10
90.2618770091
 20
109.9441913832
 30
0.0
 11
0.1999444062
 21
-0.00862956
 31
0.0
 40
0.5464172455
 41
-3.1177111358
 42
-2.3326156034
  0
ELLIPSE
  5
694
100
AcDbEntity
  8
0
100
AcDbEllipse
 62
7
  6
CONTINUOUS
 10
105.6285656515
 20
74.1281388167
 30
0.0
 11
0.1999444062
 21
-0.00862956
 31
0.0
 40
0.5464172455
 41
-2.3326156034
 42
-0.7879992153
  0
ELLIPSE
  5
695
100
AcDbEntity
  8
0
100
AcDbEllipse
 62
7
  6
CONTINUOUS
 10
103.8552745224
 20
74.3008791183
 30
0.0
 11
0.1999444062
 21
-0.00862956
 31
0.0
 40
0.5464172455
 41
3.9505697038
 42
5.5039127381
  0
ELLIPSE
  5
696
100
AcDbEntity
  8
0
100
AcDbEllipse
 62
7
  6
CONTINUOUS
 10
103.1677566711
 20
77.5212008289
 30
0.0
 11
0.1499946726
 21
-0.0022287438
 31
0.0
 40
0.5672251703
 41
-3.1331197031
 42
-2.3477663933
  0
ELLIPSE
  5
697
100
AcDbEntity
  8
0
100
AcDbEllipse
 62
7
  6
CONTINUOUS
 10
103.1677566711
 20
97.9329577488
 30
0.0
 11
0.1499946726
 21
-0.0022287438
 31
0.0
 40
0.5672251703
 41
-3.1331197031
 42
-2.3477663933
  0
ELLIPSE
  5
698
100
AcDbEntity
  8
0
100
AcDbEllipse
 62
7
  6
CONTINUOUS
 10
95.3289262399
 20
110.3628313947
 30
0.0
 11
0.1999154856
 21
0.0095814127
 31
0.0
 40
0.6067642562
 41
-0.8668304298
 42
-0.8144705522
  0
ELLIPSE
  5
699
100
AcDbEntity
  8
0
100
AcDbEllipse
 62
7
  6
CONTINUOUS
 10
100.9343582347
 20
107.1263252135
 30
0.0
 11
0.1999154856
 21
0.0095814127
 31
0.0
 40
0.6067642562
 41
-0.8668304298
 42
-0.8319238447
  0
ELLIPSE
  5
69A
100
AcDbEntity
  8
0
100
AcDbEllipse
 62
7
  6
CONTINUOUS
 10
92.6612088948
 20
111.9031379554
 30
0.0
 11
0.1999154856
 21
0.0095814127
 31
0.0
 40
0.6067642562
 41
-0.8668304298
 42
-0.8319238447
  0
ELLIPSE
  5
69B
100
AcDbEntity
  8
0
100
AcDbEllipse
 62
7
  6
CONTINUOUS
 10
104.7881117346
 20
98.2803380626
 30
0.0
 11
0.1026656474
 21
0.17165654
 31
0.0
 40
0.5873179545
 41
-3.917905871
 42
-3.1327597856
  0
ELLIPSE
  5
69C
100
AcDbEntity
  8
0
100
AcDbEllipse
 62
7
  6
CONTINUOUS
 10
98.5717218151
 20
110.2494601423
 30
0.0
 11
0.1999928968
 21
-0.0029716584
 31
0.0
 40
0.5672251703
 41
-0.759516774
 42
0.0086329053
  0
ELLIPSE
  5
69D
100
AcDbEntity
  8
0
100
AcDbEllipse
 62
7
  6
CONTINUOUS
 10
108.8346657606
 20
117.0000677235
 30
0.0
 11
0.9999644838
 21
-0.0148582918
 31
0.0
 40
0.5672251703
 41
1.5692237569
 42
2.3646225871
  0
ELLIPSE
  5
69E
100
AcDbEntity
  8
0
100
AcDbEllipse
 62
7
  6
CONTINUOUS
 10
103.1677566711
 20
75.395941041
 30
0.0
 11
0.1499938743
 21
0.0023079149
 31
0.0
 40
0.5873737521
 41
8.6338329418
 42
10.2011386101
  0
ELLIPSE
  5
69F
100
AcDbEntity
  8
0
100
AcDbEllipse
 62
7
  6
CONTINUOUS
 10
103.1677566711
 20
95.8076979608
 30
0.0
 11
0.1499938743
 21
0.0023079149
 31
0.0
 40
0.5873737521
 41
8.6338329418
 42
10.2011386101
  0
ELLIPSE
  5
6A0
100
AcDbEntity
  8
0
100
AcDbEllipse
 62
7
  6
CONTINUOUS
 10
92.7127388617
 20
109.8061669025
 30
0.0
 11
-0.5001764619
 21
0.8662752828
 31
0.0
 40
0.5771558487
 41
-0.7852941622
 42
0.0175628863
  0
ELLIPSE
  5
6A1
100
AcDbEntity
  8
0
100
AcDbEllipse
 62
7
  6
CONTINUOUS
 10
111.6630928853
 20
118.3439900675
 30
0.0
 11
0.1993900829
 21
-0.0387205668
 31
0.0
 40
0.4030810056
 41
-0.707281114
 42
0.0784422502
  0
ELLIPSE
  5
6A2
100
AcDbEntity
  8
0
100
AcDbEllipse
 62
7
  6
CONTINUOUS
 10
106.9961881295
 20
110.8339102836
 30
0.0
 11
0.4087011743
 21
-0.006072817
 31
0.0
 40
0.5672251703
 41
-0.759516774
 42
0.008322758
  0
ELLIPSE
  5
6A3
100
AcDbEntity
  8
0
100
AcDbEllipse
 62
7
  6
CONTINUOUS
 10
101.4684293888
 20
114.0255689014
 30
0.0
 11
0.4087011743
 21
-0.006072817
 31
0.0
 40
0.5672251703
 41
-0.7769700665
 42
0.0084653097
  0
ELLIPSE
  5
6A4
100
AcDbEntity
  8
0
100
AcDbEllipse
 62
7
  6
CONTINUOUS
 10
118.0932804358
 20
117.8905331045
 30
0.0
 11
18.2927094962
 21
10.9406087409
 31
0.0
 40
0.0150339
 41
-2.6538069639
 42
-2.2921086369
  0
ELLIPSE
  5
6A5
100
AcDbEntity
  8
0
100
AcDbEllipse
 62
7
  6
CONTINUOUS
 10
104.9455784641
 20
82.4274052872
 30
0.0
 11
0.1499938743
 21
0.0023079149
 31
0.0
 40
0.5873737521
 41
-2.3652320043
 42
-0.7944356775
  0
ELLIPSE
  5
6A6
100
AcDbEntity
  8
0
100
AcDbEllipse
 62
7
  6
CONTINUOUS
 10
104.9455784641
 20
90.5921080551
 30
0.0
 11
0.1499938743
 21
0.0023079149
 31
0.0
 40
0.5873737521
 41
-2.3652320043
 42
-0.7944356775
  0
ELLIPSE
  5
6A7
100
AcDbEntity
  8
0
100
AcDbEllipse
 62
7
  6
CONTINUOUS
 10
118.0932804358
 20
117.8905331045
 30
0.0
 11
18.2927094962
 21
10.9406087409
 31
0.0
 40
0.0150339
 41
2.2220004309
 42
2.635824326
  0
ELLIPSE
  5
6A8
100
AcDbEntity
  8
0
100
AcDbEllipse
 62
7
  6
CONTINUOUS
 10
99.5045805698
 20
108.8111994986
 30
0.0
 11
0.1999154856
 21
0.0095814127
 31
0.0
 40
0.6067642562
 41
3.1127345387
 42
3.8979184282
  0
ELLIPSE
  5
6A9
100
AcDbEntity
  8
0
100
AcDbEllipse
 62
7
  6
CONTINUOUS
 10
97.8000756532
 20
109.795359275
 30
0.0
 11
0.1999154856
 21
0.0095814127
 31
0.0
 40
0.6067642562
 41
-2.385266879
 42
-0.8319238447
  0
ELLIPSE
  5
6AA
100
AcDbEntity
  8
0
100
AcDbEllipse
 62
7
  6
CONTINUOUS
 10
104.9648668875
 20
104.7991600315
 30
0.0
 11
0.1999154856
 21
0.0095814127
 31
0.0
 40
0.6067642562
 41
-0.8668304298
 42
-0.8319238447
  0
ELLIPSE
  5
6AB
100
AcDbEntity
  8
0
100
AcDbEllipse
 62
7
  6
CONTINUOUS
 10
105.6285656515
 20
98.237142574
 30
0.0
 11
0.1999154856
 21
0.0095814127
 31
0.0
 40
0.6067642562
 41
-2.385266879
 42
-0.840650491
  0
ELLIPSE
  5
6AC
100
AcDbEntity
  8
0
100
AcDbEllipse
 62
7
  6
CONTINUOUS
 10
103.8552745224
 20
98.3157462086
 30
0.0
 11
0.1999154856
 21
0.0095814127
 31
0.0
 40
0.6067642562
 41
-2.385266879
 42
-0.8319238447
  0
ELLIPSE
  5
6AD
100
AcDbEntity
  8
0
100
AcDbEllipse
 62
7
  6
CONTINUOUS
 10
105.6285656515
 20
71.2936234398
 30
0.0
 11
0.1999154856
 21
0.0095814127
 31
0.0
 40
0.6067642562
 41
-2.385266879
 42
-0.840650491
  0
ELLIPSE
  5
6AE
100
AcDbEntity
  8
0
100
AcDbEllipse
 62
7
  6
CONTINUOUS
 10
103.8552745224
 20
71.3722270745
 30
0.0
 11
0.1999154856
 21
0.0095814127
 31
0.0
 40
0.6067642562
 41
-2.385266879
 42
-0.8319238447
  0
ELLIPSE
  5
6AF
100
AcDbEntity
  8
0
100
AcDbEllipse
 62
7
  6
CONTINUOUS
 10
104.5337108462
 20
104.2128808425
 30
0.0
 11
0.499979581
 21
0.0076930498
 31
0.0
 40
0.5873737521
 41
-3.1238093443
 42
-2.3652320043
  0
ELLIPSE
  5
6B0
100
AcDbEntity
  8
0
100
AcDbEllipse
 62
7
  6
CONTINUOUS
 10
93.9023162267
 20
110.3513148531
 30
0.0
 11
0.499979581
 21
0.0076930498
 31
0.0
 40
0.5873737521
 41
-2.3652320043
 42
-1.6073943923
  0
ELLIPSE
  5
6B1
100
AcDbEntity
  8
0
100
AcDbEllipse
 62
7
  6
CONTINUOUS
 10
105.5634889203
 20
90.6922747025
 30
0.0
 11
0.1999918324
 21
0.0030772199
 31
0.0
 40
0.5873737521
 41
3.1332918358
 42
3.9179533029
  0
ELLIPSE
  5
6B2
100
AcDbEntity
  8
0
100
AcDbEllipse
 62
7
  6
CONTINUOUS
 10
105.5634889203
 20
82.5275719346
 30
0.0
 11
0.1999918324
 21
0.0030772199
 31
0.0
 40
0.5873737521
 41
3.1332918358
 42
3.9179533029
  0
ELLIPSE
  5
6B3
100
AcDbEntity
  8
0
100
AcDbEllipse
 62
7
  6
CONTINUOUS
 10
104.7881117346
 20
75.0554784447
 30
0.0
 11
0.1026656474
 21
0.17165654
 31
0.0
 40
0.5873179545
 41
0.8119364019
 42
2.3652794362
  0
ELLIPSE
  5
6B4
100
AcDbEntity
  8
0
100
AcDbEllipse
 62
7
  6
CONTINUOUS
 10
90.4697649252
 20
110.2847834541
 30
0.0
 11
0.1240746133
 21
0.1583239755
 31
0.0
 40
0.6509680852
 41
0.8776376554
 42
1.0172639955
  0
ELLIPSE
  5
6B5
100
AcDbEntity
  8
0
100
AcDbEllipse
 62
7
  6
CONTINUOUS
 10
94.5856895884
 20
108.4613023277
 30
0.0
 11
0.1999918324
 21
0.0030772199
 31
0.0
 40
0.5873737521
 41
3.1327599479
 42
3.9179533029
  0
ELLIPSE
  5
6B6
100
AcDbEntity
  8
0
100
AcDbEllipse
 62
7
  6
CONTINUOUS
 10
94.9407920415
 20
108.2562706218
 30
0.0
 11
0.1999918324
 21
0.0030772199
 31
0.0
 40
0.5873737521
 41
-2.3652320043
 42
-0.81188897
  0
ELLIPSE
  5
6B7
100
AcDbEntity
  8
0
100
AcDbEllipse
 62
7
  6
CONTINUOUS
 10
100.9496506191
 20
104.7868309878
 30
0.0
 11
0.1999918324
 21
0.0030772199
 31
0.0
 40
0.5873737521
 41
3.1327599479
 42
3.9179533029
  0
ELLIPSE
  5
6B8
100
AcDbEntity
  8
0
100
AcDbEllipse
 62
7
  6
CONTINUOUS
 10
101.3047530722
 20
104.5817992818
 30
0.0
 11
0.1999918324
 21
0.0030772199
 31
0.0
 40
0.5873737521
 41
-2.3652320043
 42
-0.81188897
  0
ELLIPSE
  5
6B9
100
AcDbEntity
  8
0
100
AcDbEllipse
 62
7
  6
CONTINUOUS
 10
103.78042288
 20
71.4154454747
 30
0.0
 11
0.1999154856
 21
0.0095814127
 31
0.0
 40
0.6067642562
 41
-2.385266879
 42
-0.8319238447
  0
ELLIPSE
  5
6BA
100
AcDbEntity
  8
0
100
AcDbEllipse
 62
7
  6
CONTINUOUS
 10
103.78042288
 20
98.3589646088
 30
0.0
 11
0.1999154856
 21
0.0095814127
 31
0.0
 40
0.6067642562
 41
-2.385266879
 42
-0.8319238447
  0
ELLIPSE
  5
6BB
100
AcDbEntity
  8
0
100
AcDbEllipse
 62
7
  6
CONTINUOUS
 10
105.01618143
 20
102.7023133619
 30
0.0
 11
-0.5000241822
 21
0.8660114417
 31
0.0
 40
0.5775075436
 41
-1.2989727433
 42
-0.7855988075
  0
ELLIPSE
  5
6BC
100
AcDbEntity
  8
0
100
AcDbEllipse
 62
7
  6
CONTINUOUS
 10
103.937007366
 20
102.0792138487
 30
0.0
 11
-0.5000241822
 21
0.8660114417
 31
0.0
 40
0.5775075436
 41
-2.3560905478
 42
-2.0240240908
  0
ELLIPSE
  5
6BD
100
AcDbEntity
  8
0
100
AcDbEllipse
 62
7
  6
CONTINUOUS
 10
125.6310735417
 20
114.605054235
 30
0.0
 11
41.2279434032
 21
22.9808568826
 31
0.0
 40
0.0148521615
 41
-2.1120112417
 42
-2.0929796071
  0
ELLIPSE
  5
6BE
100
AcDbEntity
  8
0
100
AcDbEllipse
 62
7
  6
CONTINUOUS
 10
103.937007366
 20
71.9128169751
 30
0.0
 11
-0.5001764619
 21
0.8662752828
 31
0.0
 40
0.5771558487
 41
-2.6884615325
 42
-2.3563950755
  0
ENDSEC
  0
SECTION
  2
OBJECTS
  0
DICTIONARY
  5
C
100
AcDbDictionary
280
0
281
1
  3
ACAD_GROUP
350
D
  3
ACAD_MLINESTYLE
350
17
  3
ACAD_LAYOUT
350
1A
  3
ACAD_PLOTSETTINGS
350
19
  3
ACAD_PLOTSTYLENAME
350
E
  0
DICTIONARY
  5
D
102
{ACAD_REACTORS
330
C
102
}
100
AcDbDictionary
280
0
281
1
  0
ACDBDICTIONARYWDFLT
  5
E
102
{ACAD_REACTORS
330
C
102
}
100
AcDbDictionary
281
1
  3
Normal
350
F
100
AcDbDictionaryWithDefault
340
F
  0
DICTIONARY
  5
17
102
{ACAD_REACTORS
330
C
102
}
100
AcDbDictionary
280
0
281
1
  3
Standard
350
18
  0
DICTIONARY
  5
19
102
{ACAD_REACTORS
330
C
102
}
100
AcDbDictionary
281
1
  0
DICTIONARY
  5
1A
102
{ACAD_REACTORS
330
C
102
}
100
AcDbDictionary
281
1
  3
Model
350
6BF
  3
Layout1
350
6C0
  0
ACDBPLACEHOLDER
  5
F
102
{ACAD_REACTORS
330
E
102
}
  0
MLINESTYLE
  5
18
102
{ACAD_REACTORS
330
17
102
}
100
AcDbMlineStyle
  2
STANDARD
 70
0
  3

 62
256
 51
90.0
 52
90.0
 71
2
 49
0.5
 62
256
  6
BYLAYER
 49
-0.5
 62
256
  6
BYLAYER
  0
LAYOUT
  5
6BF
102
{ACAD_REACTORS
330
1A
102
}
100
AcDbPlotSettings
  1

  2
none_device
  4
ISO_A4_(297.00_x_210.00_MM)
  6

 40
0.0
 41
0.0
 42
0.0
 43
0.0
 44
297.0
 45
210.0
 46
0.0
 47
0.0
 48
0.0
 49
0.0
140
0.0
141
0.0
142
1.0
143
1.0
 70
1024
 72
1
 73
0
 74
0
  7

 75
0
147
1.0
148
0.0
149
0.0
100
AcDbLayout
  1
Model
 70
0
 71
0
 10
0.0
 20
0.0
 11
297.0
 21
210.0
 12
0.0
 22
0.0
 32
0.0
 14
0.0
 24
0.0
 34
0.0
 15
0.0
 25
0.0
 35
0.0
146
0.0
 13
0.0
 23
0.0
 33
0.0
 16
1.0
 26
0.0
 36
0.0
 17
0.0
 27
1.0
 37
0.0
 76
0
330
21F
345
0
346
0
  0
LAYOUT
  5
6C0
102
{ACAD_REACTORS
330
1A
102
}
100
AcDbPlotSettings
  1

  2
none_device
  4
ISO_A4_(297.00_x_210.00_MM)
  6

 40
0.0
 41
0.0
 42
0.0
 43
0.0
 44
297.0
 45
210.0
 46
0.0
 47
0.0
 48
0.0
 49
0.0
140
0.0
141
0.0
142
1.0
143
1.0
 70
0
 72
1
 73
0
 74
0
  7

 75
0
147
1.0
148
0.0
149
0.0
100
AcDbLayout
  1
Layout1
 70
0
 71
1
 10
0.0
 20
0.0
 11
297.0
 21
210.0
 12
0.0
 22
0.0
 32
0.0
 14
0.0
 24
0.0
 34
0.0
 15
0.0
 25
0.0
 35
0.0
146
0.0
 13
0.0
 23
0.0
 33
0.0
 16
1.0
 26
0.0
 36
0.0
 17
0.0
 27
1.0
 37
0.0
 76
0
330
220
345
0
346
0
  0
ENDSEC
  0
EOF
