  0
SECTION
  2
HEADER
  9
$ACADVER
  1
AC1015
  9
$DWGCODEPAGE
  3
ANSI_1252
  9
$EXTMAX
 10
297.0
 20
210.0
 30
0.0
  9
$EXTMIN
 10
0.0
 20
0.0
 30
0.0
  9
$LIMMIN
 10
0.0
 20
0.0
  9
$LIMMAX
 10
297.0
 20
210.0
  9
$VIEWCTR
 10
148.5
 20
105.0
  9
$VIEWSIZE
 40
210.0
  9
$CLAYER
  8
0
  9
$LTSCALE
 40
16.335
  9
$CELTYPE
  6
BYLAYER
  9
$DIMSCALE
 40
1.0
  9
$DIMASZ
 40
3.0
  9
$DIMEXO
 40
1.85625
  9
$DIMDLI
 40
11.286
  9
$DIMEXE
 40
5.346
  9
$DIMCEN
 40
2.673
  9
$DIMLFAC
 40
1.0
  9
$DIMBLK
  1
_FILLED
  9
$DIMTXT
 40
3.0
  9
$DIMTOL
 70
1
  9
$DIMLIM
 70
0
  9
$DIMTFAC
 40
1.0
  9
$DIMTP
 40
0.01
  9
$DIMTM
 40
0.01
  9
$PDMODE
 70
3
  9
$PDSIZE
 40
3.0
  9
$HANDSEED
  5
270
  9
$TILEMODE
 70
1
  9
$MEASUREMENT
 70
1
  9
$INSUNITS
 70
4
  0
ENDSEC
  0
SECTION
  2
CLASSES
  0
CLASS
  1
ACDBDICTIONARYWDFLT
  2
AcDbDictionaryWithDefault
  3
AutoCAD 2000
 90
0
280
0
281
0
  0
CLASS
  1
ACDBPLACEHOLDER
  2
AcDbPlaceHolder
  3
AutoCAD 2000
 90
0
280
0
281
0
  0
CLASS
  1
LAYOUT
  2
AcDbLayout
  3
AutoCAD 2000
 90
0
280
0
281
0
  0
ENDSEC
  0
SECTION
  2
TABLES
  0
TABLE
  2
VPORT
  5
8
100
AcDbSymbolTable
 70
2
  0
VPORT
  5
1F4
100
AcDbSymbolTableRecord
100
AcDbViewportTableRecord
  2
*ACTIVE
 70
0
 10
0.0
 20
0.0
 11
1.0
 21
1.0
 12
148.5
 22
105.0
 13
0.0
 23
0.0
 14
1.0
 24
1.0
 15
0.0
 25
0.0
 16
0.0
 26
0.0
 36
1.0
 17
0.0
 27
0.0
 37
0.0
 40
210.0
 41
1.4142857143
 42
50.0
 43
0.0
 44
0.0
 50
0.0
 51
0.0
 71
0
 72
100
 73
1
 74
1
 75
0
 76
0
 77
0
 78
0
  0
ENDTAB
  0
TABLE
  2
LTYPE
  5
5
100
AcDbSymbolTable
 70
6
  0
LTYPE
  5
14
100
AcDbSymbolTableRecord
100
AcDbLinetypeTableRecord
  2
BYBLOCK
 70
0
  3

 72
65
 73
0
 40
0.0
  0
LTYPE
  5
15
100
AcDbSymbolTableRecord
100
AcDbLinetypeTableRecord
  2
BYLAYER
 70
0
  3

 72
65
 73
0
 40
0.0
  0
LTYPE
  5
16
100
AcDbSymbolTableRecord
100
AcDbLinetypeTableRecord
  2
CONTINUOUS
 70
64
  3
Solid line
 72
65
 73
0
 40
0.0
  0
LTYPE
  5
1F5
100
AcDbSymbolTableRecord
100
AcDbLinetypeTableRecord
  2
CENTER
 70
64
  3
____ _ ____ _ ____ _ ____ _ ____ _ ____ _ ____
 72
65
 73
4
 40
0.6
 49
0.375
 74
0
 49
-0.075
 74
0
 49
0.075
 74
0
 49
-0.075
 74
0
  0
LTYPE
  5
1F6
100
AcDbSymbolTableRecord
100
AcDbLinetypeTableRecord
  2
HIDDEN
 70
64
  3
- - - - - - - - - - - - - - - - - - - -
 72
65
 73
2
 40
0.2
 49
0.1
 74
0
 49
-0.1
 74
0
  0
LTYPE
  5
1F7
100
AcDbSymbolTableRecord
100
AcDbLinetypeTableRecord
  2
PHANTOM
 70
64
  3
_____ _ _ _____ _ _ _____ _ _ _____
 72
65
 73
6
 40
0.8
 49
0.45
 74
0
 49
-0.05
 74
0
 49
0.1
 74
0
 49
-0.05
 74
0
 49
0.1
 74
0
 49
-0.05
 74
0
  0
LTYPE
  5
1F8
100
AcDbSymbolTableRecord
100
AcDbLinetypeTableRecord
  2
DOT
 70
64
  3
. . . . . . . . . . . . . . . . . . . .
 72
65
 73
2
 40
0.2
 49
0.1
 74
0
 49
-0.1
 74
0
  0
LTYPE
  5
1F9
100
AcDbSymbolTableRecord
100
AcDbLinetypeTableRecord
  2
DASHED
 70
64
  3
- - - - - - - - - - - - - - - - - - - -
 72
65
 73
2
 40
0.2
 49
0.1
 74
0
 49
-0.1
 74
0
  0
ENDTAB
  0
TABLE
  2
LAYER
  5
2
100
AcDbSymbolTable
 70
36
  0
LAYER
  5
10
100
AcDbSymbolTableRecord
100
AcDbLayerTableRecord
  2
0
 70
0
 62
7
  6
CONTINUOUS
370
-3
390
F
  0
LAYER
  5
1FA
100
AcDbSymbolTableRecord
100
AcDbLayerTableRecord
  2
DEFAULT_1
 70
0
 62
7
  6
CENTER
370
-3
390
F
  0
LAYER
  5
1FB
100
AcDbSymbolTableRecord
100
AcDbLayerTableRecord
  2
DEFAULT_2
 70
0
 62
7
  6
HIDDEN
370
-3
390
F
  0
LAYER
  5
1FC
100
AcDbSymbolTableRecord
100
AcDbLayerTableRecord
  2
DEFAULT_3
 70
0
 62
7
  6
PHANTOM
370
-3
390
F
  0
LAYER
  5
1FD
100
AcDbSymbolTableRecord
100
AcDbLayerTableRecord
  2
ASSI
 70
0
 62
7
  6
CONTINUOUS
370
-3
390
F
  0
LAYER
  5
1FE
100
AcDbSymbolTableRecord
100
AcDbLayerTableRecord
  2
COLOR9
 70
0
 62
7
  6
CONTINUOUS
370
-3
390
F
  0
LAYER
  5
1FF
100
AcDbSymbolTableRecord
100
AcDbLayerTableRecord
  2
COORDINATE
 70
0
 62
7
  6
CONTINUOUS
370
-3
390
F
  0
LAYER
  5
200
100
AcDbSymbolTableRecord
100
AcDbLayerTableRecord
  2
COORD_ORIGINE
 70
0
 62
7
  6
CONTINUOUS
370
-3
390
F
  0
LAYER
  5
201
100
AcDbSymbolTableRecord
100
AcDbLayerTableRecord
  2
COSMETICI
 70
0
 62
7
  6
CONTINUOUS
370
-3
390
F
  0
LAYER
  5
202
100
AcDbSymbolTableRecord
100
AcDbLayerTableRecord
  2
CURVE
 70
0
 62
7
  6
CONTINUOUS
370
-3
390
F
  0
LAYER
  5
203
100
AcDbSymbolTableRecord
100
AcDbLayerTableRecord
  2
DRAFT
 70
0
 62
7
  6
CONTINUOUS
370
-3
390
F
  0
LAYER
  5
204
100
AcDbSymbolTableRecord
100
AcDbLayerTableRecord
  2
IMPORT_IGES
 70
0
 62
7
  6
CONTINUOUS
370
-3
390
F
  0
LAYER
  5
205
100
AcDbSymbolTableRecord
100
AcDbLayerTableRecord
  2
INTF_1
 70
0
 62
7
  6
CONTINUOUS
370
-3
390
F
  0
LAYER
  5
206
100
AcDbSymbolTableRecord
100
AcDbLayerTableRecord
  2
INTF_YELLOW
 70
0
 62
7
  6
CONTINUOUS
370
-3
390
F
  0
LAYER
  5
207
100
AcDbSymbolTableRecord
100
AcDbLayerTableRecord
  2
NOTE
 70
0
 62
7
  6
CONTINUOUS
370
-3
390
F
  0
LAYER
  5
208
100
AcDbSymbolTableRecord
100
AcDbLayerTableRecord
  2
PIANI
 70
0
 62
7
  6
CONTINUOUS
370
-3
390
F
  0
LAYER
  5
209
100
AcDbSymbolTableRecord
100
AcDbLayerTableRecord
  2
PIANI_ORIGINE
 70
0
 62
7
  6
CONTINUOUS
370
-3
390
F
  0
LAYER
  5
20A
100
AcDbSymbolTableRecord
100
AcDbLayerTableRecord
  2
PIANI_RIFERIMENTO
 70
0
 62
7
  6
CONTINUOUS
370
-3
390
F
  0
LAYER
  5
20B
100
AcDbSymbolTableRecord
100
AcDbLayerTableRecord
  2
PUNTI
 70
0
 62
7
  6
CONTINUOUS
370
-3
390
F
  0
LAYER
  5
20C
100
AcDbSymbolTableRecord
100
AcDbLayerTableRecord
  2
RACCORDO
 70
0
 62
7
  6
CONTINUOUS
370
-3
390
F
  0
LAYER
  5
20D
100
AcDbSymbolTableRecord
100
AcDbLayerTableRecord
  2
SIMBOLI
 70
0
 62
7
  6
CONTINUOUS
370
-3
390
F
  0
LAYER
  5
20E
100
AcDbSymbolTableRecord
100
AcDbLayerTableRecord
  2
SMUSSO
 70
0
 62
7
  6
CONTINUOUS
370
-3
390
F
  0
LAYER
  5
20F
100
AcDbSymbolTableRecord
100
AcDbLayerTableRecord
  2
SNAPLINE
 70
0
 62
7
  6
CONTINUOUS
370
-3
390
F
  0
LAYER
  5
210
100
AcDbSymbolTableRecord
100
AcDbLayerTableRecord
  2
SUPERFICI
 70
0
 62
7
  6
CONTINUOUS
370
-3
390
F
  0
LAYER
  5
211
100
AcDbSymbolTableRecord
100
AcDbLayerTableRecord
  2
TRASH
 70
0
 62
7
  6
CONTINUOUS
370
-3
390
F
  0
LAYER
  5
212
100
AcDbSymbolTableRecord
100
AcDbLayerTableRecord
  2
XSEC_DATUMS
 70
0
 62
7
  6
CONTINUOUS
370
-3
390
F
  0
ENDTAB
  0
TABLE
  2
STYLE
  5
3
100
AcDbSymbolTable
 70
1
  0
STYLE
  5
11
100
AcDbSymbolTableRecord
100
AcDbTextStyleTableRecord
  2
STANDARD
 70
0
 40
0.0
 41
0.8
 50
0.0
 71
0
 42
0.2
  3
txt
  4

  0
STYLE
  5
213
100
AcDbSymbolTableRecord
100
AcDbTextStyleTableRecord
  2
TEXTSTYLE_1
 70
0
 40
0.0
 41
0.8
 50
0.0
 71
0
 42
0.2
  3
gdt
  4

  0
ENDTAB
  0
TABLE
  2
VIEW
  5
6
100
AcDbSymbolTable
 70
0
  0
ENDTAB
  0
TABLE
  2
UCS
  5
7
100
AcDbSymbolTable
 70
0
  0
ENDTAB
  0
TABLE
  2
APPID
  5
9
100
AcDbSymbolTable
 70
1
  0
APPID
  5
214
100
AcDbSymbolTableRecord
100
AcDbRegAppTableRecord
  2
ACAD
 70
0
  0
ENDTAB
  0
TABLE
  2
BLOCK_RECORD
  5
1
100
AcDbSymbolTable
 70
0
  0
BLOCK_RECORD
  5
215
100
AcDbSymbolTableRecord
100
AcDbBlockTableRecord
  2
*Model_Space
  0
BLOCK_RECORD
  5
216
100
AcDbSymbolTableRecord
100
AcDbBlockTableRecord
  2
*Paper_Space
  0
ENDTAB
  0
TABLE
  2
DIMSTYLE
  5
A
100
AcDbSymbolTable
 70
1
100
AcDbDimStyleTable
 71
0
  0
DIMSTYLE
105
217
100
AcDbSymbolTableRecord
100
AcDbDimStyleTableRecord
  2
STANDARD
 70
0
  3

  4

 40
1.0
 41
3.0
 42
0.0625
 43
0.38
 44
0.18
 45
0.0
 46
0.0
 47
0.01
 48
0.01
140
3.0
141
0.09
142
0.0
143
25.4
144
1.0
145
0.0
146
1.0
147
0.09
 71
1.0
 72
0.0
 73
0
 74
0
 75
0
 76
0
 77
1
 78
8
170
0
171
2
172
0
173
0
174
0
175
0
176
0
177
0
178
0
270
2
271
2
272
2
273
2
274
2
275
0
280
0
281
0
282
0
283
1
284
8
285
0
286
0
287
3
288
0
340
11
  0
ENDTAB
  0
ENDSEC
  0
SECTION
  2
BLOCKS
  0
BLOCK
  5
20
100
AcDbEntity
  8
0
100
AcDbBlockBegin
  2
*Model_Space
 70
0
 10
0.0
 20
0.0
 30
0.0
  3
*Model_Space
  1

  0
ENDBLK
  5
21
100
AcDbEntity
  8
0
100
AcDbBlockEnd
  0
BLOCK
  5
1C
100
AcDbEntity
  8
0
100
AcDbBlockBegin
  2
*Paper_Space
 70
0
 10
0.0
 20
0.0
 30
0.0
  3
*Paper_Space
  1

  0
ENDBLK
  5
1D
100
AcDbEntity
  8
0
100
AcDbBlockEnd
  0
ENDSEC
  0
SECTION
  2
ENTITIES
  0
LWPOLYLINE
  5
218
100
AcDbEntity
  8
RACCORDO
100
AcDbPolyline
 62
7
  6
CONTINUOUS
 90
15
 70
0
 10
-7.4435951594
 20
22.1815132692
 10
-7.480093867
 20
22.1570280953
 10
-7.5436161928
 20
22.108696546
 10
-7.6035424121
 20
22.0558002507
 10
-7.6600415877
 20
21.9985958819
 10
-7.7130977988
 20
21.9373988432
 10
-7.7623927007
 20
21.8728037398
 10
-7.8078959101
 20
21.805076908
 10
-7.8495007637
 20
21.7344184146
 10
-7.8867899872
 20
21.6615690173
 10
-7.9196562908
 20
21.5867467314
 10
-7.9479055617
 20
21.5101323159
 10
-7.9711803979
 20
21.4323801612
 10
-7.9892404872
 20
21.3537199654
 10
-8.0023461542
 20
21.2699385202
  0
LINE
  5
219
100
AcDbEntity
  8
RACCORDO
100
AcDbLine
 62
7
  6
CONTINUOUS
 10
-7.4437486133
 20
22.1814276394
 11
-6.783763535
 21
22.6034804457
  0
LINE
  5
21A
100
AcDbEntity
  8
0
100
AcDbLine
 62
253
  6
CONTINUOUS
 10
-7.1836296127
 20
22.1629456779
 11
-6.5272166225
 21
22.5827141752
  0
LWPOLYLINE
  5
21B
100
AcDbEntity
  8
RACCORDO
100
AcDbPolyline
 62
253
  6
CONTINUOUS
 90
9
 70
0
 10
-7.4436007757
 20
22.1815220701
 10
-7.4238491206
 20
22.1923232972
 10
-7.3949616349
 20
22.2026924843
 10
-7.3636594583
 20
22.2082177918
 10
-7.3302852451
 20
22.208838736
 10
-7.2952043319
 20
22.2045485195
 10
-7.2588007374
 20
22.1953941059
 10
-7.2214729595
 20
22.1814757053
 10
-7.1836296127
 20
22.1629456779
  0
LWPOLYLINE
  5
21C
100
AcDbEntity
  8
RACCORDO
100
AcDbPolyline
 62
7
  6
CONTINUOUS
 90
12
 70
0
 10
7.2147425533
 20
-22.5335430063
 10
7.2220871326
 20
-22.5377365583
 10
7.2880913101
 20
-22.5702814199
 10
7.3569159213
 20
-22.5953825873
 10
7.4280712453
 20
-22.6130187648
 10
7.5019194874
 20
-22.6232226812
 10
7.577876177
 20
-22.6256719
 10
7.6551038808
 20
-22.620129536
 10
7.7338884894
 20
-22.6063010786
 10
7.8140273671
 20
-22.5837329802
 10
7.8946057412
 20
-22.5521581903
 10
7.9423487536
 20
-22.5291031584
  0
LINE
  5
21D
100
AcDbEntity
  8
RACCORDO
100
AcDbLine
 62
7
  6
CONTINUOUS
 10
-7.6581974554
 20
-13.9461065259
 11
-7.6588408025
 21
-13.9457360464
  0
LINE
  5
21E
100
AcDbEntity
  8
ASSI
100
AcDbLine
 62
7
  6
CONTINUOUS
 10
-7.6588753225
 20
-13.945716115
 11
7.2155206189
 21
-22.5340059116
  0
LINE
  5
21F
100
AcDbEntity
  8
RACCORDO
100
AcDbLine
 62
253
  6
CONTINUOUS
 10
-7.8553783935
 20
-13.6069058848
 11
7.013730927
 21
-22.1921432527
  0
LINE
  5
220
100
AcDbEntity
  8
RACCORDO
100
AcDbLine
 62
7
  6
CONTINUOUS
 10
7.2146581876
 20
-22.5335064086
 11
7.2154866869
 21
-22.5339863197
  0
LWPOLYLINE
  5
221
100
AcDbEntity
  8
RACCORDO
100
AcDbPolyline
 62
253
  6
CONTINUOUS
 90
9
 70
0
 10
-7.6664759164
 20
-13.9411848749
 10
-7.702536767
 20
-13.9155147049
 10
-7.7354029757
 20
-13.884788337
 10
-7.7648520838
 20
-13.8492064539
 10
-7.7907027907
 20
-13.8089845803
 10
-7.8128027626
 20
-13.7643628946
 10
-7.8310193816
 20
-13.7156095423
 10
-7.8452401035
 20
-13.6630184833
 10
-7.8553783935
 20
-13.6069058848
  0
LWPOLYLINE
  5
222
100
AcDbEntity
  8
RACCORDO
100
AcDbPolyline
 62
7
  6
CONTINUOUS
 90
8
 70
0
 10
-7.9203987846
 20
-13.6701729059
 10
-7.8884733698
 20
-13.7252916973
 10
-7.8524540206
 20
-13.7763358581
 10
-7.8126967313
 20
-13.8230983393
 10
-7.7692328483
 20
-13.8657162697
 10
-7.7223232951
 20
-13.9040050943
 10
-7.672527491
 20
-13.9375965513
 10
-7.6581138585
 20
-13.9461432158
  0
LWPOLYLINE
  5
223
100
AcDbEntity
  8
RACCORDO
100
AcDbPolyline
 62
253
  6
CONTINUOUS
 90
10
 70
0
 10
-8.0023461542
 20
21.2699385202
 10
-8.0028618303
 20
21.2643139054
 10
-8.0018942438
 20
21.2392684203
 10
-7.9956688615
 20
21.2139280748
 10
-7.9842516602
 20
21.1885614268
 10
-7.9677636399
 20
21.1634373129
 10
-7.9463795411
 20
21.1388219993
 10
-7.9203259932
 20
21.1149763602
 10
-7.8898791126
 20
21.0921531122
 10
-7.8553615762
 20
21.070594137
  0
LWPOLYLINE
  5
224
100
AcDbEntity
  8
RACCORDO
100
AcDbPolyline
 62
7
  6
CONTINUOUS
 90
10
 70
0
 10
-8.0023328115
 20
21.2701645911
 10
-8.1251638615
 20
20.1839243404
 10
-8.242309699
 20
19.0391206767
 10
-8.3461071934
 20
17.900401015
 10
-8.4365264688
 20
16.7680449064
 10
-8.5135478761
 20
15.6422821381
 10
-8.5771543449
 20
14.523323226
 10
-8.6273287841
 20
13.4113958841
 10
-8.6640579947
 20
12.3067707026
 10
-8.686298872
 20
11.2762481286
  0
LWPOLYLINE
  5
225
100
AcDbEntity
  8
RACCORDO
100
AcDbPolyline
 62
253
  6
CONTINUOUS
 90
19
 70
0
 10
-7.8553783935
 20
21.0705873637
 10
-7.8452400431
 20
21.1387239835
 10
-7.8310193124
 20
21.208171478
 10
-7.8128028103
 20
21.278513733
 10
-7.7907032508
 20
21.3493312672
 10
-7.7648532415
 20
21.4201983595
 10
-7.7354048021
 20
21.4906856093
 10
-7.7025389989
 20
21.5603703105
 10
-7.666454527
 20
21.6288372988
 10
-7.6273607007
 20
21.6956758352
 10
-7.5854958312
 20
21.7604871213
 10
-7.5411135591
 20
21.8228838354
 10
-7.494470595
 20
21.882490217
 10
-7.4458490282
 20
21.9389520865
 10
-7.3955451503
 20
21.9919303347
 10
-7.343854892
 20
22.0411000619
 10
-7.2910892888
 20
22.0861655211
 10
-7.2375723907
 20
22.1268613955
 10
-7.1836296127
 20
22.1629456779
  0
LWPOLYLINE
  5
226
100
AcDbEntity
  8
RACCORDO
100
AcDbPolyline
 62
253
  6
CONTINUOUS
 90
8
 70
0
 10
-8.0010223537
 20
-13.4129717458
 10
-7.9956848187
 20
-13.4391792665
 10
-7.9842683686
 20
-13.4715601613
 10
-7.9677808494
 20
-13.5025898478
 10
-7.9463970023
 20
-13.5319394615
 10
-7.9203434617
 20
-13.5592979437
 10
-7.8898963533
 20
-13.5843753383
 10
-7.8553783675
 20
-13.6069058652
  0
LWPOLYLINE
  5
227
100
AcDbEntity
  8
RACCORDO
100
AcDbPolyline
 62
7
  6
CONTINUOUS
 90
5
 70
0
 10
-8.001010778
 20
-13.4129701257
 10
-7.9885598769
 20
-13.4819216838
 10
-7.9706636293
 20
-13.5485638081
 10
-7.9478457832
 20
-13.6113209974
 10
-7.9203987846
 20
-13.6701729059
  0
LINE
  5
228
100
AcDbEntity
  8
RACCORDO
100
AcDbLine
 62
7
  6
CONTINUOUS
 10
-8.001089367
 20
-13.4124906171
 11
-8.0010223537
 21
-13.4129717458
  0
LWPOLYLINE
  5
229
100
AcDbEntity
  8
RACCORDO
100
AcDbPolyline
 62
253
  6
CONTINUOUS
 90
10
 70
0
 10
-7.8553783935
 20
-13.6069058848
 10
-7.9836354064
 20
-12.6265225318
 10
-8.0988894722
 20
-11.6361286258
 10
-8.2011155545
 20
-10.6359342649
 10
-8.2902910146
 20
-9.626151885
 10
-8.3663969222
 20
-8.6069952981
 10
-8.429418052
 20
-7.5786796426
 10
-8.4793411491
 20
-6.5414225612
 10
-8.5161549395
 20
-5.4954441607
 10
-8.539851433
 20
-4.440966045
  0
LWPOLYLINE
  5
22A
100
AcDbEntity
  8
RACCORDO
100
AcDbPolyline
 62
253
  6
CONTINUOUS
 90
9
 70
0
 10
-8.6862963896
 20
-4.2372004952
 10
-8.6852739741
 20
-4.2534052898
 10
-8.6793099278
 20
-4.2834296464
 10
-8.6681233774
 20
-4.3128785081
 10
-8.6518328382
 20
-4.3414398809
 10
-8.630610899
 20
-4.3688111734
 10
-8.6046823944
 20
-4.3947024024
 10
-8.5743220219
 20
-4.4188392649
 10
-8.5398514325
 20
-4.4409660446
  0
LWPOLYLINE
  5
22B
100
AcDbEntity
  8
RACCORDO
100
AcDbPolyline
 62
253
  6
CONTINUOUS
 90
9
 70
0
 10
-8.686298872
 20
11.2762481286
 10
-8.6852739478
 20
11.2554032696
 10
-8.6793099001
 20
11.2264024173
 10
-8.6681233489
 20
11.1978455859
 10
-8.6518328092
 20
11.1700353188
 10
-8.6306108702
 20
11.1432662499
 10
-8.6046823661
 20
11.1178219821
 10
-8.5743219947
 20
11.093972083
 10
-8.5398514067
 20
11.0719692287
  0
LWPOLYLINE
  5
22C
100
AcDbEntity
  8
RACCORDO
100
AcDbPolyline
 62
7
  6
CONTINUOUS
 90
10
 70
0
 10
-8.6862963785
 20
-4.2372002452
 10
-8.6638905502
 20
-5.246593924
 10
-8.6270619881
 20
-6.3073212505
 10
-8.5767648079
 20
-7.3592282709
 10
-8.5130062775
 20
-8.4020558316
 10
-8.4357974708
 20
-9.4355934637
 10
-8.3451492946
 20
-10.4596500389
 10
-8.2410750807
 20
-11.4740175453
 10
-8.1235985215
 20
-12.4784489381
 10
-8.001089367
 20
-13.4124906171
  0
LWPOLYLINE
  5
22D
100
AcDbEntity
  8
RACCORDO
100
AcDbPolyline
 62
253
  6
CONTINUOUS
 90
10
 70
0
 10
-8.539851433
 20
-4.440966045
 10
-8.5644059672
 20
-2.732319371
 10
-8.5828216544
 20
-1.0198651943
 10
-8.595098541
 20
0.69636572
 10
-8.6012367434
 20
2.4163191871
 10
-8.6012367466
 20
4.1399875753
 10
-8.5950985498
 20
5.8674103001
 10
-8.5828216658
 20
7.5985802914
 10
-8.5644059764
 20
9.3334434995
 10
-8.539851433
 20
11.0719692141
  0
LWPOLYLINE
  5
22E
100
AcDbEntity
  8
RACCORDO
100
AcDbPolyline
 62
7
  6
CONTINUOUS
 90
10
 70
0
 10
-8.6862988941
 20
11.276248316
 10
-8.7102720474
 20
9.5844842448
 10
-8.7289784847
 20
7.8354329873
 10
-8.7414464888
 20
6.0900875786
 10
-8.7476756531
 20
4.348483878
 10
-8.7476658484
 20
2.6106516329
 10
-8.7414169995
 20
0.8766182323
 10
-8.7289290831
 20
-0.8535866864
 10
-8.710202353
 20
-2.5799277097
 10
-8.6862963896
 20
-4.2372004952
  0
LWPOLYLINE
  5
22F
100
AcDbEntity
  8
RACCORDO
100
AcDbPolyline
 62
253
  6
CONTINUOUS
 90
10
 70
0
 10
-8.539851433
 20
11.0719692141
 10
-8.5161549389
 20
12.1552758174
 10
-8.4793411482
 20
13.2460389391
 10
-8.4294180508
 20
14.3440277486
 10
-8.3663969212
 20
15.4490101135
 10
-8.2902910141
 20
16.5607520911
 10
-8.2011155543
 20
17.6790179809
 10
-8.098889472
 20
18.8035711171
 10
-7.9836354063
 20
19.9341739146
 10
-7.8553783935
 20
21.0705873637
  0
LINE
  5
230
100
AcDbEntity
  8
0
100
AcDbLine
 62
253
  6
CONTINUOUS
 10
8.395018397
 20
13.9668026945
 11
7.703303434
 21
13.5674171138
  0
LWPOLYLINE
  5
231
100
AcDbEntity
  8
RACCORDO
100
AcDbPolyline
 62
253
  6
CONTINUOUS
 90
16
 70
0
 10
7.7074934856
 20
12.4167937635
 10
7.6687998098
 20
12.4039745045
 10
7.6268684986
 20
12.3935105296
 10
7.5821439565
 20
12.3855127402
 10
7.5351001919
 20
12.3800659
 10
7.4862357931
 20
12.3772277368
 10
7.4360686442
 20
12.3770283306
 10
7.3851304364
 20
12.3794697946
 10
7.3339610329
 20
12.3845262534
 10
7.2831027471
 20
12.3921441167
 10
7.2330945952
 20
12.4022426471
 10
7.1844665833
 20
12.4147148167
 10
7.1377340901
 20
12.4294284405
 10
7.0933924051
 20
12.446227578
 10
7.0519114789
 20
12.4649341852
 10
7.0137309426
 20
12.4853500021
  0
LINE
  5
232
100
AcDbEntity
  8
RACCORDO
100
AcDbLine
 62
253
  6
CONTINUOUS
 10
-8.539851433
 20
-4.440966045
 11
6.2926568153
 21
-13.0050704125
  0
LWPOLYLINE
  5
233
100
AcDbEntity
  8
RACCORDO
100
AcDbPolyline
 62
253
  6
CONTINUOUS
 90
19
 70
0
 10
7.703303434
 20
13.5674171138
 10
7.6479153225
 20
13.5321673489
 10
7.5929814551
 20
13.4922896148
 10
7.5388272467
 20
13.4480259188
 10
7.4857688715
 20
13.3996461252
 10
7.4341252407
 20
13.3474414335
 10
7.384215913
 20
13.291723101
 10
7.3363379092
 20
13.2328298158
 10
7.2907725894
 20
13.1711161787
 10
7.2477981023
 20
13.1069455719
 10
7.2076695778
 20
13.0407044572
 10
7.170623838
 20
12.972792493
 10
7.1368871691
 20
12.9036106187
 10
7.1066598438
 20
12.8335730879
 10
7.0801213508
 20
12.7631035175
 10
7.0574359491
 20
12.6926242412
 10
7.0387403259
 20
12.6225586247
 10
7.0241431156
 20
12.5533285048
 10
7.013730927
 20
12.4853499958
  0
LWPOLYLINE
  5
234
100
AcDbEntity
  8
RACCORDO
100
AcDbPolyline
 62
253
  6
CONTINUOUS
 90
19
 70
0
 10
8.0567356707
 20
12.9552545235
 10
8.0285863592
 20
12.9377570034
 10
8.0009328223
 20
12.9181592628
 10
7.9737750597
 20
12.8964613017
 10
7.9469373616
 20
12.8724978316
 10
7.9205954379
 20
12.846434141
 10
7.895276419
 20
12.8187660956
 10
7.8710143982
 20
12.7894705389
 10
7.8477752822
 20
12.7585706273
 10
7.8259839212
 20
12.7266316959
 10
7.8056709071
 20
12.6936391703
 10
7.786805648
 20
12.659607625
 10
7.7697212186
 20
12.6251461184
 10
7.7544465965
 20
12.5902270126
 10
7.740952804
 20
12.5548779456
 10
7.7294859825
 20
12.5197908899
 10
7.7201281792
 20
12.4851965031
 10
7.7127973469
 20
12.4508641276
 10
7.7074934856
 20
12.4167937635
  0
LINE
  5
235
100
AcDbEntity
  8
0
100
AcDbLine
 62
253
  6
CONTINUOUS
 10
8.7484506337
 20
13.3546401041
 11
8.0567356707
 21
12.9552545235
  0
LWPOLYLINE
  5
236
100
AcDbEntity
  8
DRAFT
100
AcDbPolyline
 62
7
  6
CONTINUOUS
 90
3
 70
0
 10
-3.7568309911
 20
0.823707896
 10
-3.7456528809
 20
0.8498947094
 10
-3.7334431314
 20
0.8750807293
  0
LWPOLYLINE
  5
237
100
AcDbEntity
  8
SUPERFICI
100
AcDbPolyline
 62
7
  6
CONTINUOUS
 90
22
 70
0
 10
-3.7334431314
 20
0.8750807293
 10
-3.7473174899
 20
0.8461887072
 10
-3.7598380765
 20
0.8160198086
 10
-3.7710047728
 20
0.784574102
 10
-3.7808320083
 20
0.7517938584
 10
-3.789305101
 20
0.717736953
 10
-3.7963803112
 20
0.6825768344
 10
-3.8020501197
 20
0.646309133
 10
-3.8063218956
 20
0.6089383057
 10
-3.809174331
 20
0.5706509838
 10
-3.8106006448
 20
0.5314444243
 10
-3.8106075671
 20
0.4913214005
 10
-3.8091941569
 20
0.4504767602
 10
-3.8063541122
 20
0.4089070771
 10
-3.8020937833
 20
0.3666157504
 10
-3.796431307
 20
0.3238078088
 10
-3.7893583336
 20
0.2804740741
 10
-3.7808833572
 20
0.2366236418
 10
-3.7710498799
 20
0.1924888937
 10
-3.7598725058
 20
0.1481472307
 10
-3.7473368835
 20
0.1035211063
 10
-3.7334431314
 20
0.0586104525
  0
LINE
  5
238
100
AcDbEntity
  8
DRAFT
100
AcDbLine
 62
7
  6
CONTINUOUS
 10
-3.7334431314
 20
0.0586104525
 11
-3.7456501142
 21
0.0978243546
  0
LWPOLYLINE
  5
239
100
AcDbEntity
  8
DRAFT
100
AcDbPolyline
 62
7
  6
CONTINUOUS
 90
22
 70
0
 10
-3.7456501142
 20
0.0978243546
 10
-3.7568259968
 20
0.1368528094
 10
-3.7669706946
 20
0.1756958659
 10
-3.776095223
 20
0.2144083802
 10
-3.7841883872
 20
0.2529355994
 10
-3.7912168176
 20
0.2911131405
 10
-3.7971758563
 20
0.3289323495
 10
-3.8020700475
 20
0.3664019457
 10
-3.8058798832
 20
0.4033835719
 10
-3.8086004065
 20
0.4398767988
 10
-3.8102365139
 20
0.4758820901
 10
-3.8107835351
 20
0.5112623954
 10
-3.810238475
 20
0.5460161475
 10
-3.8086043283
 20
0.5801449133
 10
-3.8058854704
 20
0.6135163086
 10
-3.8020769837
 20
0.646125205
 10
-3.7971838456
 20
0.6779766958
 10
-3.7912253314
 20
0.7089536962
 10
-3.7841968228
 20
0.7390591614
 10
-3.7761030517
 20
0.7682900701
 10
-3.7669773774
 20
0.7965203381
 10
-3.7568309911
 20
0.823707896
  0
LWPOLYLINE
  5
23A
100
AcDbEntity
  8
DRAFT
100
AcDbPolyline
 62
7
  6
CONTINUOUS
 90
3
 70
0
 10
-1.7415766648
 20
-0.339874695
 10
-1.7303985546
 20
-0.3136878816
 10
-1.718188805
 20
-0.2885018617
  0
LWPOLYLINE
  5
23B
100
AcDbEntity
  8
SUPERFICI
100
AcDbPolyline
 62
7
  6
CONTINUOUS
 90
21
 70
0
 10
-2.8483275758
 20
-0.4524441762
 10
-2.8345141926
 20
-0.4235873605
 10
-2.8220495206
 20
-0.3934507463
 10
-2.8109334414
 20
-0.3620342654
 10
-2.8011513577
 20
-0.3292800918
 10
-2.7927176142
 20
-0.2952459061
 10
-2.7856755523
 20
-0.260104927
 10
-2.7800325421
 20
-0.2238526985
 10
-2.7757810633
 20
-0.1864935906
 10
-2.7729422212
 20
-0.1482141173
 10
-2.7715227457
 20
-0.1090115061
 10
-2.7715158557
 20
-0.0688885009
 10
-2.7729224902
 20
-0.0280399485
 10
-2.7757489998
 20
0.0135375496
 10
-2.7799890821
 20
0.0558405665
 10
-2.7856247964
 20
0.0986639601
 10
-2.7926646341
 20
0.1420168269
 10
-2.8011002481
 20
0.1858899866
 10
-2.8108885404
 20
0.2300508239
 10
-2.8220152484
 20
0.274421741
 10
-2.8344948874
 20
0.3190801893
  0
LWPOLYLINE
  5
23C
100
AcDbEntity
  8
SUPERFICI
100
AcDbPolyline
 62
7
  6
CONTINUOUS
 90
22
 70
0
 10
-1.718188805
 20
-0.2885018617
 10
-1.7320631635
 20
-0.3173938837
 10
-1.7445837501
 20
-0.3475627824
 10
-1.7557504464
 20
-0.379008489
 10
-1.765577682
 20
-0.4117887326
 10
-1.7740507746
 20
-0.445845638
 10
-1.7811259848
 20
-0.4810057566
 10
-1.7867957933
 20
-0.517273458
 10
-1.7910675692
 20
-0.5546442853
 10
-1.7939200047
 20
-0.5929316072
 10
-1.7953463185
 20
-0.6321381667
 10
-1.7953532407
 20
-0.6722611905
 10
-1.7939398305
 20
-0.7131058308
 10
-1.7910997859
 20
-0.7546755139
 10
-1.786839457
 20
-0.7969668406
 10
-1.7811769806
 20
-0.8397747822
 10
-1.7741040073
 20
-0.8831085169
 10
-1.7656290308
 20
-0.9269589491
 10
-1.7557955535
 20
-0.9710936973
 10
-1.7446181794
 20
-1.0154353603
 10
-1.7320825571
 20
-1.0600614847
 10
-1.718188805
 20
-1.1049721385
  0
LINE
  5
23D
100
AcDbEntity
  8
SUPERFICI
100
AcDbLine
 62
7
  6
CONTINUOUS
 10
-3.7334431314
 20
0.0586104525
 11
-2.8483275758
 21
-0.4524441762
  0
LINE
  5
23E
100
AcDbEntity
  8
DRAFT
100
AcDbLine
 62
7
  6
CONTINUOUS
 10
-3.7334431314
 20
0.0586104525
 11
-2.8483275758
 21
-0.4524441762
  0
LINE
  5
23F
100
AcDbEntity
  8
SUPERFICI
100
AcDbLine
 62
7
  6
CONTINUOUS
 10
-1.718188805
 20
-1.1049721385
 11
-0.6562965541
 21
-1.7180954155
  0
LINE
  5
240
100
AcDbEntity
  8
DRAFT
100
AcDbLine
 62
7
  6
CONTINUOUS
 10
-1.718188805
 20
-1.1049721385
 11
-0.6562965541
 21
-1.7180954155
  0
LINE
  5
241
100
AcDbEntity
  8
SUPERFICI
100
AcDbLine
 62
7
  6
CONTINUOUS
 10
0.4738422167
 20
-2.3706233778
 11
1.3589577722
 21
-2.8816780065
  0
LINE
  5
242
100
AcDbEntity
  8
DRAFT
100
AcDbLine
 62
7
  6
CONTINUOUS
 10
0.4738422167
 20
-2.3706233778
 11
1.3589577722
 21
-2.8816780065
  0
LINE
  5
243
100
AcDbEntity
  8
DRAFT
100
AcDbLine
 62
7
  6
CONTINUOUS
 10
-1.718188805
 20
-1.1049721385
 11
-1.7303957878
 21
-1.0657582364
  0
LWPOLYLINE
  5
244
100
AcDbEntity
  8
DRAFT
100
AcDbPolyline
 62
7
  6
CONTINUOUS
 90
25
 70
0
 10
-2.8483275758
 20
0.3640261006
 10
-2.836174162
 20
0.3247812685
 10
-2.8250480444
 20
0.2857240799
 10
-2.8149491386
 20
0.2468545838
 10
-2.8058663147
 20
0.2081179898
 10
-2.7978105232
 20
0.1695691921
 10
-2.7908148293
 20
0.1313727493
 10
-2.7848837722
 20
0.093537384
 10
-2.7800126992
 20
0.0560544397
 10
-2.7762209458
 20
0.0190623729
 10
-2.7735134098
 20
-0.0174383526
 10
-2.7718851331
 20
-0.0534481652
 10
-2.7713407255
 20
-0.0888299796
 10
-2.7718831821
 20
-0.1235822285
 10
-2.7735095074
 20
-0.1577064783
 10
-2.7762153861
 20
-0.1910703796
 10
-2.7800057964
 20
-0.2236688389
 10
-2.78487582
 20
-0.2555069837
 10
-2.790806354
 20
-0.2864678287
 10
-2.7978021258
 20
-0.3165543921
 10
-2.8058585217
 20
-0.3457637208
 10
-2.8149424866
 20
-0.3739699063
 10
-2.8250430733
 20
-0.4011310201
 10
-2.8361714082
 20
-0.4272890938
 10
-2.8483275758
 20
-0.4524441762
  0
LINE
  5
245
100
AcDbEntity
  8
SUPERFICI
100
AcDbLine
 62
7
  6
CONTINUOUS
 10
-2.8344948874
 20
0.3190801893
 11
-2.8483275758
 21
0.3640261006
  0
LWPOLYLINE
  5
246
100
AcDbEntity
  8
DRAFT
100
AcDbPolyline
 62
7
  6
CONTINUOUS
 90
22
 70
0
 10
-1.7303957878
 20
-1.0657582364
 10
-1.7415716704
 20
-1.0267297816
 10
-1.7517163682
 20
-0.9878867252
 10
-1.7608408966
 20
-0.9491742108
 10
-1.7689340608
 20
-0.9106469917
 10
-1.7759624912
 20
-0.8724694506
 10
-1.7819215299
 20
-0.8346502416
 10
-1.7868157212
 20
-0.7971806454
 10
-1.7906255569
 20
-0.7601990192
 10
-1.7933460801
 20
-0.7237057924
 10
-1.7949821875
 20
-0.6877005011
 10
-1.7955292088
 20
-0.6523201958
 10
-1.7949841486
 20
-0.6175664437
 10
-1.7933500019
 20
-0.5834376778
 10
-1.790631144
 20
-0.5500662825
 10
-1.7868226573
 20
-0.5174573861
 10
-1.7819295193
 20
-0.4856058952
 10
-1.7759710051
 20
-0.4546288949
 10
-1.7689424965
 20
-0.4245234296
 10
-1.7608487253
 20
-0.3952925209
 10
-1.7517230511
 20
-0.3670622529
 10
-1.7415766648
 20
-0.339874695
  0
LWPOLYLINE
  5
247
100
AcDbEntity
  8
SUPERFICI
100
AcDbPolyline
 62
7
  6
CONTINUOUS
 90
21
 70
0
 10
-0.6562965541
 20
-1.7180954155
 10
-0.6424831709
 20
-1.6892385998
 10
-0.6300184989
 20
-1.6591019856
 10
-0.6189024197
 20
-1.6276855047
 10
-0.609120336
 20
-1.5949313311
 10
-0.6006865925
 20
-1.5608971454
 10
-0.5936445307
 20
-1.5257561663
 10
-0.5880015204
 20
-1.4895039379
 10
-0.5837500417
 20
-1.4521448299
 10
-0.5809111996
 20
-1.4138653566
 10
-0.579491724
 20
-1.3746627455
 10
-0.579484834
 20
-1.3345397403
 10
-0.5808914686
 20
-1.2936911878
 10
-0.5837179781
 20
-1.2521136897
 10
-0.5879580604
 20
-1.2098106728
 10
-0.5935937748
 20
-1.1669872792
 10
-0.6006336124
 20
-1.1236344124
 10
-0.6090692264
 20
-1.0797612528
 10
-0.6188575187
 20
-1.0356004154
 10
-0.6299842267
 20
-0.9912294984
 10
-0.6424638657
 20
-0.94657105
  0
LINE
  5
248
100
AcDbEntity
  8
SUPERFICI
100
AcDbLine
 62
7
  6
CONTINUOUS
 10
-3.7334431314
 20
0.8750807293
 11
-2.8483275758
 21
0.3640261006
  0
LINE
  5
249
100
AcDbEntity
  8
DRAFT
100
AcDbLine
 62
7
  6
CONTINUOUS
 10
-3.7334431314
 20
0.8750807293
 11
-2.8483275758
 21
0.3640261006
  0
LINE
  5
24A
100
AcDbEntity
  8
SUPERFICI
100
AcDbLine
 62
7
  6
CONTINUOUS
 10
-1.718188805
 20
-0.2885018617
 11
-0.6562965541
 21
-0.9016251387
  0
LINE
  5
24B
100
AcDbEntity
  8
DRAFT
100
AcDbLine
 62
7
  6
CONTINUOUS
 10
-1.718188805
 20
-0.2885018617
 11
-0.6562965541
 21
-0.9016251387
  0
LINE
  5
24C
100
AcDbEntity
  8
SUPERFICI
100
AcDbLine
 62
7
  6
CONTINUOUS
 10
0.4738422167
 20
-1.554153101
 11
1.3589577722
 21
-2.0652077297
  0
LINE
  5
24D
100
AcDbEntity
  8
DRAFT
100
AcDbLine
 62
7
  6
CONTINUOUS
 10
0.4738422167
 20
-1.554153101
 11
1.3589577722
 21
-2.0652077297
  0
LINE
  5
24E
100
AcDbEntity
  8
DRAFT
100
AcDbLine
 62
7
  6
CONTINUOUS
 10
0.4738422167
 20
-2.3706233778
 11
0.4616352339
 21
-2.3314094757
  0
LWPOLYLINE
  5
24F
100
AcDbEntity
  8
DRAFT
100
AcDbPolyline
 62
7
  6
CONTINUOUS
 90
25
 70
0
 10
-0.6562965541
 20
-0.9016251387
 10
-0.6441431403
 20
-0.9408699708
 10
-0.6330170227
 20
-0.9799271594
 10
-0.6229181169
 20
-1.0187966555
 10
-0.613835293
 20
-1.0575332495
 10
-0.6057795015
 20
-1.0960820472
 10
-0.5987838076
 20
-1.1342784899
 10
-0.5928527506
 20
-1.1721138552
 10
-0.5879816775
 20
-1.2095967995
 10
-0.5841899241
 20
-1.2465888662
 10
-0.5814823881
 20
-1.2830895918
 10
-0.5798541114
 20
-1.3190994044
 10
-0.5793097038
 20
-1.3544812188
 10
-0.5798521604
 20
-1.3892334676
 10
-0.5814784857
 20
-1.4233577175
 10
-0.5841843644
 20
-1.4567216187
 10
-0.5879747747
 20
-1.4893200781
 10
-0.5928447983
 20
-1.5211582229
 10
-0.5987753323
 20
-1.5521190679
 10
-0.6057711041
 20
-1.5822056313
 10
-0.6138275
 20
-1.6114149601
 10
-0.6229114649
 20
-1.6396211456
 10
-0.6330120516
 20
-1.6667822594
 10
-0.6441403865
 20
-1.6929403331
 10
-0.6562965541
 20
-1.7180954155
  0
LINE
  5
250
100
AcDbEntity
  8
SUPERFICI
100
AcDbLine
 62
7
  6
CONTINUOUS
 10
-0.6424638657
 20
-0.94657105
 11
-0.6562965541
 21
-0.9016251387
  0
LWPOLYLINE
  5
251
100
AcDbEntity
  8
DRAFT
100
AcDbPolyline
 62
7
  6
CONTINUOUS
 90
22
 70
0
 10
0.4616352339
 20
-2.3314094757
 10
0.4504593513
 20
-2.2923810209
 10
0.4403146535
 20
-2.2535379645
 10
0.4311901251
 20
-2.2148254501
 10
0.4230969609
 20
-2.176298231
 10
0.4160685305
 20
-2.1381206899
 10
0.4101094918
 20
-2.1003014809
 10
0.4052153005
 20
-2.0628318848
 10
0.4014054648
 20
-2.0258502585
 10
0.3986849415
 20
-1.9893570317
 10
0.3970488342
 20
-1.9533517404
 10
0.3965018129
 20
-1.9179714351
 10
0.3970468731
 20
-1.883217683
 10
0.3986810198
 20
-1.8490889172
 10
0.4013998777
 20
-1.8157175218
 10
0.4052083643
 20
-1.7831086254
 10
0.4101015024
 20
-1.7512571346
 10
0.4160600166
 20
-1.7202801342
 10
0.4230885252
 20
-1.690174669
 10
0.4311822963
 20
-1.6609437602
 10
0.4403079706
 20
-1.6327134922
 10
0.4504543569
 20
-1.6055259343
  0
LWPOLYLINE
  5
252
100
AcDbEntity
  8
DRAFT
100
AcDbPolyline
 62
7
  6
CONTINUOUS
 90
3
 70
0
 10
0.4504543569
 20
-1.6055259343
 10
0.4616324671
 20
-1.5793391209
 10
0.4738422167
 20
-1.554153101
  0
LWPOLYLINE
  5
253
100
AcDbEntity
  8
SUPERFICI
100
AcDbPolyline
 62
7
  6
CONTINUOUS
 90
22
 70
0
 10
0.4738422167
 20
-1.554153101
 10
0.4599678582
 20
-1.5830451231
 10
0.4474472716
 20
-1.6132140217
 10
0.4362805753
 20
-1.6446597283
 10
0.4264533397
 20
-1.6774399719
 10
0.4179802471
 20
-1.7114968773
 10
0.4109050368
 20
-1.7466569959
 10
0.4052352284
 20
-1.7829246973
 10
0.4009634525
 20
-1.8202955246
 10
0.398111017
 20
-1.8585828465
 10
0.3966847032
 20
-1.897789406
 10
0.396677781
 20
-1.9379124298
 10
0.3980911912
 20
-1.9787570701
 10
0.4009312358
 20
-2.0203267532
 10
0.4051915647
 20
-2.0626180799
 10
0.410854041
 20
-2.1054260215
 10
0.4179270144
 20
-2.1487597562
 10
0.4264019908
 20
-2.1926101885
 10
0.4362354681
 20
-2.2367449366
 10
0.4474128423
 20
-2.2810865996
 10
0.4599484646
 20
-2.325712724
 10
0.4738422167
 20
-2.3706233778
  0
LWPOLYLINE
  5
254
100
AcDbEntity
  8
RACCORDO
100
AcDbPolyline
 62
253
  6
CONTINUOUS
 90
16
 70
0
 10
6.9903236716
 20
2.4947977901
 10
6.9512255754
 20
2.4762809874
 10
6.9088953389
 20
2.4601789504
 10
6.8637814269
 20
2.446662271
 10
6.8163617955
 20
2.4358741506
 10
6.7671388288
 20
2.4279288834
 10
6.716634016
 20
2.4229106447
 10
6.6653824269
 20
2.4208726002
 10
6.6139270429
 20
2.4218363415
 10
6.5628130044
 20
2.4257916586
 10
6.5125818357
 20
2.432696647
 10
6.4637657073
 20
2.4424781523
 10
6.4168817982
 20
2.455032545
 10
6.372426817
 20
2.4702268185
 10
6.3308717386
 20
2.4878999982
 10
6.2926568156
 20
2.5078648467
  0
LWPOLYLINE
  5
255
100
AcDbEntity
  8
DRAFT
100
AcDbPolyline
 62
7
  6
CONTINUOUS
 90
25
 70
0
 10
1.3589577722
 20
-2.0652077297
 10
1.3711111861
 20
-2.1044525618
 10
1.3822373036
 20
-2.1435097504
 10
1.3923362095
 20
-2.1823792465
 10
1.4014190334
 20
-2.2211158405
 10
1.4094748248
 20
-2.2596646382
 10
1.4164705188
 20
-2.2978610809
 10
1.4224015758
 20
-2.3356964462
 10
1.4272726489
 20
-2.3731793905
 10
1.4310644022
 20
-2.4101714572
 10
1.4337719383
 20
-2.4466721827
 10
1.435400215
 20
-2.4826819954
 10
1.4359446225
 20
-2.5180638098
 10
1.435402166
 20
-2.5528160586
 10
1.4337758407
 20
-2.5869403085
 10
1.431069962
 20
-2.6203042097
 10
1.4272795516
 20
-2.6529026691
 10
1.4224095281
 20
-2.6847408139
 10
1.4164789941
 20
-2.7157016589
 10
1.4094832223
 20
-2.7457882223
 10
1.4014268264
 20
-2.7749975511
 10
1.3923428615
 20
-2.8032037366
 10
1.3822422748
 20
-2.8303648504
 10
1.3711139399
 20
-2.8565229241
 10
1.3589577722
 20
-2.8816780065
  0
LINE
  5
256
100
AcDbEntity
  8
SUPERFICI
100
AcDbLine
 62
7
  6
CONTINUOUS
 10
1.3727904607
 20
-2.110153641
 11
1.3589577722
 21
-2.0652077297
  0
LWPOLYLINE
  5
257
100
AcDbEntity
  8
SUPERFICI
100
AcDbPolyline
 62
7
  6
CONTINUOUS
 90
21
 70
0
 10
1.3589577722
 20
-2.8816780065
 10
1.3727711555
 20
-2.8528211908
 10
1.3852358275
 20
-2.8226845766
 10
1.3963519066
 20
-2.7912680957
 10
1.4061339904
 20
-2.7585139221
 10
1.4145677339
 20
-2.7244797364
 10
1.4216097957
 20
-2.6893387573
 10
1.427252806
 20
-2.6530865288
 10
1.4315042847
 20
-2.6157274209
 10
1.4343431268
 20
-2.5774479476
 10
1.4357626024
 20
-2.5382453364
 10
1.4357694924
 20
-2.4981223312
 10
1.4343628578
 20
-2.4572737788
 10
1.4315363483
 20
-2.4156962807
 10
1.4272962659
 20
-2.3733932638
 10
1.4216605516
 20
-2.3305698702
 10
1.414620714
 20
-2.2872170034
 10
1.4061851
 20
-2.2433438437
 10
1.3963968077
 20
-2.1991830064
 10
1.3852700997
 20
-2.1548120893
 10
1.3727904607
 20
-2.110153641
  0
LWPOLYLINE
  5
258
100
AcDbEntity
  8
RACCORDO
100
AcDbPolyline
 62
253
  6
CONTINUOUS
 90
10
 70
0
 10
7.013730927
 20
-22.1921432527
 10
7.0241430446
 20
-22.2484139558
 10
7.0387402443
 20
-22.3012223885
 10
7.0574359913
 20
-22.3502523832
 10
7.0801217811
 20
-22.3952123129
 10
7.1066609562
 20
-22.4358316994
 10
7.1368890635
 20
-22.4718633669
 10
7.1706265349
 20
-22.5030927909
 10
7.207673059
 20
-22.5293352875
 10
7.2146581876
 20
-22.5335064086
  0
LWPOLYLINE
  5
259
100
AcDbEntity
  8
RACCORDO
100
AcDbPolyline
 62
253
  6
CONTINUOUS
 90
19
 70
0
 10
7.7074934856
 20
-22.1387167832
 10
7.7127973517
 20
-22.1669827736
 10
7.7201316529
 20
-22.1932902908
 10
7.729496389
 20
-22.2176393347
 10
7.7409740179
 20
-22.2401723822
 10
7.7544820819
 20
-22.2607469564
 10
7.7697732073
 20
-22.278935627
 10
7.7868801251
 20
-22.2946773195
 10
7.8057701045
 20
-22.3080331084
 10
7.8260975792
 20
-22.3187587868
 10
7.8478864166
 20
-22.3268032523
 10
7.8711127493
 20
-22.3322176072
 10
7.8953594093
 20
-22.3349109519
 10
7.9206612748
 20
-22.334826475
 10
7.9469834675
 20
-22.3320209878
 10
7.9738041838
 20
-22.3265740247
 10
8.0009494892
 20
-22.3185120971
 10
8.0285933182
 20
-22.3078086936
 10
8.0567356707
 20
-22.2944638141
  0
LWPOLYLINE
  5
25A
100
AcDbEntity
  8
RACCORDO
100
AcDbPolyline
 62
253
  6
CONTINUOUS
 90
10
 70
0
 10
6.2926568153
 20
-13.0050704125
 10
6.3176214058
 20
-14.0602807116
 10
6.3564036105
 20
-15.1073956498
 10
6.4089954394
 20
-16.1461936235
 10
6.4753864787
 20
-17.1764550226
 10
6.5555626132
 20
-18.1979617074
 10
6.6495060368
 20
-19.2104970498
 10
6.757196959
 20
-20.2138467407
 10
6.8786136012
 20
-21.207798841
 10
7.013730927
 20
-22.1921432527
  0
LWPOLYLINE
  5
25B
100
AcDbEntity
  8
RACCORDO
100
AcDbPolyline
 62
253
  6
CONTINUOUS
 90
10
 70
0
 10
6.9903236716
 20
-13.0026245337
 10
7.0151703124
 20
-14.0523287418
 10
7.0537396567
 20
-15.0935522705
 10
7.1060317046
 20
-16.12629512
 10
7.1720637629
 20
-17.1507773335
 10
7.2518185247
 20
-18.1667788678
 10
7.34524407
 20
-19.1736395928
 10
7.4523230918
 20
-20.1711394654
 10
7.573072897
 20
-21.1594985289
 10
7.7074934856
 20
-22.1387167832
  0
LWPOLYLINE
  5
25C
100
AcDbEntity
  8
RACCORDO
100
AcDbPolyline
 62
253
  6
CONTINUOUS
 90
10
 70
0
 10
6.2926568153
 20
2.5078648465
 10
6.266783096
 20
0.7701008076
 10
6.2473780246
 20
-0.9641911438
 10
6.2344415527
 20
-2.6949802972
 10
6.227973562
 20
-4.4222126032
 10
6.2279735654
 20
-6.1458809915
 10
6.2344415618
 20
-7.8660248776
 10
6.2473780364
 20
-9.5826366297
 10
6.2667831054
 20
-11.2956620631
 10
6.2926568153
 20
-13.0050704125
  0
LWPOLYLINE
  5
25D
100
AcDbEntity
  8
RACCORDO
100
AcDbPolyline
 62
253
  6
CONTINUOUS
 90
10
 70
0
 10
7.013730927
 20
12.4853499958
 10
6.8786136021
 20
11.3528976048
 10
6.7571969604
 20
10.2258530015
 10
6.6495060384
 20
9.1044551953
 10
6.5555626144
 20
7.9889422682
 10
6.4753864792
 20
6.8795503894
 10
6.4089954393
 20
5.7765137684
 10
6.3564036102
 20
4.6800658512
 10
6.3176214055
 20
3.5904392671
 10
6.2926568153
 20
2.5078648465
  0
LWPOLYLINE
  5
25E
100
AcDbEntity
  8
RACCORDO
100
AcDbPolyline
 62
253
  6
CONTINUOUS
 90
10
 70
0
 10
7.7074934856
 20
12.4167937635
 10
7.5730717966
 20
11.2902606996
 10
7.4523212396
 20
10.1695706792
 10
7.3452418147
 20
9.0547237023
 10
7.2518163133
 20
7.9454808046
 10
7.172061944
 20
6.8420809504
 10
7.1060303326
 20
5.7452410325
 10
7.0537386877
 20
4.6552000153
 10
7.0151698007
 20
3.5717189345
 10
6.9903236716
 20
2.4947977901
  0
LINE
  5
25F
100
AcDbEntity
  8
RACCORDO
100
AcDbLine
 62
253
  6
CONTINUOUS
 10
-8.539851433
 20
11.0719692141
 11
6.2926568153
 21
2.5078648465
  0
LWPOLYLINE
  5
260
100
AcDbEntity
  8
RACCORDO
100
AcDbPolyline
 62
253
  6
CONTINUOUS
 90
10
 70
0
 10
6.9903236716
 20
2.4947977901
 10
6.9644754355
 20
0.7587217657
 10
6.9450892601
 20
-0.9738250511
 10
6.9321651454
 20
-2.7028426601
 10
6.9257030937
 20
-4.4283388547
 10
6.9257031027
 20
-6.1503058417
 10
6.9321651656
 20
-7.868720241
 10
6.9450892803
 20
-9.5835742595
 10
6.964475449
 20
-11.2948756904
 10
6.9903236716
 20
-13.0026245337
  0
LWPOLYLINE
  5
261
100
AcDbEntity
  8
RACCORDO
100
AcDbPolyline
 62
253
  6
CONTINUOUS
 90
16
 70
0
 10
8.0567356707
 20
12.9552545235
 10
8.0538603353
 20
12.9984955779
 10
8.0472489977
 20
13.0435557065
 10
8.036973995
 20
13.0899416808
 10
8.0231477684
 20
13.1371457549
 10
8.0059216355
 20
13.1846512137
 10
7.9854841379
 20
13.2319380287
 10
7.9620589682
 20
13.2784885716
 10
7.9359025314
 20
13.3237932581
 10
7.9073011469
 20
13.3673561191
 10
7.8765678887
 20
13.4087002726
 10
7.8440391763
 20
13.4473731124
 10
7.8100711094
 20
13.4829512497
 10
7.7750355345
 20
13.515045192
 10
7.7393159712
 20
13.5433036014
 10
7.7033034373
 20
13.5674171157
  0
LINE
  5
262
100
AcDbEntity
  8
0
100
AcDbLine
 62
7
  6
CONTINUOUS
 10
8.7484506337
 20
-21.9358401273
 11
8.7484506337
 21
13.3546401041
  0
LWPOLYLINE
  5
263
100
AcDbEntity
  8
RACCORDO
100
AcDbPolyline
 62
253
  6
CONTINUOUS
 90
9
 70
0
 10
8.0567356707
 20
-22.2944638141
 10
8.0538602479
 20
-22.3365000091
 10
8.0472487092
 20
-22.3757836963
 10
8.0369734289
 20
-22.4118848508
 10
8.0231468871
 20
-22.4444082852
 10
8.0059204382
 20
-22.4729979767
 10
7.9854826543
 20
-22.4973409636
 10
7.9620572609
 20
-22.5171707714
 10
7.9426950509
 20
-22.5289414067
  0
LWPOLYLINE
  5
264
100
AcDbEntity
  8
RACCORDO
100
AcDbPolyline
 62
253
  6
CONTINUOUS
 90
16
 70
0
 10
6.9903236716
 20
-13.0026245337
 10
6.9512255751
 20
-13.0227365001
 10
6.9088953386
 20
-13.040416801
 10
6.8637814269
 20
-13.0554781238
 10
6.8163617961
 20
-13.0677609022
 10
6.7671388303
 20
-13.0771350074
 10
6.7166340186
 20
-13.0835011258
 10
6.6653824308
 20
-13.0867918123
 10
6.6139270482
 20
-13.0869722037
 10
6.5628130113
 20
-13.0840403891
 10
6.5125818441
 20
-13.0780274292
 10
6.4637657173
 20
-13.068997028
 10
6.4168818098
 20
-13.0570448574
 10
6.37242683
 20
-13.0422975438
 10
6.330871753
 20
-13.0249113267
 10
6.2926568311
 20
-13.0050704031
  0
LINE
  5
265
100
AcDbEntity
  8
RACCORDO
100
AcDbLine
 62
253
  6
CONTINUOUS
 10
-7.8553783935
 20
21.0705873637
 11
7.013730927
 21
12.4853499958
  0
LINE
  5
266
100
AcDbEntity
  8
RACCORDO
100
AcDbLine
 62
253
  6
CONTINUOUS
 10
-7.1836296127
 20
22.1629456779
 11
7.703303434
 21
13.5674171138
  0
LINE
  5
267
100
AcDbEntity
  8
0
100
AcDbLine
 62
7
  6
CONTINUOUS
 10
-6.5272166225
 20
22.5827141752
 11
8.395018397
 21
13.9668026945
  0
LWPOLYLINE
  5
268
100
AcDbEntity
  8
RACCORDO
100
AcDbPolyline
 62
253
  6
CONTINUOUS
 90
16
 70
0
 10
7.7074934855
 20
-22.1387167831
 10
7.6688001516
 20
-22.1640803771
 10
7.6268693406
 20
-22.1869557441
 10
7.5821454403
 20
-22.2071004483
 10
7.5351024401
 20
-22.2243009935
 10
7.4862389075
 20
-22.2383750864
 10
7.4360727041
 20
-22.2491735681
 10
7.3851354973
 20
-22.2565819948
 10
7.333967126
 20
-22.2605218511
 10
7.2831098787
 20
-22.2609513821
 10
7.2331027467
 20
-22.2578660354
 10
7.1844757117
 20
-22.25129851
 10
7.1377441289
 20
-22.2413184095
 10
7.0934032653
 20
-22.2280315044
 10
7.0519230509
 20
-22.2115786107
 10
7.0137430979
 20
-22.1921340982
  0
LINE
  5
269
100
AcDbEntity
  8
0
100
AcDbLine
 62
253
  6
CONTINUOUS
 10
8.0567356707
 20
-22.2944638141
 11
8.7484506337
 21
-21.9358401273
  0
LINE
  5
26A
100
AcDbEntity
  8
RACCORDO
100
AcDbLine
 62
7
  6
CONTINUOUS
 10
7.9426950509
 20
-22.5289414067
 11
8.6381742092
 21
-22.1683661507
  0
ELLIPSE
  5
26B
100
AcDbEntity
  8
0
100
AcDbEllipse
 62
7
  6
CONTINUOUS
 10
-6.5269742732
 20
22.1741991674
 30
0.0
 11
-0.2501834304
 21
0.4333025529
 31
0.0
 40
0.5769361983
 41
-0.7851038024
 42
0.0263715828
  0
ELLIPSE
  5
26C
100
AcDbEntity
  8
0
100
AcDbEllipse
 62
7
  6
CONTINUOUS
 10
8.3947760477
 20
13.5585675456
 30
0.0
 11
-0.2500121049
 21
0.4330057129
 31
0.0
 40
0.5777274115
 41
-2.3559002616
 42
-0.7857891675
  0
ELLIPSE
  5
26D
100
AcDbEntity
  8
0
100
AcDbEllipse
 62
7
  6
CONTINUOUS
 10
8.3947760477
 20
-21.731353022
 30
0.0
 11
-0.2501834304
 21
0.4333025529
 31
0.0
 40
0.5769361983
 41
-3.1679635486
 42
-2.3565853618
  0
ENDSEC
  0
SECTION
  2
OBJECTS
  0
DICTIONARY
  5
C
100
AcDbDictionary
280
0
281
1
  3
ACAD_GROUP
350
D
  3
ACAD_MLINESTYLE
350
17
  3
ACAD_LAYOUT
350
1A
  3
ACAD_PLOTSETTINGS
350
19
  3
ACAD_PLOTSTYLENAME
350
E
  0
DICTIONARY
  5
D
102
{ACAD_REACTORS
330
C
102
}
100
AcDbDictionary
280
0
281
1
  0
ACDBDICTIONARYWDFLT
  5
E
102
{ACAD_REACTORS
330
C
102
}
100
AcDbDictionary
281
1
  3
Normal
350
F
100
AcDbDictionaryWithDefault
340
F
  0
DICTIONARY
  5
17
102
{ACAD_REACTORS
330
C
102
}
100
AcDbDictionary
280
0
281
1
  3
Standard
350
18
  0
DICTIONARY
  5
19
102
{ACAD_REACTORS
330
C
102
}
100
AcDbDictionary
281
1
  0
DICTIONARY
  5
1A
102
{ACAD_REACTORS
330
C
102
}
100
AcDbDictionary
281
1
  3
Model
350
26E
  3
Layout1
350
26F
  0
ACDBPLACEHOLDER
  5
F
102
{ACAD_REACTORS
330
E
102
}
  0
MLINESTYLE
  5
18
102
{ACAD_REACTORS
330
17
102
}
100
AcDbMlineStyle
  2
STANDARD
 70
0
  3

 62
256
 51
90.0
 52
90.0
 71
2
 49
0.5
 62
256
  6
BYLAYER
 49
-0.5
 62
256
  6
BYLAYER
  0
LAYOUT
  5
26E
102
{ACAD_REACTORS
330
1A
102
}
100
AcDbPlotSettings
  1

  2
none_device
  4
ISO_A4_(297.00_x_210.00_MM)
  6

 40
0.0
 41
0.0
 42
0.0
 43
0.0
 44
297.0
 45
210.0
 46
0.0
 47
0.0
 48
0.0
 49
0.0
140
0.0
141
0.0
142
1.0
143
1.0
 70
1024
 72
1
 73
0
 74
0
  7

 75
0
147
1.0
148
0.0
149
0.0
100
AcDbLayout
  1
Model
 70
0
 71
0
 10
0.0
 20
0.0
 11
297.0
 21
210.0
 12
0.0
 22
0.0
 32
0.0
 14
0.0
 24
0.0
 34
0.0
 15
0.0
 25
0.0
 35
0.0
146
0.0
 13
0.0
 23
0.0
 33
0.0
 16
1.0
 26
0.0
 36
0.0
 17
0.0
 27
1.0
 37
0.0
 76
0
330
215
345
0
346
0
  0
LAYOUT
  5
26F
102
{ACAD_REACTORS
330
1A
102
}
100
AcDbPlotSettings
  1

  2
none_device
  4
ISO_A4_(297.00_x_210.00_MM)
  6

 40
0.0
 41
0.0
 42
0.0
 43
0.0
 44
297.0
 45
210.0
 46
0.0
 47
0.0
 48
0.0
 49
0.0
140
0.0
141
0.0
142
1.0
143
1.0
 70
0
 72
1
 73
0
 74
0
  7

 75
0
147
1.0
148
0.0
149
0.0
100
AcDbLayout
  1
Layout1
 70
0
 71
1
 10
0.0
 20
0.0
 11
297.0
 21
210.0
 12
0.0
 22
0.0
 32
0.0
 14
0.0
 24
0.0
 34
0.0
 15
0.0
 25
0.0
 35
0.0
146
0.0
 13
0.0
 23
0.0
 33
0.0
 16
1.0
 26
0.0
 36
0.0
 17
0.0
 27
1.0
 37
0.0
 76
0
330
216
345
0
346
0
  0
ENDSEC
  0
EOF
