  0
SECTION
  2
HEADER
  9
$ACADVER
  1
AC1015
  9
$DWGCODEPAGE
  3
ANSI_1252
  9
$EXTMAX
 10
297.0
 20
210.0
 30
0.0
  9
$EXTMIN
 10
0.0
 20
0.0
 30
0.0
  9
$LIMMIN
 10
0.0
 20
0.0
  9
$LIMMAX
 10
297.0
 20
210.0
  9
$VIEWCTR
 10
148.5
 20
105.0
  9
$VIEWSIZE
 40
210.0
  9
$CLAYER
  8
0
  9
$LTSCALE
 40
16.335
  9
$CELTYPE
  6
BYLAYER
  9
$DIMSCALE
 40
1.0
  9
$DIMASZ
 40
3.0
  9
$DIMEXO
 40
1.85625
  9
$DIMDLI
 40
11.286
  9
$DIMEXE
 40
5.346
  9
$DIMCEN
 40
2.673
  9
$DIMLFAC
 40
1.0
  9
$DIMBLK
  1
_FILLED
  9
$DIMTXT
 40
3.0
  9
$DIMTOL
 70
1
  9
$DIMLIM
 70
0
  9
$DIMTFAC
 40
1.0
  9
$DIMTP
 40
0.01
  9
$DIMTM
 40
0.01
  9
$PDMODE
 70
3
  9
$PDSIZE
 40
3.0
  9
$HANDSEED
  5
28B
  9
$TILEMODE
 70
1
  9
$MEASUREMENT
 70
1
  9
$INSUNITS
 70
4
  0
ENDSEC
  0
SECTION
  2
CLASSES
  0
CLASS
  1
ACDBDICTIONARYWDFLT
  2
AcDbDictionaryWithDefault
  3
AutoCAD 2000
 90
0
280
0
281
0
  0
CLASS
  1
ACDBPLACEHOLDER
  2
AcDbPlaceHolder
  3
AutoCAD 2000
 90
0
280
0
281
0
  0
CLASS
  1
LAYOUT
  2
AcDbLayout
  3
AutoCAD 2000
 90
0
280
0
281
0
  0
ENDSEC
  0
SECTION
  2
TABLES
  0
TABLE
  2
VPORT
  5
8
100
AcDbSymbolTable
 70
2
  0
VPORT
  5
1F4
100
AcDbSymbolTableRecord
100
AcDbViewportTableRecord
  2
*ACTIVE
 70
0
 10
0.0
 20
0.0
 11
1.0
 21
1.0
 12
148.5
 22
105.0
 13
0.0
 23
0.0
 14
1.0
 24
1.0
 15
0.0
 25
0.0
 16
0.0
 26
0.0
 36
1.0
 17
0.0
 27
0.0
 37
0.0
 40
210.0
 41
1.4142857143
 42
50.0
 43
0.0
 44
0.0
 50
0.0
 51
0.0
 71
0
 72
100
 73
1
 74
1
 75
0
 76
0
 77
0
 78
0
  0
ENDTAB
  0
TABLE
  2
LTYPE
  5
5
100
AcDbSymbolTable
 70
6
  0
LTYPE
  5
14
100
AcDbSymbolTableRecord
100
AcDbLinetypeTableRecord
  2
BYBLOCK
 70
0
  3

 72
65
 73
0
 40
0.0
  0
LTYPE
  5
15
100
AcDbSymbolTableRecord
100
AcDbLinetypeTableRecord
  2
BYLAYER
 70
0
  3

 72
65
 73
0
 40
0.0
  0
LTYPE
  5
16
100
AcDbSymbolTableRecord
100
AcDbLinetypeTableRecord
  2
CONTINUOUS
 70
64
  3
Solid line
 72
65
 73
0
 40
0.0
  0
LTYPE
  5
1F5
100
AcDbSymbolTableRecord
100
AcDbLinetypeTableRecord
  2
CENTER
 70
64
  3
____ _ ____ _ ____ _ ____ _ ____ _ ____ _ ____
 72
65
 73
4
 40
0.6
 49
0.375
 74
0
 49
-0.075
 74
0
 49
0.075
 74
0
 49
-0.075
 74
0
  0
LTYPE
  5
1F6
100
AcDbSymbolTableRecord
100
AcDbLinetypeTableRecord
  2
HIDDEN
 70
64
  3
- - - - - - - - - - - - - - - - - - - -
 72
65
 73
2
 40
0.2
 49
0.1
 74
0
 49
-0.1
 74
0
  0
LTYPE
  5
1F7
100
AcDbSymbolTableRecord
100
AcDbLinetypeTableRecord
  2
PHANTOM
 70
64
  3
_____ _ _ _____ _ _ _____ _ _ _____
 72
65
 73
6
 40
0.8
 49
0.45
 74
0
 49
-0.05
 74
0
 49
0.1
 74
0
 49
-0.05
 74
0
 49
0.1
 74
0
 49
-0.05
 74
0
  0
LTYPE
  5
1F8
100
AcDbSymbolTableRecord
100
AcDbLinetypeTableRecord
  2
DOT
 70
64
  3
. . . . . . . . . . . . . . . . . . . .
 72
65
 73
2
 40
0.2
 49
0.1
 74
0
 49
-0.1
 74
0
  0
LTYPE
  5
1F9
100
AcDbSymbolTableRecord
100
AcDbLinetypeTableRecord
  2
DASHED
 70
64
  3
- - - - - - - - - - - - - - - - - - - -
 72
65
 73
2
 40
0.2
 49
0.1
 74
0
 49
-0.1
 74
0
  0
ENDTAB
  0
TABLE
  2
LAYER
  5
2
100
AcDbSymbolTable
 70
36
  0
LAYER
  5
10
100
AcDbSymbolTableRecord
100
AcDbLayerTableRecord
  2
0
 70
0
 62
7
  6
CONTINUOUS
370
-3
390
F
  0
LAYER
  5
1FA
100
AcDbSymbolTableRecord
100
AcDbLayerTableRecord
  2
DEFAULT_1
 70
0
 62
7
  6
CENTER
370
-3
390
F
  0
LAYER
  5
1FB
100
AcDbSymbolTableRecord
100
AcDbLayerTableRecord
  2
DEFAULT_2
 70
0
 62
7
  6
HIDDEN
370
-3
390
F
  0
LAYER
  5
1FC
100
AcDbSymbolTableRecord
100
AcDbLayerTableRecord
  2
DEFAULT_3
 70
0
 62
7
  6
PHANTOM
370
-3
390
F
  0
LAYER
  5
1FD
100
AcDbSymbolTableRecord
100
AcDbLayerTableRecord
  2
ASSI
 70
0
 62
7
  6
CONTINUOUS
370
-3
390
F
  0
LAYER
  5
1FE
100
AcDbSymbolTableRecord
100
AcDbLayerTableRecord
  2
COLOR9
 70
0
 62
7
  6
CONTINUOUS
370
-3
390
F
  0
LAYER
  5
1FF
100
AcDbSymbolTableRecord
100
AcDbLayerTableRecord
  2
COORDINATE
 70
0
 62
7
  6
CONTINUOUS
370
-3
390
F
  0
LAYER
  5
200
100
AcDbSymbolTableRecord
100
AcDbLayerTableRecord
  2
COORD_ORIGINE
 70
0
 62
7
  6
CONTINUOUS
370
-3
390
F
  0
LAYER
  5
201
100
AcDbSymbolTableRecord
100
AcDbLayerTableRecord
  2
COSMETICI
 70
0
 62
7
  6
CONTINUOUS
370
-3
390
F
  0
LAYER
  5
202
100
AcDbSymbolTableRecord
100
AcDbLayerTableRecord
  2
CURVE
 70
0
 62
7
  6
CONTINUOUS
370
-3
390
F
  0
LAYER
  5
203
100
AcDbSymbolTableRecord
100
AcDbLayerTableRecord
  2
DRAFT
 70
0
 62
7
  6
CONTINUOUS
370
-3
390
F
  0
LAYER
  5
204
100
AcDbSymbolTableRecord
100
AcDbLayerTableRecord
  2
IMPORT_IGES
 70
0
 62
7
  6
CONTINUOUS
370
-3
390
F
  0
LAYER
  5
205
100
AcDbSymbolTableRecord
100
AcDbLayerTableRecord
  2
INTF_1
 70
0
 62
7
  6
CONTINUOUS
370
-3
390
F
  0
LAYER
  5
206
100
AcDbSymbolTableRecord
100
AcDbLayerTableRecord
  2
INTF_YELLOW
 70
0
 62
7
  6
CONTINUOUS
370
-3
390
F
  0
LAYER
  5
207
100
AcDbSymbolTableRecord
100
AcDbLayerTableRecord
  2
NOTE
 70
0
 62
7
  6
CONTINUOUS
370
-3
390
F
  0
LAYER
  5
208
100
AcDbSymbolTableRecord
100
AcDbLayerTableRecord
  2
PIANI
 70
0
 62
7
  6
CONTINUOUS
370
-3
390
F
  0
LAYER
  5
209
100
AcDbSymbolTableRecord
100
AcDbLayerTableRecord
  2
PIANI_ORIGINE
 70
0
 62
7
  6
CONTINUOUS
370
-3
390
F
  0
LAYER
  5
20A
100
AcDbSymbolTableRecord
100
AcDbLayerTableRecord
  2
PIANI_RIFERIMENTO
 70
0
 62
7
  6
CONTINUOUS
370
-3
390
F
  0
LAYER
  5
20B
100
AcDbSymbolTableRecord
100
AcDbLayerTableRecord
  2
PUNTI
 70
0
 62
7
  6
CONTINUOUS
370
-3
390
F
  0
LAYER
  5
20C
100
AcDbSymbolTableRecord
100
AcDbLayerTableRecord
  2
RACCORDO
 70
0
 62
7
  6
CONTINUOUS
370
-3
390
F
  0
LAYER
  5
20D
100
AcDbSymbolTableRecord
100
AcDbLayerTableRecord
  2
SIMBOLI
 70
0
 62
7
  6
CONTINUOUS
370
-3
390
F
  0
LAYER
  5
20E
100
AcDbSymbolTableRecord
100
AcDbLayerTableRecord
  2
SMUSSO
 70
0
 62
7
  6
CONTINUOUS
370
-3
390
F
  0
LAYER
  5
20F
100
AcDbSymbolTableRecord
100
AcDbLayerTableRecord
  2
SNAPLINE
 70
0
 62
7
  6
CONTINUOUS
370
-3
390
F
  0
LAYER
  5
210
100
AcDbSymbolTableRecord
100
AcDbLayerTableRecord
  2
SUPERFICI
 70
0
 62
7
  6
CONTINUOUS
370
-3
390
F
  0
LAYER
  5
211
100
AcDbSymbolTableRecord
100
AcDbLayerTableRecord
  2
TRASH
 70
0
 62
7
  6
CONTINUOUS
370
-3
390
F
  0
LAYER
  5
212
100
AcDbSymbolTableRecord
100
AcDbLayerTableRecord
  2
XSEC_DATUMS
 70
0
 62
7
  6
CONTINUOUS
370
-3
390
F
  0
ENDTAB
  0
TABLE
  2
STYLE
  5
3
100
AcDbSymbolTable
 70
1
  0
STYLE
  5
11
100
AcDbSymbolTableRecord
100
AcDbTextStyleTableRecord
  2
STANDARD
 70
0
 40
0.0
 41
0.8
 50
0.0
 71
0
 42
0.2
  3
txt
  4

  0
STYLE
  5
213
100
AcDbSymbolTableRecord
100
AcDbTextStyleTableRecord
  2
TEXTSTYLE_1
 70
0
 40
0.0
 41
0.8
 50
0.0
 71
0
 42
0.2
  3
gdt
  4

  0
ENDTAB
  0
TABLE
  2
VIEW
  5
6
100
AcDbSymbolTable
 70
0
  0
ENDTAB
  0
TABLE
  2
UCS
  5
7
100
AcDbSymbolTable
 70
0
  0
ENDTAB
  0
TABLE
  2
APPID
  5
9
100
AcDbSymbolTable
 70
1
  0
APPID
  5
214
100
AcDbSymbolTableRecord
100
AcDbRegAppTableRecord
  2
ACAD
 70
0
  0
ENDTAB
  0
TABLE
  2
BLOCK_RECORD
  5
1
100
AcDbSymbolTable
 70
0
  0
BLOCK_RECORD
  5
215
100
AcDbSymbolTableRecord
100
AcDbBlockTableRecord
  2
*Model_Space
  0
BLOCK_RECORD
  5
216
100
AcDbSymbolTableRecord
100
AcDbBlockTableRecord
  2
*Paper_Space
  0
ENDTAB
  0
TABLE
  2
DIMSTYLE
  5
A
100
AcDbSymbolTable
 70
1
100
AcDbDimStyleTable
 71
0
  0
DIMSTYLE
105
217
100
AcDbSymbolTableRecord
100
AcDbDimStyleTableRecord
  2
STANDARD
 70
0
  3

  4

 40
1.0
 41
3.0
 42
0.0625
 43
0.38
 44
0.18
 45
0.0
 46
0.0
 47
0.01
 48
0.01
140
3.0
141
0.09
142
0.0
143
25.4
144
1.0
145
0.0
146
1.0
147
0.09
 71
1.0
 72
0.0
 73
0
 74
0
 75
0
 76
0
 77
1
 78
8
170
0
171
2
172
0
173
0
174
0
175
0
176
0
177
0
178
0
270
2
271
2
272
2
273
2
274
2
275
0
280
0
281
0
282
0
283
1
284
8
285
0
286
0
287
3
288
0
340
11
  0
ENDTAB
  0
ENDSEC
  0
SECTION
  2
BLOCKS
  0
BLOCK
  5
20
100
AcDbEntity
  8
0
100
AcDbBlockBegin
  2
*Model_Space
 70
0
 10
0.0
 20
0.0
 30
0.0
  3
*Model_Space
  1

  0
ENDBLK
  5
21
100
AcDbEntity
  8
0
100
AcDbBlockEnd
  0
BLOCK
  5
1C
100
AcDbEntity
  8
0
100
AcDbBlockBegin
  2
*Paper_Space
 70
0
 10
0.0
 20
0.0
 30
0.0
  3
*Paper_Space
  1

  0
ENDBLK
  5
1D
100
AcDbEntity
  8
0
100
AcDbBlockEnd
  0
ENDSEC
  0
SECTION
  2
ENTITIES
  0
LWPOLYLINE
  5
218
100
AcDbEntity
  8
RACCORDO
100
AcDbPolyline
 62
7
  6
CONTINUOUS
 90
15
 70
0
 10
-7.2926056345
 20
22.1815103142
 10
-7.3293010213
 20
22.1568927819
 10
-7.3929742436
 20
22.1084183688
 10
-7.4530059658
 20
22.0553715185
 10
-7.5095936604
 20
21.9980133749
 10
-7.5627144009
 20
21.9366518889
 10
-7.6120400188
 20
21.8719167198
 10
-7.6575356817
 20
21.8040831845
 10
-7.6990989626
 20
21.7333467265
 10
-7.736323454
 20
21.6604754175
 10
-7.7690945533
 20
21.5856907419
 10
-7.7972412072
 20
21.5091635133
 10
-7.8204126574
 20
21.4315490492
 10
-7.838371229
 20
21.3530865091
 10
-7.8513632454
 20
21.2699268215
  0
LINE
  5
219
100
AcDbEntity
  8
RACCORDO
100
AcDbLine
 62
7
  6
CONTINUOUS
 10
-7.2927607346
 20
22.1814282109
 11
-6.6327756561
 21
22.6034810173
  0
LWPOLYLINE
  5
21A
100
AcDbEntity
  8
RACCORDO
100
AcDbPolyline
 62
253
  6
CONTINUOUS
 90
9
 70
0
 10
-7.2926133253
 20
22.1815223683
 10
-7.272861242
 20
22.1923238687
 10
-7.2439737563
 20
22.2026930557
 10
-7.2126715798
 20
22.2082183632
 10
-7.1792973667
 20
22.2088393074
 10
-7.1442164534
 20
22.2045490909
 10
-7.1078128588
 20
22.1953946773
 10
-7.0704850808
 20
22.1814762768
 10
-7.0326417338
 20
22.1629462495
  0
LINE
  5
21B
100
AcDbEntity
  8
0
100
AcDbLine
 62
253
  6
CONTINUOUS
 10
-7.0326417338
 20
22.1629462495
 11
-6.3762287436
 21
22.5827147468
  0
LWPOLYLINE
  5
21C
100
AcDbEntity
  8
RACCORDO
100
AcDbPolyline
 62
7
  6
CONTINUOUS
 90
12
 70
0
 10
7.3656770223
 20
-22.5335176347
 10
7.3731333723
 20
-22.5377749509
 10
7.4391687309
 20
-22.570317331
 10
7.5080396432
 20
-22.5954182581
 10
7.5792468559
 20
-22.6130547385
 10
7.6531323378
 20
-22.6232462163
 10
7.7291090483
 20
-22.6256661206
 10
7.8063410025
 20
-22.620097376
 10
7.8851049582
 20
-22.6062503107
 10
7.9652012025
 20
-22.5836647515
 10
8.0457017034
 20
-22.5521070281
 10
8.0933380357
 20
-22.5291065395
  0
LINE
  5
21D
100
AcDbEntity
  8
RACCORDO
100
AcDbLine
 62
7
  6
CONTINUOUS
 10
-7.5072318903
 20
-13.9460931389
 11
-7.5078525687
 21
-13.9457356798
  0
LINE
  5
21E
100
AcDbEntity
  8
ASSI
100
AcDbLine
 62
7
  6
CONTINUOUS
 10
7.3665080474
 20
-22.53400508
 11
-7.5078869932
 21
-13.9457158035
  0
LINE
  5
21F
100
AcDbEntity
  8
RACCORDO
100
AcDbLine
 62
253
  6
CONTINUOUS
 10
7.1647188059
 20
-22.1921426812
 11
-7.7043905146
 21
-13.6069053132
  0
LINE
  5
220
100
AcDbEntity
  8
RACCORDO
100
AcDbLine
 62
7
  6
CONTINUOUS
 10
7.3655883535
 20
-22.533472293
 11
7.3664739158
 21
-22.5339853728
  0
LWPOLYLINE
  5
221
100
AcDbEntity
  8
RACCORDO
100
AcDbPolyline
 62
253
  6
CONTINUOUS
 90
9
 70
0
 10
-7.515466648
 20
-13.9411997555
 10
-7.55155112
 20
-13.915512259
 10
-7.5844169232
 20
-13.8847858173
 10
-7.6138653626
 20
-13.8492043252
 10
-7.6397153719
 20
-13.8089832194
 10
-7.6618149314
 20
-13.7643622184
 10
-7.6800314335
 20
-13.7156092004
 10
-7.6942521642
 20
-13.6630181986
 10
-7.7043905146
 20
-13.6069053132
  0
LWPOLYLINE
  5
222
100
AcDbEntity
  8
RACCORDO
100
AcDbPolyline
 62
7
  6
CONTINUOUS
 90
8
 70
0
 10
-7.7689093416
 20
-13.6711300311
 10
-7.7369338182
 20
-13.7261536117
 10
-7.7009129896
 20
-13.7770485098
 10
-7.6612127932
 20
-13.8236225748
 10
-7.6178456001
 20
-13.866067595
 10
-7.5710573967
 20
-13.9042122915
 10
-7.5214150756
 20
-13.9376780102
 10
-7.5071489237
 20
-13.9461357704
  0
LWPOLYLINE
  5
223
100
AcDbEntity
  8
RACCORDO
100
AcDbPolyline
 62
253
  6
CONTINUOUS
 90
10
 70
0
 10
-7.8513632454
 20
21.2699268215
 10
-7.8518776574
 20
21.2643137937
 10
-7.8509104127
 20
21.2392681487
 10
-7.8446853102
 20
21.2139276386
 10
-7.8332683242
 20
21.1885608253
 10
-7.8167804534
 20
21.1634365493
 10
-7.7953964381
 20
21.138821081
 10
-7.7693429088
 20
21.1149752982
 10
-7.7388959839
 20
21.0921519214
 10
-7.7043783437
 20
21.0705928355
  0
LWPOLYLINE
  5
224
100
AcDbEntity
  8
RACCORDO
100
AcDbPolyline
 62
7
  6
CONTINUOUS
 90
10
 70
0
 10
-7.8513449204
 20
21.2701651846
 10
-7.9741767939
 20
20.1839171488
 10
-8.0913231076
 20
19.0391081468
 10
-8.1951206976
 20
17.9003856995
 10
-8.2855398407
 20
16.7680286138
 10
-8.362561047
 20
15.6422659461
 10
-8.4261672354
 20
14.5233082171
 10
-8.4763413825
 20
13.4113837626
 10
-8.5130703467
 20
12.3067638048
 10
-8.5353110035
 20
11.2762486803
  0
LWPOLYLINE
  5
225
100
AcDbEntity
  8
RACCORDO
100
AcDbPolyline
 62
253
  6
CONTINUOUS
 90
19
 70
0
 10
-7.7043905146
 20
21.0705879353
 10
-7.6942522246
 20
21.1387241862
 10
-7.6800315027
 20
21.2081717256
 10
-7.6618148837
 20
21.2785144578
 10
-7.6397149118
 20
21.3493331251
 10
-7.6138642049
 20
21.4202017728
 10
-7.5844150968
 20
21.4906903166
 10
-7.551548888
 20
21.5603758708
 10
-7.5154641577
 20
21.6288434372
 10
-7.4763701219
 20
21.6956821348
 10
-7.434505047
 20
21.7604931095
 10
-7.3901227001
 20
21.8228891521
 10
-7.3434799453
 20
21.8824946302
 10
-7.294859112
 20
21.9389552662
 10
-7.244556294
 20
21.9919321847
 10
-7.1928668593
 20
22.0411010124
 10
-7.1401016155
 20
22.0861660873
 10
-7.0865847728
 20
22.1268618606
 10
-7.0326417338
 20
22.1629462495
  0
LWPOLYLINE
  5
226
100
AcDbEntity
  8
RACCORDO
100
AcDbPolyline
 62
253
  6
CONTINUOUS
 90
8
 70
0
 10
-7.8500254446
 20
-13.4130354916
 10
-7.844696951
 20
-13.439178699
 10
-7.8332805012
 20
-13.4715595946
 10
-7.8167929821
 20
-13.502589282
 10
-7.795409135
 20
-13.5319388964
 10
-7.7693555942
 20
-13.5592973791
 10
-7.7389084853
 20
-13.5843747742
 10
-7.704390499
 20
-13.6069053015
  0
LWPOLYLINE
  5
227
100
AcDbEntity
  8
RACCORDO
100
AcDbPolyline
 62
7
  6
CONTINUOUS
 90
5
 70
0
 10
-7.8500095337
 20
-13.4130332628
 10
-7.8374052839
 20
-13.4826829265
 10
-7.8193822278
 20
-13.5495106314
 10
-7.7964421075
 20
-13.6123184236
 10
-7.7689093416
 20
-13.6711300311
  0
LINE
  5
228
100
AcDbEntity
  8
RACCORDO
100
AcDbLine
 62
7
  6
CONTINUOUS
 10
-7.8501014951
 20
-13.412490076
 11
-7.8500254446
 21
-13.4130354916
  0
LWPOLYLINE
  5
229
100
AcDbEntity
  8
RACCORDO
100
AcDbPolyline
 62
253
  6
CONTINUOUS
 90
9
 70
0
 10
-8.5353085108
 20
-4.2371999239
 10
-8.5342860954
 20
-4.2534047182
 10
-8.5283220491
 20
-4.2834290748
 10
-8.5171354987
 20
-4.3128779366
 10
-8.5008449595
 20
-4.3414393094
 10
-8.4796230203
 20
-4.3688106019
 10
-8.4536945157
 20
-4.3947018309
 10
-8.4233341432
 20
-4.4188386934
 10
-8.3888635538
 20
-4.4409654732
  0
LWPOLYLINE
  5
22A
100
AcDbEntity
  8
RACCORDO
100
AcDbPolyline
 62
253
  6
CONTINUOUS
 90
9
 70
0
 10
-8.5353110035
 20
11.2762486803
 10
-8.5342860796
 20
11.2554038393
 10
-8.5283220324
 20
11.2264029864
 10
-8.5171354816
 20
11.1978461544
 10
-8.5008449421
 20
11.1700358867
 10
-8.479623003
 20
11.1432668171
 10
-8.4536944987
 20
11.1178225488
 10
-8.4233341268
 20
11.0939726492
 10
-8.3888635383
 20
11.0719697945
  0
LWPOLYLINE
  5
22B
100
AcDbEntity
  8
RACCORDO
100
AcDbPolyline
 62
7
  6
CONTINUOUS
 90
10
 70
0
 10
-8.5353084892
 20
-4.2371996827
 10
-8.5129024391
 20
-5.2466005725
 10
-8.4760736293
 20
-6.3073328377
 10
-8.4257761552
 20
-7.3592423987
 10
-8.3620173432
 20
-8.4020708107
 10
-8.2848083344
 20
-9.4356083018
 10
-8.1941600249
 20
-10.4596637367
 10
-8.0900859079
 20
-11.474028561
 10
-7.9726098268
 20
-12.4784551759
 10
-7.8501014951
 20
-13.412490076
  0
LWPOLYLINE
  5
22C
100
AcDbEntity
  8
RACCORDO
100
AcDbPolyline
 62
253
  6
CONTINUOUS
 90
10
 70
0
 10
-8.3888635541
 20
-4.4409654734
 10
-8.4134180974
 20
-2.7323180813
 10
-8.4318337868
 20
-1.0198633632
 10
-8.4441106708
 20
0.6963679145
 10
-8.4502488677
 20
2.4163215659
 10
-8.4502488645
 20
4.139989958
 10
-8.4441106621
 20
5.8674125052
 10
-8.4318337755
 20
7.5985821361
 10
-8.4134180883
 20
9.3334448001
 10
-8.3888635541
 20
11.0719697857
  0
LWPOLYLINE
  5
22D
100
AcDbEntity
  8
RACCORDO
100
AcDbPolyline
 62
7
  6
CONTINUOUS
 90
10
 70
0
 10
-8.535311015
 20
11.2762488875
 10
-8.5592841755
 20
9.5844841954
 10
-8.5779906156
 20
7.8354325113
 10
-8.5904586173
 20
6.0900868759
 10
-8.5966877766
 20
4.3484830917
 10
-8.5966779671
 20
2.6106508496
 10
-8.5904291132
 20
0.8766175387
 10
-8.5779411943
 20
-0.8535871503
 10
-8.559214467
 20
-2.57992775
 10
-8.5353085108
 20
-4.2371999239
  0
LWPOLYLINE
  5
22E
100
AcDbEntity
  8
RACCORDO
100
AcDbPolyline
 62
253
  6
CONTINUOUS
 90
10
 70
0
 10
-8.3888635541
 20
11.0719697857
 10
-8.3651670606
 20
12.1552763848
 10
-8.3283532702
 20
13.2460395031
 10
-8.2784301731
 20
14.3440283103
 10
-8.2154090433
 20
15.4490106739
 10
-8.1393031357
 20
16.5607526511
 10
-8.0501276756
 20
17.6790185419
 10
-7.9479015932
 20
18.8035716804
 10
-7.8326475274
 20
19.9341744813
 10
-7.7043905146
 20
21.0705879353
  0
LWPOLYLINE
  5
22F
100
AcDbEntity
  8
RACCORDO
100
AcDbPolyline
 62
253
  6
CONTINUOUS
 90
16
 70
0
 10
7.8584813645
 20
12.4167943351
 10
7.8197876885
 20
12.4039750769
 10
7.7778563772
 20
12.3935111029
 10
7.7331318354
 20
12.3855133142
 10
7.6860880712
 20
12.3800664747
 10
7.6372236729
 20
12.377228312
 10
7.5870565248
 20
12.3770289062
 10
7.5361183178
 20
12.3794703707
 10
7.4849489152
 20
12.3845268297
 10
7.4340906305
 20
12.3921446931
 10
7.3840824796
 20
12.4022432235
 10
7.3354544687
 20
12.414715393
 10
7.2887219766
 20
12.4294290168
 10
7.2443802926
 20
12.4462281541
 10
7.2028993673
 20
12.4649347612
 10
7.1647188319
 20
12.4853505779
  0
LINE
  5
230
100
AcDbEntity
  8
RACCORDO
100
AcDbLine
 62
253
  6
CONTINUOUS
 10
6.4436446942
 20
-13.0050698409
 11
-8.3888635541
 21
-4.4409654734
  0
LWPOLYLINE
  5
231
100
AcDbEntity
  8
RACCORDO
100
AcDbPolyline
 62
253
  6
CONTINUOUS
 90
10
 70
0
 10
-7.7043905146
 20
-13.6069053132
 10
-7.8326475274
 20
-12.6265219639
 10
-7.9479015931
 20
-11.6361280609
 10
-8.0501276754
 20
-10.6359337021
 10
-8.1393031352
 20
-9.6261513235
 10
-8.2154090423
 20
-8.6069947372
 10
-8.2784301719
 20
-7.578679081
 10
-8.3283532692
 20
-6.5414219975
 10
-8.36516706
 20
-5.4954435937
 10
-8.3888635541
 20
-4.4409654734
  0
LWPOLYLINE
  5
232
100
AcDbEntity
  8
0
100
AcDbPolyline
 62
7
  6
CONTINUOUS
 90
16
 70
0
 10
-5.36081918
 20
4.3960390683
 10
-5.4455600273
 20
4.1200040264
 10
-5.5183215367
 20
3.8345110177
 10
-5.5790979283
 20
3.5395635547
 10
-5.6279698979
 20
3.2346451811
 10
-5.6648442346
 20
2.9202799596
 10
-5.6894578583
 20
2.5980301528
 10
-5.7017234108
 20
2.2676975301
 10
-5.7017234105
 20
1.9294835679
 10
-5.6894578576
 20
1.5855453336
 10
-5.6648442336
 20
1.2359830418
 10
-5.6279698967
 20
0.8806941349
 10
-5.5790979271
 20
0.5215267335
 10
-5.5183215357
 20
0.1590938147
 10
-5.4455600267
 20
-0.2072244443
 10
-5.36081918
 20
-0.5774312056
  0
LWPOLYLINE
  5
233
100
AcDbEntity
  8
0
100
AcDbPolyline
 62
7
  6
CONTINUOUS
 90
8
 70
0
 10
-5.7361262202
 20
4.2425200666
 10
-5.7195118659
 20
4.284340277
 10
-5.6994273746
 20
4.3219719448
 10
-5.6758734241
 20
4.3554146828
 10
-5.648546783
 20
4.3849350198
 10
-5.6177518685
 20
4.4102657501
 10
-5.5844011434
 20
4.4306057082
 10
-5.565070034
 20
4.439539263
  0
LWPOLYLINE
  5
234
100
AcDbEntity
  8
0
100
AcDbPolyline
 62
7
  6
CONTINUOUS
 90
3
 70
0
 10
-5.3402477833
 20
4.4458190321
 10
-5.3443116019
 20
4.4381236328
 10
-5.36081918
 20
4.3960390683
  0
LWPOLYLINE
  5
235
100
AcDbEntity
  8
RACCORDO
100
AcDbPolyline
 62
253
  6
CONTINUOUS
 90
19
 70
0
 10
7.8542913129
 20
13.5674176854
 10
7.7989030589
 20
13.5321677456
 10
7.7439693579
 20
13.4922900485
 10
7.6898156124
 20
13.4480266771
 10
7.6367581382
 20
13.3996477382
 10
7.5851156375
 20
13.3474443357
 10
7.5352071616
 20
13.2917271683
 10
7.4873296408
 20
13.2328346287
 10
7.4417645682
 20
13.1711214772
 10
7.3987899828
 20
13.1069511199
 10
7.358660938
 20
13.0407100235
 10
7.3216144139
 20
12.9727977848
 10
7.2878769424
 20
12.9036152867
 10
7.2576488351
 20
12.8335765274
 10
7.2311096601
 20
12.7631053926
 10
7.2084238702
 20
12.6926249692
 10
7.1897281232
 20
12.6225588794
 10
7.1751309235
 20
12.5533287136
 10
7.1647188059
 20
12.4853505674
  0
LWPOLYLINE
  5
236
100
AcDbEntity
  8
RACCORDO
100
AcDbPolyline
 62
253
  6
CONTINUOUS
 90
19
 70
0
 10
8.2077235496
 20
12.9552550951
 10
8.1795811971
 20
12.9377604449
 10
8.1519373681
 20
12.9181706212
 10
8.1247920627
 20
12.8964856239
 10
8.0979713464
 20
12.87254136
 10
8.0716491537
 20
12.8465019225
 10
8.0463472882
 20
12.8188595906
 10
8.0221006282
 20
12.7895957741
 10
7.9988742955
 20
12.7587290632
 10
7.9770854581
 20
12.7268075074
 10
7.9567579834
 20
12.693806159
 10
7.937868004
 20
12.6597499658
 10
7.9207610862
 20
12.62526182
 10
7.9054699608
 20
12.5903165149
 10
7.8919618968
 20
12.5549392572
 10
7.8804842679
 20
12.5198285591
 10
7.8711195318
 20
12.4852172582
 10
7.8637852306
 20
12.4508725168
 10
7.8584813645
 20
12.4167943351
  0
LINE
  5
237
100
AcDbEntity
  8
0
100
AcDbLine
 62
253
  6
CONTINUOUS
 10
8.546006276
 20
13.966803266
 11
7.8542913129
 21
13.5674176854
  0
LINE
  5
238
100
AcDbEntity
  8
0
100
AcDbLine
 62
253
  6
CONTINUOUS
 10
8.8994385126
 20
13.3546406757
 11
8.2077235496
 21
12.9552550951
  0
LINE
  5
239
100
AcDbEntity
  8
0
100
AcDbLine
 62
7
  6
CONTINUOUS
 10
-5.0173340403
 20
3.1913584961
 11
-4.9645950647
 21
3.4548210785
  0
LWPOLYLINE
  5
23A
100
AcDbEntity
  8
SUPERFICI
100
AcDbPolyline
 62
7
  6
CONTINUOUS
 90
25
 70
0
 10
-4.9645950637
 20
3.4548210832
 10
-4.9921442265
 20
3.3240021316
 10
-5.0173175245
 20
3.1914033734
 10
-5.0401145294
 20
3.0570250728
 10
-5.0605415518
 20
2.9208183008
 10
-5.0785913876
 20
2.7828325374
 10
-5.0942434843
 20
2.6432155765
 10
-5.1074945444
 20
2.5019689594
 10
-5.1183473006
 20
2.3590915089
 10
-5.1267905367
 20
2.2147267746
 10
-5.1328217246
 20
2.0688731395
 10
-5.1364431069
 20
1.9215324251
 10
-5.1376509083
 20
1.7728531747
 10
-5.1364426935
 20
1.6228342091
 10
-5.1328208986
 20
1.4714767471
 10
-5.1267893411
 20
1.3189327644
 10
-5.1183457952
 20
1.1652010146
 10
-5.1074927724
 20
1.0102826186
 10
-5.09424148
 20
0.8543329381
 10
-5.0785890834
 20
0.6973463728
 10
-5.0605389819
 20
0.5393282349
 10
-5.0401120257
 20
0.3804500856
 10
-5.0173155199
 20
0.2207689185
 10
-4.9921430563
 20
0.0602272571
 10
-4.9645950644
 20
-0.1011751294
  0
LINE
  5
23B
100
AcDbEntity
  8
0
100
AcDbLine
 62
7
  6
CONTINUOUS
 10
-4.9645950647
 20
3.4548210785
 11
-4.953758814
 21
3.4958486684
  0
LINE
  5
23C
100
AcDbEntity
  8
0
100
AcDbLine
 62
7
  6
CONTINUOUS
 10
-4.953758814
 20
3.4958486684
 11
-4.9399781939
 21
3.5338336484
  0
LINE
  5
23D
100
AcDbEntity
  8
0
100
AcDbLine
 62
7
  6
CONTINUOUS
 10
-4.9399781939
 20
3.5338336484
 11
-4.9232535953
 21
3.5687757943
  0
LINE
  5
23E
100
AcDbEntity
  8
0
100
AcDbLine
 62
7
  6
CONTINUOUS
 10
-4.9232535953
 20
3.5687757943
 11
-4.9033998484
 21
3.6009322725
  0
LINE
  5
23F
100
AcDbEntity
  8
0
100
AcDbLine
 62
7
  6
CONTINUOUS
 10
-4.9033998484
 20
3.6009322725
 11
-4.880602806
 21
3.6300455248
  0
LINE
  5
240
100
AcDbEntity
  8
0
100
AcDbLine
 62
7
  6
CONTINUOUS
 10
-4.880602806
 20
3.6300455248
 11
-4.855668245
 21
3.6550933754
  0
LINE
  5
241
100
AcDbEntity
  8
0
100
AcDbLine
 62
7
  6
CONTINUOUS
 10
-4.855668245
 20
3.6550933754
 11
-4.8476384538
 21
3.6619542613
  0
LWPOLYLINE
  5
242
100
AcDbEntity
  8
SUPERFICI
100
AcDbPolyline
 62
7
  6
CONTINUOUS
 90
9
 70
0
 10
-4.8476162558
 20
3.6619200347
 10
-4.8556934285
 20
3.6550720243
 10
-4.8773531134
 20
3.633830851
 10
-4.8970766888
 20
3.609910104
 10
-4.9148873192
 20
3.5833534575
 10
-4.9305665239
 20
3.5545292784
 10
-4.9440413598
 20
3.5235604227
 10
-4.9553842935
 20
3.4903243076
 10
-4.9645950637
 20
3.4548210832
  0
LINE
  5
243
100
AcDbEntity
  8
SUPERFICI
100
AcDbLine
 62
7
  6
CONTINUOUS
 10
-4.8321214715
 20
3.6736769129
 11
-4.8476162558
 21
3.6619200347
  0
LWPOLYLINE
  5
244
100
AcDbEntity
  8
0
100
AcDbPolyline
 62
7
  6
CONTINUOUS
 90
13
 70
0
 10
-4.8476384538
 20
3.6619542613
 10
-4.8278971888
 20
3.6766220517
 10
-4.7979898376
 20
3.6940846263
 10
-4.7661166856
 20
3.7075658013
 10
-4.7322724502
 20
3.7170585419
 10
-4.6964635088
 20
3.722569257
 10
-4.6591265024
 20
3.723953062
 10
-4.6200499782
 20
3.7210866477
 10
-4.5794462615
 20
3.7140928249
 10
-4.5383876664
 20
3.7031958853
 10
-4.4972318153
 20
3.6884704875
 10
-4.4556215931
 20
3.6698416833
 10
-4.4135571236
 20
3.6473094018
  0
LINE
  5
245
100
AcDbEntity
  8
0
100
AcDbLine
 62
253
  6
CONTINUOUS
 10
-5.7361262202
 20
4.2425200666
 11
-5.36081918
 21
4.3960390683
  0
LWPOLYLINE
  5
246
100
AcDbEntity
  8
0
100
AcDbPolyline
 62
7
  6
CONTINUOUS
 90
10
 70
0
 10
-5.565070034
 20
4.439539263
 10
-5.5486477795
 20
4.4457325509
 10
-5.5103403192
 20
4.4558676445
 10
-5.4699346027
 20
4.460875204
 10
-5.4271126797
 20
4.4606437065
 10
-5.3821937914
 20
4.4552839399
 10
-5.3365895802
 20
4.4449935768
 10
-5.290770886
 20
4.4298383416
 10
-5.2442676586
 20
4.4097520607
 10
-5.1970800904
 20
4.3847346243
  0
LINE
  5
247
100
AcDbEntity
  8
0
100
AcDbLine
 62
7
  6
CONTINUOUS
 10
3.4101181299
 20
-5.3004574376
 11
3.3765386076
 21
-5.3097973361
  0
LWPOLYLINE
  5
248
100
AcDbEntity
  8
0
100
AcDbPolyline
 62
7
  6
CONTINUOUS
 90
8
 70
0
 10
3.3765386076
 20
-5.3097973361
 10
3.3409714388
 20
-5.3151684548
 10
3.3038486034
 20
-5.3164286002
 10
3.2649577035
 20
-5.3134550087
 10
3.2245102647
 20
-5.306370953
 10
3.1835741458
 20
-5.2954032971
 10
3.1425051157
 20
-5.28062777
 10
3.1009468984
 20
-5.2619689388
  0
LWPOLYLINE
  5
249
100
AcDbEntity
  8
0
100
AcDbPolyline
 62
7
  6
CONTINUOUS
 90
16
 70
0
 10
-5.36081918
 20
-0.5774312056
 10
-5.3443157652
 20
-0.6379487911
 10
-5.3243032187
 20
-0.6983327976
 10
-5.3007822189
 20
-0.7585836209
 10
-5.2734385765
 20
-0.8193356898
 10
-5.2425876648
 20
-0.8799552669
 10
-5.2091748345
 20
-0.9385406908
 10
-5.1733603496
 20
-0.9946750022
 10
-5.1349856922
 20
-1.0487761816
 10
-5.0945183719
 20
-1.100195172
 10
-5.0516530621
 20
-1.149180936
 10
-5.0066963948
 20
-1.1954852751
 10
-4.9610338266
 20
-1.2377133965
 10
-4.9151274704
 20
-1.2754005414
 10
-4.8685160083
 20
-1.3090119343
 10
-4.8211996346
 20
-1.3385476888
  0
LWPOLYLINE
  5
24A
100
AcDbEntity
  8
0
100
AcDbPolyline
 62
7
  6
CONTINUOUS
 90
16
 70
0
 10
-5.7361262201
 20
-0.8066169147
 10
-5.8231248401
 20
-0.430444638
 10
-5.8978282383
 20
-0.0582279184
 10
-5.9602303263
 20
0.3100365773
 10
-6.010416028
 20
0.6749939728
 10
-6.0482872315
 20
1.0360063633
 10
-6.0735670475
 20
1.3911503442
 10
-6.0861635362
 20
1.7405306219
 10
-6.0861635425
 20
2.0840449601
 10
-6.0735670637
 20
2.4194544924
 10
-6.0482872535
 20
2.7465504166
 10
-6.0104160528
 20
3.0655381215
 10
-5.9602303504
 20
3.3747950165
 10
-5.897828258
 20
3.6737767526
 10
-5.8231248517
 20
3.9630196684
 10
-5.7361262202
 20
4.2425200666
  0
LINE
  5
24B
100
AcDbEntity
  8
0
100
AcDbLine
 62
7
  6
CONTINUOUS
 10
-4.9537709778
 20
-0.154274833
 11
-4.9645950646
 21
-0.1011751279
  0
LWPOLYLINE
  5
24C
100
AcDbEntity
  8
SUPERFICI
100
AcDbPolyline
 62
7
  6
CONTINUOUS
 90
22
 70
0
 10
-4.9645950644
 20
-0.1011751294
 10
-4.9553599999
 20
-0.1470420088
 10
-4.9439972288
 20
-0.1930826932
 10
-4.9305070176
 20
-0.2392973376
 10
-4.9148175616
 20
-0.2858849764
 10
-4.8970011532
 20
-0.3326468587
 10
-4.8772743043
 20
-0.3789865197
 10
-4.8556130444
 20
-0.4248938427
 10
-4.8320420169
 20
-0.4703793362
 10
-4.8068508249
 20
-0.5148775726
 10
-4.7800186089
 20
-0.5583759961
 10
-4.7515669478
 20
-0.600887582
 10
-4.7218492028
 20
-0.6418852571
 10
-4.6908492019
 20
-0.6813493451
 10
-4.6585837758
 20
-0.7192999067
 10
-4.6254558242
 20
-0.7552694949
 10
-4.5914455887
 20
-0.7892370085
 10
-4.5565733274
 20
-0.8212238404
 10
-4.5213019454
 20
-0.8508262745
 10
-4.4857858374
 20
-0.8779097931
 10
-4.4498708766
 20
-0.9026090701
 10
-4.4135571297
 20
-0.9249241447
  0
LINE
  5
24D
100
AcDbEntity
  8
0
100
AcDbLine
 62
7
  6
CONTINUOUS
 10
-4.9645950646
 20
-0.1011751279
 11
-5.0171946549
 21
0.2199980815
  0
LWPOLYLINE
  5
24E
100
AcDbEntity
  8
0
100
AcDbPolyline
 62
7
  6
CONTINUOUS
 90
11
 70
0
 10
-5.0173308933
 20
0.2208299533
 10
-5.0605130495
 20
0.5389619549
 10
-5.0941388409
 20
0.8532222886
 10
-5.1182408898
 20
1.1641071308
 10
-5.1327805475
 20
1.4711234864
 10
-5.1376509079
 20
1.7727874448
 10
-5.1327829095
 20
2.0690680501
 10
-5.1182455596
 20
2.3599959683
 10
-5.0941445329
 20
2.6441765595
 10
-5.0605180968
 20
2.921143089
 10
-5.0173340403
 20
3.1913584961
  0
LWPOLYLINE
  5
24F
100
AcDbEntity
  8
0
100
AcDbPolyline
 62
7
  6
CONTINUOUS
 90
6
 70
0
 10
3.4737900537
 20
-6.1279707741
 10
3.5210819233
 20
-6.1530666216
 10
3.5676235232
 20
-6.1732364759
 10
3.6134150481
 20
-6.188480223
 10
3.6589259886
 20
-6.1988646393
 10
3.6885559486
 20
-6.2024774546
  0
LINE
  5
250
100
AcDbEntity
  8
0
100
AcDbLine
 62
7
  6
CONTINUOUS
 10
3.1009468984
 20
-5.2619689388
 11
3.0588993701
 21
-5.2394268758
  0
LWPOLYLINE
  5
251
100
AcDbEntity
  8
SUPERFICI
100
AcDbPolyline
 62
7
  6
CONTINUOUS
 90
12
 70
0
 10
3.0588993861
 20
-5.2394268851
 10
3.0952142396
 20
-5.2590429275
 10
3.1310977908
 20
-5.2757975976
 10
3.1665501062
 20
-5.2896908563
 10
3.2017187772
 20
-5.3007650809
 10
3.23645648
 20
-5.308977738
 10
3.2703209651
 20
-5.3142013896
 10
3.3033037467
 20
-5.3163932987
 10
3.3354138122
 20
-5.3155959097
 10
3.3662351418
 20
-5.311809544
 10
3.3957455904
 20
-5.3049931547
 10
3.4164105966
 20
-5.2981541529
  0
LINE
  5
252
100
AcDbEntity
  8
0
100
AcDbLine
 62
7
  6
CONTINUOUS
 10
3.1429932445
 20
-6.3806936902
 11
-5.1970800903
 21
-1.5652398723
  0
LINE
  5
253
100
AcDbEntity
  8
0
100
AcDbLine
 62
7
  6
CONTINUOUS
 10
3.4737900537
 20
-6.1279707741
 11
-4.8211996346
 21
-1.3385476888
  0
LWPOLYLINE
  5
254
100
AcDbEntity
  8
0
100
AcDbPolyline
 62
7
  6
CONTINUOUS
 90
18
 70
0
 10
-4.4135571236
 20
-0.9249241482
 10
-4.4556402857
 20
-0.8988805486
 10
-4.4972519232
 20
-0.8695177801
 10
-4.5383919125
 20
-0.8368357707
 10
-4.5794073515
 20
-0.8005067814
 10
-4.6199506373
 20
-0.7608582563
 10
-4.6589795106
 20
-0.7188728485
 10
-4.6962915851
 20
-0.6746674439
 10
-4.7320883764
 20
-0.6281246485
 10
-4.7659334808
 20
-0.5798756977
 10
-4.7978240892
 20
-0.5299150573
 10
-4.8277619115
 20
-0.4782476205
 10
-4.8553173959
 20
-0.4255203065
 10
-4.8805373245
 20
-0.3714671106
 10
-4.9033736818
 20
-0.316353319
 10
-4.9232550503
 20
-0.2616229793
 10
-4.9399908443
 20
-0.2077573754
 10
-4.9537709778
 20
-0.154274833
  0
LWPOLYLINE
  5
255
100
AcDbEntity
  8
0
100
AcDbPolyline
 62
7
  6
CONTINUOUS
 90
16
 70
0
 10
-5.1970800903
 20
-1.5652398723
 10
-5.2442646038
 20
-1.5357943135
 10
-5.2907538117
 20
-1.5022897119
 10
-5.3365475221
 20
-1.4647259548
 10
-5.3821057195
 20
-1.4226398754
 10
-5.4269676329
 20
-1.37649418
 10
-5.469751822
 20
-1.3276774987
 10
-5.5101518841
 20
-1.2764366737
 10
-5.54847293
 20
-1.2225241067
 10
-5.5842507986
 20
-1.1665867728
 10
-5.6176419162
 20
-1.108213926
 10
-5.6484881302
 20
-1.0478153026
 10
-5.6758537363
 20
-0.9872687917
 10
-5.6994265758
 20
-0.9272002065
 10
-5.7195176287
 20
-0.8669830454
 10
-5.7361262201
 20
-0.8066169147
  0
LINE
  5
256
100
AcDbEntity
  8
0
100
AcDbLine
 62
253
  6
CONTINUOUS
 10
-5.7361262201
 20
-0.8066169147
 11
-5.36081918
 21
-0.5774312056
  0
LINE
  5
257
100
AcDbEntity
  8
0
100
AcDbLine
 62
7
  6
CONTINUOUS
 10
-4.4135571236
 20
-0.9249241482
 11
3.0588993701
 21
-5.2394268758
  0
LINE
  5
258
100
AcDbEntity
  8
SUPERFICI
100
AcDbLine
 62
7
  6
CONTINUOUS
 10
3.0588993701
 20
-5.2394268758
 11
-4.4135571236
 21
-0.9249241482
  0
LINE
  5
259
100
AcDbEntity
  8
0
100
AcDbLine
 62
253
  6
CONTINUOUS
 10
-5.1970800903
 20
-1.5652398723
 11
-4.8211996346
 21
-1.3385476888
  0
LWPOLYLINE
  5
25A
100
AcDbEntity
  8
RACCORDO
100
AcDbPolyline
 62
253
  6
CONTINUOUS
 90
16
 70
0
 10
7.1413115505
 20
2.4947983617
 10
7.1022134543
 20
2.476281559
 10
7.0598832178
 20
2.4601795221
 10
7.0147693058
 20
2.4466628426
 10
6.9673496744
 20
2.4358747223
 10
6.9181267077
 20
2.427929455
 10
6.8676218949
 20
2.4229112164
 10
6.8163703059
 20
2.4208731718
 10
6.7649149219
 20
2.4218369132
 10
6.7138008834
 20
2.4257922303
 10
6.6635697147
 20
2.4326972187
 10
6.6147535863
 20
2.442478724
 10
6.5678696773
 20
2.4550331167
 10
6.523414696
 20
2.4702273903
 10
6.4818596177
 20
2.4879005699
 10
6.4436446947
 20
2.5078654184
  0
LWPOLYLINE
  5
25B
100
AcDbEntity
  8
SUPERFICI
100
AcDbPolyline
 62
7
  6
CONTINUOUS
 90
13
 70
0
 10
-4.4498851878
 20
3.6669178352
 10
-4.4858073883
 20
3.6836501896
 10
-4.5213236746
 20
3.6975065123
 10
-4.5565818295
 20
3.70852907
 10
-4.5914338027
 20
3.7166757488
 10
-4.625435721
 20
3.7218200482
 10
-4.6585789961
 20
3.7239192904
 10
-4.6908717148
 20
3.7230164397
 10
-4.7218949958
 20
3.7191134698
 10
-4.7516263268
 20
3.7121695458
 10
-4.7800875608
 20
3.7022258794
 10
-4.8069264
 20
3.6894074949
 10
-4.8321214715
 20
3.6736769129
  0
LINE
  5
25C
100
AcDbEntity
  8
SUPERFICI
100
AcDbLine
 62
7
  6
CONTINUOUS
 10
-4.4135571397
 20
3.6473094111
 11
-4.4498851878
 21
3.6669178352
  0
LINE
  5
25D
100
AcDbEntity
  8
SUPERFICI
100
AcDbLine
 62
7
  6
CONTINUOUS
 10
3.0588993701
 20
-0.6671933257
 11
-4.4135571236
 21
3.6473094018
  0
LINE
  5
25E
100
AcDbEntity
  8
0
100
AcDbLine
 62
7
  6
CONTINUOUS
 10
3.0588993701
 20
-0.6671933257
 11
-4.4135571236
 21
3.6473094018
  0
LINE
  5
25F
100
AcDbEntity
  8
0
100
AcDbLine
 62
7
  6
CONTINUOUS
 10
3.1429932445
 20
-0.4307191936
 11
-5.1970800904
 21
4.3847346243
  0
LWPOLYLINE
  5
260
100
AcDbEntity
  8
0
100
AcDbPolyline
 62
7
  6
CONTINUOUS
 90
19
 70
0
 10
3.0588993701
 20
-0.6671933257
 10
3.1009654968
 20
-0.6932467613
 10
3.1425251261
 20
-0.7226395587
 10
3.1835783812
 20
-0.7553716473
 10
3.224471548
 20
-0.7917712351
 10
3.2648588458
 20
-0.8315098257
 10
3.3037023838
 20
-0.8736022437
 10
3.3408005848
 20
-0.9179311363
 10
3.3763558966
 20
-0.9646133589
 10
3.4099364626
 20
-1.0130150509
 10
3.4415404614
 20
-1.0631411761
 10
3.4711708135
 20
-1.1149861423
 10
3.498402701
 20
-1.1679002971
 10
3.5232820233
 20
-1.2221501548
 10
3.5457641145
 20
-1.2774684952
 10
3.5652879783
 20
-1.3324052536
 10
3.5816667291
 20
-1.3864770098
 10
3.5950879244
 20
-1.4401667986
 10
3.60555195
 20
-1.4934743985
  0
LWPOLYLINE
  5
261
100
AcDbEntity
  8
0
100
AcDbPolyline
 62
7
  6
CONTINUOUS
 90
16
 70
0
 10
3.1429932445
 20
-0.4307191936
 10
3.1901497711
 20
-0.4601809117
 10
3.2365544234
 20
-0.4937343347
 10
3.2822073933
 20
-0.5313793535
 10
3.3275668289
 20
-0.5735801955
 10
3.3721753686
 20
-0.6198721857
 10
3.4146600552
 20
-0.6688617959
 10
3.4547165562
 20
-0.7203009888
 10
3.4926504958
 20
-0.7744370662
 10
3.5280038431
 20
-0.8306195134
 10
3.5609308474
 20
-0.8892603334
 10
3.5912789855
 20
-0.9499465396
 10
3.6181297417
 20
-1.0107903183
 10
3.6411772015
 20
-1.0711622512
 10
3.6607284581
 20
-1.1316910839
 10
3.6767841865
 20
-1.1923764307
  0
LWPOLYLINE
  5
262
100
AcDbEntity
  8
SUPERFICI
100
AcDbPolyline
 62
7
  6
CONTINUOUS
 90
3
 70
0
 10
3.1310762919
 20
-0.7142375849
 10
3.0951999649
 20
-0.6895160012
 10
3.0588993762
 20
-0.6671933293
  0
LWPOLYLINE
  5
263
100
AcDbEntity
  8
SUPERFICI
100
AcDbPolyline
 62
7
  6
CONTINUOUS
 90
19
 70
0
 10
3.5966278597
 20
-1.447427965
 10
3.5855747704
 20
-1.4012084741
 10
3.5723924155
 20
-1.3548160774
 10
3.5570097693
 20
-1.3080512904
 10
3.5394973698
 20
-1.2611138772
 10
3.5200671958
 20
-1.2146029198
 10
3.4986943803
 20
-1.1685290527
 10
3.4754031173
 20
-1.1228820266
 10
3.4504788083
 20
-1.0782296954
 10
3.4238996255
 20
-1.0345851736
 10
3.3956866771
 20
-0.991935758
 10
3.3661896677
 20
-0.9508106329
 10
3.3353914601
 20
-0.911230032
 10
3.3033085328
 20
-0.8731740979
 10
3.2703409791
 20
-0.8371118979
 10
3.2364681872
 20
-0.8030650262
 10
3.2017102691
 20
-0.7710121739
 10
3.166528424
 20
-0.7413580423
 10
3.1310762919
 20
-0.7142375849
  0
LWPOLYLINE
  5
264
100
AcDbEntity
  8
0
100
AcDbPolyline
 62
7
  6
CONTINUOUS
 90
16
 70
0
 10
3.6767841865
 20
-1.1923764307
 10
3.7604991309
 20
-1.5704446607
 10
3.832351961
 20
-1.9443072626
 10
3.8923487653
 20
-2.3139605389
 10
3.9405837535
 20
-2.6800442519
 10
3.976975904
 20
-3.0419106291
 10
4.0012647054
 20
-3.3976268093
 10
4.0133629656
 20
-3.747294758
 10
4.0133629717
 20
-4.0908090963
 10
4.001264721
 20
-4.4259309579
 10
3.976975925
 20
-4.7524546829
 10
3.9405837773
 20
-5.0705884012
 10
3.8923487885
 20
-5.3787189786
 10
3.8323519799
 20
-5.6763119339
 10
3.760499142
 20
-5.9639089673
 10
3.6767841866
 20
-6.2415134121
  0
LINE
  5
265
100
AcDbEntity
  8
SUPERFICI
100
AcDbLine
 62
7
  6
CONTINUOUS
 10
3.6055519498
 20
-1.493474397
 11
3.5966278597
 21
-1.447427965
  0
LWPOLYLINE
  5
266
100
AcDbEntity
  8
RACCORDO
100
AcDbPolyline
 62
253
  6
CONTINUOUS
 90
10
 70
0
 10
7.1647188059
 20
-22.1921426812
 10
7.1751309945
 20
-22.2484136772
 10
7.1897282048
 20
-22.3012220537
 10
7.208423828
 20
-22.3502517102
 10
7.2311092297
 20
-22.3952109691
 10
7.2576477227
 20
-22.4358295968
 10
7.2878750481
 20
-22.4718608079
 10
7.3216117169
 20
-22.5030900765
 10
7.3586574567
 20
-22.529332597
 10
7.3655883535
 20
-22.533472293
  0
LWPOLYLINE
  5
267
100
AcDbEntity
  8
0
100
AcDbPolyline
 62
7
  6
CONTINUOUS
 90
13
 70
0
 10
3.60555195
 20
-1.4934743985
 10
3.6562592161
 20
-1.8166507463
 10
3.6977694786
 20
-2.1357480784
 10
3.7300854297
 20
-2.4507646975
 10
3.7532438955
 20
-2.7621943528
 10
3.7672140764
 20
-3.0695395171
 10
3.7718945343
 20
-3.3713131228
 10
3.7672162618
 20
-3.6674841828
 10
3.7532483206
 20
-3.9580833316
 10
3.7300908996
 20
-4.2417190967
 10
3.6977743529
 20
-4.5179293124
 10
3.6562622701
 20
-4.7871793429
 10
3.60555195
 20
-5.0494706049
  0
LWPOLYLINE
  5
268
100
AcDbEntity
  8
SUPERFICI
100
AcDbPolyline
 62
7
  6
CONTINUOUS
 90
3
 70
0
 10
3.656244173
 20
-1.8165895208
 10
3.6320419433
 20
-1.6554876585
 10
3.6055519498
 20
-1.493474397
  0
LWPOLYLINE
  5
269
100
AcDbEntity
  8
SUPERFICI
100
AcDbPolyline
 62
7
  6
CONTINUOUS
 90
21
 70
0
 10
3.6562460963
 20
-4.7872240227
 10
3.678161475
 20
-4.6533547621
 10
3.6977961016
 20
-4.5176055094
 10
3.715143968
 20
-4.3800250543
 10
3.7301859897
 20
-4.2407603431
 10
3.7429194453
 20
-4.0998125844
 10
3.7533476212
 20
-3.9571802812
 10
3.7614601543
 20
-3.8130064907
 10
3.7672548014
 20
-3.6672894313
 10
3.7707340914
 20
-3.5200307591
 10
3.7718945347
 20
-3.3713788527
 10
3.7707336953
 20
-3.2213325332
 10
3.7672540084
 20
-3.0698930198
 10
3.7614590056
 20
-2.9172124534
 10
3.753346175
 20
-2.7632897527
 10
3.7429177427
 20
-2.6081262035
 10
3.7301840636
 20
-2.4518776596
 10
3.7151417519
 20
-2.2945388389
 10
3.6977936288
 20
-2.1361153874
 10
3.6781590682
 20
-1.9767797188
 10
3.656244173
 20
-1.8165895208
  0
LWPOLYLINE
  5
26A
100
AcDbEntity
  8
SUPERFICI
100
AcDbPolyline
 62
7
  6
CONTINUOUS
 90
3
 70
0
 10
3.6055519492
 20
-5.0494706096
 10
3.6320430638
 20
-4.9192625618
 10
3.6561084222
 20
-4.7879750974
  0
LWPOLYLINE
  5
26B
100
AcDbEntity
  8
0
100
AcDbPolyline
 62
7
  6
CONTINUOUS
 90
6
 70
0
 10
3.60555195
 20
-5.0494706049
 10
3.5950759034
 20
-5.0902902176
 10
3.5816542344
 20
-5.1280679437
 10
3.5652865519
 20
-5.1628040107
 10
3.5457899449
 20
-5.1947542808
 10
3.5233466414
 20
-5.2236632887
  0
LWPOLYLINE
  5
26C
100
AcDbEntity
  8
SUPERFICI
100
AcDbPolyline
 62
7
  6
CONTINUOUS
 90
3
 70
0
 10
3.5856179229
 20
-5.117852155
 10
3.5966515967
 20
-5.0847946027
 10
3.6055519492
 20
-5.0494706096
  0
LWPOLYLINE
  5
26D
100
AcDbEntity
  8
RACCORDO
100
AcDbPolyline
 62
253
  6
CONTINUOUS
 90
19
 70
0
 10
7.8584813645
 20
-22.1387162116
 10
7.8637852258
 20
-22.1669743897
 10
7.8711160581
 20
-22.1932733423
 10
7.8804738614
 20
-22.2176130693
 10
7.8919406829
 20
-22.2401343177
 10
7.9054344754
 20
-22.2606963404
 10
7.9207090975
 20
-22.2788768968
 10
7.937793527
 20
-22.2946165937
 10
7.956658786
 20
-22.3079748242
 10
7.9769718001
 20
-22.3187075264
 10
7.9987631611
 20
-22.3267666019
 10
8.0220022771
 20
-22.3322001491
 10
8.0462642979
 20
-22.334908401
 10
8.0715833168
 20
-22.3348308402
 10
8.0979252405
 20
-22.3320279841
 10
8.1247629386
 20
-22.3265816178
 10
8.1519207012
 20
-22.318519003
 10
8.1795742381
 20
-22.3078128779
 10
8.2077235496
 20
-22.2944632425
  0
LWPOLYLINE
  5
26E
100
AcDbEntity
  8
RACCORDO
100
AcDbPolyline
 62
253
  6
CONTINUOUS
 90
10
 70
0
 10
6.4436446942
 20
-13.0050698409
 10
6.4686092844
 20
-14.0602801441
 10
6.5073914891
 20
-15.1073950854
 10
6.5599833182
 20
-16.1461930612
 10
6.6263743581
 20
-17.1764544614
 10
6.7065504933
 20
-18.1979611464
 10
6.8004939173
 20
-19.2104964878
 10
6.9081848394
 20
-20.2138461765
 10
7.029601481
 20
-21.2077982737
 10
7.1647188059
 20
-22.1921426812
  0
LWPOLYLINE
  5
26F
100
AcDbEntity
  8
RACCORDO
100
AcDbPolyline
 62
253
  6
CONTINUOUS
 90
10
 70
0
 10
6.4436446942
 20
2.5078654181
 10
6.4177709843
 20
0.770102108
 10
6.3983659153
 20
-0.9641892993
 10
6.3854294407
 20
-2.6949780924
 10
6.3789614443
 20
-4.4222102207
 10
6.3789614409
 20
-6.1458786127
 10
6.3854294316
 20
-7.8660226828
 10
6.3983659035
 20
-9.5826347983
 10
6.4177709749
 20
-11.2956607732
 10
6.4436446942
 20
-13.0050698409
  0
LWPOLYLINE
  5
270
100
AcDbEntity
  8
RACCORDO
100
AcDbPolyline
 62
253
  6
CONTINUOUS
 90
10
 70
0
 10
7.1647188059
 20
12.4853505674
 10
7.0296014801
 20
11.3528981721
 10
6.9081848379
 20
10.2258535655
 10
6.8004939157
 20
9.1044557571
 10
6.7065504921
 20
7.9889428286
 10
6.6263743576
 20
6.8795509494
 10
6.5599833183
 20
5.7765143294
 10
6.5073914894
 20
4.6800664145
 10
6.4686092847
 20
3.5904398339
 10
6.4436446942
 20
2.5078654181
  0
LWPOLYLINE
  5
271
100
AcDbEntity
  8
RACCORDO
100
AcDbPolyline
 62
253
  6
CONTINUOUS
 90
10
 70
0
 10
7.8584813645
 20
12.4167943351
 10
7.7240607759
 20
11.2902725565
 10
7.6033109707
 20
10.1695909667
 10
7.4962319489
 20
9.0547495658
 10
7.4028064036
 20
7.945509345
 10
7.3230516418
 20
6.8421093131
 10
7.2570195835
 20
5.7452664961
 10
7.2047275356
 20
4.655219903
 10
7.1661581913
 20
3.5717305248
 10
7.1413115505
 20
2.4947983617
  0
LWPOLYLINE
  5
272
100
AcDbEntity
  8
0
100
AcDbPolyline
 62
7
  6
CONTINUOUS
 90
6
 70
0
 10
3.6767841866
 20
-6.2415134121
 10
3.6607226754
 20
-6.2830144178
 10
3.6411778473
 20
-6.3203344908
 10
3.6181490247
 20
-6.3534740266
 10
3.5913367448
 20
-6.3826973778
 10
3.5685730386
 20
-6.4021597939
  0
LWPOLYLINE
  5
273
100
AcDbEntity
  8
SUPERFICI
100
AcDbPolyline
 62
7
  6
CONTINUOUS
 90
5
 70
0
 10
3.52014489
 20
-5.2274209342
 10
3.539571671
 20
-5.2036715526
 10
3.5570781983
 20
-5.1772904914
 10
3.5724506662
 20
-5.1486434183
 10
3.5856179229
 20
-5.117852155
  0
LWPOLYLINE
  5
274
100
AcDbEntity
  8
0
100
AcDbPolyline
 62
7
  6
CONTINUOUS
 90
5
 70
0
 10
3.5233466414
 20
-5.2236632887
 10
3.4985036865
 20
-5.2487644292
 10
3.4713046015
 20
-5.2698566745
 10
3.4417046416
 20
-5.2871417651
 10
3.416422229
 20
-5.2981769441
  0
LWPOLYLINE
  5
275
100
AcDbEntity
  8
SUPERFICI
100
AcDbPolyline
 62
7
  6
CONTINUOUS
 90
6
 70
0
 10
3.4164105966
 20
-5.2981541529
 10
3.4239679624
 20
-5.2951874042
 10
3.4505536276
 20
-5.2825151992
 10
3.475481682
 20
-5.2669387895
 10
3.4987737493
 20
-5.2484955057
 10
3.52014489
 20
-5.2274209342
  0
LINE
  5
276
100
AcDbEntity
  8
0
100
AcDbLine
 62
7
  6
CONTINUOUS
 10
3.416422229
 20
-5.2981769441
 11
3.4101181299
 21
-5.3004574376
  0
LINE
  5
277
100
AcDbEntity
  8
RACCORDO
100
AcDbLine
 62
253
  6
CONTINUOUS
 10
6.4436446942
 20
2.5078654181
 11
-8.3888635541
 21
11.0719697857
  0
LWPOLYLINE
  5
278
100
AcDbEntity
  8
RACCORDO
100
AcDbPolyline
 62
253
  6
CONTINUOUS
 90
10
 70
0
 10
7.1413115505
 20
-13.0026239621
 10
7.1661576796
 20
-14.0523177122
 10
7.2047265666
 20
-15.0935334448
 10
7.2570182115
 20
-16.1262711599
 10
7.3230498229
 20
-17.1507509641
 10
7.4028041922
 20
-18.1667527508
 10
7.4962296936
 20
-19.1736162008
 10
7.6033091185
 20
-20.1711212077
 10
7.7240596755
 20
-21.159487878
 10
7.8584813645
 20
-22.1387162116
  0
LWPOLYLINE
  5
279
100
AcDbEntity
  8
RACCORDO
100
AcDbPolyline
 62
253
  6
CONTINUOUS
 90
10
 70
0
 10
7.1413115505
 20
2.4947983617
 10
7.1154633279
 20
0.7587239893
 10
7.0960771592
 20
-0.9738215903
 10
7.0831530445
 20
-2.702838377
 10
7.0766909816
 20
-4.4283341666
 10
7.0766909726
 20
-6.1503011634
 10
7.0831530243
 20
-7.86871598
 10
7.096077139
 20
-9.5835708208
 10
7.1154633144
 20
-11.2948734815
 10
7.1413115505
 20
-13.0026239621
  0
LINE
  5
27A
100
AcDbEntity
  8
0
100
AcDbLine
 62
253
  6
CONTINUOUS
 10
3.1429932445
 20
-6.3806936902
 11
3.4737900537
 21
-6.1279707741
  0
LWPOLYLINE
  5
27B
100
AcDbEntity
  8
0
100
AcDbPolyline
 62
7
  6
CONTINUOUS
 90
12
 70
0
 10
3.5685730386
 20
-6.4021597939
 10
3.5610392846
 20
-6.4077408843
 10
3.528152263
 20
-6.4278131057
 10
3.4928234024
 20
-6.4426948456
 10
3.4549032662
 20
-6.4526063031
 10
3.4148414141
 20
-6.4574153196
 10
3.372319398
 20
-6.4570106596
 10
3.3276543748
 20
-6.4515043145
 10
3.2822492967
 20
-6.4410989744
 10
3.2365715216
 20
-6.4258623744
 10
3.1901529017
 20
-6.4057272421
 10
3.1429932445
 20
-6.3806936902
  0
LWPOLYLINE
  5
27C
100
AcDbEntity
  8
RACCORDO
100
AcDbPolyline
 62
253
  6
CONTINUOUS
 90
16
 70
0
 10
8.2077235496
 20
12.9552550951
 10
8.2048482533
 20
12.9984958427
 10
8.1982369968
 20
13.0435556918
 10
8.1879621035
 20
13.089941428
 10
8.1741360001
 20
13.1371453174
 10
8.1569099908
 20
13.1846506516
 10
8.1364726049
 20
13.231937404
 10
8.1130475229
 20
13.2784879485
 10
8.0868911402
 20
13.3237926968
 10
8.0582897724
 20
13.3673556673
 10
8.0275564875
 20
13.4086999715
 10
7.9950277021
 20
13.4473729918
 10
7.9610595232
 20
13.4829513187
 10
7.926023802
 20
13.5150454463
 10
7.8903040585
 20
13.5433040272
 10
7.8542913154
 20
13.5674176868
  0
LINE
  5
27D
100
AcDbEntity
  8
0
100
AcDbLine
 62
7
  6
CONTINUOUS
 10
8.8994385126
 20
13.3546406757
 11
8.8994385126
 21
-21.9358395557
  0
LWPOLYLINE
  5
27E
100
AcDbEntity
  8
RACCORDO
100
AcDbPolyline
 62
253
  6
CONTINUOUS
 90
9
 70
0
 10
8.2077235496
 20
-22.2944632425
 10
8.2048481268
 20
-22.3364994375
 10
8.1982365881
 20
-22.3757831248
 10
8.1879613079
 20
-22.4118842792
 10
8.1741347661
 20
-22.4444077137
 10
8.1569083172
 20
-22.4729974052
 10
8.1364705333
 20
-22.497340392
 10
8.1130451399
 20
-22.5171701998
 10
8.09368293
 20
-22.528940835
  0
LINE
  5
27F
100
AcDbEntity
  8
RACCORDO
100
AcDbLine
 62
253
  6
CONTINUOUS
 10
7.1647188059
 20
12.4853505674
 11
-7.7043905146
 21
21.0705879353
  0
LWPOLYLINE
  5
280
100
AcDbEntity
  8
RACCORDO
100
AcDbPolyline
 62
253
  6
CONTINUOUS
 90
16
 70
0
 10
7.1413115505
 20
-13.0026239621
 10
7.1022134538
 20
-13.0227359275
 10
7.0598832173
 20
-13.0404162274
 10
7.0147693058
 20
-13.0554775493
 10
6.9673496755
 20
-13.0677603268
 10
6.9181267102
 20
-13.0771344312
 10
6.8676218993
 20
-13.083500549
 10
6.8163703124
 20
-13.0867912348
 10
6.7649149308
 20
-13.0869716258
 10
6.7138008949
 20
-13.0840398108
 10
6.6635697288
 20
-13.0780268507
 10
6.614753603
 20
-13.0689964494
 10
6.5678696966
 20
-13.0570442788
 10
6.5234147177
 20
-13.0422969654
 10
6.4818596416
 20
-13.0249107485
 10
6.4436447205
 20
-13.0050698252
  0
LINE
  5
281
100
AcDbEntity
  8
RACCORDO
100
AcDbLine
 62
253
  6
CONTINUOUS
 10
7.8542913129
 20
13.5674176854
 11
-7.0326417338
 21
22.1629462495
  0
LINE
  5
282
100
AcDbEntity
  8
0
100
AcDbLine
 62
7
  6
CONTINUOUS
 10
8.546006276
 20
13.966803266
 11
-6.3762287436
 21
22.5827147468
  0
LWPOLYLINE
  5
283
100
AcDbEntity
  8
RACCORDO
100
AcDbPolyline
 62
253
  6
CONTINUOUS
 90
16
 70
0
 10
7.8584813644
 20
-22.1387162115
 10
7.8197882116
 20
-22.1640793716
 10
7.7778576326
 20
-22.1869543121
 10
7.7331340089
 20
-22.2070986038
 10
7.6860913232
 20
-22.2242987568
 10
7.6372281353
 20
-22.2383724832
 10
7.587062299
 20
-22.2491706292
 10
7.5361254734
 20
-22.2565787558
 10
7.4849574887
 20
-22.2605183514
 10
7.434100625
 20
-22.260947664
 10
7.3840938649
 20
-22.2578621436
 10
7.3354671819
 20
-22.2512944907
 10
7.288735923
 20
-22.2413143097
 10
7.2443953478
 20
-22.228027371
 10
7.2029153792
 20
-22.2115744897
 10
7.1647356232
 20
-22.1921300342
  0
LINE
  5
284
100
AcDbEntity
  8
0
100
AcDbLine
 62
253
  6
CONTINUOUS
 10
8.2077235496
 20
-22.2944632425
 11
8.8994385126
 21
-21.9358395557
  0
LINE
  5
285
100
AcDbEntity
  8
RACCORDO
100
AcDbLine
 62
7
  6
CONTINUOUS
 10
8.09368293
 20
-22.528940835
 11
8.7891620881
 21
-22.1683655791
  0
ELLIPSE
  5
286
100
AcDbEntity
  8
0
100
AcDbEllipse
 62
7
  6
CONTINUOUS
 10
-6.3759863943
 20
22.174199739
 30
0.0
 11
-0.2501834304
 21
0.4333025529
 31
0.0
 40
0.5769361983
 41
-0.7851038024
 42
0.0263715828
  0
ELLIPSE
  5
287
100
AcDbEntity
  8
0
100
AcDbEllipse
 62
7
  6
CONTINUOUS
 10
8.5457639266
 20
-21.7313524504
 30
0.0
 11
-0.2501834304
 21
0.4333025529
 31
0.0
 40
0.5769361983
 41
-3.1679635486
 42
-2.3565853618
  0
ELLIPSE
  5
288
100
AcDbEntity
  8
0
100
AcDbEllipse
 62
7
  6
CONTINUOUS
 10
8.5457639266
 20
13.5585681172
 30
0.0
 11
-0.2500121049
 21
0.4330057129
 31
0.0
 40
0.5777274115
 41
-2.3559002616
 42
-0.7857891675
  0
ENDSEC
  0
SECTION
  2
OBJECTS
  0
DICTIONARY
  5
C
100
AcDbDictionary
280
0
281
1
  3
ACAD_GROUP
350
D
  3
ACAD_MLINESTYLE
350
17
  3
ACAD_LAYOUT
350
1A
  3
ACAD_PLOTSETTINGS
350
19
  3
ACAD_PLOTSTYLENAME
350
E
  0
DICTIONARY
  5
D
102
{ACAD_REACTORS
330
C
102
}
100
AcDbDictionary
280
0
281
1
  0
ACDBDICTIONARYWDFLT
  5
E
102
{ACAD_REACTORS
330
C
102
}
100
AcDbDictionary
281
1
  3
Normal
350
F
100
AcDbDictionaryWithDefault
340
F
  0
DICTIONARY
  5
17
102
{ACAD_REACTORS
330
C
102
}
100
AcDbDictionary
280
0
281
1
  3
Standard
350
18
  0
DICTIONARY
  5
19
102
{ACAD_REACTORS
330
C
102
}
100
AcDbDictionary
281
1
  0
DICTIONARY
  5
1A
102
{ACAD_REACTORS
330
C
102
}
100
AcDbDictionary
281
1
  3
Model
350
289
  3
Layout1
350
28A
  0
ACDBPLACEHOLDER
  5
F
102
{ACAD_REACTORS
330
E
102
}
  0
MLINESTYLE
  5
18
102
{ACAD_REACTORS
330
17
102
}
100
AcDbMlineStyle
  2
STANDARD
 70
0
  3

 62
256
 51
90.0
 52
90.0
 71
2
 49
0.5
 62
256
  6
BYLAYER
 49
-0.5
 62
256
  6
BYLAYER
  0
LAYOUT
  5
289
102
{ACAD_REACTORS
330
1A
102
}
100
AcDbPlotSettings
  1

  2
none_device
  4
ISO_A4_(297.00_x_210.00_MM)
  6

 40
0.0
 41
0.0
 42
0.0
 43
0.0
 44
297.0
 45
210.0
 46
0.0
 47
0.0
 48
0.0
 49
0.0
140
0.0
141
0.0
142
1.0
143
1.0
 70
1024
 72
1
 73
0
 74
0
  7

 75
0
147
1.0
148
0.0
149
0.0
100
AcDbLayout
  1
Model
 70
0
 71
0
 10
0.0
 20
0.0
 11
297.0
 21
210.0
 12
0.0
 22
0.0
 32
0.0
 14
0.0
 24
0.0
 34
0.0
 15
0.0
 25
0.0
 35
0.0
146
0.0
 13
0.0
 23
0.0
 33
0.0
 16
1.0
 26
0.0
 36
0.0
 17
0.0
 27
1.0
 37
0.0
 76
0
330
215
345
0
346
0
  0
LAYOUT
  5
28A
102
{ACAD_REACTORS
330
1A
102
}
100
AcDbPlotSettings
  1

  2
none_device
  4
ISO_A4_(297.00_x_210.00_MM)
  6

 40
0.0
 41
0.0
 42
0.0
 43
0.0
 44
297.0
 45
210.0
 46
0.0
 47
0.0
 48
0.0
 49
0.0
140
0.0
141
0.0
142
1.0
143
1.0
 70
0
 72
1
 73
0
 74
0
  7

 75
0
147
1.0
148
0.0
149
0.0
100
AcDbLayout
  1
Layout1
 70
0
 71
1
 10
0.0
 20
0.0
 11
297.0
 21
210.0
 12
0.0
 22
0.0
 32
0.0
 14
0.0
 24
0.0
 34
0.0
 15
0.0
 25
0.0
 35
0.0
146
0.0
 13
0.0
 23
0.0
 33
0.0
 16
1.0
 26
0.0
 36
0.0
 17
0.0
 27
1.0
 37
0.0
 76
0
330
216
345
0
346
0
  0
ENDSEC
  0
EOF
