  0
SECTION
  2
HEADER
  9
$ACADVER
  1
AC1015
  9
$DWGCODEPAGE
  3
ANSI_1252
  9
$EXTMAX
 10
297.0
 20
210.0
 30
0.0
  9
$EXTMIN
 10
0.0
 20
0.0
 30
0.0
  9
$LIMMIN
 10
0.0
 20
0.0
  9
$LIMMAX
 10
297.0
 20
210.0
  9
$VIEWCTR
 10
148.5
 20
105.0
  9
$VIEWSIZE
 40
210.0
  9
$CLAYER
  8
0
  9
$LTSCALE
 40
16.335
  9
$CELTYPE
  6
BYLAYER
  9
$DIMSCALE
 40
1.0
  9
$DIMASZ
 40
3.0
  9
$DIMEXO
 40
1.85625
  9
$DIMDLI
 40
11.286
  9
$DIMEXE
 40
5.346
  9
$DIMCEN
 40
2.673
  9
$DIMLFAC
 40
1.0
  9
$DIMBLK
  1
_FILLED
  9
$DIMTXT
 40
3.0
  9
$DIMTOL
 70
1
  9
$DIMLIM
 70
0
  9
$DIMTFAC
 40
1.0
  9
$DIMTP
 40
0.01
  9
$DIMTM
 40
0.01
  9
$PDMODE
 70
3
  9
$PDSIZE
 40
3.0
  9
$HANDSEED
  5
2AF
  9
$TILEMODE
 70
1
  9
$MEASUREMENT
 70
1
  9
$INSUNITS
 70
4
  0
ENDSEC
  0
SECTION
  2
CLASSES
  0
CLASS
  1
ACDBDICTIONARYWDFLT
  2
AcDbDictionaryWithDefault
  3
AutoCAD 2000
 90
0
280
0
281
0
  0
CLASS
  1
ACDBPLACEHOLDER
  2
AcDbPlaceHolder
  3
AutoCAD 2000
 90
0
280
0
281
0
  0
CLASS
  1
LAYOUT
  2
AcDbLayout
  3
AutoCAD 2000
 90
0
280
0
281
0
  0
ENDSEC
  0
SECTION
  2
TABLES
  0
TABLE
  2
VPORT
  5
8
100
AcDbSymbolTable
 70
2
  0
VPORT
  5
1F4
100
AcDbSymbolTableRecord
100
AcDbViewportTableRecord
  2
*ACTIVE
 70
0
 10
0.0
 20
0.0
 11
1.0
 21
1.0
 12
148.5
 22
105.0
 13
0.0
 23
0.0
 14
1.0
 24
1.0
 15
0.0
 25
0.0
 16
0.0
 26
0.0
 36
1.0
 17
0.0
 27
0.0
 37
0.0
 40
210.0
 41
1.4142857143
 42
50.0
 43
0.0
 44
0.0
 50
0.0
 51
0.0
 71
0
 72
100
 73
1
 74
1
 75
0
 76
0
 77
0
 78
0
  0
ENDTAB
  0
TABLE
  2
LTYPE
  5
5
100
AcDbSymbolTable
 70
6
  0
LTYPE
  5
14
100
AcDbSymbolTableRecord
100
AcDbLinetypeTableRecord
  2
BYBLOCK
 70
0
  3

 72
65
 73
0
 40
0.0
  0
LTYPE
  5
15
100
AcDbSymbolTableRecord
100
AcDbLinetypeTableRecord
  2
BYLAYER
 70
0
  3

 72
65
 73
0
 40
0.0
  0
LTYPE
  5
16
100
AcDbSymbolTableRecord
100
AcDbLinetypeTableRecord
  2
CONTINUOUS
 70
64
  3
Solid line
 72
65
 73
0
 40
0.0
  0
LTYPE
  5
1F5
100
AcDbSymbolTableRecord
100
AcDbLinetypeTableRecord
  2
CENTER
 70
64
  3
____ _ ____ _ ____ _ ____ _ ____ _ ____ _ ____
 72
65
 73
4
 40
0.6
 49
0.375
 74
0
 49
-0.075
 74
0
 49
0.075
 74
0
 49
-0.075
 74
0
  0
LTYPE
  5
1F6
100
AcDbSymbolTableRecord
100
AcDbLinetypeTableRecord
  2
HIDDEN
 70
64
  3
- - - - - - - - - - - - - - - - - - - -
 72
65
 73
2
 40
0.2
 49
0.1
 74
0
 49
-0.1
 74
0
  0
LTYPE
  5
1F7
100
AcDbSymbolTableRecord
100
AcDbLinetypeTableRecord
  2
PHANTOM
 70
64
  3
_____ _ _ _____ _ _ _____ _ _ _____
 72
65
 73
6
 40
0.8
 49
0.45
 74
0
 49
-0.05
 74
0
 49
0.1
 74
0
 49
-0.05
 74
0
 49
0.1
 74
0
 49
-0.05
 74
0
  0
LTYPE
  5
1F8
100
AcDbSymbolTableRecord
100
AcDbLinetypeTableRecord
  2
DOT
 70
64
  3
. . . . . . . . . . . . . . . . . . . .
 72
65
 73
2
 40
0.2
 49
0.1
 74
0
 49
-0.1
 74
0
  0
LTYPE
  5
1F9
100
AcDbSymbolTableRecord
100
AcDbLinetypeTableRecord
  2
DASHED
 70
64
  3
- - - - - - - - - - - - - - - - - - - -
 72
65
 73
2
 40
0.2
 49
0.1
 74
0
 49
-0.1
 74
0
  0
ENDTAB
  0
TABLE
  2
LAYER
  5
2
100
AcDbSymbolTable
 70
36
  0
LAYER
  5
10
100
AcDbSymbolTableRecord
100
AcDbLayerTableRecord
  2
0
 70
0
 62
7
  6
CONTINUOUS
370
-3
390
F
  0
LAYER
  5
1FA
100
AcDbSymbolTableRecord
100
AcDbLayerTableRecord
  2
DEFAULT_1
 70
0
 62
7
  6
CENTER
370
-3
390
F
  0
LAYER
  5
1FB
100
AcDbSymbolTableRecord
100
AcDbLayerTableRecord
  2
DEFAULT_2
 70
0
 62
7
  6
HIDDEN
370
-3
390
F
  0
LAYER
  5
1FC
100
AcDbSymbolTableRecord
100
AcDbLayerTableRecord
  2
DEFAULT_3
 70
0
 62
7
  6
PHANTOM
370
-3
390
F
  0
LAYER
  5
1FD
100
AcDbSymbolTableRecord
100
AcDbLayerTableRecord
  2
ASSI
 70
0
 62
7
  6
CONTINUOUS
370
-3
390
F
  0
LAYER
  5
1FE
100
AcDbSymbolTableRecord
100
AcDbLayerTableRecord
  2
COLOR9
 70
0
 62
7
  6
CONTINUOUS
370
-3
390
F
  0
LAYER
  5
1FF
100
AcDbSymbolTableRecord
100
AcDbLayerTableRecord
  2
COORDINATE
 70
0
 62
7
  6
CONTINUOUS
370
-3
390
F
  0
LAYER
  5
200
100
AcDbSymbolTableRecord
100
AcDbLayerTableRecord
  2
COORD_ORIGINE
 70
0
 62
7
  6
CONTINUOUS
370
-3
390
F
  0
LAYER
  5
201
100
AcDbSymbolTableRecord
100
AcDbLayerTableRecord
  2
COSMETICI
 70
0
 62
7
  6
CONTINUOUS
370
-3
390
F
  0
LAYER
  5
202
100
AcDbSymbolTableRecord
100
AcDbLayerTableRecord
  2
CURVE
 70
0
 62
7
  6
CONTINUOUS
370
-3
390
F
  0
LAYER
  5
203
100
AcDbSymbolTableRecord
100
AcDbLayerTableRecord
  2
DRAFT
 70
0
 62
7
  6
CONTINUOUS
370
-3
390
F
  0
LAYER
  5
204
100
AcDbSymbolTableRecord
100
AcDbLayerTableRecord
  2
IMPORT_IGES
 70
0
 62
7
  6
CONTINUOUS
370
-3
390
F
  0
LAYER
  5
205
100
AcDbSymbolTableRecord
100
AcDbLayerTableRecord
  2
INTF_1
 70
0
 62
7
  6
CONTINUOUS
370
-3
390
F
  0
LAYER
  5
206
100
AcDbSymbolTableRecord
100
AcDbLayerTableRecord
  2
INTF_8
 70
0
 62
7
  6
CONTINUOUS
370
-3
390
F
  0
LAYER
  5
207
100
AcDbSymbolTableRecord
100
AcDbLayerTableRecord
  2
INTF_YELLOW
 70
0
 62
7
  6
CONTINUOUS
370
-3
390
F
  0
LAYER
  5
208
100
AcDbSymbolTableRecord
100
AcDbLayerTableRecord
  2
NOTE
 70
0
 62
7
  6
CONTINUOUS
370
-3
390
F
  0
LAYER
  5
209
100
AcDbSymbolTableRecord
100
AcDbLayerTableRecord
  2
PIANI
 70
0
 62
7
  6
CONTINUOUS
370
-3
390
F
  0
LAYER
  5
20A
100
AcDbSymbolTableRecord
100
AcDbLayerTableRecord
  2
PIANI_ORIGINE
 70
0
 62
7
  6
CONTINUOUS
370
-3
390
F
  0
LAYER
  5
20B
100
AcDbSymbolTableRecord
100
AcDbLayerTableRecord
  2
PIANI_RIFERIMENTO
 70
0
 62
7
  6
CONTINUOUS
370
-3
390
F
  0
LAYER
  5
20C
100
AcDbSymbolTableRecord
100
AcDbLayerTableRecord
  2
PUNTI
 70
0
 62
7
  6
CONTINUOUS
370
-3
390
F
  0
LAYER
  5
20D
100
AcDbSymbolTableRecord
100
AcDbLayerTableRecord
  2
RACCORDO
 70
0
 62
7
  6
CONTINUOUS
370
-3
390
F
  0
LAYER
  5
20E
100
AcDbSymbolTableRecord
100
AcDbLayerTableRecord
  2
RGB__255__255__255__
 70
0
 62
7
  6
CONTINUOUS
370
-3
390
F
  0
LAYER
  5
20F
100
AcDbSymbolTableRecord
100
AcDbLayerTableRecord
  2
RGB____0____0____0__
 70
0
 62
7
  6
CONTINUOUS
370
-3
390
F
  0
LAYER
  5
210
100
AcDbSymbolTableRecord
100
AcDbLayerTableRecord
  2
SIMBOLI
 70
0
 62
7
  6
CONTINUOUS
370
-3
390
F
  0
LAYER
  5
211
100
AcDbSymbolTableRecord
100
AcDbLayerTableRecord
  2
SMUSSO
 70
0
 62
7
  6
CONTINUOUS
370
-3
390
F
  0
LAYER
  5
212
100
AcDbSymbolTableRecord
100
AcDbLayerTableRecord
  2
SNAPLINE
 70
0
 62
7
  6
CONTINUOUS
370
-3
390
F
  0
LAYER
  5
213
100
AcDbSymbolTableRecord
100
AcDbLayerTableRecord
  2
SUPERFICI
 70
0
 62
7
  6
CONTINUOUS
370
-3
390
F
  0
LAYER
  5
214
100
AcDbSymbolTableRecord
100
AcDbLayerTableRecord
  2
TRASH
 70
0
 62
7
  6
CONTINUOUS
370
-3
390
F
  0
LAYER
  5
215
100
AcDbSymbolTableRecord
100
AcDbLayerTableRecord
  2
XSEC_DATUMS
 70
0
 62
7
  6
CONTINUOUS
370
-3
390
F
  0
ENDTAB
  0
TABLE
  2
STYLE
  5
3
100
AcDbSymbolTable
 70
1
  0
STYLE
  5
11
100
AcDbSymbolTableRecord
100
AcDbTextStyleTableRecord
  2
STANDARD
 70
0
 40
0.0
 41
0.8
 50
0.0
 71
0
 42
0.2
  3
txt
  4

  0
STYLE
  5
216
100
AcDbSymbolTableRecord
100
AcDbTextStyleTableRecord
  2
TEXTSTYLE_1
 70
0
 40
0.0
 41
0.8
 50
0.0
 71
0
 42
0.2
  3
gdt
  4

  0
ENDTAB
  0
TABLE
  2
VIEW
  5
6
100
AcDbSymbolTable
 70
0
  0
ENDTAB
  0
TABLE
  2
UCS
  5
7
100
AcDbSymbolTable
 70
0
  0
ENDTAB
  0
TABLE
  2
APPID
  5
9
100
AcDbSymbolTable
 70
1
  0
APPID
  5
217
100
AcDbSymbolTableRecord
100
AcDbRegAppTableRecord
  2
ACAD
 70
0
  0
ENDTAB
  0
TABLE
  2
BLOCK_RECORD
  5
1
100
AcDbSymbolTable
 70
0
  0
BLOCK_RECORD
  5
218
100
AcDbSymbolTableRecord
100
AcDbBlockTableRecord
  2
*Model_Space
  0
BLOCK_RECORD
  5
219
100
AcDbSymbolTableRecord
100
AcDbBlockTableRecord
  2
*Paper_Space
  0
ENDTAB
  0
TABLE
  2
DIMSTYLE
  5
A
100
AcDbSymbolTable
 70
1
100
AcDbDimStyleTable
 71
0
  0
DIMSTYLE
105
21A
100
AcDbSymbolTableRecord
100
AcDbDimStyleTableRecord
  2
STANDARD
 70
0
  3

  4

 40
1.0
 41
3.0
 42
0.0625
 43
0.38
 44
0.18
 45
0.0
 46
0.0
 47
0.01
 48
0.01
140
3.0
141
0.09
142
0.0
143
25.4
144
1.0
145
0.0
146
1.0
147
0.09
 71
1.0
 72
0.0
 73
0
 74
0
 75
0
 76
0
 77
1
 78
8
170
0
171
2
172
0
173
0
174
0
175
0
176
0
177
0
178
0
270
2
271
2
272
2
273
2
274
2
275
0
280
0
281
0
282
0
283
1
284
8
285
0
286
0
287
3
288
0
340
11
  0
ENDTAB
  0
ENDSEC
  0
SECTION
  2
BLOCKS
  0
BLOCK
  5
20
100
AcDbEntity
  8
0
100
AcDbBlockBegin
  2
*Model_Space
 70
0
 10
0.0
 20
0.0
 30
0.0
  3
*Model_Space
  1

  0
ENDBLK
  5
21
100
AcDbEntity
  8
0
100
AcDbBlockEnd
  0
BLOCK
  5
1C
100
AcDbEntity
  8
0
100
AcDbBlockBegin
  2
*Paper_Space
 70
0
 10
0.0
 20
0.0
 30
0.0
  3
*Paper_Space
  1

  0
ENDBLK
  5
1D
100
AcDbEntity
  8
0
100
AcDbBlockEnd
  0
ENDSEC
  0
SECTION
  2
ENTITIES
  0
LWPOLYLINE
  5
21B
100
AcDbEntity
  8
RACCORDO
100
AcDbPolyline
 62
7
  6
CONTINUOUS
 90
15
 70
0
 10
-7.4435935134
 20
22.1815103142
 10
-7.4802889002
 20
22.1568927819
 10
-7.5439621225
 20
22.1084183688
 10
-7.6039938447
 20
22.0553715185
 10
-7.6605815393
 20
21.9980133749
 10
-7.7137022798
 20
21.9366518889
 10
-7.7630278977
 20
21.8719167198
 10
-7.8085235606
 20
21.8040831845
 10
-7.8500868415
 20
21.7333467265
 10
-7.8873113329
 20
21.6604754175
 10
-7.9200824322
 20
21.5856907419
 10
-7.9482290861
 20
21.5091635133
 10
-7.9714005363
 20
21.4315490492
 10
-7.9893591079
 20
21.3530865091
 10
-8.0023511244
 20
21.2699268215
  0
LINE
  5
21C
100
AcDbEntity
  8
RACCORDO
100
AcDbLine
 62
7
  6
CONTINUOUS
 10
-7.4437486135
 20
22.1814282109
 11
-6.783763535
 21
22.6034810173
  0
LINE
  5
21D
100
AcDbEntity
  8
0
100
AcDbLine
 62
253
  6
CONTINUOUS
 10
-7.1836296127
 20
22.1629462495
 11
-6.5272166225
 21
22.5827147468
  0
LWPOLYLINE
  5
21E
100
AcDbEntity
  8
RACCORDO
100
AcDbPolyline
 62
253
  6
CONTINUOUS
 90
9
 70
0
 10
-7.4436012042
 20
22.1815223683
 10
-7.4238491209
 20
22.1923238687
 10
-7.3949616352
 20
22.2026930557
 10
-7.3636594587
 20
22.2082183632
 10
-7.3302852456
 20
22.2088393074
 10
-7.2952043323
 20
22.2045490909
 10
-7.2588007377
 20
22.1953946773
 10
-7.2214729597
 20
22.1814762768
 10
-7.1836296127
 20
22.1629462495
  0
LWPOLYLINE
  5
21F
100
AcDbEntity
  8
RACCORDO
100
AcDbPolyline
 62
7
  6
CONTINUOUS
 90
12
 70
0
 10
7.2146891434
 20
-22.5335176347
 10
7.2221454934
 20
-22.5377749509
 10
7.288180852
 20
-22.570317331
 10
7.3570517643
 20
-22.5954182581
 10
7.428258977
 20
-22.6130547385
 10
7.5021444589
 20
-22.6232462163
 10
7.5781211694
 20
-22.6256661206
 10
7.6553531235
 20
-22.620097376
 10
7.7341170793
 20
-22.6062503107
 10
7.8142133236
 20
-22.5836647515
 10
7.8947138245
 20
-22.5521070281
 10
7.9423501568
 20
-22.5291065395
  0
LINE
  5
220
100
AcDbEntity
  8
RACCORDO
100
AcDbLine
 62
7
  6
CONTINUOUS
 10
-7.6582197692
 20
-13.9460931389
 11
-7.6588404476
 21
-13.9457356798
  0
LINE
  5
221
100
AcDbEntity
  8
ASSI
100
AcDbLine
 62
7
  6
CONTINUOUS
 10
7.2155201685
 20
-22.53400508
 11
-7.6588748721
 21
-13.9457158035
  0
LINE
  5
222
100
AcDbEntity
  8
RACCORDO
100
AcDbLine
 62
253
  6
CONTINUOUS
 10
7.013730927
 20
-22.1921426812
 11
-7.8553783935
 21
-13.6069053132
  0
LINE
  5
223
100
AcDbEntity
  8
RACCORDO
100
AcDbLine
 62
7
  6
CONTINUOUS
 10
7.2146004746
 20
-22.533472293
 11
7.2154860369
 21
-22.5339853728
  0
LWPOLYLINE
  5
224
100
AcDbEntity
  8
RACCORDO
100
AcDbPolyline
 62
253
  6
CONTINUOUS
 90
9
 70
0
 10
-7.666454527
 20
-13.9411997555
 10
-7.7025389989
 20
-13.915512259
 10
-7.7354048021
 20
-13.8847858173
 10
-7.7648532415
 20
-13.8492043252
 10
-7.7907032508
 20
-13.8089832194
 10
-7.8128028103
 20
-13.7643622184
 10
-7.8310193124
 20
-13.7156092004
 10
-7.8452400431
 20
-13.6630181986
 10
-7.8553783935
 20
-13.6069053132
  0
LWPOLYLINE
  5
225
100
AcDbEntity
  8
RACCORDO
100
AcDbPolyline
 62
7
  6
CONTINUOUS
 90
8
 70
0
 10
-7.9198972205
 20
-13.6711300311
 10
-7.8879216971
 20
-13.7261536117
 10
-7.8519008685
 20
-13.7770485098
 10
-7.8122006721
 20
-13.8236225748
 10
-7.768833479
 20
-13.866067595
 10
-7.7220452756
 20
-13.9042122915
 10
-7.6724029546
 20
-13.9376780102
 10
-7.6581368026
 20
-13.9461357704
  0
LWPOLYLINE
  5
226
100
AcDbEntity
  8
RACCORDO
100
AcDbPolyline
 62
253
  6
CONTINUOUS
 90
10
 70
0
 10
-8.0023511244
 20
21.2699268215
 10
-8.0028655363
 20
21.2643137937
 10
-8.0018982916
 20
21.2392681487
 10
-7.9956731891
 20
21.2139276386
 10
-7.9842562031
 20
21.1885608253
 10
-7.9677683323
 20
21.1634365493
 10
-7.946384317
 20
21.138821081
 10
-7.9203307877
 20
21.1149752982
 10
-7.8898838628
 20
21.0921519214
 10
-7.8553662226
 20
21.0705928355
  0
LWPOLYLINE
  5
227
100
AcDbEntity
  8
RACCORDO
100
AcDbPolyline
 62
7
  6
CONTINUOUS
 90
10
 70
0
 10
-8.0023327993
 20
21.2701651846
 10
-8.1251646728
 20
20.1839171488
 10
-8.2423109865
 20
19.0391081468
 10
-8.3461085766
 20
17.9003856995
 10
-8.4365277196
 20
16.7680286138
 10
-8.5135489259
 20
15.6422659461
 10
-8.5771551143
 20
14.5233082171
 10
-8.6273292614
 20
13.4113837626
 10
-8.6640582256
 20
12.3067638048
 10
-8.6862988824
 20
11.2762486803
  0
LWPOLYLINE
  5
228
100
AcDbEntity
  8
RACCORDO
100
AcDbPolyline
 62
253
  6
CONTINUOUS
 90
19
 70
0
 10
-7.8553783935
 20
21.0705879353
 10
-7.8452401035
 20
21.1387241862
 10
-7.8310193816
 20
21.2081717256
 10
-7.8128027626
 20
21.2785144578
 10
-7.7907027907
 20
21.3493331251
 10
-7.7648520838
 20
21.4202017728
 10
-7.7354029757
 20
21.4906903166
 10
-7.702536767
 20
21.5603758708
 10
-7.6664520367
 20
21.6288434372
 10
-7.6273580008
 20
21.6956821348
 10
-7.5854929259
 20
21.7604931095
 10
-7.541110579
 20
21.8228891521
 10
-7.4944678242
 20
21.8824946302
 10
-7.4458469909
 20
21.9389552662
 10
-7.3955441729
 20
21.9919321847
 10
-7.3438547382
 20
22.0411010124
 10
-7.2910894944
 20
22.0861660873
 10
-7.2375726517
 20
22.1268618606
 10
-7.1836296127
 20
22.1629462495
  0
LWPOLYLINE
  5
229
100
AcDbEntity
  8
RACCORDO
100
AcDbPolyline
 62
253
  6
CONTINUOUS
 90
8
 70
0
 10
-8.0010133235
 20
-13.4130354916
 10
-7.9956848299
 20
-13.439178699
 10
-7.9842683801
 20
-13.4715595946
 10
-7.967780861
 20
-13.502589282
 10
-7.9463970139
 20
-13.5319388964
 10
-7.9203434731
 20
-13.5592973791
 10
-7.8898963643
 20
-13.5843747742
 10
-7.8553783779
 20
-13.6069053015
  0
LWPOLYLINE
  5
22A
100
AcDbEntity
  8
RACCORDO
100
AcDbPolyline
 62
7
  6
CONTINUOUS
 90
5
 70
0
 10
-8.0009974126
 20
-13.4130332628
 10
-7.9883931628
 20
-13.4826829265
 10
-7.9703701067
 20
-13.5495106314
 10
-7.9474299864
 20
-13.6123184236
 10
-7.9198972205
 20
-13.6711300311
  0
LINE
  5
22B
100
AcDbEntity
  8
RACCORDO
100
AcDbLine
 62
7
  6
CONTINUOUS
 10
-8.001089374
 20
-13.412490076
 11
-8.0010133235
 21
-13.4130354916
  0
LWPOLYLINE
  5
22C
100
AcDbEntity
  8
RACCORDO
100
AcDbPolyline
 62
253
  6
CONTINUOUS
 90
10
 70
0
 10
-7.8553783935
 20
-13.6069053132
 10
-7.9836354063
 20
-12.6265219639
 10
-8.098889472
 20
-11.6361280609
 10
-8.2011155543
 20
-10.6359337021
 10
-8.2902910141
 20
-9.6261513235
 10
-8.3663969212
 20
-8.6069947372
 10
-8.4294180508
 20
-7.578679081
 10
-8.4793411482
 20
-6.5414219975
 10
-8.5161549389
 20
-5.4954435937
 10
-8.539851433
 20
-4.4409654734
  0
LWPOLYLINE
  5
22D
100
AcDbEntity
  8
RACCORDO
100
AcDbPolyline
 62
253
  6
CONTINUOUS
 90
9
 70
0
 10
-8.6862963898
 20
-4.2371999239
 10
-8.6852739743
 20
-4.2534047182
 10
-8.679309928
 20
-4.2834290748
 10
-8.6681233776
 20
-4.3128779366
 10
-8.6518328384
 20
-4.3414393094
 10
-8.6306108993
 20
-4.3688106019
 10
-8.6046823946
 20
-4.3947018309
 10
-8.5743220221
 20
-4.4188386934
 10
-8.5398514327
 20
-4.4409654732
  0
LWPOLYLINE
  5
22E
100
AcDbEntity
  8
RACCORDO
100
AcDbPolyline
 62
253
  6
CONTINUOUS
 90
9
 70
0
 10
-8.6862988824
 20
11.2762486803
 10
-8.6852739585
 20
11.2554038393
 10
-8.6793099113
 20
11.2264029864
 10
-8.6681233605
 20
11.1978461544
 10
-8.651832821
 20
11.1700358867
 10
-8.6306108819
 20
11.1432668171
 10
-8.6046823776
 20
11.1178225488
 10
-8.5743220057
 20
11.0939726492
 10
-8.5398514172
 20
11.0719697945
  0
LWPOLYLINE
  5
22F
100
AcDbEntity
  8
RACCORDO
100
AcDbPolyline
 62
7
  6
CONTINUOUS
 90
10
 70
0
 10
-8.6862963681
 20
-4.2371996827
 10
-8.663890318
 20
-5.2466005725
 10
-8.6270615082
 20
-6.3073328377
 10
-8.5767640341
 20
-7.3592423987
 10
-8.5130052221
 20
-8.4020708107
 10
-8.4357962133
 20
-9.4356083018
 10
-8.3451479039
 20
-10.4596637367
 10
-8.2410737868
 20
-11.474028561
 10
-8.1235977057
 20
-12.4784551759
 10
-8.001089374
 20
-13.412490076
  0
LWPOLYLINE
  5
230
100
AcDbEntity
  8
RACCORDO
100
AcDbPolyline
 62
253
  6
CONTINUOUS
 90
10
 70
0
 10
-8.539851433
 20
-4.4409654734
 10
-8.5644059764
 20
-2.7323180813
 10
-8.5828216658
 20
-1.0198633632
 10
-8.5950985498
 20
0.6963679145
 10
-8.6012367466
 20
2.4163215659
 10
-8.6012367434
 20
4.139989958
 10
-8.595098541
 20
5.8674125052
 10
-8.5828216544
 20
7.5985821361
 10
-8.5644059672
 20
9.3334448001
 10
-8.539851433
 20
11.0719697857
  0
LWPOLYLINE
  5
231
100
AcDbEntity
  8
RACCORDO
100
AcDbPolyline
 62
7
  6
CONTINUOUS
 90
10
 70
0
 10
-8.6862988939
 20
11.2762488875
 10
-8.7102720544
 20
9.5844841954
 10
-8.7289784946
 20
7.8354325113
 10
-8.7414464963
 20
6.0900868759
 10
-8.7476756556
 20
4.3484830917
 10
-8.747665846
 20
2.6106508496
 10
-8.7414169921
 20
0.8766175387
 10
-8.7289290732
 20
-0.8535871503
 10
-8.7102023459
 20
-2.57992775
 10
-8.6862963898
 20
-4.2371999239
  0
LWPOLYLINE
  5
232
100
AcDbEntity
  8
RACCORDO
100
AcDbPolyline
 62
253
  6
CONTINUOUS
 90
10
 70
0
 10
-8.539851433
 20
11.0719697857
 10
-8.5161549395
 20
12.1552763848
 10
-8.4793411491
 20
13.2460395031
 10
-8.429418052
 20
14.3440283103
 10
-8.3663969222
 20
15.4490106739
 10
-8.2902910146
 20
16.5607526511
 10
-8.2011155545
 20
17.6790185419
 10
-8.0988894722
 20
18.8035716804
 10
-7.9836354064
 20
19.9341744813
 10
-7.8553783935
 20
21.0705879353
  0
LINE
  5
233
100
AcDbEntity
  8
0
100
AcDbLine
 62
253
  6
CONTINUOUS
 10
8.395018397
 20
13.966803266
 11
7.703303434
 21
13.5674176854
  0
LWPOLYLINE
  5
234
100
AcDbEntity
  8
RACCORDO
100
AcDbPolyline
 62
253
  6
CONTINUOUS
 90
16
 70
0
 10
7.7074934856
 20
12.4167943351
 10
7.6687998096
 20
12.4039750769
 10
7.6268684983
 20
12.3935111029
 10
7.5821439565
 20
12.3855133142
 10
7.5351001923
 20
12.3800664747
 10
7.486235794
 20
12.377228312
 10
7.4360686459
 20
12.3770289062
 10
7.3851304389
 20
12.3794703707
 10
7.3339610363
 20
12.3845268297
 10
7.2831027515
 20
12.3921446931
 10
7.2330946007
 20
12.4022432235
 10
7.1844665898
 20
12.414715393
 10
7.1377340977
 20
12.4294290168
 10
7.0933924137
 20
12.4462281541
 10
7.0519114884
 20
12.4649347612
 10
7.013730953
 20
12.4853505779
  0
LINE
  5
235
100
AcDbEntity
  8
RACCORDO
100
AcDbLine
 62
253
  6
CONTINUOUS
 10
6.2926568153
 20
-13.0050698409
 11
-8.539851433
 21
-4.4409654734
  0
LWPOLYLINE
  5
236
100
AcDbEntity
  8
RACCORDO
100
AcDbPolyline
 62
253
  6
CONTINUOUS
 90
19
 70
0
 10
7.703303434
 20
13.5674176854
 10
7.64791518
 20
13.5321677456
 10
7.592981479
 20
13.4922900485
 10
7.5388277335
 20
13.4480266771
 10
7.4857702593
 20
13.3996477382
 10
7.4341277585
 20
13.3474443357
 10
7.3842192827
 20
13.2917271683
 10
7.3363417619
 20
13.2328346287
 10
7.2907766893
 20
13.1711214772
 10
7.2478021039
 20
13.1069511199
 10
7.207673059
 20
13.0407100235
 10
7.1706265349
 20
12.9727977848
 10
7.1368890635
 20
12.9036152867
 10
7.1066609562
 20
12.8335765274
 10
7.0801217812
 20
12.7631053926
 10
7.0574359913
 20
12.6926249692
 10
7.0387402443
 20
12.6225588794
 10
7.0241430446
 20
12.5533287136
 10
7.013730927
 20
12.4853505674
  0
LWPOLYLINE
  5
237
100
AcDbEntity
  8
RACCORDO
100
AcDbPolyline
 62
253
  6
CONTINUOUS
 90
19
 70
0
 10
8.0567356707
 20
12.9552550951
 10
8.0285933182
 20
12.9377604449
 10
8.0009494892
 20
12.9181706212
 10
7.9738041838
 20
12.8964856239
 10
7.9469834675
 20
12.87254136
 10
7.9206612748
 20
12.8465019225
 10
7.8953594092
 20
12.8188595906
 10
7.8711127493
 20
12.7895957741
 10
7.8478864166
 20
12.7587290632
 10
7.8260975792
 20
12.7268075074
 10
7.8057701045
 20
12.693806159
 10
7.7868801251
 20
12.6597499658
 10
7.7697732073
 20
12.62526182
 10
7.7544820819
 20
12.5903165149
 10
7.7409740179
 20
12.5549392572
 10
7.729496389
 20
12.5198285591
 10
7.7201316529
 20
12.4852172582
 10
7.7127973517
 20
12.4508725168
 10
7.7074934856
 20
12.4167943351
  0
LINE
  5
238
100
AcDbEntity
  8
0
100
AcDbLine
 62
253
  6
CONTINUOUS
 10
8.7484506337
 20
13.3546406757
 11
8.0567356707
 21
12.9552550951
  0
LINE
  5
239
100
AcDbEntity
  8
0
100
AcDbLine
 62
7
  6
CONTINUOUS
 10
0.5807064278
 20
-3.6414319162
 11
0.5626113267
 21
-3.6445440585
  0
LINE
  5
23A
100
AcDbEntity
  8
0
100
AcDbLine
 62
7
  6
CONTINUOUS
 10
0.5626113267
 20
-3.6445440585
 11
0.5430676661
 21
-3.6449178158
  0
LINE
  5
23B
100
AcDbEntity
  8
0
100
AcDbLine
 62
7
  6
CONTINUOUS
 10
0.5430676661
 20
-3.6449178158
 11
0.5225789587
 21
-3.6422945837
  0
LINE
  5
23C
100
AcDbEntity
  8
0
100
AcDbLine
 62
7
  6
CONTINUOUS
 10
0.5225789587
 20
-3.6422945837
 11
0.5013128846
 21
-3.6365882246
  0
LWPOLYLINE
  5
23D
100
AcDbEntity
  8
0
100
AcDbPolyline
 62
7
  6
CONTINUOUS
 90
3
 70
0
 10
0.5013127928
 20
-3.6365881999
 10
0.4791013256
 20
-3.6278849748
 10
0.4559444476
 20
-3.6161849404
  0
LWPOLYLINE
  5
23E
100
AcDbEntity
  8
SUPERFICI
100
AcDbPolyline
 62
7
  6
CONTINUOUS
 90
8
 70
0
 10
0.4559444477
 20
-3.6161849404
 10
0.479101368
 20
-3.6278849857
 10
0.501312864
 20
-3.6365882165
 10
0.5225790005
 20
-3.642294595
 10
0.543067751
 20
-3.6449178241
 10
0.5626113963
 20
-3.6445440528
 10
0.5807064791
 20
-3.6414319028
 10
0.5942445369
 20
-3.6369123088
  0
LWPOLYLINE
  5
23F
100
AcDbEntity
  8
0
100
AcDbPolyline
 62
7
  6
CONTINUOUS
 90
3
 70
0
 10
-1.7716176839
 20
-2.8822827216
 10
-1.7684852722
 20
-2.855534771
 10
-1.7624901378
 20
-2.8300066836
  0
LINE
  5
240
100
AcDbEntity
  8
0
100
AcDbLine
 62
7
  6
CONTINUOUS
 10
-3.0337301322
 20
-1.3089676953
 11
-3.0281410331
 21
-1.28627503
  0
LWPOLYLINE
  5
241
100
AcDbEntity
  8
SUPERFICI
100
AcDbPolyline
 62
7
  6
CONTINUOUS
 90
19
 70
0
 10
-3.0281409979
 20
-1.2862749221
 10
-3.033730037
 20
-1.3089671795
 10
-3.0369978133
 20
-1.3327216239
 10
-3.0379443723
 20
-1.3575382819
 10
-3.0364689317
 20
-1.3837183947
 10
-3.0326723372
 20
-1.4109607578
 10
-3.0268571921
 20
-1.4383617952
 10
-3.019050369
 20
-1.4657861844
 10
-3.00922531
 20
-1.4933694309
 10
-2.9976046306
 20
-1.5206142936
 10
-2.9841533537
 20
-1.5476087455
 10
-2.9689068011
 20
-1.5742650141
 10
-2.952193135
 20
-1.5998222978
 10
-2.933998872
 20
-1.62427946
 10
-2.9143378688
 20
-1.6476378544
 10
-2.8935793677
 20
-1.6691404562
 10
-2.8718465541
 20
-1.6885349848
 10
-2.8490165104
 20
-1.7060738765
 10
-2.825089306
 20
-1.721757172
  0
LINE
  5
242
100
AcDbEntity
  8
0
100
AcDbLine
 62
7
  6
CONTINUOUS
 10
-3.0281410331
 20
-1.28627503
 11
-2.6670829881
 21
-0.1837640807
  0
LINE
  5
243
100
AcDbEntity
  8
SUPERFICI
100
AcDbLine
 62
7
  6
CONTINUOUS
 10
-2.5361692786
 20
-1.400400854
 11
-2.1328478927
 21
-0.1708073789
  0
LINE
  5
244
100
AcDbEntity
  8
0
100
AcDbLine
 62
7
  6
CONTINUOUS
 10
-2.6670829881
 20
-0.1837640807
 11
-2.3023665506
 21
0.9208591781
  0
LINE
  5
245
100
AcDbEntity
  8
0
100
AcDbLine
 62
7
  6
CONTINUOUS
 10
-1.806917258
 20
0.8147562569
 11
-2.5361692786
 21
-1.400400854
  0
LINE
  5
246
100
AcDbEntity
  8
SUPERFICI
100
AcDbLine
 62
7
  6
CONTINUOUS
 10
-2.1328478927
 20
-0.1708073789
 11
-1.8069172351
 21
0.814756326
  0
LWPOLYLINE
  5
247
100
AcDbEntity
  8
SUPERFICI
100
AcDbPolyline
 62
7
  6
CONTINUOUS
 90
3
 70
0
 10
-2.2106160632
 20
1.197343838
 10
-2.3023665212
 20
0.9208592666
 10
-3.0281409979
 20
-1.2862749221
  0
LINE
  5
248
100
AcDbEntity
  8
0
100
AcDbLine
 62
7
  6
CONTINUOUS
 10
-2.3023665506
 20
0.9208591781
 11
-2.2106160938
 21
1.197343746
  0
LINE
  5
249
100
AcDbEntity
  8
0
100
AcDbLine
 62
7
  6
CONTINUOUS
 10
-2.2106160938
 20
1.197343746
 11
-2.1848249097
 21
1.2649471013
  0
LWPOLYLINE
  5
24A
100
AcDbEntity
  8
SUPERFICI
100
AcDbPolyline
 62
7
  6
CONTINUOUS
 90
3
 70
0
 10
-1.8069172351
 20
0.814756326
 10
-1.791216646
 20
0.8558555558
 10
-1.7727227581
 20
0.8935544566
  0
LINE
  5
24B
100
AcDbEntity
  8
0
100
AcDbLine
 62
7
  6
CONTINUOUS
 10
-2.1848249097
 20
1.2649471013
 11
-2.1543837444
 21
1.327019565
  0
LINE
  5
24C
100
AcDbEntity
  8
0
100
AcDbLine
 62
7
  6
CONTINUOUS
 10
-2.1543837444
 20
1.327019565
 11
-2.1192940233
 21
1.3835603503
  0
LINE
  5
24D
100
AcDbEntity
  8
SUPERFICI
100
AcDbLine
 62
7
  6
CONTINUOUS
 10
-1.7727227581
 20
0.8935544566
 11
-1.7514370705
 21
0.927851181
  0
LINE
  5
24E
100
AcDbEntity
  8
0
100
AcDbLine
 62
7
  6
CONTINUOUS
 10
-2.1192940233
 20
1.3835603503
 11
-2.079310181
 21
1.4348452239
  0
LINE
  5
24F
100
AcDbEntity
  8
SUPERFICI
100
AcDbLine
 62
7
  6
CONTINUOUS
 10
-1.7514370705
 20
0.927851181
 11
-1.7272188681
 21
0.9588981661
  0
LINE
  5
250
100
AcDbEntity
  8
0
100
AcDbLine
 62
7
  6
CONTINUOUS
 10
-2.079310181
 20
1.4348452239
 11
-2.0346803735
 21
1.4805969318
  0
LINE
  5
251
100
AcDbEntity
  8
SUPERFICI
100
AcDbLine
 62
7
  6
CONTINUOUS
 10
-1.7272188681
 20
0.9588981661
 11
-1.7002103948
 21
0.9865421785
  0
LWPOLYLINE
  5
252
100
AcDbEntity
  8
SUPERFICI
100
AcDbPolyline
 62
7
  6
CONTINUOUS
 90
7
 70
0
 10
-1.9988400046
 20
1.5106011163
 10
-2.0346804027
 20
1.4805969052
 10
-2.0793101905
 20
1.4348452132
 10
-2.119294017
 20
1.3835603595
 10
-2.1543837365
 20
1.3270195809
 10
-2.1848248982
 20
1.2649471315
 10
-2.2106160632
 20
1.197343838
  0
LINE
  5
253
100
AcDbEntity
  8
0
100
AcDbLine
 62
7
  6
CONTINUOUS
 10
-2.0346803735
 20
1.4805969318
 11
-1.9988400046
 21
1.5106011163
  0
LINE
  5
254
100
AcDbEntity
  8
SUPERFICI
100
AcDbLine
 62
7
  6
CONTINUOUS
 10
-1.7002103948
 20
0.9865421785
 11
-1.6708292319
 21
1.0103371215
  0
LWPOLYLINE
  5
255
100
AcDbEntity
  8
0
100
AcDbPolyline
 62
7
  6
CONTINUOUS
 90
32
 70
0
 10
-1.9988400046
 20
1.5106011163
 10
-1.98614707
 20
1.5199848942
 10
-1.9336935164
 20
1.5528498613
 10
-1.8773398983
 20
1.5793491182
 10
-1.8178848012
 20
1.5991264838
 10
-1.7552695314
 20
1.6120921545
 10
-1.6895560043
 20
1.6183340925
 10
-1.6217239726
 20
1.6177626214
 10
-1.5517507175
 20
1.6102748537
 10
-1.4796614881
 20
1.5959722323
 10
-1.406507941
 20
1.5750716036
 10
-1.3322744084
 20
1.5474761323
 10
-1.2569779425
 20
1.5132818637
 10
-1.1817190171
 20
1.4729951163
 10
-1.1065079472
 20
1.4265365331
 10
-1.0313344228
 20
1.3739854682
 10
-0.957267642
 20
1.3160864984
 10
-0.8843183582
 20
1.2527657348
 10
-0.8124744437
 20
1.1840978505
 10
-0.7427705062
 20
1.1110504187
 10
-0.6752236055
 20
1.0335463028
 10
-0.6098141489
 20
0.9516640855
 10
-0.5475217057
 20
0.8666049531
 10
-0.488396042
 20
0.7783304116
 10
-0.4323841396
 20
0.6868808138
 10
-0.3803116458
 20
0.5935754728
 10
-0.3322094798
 20
0.4982942299
 10
-0.2880432743
 20
0.4011592179
 10
-0.2485414641
 20
0.3038527771
 10
-0.2139461994
 20
0.2069360681
 10
-0.1840127156
 20
0.1098494315
 10
-0.1587395641
 20
0.0125936995
  0
LWPOLYLINE
  5
256
100
AcDbEntity
  8
SUPERFICI
100
AcDbPolyline
 62
7
  6
CONTINUOUS
 90
3
 70
0
 10
-1.9336935957
 20
1.5528498189
 10
-1.986147122
 20
1.5199848569
 10
-1.9988400046
 20
1.5106011163
  0
LINE
  5
257
100
AcDbEntity
  8
SUPERFICI
100
AcDbLine
 62
7
  6
CONTINUOUS
 10
-1.6708292319
 20
1.0103371215
 11
-1.6390447428
 21
1.030212338
  0
LWPOLYLINE
  5
258
100
AcDbEntity
  8
0
100
AcDbPolyline
 62
7
  6
CONTINUOUS
 90
9
 70
0
 10
-1.6098336271
 20
1.0442187841
 10
-1.6390518324
 20
1.0302089386
 10
-1.6708338337
 20
1.0103342438
 10
-1.7002151364
 20
0.9865383382
 10
-1.727222265
 20
0.9588946891
 10
-1.7514381773
 20
0.9278497621
 10
-1.7727235971
 20
0.8935525295
 10
-1.7912168068
 20
0.8558545895
 10
-1.806917258
 20
0.8147562569
  0
LINE
  5
259
100
AcDbEntity
  8
SUPERFICI
100
AcDbLine
 62
7
  6
CONTINUOUS
 10
-1.6390447428
 20
1.030212338
 11
-1.6098334964
 21
1.0442185317
  0
LWPOLYLINE
  5
25A
100
AcDbEntity
  8
SUPERFICI
100
AcDbPolyline
 62
7
  6
CONTINUOUS
 90
30
 70
0
 10
-1.6098334964
 20
1.0442185317
 10
-1.6048829567
 20
1.0462404225
 10
-1.5688525005
 20
1.0581897566
 10
-1.5309233214
 20
1.0660046745
 10
-1.4911222633
 20
1.0697429113
 10
-1.4500279706
 20
1.0693517356
 10
-1.4076219988
 20
1.06477176
 10
-1.3639237194
 20
1.0560618416
 10
-1.3195684832
 20
1.0433466265
 10
-1.2745454025
 20
1.0265670972
 10
-1.2288658729
 20
1.0057819808
 10
-1.1831985734
 20
0.9812925955
 10
-1.1375432521
 20
0.9530438647
 10
-1.0919001608
 20
0.9210908651
 10
-1.0469386099
 20
0.885900216
 10
-1.0026677441
 20
0.8474230798
 10
-0.9590779094
 20
0.8057085855
 10
-0.9168101215
 20
0.7613703571
 10
-0.8758838207
 20
0.7143692172
 10
-0.8362786371
 20
0.6647448749
 10
-0.7985758543
 20
0.6132292943
 10
-0.7628082664
 20
0.5598064609
 10
-0.7289418951
 20
0.5044930671
 10
-0.6974579608
 20
0.4480700826
 10
-0.6683724869
 20
0.3904672697
 10
-0.6416681952
 20
0.3317555851
 10
-0.6177766103
 20
0.2729276435
 10
-0.5968413282
 20
0.2143144572
 10
-0.5787177917
 20
0.1555855656
 10
-0.563405469
 20
0.096741274
  0
LINE
  5
25B
100
AcDbEntity
  8
0
100
AcDbLine
 62
7
  6
CONTINUOUS
 10
-1.6048910474
 20
1.0462371181
 11
-1.6098336271
 21
1.0442187841
  0
LWPOLYLINE
  5
25C
100
AcDbEntity
  8
0
100
AcDbPolyline
 62
7
  6
CONTINUOUS
 90
21
 70
0
 10
-1.4289856417
 20
-3.288954604
 10
-1.4489766426
 20
-3.2933063623
 10
-1.4703172594
 20
-3.2940242409
 10
-1.4930061735
 20
-3.2911322945
 10
-1.5162795995
 20
-3.2848073155
 10
-1.5401757608
 20
-3.2749693725
 10
-1.5646566561
 20
-3.2616985268
 10
-1.5888440876
 20
-3.2454115167
 10
-1.6127941924
 20
-3.2259255628
 10
-1.6364506669
 20
-3.2034233472
 10
-1.6587665748
 20
-3.1788697558
 10
-1.6796476534
 20
-3.1521758597
 10
-1.6991876785
 20
-3.1234303032
 10
-1.7166218028
 20
-3.0938643509
 10
-1.7318272479
 20
-3.0635714769
 10
-1.7449262566
 20
-3.0324578942
 10
-1.7555216698
 20
-3.0014740674
 10
-1.763600461
 20
-2.9705732456
 10
-1.7691752182
 20
-2.939801924
 10
-1.7718874521
 20
-2.9102505815
 10
-1.7716176852
 20
-2.8822828549
  0
LINE
  5
25D
100
AcDbEntity
  8
0
100
AcDbLine
 62
7
  6
CONTINUOUS
 10
-2.0356766551
 20
-2.1364701778
 11
-2.0568413426
 21
-2.1386156004
  0
LINE
  5
25E
100
AcDbEntity
  8
0
100
AcDbLine
 62
7
  6
CONTINUOUS
 10
-2.0568413426
 20
-2.1386156004
 11
-2.0792459819
 21
-2.1370362973
  0
LINE
  5
25F
100
AcDbEntity
  8
0
100
AcDbLine
 62
7
  6
CONTINUOUS
 10
-2.0792459819
 20
-2.1370362973
 11
-2.1026827038
 21
-2.1316329771
  0
LWPOLYLINE
  5
260
100
AcDbEntity
  8
0
100
AcDbPolyline
 62
7
  6
CONTINUOUS
 90
3
 70
0
 10
-2.1026828254
 20
-2.1316329491
 10
-2.1273599835
 20
-2.1225051051
 10
-2.1532776228
 20
-2.1096528181
  0
LWPOLYLINE
  5
261
100
AcDbEntity
  8
SUPERFICI
100
AcDbPolyline
 62
7
  6
CONTINUOUS
 90
13
 70
0
 10
-1.3533891815
 20
-2.0839553472
 10
-1.3682221023
 20
-2.0772031148
 10
-1.3828293229
 20
-2.0717612041
 10
-1.3972843613
 20
-2.0676173602
 10
-1.4115136447
 20
-2.0647838061
 10
-1.4252965133
 20
-2.0632972456
 10
-1.4386207242
 20
-2.0631805208
 10
-1.4514984218
 20
-2.0644107323
 10
-1.463745527
 20
-2.0669559711
 10
-1.475349086
 20
-2.0708319382
 10
-1.4863219291
 20
-2.076022861
 10
-1.4965186641
 20
-2.0824496253
 10
-1.498747091
 20
-2.0841006808
  0
LWPOLYLINE
  5
262
100
AcDbEntity
  8
SUPERFICI
100
AcDbPolyline
 62
7
  6
CONTINUOUS
 90
7
 70
0
 10
-2.153277625
 20
-2.1096528169
 10
-2.1273599235
 20
-2.1225051199
 10
-2.102682721
 20
-2.1316329707
 10
-2.0792459185
 20
-2.1370363119
 10
-2.0568412388
 20
-2.1386156077
 10
-2.0356765739
 20
-2.1364701696
 10
-2.0149749648
 20
-2.1303307925
  0
LINE
  5
263
100
AcDbEntity
  8
SUPERFICI
100
AcDbLine
 62
7
  6
CONTINUOUS
 10
-1.3383305742
 20
-2.0920179094
 11
-1.3533759047
 21
-2.0839624558
  0
LINE
  5
264
100
AcDbEntity
  8
SUPERFICI
100
AcDbLine
 62
7
  6
CONTINUOUS
 10
0.4559444329
 20
-3.6161849318
 11
-1.1818543292
 21
-2.670540453
  0
LINE
  5
265
100
AcDbEntity
  8
0
100
AcDbLine
 62
7
  6
CONTINUOUS
 10
0.4559444329
 20
-3.6161849318
 11
-1.1818543292
 21
-2.670540453
  0
LINE
  5
266
100
AcDbEntity
  8
SUPERFICI
100
AcDbLine
 62
7
  6
CONTINUOUS
 10
-2.1532776221
 20
-2.1096528185
 11
-2.8250883976
 21
-1.7217576965
  0
LINE
  5
267
100
AcDbEntity
  8
0
100
AcDbLine
 62
7
  6
CONTINUOUS
 10
-2.1532776221
 20
-2.1096528185
 11
-2.8250883976
 21
-1.7217576965
  0
LINE
  5
268
100
AcDbEntity
  8
SUPERFICI
100
AcDbLine
 62
7
  6
CONTINUOUS
 10
0.1641301029
 20
-2.9595198741
 11
-1.3383305244
 21
-2.0920179382
  0
LINE
  5
269
100
AcDbEntity
  8
0
100
AcDbLine
 62
7
  6
CONTINUOUS
 10
0.1641301029
 20
-2.9595198741
 11
-1.3383305244
 21
-2.0920179382
  0
LINE
  5
26A
100
AcDbEntity
  8
SUPERFICI
100
AcDbLine
 62
7
  6
CONTINUOUS
 10
-2.1547558713
 20
-1.6206241751
 11
-2.5361692786
 21
-1.400400854
  0
LINE
  5
26B
100
AcDbEntity
  8
0
100
AcDbLine
 62
7
  6
CONTINUOUS
 10
-2.1547558713
 20
-1.6206241751
 11
-2.5361692786
 21
-1.400400854
  0
LWPOLYLINE
  5
26C
100
AcDbEntity
  8
0
100
AcDbPolyline
 62
7
  6
CONTINUOUS
 90
18
 70
0
 10
-2.8250818539
 20
-1.7217614747
 10
-2.8490095731
 20
-1.7060787758
 10
-2.8718401605
 20
-1.688540331
 10
-2.8935735466
 20
-1.6691460999
 10
-2.9143326615
 20
-1.6476436346
 10
-2.9339943074
 20
-1.6242852272
 10
-2.9521892044
 20
-1.5998279364
 10
-2.9689034978
 20
-1.5742703979
 10
-2.9841506691
 20
-1.5476137589
 10
-2.9976025127
 20
-1.5206188853
 10
-3.0092236972
 20
-1.4933735595
 10
-3.0190492095
 20
-1.4657897988
 10
-3.02685642
 20
-1.4383648799
 10
-3.0326718862
 20
-1.410963292
 10
-3.0364687359
 20
-1.3837203631
 10
-3.037944354
 20
-1.3575397195
 10
-3.0369978906
 20
-1.3327225831
 10
-3.0337301322
 20
-1.3089676953
  0
LWPOLYLINE
  5
26D
100
AcDbEntity
  8
0
100
AcDbPolyline
 62
7
  6
CONTINUOUS
 90
22
 70
0
 10
-2.1547545533
 20
-1.6206249361
 10
-2.1279437677
 20
-1.6384854474
 10
-2.102578292
 20
-1.6585441864
 10
-2.0786580213
 20
-1.6808010922
 10
-2.0560325243
 20
-1.7055685108
 10
-2.0348518313
 20
-1.7325338633
 10
-2.0155665046
 20
-1.7607596867
 10
-1.9981593376
 20
-1.7902913706
 10
-1.9826469825
 20
-1.8210832034
 10
-1.9695309087
 20
-1.8520611388
 10
-1.9588635675
 20
-1.8832453957
 10
-1.9505920151
 20
-1.9146154688
 10
-1.9450598728
 20
-1.9450363671
 10
-1.9423742312
 20
-1.9745533924
 10
-1.9424277628
 20
-2.003121105
 10
-1.9452428447
 20
-2.0294686244
 10
-1.9509680038
 20
-2.0534500284
 10
-1.9594549414
 20
-2.0752113716
 10
-1.9702812041
 20
-2.0939199767
 10
-1.983465079
 20
-2.1094232977
 10
-1.998988818
 20
-2.1218741938
 10
-2.0149749647
 20
-2.1303307926
  0
LWPOLYLINE
  5
26E
100
AcDbEntity
  8
SUPERFICI
100
AcDbPolyline
 62
7
  6
CONTINUOUS
 90
4
 70
0
 10
-2.0786581325
 20
-1.6808009788
 10
-2.1025784638
 20
-1.6585440509
 10
-2.1279440227
 20
-1.6384852801
 10
-2.1547549144
 20
-1.6206247276
  0
LWPOLYLINE
  5
26F
100
AcDbEntity
  8
SUPERFICI
100
AcDbPolyline
 62
7
  6
CONTINUOUS
 90
24
 70
0
 10
-1.7624901371
 20
-2.8300066816
 10
-1.7684852723
 20
-2.8555348327
 10
-1.7716176822
 20
-2.8822828294
 10
-1.771887446
 20
-2.910250718
 10
-1.7691752027
 20
-2.9398020674
 10
-1.7636004335
 20
-2.9705733784
 10
-1.7555216342
 20
-3.001474185
 10
-1.7449262198
 20
-3.0324579936
 10
-1.7318272137
 20
-3.0635715535
 10
-1.7166217721
 20
-3.0938644074
 10
-1.6991876518
 20
-3.1234303449
 10
-1.6796476318
 20
-3.1521758893
 10
-1.6587665583
 20
-3.1788697755
 10
-1.6364506543
 20
-3.2034233594
 10
-1.6127941837
 20
-3.2259255695
 10
-1.5888440849
 20
-3.2454115187
 10
-1.5646566627
 20
-3.2616985231
 10
-1.5401757787
 20
-3.2749693638
 10
-1.5162796296
 20
-3.2848073052
 10
-1.4930062188
 20
-3.2911322877
 10
-1.4703173207
 20
-3.294024241
 10
-1.4489767129
 20
-3.2933063709
 10
-1.4289857113
 20
-3.288954629
 10
-1.4206325315
 20
-3.2859274116
  0
LINE
  5
270
100
AcDbEntity
  8
0
100
AcDbLine
 62
7
  6
CONTINUOUS
 10
-1.1818543292
 20
-2.670540453
 11
-1.3575931213
 21
-3.2118857817
  0
LINE
  5
271
100
AcDbEntity
  8
SUPERFICI
100
AcDbLine
 62
7
  6
CONTINUOUS
 10
-1.3575930866
 20
-3.2118856747
 11
-1.1818543292
 21
-2.670540453
  0
LINE
  5
272
100
AcDbEntity
  8
SUPERFICI
100
AcDbLine
 62
7
  6
CONTINUOUS
 10
-1.5399746088
 20
-2.145561993
 11
-1.7624901371
 21
-2.8300066816
  0
LINE
  5
273
100
AcDbEntity
  8
0
100
AcDbLine
 62
7
  6
CONTINUOUS
 10
-1.7624901378
 20
-2.8300066836
 11
-1.5399746127
 21
-2.1455620052
  0
LINE
  5
274
100
AcDbEntity
  8
0
100
AcDbLine
 62
7
  6
CONTINUOUS
 10
-1.5399746127
 20
-2.1455620052
 11
-1.5349782415
 21
-2.1322798098
  0
LWPOLYLINE
  5
275
100
AcDbEntity
  8
0
100
AcDbPolyline
 62
7
  6
CONTINUOUS
 90
6
 70
0
 10
-1.3575931213
 20
-3.2118857817
 10
-1.367558274
 20
-3.2347448644
 10
-1.3796290805
 20
-3.2538880492
 10
-1.3938059609
 20
-3.2693155814
 10
-1.4103424091
 20
-3.2809927115
 10
-1.4206325343
 20
-3.2859274064
  0
LINE
  5
276
100
AcDbEntity
  8
0
100
AcDbLine
 62
7
  6
CONTINUOUS
 10
-1.5349782415
 20
-2.1322798098
 11
-1.5290742016
 21
-2.1200945519
  0
LINE
  5
277
100
AcDbEntity
  8
0
100
AcDbLine
 62
7
  6
CONTINUOUS
 10
-1.5290742016
 20
-2.1200945519
 11
-1.5222627601
 21
-2.1090091955
  0
LINE
  5
278
100
AcDbEntity
  8
0
100
AcDbLine
 62
7
  6
CONTINUOUS
 10
-1.5222627601
 20
-2.1090091955
 11
-1.5144919569
 21
-2.0989685946
  0
LWPOLYLINE
  5
279
100
AcDbEntity
  8
SUPERFICI
100
AcDbPolyline
 62
7
  6
CONTINUOUS
 90
28
 70
0
 10
-0.2139462399
 20
0.2069361853
 10
-0.2485415279
 20
0.3038529442
 10
-0.288043362
 20
0.4011594242
 10
-0.3322095929
 20
0.4982944673
 10
-0.3803117878
 20
0.5935757402
 10
-0.4323843179
 20
0.6868811167
 10
-0.48839626
 20
0.7783307489
 10
-0.5475219572
 20
0.866605312
 10
-0.6098144246
 20
0.9516644473
 10
-0.6752238994
 20
1.0335466547
 10
-0.7427708116
 20
1.1110507537
 10
-0.8124747529
 20
1.1840981614
 10
-0.8843186647
 20
1.2527660145
 10
-0.9572679419
 20
1.3160867457
 10
-1.0313347115
 20
1.3739856828
 10
-1.1065082206
 20
1.4265367141
 10
-1.1817192773
 20
1.4729952663
 10
-1.2569781945
 20
1.5132819877
 10
-1.3322746539
 20
1.5474762331
 10
-1.4065081791
 20
1.575071682
 10
-1.4796617174
 20
1.5959722875
 10
-1.551750937
 20
1.6102748864
 10
-1.6217241784
 20
1.6177626334
 10
-1.6895561909
 20
1.6183340851
 10
-1.7552696949
 20
1.6120921296
 10
-1.8178849394
 20
1.5991264468
 10
-1.8773400081
 20
1.5793490758
 10
-1.9336935957
 20
1.5528498189
  0
LWPOLYLINE
  5
27A
100
AcDbEntity
  8
0
100
AcDbPolyline
 62
7
  6
CONTINUOUS
 90
28
 70
0
 10
-0.5787163372
 20
0.1555789647
 10
-0.5968367206
 20
0.2142995946
 10
-0.6177671553
 20
0.272902876
 10
-0.6416518699
 20
0.3317183244
 10
-0.6683475974
 20
0.3904158724
 10
-0.6974237994
 20
0.4480057418
 10
-0.7288973293
 20
0.5044171508
 10
-0.7627525875
 20
0.5597201626
 10
-0.7985106123
 20
0.6131361193
 10
-0.8362056404
 20
0.664649227
 10
-0.8758046183
 20
0.7142746023
 10
-0.9167277451
 20
0.7612798988
 10
-0.9589960978
 20
0.8056261211
 10
-1.0025895289
 20
0.8473517329
 10
-1.0468663843
 20
0.885840586
 10
-1.0918369067
 20
0.9210434933
 10
-1.1374913634
 20
0.9530093501
 10
-1.1831580411
 20
0.9812691874
 10
-1.2288363024
 20
1.0057671854
 10
-1.2745267851
 20
1.0265591636
 10
-1.319559564
 20
1.0433436831
 10
-1.3639230187
 20
1.0560616629
 10
-1.4076282615
 20
1.0647724746
 10
-1.4500393699
 20
1.069352413
 10
-1.4911365503
 20
1.0697425346
 10
-1.5309386691
 20
1.0660023133
 10
-1.5688677762
 20
1.0581856803
 10
-1.6048910474
 20
1.0462371181
  0
LINE
  5
27B
100
AcDbEntity
  8
0
100
AcDbLine
 62
7
  6
CONTINUOUS
 10
-0.5634054733
 20
0.0967412921
 11
-0.5787163372
 21
0.1555789647
  0
LWPOLYLINE
  5
27C
100
AcDbEntity
  8
SUPERFICI
100
AcDbPolyline
 62
7
  6
CONTINUOUS
 90
3
 70
0
 10
-0.1587395625
 20
0.0125936923
 10
-0.1840127343
 20
0.1098494906
 10
-0.2139462316
 20
0.2069361582
  0
LINE
  5
27D
100
AcDbEntity
  8
SUPERFICI
100
AcDbLine
 62
7
  6
CONTINUOUS
 10
0.6570187461
 20
-3.4140531492
 11
0.2921727357
 21
-1.8924181914
  0
LINE
  5
27E
100
AcDbEntity
  8
0
100
AcDbLine
 62
7
  6
CONTINUOUS
 10
0.1641301029
 20
-2.9595198741
 11
-0.1610380684
 21
-1.6022311498
  0
LINE
  5
27F
100
AcDbEntity
  8
0
100
AcDbLine
 62
7
  6
CONTINUOUS
 10
0.0209390642
 20
-0.7498054738
 11
0.6570187653
 21
-3.4140532288
  0
LINE
  5
280
100
AcDbEntity
  8
0
100
AcDbLine
 62
7
  6
CONTINUOUS
 10
-0.1610380684
 20
-1.6022311498
 11
-0.4832959301
 21
-0.2432623212
  0
LINE
  5
281
100
AcDbEntity
  8
SUPERFICI
100
AcDbLine
 62
7
  6
CONTINUOUS
 10
0.2921727357
 20
-1.8924181914
 11
-0.0690146236
 21
-0.3686714875
  0
LWPOLYLINE
  5
282
100
AcDbEntity
  8
SUPERFICI
100
AcDbPolyline
 62
7
  6
CONTINUOUS
 90
3
 70
0
 10
-0.563405469
 20
0.096741274
 10
-0.4832959278
 20
-0.2432623312
 10
0.1641301029
 20
-2.9595198741
  0
LINE
  5
283
100
AcDbEntity
  8
0
100
AcDbLine
 62
7
  6
CONTINUOUS
 10
-0.4832959301
 20
-0.2432623212
 11
-0.5634054733
 21
0.0967412921
  0
LINE
  5
284
100
AcDbEntity
  8
0
100
AcDbLine
 62
7
  6
CONTINUOUS
 10
-0.1587395641
 20
0.0125936995
 11
0.0209390642
 21
-0.7498054738
  0
LINE
  5
285
100
AcDbEntity
  8
SUPERFICI
100
AcDbLine
 62
7
  6
CONTINUOUS
 10
-0.0690146236
 20
-0.3686714875
 11
-0.1587395625
 21
0.0125936923
  0
LWPOLYLINE
  5
286
100
AcDbEntity
  8
0
100
AcDbPolyline
 62
7
  6
CONTINUOUS
 90
13
 70
0
 10
0.6570187653
 20
-3.4140532288
 10
0.6628420694
 20
-3.4442521979
 10
0.6662517178
 20
-3.4726152144
 10
0.6672476361
 20
-3.4991423214
 10
0.6657086741
 20
-3.5239754553
 10
0.6617558594
 20
-3.5469727508
 10
0.6557522837
 20
-3.5677086074
 10
0.6476956653
 20
-3.5861285128
 10
0.6375879545
 20
-3.6022871719
 10
0.6257984328
 20
-3.6159229021
 10
0.6123719713
 20
-3.6270205693
 10
0.5972633047
 20
-3.6355955368
 10
0.5942445358
 20
-3.6369123067
  0
LWPOLYLINE
  5
287
100
AcDbEntity
  8
SUPERFICI
100
AcDbPolyline
 62
7
  6
CONTINUOUS
 90
4
 70
0
 10
0.6672476328
 20
-3.4991423747
 10
0.6662517155
 20
-3.4726152772
 10
0.6628420612
 20
-3.4442522005
 10
0.6570187461
 20
-3.4140531492
  0
LWPOLYLINE
  5
288
100
AcDbEntity
  8
SUPERFICI
100
AcDbPolyline
 62
7
  6
CONTINUOUS
 90
3
 70
0
 10
0.6617558469
 20
-3.5469727939
 10
0.6657086647
 20
-3.5239755668
 10
0.6672476346
 20
-3.4991424223
  0
LINE
  5
289
100
AcDbEntity
  8
SUPERFICI
100
AcDbLine
 62
7
  6
CONTINUOUS
 10
0.6557522659
 20
-3.5677086482
 11
0.6617558469
 21
-3.5469727939
  0
LWPOLYLINE
  5
28A
100
AcDbEntity
  8
SUPERFICI
100
AcDbPolyline
 62
7
  6
CONTINUOUS
 90
4
 70
0
 10
-1.3938059887
 20
-3.269315601
 10
-1.3796291071
 20
-3.2538880608
 10
-1.3675582732
 20
-3.2347448267
 10
-1.3575930866
 20
-3.2118856747
  0
LINE
  5
28B
100
AcDbEntity
  8
0
100
AcDbLine
 62
7
  6
CONTINUOUS
 10
-1.5144919569
 20
-2.0989685946
 11
-1.5058062575
 21
-2.0900256482
  0
LWPOLYLINE
  5
28C
100
AcDbEntity
  8
SUPERFICI
100
AcDbPolyline
 62
7
  6
CONTINUOUS
 90
7
 70
0
 10
-1.498747091
 20
-2.0841006808
 10
-1.5059327212
 20
-2.0901317929
 10
-1.5145705409
 20
-2.099049727
 10
-1.5223062703
 20
-2.1090655302
 10
-1.5290979306
 20
-2.1201332206
 10
-1.5349873959
 20
-2.1322987194
 10
-1.5399746088
 20
-2.145561993
  0
LINE
  5
28D
100
AcDbEntity
  8
0
100
AcDbLine
 62
7
  6
CONTINUOUS
 10
-1.5058062575
 20
-2.0900256482
 11
-1.4987465141
 21
-2.0841015848
  0
LWPOLYLINE
  5
28E
100
AcDbEntity
  8
SUPERFICI
100
AcDbPolyline
 62
7
  6
CONTINUOUS
 90
18
 70
0
 10
-1.9989887263
 20
-2.1218741362
 10
-1.9834650045
 20
-2.1094232273
 10
-1.9702811456
 20
-2.0939198938
 10
-1.9594548961
 20
-2.0752112759
 10
-1.9509679708
 20
-2.0534499202
 10
-1.9452428243
 20
-2.0294685041
 10
-1.9424277562
 20
-2.0031209717
 10
-1.9423742389
 20
-1.9745532466
 10
-1.9450598939
 20
-1.9450362132
 10
-1.9505920493
 20
-1.9146153131
 10
-1.958863614
 20
-1.8832452427
 10
-1.9695309648
 20
-1.8520609924
 10
-1.9826470425
 20
-1.8210830704
 10
-1.9981593988
 20
-1.7902912547
 10
-2.0155665709
 20
-1.7607595822
 10
-2.0348519025
 20
-1.7325337628
 10
-2.0560326041
 20
-1.7055684087
 10
-2.0786581325
 20
-1.6808009788
  0
LWPOLYLINE
  5
28F
100
AcDbEntity
  8
0
100
AcDbPolyline
 62
7
  6
CONTINUOUS
 90
14
 70
0
 10
-1.4987465141
 20
-2.0841015848
 10
-1.4962916923
 20
-2.0822866113
 10
-1.4860485614
 20
-2.0758730084
 10
-1.475032244
 20
-2.0707081565
 10
-1.4633986782
 20
-2.0668631084
 10
-1.4511377637
 20
-2.0643550913
 10
-1.4382597255
 20
-2.0631669505
 10
-1.4249510004
 20
-2.0633181716
 10
-1.4112033567
 20
-2.0648291419
 10
-1.397025124
 20
-2.0676795311
 10
-1.3826275786
 20
-2.071827748
 10
-1.3680811651
 20
-2.0772599399
 10
-1.3533154929
 20
-2.0839899909
 10
-1.3383305753
 20
-2.0920179088
  0
LINE
  5
290
100
AcDbEntity
  8
SUPERFICI
100
AcDbLine
 62
7
  6
CONTINUOUS
 10
-2.0149749648
 20
-2.1303307925
 11
-1.9989887844
 21
-2.1218741669
  0
LWPOLYLINE
  5
291
100
AcDbEntity
  8
RACCORDO
100
AcDbPolyline
 62
253
  6
CONTINUOUS
 90
16
 70
0
 10
6.9903236716
 20
2.4947983617
 10
6.9512255754
 20
2.476281559
 10
6.9088953389
 20
2.4601795221
 10
6.8637814269
 20
2.4466628426
 10
6.8163617955
 20
2.4358747223
 10
6.7671388288
 20
2.427929455
 10
6.716634016
 20
2.4229112164
 10
6.6653824269
 20
2.4208731718
 10
6.6139270429
 20
2.4218369132
 10
6.5628130045
 20
2.4257922303
 10
6.5125818358
 20
2.4326972187
 10
6.4637657074
 20
2.442478724
 10
6.4168817984
 20
2.4550331167
 10
6.3724268171
 20
2.4702273903
 10
6.3308717388
 20
2.4879005699
 10
6.2926568158
 20
2.5078654184
  0
LINE
  5
292
100
AcDbEntity
  8
0
100
AcDbLine
 62
7
  6
CONTINUOUS
 10
-2.0149749647
 20
-2.1303307926
 11
-2.0356766551
 21
-2.1364701778
  0
LWPOLYLINE
  5
293
100
AcDbEntity
  8
SUPERFICI
100
AcDbPolyline
 62
7
  6
CONTINUOUS
 90
3
 70
0
 10
-1.4206325315
 20
-3.2859274116
 10
-1.4103424708
 20
-3.2809927545
 10
-1.3938060082
 20
-3.2693156222
  0
LINE
  5
294
100
AcDbEntity
  8
0
100
AcDbLine
 62
7
  6
CONTINUOUS
 10
-1.4206325343
 20
-3.2859274064
 11
-1.4289856417
 21
-3.288954604
  0
LWPOLYLINE
  5
295
100
AcDbEntity
  8
RACCORDO
100
AcDbPolyline
 62
253
  6
CONTINUOUS
 90
10
 70
0
 10
7.013730927
 20
-22.1921426812
 10
7.0241431156
 20
-22.2484136772
 10
7.0387403259
 20
-22.3012220537
 10
7.0574359491
 20
-22.3502517102
 10
7.0801213508
 20
-22.3952109691
 10
7.1066598438
 20
-22.4358295968
 10
7.1368871691
 20
-22.4718608079
 10
7.170623838
 20
-22.5030900765
 10
7.2076695778
 20
-22.529332597
 10
7.2146004746
 20
-22.533472293
  0
LWPOLYLINE
  5
296
100
AcDbEntity
  8
SUPERFICI
100
AcDbPolyline
 62
7
  6
CONTINUOUS
 90
7
 70
0
 10
0.5942445369
 20
-3.6369123088
 10
0.5972633356
 20
-3.6355955256
 10
0.6123719787
 20
-3.6270205666
 10
0.6257984216
 20
-3.6159229131
 10
0.637587932
 20
-3.6022872053
 10
0.6476956365
 20
-3.5861285738
 10
0.6557522538
 20
-3.5677086901
  0
LINE
  5
297
100
AcDbEntity
  8
0
100
AcDbLine
 62
7
  6
CONTINUOUS
 10
0.5942445358
 20
-3.6369123067
 11
0.5807064278
 21
-3.6414319162
  0
LWPOLYLINE
  5
298
100
AcDbEntity
  8
RACCORDO
100
AcDbPolyline
 62
253
  6
CONTINUOUS
 90
19
 70
0
 10
7.7074934856
 20
-22.1387162116
 10
7.7127973469
 20
-22.1669743897
 10
7.7201281792
 20
-22.1932733423
 10
7.7294859825
 20
-22.2176130693
 10
7.740952804
 20
-22.2401343177
 10
7.7544465965
 20
-22.2606963404
 10
7.7697212186
 20
-22.2788768968
 10
7.786805648
 20
-22.2946165937
 10
7.8056709071
 20
-22.3079748242
 10
7.8259839212
 20
-22.3187075264
 10
7.8477752822
 20
-22.3267666019
 10
7.8710143982
 20
-22.3322001491
 10
7.895276419
 20
-22.334908401
 10
7.9205954379
 20
-22.3348308402
 10
7.9469373616
 20
-22.3320279841
 10
7.9737750597
 20
-22.3265816178
 10
8.0009328222
 20
-22.318519003
 10
8.0285863592
 20
-22.3078128779
 10
8.0567356707
 20
-22.2944632425
  0
LWPOLYLINE
  5
299
100
AcDbEntity
  8
RACCORDO
100
AcDbPolyline
 62
253
  6
CONTINUOUS
 90
10
 70
0
 10
6.2926568153
 20
-13.0050698409
 10
6.3176214055
 20
-14.0602801441
 10
6.3564036102
 20
-15.1073950854
 10
6.4089954393
 20
-16.1461930612
 10
6.4753864792
 20
-17.1764544614
 10
6.5555626144
 20
-18.1979611464
 10
6.6495060384
 20
-19.2104964878
 10
6.7571969604
 20
-20.2138461765
 10
6.8786136021
 20
-21.2077982737
 10
7.013730927
 20
-22.1921426812
  0
LWPOLYLINE
  5
29A
100
AcDbEntity
  8
RACCORDO
100
AcDbPolyline
 62
253
  6
CONTINUOUS
 90
10
 70
0
 10
6.9903236716
 20
-13.0026239621
 10
7.0151698007
 20
-14.0523177122
 10
7.0537386877
 20
-15.0935334448
 10
7.1060303326
 20
-16.1262711599
 10
7.172061944
 20
-17.1507509641
 10
7.2518163133
 20
-18.1667527508
 10
7.3452418147
 20
-19.1736162008
 10
7.4523212396
 20
-20.1711212077
 10
7.5730717966
 20
-21.159487878
 10
7.7074934856
 20
-22.1387162116
  0
LWPOLYLINE
  5
29B
100
AcDbEntity
  8
RACCORDO
100
AcDbPolyline
 62
253
  6
CONTINUOUS
 90
10
 70
0
 10
6.2926568153
 20
2.5078654181
 10
6.2667831054
 20
0.770102108
 10
6.2473780364
 20
-0.9641892993
 10
6.2344415618
 20
-2.6949780924
 10
6.2279735654
 20
-4.4222102207
 10
6.227973562
 20
-6.1458786127
 10
6.2344415527
 20
-7.8660226828
 10
6.2473780246
 20
-9.5826347983
 10
6.266783096
 20
-11.2956607732
 10
6.2926568153
 20
-13.0050698409
  0
LWPOLYLINE
  5
29C
100
AcDbEntity
  8
RACCORDO
100
AcDbPolyline
 62
253
  6
CONTINUOUS
 90
10
 70
0
 10
7.013730927
 20
12.4853505674
 10
6.8786136012
 20
11.3528981721
 10
6.757196959
 20
10.2258535655
 10
6.6495060368
 20
9.1044557571
 10
6.5555626132
 20
7.9889428286
 10
6.4753864787
 20
6.8795509494
 10
6.4089954394
 20
5.7765143294
 10
6.3564036105
 20
4.6800664145
 10
6.3176214058
 20
3.5904398339
 10
6.2926568153
 20
2.5078654181
  0
LWPOLYLINE
  5
29D
100
AcDbEntity
  8
RACCORDO
100
AcDbPolyline
 62
253
  6
CONTINUOUS
 90
10
 70
0
 10
7.7074934856
 20
12.4167943351
 10
7.573072897
 20
11.2902725565
 10
7.4523230918
 20
10.1695909667
 10
7.34524407
 20
9.0547495658
 10
7.2518185247
 20
7.945509345
 10
7.1720637629
 20
6.8421093131
 10
7.1060317046
 20
5.7452664961
 10
7.0537396567
 20
4.655219903
 10
7.0151703124
 20
3.5717305248
 10
6.9903236716
 20
2.4947983617
  0
LINE
  5
29E
100
AcDbEntity
  8
RACCORDO
100
AcDbLine
 62
253
  6
CONTINUOUS
 10
6.2926568153
 20
2.5078654181
 11
-8.539851433
 21
11.0719697857
  0
LWPOLYLINE
  5
29F
100
AcDbEntity
  8
RACCORDO
100
AcDbPolyline
 62
253
  6
CONTINUOUS
 90
10
 70
0
 10
6.9903236716
 20
2.4947983617
 10
6.964475449
 20
0.7587239893
 10
6.9450892803
 20
-0.9738215903
 10
6.9321651656
 20
-2.702838377
 10
6.9257031027
 20
-4.4283341666
 10
6.9257030937
 20
-6.1503011634
 10
6.9321651454
 20
-7.86871598
 10
6.9450892601
 20
-9.5835708208
 10
6.9644754355
 20
-11.2948734815
 10
6.9903236716
 20
-13.0026239621
  0
LWPOLYLINE
  5
2A0
100
AcDbEntity
  8
RACCORDO
100
AcDbPolyline
 62
253
  6
CONTINUOUS
 90
16
 70
0
 10
8.0567356707
 20
12.9552550951
 10
8.0538603744
 20
12.9984958427
 10
8.0472491179
 20
13.0435556918
 10
8.0369742246
 20
13.089941428
 10
8.0231481212
 20
13.1371453174
 10
8.0059221119
 20
13.1846506516
 10
7.985484726
 20
13.231937404
 10
7.962059644
 20
13.2784879485
 10
7.9359032613
 20
13.3237926968
 10
7.9073018935
 20
13.3673556673
 10
7.8765686086
 20
13.4086999715
 10
7.8440398232
 20
13.4473729918
 10
7.8100716443
 20
13.4829513187
 10
7.7750359231
 20
13.5150454463
 10
7.7393161796
 20
13.5433040272
 10
7.7033034365
 20
13.5674176868
  0
LINE
  5
2A1
100
AcDbEntity
  8
0
100
AcDbLine
 62
7
  6
CONTINUOUS
 10
8.7484506337
 20
13.3546406757
 11
8.7484506337
 21
-21.9358395557
  0
LWPOLYLINE
  5
2A2
100
AcDbEntity
  8
RACCORDO
100
AcDbPolyline
 62
253
  6
CONTINUOUS
 90
9
 70
0
 10
8.0567356707
 20
-22.2944632425
 10
8.0538602479
 20
-22.3364994375
 10
8.0472487092
 20
-22.3757831248
 10
8.036973429
 20
-22.4118842792
 10
8.0231468872
 20
-22.4444077137
 10
8.0059204383
 20
-22.4729974052
 10
7.9854826544
 20
-22.497340392
 10
7.962057261
 20
-22.5171701998
 10
7.9426950511
 20
-22.528940835
  0
LWPOLYLINE
  5
2A3
100
AcDbEntity
  8
RACCORDO
100
AcDbPolyline
 62
253
  6
CONTINUOUS
 90
16
 70
0
 10
6.9903236716
 20
-13.0026239621
 10
6.9512255748
 20
-13.0227359275
 10
6.9088953384
 20
-13.0404162274
 10
6.8637814269
 20
-13.0554775493
 10
6.8163617966
 20
-13.0677603268
 10
6.7671388313
 20
-13.0771344312
 10
6.7166340204
 20
-13.083500549
 10
6.6653824335
 20
-13.0867912348
 10
6.6139270519
 20
-13.0869716258
 10
6.562813016
 20
-13.0840398108
 10
6.5125818499
 20
-13.0780268507
 10
6.4637657241
 20
-13.0689964494
 10
6.4168818177
 20
-13.0570442788
 10
6.3724268388
 20
-13.0422969654
 10
6.3308717627
 20
-13.0249107485
 10
6.2926568416
 20
-13.0050698252
  0
LINE
  5
2A4
100
AcDbEntity
  8
RACCORDO
100
AcDbLine
 62
253
  6
CONTINUOUS
 10
7.013730927
 20
12.4853505674
 11
-7.8553783935
 21
21.0705879353
  0
LINE
  5
2A5
100
AcDbEntity
  8
RACCORDO
100
AcDbLine
 62
253
  6
CONTINUOUS
 10
7.703303434
 20
13.5674176854
 11
-7.1836296127
 21
22.1629462495
  0
LINE
  5
2A6
100
AcDbEntity
  8
0
100
AcDbLine
 62
7
  6
CONTINUOUS
 10
8.395018397
 20
13.966803266
 11
-6.5272166225
 21
22.5827147468
  0
LWPOLYLINE
  5
2A7
100
AcDbEntity
  8
RACCORDO
100
AcDbPolyline
 62
253
  6
CONTINUOUS
 90
16
 70
0
 10
7.7074934855
 20
-22.1387162115
 10
7.6688003327
 20
-22.1640793716
 10
7.6268697536
 20
-22.1869543121
 10
7.58214613
 20
-22.2070986038
 10
7.5351034443
 20
-22.2242987568
 10
7.4862402564
 20
-22.2383724832
 10
7.4360744201
 20
-22.2491706292
 10
7.3851375945
 20
-22.2565787558
 10
7.3339696098
 20
-22.2605183514
 10
7.2831127461
 20
-22.260947664
 10
7.233105986
 20
-22.2578621436
 10
7.1844793029
 20
-22.2512944907
 10
7.1377480441
 20
-22.2413143097
 10
7.0934074689
 20
-22.228027371
 10
7.0519275003
 20
-22.2115744897
 10
7.0137477443
 20
-22.1921300342
  0
LINE
  5
2A8
100
AcDbEntity
  8
0
100
AcDbLine
 62
253
  6
CONTINUOUS
 10
8.0567356707
 20
-22.2944632425
 11
8.7484506337
 21
-21.9358395557
  0
LINE
  5
2A9
100
AcDbEntity
  8
RACCORDO
100
AcDbLine
 62
7
  6
CONTINUOUS
 10
7.9426950511
 20
-22.528940835
 11
8.6381742092
 21
-22.1683655791
  0
ELLIPSE
  5
2AA
100
AcDbEntity
  8
0
100
AcDbEllipse
 62
7
  6
CONTINUOUS
 10
-6.5269742732
 20
22.174199739
 30
0.0
 11
-0.2501834304
 21
0.4333025529
 31
0.0
 40
0.5769361983
 41
-0.7851038024
 42
0.0263715828
  0
ELLIPSE
  5
2AB
100
AcDbEntity
  8
0
100
AcDbEllipse
 62
7
  6
CONTINUOUS
 10
8.3947760477
 20
-21.7313524504
 30
0.0
 11
-0.2501834304
 21
0.4333025529
 31
0.0
 40
0.5769361983
 41
-3.1679635486
 42
-2.3565853618
  0
ELLIPSE
  5
2AC
100
AcDbEntity
  8
0
100
AcDbEllipse
 62
7
  6
CONTINUOUS
 10
8.3947760477
 20
13.5585681172
 30
0.0
 11
-0.2500121049
 21
0.4330057129
 31
0.0
 40
0.5777274115
 41
-2.3559002616
 42
-0.7857891675
  0
ENDSEC
  0
SECTION
  2
OBJECTS
  0
DICTIONARY
  5
C
100
AcDbDictionary
280
0
281
1
  3
ACAD_GROUP
350
D
  3
ACAD_MLINESTYLE
350
17
  3
ACAD_LAYOUT
350
1A
  3
ACAD_PLOTSETTINGS
350
19
  3
ACAD_PLOTSTYLENAME
350
E
  0
DICTIONARY
  5
D
102
{ACAD_REACTORS
330
C
102
}
100
AcDbDictionary
280
0
281
1
  0
ACDBDICTIONARYWDFLT
  5
E
102
{ACAD_REACTORS
330
C
102
}
100
AcDbDictionary
281
1
  3
Normal
350
F
100
AcDbDictionaryWithDefault
340
F
  0
DICTIONARY
  5
17
102
{ACAD_REACTORS
330
C
102
}
100
AcDbDictionary
280
0
281
1
  3
Standard
350
18
  0
DICTIONARY
  5
19
102
{ACAD_REACTORS
330
C
102
}
100
AcDbDictionary
281
1
  0
DICTIONARY
  5
1A
102
{ACAD_REACTORS
330
C
102
}
100
AcDbDictionary
281
1
  3
Model
350
2AD
  3
Layout1
350
2AE
  0
ACDBPLACEHOLDER
  5
F
102
{ACAD_REACTORS
330
E
102
}
  0
MLINESTYLE
  5
18
102
{ACAD_REACTORS
330
17
102
}
100
AcDbMlineStyle
  2
STANDARD
 70
0
  3

 62
256
 51
90.0
 52
90.0
 71
2
 49
0.5
 62
256
  6
BYLAYER
 49
-0.5
 62
256
  6
BYLAYER
  0
LAYOUT
  5
2AD
102
{ACAD_REACTORS
330
1A
102
}
100
AcDbPlotSettings
  1

  2
none_device
  4
ISO_A4_(297.00_x_210.00_MM)
  6

 40
0.0
 41
0.0
 42
0.0
 43
0.0
 44
297.0
 45
210.0
 46
0.0
 47
0.0
 48
0.0
 49
0.0
140
0.0
141
0.0
142
1.0
143
1.0
 70
1024
 72
1
 73
0
 74
0
  7

 75
0
147
1.0
148
0.0
149
0.0
100
AcDbLayout
  1
Model
 70
0
 71
0
 10
0.0
 20
0.0
 11
297.0
 21
210.0
 12
0.0
 22
0.0
 32
0.0
 14
0.0
 24
0.0
 34
0.0
 15
0.0
 25
0.0
 35
0.0
146
0.0
 13
0.0
 23
0.0
 33
0.0
 16
1.0
 26
0.0
 36
0.0
 17
0.0
 27
1.0
 37
0.0
 76
0
330
218
345
0
346
0
  0
LAYOUT
  5
2AE
102
{ACAD_REACTORS
330
1A
102
}
100
AcDbPlotSettings
  1

  2
none_device
  4
ISO_A4_(297.00_x_210.00_MM)
  6

 40
0.0
 41
0.0
 42
0.0
 43
0.0
 44
297.0
 45
210.0
 46
0.0
 47
0.0
 48
0.0
 49
0.0
140
0.0
141
0.0
142
1.0
143
1.0
 70
0
 72
1
 73
0
 74
0
  7

 75
0
147
1.0
148
0.0
149
0.0
100
AcDbLayout
  1
Layout1
 70
0
 71
1
 10
0.0
 20
0.0
 11
297.0
 21
210.0
 12
0.0
 22
0.0
 32
0.0
 14
0.0
 24
0.0
 34
0.0
 15
0.0
 25
0.0
 35
0.0
146
0.0
 13
0.0
 23
0.0
 33
0.0
 16
1.0
 26
0.0
 36
0.0
 17
0.0
 27
1.0
 37
0.0
 76
0
330
219
345
0
346
0
  0
ENDSEC
  0
EOF
