  0
SECTION
  2
HEADER
  9
$ACADVER
  1
AC1015
  9
$DWGCODEPAGE
  3
ANSI_1252
  9
$EXTMAX
 10
297.0
 20
210.0
 30
0.0
  9
$EXTMIN
 10
0.0
 20
0.0
 30
0.0
  9
$LIMMIN
 10
0.0
 20
0.0
  9
$LIMMAX
 10
297.0
 20
210.0
  9
$VIEWCTR
 10
148.5
 20
105.0
  9
$VIEWSIZE
 40
210.0
  9
$CLAYER
  8
0
  9
$LTSCALE
 40
16.335
  9
$CELTYPE
  6
BYLAYER
  9
$DIMSCALE
 40
1.0
  9
$DIMASZ
 40
3.0
  9
$DIMEXO
 40
1.85625
  9
$DIMDLI
 40
11.286
  9
$DIMEXE
 40
5.346
  9
$DIMCEN
 40
2.673
  9
$DIMLFAC
 40
1.0
  9
$DIMBLK
  1
_FILLED
  9
$DIMTXT
 40
3.0
  9
$DIMTOL
 70
1
  9
$DIMLIM
 70
0
  9
$DIMTFAC
 40
1.0
  9
$DIMTP
 40
0.01
  9
$DIMTM
 40
0.01
  9
$PDMODE
 70
3
  9
$PDSIZE
 40
3.0
  9
$HANDSEED
  5
2FA
  9
$TILEMODE
 70
1
  9
$MEASUREMENT
 70
1
  9
$INSUNITS
 70
4
  0
ENDSEC
  0
SECTION
  2
CLASSES
  0
CLASS
  1
ACDBDICTIONARYWDFLT
  2
AcDbDictionaryWithDefault
  3
AutoCAD 2000
 90
0
280
0
281
0
  0
CLASS
  1
ACDBPLACEHOLDER
  2
AcDbPlaceHolder
  3
AutoCAD 2000
 90
0
280
0
281
0
  0
CLASS
  1
LAYOUT
  2
AcDbLayout
  3
AutoCAD 2000
 90
0
280
0
281
0
  0
ENDSEC
  0
SECTION
  2
TABLES
  0
TABLE
  2
VPORT
  5
8
100
AcDbSymbolTable
 70
2
  0
VPORT
  5
1F4
100
AcDbSymbolTableRecord
100
AcDbViewportTableRecord
  2
*ACTIVE
 70
0
 10
0.0
 20
0.0
 11
1.0
 21
1.0
 12
148.5
 22
105.0
 13
0.0
 23
0.0
 14
1.0
 24
1.0
 15
0.0
 25
0.0
 16
0.0
 26
0.0
 36
1.0
 17
0.0
 27
0.0
 37
0.0
 40
210.0
 41
1.4142857143
 42
50.0
 43
0.0
 44
0.0
 50
0.0
 51
0.0
 71
0
 72
100
 73
1
 74
1
 75
0
 76
0
 77
0
 78
0
  0
ENDTAB
  0
TABLE
  2
LTYPE
  5
5
100
AcDbSymbolTable
 70
6
  0
LTYPE
  5
14
100
AcDbSymbolTableRecord
100
AcDbLinetypeTableRecord
  2
BYBLOCK
 70
0
  3

 72
65
 73
0
 40
0.0
  0
LTYPE
  5
15
100
AcDbSymbolTableRecord
100
AcDbLinetypeTableRecord
  2
BYLAYER
 70
0
  3

 72
65
 73
0
 40
0.0
  0
LTYPE
  5
16
100
AcDbSymbolTableRecord
100
AcDbLinetypeTableRecord
  2
CONTINUOUS
 70
64
  3
Solid line
 72
65
 73
0
 40
0.0
  0
LTYPE
  5
1F5
100
AcDbSymbolTableRecord
100
AcDbLinetypeTableRecord
  2
CENTER
 70
64
  3
____ _ ____ _ ____ _ ____ _ ____ _ ____ _ ____
 72
65
 73
4
 40
0.6
 49
0.375
 74
0
 49
-0.075
 74
0
 49
0.075
 74
0
 49
-0.075
 74
0
  0
LTYPE
  5
1F6
100
AcDbSymbolTableRecord
100
AcDbLinetypeTableRecord
  2
HIDDEN
 70
64
  3
- - - - - - - - - - - - - - - - - - - -
 72
65
 73
2
 40
0.2
 49
0.1
 74
0
 49
-0.1
 74
0
  0
LTYPE
  5
1F7
100
AcDbSymbolTableRecord
100
AcDbLinetypeTableRecord
  2
PHANTOM
 70
64
  3
_____ _ _ _____ _ _ _____ _ _ _____
 72
65
 73
6
 40
0.8
 49
0.45
 74
0
 49
-0.05
 74
0
 49
0.1
 74
0
 49
-0.05
 74
0
 49
0.1
 74
0
 49
-0.05
 74
0
  0
LTYPE
  5
1F8
100
AcDbSymbolTableRecord
100
AcDbLinetypeTableRecord
  2
DOT
 70
64
  3
. . . . . . . . . . . . . . . . . . . .
 72
65
 73
2
 40
0.2
 49
0.1
 74
0
 49
-0.1
 74
0
  0
LTYPE
  5
1F9
100
AcDbSymbolTableRecord
100
AcDbLinetypeTableRecord
  2
DASHED
 70
64
  3
- - - - - - - - - - - - - - - - - - - -
 72
65
 73
2
 40
0.2
 49
0.1
 74
0
 49
-0.1
 74
0
  0
ENDTAB
  0
TABLE
  2
LAYER
  5
2
100
AcDbSymbolTable
 70
36
  0
LAYER
  5
10
100
AcDbSymbolTableRecord
100
AcDbLayerTableRecord
  2
0
 70
0
 62
7
  6
CONTINUOUS
370
-3
390
F
  0
LAYER
  5
1FA
100
AcDbSymbolTableRecord
100
AcDbLayerTableRecord
  2
DEFAULT_1
 70
0
 62
7
  6
CENTER
370
-3
390
F
  0
LAYER
  5
1FB
100
AcDbSymbolTableRecord
100
AcDbLayerTableRecord
  2
DEFAULT_2
 70
0
 62
7
  6
HIDDEN
370
-3
390
F
  0
LAYER
  5
1FC
100
AcDbSymbolTableRecord
100
AcDbLayerTableRecord
  2
DEFAULT_3
 70
0
 62
7
  6
PHANTOM
370
-3
390
F
  0
LAYER
  5
1FD
100
AcDbSymbolTableRecord
100
AcDbLayerTableRecord
  2
ASSI
 70
0
 62
7
  6
CONTINUOUS
370
-3
390
F
  0
LAYER
  5
1FE
100
AcDbSymbolTableRecord
100
AcDbLayerTableRecord
  2
COLOR9
 70
0
 62
7
  6
CONTINUOUS
370
-3
390
F
  0
LAYER
  5
1FF
100
AcDbSymbolTableRecord
100
AcDbLayerTableRecord
  2
COORDINATE
 70
0
 62
7
  6
CONTINUOUS
370
-3
390
F
  0
LAYER
  5
200
100
AcDbSymbolTableRecord
100
AcDbLayerTableRecord
  2
COORD_ORIGINE
 70
0
 62
7
  6
CONTINUOUS
370
-3
390
F
  0
LAYER
  5
201
100
AcDbSymbolTableRecord
100
AcDbLayerTableRecord
  2
COSMETICI
 70
0
 62
7
  6
CONTINUOUS
370
-3
390
F
  0
LAYER
  5
202
100
AcDbSymbolTableRecord
100
AcDbLayerTableRecord
  2
CURVE
 70
0
 62
7
  6
CONTINUOUS
370
-3
390
F
  0
LAYER
  5
203
100
AcDbSymbolTableRecord
100
AcDbLayerTableRecord
  2
DRAFT
 70
0
 62
7
  6
CONTINUOUS
370
-3
390
F
  0
LAYER
  5
204
100
AcDbSymbolTableRecord
100
AcDbLayerTableRecord
  2
IMPORT_IGES
 70
0
 62
7
  6
CONTINUOUS
370
-3
390
F
  0
LAYER
  5
205
100
AcDbSymbolTableRecord
100
AcDbLayerTableRecord
  2
INTF_1
 70
0
 62
7
  6
CONTINUOUS
370
-3
390
F
  0
LAYER
  5
206
100
AcDbSymbolTableRecord
100
AcDbLayerTableRecord
  2
INTF_8
 70
0
 62
7
  6
CONTINUOUS
370
-3
390
F
  0
LAYER
  5
207
100
AcDbSymbolTableRecord
100
AcDbLayerTableRecord
  2
INTF_YELLOW
 70
0
 62
7
  6
CONTINUOUS
370
-3
390
F
  0
LAYER
  5
208
100
AcDbSymbolTableRecord
100
AcDbLayerTableRecord
  2
NOTE
 70
0
 62
7
  6
CONTINUOUS
370
-3
390
F
  0
LAYER
  5
209
100
AcDbSymbolTableRecord
100
AcDbLayerTableRecord
  2
PIANI
 70
0
 62
7
  6
CONTINUOUS
370
-3
390
F
  0
LAYER
  5
20A
100
AcDbSymbolTableRecord
100
AcDbLayerTableRecord
  2
PIANI_ORIGINE
 70
0
 62
7
  6
CONTINUOUS
370
-3
390
F
  0
LAYER
  5
20B
100
AcDbSymbolTableRecord
100
AcDbLayerTableRecord
  2
PIANI_RIFERIMENTO
 70
0
 62
7
  6
CONTINUOUS
370
-3
390
F
  0
LAYER
  5
20C
100
AcDbSymbolTableRecord
100
AcDbLayerTableRecord
  2
PUNTI
 70
0
 62
7
  6
CONTINUOUS
370
-3
390
F
  0
LAYER
  5
20D
100
AcDbSymbolTableRecord
100
AcDbLayerTableRecord
  2
RACCORDO
 70
0
 62
7
  6
CONTINUOUS
370
-3
390
F
  0
LAYER
  5
20E
100
AcDbSymbolTableRecord
100
AcDbLayerTableRecord
  2
RGB__255__255__255__
 70
0
 62
7
  6
CONTINUOUS
370
-3
390
F
  0
LAYER
  5
20F
100
AcDbSymbolTableRecord
100
AcDbLayerTableRecord
  2
RGB____0____0____0__
 70
0
 62
7
  6
CONTINUOUS
370
-3
390
F
  0
LAYER
  5
210
100
AcDbSymbolTableRecord
100
AcDbLayerTableRecord
  2
SIMBOLI
 70
0
 62
7
  6
CONTINUOUS
370
-3
390
F
  0
LAYER
  5
211
100
AcDbSymbolTableRecord
100
AcDbLayerTableRecord
  2
SMUSSO
 70
0
 62
7
  6
CONTINUOUS
370
-3
390
F
  0
LAYER
  5
212
100
AcDbSymbolTableRecord
100
AcDbLayerTableRecord
  2
SNAPLINE
 70
0
 62
7
  6
CONTINUOUS
370
-3
390
F
  0
LAYER
  5
213
100
AcDbSymbolTableRecord
100
AcDbLayerTableRecord
  2
SUPERFICI
 70
0
 62
7
  6
CONTINUOUS
370
-3
390
F
  0
LAYER
  5
214
100
AcDbSymbolTableRecord
100
AcDbLayerTableRecord
  2
TRASH
 70
0
 62
7
  6
CONTINUOUS
370
-3
390
F
  0
LAYER
  5
215
100
AcDbSymbolTableRecord
100
AcDbLayerTableRecord
  2
XSEC_DATUMS
 70
0
 62
7
  6
CONTINUOUS
370
-3
390
F
  0
ENDTAB
  0
TABLE
  2
STYLE
  5
3
100
AcDbSymbolTable
 70
1
  0
STYLE
  5
11
100
AcDbSymbolTableRecord
100
AcDbTextStyleTableRecord
  2
STANDARD
 70
0
 40
0.0
 41
0.8
 50
0.0
 71
0
 42
0.2
  3
txt
  4

  0
STYLE
  5
216
100
AcDbSymbolTableRecord
100
AcDbTextStyleTableRecord
  2
TEXTSTYLE_1
 70
0
 40
0.0
 41
0.8
 50
0.0
 71
0
 42
0.2
  3
gdt
  4

  0
ENDTAB
  0
TABLE
  2
VIEW
  5
6
100
AcDbSymbolTable
 70
0
  0
ENDTAB
  0
TABLE
  2
UCS
  5
7
100
AcDbSymbolTable
 70
0
  0
ENDTAB
  0
TABLE
  2
APPID
  5
9
100
AcDbSymbolTable
 70
1
  0
APPID
  5
217
100
AcDbSymbolTableRecord
100
AcDbRegAppTableRecord
  2
ACAD
 70
0
  0
ENDTAB
  0
TABLE
  2
BLOCK_RECORD
  5
1
100
AcDbSymbolTable
 70
0
  0
BLOCK_RECORD
  5
218
100
AcDbSymbolTableRecord
100
AcDbBlockTableRecord
  2
*Model_Space
  0
BLOCK_RECORD
  5
219
100
AcDbSymbolTableRecord
100
AcDbBlockTableRecord
  2
*Paper_Space
  0
ENDTAB
  0
TABLE
  2
DIMSTYLE
  5
A
100
AcDbSymbolTable
 70
1
100
AcDbDimStyleTable
 71
0
  0
DIMSTYLE
105
21A
100
AcDbSymbolTableRecord
100
AcDbDimStyleTableRecord
  2
STANDARD
 70
0
  3

  4

 40
1.0
 41
3.0
 42
0.0625
 43
0.38
 44
0.18
 45
0.0
 46
0.0
 47
0.01
 48
0.01
140
3.0
141
0.09
142
0.0
143
25.4
144
1.0
145
0.0
146
1.0
147
0.09
 71
1.0
 72
0.0
 73
0
 74
0
 75
0
 76
0
 77
1
 78
8
170
0
171
2
172
0
173
0
174
0
175
0
176
0
177
0
178
0
270
2
271
2
272
2
273
2
274
2
275
0
280
0
281
0
282
0
283
1
284
8
285
0
286
0
287
3
288
0
340
11
  0
ENDTAB
  0
ENDSEC
  0
SECTION
  2
BLOCKS
  0
BLOCK
  5
20
100
AcDbEntity
  8
0
100
AcDbBlockBegin
  2
*Model_Space
 70
0
 10
0.0
 20
0.0
 30
0.0
  3
*Model_Space
  1

  0
ENDBLK
  5
21
100
AcDbEntity
  8
0
100
AcDbBlockEnd
  0
BLOCK
  5
1C
100
AcDbEntity
  8
0
100
AcDbBlockBegin
  2
*Paper_Space
 70
0
 10
0.0
 20
0.0
 30
0.0
  3
*Paper_Space
  1

  0
ENDBLK
  5
1D
100
AcDbEntity
  8
0
100
AcDbBlockEnd
  0
ENDSEC
  0
SECTION
  2
ENTITIES
  0
LWPOLYLINE
  5
21B
100
AcDbEntity
  8
RACCORDO
100
AcDbPolyline
 62
7
  6
CONTINUOUS
 90
15
 70
0
 10
-7.4435935134
 20
22.1815103142
 10
-7.4802889002
 20
22.1568927819
 10
-7.5439621225
 20
22.1084183688
 10
-7.6039938447
 20
22.0553715185
 10
-7.6605815393
 20
21.9980133749
 10
-7.7137022798
 20
21.9366518889
 10
-7.7630278977
 20
21.8719167198
 10
-7.8085235606
 20
21.8040831845
 10
-7.8500868415
 20
21.7333467265
 10
-7.8873113329
 20
21.6604754175
 10
-7.9200824322
 20
21.5856907419
 10
-7.9482290861
 20
21.5091635133
 10
-7.9714005363
 20
21.4315490492
 10
-7.9893591079
 20
21.3530865091
 10
-8.0023511244
 20
21.2699268215
  0
LINE
  5
21C
100
AcDbEntity
  8
RACCORDO
100
AcDbLine
 62
7
  6
CONTINUOUS
 10
-7.4437486135
 20
22.1814282109
 11
-6.783763535
 21
22.6034810173
  0
LINE
  5
21D
100
AcDbEntity
  8
0
100
AcDbLine
 62
253
  6
CONTINUOUS
 10
-7.1836296127
 20
22.1629462495
 11
-6.5272166225
 21
22.5827147468
  0
LWPOLYLINE
  5
21E
100
AcDbEntity
  8
RACCORDO
100
AcDbPolyline
 62
253
  6
CONTINUOUS
 90
9
 70
0
 10
-7.4436012042
 20
22.1815223683
 10
-7.4238491209
 20
22.1923238687
 10
-7.3949616352
 20
22.2026930557
 10
-7.3636594587
 20
22.2082183632
 10
-7.3302852456
 20
22.2088393074
 10
-7.2952043323
 20
22.2045490909
 10
-7.2588007377
 20
22.1953946773
 10
-7.2214729597
 20
22.1814762768
 10
-7.1836296127
 20
22.1629462495
  0
LWPOLYLINE
  5
21F
100
AcDbEntity
  8
RACCORDO
100
AcDbPolyline
 62
7
  6
CONTINUOUS
 90
12
 70
0
 10
7.2146891434
 20
-22.5335176347
 10
7.2221454934
 20
-22.5377749509
 10
7.288180852
 20
-22.570317331
 10
7.3570517643
 20
-22.5954182581
 10
7.428258977
 20
-22.6130547385
 10
7.5021444589
 20
-22.6232462163
 10
7.5781211694
 20
-22.6256661206
 10
7.6553531235
 20
-22.620097376
 10
7.7341170793
 20
-22.6062503107
 10
7.8142133236
 20
-22.5836647515
 10
7.8947138245
 20
-22.5521070281
 10
7.9423501568
 20
-22.5291065395
  0
LINE
  5
220
100
AcDbEntity
  8
RACCORDO
100
AcDbLine
 62
7
  6
CONTINUOUS
 10
-7.6582197692
 20
-13.9460931389
 11
-7.6588404476
 21
-13.9457356798
  0
LINE
  5
221
100
AcDbEntity
  8
ASSI
100
AcDbLine
 62
7
  6
CONTINUOUS
 10
7.2155201685
 20
-22.53400508
 11
-7.6588748721
 21
-13.9457158035
  0
LINE
  5
222
100
AcDbEntity
  8
RACCORDO
100
AcDbLine
 62
253
  6
CONTINUOUS
 10
7.013730927
 20
-22.1921426812
 11
-7.8553783935
 21
-13.6069053132
  0
LINE
  5
223
100
AcDbEntity
  8
RACCORDO
100
AcDbLine
 62
7
  6
CONTINUOUS
 10
7.2146004746
 20
-22.533472293
 11
7.2154860369
 21
-22.5339853728
  0
LWPOLYLINE
  5
224
100
AcDbEntity
  8
RACCORDO
100
AcDbPolyline
 62
253
  6
CONTINUOUS
 90
9
 70
0
 10
-7.666454527
 20
-13.9411997555
 10
-7.7025389989
 20
-13.915512259
 10
-7.7354048021
 20
-13.8847858173
 10
-7.7648532415
 20
-13.8492043252
 10
-7.7907032508
 20
-13.8089832194
 10
-7.8128028103
 20
-13.7643622184
 10
-7.8310193124
 20
-13.7156092004
 10
-7.8452400431
 20
-13.6630181986
 10
-7.8553783935
 20
-13.6069053132
  0
LWPOLYLINE
  5
225
100
AcDbEntity
  8
RACCORDO
100
AcDbPolyline
 62
7
  6
CONTINUOUS
 90
8
 70
0
 10
-7.9198972205
 20
-13.6711300311
 10
-7.8879216971
 20
-13.7261536117
 10
-7.8519008685
 20
-13.7770485098
 10
-7.8122006721
 20
-13.8236225748
 10
-7.768833479
 20
-13.866067595
 10
-7.7220452756
 20
-13.9042122915
 10
-7.6724029546
 20
-13.9376780102
 10
-7.6581368026
 20
-13.9461357704
  0
LWPOLYLINE
  5
226
100
AcDbEntity
  8
RACCORDO
100
AcDbPolyline
 62
253
  6
CONTINUOUS
 90
10
 70
0
 10
-8.0023511244
 20
21.2699268215
 10
-8.0028655363
 20
21.2643137937
 10
-8.0018982916
 20
21.2392681487
 10
-7.9956731891
 20
21.2139276386
 10
-7.9842562031
 20
21.1885608253
 10
-7.9677683323
 20
21.1634365493
 10
-7.946384317
 20
21.138821081
 10
-7.9203307877
 20
21.1149752982
 10
-7.8898838628
 20
21.0921519214
 10
-7.8553662226
 20
21.0705928355
  0
LWPOLYLINE
  5
227
100
AcDbEntity
  8
RACCORDO
100
AcDbPolyline
 62
7
  6
CONTINUOUS
 90
10
 70
0
 10
-8.0023327993
 20
21.2701651846
 10
-8.1251646728
 20
20.1839171488
 10
-8.2423109865
 20
19.0391081468
 10
-8.3461085766
 20
17.9003856995
 10
-8.4365277196
 20
16.7680286138
 10
-8.5135489259
 20
15.6422659461
 10
-8.5771551143
 20
14.5233082171
 10
-8.6273292614
 20
13.4113837626
 10
-8.6640582256
 20
12.3067638048
 10
-8.6862988824
 20
11.2762486803
  0
LWPOLYLINE
  5
228
100
AcDbEntity
  8
RACCORDO
100
AcDbPolyline
 62
253
  6
CONTINUOUS
 90
19
 70
0
 10
-7.8553783935
 20
21.0705879353
 10
-7.8452401035
 20
21.1387241862
 10
-7.8310193816
 20
21.2081717256
 10
-7.8128027626
 20
21.2785144578
 10
-7.7907027907
 20
21.3493331251
 10
-7.7648520838
 20
21.4202017728
 10
-7.7354029757
 20
21.4906903166
 10
-7.702536767
 20
21.5603758708
 10
-7.6664520367
 20
21.6288434372
 10
-7.6273580008
 20
21.6956821348
 10
-7.5854929259
 20
21.7604931095
 10
-7.541110579
 20
21.8228891521
 10
-7.4944678242
 20
21.8824946302
 10
-7.4458469909
 20
21.9389552662
 10
-7.3955441729
 20
21.9919321847
 10
-7.3438547382
 20
22.0411010124
 10
-7.2910894944
 20
22.0861660873
 10
-7.2375726517
 20
22.1268618606
 10
-7.1836296127
 20
22.1629462495
  0
LWPOLYLINE
  5
229
100
AcDbEntity
  8
RACCORDO
100
AcDbPolyline
 62
253
  6
CONTINUOUS
 90
8
 70
0
 10
-8.0010133235
 20
-13.4130354916
 10
-7.9956848299
 20
-13.439178699
 10
-7.9842683801
 20
-13.4715595946
 10
-7.967780861
 20
-13.502589282
 10
-7.9463970139
 20
-13.5319388964
 10
-7.9203434731
 20
-13.5592973791
 10
-7.8898963643
 20
-13.5843747742
 10
-7.8553783779
 20
-13.6069053015
  0
LWPOLYLINE
  5
22A
100
AcDbEntity
  8
RACCORDO
100
AcDbPolyline
 62
7
  6
CONTINUOUS
 90
5
 70
0
 10
-8.0009974126
 20
-13.4130332628
 10
-7.9883931628
 20
-13.4826829265
 10
-7.9703701067
 20
-13.5495106314
 10
-7.9474299864
 20
-13.6123184236
 10
-7.9198972205
 20
-13.6711300311
  0
LINE
  5
22B
100
AcDbEntity
  8
RACCORDO
100
AcDbLine
 62
7
  6
CONTINUOUS
 10
-8.001089374
 20
-13.412490076
 11
-8.0010133235
 21
-13.4130354916
  0
LWPOLYLINE
  5
22C
100
AcDbEntity
  8
RACCORDO
100
AcDbPolyline
 62
253
  6
CONTINUOUS
 90
10
 70
0
 10
-7.8553783935
 20
-13.6069053132
 10
-7.9836354063
 20
-12.6265219639
 10
-8.098889472
 20
-11.6361280609
 10
-8.2011155543
 20
-10.6359337021
 10
-8.2902910141
 20
-9.6261513235
 10
-8.3663969212
 20
-8.6069947372
 10
-8.4294180508
 20
-7.578679081
 10
-8.4793411482
 20
-6.5414219975
 10
-8.5161549389
 20
-5.4954435937
 10
-8.539851433
 20
-4.4409654734
  0
LWPOLYLINE
  5
22D
100
AcDbEntity
  8
RACCORDO
100
AcDbPolyline
 62
253
  6
CONTINUOUS
 90
9
 70
0
 10
-8.6862963898
 20
-4.2371999239
 10
-8.6852739743
 20
-4.2534047182
 10
-8.679309928
 20
-4.2834290748
 10
-8.6681233776
 20
-4.3128779366
 10
-8.6518328384
 20
-4.3414393094
 10
-8.6306108993
 20
-4.3688106019
 10
-8.6046823946
 20
-4.3947018309
 10
-8.5743220221
 20
-4.4188386934
 10
-8.5398514327
 20
-4.4409654732
  0
LWPOLYLINE
  5
22E
100
AcDbEntity
  8
RACCORDO
100
AcDbPolyline
 62
253
  6
CONTINUOUS
 90
9
 70
0
 10
-8.6862988824
 20
11.2762486803
 10
-8.6852739585
 20
11.2554038393
 10
-8.6793099113
 20
11.2264029864
 10
-8.6681233605
 20
11.1978461544
 10
-8.651832821
 20
11.1700358867
 10
-8.6306108819
 20
11.1432668171
 10
-8.6046823776
 20
11.1178225488
 10
-8.5743220057
 20
11.0939726492
 10
-8.5398514172
 20
11.0719697945
  0
LWPOLYLINE
  5
22F
100
AcDbEntity
  8
RACCORDO
100
AcDbPolyline
 62
7
  6
CONTINUOUS
 90
10
 70
0
 10
-8.6862963681
 20
-4.2371996827
 10
-8.663890318
 20
-5.2466005725
 10
-8.6270615082
 20
-6.3073328377
 10
-8.5767640341
 20
-7.3592423987
 10
-8.5130052221
 20
-8.4020708107
 10
-8.4357962133
 20
-9.4356083018
 10
-8.3451479039
 20
-10.4596637367
 10
-8.2410737868
 20
-11.474028561
 10
-8.1235977057
 20
-12.4784551759
 10
-8.001089374
 20
-13.412490076
  0
LWPOLYLINE
  5
230
100
AcDbEntity
  8
RACCORDO
100
AcDbPolyline
 62
253
  6
CONTINUOUS
 90
10
 70
0
 10
-8.539851433
 20
-4.4409654734
 10
-8.5644059764
 20
-2.7323180813
 10
-8.5828216658
 20
-1.0198633632
 10
-8.5950985498
 20
0.6963679145
 10
-8.6012367466
 20
2.4163215659
 10
-8.6012367434
 20
4.139989958
 10
-8.595098541
 20
5.8674125052
 10
-8.5828216544
 20
7.5985821361
 10
-8.5644059672
 20
9.3334448001
 10
-8.539851433
 20
11.0719697857
  0
LWPOLYLINE
  5
231
100
AcDbEntity
  8
RACCORDO
100
AcDbPolyline
 62
7
  6
CONTINUOUS
 90
10
 70
0
 10
-8.6862988939
 20
11.2762488875
 10
-8.7102720544
 20
9.5844841954
 10
-8.7289784946
 20
7.8354325113
 10
-8.7414464963
 20
6.0900868759
 10
-8.7476756556
 20
4.3484830917
 10
-8.747665846
 20
2.6106508496
 10
-8.7414169921
 20
0.8766175387
 10
-8.7289290732
 20
-0.8535871503
 10
-8.7102023459
 20
-2.57992775
 10
-8.6862963898
 20
-4.2371999239
  0
LWPOLYLINE
  5
232
100
AcDbEntity
  8
RACCORDO
100
AcDbPolyline
 62
253
  6
CONTINUOUS
 90
10
 70
0
 10
-8.539851433
 20
11.0719697857
 10
-8.5161549395
 20
12.1552763848
 10
-8.4793411491
 20
13.2460395031
 10
-8.429418052
 20
14.3440283103
 10
-8.3663969222
 20
15.4490106739
 10
-8.2902910146
 20
16.5607526511
 10
-8.2011155545
 20
17.6790185419
 10
-8.0988894722
 20
18.8035716804
 10
-7.9836354064
 20
19.9341744813
 10
-7.8553783935
 20
21.0705879353
  0
LINE
  5
233
100
AcDbEntity
  8
0
100
AcDbLine
 62
253
  6
CONTINUOUS
 10
8.395018397
 20
13.966803266
 11
7.703303434
 21
13.5674176854
  0
LWPOLYLINE
  5
234
100
AcDbEntity
  8
RACCORDO
100
AcDbPolyline
 62
253
  6
CONTINUOUS
 90
16
 70
0
 10
7.7074934856
 20
12.4167943351
 10
7.6687998096
 20
12.4039750769
 10
7.6268684983
 20
12.3935111029
 10
7.5821439565
 20
12.3855133142
 10
7.5351001923
 20
12.3800664747
 10
7.486235794
 20
12.377228312
 10
7.4360686459
 20
12.3770289062
 10
7.3851304389
 20
12.3794703707
 10
7.3339610363
 20
12.3845268297
 10
7.2831027515
 20
12.3921446931
 10
7.2330946007
 20
12.4022432235
 10
7.1844665898
 20
12.414715393
 10
7.1377340977
 20
12.4294290168
 10
7.0933924137
 20
12.4462281541
 10
7.0519114884
 20
12.4649347612
 10
7.013730953
 20
12.4853505779
  0
LINE
  5
235
100
AcDbEntity
  8
RACCORDO
100
AcDbLine
 62
253
  6
CONTINUOUS
 10
6.2926568153
 20
-13.0050698409
 11
-8.539851433
 21
-4.4409654734
  0
LWPOLYLINE
  5
236
100
AcDbEntity
  8
RACCORDO
100
AcDbPolyline
 62
253
  6
CONTINUOUS
 90
19
 70
0
 10
7.703303434
 20
13.5674176854
 10
7.64791518
 20
13.5321677456
 10
7.592981479
 20
13.4922900485
 10
7.5388277335
 20
13.4480266771
 10
7.4857702593
 20
13.3996477382
 10
7.4341277585
 20
13.3474443357
 10
7.3842192827
 20
13.2917271683
 10
7.3363417619
 20
13.2328346287
 10
7.2907766893
 20
13.1711214772
 10
7.2478021039
 20
13.1069511199
 10
7.207673059
 20
13.0407100235
 10
7.1706265349
 20
12.9727977848
 10
7.1368890635
 20
12.9036152867
 10
7.1066609562
 20
12.8335765274
 10
7.0801217812
 20
12.7631053926
 10
7.0574359913
 20
12.6926249692
 10
7.0387402443
 20
12.6225588794
 10
7.0241430446
 20
12.5533287136
 10
7.013730927
 20
12.4853505674
  0
LWPOLYLINE
  5
237
100
AcDbEntity
  8
RACCORDO
100
AcDbPolyline
 62
253
  6
CONTINUOUS
 90
19
 70
0
 10
8.0567356707
 20
12.9552550951
 10
8.0285933182
 20
12.9377604449
 10
8.0009494892
 20
12.9181706212
 10
7.9738041838
 20
12.8964856239
 10
7.9469834675
 20
12.87254136
 10
7.9206612748
 20
12.8465019225
 10
7.8953594092
 20
12.8188595906
 10
7.8711127493
 20
12.7895957741
 10
7.8478864166
 20
12.7587290632
 10
7.8260975792
 20
12.7268075074
 10
7.8057701045
 20
12.693806159
 10
7.7868801251
 20
12.6597499658
 10
7.7697732073
 20
12.62526182
 10
7.7544820819
 20
12.5903165149
 10
7.7409740179
 20
12.5549392572
 10
7.729496389
 20
12.5198285591
 10
7.7201316529
 20
12.4852172582
 10
7.7127973517
 20
12.4508725168
 10
7.7074934856
 20
12.4167943351
  0
LINE
  5
238
100
AcDbEntity
  8
0
100
AcDbLine
 62
253
  6
CONTINUOUS
 10
8.7484506337
 20
13.3546406757
 11
8.0567356707
 21
12.9552550951
  0
LWPOLYLINE
  5
239
100
AcDbEntity
  8
SUPERFICI
100
AcDbPolyline
 62
7
  6
CONTINUOUS
 90
21
 70
0
 10
-3.8224707314
 20
1.2500487822
 10
-3.8318982645
 20
1.2419213073
 10
-3.8451934401
 20
1.2263536628
 10
-3.8561373215
 20
1.2075771726
 10
-3.8647469653
 20
1.1857450712
 10
-3.8705945949
 20
1.1616930738
 10
-3.8735319679
 20
1.1352750879
 10
-3.8737070987
 20
1.1066373375
 10
-3.8711370044
 20
1.0770537778
 10
-3.8657141614
 20
1.046569965
 10
-3.8575463302
 20
1.0151402066
 10
-3.8469738379
 20
0.9839013638
 10
-3.8339440653
 20
0.9528737564
 10
-3.8185101241
 20
0.9220367809
 10
-3.8011711813
 20
0.892465773
 10
-3.7819443805
 20
0.864206176
 10
-3.7608131325
 20
0.837212227
 10
-3.738226124
 20
0.8124223834
 10
-3.7143330746
 20
0.7901493738
 10
-3.6889846657
 20
0.7700802384
 10
-3.6621810023
 20
0.7522149168
  0
LINE
  5
23A
100
AcDbEntity
  8
0
100
AcDbLine
 62
7
  6
CONTINUOUS
 10
-3.8318981927
 20
1.2419213693
 11
-3.8224707305
 21
1.2500487808
  0
LINE
  5
23B
100
AcDbEntity
  8
SUPERFICI
100
AcDbLine
 62
7
  6
CONTINUOUS
 10
-3.8162693901
 20
1.2544330305
 11
-3.8224707314
 21
1.2500487822
  0
LWPOLYLINE
  5
23C
100
AcDbEntity
  8
0
100
AcDbPolyline
 62
7
  6
CONTINUOUS
 90
9
 70
0
 10
-3.8224707305
 20
1.2500487808
 10
-3.8162692858
 20
1.2544330967
 10
-3.7987867154
 20
1.2635122548
 10
-3.7794014568
 20
1.2691333324
 10
-3.7581630433
 20
1.2713215662
 10
-3.7356993609
 20
1.2697764587
 10
-3.712219856
 20
1.2643977571
 10
-3.6875154675
 20
1.2552854926
 10
-3.6615862944
 20
1.2424396082
  0
LWPOLYLINE
  5
23D
100
AcDbEntity
  8
0
100
AcDbPolyline
 62
7
  6
CONTINUOUS
 90
17
 70
0
 10
-1.0565485325
 20
-3.5559410412
 10
-1.0768030219
 20
-3.5592249141
 10
-1.0984810044
 20
-3.5588696265
 10
-1.1215382811
 20
-3.554961599
 10
-1.145163528
 20
-3.54757806
 10
-1.1694507264
 20
-3.5365415394
 10
-1.1943060848
 20
-3.5220296183
 10
-1.2186365487
 20
-3.5046520593
 10
-1.2423906259
 20
-3.4842684114
 10
-1.2656196008
 20
-3.4610190041
 10
-1.2873845167
 20
-3.435934732
 10
-1.3075615032
 20
-3.4090667645
 10
-1.3262739507
 20
-3.3803636516
 10
-1.3429538178
 20
-3.3507023727
 10
-1.3576038355
 20
-3.3200242221
 10
-1.3702206877
 20
-3.2883875637
 10
-1.3802273944
 20
-3.2568450579
  0
LWPOLYLINE
  5
23E
100
AcDbEntity
  8
0
100
AcDbPolyline
 62
7
  6
CONTINUOUS
 90
12
 70
0
 10
0.6860564311
 20
-3.7324381493
 10
0.6652356926
 20
-3.7349478661
 10
0.6428403591
 20
-3.7338653266
 10
0.6198288192
 20
-3.729330214
 10
0.5962743
 20
-3.7212704954
 10
0.572103287
 20
-3.7097583711
 10
0.5480541161
 20
-3.6951498388
 10
0.5240909375
 20
-3.6773860726
 10
0.5002496958
 20
-3.6565258431
 10
0.4773765126
 20
-3.6331014893
 10
0.4557535846
 20
-3.6072903664
 10
0.4350991862
 20
-3.5789148449
  0
LWPOLYLINE
  5
23F
100
AcDbEntity
  8
SUPERFICI
100
AcDbPolyline
 62
7
  6
CONTINUOUS
 90
21
 70
0
 10
-1.3940077233
 20
-3.1638336426
 10
-1.3920250577
 20
-3.194743674
 10
-1.3874315312
 20
-3.2257474203
 10
-1.3802274016
 20
-3.2568450319
 10
-1.3702206838
 20
-3.2883875894
 10
-1.3576038147
 20
-3.3200242759
 10
-1.3429537781
 20
-3.3507024492
 10
-1.3262738915
 20
-3.3803637509
 10
-1.3075614224
 20
-3.4090668812
 10
-1.2873844113
 20
-3.4359348629
 10
-1.2656194665
 20
-3.461019148
 10
-1.2423904597
 20
-3.4842685649
 10
-1.2186363506
 20
-3.5046522149
 10
-1.1943058533
 20
-3.5220297677
 10
-1.1694504613
 20
-3.536541675
 10
-1.1451632368
 20
-3.5475781717
 10
-1.1215379733
 20
-3.5549616747
 10
-1.0984806874
 20
-3.5588696561
 10
-1.0768027031
 20
-3.5592248916
 10
-1.0565482201
 20
-3.5559409631
 10
-1.0424463545
 20
-3.5512284718
  0
LINE
  5
240
100
AcDbEntity
  8
SUPERFICI
100
AcDbLine
 62
7
  6
CONTINUOUS
 10
-2.2477331575
 20
0.180741267
 11
-2.2491664738
 21
0.2084187847
  0
LINE
  5
241
100
AcDbEntity
  8
SUPERFICI
100
AcDbLine
 62
7
  6
CONTINUOUS
 10
-2.2452106943
 20
0.0935434944
 11
-2.2477331575
 21
0.180741267
  0
LWPOLYLINE
  5
242
100
AcDbEntity
  8
0
100
AcDbPolyline
 62
7
  6
CONTINUOUS
 90
36
 70
0
 10
-2.247733296
 20
0.1807425401
 10
-2.2452116708
 20
0.0935798416
 10
-2.2376359656
 20
0.0046217476
 10
-2.225006774
 20
-0.0861320801
 10
-2.2072195308
 20
-0.1791710679
 10
-2.1843798171
 20
-0.2740063684
 10
-2.1568040989
 20
-0.3691712868
 10
-2.1243992642
 20
-0.4646817976
 10
-2.0872608093
 20
-0.5605232968
 10
-2.0459892744
 20
-0.6551838937
 10
-2.0005931461
 20
-0.7485284466
 10
-1.9510670993
 20
-0.8406939198
 10
-1.8979916989
 20
-0.9305770115
 10
-1.8412040972
 20
-1.0183164055
 10
-1.7808702777
 20
-1.1037752291
 10
-1.7180644742
 20
-1.1854370898
 10
-1.6529005056
 20
-1.2630676958
 10
-1.5852674269
 20
-1.3369030012
 10
-1.5159024405
 20
-1.4061320493
 10
-1.4446050799
 20
-1.4708524824
 10
-1.3715776997
 20
-1.5309677512
 10
-1.2981615564
 20
-1.5853755084
 10
-1.2245412209
 20
-1.6338603017
 10
-1.150532808
 20
-1.6766379804
 10
-1.076924591
 20
-1.7132529765
 10
-1.00353754
 20
-1.743702006
 10
-0.9305500063
 20
-1.76798796
 10
-0.8592860343
 20
-1.7856643588
 10
-0.7899317234
 20
-1.7965960132
 10
-0.722299087
 20
-1.8009170199
 10
-0.657150864
 20
-1.7985847264
 10
-0.5943936672
 20
-1.7894966076
 10
-0.5341180183
 20
-1.773753531
 10
-0.4773626244
 20
-1.751617994
 10
-0.4242689125
 20
-1.7230278143
 10
-0.3838444154
 20
-1.695185743
  0
LINE
  5
243
100
AcDbEntity
  8
SUPERFICI
100
AcDbLine
 62
7
  6
CONTINUOUS
 10
-1.3982078711
 20
-2.0056136021
 11
-1.3940077233
 21
-3.1638336426
  0
LINE
  5
244
100
AcDbEntity
  8
0
100
AcDbLine
 62
7
  6
CONTINUOUS
 10
-1.3940077217
 20
-3.1638339848
 11
-1.3982078711
 21
-2.0056136021
  0
LINE
  5
245
100
AcDbEntity
  8
0
100
AcDbLine
 62
7
  6
CONTINUOUS
 10
-1.6001930085
 20
1.2812092891
 11
-1.6012296252
 21
1.0252515164
  0
LINE
  5
246
100
AcDbEntity
  8
SUPERFICI
100
AcDbLine
 62
7
  6
CONTINUOUS
 10
-1.6012296252
 20
1.0252515164
 11
-1.6001930085
 21
1.2812092891
  0
LINE
  5
247
100
AcDbEntity
  8
SUPERFICI
100
AcDbLine
 62
7
  6
CONTINUOUS
 10
-2.0220811564
 20
2.0174280342
 11
-2.0242771556
 21
1.5674116978
  0
LINE
  5
248
100
AcDbEntity
  8
0
100
AcDbLine
 62
7
  6
CONTINUOUS
 10
-2.0242771556
 20
1.5674116978
 11
-2.0220811564
 21
2.0174280342
  0
LWPOLYLINE
  5
249
100
AcDbEntity
  8
SUPERFICI
100
AcDbPolyline
 62
7
  6
CONTINUOUS
 90
25
 70
0
 10
-3.1284125992
 20
-1.227734043
 10
-3.1372264391
 20
-1.2489218862
 10
-3.1433201894
 20
-1.2728056317
 10
-3.1466582871
 20
-1.2984325971
 10
-3.1472077259
 20
-1.325780678
 10
-3.1450014624
 20
-1.3548719498
 10
-3.1401031987
 20
-1.3848201867
 10
-3.132413233
 20
-1.4157680889
 10
-3.1220314965
 20
-1.4475730893
 10
-3.1093214682
 20
-1.4789212515
 10
-3.0941423069
 20
-1.5098169069
 10
-3.076635394
 20
-1.5402560381
 10
-3.0575878056
 20
-1.5689123392
 10
-3.0369895015
 20
-1.5956289814
 10
-3.01485109
 20
-1.6205631239
 10
-2.9919906936
 20
-1.6428594861
 10
-2.968419286
 20
-1.6624404135
 10
-2.9441261912
 20
-1.6793837338
 10
-2.9198970004
 20
-1.6930673558
 10
-2.895723902
 20
-1.7034749028
 10
-2.8716146277
 20
-1.710622705
 10
-2.8483779827
 20
-1.7139376724
 10
-2.8262833988
 20
-1.7132286759
 10
-2.805060939
 20
-1.7086865505
 10
-2.7963566733
 20
-1.7056156779
  0
LWPOLYLINE
  5
24A
100
AcDbEntity
  8
SUPERFICI
100
AcDbPolyline
 62
7
  6
CONTINUOUS
 90
37
 70
0
 10
-2.4535087779
 20
1.3416350954
 10
-2.4622281928
 20
1.3313489929
 10
-2.4698821111
 20
1.3198029584
 10
-2.4764704679
 20
1.3069970294
 10
-2.4820405901
 20
1.2928803617
 10
-2.4865450069
 20
1.277503882
 10
-2.4898414782
 20
1.2610202703
 10
-2.4919396844
 20
1.2434548819
 10
-2.4928298503
 20
1.2247824159
 10
-2.4923405996
 20
1.2050795408
 10
-2.4904554225
 20
1.1842272746
 10
-2.4871907616
 20
1.1623446378
 10
-2.4824247534
 20
1.1398652549
 10
-2.4760496285
 20
1.1166517394
 10
-2.4681732169
 20
1.0928414431
 10
-2.4589972054
 20
1.0692800115
 10
-2.4484753918
 20
1.0460544162
 10
-2.4366542104
 20
1.0230775525
 10
-2.4238744207
 20
1.0009338832
 10
-2.4102083207
 20
0.979754887
 10
-2.3955838638
 20
0.9594089412
 10
-2.3801253229
 20
0.9400858388
 10
-2.3636861975
 20
0.921652858
 10
-2.3464131703
 20
0.9042426162
 10
-2.3288702885
 20
0.8884429157
 10
-2.3110398748
 20
0.874365153
 10
-2.2929397147
 20
0.8618978697
 10
-2.2751870316
 20
0.8512945966
 10
-2.2579051177
 20
0.8426872222
 10
-2.2409706699
 20
0.8359438643
 10
-2.2246309969
 20
0.8309224093
 10
-2.2089469819
 20
0.8276247109
 10
-2.1938576535
 20
0.8260489659
 10
-2.1794275339
 20
0.8260475783
 10
-2.1656336759
 20
0.8275944707
 10
-2.1524988923
 20
0.8307157975
 10
-2.1427687302
 20
0.8342106117
  0
LINE
  5
24B
100
AcDbEntity
  8
0
100
AcDbLine
 62
7
  6
CONTINUOUS
 10
-2.4622157283
 20
1.3313653576
 11
-2.4534934062
 21
1.3416501409
  0
LINE
  5
24C
100
AcDbEntity
  8
0
100
AcDbLine
 62
7
  6
CONTINUOUS
 10
-2.4534934062
 20
1.3416501409
 11
-2.4138273044
 21
1.3803496928
  0
LINE
  5
24D
100
AcDbEntity
  8
0
100
AcDbLine
 62
7
  6
CONTINUOUS
 10
-2.0644195236
 20
0.8993712556
 11
-2.1080569764
 21
0.85814222
  0
LINE
  5
24E
100
AcDbEntity
  8
SUPERFICI
100
AcDbLine
 62
7
  6
CONTINUOUS
 10
-2.1080146149
 20
0.8581840988
 11
-2.0643821966
 21
0.8994024194
  0
LWPOLYLINE
  5
24F
100
AcDbEntity
  8
0
100
AcDbPolyline
 62
7
  6
CONTINUOUS
 90
5
 70
0
 10
-2.1080569764
 20
0.85814222
 10
-2.1179779115
 20
0.8490316275
 10
-2.1286913092
 20
0.8414255366
 10
-2.1401972606
 20
0.835323895
 10
-2.1427687535
 20
0.8342106565
  0
LINE
  5
250
100
AcDbEntity
  8
SUPERFICI
100
AcDbLine
 62
7
  6
CONTINUOUS
 10
-2.1179595839
 20
0.8490484582
 11
-2.1080146149
 21
0.8581840988
  0
LINE
  5
251
100
AcDbEntity
  8
0
100
AcDbLine
 62
7
  6
CONTINUOUS
 10
-2.4138273044
 20
1.3803496928
 11
-2.3720764466
 21
1.4156929623
  0
LINE
  5
252
100
AcDbEntity
  8
0
100
AcDbLine
 62
7
  6
CONTINUOUS
 10
-2.3720764466
 20
1.4156929623
 11
-2.3634370998
 21
1.4223885021
  0
LWPOLYLINE
  5
253
100
AcDbEntity
  8
SUPERFICI
100
AcDbPolyline
 62
7
  6
CONTINUOUS
 90
4
 70
0
 10
-2.3634370689
 20
1.4223884534
 10
-2.3720837691
 20
1.4156872873
 10
-2.413835044
 20
1.3803431409
 10
-2.4535087779
 20
1.3416350954
  0
LINE
  5
254
100
AcDbEntity
  8
SUPERFICI
100
AcDbLine
 62
7
  6
CONTINUOUS
 10
-2.0643821966
 20
0.8994024194
 11
-2.0173563125
 21
0.9350528686
  0
LINE
  5
255
100
AcDbEntity
  8
SUPERFICI
100
AcDbLine
 62
7
  6
CONTINUOUS
 10
-2.3282521717
 20
1.4476693085
 11
-2.3634370689
 21
1.4223884534
  0
LWPOLYLINE
  5
256
100
AcDbEntity
  8
0
100
AcDbPolyline
 62
7
  6
CONTINUOUS
 90
8
 70
0
 10
-2.3634370998
 20
1.4223885021
 10
-2.328247907
 20
1.4476723727
 10
-2.2822506561
 20
1.4763396052
 10
-2.234177741
 20
1.5016422879
 10
-2.1843146685
 20
1.5234175361
 10
-2.1327571735
 20
1.5416107306
 10
-2.079411097
 20
1.5562755879
 10
-2.0242771556
 20
1.5674116978
  0
LINE
  5
257
100
AcDbEntity
  8
SUPERFICI
100
AcDbLine
 62
7
  6
CONTINUOUS
 10
-2.128670739
 20
0.8414401407
 11
-2.1179595839
 21
0.8490484582
  0
LINE
  5
258
100
AcDbEntity
  8
SUPERFICI
100
AcDbLine
 62
7
  6
CONTINUOUS
 10
-2.2822526954
 20
1.4763383343
 11
-2.3282521717
 21
1.4476693085
  0
LINE
  5
259
100
AcDbEntity
  8
SUPERFICI
100
AcDbLine
 62
7
  6
CONTINUOUS
 10
-2.0173563125
 20
0.9350528686
 11
-1.9669008853
 21
0.9651650339
  0
LINE
  5
25A
100
AcDbEntity
  8
SUPERFICI
100
AcDbLine
 62
7
  6
CONTINUOUS
 10
-2.1401901574
 20
0.8353276618
 11
-2.128670739
 21
0.8414401407
  0
LINE
  5
25B
100
AcDbEntity
  8
SUPERFICI
100
AcDbLine
 62
7
  6
CONTINUOUS
 10
-2.2341796314
 20
1.5016412929
 11
-2.2822526954
 21
1.4763383343
  0
LINE
  5
25C
100
AcDbEntity
  8
SUPERFICI
100
AcDbLine
 62
7
  6
CONTINUOUS
 10
-3.7987867636
 20
1.2635122297
 11
-3.8162693901
 21
1.2544330305
  0
LWPOLYLINE
  5
25D
100
AcDbEntity
  8
0
100
AcDbPolyline
 62
7
  6
CONTINUOUS
 90
4
 70
0
 10
-1.923681097
 20
0.9854283225
 10
-1.9669168042
 20
0.9651575704
 10
-2.0173723231
 20
0.9350433127
 10
-2.0644195236
 20
0.8993712556
  0
LINE
  5
25E
100
AcDbEntity
  8
SUPERFICI
100
AcDbLine
 62
7
  6
CONTINUOUS
 10
-1.9669008853
 20
0.9651650339
 11
-1.9236810099
 21
0.9854281543
  0
LINE
  5
25F
100
AcDbEntity
  8
SUPERFICI
100
AcDbLine
 62
7
  6
CONTINUOUS
 10
-2.1843168812
 20
1.5234165698
 11
-2.2341796314
 21
1.5016412929
  0
LINE
  5
260
100
AcDbEntity
  8
SUPERFICI
100
AcDbLine
 62
7
  6
CONTINUOUS
 10
-2.1427687302
 20
0.8342106117
 11
-2.1401901574
 21
0.8353276618
  0
LWPOLYLINE
  5
261
100
AcDbEntity
  8
SUPERFICI
100
AcDbPolyline
 62
7
  6
CONTINUOUS
 90
7
 70
0
 10
-1.9236810099
 20
0.9854281543
 10
-1.9127134459
 20
0.9898646145
 10
-1.855132166
 20
1.0089993125
 10
-1.7950967319
 20
1.0221488124
 10
-1.7329254656
 20
1.0291699938
 10
-1.6683027276
 20
1.0302044399
 10
-1.6012296252
 20
1.0252515164
  0
LINE
  5
262
100
AcDbEntity
  8
0
100
AcDbLine
 62
7
  6
CONTINUOUS
 10
-1.9127303831
 20
0.9898577633
 11
-1.923681097
 21
0.9854283225
  0
LINE
  5
263
100
AcDbEntity
  8
0
100
AcDbLine
 62
7
  6
CONTINUOUS
 10
-2.1427687535
 20
0.8342106565
 11
-2.1525404955
 21
0.8307033634
  0
LINE
  5
264
100
AcDbEntity
  8
SUPERFICI
100
AcDbLine
 62
7
  6
CONTINUOUS
 10
-2.1327587661
 20
1.5416101686
 11
-2.1843168812
 21
1.5234165698
  0
LINE
  5
265
100
AcDbEntity
  8
0
100
AcDbLine
 62
7
  6
CONTINUOUS
 10
-1.8551407173
 20
1.0089964708
 11
-1.9127303831
 21
0.9898577633
  0
LINE
  5
266
100
AcDbEntity
  8
SUPERFICI
100
AcDbLine
 62
7
  6
CONTINUOUS
 10
-3.7794014802
 20
1.2691333256
 11
-3.7987867636
 21
1.2635122297
  0
LINE
  5
267
100
AcDbEntity
  8
0
100
AcDbLine
 62
7
  6
CONTINUOUS
 10
-0.2974803137
 20
-2.3180958653
 11
-0.3645501722
 21
-2.3339853673
  0
LWPOLYLINE
  5
268
100
AcDbEntity
  8
0
100
AcDbPolyline
 62
7
  6
CONTINUOUS
 90
8
 70
0
 10
-0.3645501722
 20
-2.3339853673
 10
-0.4338585686
 20
-2.3440144363
 10
-0.505406962
 20
-2.3481839176
 10
-0.5794877742
 20
-2.346480115
 10
-0.6558110787
 20
-2.3389181712
 10
-0.7335047195
 20
-2.3255421364
 10
-0.8122786429
 20
-2.3063670799
 10
-0.8924247774
 20
-2.2813790202
  0
LINE
  5
269
100
AcDbEntity
  8
0
100
AcDbLine
 62
7
  6
CONTINUOUS
 10
1.4053420938
 20
-2.1324245815
 11
1.3841168247
 21
-2.1346051013
  0
LWPOLYLINE
  5
26A
100
AcDbEntity
  8
0
100
AcDbPolyline
 62
7
  6
CONTINUOUS
 90
25
 70
0
 10
-2.8262769867
 20
-1.7132279598
 10
-2.8483715125
 20
-1.713938101
 10
-2.8716082229
 20
-1.7106241252
 10
-2.8957176725
 20
-1.7034771683
 10
-2.9198910139
 20
-1.6930703407
 10
-2.9441205146
 20
-1.67938731
 10
-2.9684139872
 20
-1.6624444552
 10
-2.9919858013
 20
-1.6428638941
 10
-3.014846623
 20
-1.6205678109
 10
-3.0369854886
 20
-1.5956338482
 10
-3.0575842654
 20
-1.5689172789
 10
-3.0766323547
 20
-1.5402609347
 10
-3.0941397872
 20
-1.5098216532
 10
-3.1093194487
 20
-1.4789257593
 10
-3.1220299584
 20
-1.4475772513
 10
-3.1324121568
 20
-1.4157718166
 10
-3.1401025253
 20
-1.3848234674
 10
-3.1450011207
 20
-1.3548747854
 10
-3.1472076567
 20
-1.3257830557
 10
-3.1466584276
 20
-1.298434535
 10
-3.1433204697
 20
-1.2728071443
 10
-3.1372267962
 20
-1.2489229919
 10
-3.1284129866
 20
-1.2277348021
 10
-3.1168910985
 20
-1.2095602648
 10
-3.1026494788
 20
-1.1940819254
  0
LINE
  5
26B
100
AcDbEntity
  8
0
100
AcDbLine
 62
7
  6
CONTINUOUS
 10
1.3841168247
 20
-2.1346051013
 11
1.3616641759
 21
-2.1330535756
  0
LINE
  5
26C
100
AcDbEntity
  8
0
100
AcDbLine
 62
7
  6
CONTINUOUS
 10
1.3616641759
 20
-2.1330535756
 11
1.3381929507
 21
-2.1276701127
  0
LINE
  5
26D
100
AcDbEntity
  8
0
100
AcDbLine
 62
7
  6
CONTINUOUS
 10
1.3381929507
 20
-2.1276701127
 11
1.3134940666
 21
-2.1185548245
  0
LWPOLYLINE
  5
26E
100
AcDbEntity
  8
SUPERFICI
100
AcDbPolyline
 62
7
  6
CONTINUOUS
 90
10
 70
0
 10
-0.9739438067
 20
-2.2505783541
 10
-0.8924247775
 20
-2.2813790201
 10
-0.8122786431
 20
-2.3063670798
 10
-0.7335047199
 20
-2.3255421364
 10
-0.6558110792
 20
-2.3389181711
 10
-0.5794877749
 20
-2.346480115
 10
-0.5054069627
 20
-2.3481839176
 10
-0.4338585692
 20
-2.3440144363
 10
-0.3645501725
 20
-2.3339853673
 10
-0.2974803137
 20
-2.3180958653
  0
LINE
  5
26F
100
AcDbEntity
  8
0
100
AcDbLine
 62
7
  6
CONTINUOUS
 10
-0.8924247774
 20
-2.2813790202
 11
-0.9739438067
 21
-2.2505783541
  0
LWPOLYLINE
  5
270
100
AcDbEntity
  8
0
100
AcDbPolyline
 62
7
  6
CONTINUOUS
 90
20
 70
0
 10
-3.662182053
 20
0.7522155235
 10
-3.6889855326
 20
0.7700808416
 10
-3.7143337861
 20
0.7901499738
 10
-3.7382267084
 20
0.8124229805
 10
-3.7608136257
 20
0.8372128225
 10
-3.7819448109
 20
0.8642067701
 10
-3.8011715544
 20
0.8924663629
 10
-3.8185104393
 20
0.9220373648
 10
-3.8339443281
 20
0.9528743314
 10
-3.8469740494
 20
0.9839019214
 10
-3.8575464889
 20
1.0151407358
 10
-3.8657142683
 20
1.0465704571
 10
-3.8711370644
 20
1.0770542262
 10
-3.873707117
 20
1.106637733
 10
-3.8735319493
 20
1.1352754237
 10
-3.8705945463
 20
1.1616933528
 10
-3.8647468949
 20
1.1857452983
 10
-3.8561372361
 20
1.2075773507
 10
-3.8451933445
 20
1.2263537973
 10
-3.8318981927
 20
1.2419213693
  0
LINE
  5
271
100
AcDbEntity
  8
0
100
AcDbLine
 62
7
  6
CONTINUOUS
 10
-1.3982078711
 20
-2.0056136021
 11
-1.4792540249
 21
-1.9427259121
  0
LWPOLYLINE
  5
272
100
AcDbEntity
  8
0
100
AcDbPolyline
 62
7
  6
CONTINUOUS
 90
8
 70
0
 10
-1.4792540249
 20
-1.9427259121
 10
-1.5590936739
 20
-1.8754899268
 10
-1.637726136
 20
-1.8039052503
 10
-1.7154512206
 20
-1.7276690956
 10
-1.7919672453
 20
-1.647083163
 10
-1.8663711353
 20
-1.5630536975
 10
-1.9383610461
 20
-1.4758823059
 10
-2.0082362635
 20
-1.3852658983
  0
LWPOLYLINE
  5
273
100
AcDbEntity
  8
SUPERFICI
100
AcDbPolyline
 62
7
  6
CONTINUOUS
 90
10
 70
0
 10
-2.0759952899
 20
-1.2912036069
 10
-2.0082362637
 20
-1.3852658981
 10
-1.9383610464
 20
-1.4758823056
 10
-1.8663711357
 20
-1.5630536971
 10
-1.7919672458
 20
-1.6470831624
 10
-1.7154512213
 20
-1.7276690949
 10
-1.6377261367
 20
-1.8039052496
 10
-1.5590936745
 20
-1.8754899263
 10
-1.4792540252
 20
-1.9427259118
 10
-1.3982078711
 20
-2.0056136021
  0
LINE
  5
274
100
AcDbEntity
  8
0
100
AcDbLine
 62
7
  6
CONTINUOUS
 10
-2.0082362635
 20
-1.3852658983
 11
-2.0759952899
 21
-1.2912036069
  0
LINE
  5
275
100
AcDbEntity
  8
0
100
AcDbLine
 62
7
  6
CONTINUOUS
 10
0.4350991862
 20
-3.5789148449
 11
0.4154136469
 21
-3.547974733
  0
LWPOLYLINE
  5
276
100
AcDbEntity
  8
SUPERFICI
100
AcDbPolyline
 62
7
  6
CONTINUOUS
 90
14
 70
0
 10
0.4154134535
 20
-3.5479743998
 10
0.4350989493
 20
-3.5789145105
 10
0.4557533252
 20
-3.6072900473
 10
0.4773762516
 20
-3.6331012018
 10
0.5002494623
 20
-3.6565256132
 10
0.5240907525
 20
-3.6773859167
 10
0.5480539757
 20
-3.6951497443
 10
0.572103175
 20
-3.7097583148
 10
0.5962742126
 20
-3.7212704647
 10
0.6198287647
 20
-3.7293301991
 10
0.6428403585
 20
-3.7338653187
 10
0.6652357543
 20
-3.7349478554
 10
0.6860565383
 20
-3.7324381257
 10
0.7037354588
 20
-3.726782522
  0
LINE
  5
277
100
AcDbEntity
  8
SUPERFICI
100
AcDbLine
 62
7
  6
CONTINUOUS
 10
-0.2974803137
 20
-2.3180958653
 11
0.4154134535
 21
-3.5479743998
  0
LINE
  5
278
100
AcDbEntity
  8
0
100
AcDbLine
 62
7
  6
CONTINUOUS
 10
0.4154136469
 20
-3.547974733
 11
-0.2974803137
 21
-2.3180958653
  0
LINE
  5
279
100
AcDbEntity
  8
0
100
AcDbLine
 62
7
  6
CONTINUOUS
 10
-2.3764118139
 20
-0.7718681773
 11
-2.423873674
 21
-0.6669923286
  0
LWPOLYLINE
  5
27A
100
AcDbEntity
  8
0
100
AcDbPolyline
 62
7
  6
CONTINUOUS
 90
8
 70
0
 10
-2.423873674
 20
-0.6669923286
 10
-2.4673660486
 20
-0.5618137708
 10
-2.5068876209
 20
-0.4563317457
 10
-2.5425704747
 20
-0.3501320494
 10
-2.5742796399
 20
-0.2436272247
 10
-2.6016137212
 20
-0.138056923
 10
-2.6244385693
 20
-0.0338341623
 10
-2.6428866531
 20
0.0694550364
  0
LWPOLYLINE
  5
27B
100
AcDbEntity
  8
0
100
AcDbPolyline
 62
7
  6
CONTINUOUS
 90
4
 70
0
 10
-1.3802273944
 20
-3.2568450579
 10
-1.38743152
 20
-3.225747528
 10
-1.3920250483
 20
-3.1947438871
 10
-1.3940077217
 20
-3.1638339848
  0
LWPOLYLINE
  5
27C
100
AcDbEntity
  8
SUPERFICI
100
AcDbPolyline
 62
7
  6
CONTINUOUS
 90
10
 70
0
 10
-2.656957046
 20
0.1718112028
 10
-2.6428866531
 20
0.0694550366
 10
-2.6244385693
 20
-0.033834162
 10
-2.6016137213
 20
-0.1380569225
 10
-2.5742796401
 20
-0.243627224
 10
-2.542570475
 20
-0.3501320485
 10
-2.5068876212
 20
-0.4563317447
 10
-2.4673660489
 20
-0.56181377
 10
-2.4238736742
 20
-0.6669923281
 10
-2.3764118139
 20
-0.7718681773
  0
LINE
  5
27D
100
AcDbEntity
  8
0
100
AcDbLine
 62
7
  6
CONTINUOUS
 10
-2.6428866531
 20
0.0694550364
 11
-2.656957046
 21
0.1718112028
  0
LWPOLYLINE
  5
27E
100
AcDbEntity
  8
SUPERFICI
100
AcDbPolyline
 62
7
  6
CONTINUOUS
 90
14
 70
0
 10
-2.2491664738
 20
0.2084187847
 10
-2.2527307474
 20
0.2362259192
 10
-2.2584264852
 20
0.2641651195
 10
-2.2663808502
 20
0.2924709704
 10
-2.2764668917
 20
0.3209078511
 10
-2.2883035135
 20
0.3487690393
 10
-2.3018872978
 20
0.3760335342
 10
-2.3172220713
 20
0.4027221012
 10
-2.3339376988
 20
0.4281906129
 10
-2.3520233203
 20
0.4524367621
 10
-2.3714901746
 20
0.4754626382
 10
-2.3920013166
 20
0.4966306841
 10
-2.4134445289
 20
0.5157283246
 10
-2.4359322842
 20
0.5329679881
  0
LINE
  5
27F
100
AcDbEntity
  8
0
100
AcDbLine
 62
7
  6
CONTINUOUS
 10
-0.9739438067
 20
-2.2505783541
 11
-0.9697436486
 21
-3.4088005264
  0
LINE
  5
280
100
AcDbEntity
  8
SUPERFICI
100
AcDbLine
 62
7
  6
CONTINUOUS
 10
-0.9697436541
 20
-3.4087993961
 11
-0.9739438067
 21
-2.2505783541
  0
LINE
  5
281
100
AcDbEntity
  8
SUPERFICI
100
AcDbLine
 62
7
  6
CONTINUOUS
 10
-0.7658070052
 20
0.7994452681
 11
-0.7668436219
 21
0.5434874901
  0
LINE
  5
282
100
AcDbEntity
  8
0
100
AcDbLine
 62
7
  6
CONTINUOUS
 10
-0.7668436219
 20
0.5434874901
 11
-0.7658070052
 21
0.7994452681
  0
LINE
  5
283
100
AcDbEntity
  8
0
100
AcDbLine
 62
7
  6
CONTINUOUS
 10
-0.3391670244
 20
1.0457345062
 11
-0.3413630236
 21
0.5957181794
  0
LINE
  5
284
100
AcDbEntity
  8
SUPERFICI
100
AcDbLine
 62
7
  6
CONTINUOUS
 10
-0.3413630236
 20
0.5957181794
 11
-0.3391670244
 21
1.0457345062
  0
LWPOLYLINE
  5
285
100
AcDbEntity
  8
SUPERFICI
100
AcDbPolyline
 62
7
  6
CONTINUOUS
 90
12
 70
0
 10
-0.1264126454
 20
-1.0440809475
 10
-0.12913281
 20
-1.128292395
 10
-0.1368798957
 20
-1.2084703857
 10
-0.1496545006
 20
-1.2846152606
 10
-0.167564837
 20
-1.3570951999
 10
-0.1905037174
 20
-1.4255426073
 10
-0.2181492976
 20
-1.4888545383
 10
-0.2505902602
 20
-1.5469325794
 10
-0.2877403234
 20
-1.5998765242
 10
-0.3290163502
 20
-1.646881405
 10
-0.3744278974
 20
-1.6878307727
 10
-0.3838447515
 20
-1.6951852162
  0
LINE
  5
286
100
AcDbEntity
  8
0
100
AcDbLine
 62
7
  6
CONTINUOUS
 10
-0.1264122985
 20
-1.044077587
 11
-0.1248323134
 21
-1.0177763919
  0
LINE
  5
287
100
AcDbEntity
  8
SUPERFICI
100
AcDbLine
 62
7
  6
CONTINUOUS
 10
-0.97165968
 20
-3.4384682895
 11
-0.9697436541
 21
-3.4087993961
  0
LWPOLYLINE
  5
288
100
AcDbEntity
  8
0
100
AcDbPolyline
 62
7
  6
CONTINUOUS
 90
9
 70
0
 10
-0.9697436486
 20
-3.4088005264
 10
-0.9716597562
 20
-3.4384691648
 10
-0.9762163784
 20
-3.4649431362
 10
-0.9834138276
 20
-3.4882226229
 10
-0.9934475514
 20
-3.5083670537
 10
-1.0061226557
 20
-3.5253173229
 10
-1.0208539945
 20
-3.5388958418
 10
-1.0376728518
 20
-3.5491041447
 10
-1.0424463557
 20
-3.5512284695
  0
LWPOLYLINE
  5
289
100
AcDbEntity
  8
0
100
AcDbPolyline
 62
7
  6
CONTINUOUS
 90
3
 70
0
 10
-0.1368890086
 20
-1.2085470432
 10
-0.129133982
 20
-1.1283300585
 10
-0.1264122985
 20
-1.044077587
  0
LINE
  5
28A
100
AcDbEntity
  8
0
100
AcDbLine
 62
7
  6
CONTINUOUS
 10
-0.1248323134
 20
-1.0177763919
 11
-0.121124396
 21
-0.9939036622
  0
LINE
  5
28B
100
AcDbEntity
  8
0
100
AcDbLine
 62
7
  6
CONTINUOUS
 10
-0.121124396
 20
-0.9939036622
 11
-0.1152885021
 21
-0.9724589251
  0
LINE
  5
28C
100
AcDbEntity
  8
0
100
AcDbLine
 62
7
  6
CONTINUOUS
 10
-3.1026491851
 20
-1.194081678
 11
-3.0962580924
 21
-1.1886977857
  0
LWPOLYLINE
  5
28D
100
AcDbEntity
  8
SUPERFICI
100
AcDbPolyline
 62
7
  6
CONTINUOUS
 90
4
 70
0
 10
-3.0962580865
 20
-1.188697795
 10
-3.1026491591
 20
-1.1940816497
 10
-3.1168907217
 20
-1.2095597776
 10
-3.1284125992
 20
-1.227734043
  0
LINE
  5
28E
100
AcDbEntity
  8
SUPERFICI
100
AcDbLine
 62
7
  6
CONTINUOUS
 10
-3.0861937511
 20
-1.1806377489
 11
-3.0964210123
 21
-1.1884449138
  0
LINE
  5
28F
100
AcDbEntity
  8
0
100
AcDbLine
 62
7
  6
CONTINUOUS
 10
-3.0962580924
 20
-1.1886977857
 11
-3.0856882986
 21
-1.1812998836
  0
LINE
  5
290
100
AcDbEntity
  8
SUPERFICI
100
AcDbLine
 62
7
  6
CONTINUOUS
 10
-3.0856880825
 20
-1.1812997588
 11
-3.0962580865
 21
-1.188697795
  0
LINE
  5
291
100
AcDbEntity
  8
SUPERFICI
100
AcDbLine
 62
7
  6
CONTINUOUS
 10
-2.3764118139
 20
-0.7718681773
 11
-3.0856880825
 21
-1.1812997588
  0
LINE
  5
292
100
AcDbEntity
  8
0
100
AcDbLine
 62
7
  6
CONTINUOUS
 10
-3.0856882986
 20
-1.1812998836
 11
-2.3764118139
 21
-0.7718681773
  0
LINE
  5
293
100
AcDbEntity
  8
0
100
AcDbLine
 62
7
  6
CONTINUOUS
 10
-2.0759952899
 20
-1.2912036069
 11
-2.7847042779
 21
-1.7003076431
  0
LINE
  5
294
100
AcDbEntity
  8
SUPERFICI
100
AcDbLine
 62
7
  6
CONTINUOUS
 10
-2.7847102446
 20
-1.7003110874
 11
-2.0759952899
 21
-1.2912036069
  0
LWPOLYLINE
  5
295
100
AcDbEntity
  8
0
100
AcDbPolyline
 62
7
  6
CONTINUOUS
 90
14
 70
0
 10
0.0412888403
 20
-0.4332251688
 10
0.020901773
 20
-0.4379510838
 10
-0.0006302409
 20
-0.4390480272
 10
-0.0233496193
 20
-0.4363172847
 10
-0.0472144019
 20
-0.4299578334
 10
-0.0712173963
 20
-0.4203263225
 10
-0.0952690369
 20
-0.4073751573
 10
-0.1194589947
 20
-0.3911519931
 10
-0.1430488469
 20
-0.3721563059
 10
-0.1660680371
 20
-0.3503262148
 10
-0.1884868458
 20
-0.3257234424
 10
-0.2094780293
 20
-0.2990328263
 10
-0.2287656506
 20
-0.2704825373
 10
-0.2466250623
 20
-0.2398440695
  0
LINE
  5
296
100
AcDbEntity
  8
SUPERFICI
100
AcDbLine
 62
7
  6
CONTINUOUS
 10
-0.0208474604
 20
-0.8931205286
 11
-0.039050549
 21
-0.896343409
  0
LINE
  5
297
100
AcDbEntity
  8
SUPERFICI
100
AcDbLine
 62
7
  6
CONTINUOUS
 10
-0.001274309
 20
-0.8927124723
 11
-0.0208474604
 21
-0.8931205286
  0
LINE
  5
298
100
AcDbEntity
  8
SUPERFICI
100
AcDbLine
 62
7
  6
CONTINUOUS
 10
0.0192472093
 20
-0.8953180156
 11
-0.001274309
 21
-0.8927124723
  0
LINE
  5
299
100
AcDbEntity
  8
0
100
AcDbLine
 62
7
  6
CONTINUOUS
 10
1.3134940666
 20
-2.1185548245
 11
1.2875676855
 21
-2.1057079406
  0
LWPOLYLINE
  5
29A
100
AcDbEntity
  8
SUPERFICI
100
AcDbPolyline
 62
7
  6
CONTINUOUS
 90
7
 70
0
 10
1.2875674149
 20
-2.1057077844
 10
1.3134940913
 20
-2.1185548336
 10
1.3381929613
 20
-2.1276701151
 10
1.3616641238
 20
-2.133053572
 10
1.3841167353
 20
-2.1346051104
 10
1.4053420245
 20
-2.132424602
 10
1.426067093
 20
-2.1262631696
  0
LWPOLYLINE
  5
29B
100
AcDbEntity
  8
SUPERFICI
100
AcDbPolyline
 62
7
  6
CONTINUOUS
 90
5
 70
0
 10
-3.6615860739
 20
1.2424394809
 10
-3.6875153606
 20
1.2552854302
 10
-3.7122198385
 20
1.2643977395
 10
-3.7356994089
 20
1.2697764657
 10
-3.7581631267
 20
1.2713215727
  0
LWPOLYLINE
  5
29C
100
AcDbEntity
  8
SUPERFICI
100
AcDbPolyline
 62
7
  6
CONTINUOUS
 90
4
 70
0
 10
0.0860796596
 20
-0.9214157444
 10
0.062854025
 20
-0.9097027093
 10
0.0405764969
 20
-0.9010034727
 10
0.0192472093
 20
-0.8953180156
  0
LINE
  5
29D
100
AcDbEntity
  8
SUPERFICI
100
AcDbLine
 62
7
  6
CONTINUOUS
 10
1.2875674178
 20
-2.1057077861
 11
0.2823444211
 21
-1.5253046262
  0
LINE
  5
29E
100
AcDbEntity
  8
0
100
AcDbLine
 62
7
  6
CONTINUOUS
 10
1.2875674178
 20
-2.1057077861
 11
0.2823444211
 21
-1.5253046262
  0
LINE
  5
29F
100
AcDbEntity
  8
SUPERFICI
100
AcDbLine
 62
7
  6
CONTINUOUS
 10
-2.656957046
 20
0.1718112028
 11
-3.6621800473
 21
0.7522143654
  0
LINE
  5
2A0
100
AcDbEntity
  8
0
100
AcDbLine
 62
7
  6
CONTINUOUS
 10
-2.656957046
 20
0.1718112028
 11
-3.6621800473
 21
0.7522143654
  0
LINE
  5
2A1
100
AcDbEntity
  8
SUPERFICI
100
AcDbLine
 62
7
  6
CONTINUOUS
 10
1.2881708845
 20
-1.6154881519
 11
0.086079696
 21
-0.9214157654
  0
LINE
  5
2A2
100
AcDbEntity
  8
0
100
AcDbLine
 62
7
  6
CONTINUOUS
 10
1.2881708845
 20
-1.6154881519
 11
0.086079696
 21
-0.9214157654
  0
LINE
  5
2A3
100
AcDbEntity
  8
SUPERFICI
100
AcDbLine
 62
7
  6
CONTINUOUS
 10
-2.4594652549
 20
0.548349986
 11
-3.6615860769
 21
1.2424394826
  0
LINE
  5
2A4
100
AcDbEntity
  8
0
100
AcDbLine
 62
7
  6
CONTINUOUS
 10
-2.4594652549
 20
0.548349986
 11
-3.6615860769
 21
1.2424394826
  0
LINE
  5
2A5
100
AcDbEntity
  8
SUPERFICI
100
AcDbLine
 62
7
  6
CONTINUOUS
 10
-2.4359322842
 20
0.5329679881
 11
-2.459464649
 21
0.5483496362
  0
LWPOLYLINE
  5
2A6
100
AcDbEntity
  8
0
100
AcDbPolyline
 62
7
  6
CONTINUOUS
 90
16
 70
0
 10
-2.459468518
 20
0.5483518701
 10
-2.4359359043
 20
0.5329705485
 10
-2.4134478738
 20
0.5157311208
 10
-2.3920043601
 20
0.4966336251
 10
-2.3714928789
 20
0.4754656251
 10
-2.3520256593
 20
0.452439704
 10
-2.3339396794
 20
0.4281934435
 10
-2.317223703
 20
0.4027247513
 10
-2.3018885876
 20
0.3760359375
 10
-2.2883044943
 20
0.3487711638
 10
-2.2764675951
 20
0.3209096233
 10
-2.2663813091
 20
0.2924723582
 10
-2.2584267623
 20
0.2641662493
 10
-2.2527309155
 20
0.2362269705
 10
-2.2491664867
 20
0.2084190328
 10
-2.247733296
 20
0.1807425401
  0
LWPOLYLINE
  5
2A7
100
AcDbEntity
  8
0
100
AcDbPolyline
 62
7
  6
CONTINUOUS
 90
22
 70
0
 10
1.2881717365
 20
-1.6154886438
 10
1.3149728028
 20
-1.633356744
 10
1.340315386
 20
-1.653430155
 10
1.3641995912
 20
-1.6757088163
 10
1.386774808
 20
-1.7005055923
 10
1.4078920477
 20
-1.727507388
 10
1.427103873
 20
-1.7557751901
 10
1.4444273903
 20
-1.7853544818
 10
1.4598460476
 20
-1.8161994609
 10
1.4728618009
 20
-1.8472342548
 10
1.4834219997
 20
-1.8784792194
 10
1.491579787
 20
-1.9099137152
 10
1.4969955653
 20
-1.9404005167
 10
1.4995617913
 20
-1.9699851775
 10
1.4993862451
 20
-1.9986220074
 10
1.4964519316
 20
-2.0250371355
 10
1.490610603
 20
-2.0490844865
 10
1.4820102788
 20
-2.0709102668
 10
1.4710779565
 20
-2.0896792641
 10
1.4577959557
 20
-2.1052386134
 10
1.4421814178
 20
-2.1177414899
 10
1.4260670928
 20
-2.1262631692
  0
LINE
  5
2A8
100
AcDbEntity
  8
SUPERFICI
100
AcDbLine
 62
7
  6
CONTINUOUS
 10
1.3149730091
 20
-1.6333569109
 11
1.2881718513
 21
-1.6154887101
  0
LWPOLYLINE
  5
2A9
100
AcDbEntity
  8
SUPERFICI
100
AcDbPolyline
 62
7
  6
CONTINUOUS
 90
10
 70
0
 10
-0.7668436219
 20
0.5434874901
 10
-0.6991595421
 20
0.470042538
 10
-0.6342079677
 20
0.3937372735
 10
-0.5719878112
 20
0.3145723196
 10
-0.5122348734
 20
0.2320552491
 10
-0.45521073
 20
0.1466799928
 10
-0.4017031069
 20
0.0599266242
 10
-0.3519739067
 20
-0.0277111124
 10
-0.3057588328
 20
-0.1167255869
 10
-0.2630565402
 20
-0.2071160268
  0
LWPOLYLINE
  5
2AA
100
AcDbEntity
  8
0
100
AcDbPolyline
 62
7
  6
CONTINUOUS
 90
3
 70
0
 10
-0.6342080527
 20
0.3937373781
 10
-0.6991595868
 20
0.4700425891
 10
-0.7668436219
 20
0.5434874901
  0
LINE
  5
2AB
100
AcDbEntity
  8
0
100
AcDbLine
 62
7
  6
CONTINUOUS
 10
-0.5719878705
 20
0.314572395
 11
-0.6342080031
 21
0.393737315
  0
LWPOLYLINE
  5
2AC
100
AcDbEntity
  8
0
100
AcDbPolyline
 62
7
  6
CONTINUOUS
 90
10
 70
0
 10
-0.3413630236
 20
0.5957181794
 10
-0.2868915726
 20
0.5215625139
 10
-0.2341427999
 20
0.4458455891
 10
-0.1831159751
 20
0.368567823
 10
-0.1336924673
 20
0.2895398991
 10
-0.0859892958
 20
0.208952057
 10
-0.0403592655
 20
0.1273740152
 10
0.0030804862
 20
0.0449959465
 10
0.0444486254
 20
-0.0383714449
 10
0.0837459756
 20
-0.122727686
  0
LINE
  5
2AD
100
AcDbEntity
  8
0
100
AcDbLine
 62
7
  6
CONTINUOUS
 10
-0.5122350587
 20
0.2320555314
 11
-0.5719878705
 21
0.314572395
  0
LWPOLYLINE
  5
2AE
100
AcDbEntity
  8
0
100
AcDbPolyline
 62
7
  6
CONTINUOUS
 90
3
 70
0
 10
-0.4017033088
 20
0.0599269656
 10
-0.4552109754
 20
0.1466803993
 10
-0.5122350587
 20
0.2320555314
  0
LINE
  5
2AF
100
AcDbEntity
  8
0
100
AcDbLine
 62
7
  6
CONTINUOUS
 10
0.0020125547
 20
-2.1451406028
 11
0.7143171262
 21
-3.3753914473
  0
LINE
  5
2B0
100
AcDbEntity
  8
SUPERFICI
100
AcDbLine
 62
7
  6
CONTINUOUS
 10
0.7143163865
 20
-3.3753901715
 11
0.0020125547
 21
-2.1451406028
  0
LINE
  5
2B1
100
AcDbEntity
  8
SUPERFICI
100
AcDbLine
 62
7
  6
CONTINUOUS
 10
0.7318876455
 20
-3.4090303552
 11
0.7143163865
 21
-3.3753901715
  0
LWPOLYLINE
  5
2B2
100
AcDbEntity
  8
0
100
AcDbPolyline
 62
7
  6
CONTINUOUS
 90
15
 70
0
 10
0.7143171262
 20
-3.3753914473
 10
0.7318881753
 20
-3.4090314047
 10
0.7465690213
 20
-3.4419942917
 10
0.7583598199
 20
-3.4742800176
 10
0.7672312936
 20
-3.5061819344
 10
0.773213087
 20
-3.5374064765
 10
0.7763935837
 20
-3.5670732675
 10
0.7767543357
 20
-3.5951625059
 10
0.774313812
 20
-3.6216939808
 10
0.7692154461
 20
-3.6458468905
 10
0.7613969017
 20
-3.6675973916
 10
0.7509202283
 20
-3.6869694941
 10
0.7381151321
 20
-3.7032143553
 10
0.7228395392
 20
-3.716237773
 10
0.7037354568
 20
-3.7267825181
  0
LWPOLYLINE
  5
2B3
100
AcDbEntity
  8
0
100
AcDbPolyline
 62
7
  6
CONTINUOUS
 90
3
 70
0
 10
-0.3057585704
 20
-0.1167260714
 10
-0.3519739283
 20
-0.0277110893
 10
-0.4017032093
 20
0.0599267903
  0
LWPOLYLINE
  5
2B4
100
AcDbEntity
  8
SUPERFICI
100
AcDbPolyline
 62
7
  6
CONTINUOUS
 90
16
 70
0
 10
-0.2630565402
 20
-0.2071160268
 10
-0.2466254574
 20
-0.2398433715
 10
-0.2287658438
 20
-0.2704822127
 10
-0.209478074
 20
-0.2990327652
 10
-0.1884868135
 20
-0.3257235022
 10
-0.1660679812
 20
-0.3503262857
 10
-0.1430487656
 20
-0.372156377
 10
-0.1194588665
 20
-0.3911520874
 10
-0.0952688602
 20
-0.4073752639
 10
-0.0712171742
 20
-0.4203264274
 10
-0.0472141375
 20
-0.4299579215
 10
-0.0233493159
 20
-0.436317342
 10
-0.0006299076
 20
-0.4390480395
 10
0.0209021262
 20
-0.4379510354
 10
0.0412892044
 20
-0.4332250457
 10
0.0482909737
 20
-0.4306354909
  0
LINE
  5
2B5
100
AcDbEntity
  8
0
100
AcDbLine
 62
7
  6
CONTINUOUS
 10
-0.2466251353
 20
-0.2398439241
 11
-0.26305589
 21
-0.207117208
  0
LINE
  5
2B6
100
AcDbEntity
  8
0
100
AcDbLine
 62
7
  6
CONTINUOUS
 10
-0.26305589
 20
-0.207117208
 11
-0.3057585704
 21
-0.1167260714
  0
LWPOLYLINE
  5
2B7
100
AcDbEntity
  8
SUPERFICI
100
AcDbPolyline
 62
7
  6
CONTINUOUS
 90
10
 70
0
 10
0.0837454141
 20
-0.1227265626
 10
0.0444483282
 20
-0.0383708483
 10
0.0030803861
 20
0.0449961502
 10
-0.0403592356
 20
0.1273739603
 10
-0.0859892254
 20
0.2089519223
 10
-0.1336924235
 20
0.2895398188
 10
-0.1831159583
 20
0.3685677968
 10
-0.2341427883
 20
0.4458455719
 10
-0.2868915666
 20
0.5215625055
 10
-0.3413630236
 20
0.5957181794
  0
LINE
  5
2B8
100
AcDbEntity
  8
SUPERFICI
100
AcDbLine
 62
7
  6
CONTINUOUS
 10
0.0975031776
 20
-0.1573918063
 11
0.0837454141
 21
-0.1227265626
  0
LWPOLYLINE
  5
2B9
100
AcDbEntity
  8
0
100
AcDbPolyline
 62
7
  6
CONTINUOUS
 90
14
 70
0
 10
0.0837459756
 20
-0.122727686
 10
0.0975036299
 20
-0.1573930151
 10
0.1082635968
 20
-0.1907509889
 10
0.116025949
 20
-0.2228015653
 10
0.1207147923
 20
-0.253803199
 10
0.1224062067
 20
-0.2834973287
 10
0.1213280642
 20
-0.3111084819
 10
0.1174634666
 20
-0.336614393
 10
0.1108291401
 20
-0.3600374257
 10
0.1017030832
 20
-0.3806692293
 10
0.0900219454
 20
-0.3984733328
 10
0.0758486464
 20
-0.413486454
 10
0.0596503316
 20
-0.4251101724
 10
0.0482909751
 20
-0.4306354936
  0
LWPOLYLINE
  5
2BA
100
AcDbEntity
  8
0
100
AcDbPolyline
 62
7
  6
CONTINUOUS
 90
10
 70
0
 10
0.2823444211
 20
-1.5253046262
 10
0.2683144189
 20
-1.6108007666
 10
0.2499232524
 20
-1.6923510432
 10
0.2271700971
 20
-1.7699559267
 10
0.1999424346
 20
-1.8438981664
 10
0.1683513021
 20
-1.9138958592
 10
0.1327306447
 20
-1.9791028242
 10
0.0931906438
 20
-2.0392376536
 10
0.0496183653
 20
-2.0945833391
 10
0.0020125547
 20
-2.1451406028
  0
LWPOLYLINE
  5
2BB
100
AcDbEntity
  8
0
100
AcDbPolyline
 62
7
  6
CONTINUOUS
 90
4
 70
0
 10
-0.1152885021
 20
-0.9724589251
 10
-0.107197217
 20
-0.9533867579
 10
-0.09697856
 20
-0.9367439929
 10
-0.0850161032
 20
-0.9227012017
  0
LWPOLYLINE
  5
2BC
100
AcDbEntity
  8
SUPERFICI
100
AcDbPolyline
 62
7
  6
CONTINUOUS
 90
10
 70
0
 10
0.0020125547
 20
-2.1451406028
 10
0.0496183652
 20
-2.0945833392
 10
0.0931906437
 20
-2.0392376538
 10
0.1327306445
 20
-1.9791028244
 10
0.1683513019
 20
-1.9138958596
 10
0.1999424344
 20
-1.843898167
 10
0.2271700969
 20
-1.7699559274
 10
0.2499232522
 20
-1.6923510438
 10
0.2683144188
 20
-1.610800767
 10
0.2823444211
 20
-1.5253046262
  0
LWPOLYLINE
  5
2BD
100
AcDbEntity
  8
0
100
AcDbPolyline
 62
7
  6
CONTINUOUS
 90
9
 70
0
 10
-0.3746414216
 20
-1.6879975323
 10
-0.3292428666
 20
-1.6471111406
 10
-0.2879261733
 20
-1.6001104658
 10
-0.2507335149
 20
-1.5471602301
 10
-0.2182543846
 20
-1.4890668666
 10
-0.1905765145
 20
-1.4257287345
 10
-0.1676097636
 20
-1.35724609
 10
-0.1496779761
 20
-1.284728882
 10
-0.1368890086
 20
-1.2085470432
  0
LWPOLYLINE
  5
2BE
100
AcDbEntity
  8
SUPERFICI
100
AcDbPolyline
 62
7
  6
CONTINUOUS
 90
8
 70
0
 10
-0.0748155187
 20
-0.9137951827
 10
-0.085016249
 20
-0.922701329
 10
-0.0969787813
 20
-0.9367442319
 10
-0.1071974118
 20
-0.9533870104
 10
-0.1152886217
 20
-0.9724592071
 10
-0.1211244733
 20
-0.9939039462
 10
-0.1248325473
 20
-1.0177778977
 10
-0.1264126454
 20
-1.0440809475
  0
LINE
  5
2BF
100
AcDbEntity
  8
0
100
AcDbLine
 62
7
  6
CONTINUOUS
 10
-0.0850161032
 20
-0.9227012017
 11
-0.0748155172
 21
-0.9137951851
  0
LINE
  5
2C0
100
AcDbEntity
  8
0
100
AcDbLine
 62
7
  6
CONTINUOUS
 10
-0.3838444154
 20
-1.695185743
 11
-0.3746414216
 21
-1.6879975323
  0
LINE
  5
2C1
100
AcDbEntity
  8
SUPERFICI
100
AcDbLine
 62
7
  6
CONTINUOUS
 10
-0.0713135333
 20
-0.9112437541
 11
-0.0748155187
 21
-0.9137951827
  0
LWPOLYLINE
  5
2C2
100
AcDbEntity
  8
0
100
AcDbPolyline
 62
7
  6
CONTINUOUS
 90
10
 70
0
 10
-0.0748155172
 20
-0.9137951851
 10
-0.0713132864
 20
-0.9112435861
 10
-0.0558670763
 20
-0.9023861783
 10
-0.0390504341
 20
-0.8963433677
 10
-0.0208473659
 20
-0.8931205119
 10
-0.0012742437
 20
-0.892712471
 10
0.0192472848
 20
-0.8953180252
 10
0.040576574
 20
-0.9010034901
 10
0.0628540165
 20
-0.9097026957
 10
0.0860795471
 20
-0.9214156794
  0
LWPOLYLINE
  5
2C3
100
AcDbEntity
  8
SUPERFICI
100
AcDbPolyline
 62
7
  6
CONTINUOUS
 90
12
 70
0
 10
0.0596506939
 20
-0.4251099649
 10
0.0758489929
 20
-0.4134861526
 10
0.0900222636
 20
-0.3984729279
 10
0.1017033606
 20
-0.3806687155
 10
0.1108293649
 20
-0.360036798
 10
0.1174636264
 20
-0.3366136459
 10
0.1213281455
 20
-0.3111076148
 10
0.1224061914
 20
-0.2834963254
 10
0.1207146668
 20
-0.2538020587
 10
0.1160257125
 20
-0.2228003393
 10
0.1082632527
 20
-0.1907497458
 10
0.0975031776
 20
-0.1573918063
  0
LWPOLYLINE
  5
2C4
100
AcDbEntity
  8
SUPERFICI
100
AcDbPolyline
 62
7
  6
CONTINUOUS
 90
35
 70
0
 10
-0.3838447515
 20
-1.6951852162
 10
-0.4239685556
 20
-1.722842891
 10
-0.4770319838
 20
-1.7514652938
 10
-0.5337649199
 20
-1.7736371849
 10
-0.5940237842
 20
-1.7894211848
 10
-0.6567671845
 20
-1.798550199
 10
-0.7219046564
 20
-1.8009219397
 10
-0.7895295313
 20
-1.796640353
 10
-0.85887622
 20
-1.7857477597
 10
-0.9301307904
 20
-1.7681102211
 10
-1.0031090643
 20
-1.7438627699
 10
-1.0764899059
 20
-1.7134510808
 10
-1.1500960175
 20
-1.676872416
 10
-1.2241053778
 20
-1.6341299078
 10
-1.2977294642
 20
-1.5856778617
 10
-1.3711529097
 20
-1.5312992869
 10
-1.4441903982
 20
-1.4712107786
 10
-1.5154981832
 20
-1.4065168473
 10
-1.5848721893
 20
-1.3373159513
 10
-1.6525146063
 20
-1.2635085407
 10
-1.7176909075
 20
-1.1859020108
 10
-1.7805121797
 20
-1.1042616032
 10
-1.8408644633
 20
-1.0188204146
 10
-1.897675774
 20
-0.9310876889
 10
-1.9507822081
 20
-0.8411980345
 10
-2.0003445284
 20
-0.7490150286
 10
-2.0457781683
 20
-0.6556416111
 10
-2.0870890545
 20
-0.5609377678
 10
-2.124268088
 20
-0.465041684
 10
-2.1567089066
 20
-0.3694740276
 10
-2.1843145399
 20
-0.2742494506
 10
-2.2071795673
 20
-0.1793519267
 10
-2.2249861196
 20
-0.086256782
 10
-2.2376281509
 20
0.0045442573
 10
-2.2452106943
 20
0.0935434944
  0
LINE
  5
2C5
100
AcDbEntity
  8
SUPERFICI
100
AcDbLine
 62
7
  6
CONTINUOUS
 10
-0.0558671794
 20
-0.9023862374
 11
-0.0713135333
 21
-0.9112437541
  0
LINE
  5
2C6
100
AcDbEntity
  8
SUPERFICI
100
AcDbLine
 62
7
  6
CONTINUOUS
 10
0.0482909737
 20
-0.4306354909
 11
0.0596504672
 21
-0.4251100752
  0
LWPOLYLINE
  5
2C7
100
AcDbEntity
  8
RACCORDO
100
AcDbPolyline
 62
253
  6
CONTINUOUS
 90
16
 70
0
 10
6.9903236716
 20
2.4947983617
 10
6.9512255754
 20
2.476281559
 10
6.9088953389
 20
2.4601795221
 10
6.8637814269
 20
2.4466628426
 10
6.8163617955
 20
2.4358747223
 10
6.7671388288
 20
2.427929455
 10
6.716634016
 20
2.4229112164
 10
6.6653824269
 20
2.4208731718
 10
6.6139270429
 20
2.4218369132
 10
6.5628130045
 20
2.4257922303
 10
6.5125818358
 20
2.4326972187
 10
6.4637657074
 20
2.442478724
 10
6.4168817984
 20
2.4550331167
 10
6.3724268171
 20
2.4702273903
 10
6.3308717388
 20
2.4879005699
 10
6.2926568158
 20
2.5078654184
  0
LINE
  5
2C8
100
AcDbEntity
  8
0
100
AcDbLine
 62
7
  6
CONTINUOUS
 10
-2.7847042779
 20
-1.7003076431
 11
-2.7963567463
 21
-1.70561554
  0
LINE
  5
2C9
100
AcDbEntity
  8
SUPERFICI
100
AcDbLine
 62
7
  6
CONTINUOUS
 10
-2.7963566733
 20
-1.7056156779
 11
-2.7847102446
 21
-1.7003110874
  0
LINE
  5
2CA
100
AcDbEntity
  8
SUPERFICI
100
AcDbLine
 62
7
  6
CONTINUOUS
 10
-2.7961686796
 20
-1.7059794034
 11
-2.7843884643
 21
-1.7010646137
  0
LINE
  5
2CB
100
AcDbEntity
  8
0
100
AcDbLine
 62
7
  6
CONTINUOUS
 10
0.0482909751
 20
-0.4306354936
 11
0.041289121
 21
-0.433225065
  0
LINE
  5
2CC
100
AcDbEntity
  8
SUPERFICI
100
AcDbLine
 62
7
  6
CONTINUOUS
 10
-0.039050549
 20
-0.896343409
 11
-0.0558671794
 21
-0.9023862374
  0
LWPOLYLINE
  5
2CD
100
AcDbEntity
  8
0
100
AcDbPolyline
 62
7
  6
CONTINUOUS
 90
3
 70
0
 10
-2.7963567463
 20
-1.70561554
 10
-2.8050546948
 20
-1.7086845434
 10
-2.8262769867
 20
-1.7132279598
  0
LWPOLYLINE
  5
2CE
100
AcDbEntity
  8
0
100
AcDbPolyline
 62
7
  6
CONTINUOUS
 90
35
 70
0
 10
-2.1525404955
 20
0.8307033634
 10
-2.1656764438
 20
0.8275871896
 10
-2.1794712465
 20
0.8260452018
 10
-2.1939018618
 20
0.8260514171
 10
-2.2089914656
 20
0.8276317415
 10
-2.2246755306
 20
0.8309338339
 10
-2.2410150786
 20
0.8359595689
 10
-2.2579491756
 20
0.8427070214
 10
-2.2752303564
 20
0.851318153
 10
-2.2929819187
 20
0.8619249391
 10
-2.3110805755
 20
0.8743953982
 10
-2.3289089622
 20
0.8884755691
 10
-2.3464491636
 20
0.9042768271
 10
-2.3637189867
 20
0.9216878589
 10
-2.3801546315
 20
0.940120682
 10
-2.3956093177
 20
0.9594424216
 10
-2.4102296436
 20
0.9797860568
 10
-2.4238918778
 20
1.0009623854
 10
-2.4366682017
 20
1.0231031264
 10
-2.4484861827
 20
1.0460767048
 10
-2.459005198
 20
1.0692989596
 10
-2.4681788452
 20
1.0928568369
 10
-2.4760532947
 20
1.1166635236
 10
-2.4824269015
 20
1.1398741524
 10
-2.4871919924
 20
1.1623516083
 10
-2.4904561798
 20
1.184233041
 10
-2.4923408984
 20
1.2050848937
 10
-2.4928297233
 20
1.2247882947
 10
-2.4919391463
 20
1.2434620772
 10
-2.489840061
 20
1.2610291934
 10
-2.4865420027
 20
1.2775152669
 10
-2.4820355306
 20
1.2928946198
 10
-2.4764631203
 20
1.3070132248
 10
-2.4698723214
 20
1.3198197064
 10
-2.4622157283
 20
1.3313653576
  0
LINE
  5
2CF
100
AcDbEntity
  8
0
100
AcDbLine
 62
7
  6
CONTINUOUS
 10
-1.795105036
 20
1.0221469935
 11
-1.8551407173
 21
1.0089964708
  0
LINE
  5
2D0
100
AcDbEntity
  8
0
100
AcDbLine
 62
7
  6
CONTINUOUS
 10
-1.7329319484
 20
1.0291692617
 11
-1.795105036
 21
1.0221469935
  0
LINE
  5
2D1
100
AcDbEntity
  8
SUPERFICI
100
AcDbLine
 62
7
  6
CONTINUOUS
 10
-3.7581631267
 20
1.2713215727
 11
-3.7794014802
 21
1.2691333256
  0
LINE
  5
2D2
100
AcDbEntity
  8
0
100
AcDbLine
 62
7
  6
CONTINUOUS
 10
-1.668306589
 20
1.0302043781
 11
-1.7329319484
 21
1.0291692617
  0
LINE
  5
2D3
100
AcDbEntity
  8
0
100
AcDbLine
 62
7
  6
CONTINUOUS
 10
-1.6012296252
 20
1.0252515164
 11
-1.668306589
 21
1.0302043781
  0
LINE
  5
2D4
100
AcDbEntity
  8
SUPERFICI
100
AcDbLine
 62
7
  6
CONTINUOUS
 10
-0.7658070052
 20
0.7994452681
 11
-1.6001930085
 21
1.2812092891
  0
LINE
  5
2D5
100
AcDbEntity
  8
0
100
AcDbLine
 62
7
  6
CONTINUOUS
 10
-0.7658070052
 20
0.7994452681
 11
-1.6001930085
 21
1.2812092891
  0
LINE
  5
2D6
100
AcDbEntity
  8
SUPERFICI
100
AcDbLine
 62
7
  6
CONTINUOUS
 10
-0.3391670244
 20
1.0457345062
 11
-2.0220811564
 21
2.0174280342
  0
LINE
  5
2D7
100
AcDbEntity
  8
0
100
AcDbLine
 62
7
  6
CONTINUOUS
 10
-0.3391670244
 20
1.0457345062
 11
-2.0220811564
 21
2.0174280342
  0
LWPOLYLINE
  5
2D8
100
AcDbEntity
  8
SUPERFICI
100
AcDbPolyline
 62
7
  6
CONTINUOUS
 90
20
 70
0
 10
1.4421813671
 20
-2.1177415168
 10
1.4577958552
 20
-2.1052387127
 10
1.4710778632
 20
-2.0896793955
 10
1.4820101989
 20
-2.0709104328
 10
1.490610541
 20
-2.0490846884
 10
1.4964518909
 20
-2.0250373696
 10
1.4993862288
 20
-1.9986222671
 10
1.4995618024
 20
-1.969985459
 10
1.4969956056
 20
-1.9404008186
 10
1.4915798571
 20
-1.909914037
 10
1.4834221012
 20
-1.8784795596
 10
1.4728619361
 20
-1.8472346118
 10
1.459846222
 20
-1.8161998369
 10
1.4444276062
 20
-1.7853548751
 10
1.4271041238
 20
-1.7557755871
 10
1.4078923307
 20
-1.7275077724
 10
1.3867751166
 20
-1.7005059504
 10
1.3641998979
 20
-1.6757091299
 10
1.3403156563
 20
-1.6534304044
 10
1.3149730091
 20
-1.6333569109
  0
LWPOLYLINE
  5
2D9
100
AcDbEntity
  8
SUPERFICI
100
AcDbPolyline
 62
7
  6
CONTINUOUS
 90
7
 70
0
 10
-1.0376725533
 20
-3.549104005
 10
-1.0208537147
 20
-3.5388956308
 10
-1.0061223952
 20
-3.5253170398
 10
-0.9934473151
 20
-3.5083666889
 10
-0.9834136291
 20
-3.4882221354
 10
-0.9762162342
 20
-3.4649424752
 10
-0.97165968
 20
-3.4384682895
  0
LINE
  5
2DA
100
AcDbEntity
  8
SUPERFICI
100
AcDbLine
 62
7
  6
CONTINUOUS
 10
1.426067093
 20
-2.1262631696
 11
1.4421813671
 21
-2.1177415168
  0
LINE
  5
2DB
100
AcDbEntity
  8
SUPERFICI
100
AcDbLine
 62
7
  6
CONTINUOUS
 10
-1.0424463545
 20
-3.5512284718
 11
-1.0376725533
 21
-3.549104005
  0
LINE
  5
2DC
100
AcDbEntity
  8
0
100
AcDbLine
 62
7
  6
CONTINUOUS
 10
-1.0424463557
 20
-3.5512284695
 11
-1.056548373
 21
-3.5559409879
  0
LINE
  5
2DD
100
AcDbEntity
  8
0
100
AcDbLine
 62
7
  6
CONTINUOUS
 10
1.4260670928
 20
-2.1262631692
 11
1.4053420938
 21
-2.1324245815
  0
LINE
  5
2DE
100
AcDbEntity
  8
SUPERFICI
100
AcDbLine
 62
7
  6
CONTINUOUS
 10
-2.0794119654
 20
1.5562753492
 11
-2.1327587661
 21
1.5416101686
  0
LINE
  5
2DF
100
AcDbEntity
  8
SUPERFICI
100
AcDbLine
 62
7
  6
CONTINUOUS
 10
-2.0242771556
 20
1.5674116978
 11
-2.0794119654
 21
1.5562753492
  0
LWPOLYLINE
  5
2E0
100
AcDbEntity
  8
RACCORDO
100
AcDbPolyline
 62
253
  6
CONTINUOUS
 90
10
 70
0
 10
7.013730927
 20
-22.1921426812
 10
7.0241431156
 20
-22.2484136772
 10
7.0387403259
 20
-22.3012220537
 10
7.0574359491
 20
-22.3502517102
 10
7.0801213508
 20
-22.3952109691
 10
7.1066598438
 20
-22.4358295968
 10
7.1368871691
 20
-22.4718608079
 10
7.170623838
 20
-22.5030900765
 10
7.2076695778
 20
-22.529332597
 10
7.2146004746
 20
-22.533472293
  0
LWPOLYLINE
  5
2E1
100
AcDbEntity
  8
SUPERFICI
100
AcDbPolyline
 62
7
  6
CONTINUOUS
 90
14
 70
0
 10
0.7037354588
 20
-3.726782522
 10
0.7228396636
 20
-3.7162376863
 10
0.7381152493
 20
-3.7032142328
 10
0.7509203325
 20
-3.6869693429
 10
0.7613969853
 20
-3.6675972125
 10
0.7692155063
 20
-3.6458466758
 10
0.7743138507
 20
-3.6216937231
 10
0.7767543499
 20
-3.5951621975
 10
0.7763935609
 20
-3.5670728916
 10
0.7732130193
 20
-3.5374060178
 10
0.7672311685
 20
-3.506181376
 10
0.7583596013
 20
-3.474279329
 10
0.7465686651
 20
-3.4419934379
 10
0.7318876455
 20
-3.4090303552
  0
LINE
  5
2E2
100
AcDbEntity
  8
0
100
AcDbLine
 62
7
  6
CONTINUOUS
 10
0.7037354568
 20
-3.7267825181
 11
0.6860564847
 21
-3.7324381322
  0
LWPOLYLINE
  5
2E3
100
AcDbEntity
  8
RACCORDO
100
AcDbPolyline
 62
253
  6
CONTINUOUS
 90
19
 70
0
 10
7.7074934856
 20
-22.1387162116
 10
7.7127973469
 20
-22.1669743897
 10
7.7201281792
 20
-22.1932733423
 10
7.7294859825
 20
-22.2176130693
 10
7.740952804
 20
-22.2401343177
 10
7.7544465965
 20
-22.2606963404
 10
7.7697212186
 20
-22.2788768968
 10
7.786805648
 20
-22.2946165937
 10
7.8056709071
 20
-22.3079748242
 10
7.8259839212
 20
-22.3187075264
 10
7.8477752822
 20
-22.3267666019
 10
7.8710143982
 20
-22.3322001491
 10
7.895276419
 20
-22.334908401
 10
7.9205954379
 20
-22.3348308402
 10
7.9469373616
 20
-22.3320279841
 10
7.9737750597
 20
-22.3265816178
 10
8.0009328222
 20
-22.318519003
 10
8.0285863592
 20
-22.3078128779
 10
8.0567356707
 20
-22.2944632425
  0
LWPOLYLINE
  5
2E4
100
AcDbEntity
  8
RACCORDO
100
AcDbPolyline
 62
253
  6
CONTINUOUS
 90
10
 70
0
 10
6.2926568153
 20
-13.0050698409
 10
6.3176214055
 20
-14.0602801441
 10
6.3564036102
 20
-15.1073950854
 10
6.4089954393
 20
-16.1461930612
 10
6.4753864792
 20
-17.1764544614
 10
6.5555626144
 20
-18.1979611464
 10
6.6495060384
 20
-19.2104964878
 10
6.7571969604
 20
-20.2138461765
 10
6.8786136021
 20
-21.2077982737
 10
7.013730927
 20
-22.1921426812
  0
LWPOLYLINE
  5
2E5
100
AcDbEntity
  8
RACCORDO
100
AcDbPolyline
 62
253
  6
CONTINUOUS
 90
10
 70
0
 10
6.9903236716
 20
-13.0026239621
 10
7.0151698007
 20
-14.0523177122
 10
7.0537386877
 20
-15.0935334448
 10
7.1060303326
 20
-16.1262711599
 10
7.172061944
 20
-17.1507509641
 10
7.2518163133
 20
-18.1667527508
 10
7.3452418147
 20
-19.1736162008
 10
7.4523212396
 20
-20.1711212077
 10
7.5730717966
 20
-21.159487878
 10
7.7074934856
 20
-22.1387162116
  0
LWPOLYLINE
  5
2E6
100
AcDbEntity
  8
RACCORDO
100
AcDbPolyline
 62
253
  6
CONTINUOUS
 90
10
 70
0
 10
6.2926568153
 20
2.5078654181
 10
6.2667831054
 20
0.770102108
 10
6.2473780364
 20
-0.9641892993
 10
6.2344415618
 20
-2.6949780924
 10
6.2279735654
 20
-4.4222102207
 10
6.227973562
 20
-6.1458786127
 10
6.2344415527
 20
-7.8660226828
 10
6.2473780246
 20
-9.5826347983
 10
6.266783096
 20
-11.2956607732
 10
6.2926568153
 20
-13.0050698409
  0
LWPOLYLINE
  5
2E7
100
AcDbEntity
  8
RACCORDO
100
AcDbPolyline
 62
253
  6
CONTINUOUS
 90
10
 70
0
 10
7.013730927
 20
12.4853505674
 10
6.8786136012
 20
11.3528981721
 10
6.757196959
 20
10.2258535655
 10
6.6495060368
 20
9.1044557571
 10
6.5555626132
 20
7.9889428286
 10
6.4753864787
 20
6.8795509494
 10
6.4089954394
 20
5.7765143294
 10
6.3564036105
 20
4.6800664145
 10
6.3176214058
 20
3.5904398339
 10
6.2926568153
 20
2.5078654181
  0
LWPOLYLINE
  5
2E8
100
AcDbEntity
  8
RACCORDO
100
AcDbPolyline
 62
253
  6
CONTINUOUS
 90
10
 70
0
 10
7.7074934856
 20
12.4167943351
 10
7.573072897
 20
11.2902725565
 10
7.4523230918
 20
10.1695909667
 10
7.34524407
 20
9.0547495658
 10
7.2518185247
 20
7.945509345
 10
7.1720637629
 20
6.8421093131
 10
7.1060317046
 20
5.7452664961
 10
7.0537396567
 20
4.655219903
 10
7.0151703124
 20
3.5717305248
 10
6.9903236716
 20
2.4947983617
  0
LINE
  5
2E9
100
AcDbEntity
  8
RACCORDO
100
AcDbLine
 62
253
  6
CONTINUOUS
 10
6.2926568153
 20
2.5078654181
 11
-8.539851433
 21
11.0719697857
  0
LWPOLYLINE
  5
2EA
100
AcDbEntity
  8
RACCORDO
100
AcDbPolyline
 62
253
  6
CONTINUOUS
 90
10
 70
0
 10
6.9903236716
 20
2.4947983617
 10
6.964475449
 20
0.7587239893
 10
6.9450892803
 20
-0.9738215903
 10
6.9321651656
 20
-2.702838377
 10
6.9257031027
 20
-4.4283341666
 10
6.9257030937
 20
-6.1503011634
 10
6.9321651454
 20
-7.86871598
 10
6.9450892601
 20
-9.5835708208
 10
6.9644754355
 20
-11.2948734815
 10
6.9903236716
 20
-13.0026239621
  0
LWPOLYLINE
  5
2EB
100
AcDbEntity
  8
RACCORDO
100
AcDbPolyline
 62
253
  6
CONTINUOUS
 90
16
 70
0
 10
8.0567356707
 20
12.9552550951
 10
8.0538603744
 20
12.9984958427
 10
8.0472491179
 20
13.0435556918
 10
8.0369742246
 20
13.089941428
 10
8.0231481212
 20
13.1371453174
 10
8.0059221119
 20
13.1846506516
 10
7.985484726
 20
13.231937404
 10
7.962059644
 20
13.2784879485
 10
7.9359032613
 20
13.3237926968
 10
7.9073018935
 20
13.3673556673
 10
7.8765686086
 20
13.4086999715
 10
7.8440398232
 20
13.4473729918
 10
7.8100716443
 20
13.4829513187
 10
7.7750359231
 20
13.5150454463
 10
7.7393161796
 20
13.5433040272
 10
7.7033034365
 20
13.5674176868
  0
LINE
  5
2EC
100
AcDbEntity
  8
0
100
AcDbLine
 62
7
  6
CONTINUOUS
 10
8.7484506337
 20
13.3546406757
 11
8.7484506337
 21
-21.9358395557
  0
LWPOLYLINE
  5
2ED
100
AcDbEntity
  8
RACCORDO
100
AcDbPolyline
 62
253
  6
CONTINUOUS
 90
9
 70
0
 10
8.0567356707
 20
-22.2944632425
 10
8.0538602479
 20
-22.3364994375
 10
8.0472487092
 20
-22.3757831248
 10
8.036973429
 20
-22.4118842792
 10
8.0231468872
 20
-22.4444077137
 10
8.0059204383
 20
-22.4729974052
 10
7.9854826544
 20
-22.497340392
 10
7.962057261
 20
-22.5171701998
 10
7.9426950511
 20
-22.528940835
  0
LWPOLYLINE
  5
2EE
100
AcDbEntity
  8
RACCORDO
100
AcDbPolyline
 62
253
  6
CONTINUOUS
 90
16
 70
0
 10
6.9903236716
 20
-13.0026239621
 10
6.9512255748
 20
-13.0227359275
 10
6.9088953384
 20
-13.0404162274
 10
6.8637814269
 20
-13.0554775493
 10
6.8163617966
 20
-13.0677603268
 10
6.7671388313
 20
-13.0771344312
 10
6.7166340204
 20
-13.083500549
 10
6.6653824335
 20
-13.0867912348
 10
6.6139270519
 20
-13.0869716258
 10
6.562813016
 20
-13.0840398108
 10
6.5125818499
 20
-13.0780268507
 10
6.4637657241
 20
-13.0689964494
 10
6.4168818177
 20
-13.0570442788
 10
6.3724268388
 20
-13.0422969654
 10
6.3308717627
 20
-13.0249107485
 10
6.2926568416
 20
-13.0050698252
  0
LINE
  5
2EF
100
AcDbEntity
  8
RACCORDO
100
AcDbLine
 62
253
  6
CONTINUOUS
 10
7.013730927
 20
12.4853505674
 11
-7.8553783935
 21
21.0705879353
  0
LINE
  5
2F0
100
AcDbEntity
  8
RACCORDO
100
AcDbLine
 62
253
  6
CONTINUOUS
 10
7.703303434
 20
13.5674176854
 11
-7.1836296127
 21
22.1629462495
  0
LINE
  5
2F1
100
AcDbEntity
  8
0
100
AcDbLine
 62
7
  6
CONTINUOUS
 10
8.395018397
 20
13.966803266
 11
-6.5272166225
 21
22.5827147468
  0
LWPOLYLINE
  5
2F2
100
AcDbEntity
  8
RACCORDO
100
AcDbPolyline
 62
253
  6
CONTINUOUS
 90
16
 70
0
 10
7.7074934855
 20
-22.1387162115
 10
7.6688003327
 20
-22.1640793716
 10
7.6268697536
 20
-22.1869543121
 10
7.58214613
 20
-22.2070986038
 10
7.5351034443
 20
-22.2242987568
 10
7.4862402564
 20
-22.2383724832
 10
7.4360744201
 20
-22.2491706292
 10
7.3851375945
 20
-22.2565787558
 10
7.3339696098
 20
-22.2605183514
 10
7.2831127461
 20
-22.260947664
 10
7.233105986
 20
-22.2578621436
 10
7.1844793029
 20
-22.2512944907
 10
7.1377480441
 20
-22.2413143097
 10
7.0934074689
 20
-22.228027371
 10
7.0519275003
 20
-22.2115744897
 10
7.0137477443
 20
-22.1921300342
  0
LINE
  5
2F3
100
AcDbEntity
  8
0
100
AcDbLine
 62
253
  6
CONTINUOUS
 10
8.0567356707
 20
-22.2944632425
 11
8.7484506337
 21
-21.9358395557
  0
LINE
  5
2F4
100
AcDbEntity
  8
RACCORDO
100
AcDbLine
 62
7
  6
CONTINUOUS
 10
7.9426950511
 20
-22.528940835
 11
8.6381742092
 21
-22.1683655791
  0
ELLIPSE
  5
2F5
100
AcDbEntity
  8
0
100
AcDbEllipse
 62
7
  6
CONTINUOUS
 10
-6.5269742732
 20
22.174199739
 30
0.0
 11
-0.2501834304
 21
0.4333025529
 31
0.0
 40
0.5769361983
 41
-0.7851038024
 42
0.0263715828
  0
ELLIPSE
  5
2F6
100
AcDbEntity
  8
0
100
AcDbEllipse
 62
7
  6
CONTINUOUS
 10
8.3947760477
 20
-21.7313524504
 30
0.0
 11
-0.2501834304
 21
0.4333025529
 31
0.0
 40
0.5769361983
 41
-3.1679635486
 42
-2.3565853618
  0
ELLIPSE
  5
2F7
100
AcDbEntity
  8
0
100
AcDbEllipse
 62
7
  6
CONTINUOUS
 10
8.3947760477
 20
13.5585681172
 30
0.0
 11
-0.2500121049
 21
0.4330057129
 31
0.0
 40
0.5777274115
 41
-2.3559002616
 42
-0.7857891675
  0
ENDSEC
  0
SECTION
  2
OBJECTS
  0
DICTIONARY
  5
C
100
AcDbDictionary
280
0
281
1
  3
ACAD_GROUP
350
D
  3
ACAD_MLINESTYLE
350
17
  3
ACAD_LAYOUT
350
1A
  3
ACAD_PLOTSETTINGS
350
19
  3
ACAD_PLOTSTYLENAME
350
E
  0
DICTIONARY
  5
D
102
{ACAD_REACTORS
330
C
102
}
100
AcDbDictionary
280
0
281
1
  0
ACDBDICTIONARYWDFLT
  5
E
102
{ACAD_REACTORS
330
C
102
}
100
AcDbDictionary
281
1
  3
Normal
350
F
100
AcDbDictionaryWithDefault
340
F
  0
DICTIONARY
  5
17
102
{ACAD_REACTORS
330
C
102
}
100
AcDbDictionary
280
0
281
1
  3
Standard
350
18
  0
DICTIONARY
  5
19
102
{ACAD_REACTORS
330
C
102
}
100
AcDbDictionary
281
1
  0
DICTIONARY
  5
1A
102
{ACAD_REACTORS
330
C
102
}
100
AcDbDictionary
281
1
  3
Model
350
2F8
  3
Layout1
350
2F9
  0
ACDBPLACEHOLDER
  5
F
102
{ACAD_REACTORS
330
E
102
}
  0
MLINESTYLE
  5
18
102
{ACAD_REACTORS
330
17
102
}
100
AcDbMlineStyle
  2
STANDARD
 70
0
  3

 62
256
 51
90.0
 52
90.0
 71
2
 49
0.5
 62
256
  6
BYLAYER
 49
-0.5
 62
256
  6
BYLAYER
  0
LAYOUT
  5
2F8
102
{ACAD_REACTORS
330
1A
102
}
100
AcDbPlotSettings
  1

  2
none_device
  4
ISO_A4_(297.00_x_210.00_MM)
  6

 40
0.0
 41
0.0
 42
0.0
 43
0.0
 44
297.0
 45
210.0
 46
0.0
 47
0.0
 48
0.0
 49
0.0
140
0.0
141
0.0
142
1.0
143
1.0
 70
1024
 72
1
 73
0
 74
0
  7

 75
0
147
1.0
148
0.0
149
0.0
100
AcDbLayout
  1
Model
 70
0
 71
0
 10
0.0
 20
0.0
 11
297.0
 21
210.0
 12
0.0
 22
0.0
 32
0.0
 14
0.0
 24
0.0
 34
0.0
 15
0.0
 25
0.0
 35
0.0
146
0.0
 13
0.0
 23
0.0
 33
0.0
 16
1.0
 26
0.0
 36
0.0
 17
0.0
 27
1.0
 37
0.0
 76
0
330
218
345
0
346
0
  0
LAYOUT
  5
2F9
102
{ACAD_REACTORS
330
1A
102
}
100
AcDbPlotSettings
  1

  2
none_device
  4
ISO_A4_(297.00_x_210.00_MM)
  6

 40
0.0
 41
0.0
 42
0.0
 43
0.0
 44
297.0
 45
210.0
 46
0.0
 47
0.0
 48
0.0
 49
0.0
140
0.0
141
0.0
142
1.0
143
1.0
 70
0
 72
1
 73
0
 74
0
  7

 75
0
147
1.0
148
0.0
149
0.0
100
AcDbLayout
  1
Layout1
 70
0
 71
1
 10
0.0
 20
0.0
 11
297.0
 21
210.0
 12
0.0
 22
0.0
 32
0.0
 14
0.0
 24
0.0
 34
0.0
 15
0.0
 25
0.0
 35
0.0
146
0.0
 13
0.0
 23
0.0
 33
0.0
 16
1.0
 26
0.0
 36
0.0
 17
0.0
 27
1.0
 37
0.0
 76
0
330
219
345
0
346
0
  0
ENDSEC
  0
EOF
