  0
SECTION
  2
HEADER
  9
$ACADVER
  1
AC1015
  9
$DWGCODEPAGE
  3
ANSI_1252
  9
$EXTMAX
 10
297.0
 20
210.0
 30
0.0
  9
$EXTMIN
 10
0.0
 20
0.0
 30
0.0
  9
$LIMMIN
 10
0.0
 20
0.0
  9
$LIMMAX
 10
297.0
 20
210.0
  9
$VIEWCTR
 10
148.5
 20
105.0
  9
$VIEWSIZE
 40
210.0
  9
$CLAYER
  8
0
  9
$LTSCALE
 40
16.335
  9
$CELTYPE
  6
BYLAYER
  9
$DIMSCALE
 40
1.0
  9
$DIMASZ
 40
3.0
  9
$DIMEXO
 40
1.85625
  9
$DIMDLI
 40
11.286
  9
$DIMEXE
 40
5.346
  9
$DIMCEN
 40
2.673
  9
$DIMLFAC
 40
1.0
  9
$DIMBLK
  1
_FILLED
  9
$DIMTXT
 40
3.0
  9
$DIMTOL
 70
1
  9
$DIMLIM
 70
0
  9
$DIMTFAC
 40
1.0
  9
$DIMTP
 40
0.01
  9
$DIMTM
 40
0.01
  9
$PDMODE
 70
3
  9
$PDSIZE
 40
3.0
  9
$HANDSEED
  5
270
  9
$TILEMODE
 70
1
  9
$MEASUREMENT
 70
1
  9
$INSUNITS
 70
4
  0
ENDSEC
  0
SECTION
  2
CLASSES
  0
CLASS
  1
ACDBDICTIONARYWDFLT
  2
AcDbDictionaryWithDefault
  3
AutoCAD 2000
 90
0
280
0
281
0
  0
CLASS
  1
ACDBPLACEHOLDER
  2
AcDbPlaceHolder
  3
AutoCAD 2000
 90
0
280
0
281
0
  0
CLASS
  1
LAYOUT
  2
AcDbLayout
  3
AutoCAD 2000
 90
0
280
0
281
0
  0
ENDSEC
  0
SECTION
  2
TABLES
  0
TABLE
  2
VPORT
  5
8
100
AcDbSymbolTable
 70
2
  0
VPORT
  5
1F4
100
AcDbSymbolTableRecord
100
AcDbViewportTableRecord
  2
*ACTIVE
 70
0
 10
0.0
 20
0.0
 11
1.0
 21
1.0
 12
148.5
 22
105.0
 13
0.0
 23
0.0
 14
1.0
 24
1.0
 15
0.0
 25
0.0
 16
0.0
 26
0.0
 36
1.0
 17
0.0
 27
0.0
 37
0.0
 40
210.0
 41
1.4142857143
 42
50.0
 43
0.0
 44
0.0
 50
0.0
 51
0.0
 71
0
 72
100
 73
1
 74
1
 75
0
 76
0
 77
0
 78
0
  0
ENDTAB
  0
TABLE
  2
LTYPE
  5
5
100
AcDbSymbolTable
 70
6
  0
LTYPE
  5
14
100
AcDbSymbolTableRecord
100
AcDbLinetypeTableRecord
  2
BYBLOCK
 70
0
  3

 72
65
 73
0
 40
0.0
  0
LTYPE
  5
15
100
AcDbSymbolTableRecord
100
AcDbLinetypeTableRecord
  2
BYLAYER
 70
0
  3

 72
65
 73
0
 40
0.0
  0
LTYPE
  5
16
100
AcDbSymbolTableRecord
100
AcDbLinetypeTableRecord
  2
CONTINUOUS
 70
64
  3
Solid line
 72
65
 73
0
 40
0.0
  0
LTYPE
  5
1F5
100
AcDbSymbolTableRecord
100
AcDbLinetypeTableRecord
  2
CENTER
 70
64
  3
____ _ ____ _ ____ _ ____ _ ____ _ ____ _ ____
 72
65
 73
4
 40
0.6
 49
0.375
 74
0
 49
-0.075
 74
0
 49
0.075
 74
0
 49
-0.075
 74
0
  0
LTYPE
  5
1F6
100
AcDbSymbolTableRecord
100
AcDbLinetypeTableRecord
  2
HIDDEN
 70
64
  3
- - - - - - - - - - - - - - - - - - - -
 72
65
 73
2
 40
0.2
 49
0.1
 74
0
 49
-0.1
 74
0
  0
LTYPE
  5
1F7
100
AcDbSymbolTableRecord
100
AcDbLinetypeTableRecord
  2
PHANTOM
 70
64
  3
_____ _ _ _____ _ _ _____ _ _ _____
 72
65
 73
6
 40
0.8
 49
0.45
 74
0
 49
-0.05
 74
0
 49
0.1
 74
0
 49
-0.05
 74
0
 49
0.1
 74
0
 49
-0.05
 74
0
  0
LTYPE
  5
1F8
100
AcDbSymbolTableRecord
100
AcDbLinetypeTableRecord
  2
DOT
 70
64
  3
. . . . . . . . . . . . . . . . . . . .
 72
65
 73
2
 40
0.2
 49
0.1
 74
0
 49
-0.1
 74
0
  0
LTYPE
  5
1F9
100
AcDbSymbolTableRecord
100
AcDbLinetypeTableRecord
  2
DASHED
 70
64
  3
- - - - - - - - - - - - - - - - - - - -
 72
65
 73
2
 40
0.2
 49
0.1
 74
0
 49
-0.1
 74
0
  0
ENDTAB
  0
TABLE
  2
LAYER
  5
2
100
AcDbSymbolTable
 70
36
  0
LAYER
  5
10
100
AcDbSymbolTableRecord
100
AcDbLayerTableRecord
  2
0
 70
0
 62
7
  6
CONTINUOUS
370
-3
390
F
  0
LAYER
  5
1FA
100
AcDbSymbolTableRecord
100
AcDbLayerTableRecord
  2
DEFAULT_1
 70
0
 62
7
  6
CENTER
370
-3
390
F
  0
LAYER
  5
1FB
100
AcDbSymbolTableRecord
100
AcDbLayerTableRecord
  2
DEFAULT_2
 70
0
 62
7
  6
HIDDEN
370
-3
390
F
  0
LAYER
  5
1FC
100
AcDbSymbolTableRecord
100
AcDbLayerTableRecord
  2
DEFAULT_3
 70
0
 62
7
  6
PHANTOM
370
-3
390
F
  0
LAYER
  5
1FD
100
AcDbSymbolTableRecord
100
AcDbLayerTableRecord
  2
ASSI
 70
0
 62
7
  6
CONTINUOUS
370
-3
390
F
  0
LAYER
  5
1FE
100
AcDbSymbolTableRecord
100
AcDbLayerTableRecord
  2
COLOR9
 70
0
 62
7
  6
CONTINUOUS
370
-3
390
F
  0
LAYER
  5
1FF
100
AcDbSymbolTableRecord
100
AcDbLayerTableRecord
  2
COORDINATE
 70
0
 62
7
  6
CONTINUOUS
370
-3
390
F
  0
LAYER
  5
200
100
AcDbSymbolTableRecord
100
AcDbLayerTableRecord
  2
COORD_ORIGINE
 70
0
 62
7
  6
CONTINUOUS
370
-3
390
F
  0
LAYER
  5
201
100
AcDbSymbolTableRecord
100
AcDbLayerTableRecord
  2
COSMETICI
 70
0
 62
7
  6
CONTINUOUS
370
-3
390
F
  0
LAYER
  5
202
100
AcDbSymbolTableRecord
100
AcDbLayerTableRecord
  2
CURVE
 70
0
 62
7
  6
CONTINUOUS
370
-3
390
F
  0
LAYER
  5
203
100
AcDbSymbolTableRecord
100
AcDbLayerTableRecord
  2
DRAFT
 70
0
 62
7
  6
CONTINUOUS
370
-3
390
F
  0
LAYER
  5
204
100
AcDbSymbolTableRecord
100
AcDbLayerTableRecord
  2
IMPORT_IGES
 70
0
 62
7
  6
CONTINUOUS
370
-3
390
F
  0
LAYER
  5
205
100
AcDbSymbolTableRecord
100
AcDbLayerTableRecord
  2
INTF_1
 70
0
 62
7
  6
CONTINUOUS
370
-3
390
F
  0
LAYER
  5
206
100
AcDbSymbolTableRecord
100
AcDbLayerTableRecord
  2
INTF_YELLOW
 70
0
 62
7
  6
CONTINUOUS
370
-3
390
F
  0
LAYER
  5
207
100
AcDbSymbolTableRecord
100
AcDbLayerTableRecord
  2
NOTE
 70
0
 62
7
  6
CONTINUOUS
370
-3
390
F
  0
LAYER
  5
208
100
AcDbSymbolTableRecord
100
AcDbLayerTableRecord
  2
PIANI
 70
0
 62
7
  6
CONTINUOUS
370
-3
390
F
  0
LAYER
  5
209
100
AcDbSymbolTableRecord
100
AcDbLayerTableRecord
  2
PIANI_ORIGINE
 70
0
 62
7
  6
CONTINUOUS
370
-3
390
F
  0
LAYER
  5
20A
100
AcDbSymbolTableRecord
100
AcDbLayerTableRecord
  2
PIANI_RIFERIMENTO
 70
0
 62
7
  6
CONTINUOUS
370
-3
390
F
  0
LAYER
  5
20B
100
AcDbSymbolTableRecord
100
AcDbLayerTableRecord
  2
PUNTI
 70
0
 62
7
  6
CONTINUOUS
370
-3
390
F
  0
LAYER
  5
20C
100
AcDbSymbolTableRecord
100
AcDbLayerTableRecord
  2
RACCORDO
 70
0
 62
7
  6
CONTINUOUS
370
-3
390
F
  0
LAYER
  5
20D
100
AcDbSymbolTableRecord
100
AcDbLayerTableRecord
  2
SIMBOLI
 70
0
 62
7
  6
CONTINUOUS
370
-3
390
F
  0
LAYER
  5
20E
100
AcDbSymbolTableRecord
100
AcDbLayerTableRecord
  2
SMUSSO
 70
0
 62
7
  6
CONTINUOUS
370
-3
390
F
  0
LAYER
  5
20F
100
AcDbSymbolTableRecord
100
AcDbLayerTableRecord
  2
SNAPLINE
 70
0
 62
7
  6
CONTINUOUS
370
-3
390
F
  0
LAYER
  5
210
100
AcDbSymbolTableRecord
100
AcDbLayerTableRecord
  2
SUPERFICI
 70
0
 62
7
  6
CONTINUOUS
370
-3
390
F
  0
LAYER
  5
211
100
AcDbSymbolTableRecord
100
AcDbLayerTableRecord
  2
TRASH
 70
0
 62
7
  6
CONTINUOUS
370
-3
390
F
  0
LAYER
  5
212
100
AcDbSymbolTableRecord
100
AcDbLayerTableRecord
  2
XSEC_DATUMS
 70
0
 62
7
  6
CONTINUOUS
370
-3
390
F
  0
ENDTAB
  0
TABLE
  2
STYLE
  5
3
100
AcDbSymbolTable
 70
1
  0
STYLE
  5
11
100
AcDbSymbolTableRecord
100
AcDbTextStyleTableRecord
  2
STANDARD
 70
0
 40
0.0
 41
0.8
 50
0.0
 71
0
 42
0.2
  3
txt
  4

  0
STYLE
  5
213
100
AcDbSymbolTableRecord
100
AcDbTextStyleTableRecord
  2
TEXTSTYLE_1
 70
0
 40
0.0
 41
0.8
 50
0.0
 71
0
 42
0.2
  3
gdt
  4

  0
ENDTAB
  0
TABLE
  2
VIEW
  5
6
100
AcDbSymbolTable
 70
0
  0
ENDTAB
  0
TABLE
  2
UCS
  5
7
100
AcDbSymbolTable
 70
0
  0
ENDTAB
  0
TABLE
  2
APPID
  5
9
100
AcDbSymbolTable
 70
1
  0
APPID
  5
214
100
AcDbSymbolTableRecord
100
AcDbRegAppTableRecord
  2
ACAD
 70
0
  0
ENDTAB
  0
TABLE
  2
BLOCK_RECORD
  5
1
100
AcDbSymbolTable
 70
0
  0
BLOCK_RECORD
  5
215
100
AcDbSymbolTableRecord
100
AcDbBlockTableRecord
  2
*Model_Space
  0
BLOCK_RECORD
  5
216
100
AcDbSymbolTableRecord
100
AcDbBlockTableRecord
  2
*Paper_Space
  0
ENDTAB
  0
TABLE
  2
DIMSTYLE
  5
A
100
AcDbSymbolTable
 70
1
100
AcDbDimStyleTable
 71
0
  0
DIMSTYLE
105
217
100
AcDbSymbolTableRecord
100
AcDbDimStyleTableRecord
  2
STANDARD
 70
0
  3

  4

 40
1.0
 41
3.0
 42
0.0625
 43
0.38
 44
0.18
 45
0.0
 46
0.0
 47
0.01
 48
0.01
140
3.0
141
0.09
142
0.0
143
25.4
144
1.0
145
0.0
146
1.0
147
0.09
 71
1.0
 72
0.0
 73
0
 74
0
 75
0
 76
0
 77
1
 78
8
170
0
171
2
172
0
173
0
174
0
175
0
176
0
177
0
178
0
270
2
271
2
272
2
273
2
274
2
275
0
280
0
281
0
282
0
283
1
284
8
285
0
286
0
287
3
288
0
340
11
  0
ENDTAB
  0
ENDSEC
  0
SECTION
  2
BLOCKS
  0
BLOCK
  5
20
100
AcDbEntity
  8
0
100
AcDbBlockBegin
  2
*Model_Space
 70
0
 10
0.0
 20
0.0
 30
0.0
  3
*Model_Space
  1

  0
ENDBLK
  5
21
100
AcDbEntity
  8
0
100
AcDbBlockEnd
  0
BLOCK
  5
1C
100
AcDbEntity
  8
0
100
AcDbBlockBegin
  2
*Paper_Space
 70
0
 10
0.0
 20
0.0
 30
0.0
  3
*Paper_Space
  1

  0
ENDBLK
  5
1D
100
AcDbEntity
  8
0
100
AcDbBlockEnd
  0
ENDSEC
  0
SECTION
  2
ENTITIES
  0
LWPOLYLINE
  5
218
100
AcDbEntity
  8
RACCORDO
100
AcDbPolyline
 62
7
  6
CONTINUOUS
 90
15
 70
0
 10
-15.3985448018
 20
26.7745994892
 10
-15.4352401886
 20
26.7499819568
 10
-15.4989134109
 20
26.7015075437
 10
-15.5589451331
 20
26.6484606934
 10
-15.6155328276
 20
26.5911025499
 10
-15.6686535682
 20
26.5297410638
 10
-15.717979186
 20
26.4650058948
 10
-15.7634748489
 20
26.3971723594
 10
-15.8050381299
 20
26.3264359014
 10
-15.8422626213
 20
26.2535645924
 10
-15.8750337206
 20
26.1787799168
 10
-15.9031803744
 20
26.1022526883
 10
-15.9263518246
 20
26.0246382241
 10
-15.9443103963
 20
25.946175684
 10
-15.9573024127
 20
25.8630159964
  0
LINE
  5
219
100
AcDbEntity
  8
RACCORDO
100
AcDbLine
 62
7
  6
CONTINUOUS
 10
-15.3986999018
 20
26.7745173858
 11
-14.7387148233
 21
27.1965701922
  0
LINE
  5
21A
100
AcDbEntity
  8
0
100
AcDbLine
 62
253
  6
CONTINUOUS
 10
-15.138580901
 20
26.7560354244
 11
-14.4821679109
 21
27.1758039218
  0
LWPOLYLINE
  5
21B
100
AcDbEntity
  8
RACCORDO
100
AcDbPolyline
 62
253
  6
CONTINUOUS
 90
9
 70
0
 10
-15.3985524926
 20
26.7746115432
 10
-15.3788004093
 20
26.7854130436
 10
-15.3499129236
 20
26.7957822307
 10
-15.318610747
 20
26.8013075381
 10
-15.2852365339
 20
26.8019284823
 10
-15.2501556206
 20
26.7976382658
 10
-15.2137520261
 20
26.7884838522
 10
-15.176424248
 20
26.7745654517
 10
-15.138580901
 20
26.7560354244
  0
LWPOLYLINE
  5
21C
100
AcDbEntity
  8
RACCORDO
100
AcDbPolyline
 62
253
  6
CONTINUOUS
 90
19
 70
0
 10
-15.8103296819
 20
25.6636771103
 10
-15.8001913919
 20
25.7318133611
 10
-15.78597067
 20
25.8012609005
 10
-15.767754051
 20
25.8716036328
 10
-15.745654079
 20
25.9424223001
 10
-15.7198033721
 20
26.0132909478
 10
-15.6903542641
 20
26.0837794915
 10
-15.6574880553
 20
26.1534650457
 10
-15.621403325
 20
26.2219326121
 10
-15.5823092892
 20
26.2887713098
 10
-15.5404442143
 20
26.3535822845
 10
-15.4960618674
 20
26.415978327
 10
-15.4494191126
 20
26.4755838051
 10
-15.4007982793
 20
26.5320444411
 10
-15.3504954613
 20
26.5850213597
 10
-15.2988060265
 20
26.6341901874
 10
-15.2460407827
 20
26.6792552623
 10
-15.19252394
 20
26.7199510356
 10
-15.138580901
 20
26.7560354244
  0
LWPOLYLINE
  5
21D
100
AcDbEntity
  8
RACCORDO
100
AcDbPolyline
 62
7
  6
CONTINUOUS
 90
10
 70
0
 10
-16.6412501822
 20
15.8693380624
 10
-16.6652233428
 20
14.1775733704
 10
-16.6839297829
 20
12.4285216862
 10
-16.6963977846
 20
10.6831760508
 10
-16.7026269439
 20
8.9415722667
 10
-16.7026171343
 20
7.2037400246
 10
-16.6963682804
 20
5.4697067137
 10
-16.6838803616
 20
3.7395020246
 10
-16.6651536343
 20
2.0131614249
 10
-16.6412476781
 20
0.355889251
  0
LWPOLYLINE
  5
21E
100
AcDbEntity
  8
RACCORDO
100
AcDbPolyline
 62
253
  6
CONTINUOUS
 90
10
 70
0
 10
-16.4948027213
 20
15.6650589606
 10
-16.4711062278
 20
16.7483655597
 10
-16.4342924375
 20
17.8391286781
 10
-16.3843693404
 20
18.9371174852
 10
-16.3213482106
 20
20.0420998488
 10
-16.245242303
 20
21.153841826
 10
-16.1560668429
 20
22.2721077168
 10
-16.0538407605
 20
23.3966608553
 10
-15.9385866947
 20
24.5272636563
 10
-15.8103296819
 20
25.6636771103
  0
LWPOLYLINE
  5
21F
100
AcDbEntity
  8
RACCORDO
100
AcDbPolyline
 62
253
  6
CONTINUOUS
 90
10
 70
0
 10
-15.9573024127
 20
25.8630159964
 10
-15.9578168247
 20
25.8574029686
 10
-15.95684958
 20
25.8323573236
 10
-15.9506244774
 20
25.8070168136
 10
-15.9392074915
 20
25.7816500002
 10
-15.9227196206
 20
25.7565257242
 10
-15.9013356054
 20
25.7319102559
 10
-15.8752820761
 20
25.7080644732
 10
-15.8448351512
 20
25.6852410964
 10
-15.8103175109
 20
25.6636820105
  0
LWPOLYLINE
  5
220
100
AcDbEntity
  8
RACCORDO
100
AcDbPolyline
 62
7
  6
CONTINUOUS
 90
10
 70
0
 10
-15.9572840877
 20
25.8632543595
 10
-16.0801159612
 20
24.7770063237
 10
-16.1972622749
 20
23.6321973218
 10
-16.3010598649
 20
22.4934748745
 10
-16.391479008
 20
21.3611177887
 10
-16.4685002143
 20
20.235355121
 10
-16.5321064027
 20
19.1163973921
 10
-16.5822805498
 20
18.0044729375
 10
-16.619009514
 20
16.8998529797
 10
-16.6412501708
 20
15.8693378553
  0
LWPOLYLINE
  5
221
100
AcDbEntity
  8
RACCORDO
100
AcDbPolyline
 62
7
  6
CONTINUOUS
 90
8
 70
0
 10
-15.8762539169
 20
-9.0753412999
 10
-15.8437453008
 20
-9.1317036699
 10
-15.8069208136
 20
-9.1838710493
 10
-15.7661407769
 20
-9.2316142465
 10
-15.7220174228
 20
-9.2745523498
 10
-15.6751613575
 20
-9.31248025
 10
-15.6260782436
 20
-9.3453651638
 10
-15.6130472906
 20
-9.3530700445
  0
LWPOLYLINE
  5
222
100
AcDbEntity
  8
RACCORDO
100
AcDbPolyline
 62
253
  6
CONTINUOUS
 90
8
 70
0
 10
-15.9559892904
 20
-8.8197704318
 10
-15.9506361182
 20
-8.8460895241
 10
-15.9392196685
 20
-8.8784704197
 10
-15.9227321494
 20
-8.909500107
 10
-15.9013483022
 20
-8.9388497214
 10
-15.8752947614
 20
-8.9662082042
 10
-15.8448476526
 20
-8.9912855992
 10
-15.8103296662
 20
-9.0138161265
  0
LWPOLYLINE
  5
223
100
AcDbEntity
  8
RACCORDO
100
AcDbPolyline
 62
7
  6
CONTINUOUS
 90
5
 70
0
 10
-15.955973389
 20
-8.81976821
 10
-15.9442452663
 20
-8.8855351988
 10
-15.9267764685
 20
-8.9517791811
 10
-15.9040578379
 20
-9.0151644284
 10
-15.8762539169
 20
-9.0753412999
  0
LINE
  5
224
100
AcDbEntity
  8
RACCORDO
100
AcDbLine
 62
7
  6
CONTINUOUS
 10
-15.9560406623
 20
-8.8194009011
 11
-15.9559892904
 21
-8.8197704318
  0
LWPOLYLINE
  5
225
100
AcDbEntity
  8
RACCORDO
100
AcDbPolyline
 62
253
  6
CONTINUOUS
 90
10
 70
0
 10
-15.8103296819
 20
-9.0138161383
 10
-15.9385866947
 20
-8.033432789
 10
-16.0538407604
 20
-7.043038886
 10
-16.1560668427
 20
-6.0428445272
 10
-16.2452423024
 20
-5.0330621486
 10
-16.3213482095
 20
-4.0139055623
 10
-16.3843693392
 20
-2.985589906
 10
-16.4342924365
 20
-1.9483328226
 10
-16.4711062272
 20
-0.9023544188
 10
-16.4948027213
 20
0.1521237016
  0
LWPOLYLINE
  5
226
100
AcDbEntity
  8
RACCORDO
100
AcDbPolyline
 62
253
  6
CONTINUOUS
 90
9
 70
0
 10
-16.6412476781
 20
0.355889251
 10
-16.6402252626
 20
0.3396844567
 10
-16.6342612163
 20
0.3096601001
 10
-16.623074666
 20
0.2802112384
 10
-16.6067841267
 20
0.2516498655
 10
-16.5855621876
 20
0.224278573
 10
-16.5596336829
 20
0.1983873441
 10
-16.5292733104
 20
0.1742504816
 10
-16.494802721
 20
0.1521237018
  0
LWPOLYLINE
  5
227
100
AcDbEntity
  8
RACCORDO
100
AcDbPolyline
 62
253
  6
CONTINUOUS
 90
9
 70
0
 10
-16.6412501708
 20
15.8693378553
 10
-16.6402252469
 20
15.8484930142
 10
-16.6342611997
 20
15.8194921613
 10
-16.6230746488
 20
15.7909353293
 10
-16.6067841094
 20
15.7631250616
 10
-16.5855621703
 20
15.7363559921
 10
-16.559633666
 20
15.7109117238
 10
-16.5292732941
 20
15.6870618242
 10
-16.4948027055
 20
15.6650589694
  0
LWPOLYLINE
  5
228
100
AcDbEntity
  8
RACCORDO
100
AcDbPolyline
 62
7
  6
CONTINUOUS
 90
10
 70
0
 10
-16.6412476564
 20
0.3558894922
 10
-16.6188416064
 20
-0.6535113975
 10
-16.5820127966
 20
-1.7142436627
 10
-16.5317153225
 20
-2.7661532238
 10
-16.4679565105
 20
-3.8089816358
 10
-16.3907475017
 20
-4.8425191269
 10
-16.3000991922
 20
-5.8665745617
 10
-16.1960250751
 20
-6.880939386
 10
-16.0785489941
 20
-7.885366001
 10
-15.9560406623
 20
-8.8194009011
  0
LWPOLYLINE
  5
229
100
AcDbEntity
  8
RACCORDO
100
AcDbPolyline
 62
253
  6
CONTINUOUS
 90
10
 70
0
 10
-16.4948027213
 20
0.1521237016
 10
-16.5193572647
 20
1.8607710936
 10
-16.5377729541
 20
3.5732258118
 10
-16.5500498381
 20
5.2894570895
 10
-16.5561880349
 20
7.0094107408
 10
-16.5561880317
 20
8.7330791329
 10
-16.5500498294
 20
10.4605016801
 10
-16.5377729427
 20
12.191671311
 10
-16.5193572556
 20
13.926533975
 10
-16.4948027213
 20
15.6650589606
  0
LWPOLYLINE
  5
22A
100
AcDbEntity
  8
RACCORDO
100
AcDbPolyline
 62
7
  6
CONTINUOUS
 90
14
 70
0
 10
15.1703509232
 20
-27.1270190116
 10
15.2033521155
 20
-27.144881866
 10
15.2566862798
 20
-27.1690184875
 10
15.3117918817
 20
-27.1884430692
 10
15.3688231513
 20
-27.2032197574
 10
15.4274302952
 20
-27.2131961021
 10
15.487195873
 20
-27.2182494001
 10
15.5482936597
 20
-27.2182902109
 10
15.6104375475
 20
-27.2131701182
 10
15.6732281039
 20
-27.2027858254
 10
15.7368038825
 20
-27.1869238804
 10
15.8010632915
 20
-27.1653275457
 10
15.865531595
 20
-27.1379012703
 10
15.8974368274
 20
-27.1221258489
  0
LINE
  5
22B
100
AcDbEntity
  8
RACCORDO
100
AcDbLine
 62
7
  6
CONTINUOUS
 10
-15.6131301148
 20
-9.3530274795
 11
-15.613791736
 21
-9.3526465048
  0
LINE
  5
22C
100
AcDbEntity
  8
ASSI
100
AcDbLine
 62
7
  6
CONTINUOUS
 10
15.1704714569
 20
-27.1270942549
 11
-15.6138261605
 21
-9.3526266285
  0
LINE
  5
22D
100
AcDbEntity
  8
RACCORDO
100
AcDbLine
 62
253
  6
CONTINUOUS
 10
14.9686822153
 20
-26.7852318561
 11
-15.8103296819
 21
-9.0138161383
  0
LINE
  5
22E
100
AcDbEntity
  8
RACCORDO
100
AcDbLine
 62
7
  6
CONTINUOUS
 10
15.1702631472
 20
-27.1269739114
 11
15.1704373252
 21
-27.1270745477
  0
LWPOLYLINE
  5
22F
100
AcDbEntity
  8
RACCORDO
100
AcDbPolyline
 62
253
  6
CONTINUOUS
 90
9
 70
0
 10
-15.6214058153
 20
-9.3481105805
 10
-15.6574902873
 20
-9.3224230841
 10
-15.6903560904
 20
-9.2916966424
 10
-15.7198045298
 20
-9.2561151502
 10
-15.7456545391
 20
-9.2158940444
 10
-15.7677540986
 20
-9.1712730435
 10
-15.7859706007
 20
-9.1225200255
 10
-15.8001913314
 20
-9.0699290236
 10
-15.8103296819
 20
-9.0138161383
  0
LINE
  5
230
100
AcDbEntity
  8
RACCORDO
100
AcDbLine
 62
253
  6
CONTINUOUS
 10
14.2476081037
 20
-17.5981590159
 11
-16.4948027213
 21
0.1521237016
  0
LWPOLYLINE
  5
231
100
AcDbEntity
  8
DRAFT
100
AcDbPolyline
 62
7
  6
CONTINUOUS
 90
3
 70
0
 10
-3.7568310039
 20
0.8237084379
 10
-3.7456528875
 20
0.8498952691
 10
-3.7334431314
 20
0.8750813009
  0
LWPOLYLINE
  5
232
100
AcDbEntity
  8
SUPERFICI
100
AcDbPolyline
 62
7
  6
CONTINUOUS
 90
21
 70
0
 10
-2.8483275758
 20
-0.4524436046
 10
-2.8345142631
 20
-0.4235869414
 10
-2.8220496485
 20
-0.3934505036
 10
-2.8109336136
 20
-0.3620342228
 10
-2.8011515631
 20
-0.3292802847
 10
-2.7927178396
 20
-0.2952463583
 10
-2.7856757785
 20
-0.2601056274
 10
-2.7800327443
 20
-0.223853637
 10
-2.7757812222
 20
-0.1864947561
 10
-2.7729423264
 20
-0.1482154613
 10
-2.7715227839
 20
-0.1090129733
 10
-2.7715158166
 20
-0.0688900426
 10
-2.7729223814
 20
-0.0280414986
 10
-2.7757488303
 20
0.0135360689
 10
-2.7799888595
 20
0.0558392213
 10
-2.7856245415
 20
0.0986627987
 10
-2.7926643722
 20
0.1420159046
 10
-2.8011
 20
0.1858893514
 10
-2.8108883255
 20
0.2300504857
 10
-2.8220150857
 20
0.2744216964
 10
-2.8344947964
 20
0.319080448
  0
LWPOLYLINE
  5
233
100
AcDbEntity
  8
SUPERFICI
100
AcDbPolyline
 62
7
  6
CONTINUOUS
 90
22
 70
0
 10
-3.7334431314
 20
0.8750813009
 10
-3.747317419
 20
0.8461894315
 10
-3.759837948
 20
0.8160207094
 10
-3.7710045998
 20
0.784575203
 10
-3.780831802
 20
0.751795195
 10
-3.7893048744
 20
0.717738549
 10
-3.796380084
 20
0.6825786786
 10
-3.8020499165
 20
0.6463112152
 10
-3.8063217359
 20
0.6089406148
 10
-3.8091742254
 20
0.5706534712
 10
-3.8106006064
 20
0.5314470347
 10
-3.8106076063
 20
0.4913240853
 10
-3.8091942663
 20
0.4504794532
 10
-3.8063542825
 20
0.4089097005
 10
-3.802094007
 20
0.3666182381
 10
-3.7964315632
 20
0.3238101126
 10
-3.7893585968
 20
0.2804761389
 10
-3.7808836065
 20
0.2366254195
 10
-3.7710500958
 20
0.1924903745
 10
-3.7598726692
 20
0.148148418
 10
-3.7473369749
 20
0.1035219906
 10
-3.7334431314
 20
0.0586110241
  0
LWPOLYLINE
  5
234
100
AcDbEntity
  8
RACCORDO
100
AcDbPolyline
 62
253
  6
CONTINUOUS
 90
16
 70
0
 10
15.662444774
 20
7.8237051602
 10
15.6237510979
 20
7.810885902
 10
15.5818197867
 20
7.8004219279
 10
15.5370952448
 20
7.7924241393
 10
15.4900514806
 20
7.7869772998
 10
15.4411870824
 20
7.7841391371
 10
15.3910199342
 20
7.7839397313
 10
15.3400817272
 20
7.7863811957
 10
15.2889123247
 20
7.7914376548
 10
15.2380540399
 20
7.7990555181
 10
15.188045889
 20
7.8091540486
 10
15.1394178781
 20
7.8216262181
 10
15.092685386
 20
7.8363398418
 10
15.048343702
 20
7.8531389792
 10
15.0068627767
 20
7.8718455862
 10
14.9686822413
 20
7.8922614029
  0
LINE
  5
235
100
AcDbEntity
  8
DRAFT
100
AcDbLine
 62
7
  6
CONTINUOUS
 10
-3.7334431314
 20
0.0586110241
 11
-3.7456501092
 21
0.0978249126
  0
LINE
  5
236
100
AcDbEntity
  8
DRAFT
100
AcDbLine
 62
7
  6
CONTINUOUS
 10
-1.718188805
 20
-1.1049715669
 11
-1.7303957828
 21
-1.0657576784
  0
LWPOLYLINE
  5
237
100
AcDbEntity
  8
DRAFT
100
AcDbPolyline
 62
7
  6
CONTINUOUS
 90
25
 70
0
 10
-2.8483275758
 20
0.3640266722
 10
-2.8361741669
 20
0.3247818537
 10
-2.8250480545
 20
0.2857246857
 10
-2.8149491538
 20
0.2468552172
 10
-2.8058663362
 20
0.2081186606
 10
-2.7978105511
 20
0.1695699073
 10
-2.7908148611
 20
0.1313735081
 10
-2.7848838048
 20
0.0935381853
 10
-2.7800127302
 20
0.0560552826
 10
-2.7762209727
 20
0.0190632489
 10
-2.7735134294
 20
-0.0174374535
 10
-2.7718851429
 20
-0.0534472514
 10
-2.7713407255
 20
-0.0888290627
 10
-2.7718831721
 20
-0.1235813231
 10
-2.7735094874
 20
-0.1577055961
 10
-2.7762153584
 20
-0.1910695266
 10
-2.7800057641
 20
-0.223668022
 10
-2.7848757854
 20
-0.2555062089
 10
-2.7908063196
 20
-0.2864670948
 10
-2.7978020949
 20
-0.3165536972
 10
-2.8058584968
 20
-0.3457630638
 10
-2.814942468
 20
-0.373969281
 10
-2.8250430606
 20
-0.4011304188
 10
-2.8361714017
 20
-0.4272885104
 10
-2.8483275758
 20
-0.4524436046
  0
LINE
  5
238
100
AcDbEntity
  8
SUPERFICI
100
AcDbLine
 62
7
  6
CONTINUOUS
 10
-2.8344947964
 20
0.319080448
 11
-2.8483275758
 21
0.3640266722
  0
LWPOLYLINE
  5
239
100
AcDbEntity
  8
DRAFT
100
AcDbPolyline
 62
7
  6
CONTINUOUS
 90
22
 70
0
 10
-3.7456501092
 20
0.0978249126
 10
-3.7568259867
 20
0.1368533469
 10
-3.7669706792
 20
0.1756963756
 10
-3.7760952014
 20
0.2144088526
 10
-3.7841883592
 20
0.2529360274
 10
-3.7912167856
 20
0.291113525
 10
-3.7971758235
 20
0.3289326915
 10
-3.8020700164
 20
0.3664022461
 10
-3.8058798562
 20
0.4033838392
 10
-3.8086003868
 20
0.4398770429
 10
-3.810236504
 20
0.4758823195
 10
-3.8107835351
 20
0.5112626217
 10
-3.810238485
 20
0.5460163853
 10
-3.8086043484
 20
0.5801451742
 10
-3.8058854982
 20
0.6135165988
 10
-3.8020770162
 20
0.6461255312
 10
-3.7971838804
 20
0.6779770641
 10
-3.791225366
 20
0.7089541054
 10
-3.7841968539
 20
0.7390596096
 10
-3.7761030767
 20
0.7682905562
 10
-3.7669773961
 20
0.796520856
 10
-3.7568310039
 20
0.8237084379
  0
LWPOLYLINE
  5
23A
100
AcDbEntity
  8
DRAFT
100
AcDbPolyline
 62
7
  6
CONTINUOUS
 90
22
 70
0
 10
-1.7303957828
 20
-1.0657576784
 10
-1.7415716603
 20
-1.0267292441
 10
-1.7517163529
 20
-0.9878862154
 10
-1.760840875
 20
-0.9491737384
 10
-1.7689340328
 20
-0.9106465636
 10
-1.7759624592
 20
-0.872469066
 10
-1.7819214972
 20
-0.8346498995
 10
-1.78681569
 20
-0.7971803449
 10
-1.7906255298
 20
-0.7601987518
 10
-1.7933460604
 20
-0.7237055481
 10
-1.7949821776
 20
-0.6877002715
 10
-1.7955292088
 20
-0.6523199693
 10
-1.7949841586
 20
-0.6175662057
 10
-1.793350022
 20
-0.5834374168
 10
-1.7906311718
 20
-0.5500659922
 10
-1.7868226898
 20
-0.5174570598
 10
-1.781929554
 20
-0.4856055269
 10
-1.7759710396
 20
-0.4546284856
 10
-1.7689425275
 20
-0.4245229813
 10
-1.7608487503
 20
-0.3952920348
 10
-1.7517230697
 20
-0.367061735
 10
-1.7415766775
 20
-0.3398741531
  0
LWPOLYLINE
  5
23B
100
AcDbEntity
  8
DRAFT
100
AcDbPolyline
 62
7
  6
CONTINUOUS
 90
3
 70
0
 10
-1.7415766775
 20
-0.3398741531
 10
-1.7303985611
 20
-0.3136873219
 10
-1.718188805
 20
-0.2885012901
  0
LWPOLYLINE
  5
23C
100
AcDbEntity
  8
SUPERFICI
100
AcDbPolyline
 62
7
  6
CONTINUOUS
 90
21
 70
0
 10
-0.6562965541
 20
-1.7180948439
 10
-0.6424832414
 20
-1.6892381808
 10
-0.6300186269
 20
-1.6591017429
 10
-0.6189025919
 20
-1.6276854621
 10
-0.6091205414
 20
-1.594931524
 10
-0.600686818
 20
-1.5608975976
 10
-0.5936447568
 20
-1.5257568667
 10
-0.5880017226
 20
-1.4895048763
 10
-0.5837502005
 20
-1.4521459954
 10
-0.5809113047
 20
-1.4138667006
 10
-0.5794917622
 20
-1.3746642126
 10
-0.5794847949
 20
-1.3345412819
 10
-0.5808913597
 20
-1.2936927379
 10
-0.5837178086
 20
-1.2521151704
 10
-0.5879578378
 20
-1.209812018
 10
-0.5935935198
 20
-1.1669884406
 10
-0.6006333505
 20
-1.1236353347
 10
-0.6090689783
 20
-1.0797618879
 10
-0.6188573039
 20
-1.0356007536
 10
-0.629984064
 20
-0.991229543
 10
-0.6424637747
 20
-0.9465707913
  0
LWPOLYLINE
  5
23D
100
AcDbEntity
  8
SUPERFICI
100
AcDbPolyline
 62
7
  6
CONTINUOUS
 90
22
 70
0
 10
-1.718188805
 20
-0.2885012901
 10
-1.7320630927
 20
-0.3173931594
 10
-1.7445836216
 20
-0.3475618816
 10
-1.7557502734
 20
-0.379007388
 10
-1.7655774756
 20
-0.411787396
 10
-1.774050548
 20
-0.445844042
 10
-1.7811257576
 20
-0.4810039124
 10
-1.7867955901
 20
-0.5172713758
 10
-1.7910674096
 20
-0.5546419762
 10
-1.793919899
 20
-0.5929291198
 10
-1.7953462801
 20
-0.6321355563
 10
-1.79535328
 20
-0.6722585057
 10
-1.7939399399
 20
-0.7131031378
 10
-1.7910999562
 20
-0.7546728905
 10
-1.7868396806
 20
-0.7969643529
 10
-1.7811772368
 20
-0.8397724784
 10
-1.7741042704
 20
-0.8831064521
 10
-1.7656292801
 20
-0.9269571715
 10
-1.7557957694
 20
-0.9710922164
 10
-1.7446183428
 20
-1.0154341729
 10
-1.7320826486
 20
-1.0600606004
 10
-1.718188805
 20
-1.1049715669
  0
LINE
  5
23E
100
AcDbEntity
  8
0
100
AcDbLine
 62
253
  6
CONTINUOUS
 10
16.3499696854
 20
9.3737140911
 11
15.6582547224
 21
8.9743285105
  0
LINE
  5
23F
100
AcDbEntity
  8
SUPERFICI
100
AcDbLine
 62
7
  6
CONTINUOUS
 10
1.3589577722
 20
-2.8816774349
 11
0.4738422167
 21
-2.3706228062
  0
LINE
  5
240
100
AcDbEntity
  8
DRAFT
100
AcDbLine
 62
7
  6
CONTINUOUS
 10
1.3589577722
 20
-2.8816774349
 11
0.4738422167
 21
-2.3706228062
  0
LINE
  5
241
100
AcDbEntity
  8
SUPERFICI
100
AcDbLine
 62
7
  6
CONTINUOUS
 10
-0.6562965541
 20
-1.7180948439
 11
-1.718188805
 21
-1.1049715669
  0
LINE
  5
242
100
AcDbEntity
  8
DRAFT
100
AcDbLine
 62
7
  6
CONTINUOUS
 10
-0.6562965541
 20
-1.7180948439
 11
-1.718188805
 21
-1.1049715669
  0
LINE
  5
243
100
AcDbEntity
  8
SUPERFICI
100
AcDbLine
 62
7
  6
CONTINUOUS
 10
-2.8483275758
 20
-0.4524436046
 11
-3.7334431314
 21
0.0586110241
  0
LINE
  5
244
100
AcDbEntity
  8
DRAFT
100
AcDbLine
 62
7
  6
CONTINUOUS
 10
-2.8483275758
 20
-0.4524436046
 11
-3.7334431314
 21
0.0586110241
  0
LINE
  5
245
100
AcDbEntity
  8
SUPERFICI
100
AcDbLine
 62
7
  6
CONTINUOUS
 10
1.3589577722
 20
-2.0652071581
 11
0.4738422167
 21
-1.5541525294
  0
LINE
  5
246
100
AcDbEntity
  8
DRAFT
100
AcDbLine
 62
7
  6
CONTINUOUS
 10
1.3589577722
 20
-2.0652071581
 11
0.4738422167
 21
-1.5541525294
  0
LINE
  5
247
100
AcDbEntity
  8
SUPERFICI
100
AcDbLine
 62
7
  6
CONTINUOUS
 10
-0.6562965541
 20
-0.9016245671
 11
-1.718188805
 21
-0.2885012901
  0
LINE
  5
248
100
AcDbEntity
  8
DRAFT
100
AcDbLine
 62
7
  6
CONTINUOUS
 10
-0.6562965541
 20
-0.9016245671
 11
-1.718188805
 21
-0.2885012901
  0
LINE
  5
249
100
AcDbEntity
  8
SUPERFICI
100
AcDbLine
 62
7
  6
CONTINUOUS
 10
-2.8483275758
 20
0.3640266722
 11
-3.7334431314
 21
0.8750813009
  0
LINE
  5
24A
100
AcDbEntity
  8
DRAFT
100
AcDbLine
 62
7
  6
CONTINUOUS
 10
-2.8483275758
 20
0.3640266722
 11
-3.7334431314
 21
0.8750813009
  0
LINE
  5
24B
100
AcDbEntity
  8
DRAFT
100
AcDbLine
 62
7
  6
CONTINUOUS
 10
0.4738422167
 20
-2.3706228062
 11
0.4616352389
 21
-2.3314089177
  0
LWPOLYLINE
  5
24C
100
AcDbEntity
  8
DRAFT
100
AcDbPolyline
 62
7
  6
CONTINUOUS
 90
25
 70
0
 10
-0.6562965541
 20
-0.9016245671
 10
-0.6441431453
 20
-0.9408693857
 10
-0.6330170328
 20
-0.9799265536
 10
-0.6229181322
 20
-1.0187960221
 10
-0.6138353145
 20
-1.0575325787
 10
-0.6057795294
 20
-1.096081332
 10
-0.5987838394
 20
-1.1342777312
 10
-0.5928527832
 20
-1.172113054
 10
-0.5879817085
 20
-1.2095959568
 10
-0.584189951
 20
-1.2465879904
 10
-0.5814824077
 20
-1.2830886928
 10
-0.5798541212
 20
-1.3190984907
 10
-0.5793097039
 20
-1.3544803021
 10
-0.5798521505
 20
-1.3892325624
 10
-0.5814784657
 20
-1.4233568354
 10
-0.5841843367
 20
-1.456720766
 10
-0.5879747425
 20
-1.4893192613
 10
-0.5928447637
 20
-1.5211574482
 10
-0.5987752979
 20
-1.5521183341
 10
-0.6057710733
 20
-1.5822049365
 10
-0.6138274751
 20
-1.6114143031
 10
-0.6229114463
 20
-1.6396205203
 10
-0.6330120389
 20
-1.6667816581
 10
-0.64414038
 20
-1.6929397498
 10
-0.6562965541
 20
-1.7180948439
  0
LINE
  5
24D
100
AcDbEntity
  8
SUPERFICI
100
AcDbLine
 62
7
  6
CONTINUOUS
 10
-0.6424637747
 20
-0.9465707913
 11
-0.6562965541
 21
-0.9016245671
  0
LWPOLYLINE
  5
24E
100
AcDbEntity
  8
DRAFT
100
AcDbPolyline
 62
7
  6
CONTINUOUS
 90
22
 70
0
 10
0.4616352389
 20
-2.3314089177
 10
0.4504593614
 20
-2.2923804834
 10
0.4403146688
 20
-2.2535374547
 10
0.4311901467
 20
-2.2148249776
 10
0.4230969888
 20
-2.1762978029
 10
0.4160685625
 20
-2.1381203053
 10
0.4101095245
 20
-2.1003011387
 10
0.4052153316
 20
-2.0628315841
 10
0.4014054918
 20
-2.025849991
 10
0.3986849612
 20
-1.9893567873
 10
0.3970488441
 20
-1.9533515107
 10
0.3965018129
 20
-1.9179712085
 10
0.3970468631
 20
-1.8832174449
 10
0.3986809997
 20
-1.849088656
 10
0.4013998499
 20
-1.8157172314
 10
0.4052083319
 20
-1.7831082991
 10
0.4101014677
 20
-1.7512567661
 10
0.4160599821
 20
-1.7202797248
 10
0.4230884942
 20
-1.6901742206
 10
0.4311822713
 20
-1.660943274
 10
0.440307952
 20
-1.6327129743
 10
0.4504543441
 20
-1.6055253924
  0
LWPOLYLINE
  5
24F
100
AcDbEntity
  8
DRAFT
100
AcDbPolyline
 62
7
  6
CONTINUOUS
 90
3
 70
0
 10
0.4504543441
 20
-1.6055253924
 10
0.4616324606
 20
-1.5793385612
 10
0.4738422167
 20
-1.5541525294
  0
LWPOLYLINE
  5
250
100
AcDbEntity
  8
SUPERFICI
100
AcDbPolyline
 62
7
  6
CONTINUOUS
 90
22
 70
0
 10
0.4738422167
 20
-1.5541525294
 10
0.459967929
 20
-1.5830443988
 10
0.4474474001
 20
-1.6132131209
 10
0.4362807483
 20
-1.6446586273
 10
0.4264535461
 20
-1.6774386353
 10
0.4179804737
 20
-1.7114952813
 10
0.410905264
 20
-1.7466551517
 10
0.4052354316
 20
-1.7829226151
 10
0.4009636121
 20
-1.8202932155
 10
0.3981111227
 20
-1.8585803591
 10
0.3966847416
 20
-1.8977867956
 10
0.3966777417
 20
-1.937909745
 10
0.3980910818
 20
-1.9787543771
 10
0.4009310655
 20
-2.0203241298
 10
0.4051913411
 20
-2.0626155922
 10
0.4108537848
 20
-2.1054237177
 10
0.4179267513
 20
-2.1487576914
 10
0.4264017416
 20
-2.1926084108
 10
0.4362352523
 20
-2.2367434558
 10
0.4474126789
 20
-2.2810854123
 10
0.4599483731
 20
-2.3257118397
 10
0.4738422167
 20
-2.3706228062
  0
LWPOLYLINE
  5
251
100
AcDbEntity
  8
RACCORDO
100
AcDbPolyline
 62
253
  6
CONTINUOUS
 90
19
 70
0
 10
15.6582547224
 20
8.9743285105
 10
15.6028664684
 20
8.9390785707
 10
15.5479327673
 20
8.8992008736
 10
15.4937790219
 20
8.8549375021
 10
15.4407215477
 20
8.8065585633
 10
15.3890790469
 20
8.7543551608
 10
15.3391705711
 20
8.6986379934
 10
15.2912930503
 20
8.6397454537
 10
15.2457279777
 20
8.5780323022
 10
15.2027533922
 20
8.513861945
 10
15.1626243474
 20
8.4476208485
 10
15.1255778233
 20
8.3797086099
 10
15.0918403519
 20
8.3105261118
 10
15.0616122446
 20
8.2404873525
 10
15.0350730695
 20
8.1700162176
 10
15.0123872796
 20
8.0995357943
 10
14.9936915326
 20
8.0294697045
 10
14.9790943329
 20
7.9602395387
 10
14.9686822153
 20
7.8922613924
  0
LWPOLYLINE
  5
252
100
AcDbEntity
  8
RACCORDO
100
AcDbPolyline
 62
253
  6
CONTINUOUS
 90
19
 70
0
 10
16.0116869591
 20
8.3621659201
 10
15.9835446065
 20
8.34467127
 10
15.9559007776
 20
8.3250814463
 10
15.9287554722
 20
8.303396449
 10
15.9019347559
 20
8.2794521851
 10
15.8756125632
 20
8.2534127476
 10
15.8503106976
 20
8.2257704156
 10
15.8260640377
 20
8.1965065992
 10
15.8028377049
 20
8.1656398883
 10
15.7810488675
 20
8.1337183324
 10
15.7607213928
 20
8.1007169841
 10
15.7418314135
 20
8.0666607909
 10
15.7247244956
 20
8.032172645
 10
15.7094333702
 20
7.9972273399
 10
15.6959253063
 20
7.9618500822
 10
15.6844476773
 20
7.9267393842
 10
15.6750829412
 20
7.8921280832
 10
15.6677486401
 20
7.8577833419
 10
15.662444774
 20
7.8237051602
  0
LINE
  5
253
100
AcDbEntity
  8
0
100
AcDbLine
 62
253
  6
CONTINUOUS
 10
16.7034019221
 20
8.7615515008
 11
16.0116869591
 21
8.3621659201
  0
LWPOLYLINE
  5
254
100
AcDbEntity
  8
DRAFT
100
AcDbPolyline
 62
7
  6
CONTINUOUS
 90
25
 70
0
 10
1.3589577722
 20
-2.0652071581
 10
1.3711111811
 20
-2.1044519766
 10
1.3822372936
 20
-2.1435091446
 10
1.3923361942
 20
-2.1823786131
 10
1.4014190119
 20
-2.2211151697
 10
1.409474797
 20
-2.259663923
 10
1.4164704869
 20
-2.2978603223
 10
1.4224015432
 20
-2.3356956451
 10
1.4272726179
 20
-2.3731785478
 10
1.4310643754
 20
-2.4101705815
 10
1.4337719187
 20
-2.4466712839
 10
1.4354002051
 20
-2.4826810818
 10
1.4359446225
 20
-2.5180628932
 10
1.4354021759
 20
-2.5528151535
 10
1.4337758606
 20
-2.5869394265
 10
1.4310699897
 20
-2.620303357
 10
1.4272795839
 20
-2.6529018524
 10
1.4224095627
 20
-2.6847400393
 10
1.4164790284
 20
-2.7157009251
 10
1.4094832531
 20
-2.7457875276
 10
1.4014268512
 20
-2.7749968941
 10
1.3923428801
 20
-2.8032031113
 10
1.3822422875
 20
-2.8303642491
 10
1.3711139464
 20
-2.8565223407
 10
1.3589577722
 20
-2.8816774349
  0
LINE
  5
255
100
AcDbEntity
  8
SUPERFICI
100
AcDbLine
 62
7
  6
CONTINUOUS
 10
1.3727905517
 20
-2.1101533823
 11
1.3589577722
 21
-2.0652071581
  0
LWPOLYLINE
  5
256
100
AcDbEntity
  8
SUPERFICI
100
AcDbPolyline
 62
7
  6
CONTINUOUS
 90
21
 70
0
 10
1.3589577722
 20
-2.8816774349
 10
1.3727710849
 20
-2.8528207717
 10
1.3852356995
 20
-2.8226843339
 10
1.3963517345
 20
-2.7912680531
 10
1.406133785
 20
-2.758514115
 10
1.4145675084
 20
-2.7244801886
 10
1.4216095696
 20
-2.6893394577
 10
1.4272526037
 20
-2.6530874673
 10
1.4315041259
 20
-2.6157285864
 10
1.4343430216
 20
-2.5774492916
 10
1.4357625642
 20
-2.5382468036
 10
1.4357695315
 20
-2.4981238729
 10
1.4343629667
 20
-2.4572753289
 10
1.4315365177
 20
-2.4156977614
 10
1.4272964885
 20
-2.373394609
 10
1.4216608066
 20
-2.3305710316
 10
1.4146209759
 20
-2.2872179257
 10
1.4061853481
 20
-2.2433444789
 10
1.3963970225
 20
-2.1991833446
 10
1.3852702624
 20
-2.1548121339
 10
1.3727905517
 20
-2.1101533823
  0
LINE
  5
257
100
AcDbEntity
  8
RACCORDO
100
AcDbLine
 62
253
  6
CONTINUOUS
 10
14.2476081037
 20
-2.0852237568
 11
-16.4948027213
 21
15.6650589606
  0
LWPOLYLINE
  5
258
100
AcDbEntity
  8
RACCORDO
100
AcDbPolyline
 62
253
  6
CONTINUOUS
 90
16
 70
0
 10
14.94527496
 20
-2.0982908133
 10
14.9061768638
 20
-2.1168076159
 10
14.8638466273
 20
-2.1329096529
 10
14.8187327153
 20
-2.1464263323
 10
14.7713130839
 20
-2.1572144526
 10
14.7220901172
 20
-2.1651597199
 10
14.6715853044
 20
-2.1701779585
 10
14.6203337153
 20
-2.1722160031
 10
14.5688783313
 20
-2.1712522617
 10
14.5177642929
 20
-2.1672969447
 10
14.4675331241
 20
-2.1603919563
 10
14.4187169957
 20
-2.150610451
 10
14.3718330867
 20
-2.1380560582
 10
14.3273781055
 20
-2.1228617847
 10
14.2858230272
 20
-2.105188605
 10
14.2476081042
 20
-2.0852237565
  0
LWPOLYLINE
  5
259
100
AcDbEntity
  8
RACCORDO
100
AcDbPolyline
 62
253
  6
CONTINUOUS
 90
19
 70
0
 10
15.662444774
 20
-26.7318053865
 10
15.6677486352
 20
-26.7600635647
 10
15.6750794675
 20
-26.7863625173
 10
15.6844372709
 20
-26.8107022443
 10
15.6959040923
 20
-26.8332234926
 10
15.7093978848
 20
-26.8537855154
 10
15.724672507
 20
-26.8719660717
 10
15.7417569364
 20
-26.8877057687
 10
15.7606221954
 20
-26.9010639992
 10
15.7809352095
 20
-26.9117967014
 10
15.8027265705
 20
-26.9198557769
 10
15.8259656866
 20
-26.925289324
 10
15.8502277074
 20
-26.9279975759
 10
15.8755467263
 20
-26.9279200151
 10
15.9018886499
 20
-26.9251171591
 10
15.9287263481
 20
-26.9196707928
 10
15.9558841106
 20
-26.9116081779
 10
15.9835376476
 20
-26.9009020528
 10
16.0116869591
 20
-26.8875524175
  0
LWPOLYLINE
  5
25A
100
AcDbEntity
  8
RACCORDO
100
AcDbPolyline
 62
253
  6
CONTINUOUS
 90
10
 70
0
 10
14.9686822153
 20
-26.7852318561
 10
14.9790944039
 20
-26.8415028522
 10
14.9936916143
 20
-26.8943112286
 10
15.0123872374
 20
-26.9433408851
 10
15.0350726392
 20
-26.9883001441
 10
15.0616111322
 20
-27.0289187717
 10
15.0918384575
 20
-27.0649499828
 10
15.1255751263
 20
-27.0961792514
 10
15.1626208662
 20
-27.122421772
 10
15.1702631472
 20
-27.1269739114
  0
LWPOLYLINE
  5
25B
100
AcDbEntity
  8
RACCORDO
100
AcDbPolyline
 62
253
  6
CONTINUOUS
 90
10
 70
0
 10
14.2476081037
 20
-17.5981590159
 10
14.2725726938
 20
-18.653369319
 10
14.3113548985
 20
-19.7004842604
 10
14.3639467276
 20
-20.7392822361
 10
14.4303377675
 20
-21.7695436363
 10
14.5105139027
 20
-22.7910503213
 10
14.6044573267
 20
-23.8035856627
 10
14.7121482488
 20
-24.8069353515
 10
14.8335648905
 20
-25.8008874486
 10
14.9686822153
 20
-26.7852318561
  0
LWPOLYLINE
  5
25C
100
AcDbEntity
  8
RACCORDO
100
AcDbPolyline
 62
253
  6
CONTINUOUS
 90
10
 70
0
 10
14.94527496
 20
-17.5957131371
 10
14.970121089
 20
-18.6454068871
 10
15.008689976
 20
-19.6866226197
 10
15.0609816209
 20
-20.7193603349
 10
15.1270132323
 20
-21.743840139
 10
15.2067676016
 20
-22.7598419257
 10
15.300193103
 20
-23.7667053757
 10
15.4072725279
 20
-24.7642103827
 10
15.5280230849
 20
-25.7525770529
 10
15.662444774
 20
-26.7318053865
  0
LWPOLYLINE
  5
25D
100
AcDbEntity
  8
RACCORDO
100
AcDbPolyline
 62
253
  6
CONTINUOUS
 90
10
 70
0
 10
14.2476081037
 20
-2.0852237568
 10
14.2217343937
 20
-3.8229870669
 10
14.2023293247
 20
-5.5572784743
 10
14.1893928502
 20
-7.2880672674
 10
14.1829248537
 20
-9.0152993956
 10
14.1829248503
 20
-10.7389677876
 10
14.189392841
 20
-12.4591118578
 10
14.202329313
 20
-14.1757239733
 10
14.2217343843
 20
-15.8887499482
 10
14.2476081037
 20
-17.5981590159
  0
LWPOLYLINE
  5
25E
100
AcDbEntity
  8
RACCORDO
100
AcDbPolyline
 62
253
  6
CONTINUOUS
 90
10
 70
0
 10
14.94527496
 20
-2.0982908133
 10
14.9194267373
 20
-3.8343651857
 10
14.9000405687
 20
-5.5669107652
 10
14.887116454
 20
-7.2959275519
 10
14.880654391
 20
-9.0214233416
 10
14.8806543821
 20
-10.7433903383
 10
14.8871164338
 20
-12.461805155
 10
14.9000405485
 20
-14.1766599958
 10
14.9194267239
 20
-15.8879626565
 10
14.94527496
 20
-17.5957131371
  0
LWPOLYLINE
  5
25F
100
AcDbEntity
  8
RACCORDO
100
AcDbPolyline
 62
253
  6
CONTINUOUS
 90
10
 70
0
 10
14.9686822153
 20
7.8922613924
 10
14.8335648895
 20
6.7598089972
 10
14.7121482473
 20
5.6327643906
 10
14.6044573251
 20
4.5113665821
 10
14.5105139015
 20
3.3958536537
 10
14.4303377671
 20
2.2864617745
 10
14.3639467278
 20
1.1834251544
 10
14.3113548988
 20
0.0869772395
 10
14.2725726941
 20
-1.002649341
 10
14.2476081037
 20
-2.0852237568
  0
LWPOLYLINE
  5
260
100
AcDbEntity
  8
RACCORDO
100
AcDbPolyline
 62
253
  6
CONTINUOUS
 90
10
 70
0
 10
15.662444774
 20
7.8237051602
 10
15.5280241854
 20
6.6971833815
 10
15.4072743802
 20
5.5765017918
 10
15.3001953583
 20
4.4616603909
 10
15.2067698131
 20
3.3524201701
 10
15.1270150512
 20
2.2490201381
 10
15.060982993
 20
1.1521773212
 10
15.0086909451
 20
0.062130728
 10
14.9701216007
 20
-1.0213586501
 10
14.94527496
 20
-2.0982908133
  0
LINE
  5
261
100
AcDbEntity
  8
RACCORDO
100
AcDbLine
 62
253
  6
CONTINUOUS
 10
14.9686822153
 20
7.8922613924
 11
-15.8103296819
 21
25.6636771103
  0
LWPOLYLINE
  5
262
100
AcDbEntity
  8
RACCORDO
100
AcDbPolyline
 62
253
  6
CONTINUOUS
 90
16
 70
0
 10
16.0116869591
 20
8.3621659201
 10
16.0088116627
 20
8.4054066677
 10
16.0022004063
 20
8.4504665169
 10
15.9919255129
 20
8.4968522531
 10
15.9780994095
 20
8.5440561424
 10
15.9608734002
 20
8.5915614767
 10
15.9404360143
 20
8.638848229
 10
15.9170109323
 20
8.6853987735
 10
15.8908545496
 20
8.7307035219
 10
15.8622531819
 20
8.7742664924
 10
15.8315198969
 20
8.8156107966
 10
15.7989911115
 20
8.8542838169
 10
15.7650229326
 20
8.8898621438
 10
15.7299872115
 20
8.9219562714
 10
15.694267468
 20
8.9502148523
 10
15.6582547248
 20
8.9743285119
  0
LINE
  5
263
100
AcDbEntity
  8
0
100
AcDbLine
 62
7
  6
CONTINUOUS
 10
16.7034019221
 20
8.7615515008
 11
16.7034019221
 21
-26.5289287307
  0
LINE
  5
264
100
AcDbEntity
  8
RACCORDO
100
AcDbLine
 62
253
  6
CONTINUOUS
 10
15.6582547224
 20
8.9743285105
 11
-15.138580901
 21
26.7560354244
  0
LINE
  5
265
100
AcDbEntity
  8
0
100
AcDbLine
 62
7
  6
CONTINUOUS
 10
16.3499696854
 20
9.3737140911
 11
-14.4821679109
 21
27.1758039218
  0
LWPOLYLINE
  5
266
100
AcDbEntity
  8
RACCORDO
100
AcDbPolyline
 62
253
  6
CONTINUOUS
 90
9
 70
0
 10
16.0116869591
 20
-26.8875524175
 10
16.0088115362
 20
-26.9295886124
 10
16.0021999975
 20
-26.9688722997
 10
15.9919247173
 20
-27.0049734541
 10
15.9780981755
 20
-27.0374968886
 10
15.9608717266
 20
-27.0660865801
 10
15.9404339427
 20
-27.0904295669
 10
15.9170085494
 20
-27.1102593747
 10
15.8976463394
 20
-27.12203001
  0
LWPOLYLINE
  5
267
100
AcDbEntity
  8
RACCORDO
100
AcDbPolyline
 62
253
  6
CONTINUOUS
 90
16
 70
0
 10
14.94527496
 20
-17.5957131371
 10
14.9061768632
 20
-17.6158251024
 10
14.8638466267
 20
-17.6335054024
 10
14.8187327152
 20
-17.6485667242
 10
14.7713130849
 20
-17.6608495018
 10
14.7220901197
 20
-17.6702236061
 10
14.6715853088
 20
-17.6765897239
 10
14.6203337218
 20
-17.6798804098
 10
14.5688783402
 20
-17.6800608008
 10
14.5177643043
 20
-17.6771289858
 10
14.4675331382
 20
-17.6711160257
 10
14.4187170125
 20
-17.6620856243
 10
14.371833106
 20
-17.6501334537
 10
14.3273781272
 20
-17.6353861403
 10
14.285823051
 20
-17.6179999234
 10
14.24760813
 20
-17.5981590001
  0
LWPOLYLINE
  5
268
100
AcDbEntity
  8
RACCORDO
100
AcDbPolyline
 62
253
  6
CONTINUOUS
 90
16
 70
0
 10
15.6624447738
 20
-26.7318053864
 10
15.623751621
 20
-26.7571685465
 10
15.581821042
 20
-26.7800434871
 10
15.5370974184
 20
-26.8001877788
 10
15.4900547327
 20
-26.8173879317
 10
15.4411915448
 20
-26.8314616581
 10
15.3910257084
 20
-26.8422598042
 10
15.3400888828
 20
-26.8496679308
 10
15.2889208982
 20
-26.8536075263
 10
15.2380640345
 20
-26.8540368389
 10
15.1880572744
 20
-26.8509513185
 10
15.1394305913
 20
-26.8443836657
 10
15.0926993324
 20
-26.8344034847
 10
15.0483587572
 20
-26.8211165459
 10
15.0068787886
 20
-26.8046636646
 10
14.9686990327
 20
-26.7852192091
  0
LINE
  5
269
100
AcDbEntity
  8
0
100
AcDbLine
 62
253
  6
CONTINUOUS
 10
16.0116869591
 20
-26.8875524175
 11
16.7034019221
 21
-26.5289287307
  0
LINE
  5
26A
100
AcDbEntity
  8
RACCORDO
100
AcDbLine
 62
7
  6
CONTINUOUS
 10
15.8976463394
 20
-27.12203001
 11
16.5931254976
 21
-26.7614547541
  0
ELLIPSE
  5
26B
100
AcDbEntity
  8
0
100
AcDbEllipse
 62
7
  6
CONTINUOUS
 10
-14.4819255615
 20
26.7672889139
 30
0.0
 11
-0.2501834304
 21
0.4333025529
 31
0.0
 40
0.5769361983
 41
-0.7851038024
 42
0.0263715828
  0
ELLIPSE
  5
26C
100
AcDbEntity
  8
0
100
AcDbEllipse
 62
7
  6
CONTINUOUS
 10
16.349727336
 20
-26.3244416253
 30
0.0
 11
-0.2501834304
 21
0.4333025529
 31
0.0
 40
0.5769361983
 41
-3.1679635486
 42
-2.3565853618
  0
ELLIPSE
  5
26D
100
AcDbEntity
  8
0
100
AcDbEllipse
 62
7
  6
CONTINUOUS
 10
16.349727336
 20
8.9654789423
 30
0.0
 11
-0.2500121049
 21
0.4330057129
 31
0.0
 40
0.5777274115
 41
-2.3559002616
 42
-0.7857891675
  0
ENDSEC
  0
SECTION
  2
OBJECTS
  0
DICTIONARY
  5
C
100
AcDbDictionary
280
0
281
1
  3
ACAD_GROUP
350
D
  3
ACAD_MLINESTYLE
350
17
  3
ACAD_LAYOUT
350
1A
  3
ACAD_PLOTSETTINGS
350
19
  3
ACAD_PLOTSTYLENAME
350
E
  0
DICTIONARY
  5
D
102
{ACAD_REACTORS
330
C
102
}
100
AcDbDictionary
280
0
281
1
  0
ACDBDICTIONARYWDFLT
  5
E
102
{ACAD_REACTORS
330
C
102
}
100
AcDbDictionary
281
1
  3
Normal
350
F
100
AcDbDictionaryWithDefault
340
F
  0
DICTIONARY
  5
17
102
{ACAD_REACTORS
330
C
102
}
100
AcDbDictionary
280
0
281
1
  3
Standard
350
18
  0
DICTIONARY
  5
19
102
{ACAD_REACTORS
330
C
102
}
100
AcDbDictionary
281
1
  0
DICTIONARY
  5
1A
102
{ACAD_REACTORS
330
C
102
}
100
AcDbDictionary
281
1
  3
Model
350
26E
  3
Layout1
350
26F
  0
ACDBPLACEHOLDER
  5
F
102
{ACAD_REACTORS
330
E
102
}
  0
MLINESTYLE
  5
18
102
{ACAD_REACTORS
330
17
102
}
100
AcDbMlineStyle
  2
STANDARD
 70
0
  3

 62
256
 51
90.0
 52
90.0
 71
2
 49
0.5
 62
256
  6
BYLAYER
 49
-0.5
 62
256
  6
BYLAYER
  0
LAYOUT
  5
26E
102
{ACAD_REACTORS
330
1A
102
}
100
AcDbPlotSettings
  1

  2
none_device
  4
ISO_A4_(297.00_x_210.00_MM)
  6

 40
0.0
 41
0.0
 42
0.0
 43
0.0
 44
297.0
 45
210.0
 46
0.0
 47
0.0
 48
0.0
 49
0.0
140
0.0
141
0.0
142
1.0
143
1.0
 70
1024
 72
1
 73
0
 74
0
  7

 75
0
147
1.0
148
0.0
149
0.0
100
AcDbLayout
  1
Model
 70
0
 71
0
 10
0.0
 20
0.0
 11
297.0
 21
210.0
 12
0.0
 22
0.0
 32
0.0
 14
0.0
 24
0.0
 34
0.0
 15
0.0
 25
0.0
 35
0.0
146
0.0
 13
0.0
 23
0.0
 33
0.0
 16
1.0
 26
0.0
 36
0.0
 17
0.0
 27
1.0
 37
0.0
 76
0
330
215
345
0
346
0
  0
LAYOUT
  5
26F
102
{ACAD_REACTORS
330
1A
102
}
100
AcDbPlotSettings
  1

  2
none_device
  4
ISO_A4_(297.00_x_210.00_MM)
  6

 40
0.0
 41
0.0
 42
0.0
 43
0.0
 44
297.0
 45
210.0
 46
0.0
 47
0.0
 48
0.0
 49
0.0
140
0.0
141
0.0
142
1.0
143
1.0
 70
0
 72
1
 73
0
 74
0
  7

 75
0
147
1.0
148
0.0
149
0.0
100
AcDbLayout
  1
Layout1
 70
0
 71
1
 10
0.0
 20
0.0
 11
297.0
 21
210.0
 12
0.0
 22
0.0
 32
0.0
 14
0.0
 24
0.0
 34
0.0
 15
0.0
 25
0.0
 35
0.0
146
0.0
 13
0.0
 23
0.0
 33
0.0
 16
1.0
 26
0.0
 36
0.0
 17
0.0
 27
1.0
 37
0.0
 76
0
330
216
345
0
346
0
  0
ENDSEC
  0
EOF
