  0
SECTION
  2
HEADER
  9
$ACADVER
  1
AC1015
  9
$DWGCODEPAGE
  3
ANSI_1252
  9
$EXTMAX
 10
297.0
 20
210.0
 30
0.0
  9
$EXTMIN
 10
0.0
 20
0.0
 30
0.0
  9
$LIMMIN
 10
0.0
 20
0.0
  9
$LIMMAX
 10
297.0
 20
210.0
  9
$VIEWCTR
 10
148.5
 20
105.0
  9
$VIEWSIZE
 40
210.0
  9
$CLAYER
  8
0
  9
$LTSCALE
 40
16.335
  9
$CELTYPE
  6
BYLAYER
  9
$DIMSCALE
 40
1.0
  9
$DIMASZ
 40
3.0
  9
$DIMEXO
 40
1.85625
  9
$DIMDLI
 40
11.286
  9
$DIMEXE
 40
5.346
  9
$DIMCEN
 40
2.673
  9
$DIMLFAC
 40
1.0
  9
$DIMBLK
  1
_FILLED
  9
$DIMTXT
 40
3.0
  9
$DIMTOL
 70
1
  9
$DIMLIM
 70
0
  9
$DIMTFAC
 40
1.0
  9
$DIMTP
 40
0.01
  9
$DIMTM
 40
0.01
  9
$PDMODE
 70
3
  9
$PDSIZE
 40
3.0
  9
$HANDSEED
  5
2A8
  9
$TILEMODE
 70
1
  9
$MEASUREMENT
 70
1
  9
$INSUNITS
 70
4
  0
ENDSEC
  0
SECTION
  2
CLASSES
  0
CLASS
  1
ACDBDICTIONARYWDFLT
  2
AcDbDictionaryWithDefault
  3
AutoCAD 2000
 90
0
280
0
281
0
  0
CLASS
  1
ACDBPLACEHOLDER
  2
AcDbPlaceHolder
  3
AutoCAD 2000
 90
0
280
0
281
0
  0
CLASS
  1
LAYOUT
  2
AcDbLayout
  3
AutoCAD 2000
 90
0
280
0
281
0
  0
ENDSEC
  0
SECTION
  2
TABLES
  0
TABLE
  2
VPORT
  5
8
100
AcDbSymbolTable
 70
2
  0
VPORT
  5
1F4
100
AcDbSymbolTableRecord
100
AcDbViewportTableRecord
  2
*ACTIVE
 70
0
 10
0.0
 20
0.0
 11
1.0
 21
1.0
 12
148.5
 22
105.0
 13
0.0
 23
0.0
 14
1.0
 24
1.0
 15
0.0
 25
0.0
 16
0.0
 26
0.0
 36
1.0
 17
0.0
 27
0.0
 37
0.0
 40
210.0
 41
1.4142857143
 42
50.0
 43
0.0
 44
0.0
 50
0.0
 51
0.0
 71
0
 72
100
 73
1
 74
1
 75
0
 76
0
 77
0
 78
0
  0
ENDTAB
  0
TABLE
  2
LTYPE
  5
5
100
AcDbSymbolTable
 70
6
  0
LTYPE
  5
14
100
AcDbSymbolTableRecord
100
AcDbLinetypeTableRecord
  2
BYBLOCK
 70
0
  3

 72
65
 73
0
 40
0.0
  0
LTYPE
  5
15
100
AcDbSymbolTableRecord
100
AcDbLinetypeTableRecord
  2
BYLAYER
 70
0
  3

 72
65
 73
0
 40
0.0
  0
LTYPE
  5
16
100
AcDbSymbolTableRecord
100
AcDbLinetypeTableRecord
  2
CONTINUOUS
 70
64
  3
Solid line
 72
65
 73
0
 40
0.0
  0
LTYPE
  5
1F5
100
AcDbSymbolTableRecord
100
AcDbLinetypeTableRecord
  2
CENTER
 70
64
  3
____ _ ____ _ ____ _ ____ _ ____ _ ____ _ ____
 72
65
 73
4
 40
0.6
 49
0.375
 74
0
 49
-0.075
 74
0
 49
0.075
 74
0
 49
-0.075
 74
0
  0
LTYPE
  5
1F6
100
AcDbSymbolTableRecord
100
AcDbLinetypeTableRecord
  2
HIDDEN
 70
64
  3
- - - - - - - - - - - - - - - - - - - -
 72
65
 73
2
 40
0.2
 49
0.1
 74
0
 49
-0.1
 74
0
  0
LTYPE
  5
1F7
100
AcDbSymbolTableRecord
100
AcDbLinetypeTableRecord
  2
PHANTOM
 70
64
  3
_____ _ _ _____ _ _ _____ _ _ _____
 72
65
 73
6
 40
0.8
 49
0.45
 74
0
 49
-0.05
 74
0
 49
0.1
 74
0
 49
-0.05
 74
0
 49
0.1
 74
0
 49
-0.05
 74
0
  0
LTYPE
  5
1F8
100
AcDbSymbolTableRecord
100
AcDbLinetypeTableRecord
  2
DOT
 70
64
  3
. . . . . . . . . . . . . . . . . . . .
 72
65
 73
2
 40
0.2
 49
0.1
 74
0
 49
-0.1
 74
0
  0
LTYPE
  5
1F9
100
AcDbSymbolTableRecord
100
AcDbLinetypeTableRecord
  2
DASHED
 70
64
  3
- - - - - - - - - - - - - - - - - - - -
 72
65
 73
2
 40
0.2
 49
0.1
 74
0
 49
-0.1
 74
0
  0
ENDTAB
  0
TABLE
  2
LAYER
  5
2
100
AcDbSymbolTable
 70
36
  0
LAYER
  5
10
100
AcDbSymbolTableRecord
100
AcDbLayerTableRecord
  2
0
 70
0
 62
7
  6
CONTINUOUS
370
-3
390
F
  0
LAYER
  5
1FA
100
AcDbSymbolTableRecord
100
AcDbLayerTableRecord
  2
DEFAULT_1
 70
0
 62
7
  6
CENTER
370
-3
390
F
  0
LAYER
  5
1FB
100
AcDbSymbolTableRecord
100
AcDbLayerTableRecord
  2
DEFAULT_2
 70
0
 62
7
  6
HIDDEN
370
-3
390
F
  0
LAYER
  5
1FC
100
AcDbSymbolTableRecord
100
AcDbLayerTableRecord
  2
DEFAULT_3
 70
0
 62
7
  6
PHANTOM
370
-3
390
F
  0
LAYER
  5
1FD
100
AcDbSymbolTableRecord
100
AcDbLayerTableRecord
  2
ASSI
 70
0
 62
7
  6
CONTINUOUS
370
-3
390
F
  0
LAYER
  5
1FE
100
AcDbSymbolTableRecord
100
AcDbLayerTableRecord
  2
COLOR9
 70
0
 62
7
  6
CONTINUOUS
370
-3
390
F
  0
LAYER
  5
1FF
100
AcDbSymbolTableRecord
100
AcDbLayerTableRecord
  2
COORDINATE
 70
0
 62
7
  6
CONTINUOUS
370
-3
390
F
  0
LAYER
  5
200
100
AcDbSymbolTableRecord
100
AcDbLayerTableRecord
  2
COORD_ORIGINE
 70
0
 62
7
  6
CONTINUOUS
370
-3
390
F
  0
LAYER
  5
201
100
AcDbSymbolTableRecord
100
AcDbLayerTableRecord
  2
COSMETICI
 70
0
 62
7
  6
CONTINUOUS
370
-3
390
F
  0
LAYER
  5
202
100
AcDbSymbolTableRecord
100
AcDbLayerTableRecord
  2
CURVE
 70
0
 62
7
  6
CONTINUOUS
370
-3
390
F
  0
LAYER
  5
203
100
AcDbSymbolTableRecord
100
AcDbLayerTableRecord
  2
DRAFT
 70
0
 62
7
  6
CONTINUOUS
370
-3
390
F
  0
LAYER
  5
204
100
AcDbSymbolTableRecord
100
AcDbLayerTableRecord
  2
IMPORT_IGES
 70
0
 62
7
  6
CONTINUOUS
370
-3
390
F
  0
LAYER
  5
205
100
AcDbSymbolTableRecord
100
AcDbLayerTableRecord
  2
INTF_1
 70
0
 62
7
  6
CONTINUOUS
370
-3
390
F
  0
LAYER
  5
206
100
AcDbSymbolTableRecord
100
AcDbLayerTableRecord
  2
INTF_8
 70
0
 62
7
  6
CONTINUOUS
370
-3
390
F
  0
LAYER
  5
207
100
AcDbSymbolTableRecord
100
AcDbLayerTableRecord
  2
INTF_YELLOW
 70
0
 62
7
  6
CONTINUOUS
370
-3
390
F
  0
LAYER
  5
208
100
AcDbSymbolTableRecord
100
AcDbLayerTableRecord
  2
NOTE
 70
0
 62
7
  6
CONTINUOUS
370
-3
390
F
  0
LAYER
  5
209
100
AcDbSymbolTableRecord
100
AcDbLayerTableRecord
  2
PIANI
 70
0
 62
7
  6
CONTINUOUS
370
-3
390
F
  0
LAYER
  5
20A
100
AcDbSymbolTableRecord
100
AcDbLayerTableRecord
  2
PIANI_ORIGINE
 70
0
 62
7
  6
CONTINUOUS
370
-3
390
F
  0
LAYER
  5
20B
100
AcDbSymbolTableRecord
100
AcDbLayerTableRecord
  2
PIANI_RIFERIMENTO
 70
0
 62
7
  6
CONTINUOUS
370
-3
390
F
  0
LAYER
  5
20C
100
AcDbSymbolTableRecord
100
AcDbLayerTableRecord
  2
PUNTI
 70
0
 62
7
  6
CONTINUOUS
370
-3
390
F
  0
LAYER
  5
20D
100
AcDbSymbolTableRecord
100
AcDbLayerTableRecord
  2
RACCORDO
 70
0
 62
7
  6
CONTINUOUS
370
-3
390
F
  0
LAYER
  5
20E
100
AcDbSymbolTableRecord
100
AcDbLayerTableRecord
  2
RGB__255__255__255__
 70
0
 62
7
  6
CONTINUOUS
370
-3
390
F
  0
LAYER
  5
20F
100
AcDbSymbolTableRecord
100
AcDbLayerTableRecord
  2
RGB____0____0____0__
 70
0
 62
7
  6
CONTINUOUS
370
-3
390
F
  0
LAYER
  5
210
100
AcDbSymbolTableRecord
100
AcDbLayerTableRecord
  2
SIMBOLI
 70
0
 62
7
  6
CONTINUOUS
370
-3
390
F
  0
LAYER
  5
211
100
AcDbSymbolTableRecord
100
AcDbLayerTableRecord
  2
SMUSSO
 70
0
 62
7
  6
CONTINUOUS
370
-3
390
F
  0
LAYER
  5
212
100
AcDbSymbolTableRecord
100
AcDbLayerTableRecord
  2
SNAPLINE
 70
0
 62
7
  6
CONTINUOUS
370
-3
390
F
  0
LAYER
  5
213
100
AcDbSymbolTableRecord
100
AcDbLayerTableRecord
  2
SUPERFICI
 70
0
 62
7
  6
CONTINUOUS
370
-3
390
F
  0
LAYER
  5
214
100
AcDbSymbolTableRecord
100
AcDbLayerTableRecord
  2
TRASH
 70
0
 62
7
  6
CONTINUOUS
370
-3
390
F
  0
LAYER
  5
215
100
AcDbSymbolTableRecord
100
AcDbLayerTableRecord
  2
XSEC_DATUMS
 70
0
 62
7
  6
CONTINUOUS
370
-3
390
F
  0
ENDTAB
  0
TABLE
  2
STYLE
  5
3
100
AcDbSymbolTable
 70
1
  0
STYLE
  5
11
100
AcDbSymbolTableRecord
100
AcDbTextStyleTableRecord
  2
STANDARD
 70
0
 40
0.0
 41
0.8
 50
0.0
 71
0
 42
0.2
  3
txt
  4

  0
STYLE
  5
216
100
AcDbSymbolTableRecord
100
AcDbTextStyleTableRecord
  2
TEXTSTYLE_1
 70
0
 40
0.0
 41
0.8
 50
0.0
 71
0
 42
0.2
  3
gdt
  4

  0
ENDTAB
  0
TABLE
  2
VIEW
  5
6
100
AcDbSymbolTable
 70
0
  0
ENDTAB
  0
TABLE
  2
UCS
  5
7
100
AcDbSymbolTable
 70
0
  0
ENDTAB
  0
TABLE
  2
APPID
  5
9
100
AcDbSymbolTable
 70
1
  0
APPID
  5
217
100
AcDbSymbolTableRecord
100
AcDbRegAppTableRecord
  2
ACAD
 70
0
  0
ENDTAB
  0
TABLE
  2
BLOCK_RECORD
  5
1
100
AcDbSymbolTable
 70
0
  0
BLOCK_RECORD
  5
218
100
AcDbSymbolTableRecord
100
AcDbBlockTableRecord
  2
*Model_Space
  0
BLOCK_RECORD
  5
219
100
AcDbSymbolTableRecord
100
AcDbBlockTableRecord
  2
*Paper_Space
  0
ENDTAB
  0
TABLE
  2
DIMSTYLE
  5
A
100
AcDbSymbolTable
 70
1
100
AcDbDimStyleTable
 71
0
  0
DIMSTYLE
105
21A
100
AcDbSymbolTableRecord
100
AcDbDimStyleTableRecord
  2
STANDARD
 70
0
  3

  4

 40
1.0
 41
3.0
 42
0.0625
 43
0.38
 44
0.18
 45
0.0
 46
0.0
 47
0.01
 48
0.01
140
3.0
141
0.09
142
0.0
143
25.4
144
1.0
145
0.0
146
1.0
147
0.09
 71
1.0
 72
0.0
 73
0
 74
0
 75
0
 76
0
 77
1
 78
8
170
0
171
2
172
0
173
0
174
0
175
0
176
0
177
0
178
0
270
2
271
2
272
2
273
2
274
2
275
0
280
0
281
0
282
0
283
1
284
8
285
0
286
0
287
3
288
0
340
11
  0
ENDTAB
  0
ENDSEC
  0
SECTION
  2
BLOCKS
  0
BLOCK
  5
20
100
AcDbEntity
  8
0
100
AcDbBlockBegin
  2
*Model_Space
 70
0
 10
0.0
 20
0.0
 30
0.0
  3
*Model_Space
  1

  0
ENDBLK
  5
21
100
AcDbEntity
  8
0
100
AcDbBlockEnd
  0
BLOCK
  5
1C
100
AcDbEntity
  8
0
100
AcDbBlockBegin
  2
*Paper_Space
 70
0
 10
0.0
 20
0.0
 30
0.0
  3
*Paper_Space
  1

  0
ENDBLK
  5
1D
100
AcDbEntity
  8
0
100
AcDbBlockEnd
  0
ENDSEC
  0
SECTION
  2
ENTITIES
  0
LWPOLYLINE
  5
21B
100
AcDbEntity
  8
RACCORDO
100
AcDbPolyline
 62
7
  6
CONTINUOUS
 90
15
 70
0
 10
-15.3985448018
 20
26.7745994892
 10
-15.4352401886
 20
26.7499819568
 10
-15.4989134109
 20
26.7015075437
 10
-15.5589451331
 20
26.6484606934
 10
-15.6155328276
 20
26.5911025499
 10
-15.6686535682
 20
26.5297410638
 10
-15.717979186
 20
26.4650058948
 10
-15.7634748489
 20
26.3971723594
 10
-15.8050381299
 20
26.3264359014
 10
-15.8422626213
 20
26.2535645924
 10
-15.8750337206
 20
26.1787799168
 10
-15.9031803744
 20
26.1022526883
 10
-15.9263518246
 20
26.0246382241
 10
-15.9443103963
 20
25.946175684
 10
-15.9573024127
 20
25.8630159964
  0
LINE
  5
21C
100
AcDbEntity
  8
RACCORDO
100
AcDbLine
 62
7
  6
CONTINUOUS
 10
-15.3986999018
 20
26.7745173858
 11
-14.7387148233
 21
27.1965701922
  0
LINE
  5
21D
100
AcDbEntity
  8
0
100
AcDbLine
 62
253
  6
CONTINUOUS
 10
-15.138580901
 20
26.7560354244
 11
-14.4821679109
 21
27.1758039218
  0
LWPOLYLINE
  5
21E
100
AcDbEntity
  8
RACCORDO
100
AcDbPolyline
 62
253
  6
CONTINUOUS
 90
9
 70
0
 10
-15.3985524926
 20
26.7746115432
 10
-15.3788004093
 20
26.7854130436
 10
-15.3499129236
 20
26.7957822307
 10
-15.318610747
 20
26.8013075381
 10
-15.2852365339
 20
26.8019284823
 10
-15.2501556206
 20
26.7976382658
 10
-15.2137520261
 20
26.7884838522
 10
-15.176424248
 20
26.7745654517
 10
-15.138580901
 20
26.7560354244
  0
LWPOLYLINE
  5
21F
100
AcDbEntity
  8
RACCORDO
100
AcDbPolyline
 62
253
  6
CONTINUOUS
 90
19
 70
0
 10
-15.8103296819
 20
25.6636771103
 10
-15.8001913919
 20
25.7318133611
 10
-15.78597067
 20
25.8012609005
 10
-15.767754051
 20
25.8716036328
 10
-15.745654079
 20
25.9424223001
 10
-15.7198033721
 20
26.0132909478
 10
-15.6903542641
 20
26.0837794915
 10
-15.6574880553
 20
26.1534650457
 10
-15.621403325
 20
26.2219326121
 10
-15.5823092892
 20
26.2887713098
 10
-15.5404442143
 20
26.3535822845
 10
-15.4960618674
 20
26.415978327
 10
-15.4494191126
 20
26.4755838051
 10
-15.4007982793
 20
26.5320444411
 10
-15.3504954613
 20
26.5850213597
 10
-15.2988060265
 20
26.6341901874
 10
-15.2460407827
 20
26.6792552623
 10
-15.19252394
 20
26.7199510356
 10
-15.138580901
 20
26.7560354244
  0
LWPOLYLINE
  5
220
100
AcDbEntity
  8
RACCORDO
100
AcDbPolyline
 62
7
  6
CONTINUOUS
 90
10
 70
0
 10
-16.6412501822
 20
15.8693380624
 10
-16.6652233428
 20
14.1775733704
 10
-16.6839297829
 20
12.4285216862
 10
-16.6963977846
 20
10.6831760508
 10
-16.7026269439
 20
8.9415722667
 10
-16.7026171343
 20
7.2037400246
 10
-16.6963682804
 20
5.4697067137
 10
-16.6838803616
 20
3.7395020246
 10
-16.6651536343
 20
2.0131614249
 10
-16.6412476781
 20
0.355889251
  0
LWPOLYLINE
  5
221
100
AcDbEntity
  8
RACCORDO
100
AcDbPolyline
 62
253
  6
CONTINUOUS
 90
10
 70
0
 10
-16.4948027213
 20
15.6650589606
 10
-16.4711062278
 20
16.7483655597
 10
-16.4342924375
 20
17.8391286781
 10
-16.3843693404
 20
18.9371174852
 10
-16.3213482106
 20
20.0420998488
 10
-16.245242303
 20
21.153841826
 10
-16.1560668429
 20
22.2721077168
 10
-16.0538407605
 20
23.3966608553
 10
-15.9385866947
 20
24.5272636563
 10
-15.8103296819
 20
25.6636771103
  0
LWPOLYLINE
  5
222
100
AcDbEntity
  8
RACCORDO
100
AcDbPolyline
 62
253
  6
CONTINUOUS
 90
10
 70
0
 10
-15.9573024127
 20
25.8630159964
 10
-15.9578168247
 20
25.8574029686
 10
-15.95684958
 20
25.8323573236
 10
-15.9506244774
 20
25.8070168136
 10
-15.9392074915
 20
25.7816500002
 10
-15.9227196206
 20
25.7565257242
 10
-15.9013356054
 20
25.7319102559
 10
-15.8752820761
 20
25.7080644732
 10
-15.8448351512
 20
25.6852410964
 10
-15.8103175109
 20
25.6636820105
  0
LWPOLYLINE
  5
223
100
AcDbEntity
  8
RACCORDO
100
AcDbPolyline
 62
7
  6
CONTINUOUS
 90
10
 70
0
 10
-15.9572840877
 20
25.8632543595
 10
-16.0801159612
 20
24.7770063237
 10
-16.1972622749
 20
23.6321973218
 10
-16.3010598649
 20
22.4934748745
 10
-16.391479008
 20
21.3611177887
 10
-16.4685002143
 20
20.235355121
 10
-16.5321064027
 20
19.1163973921
 10
-16.5822805498
 20
18.0044729375
 10
-16.619009514
 20
16.8998529797
 10
-16.6412501708
 20
15.8693378553
  0
LWPOLYLINE
  5
224
100
AcDbEntity
  8
RACCORDO
100
AcDbPolyline
 62
7
  6
CONTINUOUS
 90
8
 70
0
 10
-15.8762539169
 20
-9.0753412999
 10
-15.8437453008
 20
-9.1317036699
 10
-15.8069208136
 20
-9.1838710493
 10
-15.7661407769
 20
-9.2316142465
 10
-15.7220174228
 20
-9.2745523498
 10
-15.6751613575
 20
-9.31248025
 10
-15.6260782436
 20
-9.3453651638
 10
-15.6130472906
 20
-9.3530700445
  0
LWPOLYLINE
  5
225
100
AcDbEntity
  8
RACCORDO
100
AcDbPolyline
 62
253
  6
CONTINUOUS
 90
8
 70
0
 10
-15.9559892904
 20
-8.8197704318
 10
-15.9506361182
 20
-8.8460895241
 10
-15.9392196685
 20
-8.8784704197
 10
-15.9227321494
 20
-8.909500107
 10
-15.9013483022
 20
-8.9388497214
 10
-15.8752947614
 20
-8.9662082042
 10
-15.8448476526
 20
-8.9912855992
 10
-15.8103296662
 20
-9.0138161265
  0
LWPOLYLINE
  5
226
100
AcDbEntity
  8
RACCORDO
100
AcDbPolyline
 62
7
  6
CONTINUOUS
 90
5
 70
0
 10
-15.955973389
 20
-8.81976821
 10
-15.9442452663
 20
-8.8855351988
 10
-15.9267764685
 20
-8.9517791811
 10
-15.9040578379
 20
-9.0151644284
 10
-15.8762539169
 20
-9.0753412999
  0
LINE
  5
227
100
AcDbEntity
  8
RACCORDO
100
AcDbLine
 62
7
  6
CONTINUOUS
 10
-15.9560406623
 20
-8.8194009011
 11
-15.9559892904
 21
-8.8197704318
  0
LWPOLYLINE
  5
228
100
AcDbEntity
  8
RACCORDO
100
AcDbPolyline
 62
253
  6
CONTINUOUS
 90
10
 70
0
 10
-15.8103296819
 20
-9.0138161383
 10
-15.9385866947
 20
-8.033432789
 10
-16.0538407604
 20
-7.043038886
 10
-16.1560668427
 20
-6.0428445272
 10
-16.2452423024
 20
-5.0330621486
 10
-16.3213482095
 20
-4.0139055623
 10
-16.3843693392
 20
-2.985589906
 10
-16.4342924365
 20
-1.9483328226
 10
-16.4711062272
 20
-0.9023544188
 10
-16.4948027213
 20
0.1521237016
  0
LWPOLYLINE
  5
229
100
AcDbEntity
  8
RACCORDO
100
AcDbPolyline
 62
253
  6
CONTINUOUS
 90
9
 70
0
 10
-16.6412476781
 20
0.355889251
 10
-16.6402252626
 20
0.3396844567
 10
-16.6342612163
 20
0.3096601001
 10
-16.623074666
 20
0.2802112384
 10
-16.6067841267
 20
0.2516498655
 10
-16.5855621876
 20
0.224278573
 10
-16.5596336829
 20
0.1983873441
 10
-16.5292733104
 20
0.1742504816
 10
-16.494802721
 20
0.1521237018
  0
LWPOLYLINE
  5
22A
100
AcDbEntity
  8
RACCORDO
100
AcDbPolyline
 62
253
  6
CONTINUOUS
 90
9
 70
0
 10
-16.6412501708
 20
15.8693378553
 10
-16.6402252469
 20
15.8484930142
 10
-16.6342611997
 20
15.8194921613
 10
-16.6230746488
 20
15.7909353293
 10
-16.6067841094
 20
15.7631250616
 10
-16.5855621703
 20
15.7363559921
 10
-16.559633666
 20
15.7109117238
 10
-16.5292732941
 20
15.6870618242
 10
-16.4948027055
 20
15.6650589694
  0
LWPOLYLINE
  5
22B
100
AcDbEntity
  8
RACCORDO
100
AcDbPolyline
 62
7
  6
CONTINUOUS
 90
10
 70
0
 10
-16.6412476564
 20
0.3558894922
 10
-16.6188416064
 20
-0.6535113975
 10
-16.5820127966
 20
-1.7142436627
 10
-16.5317153225
 20
-2.7661532238
 10
-16.4679565105
 20
-3.8089816358
 10
-16.3907475017
 20
-4.8425191269
 10
-16.3000991922
 20
-5.8665745617
 10
-16.1960250751
 20
-6.880939386
 10
-16.0785489941
 20
-7.885366001
 10
-15.9560406623
 20
-8.8194009011
  0
LWPOLYLINE
  5
22C
100
AcDbEntity
  8
RACCORDO
100
AcDbPolyline
 62
253
  6
CONTINUOUS
 90
10
 70
0
 10
-16.4948027213
 20
0.1521237016
 10
-16.5193572647
 20
1.8607710936
 10
-16.5377729541
 20
3.5732258118
 10
-16.5500498381
 20
5.2894570895
 10
-16.5561880349
 20
7.0094107408
 10
-16.5561880317
 20
8.7330791329
 10
-16.5500498294
 20
10.4605016801
 10
-16.5377729427
 20
12.191671311
 10
-16.5193572556
 20
13.926533975
 10
-16.4948027213
 20
15.6650589606
  0
LWPOLYLINE
  5
22D
100
AcDbEntity
  8
RACCORDO
100
AcDbPolyline
 62
7
  6
CONTINUOUS
 90
14
 70
0
 10
15.1703509232
 20
-27.1270190116
 10
15.2033521155
 20
-27.144881866
 10
15.2566862798
 20
-27.1690184875
 10
15.3117918817
 20
-27.1884430692
 10
15.3688231513
 20
-27.2032197574
 10
15.4274302952
 20
-27.2131961021
 10
15.487195873
 20
-27.2182494001
 10
15.5482936597
 20
-27.2182902109
 10
15.6104375475
 20
-27.2131701182
 10
15.6732281039
 20
-27.2027858254
 10
15.7368038825
 20
-27.1869238804
 10
15.8010632915
 20
-27.1653275457
 10
15.865531595
 20
-27.1379012703
 10
15.8974368274
 20
-27.1221258489
  0
LINE
  5
22E
100
AcDbEntity
  8
RACCORDO
100
AcDbLine
 62
7
  6
CONTINUOUS
 10
-15.6131301148
 20
-9.3530274795
 11
-15.613791736
 21
-9.3526465048
  0
LINE
  5
22F
100
AcDbEntity
  8
ASSI
100
AcDbLine
 62
7
  6
CONTINUOUS
 10
15.1704714569
 20
-27.1270942549
 11
-15.6138261605
 21
-9.3526266285
  0
LINE
  5
230
100
AcDbEntity
  8
RACCORDO
100
AcDbLine
 62
253
  6
CONTINUOUS
 10
14.9686822153
 20
-26.7852318561
 11
-15.8103296819
 21
-9.0138161383
  0
LINE
  5
231
100
AcDbEntity
  8
RACCORDO
100
AcDbLine
 62
7
  6
CONTINUOUS
 10
15.1702631472
 20
-27.1269739114
 11
15.1704373252
 21
-27.1270745477
  0
LWPOLYLINE
  5
232
100
AcDbEntity
  8
RACCORDO
100
AcDbPolyline
 62
253
  6
CONTINUOUS
 90
9
 70
0
 10
-15.6214058153
 20
-9.3481105805
 10
-15.6574902873
 20
-9.3224230841
 10
-15.6903560904
 20
-9.2916966424
 10
-15.7198045298
 20
-9.2561151502
 10
-15.7456545391
 20
-9.2158940444
 10
-15.7677540986
 20
-9.1712730435
 10
-15.7859706007
 20
-9.1225200255
 10
-15.8001913314
 20
-9.0699290236
 10
-15.8103296819
 20
-9.0138161383
  0
LINE
  5
233
100
AcDbEntity
  8
RACCORDO
100
AcDbLine
 62
253
  6
CONTINUOUS
 10
14.2476081037
 20
-17.5981590159
 11
-16.4948027213
 21
0.1521237016
  0
LWPOLYLINE
  5
234
100
AcDbEntity
  8
SUPERFICI
100
AcDbPolyline
 62
7
  6
CONTINUOUS
 90
19
 70
0
 10
-3.0281417346
 20
-1.2862771808
 10
-3.0338128558
 20
-1.3098785453
 10
-3.0370670044
 20
-1.3344244076
 10
-3.0379042562
 20
-1.3599148118
 10
-3.0362006962
 20
-1.3866324742
 10
-3.0320803651
 20
-1.4142947514
 10
-3.025915373
 20
-1.4420537061
 10
-3.0177062302
 20
-1.469853391
 10
-3.00745276
 20
-1.4977499473
 10
-2.995526198
 20
-1.5250636614
 10
-2.9819682467
 20
-1.5517347841
 10
-2.9667375966
 20
-1.5778232932
 10
-2.950081047
 20
-1.6028291128
 10
-2.9319184826
 20
-1.6268587755
 10
-2.9123303688
 20
-1.6498059524
 10
-2.8918044207
 20
-1.6708513012
 10
-2.8705033095
 20
-1.6897217656
 10
-2.8482646172
 20
-1.7066905494
 10
-2.8250884087
 20
-1.7217576901
  0
LINE
  5
235
100
AcDbEntity
  8
0
100
AcDbLine
 62
7
  6
CONTINUOUS
 10
-3.0338126927
 20
-1.3098777476
 11
-3.0281413393
 21
-1.2862759689
  0
LINE
  5
236
100
AcDbEntity
  8
0
100
AcDbLine
 62
7
  6
CONTINUOUS
 10
-3.0281413393
 20
-1.2862759689
 11
-2.6670830647
 21
-0.1837643138
  0
LINE
  5
237
100
AcDbEntity
  8
SUPERFICI
100
AcDbLine
 62
7
  6
CONTINUOUS
 10
-2.5361692786
 20
-1.400400854
 11
-2.1328478838
 21
-0.1708073521
  0
LINE
  5
238
100
AcDbEntity
  8
0
100
AcDbLine
 62
7
  6
CONTINUOUS
 10
-2.6670830647
 20
-0.1837643138
 11
-2.3023665703
 21
0.9208591186
  0
LINE
  5
239
100
AcDbEntity
  8
0
100
AcDbLine
 62
7
  6
CONTINUOUS
 10
-1.8069172875
 20
0.8147561682
 11
-2.5361692786
 21
-1.400400854
  0
LINE
  5
23A
100
AcDbEntity
  8
SUPERFICI
100
AcDbLine
 62
7
  6
CONTINUOUS
 10
-2.1328478838
 20
-0.1708073521
 11
-1.8069172648
 21
0.8147562366
  0
LWPOLYLINE
  5
23B
100
AcDbEntity
  8
SUPERFICI
100
AcDbPolyline
 62
7
  6
CONTINUOUS
 90
3
 70
0
 10
-2.2106160634
 20
1.1973438374
 10
-2.3023665898
 20
0.9208590599
 10
-3.0281417346
 20
-1.2862771808
  0
LINE
  5
23C
100
AcDbEntity
  8
0
100
AcDbLine
 62
7
  6
CONTINUOUS
 10
-2.3023665703
 20
0.9208591186
 11
-2.210616094
 21
1.1973437453
  0
LWPOLYLINE
  5
23D
100
AcDbEntity
  8
SUPERFICI
100
AcDbPolyline
 62
7
  6
CONTINUOUS
 90
8
 70
0
 10
-1.8069172648
 20
0.8147562366
 10
-1.7912950975
 20
0.8557342027
 10
-1.772855535
 20
0.8933551505
 10
-1.7515991068
 20
0.927618776
 10
-1.7273783654
 20
0.9586918526
 10
-1.700341714
 20
0.9864070583
 10
-1.6709336356
 20
1.0102628439
 10
-1.6391370538
 20
1.0301647712
  0
LINE
  5
23E
100
AcDbEntity
  8
0
100
AcDbLine
 62
7
  6
CONTINUOUS
 10
-2.210616094
 20
1.1973437453
 11
-2.1847571226
 21
1.2650979639
  0
LINE
  5
23F
100
AcDbEntity
  8
0
100
AcDbLine
 62
7
  6
CONTINUOUS
 10
-2.1847571226
 20
1.2650979639
 11
-2.1542306422
 21
1.3272928614
  0
LINE
  5
240
100
AcDbEntity
  8
0
100
AcDbLine
 62
7
  6
CONTINUOUS
 10
-2.1542306422
 20
1.3272928614
 11
-2.1190380804
 21
1.3839276521
  0
LINE
  5
241
100
AcDbEntity
  8
0
100
AcDbLine
 62
7
  6
CONTINUOUS
 10
-2.1190380804
 20
1.3839276521
 11
-2.0789340375
 21
1.4352781253
  0
LINE
  5
242
100
AcDbEntity
  8
0
100
AcDbLine
 62
7
  6
CONTINUOUS
 10
-2.0789340375
 20
1.4352781253
 11
-2.0341665402
 21
1.481066972
  0
LWPOLYLINE
  5
243
100
AcDbEntity
  8
SUPERFICI
100
AcDbPolyline
 62
7
  6
CONTINUOUS
 90
7
 70
0
 10
-1.9988400905
 20
1.510601235
 10
-2.0341665605
 20
1.4810669527
 10
-2.0789340441
 20
1.4352781166
 10
-2.1190380752
 20
1.3839276596
 10
-2.1542306267
 20
1.3272928915
 10
-2.1847571065
 20
1.2650980061
 10
-2.2106160634
 20
1.1973438374
  0
LINE
  5
244
100
AcDbEntity
  8
0
100
AcDbLine
 62
7
  6
CONTINUOUS
 10
-2.0341665402
 20
1.481066972
 11
-1.9988400905
 21
1.5106012351
  0
LWPOLYLINE
  5
245
100
AcDbEntity
  8
0
100
AcDbPolyline
 62
7
  6
CONTINUOUS
 90
32
 70
0
 10
-1.9988400905
 20
1.5106012351
 10
-1.9854776785
 20
1.5204634082
 10
-1.9328378099
 20
1.5533090003
 10
-1.8762800263
 20
1.5797602071
 10
-1.816641236
 20
1.5994581749
 10
-1.7538724893
 20
1.6123037217
 10
-1.6880259887
 20
1.6183941702
 10
-1.6200906239
 20
1.6176652796
 10
-1.5500501381
 20
1.6100177926
 10
-1.4779233211
 20
1.5955495204
 10
-1.4047515726
 20
1.5744918591
 10
-1.330525064
 20
1.5467571176
 10
-1.2552549975
 20
1.5124322033
 10
-1.1800140519
 20
1.4720105633
 10
-1.104794337
 20
1.4254024607
 10
-1.029603737
 20
1.3726976359
 10
-0.9555382535
 20
1.314658944
 10
-0.8826143165
 20
1.2512101356
 10
-0.8108141114
 20
1.1824282501
 10
-0.7411820099
 20
1.1093062275
 10
-0.6737414476
 20
1.0317707908
 10
-0.6084664589
 20
0.9498966613
 10
-0.5463272665
 20
0.8648988043
 10
-0.487383067
 20
0.7767591192
 10
-0.4315714425
 20
0.6854975478
 10
-0.3796804473
 20
0.5923859751
 10
-0.3317280525
 20
0.4972883796
 10
-0.2876928552
 20
0.4003427475
 10
-0.2483045563
 20
0.3032315719
 10
-0.2138057342
 20
0.2065160603
 10
-0.1839512162
 20
0.1096364948
 10
-0.1587395646
 20
0.0125937014
  0
LWPOLYLINE
  5
246
100
AcDbEntity
  8
SUPERFICI
100
AcDbPolyline
 62
7
  6
CONTINUOUS
 90
3
 70
0
 10
-1.9328378659
 20
1.5533089702
 10
-1.9854777151
 20
1.5204633821
 10
-1.9988400905
 20
1.510601235
  0
LWPOLYLINE
  5
247
100
AcDbEntity
  8
RACCORDO
100
AcDbPolyline
 62
253
  6
CONTINUOUS
 90
16
 70
0
 10
15.662444774
 20
7.8237051602
 10
15.6237510979
 20
7.810885902
 10
15.5818197867
 20
7.8004219279
 10
15.5370952448
 20
7.7924241393
 10
15.4900514806
 20
7.7869772998
 10
15.4411870824
 20
7.7841391371
 10
15.3910199342
 20
7.7839397313
 10
15.3400817272
 20
7.7863811957
 10
15.2889123247
 20
7.7914376548
 10
15.2380540399
 20
7.7990555181
 10
15.188045889
 20
7.8091540486
 10
15.1394178781
 20
7.8216262181
 10
15.092685386
 20
7.8363398418
 10
15.048343702
 20
7.8531389792
 10
15.0068627767
 20
7.8718455862
 10
14.9686822413
 20
7.8922614029
  0
LWPOLYLINE
  5
248
100
AcDbEntity
  8
0
100
AcDbPolyline
 62
7
  6
CONTINUOUS
 90
21
 70
0
 10
-1.4269142566
 20
-3.2882565551
 10
-1.4465174664
 20
-3.292981279
 10
-1.4674805504
 20
-3.2941386195
 10
-1.4898225345
 20
-3.2917629305
 10
-1.5128704583
 20
-3.2859337399
 10
-1.5367352014
 20
-3.2765293779
 10
-1.5613061183
 20
-3.2636716508
 10
-1.5855778935
 20
-3.2478052607
 10
-1.6095505921
 20
-3.2287610908
 10
-1.6332240018
 20
-3.2067081717
 10
-1.6555923142
 20
-3.1825983815
 10
-1.67655304
 20
-3.156396964
 10
-1.6962082053
 20
-3.1281384048
 10
-1.713858789
 20
-3.0988784526
 10
-1.7294392563
 20
-3.0686359138
 10
-1.7430145799
 20
-3.0373916539
 10
-1.7540816321
 20
-3.0061445878
 10
-1.7626319649
 20
-2.9748790082
 10
-1.7686735462
 20
-2.9436103422
 10
-1.7717280951
 20
-2.9133843365
 10
-1.7716361627
 20
-2.8845496851
  0
LINE
  5
249
100
AcDbEntity
  8
0
100
AcDbLine
 62
7
  6
CONTINUOUS
 10
0.5829839045
 20
-3.6408061963
 11
0.5648948957
 21
-3.6443439401
  0
LINE
  5
24A
100
AcDbEntity
  8
0
100
AcDbLine
 62
7
  6
CONTINUOUS
 10
-2.0331340676
 20
-2.1359963257
 11
-2.0542414138
 21
-2.1386378928
  0
LINE
  5
24B
100
AcDbEntity
  8
0
100
AcDbLine
 62
7
  6
CONTINUOUS
 10
0.5648948957
 20
-3.6443439401
 11
0.5453126105
 21
-3.645085388
  0
LINE
  5
24C
100
AcDbEntity
  8
0
100
AcDbLine
 62
7
  6
CONTINUOUS
 10
-2.0542414138
 20
-2.1386378928
 11
-2.0768522597
 21
-2.1373695522
  0
LINE
  5
24D
100
AcDbEntity
  8
0
100
AcDbLine
 62
7
  6
CONTINUOUS
 10
0.5453126105
 20
-3.645085388
 11
0.5245912571
 21
-3.6426756893
  0
LINE
  5
24E
100
AcDbEntity
  8
0
100
AcDbLine
 62
7
  6
CONTINUOUS
 10
-2.0768522597
 20
-2.1373695522
 11
-2.1008228561
 21
-2.1320405853
  0
LINE
  5
24F
100
AcDbEntity
  8
0
100
AcDbLine
 62
7
  6
CONTINUOUS
 10
0.5245912571
 20
-3.6426756893
 11
0.5028487725
 21
-3.6369966307
  0
LWPOLYLINE
  5
250
100
AcDbEntity
  8
0
100
AcDbPolyline
 62
7
  6
CONTINUOUS
 90
3
 70
0
 10
-2.1008229706
 20
-2.1320405599
 10
-2.1262975606
 20
-2.1228019021
 10
-2.1532762041
 20
-2.1096536373
  0
LWPOLYLINE
  5
251
100
AcDbEntity
  8
0
100
AcDbPolyline
 62
7
  6
CONTINUOUS
 90
3
 70
0
 10
0.5028486829
 20
-3.6369966073
 10
0.4799667923
 20
-3.6281665414
 10
0.4559454624
 20
-3.6161855263
  0
LWPOLYLINE
  5
252
100
AcDbEntity
  8
SUPERFICI
100
AcDbPolyline
 62
7
  6
CONTINUOUS
 90
12
 70
0
 10
-1.3532515747
 20
-2.0840165692
 10
-1.367966781
 20
-2.077303214
 10
-1.3824761578
 20
-2.0718778486
 10
-1.3968542283
 20
-2.0677242796
 10
-1.4110264157
 20
-2.0648586694
 10
-1.4247690457
 20
-2.0633295384
 10
-1.4380672716
 20
-2.0631581294
 10
-1.4509358428
 20
-2.0643231431
 10
-1.4631954776
 20
-2.0668092851
 10
-1.4748406078
 20
-2.0706341362
 10
-1.4858766761
 20
-2.0757800426
 10
-1.4960873677
 20
-2.0821454745
  0
LWPOLYLINE
  5
253
100
AcDbEntity
  8
SUPERFICI
100
AcDbPolyline
 62
7
  6
CONTINUOUS
 90
7
 70
0
 10
-2.1532762036
 20
-2.1096536375
 10
-2.1262975031
 20
-2.1228019165
 10
-2.1008228717
 20
-2.1320405797
 10
-2.0768522029
 20
-2.1373695648
 10
-2.0542413211
 20
-2.138637898
 10
-2.0331339956
 20
-2.1359963166
 10
-2.0150035902
 20
-2.1303334242
  0
LWPOLYLINE
  5
254
100
AcDbEntity
  8
SUPERFICI
100
AcDbPolyline
 62
7
  6
CONTINUOUS
 90
8
 70
0
 10
0.4559454625
 20
-3.6161855263
 10
0.4799668369
 20
-3.6281665541
 10
0.50284876
 20
-3.6369966259
 10
0.5245913019
 20
-3.642675701
 10
0.5453126814
 20
-3.6450853963
 10
0.564894949
 20
-3.6443439381
 10
0.582983939
 20
-3.6408061895
 10
0.5942299183
 20
-3.6368882881
  0
LINE
  5
255
100
AcDbEntity
  8
SUPERFICI
100
AcDbLine
 62
7
  6
CONTINUOUS
 10
-1.3383305521
 20
-2.0920179222
 11
-1.3532216601
 21
-2.0840326108
  0
LINE
  5
256
100
AcDbEntity
  8
SUPERFICI
100
AcDbLine
 62
7
  6
CONTINUOUS
 10
0.4559444329
 20
-3.6161849318
 11
-1.1818543292
 21
-2.670540453
  0
LINE
  5
257
100
AcDbEntity
  8
0
100
AcDbLine
 62
7
  6
CONTINUOUS
 10
0.4559444329
 20
-3.6161849318
 11
-1.1818543292
 21
-2.670540453
  0
LINE
  5
258
100
AcDbEntity
  8
SUPERFICI
100
AcDbLine
 62
7
  6
CONTINUOUS
 10
-2.1532776221
 20
-2.1096528185
 11
-2.8250883976
 21
-1.7217576965
  0
LINE
  5
259
100
AcDbEntity
  8
0
100
AcDbLine
 62
7
  6
CONTINUOUS
 10
-2.1532776221
 20
-2.1096528185
 11
-2.8250883976
 21
-1.7217576965
  0
LINE
  5
25A
100
AcDbEntity
  8
SUPERFICI
100
AcDbLine
 62
7
  6
CONTINUOUS
 10
0.1641301029
 20
-2.9595198741
 11
-1.3383305244
 21
-2.0920179382
  0
LINE
  5
25B
100
AcDbEntity
  8
0
100
AcDbLine
 62
7
  6
CONTINUOUS
 10
0.1641301029
 20
-2.9595198741
 11
-1.3383305244
 21
-2.0920179382
  0
LINE
  5
25C
100
AcDbEntity
  8
SUPERFICI
100
AcDbLine
 62
7
  6
CONTINUOUS
 10
-2.1547558713
 20
-1.6206241751
 11
-2.5361692786
 21
-1.400400854
  0
LINE
  5
25D
100
AcDbEntity
  8
0
100
AcDbLine
 62
7
  6
CONTINUOUS
 10
-2.1547558713
 20
-1.6206241751
 11
-2.5361692786
 21
-1.400400854
  0
LWPOLYLINE
  5
25E
100
AcDbEntity
  8
0
100
AcDbPolyline
 62
7
  6
CONTINUOUS
 90
18
 70
0
 10
-2.8250809579
 20
-1.7217619921
 10
-2.8482577447
 20
-1.7066953758
 10
-2.8704970396
 20
-1.6897269605
 10
-2.8917987778
 20
-1.6708567084
 10
-2.912325393
 20
-1.6498114013
 10
-2.9319141984
 20
-1.6268641102
 10
-2.9500774311
 20
-1.6028342211
 10
-2.9667346225
 20
-1.5778280576
 10
-2.9819658912
 20
-1.5517390924
 10
-2.9955244002
 20
-1.525067462
 10
-3.0074514539
 20
-1.4977531942
 10
-3.0177053551
 20
-1.4698560327
 10
-3.0259148458
 20
-1.4420557343
 10
-3.0320801017
 20
-1.4142961529
 10
-3.0362006134
 20
-1.3866332407
 10
-3.0379042524
 20
-1.3599149936
 10
-3.0370669717
 20
-1.3344240745
 10
-3.0338126927
 20
-1.3098777476
  0
LWPOLYLINE
  5
25F
100
AcDbEntity
  8
0
100
AcDbPolyline
 62
7
  6
CONTINUOUS
 90
22
 70
0
 10
-2.1547557154
 20
-1.6206242651
 10
-2.128721487
 20
-1.6378110897
 10
-2.1039450795
 20
-1.6572731265
 10
-2.0804263937
 20
-1.6790103178
 10
-2.0579673245
 20
-1.7033587172
 10
-2.0367655923
 20
-1.7299820477
 10
-2.0174148112
 20
-1.7578717411
 10
-1.9999567009
 20
-1.7869981978
 10
-1.9843490073
 20
-1.817390707
 10
-1.9710594801
 20
-1.8481290902
 10
-1.9601037049
 20
-1.8793425896
 10
-1.9514655644
 20
-1.9109016538
 10
-1.9455654957
 20
-1.9414980543
 10
-1.9425442561
 20
-1.9711007634
 10
-1.9422608638
 20
-1.9997406779
 10
-1.9447135429
 20
-2.0262026871
 10
-1.950010406
 20
-2.0503380144
 10
-1.9580435612
 20
-2.0722955644
 10
-1.9684876059
 20
-2.0913069684
 10
-1.9813932633
 20
-2.1072869223
 10
-1.9967102986
 20
-2.1203210141
 10
-2.01500359
 20
-2.1303334248
  0
LWPOLYLINE
  5
260
100
AcDbEntity
  8
SUPERFICI
100
AcDbPolyline
 62
7
  6
CONTINUOUS
 90
4
 70
0
 10
-2.0804264483
 20
-1.6790102628
 10
-2.1039451562
 20
-1.6572730667
 10
-2.128721596
 20
-1.6378110192
 10
-2.1547558669
 20
-1.6206241776
  0
LWPOLYLINE
  5
261
100
AcDbEntity
  8
0
100
AcDbPolyline
 62
7
  6
CONTINUOUS
 90
3
 70
0
 10
-1.7716361623
 20
-2.88454956
 10
-1.7685569777
 20
-2.856757316
 10
-1.7624904119
 20
-2.8300075289
  0
LWPOLYLINE
  5
262
100
AcDbEntity
  8
SUPERFICI
100
AcDbPolyline
 62
7
  6
CONTINUOUS
 90
24
 70
0
 10
-1.762490412
 20
-2.8300075293
 10
-1.7685569785
 20
-2.8567573763
 10
-1.7716361605
 20
-2.8845496656
 10
-1.7717280876
 20
-2.9133844728
 10
-1.7686735272
 20
-2.9436104922
 10
-1.7626319312
 20
-2.9748791572
 10
-1.7540815878
 20
-3.0061447288
 10
-1.7430145319
 20
-3.0373917795
 10
-1.7294392086
 20
-3.0686360169
 10
-1.7138587431
 20
-3.0988785349
 10
-1.6962081624
 20
-3.1281384708
 10
-1.6765530017
 20
-3.1563970155
 10
-1.6555922807
 20
-3.1825984204
 10
-1.6332239726
 20
-3.2067082006
 10
-1.6095505674
 20
-3.2287611115
 10
-1.5855778744
 20
-3.2478052744
 10
-1.5613061067
 20
-3.2636716577
 10
-1.5367351985
 20
-3.276529379
 10
-1.5128704648
 20
-3.2859337378
 10
-1.489822552
 20
-3.2917629283
 10
-1.4674805796
 20
-3.2941386197
 10
-1.4465175043
 20
-3.2929812844
 10
-1.4269142996
 20
-3.2882565721
 10
-1.4206331944
 20
-3.2858883077
  0
LINE
  5
263
100
AcDbEntity
  8
0
100
AcDbLine
 62
7
  6
CONTINUOUS
 10
-1.1818543292
 20
-2.670540453
 11
-1.3575929161
 21
-3.2118851483
  0
LINE
  5
264
100
AcDbEntity
  8
SUPERFICI
100
AcDbLine
 62
7
  6
CONTINUOUS
 10
-1.357592916
 20
-3.2118851479
 11
-1.1818543292
 21
-2.670540453
  0
LINE
  5
265
100
AcDbEntity
  8
SUPERFICI
100
AcDbLine
 62
7
  6
CONTINUOUS
 10
-1.5399746012
 20
-2.1455619699
 11
-1.762490412
 21
-2.8300075293
  0
LINE
  5
266
100
AcDbEntity
  8
0
100
AcDbLine
 62
7
  6
CONTINUOUS
 10
-1.7624904119
 20
-2.8300075289
 11
-1.5399746063
 21
-2.1455619854
  0
LINE
  5
267
100
AcDbEntity
  8
0
100
AcDbLine
 62
7
  6
CONTINUOUS
 10
-1.5399746063
 20
-2.1455619854
 11
-1.53491346
 21
-2.1321469648
  0
LWPOLYLINE
  5
268
100
AcDbEntity
  8
0
100
AcDbPolyline
 62
7
  6
CONTINUOUS
 90
6
 70
0
 10
-1.3575929161
 20
-3.2118851483
 10
-1.3671459398
 20
-3.2341776012
 10
-1.378805589
 20
-3.2529592083
 10
-1.3925722404
 20
-3.2682301893
 10
-1.4086894275
 20
-3.2799984984
 10
-1.420633196
 20
-3.2858883047
  0
LINE
  5
269
100
AcDbEntity
  8
0
100
AcDbLine
 62
7
  6
CONTINUOUS
 10
-1.53491346
 20
-2.1321469648
 11
-1.5289513954
 21
-2.1198836244
  0
LINE
  5
26A
100
AcDbEntity
  8
0
100
AcDbLine
 62
7
  6
CONTINUOUS
 10
-1.5289513954
 20
-2.1198836244
 11
-1.522087034
 21
-2.1087568738
  0
LINE
  5
26B
100
AcDbEntity
  8
0
100
AcDbLine
 62
7
  6
CONTINUOUS
 10
-1.522087034
 20
-2.1087568738
 11
-1.514253053
 21
-2.098693101
  0
LINE
  5
26C
100
AcDbEntity
  8
0
100
AcDbLine
 62
253
  6
CONTINUOUS
 10
16.3499696854
 20
9.3737140911
 11
15.6582547224
 21
8.9743285105
  0
LWPOLYLINE
  5
26D
100
AcDbEntity
  8
0
100
AcDbPolyline
 62
7
  6
CONTINUOUS
 90
9
 70
0
 10
-1.6098340111
 20
1.044219572
 10
-1.6391370698
 20
1.0301647622
 10
-1.6709336552
 20
1.0102628298
 10
-1.7003417361
 20
0.9864070381
 10
-1.7273783893
 20
0.9586918253
 10
-1.7515991316
 20
0.9276187403
 10
-1.77285556
 20
0.8933551051
 10
-1.7912951217
 20
0.8557341464
 10
-1.8069172875
 20
0.8147561682
  0
LINE
  5
26E
100
AcDbEntity
  8
SUPERFICI
100
AcDbLine
 62
7
  6
CONTINUOUS
 10
-1.6391370538
 20
1.0301647712
 11
-1.6098340113
 21
1.0442195723
  0
LWPOLYLINE
  5
26F
100
AcDbEntity
  8
SUPERFICI
100
AcDbPolyline
 62
7
  6
CONTINUOUS
 90
30
 70
0
 10
-1.6098340113
 20
1.0442195723
 10
-1.6049703042
 20
1.0462065568
 10
-1.5689312498
 20
1.0581687343
 10
-1.5309878093
 20
1.0659928013
 10
-1.4911732524
 20
1.0697365796
 10
-1.450083563
 20
1.0693550361
 10
-1.4077049644
 20
1.0647860768
 10
-1.3640521626
 20
1.0560912638
 10
-1.3197638455
 20
1.0434110596
 10
-1.2748340441
 20
1.0266894937
 10
-1.2292692343
 20
1.0059822468
 10
-1.1837266738
 20
0.9815973134
 10
-1.138212391
 20
0.953489101
 10
-1.0927203595
 20
0.921703201
 10
-1.0478896313
 20
0.8866844556
 10
-1.0037259061
 20
0.8483895411
 10
-0.9602229824
 20
0.8068620681
 10
-0.9180019622
 20
0.762677337
 10
-0.8770731197
 20
0.7157911681
 10
-0.8374252535
 20
0.6662482714
 10
-0.7996472276
 20
0.6147572961
 10
-0.7637608806
 20
0.5612800833
 10
-0.729743174
 20
0.5058554787
 10
-0.6981157481
 20
0.4493075867
 10
-0.6689096521
 20
0.39159117
 10
-0.6420925742
 20
0.3327521894
 10
-0.6180913657
 20
0.2737514004
 10
-0.5970480512
 20
0.2149092039
 10
-0.5788196127
 20
0.1559057692
 10
-0.5634055014
 20
0.0967414117
  0
LWPOLYLINE
  5
270
100
AcDbEntity
  8
0
100
AcDbPolyline
 62
7
  6
CONTINUOUS
 90
19
 70
0
 10
-0.8770730825
 20
0.7157911235
 10
-0.9180019277
 20
0.7626772992
 10
-0.9602229512
 20
0.8068620368
 10
-1.003725879
 20
0.8483895164
 10
-1.0478896085
 20
0.8866844368
 10
-1.0927203411
 20
0.9217031873
 10
-1.1382123771
 20
0.9534890917
 10
-1.1837266639
 20
0.9815973077
 10
-1.2292692277
 20
1.0059822435
 10
-1.2748340402
 20
1.0266894921
 10
-1.3197638437
 20
1.043411059
 10
-1.3640521617
 20
1.0560912638
 10
-1.4077049637
 20
1.0647860769
 10
-1.4500835631
 20
1.0693550361
 10
-1.4911732546
 20
1.0697365795
 10
-1.5309878141
 20
1.0659928007
 10
-1.5689312577
 20
1.0581687322
 10
-1.604970316
 20
1.0462065518
 10
-1.6098340111
 20
1.044219572
  0
LWPOLYLINE
  5
271
100
AcDbEntity
  8
0
100
AcDbPolyline
 62
7
  6
CONTINUOUS
 90
3
 70
0
 10
-0.7996472087
 20
0.614757268
 10
-0.8374252146
 20
0.6662482201
 10
-0.8770730825
 20
0.7157911235
  0
LWPOLYLINE
  5
272
100
AcDbEntity
  8
SUPERFICI
100
AcDbPolyline
 62
7
  6
CONTINUOUS
 90
28
 70
0
 10
-0.2138057497
 20
0.2065161124
 10
-0.2483045926
 20
0.3032316672
 10
-0.287692921
 20
0.4003428982
 10
-0.331728156
 20
0.4972885947
 10
-0.3796805952
 20
0.592386254
 10
-0.4315716454
 20
0.6854978924
 10
-0.4873833316
 20
0.7767595289
 10
-0.5463275861
 20
0.8648992613
 10
-0.6084668246
 20
0.9498971413
 10
-0.6737418529
 20
1.0317712759
 10
-0.7411824421
 20
1.1093067026
 10
-0.8108145546
 20
1.182428697
 10
-0.882614758
 20
1.251210539
 10
-0.9555386843
 20
1.3146593
 10
-1.0296041464
 20
1.3726979415
 10
-1.1047947161
 20
1.425402712
 10
-1.1800143999
 20
1.4720107646
 10
-1.2552553161
 20
1.5124323616
 10
-1.3305253523
 20
1.5467572373
 10
-1.4047518311
 20
1.5744919447
 10
-1.4779235498
 20
1.5955495765
 10
-1.5500503374
 20
1.6100178238
 10
-1.6200907954
 20
1.61766529
 10
-1.6880261351
 20
1.618394164
 10
-1.7538726125
 20
1.6123037032
 10
-1.8166413366
 20
1.5994581482
 10
-1.8762801042
 20
1.5797601766
 10
-1.9328378659
 20
1.5533089702
  0
LWPOLYLINE
  5
273
100
AcDbEntity
  8
0
100
AcDbPolyline
 62
7
  6
CONTINUOUS
 90
10
 70
0
 10
-0.5634055058
 20
0.0967414301
 10
-0.5788196087
 20
0.1559057603
 10
-0.5970480399
 20
0.2149091736
 10
-0.6180913484
 20
0.2737513551
 10
-0.6420925524
 20
0.3327521369
 10
-0.6689096269
 20
0.3915911167
 10
-0.6981157195
 20
0.4493075331
 10
-0.7297431414
 20
0.5058554232
 10
-0.7637608439
 20
0.5612800266
 10
-0.7996471884
 20
0.6147572404
  0
LWPOLYLINE
  5
274
100
AcDbEntity
  8
SUPERFICI
100
AcDbPolyline
 62
7
  6
CONTINUOUS
 90
3
 70
0
 10
-0.1587395628
 20
0.0125936939
 10
-0.183951219
 20
0.1096365126
 10
-0.2138057497
 20
0.2065161124
  0
LINE
  5
275
100
AcDbEntity
  8
SUPERFICI
100
AcDbLine
 62
7
  6
CONTINUOUS
 10
0.6570185922
 20
-3.4140525108
 11
0.2921727387
 21
-1.892418204
  0
LINE
  5
276
100
AcDbEntity
  8
0
100
AcDbLine
 62
7
  6
CONTINUOUS
 10
0.1641301029
 20
-2.9595198741
 11
-0.1610380605
 21
-1.6022311828
  0
LINE
  5
277
100
AcDbEntity
  8
0
100
AcDbLine
 62
7
  6
CONTINUOUS
 10
0.0209390583
 20
-0.749805449
 11
0.6570186114
 21
-3.4140525905
  0
LINE
  5
278
100
AcDbEntity
  8
0
100
AcDbLine
 62
7
  6
CONTINUOUS
 10
-0.1610380605
 20
-1.6022311828
 11
-0.4832959456
 21
-0.2432622557
  0
LINE
  5
279
100
AcDbEntity
  8
SUPERFICI
100
AcDbLine
 62
7
  6
CONTINUOUS
 10
0.2921727387
 20
-1.892418204
 11
-0.069014627
 21
-0.3686714727
  0
LWPOLYLINE
  5
27A
100
AcDbEntity
  8
SUPERFICI
100
AcDbPolyline
 62
7
  6
CONTINUOUS
 90
3
 70
0
 10
-0.5634055014
 20
0.0967414117
 10
-0.4832959432
 20
-0.2432622661
 10
0.1641301029
 20
-2.9595198741
  0
LINE
  5
27B
100
AcDbEntity
  8
0
100
AcDbLine
 62
7
  6
CONTINUOUS
 10
-0.4832959456
 20
-0.2432622557
 11
-0.5634055058
 21
0.0967414301
  0
LINE
  5
27C
100
AcDbEntity
  8
0
100
AcDbLine
 62
7
  6
CONTINUOUS
 10
-0.1587395646
 20
0.0125937014
 11
0.0209390583
 21
-0.749805449
  0
LINE
  5
27D
100
AcDbEntity
  8
SUPERFICI
100
AcDbLine
 62
7
  6
CONTINUOUS
 10
-0.069014627
 20
-0.3686714727
 11
-0.1587395628
 21
0.0125936939
  0
LWPOLYLINE
  5
27E
100
AcDbEntity
  8
0
100
AcDbPolyline
 62
7
  6
CONTINUOUS
 90
13
 70
0
 10
0.6570186114
 20
-3.4140525905
 10
0.6627520956
 20
-3.4433071143
 10
0.6661699499
 20
-3.4709273903
 10
0.6672721256
 20
-3.4969134468
 10
0.6659590585
 20
-3.5214410321
 10
0.6623302422
 20
-3.5443344388
 10
0.6566841043
 20
-3.5650665752
 10
0.649047655
 20
-3.5835439641
 10
0.6393935741
 20
-3.5998602629
 10
0.6279386398
 20
-3.6137691718
 10
0.6146521425
 20
-3.6253184828
 10
0.5995644491
 20
-3.6344606032
 10
0.5942299174
 20
-3.6368882863
  0
LWPOLYLINE
  5
27F
100
AcDbEntity
  8
SUPERFICI
100
AcDbPolyline
 62
7
  6
CONTINUOUS
 90
4
 70
0
 10
-1.3925722645
 20
-3.2682302069
 10
-1.3788056223
 20
-3.2529592411
 10
-1.3671459589
 20
-3.2341776213
 10
-1.357592916
 20
-3.2118851479
  0
LINE
  5
280
100
AcDbEntity
  8
0
100
AcDbLine
 62
7
  6
CONTINUOUS
 10
-1.514253053
 20
-2.098693101
 11
-1.5054863766
 21
-2.0897365624
  0
LWPOLYLINE
  5
281
100
AcDbEntity
  8
SUPERFICI
100
AcDbPolyline
 62
7
  6
CONTINUOUS
 90
18
 70
0
 10
-1.9967102066
 20
-2.1203209532
 10
-1.9813931902
 20
-2.1072868493
 10
-1.9684875502
 20
-2.0913068851
 10
-1.9580435197
 20
-2.0722954721
 10
-1.9500103773
 20
-2.0503379148
 10
-1.9447135265
 20
-2.0262025809
 10
-1.9422608596
 20
-1.9997405645
 10
-1.9425442637
 20
-1.9711006435
 10
-1.945565514
 20
-1.941497931
 10
-1.9514655928
 20
-1.9109015311
 10
-1.9601037423
 20
-1.8793424706
 10
-1.9710595243
 20
-1.8481289777
 10
-1.9843490548
 20
-1.8173906049
 10
-1.9999567497
 20
-1.7869981089
 10
-2.017414861
 20
-1.7578716639
 10
-2.0367656404
 20
-1.7299819808
 10
-2.0579673707
 20
-1.7033586593
 10
-2.0804264483
 20
-1.6790102628
  0
LWPOLYLINE
  5
282
100
AcDbEntity
  8
SUPERFICI
100
AcDbPolyline
 62
7
  6
CONTINUOUS
 90
7
 70
0
 10
-1.4987463689
 20
-2.0841017049
 10
-1.505624059
 20
-2.0898516693
 10
-1.5143352411
 20
-2.0987773124
 10
-1.5221394374
 20
-2.1088243373
 10
-1.5289916069
 20
-2.1199489082
 10
-1.5349366815
 20
-2.1321947974
 10
-1.5399746012
 20
-2.1455619699
  0
LINE
  5
283
100
AcDbEntity
  8
0
100
AcDbLine
 62
7
  6
CONTINUOUS
 10
-1.5054863766
 20
-2.0897365624
 11
-1.4987455309
 21
-2.0841030173
  0
LWPOLYLINE
  5
284
100
AcDbEntity
  8
0
100
AcDbPolyline
 62
7
  6
CONTINUOUS
 90
14
 70
0
 10
-1.4987455309
 20
-2.0841030173
 10
-1.4959024604
 20
-2.0820093039
 10
-1.4855999074
 20
-2.0756291172
 10
-1.4745313183
 20
-2.0705144838
 10
-1.4628673699
 20
-2.0667232782
 10
-1.4506057527
 20
-2.0642732564
 10
-1.4377489027
 20
-2.063146736
 10
-1.4244746234
 20
-2.0633484376
 10
-1.4107714872
 20
-2.0648964057
 10
-1.3966510182
 20
-2.0677726519
 10
-1.3823254445
 20
-2.0719278467
 10
-1.3678655272
 20
-2.0773455573
 10
-1.353200558
 20
-2.084042247
 10
-1.33833055
 20
-2.0920179234
  0
LINE
  5
285
100
AcDbEntity
  8
SUPERFICI
100
AcDbLine
 62
7
  6
CONTINUOUS
 10
-1.4960873677
 20
-2.0821454745
 11
-1.4987463689
 21
-2.0841017049
  0
LWPOLYLINE
  5
286
100
AcDbEntity
  8
RACCORDO
100
AcDbPolyline
 62
253
  6
CONTINUOUS
 90
19
 70
0
 10
15.6582547224
 20
8.9743285105
 10
15.6028664684
 20
8.9390785707
 10
15.5479327673
 20
8.8992008736
 10
15.4937790219
 20
8.8549375021
 10
15.4407215477
 20
8.8065585633
 10
15.3890790469
 20
8.7543551608
 10
15.3391705711
 20
8.6986379934
 10
15.2912930503
 20
8.6397454537
 10
15.2457279777
 20
8.5780323022
 10
15.2027533922
 20
8.513861945
 10
15.1626243474
 20
8.4476208485
 10
15.1255778233
 20
8.3797086099
 10
15.0918403519
 20
8.3105261118
 10
15.0616122446
 20
8.2404873525
 10
15.0350730695
 20
8.1700162176
 10
15.0123872796
 20
8.0995357943
 10
14.9936915326
 20
8.0294697045
 10
14.9790943329
 20
7.9602395387
 10
14.9686822153
 20
7.8922613924
  0
LWPOLYLINE
  5
287
100
AcDbEntity
  8
RACCORDO
100
AcDbPolyline
 62
253
  6
CONTINUOUS
 90
19
 70
0
 10
16.0116869591
 20
8.3621659201
 10
15.9835446065
 20
8.34467127
 10
15.9559007776
 20
8.3250814463
 10
15.9287554722
 20
8.303396449
 10
15.9019347559
 20
8.2794521851
 10
15.8756125632
 20
8.2534127476
 10
15.8503106976
 20
8.2257704156
 10
15.8260640377
 20
8.1965065992
 10
15.8028377049
 20
8.1656398883
 10
15.7810488675
 20
8.1337183324
 10
15.7607213928
 20
8.1007169841
 10
15.7418314135
 20
8.0666607909
 10
15.7247244956
 20
8.032172645
 10
15.7094333702
 20
7.9972273399
 10
15.6959253063
 20
7.9618500822
 10
15.6844476773
 20
7.9267393842
 10
15.6750829412
 20
7.8921280832
 10
15.6677486401
 20
7.8577833419
 10
15.662444774
 20
7.8237051602
  0
LINE
  5
288
100
AcDbEntity
  8
0
100
AcDbLine
 62
253
  6
CONTINUOUS
 10
16.7034019221
 20
8.7615515008
 11
16.0116869591
 21
8.3621659201
  0
LINE
  5
289
100
AcDbEntity
  8
SUPERFICI
100
AcDbLine
 62
7
  6
CONTINUOUS
 10
-2.0150035902
 20
-2.1303334242
 11
-1.9967102639
 21
-2.1203209846
  0
LWPOLYLINE
  5
28A
100
AcDbEntity
  8
SUPERFICI
100
AcDbPolyline
 62
7
  6
CONTINUOUS
 90
3
 70
0
 10
-1.4206331944
 20
-3.2858883077
 10
-1.4086894727
 20
-3.2799985296
 10
-1.3925722826
 20
-3.268230227
  0
LINE
  5
28B
100
AcDbEntity
  8
0
100
AcDbLine
 62
7
  6
CONTINUOUS
 10
-2.01500359
 20
-2.1303334248
 11
-2.0331340676
 21
-2.1359963257
  0
LWPOLYLINE
  5
28C
100
AcDbEntity
  8
SUPERFICI
100
AcDbPolyline
 62
7
  6
CONTINUOUS
 90
13
 70
0
 10
0.5942299183
 20
-3.6368882881
 10
0.5995645202
 20
-3.634460571
 10
0.6146521948
 20
-3.6253184461
 10
0.6279386752
 20
-3.6137691351
 10
0.6393935964
 20
-3.5998602327
 10
0.6490476663
 20
-3.5835439447
 10
0.6566841078
 20
-3.5650665652
 10
0.662330243
 20
-3.5443344379
 10
0.6659590598
 20
-3.5214410389
 10
0.6672721256
 20
-3.4969134504
 10
0.6661699452
 20
-3.4709273769
 10
0.6627520845
 20
-3.4433070731
 10
0.6570185922
 20
-3.4140525108
  0
LINE
  5
28D
100
AcDbEntity
  8
0
100
AcDbLine
 62
7
  6
CONTINUOUS
 10
-1.420633196
 20
-3.2858883047
 11
-1.4269142566
 21
-3.2882565551
  0
LINE
  5
28E
100
AcDbEntity
  8
0
100
AcDbLine
 62
7
  6
CONTINUOUS
 10
0.5942299174
 20
-3.6368882863
 11
0.5829839045
 21
-3.6408061963
  0
LINE
  5
28F
100
AcDbEntity
  8
RACCORDO
100
AcDbLine
 62
253
  6
CONTINUOUS
 10
14.2476081037
 20
-2.0852237568
 11
-16.4948027213
 21
15.6650589606
  0
LWPOLYLINE
  5
290
100
AcDbEntity
  8
RACCORDO
100
AcDbPolyline
 62
253
  6
CONTINUOUS
 90
16
 70
0
 10
14.94527496
 20
-2.0982908133
 10
14.9061768638
 20
-2.1168076159
 10
14.8638466273
 20
-2.1329096529
 10
14.8187327153
 20
-2.1464263323
 10
14.7713130839
 20
-2.1572144526
 10
14.7220901172
 20
-2.1651597199
 10
14.6715853044
 20
-2.1701779585
 10
14.6203337153
 20
-2.1722160031
 10
14.5688783313
 20
-2.1712522617
 10
14.5177642929
 20
-2.1672969447
 10
14.4675331241
 20
-2.1603919563
 10
14.4187169957
 20
-2.150610451
 10
14.3718330867
 20
-2.1380560582
 10
14.3273781055
 20
-2.1228617847
 10
14.2858230272
 20
-2.105188605
 10
14.2476081042
 20
-2.0852237565
  0
LWPOLYLINE
  5
291
100
AcDbEntity
  8
RACCORDO
100
AcDbPolyline
 62
253
  6
CONTINUOUS
 90
19
 70
0
 10
15.662444774
 20
-26.7318053865
 10
15.6677486352
 20
-26.7600635647
 10
15.6750794675
 20
-26.7863625173
 10
15.6844372709
 20
-26.8107022443
 10
15.6959040923
 20
-26.8332234926
 10
15.7093978848
 20
-26.8537855154
 10
15.724672507
 20
-26.8719660717
 10
15.7417569364
 20
-26.8877057687
 10
15.7606221954
 20
-26.9010639992
 10
15.7809352095
 20
-26.9117967014
 10
15.8027265705
 20
-26.9198557769
 10
15.8259656866
 20
-26.925289324
 10
15.8502277074
 20
-26.9279975759
 10
15.8755467263
 20
-26.9279200151
 10
15.9018886499
 20
-26.9251171591
 10
15.9287263481
 20
-26.9196707928
 10
15.9558841106
 20
-26.9116081779
 10
15.9835376476
 20
-26.9009020528
 10
16.0116869591
 20
-26.8875524175
  0
LWPOLYLINE
  5
292
100
AcDbEntity
  8
RACCORDO
100
AcDbPolyline
 62
253
  6
CONTINUOUS
 90
10
 70
0
 10
14.9686822153
 20
-26.7852318561
 10
14.9790944039
 20
-26.8415028522
 10
14.9936916143
 20
-26.8943112286
 10
15.0123872374
 20
-26.9433408851
 10
15.0350726392
 20
-26.9883001441
 10
15.0616111322
 20
-27.0289187717
 10
15.0918384575
 20
-27.0649499828
 10
15.1255751263
 20
-27.0961792514
 10
15.1626208662
 20
-27.122421772
 10
15.1702631472
 20
-27.1269739114
  0
LWPOLYLINE
  5
293
100
AcDbEntity
  8
RACCORDO
100
AcDbPolyline
 62
253
  6
CONTINUOUS
 90
10
 70
0
 10
14.2476081037
 20
-17.5981590159
 10
14.2725726938
 20
-18.653369319
 10
14.3113548985
 20
-19.7004842604
 10
14.3639467276
 20
-20.7392822361
 10
14.4303377675
 20
-21.7695436363
 10
14.5105139027
 20
-22.7910503213
 10
14.6044573267
 20
-23.8035856627
 10
14.7121482488
 20
-24.8069353515
 10
14.8335648905
 20
-25.8008874486
 10
14.9686822153
 20
-26.7852318561
  0
LWPOLYLINE
  5
294
100
AcDbEntity
  8
RACCORDO
100
AcDbPolyline
 62
253
  6
CONTINUOUS
 90
10
 70
0
 10
14.94527496
 20
-17.5957131371
 10
14.970121089
 20
-18.6454068871
 10
15.008689976
 20
-19.6866226197
 10
15.0609816209
 20
-20.7193603349
 10
15.1270132323
 20
-21.743840139
 10
15.2067676016
 20
-22.7598419257
 10
15.300193103
 20
-23.7667053757
 10
15.4072725279
 20
-24.7642103827
 10
15.5280230849
 20
-25.7525770529
 10
15.662444774
 20
-26.7318053865
  0
LWPOLYLINE
  5
295
100
AcDbEntity
  8
RACCORDO
100
AcDbPolyline
 62
253
  6
CONTINUOUS
 90
10
 70
0
 10
14.2476081037
 20
-2.0852237568
 10
14.2217343937
 20
-3.8229870669
 10
14.2023293247
 20
-5.5572784743
 10
14.1893928502
 20
-7.2880672674
 10
14.1829248537
 20
-9.0152993956
 10
14.1829248503
 20
-10.7389677876
 10
14.189392841
 20
-12.4591118578
 10
14.202329313
 20
-14.1757239733
 10
14.2217343843
 20
-15.8887499482
 10
14.2476081037
 20
-17.5981590159
  0
LWPOLYLINE
  5
296
100
AcDbEntity
  8
RACCORDO
100
AcDbPolyline
 62
253
  6
CONTINUOUS
 90
10
 70
0
 10
14.94527496
 20
-2.0982908133
 10
14.9194267373
 20
-3.8343651857
 10
14.9000405687
 20
-5.5669107652
 10
14.887116454
 20
-7.2959275519
 10
14.880654391
 20
-9.0214233416
 10
14.8806543821
 20
-10.7433903383
 10
14.8871164338
 20
-12.461805155
 10
14.9000405485
 20
-14.1766599958
 10
14.9194267239
 20
-15.8879626565
 10
14.94527496
 20
-17.5957131371
  0
LWPOLYLINE
  5
297
100
AcDbEntity
  8
RACCORDO
100
AcDbPolyline
 62
253
  6
CONTINUOUS
 90
10
 70
0
 10
14.9686822153
 20
7.8922613924
 10
14.8335648895
 20
6.7598089972
 10
14.7121482473
 20
5.6327643906
 10
14.6044573251
 20
4.5113665821
 10
14.5105139015
 20
3.3958536537
 10
14.4303377671
 20
2.2864617745
 10
14.3639467278
 20
1.1834251544
 10
14.3113548988
 20
0.0869772395
 10
14.2725726941
 20
-1.002649341
 10
14.2476081037
 20
-2.0852237568
  0
LWPOLYLINE
  5
298
100
AcDbEntity
  8
RACCORDO
100
AcDbPolyline
 62
253
  6
CONTINUOUS
 90
10
 70
0
 10
15.662444774
 20
7.8237051602
 10
15.5280241854
 20
6.6971833815
 10
15.4072743802
 20
5.5765017918
 10
15.3001953583
 20
4.4616603909
 10
15.2067698131
 20
3.3524201701
 10
15.1270150512
 20
2.2490201381
 10
15.060982993
 20
1.1521773212
 10
15.0086909451
 20
0.062130728
 10
14.9701216007
 20
-1.0213586501
 10
14.94527496
 20
-2.0982908133
  0
LINE
  5
299
100
AcDbEntity
  8
RACCORDO
100
AcDbLine
 62
253
  6
CONTINUOUS
 10
14.9686822153
 20
7.8922613924
 11
-15.8103296819
 21
25.6636771103
  0
LWPOLYLINE
  5
29A
100
AcDbEntity
  8
RACCORDO
100
AcDbPolyline
 62
253
  6
CONTINUOUS
 90
16
 70
0
 10
16.0116869591
 20
8.3621659201
 10
16.0088116627
 20
8.4054066677
 10
16.0022004063
 20
8.4504665169
 10
15.9919255129
 20
8.4968522531
 10
15.9780994095
 20
8.5440561424
 10
15.9608734002
 20
8.5915614767
 10
15.9404360143
 20
8.638848229
 10
15.9170109323
 20
8.6853987735
 10
15.8908545496
 20
8.7307035219
 10
15.8622531819
 20
8.7742664924
 10
15.8315198969
 20
8.8156107966
 10
15.7989911115
 20
8.8542838169
 10
15.7650229326
 20
8.8898621438
 10
15.7299872115
 20
8.9219562714
 10
15.694267468
 20
8.9502148523
 10
15.6582547248
 20
8.9743285119
  0
LINE
  5
29B
100
AcDbEntity
  8
0
100
AcDbLine
 62
7
  6
CONTINUOUS
 10
16.7034019221
 20
8.7615515008
 11
16.7034019221
 21
-26.5289287307
  0
LINE
  5
29C
100
AcDbEntity
  8
RACCORDO
100
AcDbLine
 62
253
  6
CONTINUOUS
 10
15.6582547224
 20
8.9743285105
 11
-15.138580901
 21
26.7560354244
  0
LINE
  5
29D
100
AcDbEntity
  8
0
100
AcDbLine
 62
7
  6
CONTINUOUS
 10
16.3499696854
 20
9.3737140911
 11
-14.4821679109
 21
27.1758039218
  0
LWPOLYLINE
  5
29E
100
AcDbEntity
  8
RACCORDO
100
AcDbPolyline
 62
253
  6
CONTINUOUS
 90
9
 70
0
 10
16.0116869591
 20
-26.8875524175
 10
16.0088115362
 20
-26.9295886124
 10
16.0021999975
 20
-26.9688722997
 10
15.9919247173
 20
-27.0049734541
 10
15.9780981755
 20
-27.0374968886
 10
15.9608717266
 20
-27.0660865801
 10
15.9404339427
 20
-27.0904295669
 10
15.9170085494
 20
-27.1102593747
 10
15.8976463394
 20
-27.12203001
  0
LWPOLYLINE
  5
29F
100
AcDbEntity
  8
RACCORDO
100
AcDbPolyline
 62
253
  6
CONTINUOUS
 90
16
 70
0
 10
14.94527496
 20
-17.5957131371
 10
14.9061768632
 20
-17.6158251024
 10
14.8638466267
 20
-17.6335054024
 10
14.8187327152
 20
-17.6485667242
 10
14.7713130849
 20
-17.6608495018
 10
14.7220901197
 20
-17.6702236061
 10
14.6715853088
 20
-17.6765897239
 10
14.6203337218
 20
-17.6798804098
 10
14.5688783402
 20
-17.6800608008
 10
14.5177643043
 20
-17.6771289858
 10
14.4675331382
 20
-17.6711160257
 10
14.4187170125
 20
-17.6620856243
 10
14.371833106
 20
-17.6501334537
 10
14.3273781272
 20
-17.6353861403
 10
14.285823051
 20
-17.6179999234
 10
14.24760813
 20
-17.5981590001
  0
LWPOLYLINE
  5
2A0
100
AcDbEntity
  8
RACCORDO
100
AcDbPolyline
 62
253
  6
CONTINUOUS
 90
16
 70
0
 10
15.6624447738
 20
-26.7318053864
 10
15.623751621
 20
-26.7571685465
 10
15.581821042
 20
-26.7800434871
 10
15.5370974184
 20
-26.8001877788
 10
15.4900547327
 20
-26.8173879317
 10
15.4411915448
 20
-26.8314616581
 10
15.3910257084
 20
-26.8422598042
 10
15.3400888828
 20
-26.8496679308
 10
15.2889208982
 20
-26.8536075263
 10
15.2380640345
 20
-26.8540368389
 10
15.1880572744
 20
-26.8509513185
 10
15.1394305913
 20
-26.8443836657
 10
15.0926993324
 20
-26.8344034847
 10
15.0483587572
 20
-26.8211165459
 10
15.0068787886
 20
-26.8046636646
 10
14.9686990327
 20
-26.7852192091
  0
LINE
  5
2A1
100
AcDbEntity
  8
0
100
AcDbLine
 62
253
  6
CONTINUOUS
 10
16.0116869591
 20
-26.8875524175
 11
16.7034019221
 21
-26.5289287307
  0
LINE
  5
2A2
100
AcDbEntity
  8
RACCORDO
100
AcDbLine
 62
7
  6
CONTINUOUS
 10
15.8976463394
 20
-27.12203001
 11
16.5931254976
 21
-26.7614547541
  0
ELLIPSE
  5
2A3
100
AcDbEntity
  8
0
100
AcDbEllipse
 62
7
  6
CONTINUOUS
 10
-14.4819255615
 20
26.7672889139
 30
0.0
 11
-0.2501834304
 21
0.4333025529
 31
0.0
 40
0.5769361983
 41
-0.7851038024
 42
0.0263715828
  0
ELLIPSE
  5
2A4
100
AcDbEntity
  8
0
100
AcDbEllipse
 62
7
  6
CONTINUOUS
 10
16.349727336
 20
-26.3244416253
 30
0.0
 11
-0.2501834304
 21
0.4333025529
 31
0.0
 40
0.5769361983
 41
-3.1679635486
 42
-2.3565853618
  0
ELLIPSE
  5
2A5
100
AcDbEntity
  8
0
100
AcDbEllipse
 62
7
  6
CONTINUOUS
 10
16.349727336
 20
8.9654789423
 30
0.0
 11
-0.2500121049
 21
0.4330057129
 31
0.0
 40
0.5777274115
 41
-2.3559002616
 42
-0.7857891675
  0
ENDSEC
  0
SECTION
  2
OBJECTS
  0
DICTIONARY
  5
C
100
AcDbDictionary
280
0
281
1
  3
ACAD_GROUP
350
D
  3
ACAD_MLINESTYLE
350
17
  3
ACAD_LAYOUT
350
1A
  3
ACAD_PLOTSETTINGS
350
19
  3
ACAD_PLOTSTYLENAME
350
E
  0
DICTIONARY
  5
D
102
{ACAD_REACTORS
330
C
102
}
100
AcDbDictionary
280
0
281
1
  0
ACDBDICTIONARYWDFLT
  5
E
102
{ACAD_REACTORS
330
C
102
}
100
AcDbDictionary
281
1
  3
Normal
350
F
100
AcDbDictionaryWithDefault
340
F
  0
DICTIONARY
  5
17
102
{ACAD_REACTORS
330
C
102
}
100
AcDbDictionary
280
0
281
1
  3
Standard
350
18
  0
DICTIONARY
  5
19
102
{ACAD_REACTORS
330
C
102
}
100
AcDbDictionary
281
1
  0
DICTIONARY
  5
1A
102
{ACAD_REACTORS
330
C
102
}
100
AcDbDictionary
281
1
  3
Model
350
2A6
  3
Layout1
350
2A7
  0
ACDBPLACEHOLDER
  5
F
102
{ACAD_REACTORS
330
E
102
}
  0
MLINESTYLE
  5
18
102
{ACAD_REACTORS
330
17
102
}
100
AcDbMlineStyle
  2
STANDARD
 70
0
  3

 62
256
 51
90.0
 52
90.0
 71
2
 49
0.5
 62
256
  6
BYLAYER
 49
-0.5
 62
256
  6
BYLAYER
  0
LAYOUT
  5
2A6
102
{ACAD_REACTORS
330
1A
102
}
100
AcDbPlotSettings
  1

  2
none_device
  4
ISO_A4_(297.00_x_210.00_MM)
  6

 40
0.0
 41
0.0
 42
0.0
 43
0.0
 44
297.0
 45
210.0
 46
0.0
 47
0.0
 48
0.0
 49
0.0
140
0.0
141
0.0
142
1.0
143
1.0
 70
1024
 72
1
 73
0
 74
0
  7

 75
0
147
1.0
148
0.0
149
0.0
100
AcDbLayout
  1
Model
 70
0
 71
0
 10
0.0
 20
0.0
 11
297.0
 21
210.0
 12
0.0
 22
0.0
 32
0.0
 14
0.0
 24
0.0
 34
0.0
 15
0.0
 25
0.0
 35
0.0
146
0.0
 13
0.0
 23
0.0
 33
0.0
 16
1.0
 26
0.0
 36
0.0
 17
0.0
 27
1.0
 37
0.0
 76
0
330
218
345
0
346
0
  0
LAYOUT
  5
2A7
102
{ACAD_REACTORS
330
1A
102
}
100
AcDbPlotSettings
  1

  2
none_device
  4
ISO_A4_(297.00_x_210.00_MM)
  6

 40
0.0
 41
0.0
 42
0.0
 43
0.0
 44
297.0
 45
210.0
 46
0.0
 47
0.0
 48
0.0
 49
0.0
140
0.0
141
0.0
142
1.0
143
1.0
 70
0
 72
1
 73
0
 74
0
  7

 75
0
147
1.0
148
0.0
149
0.0
100
AcDbLayout
  1
Layout1
 70
0
 71
1
 10
0.0
 20
0.0
 11
297.0
 21
210.0
 12
0.0
 22
0.0
 32
0.0
 14
0.0
 24
0.0
 34
0.0
 15
0.0
 25
0.0
 35
0.0
146
0.0
 13
0.0
 23
0.0
 33
0.0
 16
1.0
 26
0.0
 36
0.0
 17
0.0
 27
1.0
 37
0.0
 76
0
330
219
345
0
346
0
  0
ENDSEC
  0
EOF
