  0
SECTION
  2
HEADER
  9
$ACADVER
  1
AC1015
  9
$DWGCODEPAGE
  3
ANSI_1252
  9
$EXTMAX
 10
297.0
 20
210.0
 30
0.0
  9
$EXTMIN
 10
0.0
 20
0.0
 30
0.0
  9
$LIMMIN
 10
0.0
 20
0.0
  9
$LIMMAX
 10
297.0
 20
210.0
  9
$VIEWCTR
 10
148.5
 20
105.0
  9
$VIEWSIZE
 40
210.0
  9
$CLAYER
  8
0
  9
$LTSCALE
 40
16.335
  9
$CELTYPE
  6
BYLAYER
  9
$DIMSCALE
 40
1.0
  9
$DIMASZ
 40
3.0
  9
$DIMEXO
 40
1.85625
  9
$DIMDLI
 40
11.286
  9
$DIMEXE
 40
5.346
  9
$DIMCEN
 40
2.673
  9
$DIMLFAC
 40
1.0
  9
$DIMBLK
  1
_FILLED
  9
$DIMTXT
 40
3.0
  9
$DIMTOL
 70
1
  9
$DIMLIM
 70
0
  9
$DIMTFAC
 40
1.0
  9
$DIMTP
 40
0.01
  9
$DIMTM
 40
0.01
  9
$PDMODE
 70
3
  9
$PDSIZE
 40
3.0
  9
$HANDSEED
  5
2F0
  9
$TILEMODE
 70
1
  9
$MEASUREMENT
 70
1
  9
$INSUNITS
 70
4
  0
ENDSEC
  0
SECTION
  2
CLASSES
  0
CLASS
  1
ACDBDICTIONARYWDFLT
  2
AcDbDictionaryWithDefault
  3
AutoCAD 2000
 90
0
280
0
281
0
  0
CLASS
  1
ACDBPLACEHOLDER
  2
AcDbPlaceHolder
  3
AutoCAD 2000
 90
0
280
0
281
0
  0
CLASS
  1
LAYOUT
  2
AcDbLayout
  3
AutoCAD 2000
 90
0
280
0
281
0
  0
ENDSEC
  0
SECTION
  2
TABLES
  0
TABLE
  2
VPORT
  5
8
100
AcDbSymbolTable
 70
2
  0
VPORT
  5
1F4
100
AcDbSymbolTableRecord
100
AcDbViewportTableRecord
  2
*ACTIVE
 70
0
 10
0.0
 20
0.0
 11
1.0
 21
1.0
 12
148.5
 22
105.0
 13
0.0
 23
0.0
 14
1.0
 24
1.0
 15
0.0
 25
0.0
 16
0.0
 26
0.0
 36
1.0
 17
0.0
 27
0.0
 37
0.0
 40
210.0
 41
1.4142857143
 42
50.0
 43
0.0
 44
0.0
 50
0.0
 51
0.0
 71
0
 72
100
 73
1
 74
1
 75
0
 76
0
 77
0
 78
0
  0
ENDTAB
  0
TABLE
  2
LTYPE
  5
5
100
AcDbSymbolTable
 70
6
  0
LTYPE
  5
14
100
AcDbSymbolTableRecord
100
AcDbLinetypeTableRecord
  2
BYBLOCK
 70
0
  3

 72
65
 73
0
 40
0.0
  0
LTYPE
  5
15
100
AcDbSymbolTableRecord
100
AcDbLinetypeTableRecord
  2
BYLAYER
 70
0
  3

 72
65
 73
0
 40
0.0
  0
LTYPE
  5
16
100
AcDbSymbolTableRecord
100
AcDbLinetypeTableRecord
  2
CONTINUOUS
 70
64
  3
Solid line
 72
65
 73
0
 40
0.0
  0
LTYPE
  5
1F5
100
AcDbSymbolTableRecord
100
AcDbLinetypeTableRecord
  2
CENTER
 70
64
  3
____ _ ____ _ ____ _ ____ _ ____ _ ____ _ ____
 72
65
 73
4
 40
0.6
 49
0.375
 74
0
 49
-0.075
 74
0
 49
0.075
 74
0
 49
-0.075
 74
0
  0
LTYPE
  5
1F6
100
AcDbSymbolTableRecord
100
AcDbLinetypeTableRecord
  2
HIDDEN
 70
64
  3
- - - - - - - - - - - - - - - - - - - -
 72
65
 73
2
 40
0.2
 49
0.1
 74
0
 49
-0.1
 74
0
  0
LTYPE
  5
1F7
100
AcDbSymbolTableRecord
100
AcDbLinetypeTableRecord
  2
PHANTOM
 70
64
  3
_____ _ _ _____ _ _ _____ _ _ _____
 72
65
 73
6
 40
0.8
 49
0.45
 74
0
 49
-0.05
 74
0
 49
0.1
 74
0
 49
-0.05
 74
0
 49
0.1
 74
0
 49
-0.05
 74
0
  0
LTYPE
  5
1F8
100
AcDbSymbolTableRecord
100
AcDbLinetypeTableRecord
  2
DOT
 70
64
  3
. . . . . . . . . . . . . . . . . . . .
 72
65
 73
2
 40
0.2
 49
0.1
 74
0
 49
-0.1
 74
0
  0
LTYPE
  5
1F9
100
AcDbSymbolTableRecord
100
AcDbLinetypeTableRecord
  2
DASHED
 70
64
  3
- - - - - - - - - - - - - - - - - - - -
 72
65
 73
2
 40
0.2
 49
0.1
 74
0
 49
-0.1
 74
0
  0
ENDTAB
  0
TABLE
  2
LAYER
  5
2
100
AcDbSymbolTable
 70
36
  0
LAYER
  5
10
100
AcDbSymbolTableRecord
100
AcDbLayerTableRecord
  2
0
 70
0
 62
7
  6
CONTINUOUS
370
-3
390
F
  0
LAYER
  5
1FA
100
AcDbSymbolTableRecord
100
AcDbLayerTableRecord
  2
DEFAULT_1
 70
0
 62
7
  6
CENTER
370
-3
390
F
  0
LAYER
  5
1FB
100
AcDbSymbolTableRecord
100
AcDbLayerTableRecord
  2
DEFAULT_2
 70
0
 62
7
  6
HIDDEN
370
-3
390
F
  0
LAYER
  5
1FC
100
AcDbSymbolTableRecord
100
AcDbLayerTableRecord
  2
DEFAULT_3
 70
0
 62
7
  6
PHANTOM
370
-3
390
F
  0
LAYER
  5
1FD
100
AcDbSymbolTableRecord
100
AcDbLayerTableRecord
  2
ASSI
 70
0
 62
7
  6
CONTINUOUS
370
-3
390
F
  0
LAYER
  5
1FE
100
AcDbSymbolTableRecord
100
AcDbLayerTableRecord
  2
COLOR9
 70
0
 62
7
  6
CONTINUOUS
370
-3
390
F
  0
LAYER
  5
1FF
100
AcDbSymbolTableRecord
100
AcDbLayerTableRecord
  2
COORDINATE
 70
0
 62
7
  6
CONTINUOUS
370
-3
390
F
  0
LAYER
  5
200
100
AcDbSymbolTableRecord
100
AcDbLayerTableRecord
  2
COORD_ORIGINE
 70
0
 62
7
  6
CONTINUOUS
370
-3
390
F
  0
LAYER
  5
201
100
AcDbSymbolTableRecord
100
AcDbLayerTableRecord
  2
COSMETICI
 70
0
 62
7
  6
CONTINUOUS
370
-3
390
F
  0
LAYER
  5
202
100
AcDbSymbolTableRecord
100
AcDbLayerTableRecord
  2
CURVE
 70
0
 62
7
  6
CONTINUOUS
370
-3
390
F
  0
LAYER
  5
203
100
AcDbSymbolTableRecord
100
AcDbLayerTableRecord
  2
DRAFT
 70
0
 62
7
  6
CONTINUOUS
370
-3
390
F
  0
LAYER
  5
204
100
AcDbSymbolTableRecord
100
AcDbLayerTableRecord
  2
IMPORT_IGES
 70
0
 62
7
  6
CONTINUOUS
370
-3
390
F
  0
LAYER
  5
205
100
AcDbSymbolTableRecord
100
AcDbLayerTableRecord
  2
INTF_1
 70
0
 62
7
  6
CONTINUOUS
370
-3
390
F
  0
LAYER
  5
206
100
AcDbSymbolTableRecord
100
AcDbLayerTableRecord
  2
INTF_8
 70
0
 62
7
  6
CONTINUOUS
370
-3
390
F
  0
LAYER
  5
207
100
AcDbSymbolTableRecord
100
AcDbLayerTableRecord
  2
INTF_YELLOW
 70
0
 62
7
  6
CONTINUOUS
370
-3
390
F
  0
LAYER
  5
208
100
AcDbSymbolTableRecord
100
AcDbLayerTableRecord
  2
NOTE
 70
0
 62
7
  6
CONTINUOUS
370
-3
390
F
  0
LAYER
  5
209
100
AcDbSymbolTableRecord
100
AcDbLayerTableRecord
  2
PIANI
 70
0
 62
7
  6
CONTINUOUS
370
-3
390
F
  0
LAYER
  5
20A
100
AcDbSymbolTableRecord
100
AcDbLayerTableRecord
  2
PIANI_ORIGINE
 70
0
 62
7
  6
CONTINUOUS
370
-3
390
F
  0
LAYER
  5
20B
100
AcDbSymbolTableRecord
100
AcDbLayerTableRecord
  2
PIANI_RIFERIMENTO
 70
0
 62
7
  6
CONTINUOUS
370
-3
390
F
  0
LAYER
  5
20C
100
AcDbSymbolTableRecord
100
AcDbLayerTableRecord
  2
PUNTI
 70
0
 62
7
  6
CONTINUOUS
370
-3
390
F
  0
LAYER
  5
20D
100
AcDbSymbolTableRecord
100
AcDbLayerTableRecord
  2
RACCORDO
 70
0
 62
7
  6
CONTINUOUS
370
-3
390
F
  0
LAYER
  5
20E
100
AcDbSymbolTableRecord
100
AcDbLayerTableRecord
  2
RGB__255__255__255__
 70
0
 62
7
  6
CONTINUOUS
370
-3
390
F
  0
LAYER
  5
20F
100
AcDbSymbolTableRecord
100
AcDbLayerTableRecord
  2
RGB____0____0____0__
 70
0
 62
7
  6
CONTINUOUS
370
-3
390
F
  0
LAYER
  5
210
100
AcDbSymbolTableRecord
100
AcDbLayerTableRecord
  2
SIMBOLI
 70
0
 62
7
  6
CONTINUOUS
370
-3
390
F
  0
LAYER
  5
211
100
AcDbSymbolTableRecord
100
AcDbLayerTableRecord
  2
SMUSSO
 70
0
 62
7
  6
CONTINUOUS
370
-3
390
F
  0
LAYER
  5
212
100
AcDbSymbolTableRecord
100
AcDbLayerTableRecord
  2
SNAPLINE
 70
0
 62
7
  6
CONTINUOUS
370
-3
390
F
  0
LAYER
  5
213
100
AcDbSymbolTableRecord
100
AcDbLayerTableRecord
  2
SUPERFICI
 70
0
 62
7
  6
CONTINUOUS
370
-3
390
F
  0
LAYER
  5
214
100
AcDbSymbolTableRecord
100
AcDbLayerTableRecord
  2
TRASH
 70
0
 62
7
  6
CONTINUOUS
370
-3
390
F
  0
LAYER
  5
215
100
AcDbSymbolTableRecord
100
AcDbLayerTableRecord
  2
XSEC_DATUMS
 70
0
 62
7
  6
CONTINUOUS
370
-3
390
F
  0
ENDTAB
  0
TABLE
  2
STYLE
  5
3
100
AcDbSymbolTable
 70
1
  0
STYLE
  5
11
100
AcDbSymbolTableRecord
100
AcDbTextStyleTableRecord
  2
STANDARD
 70
0
 40
0.0
 41
0.8
 50
0.0
 71
0
 42
0.2
  3
txt
  4

  0
STYLE
  5
216
100
AcDbSymbolTableRecord
100
AcDbTextStyleTableRecord
  2
TEXTSTYLE_1
 70
0
 40
0.0
 41
0.8
 50
0.0
 71
0
 42
0.2
  3
gdt
  4

  0
ENDTAB
  0
TABLE
  2
VIEW
  5
6
100
AcDbSymbolTable
 70
0
  0
ENDTAB
  0
TABLE
  2
UCS
  5
7
100
AcDbSymbolTable
 70
0
  0
ENDTAB
  0
TABLE
  2
APPID
  5
9
100
AcDbSymbolTable
 70
1
  0
APPID
  5
217
100
AcDbSymbolTableRecord
100
AcDbRegAppTableRecord
  2
ACAD
 70
0
  0
ENDTAB
  0
TABLE
  2
BLOCK_RECORD
  5
1
100
AcDbSymbolTable
 70
0
  0
BLOCK_RECORD
  5
218
100
AcDbSymbolTableRecord
100
AcDbBlockTableRecord
  2
*Model_Space
  0
BLOCK_RECORD
  5
219
100
AcDbSymbolTableRecord
100
AcDbBlockTableRecord
  2
*Paper_Space
  0
ENDTAB
  0
TABLE
  2
DIMSTYLE
  5
A
100
AcDbSymbolTable
 70
1
100
AcDbDimStyleTable
 71
0
  0
DIMSTYLE
105
21A
100
AcDbSymbolTableRecord
100
AcDbDimStyleTableRecord
  2
STANDARD
 70
0
  3

  4

 40
1.0
 41
3.0
 42
0.0625
 43
0.38
 44
0.18
 45
0.0
 46
0.0
 47
0.01
 48
0.01
140
3.0
141
0.09
142
0.0
143
25.4
144
1.0
145
0.0
146
1.0
147
0.09
 71
1.0
 72
0.0
 73
0
 74
0
 75
0
 76
0
 77
1
 78
8
170
0
171
2
172
0
173
0
174
0
175
0
176
0
177
0
178
0
270
2
271
2
272
2
273
2
274
2
275
0
280
0
281
0
282
0
283
1
284
8
285
0
286
0
287
3
288
0
340
11
  0
ENDTAB
  0
ENDSEC
  0
SECTION
  2
BLOCKS
  0
BLOCK
  5
20
100
AcDbEntity
  8
0
100
AcDbBlockBegin
  2
*Model_Space
 70
0
 10
0.0
 20
0.0
 30
0.0
  3
*Model_Space
  1

  0
ENDBLK
  5
21
100
AcDbEntity
  8
0
100
AcDbBlockEnd
  0
BLOCK
  5
1C
100
AcDbEntity
  8
0
100
AcDbBlockBegin
  2
*Paper_Space
 70
0
 10
0.0
 20
0.0
 30
0.0
  3
*Paper_Space
  1

  0
ENDBLK
  5
1D
100
AcDbEntity
  8
0
100
AcDbBlockEnd
  0
ENDSEC
  0
SECTION
  2
ENTITIES
  0
LWPOLYLINE
  5
21B
100
AcDbEntity
  8
RACCORDO
100
AcDbPolyline
 62
7
  6
CONTINUOUS
 90
15
 70
0
 10
-15.3985448018
 20
26.7745994892
 10
-15.4352401886
 20
26.7499819568
 10
-15.4989134109
 20
26.7015075437
 10
-15.5589451331
 20
26.6484606934
 10
-15.6155328276
 20
26.5911025499
 10
-15.6686535682
 20
26.5297410638
 10
-15.717979186
 20
26.4650058948
 10
-15.7634748489
 20
26.3971723594
 10
-15.8050381299
 20
26.3264359014
 10
-15.8422626213
 20
26.2535645924
 10
-15.8750337206
 20
26.1787799168
 10
-15.9031803744
 20
26.1022526883
 10
-15.9263518246
 20
26.0246382241
 10
-15.9443103963
 20
25.946175684
 10
-15.9573024127
 20
25.8630159964
  0
LINE
  5
21C
100
AcDbEntity
  8
RACCORDO
100
AcDbLine
 62
7
  6
CONTINUOUS
 10
-15.3986999018
 20
26.7745173858
 11
-14.7387148233
 21
27.1965701922
  0
LINE
  5
21D
100
AcDbEntity
  8
0
100
AcDbLine
 62
253
  6
CONTINUOUS
 10
-15.138580901
 20
26.7560354244
 11
-14.4821679109
 21
27.1758039218
  0
LWPOLYLINE
  5
21E
100
AcDbEntity
  8
RACCORDO
100
AcDbPolyline
 62
253
  6
CONTINUOUS
 90
9
 70
0
 10
-15.3985524926
 20
26.7746115432
 10
-15.3788004093
 20
26.7854130436
 10
-15.3499129236
 20
26.7957822307
 10
-15.318610747
 20
26.8013075381
 10
-15.2852365339
 20
26.8019284823
 10
-15.2501556206
 20
26.7976382658
 10
-15.2137520261
 20
26.7884838522
 10
-15.176424248
 20
26.7745654517
 10
-15.138580901
 20
26.7560354244
  0
LWPOLYLINE
  5
21F
100
AcDbEntity
  8
RACCORDO
100
AcDbPolyline
 62
253
  6
CONTINUOUS
 90
19
 70
0
 10
-15.8103296819
 20
25.6636771103
 10
-15.8001913919
 20
25.7318133611
 10
-15.78597067
 20
25.8012609005
 10
-15.767754051
 20
25.8716036328
 10
-15.745654079
 20
25.9424223001
 10
-15.7198033721
 20
26.0132909478
 10
-15.6903542641
 20
26.0837794915
 10
-15.6574880553
 20
26.1534650457
 10
-15.621403325
 20
26.2219326121
 10
-15.5823092892
 20
26.2887713098
 10
-15.5404442143
 20
26.3535822845
 10
-15.4960618674
 20
26.415978327
 10
-15.4494191126
 20
26.4755838051
 10
-15.4007982793
 20
26.5320444411
 10
-15.3504954613
 20
26.5850213597
 10
-15.2988060265
 20
26.6341901874
 10
-15.2460407827
 20
26.6792552623
 10
-15.19252394
 20
26.7199510356
 10
-15.138580901
 20
26.7560354244
  0
LWPOLYLINE
  5
220
100
AcDbEntity
  8
RACCORDO
100
AcDbPolyline
 62
7
  6
CONTINUOUS
 90
10
 70
0
 10
-16.6412501822
 20
15.8693380624
 10
-16.6652233428
 20
14.1775733704
 10
-16.6839297829
 20
12.4285216862
 10
-16.6963977846
 20
10.6831760508
 10
-16.7026269439
 20
8.9415722667
 10
-16.7026171343
 20
7.2037400246
 10
-16.6963682804
 20
5.4697067137
 10
-16.6838803616
 20
3.7395020246
 10
-16.6651536343
 20
2.0131614249
 10
-16.6412476781
 20
0.355889251
  0
LWPOLYLINE
  5
221
100
AcDbEntity
  8
RACCORDO
100
AcDbPolyline
 62
253
  6
CONTINUOUS
 90
10
 70
0
 10
-16.4948027213
 20
15.6650589606
 10
-16.4711062278
 20
16.7483655597
 10
-16.4342924375
 20
17.8391286781
 10
-16.3843693404
 20
18.9371174852
 10
-16.3213482106
 20
20.0420998488
 10
-16.245242303
 20
21.153841826
 10
-16.1560668429
 20
22.2721077168
 10
-16.0538407605
 20
23.3966608553
 10
-15.9385866947
 20
24.5272636563
 10
-15.8103296819
 20
25.6636771103
  0
LWPOLYLINE
  5
222
100
AcDbEntity
  8
RACCORDO
100
AcDbPolyline
 62
253
  6
CONTINUOUS
 90
10
 70
0
 10
-15.9573024127
 20
25.8630159964
 10
-15.9578168247
 20
25.8574029686
 10
-15.95684958
 20
25.8323573236
 10
-15.9506244774
 20
25.8070168136
 10
-15.9392074915
 20
25.7816500002
 10
-15.9227196206
 20
25.7565257242
 10
-15.9013356054
 20
25.7319102559
 10
-15.8752820761
 20
25.7080644732
 10
-15.8448351512
 20
25.6852410964
 10
-15.8103175109
 20
25.6636820105
  0
LWPOLYLINE
  5
223
100
AcDbEntity
  8
RACCORDO
100
AcDbPolyline
 62
7
  6
CONTINUOUS
 90
10
 70
0
 10
-15.9572840877
 20
25.8632543595
 10
-16.0801159612
 20
24.7770063237
 10
-16.1972622749
 20
23.6321973218
 10
-16.3010598649
 20
22.4934748745
 10
-16.391479008
 20
21.3611177887
 10
-16.4685002143
 20
20.235355121
 10
-16.5321064027
 20
19.1163973921
 10
-16.5822805498
 20
18.0044729375
 10
-16.619009514
 20
16.8998529797
 10
-16.6412501708
 20
15.8693378553
  0
LWPOLYLINE
  5
224
100
AcDbEntity
  8
RACCORDO
100
AcDbPolyline
 62
7
  6
CONTINUOUS
 90
8
 70
0
 10
-15.8762539169
 20
-9.0753412999
 10
-15.8437453008
 20
-9.1317036699
 10
-15.8069208136
 20
-9.1838710493
 10
-15.7661407769
 20
-9.2316142465
 10
-15.7220174228
 20
-9.2745523498
 10
-15.6751613575
 20
-9.31248025
 10
-15.6260782436
 20
-9.3453651638
 10
-15.6130472906
 20
-9.3530700445
  0
LWPOLYLINE
  5
225
100
AcDbEntity
  8
RACCORDO
100
AcDbPolyline
 62
253
  6
CONTINUOUS
 90
8
 70
0
 10
-15.9559892904
 20
-8.8197704318
 10
-15.9506361182
 20
-8.8460895241
 10
-15.9392196685
 20
-8.8784704197
 10
-15.9227321494
 20
-8.909500107
 10
-15.9013483022
 20
-8.9388497214
 10
-15.8752947614
 20
-8.9662082042
 10
-15.8448476526
 20
-8.9912855992
 10
-15.8103296662
 20
-9.0138161265
  0
LWPOLYLINE
  5
226
100
AcDbEntity
  8
RACCORDO
100
AcDbPolyline
 62
7
  6
CONTINUOUS
 90
5
 70
0
 10
-15.955973389
 20
-8.81976821
 10
-15.9442452663
 20
-8.8855351988
 10
-15.9267764685
 20
-8.9517791811
 10
-15.9040578379
 20
-9.0151644284
 10
-15.8762539169
 20
-9.0753412999
  0
LINE
  5
227
100
AcDbEntity
  8
RACCORDO
100
AcDbLine
 62
7
  6
CONTINUOUS
 10
-15.9560406623
 20
-8.8194009011
 11
-15.9559892904
 21
-8.8197704318
  0
LWPOLYLINE
  5
228
100
AcDbEntity
  8
RACCORDO
100
AcDbPolyline
 62
253
  6
CONTINUOUS
 90
10
 70
0
 10
-15.8103296819
 20
-9.0138161383
 10
-15.9385866947
 20
-8.033432789
 10
-16.0538407604
 20
-7.043038886
 10
-16.1560668427
 20
-6.0428445272
 10
-16.2452423024
 20
-5.0330621486
 10
-16.3213482095
 20
-4.0139055623
 10
-16.3843693392
 20
-2.985589906
 10
-16.4342924365
 20
-1.9483328226
 10
-16.4711062272
 20
-0.9023544188
 10
-16.4948027213
 20
0.1521237016
  0
LWPOLYLINE
  5
229
100
AcDbEntity
  8
RACCORDO
100
AcDbPolyline
 62
253
  6
CONTINUOUS
 90
9
 70
0
 10
-16.6412476781
 20
0.355889251
 10
-16.6402252626
 20
0.3396844567
 10
-16.6342612163
 20
0.3096601001
 10
-16.623074666
 20
0.2802112384
 10
-16.6067841267
 20
0.2516498655
 10
-16.5855621876
 20
0.224278573
 10
-16.5596336829
 20
0.1983873441
 10
-16.5292733104
 20
0.1742504816
 10
-16.494802721
 20
0.1521237018
  0
LWPOLYLINE
  5
22A
100
AcDbEntity
  8
RACCORDO
100
AcDbPolyline
 62
253
  6
CONTINUOUS
 90
9
 70
0
 10
-16.6412501708
 20
15.8693378553
 10
-16.6402252469
 20
15.8484930142
 10
-16.6342611997
 20
15.8194921613
 10
-16.6230746488
 20
15.7909353293
 10
-16.6067841094
 20
15.7631250616
 10
-16.5855621703
 20
15.7363559921
 10
-16.559633666
 20
15.7109117238
 10
-16.5292732941
 20
15.6870618242
 10
-16.4948027055
 20
15.6650589694
  0
LWPOLYLINE
  5
22B
100
AcDbEntity
  8
RACCORDO
100
AcDbPolyline
 62
7
  6
CONTINUOUS
 90
10
 70
0
 10
-16.6412476564
 20
0.3558894922
 10
-16.6188416064
 20
-0.6535113975
 10
-16.5820127966
 20
-1.7142436627
 10
-16.5317153225
 20
-2.7661532238
 10
-16.4679565105
 20
-3.8089816358
 10
-16.3907475017
 20
-4.8425191269
 10
-16.3000991922
 20
-5.8665745617
 10
-16.1960250751
 20
-6.880939386
 10
-16.0785489941
 20
-7.885366001
 10
-15.9560406623
 20
-8.8194009011
  0
LWPOLYLINE
  5
22C
100
AcDbEntity
  8
RACCORDO
100
AcDbPolyline
 62
253
  6
CONTINUOUS
 90
10
 70
0
 10
-16.4948027213
 20
0.1521237016
 10
-16.5193572647
 20
1.8607710936
 10
-16.5377729541
 20
3.5732258118
 10
-16.5500498381
 20
5.2894570895
 10
-16.5561880349
 20
7.0094107408
 10
-16.5561880317
 20
8.7330791329
 10
-16.5500498294
 20
10.4605016801
 10
-16.5377729427
 20
12.191671311
 10
-16.5193572556
 20
13.926533975
 10
-16.4948027213
 20
15.6650589606
  0
LWPOLYLINE
  5
22D
100
AcDbEntity
  8
RACCORDO
100
AcDbPolyline
 62
7
  6
CONTINUOUS
 90
14
 70
0
 10
15.1703509232
 20
-27.1270190116
 10
15.2033521155
 20
-27.144881866
 10
15.2566862798
 20
-27.1690184875
 10
15.3117918817
 20
-27.1884430692
 10
15.3688231513
 20
-27.2032197574
 10
15.4274302952
 20
-27.2131961021
 10
15.487195873
 20
-27.2182494001
 10
15.5482936597
 20
-27.2182902109
 10
15.6104375475
 20
-27.2131701182
 10
15.6732281039
 20
-27.2027858254
 10
15.7368038825
 20
-27.1869238804
 10
15.8010632915
 20
-27.1653275457
 10
15.865531595
 20
-27.1379012703
 10
15.8974368274
 20
-27.1221258489
  0
LINE
  5
22E
100
AcDbEntity
  8
RACCORDO
100
AcDbLine
 62
7
  6
CONTINUOUS
 10
-15.6131301148
 20
-9.3530274795
 11
-15.613791736
 21
-9.3526465048
  0
LINE
  5
22F
100
AcDbEntity
  8
ASSI
100
AcDbLine
 62
7
  6
CONTINUOUS
 10
15.1704714569
 20
-27.1270942549
 11
-15.6138261605
 21
-9.3526266285
  0
LINE
  5
230
100
AcDbEntity
  8
RACCORDO
100
AcDbLine
 62
253
  6
CONTINUOUS
 10
14.9686822153
 20
-26.7852318561
 11
-15.8103296819
 21
-9.0138161383
  0
LINE
  5
231
100
AcDbEntity
  8
RACCORDO
100
AcDbLine
 62
7
  6
CONTINUOUS
 10
15.1702631472
 20
-27.1269739114
 11
15.1704373252
 21
-27.1270745477
  0
LWPOLYLINE
  5
232
100
AcDbEntity
  8
RACCORDO
100
AcDbPolyline
 62
253
  6
CONTINUOUS
 90
9
 70
0
 10
-15.6214058153
 20
-9.3481105805
 10
-15.6574902873
 20
-9.3224230841
 10
-15.6903560904
 20
-9.2916966424
 10
-15.7198045298
 20
-9.2561151502
 10
-15.7456545391
 20
-9.2158940444
 10
-15.7677540986
 20
-9.1712730435
 10
-15.7859706007
 20
-9.1225200255
 10
-15.8001913314
 20
-9.0699290236
 10
-15.8103296819
 20
-9.0138161383
  0
LINE
  5
233
100
AcDbEntity
  8
RACCORDO
100
AcDbLine
 62
253
  6
CONTINUOUS
 10
14.2476081037
 20
-17.5981590159
 11
-16.4948027213
 21
0.1521237016
  0
LINE
  5
234
100
AcDbEntity
  8
SUPERFICI
100
AcDbLine
 62
7
  6
CONTINUOUS
 10
-2.2477333595
 20
0.1807436301
 11
-2.2492665716
 21
0.2089367449
  0
LWPOLYLINE
  5
235
100
AcDbEntity
  8
0
100
AcDbPolyline
 62
7
  6
CONTINUOUS
 90
36
 70
0
 10
-2.2477336271
 20
0.1807467386
 10
-2.2452066785
 20
0.0932568743
 10
-2.2375659021
 20
0.0039058371
 10
-2.2248118769
 20
-0.087306703
 10
-2.2068300023
 20
-0.1809122469
 10
-2.183735854
 20
-0.2763798488
 10
-2.1558759897
 20
-0.3721165806
 10
-2.1231483314
 20
-0.4681160801
 10
-2.0856574388
 20
-0.5643861361
 10
-2.0440610593
 20
-0.6593557594
 10
-1.9983616742
 20
-0.7528808068
 10
-1.9485600612
 20
-0.8451073006
 10
-1.8953121551
 20
-0.9348999307
 10
-1.8385063939
 20
-1.0223324306
 10
-1.7782575366
 20
-1.1073329137
 10
-1.7155613693
 20
-1.1885478538
 10
-1.6505096627
 20
-1.2657927075
 10
-1.5830134759
 20
-1.3392536552
 10
-1.5137976021
 20
-1.4081333002
 10
-1.4426599285
 20
-1.4725330223
 10
-1.3698044276
 20
-1.5323525182
 10
-1.2965648449
 20
-1.5864917649
 10
-1.2231214702
 20
-1.6347360616
 10
-1.1492946844
 20
-1.6773004974
 10
-1.0758780739
 20
-1.713729563
 10
-1.0026896516
 20
-1.7440160859
 10
-0.929910725
 20
-1.7681668448
 10
-0.8588795282
 20
-1.785747087
 10
-0.7898121614
 20
-1.7966240807
 10
-0.7224906625
 20
-1.8009294798
 10
-0.6576019937
 20
-1.7986250072
 10
-0.595026935
 20
-1.7896218035
 10
-0.5348818604
 20
-1.7740070819
 10
-0.4782072082
 20
-1.7520067236
 10
-0.4251439147
 20
-1.7235699055
 10
-0.3838365695
 20
-1.6951980735
  0
LINE
  5
236
100
AcDbEntity
  8
SUPERFICI
100
AcDbLine
 62
7
  6
CONTINUOUS
 10
-2.2452065295
 20
0.0932551375
 11
-2.2477333595
 21
0.1807436301
  0
LINE
  5
237
100
AcDbEntity
  8
SUPERFICI
100
AcDbLine
 62
7
  6
CONTINUOUS
 10
-2.0220811564
 20
2.0174280342
 11
-2.0242771556
 21
1.5674116978
  0
LINE
  5
238
100
AcDbEntity
  8
0
100
AcDbLine
 62
7
  6
CONTINUOUS
 10
-2.0242771556
 20
1.5674116978
 11
-2.0220811564
 21
2.0174280342
  0
LWPOLYLINE
  5
239
100
AcDbEntity
  8
SUPERFICI
100
AcDbPolyline
 62
7
  6
CONTINUOUS
 90
25
 70
0
 10
-3.1294902441
 20
-1.2298943465
 10
-3.1381910657
 20
-1.2517512994
 10
-3.1439611793
 20
-1.2762703661
 10
-3.1469171711
 20
-1.3024486239
 10
-3.1470436321
 20
-1.3302811514
 10
-3.14435596
 20
-1.359772863
 10
-3.1390172773
 20
-1.3899357784
 10
-3.1309622119
 20
-1.4208257398
 10
-3.1202564269
 20
-1.4523870741
 10
-3.107259903
 20
-1.4834647062
 10
-3.0918441096
 20
-1.5141041459
 10
-3.0741381047
 20
-1.5442601901
 10
-3.054888483
 20
-1.5726418295
 10
-3.0340281626
 20
-1.5991379138
 10
-3.0116247779
 20
-1.6238599147
 10
-2.9886270702
 20
-1.6458507978
 10
-2.965110395
 20
-1.6649578138
 10
-2.9409996811
 20
-1.6813338775
 10
-2.9170179714
 20
-1.6944804167
 10
-2.8931309798
 20
-1.7043878352
 10
-2.8693728993
 20
-1.7110656751
 10
-2.8465693973
 20
-1.7140440163
 10
-2.824995538
 20
-1.7131661268
 10
-2.804375782
 20
-1.7085884622
 10
-2.7962899512
 20
-1.7056793412
  0
LINE
  5
23A
100
AcDbEntity
  8
0
100
AcDbLine
 62
7
  6
CONTINUOUS
 10
-2.4619142075
 20
1.3315443558
 11
-2.4530619843
 21
1.3420160626
  0
LWPOLYLINE
  5
23B
100
AcDbEntity
  8
SUPERFICI
100
AcDbPolyline
 62
7
  6
CONTINUOUS
 90
38
 70
0
 10
-2.4530613502
 20
1.342016582
 10
-2.4619118542
 20
1.3315475485
 10
-2.469666756
 20
1.3198727456
 10
-2.4763259969
 20
1.3069922069
 10
-2.48192629
 20
1.2928787139
 10
-2.4864307954
 20
1.2775595578
 10
-2.4897291379
 20
1.2611165293
 10
-2.4918440078
 20
1.2435489322
 10
-2.4927526134
 20
1.2248575208
 10
-2.4922763939
 20
1.2051262403
 10
-2.4903950365
 20
1.1842317114
 10
-2.4871287849
 20
1.1622973531
 10
-2.4823600011
 20
1.1397772575
 10
-2.4759804334
 20
1.1165410028
 10
-2.4680983977
 20
1.0927189741
 10
-2.4589212603
 20
1.069156386
 10
-2.4484068956
 20
1.0459453606
 10
-2.4365976632
 20
1.0229936417
 10
-2.4238277743
 20
1.0008698101
 10
-2.4101677418
 20
0.9796992928
 10
-2.3955473028
 20
0.9593565192
 10
-2.3800895331
 20
0.9400335573
 10
-2.3636473616
 20
0.921597321
 10
-2.3463680413
 20
0.9041807919
 10
-2.3288161343
 20
0.8883751387
 10
-2.3109722791
 20
0.8742917287
 10
-2.2928559455
 20
0.8618191326
 10
-2.2750899241
 20
0.8512143352
 10
-2.2577983281
 20
0.8426111238
 10
-2.2408570334
 20
0.8358757174
 10
-2.2245164524
 20
0.8308637609
 10
-2.2088393519
 20
0.8275777256
 10
-2.1937628771
 20
0.8260151907
 10
-2.1793490043
 20
0.826024465
 10
-2.1655749574
 20
0.827579547
 10
-2.1524633787
 20
0.8307065149
 10
-2.1401443774
 20
0.8353317939
 10
-2.1368447086
 20
0.8368907407
  0
LINE
  5
23C
100
AcDbEntity
  8
0
100
AcDbLine
 62
7
  6
CONTINUOUS
 10
-2.4530619843
 20
1.3420160626
 11
-2.4135844767
 21
1.3805564306
  0
LINE
  5
23D
100
AcDbEntity
  8
SUPERFICI
100
AcDbLine
 62
7
  6
CONTINUOUS
 10
-2.1080722332
 20
0.8581243319
 11
-2.0640452403
 21
0.8995982597
  0
LINE
  5
23E
100
AcDbEntity
  8
0
100
AcDbLine
 62
7
  6
CONTINUOUS
 10
-2.0640568602
 20
0.8995898784
 11
-2.1080993403
 21
0.8581057237
  0
LWPOLYLINE
  5
23F
100
AcDbEntity
  8
0
100
AcDbPolyline
 62
7
  6
CONTINUOUS
 90
4
 70
0
 10
-2.1080993403
 20
0.8581057237
 10
-2.1179832436
 20
0.8490199883
 10
-2.1286621468
 20
0.8414299338
 10
-2.1368445964
 20
0.8368905354
  0
LWPOLYLINE
  5
240
100
AcDbEntity
  8
SUPERFICI
100
AcDbPolyline
 62
7
  6
CONTINUOUS
 90
21
 70
0
 10
-3.8224736211
 20
1.2500127718
 10
-3.8339862958
 20
1.2397755631
 10
-3.8470044278
 20
1.2237305806
 10
-3.8575660984
 20
1.2046512166
 10
-3.8657212535
 20
1.1826232191
 10
-3.8711397489
 20
1.1584176978
 10
-3.8737138554
 20
1.1318856492
 10
-3.8735510817
 20
1.103176204
 10
-3.8706445199
 20
1.0735074554
 10
-3.8648532262
 20
1.0428485261
 10
-3.8563183689
 20
1.0112301643
 10
-3.8454566052
 20
0.9799626717
 10
-3.8322518496
 20
0.9491755435
 10
-3.8167207194
 20
0.9187389784
 10
-3.7993291669
 20
0.889574195
 10
-3.7800355631
 20
0.8616515879
 10
-3.7588820715
 20
0.8350004545
 10
-3.7364604301
 20
0.8106303124
 10
-3.7129680358
 20
0.7888775803
 10
-3.6882078764
 20
0.7694056178
 10
-3.662180051
 20
0.7522143675
  0
LINE
  5
241
100
AcDbEntity
  8
0
100
AcDbLine
 62
7
  6
CONTINUOUS
 10
-3.8339862803
 20
1.2397755766
 11
-3.8224736199
 21
1.2500127698
  0
LWPOLYLINE
  5
242
100
AcDbEntity
  8
0
100
AcDbPolyline
 62
7
  6
CONTINUOUS
 90
3
 70
0
 10
-2.4135844767
 20
1.3805564306
 10
-2.3719806307
 20
1.4157746029
 10
-2.32459648
 20
1.450121212
  0
LWPOLYLINE
  5
243
100
AcDbEntity
  8
SUPERFICI
100
AcDbPolyline
 62
7
  6
CONTINUOUS
 90
3
 70
0
 10
-2.0640452403
 20
0.8995982597
 10
-2.0167018488
 20
0.9354286175
 10
-1.9660435516
 20
0.9656145478
  0
LWPOLYLINE
  5
244
100
AcDbEntity
  8
0
100
AcDbPolyline
 62
7
  6
CONTINUOUS
 90
9
 70
0
 10
-3.8224736199
 20
1.2500127698
 10
-3.8185621351
 20
1.2528716291
 10
-3.8012129339
 20
1.2625043448
 10
-3.7819540409
 20
1.2686537031
 10
-3.760770645
 20
1.2713394062
 10
-3.7380985731
 20
1.2701065384
 10
-3.714083261
 20
1.264803369
 10
-3.6885796792
 20
1.255581395
 10
-3.6615879344
 20
1.2424405551
  0
LWPOLYLINE
  5
245
100
AcDbEntity
  8
SUPERFICI
100
AcDbPolyline
 62
7
  6
CONTINUOUS
 90
4
 70
0
 10
-2.3245964793
 20
1.4501212108
 10
-2.3719805459
 20
1.4157746793
 10
-2.4135841578
 20
1.3805566954
 10
-2.4530613502
 20
1.342016582
  0
LWPOLYLINE
  5
246
100
AcDbEntity
  8
SUPERFICI
100
AcDbPolyline
 62
7
  6
CONTINUOUS
 90
3
 70
0
 10
-2.128661274
 20
0.8414308873
 10
-2.1179705895
 20
0.8490283826
 10
-2.1080722332
 20
0.8581243319
  0
LWPOLYLINE
  5
247
100
AcDbEntity
  8
0
100
AcDbPolyline
 62
7
  6
CONTINUOUS
 90
7
 70
0
 10
-2.32459648
 20
1.450121212
 10
-2.2822860579
 20
1.4763104115
 10
-2.234196791
 20
1.5016272103
 10
-2.1843171743
 20
1.5234165475
 10
-2.1327590314
 20
1.5416101013
 10
-2.0794121196
 20
1.5562752882
 10
-2.0242771556
 20
1.5674116978
  0
LWPOLYLINE
  5
248
100
AcDbEntity
  8
RACCORDO
100
AcDbPolyline
 62
253
  6
CONTINUOUS
 90
16
 70
0
 10
15.662444774
 20
7.8237051602
 10
15.6237510979
 20
7.810885902
 10
15.5818197867
 20
7.8004219279
 10
15.5370952448
 20
7.7924241393
 10
15.4900514806
 20
7.7869772998
 10
15.4411870824
 20
7.7841391371
 10
15.3910199342
 20
7.7839397313
 10
15.3400817272
 20
7.7863811957
 10
15.2889123247
 20
7.7914376548
 10
15.2380540399
 20
7.7990555181
 10
15.188045889
 20
7.8091540486
 10
15.1394178781
 20
7.8216262181
 10
15.092685386
 20
7.8363398418
 10
15.048343702
 20
7.8531389792
 10
15.0068627767
 20
7.8718455862
 10
14.9686822413
 20
7.8922614029
  0
LINE
  5
249
100
AcDbEntity
  8
0
100
AcDbLine
 62
7
  6
CONTINUOUS
 10
-0.2974803137
 20
-2.3180958653
 11
-0.3650413887
 21
-2.3340233748
  0
LWPOLYLINE
  5
24A
100
AcDbEntity
  8
0
100
AcDbPolyline
 62
7
  6
CONTINUOUS
 90
19
 70
0
 10
-1.0542048588
 20
-3.5553495804
 10
-1.0741631978
 20
-3.5590048255
 10
-1.0957202896
 20
-3.559051059
 10
-1.1187558241
 20
-3.5555766079
 10
-1.1423467909
 20
-3.5486353905
 10
-1.1665378751
 20
-3.5380399185
 10
-1.191284599
 20
-3.5239778014
 10
-1.2155301424
 20
-3.5070655647
 10
-1.2391999648
 20
-3.4872225994
 10
-1.2623684204
 20
-3.4645294058
 10
-1.2842019581
 20
-3.4398441311
 10
-1.304651759
 20
-3.4131369849
 10
-1.3237661585
 20
-3.384437475
 10
-1.3408573476
 20
-3.3546927039
 10
-1.3559002584
 20
-3.3239339338
 10
-1.3689193625
 20
-3.292129554
 10
-1.3793012532
 20
-3.2601324111
 10
-1.3868412995
 20
-3.2282266929
 10
-1.3917435605
 20
-3.1961278778
  0
LWPOLYLINE
  5
24B
100
AcDbEntity
  8
0
100
AcDbPolyline
 62
7
  6
CONTINUOUS
 90
12
 70
0
 10
0.6889677674
 20
-3.7317563997
 10
0.6685269415
 20
-3.7348173121
 10
0.646506916
 20
-3.7343264332
 10
0.6237299132
 20
-3.730348119
 10
0.6002110071
 20
-3.7228159017
 10
0.5759348233
 20
-3.711796424
 10
0.5516779652
 20
-3.697553676
 10
0.5274284678
 20
-3.6800629543
 10
0.5031983735
 20
-3.6593489172
 10
0.4798003993
 20
-3.6357495378
 10
0.4575056235
 20
-3.6093773735
 10
0.4360434795
 20
-3.5801195691
  0
LWPOLYLINE
  5
24C
100
AcDbEntity
  8
0
100
AcDbPolyline
 62
7
  6
CONTINUOUS
 90
8
 70
0
 10
-0.3650413887
 20
-2.3340233748
 10
-0.4347248116
 20
-2.3440585032
 10
-0.5065320795
 20
-2.3482021181
 10
-0.58076455
 20
-2.3464106631
 10
-0.6571234238
 20
-2.3387291774
 10
-0.7347098446
 20
-2.3252913543
 10
-0.8132248514
 20
-2.3061421397
 10
-0.892969278
 20
-2.2812376743
  0
LINE
  5
24D
100
AcDbEntity
  8
0
100
AcDbLine
 62
7
  6
CONTINUOUS
 10
1.407892602
 20
-2.1319460328
 11
1.3867226402
 21
-2.1346237587
  0
LINE
  5
24E
100
AcDbEntity
  8
0
100
AcDbLine
 62
7
  6
CONTINUOUS
 10
1.3867226402
 20
-2.1346237587
 11
1.3640619797
 21
-2.1333842092
  0
LWPOLYLINE
  5
24F
100
AcDbEntity
  8
SUPERFICI
100
AcDbPolyline
 62
7
  6
CONTINUOUS
 90
10
 70
0
 10
-0.9739438067
 20
-2.2505783541
 10
-0.8929692776
 20
-2.2812376744
 10
-0.8132248507
 20
-2.3061421398
 10
-0.7347098439
 20
-2.3252913545
 10
-0.6571234231
 20
-2.3387291775
 10
-0.5807645494
 20
-2.3464106631
 10
-0.5065320791
 20
-2.3482021181
 10
-0.4347248113
 20
-2.3440585032
 10
-0.3650413886
 20
-2.3340233748
 10
-0.2974803137
 20
-2.3180958653
  0
LINE
  5
250
100
AcDbEntity
  8
0
100
AcDbLine
 62
7
  6
CONTINUOUS
 10
-0.892969278
 20
-2.2812376743
 11
-0.9739438067
 21
-2.2505783541
  0
LINE
  5
251
100
AcDbEntity
  8
0
100
AcDbLine
 62
7
  6
CONTINUOUS
 10
-1.3982078711
 20
-2.0056136021
 11
-1.479799575
 21
-1.9422377881
  0
LWPOLYLINE
  5
252
100
AcDbEntity
  8
0
100
AcDbPolyline
 62
7
  6
CONTINUOUS
 90
8
 70
0
 10
-1.479799575
 20
-1.9422377881
 10
-1.5600417207
 20
-1.8746210204
 10
-1.6389336246
 20
-1.8027629022
 10
-1.7167662236
 20
-1.7263410697
 10
-1.793246706
 20
-1.6456767988
 10
-1.8674986303
 20
-1.5617350748
 10
-1.9392290572
 20
-1.4748371005
 10
-2.0087284302
 20
-1.3846602263
  0
LWPOLYLINE
  5
253
100
AcDbEntity
  8
SUPERFICI
100
AcDbPolyline
 62
7
  6
CONTINUOUS
 90
10
 70
0
 10
-2.0759952899
 20
-1.2912036069
 10
-2.0087284298
 20
-1.3846602267
 10
-1.9392290566
 20
-1.4748371011
 10
-1.8674986296
 20
-1.5617350757
 10
-1.7932467053
 20
-1.6456767995
 10
-1.7167662231
 20
-1.7263410702
 10
-1.6389336242
 20
-1.8027629026
 10
-1.5600417205
 20
-1.8746210207
 10
-1.4797995748
 20
-1.9422377882
 10
-1.3982078711
 20
-2.0056136021
  0
LINE
  5
254
100
AcDbEntity
  8
0
100
AcDbLine
 62
7
  6
CONTINUOUS
 10
-2.0087284302
 20
-1.3846602263
 11
-2.0759952899
 21
-1.2912036069
  0
LINE
  5
255
100
AcDbEntity
  8
0
100
AcDbLine
 62
7
  6
CONTINUOUS
 10
-2.3764118139
 20
-0.7718681773
 11
-2.4241532654
 21
-0.6662635453
  0
LWPOLYLINE
  5
256
100
AcDbEntity
  8
0
100
AcDbPolyline
 62
7
  6
CONTINUOUS
 90
8
 70
0
 10
-2.4241532654
 20
-0.6662635453
 10
-2.4678390609
 20
-0.5605399404
 10
-2.5074679456
 20
-0.4546966399
 10
-2.5431505935
 20
-0.3483216599
 10
-2.5747735767
 20
-0.2418253998
 10
-2.6020000127
 20
-0.1364410165
 10
-2.6247173291
 20
-0.0325794044
 10
-2.6430366152
 20
0.0701711783
  0
LWPOLYLINE
  5
257
100
AcDbEntity
  8
SUPERFICI
100
AcDbPolyline
 62
7
  6
CONTINUOUS
 90
10
 70
0
 10
-2.656957046
 20
0.1718112028
 10
-2.6430366151
 20
0.0701711778
 10
-2.6247173289
 20
-0.0325794052
 10
-2.6020000125
 20
-0.1364410174
 10
-2.5747735765
 20
-0.2418254008
 10
-2.5431505933
 20
-0.3483216606
 10
-2.5074679454
 20
-0.4546966404
 10
-2.4678390608
 20
-0.5605399408
 10
-2.4241532653
 20
-0.6662635455
 10
-2.3764118139
 20
-0.7718681773
  0
LINE
  5
258
100
AcDbEntity
  8
0
100
AcDbLine
 62
7
  6
CONTINUOUS
 10
-2.6430366152
 20
0.0701711783
 11
-2.656957046
 21
0.1718112028
  0
LWPOLYLINE
  5
259
100
AcDbEntity
  8
SUPERFICI
100
AcDbPolyline
 62
7
  6
CONTINUOUS
 90
14
 70
0
 10
-2.2492665716
 20
0.2089367449
 10
-2.2529257503
 20
0.2371275797
 10
-2.2587118074
 20
0.2653214741
 10
-2.2667548655
 20
0.2937162168
 10
-2.2769249317
 20
0.3221119894
 10
-2.2888317208
 20
0.3499095135
 10
-2.3024684297
 20
0.3771189634
 10
-2.3178422694
 20
0.4037299301
 10
-2.3345840513
 20
0.4291122168
 10
-2.3527029834
 20
0.4532774464
 10
-2.3721902339
 20
0.4762137796
 10
-2.3926495944
 20
0.4972558039
 10
-2.4139490912
 20
0.5161816602
 10
-2.4362209498
 20
0.5332130629
  0
LINE
  5
25A
100
AcDbEntity
  8
0
100
AcDbLine
 62
7
  6
CONTINUOUS
 10
-1.3917435845
 20
-3.1961275348
 11
-1.3940077129
 21
-3.1638357773
  0
LWPOLYLINE
  5
25B
100
AcDbEntity
  8
SUPERFICI
100
AcDbPolyline
 62
7
  6
CONTINUOUS
 90
21
 70
0
 10
-1.3940077153
 20
-3.1638352845
 10
-1.3917435891
 20
-3.1961275049
 10
-1.3868413451
 20
-3.2282264223
 10
-1.3793013063
 20
-3.2601322252
 10
-1.3689194116
 20
-3.2921294317
 10
-1.3559002942
 20
-3.3239338575
 10
-1.3408573676
 20
-3.3546926662
 10
-1.323766163
 20
-3.3844374702
 10
-1.3046517456
 20
-3.4131370053
 10
-1.2842019231
 20
-3.4398441738
 10
-1.2623683587
 20
-3.4645294703
 10
-1.2391998728
 20
-3.4872226826
 10
-1.2155300194
 20
-3.5070656592
 10
-1.1912844432
 20
-3.5239778991
 10
-1.1665376858
 20
-3.5380400121
 10
-1.142346574
 20
-3.54863547
 10
-1.1187555873
 20
-3.5555766618
 10
-1.0957200388
 20
-3.5590510774
 10
-1.0741629397
 20
-3.5590048017
 10
-1.0542046001
 20
-3.5553495084
 10
-1.0424347584
 20
-3.5512590981
  0
LINE
  5
25C
100
AcDbEntity
  8
SUPERFICI
100
AcDbLine
 62
7
  6
CONTINUOUS
 10
-1.3982078711
 20
-2.0056136021
 11
-1.3940077153
 21
-3.1638352845
  0
LINE
  5
25D
100
AcDbEntity
  8
0
100
AcDbLine
 62
7
  6
CONTINUOUS
 10
-1.3940077129
 20
-3.1638357773
 11
-1.3982078711
 21
-2.0056136021
  0
LINE
  5
25E
100
AcDbEntity
  8
0
100
AcDbLine
 62
7
  6
CONTINUOUS
 10
-0.9739438067
 20
-2.2505783541
 11
-0.9697436556
 21
-3.4087991029
  0
LINE
  5
25F
100
AcDbEntity
  8
SUPERFICI
100
AcDbLine
 62
7
  6
CONTINUOUS
 10
-0.9697436595
 20
-3.4087982913
 11
-0.9739438067
 21
-2.2505783541
  0
LINE
  5
260
100
AcDbEntity
  8
0
100
AcDbLine
 62
7
  6
CONTINUOUS
 10
-1.6001930085
 20
1.2812092891
 11
-1.6012296252
 21
1.0252515164
  0
LINE
  5
261
100
AcDbEntity
  8
SUPERFICI
100
AcDbLine
 62
7
  6
CONTINUOUS
 10
-0.7658070052
 20
0.7994452681
 11
-0.7668436219
 21
0.5434874901
  0
LINE
  5
262
100
AcDbEntity
  8
SUPERFICI
100
AcDbLine
 62
7
  6
CONTINUOUS
 10
-1.6012296252
 20
1.0252515164
 11
-1.6001930085
 21
1.2812092891
  0
LINE
  5
263
100
AcDbEntity
  8
0
100
AcDbLine
 62
7
  6
CONTINUOUS
 10
-0.7668436219
 20
0.5434874901
 11
-0.7658070052
 21
0.7994452681
  0
LINE
  5
264
100
AcDbEntity
  8
0
100
AcDbLine
 62
7
  6
CONTINUOUS
 10
-0.3391670244
 20
1.0457345062
 11
-0.3413630236
 21
0.5957181794
  0
LINE
  5
265
100
AcDbEntity
  8
SUPERFICI
100
AcDbLine
 62
7
  6
CONTINUOUS
 10
-0.3413630236
 20
0.5957181794
 11
-0.3391670244
 21
1.0457345062
  0
LWPOLYLINE
  5
266
100
AcDbEntity
  8
SUPERFICI
100
AcDbPolyline
 62
7
  6
CONTINUOUS
 90
12
 70
0
 10
-0.1264128075
 20
-1.0440826176
 10
-0.1291220025
 20
-1.1283720109
 10
-0.1368904541
 20
-1.2086530331
 10
-0.1497187378
 20
-1.2849260122
 10
-0.1677168284
 20
-1.3575804936
 10
-0.1907757239
 20
-1.4262274858
 10
-0.2185682293
 20
-1.4896999126
 10
-0.2512064976
 20
-1.5478897997
 10
-0.2885808059
 20
-1.6009065183
 10
-0.3300323739
 20
-1.647909719
 10
-0.3755479036
 20
-1.6887456427
 10
-0.3838365695
 20
-1.6951980735
  0
LINE
  5
267
100
AcDbEntity
  8
0
100
AcDbLine
 62
7
  6
CONTINUOUS
 10
-0.126412769
 20
-1.044082275
 11
-0.1249006484
 21
-1.0180720321
  0
LINE
  5
268
100
AcDbEntity
  8
SUPERFICI
100
AcDbLine
 62
7
  6
CONTINUOUS
 10
-0.9714683476
 20
-3.4376864904
 11
-0.9697436595
 21
-3.4087982913
  0
LWPOLYLINE
  5
269
100
AcDbEntity
  8
0
100
AcDbPolyline
 62
7
  6
CONTINUOUS
 90
9
 70
0
 10
-0.9697436556
 20
-3.4087991029
 10
-0.9714684086
 20
-3.4376871485
 10
-0.9758055736
 20
-3.463612294
 10
-0.9827554165
 20
-3.4865746947
 10
-0.9925097462
 20
-3.5066906129
 10
-1.0048772212
 20
-3.5238440589
 10
-1.0192834665
 20
-3.53768686
 10
-1.0357244859
 20
-3.5481733724
 10
-1.0424347588
 20
-3.5512590975
  0
LWPOLYLINE
  5
26A
100
AcDbEntity
  8
0
100
AcDbPolyline
 62
7
  6
CONTINUOUS
 90
3
 70
0
 10
-0.1249006446
 20
-1.0180719673
 10
-0.1212648455
 20
-0.9944050157
 10
-0.1155055545
 20
-0.9730815257
  0
LWPOLYLINE
  5
26B
100
AcDbEntity
  8
0
100
AcDbPolyline
 62
7
  6
CONTINUOUS
 90
4
 70
0
 10
-0.1497187417
 20
-1.2849260279
 10
-0.1368904518
 20
-1.2086529861
 10
-0.1291219852
 20
-1.128371839
 10
-0.126412769
 20
-1.044082275
  0
LINE
  5
26C
100
AcDbEntity
  8
0
100
AcDbLine
 62
7
  6
CONTINUOUS
 10
-0.115505525
 20
-0.9730814554
 11
-0.1074968443
 21
-0.9540208788
  0
LINE
  5
26D
100
AcDbEntity
  8
0
100
AcDbLine
 62
7
  6
CONTINUOUS
 10
-3.1032195704
 20
-1.1948359219
 11
-3.0961626883
 21
-1.1887862083
  0
LWPOLYLINE
  5
26E
100
AcDbEntity
  8
SUPERFICI
100
AcDbPolyline
 62
7
  6
CONTINUOUS
 90
4
 70
0
 10
-3.0961626862
 20
-1.1887862118
 10
-3.1032194783
 20
-1.1948358198
 10
-3.1178200344
 20
-1.211033921
 10
-3.1294902441
 20
-1.2298943465
  0
LINE
  5
26F
100
AcDbEntity
  8
SUPERFICI
100
AcDbLine
 62
7
  6
CONTINUOUS
 10
-3.0861924708
 20
-1.1806406115
 11
-3.0963943653
 21
-1.1884283912
  0
LINE
  5
270
100
AcDbEntity
  8
0
100
AcDbLine
 62
7
  6
CONTINUOUS
 10
-3.0961626883
 20
-1.1887862083
 11
-3.0856889277
 21
-1.1813002467
  0
LINE
  5
271
100
AcDbEntity
  8
SUPERFICI
100
AcDbLine
 62
7
  6
CONTINUOUS
 10
-3.0856887292
 20
-1.1813001321
 11
-3.0961626862
 21
-1.1887862118
  0
LINE
  5
272
100
AcDbEntity
  8
0
100
AcDbLine
 62
253
  6
CONTINUOUS
 10
16.3499696854
 20
9.3737140911
 11
15.6582547224
 21
8.9743285105
  0
LINE
  5
273
100
AcDbEntity
  8
SUPERFICI
100
AcDbLine
 62
7
  6
CONTINUOUS
 10
-2.3764118139
 20
-0.7718681773
 11
-3.0856887292
 21
-1.1813001321
  0
LINE
  5
274
100
AcDbEntity
  8
0
100
AcDbLine
 62
7
  6
CONTINUOUS
 10
-3.0856889277
 20
-1.1813002467
 11
-2.3764118139
 21
-0.7718681773
  0
LINE
  5
275
100
AcDbEntity
  8
0
100
AcDbLine
 62
7
  6
CONTINUOUS
 10
-2.0759952899
 20
-1.2912036069
 11
-2.7847036004
 21
-1.700307252
  0
LINE
  5
276
100
AcDbEntity
  8
SUPERFICI
100
AcDbLine
 62
7
  6
CONTINUOUS
 10
-2.7847097965
 20
-1.7003108287
 11
-2.0759952899
 21
-1.2912036069
  0
LINE
  5
277
100
AcDbEntity
  8
SUPERFICI
100
AcDbLine
 62
7
  6
CONTINUOUS
 10
-2.1368447086
 20
0.8368907407
 11
-2.128661274
 21
0.8414308873
  0
LWPOLYLINE
  5
278
100
AcDbEntity
  8
0
100
AcDbPolyline
 62
7
  6
CONTINUOUS
 90
4
 70
0
 10
-1.9556445647
 20
0.9709072306
 10
-1.9660365443
 20
0.9656182065
 10
-2.0167020965
 20
0.935427659
 10
-2.0640568602
 20
0.8995898784
  0
LINE
  5
279
100
AcDbEntity
  8
SUPERFICI
100
AcDbLine
 62
7
  6
CONTINUOUS
 10
-1.9660376073
 20
0.9656175731
 11
-1.9556444436
 21
0.9709070091
  0
LINE
  5
27A
100
AcDbEntity
  8
0
100
AcDbLine
 62
7
  6
CONTINUOUS
 10
-2.1368445964
 20
0.8368905354
 11
-2.1401379693
 21
0.8353348215
  0
LWPOLYLINE
  5
27B
100
AcDbEntity
  8
SUPERFICI
100
AcDbPolyline
 62
7
  6
CONTINUOUS
 90
7
 70
0
 10
-1.9556444436
 20
0.9709070091
 10
-1.911750539
 20
0.9902627251
 10
-1.8541452768
 20
1.0092649504
 10
-1.7941928278
 20
1.022297967
 10
-1.7322158843
 20
1.0292534472
 10
-1.6678944461
 20
1.030238176
 10
-1.6012296252
 20
1.0252515164
  0
LINE
  5
27C
100
AcDbEntity
  8
0
100
AcDbLine
 62
7
  6
CONTINUOUS
 10
-2.1401379693
 20
0.8353348215
 11
-2.1524495311
 21
0.8307114193
  0
LWPOLYLINE
  5
27D
100
AcDbEntity
  8
0
100
AcDbPolyline
 62
7
  6
CONTINUOUS
 90
25
 70
0
 10
-2.8249889174
 20
-1.7131653074
 10
-2.8465627063
 20
-1.714044371
 10
-2.869366237
 20
-1.711067064
 10
-2.8931244408
 20
-1.704390122
 10
-2.9170116364
 20
-1.6944834754
 10
-2.9409936418
 20
-1.6813375771
 10
-2.9651047321
 20
-1.6649620285
 10
-2.988621817
 20
-1.6458554269
 10
-3.0116199525
 20
-1.6238648753
 10
-3.0340237985
 20
-1.5991431053
 10
-3.0548846114
 20
-1.5726471238
 10
-3.0741347752
 20
-1.5442654351
 10
-3.0918413534
 20
-1.5141092133
 10
-3.1072576941
 20
-1.4834695125
 10
-3.1202547312
 20
-1.4523915304
 10
-3.1309610034
 20
-1.4208297626
 10
-3.1390164971
 20
-1.3899393439
 10
-3.1443555408
 20
-1.3597759515
 10
-3.1470435149
 20
-1.330283739
 10
-3.1469172897
 20
-1.3024507335
 10
-3.143961462
 20
-1.276272025
 10
-3.1381914463
 20
-1.2517525303
 10
-3.1294906643
 20
-1.2298952057
 10
-3.1178204388
 20
-1.2110344758
 10
-3.1032198089
 20
-1.1948361264
  0
LINE
  5
27E
100
AcDbEntity
  8
0
100
AcDbLine
 62
7
  6
CONTINUOUS
 10
1.3640619797
 20
-2.1333842092
 11
1.3400553541
 21
-2.1280760387
  0
LINE
  5
27F
100
AcDbEntity
  8
SUPERFICI
100
AcDbLine
 62
7
  6
CONTINUOUS
 10
-3.6885793595
 20
1.2555812427
 11
-3.7140830416
 21
1.2648032954
  0
LINE
  5
280
100
AcDbEntity
  8
0
100
AcDbLine
 62
7
  6
CONTINUOUS
 10
1.3400553541
 20
-2.1280760387
 11
1.3145576781
 21
-2.1188508146
  0
LINE
  5
281
100
AcDbEntity
  8
SUPERFICI
100
AcDbLine
 62
7
  6
CONTINUOUS
 10
-3.6615874941
 20
1.2424403008
 11
-3.6885793595
 21
1.2555812427
  0
LINE
  5
282
100
AcDbEntity
  8
0
100
AcDbLine
 62
7
  6
CONTINUOUS
 10
1.3145576781
 20
-2.1188508146
 11
1.2875691538
 21
-2.1057087884
  0
LWPOLYLINE
  5
283
100
AcDbEntity
  8
SUPERFICI
100
AcDbPolyline
 62
7
  6
CONTINUOUS
 90
7
 70
0
 10
1.287568835
 20
-2.1057086044
 10
1.314557663
 20
-2.1188508091
 10
1.340055313
 20
-2.1280760297
 10
1.3640618919
 20
-2.1333842044
 10
1.3867225378
 20
-2.1346237716
 10
1.4078925187
 20
-2.1319460589
 10
1.426038337
 20
-2.1262657682
  0
LWPOLYLINE
  5
284
100
AcDbEntity
  8
SUPERFICI
100
AcDbPolyline
 62
7
  6
CONTINUOUS
 90
8
 70
0
 10
0.0860789655
 20
-0.9214153436
 10
0.0624579233
 20
-0.909590183
 10
0.0398952117
 20
-0.9008366336
 10
0.0183908975
 20
-0.8951546572
 10
-0.0021627848
 20
-0.8926326623
 10
-0.0216578139
 20
-0.8931820931
 10
-0.0397704188
 20
-0.8965374506
 10
-0.0565130081
 20
-0.9026833507
  0
LINE
  5
285
100
AcDbEntity
  8
SUPERFICI
100
AcDbLine
 62
7
  6
CONTINUOUS
 10
1.2875674178
 20
-2.1057077861
 11
0.2823444211
 21
-1.5253046262
  0
LINE
  5
286
100
AcDbEntity
  8
0
100
AcDbLine
 62
7
  6
CONTINUOUS
 10
1.2875674178
 20
-2.1057077861
 11
0.2823444211
 21
-1.5253046262
  0
LINE
  5
287
100
AcDbEntity
  8
SUPERFICI
100
AcDbLine
 62
7
  6
CONTINUOUS
 10
-2.656957046
 20
0.1718112028
 11
-3.6621800473
 21
0.7522143654
  0
LINE
  5
288
100
AcDbEntity
  8
0
100
AcDbLine
 62
7
  6
CONTINUOUS
 10
-2.656957046
 20
0.1718112028
 11
-3.6621800473
 21
0.7522143654
  0
LINE
  5
289
100
AcDbEntity
  8
SUPERFICI
100
AcDbLine
 62
7
  6
CONTINUOUS
 10
1.2881708827
 20
-1.6154881509
 11
0.086079696
 21
-0.9214157654
  0
LINE
  5
28A
100
AcDbEntity
  8
0
100
AcDbLine
 62
7
  6
CONTINUOUS
 10
1.2881708827
 20
-1.6154881509
 11
0.086079696
 21
-0.9214157654
  0
LINE
  5
28B
100
AcDbEntity
  8
SUPERFICI
100
AcDbLine
 62
7
  6
CONTINUOUS
 10
-2.4594652549
 20
0.548349986
 11
-3.6615860769
 21
1.2424394826
  0
LINE
  5
28C
100
AcDbEntity
  8
0
100
AcDbLine
 62
7
  6
CONTINUOUS
 10
-2.4594652549
 20
0.548349986
 11
-3.6615860769
 21
1.2424394826
  0
LINE
  5
28D
100
AcDbEntity
  8
SUPERFICI
100
AcDbLine
 62
7
  6
CONTINUOUS
 10
-2.4362209498
 20
0.5332130629
 11
-2.459465235
 21
0.5483499746
  0
LWPOLYLINE
  5
28E
100
AcDbEntity
  8
0
100
AcDbPolyline
 62
7
  6
CONTINUOUS
 90
16
 70
0
 10
-2.4594700976
 20
0.5483527822
 10
-2.4362254747
 20
0.5332162475
 10
-2.4139532584
 20
0.5161851243
 10
-2.3926533838
 20
0.49725945
 10
-2.3721936152
 20
0.4762175
 10
-2.3527059366
 20
0.4532811437
 10
-2.3345865868
 20
0.4291158236
 10
-2.3178444009
 20
0.4037333776
 10
-2.3024701677
 20
0.3771221844
 10
-2.2888330968
 20
0.349912475
 10
-2.2769259714
 20
0.3221145836
 10
-2.2667556004
 20
0.2937184109
 10
-2.2587123088
 20
0.2653234937
 10
-2.2529261025
 20
0.2371297366
 10
-2.2492666097
 20
0.2089374459
 10
-2.2477336271
 20
0.1807467386
  0
LWPOLYLINE
  5
28F
100
AcDbEntity
  8
0
100
AcDbPolyline
 62
7
  6
CONTINUOUS
 90
20
 70
0
 10
-3.6621808103
 20
0.752214806
 10
-3.6882085304
 20
0.7694060767
 10
-3.7129685968
 20
0.7888780549
 10
-3.7364609105
 20
0.8106307976
 10
-3.758882487
 20
0.8350009462
 10
-3.7800359262
 20
0.8616520811
 10
-3.7993294798
 20
0.8895746825
 10
-3.8167209806
 20
0.918739452
 10
-3.8322520615
 20
0.949175996
 10
-3.8454567705
 20
0.9799630966
 10
-3.8563184898
 20
1.0112305542
 10
-3.8648533055
 20
1.0428488747
 10
-3.8706445637
 20
1.0735077588
 10
-3.8735510967
 20
1.1031764564
 10
-3.8737138475
 20
1.1318858467
 10
-3.8711397255
 20
1.1584178454
 10
-3.8657212231
 20
1.1826233238
 10
-3.8575660685
 20
1.2046512833
 10
-3.8470044034
 20
1.2237306168
 10
-3.8339862803
 20
1.2397755766
  0
LWPOLYLINE
  5
290
100
AcDbEntity
  8
0
100
AcDbPolyline
 62
7
  6
CONTINUOUS
 90
22
 70
0
 10
1.2881705057
 20
-1.6154879332
 10
1.3141966969
 20
-1.6326824061
 10
1.338951814
 20
-1.6521589596
 10
1.362435956
 20
-1.6739175366
 10
1.3848461333
 20
-1.6982946616
 10
1.4059857203
 20
-1.7249535889
 10
1.4252643873
 20
-1.7528843414
 10
1.4426405594
 20
-1.7820573734
 10
1.458156346
 20
-1.812501923
 10
1.4713468468
 20
-1.8432962446
 10
1.4821958866
 20
-1.8745698469
 10
1.4907201723
 20
-1.9061929151
 10
1.4965038856
 20
-1.936854856
 10
1.4994060869
 20
-1.9665248477
 10
1.4995679404
 20
-1.9952335828
 10
1.496996386
 20
-2.0217629687
 10
1.4915836818
 20
-2.0459639859
 10
1.483437349
 20
-2.0679857809
 10
1.4728868432
 20
-2.0870577281
 10
1.4598816979
 20
-2.1030943994
 10
1.4444718912
 20
-2.1161815041
 10
1.4260383368
 20
-2.1262657678
  0
LINE
  5
291
100
AcDbEntity
  8
SUPERFICI
100
AcDbLine
 62
7
  6
CONTINUOUS
 10
1.3141971018
 20
-1.6326827047
 11
1.2881708891
 21
-1.6154881546
  0
LWPOLYLINE
  5
292
100
AcDbEntity
  8
SUPERFICI
100
AcDbPolyline
 62
7
  6
CONTINUOUS
 90
10
 70
0
 10
-0.7668436219
 20
0.5434874901
 10
-0.6996469176
 20
0.4706530863
 10
-0.6350475058
 20
0.394815047
 10
-0.5730442905
 20
0.315974
 10
-0.5133551798
 20
0.2336499804
 10
-0.4562596193
 20
0.1483244698
 10
-0.4025989413
 20
0.0614401954
 10
-0.352652873
 20
-0.0265215216
 10
-0.3061391856
 20
-0.1160405664
 10
-0.2630564743
 20
-0.2071161319
  0
LWPOLYLINE
  5
293
100
AcDbEntity
  8
0
100
AcDbPolyline
 62
7
  6
CONTINUOUS
 90
4
 70
0
 10
-0.5730442583
 20
0.3159739556
 10
-0.6350474666
 20
0.3948150014
 10
-0.6996468997
 20
0.4706530689
 10
-0.7668436219
 20
0.5434874901
  0
LWPOLYLINE
  5
294
100
AcDbEntity
  8
0
100
AcDbPolyline
 62
7
  6
CONTINUOUS
 90
10
 70
0
 10
-0.3413630236
 20
0.5957181794
 10
-0.2868947984
 20
0.5215674309
 10
-0.2341481798
 20
0.4458538577
 10
-0.1831224372
 20
0.3685778781
 10
-0.1336985686
 20
0.2895496946
 10
-0.0859939637
 20
0.2089600281
 10
-0.0403625396
 20
0.1273800405
 10
0.0030781958
 20
0.0450003855
 10
0.0444472792
 20
-0.0383687135
 10
0.0837455344
 20
-0.1227267836
  0
LINE
  5
295
100
AcDbEntity
  8
0
100
AcDbLine
 62
7
  6
CONTINUOUS
 10
-0.5133550521
 20
0.2336497799
 11
-0.5730442583
 21
0.3159739556
  0
LWPOLYLINE
  5
296
100
AcDbEntity
  8
SUPERFICI
100
AcDbPolyline
 62
7
  6
CONTINUOUS
 90
4
 70
0
 10
-0.1831224147
 20
0.3685778423
 10
-0.2341481483
 20
0.4458538112
 10
-0.2868947821
 20
0.521567408
 10
-0.3413630236
 20
0.5957181794
  0
LINE
  5
297
100
AcDbEntity
  8
0
100
AcDbLine
 62
7
  6
CONTINUOUS
 10
0.4360434795
 20
-3.5801195691
 11
0.4154143315
 21
-3.5479759126
  0
LWPOLYLINE
  5
298
100
AcDbEntity
  8
SUPERFICI
100
AcDbPolyline
 62
7
  6
CONTINUOUS
 90
14
 70
0
 10
0.4154141047
 20
-3.5479755217
 10
0.4360432171
 20
-3.5801191904
 10
0.457505336
 20
-3.609377016
 10
0.4798000974
 20
-3.6357492104
 10
0.5031980668
 20
-3.6593486314
 10
0.5274281668
 20
-3.6800627191
 10
0.5516776834
 20
-3.697553492
 10
0.5759345796
 20
-3.7117962934
 10
0.6002108148
 20
-3.7228158252
 10
0.6237297724
 20
-3.7303480839
 10
0.6465068254
 20
-3.7343264221
 10
0.6685269011
 20
-3.7348173123
 10
0.6889677686
 20
-3.7317563994
 10
0.7038798473
 20
-3.7267439178
  0
LINE
  5
299
100
AcDbEntity
  8
SUPERFICI
100
AcDbLine
 62
7
  6
CONTINUOUS
 10
-0.133698502
 20
0.2895495822
 11
-0.1831224147
 21
0.3685778423
  0
LWPOLYLINE
  5
29A
100
AcDbEntity
  8
0
100
AcDbPolyline
 62
7
  6
CONTINUOUS
 90
3
 70
0
 10
-0.4025988645
 20
0.0614400601
 10
-0.4562594243
 20
0.1483241425
 10
-0.5133550521
 20
0.2336497799
  0
LINE
  5
29B
100
AcDbEntity
  8
SUPERFICI
100
AcDbLine
 62
7
  6
CONTINUOUS
 10
-0.2974803137
 20
-2.3180958653
 11
0.4154141047
 21
-3.5479755217
  0
LINE
  5
29C
100
AcDbEntity
  8
0
100
AcDbLine
 62
7
  6
CONTINUOUS
 10
0.4154143315
 20
-3.5479759126
 11
-0.2974803137
 21
-2.3180958653
  0
LINE
  5
29D
100
AcDbEntity
  8
0
100
AcDbLine
 62
7
  6
CONTINUOUS
 10
0.0020125547
 20
-2.1451406028
 11
0.714316507
 21
-3.3753903793
  0
LINE
  5
29E
100
AcDbEntity
  8
SUPERFICI
100
AcDbLine
 62
7
  6
CONTINUOUS
 10
0.7143159827
 20
-3.375389475
 11
0.0020125547
 21
-2.1451406028
  0
LWPOLYLINE
  5
29F
100
AcDbEntity
  8
SUPERFICI
100
AcDbPolyline
 62
7
  6
CONTINUOUS
 90
3
 70
0
 10
-0.0403625004
 20
0.1273799663
 10
-0.0859938772
 20
0.2089598733
 10
-0.133698502
 20
0.2895495822
  0
LINE
  5
2A0
100
AcDbEntity
  8
SUPERFICI
100
AcDbLine
 62
7
  6
CONTINUOUS
 10
0.731453335
 20
-3.4079838565
 11
0.7143159827
 21
-3.375389475
  0
LWPOLYLINE
  5
2A1
100
AcDbEntity
  8
0
100
AcDbPolyline
 62
7
  6
CONTINUOUS
 90
16
 70
0
 10
0.714316507
 20
-3.3753903793
 10
0.7314537157
 20
-3.4079846088
 10
0.7458590266
 20
-3.4400895794
 10
0.7575326058
 20
-3.4717051947
 10
0.7664782755
 20
-3.5031508851
 10
0.7726926052
 20
-3.5341069924
 10
0.7761647269
 20
-3.5636148763
 10
0.7768684499
 20
-3.5916193258
 10
0.7748300085
 20
-3.6181755263
 10
0.7701168594
 20
-3.6424906153
 10
0.7626338162
 20
-3.6645959891
 10
0.752475837
 20
-3.6844603838
 10
0.7399952737
 20
-3.7011971339
 10
0.7250610636
 20
-3.7146524843
 10
0.7078037349
 20
-3.7249805009
 10
0.7038798476
 20
-3.7267439182
  0
LWPOLYLINE
  5
2A2
100
AcDbEntity
  8
0
100
AcDbPolyline
 62
7
  6
CONTINUOUS
 90
3
 70
0
 10
-0.306139488
 20
-0.1160400158
 10
-0.352652893
 20
-0.0265214732
 10
-0.4025987836
 20
0.0614399291
  0
LINE
  5
2A3
100
AcDbEntity
  8
0
100
AcDbLine
 62
7
  6
CONTINUOUS
 10
-0.2484295462
 20
-0.2365980048
 11
-0.2630571636
 21
-0.2071148914
  0
LWPOLYLINE
  5
2A4
100
AcDbEntity
  8
SUPERFICI
100
AcDbPolyline
 62
7
  6
CONTINUOUS
 90
18
 70
0
 10
-0.2630564743
 20
-0.2071161319
 10
-0.2484295111
 20
-0.2365980756
 10
-0.232562847
 20
-0.2644554064
 10
-0.2154567588
 20
-0.2906882829
 10
-0.1968797368
 20
-0.3154923954
 10
-0.177063737
 20
-0.3386723097
 10
-0.1567041955
 20
-0.3596414758
 10
-0.1359052246
 20
-0.3782942439
 10
-0.1145629668
 20
-0.3947364101
 10
-0.0930608588
 20
-0.4086985674
 10
-0.0712459336
 20
-0.4202240482
 10
-0.049271166
 20
-0.4292695246
 10
-0.0279788469
 20
-0.4354355655
 10
-0.0074611966
 20
-0.4385954524
 10
0.0123742405
 20
-0.4388757687
 10
0.0309622225
 20
-0.4362570165
 10
0.0483099452
 20
-0.4306205648
 10
0.0540903727
 20
-0.4279589115
  0
LWPOLYLINE
  5
2A5
100
AcDbEntity
  8
SUPERFICI
100
AcDbPolyline
 62
7
  6
CONTINUOUS
 90
3
 70
0
 10
0.0444472566
 20
-0.0383686741
 10
0.0030782377
 20
0.0450003066
 10
-0.0403624586
 20
0.1273798915
  0
LINE
  5
2A6
100
AcDbEntity
  8
0
100
AcDbLine
 62
7
  6
CONTINUOUS
 10
-0.2630571636
 20
-0.2071148914
 11
-0.306139488
 21
-0.1160400158
  0
LINE
  5
2A7
100
AcDbEntity
  8
SUPERFICI
100
AcDbLine
 62
7
  6
CONTINUOUS
 10
0.0837454217
 20
-0.122726578
 11
0.0444472566
 21
-0.0383686741
  0
LINE
  5
2A8
100
AcDbEntity
  8
SUPERFICI
100
AcDbLine
 62
7
  6
CONTINUOUS
 10
0.096357639
 20
-0.1540730557
 11
0.0837454217
 21
-0.122726578
  0
LWPOLYLINE
  5
2A9
100
AcDbEntity
  8
0
100
AcDbPolyline
 62
7
  6
CONTINUOUS
 90
15
 70
0
 10
0.0837455344
 20
-0.1227267836
 10
0.0963577417
 20
-0.1540733213
 10
0.1064954959
 20
-0.1844003801
 10
0.1141588605
 20
-0.2137079237
 10
0.1192843233
 20
-0.2421995216
 10
0.1219355529
 20
-0.2696715145
 10
0.1223032671
 20
-0.2955130893
 10
0.1203863124
 20
-0.3196732397
 10
0.1161857373
 20
-0.3422030321
 10
0.1098953568
 20
-0.3626448803
 10
0.1014938786
 20
-0.3810049137
 10
0.0910023338
 20
-0.3972771525
 10
0.0786778529
 20
-0.4109859446
 10
0.0644104848
 20
-0.4220848996
 10
0.0540903728
 20
-0.4279589117
  0
LWPOLYLINE
  5
2AA
100
AcDbEntity
  8
0
100
AcDbPolyline
 62
7
  6
CONTINUOUS
 90
10
 70
0
 10
0.2823444211
 20
-1.5253046262
 10
0.2681637579
 20
-1.6113436045
 10
0.2496437292
 20
-1.693283866
 10
0.2267834091
 20
-1.7711259399
 10
0.1994487351
 20
-1.8451299418
 10
0.1677720912
 20
-1.9150367162
 10
0.1321516794
 20
-1.9800681996
 10
0.0927190628
 20
-2.039965712
 10
0.0493397932
 20
-2.0949895937
 10
0.0020125547
 20
-2.1451406028
  0
LINE
  5
2AB
100
AcDbEntity
  8
0
100
AcDbLine
 62
7
  6
CONTINUOUS
 10
-0.1074968443
 20
-0.9540208788
 11
-0.0973649642
 21
-0.9373038956
  0
LINE
  5
2AC
100
AcDbEntity
  8
0
100
AcDbLine
 62
7
  6
CONTINUOUS
 10
-0.0973649642
 20
-0.9373038956
 11
-0.0854883367
 21
-0.9231727184
  0
LWPOLYLINE
  5
2AD
100
AcDbEntity
  8
0
100
AcDbPolyline
 62
7
  6
CONTINUOUS
 90
7
 70
0
 10
-0.3300323532
 20
-1.6479096981
 10
-0.2885807913
 20
-1.6009065003
 10
-0.2512064896
 20
-1.5478897871
 10
-0.2185682269
 20
-1.4896999077
 10
-0.1907757272
 20
-1.426227507
 10
-0.1677168363
 20
-1.3575805432
 10
-0.1497187445
 20
-1.2849260444
  0
LWPOLYLINE
  5
2AE
100
AcDbEntity
  8
SUPERFICI
100
AcDbPolyline
 62
7
  6
CONTINUOUS
 90
10
 70
0
 10
0.0020125547
 20
-2.1451406028
 10
0.0493397934
 20
-2.0949895934
 10
0.0927190631
 20
-2.0399657115
 10
0.1321516798
 20
-1.980068199
 10
0.1677720915
 20
-1.9150367156
 10
0.1994487353
 20
-1.8451299413
 10
0.2267834093
 20
-1.7711259395
 10
0.2496437292
 20
-1.6932838658
 10
0.2681637579
 20
-1.6113436044
 10
0.2823444211
 20
-1.5253046262
  0
LINE
  5
2AF
100
AcDbEntity
  8
0
100
AcDbLine
 62
7
  6
CONTINUOUS
 10
-0.3755478772
 20
-1.6887456216
 11
-0.3300323641
 21
-1.6479097079
  0
LINE
  5
2B0
100
AcDbEntity
  8
0
100
AcDbLine
 62
7
  6
CONTINUOUS
 10
-0.0854883367
 20
-0.9231727184
 11
-0.074815697
 21
-0.9137949338
  0
LWPOLYLINE
  5
2B1
100
AcDbEntity
  8
SUPERFICI
100
AcDbPolyline
 62
7
  6
CONTINUOUS
 90
8
 70
0
 10
-0.0748156979
 20
-0.9137949325
 10
-0.0854882656
 20
-0.9231726339
 10
-0.0973648853
 20
-0.9373037654
 10
-0.1074967804
 20
-0.9540207267
 10
-0.1155055066
 20
-0.9730813874
 10
-0.121264831
 20
-0.9944049885
 10
-0.1249006589
 20
-1.0180721004
 10
-0.1264128075
 20
-1.0440826176
  0
LINE
  5
2B2
100
AcDbEntity
  8
0
100
AcDbLine
 62
7
  6
CONTINUOUS
 10
-0.3838365695
 20
-1.6951980735
 11
-0.3755478772
 21
-1.6887456216
  0
LWPOLYLINE
  5
2B3
100
AcDbEntity
  8
SUPERFICI
100
AcDbPolyline
 62
7
  6
CONTINUOUS
 90
13
 70
0
 10
0.0644106199
 20
-0.4220848109
 10
0.0786779757
 20
-0.4109858294
 10
0.0910024414
 20
-0.3972770125
 10
0.1014939686
 20
-0.3810047496
 10
0.109895428
 20
-0.3626446922
 10
0.116185789
 20
-0.3422028192
 10
0.1203863435
 20
-0.319673002
 10
0.1223032756
 20
-0.2955128279
 10
0.1219355348
 20
-0.2696712245
 10
0.119284277
 20
-0.2421992041
 10
0.1141587899
 20
-0.213707599
 10
0.1064954072
 20
-0.1844000748
 10
0.096357639
 20
-0.1540730557
  0
LWPOLYLINE
  5
2B4
100
AcDbEntity
  8
0
100
AcDbPolyline
 62
7
  6
CONTINUOUS
 90
10
 70
0
 10
-0.074815697
 20
-0.9137949338
 10
-0.0718730226
 20
-0.911635123
 10
-0.05651329
 20
-0.9026834858
 10
-0.0397707642
 20
-0.896537545
 10
-0.0216582295
 20
-0.8931821372
 10
-0.0021632784
 20
-0.8926326424
 10
0.0183903118
 20
-0.895154547
 10
0.0398945174
 20
-0.9008364028
 10
0.0624571061
 20
-0.9095898053
 10
0.0860780112
 20
-0.9214147927
  0
LINE
  5
2B5
100
AcDbEntity
  8
SUPERFICI
100
AcDbLine
 62
7
  6
CONTINUOUS
 10
-0.3838365695
 20
-1.6951980735
 11
-0.4251439323
 21
-1.7235699149
  0
LWPOLYLINE
  5
2B6
100
AcDbEntity
  8
RACCORDO
100
AcDbPolyline
 62
253
  6
CONTINUOUS
 90
19
 70
0
 10
15.6582547224
 20
8.9743285105
 10
15.6028664684
 20
8.9390785707
 10
15.5479327673
 20
8.8992008736
 10
15.4937790219
 20
8.8549375021
 10
15.4407215477
 20
8.8065585633
 10
15.3890790469
 20
8.7543551608
 10
15.3391705711
 20
8.6986379934
 10
15.2912930503
 20
8.6397454537
 10
15.2457279777
 20
8.5780323022
 10
15.2027533922
 20
8.513861945
 10
15.1626243474
 20
8.4476208485
 10
15.1255778233
 20
8.3797086099
 10
15.0918403519
 20
8.3105261118
 10
15.0616122446
 20
8.2404873525
 10
15.0350730695
 20
8.1700162176
 10
15.0123872796
 20
8.0995357943
 10
14.9936915326
 20
8.0294697045
 10
14.9790943329
 20
7.9602395387
 10
14.9686822153
 20
7.8922613924
  0
LWPOLYLINE
  5
2B7
100
AcDbEntity
  8
RACCORDO
100
AcDbPolyline
 62
253
  6
CONTINUOUS
 90
19
 70
0
 10
16.0116869591
 20
8.3621659201
 10
15.9835446065
 20
8.34467127
 10
15.9559007776
 20
8.3250814463
 10
15.9287554722
 20
8.303396449
 10
15.9019347559
 20
8.2794521851
 10
15.8756125632
 20
8.2534127476
 10
15.8503106976
 20
8.2257704156
 10
15.8260640377
 20
8.1965065992
 10
15.8028377049
 20
8.1656398883
 10
15.7810488675
 20
8.1337183324
 10
15.7607213928
 20
8.1007169841
 10
15.7418314135
 20
8.0666607909
 10
15.7247244956
 20
8.032172645
 10
15.7094333702
 20
7.9972273399
 10
15.6959253063
 20
7.9618500822
 10
15.6844476773
 20
7.9267393842
 10
15.6750829412
 20
7.8921280832
 10
15.6677486401
 20
7.8577833419
 10
15.662444774
 20
7.8237051602
  0
LWPOLYLINE
  5
2B8
100
AcDbEntity
  8
SUPERFICI
100
AcDbPolyline
 62
7
  6
CONTINUOUS
 90
3
 70
0
 10
-0.0565130081
 20
-0.9026833507
 10
-0.0718727964
 20
-0.9116349607
 10
-0.0748156979
 20
-0.9137949325
  0
LINE
  5
2B9
100
AcDbEntity
  8
0
100
AcDbLine
 62
253
  6
CONTINUOUS
 10
16.7034019221
 20
8.7615515008
 11
16.0116869591
 21
8.3621659201
  0
LINE
  5
2BA
100
AcDbEntity
  8
SUPERFICI
100
AcDbLine
 62
7
  6
CONTINUOUS
 10
0.0540903727
 20
-0.4279589115
 11
0.0644105411
 21
-0.4220848558
  0
LWPOLYLINE
  5
2BB
100
AcDbEntity
  8
SUPERFICI
100
AcDbPolyline
 62
7
  6
CONTINUOUS
 90
34
 70
0
 10
-0.4251439464
 20
-1.7235699246
 10
-0.4782072432
 20
-1.7520067397
 10
-0.5348818963
 20
-1.7740070939
 10
-0.59502697
 20
-1.7896218106
 10
-0.6576020261
 20
-1.7986250101
 10
-0.72249069
 20
-1.8009294799
 10
-0.7898121823
 20
-1.7966240788
 10
-0.8588795429
 20
-1.7857470841
 10
-0.9299107347
 20
-1.7681668418
 10
-1.0026896565
 20
-1.7440160839
 10
-1.0758780738
 20
-1.7137295631
 10
-1.1492946783
 20
-1.6773005008
 10
-1.2231214579
 20
-1.6347360692
 10
-1.2965648268
 20
-1.5864917776
 10
-1.3698044041
 20
-1.5323525365
 10
-1.4426598999
 20
-1.472533047
 10
-1.5137975687
 20
-1.408133332
 10
-1.5830134381
 20
-1.3392536944
 10
-1.6505096209
 20
-1.2657927548
 10
-1.7155613228
 20
-1.1885479116
 10
-1.778257483
 20
-1.1073329872
 10
-1.8385063325
 20
-1.0223325224
 10
-1.8953120898
 20
-0.9349000359
 10
-1.948559998
 20
-0.8451074111
 10
-1.9983616168
 20
-0.752880918
 10
-2.0440610084
 20
-0.6593558692
 10
-2.0856573943
 20
-0.5643862441
 10
-2.1231482939
 20
-0.4681161843
 10
-2.1558759595
 20
-0.372116676
 10
-2.1837358422
 20
-0.2763798121
 10
-2.2068300094
 20
-0.1809120733
 10
-2.2248118707
 20
-0.08730674
 10
-2.2375658402
 20
0.0039051241
 10
-2.2452065295
 20
0.0932551375
  0
LINE
  5
2BC
100
AcDbEntity
  8
0
100
AcDbLine
 62
7
  6
CONTINUOUS
 10
-2.7847036004
 20
-1.700307252
 11
-2.7962900152
 21
-1.70567922
  0
LINE
  5
2BD
100
AcDbEntity
  8
SUPERFICI
100
AcDbLine
 62
7
  6
CONTINUOUS
 10
-2.7962899512
 20
-1.7056793412
 11
-2.7847097965
 21
-1.7003108287
  0
LINE
  5
2BE
100
AcDbEntity
  8
0
100
AcDbLine
 62
7
  6
CONTINUOUS
 10
0.0540903728
 20
-0.4279589117
 11
0.0483099043
 21
-0.4306205781
  0
LINE
  5
2BF
100
AcDbEntity
  8
SUPERFICI
100
AcDbLine
 62
7
  6
CONTINUOUS
 10
-2.7961417475
 20
-1.7059649378
 11
-2.7843889012
 21
-1.701061549
  0
LWPOLYLINE
  5
2C0
100
AcDbEntity
  8
0
100
AcDbPolyline
 62
7
  6
CONTINUOUS
 90
3
 70
0
 10
-2.7962900152
 20
-1.70567922
 10
-2.8043693265
 20
-1.7085863324
 10
-2.8249889174
 20
-1.7131653074
  0
LWPOLYLINE
  5
2C1
100
AcDbEntity
  8
0
100
AcDbPolyline
 62
7
  6
CONTINUOUS
 90
16
 70
0
 10
0.0483098001
 20
-0.430620626
 10
0.0309620693
 20
-0.4362570513
 10
0.0123740811
 20
-0.4388757785
 10
-0.0074613602
 20
-0.4385954381
 10
-0.0279790127
 20
-0.4354355288
 10
-0.0492713316
 20
-0.4292694669
 10
-0.0712460969
 20
-0.4202239711
 10
-0.0930610183
 20
-0.408698473
 10
-0.114563121
 20
-0.3947363006
 10
-0.135905372
 20
-0.3782941213
 10
-0.1567043351
 20
-0.359641342
 10
-0.1770638445
 20
-0.3386722066
 10
-0.1968798112
 20
-0.3154923251
 10
-0.2154568679
 20
-0.2906881273
 10
-0.2325630817
 20
-0.2644550073
 10
-0.2484295462
 20
-0.2365980048
  0
LWPOLYLINE
  5
2C2
100
AcDbEntity
  8
0
100
AcDbPolyline
 62
7
  6
CONTINUOUS
 90
35
 70
0
 10
-2.1524495311
 20
0.8307114193
 10
-2.1655581697
 20
0.827582869
 10
-2.1793294612
 20
0.8260255477
 10
-2.1937398553
 20
0.8260139751
 10
-2.208813036
 20
0.8275735548
 10
-2.2244872648
 20
0.8308562996
 10
-2.2408253576
 20
0.8358645521
 10
-2.2577645864
 20
0.8425959193
 10
-2.2750548936
 20
0.8511953126
 10
-2.2928205961
 20
0.8617965806
 10
-2.310937388
 20
0.8742658684
 10
-2.3287822548
 20
0.8883465457
 10
-2.3463358447
 20
0.9041502877
 10
-2.3636174013
 20
0.9215654813
 10
-2.3800617854
 20
0.9400005746
 10
-2.3955215521
 20
0.9593225216
 10
-2.4101439642
 20
0.9796644727
 10
-2.423805944
 20
1.0008341712
 10
-2.4365776933
 20
1.0229570017
 10
-2.4483887601
 20
1.0459077231
 10
-2.4589051147
 20
1.0691181224
 10
-2.468084499
 20
1.0926804814
 10
-2.475968937
 20
1.1165026526
 10
-2.4823509375
 20
1.1397397128
 10
-2.4871222398
 20
1.1622614677
 10
-2.4903910402
 20
1.1841981485
 10
-2.4922746871
 20
1.2050953829
 10
-2.4927529043
 20
1.2248297412
 10
-2.4918460369
 20
1.2435246135
 10
-2.4897324527
 20
1.2610958067
 10
-2.4864348981
 20
1.2775426211
 10
-2.4819307282
 20
1.2928656982
 10
-2.4763302616
 20
1.3069828348
 10
-2.4696703194
 20
1.3198666019
 10
-2.4619142075
 20
1.3315443558
  0
LWPOLYLINE
  5
2C3
100
AcDbEntity
  8
0
100
AcDbPolyline
 62
7
  6
CONTINUOUS
 90
4
 70
0
 10
-1.7941907821
 20
1.0222981966
 10
-1.8541387874
 20
1.0092673769
 10
-1.9117417298
 20
0.9902671717
 10
-1.9556445647
 20
0.9709072306
  0
LWPOLYLINE
  5
2C4
100
AcDbEntity
  8
SUPERFICI
100
AcDbPolyline
 62
7
  6
CONTINUOUS
 90
7
 70
0
 10
-2.0242771556
 20
1.5674116978
 10
-2.0794121334
 20
1.5562752848
 10
-2.1327590581
 20
1.5416100929
 10
-2.1843172128
 20
1.5234165323
 10
-2.2341968671
 20
1.5016271639
 10
-2.2822861707
 20
1.4763103323
 10
-2.3245964793
 20
1.4501212108
  0
LINE
  5
2C5
100
AcDbEntity
  8
0
100
AcDbLine
 62
7
  6
CONTINUOUS
 10
-1.7322145217
 20
1.0292534681
 11
-1.7941907821
 21
1.0222981966
  0
LINE
  5
2C6
100
AcDbEntity
  8
0
100
AcDbLine
 62
7
  6
CONTINUOUS
 10
-1.6678937829
 20
1.0302381264
 11
-1.7322145217
 21
1.0292534681
  0
LWPOLYLINE
  5
2C7
100
AcDbEntity
  8
SUPERFICI
100
AcDbPolyline
 62
7
  6
CONTINUOUS
 90
6
 70
0
 10
-3.7380985096
 20
1.2701065244
 10
-3.7607705615
 20
1.2713394152
 10
-3.7819539929
 20
1.268653716
 10
-3.8012129133
 20
1.2625043537
 10
-3.8185621366
 20
1.2528716308
 10
-3.8224736211
 20
1.2500127718
  0
LINE
  5
2C8
100
AcDbEntity
  8
0
100
AcDbLine
 62
7
  6
CONTINUOUS
 10
-1.6012296252
 20
1.0252515164
 11
-1.6678937829
 21
1.0302381264
  0
LINE
  5
2C9
100
AcDbEntity
  8
SUPERFICI
100
AcDbLine
 62
7
  6
CONTINUOUS
 10
-3.7140830416
 20
1.2648032954
 11
-3.7380985096
 21
1.2701065244
  0
LINE
  5
2CA
100
AcDbEntity
  8
SUPERFICI
100
AcDbLine
 62
7
  6
CONTINUOUS
 10
-0.7658070052
 20
0.7994452681
 11
-1.6001930085
 21
1.2812092891
  0
LINE
  5
2CB
100
AcDbEntity
  8
0
100
AcDbLine
 62
7
  6
CONTINUOUS
 10
-0.7658070052
 20
0.7994452681
 11
-1.6001930085
 21
1.2812092891
  0
LINE
  5
2CC
100
AcDbEntity
  8
SUPERFICI
100
AcDbLine
 62
7
  6
CONTINUOUS
 10
-0.3391670244
 20
1.0457345062
 11
-2.0220811564
 21
2.0174280342
  0
LINE
  5
2CD
100
AcDbEntity
  8
0
100
AcDbLine
 62
7
  6
CONTINUOUS
 10
-0.3391670244
 20
1.0457345062
 11
-2.0220811564
 21
2.0174280342
  0
LWPOLYLINE
  5
2CE
100
AcDbEntity
  8
SUPERFICI
100
AcDbPolyline
 62
7
  6
CONTINUOUS
 90
12
 70
0
 10
0.7399953391
 20
-3.7011970618
 10
0.7524759011
 20
-3.6844602905
 10
0.7626338688
 20
-3.6645958745
 10
0.770116897
 20
-3.6424904706
 10
0.7748300319
 20
-3.6181753391
 10
0.7768684557
 20
-3.5916190871
 10
0.7761647056
 20
-3.5636145796
 10
0.7726925503
 20
-3.5341066361
 10
0.7664781775
 20
-3.5031504625
 10
0.7575324407
 20
-3.4717046855
 10
0.7458587657
 20
-3.4400889588
 10
0.731453335
 20
-3.4079838565
  0
LWPOLYLINE
  5
2CF
100
AcDbEntity
  8
SUPERFICI
100
AcDbPolyline
 62
7
  6
CONTINUOUS
 90
20
 70
0
 10
1.4444718317
 20
-2.1161815366
 10
1.4598815717
 20
-2.1030945317
 10
1.472886728
 20
-2.0870578995
 10
1.4834372521
 20
-2.0679859929
 10
1.4915836084
 20
-2.0459642395
 10
1.4969963397
 20
-2.0217632607
 10
1.4995679251
 20
-1.995233909
 10
1.4994061062
 20
-1.9665252051
 10
1.496503941
 20
-1.9368552404
 10
1.4907202648
 20
-1.9061933219
 10
1.4821960177
 20
-1.8745702722
 10
1.4713470179
 20
-1.8432966849
 10
1.4581565599
 20
-1.8125023776
 10
1.4426408174
 20
-1.782057839
 10
1.4252646868
 20
-1.7528848086
 10
1.4059860615
 20
-1.724954048
 10
1.3848465136
 20
-1.6982951032
 10
1.3624363612
 20
-1.6739179461
 10
1.3389522261
 20
-1.6521593209
 10
1.3141971018
 20
-1.6326827047
  0
LWPOLYLINE
  5
2D0
100
AcDbEntity
  8
SUPERFICI
100
AcDbPolyline
 62
7
  6
CONTINUOUS
 90
7
 70
0
 10
-1.0357242333
 20
-3.5481732453
 10
-1.0192832266
 20
-3.5376866714
 10
-1.0048769996
 20
-3.5238438072
 10
-0.9925095498
 20
-3.5066902917
 10
-0.9827552548
 20
-3.4865742841
 10
-0.9758054574
 20
-3.4636117696
 10
-0.9714683476
 20
-3.4376864904
  0
LINE
  5
2D1
100
AcDbEntity
  8
SUPERFICI
100
AcDbLine
 62
7
  6
CONTINUOUS
 10
1.426038337
 20
-2.1262657682
 11
1.4444718317
 21
-2.1161815366
  0
LINE
  5
2D2
100
AcDbEntity
  8
SUPERFICI
100
AcDbLine
 62
7
  6
CONTINUOUS
 10
-1.0424347584
 20
-3.5512590981
 11
-1.0357242333
 21
-3.5481732453
  0
LWPOLYLINE
  5
2D3
100
AcDbEntity
  8
SUPERFICI
100
AcDbPolyline
 62
7
  6
CONTINUOUS
 90
4
 70
0
 10
0.7038798473
 20
-3.7267439178
 10
0.7078037666
 20
-3.7249804846
 10
0.7250611173
 20
-3.7146524401
 10
0.7399953037
 20
-3.7011970937
  0
LINE
  5
2D4
100
AcDbEntity
  8
0
100
AcDbLine
 62
7
  6
CONTINUOUS
 10
-1.0424347588
 20
-3.5512590975
 11
-1.0542047088
 21
-3.5553495283
  0
LINE
  5
2D5
100
AcDbEntity
  8
0
100
AcDbLine
 62
7
  6
CONTINUOUS
 10
0.7038798476
 20
-3.7267439182
 11
0.6889677674
 21
-3.7317563997
  0
LINE
  5
2D6
100
AcDbEntity
  8
0
100
AcDbLine
 62
7
  6
CONTINUOUS
 10
1.4260383368
 20
-2.1262657678
 11
1.407892602
 21
-2.1319460328
  0
LINE
  5
2D7
100
AcDbEntity
  8
RACCORDO
100
AcDbLine
 62
253
  6
CONTINUOUS
 10
14.2476081037
 20
-2.0852237568
 11
-16.4948027213
 21
15.6650589606
  0
LWPOLYLINE
  5
2D8
100
AcDbEntity
  8
RACCORDO
100
AcDbPolyline
 62
253
  6
CONTINUOUS
 90
16
 70
0
 10
14.94527496
 20
-2.0982908133
 10
14.9061768638
 20
-2.1168076159
 10
14.8638466273
 20
-2.1329096529
 10
14.8187327153
 20
-2.1464263323
 10
14.7713130839
 20
-2.1572144526
 10
14.7220901172
 20
-2.1651597199
 10
14.6715853044
 20
-2.1701779585
 10
14.6203337153
 20
-2.1722160031
 10
14.5688783313
 20
-2.1712522617
 10
14.5177642929
 20
-2.1672969447
 10
14.4675331241
 20
-2.1603919563
 10
14.4187169957
 20
-2.150610451
 10
14.3718330867
 20
-2.1380560582
 10
14.3273781055
 20
-2.1228617847
 10
14.2858230272
 20
-2.105188605
 10
14.2476081042
 20
-2.0852237565
  0
LWPOLYLINE
  5
2D9
100
AcDbEntity
  8
RACCORDO
100
AcDbPolyline
 62
253
  6
CONTINUOUS
 90
19
 70
0
 10
15.662444774
 20
-26.7318053865
 10
15.6677486352
 20
-26.7600635647
 10
15.6750794675
 20
-26.7863625173
 10
15.6844372709
 20
-26.8107022443
 10
15.6959040923
 20
-26.8332234926
 10
15.7093978848
 20
-26.8537855154
 10
15.724672507
 20
-26.8719660717
 10
15.7417569364
 20
-26.8877057687
 10
15.7606221954
 20
-26.9010639992
 10
15.7809352095
 20
-26.9117967014
 10
15.8027265705
 20
-26.9198557769
 10
15.8259656866
 20
-26.925289324
 10
15.8502277074
 20
-26.9279975759
 10
15.8755467263
 20
-26.9279200151
 10
15.9018886499
 20
-26.9251171591
 10
15.9287263481
 20
-26.9196707928
 10
15.9558841106
 20
-26.9116081779
 10
15.9835376476
 20
-26.9009020528
 10
16.0116869591
 20
-26.8875524175
  0
LWPOLYLINE
  5
2DA
100
AcDbEntity
  8
RACCORDO
100
AcDbPolyline
 62
253
  6
CONTINUOUS
 90
10
 70
0
 10
14.9686822153
 20
-26.7852318561
 10
14.9790944039
 20
-26.8415028522
 10
14.9936916143
 20
-26.8943112286
 10
15.0123872374
 20
-26.9433408851
 10
15.0350726392
 20
-26.9883001441
 10
15.0616111322
 20
-27.0289187717
 10
15.0918384575
 20
-27.0649499828
 10
15.1255751263
 20
-27.0961792514
 10
15.1626208662
 20
-27.122421772
 10
15.1702631472
 20
-27.1269739114
  0
LWPOLYLINE
  5
2DB
100
AcDbEntity
  8
RACCORDO
100
AcDbPolyline
 62
253
  6
CONTINUOUS
 90
10
 70
0
 10
14.2476081037
 20
-17.5981590159
 10
14.2725726938
 20
-18.653369319
 10
14.3113548985
 20
-19.7004842604
 10
14.3639467276
 20
-20.7392822361
 10
14.4303377675
 20
-21.7695436363
 10
14.5105139027
 20
-22.7910503213
 10
14.6044573267
 20
-23.8035856627
 10
14.7121482488
 20
-24.8069353515
 10
14.8335648905
 20
-25.8008874486
 10
14.9686822153
 20
-26.7852318561
  0
LWPOLYLINE
  5
2DC
100
AcDbEntity
  8
RACCORDO
100
AcDbPolyline
 62
253
  6
CONTINUOUS
 90
10
 70
0
 10
14.94527496
 20
-17.5957131371
 10
14.970121089
 20
-18.6454068871
 10
15.008689976
 20
-19.6866226197
 10
15.0609816209
 20
-20.7193603349
 10
15.1270132323
 20
-21.743840139
 10
15.2067676016
 20
-22.7598419257
 10
15.300193103
 20
-23.7667053757
 10
15.4072725279
 20
-24.7642103827
 10
15.5280230849
 20
-25.7525770529
 10
15.662444774
 20
-26.7318053865
  0
LWPOLYLINE
  5
2DD
100
AcDbEntity
  8
RACCORDO
100
AcDbPolyline
 62
253
  6
CONTINUOUS
 90
10
 70
0
 10
14.2476081037
 20
-2.0852237568
 10
14.2217343937
 20
-3.8229870669
 10
14.2023293247
 20
-5.5572784743
 10
14.1893928502
 20
-7.2880672674
 10
14.1829248537
 20
-9.0152993956
 10
14.1829248503
 20
-10.7389677876
 10
14.189392841
 20
-12.4591118578
 10
14.202329313
 20
-14.1757239733
 10
14.2217343843
 20
-15.8887499482
 10
14.2476081037
 20
-17.5981590159
  0
LWPOLYLINE
  5
2DE
100
AcDbEntity
  8
RACCORDO
100
AcDbPolyline
 62
253
  6
CONTINUOUS
 90
10
 70
0
 10
14.94527496
 20
-2.0982908133
 10
14.9194267373
 20
-3.8343651857
 10
14.9000405687
 20
-5.5669107652
 10
14.887116454
 20
-7.2959275519
 10
14.880654391
 20
-9.0214233416
 10
14.8806543821
 20
-10.7433903383
 10
14.8871164338
 20
-12.461805155
 10
14.9000405485
 20
-14.1766599958
 10
14.9194267239
 20
-15.8879626565
 10
14.94527496
 20
-17.5957131371
  0
LWPOLYLINE
  5
2DF
100
AcDbEntity
  8
RACCORDO
100
AcDbPolyline
 62
253
  6
CONTINUOUS
 90
10
 70
0
 10
14.9686822153
 20
7.8922613924
 10
14.8335648895
 20
6.7598089972
 10
14.7121482473
 20
5.6327643906
 10
14.6044573251
 20
4.5113665821
 10
14.5105139015
 20
3.3958536537
 10
14.4303377671
 20
2.2864617745
 10
14.3639467278
 20
1.1834251544
 10
14.3113548988
 20
0.0869772395
 10
14.2725726941
 20
-1.002649341
 10
14.2476081037
 20
-2.0852237568
  0
LWPOLYLINE
  5
2E0
100
AcDbEntity
  8
RACCORDO
100
AcDbPolyline
 62
253
  6
CONTINUOUS
 90
10
 70
0
 10
15.662444774
 20
7.8237051602
 10
15.5280241854
 20
6.6971833815
 10
15.4072743802
 20
5.5765017918
 10
15.3001953583
 20
4.4616603909
 10
15.2067698131
 20
3.3524201701
 10
15.1270150512
 20
2.2490201381
 10
15.060982993
 20
1.1521773212
 10
15.0086909451
 20
0.062130728
 10
14.9701216007
 20
-1.0213586501
 10
14.94527496
 20
-2.0982908133
  0
LINE
  5
2E1
100
AcDbEntity
  8
RACCORDO
100
AcDbLine
 62
253
  6
CONTINUOUS
 10
14.9686822153
 20
7.8922613924
 11
-15.8103296819
 21
25.6636771103
  0
LWPOLYLINE
  5
2E2
100
AcDbEntity
  8
RACCORDO
100
AcDbPolyline
 62
253
  6
CONTINUOUS
 90
16
 70
0
 10
16.0116869591
 20
8.3621659201
 10
16.0088116627
 20
8.4054066677
 10
16.0022004063
 20
8.4504665169
 10
15.9919255129
 20
8.4968522531
 10
15.9780994095
 20
8.5440561424
 10
15.9608734002
 20
8.5915614767
 10
15.9404360143
 20
8.638848229
 10
15.9170109323
 20
8.6853987735
 10
15.8908545496
 20
8.7307035219
 10
15.8622531819
 20
8.7742664924
 10
15.8315198969
 20
8.8156107966
 10
15.7989911115
 20
8.8542838169
 10
15.7650229326
 20
8.8898621438
 10
15.7299872115
 20
8.9219562714
 10
15.694267468
 20
8.9502148523
 10
15.6582547248
 20
8.9743285119
  0
LINE
  5
2E3
100
AcDbEntity
  8
0
100
AcDbLine
 62
7
  6
CONTINUOUS
 10
16.7034019221
 20
8.7615515008
 11
16.7034019221
 21
-26.5289287307
  0
LINE
  5
2E4
100
AcDbEntity
  8
RACCORDO
100
AcDbLine
 62
253
  6
CONTINUOUS
 10
15.6582547224
 20
8.9743285105
 11
-15.138580901
 21
26.7560354244
  0
LINE
  5
2E5
100
AcDbEntity
  8
0
100
AcDbLine
 62
7
  6
CONTINUOUS
 10
16.3499696854
 20
9.3737140911
 11
-14.4821679109
 21
27.1758039218
  0
LWPOLYLINE
  5
2E6
100
AcDbEntity
  8
RACCORDO
100
AcDbPolyline
 62
253
  6
CONTINUOUS
 90
9
 70
0
 10
16.0116869591
 20
-26.8875524175
 10
16.0088115362
 20
-26.9295886124
 10
16.0021999975
 20
-26.9688722997
 10
15.9919247173
 20
-27.0049734541
 10
15.9780981755
 20
-27.0374968886
 10
15.9608717266
 20
-27.0660865801
 10
15.9404339427
 20
-27.0904295669
 10
15.9170085494
 20
-27.1102593747
 10
15.8976463394
 20
-27.12203001
  0
LWPOLYLINE
  5
2E7
100
AcDbEntity
  8
RACCORDO
100
AcDbPolyline
 62
253
  6
CONTINUOUS
 90
16
 70
0
 10
14.94527496
 20
-17.5957131371
 10
14.9061768632
 20
-17.6158251024
 10
14.8638466267
 20
-17.6335054024
 10
14.8187327152
 20
-17.6485667242
 10
14.7713130849
 20
-17.6608495018
 10
14.7220901197
 20
-17.6702236061
 10
14.6715853088
 20
-17.6765897239
 10
14.6203337218
 20
-17.6798804098
 10
14.5688783402
 20
-17.6800608008
 10
14.5177643043
 20
-17.6771289858
 10
14.4675331382
 20
-17.6711160257
 10
14.4187170125
 20
-17.6620856243
 10
14.371833106
 20
-17.6501334537
 10
14.3273781272
 20
-17.6353861403
 10
14.285823051
 20
-17.6179999234
 10
14.24760813
 20
-17.5981590001
  0
LWPOLYLINE
  5
2E8
100
AcDbEntity
  8
RACCORDO
100
AcDbPolyline
 62
253
  6
CONTINUOUS
 90
16
 70
0
 10
15.6624447738
 20
-26.7318053864
 10
15.623751621
 20
-26.7571685465
 10
15.581821042
 20
-26.7800434871
 10
15.5370974184
 20
-26.8001877788
 10
15.4900547327
 20
-26.8173879317
 10
15.4411915448
 20
-26.8314616581
 10
15.3910257084
 20
-26.8422598042
 10
15.3400888828
 20
-26.8496679308
 10
15.2889208982
 20
-26.8536075263
 10
15.2380640345
 20
-26.8540368389
 10
15.1880572744
 20
-26.8509513185
 10
15.1394305913
 20
-26.8443836657
 10
15.0926993324
 20
-26.8344034847
 10
15.0483587572
 20
-26.8211165459
 10
15.0068787886
 20
-26.8046636646
 10
14.9686990327
 20
-26.7852192091
  0
LINE
  5
2E9
100
AcDbEntity
  8
0
100
AcDbLine
 62
253
  6
CONTINUOUS
 10
16.0116869591
 20
-26.8875524175
 11
16.7034019221
 21
-26.5289287307
  0
LINE
  5
2EA
100
AcDbEntity
  8
RACCORDO
100
AcDbLine
 62
7
  6
CONTINUOUS
 10
15.8976463394
 20
-27.12203001
 11
16.5931254976
 21
-26.7614547541
  0
ELLIPSE
  5
2EB
100
AcDbEntity
  8
0
100
AcDbEllipse
 62
7
  6
CONTINUOUS
 10
-14.4819255615
 20
26.7672889139
 30
0.0
 11
-0.2501834304
 21
0.4333025529
 31
0.0
 40
0.5769361983
 41
-0.7851038024
 42
0.0263715828
  0
ELLIPSE
  5
2EC
100
AcDbEntity
  8
0
100
AcDbEllipse
 62
7
  6
CONTINUOUS
 10
16.349727336
 20
-26.3244416253
 30
0.0
 11
-0.2501834304
 21
0.4333025529
 31
0.0
 40
0.5769361983
 41
-3.1679635486
 42
-2.3565853618
  0
ELLIPSE
  5
2ED
100
AcDbEntity
  8
0
100
AcDbEllipse
 62
7
  6
CONTINUOUS
 10
16.349727336
 20
8.9654789423
 30
0.0
 11
-0.2500121049
 21
0.4330057129
 31
0.0
 40
0.5777274115
 41
-2.3559002616
 42
-0.7857891675
  0
ENDSEC
  0
SECTION
  2
OBJECTS
  0
DICTIONARY
  5
C
100
AcDbDictionary
280
0
281
1
  3
ACAD_GROUP
350
D
  3
ACAD_MLINESTYLE
350
17
  3
ACAD_LAYOUT
350
1A
  3
ACAD_PLOTSETTINGS
350
19
  3
ACAD_PLOTSTYLENAME
350
E
  0
DICTIONARY
  5
D
102
{ACAD_REACTORS
330
C
102
}
100
AcDbDictionary
280
0
281
1
  0
ACDBDICTIONARYWDFLT
  5
E
102
{ACAD_REACTORS
330
C
102
}
100
AcDbDictionary
281
1
  3
Normal
350
F
100
AcDbDictionaryWithDefault
340
F
  0
DICTIONARY
  5
17
102
{ACAD_REACTORS
330
C
102
}
100
AcDbDictionary
280
0
281
1
  3
Standard
350
18
  0
DICTIONARY
  5
19
102
{ACAD_REACTORS
330
C
102
}
100
AcDbDictionary
281
1
  0
DICTIONARY
  5
1A
102
{ACAD_REACTORS
330
C
102
}
100
AcDbDictionary
281
1
  3
Model
350
2EE
  3
Layout1
350
2EF
  0
ACDBPLACEHOLDER
  5
F
102
{ACAD_REACTORS
330
E
102
}
  0
MLINESTYLE
  5
18
102
{ACAD_REACTORS
330
17
102
}
100
AcDbMlineStyle
  2
STANDARD
 70
0
  3

 62
256
 51
90.0
 52
90.0
 71
2
 49
0.5
 62
256
  6
BYLAYER
 49
-0.5
 62
256
  6
BYLAYER
  0
LAYOUT
  5
2EE
102
{ACAD_REACTORS
330
1A
102
}
100
AcDbPlotSettings
  1

  2
none_device
  4
ISO_A4_(297.00_x_210.00_MM)
  6

 40
0.0
 41
0.0
 42
0.0
 43
0.0
 44
297.0
 45
210.0
 46
0.0
 47
0.0
 48
0.0
 49
0.0
140
0.0
141
0.0
142
1.0
143
1.0
 70
1024
 72
1
 73
0
 74
0
  7

 75
0
147
1.0
148
0.0
149
0.0
100
AcDbLayout
  1
Model
 70
0
 71
0
 10
0.0
 20
0.0
 11
297.0
 21
210.0
 12
0.0
 22
0.0
 32
0.0
 14
0.0
 24
0.0
 34
0.0
 15
0.0
 25
0.0
 35
0.0
146
0.0
 13
0.0
 23
0.0
 33
0.0
 16
1.0
 26
0.0
 36
0.0
 17
0.0
 27
1.0
 37
0.0
 76
0
330
218
345
0
346
0
  0
LAYOUT
  5
2EF
102
{ACAD_REACTORS
330
1A
102
}
100
AcDbPlotSettings
  1

  2
none_device
  4
ISO_A4_(297.00_x_210.00_MM)
  6

 40
0.0
 41
0.0
 42
0.0
 43
0.0
 44
297.0
 45
210.0
 46
0.0
 47
0.0
 48
0.0
 49
0.0
140
0.0
141
0.0
142
1.0
143
1.0
 70
0
 72
1
 73
0
 74
0
  7

 75
0
147
1.0
148
0.0
149
0.0
100
AcDbLayout
  1
Layout1
 70
0
 71
1
 10
0.0
 20
0.0
 11
297.0
 21
210.0
 12
0.0
 22
0.0
 32
0.0
 14
0.0
 24
0.0
 34
0.0
 15
0.0
 25
0.0
 35
0.0
146
0.0
 13
0.0
 23
0.0
 33
0.0
 16
1.0
 26
0.0
 36
0.0
 17
0.0
 27
1.0
 37
0.0
 76
0
330
219
345
0
346
0
  0
ENDSEC
  0
EOF
