  0
SECTION
  2
HEADER
  9
$ACADVER
  1
AC1015
  9
$DWGCODEPAGE
  3
ANSI_1252
  9
$EXTMAX
 10
297.0
 20
210.0
 30
0.0
  9
$EXTMIN
 10
0.0
 20
0.0
 30
0.0
  9
$LIMMIN
 10
0.0
 20
0.0
  9
$LIMMAX
 10
297.0
 20
210.0
  9
$VIEWCTR
 10
148.5
 20
105.0
  9
$VIEWSIZE
 40
210.0
  9
$CLAYER
  8
0
  9
$LTSCALE
 40
16.335
  9
$CELTYPE
  6
BYLAYER
  9
$DIMSCALE
 40
1.0
  9
$DIMASZ
 40
3.0
  9
$DIMEXO
 40
1.85625
  9
$DIMDLI
 40
11.286
  9
$DIMEXE
 40
5.346
  9
$DIMCEN
 40
2.673
  9
$DIMLFAC
 40
1.0
  9
$DIMBLK
  1
_FILLED
  9
$DIMTXT
 40
3.0
  9
$DIMTOL
 70
1
  9
$DIMLIM
 70
0
  9
$DIMTFAC
 40
1.0
  9
$DIMTP
 40
0.01
  9
$DIMTM
 40
0.01
  9
$PDMODE
 70
3
  9
$PDSIZE
 40
3.0
  9
$HANDSEED
  5
683
  9
$TILEMODE
 70
1
  9
$MEASUREMENT
 70
1
  9
$INSUNITS
 70
4
  0
ENDSEC
  0
SECTION
  2
CLASSES
  0
CLASS
  1
ACDBDICTIONARYWDFLT
  2
AcDbDictionaryWithDefault
  3
AutoCAD 2000
 90
0
280
0
281
0
  0
CLASS
  1
ACDBPLACEHOLDER
  2
AcDbPlaceHolder
  3
AutoCAD 2000
 90
0
280
0
281
0
  0
CLASS
  1
LAYOUT
  2
AcDbLayout
  3
AutoCAD 2000
 90
0
280
0
281
0
  0
ENDSEC
  0
SECTION
  2
TABLES
  0
TABLE
  2
VPORT
  5
8
100
AcDbSymbolTable
 70
2
  0
VPORT
  5
1F4
100
AcDbSymbolTableRecord
100
AcDbViewportTableRecord
  2
*ACTIVE
 70
0
 10
0.0
 20
0.0
 11
1.0
 21
1.0
 12
148.5
 22
105.0
 13
0.0
 23
0.0
 14
1.0
 24
1.0
 15
0.0
 25
0.0
 16
0.0
 26
0.0
 36
1.0
 17
0.0
 27
0.0
 37
0.0
 40
210.0
 41
1.4142857143
 42
50.0
 43
0.0
 44
0.0
 50
0.0
 51
0.0
 71
0
 72
100
 73
1
 74
1
 75
0
 76
0
 77
0
 78
0
  0
ENDTAB
  0
TABLE
  2
LTYPE
  5
5
100
AcDbSymbolTable
 70
6
  0
LTYPE
  5
14
100
AcDbSymbolTableRecord
100
AcDbLinetypeTableRecord
  2
BYBLOCK
 70
0
  3

 72
65
 73
0
 40
0.0
  0
LTYPE
  5
15
100
AcDbSymbolTableRecord
100
AcDbLinetypeTableRecord
  2
BYLAYER
 70
0
  3

 72
65
 73
0
 40
0.0
  0
LTYPE
  5
16
100
AcDbSymbolTableRecord
100
AcDbLinetypeTableRecord
  2
CONTINUOUS
 70
64
  3
Solid line
 72
65
 73
0
 40
0.0
  0
LTYPE
  5
1F5
100
AcDbSymbolTableRecord
100
AcDbLinetypeTableRecord
  2
CENTER
 70
64
  3
____ _ ____ _ ____ _ ____ _ ____ _ ____ _ ____
 72
65
 73
4
 40
0.6
 49
0.375
 74
0
 49
-0.075
 74
0
 49
0.075
 74
0
 49
-0.075
 74
0
  0
LTYPE
  5
1F6
100
AcDbSymbolTableRecord
100
AcDbLinetypeTableRecord
  2
HIDDEN
 70
64
  3
- - - - - - - - - - - - - - - - - - - -
 72
65
 73
2
 40
0.2
 49
0.1
 74
0
 49
-0.1
 74
0
  0
LTYPE
  5
1F7
100
AcDbSymbolTableRecord
100
AcDbLinetypeTableRecord
  2
PHANTOM
 70
64
  3
_____ _ _ _____ _ _ _____ _ _ _____
 72
65
 73
6
 40
0.8
 49
0.45
 74
0
 49
-0.05
 74
0
 49
0.1
 74
0
 49
-0.05
 74
0
 49
0.1
 74
0
 49
-0.05
 74
0
  0
LTYPE
  5
1F8
100
AcDbSymbolTableRecord
100
AcDbLinetypeTableRecord
  2
DOT
 70
64
  3
. . . . . . . . . . . . . . . . . . . .
 72
65
 73
2
 40
0.2
 49
0.1
 74
0
 49
-0.1
 74
0
  0
LTYPE
  5
1F9
100
AcDbSymbolTableRecord
100
AcDbLinetypeTableRecord
  2
DASHED
 70
64
  3
- - - - - - - - - - - - - - - - - - - -
 72
65
 73
2
 40
0.2
 49
0.1
 74
0
 49
-0.1
 74
0
  0
ENDTAB
  0
TABLE
  2
LAYER
  5
2
100
AcDbSymbolTable
 70
36
  0
LAYER
  5
10
100
AcDbSymbolTableRecord
100
AcDbLayerTableRecord
  2
0
 70
0
 62
7
  6
CONTINUOUS
370
-3
390
F
  0
LAYER
  5
1FA
100
AcDbSymbolTableRecord
100
AcDbLayerTableRecord
  2
DEFAULT_1
 70
0
 62
7
  6
CENTER
370
-3
390
F
  0
LAYER
  5
1FB
100
AcDbSymbolTableRecord
100
AcDbLayerTableRecord
  2
DEFAULT_2
 70
0
 62
7
  6
HIDDEN
370
-3
390
F
  0
LAYER
  5
1FC
100
AcDbSymbolTableRecord
100
AcDbLayerTableRecord
  2
DEFAULT_3
 70
0
 62
7
  6
PHANTOM
370
-3
390
F
  0
LAYER
  5
1FD
100
AcDbSymbolTableRecord
100
AcDbLayerTableRecord
  2
ASSI
 70
0
 62
7
  6
CONTINUOUS
370
-3
390
F
  0
LAYER
  5
1FE
100
AcDbSymbolTableRecord
100
AcDbLayerTableRecord
  2
COORDINATE
 70
0
 62
7
  6
CONTINUOUS
370
-3
390
F
  0
LAYER
  5
1FF
100
AcDbSymbolTableRecord
100
AcDbLayerTableRecord
  2
COORD_ORIGINE
 70
0
 62
7
  6
CONTINUOUS
370
-3
390
F
  0
LAYER
  5
200
100
AcDbSymbolTableRecord
100
AcDbLayerTableRecord
  2
COPY
 70
0
 62
7
  6
CONTINUOUS
370
-3
390
F
  0
LAYER
  5
201
100
AcDbSymbolTableRecord
100
AcDbLayerTableRecord
  2
COPY_PUBLISH
 70
0
 62
7
  6
CONTINUOUS
370
-3
390
F
  0
LAYER
  5
202
100
AcDbSymbolTableRecord
100
AcDbLayerTableRecord
  2
COSMETICI
 70
0
 62
7
  6
CONTINUOUS
370
-3
390
F
  0
LAYER
  5
203
100
AcDbSymbolTableRecord
100
AcDbLayerTableRecord
  2
CURVE
 70
0
 62
7
  6
CONTINUOUS
370
-3
390
F
  0
LAYER
  5
204
100
AcDbSymbolTableRecord
100
AcDbLayerTableRecord
  2
DRAFT
 70
0
 62
7
  6
CONTINUOUS
370
-3
390
F
  0
LAYER
  5
205
100
AcDbSymbolTableRecord
100
AcDbLayerTableRecord
  2
IMPORT_IGES
 70
0
 62
7
  6
CONTINUOUS
370
-3
390
F
  0
LAYER
  5
206
100
AcDbSymbolTableRecord
100
AcDbLayerTableRecord
  2
INTFCLR_2
 70
0
 62
7
  6
CONTINUOUS
370
-3
390
F
  0
LAYER
  5
207
100
AcDbSymbolTableRecord
100
AcDbLayerTableRecord
  2
INTF_1
 70
0
 62
7
  6
CONTINUOUS
370
-3
390
F
  0
LAYER
  5
208
100
AcDbSymbolTableRecord
100
AcDbLayerTableRecord
  2
NOTE
 70
0
 62
7
  6
CONTINUOUS
370
-3
390
F
  0
LAYER
  5
209
100
AcDbSymbolTableRecord
100
AcDbLayerTableRecord
  2
PIANI
 70
0
 62
7
  6
CONTINUOUS
370
-3
390
F
  0
LAYER
  5
20A
100
AcDbSymbolTableRecord
100
AcDbLayerTableRecord
  2
PIANI_ORIGINE
 70
0
 62
7
  6
CONTINUOUS
370
-3
390
F
  0
LAYER
  5
20B
100
AcDbSymbolTableRecord
100
AcDbLayerTableRecord
  2
PIANI_RIFERIMENTO
 70
0
 62
7
  6
CONTINUOUS
370
-3
390
F
  0
LAYER
  5
20C
100
AcDbSymbolTableRecord
100
AcDbLayerTableRecord
  2
PIANI_SFORMO
 70
0
 62
7
  6
CONTINUOUS
370
-3
390
F
  0
LAYER
  5
20D
100
AcDbSymbolTableRecord
100
AcDbLayerTableRecord
  2
PUNTI
 70
0
 62
7
  6
CONTINUOUS
370
-3
390
F
  0
LAYER
  5
20E
100
AcDbSymbolTableRecord
100
AcDbLayerTableRecord
  2
RACCORDO
 70
0
 62
7
  6
CONTINUOUS
370
-3
390
F
  0
LAYER
  5
20F
100
AcDbSymbolTableRecord
100
AcDbLayerTableRecord
  2
SIMBOLI
 70
0
 62
7
  6
CONTINUOUS
370
-3
390
F
  0
LAYER
  5
210
100
AcDbSymbolTableRecord
100
AcDbLayerTableRecord
  2
SMUSSO
 70
0
 62
7
  6
CONTINUOUS
370
-3
390
F
  0
LAYER
  5
211
100
AcDbSymbolTableRecord
100
AcDbLayerTableRecord
  2
SNAPLINE
 70
0
 62
7
  6
CONTINUOUS
370
-3
390
F
  0
LAYER
  5
212
100
AcDbSymbolTableRecord
100
AcDbLayerTableRecord
  2
SUPERFICI
 70
0
 62
7
  6
CONTINUOUS
370
-3
390
F
  0
LAYER
  5
213
100
AcDbSymbolTableRecord
100
AcDbLayerTableRecord
  2
TRASH
 70
0
 62
7
  6
CONTINUOUS
370
-3
390
F
  0
LAYER
  5
214
100
AcDbSymbolTableRecord
100
AcDbLayerTableRecord
  2
XSEC_DATUMS
 70
0
 62
7
  6
CONTINUOUS
370
-3
390
F
  0
ENDTAB
  0
TABLE
  2
STYLE
  5
3
100
AcDbSymbolTable
 70
1
  0
STYLE
  5
11
100
AcDbSymbolTableRecord
100
AcDbTextStyleTableRecord
  2
STANDARD
 70
0
 40
0.0
 41
0.8
 50
0.0
 71
0
 42
0.2
  3
txt
  4

  0
STYLE
  5
215
100
AcDbSymbolTableRecord
100
AcDbTextStyleTableRecord
  2
TEXTSTYLE_1
 70
0
 40
0.0
 41
0.8
 50
0.0
 71
0
 42
0.2
  3
gdt
  4

  0
ENDTAB
  0
TABLE
  2
VIEW
  5
6
100
AcDbSymbolTable
 70
0
  0
ENDTAB
  0
TABLE
  2
UCS
  5
7
100
AcDbSymbolTable
 70
0
  0
ENDTAB
  0
TABLE
  2
APPID
  5
9
100
AcDbSymbolTable
 70
1
  0
APPID
  5
216
100
AcDbSymbolTableRecord
100
AcDbRegAppTableRecord
  2
ACAD
 70
0
  0
ENDTAB
  0
TABLE
  2
BLOCK_RECORD
  5
1
100
AcDbSymbolTable
 70
0
  0
BLOCK_RECORD
  5
217
100
AcDbSymbolTableRecord
100
AcDbBlockTableRecord
  2
*Model_Space
  0
BLOCK_RECORD
  5
218
100
AcDbSymbolTableRecord
100
AcDbBlockTableRecord
  2
*Paper_Space
  0
ENDTAB
  0
TABLE
  2
DIMSTYLE
  5
A
100
AcDbSymbolTable
 70
1
100
AcDbDimStyleTable
 71
0
  0
DIMSTYLE
105
219
100
AcDbSymbolTableRecord
100
AcDbDimStyleTableRecord
  2
STANDARD
 70
0
  3

  4

 40
1.0
 41
3.0
 42
0.0625
 43
0.38
 44
0.18
 45
0.0
 46
0.0
 47
0.01
 48
0.01
140
3.0
141
0.09
142
0.0
143
25.4
144
1.0
145
0.0
146
1.0
147
0.09
 71
1.0
 72
0.0
 73
0
 74
0
 75
0
 76
0
 77
1
 78
8
170
0
171
2
172
0
173
0
174
0
175
0
176
0
177
0
178
0
270
2
271
2
272
2
273
2
274
2
275
0
280
0
281
0
282
0
283
1
284
8
285
0
286
0
287
3
288
0
340
11
  0
ENDTAB
  0
ENDSEC
  0
SECTION
  2
BLOCKS
  0
BLOCK
  5
20
100
AcDbEntity
  8
0
100
AcDbBlockBegin
  2
*Model_Space
 70
0
 10
0.0
 20
0.0
 30
0.0
  3
*Model_Space
  1

  0
ENDBLK
  5
21
100
AcDbEntity
  8
0
100
AcDbBlockEnd
  0
BLOCK
  5
1C
100
AcDbEntity
  8
0
100
AcDbBlockBegin
  2
*Paper_Space
 70
0
 10
0.0
 20
0.0
 30
0.0
  3
*Paper_Space
  1

  0
ENDBLK
  5
1D
100
AcDbEntity
  8
0
100
AcDbBlockEnd
  0
ENDSEC
  0
SECTION
  2
ENTITIES
  0
LWPOLYLINE
  5
21A
100
AcDbEntity
  8
RACCORDO
100
AcDbPolyline
 62
7
  6
CONTINUOUS
 90
11
 70
0
 10
-9.7518065672
 20
-31.0895177043
 10
-9.6846047193
 20
-31.1235654902
 10
-9.6168326125
 20
-31.1490249415
 10
-9.546789449
 20
-31.1671554086
 10
-9.4740635366
 20
-31.1780127387
 10
-9.3992316386
 20
-31.1812718433
 10
-9.3231157278
 20
-31.1767062266
 10
-9.245373478
 20
-31.1640209018
 10
-9.1661887766
 20
-31.1427417274
 10
-9.0865089176
 20
-31.1126174923
 10
-9.0430058005
 20
-31.0923666683
  0
LWPOLYLINE
  5
21B
100
AcDbEntity
  8
ASSI
100
AcDbPolyline
 62
7
  6
CONTINUOUS
 90
11
 70
0
 10
-9.7518065672
 20
-31.0895177043
 10
-9.6846047193
 20
-31.1235654902
 10
-9.6168326125
 20
-31.1490249415
 10
-9.546789449
 20
-31.1671554086
 10
-9.4740635366
 20
-31.1780127387
 10
-9.3992316386
 20
-31.1812718433
 10
-9.3231157278
 20
-31.1767062266
 10
-9.245373478
 20
-31.1640209018
 10
-9.1661887766
 20
-31.1427417274
 10
-9.0865089176
 20
-31.1126174923
 10
-9.0430058005
 20
-31.0923666683
  0
LWPOLYLINE
  5
21C
100
AcDbEntity
  8
RACCORDO
100
AcDbPolyline
 62
253
  6
CONTINUOUS
 90
8
 70
0
 10
-24.8086215458
 20
-22.1703471595
 10
-24.8433137782
 20
-22.1477346971
 10
-24.8738876858
 20
-22.1225489809
 10
-24.9000156154
 20
-22.0950599202
 10
-24.9214175604
 20
-22.0655621085
 10
-24.9378641612
 20
-22.0343716667
 10
-24.9491791638
 20
-22.0018228549
 10
-24.954194071
 20
-21.9769328928
  0
LWPOLYLINE
  5
21D
100
AcDbEntity
  8
ASSI
100
AcDbPolyline
 62
253
  6
CONTINUOUS
 90
8
 70
0
 10
-24.8086215458
 20
-22.1703471595
 10
-24.8433137782
 20
-22.1477346971
 10
-24.8738876858
 20
-22.1225489809
 10
-24.9000156154
 20
-22.0950599202
 10
-24.9214175604
 20
-22.0655621085
 10
-24.9378641612
 20
-22.0343716667
 10
-24.9491791638
 20
-22.0018228549
 10
-24.954194071
 20
-21.9769328928
  0
LWPOLYLINE
  5
21E
100
AcDbEntity
  8
RACCORDO
100
AcDbPolyline
 62
7
  6
CONTINUOUS
 90
8
 70
0
 10
-24.8755420729
 20
-22.2297843754
 10
-24.8436935795
 20
-22.2854837475
 10
-24.8076745795
 20
-22.3371016256
 10
-24.7678425701
 20
-22.3844214538
 10
-24.7242406596
 20
-22.4275725696
 10
-24.6771359042
 20
-22.4663622405
 10
-24.6270897497
 20
-22.5004148762
 10
-24.6104998248
 20
-22.5102955234
  0
LWPOLYLINE
  5
21F
100
AcDbEntity
  8
ASSI
100
AcDbPolyline
 62
7
  6
CONTINUOUS
 90
8
 70
0
 10
-24.8755420729
 20
-22.2297843754
 10
-24.8436935795
 20
-22.2854837475
 10
-24.8076745795
 20
-22.3371016256
 10
-24.7678425701
 20
-22.3844214538
 10
-24.7242406596
 20
-22.4275725696
 10
-24.6771359042
 20
-22.4663622405
 10
-24.6270897497
 20
-22.5004148762
 10
-24.6104998248
 20
-22.5102955234
  0
LINE
  5
220
100
AcDbEntity
  8
0
100
AcDbLine
 62
253
  6
CONTINUOUS
 10
-4.4283808053
 20
-29.4157630149
 11
-4.9566479771
 21
-29.3701200719
  0
LINE
  5
221
100
AcDbEntity
  8
0
100
AcDbLine
 62
253
  6
CONTINUOUS
 10
-4.5177946007
 20
-29.0864845774
 11
-4.9113027257
 21
-29.0524849843
  0
LWPOLYLINE
  5
222
100
AcDbEntity
  8
0
100
AcDbPolyline
 62
7
  6
CONTINUOUS
 90
42
 70
0
 10
-5.8467081598
 20
-29.7609228474
 10
-5.8524468431
 20
-29.7603573044
 10
-5.8583725627
 20
-29.7596788968
 10
-5.8644840443
 20
-29.7588908031
 10
-5.8707826207
 20
-29.7580002247
 10
-5.8772636759
 20
-29.7570068841
 10
-5.8839167035
 20
-29.7559029935
 10
-5.8907395882
 20
-29.7546926456
 10
-5.8977297905
 20
-29.7533797314
 10
-5.9048759071
 20
-29.7519563824
 10
-5.9121750915
 20
-29.7504272071
 10
-5.9196241092
 20
-29.7487966435
 10
-5.9272107177
 20
-29.7470567871
 10
-5.9349313131
 20
-29.7452127616
 10
-5.9427819486
 20
-29.7432695479
 10
-5.9507496085
 20
-29.7412192497
 10
-5.9588299329
 20
-29.7390674961
 10
-5.9670182197
 20
-29.7368198138
 10
-5.9753006738
 20
-29.7344683832
 10
-5.9836721519
 20
-29.7320193316
 10
-5.992127175
 20
-29.729478732
 10
-6.0006511617
 20
-29.7268389256
 10
-6.0092381618
 20
-29.7241065243
 10
-6.0178818912
 20
-29.7212881497
 10
-6.0265669595
 20
-29.7183764154
 10
-6.0352865819
 20
-29.7153783961
 10
-6.0440336461
 20
-29.7123012623
 10
-6.0527919279
 20
-29.7091380441
 10
-6.0615537793
 20
-29.7058962454
 10
-6.0703112462
 20
-29.7025835791
 10
-6.0790472689
 20
-29.6991936705
 10
-6.0877533075
 20
-29.6957344043
 10
-6.0964205725
 20
-29.6922140146
 10
-6.1050312224
 20
-29.6886269299
 10
-6.1135757763
 20
-29.6849813656
 10
-6.1220446712
 20
-29.6812860161
 10
-6.1304195167
 20
-29.6775362924
 10
-6.13868992
 20
-29.6737406511
 10
-6.1468455759
 20
-29.6699081842
 10
-6.1548677966
 20
-29.6660354875
 10
-6.1627350107
 20
-29.6621378708
 10
-6.1671321411
 20
-29.6599025828
  0
LWPOLYLINE
  5
223
100
AcDbEntity
  8
0
100
AcDbPolyline
 62
7
  6
CONTINUOUS
 90
9
 70
0
 10
-6.8586800723
 20
-31.0725738102
 10
-6.8301883556
 20
-31.0866887833
 10
-6.7997003952
 20
-31.0971938602
 10
-6.7677734371
 20
-31.1037344897
 10
-6.7349987994
 20
-31.1060673985
 10
-6.7020929369
 20
-31.1040681694
 10
-6.6697676092
 20
-31.097764904
 10
-6.6383498036
 20
-31.0871839957
 10
-6.6108131076
 20
-31.0737982723
  0
LWPOLYLINE
  5
224
100
AcDbEntity
  8
RACCORDO
100
AcDbPolyline
 62
253
  6
CONTINUOUS
 90
16
 70
0
 10
-9.9520007584
 20
-30.7483876785
 10
-9.9135899187
 20
-30.7679838926
 10
-9.8718440617
 20
-30.7845544119
 10
-9.8272105775
 20
-30.7979216502
 10
-9.780167803
 20
-30.8079423509
 10
-9.7312198954
 20
-30.8145091221
 10
-9.6808914294
 20
-30.8175515878
 10
-9.6297217748
 20
-30.817037142
 10
-9.5782593168
 20
-30.8129712978
 10
-9.5270555783
 20
-30.805397629
 10
-9.4766593095
 20
-30.7943973026
 10
-9.4276106072
 20
-30.7800882089
 10
-9.380435126
 20
-30.7626236985
 10
-9.3356384455
 20
-30.7421909386
 10
-9.2937006514
 20
-30.7190089068
 10
-9.2550711911
 20
-30.693326045
  0
LWPOLYLINE
  5
225
100
AcDbEntity
  8
ASSI
100
AcDbPolyline
 62
253
  6
CONTINUOUS
 90
16
 70
0
 10
-9.9520007584
 20
-30.7483876785
 10
-9.9135899187
 20
-30.7679838926
 10
-9.8718440617
 20
-30.7845544119
 10
-9.8272105775
 20
-30.7979216502
 10
-9.780167803
 20
-30.8079423509
 10
-9.7312198954
 20
-30.8145091221
 10
-9.6808914294
 20
-30.8175515878
 10
-9.6297217748
 20
-30.817037142
 10
-9.5782593168
 20
-30.8129712978
 10
-9.5270555783
 20
-30.805397629
 10
-9.4766593095
 20
-30.7943973026
 10
-9.4276106072
 20
-30.7800882089
 10
-9.380435126
 20
-30.7626236985
 10
-9.3356384455
 20
-30.7421909386
 10
-9.2937006514
 20
-30.7190089068
 10
-9.2550711911
 20
-30.693326045
  0
LWPOLYLINE
  5
226
100
AcDbEntity
  8
0
100
AcDbPolyline
 62
253
  6
CONTINUOUS
 90
34
 70
0
 10
-6.9104507276
 20
-30.9581395949
 10
-6.9018857958
 20
-30.9628561051
 10
-6.8929400125
 20
-30.9673350958
 10
-6.8836329835
 20
-30.9715662119
 10
-6.8739837985
 20
-30.9755401706
 10
-6.8640150114
 20
-30.9792470993
 10
-6.8537530199
 20
-30.9826769397
 10
-6.8432224584
 20
-30.9858215403
 10
-6.8324455377
 20
-30.9886743482
 10
-6.8214463003
 20
-30.9912289899
 10
-6.8102493301
 20
-30.9934797308
 10
-6.7988799374
 20
-30.9954214589
 10
-6.7873639197
 20
-30.997049761
 10
-6.7757272833
 20
-30.9983609673
 10
-6.7639960994
 20
-30.9993521474
 10
-6.7521966769
 20
-31.0000210783
 10
-6.7403555212
 20
-31.0003662523
 10
-6.728499296
 20
-31.0003868876
 10
-6.7166546877
 20
-31.000082935
 10
-6.7048483422
 20
-30.9994550767
 10
-6.6931068086
 20
-30.9985047231
 10
-6.6814564998
 20
-30.9972340104
 10
-6.6699236179
 20
-30.9956457948
 10
-6.658534105
 20
-30.9937436473
 10
-6.6473135872
 20
-30.9915318466
 10
-6.6362873038
 20
-30.989015367
 10
-6.6254800537
 20
-30.9861998677
 10
-6.6149161482
 20
-30.9830916816
 10
-6.6046193428
 20
-30.9796977974
 10
-6.594612803
 20
-30.9760258498
 10
-6.5849190533
 20
-30.9720841047
 10
-6.5755599012
 20
-30.9678814318
 10
-6.5665563897
 20
-30.9634272823
 10
-6.5579287679
 20
-30.9587316755
  0
LWPOLYLINE
  5
227
100
AcDbEntity
  8
0
100
AcDbPolyline
 62
253
  6
CONTINUOUS
 90
34
 70
0
 10
-6.9104507276
 20
-30.637619422
 10
-6.9018711071
 20
-30.6423436454
 10
-6.8929132286
 20
-30.6468277025
 10
-6.8835972375
 20
-30.6510615091
 10
-6.8739440958
 20
-30.6550355394
 10
-6.8639755018
 20
-30.6587408612
 10
-6.8537138373
 20
-30.6621691534
 10
-6.843182152
 20
-30.6653127099
 10
-6.832404152
 20
-30.6681644497
 10
-6.8214041128
 20
-30.670717948
 10
-6.810206786
 20
-30.6729674596
 10
-6.7988373413
 20
-30.6749079285
 10
-6.7873213483
 20
-30.6765349908
 10
-6.7756847062
 20
-30.6778449873
 10
-6.7639535848
 20
-30.6788349719
 10
-6.7521543663
 20
-30.6795027183
 10
-6.7403135779
 20
-30.6798467249
 10
-6.7284578574
 20
-30.6798662174
 10
-6.7166138935
 20
-30.679561153
 10
-6.7048083393
 20
-30.6789322209
 10
-6.6930677273
 20
-30.6779808377
 10
-6.6814184351
 20
-30.6767091417
 10
-6.6698865758
 20
-30.6751199799
 10
-6.6584981709
 20
-30.6732169345
 10
-6.6472790561
 20
-30.6710043329
 10
-6.6362545971
 20
-30.6684872053
 10
-6.6254494205
 20
-30.6656712025
 10
-6.6148875988
 20
-30.6625626088
 10
-6.6045920579
 20
-30.6591681277
 10
-6.5945868191
 20
-30.6554956334
 10
-6.5848965101
 20
-30.6515542944
 10
-6.5755433809
 20
-30.64735347
 10
-6.5665474811
 20
-30.6429024861
 10
-6.5579287679
 20
-30.6382115027
  0
LINE
  5
228
100
AcDbEntity
  8
RACCORDO
100
AcDbLine
 62
7
  6
CONTINUOUS
 10
-9.7510659677
 20
-31.0899532162
 11
-24.6112135368
 21
-22.5098902512
  0
LINE
  5
229
100
AcDbEntity
  8
ASSI
100
AcDbLine
 62
7
  6
CONTINUOUS
 10
-9.7510659677
 20
-31.0899532162
 11
-24.6112135368
 21
-22.5098902512
  0
LINE
  5
22A
100
AcDbEntity
  8
RACCORDO
100
AcDbLine
 62
253
  6
CONTINUOUS
 10
-9.9520007945
 20
-30.7483875394
 11
-24.8086320189
 21
-22.1703548677
  0
LINE
  5
22B
100
AcDbEntity
  8
ASSI
100
AcDbLine
 62
253
  6
CONTINUOUS
 10
-9.9520007945
 20
-30.7483875394
 11
-24.8086320189
 21
-22.1703548677
  0
LINE
  5
22C
100
AcDbEntity
  8
0
100
AcDbLine
 62
7
  6
CONTINUOUS
 10
-7.8519123328
 20
-30.4990939511
 11
-6.8586800723
 21
-31.0725738102
  0
LINE
  5
22D
100
AcDbEntity
  8
0
100
AcDbLine
 62
253
  6
CONTINUOUS
 10
-7.7733039059
 20
-30.4599389838
 11
-6.9104507276
 21
-30.9581395949
  0
LINE
  5
22E
100
AcDbEntity
  8
0
100
AcDbLine
 62
253
  6
CONTINUOUS
 10
-6.9104507276
 20
-30.637619422
 11
-7.4752811338
 21
-30.3114934244
  0
LINE
  5
22F
100
AcDbEntity
  8
0
100
AcDbLine
 62
253
  6
CONTINUOUS
 10
-6.8220623799
 20
-30.4098140976
 11
-7.2160133183
 21
-30.1823517631
  0
LWPOLYLINE
  5
230
100
AcDbEntity
  8
RACCORDO
100
AcDbPolyline
 62
253
  6
CONTINUOUS
 90
10
 70
0
 10
-9.7518883332
 20
-31.089476925
 10
-9.7646950227
 20
-31.08165169
 10
-9.8004591386
 20
-31.0552639328
 10
-9.8330156296
 20
-31.0240888045
 10
-9.8621759576
 20
-30.9883114459
 10
-9.8877782859
 20
-30.9481363718
 10
-9.9096770326
 20
-30.9037908888
 10
-9.9277459822
 20
-30.8555279527
 10
-9.9418810568
 20
-30.8036271378
 10
-9.9520007945
 20
-30.7483875394
  0
LWPOLYLINE
  5
231
100
AcDbEntity
  8
ASSI
100
AcDbPolyline
 62
253
  6
CONTINUOUS
 90
10
 70
0
 10
-9.7518883332
 20
-31.089476925
 10
-9.7646950227
 20
-31.08165169
 10
-9.8004591386
 20
-31.0552639328
 10
-9.8330156296
 20
-31.0240888045
 10
-9.8621759576
 20
-30.9883114459
 10
-9.8877782859
 20
-30.9481363718
 10
-9.9096770326
 20
-30.9037908888
 10
-9.9277459822
 20
-30.8555279527
 10
-9.9418810568
 20
-30.8036271378
 10
-9.9520007945
 20
-30.7483875394
  0
LINE
  5
232
100
AcDbEntity
  8
CURVE
100
AcDbLine
 62
253
  6
CONTINUOUS
 10
-23.6628199254
 20
-19.2885437216
 11
-23.6793905148
 21
-19.2749320507
  0
LINE
  5
233
100
AcDbEntity
  8
CURVE
100
AcDbLine
 62
253
  6
CONTINUOUS
 10
-23.7105276649
 20
-19.2411605163
 11
-23.7149144816
 21
-19.2353621662
  0
LINE
  5
234
100
AcDbEntity
  8
CURVE
100
AcDbLine
 62
253
  6
CONTINUOUS
 10
-21.0048882957
 20
-20.8232036341
 11
-21.0214106961
 21
-20.8150189672
  0
LWPOLYLINE
  5
235
100
AcDbEntity
  8
0
100
AcDbPolyline
 62
253
  6
CONTINUOUS
 90
7
 70
0
 10
-4.4811769083
 20
-29.0977870383
 10
-4.4867543441
 20
-29.0948420647
 10
-4.4925530789
 20
-29.0923183098
 10
-4.4985681147
 20
-29.0902170903
 10
-4.5047880014
 20
-29.0885424062
 10
-4.5112008992
 20
-29.0872974453
 10
-4.5177946007
 20
-29.0864845774
  0
LINE
  5
236
100
AcDbEntity
  8
CURVE
100
AcDbLine
 62
253
  6
CONTINUOUS
 10
-21.0214106961
 20
-20.8150189672
 11
-23.6460131064
 21
-19.2996064294
  0
LINE
  5
237
100
AcDbEntity
  8
CURVE
100
AcDbLine
 62
253
  6
CONTINUOUS
 10
-23.2700900263
 20
-19.2946839252
 11
-21.1468271149
 21
-20.5206293196
  0
LINE
  5
238
100
AcDbEntity
  8
0
100
AcDbLine
 62
253
  6
CONTINUOUS
 10
-4.7316569174
 20
-28.9630031561
 11
-4.5177946007
 21
-29.0864845774
  0
LINE
  5
239
100
AcDbEntity
  8
0
100
AcDbLine
 62
7
  6
CONTINUOUS
 10
-4.7225074635
 20
-28.9584458003
 11
-4.4811769083
 21
-29.0977870383
  0
LINE
  5
23A
100
AcDbEntity
  8
0
100
AcDbLine
 62
253
  6
CONTINUOUS
 10
-4.5094642972
 20
-29.0915910006
 11
-4.5177946007
 21
-29.0864845774
  0
LWPOLYLINE
  5
23B
100
AcDbEntity
  8
0
100
AcDbPolyline
 62
7
  6
CONTINUOUS
 90
3
 70
0
 10
-4.4811769083
 20
-29.0977870383
 10
-4.4577407181
 20
-29.113131402
 10
-4.4359714851
 20
-29.1311835072
  0
LINE
  5
23C
100
AcDbEntity
  8
CURVE
100
AcDbLine
 62
253
  6
CONTINUOUS
 10
-23.6460131064
 20
-19.2996064294
 11
-23.6628199254
 21
-19.2885437216
  0
LINE
  5
23D
100
AcDbEntity
  8
CURVE
100
AcDbLine
 62
253
  6
CONTINUOUS
 10
-21.1611377343
 20
-18.9008437206
 11
-21.1444623821
 21
-18.9118886398
  0
LINE
  5
23E
100
AcDbEntity
  8
CURVE
100
AcDbLine
 62
253
  6
CONTINUOUS
 10
-21.1444623821
 20
-18.9118886398
 11
-21.1278998051
 21
-18.9256922045
  0
LINE
  5
23F
100
AcDbEntity
  8
CURVE
100
AcDbLine
 62
253
  6
CONTINUOUS
 10
-21.1115893276
 20
-18.942176534
 11
-21.1070809758
 21
-18.9472717819
  0
LWPOLYLINE
  5
240
100
AcDbEntity
  8
CURVE
100
AcDbPolyline
 62
253
  6
CONTINUOUS
 90
85
 70
0
 10
-19.3473730134
 20
-21.2795504914
 10
-19.3511290399
 20
-21.2751134664
 10
-19.3547381231
 20
-21.2706664141
 10
-19.3582112509
 20
-21.2662013184
 10
-19.3615594109
 20
-21.2617101627
 10
-19.3647935908
 20
-21.2571849309
 10
-19.3679247785
 20
-21.2526176065
 10
-19.370961718
 20
-21.2480019498
 10
-19.3739041785
 20
-21.2433388267
 10
-19.3767496859
 20
-21.2386308797
 10
-19.3794957656
 20
-21.2338807515
 10
-19.3821399436
 20
-21.2290910844
 10
-19.3846797453
 20
-21.224264521
 10
-19.3871123478
 20
-21.2194049099
 10
-19.389433533
 20
-21.2145209236
 10
-19.3916387341
 20
-21.2096224406
 10
-19.3937233844
 20
-21.2047193397
 10
-19.3956829172
 20
-21.1998214995
 10
-19.3975127656
 20
-21.1949387984
 10
-19.3992089236
 20
-21.1900804988
 10
-19.4007696278
 20
-21.1852533971
 10
-19.4021936754
 20
-21.1804636736
 10
-19.4034798639
 20
-21.1757175084
 10
-19.4046269905
 20
-21.1710210816
 10
-19.4056338525
 20
-21.1663805734
 10
-19.4064993926
 20
-21.1618019766
 10
-19.4072231356
 20
-21.1572905351
 10
-19.4078047515
 20
-21.1528513054
 10
-19.4082439104
 20
-21.1484893442
 10
-19.4085402825
 20
-21.1442097078
 10
-19.4086935378
 20
-21.140017453
 10
-19.4087033774
 20
-21.1359174963
 10
-19.4085696252
 20
-21.1319141951
 10
-19.4082921363
 20
-21.1280117667
 10
-19.4078707656
 20
-21.1242144284
 10
-19.4073053679
 20
-21.1205263976
 10
-19.4065957981
 20
-21.1169518917
 10
-19.4057421524
 20
-21.1134953991
 10
-19.4047454913
 20
-21.1101624915
 10
-19.4036071163
 20
-21.1069590117
 10
-19.4023283293
 20
-21.1038908027
 10
-19.4009104318
 20
-21.1009637072
 10
-19.3993547256
 20
-21.098183568
 10
-19.3976629436
 20
-21.095555842
 10
-19.3958385444
 20
-21.0930844427
 10
-19.3938854179
 20
-21.0907728977
 10
-19.3918074539
 20
-21.0886247347
 10
-19.3896085424
 20
-21.0866434811
 10
-19.3872925732
 20
-21.0848326647
 10
-19.3848632836
 20
-21.0831952938
 10
-19.3823238004
 20
-21.0817322994
 10
-19.3796770979
 20
-21.0804440935
 10
-19.3769261501
 20
-21.079331088
 10
-19.3740739313
 20
-21.0783936946
 10
-19.3711234157
 20
-21.0776323254
 10
-19.368077016
 20
-21.0770477706
 10
-19.3649348988
 20
-21.0766423342
 10
-19.3616966691
 20
-21.0764186988
 10
-19.358361932
 20
-21.0763795469
 10
-19.3549302927
 20
-21.0765275609
 10
-19.3514013561
 20
-21.0768654235
 10
-19.347776245
 20
-21.077395481
 10
-19.3440621519
 20
-21.0781187355
 10
-19.3402677871
 20
-21.079035853
 10
-19.3364018609
 20
-21.0801474994
 10
-19.3324730835
 20
-21.0814543409
 10
-19.3284901651
 20
-21.0829570433
 10
-19.3244623741
 20
-21.0846547874
 10
-19.3204012121
 20
-21.0865408135
 10
-19.3163187387
 20
-21.0886068764
 10
-19.3122270135
 20
-21.090844731
 10
-19.3081380963
 20
-21.0932461323
 10
-19.3040640467
 20
-21.0958028353
 10
-19.3000149708
 20
-21.098507464
 10
-19.2959931602
 20
-21.1013561195
 10
-19.2919989528
 20
-21.104345772
 10
-19.2880326868
 20
-21.1074733918
 10
-19.2840947
 20
-21.1107359489
 10
-19.2801853304
 20
-21.1141304137
 10
-19.2763033953
 20
-21.1176567271
 10
-19.2724416283
 20
-21.1213267126
 10
-19.2685912425
 20
-21.1251551645
 10
-19.2647434507
 20
-21.129156877
 10
-19.2608894658
 20
-21.1333466443
 10
-19.257020501
 20
-21.1377392608
  0
LWPOLYLINE
  5
241
100
AcDbEntity
  8
CURVE
100
AcDbPolyline
 62
253
  6
CONTINUOUS
 90
85
 70
0
 10
-19.0643019915
 20
-21.361082252
 10
-19.0605484465
 20
-21.3655208893
 10
-19.0569418023
 20
-21.3699695288
 10
-19.053471051
 20
-21.3744361773
 10
-19.0501251844
 20
-21.3789288416
 10
-19.0468931947
 20
-21.3834555285
 10
-19.0437640738
 20
-21.3880242446
 10
-19.0407290568
 20
-21.3926412175
 10
-19.037788351
 20
-21.397305558
 10
-19.0349444067
 20
-21.4020145974
 10
-19.0321996745
 20
-21.4067656674
 10
-19.0295566045
 20
-21.4115560993
 10
-19.0270176474
 20
-21.4163832247
 10
-19.0245856011
 20
-21.4212431721
 10
-19.0222646555
 20
-21.4261272588
 10
-19.0200593477
 20
-21.4310255989
 10
-19.0179742152
 20
-21.4359283069
 10
-19.0160137954
 20
-21.4408254969
 10
-19.0141826257
 20
-21.4457072833
 10
-19.0124846864
 20
-21.4505644004
 10
-19.0109217294
 20
-21.4553900631
 10
-19.0094949494
 20
-21.4601781061
 10
-19.0082055413
 20
-21.4649223644
 10
-19.0070547
 20
-21.4696166727
 10
-19.0060436201
 20
-21.474254866
 10
-19.0051733547
 20
-21.4788309602
 10
-19.0044443892
 20
-21.4833396956
 10
-19.0038570674
 20
-21.4877759935
 10
-19.0034117329
 20
-21.4921347754
 10
-19.0031087293
 20
-21.4964109625
 10
-19.0029484003
 20
-21.5005994763
 10
-19.0029310584
 20
-21.5046953829
 10
-19.0030568911
 20
-21.5086943277
 10
-19.0033260547
 20
-21.5125921007
 10
-19.0037387055
 20
-21.516384492
 10
-19.0042949998
 20
-21.5200672917
 10
-19.0049950939
 20
-21.5236362899
 10
-19.0058389071
 20
-21.527087009
 10
-19.0068254096
 20
-21.5304139003
 10
-19.0079533347
 20
-21.5336111476
 10
-19.0092214156
 20
-21.5366729346
 10
-19.0106283856
 20
-21.539593445
 10
-19.0121729778
 20
-21.5423668625
 10
-19.0138534953
 20
-21.5449877568
 10
-19.0156665199
 20
-21.5474522421
 10
-19.017608203
 20
-21.5497568189
 10
-19.0196746964
 20
-21.5518979874
 10
-19.0218621514
 20
-21.553872248
 10
-19.0241667198
 20
-21.555676101
 10
-19.0265847051
 20
-21.5573065658
 10
-19.0291130189
 20
-21.5587627389
 10
-19.031748725
 20
-21.5600442358
 10
-19.0344888872
 20
-21.561150672
 10
-19.0373305692
 20
-21.5620816632
 10
-19.0402708346
 20
-21.5628368248
 10
-19.0433073092
 20
-21.5634153921
 10
-19.0464398669
 20
-21.5638150791
 10
-19.0496689432
 20
-21.5640332195
 10
-19.0529949741
 20
-21.5640671469
 10
-19.0564183953
 20
-21.563914195
 10
-19.0599396426
 20
-21.5635716974
 10
-19.0635576334
 20
-21.5630373253
 10
-19.0672652125
 20
-21.5623100985
 10
-19.0710537062
 20
-21.5613893746
 10
-19.0749144409
 20
-21.5602745109
 10
-19.078838743
 20
-21.5589648648
 10
-19.082817939
 20
-21.5574597937
 10
-19.086842789
 20
-21.5557601373
 10
-19.090901789
 20
-21.5538726649
 10
-19.0949828689
 20
-21.5518056278
 10
-19.0990739584
 20
-21.5495672776
 10
-19.1031629873
 20
-21.5471658658
 10
-19.1072378855
 20
-21.5446096439
 10
-19.1112885355
 20
-21.5419059908
 10
-19.1153126302
 20
-21.5390587945
 10
-19.1193098156
 20
-21.5360710705
 10
-19.1232797373
 20
-21.532945834
 10
-19.127222041
 20
-21.5296861005
 10
-19.1311363726
 20
-21.5262948854
 10
-19.1350239045
 20
-21.5227722381
 10
-19.1388919161
 20
-21.5191063447
 10
-19.1427492137
 20
-21.5152824253
 10
-19.1466046035
 20
-21.5112857
 10
-19.1504668916
 20
-21.5071013889
 10
-19.1543448843
 20
-21.5027147122
  0
LWPOLYLINE
  5
242
100
AcDbEntity
  8
CURVE
100
AcDbPolyline
 62
253
  6
CONTINUOUS
 90
85
 70
0
 10
-20.6040937942
 20
-19.819005864
 10
-20.6078274052
 20
-19.814553657
 10
-20.6114129558
 20
-19.8100908864
 10
-20.6148614138
 20
-19.8056095407
 10
-20.6181837474
 20
-19.8011016086
 10
-20.6213909247
 20
-19.7965590786
 10
-20.6244939137
 20
-19.7919739395
 10
-20.6275014436
 20
-19.7873399636
 10
-20.6304132877
 20
-19.7826580598
 10
-20.6332269804
 20
-19.7779309204
 10
-20.6359400562
 20
-19.7731612382
 10
-20.6385500494
 20
-19.7683517056
 10
-20.6410544945
 20
-19.7635050152
 10
-20.6434505948
 20
-19.7586250559
 10
-20.6457342295
 20
-19.7537205016
 10
-20.647900947
 20
-19.7488012227
 10
-20.6499462954
 20
-19.7438770895
 10
-20.651865823
 20
-19.7389579722
 10
-20.6536550779
 20
-19.7340537411
 10
-20.65531016
 20
-19.7291736557
 10
-20.6568293762
 20
-19.7243245321
 10
-20.6582115848
 20
-19.7195125757
 10
-20.6594556443
 20
-19.7147439919
 10
-20.6605604131
 20
-19.710024986
 10
-20.6615247497
 20
-19.7053617633
 10
-20.6623476572
 20
-19.7007603394
 10
-20.6630287183
 20
-19.696225971
 10
-20.6635676604
 20
-19.6917637247
 10
-20.6639642109
 20
-19.6873786675
 10
-20.6642180972
 20
-19.6830758661
 10
-20.6643290467
 20
-19.6788603874
 10
-20.6642968123
 20
-19.6747371562
 10
-20.6641212486
 20
-19.6707105298
 10
-20.6638022358
 20
-19.6667847236
 10
-20.663339654
 20
-19.6629639529
 10
-20.6627333834
 20
-19.6592524331
 10
-20.6619833041
 20
-19.6556543796
 10
-20.6610895437
 20
-19.652174291
 10
-20.6600532199
 20
-19.6488177995
 10
-20.6588756976
 20
-19.6455908208
 10
-20.657558342
 20
-19.6424992703
 10
-20.656102518
 20
-19.6395490635
 10
-20.6545095908
 20
-19.636746116
 10
-20.6527813526
 20
-19.6340959511
 10
-20.6509213051
 20
-19.6316025227
 10
-20.6489333769
 20
-19.6292693924
 10
-20.646821497
 20
-19.6271001218
 10
-20.6445895942
 20
-19.6250982728
 10
-20.6422415972
 20
-19.6232674068
 10
-20.6397812806
 20
-19.6216105667
 10
-20.6372118014
 20
-19.6201287199
 10
-20.6345361626
 20
-19.6188223151
 10
-20.6317573668
 20
-19.6176918009
 10
-20.6288784168
 20
-19.6167376257
 10
-20.6259023156
 20
-19.6159602383
 10
-20.6228315061
 20
-19.6153604616
 10
-20.6196661925
 20
-19.6149406157
 10
-20.6164060192
 20
-19.6147033951
 10
-20.6130506308
 20
-19.6146514943
 10
-20.6095996716
 20
-19.6147876078
 10
-20.606052786
 20
-19.6151144302
 10
-20.6024111383
 20
-19.6156343236
 10
-20.5986819713
 20
-19.6163483218
 10
-20.5948740476
 20
-19.6172571262
 10
-20.5909961297
 20
-19.6183614381
 10
-20.5870569802
 20
-19.619661959
 10
-20.5830653618
 20
-19.6211593904
 10
-20.5790305841
 20
-19.6228529423
 10
-20.5749641449
 20
-19.6247358594
 10
-20.5708780891
 20
-19.6267998953
 10
-20.5667844618
 20
-19.6290368032
 10
-20.5626953077
 20
-19.6314383367
 10
-20.5586226719
 20
-19.6339962492
 10
-20.5545766445
 20
-19.63670316
 10
-20.5505594965
 20
-19.6395551524
 10
-20.5465715441
 20
-19.6425491756
 10
-20.5426131036
 20
-19.645682179
 10
-20.5386844912
 20
-19.6489511116
 10
-20.5347860231
 20
-19.6523529229
 10
-20.5309165139
 20
-19.6558875484
 10
-20.5270687711
 20
-19.65956687
 10
-20.5232341005
 20
-19.663405756
 10
-20.5194038081
 20
-19.6674190748
 10
-20.5155691998
 20
-19.6716216945
 10
-20.5117215813
 20
-19.6760284836
  0
LWPOLYLINE
  5
243
100
AcDbEntity
  8
CURVE
100
AcDbPolyline
 62
253
  6
CONTINUOUS
 90
85
 70
0
 10
-20.3201689749
 20
-19.9000446526
 10
-20.3164378528
 20
-19.9044984532
 10
-20.3128547483
 20
-19.9089627923
 10
-20.3094086731
 20
-19.9134456714
 10
-20.3060886391
 20
-19.9179550922
 10
-20.302883658
 20
-19.9224990562
 10
-20.2997827417
 20
-19.9270855652
 10
-20.29677714
 20
-19.9317208341
 10
-20.293867056
 20
-19.9364039322
 10
-20.2910549307
 20
-19.9411321422
 10
-20.2883432052
 20
-19.9459027467
 10
-20.2857343206
 20
-19.9507130284
 10
-20.2832307181
 20
-19.9555602701
 10
-20.2808351692
 20
-19.9604405608
 10
-20.2785517669
 20
-19.9653452161
 10
-20.2763849344
 20
-19.9702643578
 10
-20.2743390952
 20
-19.9751881077
 10
-20.2724186727
 20
-19.9801065878
 10
-20.2706280902
 20
-19.98500992
 10
-20.2689712228
 20
-19.9898888404
 10
-20.2674497527
 20
-19.994736542
 10
-20.2660648137
 20
-19.9995468321
 10
-20.2648175399
 20
-20.004313518
 10
-20.2637090651
 20
-20.009030407
 10
-20.2627405232
 20
-20.0136913064
 10
-20.2619129067
 20
-20.0182902079
 10
-20.2612266422
 20
-20.0228218412
 10
-20.2606820147
 20
-20.0272811207
 10
-20.2602793093
 20
-20.0316629607
 10
-20.2600188112
 20
-20.0359622753
 10
-20.2599008055
 20
-20.0401739788
 10
-20.2599255516
 20
-20.0442931319
 10
-20.2600932068
 20
-20.0483153804
 10
-20.2604039025
 20
-20.0522365166
 10
-20.2608577702
 20
-20.0560523326
 10
-20.2614549416
 20
-20.0597586207
 10
-20.2621955481
 20
-20.0633511732
 10
-20.2630794777
 20
-20.0668255019
 10
-20.2641056439
 20
-20.0701759974
 10
-20.2652727168
 20
-20.0733967699
 10
-20.2665793662
 20
-20.0764819296
 10
-20.2680242622
 20
-20.0794255867
 10
-20.2696060747
 20
-20.0822218514
 10
-20.2713230476
 20
-20.0848652266
 10
-20.2731717202
 20
-20.0873517858
 10
-20.2751482056
 20
-20.0896779948
 10
-20.277248617
 20
-20.09184032
 10
-20.2794690676
 20
-20.0938352272
 10
-20.2818056705
 20
-20.0956591825
 10
-20.2842546925
 20
-20.0973091707
 10
-20.2868130149
 20
-20.0987842511
 10
-20.2894776726
 20
-20.1000840017
 10
-20.2922457007
 20
-20.1012080005
 10
-20.295114134
 20
-20.1021558255
 10
-20.2980800074
 20
-20.1029270547
 10
-20.3011409161
 20
-20.1035208901
 10
-20.3042966952
 20
-20.1039350298
 10
-20.3075477402
 20
-20.1041667957
 10
-20.3108944462
 20
-20.1042135099
 10
-20.3143372087
 20
-20.1040724944
 10
-20.317876423
 20
-20.1037410713
 10
-20.3215109644
 20
-20.103216896
 10
-20.3252336275
 20
-20.102498957
 10
-20.3290356869
 20
-20.1015865765
 10
-20.3329084174
 20
-20.1004790764
 10
-20.3368430935
 20
-20.0991757788
 10
-20.3408309899
 20
-20.0976760056
 10
-20.3448628262
 20
-20.0959805672
 10
-20.348927103
 20
-20.0940962274
 10
-20.3530117658
 20
-20.0920312381
 10
-20.3571047601
 20
-20.0897938515
 10
-20.3611940315
 20
-20.0873923195
 10
-20.3652675255
 20
-20.0848348943
 10
-20.3693151412
 20
-20.0821289585
 10
-20.3733345919
 20
-20.0792784182
 10
-20.3773255443
 20
-20.0762863097
 10
-20.3812876652
 20
-20.0731556698
 10
-20.3852206214
 20
-20.0698895351
 10
-20.3891240796
 20
-20.066490942
 10
-20.3929992145
 20
-20.0629599455
 10
-20.3968532315
 20
-20.0592846729
 10
-20.4006948439
 20
-20.0554502699
 10
-20.4045327652
 20
-20.0514418823
 10
-20.4083757087
 20
-20.0472446557
 10
-20.4122323877
 20
-20.0428437357
  0
LWPOLYLINE
  5
244
100
AcDbEntity
  8
RACCORDO
100
AcDbPolyline
 62
253
  6
CONTINUOUS
 90
10
 70
0
 10
-24.8086320189
 20
-22.1703548677
 10
-24.7986903488
 20
-22.2254916521
 10
-24.7847993495
 20
-22.277251541
 10
-24.7670404829
 20
-22.3253354392
 10
-24.7455203079
 20
-22.3694623395
 10
-24.7203625591
 20
-22.409380719
 10
-24.6917053753
 20
-22.4448675684
 10
-24.6597117016
 20
-22.4757177331
 10
-24.6245689678
 20
-22.5017467121
 10
-24.6111955055
 20
-22.5099006622
  0
LWPOLYLINE
  5
245
100
AcDbEntity
  8
ASSI
100
AcDbPolyline
 62
253
  6
CONTINUOUS
 90
10
 70
0
 10
-24.8086320189
 20
-22.1703548677
 10
-24.7986903488
 20
-22.2254916521
 10
-24.7847993495
 20
-22.277251541
 10
-24.7670404829
 20
-22.3253354392
 10
-24.7455203079
 20
-22.3694623395
 10
-24.7203625591
 20
-22.409380719
 10
-24.6917053753
 20
-22.4448675684
 10
-24.6597117016
 20
-22.4757177331
 10
-24.6245689678
 20
-22.5017467121
 10
-24.6111955055
 20
-22.5099006622
  0
LWPOLYLINE
  5
246
100
AcDbEntity
  8
RACCORDO
100
AcDbPolyline
 62
7
  6
CONTINUOUS
 90
5
 70
0
 10
-24.954194071
 20
-21.9769328928
 10
-24.9430080017
 20
-22.0398645119
 10
-24.9254228341
 20
-22.1070367972
 10
-24.9028365916
 20
-22.1703546125
 10
-24.8755420729
 20
-22.2297843754
  0
LWPOLYLINE
  5
247
100
AcDbEntity
  8
ASSI
100
AcDbPolyline
 62
7
  6
CONTINUOUS
 90
5
 70
0
 10
-24.954194071
 20
-21.9769328928
 10
-24.9430080017
 20
-22.0398645119
 10
-24.9254228341
 20
-22.1070367972
 10
-24.9028365916
 20
-22.1703546125
 10
-24.8755420729
 20
-22.2297843754
  0
LINE
  5
248
100
AcDbEntity
  8
RACCORDO
100
AcDbLine
 62
7
  6
CONTINUOUS
 10
-24.954194071
 20
-21.9769328928
 11
-24.9542608372
 21
-21.9764565306
  0
LINE
  5
249
100
AcDbEntity
  8
ASSI
100
AcDbLine
 62
7
  6
CONTINUOUS
 10
-24.954194071
 20
-21.9769328928
 11
-24.9542608372
 21
-21.9764565306
  0
LWPOLYLINE
  5
24A
100
AcDbEntity
  8
RACCORDO
100
AcDbPolyline
 62
253
  6
CONTINUOUS
 90
10
 70
0
 10
-25.4965316641
 20
-13.0201002165
 10
-25.4726905173
 20
-14.0724107123
 10
-25.4356730361
 20
-15.1163238618
 10
-25.3854872362
 20
-16.1516195574
 10
-25.3221442908
 20
-17.1780786216
 10
-25.2456575487
 20
-18.1954854457
 10
-25.1560424405
 20
-19.2036279739
 10
-25.0533178239
 20
-20.2022943183
 10
-24.9375060708
 20
-21.1912728649
 10
-24.8086320189
 20
-22.1703548677
  0
LWPOLYLINE
  5
24B
100
AcDbEntity
  8
ASSI
100
AcDbPolyline
 62
253
  6
CONTINUOUS
 90
10
 70
0
 10
-25.4965316641
 20
-13.0201002165
 10
-25.4726905173
 20
-14.0724107123
 10
-25.4356730361
 20
-15.1163238618
 10
-25.3854872362
 20
-16.1516195574
 10
-25.3221442908
 20
-17.1780786216
 10
-25.2456575487
 20
-18.1954854457
 10
-25.1560424405
 20
-19.2036279739
 10
-25.0533178239
 20
-20.2022943183
 10
-24.9375060708
 20
-21.1912728649
 10
-24.8086320189
 20
-22.1703548677
  0
LWPOLYLINE
  5
24C
100
AcDbEntity
  8
RACCORDO
100
AcDbPolyline
 62
7
  6
CONTINUOUS
 90
10
 70
0
 10
-25.6429751398
 20
-12.8164250657
 10
-25.6205848569
 20
-13.8183408362
 10
-25.583616072
 20
-14.87710256
 10
-25.5331157581
 20
-15.927148727
 10
-25.4690913408
 20
-16.9682220445
 10
-25.3915540306
 20
-18.0001136015
 10
-25.3005148433
 20
-19.0226335762
 10
-25.1959873142
 20
-20.035574994
 10
-25.0779953188
 20
-21.0386919581
 10
-24.9542708766
 20
-21.9764579349
  0
LWPOLYLINE
  5
24D
100
AcDbEntity
  8
ASSI
100
AcDbPolyline
 62
7
  6
CONTINUOUS
 90
10
 70
0
 10
-25.6429751398
 20
-12.8164250657
 10
-25.6205848569
 20
-13.8183408362
 10
-25.583616072
 20
-14.87710256
 10
-25.5331157581
 20
-15.927148727
 10
-25.4690913408
 20
-16.9682220445
 10
-25.3915540306
 20
-18.0001136015
 10
-25.3005148433
 20
-19.0226335762
 10
-25.1959873142
 20
-20.035574994
 10
-25.0779953188
 20
-21.0386919581
 10
-24.9542708766
 20
-21.9764579349
  0
LWPOLYLINE
  5
24E
100
AcDbEntity
  8
RACCORDO
100
AcDbPolyline
 62
7
  6
CONTINUOUS
 90
10
 70
0
 10
-25.6429776794
 20
2.6971671028
 10
-25.6670969856
 20
1.0109952773
 10
-25.6859910336
 20
-0.7379874743
 10
-25.6985906529
 20
-2.4832964562
 10
-25.7048954363
 20
-4.2248958331
 10
-25.7049052562
 20
-5.9627558876
 10
-25.6986200382
 20
-7.6968492559
 10
-25.6860397617
 20
-9.4271462867
 10
-25.6671646849
 20
-11.153611542
 10
-25.6429751518
 20
-12.8164253326
  0
LWPOLYLINE
  5
24F
100
AcDbEntity
  8
ASSI
100
AcDbPolyline
 62
7
  6
CONTINUOUS
 90
10
 70
0
 10
-25.6429776794
 20
2.6971671028
 10
-25.6670969856
 20
1.0109952773
 10
-25.6859910336
 20
-0.7379874743
 10
-25.6985906529
 20
-2.4832964562
 10
-25.7048954363
 20
-4.2248958331
 10
-25.7049052562
 20
-5.9627558876
 10
-25.6986200382
 20
-7.6968492559
 10
-25.6860397617
 20
-9.4271462867
 10
-25.6671646849
 20
-11.153611542
 10
-25.6429751518
 20
-12.8164253326
  0
LWPOLYLINE
  5
250
100
AcDbEntity
  8
RACCORDO
100
AcDbPolyline
 62
253
  6
CONTINUOUS
 90
10
 70
0
 10
-25.4965316579
 20
2.4927979037
 10
-25.5213058449
 20
0.7544157881
 10
-25.5398863739
 20
-0.9803417738
 10
-25.5522732266
 20
-2.7114440344
 10
-25.5584664615
 20
-4.4388409441
 10
-25.5584664619
 20
-6.1625213393
 10
-25.5522732282
 20
-7.8825125347
 10
-25.5398863777
 20
-9.5988029247
 10
-25.5213058526
 20
-11.3113423924
 10
-25.4965316721
 20
-13.0201002119
  0
LWPOLYLINE
  5
251
100
AcDbEntity
  8
ASSI
100
AcDbPolyline
 62
253
  6
CONTINUOUS
 90
10
 70
0
 10
-25.4965316579
 20
2.4927979037
 10
-25.5213058449
 20
0.7544157881
 10
-25.5398863739
 20
-0.9803417738
 10
-25.5522732266
 20
-2.7114440344
 10
-25.5584664615
 20
-4.4388409441
 10
-25.5584664619
 20
-6.1625213393
 10
-25.5522732282
 20
-7.8825125347
 10
-25.5398863777
 20
-9.5988029247
 10
-25.5213058526
 20
-11.3113423924
 10
-25.4965316721
 20
-13.0201002119
  0
LWPOLYLINE
  5
252
100
AcDbEntity
  8
RACCORDO
100
AcDbPolyline
 62
253
  6
CONTINUOUS
 90
10
 70
0
 10
-24.80863202
 20
12.4654855613
 10
-24.9375060713
 20
11.3323237938
 10
-25.0533178241
 20
10.2048842421
 10
-25.1560424405
 20
9.0834043345
 10
-25.2456575512
 20
7.968120829
 10
-25.3221442952
 20
6.8592680806
 10
-25.3854872364
 20
5.7570780341
 10
-25.4356730283
 20
4.6617824008
 10
-25.4726905036
 20
3.5736125686
 10
-25.4965316503
 20
2.4927978993
  0
LWPOLYLINE
  5
253
100
AcDbEntity
  8
ASSI
100
AcDbPolyline
 62
253
  6
CONTINUOUS
 90
10
 70
0
 10
-24.80863202
 20
12.4654855613
 10
-24.9375060713
 20
11.3323237938
 10
-25.0533178241
 20
10.2048842421
 10
-25.1560424405
 20
9.0834043345
 10
-25.2456575512
 20
7.968120829
 10
-25.3221442952
 20
6.8592680806
 10
-25.3854872364
 20
5.7570780341
 10
-25.4356730283
 20
4.6617824008
 10
-25.4726905036
 20
3.5736125686
 10
-25.4965316503
 20
2.4927978993
  0
LWPOLYLINE
  5
254
100
AcDbEntity
  8
RACCORDO
100
AcDbPolyline
 62
7
  6
CONTINUOUS
 90
10
 70
0
 10
-24.9555179087
 20
12.6656370311
 10
-25.0783138693
 20
11.58832381
 10
-25.1961109668
 20
10.446601744
 10
-25.3004968963
 20
9.3108735572
 10
-25.391441851
 20
8.1814166193
 10
-25.4689262465
 20
7.0584588116
 10
-25.5329330362
 20
5.9422089491
 10
-25.5834451757
 20
4.8328934016
 10
-25.6204494747
 20
3.7307812957
 10
-25.6429776683
 20
2.6971669189
  0
LWPOLYLINE
  5
255
100
AcDbEntity
  8
ASSI
100
AcDbPolyline
 62
7
  6
CONTINUOUS
 90
10
 70
0
 10
-24.9555179087
 20
12.6656370311
 10
-25.0783138693
 20
11.58832381
 10
-25.1961109668
 20
10.446601744
 10
-25.3004968963
 20
9.3108735572
 10
-25.391441851
 20
8.1814166193
 10
-25.4689262465
 20
7.0584588116
 10
-25.5329330362
 20
5.9422089491
 10
-25.5834451757
 20
4.8328934016
 10
-25.6204494747
 20
3.7307812957
 10
-25.6429776683
 20
2.6971669189
  0
LWPOLYLINE
  5
256
100
AcDbEntity
  8
RACCORDO
100
AcDbPolyline
 62
253
  6
CONTINUOUS
 90
19
 70
0
 10
-24.1522176311
 20
13.5447650169
 10
-24.2052848227
 20
13.5079774877
 10
-24.257836201
 20
13.4668194735
 10
-24.3095654731
 20
13.421527867
 10
-24.3601659815
 20
13.372364843
 10
-24.4093483385
 20
13.3196124811
 10
-24.4568412529
 20
13.263569205
 10
-24.5023717385
 20
13.204550591
 10
-24.5456685489
 20
13.142900626
 10
-24.5864800003
 20
13.0789855778
 10
-24.6245685053
 20
13.013174103
 10
-24.6597114326
 20
12.945845401
 10
-24.6917053163
 20
12.8773994738
 10
-24.7203627519
 20
12.8082383974
 10
-24.7455207166
 20
12.7387543624
 10
-24.7670409258
 20
12.6693389809
 10
-24.7847996693
 20
12.6003896865
 10
-24.7986905
 20
12.5323074999
 10
-24.80863202
 20
12.4654855613
  0
LWPOLYLINE
  5
257
100
AcDbEntity
  8
ASSI
100
AcDbPolyline
 62
253
  6
CONTINUOUS
 90
19
 70
0
 10
-24.1522176311
 20
13.5447650169
 10
-24.2052848227
 20
13.5079774877
 10
-24.257836201
 20
13.4668194735
 10
-24.3095654731
 20
13.421527867
 10
-24.3601659815
 20
13.372364843
 10
-24.4093483385
 20
13.3196124811
 10
-24.4568412529
 20
13.263569205
 10
-24.5023717385
 20
13.204550591
 10
-24.5456685489
 20
13.142900626
 10
-24.5864800003
 20
13.0789855778
 10
-24.6245685053
 20
13.013174103
 10
-24.6597114326
 20
12.945845401
 10
-24.6917053163
 20
12.8773994738
 10
-24.7203627519
 20
12.8082383974
 10
-24.7455207166
 20
12.7387543624
 10
-24.7670409258
 20
12.6693389809
 10
-24.7847996693
 20
12.6003896865
 10
-24.7986905
 20
12.5323074999
 10
-24.80863202
 20
12.4654855613
  0
LWPOLYLINE
  5
258
100
AcDbEntity
  8
RACCORDO
100
AcDbPolyline
 62
7
  6
CONTINUOUS
 90
16
 70
0
 10
-24.4088385823
 20
13.5652626484
 10
-24.4414947534
 20
13.5428052745
 10
-24.5036929257
 20
13.4946969526
 10
-24.5624214919
 20
13.4422358921
 10
-24.6178309657
 20
13.3856542962
 10
-24.6698881943
 20
13.3252537863
 10
-24.7182758372
 20
13.2616107024
 10
-24.7629586387
 20
13.1949777291
 10
-24.8038308724
 20
13.1255455081
 10
-24.8404980237
 20
13.0540206851
 10
-24.8728533273
 20
12.9806101922
 10
-24.9007199377
 20
12.9054792947
 10
-24.9237622317
 20
12.8292386039
 10
-24.9417507829
 20
12.7521089263
 10
-24.9544660691
 20
12.674094238
 10
-24.9555338567
 20
12.6654245602
  0
LWPOLYLINE
  5
259
100
AcDbEntity
  8
ASSI
100
AcDbPolyline
 62
7
  6
CONTINUOUS
 90
16
 70
0
 10
-24.4088385823
 20
13.5652626484
 10
-24.4414947534
 20
13.5428052745
 10
-24.5036929257
 20
13.4946969526
 10
-24.5624214919
 20
13.4422358921
 10
-24.6178309657
 20
13.3856542962
 10
-24.6698881943
 20
13.3252537863
 10
-24.7182758372
 20
13.2616107024
 10
-24.7629586387
 20
13.1949777291
 10
-24.8038308724
 20
13.1255455081
 10
-24.8404980237
 20
13.0540206851
 10
-24.8728533273
 20
12.9806101922
 10
-24.9007199377
 20
12.9054792947
 10
-24.9237622317
 20
12.8292386039
 10
-24.9417507829
 20
12.7521089263
 10
-24.9544660691
 20
12.674094238
 10
-24.9555338567
 20
12.6654245602
  0
LWPOLYLINE
  5
25A
100
AcDbEntity
  8
0
100
AcDbPolyline
 62
7
  6
CONTINUOUS
 90
9
 70
0
 10
-20.8430512939
 20
17.0097322543
 10
-20.8692644908
 20
16.9919075718
 10
-20.8933275549
 20
16.9705925285
 10
-20.9146636998
 20
16.9460951488
 10
-20.9327761781
 20
16.9188049523
 10
-20.9472069515
 20
16.8892799505
 10
-20.9576312598
 20
16.8581516581
 10
-20.9639136527
 20
16.8257144507
 10
-20.9658700832
 20
16.7944549773
  0
LINE
  5
25B
100
AcDbEntity
  8
0
100
AcDbLine
 62
7
  6
CONTINUOUS
 10
-20.9650196311
 20
15.8572704425
 11
-20.583506377
 21
16.1088748456
  0
LINE
  5
25C
100
AcDbEntity
  8
RACCORDO
100
AcDbLine
 62
7
  6
CONTINUOUS
 10
-20.9483566379
 20
15.8474287137
 11
-24.4089870566
 21
13.5651754986
  0
LINE
  5
25D
100
AcDbEntity
  8
ASSI
100
AcDbLine
 62
7
  6
CONTINUOUS
 10
-20.9483566379
 20
15.8474287137
 11
-24.4089870566
 21
13.5651754986
  0
LINE
  5
25E
100
AcDbEntity
  8
0
100
AcDbLine
 62
253
  6
CONTINUOUS
 10
-20.70688443
 20
15.8377606771
 11
-20.4300979622
 21
16.0202987495
  0
LINE
  5
25F
100
AcDbEntity
  8
RACCORDO
100
AcDbLine
 62
253
  6
CONTINUOUS
 10
-20.6900429831
 20
15.8280366367
 11
-24.1522176311
 21
13.5447650169
  0
LINE
  5
260
100
AcDbEntity
  8
ASSI
100
AcDbLine
 62
253
  6
CONTINUOUS
 10
-20.6900429831
 20
15.8280366367
 11
-24.1522176311
 21
13.5447650169
  0
LINE
  5
261
100
AcDbEntity
  8
0
100
AcDbLine
 62
7
  6
CONTINUOUS
 10
-20.8430512939
 20
17.0097322543
 11
-19.2598748841
 21
17.945234379
  0
LINE
  5
262
100
AcDbEntity
  8
0
100
AcDbLine
 62
253
  6
CONTINUOUS
 10
-20.7168985346
 20
16.9980202618
 11
-19.1341419315
 21
17.9332743218
  0
LINE
  5
263
100
AcDbEntity
  8
0
100
AcDbLine
 62
7
  6
CONTINUOUS
 10
-19.259871211
 20
17.9452365491
 11
-19.2584169676
 21
17.9460762109
  0
LINE
  5
264
100
AcDbEntity
  8
0
100
AcDbLine
 62
7
  6
CONTINUOUS
 10
-19.2584132791
 20
17.9460782914
 11
-18.7235386804
 21
18.2477632176
  0
LINE
  5
265
100
AcDbEntity
  8
0
100
AcDbLine
 62
253
  6
CONTINUOUS
 10
-19.1341419315
 20
17.9332743218
 11
-18.5996920528
 21
18.2347196936
  0
LWPOLYLINE
  5
266
100
AcDbEntity
  8
0
100
AcDbPolyline
 62
253
  6
CONTINUOUS
 90
18
 70
0
 10
-20.8430512939
 20
17.0097322543
 10
-20.8393098149
 20
17.0118153401
 10
-20.8330809001
 20
17.0147574573
 10
-20.8265864765
 20
17.0172006418
 10
-20.8198412555
 20
17.0191393594
 10
-20.8128605166
 20
17.0205692184
 10
-20.8056600726
 20
17.0214869799
 10
-20.7982562342
 20
17.0218905649
 10
-20.7906657728
 20
17.0217790593
 10
-20.7829058823
 20
17.0211527155
 10
-20.7749941408
 20
17.0200129525
 10
-20.7669484701
 20
17.018362352
 10
-20.7587870955
 20
17.0162046531
 10
-20.7505285042
 20
17.0135447433
 10
-20.7421914038
 20
17.010388648
 10
-20.7337946798
 20
17.0067435164
 10
-20.7253573526
 20
17.0026176057
 10
-20.7168985346
 20
16.9980202618
  0
LWPOLYLINE
  5
267
100
AcDbEntity
  8
0
100
AcDbPolyline
 62
7
  6
CONTINUOUS
 90
18
 70
0
 10
-19.2584169676
 20
17.9460762109
 10
-19.2561300967
 20
17.947319418
 10
-19.2499044249
 20
17.9502596096
 10
-19.2434164924
 20
17.9526989405
 10
-19.2366810036
 20
17.9546318813
 10
-19.2297132643
 20
17.956054028
 10
-19.2225290073
 20
17.9569621893
 10
-19.2151444917
 20
17.9573543179
 10
-19.2075765373
 20
17.9572294769
 10
-19.1998422158
 20
17.9565879919
 10
-19.1919590099
 20
17.955431339
 10
-19.1839449104
 20
17.9537620671
 10
-19.17581798
 20
17.9515840118
 10
-19.167596569
 20
17.9489021424
 10
-19.1592994722
 20
17.9457224409
 10
-19.1509454789
 20
17.9420521163
 10
-19.1425533297
 20
17.9378995876
 10
-19.1341419315
 20
17.9332743218
  0
LWPOLYLINE
  5
268
100
AcDbEntity
  8
0
100
AcDbPolyline
 62
253
  6
CONTINUOUS
 90
3
 70
0
 10
-18.7235386616
 20
18.2477632282
 10
-18.7212378785
 20
18.249013701
 10
-18.7150141213
 20
18.2519511774
  0
LINE
  5
269
100
AcDbEntity
  8
0
100
AcDbLine
 62
7
  6
CONTINUOUS
 10
-18.6960447208
 20
18.2611248199
 11
-18.7235814167
 21
18.2477390965
  0
LINE
  5
26A
100
AcDbEntity
  8
CURVE
100
AcDbLine
 62
253
  6
CONTINUOUS
 10
-21.1936727339
 20
-18.88776597
 11
-21.177421301
 21
-18.8928585731
  0
LINE
  5
26B
100
AcDbEntity
  8
CURVE
100
AcDbLine
 62
253
  6
CONTINUOUS
 10
-20.9891149531
 20
-20.8282811513
 11
-21.0048882957
 21
-20.8232036341
  0
LINE
  5
26C
100
AcDbEntity
  8
CURVE
100
AcDbLine
 62
253
  6
CONTINUOUS
 10
-21.177421301
 20
-18.8928585731
 11
-21.1611377343
 21
-18.9008437206
  0
LWPOLYLINE
  5
26D
100
AcDbEntity
  8
RACCORDO
100
AcDbPolyline
 62
253
  6
CONTINUOUS
 90
16
 70
0
 10
-10.6642032343
 20
-21.5841194097
 10
-10.625762444
 20
-21.6040725568
 10
-10.5839461107
 20
-21.6215420097
 10
-10.5392022693
 20
-21.6363405946
 10
-10.4920103208
 20
-21.6483097541
 10
-10.4428758966
 20
-21.6573212466
 10
-10.3923254398
 20
-21.6632785198
 10
-10.3409005659
 20
-21.6661177453
 10
-10.289152259
 20
-21.6658085027
 10
-10.2376349686
 20
-21.6623541053
 10
-10.1869006689
 20
-21.6557915648
 10
-10.1374929451
 20
-21.6461911945
 10
-10.0899411687
 20
-21.6336558561
 10
-10.0447548263
 20
-21.6183198576
 10
-10.00241806
 20
-21.6003475144
 10
-9.9633844809
 20
-21.5799313883
  0
LWPOLYLINE
  5
26E
100
AcDbEntity
  8
ASSI
100
AcDbPolyline
 62
253
  6
CONTINUOUS
 90
16
 70
0
 10
-10.6642032343
 20
-21.5841194097
 10
-10.625762444
 20
-21.6040725568
 10
-10.5839461107
 20
-21.6215420097
 10
-10.5392022693
 20
-21.6363405946
 10
-10.4920103208
 20
-21.6483097541
 10
-10.4428758966
 20
-21.6573212466
 10
-10.3923254398
 20
-21.6632785198
 10
-10.3409005659
 20
-21.6661177453
 10
-10.289152259
 20
-21.6658085027
 10
-10.2376349686
 20
-21.6623541053
 10
-10.1869006689
 20
-21.6557915648
 10
-10.1374929451
 20
-21.6461911945
 10
-10.0899411687
 20
-21.6336558561
 10
-10.0447548263
 20
-21.6183198576
 10
-10.00241806
 20
-21.6003475144
 10
-9.9633844809
 20
-21.5799313883
  0
LINE
  5
26F
100
AcDbEntity
  8
RACCORDO
100
AcDbLine
 62
253
  6
CONTINUOUS
 10
-25.4965316641
 20
-13.0201002165
 11
-10.6642035591
 21
-21.5841005715
  0
LINE
  5
270
100
AcDbEntity
  8
ASSI
100
AcDbLine
 62
253
  6
CONTINUOUS
 10
-25.4965316641
 20
-13.0201002165
 11
-10.6642035591
 21
-21.5841005715
  0
LWPOLYLINE
  5
271
100
AcDbEntity
  8
RACCORDO
100
AcDbPolyline
 62
253
  6
CONTINUOUS
 90
9
 70
0
 10
-25.4965313462
 20
-13.0201190313
 10
-25.531185185
 20
-12.9978682558
 10
-25.5616803197
 20
-12.9735859739
 10
-25.5876900145
 20
-12.9475323543
 10
-25.6089355927
 20
-12.9199865446
 10
-25.6251894216
 20
-12.8912436804
 10
-25.6362773519
 20
-12.8616117227
 10
-25.6420805838
 20
-12.8314081586
 10
-25.6429751355
 20
-12.8164253323
  0
LWPOLYLINE
  5
272
100
AcDbEntity
  8
ASSI
100
AcDbPolyline
 62
253
  6
CONTINUOUS
 90
9
 70
0
 10
-25.4965313462
 20
-13.0201190313
 10
-25.531185185
 20
-12.9978682558
 10
-25.5616803197
 20
-12.9735859739
 10
-25.5876900145
 20
-12.9475323543
 10
-25.6089355927
 20
-12.9199865446
 10
-25.6251894216
 20
-12.8912436804
 10
-25.6362773519
 20
-12.8616117227
 10
-25.6420805838
 20
-12.8314081586
 10
-25.6429751355
 20
-12.8164253323
  0
LINE
  5
273
100
AcDbEntity
  8
CURVE
100
AcDbLine
 62
253
  6
CONTINUOUS
 10
-19.8683932497
 20
-21.4133262693
 11
-19.8878907476
 21
-21.1795718933
  0
LINE
  5
274
100
AcDbEntity
  8
CURVE
100
AcDbLine
 62
253
  6
CONTINUOUS
 10
-19.6758182766
 20
-21.3020192636
 11
-19.6563207806
 21
-21.535773641
  0
LWPOLYLINE
  5
275
100
AcDbEntity
  8
CURVE
100
AcDbPolyline
 62
253
  6
CONTINUOUS
 90
6
 70
0
 10
-21.1468271149
 20
-20.5206293196
 10
-21.1666227039
 20
-20.2765779239
 10
-21.1856458299
 20
-20.0320022876
 10
-21.203896261
 20
-19.7869053906
 10
-21.2213737749
 20
-19.5412902195
 10
-21.2467215451
 20
-19.1628961236
  0
LWPOLYLINE
  5
276
100
AcDbEntity
  8
CURVE
100
AcDbPolyline
 62
253
  6
CONTINUOUS
 90
87
 70
0
 10
-19.8878910409
 20
-21.1795717229
 10
-19.8881488654
 20
-21.1757569122
 10
-19.8882906841
 20
-21.172037489
 10
-19.8883177424
 20
-21.168403943
 10
-19.888231286
 20
-21.1648467638
 10
-19.8880318619
 20
-21.1613582171
 10
-19.887717224
 20
-21.1579376731
 10
-19.887284428
 20
-21.1545862784
 10
-19.8867305294
 20
-21.1513051793
 10
-19.8860532574
 20
-21.1480972052
 10
-19.8852530352
 20
-21.1449719167
 10
-19.8843309595
 20
-21.1419405575
 10
-19.883288127
 20
-21.1390143712
 10
-19.8821255953
 20
-21.1362033666
 10
-19.8808442656
 20
-21.133512613
 10
-19.8794450002
 20
-21.1309459449
 10
-19.8779286612
 20
-21.128507197
 10
-19.8760544326
 20
-21.1258813327
 10
-19.8740355829
 20
-21.1234316024
 10
-19.8718792775
 20
-21.1211620525
 10
-19.8695926815
 20
-21.1190767294
 10
-19.8671829604
 20
-21.1171796793
 10
-19.8646572794
 20
-21.1154749488
 10
-19.8620228038
 20
-21.113966584
 10
-19.8592866657
 20
-21.1126573443
 10
-19.8564558635
 20
-21.1115448408
 10
-19.8535373626
 20
-21.1106253974
 10
-19.8505381284
 20
-21.1098953381
 10
-19.8474651261
 20
-21.109350987
 10
-19.844325321
 20
-21.108988668
 10
-19.8411256785
 20
-21.1088047051
 10
-19.8378721193
 20
-21.1087957603
 10
-19.8345663868
 20
-21.1089598476
 10
-19.8312091798
 20
-21.1092953189
 10
-19.8278011972
 20
-21.1098005264
 10
-19.8243431377
 20
-21.1104738219
 10
-19.8208357002
 20
-21.1113135575
 10
-19.8172795836
 20
-21.1123180853
 10
-19.8130713566
 20
-21.1136961206
 10
-19.8088059434
 20
-21.1152936324
 10
-19.8044914642
 20
-21.1171080398
 10
-19.8001360395
 20
-21.1191367621
 10
-19.7957477894
 20
-21.1213772185
 10
-19.7913348344
 20
-21.1238268281
 10
-19.7869053523
 20
-21.1264822749
 10
-19.7824677522
 20
-21.1293373012
 10
-19.7780305005
 20
-21.1323849141
 10
-19.7736020637
 20
-21.1356181204
 10
-19.7691909085
 20
-21.1390299273
 10
-19.7648055015
 20
-21.1426133418
 10
-19.761072682
 20
-21.1458170213
 10
-19.7573654696
 20
-21.1491426179
 10
-19.7536843342
 20
-21.1525911073
 10
-19.7500297455
 20
-21.1561634653
 10
-19.7464021734
 20
-21.1598606676
 10
-19.7428020877
 20
-21.16368369
 10
-19.7392299581
 20
-21.1676335082
 10
-19.7356873419
 20
-21.1717102047
 10
-19.732180145
 20
-21.1759102884
 10
-19.7287153611
 20
-21.180229375
 10
-19.7252999836
 20
-21.1846630802
 10
-19.7219410059
 20
-21.1892070195
 10
-19.7186454216
 20
-21.1938568086
 10
-19.7154202239
 20
-21.1986080632
 10
-19.7122726604
 20
-21.203454946
 10
-19.7092109939
 20
-21.2083858082
 10
-19.7062437413
 20
-21.213387548
 10
-19.7033794193
 20
-21.2184470638
 10
-19.7006265448
 20
-21.2235512538
 10
-19.6979936346
 20
-21.2286870163
 10
-19.6954892055
 20
-21.2338412495
 10
-19.6934092331
 20
-21.2383566439
 10
-19.6914357329
 20
-21.2428709007
 10
-19.6895702885
 20
-21.2473787718
 10
-19.687814483
 20
-21.251875009
 10
-19.6861701551
 20
-21.256352959
 10
-19.6846401646
 20
-21.2608003478
 10
-19.6832276266
 20
-21.2652034966
 10
-19.6819356561
 20
-21.2695487262
 10
-19.6807663427
 20
-21.2738250223
 10
-19.6797176734
 20
-21.2780320289
 10
-19.6787866097
 20
-21.2821720545
 10
-19.6779701131
 20
-21.2862474077
 10
-19.6772656065
 20
-21.2902615037
 10
-19.6766723597
 20
-21.2942221845
 10
-19.6761901037
 20
-21.2981383985
 10
-19.6758185697
 20
-21.3020190944
  0
LWPOLYLINE
  5
277
100
AcDbEntity
  8
CURVE
100
AcDbPolyline
 62
253
  6
CONTINUOUS
 90
7
 70
0
 10
-21.0477009132
 20
-19.0806364715
 10
-21.0320524871
 20
-19.3274656442
 10
-21.0156306551
 20
-19.573783632
 10
-20.9984356176
 20
-19.8195874334
 10
-20.9804675838
 20
-20.0648740535
 10
-20.9617267729
 20
-20.3096405035
 10
-20.925134081
 20
-20.759723195
  0
LWPOLYLINE
  5
278
100
AcDbEntity
  8
CURVE
100
AcDbPolyline
 62
253
  6
CONTINUOUS
 90
87
 70
0
 10
-20.0647585842
 20
-20.4577884259
 10
-20.0652793896
 20
-20.4487532192
 10
-20.0655037972
 20
-20.4400217537
 10
-20.0654384003
 20
-20.4315691112
 10
-20.0650897923
 20
-20.4233703734
 10
-20.0644645668
 20
-20.4154006219
 10
-20.0635677772
 20
-20.4076399511
 10
-20.0623983174
 20
-20.4000885063
 10
-20.0609535417
 20
-20.3927514454
 10
-20.0592308041
 20
-20.3856339261
 10
-20.0572274588
 20
-20.3787411063
 10
-20.054942068
 20
-20.3720798545
 10
-20.052378027
 20
-20.3656638804
 10
-20.0495399395
 20
-20.3595086045
 10
-20.0464324089
 20
-20.353629447
 10
-20.0430600389
 20
-20.3480418284
 10
-20.0394279849
 20
-20.3427595143
 10
-20.0355436107
 20
-20.3377896518
 10
-20.0314148321
 20
-20.3331377333
 10
-20.027049565
 20
-20.3288092512
 10
-20.0224557251
 20
-20.3248096978
 10
-20.0176407452
 20
-20.3211438491
 10
-20.0126101262
 20
-20.3178136145
 10
-20.0073688862
 20
-20.3148201867
 10
-20.0019220431
 20
-20.3121647587
 10
-19.9962746148
 20
-20.3098485233
 10
-19.9904319138
 20
-20.3078728357
 10
-19.9844004299
 20
-20.3062397008
 10
-19.9781869475
 20
-20.3049512862
 10
-19.971798251
 20
-20.304009759
 10
-19.9652411246
 20
-20.3034172868
 10
-19.9577666015
 20
-20.3031702945
 10
-19.9501045965
 20
-20.3033556148
 10
-19.9422671902
 20
-20.3039719529
 10
-19.9342664631
 20
-20.3050180137
 10
-19.9261144957
 20
-20.3064925021
 10
-19.9178233684
 20
-20.3083941233
 10
-19.9094051618
 20
-20.3107215821
 10
-19.9008719564
 20
-20.3134735835
 10
-19.8922358327
 20
-20.3166488326
 10
-19.8835093688
 20
-20.3202446774
 10
-19.8747071333
 20
-20.3242530389
 10
-19.8658441924
 20
-20.328664481
 10
-19.8569356124
 20
-20.3334695678
 10
-19.8479964594
 20
-20.3386588632
 10
-19.8390417997
 20
-20.3442229314
 10
-19.8300866996
 20
-20.3501523362
 10
-19.8211462251
 20
-20.3564376417
 10
-19.8122354426
 20
-20.3630694119
 10
-19.803368688
 20
-20.3700381056
 10
-19.7945573768
 20
-20.3773337611
 10
-19.7858121941
 20
-20.3849463113
 10
-19.7771438251
 20
-20.3928656893
 10
-19.768562955
 20
-20.401081828
 10
-19.7600802688
 20
-20.4095846605
 10
-19.7517064519
 20
-20.4183641198
 10
-19.7434521894
 20
-20.4274101389
 10
-19.7353281664
 20
-20.4367126508
 10
-19.7273454537
 20
-20.4462602388
 10
-19.719516665
 20
-20.4560360879
 10
-19.7118547993
 20
-20.4660220332
 10
-19.7043728558
 20
-20.47619991
 10
-19.6970838336
 20
-20.4865515535
 10
-19.690000732
 20
-20.4970587989
 10
-19.68313655
 20
-20.5077034814
 10
-19.6765042868
 20
-20.5184674362
 10
-19.6701169415
 20
-20.5293324986
 10
-19.6645876287
 20
-20.5391829889
 10
-19.6592716004
 20
-20.5490904228
 10
-19.6541732282
 20
-20.5590445601
 10
-19.6492968837
 20
-20.5690351608
 10
-19.6446469387
 20
-20.5790519849
 10
-19.640228188
 20
-20.5890831545
 10
-19.6360471192
 20
-20.5991102412
 10
-19.6321106433
 20
-20.6091131787
 10
-19.6284256713
 20
-20.6190719008
 10
-19.6249991141
 20
-20.6289663414
 10
-19.6218364575
 20
-20.6387791631
 10
-19.6189374868
 20
-20.6485039435
 10
-19.6163005623
 20
-20.6581369891
 10
-19.613924044
 20
-20.6676746065
 10
-19.6118062921
 20
-20.677113102
 10
-19.6099464473
 20
-20.6864526018
 10
-19.6083467712
 20
-20.6957085094
 10
-19.6070103059
 20
-20.7049000481
 10
-19.6059400936
 20
-20.7140464411
 10
-19.6051391764
 20
-20.7231669116
  0
LWPOLYLINE
  5
279
100
AcDbEntity
  8
0
100
AcDbPolyline
 62
253
  6
CONTINUOUS
 90
34
 70
0
 10
-20.8926467906
 20
16.6924313066
 10
-20.8924479878
 20
16.7022237882
 10
-20.8918520255
 20
16.712223832
 10
-20.8908602424
 20
16.7224089466
 10
-20.8894748663
 20
16.7327562309
 10
-20.8876990122
 20
16.7432424059
 10
-20.8855366771
 20
16.7538438661
 10
-20.8829927265
 20
16.7645367605
 10
-20.8800728817
 20
16.7752970441
 10
-20.8767837118
 20
16.7861005112
 10
-20.8731326148
 20
16.7969228642
 10
-20.8691278042
 20
16.8077397595
 10
-20.864778292
 20
16.8185268595
 10
-20.8600938633
 20
16.8292599003
 10
-20.8550850553
 20
16.8399147431
 10
-20.8497631367
 20
16.8504674204
 10
-20.8441400763
 20
16.8608942032
 10
-20.8382285256
 20
16.8711716352
 10
-20.8320417939
 20
16.8812765832
 10
-20.8255938173
 20
16.8911862943
 10
-20.818899084
 20
16.900878511
 10
-20.8119726078
 20
16.9103314982
 10
-20.8048298974
 20
16.9195240775
 10
-20.7974870799
 20
16.9284354813
 10
-20.7899608332
 20
16.9370454816
 10
-20.782268199
 20
16.9453346215
 10
-20.7744263864
 20
16.9532843957
 10
-20.7664528874
 20
16.9608770851
 10
-20.75836441
 20
16.9680966707
 10
-20.7501803387
 20
16.974925743
 10
-20.7419226679
 20
16.9813462536
 10
-20.7336112472
 20
16.9873434728
 10
-20.7252636148
 20
16.9929054444
 10
-20.7168985346
 20
16.9980202618
  0
LWPOLYLINE
  5
27A
100
AcDbEntity
  8
0
100
AcDbPolyline
 62
253
  6
CONTINUOUS
 90
27
 70
0
 10
-18.8615867605
 20
15.4021522082
 10
-18.866007286
 20
15.391462839
 10
-18.8708144814
 20
15.3810292943
 10
-18.8759974969
 20
15.370875122
 10
-18.881544635
 20
15.3610232394
 10
-18.887443376
 20
15.3514958817
 10
-18.8936804069
 20
15.3423145514
 10
-18.9002416509
 20
15.3334999705
 10
-18.9071122998
 20
15.3250720328
 10
-18.914276847
 20
15.3170497597
 10
-18.9217191224
 20
15.309451257
 10
-18.9294223294
 20
15.3022936741
 10
-18.9373690821
 20
15.2955931652
 10
-18.9455414453
 20
15.2893648529
 10
-18.9539209744
 20
15.2836227943
 10
-18.9624887573
 20
15.2783799488
 10
-18.971225457
 20
15.2736481491
 10
-18.9801113554
 20
15.2694380747
 10
-18.9891263975
 20
15.2657592275
 10
-18.9982502368
 20
15.2626199103
 10
-19.0074622813
 20
15.2600272085
 10
-19.0167417402
 20
15.2579869737
 10
-19.0260676701
 20
15.2565038105
 10
-19.0354190229
 20
15.2555810663
 10
-19.0447746933
 20
15.2552208237
 10
-19.0541135661
 20
15.2554238958
 10
-19.0602553353
 20
15.2558661119
  0
LWPOLYLINE
  5
27B
100
AcDbEntity
  8
0
100
AcDbPolyline
 62
7
  6
CONTINUOUS
 90
6
 70
0
 10
-16.7143387974
 20
16.5702568912
 10
-16.6959498676
 20
16.5966497434
 10
-16.6811318489
 20
16.6251176831
 10
-16.6700955657
 20
16.6552066443
 10
-16.6629895789
 20
16.686521282
 10
-16.6599550124
 20
16.7185224932
  0
LINE
  5
27C
100
AcDbEntity
  8
0
100
AcDbLine
 62
253
  6
CONTINUOUS
 10
-17.2603059697
 20
15.9617884296
 11
-16.732038798
 21
16.624600696
  0
LINE
  5
27D
100
AcDbEntity
  8
0
100
AcDbLine
 62
7
  6
CONTINUOUS
 10
-17.2603059697
 20
15.8852365867
 11
-16.7143387974
 21
16.5702568912
  0
LINE
  5
27E
100
AcDbEntity
  8
0
100
AcDbLine
 62
7
  6
CONTINUOUS
 10
-17.2603059697
 20
15.1367573409
 11
-18.1503661524
 21
14.5752438592
  0
LWPOLYLINE
  5
27F
100
AcDbEntity
  8
0
100
AcDbPolyline
 62
7
  6
CONTINUOUS
 90
34
 70
0
 10
-18.1503661524
 20
14.5752438592
 10
-18.1588648543
 20
14.5701172292
 10
-18.1676899626
 20
14.5652435945
 10
-18.1768414772
 20
14.5606229554
 10
-18.1863440664
 20
14.5562451893
 10
-18.1961730621
 20
14.5521204186
 10
-18.2062544591
 20
14.5482790105
 10
-18.2165811575
 20
14.5447255989
 10
-18.2271602572
 20
14.5414555499
 10
-18.2379390529
 20
14.5384853284
 10
-18.2489311446
 20
14.5358139566
 10
-18.2601229322
 20
14.5334424123
 10
-18.2714209108
 20
14.5313900931
 10
-18.2828108704
 20
14.5296614255
 10
-18.294307021
 20
14.528251983
 10
-18.3058584875
 20
14.5271678832
 10
-18.3174816537
 20
14.5264099915
 10
-18.329160136
 20
14.5259774425
 10
-18.3407939085
 20
14.5258737575
 10
-18.3523669028
 20
14.5261010704
 10
-18.3638951873
 20
14.5266572473
 10
-18.3753269418
 20
14.5275394087
 10
-18.3866753669
 20
14.5287507282
 10
-18.397927262
 20
14.5302880322
 10
-18.4089912049
 20
14.5321389201
 10
-18.4198550605
 20
14.5343036852
 10
-18.4305309638
 20
14.5367820342
 10
-18.4409638972
 20
14.5395606866
 10
-18.4511299253
 20
14.5426294793
 10
-18.4610529835
 20
14.5459985754
 10
-18.4707498601
 20
14.5496851841
 10
-18.4802261515
 20
14.5536950416
 10
-18.4894762613
 20
14.5580224117
 10
-18.4985001897
 20
14.5626672943
  0
LINE
  5
280
100
AcDbEntity
  8
RACCORDO
100
AcDbLine
 62
7
  6
CONTINUOUS
 10
3.6065404152
 20
26.8995302542
 11
10.3348132211
 21
30.881082322
  0
LINE
  5
281
100
AcDbEntity
  8
ASSI
100
AcDbLine
 62
7
  6
CONTINUOUS
 10
3.6065404152
 20
26.8995302542
 11
10.3348132211
 21
30.881082322
  0
LINE
  5
282
100
AcDbEntity
  8
RACCORDO
100
AcDbLine
 62
253
  6
CONTINUOUS
 10
10.3348132211
 20
30.881082322
 11
10.3379244554
 21
30.8829008572
  0
LINE
  5
283
100
AcDbEntity
  8
ASSI
100
AcDbLine
 62
253
  6
CONTINUOUS
 10
10.3348132211
 20
30.881082322
 11
10.3379244554
 21
30.8829008572
  0
LINE
  5
284
100
AcDbEntity
  8
RACCORDO
100
AcDbLine
 62
253
  6
CONTINUOUS
 10
3.6141670015
 20
26.8981819631
 11
10.7776769829
 21
31.1367593809
  0
LINE
  5
285
100
AcDbEntity
  8
ASSI
100
AcDbLine
 62
253
  6
CONTINUOUS
 10
3.6141670015
 20
26.8981819631
 11
10.7776769829
 21
31.1367593809
  0
LINE
  5
286
100
AcDbEntity
  8
RACCORDO
100
AcDbLine
 62
7
  6
CONTINUOUS
 10
10.3347921089
 20
30.8810686317
 11
10.3379244554
 21
30.8829008572
  0
LINE
  5
287
100
AcDbEntity
  8
ASSI
100
AcDbLine
 62
7
  6
CONTINUOUS
 10
10.3347921089
 20
30.8810686317
 11
10.3379244554
 21
30.8829008572
  0
LINE
  5
288
100
AcDbEntity
  8
0
100
AcDbLine
 62
253
  6
CONTINUOUS
 10
-19.0383604642
 20
16.028853417
 11
-16.9088125017
 21
17.2584270324
  0
LINE
  5
289
100
AcDbEntity
  8
0
100
AcDbLine
 62
253
  6
CONTINUOUS
 10
-18.8615867605
 20
15.7226723811
 11
-16.732038798
 21
16.9522459965
  0
LINE
  5
28A
100
AcDbEntity
  8
ASSI
100
AcDbLine
 62
7
  6
CONTINUOUS
 10
3.4169429216
 20
26.8716417646
 11
-9.0579066796
 21
19.6688199515
  0
LINE
  5
28B
100
AcDbEntity
  8
ASSI
100
AcDbLine
 62
253
  6
CONTINUOUS
 10
3.7719429216
 20
26.836457625
 11
-8.849938284
 21
19.5487416063
  0
LINE
  5
28C
100
AcDbEntity
  8
RACCORDO
100
AcDbLine
 62
7
  6
CONTINUOUS
 10
10.7776769829
 20
31.1367593809
 11
10.3379244554
 21
30.8829008572
  0
LINE
  5
28D
100
AcDbEntity
  8
ASSI
100
AcDbLine
 62
7
  6
CONTINUOUS
 10
10.7776769829
 20
31.1367593809
 11
10.3379244554
 21
30.8829008572
  0
LINE
  5
28E
100
AcDbEntity
  8
0
100
AcDbLine
 62
7
  6
CONTINUOUS
 10
-9.4359742001
 20
19.5535991851
 11
-16.5573130154
 21
15.5426571213
  0
LWPOLYLINE
  5
28F
100
AcDbEntity
  8
0
100
AcDbPolyline
 62
253
  6
CONTINUOUS
 90
16
 70
0
 10
-18.7150141213
 20
18.2519511774
 10
-18.7085314405
 20
18.2543857704
 10
-18.7018045102
 20
18.2563119779
 10
-18.6948485286
 20
18.257725449
 10
-18.6876791867
 20
18.2586229824
 10
-18.680312791
 20
18.2590025246
 10
-18.672766194
 20
18.2588632197
 10
-18.6650566079
 20
18.2582054244
 10
-18.6572014087
 20
18.2570306595
 10
-18.64921825
 20
18.2553415788
 10
-18.6411240024
 20
18.2531416424
 10
-18.6329381917
 20
18.2504360497
 10
-18.6246829255
 20
18.2472324133
 10
-18.6163781698
 20
18.2435391885
 10
-18.6080415883
 20
18.2393649325
 10
-18.5996920528
 20
18.2347196936
  0
LINE
  5
290
100
AcDbEntity
  8
CURVE
100
AcDbLine
 62
253
  6
CONTINUOUS
 10
-21.1981761851
 20
-18.8868974055
 11
-21.1936727339
 21
-18.88776597
  0
LINE
  5
291
100
AcDbEntity
  8
0
100
AcDbLine
 62
7
  6
CONTINUOUS
 10
-5.3287152598
 20
-22.0649365433
 11
-5.3455567067
 21
-22.055212503
  0
LWPOLYLINE
  5
292
100
AcDbEntity
  8
0
100
AcDbPolyline
 62
7
  6
CONTINUOUS
 90
9
 70
0
 10
-4.4359714851
 20
-29.1311835072
 10
-4.4162627732
 20
-29.1517158354
 10
-4.3990294642
 20
-29.1743348044
 10
-4.3844702247
 20
-29.1987760209
 10
-4.3726773052
 20
-29.2249864046
 10
-4.363896122
 20
-29.252669389
 10
-4.3583705945
 20
-29.2812895389
 10
-4.3562120957
 20
-29.3104724644
 10
-4.356182959
 20
-29.3143320893
  0
LWPOLYLINE
  5
293
100
AcDbEntity
  8
0
100
AcDbPolyline
 62
253
  6
CONTINUOUS
 90
34
 70
0
 10
-6.5579287679
 20
-30.6382115027
 10
-6.5623492934
 20
-30.6321097238
 10
-6.5671564887
 20
-30.625790017
 10
-6.5723395043
 20
-30.6192666456
 10
-6.5778866424
 20
-30.6125543324
 10
-6.5837853834
 20
-30.6056682267
 10
-6.5900224142
 20
-30.5986238701
 10
-6.5965836583
 20
-30.5914371612
 10
-6.6034543072
 20
-30.58412432
 10
-6.6106188544
 20
-30.5767018512
 10
-6.6180611298
 20
-30.5691865069
 10
-6.6257643367
 20
-30.5615952487
 10
-6.6337110894
 20
-30.5539452097
 10
-6.6418834526
 20
-30.5462536555
 10
-6.6502629817
 20
-30.5385379455
 10
-6.6588307646
 20
-30.5308154937
 10
-6.6675674644
 20
-30.5231037291
 10
-6.6764533628
 20
-30.5154200567
 10
-6.6854684048
 20
-30.5077818182
 10
-6.6945922441
 20
-30.5002062526
 10
-6.7038042887
 20
-30.4927104575
 10
-6.7130837475
 20
-30.4853113504
 10
-6.7224096774
 20
-30.4780256308
 10
-6.7317610303
 20
-30.470869742
 10
-6.7411167007
 20
-30.4638598345
 10
-6.7504555734
 20
-30.4570117292
 10
-6.7597565712
 20
-30.4503408818
 10
-6.7689987023
 20
-30.4438623482
 10
-6.7781611076
 20
-30.4375907499
 10
-6.7872231083
 20
-30.4315402416
 10
-6.7961642518
 20
-30.425724479
 10
-6.8049643586
 20
-30.4201565878
 10
-6.8136035674
 20
-30.4148491345
 10
-6.8220623799
 20
-30.4098140976
  0
LWPOLYLINE
  5
294
100
AcDbEntity
  8
CURVE
100
AcDbPolyline
 62
253
  6
CONTINUOUS
 90
87
 70
0
 10
-19.6563204874
 20
-21.5357738111
 10
-19.6560507221
 20
-21.5395811105
 10
-19.6558966362
 20
-21.5432928993
 10
-19.6558569607
 20
-21.5469186628
 10
-19.6559304267
 20
-21.5504678862
 10
-19.6561164665
 20
-21.5539482832
 10
-19.6564173171
 20
-21.5573604811
 10
-19.6568359168
 20
-21.5607033358
 10
-19.6573752039
 20
-21.5639757029
 10
-19.6580374543
 20
-21.5671747617
 10
-19.6588222949
 20
-21.5702909855
 10
-19.65972869
 20
-21.573313171
 10
-19.6607556041
 20
-21.576230115
 10
-19.661902037
 20
-21.5790318463
 10
-19.6631671291
 20
-21.5817133219
 10
-19.6645500563
 20
-21.5842707309
 10
-19.6660499944
 20
-21.5867002624
 10
-19.667905457
 20
-21.5893156767
 10
-19.6699056011
 20
-21.5917550814
 10
-19.6720433543
 20
-21.5940144684
 10
-19.6743116441
 20
-21.5960898292
 10
-19.676703398
 20
-21.5979771556
 10
-19.6792115437
 20
-21.5996724391
 10
-19.6818290086
 20
-21.6011716716
 10
-19.6845487429
 20
-21.6024721264
 10
-19.6873637873
 20
-21.6035762048
 10
-19.6902672051
 20
-21.6044875896
 10
-19.6932520596
 20
-21.6052099637
 10
-19.6963114142
 20
-21.6057470102
 10
-19.6994383322
 20
-21.606102412
 10
-19.7026258768
 20
-21.6062798519
 10
-19.7058681539
 20
-21.6062826737
 10
-19.7091634388
 20
-21.6061128637
 10
-19.7125110494
 20
-21.6057720689
 10
-19.7159103036
 20
-21.6052619364
 10
-19.719360519
 20
-21.6045841133
 10
-19.7228610136
 20
-21.6037402465
 10
-19.7264111053
 20
-21.6027319831
 10
-19.7306134814
 20
-21.6013500903
 10
-19.7348743175
 20
-21.5997492702
 10
-19.7391854953
 20
-21.5979321156
 10
-19.7435388961
 20
-21.5959012192
 10
-19.7479264016
 20
-21.593659174
 10
-19.7523398932
 20
-21.5912085728
 10
-19.7567711867
 20
-21.588552744
 10
-19.7612118352
 20
-21.5856979589
 10
-19.7656533256
 20
-21.582651224
 10
-19.7700871454
 20
-21.5794195464
 10
-19.7745047815
 20
-21.5760099325
 10
-19.7788977213
 20
-21.5724293894
 10
-19.7826378038
 20
-21.5692287186
 10
-19.7863530153
 20
-21.5659066321
 10
-19.7900428832
 20
-21.5624621468
 10
-19.793706935
 20
-21.5588942799
 10
-19.7973446982
 20
-21.5552020486
 10
-19.8009557004
 20
-21.5513844699
 10
-19.8045394691
 20
-21.547440561
 10
-19.8080944379
 20
-21.5433702337
 10
-19.8116146652
 20
-21.5391769784
 10
-19.8150931159
 20
-21.5348651804
 10
-19.8185227544
 20
-21.530439225
 10
-19.8218965454
 20
-21.5259034973
 10
-19.8252074536
 20
-21.5212623825
 10
-19.8284484435
 20
-21.5165202659
 10
-19.8316122232
 20
-21.5116829758
 10
-19.8346904735
 20
-21.5067621132
 10
-19.8376746186
 20
-21.501770722
 10
-19.8405560826
 20
-21.4967218463
 10
-19.8433262897
 20
-21.4916285301
 10
-19.8459766642
 20
-21.4865038175
 10
-19.8484986301
 20
-21.4813607525
 10
-19.8505939616
 20
-21.4768551841
 10
-19.8525827983
 20
-21.4723507731
 10
-19.8544635241
 20
-21.4678527411
 10
-19.8562345228
 20
-21.4633663095
 10
-19.8578939195
 20
-21.4588981022
 10
-19.8594388044
 20
-21.454460351
 10
-19.860866009
 20
-21.4500666901
 10
-19.8621723646
 20
-21.4457307535
 10
-19.8633557375
 20
-21.4414635182
 10
-19.8644181337
 20
-21.4372653328
 10
-19.8653625937
 20
-21.4331338889
 10
-19.8661921581
 20
-21.429066878
 10
-19.8669094097
 20
-21.4250608893
 10
-19.8675150985
 20
-21.421108102
 10
-19.8680095168
 20
-21.4171995928
 10
-19.8683929566
 20
-21.4133264385
  0
LINE
  5
295
100
AcDbEntity
  8
CURVE
100
AcDbLine
 62
253
  6
CONTINUOUS
 10
-19.9828189534
 20
-19.8791261442
 11
-19.9976496836
 21
-19.6426772354
  0
LINE
  5
296
100
AcDbEntity
  8
CURVE
100
AcDbLine
 62
253
  6
CONTINUOUS
 10
-19.7855771197
 20
-19.7651259048
 11
-19.7707463876
 21
-20.0015748123
  0
LWPOLYLINE
  5
297
100
AcDbEntity
  8
CURVE
100
AcDbPolyline
 62
253
  6
CONTINUOUS
 90
87
 70
0
 10
-19.6051391764
 20
-20.7231669116
 10
-19.6046172434
 20
-20.7322032382
 10
-19.6043897468
 20
-20.7409344423
 10
-19.6044501343
 20
-20.7493854817
 10
-19.6047918535
 20
-20.7575813143
 10
-19.605408352
 20
-20.7655468982
 10
-19.6062946177
 20
-20.7733021793
 10
-19.6074517986
 20
-20.7808470568
 10
-19.6088825831
 20
-20.7881764177
 10
-19.6105896592
 20
-20.7952851494
 10
-19.6125757154
 20
-20.802168139
 10
-19.6148422436
 20
-20.8088185636
 10
-19.6173859519
 20
-20.8152227598
 10
-19.620202352
 20
-20.8213653542
 10
-19.6232869557
 20
-20.8272309733
 10
-19.6266352748
 20
-20.8328042435
 10
-19.630242271
 20
-20.838071454
 10
-19.6341007059
 20
-20.8430255448
 10
-19.6382027908
 20
-20.8476611183
 10
-19.6425407371
 20
-20.8519727771
 10
-19.6471067563
 20
-20.8559551237
 10
-19.6518935435
 20
-20.8596034775
 10
-19.6568957283
 20
-20.8629160243
 10
-19.662108424
 20
-20.8658916669
 10
-19.6675267441
 20
-20.868529308
 10
-19.6731458019
 20
-20.8708278504
 10
-19.6789604145
 20
-20.8727860341
 10
-19.6849642138
 20
-20.8744019489
 10
-19.6911505356
 20
-20.875673522
 10
-19.6975127156
 20
-20.8765986805
 10
-19.7040440896
 20
-20.8771753516
 10
-19.7114910373
 20
-20.8774055615
 10
-19.7191267007
 20
-20.8772043688
 10
-19.7269391412
 20
-20.8765731611
 10
-19.7349164206
 20
-20.8755133262
 10
-19.7430466006
 20
-20.8740262518
 10
-19.7513177427
 20
-20.8721133257
 10
-19.7597179087
 20
-20.8697759356
 10
-19.7682351602
 20
-20.8670154692
 10
-19.7768575588
 20
-20.8638333142
 10
-19.785572648
 20
-20.860232197
 10
-19.7943658986
 20
-20.856220198
 10
-19.8032222631
 20
-20.8518067363
 10
-19.8121266942
 20
-20.8470012308
 10
-19.8210641442
 20
-20.8418131006
 10
-19.830019566
 20
-20.8362517647
 10
-19.8389779118
 20
-20.8303266422
 10
-19.8479241345
 20
-20.8240471521
 10
-19.8568431865
 20
-20.8174227134
 10
-19.8657207289
 20
-20.8104628363
 10
-19.8745452572
 20
-20.8031773958
 10
-19.8833059756
 20
-20.7955763579
 10
-19.8919920879
 20
-20.7876696888
 10
-19.9005927984
 20
-20.7794673546
 10
-19.909097311
 20
-20.7709793215
 10
-19.9174948298
 20
-20.7622155555
 10
-19.9257745588
 20
-20.7531860227
 10
-19.9339257021
 20
-20.7439006893
 10
-19.9419370606
 20
-20.7343708673
 10
-19.9497958222
 20
-20.7246132521
 10
-19.9574887718
 20
-20.7146458852
 10
-19.9650026944
 20
-20.7044868078
 10
-19.9723243746
 20
-20.6941540614
 10
-19.9794405974
 20
-20.6836656874
 10
-19.9863381476
 20
-20.6730397271
 10
-19.9930038101
 20
-20.6622942218
 10
-19.9994243696
 20
-20.651447213
 10
-20.0049832401
 20
-20.6416125357
 10
-20.0103283523
 20
-20.6317204357
 10
-20.0154551857
 20
-20.6217810949
 10
-20.0203592197
 20
-20.6118046949
 10
-20.0250359337
 20
-20.6018014175
 10
-20.0294803859
 20
-20.5917830892
 10
-20.0336859495
 20
-20.5817681158
 10
-20.0376455767
 20
-20.5717765479
 10
-20.0413522194
 20
-20.561828436
 10
-20.0447988298
 20
-20.5519438308
 10
-20.0479798042
 20
-20.5421400461
 10
-20.0508953163
 20
-20.5324234492
 10
-20.0535469837
 20
-20.5227976705
 10
-20.0559364245
 20
-20.5132663406
 10
-20.0580652566
 20
-20.5038330901
 10
-20.0599343111
 20
-20.4944977361
 10
-20.0615412729
 20
-20.4852448423
 10
-20.0628830402
 20
-20.4760551591
 10
-20.0639565112
 20
-20.4669094369
 10
-20.0647585842
 20
-20.4577884259
  0
LWPOLYLINE
  5
298
100
AcDbEntity
  8
CURVE
100
AcDbPolyline
 62
253
  6
CONTINUOUS
 90
86
 70
0
 10
-19.7707466806
 20
-20.0015746447
 10
-19.7705269766
 20
-20.0061796207
 10
-19.7704694625
 20
-20.0105945877
 10
-19.7705692624
 20
-20.0148331887
 10
-19.7708215006
 20
-20.0189090668
 10
-19.7712213013
 20
-20.0228358649
 10
-19.7717637887
 20
-20.026627226
 10
-19.7724449347
 20
-20.0302940248
 10
-19.7732641019
 20
-20.0338360624
 10
-19.7742215004
 20
-20.0372503713
 10
-19.7753173406
 20
-20.0405339841
 10
-19.7765518326
 20
-20.0436839336
 10
-19.7779251866
 20
-20.0466972522
 10
-19.7794369984
 20
-20.0495706125
 10
-19.7810844058
 20
-20.0522992457
 10
-19.782863932
 20
-20.054878023
 10
-19.7847721005
 20
-20.0573018156
 10
-19.7868054345
 20
-20.0595654946
 10
-19.7889604573
 20
-20.061663931
 10
-19.7912336121
 20
-20.0635926565
 10
-19.7936210224
 20
-20.065349844
 10
-19.7961187311
 20
-20.0669343269
 10
-19.7987227816
 20
-20.0683449387
 10
-19.801429217
 20
-20.0695805127
 10
-19.8042340805
 20
-20.0706398823
 10
-19.8071334476
 20
-20.0715220636
 10
-19.8101235223
 20
-20.0722268031
 10
-19.8132005412
 20
-20.0727540302
 10
-19.8163607405
 20
-20.0731036741
 10
-19.8196003566
 20
-20.073275664
 10
-19.822915626
 20
-20.0732699292
 10
-19.8263028871
 20
-20.0730863975
 10
-19.829758886
 20
-20.0727249907
 10
-19.8332804714
 20
-20.0721856293
 10
-19.8368644914
 20
-20.0714682336
 10
-19.8405077944
 20
-20.0705727239
 10
-19.8442072288
 20
-20.0694990207
 10
-19.8479591245
 20
-20.0682473764
 10
-19.8517577373
 20
-20.0668193718
 10
-19.8555968043
 20
-20.06521692
 10
-19.8594700631
 20
-20.063441934
 10
-19.8633712507
 20
-20.0614963265
 10
-19.8672941046
 20
-20.0593820107
 10
-19.8712322691
 20
-20.0571014082
 10
-19.8751790164
 20
-20.0546589755
 10
-19.8791275261
 20
-20.0520596781
 10
-19.8830709774
 20
-20.0493084812
 10
-19.8870025497
 20
-20.0464103502
 10
-19.8909154225
 20
-20.0433702503
 10
-19.8948033203
 20
-20.0401929574
 10
-19.8986621484
 20
-20.0368824888
 10
-19.9024883573
 20
-20.0334426725
 10
-19.9062783976
 20
-20.0298773362
 10
-19.9100287196
 20
-20.0261903078
 10
-19.9137357738
 20
-20.0223854152
 10
-19.9173962904
 20
-20.0184657969
 10
-19.921008117
 20
-20.0144318344
 10
-19.9245693809
 20
-20.0102832195
 10
-19.9280782095
 20
-20.0060196445
 10
-19.93153273
 20
-20.0016408013
 10
-19.9349310698
 20
-19.997146382
 10
-19.938270075
 20
-19.9925379695
 10
-19.9415414679
 20
-19.9878247103
 10
-19.9447356896
 20
-19.9830176416
 10
-19.9478431811
 20
-19.9781278008
 10
-19.9508543837
 20
-19.9731662253
 10
-19.9537597385
 20
-19.9681439523
 10
-19.9565503227
 20
-19.9630726621
 10
-19.9592197589
 20
-19.9579666072
 10
-19.9617623055
 20
-19.9528406827
 10
-19.9641722212
 20
-19.9477097841
 10
-19.9664437645
 20
-19.9425888066
 10
-19.9685711941
 20
-19.9374926456
 10
-19.9705500649
 20
-19.9324337765
 10
-19.9723811174
 20
-19.9274149957
 10
-19.9740663883
 20
-19.9224366795
 10
-19.9756079144
 20
-19.9174992045
 10
-19.9770077326
 20
-19.9126029471
 10
-19.9782678795
 20
-19.9077482837
 10
-19.9792378272
 20
-19.9036194007
 10
-19.9801046064
 20
-19.8995147876
 10
-19.9808661677
 20
-19.8954278788
 10
-19.9815204617
 20
-19.8913521087
 10
-19.9820654391
 20
-19.8872809118
 10
-19.9824990505
 20
-19.8832077224
 10
-19.9828192465
 20
-19.879125975
  0
LWPOLYLINE
  5
299
100
AcDbEntity
  8
CURVE
100
AcDbPolyline
 62
253
  6
CONTINUOUS
 90
86
 70
0
 10
-19.9976493906
 20
-19.6426774031
 10
-19.9978547748
 20
-19.6380649775
 10
-19.9978978051
 20
-19.6336423566
 10
-19.9977833366
 20
-19.6293958889
 10
-19.9975162243
 20
-19.6253119224
 10
-19.9971013235
 20
-19.6213768055
 10
-19.9965434892
 20
-19.6175768865
 10
-19.995846737
 20
-19.6139012878
 10
-19.9950117248
 20
-19.6103502287
 10
-19.9940382709
 20
-19.6069267024
 10
-19.9929261936
 20
-19.6036337024
 10
-19.9916753111
 20
-19.6004742221
 10
-19.9902854419
 20
-19.5974512549
 10
-19.9887570232
 20
-19.594568154
 10
-19.9870929674
 20
-19.5918297122
 10
-19.9852968063
 20
-19.589241082
 10
-19.9833720714
 20
-19.5868074162
 10
-19.981322294
 20
-19.5845338672
 10
-19.9791510059
 20
-19.5824255877
 10
-19.9768618136
 20
-19.5804870715
 10
-19.9744586244
 20
-19.5787201768
 10
-19.9719454206
 20
-19.5771261034
 10
-19.9693261846
 20
-19.5757060507
 10
-19.9666048988
 20
-19.5744612182
 10
-19.9637855454
 20
-19.5733928056
 10
-19.9608720785
 20
-19.5725018301
 10
-19.9578683386
 20
-19.5717885804
 10
-19.954778138
 20
-19.5712531631
 10
-19.9516052889
 20
-19.5708956846
 10
-19.9483536035
 20
-19.5707162515
 10
-19.945026894
 20
-19.5707149703
 10
-19.9416288679
 20
-19.5708919455
 10
-19.9381628131
 20
-19.5712472745
 10
-19.934631913
 20
-19.5717810528
 10
-19.9310393508
 20
-19.5724933756
 10
-19.9273883097
 20
-19.5733843386
 10
-19.9236819731
 20
-19.574454037
 10
-19.9199240405
 20
-19.5757022336
 10
-19.9161202772
 20
-19.5771273595
 10
-19.9122769648
 20
-19.5787275133
 10
-19.9084003849
 20
-19.5805007935
 10
-19.9044968192
 20
-19.5824452985
 10
-19.9005725494
 20
-19.5845591269
 10
-19.896633946
 20
-19.5868398642
 10
-19.8926877364
 20
-19.5892830451
 10
-19.8887407367
 20
-19.5918836914
 10
-19.8847997633
 20
-19.5946368249
 10
-19.8808716324
 20
-19.5975374674
 10
-19.8769631602
 20
-19.6005806407
 10
-19.8730806138
 20
-19.6037615557
 10
-19.869228063
 20
-19.6070761795
 10
-19.8654090285
 20
-19.6105206685
 10
-19.861627031
 20
-19.6140911787
 10
-19.8578855909
 20
-19.6177838665
 10
-19.8541882291
 20
-19.621594888
 10
-19.8505381879
 20
-19.6255210907
 10
-19.8469375975
 20
-19.6295620861
 10
-19.8433883096
 20
-19.633718177
 10
-19.8398921764
 20
-19.6379896661
 10
-19.8364510496
 20
-19.6423768562
 10
-19.8330667811
 20
-19.6468800499
 10
-19.8297424982
 20
-19.6514976516
 10
-19.8264864282
 20
-19.6562204717
 10
-19.823308074
 20
-19.6610374222
 10
-19.8202169383
 20
-19.6659374149
 10
-19.8172225238
 20
-19.6709093619
 10
-19.8143343332
 20
-19.6759421752
 10
-19.8115612291
 20
-19.6810241215
 10
-19.8089095126
 20
-19.686140887
 10
-19.8063848451
 20
-19.6912775129
 10
-19.8039928874
 20
-19.6964190402
 10
-19.8017393008
 20
-19.70155051
 10
-19.7996297462
 20
-19.7066569633
 10
-19.7976685972
 20
-19.7117258705
 10
-19.7958550761
 20
-19.7167544189
 10
-19.7941871179
 20
-19.7217422252
 10
-19.7926626575
 20
-19.7266889061
 10
-19.7912796298
 20
-19.7315940781
 10
-19.7900359694
 20
-19.736457358
 10
-19.7890798937
 20
-19.740593388
 10
-19.7882267468
 20
-19.7447049433
 10
-19.7874785826
 20
-19.748798609
 10
-19.7868374547
 20
-19.7528809699
 10
-19.7863054169
 20
-19.7569586111
 10
-19.785884523
 20
-19.7610381175
 10
-19.7855768266
 20
-19.765126074
  0
LWPOLYLINE
  5
29A
100
AcDbEntity
  8
0
100
AcDbPolyline
 62
253
  6
CONTINUOUS
 90
19
 70
0
 10
-20.8926467906
 20
16.3719111337
 10
-20.8924785384
 20
16.3631047971
 10
-20.8919741019
 20
16.3545095174
 10
-20.8911344415
 20
16.3461416561
 10
-20.8899611554
 20
16.3380171419
 10
-20.8884564771
 20
16.3301514404
 10
-20.8866232708
 20
16.3225595242
 10
-20.8844650261
 20
16.3152558452
 10
-20.8819858514
 20
16.3082543061
 10
-20.8791904659
 20
16.301568235
 10
-20.8760841908
 20
16.295210359
 10
-20.8726729391
 20
16.2891927807
 10
-20.8689632042
 20
16.2835269551
 10
-20.8649620479
 20
16.2782236672
 10
-20.8606770866
 20
16.2732930122
 10
-20.856116477
 20
16.2687443758
 10
-20.8512889004
 20
16.2645864168
 10
-20.8462035464
 20
16.2608270499
 10
-20.8408761353
 20
16.2574769184
  0
LWPOLYLINE
  5
29B
100
AcDbEntity
  8
0
100
AcDbPolyline
 62
253
  6
CONTINUOUS
 90
19
 70
0
 10
-19.2141087202
 20
15.4027442889
 10
-19.2139404243
 20
15.3939368236
 10
-19.2134358571
 20
15.3853404718
 10
-19.2125959793
 20
15.3769716015
 10
-19.2114223935
 20
15.3688461687
 10
-19.2099173326
 20
15.360979622
 10
-19.2080836462
 20
15.35338688
 10
-19.2059248022
 20
15.3460823579
 10
-19.2034449148
 20
15.3390800241
 10
-19.200648735
 20
15.3323933004
 10
-19.1975416125
 20
15.3260349554
 10
-19.1941294504
 20
15.3200170471
 10
-19.1904187224
 20
15.3143509908
 10
-19.1864164617
 20
15.3090475409
 10
-19.1821303125
 20
15.3041168414
 10
-19.177568503
 20
15.2995683479
 10
-19.1727397735
 20
15.2954107428
 10
-19.1676532877
 20
15.2916518856
 10
-19.1623899159
 20
15.2883400365
  0
LINE
  5
29C
100
AcDbEntity
  8
0
100
AcDbLine
 62
253
  6
CONTINUOUS
 10
-20.9658700832
 20
16.7944549773
 11
-20.9658700953
 21
16.7944999763
  0
LINE
  5
29D
100
AcDbEntity
  8
0
100
AcDbLine
 62
7
  6
CONTINUOUS
 10
-20.9658700953
 20
16.7944999549
 11
-20.9658700953
 21
16.4739797821
  0
LINE
  5
29E
100
AcDbEntity
  8
0
100
AcDbLine
 62
253
  6
CONTINUOUS
 10
-20.8926467906
 20
16.6924313066
 11
-20.8926467906
 21
16.3719111337
  0
LINE
  5
29F
100
AcDbEntity
  8
0
100
AcDbLine
 62
7
  6
CONTINUOUS
 10
-20.262877141
 20
15.9237475431
 11
-20.262877141
 21
15.6443392386
  0
LINE
  5
2A0
100
AcDbEntity
  8
0
100
AcDbLine
 62
253
  6
CONTINUOUS
 10
-20.1896538363
 20
15.8814693247
 11
-20.1896538363
 21
15.5391182147
  0
LINE
  5
2A1
100
AcDbEntity
  8
0
100
AcDbLine
 62
253
  6
CONTINUOUS
 10
-19.2141087202
 20
15.4027442889
 11
-19.2141087202
 21
15.7232644617
  0
LINE
  5
2A2
100
AcDbEntity
  8
0
100
AcDbLine
 62
253
  6
CONTINUOUS
 10
-18.8615867605
 20
15.4021522082
 11
-18.8615867605
 21
15.7226723811
  0
LINE
  5
2A3
100
AcDbEntity
  8
0
100
AcDbLine
 62
7
  6
CONTINUOUS
 10
-18.5684535149
 20
14.6030574675
 11
-18.5684535149
 21
14.001520461
  0
LINE
  5
2A4
100
AcDbEntity
  8
ASSI
100
AcDbLine
 62
7
  6
CONTINUOUS
 10
-18.5684535149
 20
14.6030574675
 11
-18.5684535149
 21
14.001520461
  0
LINE
  5
2A5
100
AcDbEntity
  8
0
100
AcDbLine
 62
253
  6
CONTINUOUS
 10
-18.5028881121
 20
14.5652008257
 11
-18.5028881121
 21
15.2045430959
  0
LINE
  5
2A6
100
AcDbEntity
  8
0
100
AcDbLine
 62
7
  6
CONTINUOUS
 10
-18.4977428368
 20
14.5622300082
 11
-18.4977428368
 21
13.9606930017
  0
LWPOLYLINE
  5
2A7
100
AcDbEntity
  8
0
100
AcDbPolyline
 62
253
  6
CONTINUOUS
 90
34
 70
0
 10
-19.2141087202
 20
15.7232644617
 10
-19.2139099174
 20
15.7330569434
 10
-19.2133139551
 20
15.7430569872
 10
-19.212322172
 20
15.7532421018
 10
-19.2109367959
 20
15.7635893861
 10
-19.2091609418
 20
15.7740755611
 10
-19.2069986067
 20
15.7846770212
 10
-19.2044546561
 20
15.7953699157
 10
-19.2015348113
 20
15.8061301992
 10
-19.1982456414
 20
15.8169336663
 10
-19.1945945444
 20
15.8277560193
 10
-19.1905897338
 20
15.8385729147
 10
-19.1862402216
 20
15.8493600147
 10
-19.1815557929
 20
15.8600930555
 10
-19.1765469849
 20
15.8707478983
 10
-19.1712250663
 20
15.8813005756
 10
-19.1656020059
 20
15.8917273584
 10
-19.1596904552
 20
15.9020047904
 10
-19.1535037235
 20
15.9121097384
 10
-19.1470557469
 20
15.9220194494
 10
-19.1403610136
 20
15.9317116662
 10
-19.1334345374
 20
15.9411646533
 10
-19.126291827
 20
15.9503572327
 10
-19.1189490095
 20
15.9592686365
 10
-19.1114227628
 20
15.9678786367
 10
-19.1037301286
 20
15.9761677767
 10
-19.095888316
 20
15.9841175509
 10
-19.087914817
 20
15.9917102403
 10
-19.0798263396
 20
15.9989298259
 10
-19.0716422683
 20
16.0057588982
 10
-19.0633845975
 20
16.0121794087
 10
-19.0550731768
 20
16.018176628
 10
-19.0467255444
 20
16.0237385996
 10
-19.0383604642
 20
16.028853417
  0
LINE
  5
2A8
100
AcDbEntity
  8
0
100
AcDbLine
 62
7
  6
CONTINUOUS
 10
-15.6754865394
 20
12.9326945933
 11
-14.9622089309
 21
13.3801956223
  0
LINE
  5
2A9
100
AcDbEntity
  8
RACCORDO
100
AcDbLine
 62
253
  6
CONTINUOUS
 10
3.9503302402
 20
26.751699411
 11
11.2776579444
 21
31.0872061417
  0
LINE
  5
2AA
100
AcDbEntity
  8
ASSI
100
AcDbLine
 62
253
  6
CONTINUOUS
 10
3.9503302402
 20
26.751699411
 11
11.2776579444
 21
31.0872061417
  0
LINE
  5
2AB
100
AcDbEntity
  8
0
100
AcDbLine
 62
7
  6
CONTINUOUS
 10
-15.2804069824
 20
15.2999409225
 11
-16.3348964138
 21
14.6768409967
  0
LINE
  5
2AC
100
AcDbEntity
  8
0
100
AcDbLine
 62
253
  6
CONTINUOUS
 10
-12.9823081486
 20
13.9730474578
 11
-12.2954063632
 21
14.3719842024
  0
LINE
  5
2AD
100
AcDbEntity
  8
ASSI
100
AcDbLine
 62
253
  6
CONTINUOUS
 10
6.4560554713
 20
25.2866846787
 11
-6.1658257343
 21
17.9989686599
  0
LINE
  5
2AE
100
AcDbEntity
  8
0
100
AcDbLine
 62
7
  6
CONTINUOUS
 10
-15.6754865394
 20
14.2961059996
 11
-14.8203833406
 21
14.786983636
  0
LINE
  5
2AF
100
AcDbEntity
  8
0
100
AcDbLine
 62
253
  6
CONTINUOUS
 10
-13.1971213627
 20
13.8497325141
 11
-12.9823081486
 21
13.9730474578
  0
LINE
  5
2B0
100
AcDbEntity
  8
0
100
AcDbLine
 62
7
  6
CONTINUOUS
 10
-13.9403546076
 20
15.3217567027
 11
-9.3277117517
 21
17.9537839772
  0
LINE
  5
2B1
100
AcDbEntity
  8
0
100
AcDbLine
 62
7
  6
CONTINUOUS
 10
-9.6027524837
 20
16.4791555508
 11
-9.1912869151
 21
16.7139425553
  0
LINE
  5
2B2
100
AcDbEntity
  8
0
100
AcDbLine
 62
7
  6
CONTINUOUS
 10
-6.4767382606
 20
17.8449734416
 11
-8.6118738644
 21
16.6266404122
  0
LINE
  5
2B3
100
AcDbEntity
  8
0
100
AcDbLine
 62
7
  6
CONTINUOUS
 10
-9.9441835764
 20
18.3097270826
 11
-15.2804069824
 21
15.2999409225
  0
LWPOLYLINE
  5
2B4
100
AcDbEntity
  8
RACCORDO
100
AcDbPolyline
 62
253
  6
CONTINUOUS
 90
7
 70
0
 10
6.4544277857
 20
23.590707108
 10
6.4766214043
 20
23.600569304
 10
6.4997584313
 20
23.6050875145
 10
6.5247532146
 20
23.6049541127
 10
6.551178128
 20
23.6001713809
 10
6.5785810778
 20
23.5908211449
 10
6.6064932372
 20
23.5770633745
  0
LWPOLYLINE
  5
2B5
100
AcDbEntity
  8
ASSI
100
AcDbPolyline
 62
253
  6
CONTINUOUS
 90
7
 70
0
 10
6.4544277857
 20
23.590707108
 10
6.4766214043
 20
23.600569304
 10
6.4997584313
 20
23.6050875145
 10
6.5247532146
 20
23.6049541127
 10
6.551178128
 20
23.6001713809
 10
6.5785810778
 20
23.5908211449
 10
6.6064932372
 20
23.5770633745
  0
LINE
  5
2B6
100
AcDbEntity
  8
0
100
AcDbLine
 62
7
  6
CONTINUOUS
 10
-9.9109808788
 20
18.3266699963
 11
-9.900128681
 21
18.3312603501
  0
LWPOLYLINE
  5
2B7
100
AcDbEntity
  8
0
100
AcDbPolyline
 62
7
  6
CONTINUOUS
 90
5
 70
0
 10
-9.900128681
 20
18.3312603501
 10
-9.8888952603
 20
18.3352692993
 10
-9.8772892403
 20
18.3386879625
 10
-9.8653229204
 20
18.3415110436
 10
-9.8530033218
 20
18.3437264823
  0
LWPOLYLINE
  5
2B8
100
AcDbEntity
  8
CURVE
100
AcDbPolyline
 62
253
  6
CONTINUOUS
 90
85
 70
0
 10
-19.2338258938
 20
-20.4138694378
 10
-19.2303150678
 20
-20.4137339218
 10
-19.2267906215
 20
-20.4137987705
 10
-19.2232460706
 20
-20.4140584105
 10
-19.2196749304
 20
-20.4145072685
 10
-19.2160707165
 20
-20.4151397713
 10
-19.2124269444
 20
-20.4159503455
 10
-19.2087385816
 20
-20.4169344276
 10
-19.2050064031
 20
-20.4180914933
 10
-19.2012326359
 20
-20.4194220284
 10
-19.1974195069
 20
-20.4209265183
 10
-19.1935692431
 20
-20.4226054487
 10
-19.1896840714
 20
-20.4244593051
 10
-19.1857671808
 20
-20.4264877206
 10
-19.1818256078
 20
-20.4286869175
 10
-19.1778673507
 20
-20.4310522659
 10
-19.1739004081
 20
-20.4335791354
 10
-19.1699327784
 20
-20.4362628961
 10
-19.16597246
 20
-20.4390989176
 10
-19.1620268367
 20
-20.4420826922
 10
-19.1581008344
 20
-20.4452102014
 10
-19.1541987641
 20
-20.4484775487
 10
-19.150324937
 20
-20.451880838
 10
-19.1464836642
 20
-20.455416173
 10
-19.1426792568
 20
-20.4590796574
 10
-19.1389162253
 20
-20.4628670497
 10
-19.1351998774
 20
-20.4667727275
 10
-19.1315357201
 20
-20.4707907232
 10
-19.1279292602
 20
-20.4749150693
 10
-19.1243860047
 20
-20.4791397981
 10
-19.1209114607
 20
-20.4834589419
 10
-19.1175108759
 20
-20.4878666337
 10
-19.1141884618
 20
-20.4923574075
 10
-19.1109481707
 20
-20.496925898
 10
-19.1077939549
 20
-20.5015667396
 10
-19.1047297667
 20
-20.5062745668
 10
-19.1017595585
 20
-20.5110440143
 10
-19.0988873778
 20
-20.51586929
 10
-19.0961176534
 20
-20.5207428953
 10
-19.093454909
 20
-20.525656905
 10
-19.0909036688
 20
-20.5306033939
 10
-19.0884684565
 20
-20.535574437
 10
-19.0861537962
 20
-20.540562109
 10
-19.0839638999
 20
-20.5455584898
 10
-19.0819017324
 20
-20.5505556795
 10
-19.0799699465
 20
-20.5555457833
 10
-19.0781711952
 20
-20.5605209063
 10
-19.0765081312
 20
-20.5654731538
 10
-19.0749834076
 20
-20.5703946308
 10
-19.0735994138
 20
-20.5752777918
 10
-19.0723574859
 20
-20.5801164876
 10
-19.0712586968
 20
-20.5849049185
 10
-19.0703041193
 20
-20.5896372845
 10
-19.0694948261
 20
-20.5943077857
 10
-19.06883189
 20
-20.5989106223
 10
-19.0683162123
 20
-20.6034399024
 10
-19.0679480081
 20
-20.6078893658
 10
-19.0677273207
 20
-20.6122526605
 10
-19.0676541938
 20
-20.6165234344
 10
-19.0677286708
 20
-20.6206953352
 10
-19.0679507953
 20
-20.624762011
 10
-19.068320498
 20
-20.6287174467
 10
-19.0688372593
 20
-20.632556976
 10
-19.069500447
 20
-20.6362762699
 10
-19.0703094286
 20
-20.6398709992
 10
-19.0712635719
 20
-20.6433368347
 10
-19.0723622446
 20
-20.6466694474
 10
-19.0736043231
 20
-20.649864319
 10
-19.0749867191
 20
-20.6529161755
 10
-19.076505853
 20
-20.6558195539
 10
-19.0781581453
 20
-20.658568991
 10
-19.0799400163
 20
-20.6611590238
 10
-19.0818478866
 20
-20.6635841891
 10
-19.0838783564
 20
-20.6658399847
 10
-19.0860287456
 20
-20.6679257513
 10
-19.0882965542
 20
-20.6698417902
 10
-19.090679282
 20
-20.6715884029
 10
-19.0931744287
 20
-20.6731658908
 10
-19.0957794944
 20
-20.6745745554
 10
-19.0984942375
 20
-20.6758139159
 10
-19.1013274519
 20
-20.6768803633
 10
-19.10429019
 20
-20.6777695062
 10
-19.1073935044
 20
-20.6784769535
 10
-19.1106484477
 20
-20.6789983139
 10
-19.1140660723
 20
-20.6793291961
  0
LWPOLYLINE
  5
2B9
100
AcDbEntity
  8
CURVE
100
AcDbPolyline
 62
253
  6
CONTINUOUS
 90
85
 70
0
 10
-19.2896281273
 20
-20.6910213662
 10
-19.2931291796
 20
-20.6911514855
 10
-19.2966445817
 20
-20.6910817048
 10
-19.3001807979
 20
-20.6908175843
 10
-19.3037442923
 20
-20.6903646847
 10
-19.307341529
 20
-20.6897285663
 10
-19.3109789723
 20
-20.6889147898
 10
-19.3146616403
 20
-20.6879279099
 10
-19.3183887678
 20
-20.6867684588
 10
-19.3221581434
 20
-20.685435963
 10
-19.3259675558
 20
-20.683929949
 10
-19.3298147939
 20
-20.6822499431
 10
-19.3336976464
 20
-20.680395472
 10
-19.3376129381
 20
-20.678366912
 10
-19.3415536392
 20
-20.6761680391
 10
-19.3455117556
 20
-20.6738034792
 10
-19.3494792937
 20
-20.6712778581
 10
-19.3534482596
 20
-20.6685958017
 10
-19.3574106594
 20
-20.665761936
 10
-19.361359111
 20
-20.6627807612
 10
-19.3652886795
 20
-20.6596562751
 10
-19.3691950415
 20
-20.6563923501
 10
-19.3730738737
 20
-20.6529928584
 10
-19.3769208527
 20
-20.6494616722
 10
-19.3807316552
 20
-20.6458026638
 10
-19.3845017536
 20
-20.6420200518
 10
-19.388225803
 20
-20.6381194409
 10
-19.3918982542
 20
-20.6341067817
 10
-19.3955135579
 20
-20.6299880252
 10
-19.3990661648
 20
-20.6257691222
 10
-19.4025505259
 20
-20.6214560237
 10
-19.405961352
 20
-20.6170545766
 10
-19.4092943953
 20
-20.6125702131
 10
-19.412545668
 20
-20.6080082614
 10
-19.4157111824
 20
-20.6033740497
 10
-19.4187869509
 20
-20.5986729063
 10
-19.4217689857
 20
-20.5939101593
 10
-19.4246532
 20
-20.5890915673
 10
-19.427435111
 20
-20.5842246094
 10
-19.4301101365
 20
-20.5793171952
 10
-19.4326736945
 20
-20.5743772341
 10
-19.4351212029
 20
-20.5694126356
 10
-19.4374480797
 20
-20.564431309
 10
-19.4396500575
 20
-20.5594411592
 10
-19.441724128
 20
-20.5544500722
 10
-19.4436675976
 20
-20.5494659292
 10
-19.4454777724
 20
-20.5444966115
 10
-19.4471519588
 20
-20.5395500005
 10
-19.4486874632
 20
-20.5346339774
 10
-19.4500818586
 20
-20.5297560738
 10
-19.451333785
 20
-20.5249224232
 10
-19.4524421492
 20
-20.5201388093
 10
-19.4534058578
 20
-20.5154110157
 10
-19.4542238177
 20
-20.5107448262
 10
-19.4548949355
 20
-20.5061460245
 10
-19.4554182918
 20
-20.5016204898
 10
-19.4557936626
 20
-20.4971744834
 10
-19.4560209978
 20
-20.4928143619
 10
-19.4561002471
 20
-20.4885464821
 10
-19.4560313603
 20
-20.4843772007
 10
-19.4558142874
 20
-20.4803128744
 10
-19.4554490936
 20
-20.4763595224
 10
-19.4549363063
 20
-20.4725218129
 10
-19.4542765686
 20
-20.4688040769
 10
-19.4534705235
 20
-20.4652106451
 10
-19.4525188139
 20
-20.4617458483
 10
-19.4514220828
 20
-20.4584140173
 10
-19.4501814667
 20
-20.4552196743
 10
-19.4488000767
 20
-20.4521681073
 10
-19.4472815172
 20
-20.4492647955
 10
-19.4456293929
 20
-20.4465152183
 10
-19.4438473082
 20
-20.4439248552
 10
-19.4419388676
 20
-20.4414991853
 10
-19.4399074972
 20
-20.439242727
 10
-19.4377559082
 20
-20.4371561552
 10
-19.4354866332
 20
-20.4352391833
 10
-19.4331022049
 20
-20.4334915251
 10
-19.430605156
 20
-20.4319128944
 10
-19.4279980191
 20
-20.4305030047
 10
-19.4252810656
 20
-20.4292623509
 10
-19.4224455219
 20
-20.4281945519
 10
-19.4194803533
 20
-20.4273040078
 10
-19.4163745247
 20
-20.4265951186
 10
-19.4131170015
 20
-20.4260722843
 10
-19.4096967488
 20
-20.4257399051
  0
LWPOLYLINE
  5
2BA
100
AcDbEntity
  8
CURVE
100
AcDbPolyline
 62
253
  6
CONTINUOUS
 90
85
 70
0
 10
-20.3796247614
 20
-20.4895616303
 10
-20.3760989535
 20
-20.4894386616
 10
-20.3725571347
 20
-20.4895191378
 10
-20.3689920904
 20
-20.4897975044
 10
-20.3653966062
 20
-20.4902682068
 10
-20.3617634673
 20
-20.4909256906
 10
-20.3580854594
 20
-20.491764401
 10
-20.354356554
 20
-20.4927801908
 10
-20.3505754685
 20
-20.4939745407
 10
-20.3467421062
 20
-20.4953503386
 10
-20.3428563708
 20
-20.4969104723
 10
-20.3389181657
 20
-20.4986578297
 10
-20.3349273944
 20
-20.5005952988
 10
-20.3308859507
 20
-20.5027243592
 10
-20.3268036902
 20
-20.5050408584
 10
-20.3226924586
 20
-20.5075392358
 10
-20.3185641018
 20
-20.5102139306
 10
-20.3144304654
 20
-20.5130593821
 10
-20.3103033954
 20
-20.5160700298
 10
-20.3061943608
 20
-20.5192393694
 10
-20.3021133242
 20
-20.5225571231
 10
-20.2980698713
 20
-20.5260120696
 10
-20.2940735881
 20
-20.5295929874
 10
-20.2901340603
 20
-20.5332886552
 10
-20.2862608738
 20
-20.5370878517
 10
-20.2824620139
 20
-20.5409808181
 10
-20.2787390636
 20
-20.5449636464
 10
-20.2750920057
 20
-20.549033891
 10
-20.2715208228
 20
-20.5531891064
 10
-20.2680254975
 20
-20.557426847
 10
-20.2646060123
 20
-20.5617446673
 10
-20.2612629006
 20
-20.5661398575
 10
-20.2579988981
 20
-20.57060865
 10
-20.254817291
 20
-20.5751470128
 10
-20.2517213656
 20
-20.579750914
 10
-20.2487144084
 20
-20.5844163216
 10
-20.2457997056
 20
-20.5891392037
 10
-20.2429807924
 20
-20.5939147787
 10
-20.2402621995
 20
-20.5987352664
 10
-20.2376487066
 20
-20.603592137
 10
-20.2351450932
 20
-20.6084768607
 10
-20.232756139
 20
-20.6133809077
 10
-20.2304866235
 20
-20.6182957482
 10
-20.2283409202
 20
-20.6232129498
 10
-20.2263217776
 20
-20.6281244707
 10
-20.2244315383
 20
-20.6330223663
 10
-20.2226725448
 20
-20.6378986923
 10
-20.2210471394
 20
-20.6427455041
 10
-20.2195576646
 20
-20.6475548573
 10
-20.2182061584
 20
-20.6523193928
 10
-20.2169934406
 20
-20.657034092
 10
-20.2159200265
 20
-20.6616945216
 10
-20.2149864315
 20
-20.6662962485
 10
-20.2141931708
 20
-20.6708348394
 10
-20.2135407598
 20
-20.675305861
 10
-20.2130297049
 20
-20.6797047637
 10
-20.2126604762
 20
-20.6840265319
 10
-20.2124335353
 20
-20.6882660338
 10
-20.2123493433
 20
-20.6924181375
 10
-20.2124083616
 20
-20.696477711
 10
-20.2126110516
 20
-20.7004396225
 10
-20.2129577484
 20
-20.7042987092
 10
-20.2134482827
 20
-20.7080496853
 10
-20.214082359
 20
-20.7116872343
 10
-20.2148596818
 20
-20.7152060395
 10
-20.2157799557
 20
-20.7186007842
 10
-20.2168428852
 20
-20.721866152
 10
-20.2180476646
 20
-20.7249968281
 10
-20.2193914478
 20
-20.7279875055
 10
-20.2208708786
 20
-20.7308328788
 10
-20.2224826006
 20
-20.733527643
 10
-20.2242232576
 20
-20.7360664928
 10
-20.2260894932
 20
-20.7384441231
 10
-20.2280781365
 20
-20.7406561267
 10
-20.2301867575
 20
-20.7427016882
 10
-20.2324131117
 20
-20.7445808904
 10
-20.2347549546
 20
-20.7462938158
 10
-20.2372100414
 20
-20.7478405471
 10
-20.2397761275
 20
-20.7492211671
 10
-20.242453132
 20
-20.75043499
 10
-20.2452496273
 20
-20.7514782576
 10
-20.2481763496
 20
-20.7523464429
 10
-20.251244035
 20
-20.7530350194
 10
-20.2544634196
 20
-20.7535394604
 10
-20.2578452395
 20
-20.753855239
  0
LWPOLYLINE
  5
2BB
100
AcDbEntity
  8
CURVE
100
AcDbPolyline
 62
253
  6
CONTINUOUS
 90
85
 70
0
 10
-20.4322405718
 20
-20.764873758
 10
-20.4357565283
 20
-20.7649912625
 10
-20.4392892438
 20
-20.7649057919
 10
-20.4428459134
 20
-20.7646228866
 10
-20.4464337325
 20
-20.7641480868
 10
-20.4500598962
 20
-20.7634869327
 10
-20.4537315998
 20
-20.7626449647
 10
-20.4574548603
 20
-20.7616263195
 10
-20.4612309821
 20
-20.7604295194
 10
-20.4650600913
 20
-20.7590516832
 10
-20.4689423141
 20
-20.7574899298
 10
-20.4728777767
 20
-20.7557413778
 10
-20.4768666052
 20
-20.753803146
 10
-20.4809069299
 20
-20.7516737605
 10
-20.4849888975
 20
-20.7493573763
 10
-20.4891006586
 20
-20.7468595558
 10
-20.493230364
 20
-20.7441858611
 10
-20.4973661644
 20
-20.7413418546
 10
-20.5014962106
 20
-20.7383330987
 10
-20.5056090224
 20
-20.7351660959
 10
-20.5096945961
 20
-20.731851111
 10
-20.5137432969
 20
-20.728399349
 10
-20.5177454904
 20
-20.7248220149
 10
-20.5216915417
 20
-20.7211303137
 10
-20.5255718164
 20
-20.7173354505
 10
-20.5293782842
 20
-20.7134471661
 10
-20.5331093336
 20
-20.7094693447
 10
-20.5367649574
 20
-20.705404406
 10
-20.5403451486
 20
-20.7012547699
 10
-20.5438499002
 20
-20.6970228563
 10
-20.5472792049
 20
-20.692711085
 10
-20.5506325037
 20
-20.6883221396
 10
-20.5539070296
 20
-20.683859758
 10
-20.5570994633
 20
-20.6793279416
 10
-20.5602064859
 20
-20.674730692
 10
-20.5632247781
 20
-20.6700720106
 10
-20.5661510209
 20
-20.6653558991
 10
-20.5689816429
 20
-20.6605871101
 10
-20.5717120634
 20
-20.6557734012
 10
-20.5743374496
 20
-20.6509232811
 10
-20.5768529686
 20
-20.6460452586
 10
-20.5792537875
 20
-20.6411478424
 10
-20.5815350734
 20
-20.6362395413
 10
-20.5836924024
 20
-20.6313287658
 10
-20.5857229864
 20
-20.6264235331
 10
-20.5876244462
 20
-20.6215317623
 10
-20.5893944027
 20
-20.6166613723
 10
-20.5910304767
 20
-20.6118202823
 10
-20.5925302891
 20
-20.6070164111
 10
-20.5938917676
 20
-20.6022570966
 10
-20.5951140676
 20
-20.5975473523
 10
-20.5961966513
 20
-20.5928916103
 10
-20.597138981
 20
-20.5882943029
 10
-20.5979405189
 20
-20.5837598624
 10
-20.5986007272
 20
-20.5792927208
 10
-20.5991190808
 20
-20.5748974296
 10
-20.599495105
 20
-20.5705790161
 10
-20.5997283378
 20
-20.5663426268
 10
-20.5998183169
 20
-20.5621934082
 10
-20.5997645803
 20
-20.5581365067
 10
-20.5995666659
 20
-20.5541770689
 10
-20.5992242397
 20
-20.5503202666
 10
-20.5987374797
 20
-20.5465713745
 10
-20.5981066922
 20
-20.5429356923
 10
-20.5973321833
 20
-20.5394185202
 10
-20.5964142592
 20
-20.5360251581
 10
-20.5953532261
 20
-20.532760906
 10
-20.5941499014
 20
-20.5296310671
 10
-20.5928071474
 20
-20.5266409575
 10
-20.5913283377
 20
-20.5237958965
 10
-20.5897168458
 20
-20.5211012033
 10
-20.5879760453
 20
-20.5185621974
 10
-20.5861093096
 20
-20.5161841978
 10
-20.5841198295
 20
-20.5139716274
 10
-20.5820100641
 20
-20.5119253216
 10
-20.5797822894
 20
-20.5100452195
 10
-20.5774387816
 20
-20.5083312601
 10
-20.5749818168
 20
-20.5067833821
 10
-20.5724136713
 20
-20.5054015247
 10
-20.5697344556
 20
-20.5041863931
 10
-20.5669356183
 20
-20.5031417579
 10
-20.5640064423
 20
-20.502272156
 10
-20.5609362109
 20
-20.5015821244
 10
-20.5577142069
 20
-20.5010762
 10
-20.5543297133
 20
-20.5007589198
  0
LINE
  5
2BC
100
AcDbEntity
  8
0
100
AcDbLine
 62
7
  6
CONTINUOUS
 10
-4.4437522313
 20
-21.3297020123
 11
-4.2495411959
 21
-21.4418370301
  0
LINE
  5
2BD
100
AcDbEntity
  8
0
100
AcDbLine
 62
7
  6
CONTINUOUS
 10
-3.8237451082
 20
-20.0830910647
 11
-2.8476692883
 21
-20.64666501
  0
LINE
  5
2BE
100
AcDbEntity
  8
0
100
AcDbLine
 62
7
  6
CONTINUOUS
 10
-5.3455567067
 20
-18.5832827154
 11
-5.3287152598
 21
-18.5930067557
  0
LINE
  5
2BF
100
AcDbEntity
  8
0
100
AcDbLine
 62
253
  6
CONTINUOUS
 10
-18.1503661524
 20
14.5752438592
 11
-18.1503661524
 21
15.3366621954
  0
LINE
  5
2C0
100
AcDbEntity
  8
0
100
AcDbLine
 62
7
  6
CONTINUOUS
 10
-17.2603059697
 20
15.1367573409
 11
-17.2603059697
 21
16.6472308073
  0
LINE
  5
2C1
100
AcDbEntity
  8
0
100
AcDbLine
 62
253
  6
CONTINUOUS
 10
-16.732038798
 20
16.9522459965
 11
-16.732038798
 21
16.624600696
  0
LINE
  5
2C2
100
AcDbEntity
  8
0
100
AcDbLine
 62
7
  6
CONTINUOUS
 10
-16.659840941
 20
17.0537191096
 11
-16.659840941
 21
16.7260738091
  0
LINE
  5
2C3
100
AcDbEntity
  8
0
100
AcDbLine
 62
7
  6
CONTINUOUS
 10
-16.6592652057
 20
12.9421459881
 11
-16.6592652057
 21
13.0107865536
  0
LINE
  5
2C4
100
AcDbEntity
  8
0
100
AcDbLine
 62
7
  6
CONTINUOUS
 10
-16.3348964138
 20
14.6768409967
 11
-16.3348964138
 21
13.3134295904
  0
LINE
  5
2C5
100
AcDbEntity
  8
0
100
AcDbLine
 62
7
  6
CONTINUOUS
 10
-15.8107370683
 20
12.9678196245
 11
-15.8107370683
 21
13.0107865536
  0
LINE
  5
2C6
100
AcDbEntity
  8
0
100
AcDbLine
 62
253
  6
CONTINUOUS
 10
-16.659840941
 20
17.05371913
 11
-16.6598409495
 21
17.0536814207
  0
LINE
  5
2C7
100
AcDbEntity
  8
0
100
AcDbLine
 62
7
  6
CONTINUOUS
 10
-16.6599550124
 20
16.7185224932
 11
-16.6598409412
 21
16.726079552
  0
LWPOLYLINE
  5
2C8
100
AcDbEntity
  8
0
100
AcDbPolyline
 62
253
  6
CONTINUOUS
 90
18
 70
0
 10
-16.6598409495
 20
17.0536814207
 10
-16.6598945025
 20
17.0507312817
 10
-16.6604209299
 20
17.0438923533
 10
-16.6615083422
 20
17.0370755174
 10
-16.6631542969
 20
17.0302961031
 10
-16.6653550941
 20
17.0235693607
 10
-16.668105787
 20
17.0169104193
 10
-16.6714001908
 20
17.0103342573
 10
-16.6752308953
 20
17.0038556709
 10
-16.6795892849
 20
16.9974892331
 10
-16.6844655586
 20
16.9912492623
 10
-16.689848748
 20
16.9851497957
 10
-16.6957267492
 20
16.9792045493
 10
-16.7020863393
 20
16.9734268986
 10
-16.7089132021
 20
16.967829849
 10
-16.7161919762
 20
16.9624259919
 10
-16.7239062924
 20
16.9572274772
 10
-16.732038798
 20
16.9522459965
  0
LWPOLYLINE
  5
2C9
100
AcDbEntity
  8
0
100
AcDbPolyline
 62
253
  6
CONTINUOUS
 90
17
 70
0
 10
-16.6598953639
 20
16.7230620551
 10
-16.6604237169
 20
16.7162234987
 10
-16.6615129889
 20
16.7094071197
 10
-16.6631607269
 20
16.7026282375
 10
-16.6653632271
 20
16.6959020822
 10
-16.6681155588
 20
16.6892437311
 10
-16.6714115177
 20
16.6826682089
 10
-16.6752436092
 20
16.6761904326
 10
-16.6796031212
 20
16.6698250482
 10
-16.6844802669
 20
16.6635862746
 10
-16.6898641622
 20
16.6574880111
 10
-16.6957431972
 20
16.6515434948
 10
-16.702103734
 20
16.6457665954
 10
-16.7089298937
 20
16.6401715324
 10
-16.7162054662
 20
16.6347711528
 10
-16.7239142998
 20
16.629577033
 10
-16.732038798
 20
16.624600696
  0
LWPOLYLINE
  5
2CA
100
AcDbEntity
  8
RACCORDO
100
AcDbPolyline
 62
253
  6
CONTINUOUS
 90
41
 70
0
 10
-8.6151962666
 20
15.3020713303
 10
-8.6054562701
 20
15.3133187356
 10
-8.5947672159
 20
15.324442767
 10
-8.5831291041
 20
15.3354434246
 10
-8.5705502015
 20
15.3463522315
 10
-8.5570222412
 20
15.3571376646
 10
-8.5425204221
 20
15.3677051541
 10
-8.5270139629
 20
15.3780652517
 10
-8.5105336449
 20
15.3882074058
 10
-8.4931470116
 20
15.3980053916
 10
-8.4748087426
 20
15.4074623366
 10
-8.4555641583
 20
15.4165751135
 10
-8.4356167634
 20
15.4252081149
 10
-8.4149851682
 20
15.4333364359
 10
-8.3936507624
 20
15.4409849814
 10
-8.3717612198
 20
15.44809286
 10
-8.3493221285
 20
15.4546519908
 10
-8.3263279004
 20
15.4606704546
 10
-8.3029094452
 20
15.4661116017
 10
-8.2790615642
 20
15.4709722411
 10
-8.254789456
 20
15.4752555638
 10
-8.2302396256
 20
15.4789344935
 10
-8.2054096055
 20
15.4820048338
 10
-8.1803018632
 20
15.4844707811
 10
-8.1550703056
 20
15.4863178489
 10
-8.1297136335
 20
15.4875416049
 10
-8.1042331463
 20
15.4881464815
 10
-8.0787866492
 20
15.4881312883
 10
-8.053373978
 20
15.4874914387
 10
-8.027995297
 20
15.4862315195
 10
-8.0028089043
 20
15.4843641008
 10
-7.9778168397
 20
15.4818847424
 10
-7.9530170633
 20
15.4787978846
 10
-7.9285617535
 20
15.4751294179
 10
-7.904451841
 20
15.4708745067
 10
-7.8806863951
 20
15.4660379866
 10
-7.8574148012
 20
15.4606602561
 10
-7.8346463254
 20
15.4547390055
 10
-7.8123717016
 20
15.4482765444
 10
-7.7907125173
 20
15.4413201995
 10
-7.7696621008
 20
15.433861309
  0
LWPOLYLINE
  5
2CB
100
AcDbEntity
  8
RACCORDO
100
AcDbPolyline
 62
253
  6
CONTINUOUS
 90
7
 70
0
 10
-8.6698241107
 20
15.2394125839
 10
-8.6605861914
 20
15.2496844102
 10
-8.6514015836
 20
15.2600247558
 10
-8.6422702871
 20
15.2704336206
 10
-8.6331923022
 20
15.2809110046
 10
-8.6241676287
 20
15.2914569078
 10
-8.6151962666
 20
15.3020713303
  0
LINE
  5
2CC
100
AcDbEntity
  8
RACCORDO
100
AcDbLine
 62
7
  6
CONTINUOUS
 10
-10.8922269877
 20
13.2795682388
 11
-9.1840172799
 21
15.0950655784
  0
LINE
  5
2CD
100
AcDbEntity
  8
RACCORDO
100
AcDbLine
 62
253
  6
CONTINUOUS
 10
-10.5452283977
 20
13.36145338
 11
-8.9255668001
 21
15.0828411629
  0
LWPOLYLINE
  5
2CE
100
AcDbEntity
  8
RACCORDO
100
AcDbPolyline
 62
7
  6
CONTINUOUS
 90
3
 70
0
 10
-9.1829614776
 20
15.0961210246
 10
-9.1750715625
 20
15.1037281479
 10
-9.1609932709
 20
15.1141231591
  0
LWPOLYLINE
  5
2CF
100
AcDbEntity
  8
RACCORDO
100
AcDbPolyline
 62
7
  6
CONTINUOUS
 90
4
 70
0
 10
-8.9074400043
 20
15.2815153565
 10
-8.9100720131
 20
15.2793953529
 10
-8.935797798
 20
15.2588749803
 10
-8.9628723732
 20
15.2375561703
  0
LINE
  5
2D0
100
AcDbEntity
  8
RACCORDO
100
AcDbLine
 62
7
  6
CONTINUOUS
 10
-8.854914674
 20
15.3210867487
 11
-8.9073350814
 21
15.2815998808
  0
LINE
  5
2D1
100
AcDbEntity
  8
RACCORDO
100
AcDbLine
 62
253
  6
CONTINUOUS
 10
-8.9073350814
 20
15.2815998808
 11
-8.8885629214
 21
15.2944001893
  0
LINE
  5
2D2
100
AcDbEntity
  8
RACCORDO
100
AcDbLine
 62
7
  6
CONTINUOUS
 10
6.4543510711
 20
23.5906514299
 11
6.4151837872
 21
23.5645270912
  0
LINE
  5
2D3
100
AcDbEntity
  8
ASSI
100
AcDbLine
 62
7
  6
CONTINUOUS
 10
6.4543500977
 20
23.5906508467
 11
6.4151837872
 21
23.5645270912
  0
LINE
  5
2D4
100
AcDbEntity
  8
0
100
AcDbLine
 62
7
  6
CONTINUOUS
 10
-12.8408885873
 20
12.5850411326
 11
-13.0561167583
 21
12.4500097972
  0
LINE
  5
2D5
100
AcDbEntity
  8
RACCORDO
100
AcDbLine
 62
7
  6
CONTINUOUS
 10
-9.1594367098
 20
15.1150858964
 11
-8.9606045325
 21
15.2380466974
  0
LINE
  5
2D6
100
AcDbEntity
  8
RACCORDO
100
AcDbLine
 62
253
  6
CONTINUOUS
 10
-8.9234043035
 20
15.0815925644
 11
-8.6689850695
 21
15.2389292351
  0
LINE
  5
2D7
100
AcDbEntity
  8
DRAFT
100
AcDbLine
 62
7
  6
CONTINUOUS
 10
-10.0301413673
 20
14.1957989235
 11
-11.8465607915
 21
13.0724979047
  0
LINE
  5
2D8
100
AcDbEntity
  8
RACCORDO
100
AcDbLine
 62
7
  6
CONTINUOUS
 10
6.4543467657
 20
23.5906586288
 11
7.8516257992
 21
24.4258389921
  0
LINE
  5
2D9
100
AcDbEntity
  8
ASSI
100
AcDbLine
 62
7
  6
CONTINUOUS
 10
6.4543457922
 20
23.5906580457
 11
7.8516257992
 21
24.4258389921
  0
LINE
  5
2DA
100
AcDbEntity
  8
RACCORDO
100
AcDbLine
 62
253
  6
CONTINUOUS
 10
6.6064932372
 20
23.5770633745
 11
8.002963066
 21
24.4117600088
  0
LINE
  5
2DB
100
AcDbEntity
  8
ASSI
100
AcDbLine
 62
253
  6
CONTINUOUS
 10
6.6064932372
 20
23.5770633745
 11
8.002963066
 21
24.4117600088
  0
LINE
  5
2DC
100
AcDbEntity
  8
0
100
AcDbLine
 62
7
  6
CONTINUOUS
 10
-11.3859867026
 20
13.0026743479
 11
-11.5977106048
 21
12.8768403689
  0
LINE
  5
2DD
100
AcDbEntity
  8
0
100
AcDbLine
 62
253
  6
CONTINUOUS
 10
-11.2852554636
 20
12.9931905066
 11
-11.4963518212
 21
12.8677294965
  0
LINE
  5
2DE
100
AcDbEntity
  8
0
100
AcDbLine
 62
253
  6
CONTINUOUS
 10
-11.5976746353
 20
12.8768617315
 11
-11.59771062
 21
12.8768403599
  0
LINE
  5
2DF
100
AcDbEntity
  8
DRAFT
100
AcDbLine
 62
7
  6
CONTINUOUS
 10
-12.0153054963
 20
13.1699289824
 11
-9.7869423538
 21
14.4792099442
  0
LINE
  5
2E0
100
AcDbEntity
  8
0
100
AcDbLine
 62
7
  6
CONTINUOUS
 10
-12.1442026818
 20
12.9901324065
 11
-12.8408885873
 21
12.5850411326
  0
LINE
  5
2E1
100
AcDbEntity
  8
0
100
AcDbLine
 62
253
  6
CONTINUOUS
 10
-12.8408885873
 20
13.728105047
 11
-12.1527633861
 21
14.1277523234
  0
LINE
  5
2E2
100
AcDbEntity
  8
0
100
AcDbLine
 62
7
  6
CONTINUOUS
 10
-8.6101876606
 20
16.0893640041
 11
-7.5183046984
 21
16.719803542
  0
LINE
  5
2E3
100
AcDbEntity
  8
ASSI
100
AcDbLine
 62
253
  6
CONTINUOUS
 10
6.9581012859
 20
24.4171158209
 11
-5.7648668346
 21
17.0710334844
  0
LINE
  5
2E4
100
AcDbEntity
  8
0
100
AcDbLine
 62
7
  6
CONTINUOUS
 10
-11.3845318159
 20
13.0035144281
 11
-11.3859860478
 21
13.0026747371
  0
LINE
  5
2E5
100
AcDbEntity
  8
0
100
AcDbLine
 62
7
  6
CONTINUOUS
 10
6.2509945047
 20
22.4166010884
 11
-4.4547593296
 21
16.2352329991
  0
LINE
  5
2E6
100
AcDbEntity
  8
0
100
AcDbLine
 62
7
  6
CONTINUOUS
 10
-4.3204220245
 20
16.1576683228
 11
6.2509945047
 21
22.2614717359
  0
LINE
  5
2E7
100
AcDbEntity
  8
0
100
AcDbLine
 62
253
  6
CONTINUOUS
 10
-13.0561167583
 20
13.6045518946
 11
-12.8408885873
 21
13.728105047
  0
LINE
  5
2E8
100
AcDbEntity
  8
0
100
AcDbLine
 62
7
  6
CONTINUOUS
 10
-10.6851758901
 20
13.3956695672
 11
-11.3845311756
 21
13.0035147869
  0
LINE
  5
2E9
100
AcDbEntity
  8
0
100
AcDbLine
 62
253
  6
CONTINUOUS
 10
-10.5862591286
 20
13.3851440098
 11
-11.2852554636
 21
12.9931905066
  0
LWPOLYLINE
  5
2EA
100
AcDbEntity
  8
RACCORDO
100
AcDbPolyline
 62
7
  6
CONTINUOUS
 90
3
 70
0
 10
-9.1609932709
 20
15.1141231591
 10
-9.1397580942
 20
15.1243967123
 10
-9.0954255262
 20
15.132780705
  0
LWPOLYLINE
  5
2EB
100
AcDbEntity
  8
RACCORDO
100
AcDbPolyline
 62
253
  6
CONTINUOUS
 90
3
 70
0
 10
-8.8885629214
 20
15.2944001893
 10
-8.8549347263
 20
15.3093897645
 10
-8.8153826142
 20
15.3190412439
  0
LWPOLYLINE
  5
2EC
100
AcDbEntity
  8
RACCORDO
100
AcDbPolyline
 62
7
  6
CONTINUOUS
 90
4
 70
0
 10
-8.5450091045
 20
15.4724178671
 10
-8.6536407808
 20
15.4323543462
 10
-8.7572898204
 20
15.3820064605
 10
-8.854914674
 20
15.3210867487
  0
LWPOLYLINE
  5
2ED
100
AcDbEntity
  8
0
100
AcDbPolyline
 62
253
  6
CONTINUOUS
 90
13
 70
0
 10
-4.4313062423
 20
-29.1877189611
 10
-4.4359471343
 20
-29.1776413547
 10
-4.4409722651
 20
-29.1678721513
 10
-4.4463702881
 20
-29.1584334139
 10
-4.4521290021
 20
-29.1493464743
 10
-4.4582353954
 20
-29.140631855
 10
-4.4646756934
 20
-29.1323092054
 10
-4.4714353749
 20
-29.124397288
 10
-4.4784993661
 20
-29.1169137759
 10
-4.4858515553
 20
-29.1098757663
 10
-4.4934747766
 20
-29.1032996117
 10
-4.5013515716
 20
-29.0972001936
 10
-4.5094642972
 20
-29.0915910006
  0
LINE
  5
2EE
100
AcDbEntity
  8
0
100
AcDbLine
 62
7
  6
CONTINUOUS
 10
-15.6754865394
 20
12.9326945933
 11
-15.6754865394
 21
14.2961059996
  0
LINE
  5
2EF
100
AcDbEntity
  8
0
100
AcDbLine
 62
7
  6
CONTINUOUS
 10
-14.9622089309
 20
14.5432209178
 11
-14.9622089309
 21
13.3801956223
  0
LINE
  5
2F0
100
AcDbEntity
  8
0
100
AcDbLine
 62
253
  6
CONTINUOUS
 10
-13.3377199674
 20
12.4422360544
 11
-13.3377199674
 21
13.6052613499
  0
LWPOLYLINE
  5
2F1
100
AcDbEntity
  8
0
100
AcDbPolyline
 62
253
  6
CONTINUOUS
 90
31
 70
0
 10
-13.3377199674
 20
13.6052613499
 10
-13.337528426
 20
13.6138678966
 10
-13.336953881
 20
13.622677429
 10
-13.3359972322
 20
13.6316663769
 10
-13.3346601301
 20
13.6408123764
 10
-13.3329457068
 20
13.6500890901
 10
-13.3308592883
 20
13.6594660566
 10
-13.3284070818
 20
13.6689158519
 10
-13.3255953799
 20
13.678414628
 10
-13.3224317447
 20
13.6879367926
 10
-13.3189246882
 20
13.6974566132
 10
-13.3150837847
 20
13.7069479992
 10
-13.310919591
 20
13.7163848334
 10
-13.3064435034
 20
13.7257413127
 10
-13.3016676559
 20
13.7349920942
 10
-13.2966050051
 20
13.7441120787
 10
-13.2912693046
 20
13.7530764763
 10
-13.2856750912
 20
13.7618608509
 10
-13.2798376039
 20
13.7704412664
 10
-13.2737727333
 20
13.7787943619
 10
-13.2674969812
 20
13.7868974065
 10
-13.2610274328
 20
13.7947283371
 10
-13.254381696
 20
13.802265838
 10
-13.2475778582
 20
13.8094893926
 10
-13.2406344428
 20
13.8163793332
 10
-13.2335703432
 20
13.8229169099
 10
-13.2264047909
 20
13.8290843232
 10
-13.2191573089
 20
13.8348647704
 10
-13.2118476305
 20
13.8402425158
 10
-13.2044956449
 20
13.8452029299
 10
-13.1971213627
 20
13.8497325141
  0
LWPOLYLINE
  5
2F2
100
AcDbEntity
  8
RACCORDO
100
AcDbPolyline
 62
7
  6
CONTINUOUS
 90
9
 70
0
 10
6.4151648805
 20
23.5645144805
 10
6.3766500594
 20
23.5324231603
 10
6.3432035974
 20
23.4973766204
 10
6.3151394359
 20
23.460205073
 10
6.292262114
 20
23.4212349289
 10
6.2742401023
 20
23.3802357594
 10
6.2612289885
 20
23.3375165928
 10
6.2534880934
 20
23.2939767642
 10
6.2510079137
 20
23.2513092948
  0
LWPOLYLINE
  5
2F3
100
AcDbEntity
  8
ASSI
100
AcDbPolyline
 62
7
  6
CONTINUOUS
 90
9
 70
0
 10
6.4151837872
 20
23.5645270912
 10
6.3766747134
 20
23.5324462061
 10
6.343219605
 20
23.4973954674
 10
6.3151478905
 20
23.4602177407
 10
6.2922647322
 20
23.421240049
 10
6.2742394757
 20
23.3802340701
 10
6.2612274158
 20
23.3375100422
 10
6.253486972
 20
23.2939671249
 10
6.2510079137
 20
23.2513088713
  0
LINE
  5
2F4
100
AcDbEntity
  8
0
100
AcDbLine
 62
7
  6
CONTINUOUS
 10
-8.9871566298
 20
10.359944599
 11
-10.053987542
 21
9.6869115261
  0
LINE
  5
2F5
100
AcDbEntity
  8
0
100
AcDbLine
 62
7
  6
CONTINUOUS
 10
-9.8730898432
 20
11.9304783747
 11
-10.7133974163
 21
11.4310579295
  0
LINE
  5
2F6
100
AcDbEntity
  8
ASSI
100
AcDbLine
 62
7
  6
CONTINUOUS
 10
5.826730436
 20
20.8325193393
 11
6.2829230774
 21
21.095919253
  0
LINE
  5
2F7
100
AcDbEntity
  8
ASSI
100
AcDbLine
 62
7
  6
CONTINUOUS
 10
6.3216573494
 20
20.5467547424
 11
6.7459145847
 21
20.7917155529
  0
LINE
  5
2F8
100
AcDbEntity
  8
0
100
AcDbLine
 62
7
  6
CONTINUOUS
 10
-3.7126645607
 20
14.7117261022
 11
-10.053987542
 21
11.0503229324
  0
LINE
  5
2F9
100
AcDbEntity
  8
0
100
AcDbLine
 62
7
  6
CONTINUOUS
 10
-8.9871566298
 20
10.359944599
 11
-3.6798459637
 21
13.4243227273
  0
LINE
  5
2FA
100
AcDbEntity
  8
0
100
AcDbLine
 62
7
  6
CONTINUOUS
 10
-4.3291363854
 20
15.0676692076
 11
-8.9413108842
 21
12.4353715096
  0
LINE
  5
2FB
100
AcDbEntity
  8
0
100
AcDbLine
 62
7
  6
CONTINUOUS
 10
-3.5490111125
 20
14.6358562743
 11
-2.226248651
 21
15.3907940121
  0
LINE
  5
2FC
100
AcDbEntity
  8
0
100
AcDbLine
 62
7
  6
CONTINUOUS
 10
-3.6403497818
 20
14.7473100315
 11
-3.6798459637
 21
14.7288907908
  0
LINE
  5
2FD
100
AcDbEntity
  8
0
100
AcDbLine
 62
7
  6
CONTINUOUS
 10
-3.6227842114
 20
14.7554055226
 11
-3.6403497818
 21
14.7473100315
  0
LINE
  5
2FE
100
AcDbEntity
  8
0
100
AcDbLine
 62
253
  6
CONTINUOUS
 10
3.9726828534
 20
-19.4115722588
 11
3.9528974659
 21
-19.400148424
  0
LINE
  5
2FF
100
AcDbEntity
  8
0
100
AcDbLine
 62
253
  6
CONTINUOUS
 10
4.0589634831
 20
-17.7243283672
 11
3.9528974659
 21
-17.6630871782
  0
LWPOLYLINE
  5
300
100
AcDbEntity
  8
RACCORDO
100
AcDbPolyline
 62
253
  6
CONTINUOUS
 90
10
 70
0
 10
-9.9520007945
 20
-30.7483875394
 10
-10.0854291913
 20
-29.7666759149
 10
-10.2053322162
 20
-28.7753351192
 10
-10.3116850312
 20
-27.7745738986
 10
-10.4044658329
 20
-26.7646035386
 10
-10.4836551952
 20
-25.7456362554
 10
-10.5492359824
 20
-24.7178850895
 10
-10.6011942771
 20
-23.6815659776
 10
-10.6395194745
 20
-22.636897769
 10
-10.6642035591
 20
-21.5841005715
  0
LWPOLYLINE
  5
301
100
AcDbEntity
  8
ASSI
100
AcDbPolyline
 62
253
  6
CONTINUOUS
 90
10
 70
0
 10
-9.9520007945
 20
-30.7483875394
 10
-10.0854291913
 20
-29.7666759149
 10
-10.2053322162
 20
-28.7753351192
 10
-10.3116850312
 20
-27.7745738986
 10
-10.4044658329
 20
-26.7646035386
 10
-10.4836551952
 20
-25.7456362554
 10
-10.5492359824
 20
-24.7178850895
 10
-10.6011942771
 20
-23.6815659776
 10
-10.6395194745
 20
-22.636897769
 10
-10.6642035591
 20
-21.5841005715
  0
LWPOLYLINE
  5
302
100
AcDbEntity
  8
RACCORDO
100
AcDbPolyline
 62
253
  6
CONTINUOUS
 90
10
 70
0
 10
-9.2550711911
 20
-30.693326045
 10
-9.3878064623
 20
-29.716723185
 10
-9.5070459649
 20
-28.730957865
 10
-9.612789699
 20
-27.736030085
 10
-9.7050545714
 20
-26.7317220805
 10
-9.7838236752
 20
-25.7182516161
 10
-9.8490462901
 20
-24.6962719852
 10
-9.9007055093
 20
-23.6660009526
 10
-9.9388182396
 20
-22.6272207536
 10
-9.9633844809
 20
-21.5799313883
  0
LWPOLYLINE
  5
303
100
AcDbEntity
  8
ASSI
100
AcDbPolyline
 62
253
  6
CONTINUOUS
 90
10
 70
0
 10
-9.2550711911
 20
-30.693326045
 10
-9.3878064623
 20
-29.716723185
 10
-9.5070459649
 20
-28.730957865
 10
-9.612789699
 20
-27.736030085
 10
-9.7050545714
 20
-26.7317220805
 10
-9.7838236752
 20
-25.7182516161
 10
-9.8490462901
 20
-24.6962719852
 10
-9.9007055093
 20
-23.6660009526
 10
-9.9388182396
 20
-22.6272207536
 10
-9.9633844809
 20
-21.5799313883
  0
LWPOLYLINE
  5
304
100
AcDbEntity
  8
RACCORDO
100
AcDbPolyline
 62
253
  6
CONTINUOUS
 90
10
 70
0
 10
-10.6642035511
 20
-21.5841005761
 10
-10.6898570663
 20
-19.8748350398
 10
-10.7090970924
 20
-18.1619147846
 10
-10.7219236102
 20
-16.4453705362
 10
-10.7283366776
 20
-14.7252524116
 10
-10.7283366772
 20
-13.0015720163
 10
-10.7219236085
 20
-11.2743020359
 10
-10.7090970885
 20
-9.5434536338
 10
-10.6898570583
 20
-7.8090768595
 10
-10.6642035366
 20
-6.0712024608
  0
LWPOLYLINE
  5
305
100
AcDbEntity
  8
ASSI
100
AcDbPolyline
 62
253
  6
CONTINUOUS
 90
10
 70
0
 10
-10.6642035511
 20
-21.5841005761
 10
-10.6898570663
 20
-19.8748350398
 10
-10.7090970924
 20
-18.1619147846
 10
-10.7219236102
 20
-16.4453705362
 10
-10.7283366776
 20
-14.7252524116
 10
-10.7283366772
 20
-13.0015720163
 10
-10.7219236085
 20
-11.2743020359
 10
-10.7090970885
 20
-9.5434536338
 10
-10.6898570583
 20
-7.8090768595
 10
-10.6642035366
 20
-6.0712024608
  0
LINE
  5
306
100
AcDbEntity
  8
0
100
AcDbLine
 62
7
  6
CONTINUOUS
 10
-12.1442026818
 20
12.9901324065
 11
-12.1527633861
 21
14.1277523234
  0
LINE
  5
307
100
AcDbEntity
  8
0
100
AcDbLine
 62
253
  6
CONTINUOUS
 10
-13.0561167583
 20
12.4500097972
 11
-13.0561167583
 21
13.6045518946
  0
LINE
  5
308
100
AcDbEntity
  8
0
100
AcDbLine
 62
7
  6
CONTINUOUS
 10
-12.8408885873
 20
13.728105047
 11
-12.8408885873
 21
12.5850411326
  0
LINE
  5
309
100
AcDbEntity
  8
0
100
AcDbLine
 62
7
  6
CONTINUOUS
 10
-11.6955290697
 20
12.704913251
 11
-11.6955290697
 21
11.5443965697
  0
LINE
  5
30A
100
AcDbEntity
  8
0
100
AcDbLine
 62
253
  6
CONTINUOUS
 10
-11.636950426
 20
12.6232583323
 11
-11.636950426
 21
11.4602330368
  0
LINE
  5
30B
100
AcDbEntity
  8
0
100
AcDbLine
 62
7
  6
CONTINUOUS
 10
-10.7133974163
 20
11.4310579295
 11
-10.7133974163
 21
10.0676465232
  0
LINE
  5
30C
100
AcDbEntity
  8
0
100
AcDbLine
 62
7
  6
CONTINUOUS
 10
-10.6488575656
 20
10.0303820223
 11
-10.6488575656
 21
9.4288450158
  0
LINE
  5
30D
100
AcDbEntity
  8
ASSI
100
AcDbLine
 62
7
  6
CONTINUOUS
 10
-10.6488575656
 20
10.0303820223
 11
-10.6488575656
 21
9.4288450158
  0
LINE
  5
30E
100
AcDbEntity
  8
0
100
AcDbLine
 62
7
  6
CONTINUOUS
 10
-10.5781468875
 20
9.9895545629
 11
-10.5781468875
 21
9.3880175564
  0
LWPOLYLINE
  5
30F
100
AcDbEntity
  8
0
100
AcDbPolyline
 62
253
  6
CONTINUOUS
 90
31
 70
0
 10
-11.636950426
 20
12.6232583323
 10
-11.6367588846
 20
12.631864879
 10
-11.6361843395
 20
12.6406744114
 10
-11.6352276907
 20
12.6496633593
 10
-11.6338905886
 20
12.6588093588
 10
-11.6321761653
 20
12.6680860725
 10
-11.6300897468
 20
12.677463039
 10
-11.6276375403
 20
12.6869128343
 10
-11.6248258385
 20
12.6964116104
 10
-11.6216622032
 20
12.705933775
 10
-11.6181551467
 20
12.7154535956
 10
-11.6143142432
 20
12.7249449816
 10
-11.6101500496
 20
12.7343818158
 10
-11.6056739619
 20
12.7437382951
 10
-11.6008981144
 20
12.7529890766
 10
-11.5958354636
 20
12.7621090611
 10
-11.5904997631
 20
12.7710734587
 10
-11.5849055497
 20
12.7798578333
 10
-11.5790680624
 20
12.7884382488
 10
-11.5730031919
 20
12.7967913443
 10
-11.5667274398
 20
12.8048943889
 10
-11.5602578913
 20
12.8127253195
 10
-11.5536121545
 20
12.8202628204
 10
-11.5468083168
 20
12.827486375
 10
-11.5398649013
 20
12.8343763156
 10
-11.5328008017
 20
12.8409138923
 10
-11.5256352495
 20
12.8470813056
 10
-11.5183877675
 20
12.8528617528
 10
-11.511078089
 20
12.8582394982
 10
-11.5037261034
 20
12.8631999123
 10
-11.4963518212
 20
12.8677294965
  0
LWPOLYLINE
  5
310
100
AcDbEntity
  8
RACCORDO
100
AcDbPolyline
 62
253
  6
CONTINUOUS
 90
10
 70
0
 10
-10.6642035442
 20
-6.0712024564
 10
-10.6395194601
 20
-4.9908744886
 10
-10.6011942688
 20
-3.9034597152
 10
-10.5492359823
 20
-2.8091874981
 10
-10.4836551996
 20
-1.7082895532
 10
-10.4044658355
 20
-0.6009972638
 10
-10.3116850313
 20
0.51245841
 10
-10.2053322165
 20
1.6318434412
 10
-10.085429192
 20
2.7569207439
 10
-9.9520007956
 20
3.8874528896
  0
LWPOLYLINE
  5
311
100
AcDbEntity
  8
ASSI
100
AcDbPolyline
 62
253
  6
CONTINUOUS
 90
10
 70
0
 10
-10.6642035442
 20
-6.0712024564
 10
-10.6395194601
 20
-4.9908744886
 10
-10.6011942688
 20
-3.9034597152
 10
-10.5492359823
 20
-2.8091874981
 10
-10.4836551996
 20
-1.7082895532
 10
-10.4044658355
 20
-0.6009972638
 10
-10.3116850313
 20
0.51245841
 10
-10.2053322165
 20
1.6318434412
 10
-10.085429192
 20
2.7569207439
 10
-9.9520007956
 20
3.8874528896
  0
LWPOLYLINE
  5
312
100
AcDbEntity
  8
0
100
AcDbPolyline
 62
7
  6
CONTINUOUS
 90
9
 70
0
 10
-11.6955290697
 20
12.704913251
 10
-11.6939123194
 20
12.7302870827
 10
-11.6889992226
 20
12.7555998748
 10
-11.6807670772
 20
12.7803246599
 10
-11.6692831328
 20
12.8039562384
 10
-11.6547475573
 20
12.8259482284
 10
-11.6374656897
 20
12.8458174593
 10
-11.6175861322
 20
12.8633494892
 10
-11.5976746353
 20
12.8768617315
  0
LWPOLYLINE
  5
313
100
AcDbEntity
  8
RACCORDO
100
AcDbPolyline
 62
253
  6
CONTINUOUS
 90
19
 70
0
 10
-9.9520007956
 20
3.8874528896
 10
-9.9418812165
 20
3.9541720192
 10
-9.9277463164
 20
4.0221132831
 10
-9.909677493
 20
4.0908835413
 10
-9.8877787055
 20
4.1600803364
 10
-9.8621761521
 20
4.2293076715
 10
-9.8330155813
 20
4.298178244
 10
-9.8004589301
 20
4.3662992362
 10
-9.7646946889
 20
4.4332691993
 10
-9.7259370451
 20
4.4986943218
 10
-9.6844077142
 20
4.5621948754
 10
-9.6403451995
 20
4.6234027323
 10
-9.5940146541
 20
4.6819594018
 10
-9.5456869394
 20
4.7375206747
 10
-9.4956354267
 20
4.789771197
 10
-9.4441460319
 20
4.8384209892
 10
-9.3915130179
 20
4.8831907864
 10
-9.338038167
 20
4.9238155991
 10
-9.2840277723
 20
4.9600585346
  0
LWPOLYLINE
  5
314
100
AcDbEntity
  8
ASSI
100
AcDbPolyline
 62
253
  6
CONTINUOUS
 90
19
 70
0
 10
-9.9520007956
 20
3.8874528896
 10
-9.9418812165
 20
3.9541720192
 10
-9.9277463164
 20
4.0221132831
 10
-9.909677493
 20
4.0908835413
 10
-9.8877787055
 20
4.1600803364
 10
-9.8621761521
 20
4.2293076715
 10
-9.8330155813
 20
4.298178244
 10
-9.8004589301
 20
4.3662992362
 10
-9.7646946889
 20
4.4332691993
 10
-9.7259370451
 20
4.4986943218
 10
-9.6844077142
 20
4.5621948754
 10
-9.6403451995
 20
4.6234027323
 10
-9.5940146541
 20
4.6819594018
 10
-9.5456869394
 20
4.7375206747
 10
-9.4956354267
 20
4.789771197
 10
-9.4441460319
 20
4.8384209892
 10
-9.3915130179
 20
4.8831907864
 10
-9.338038167
 20
4.9238155991
 10
-9.2840277723
 20
4.9600585346
  0
LWPOLYLINE
  5
315
100
AcDbEntity
  8
0
100
AcDbPolyline
 62
7
  6
CONTINUOUS
 90
25
 70
0
 10
-8.9871566298
 20
10.7943517353
 10
-8.9815786396
 20
10.805099154
 10
-8.9764715436
 20
10.8163091135
 10
-8.9718353418
 20
10.8279816139
 10
-8.9676648815
 20
10.8401344223
 10
-8.9639653154
 20
10.8527497716
 10
-8.9607521018
 20
10.8657743601
 10
-8.9580272768
 20
10.8792098923
 10
-8.9557888043
 20
10.8930546639
 10
-8.9540460344
 20
10.9072502596
 10
-8.9528010408
 20
10.9217981428
 10
-8.9520517498
 20
10.9366968502
 10
-8.9518012908
 20
10.9518835769
 10
-8.9520517498
 20
10.9673595275
 10
-8.9528010408
 20
10.9831234973
 10
-8.9540460344
 20
10.999109068
 10
-8.9557888043
 20
11.0153171706
 10
-8.9580272768
 20
11.0317468741
 10
-8.9607521018
 20
11.048328966
 10
-8.9639653154
 20
11.0650640931
 10
-8.9676648815
 20
11.0819516085
 10
-8.9718353418
 20
11.0989203599
 10
-8.9764715436
 20
11.1159466299
 10
-8.9815786396
 20
11.1330541359
 10
-8.9871566298
 20
11.150242878
  0
LWPOLYLINE
  5
316
100
AcDbEntity
  8
0
100
AcDbPolyline
 62
7
  6
CONTINUOUS
 90
31
 70
0
 10
-3.7147094728
 20
13.8143184277
 10
-3.7063966732
 20
13.823518706
 10
-3.6986173467
 20
13.8333615799
 10
-3.6913714931
 20
13.8438470493
 10
-3.6846485028
 20
13.8549953256
 10
-3.6784589855
 20
13.8667861975
 10
-3.6728347703
 20
13.8791590307
 10
-3.6677787693
 20
13.8921168229
 10
-3.6632880704
 20
13.9056565764
 10
-3.6593857667
 20
13.9197086634
 10
-3.6560748892
 20
13.9342757231
 10
-3.6533524069
 20
13.9493551163
 10
-3.6512323201
 20
13.9648692978
 10
-3.6497177317
 20
13.9808205073
 10
-3.6488055386
 20
13.9972065051
 10
-3.6485004319
 20
14.0139430269
 10
-3.6488055386
 20
14.0310318783
 10
-3.6497177317
 20
14.0484712538
 10
-3.6512323201
 20
14.066171472
 10
-3.6533524069
 20
14.0841338767
 10
-3.6560748892
 20
14.1023571242
 10
-3.6593857667
 20
14.1207475022
 10
-3.6632880704
 20
14.1393058716
 10
-3.6677787693
 20
14.1580313717
 10
-3.6728347703
 20
14.1768277072
 10
-3.6784589855
 20
14.195695243
 10
-3.6846485028
 20
14.2146336144
 10
-3.6913714931
 20
14.2335454314
 10
-3.6986173467
 20
14.2523982309
 10
-3.7063966732
 20
14.2712244761
 10
-3.7147094728
 20
14.2900241669
  0
LWPOLYLINE
  5
317
100
AcDbEntity
  8
0
100
AcDbPolyline
 62
7
  6
CONTINUOUS
 90
9
 70
0
 10
-8.5393933013
 20
9.9057543304
 10
-8.5656064981
 20
9.8879296479
 10
-8.5896695622
 20
9.8666146046
 10
-8.6110057071
 20
9.8421172249
 10
-8.6291181855
 20
9.8148270284
 10
-8.6435489588
 20
9.7853020266
 10
-8.6539732672
 20
9.7541737342
 10
-8.6602556601
 20
9.7217365268
 10
-8.6622120905
 20
9.6904770534
  0
LINE
  5
318
100
AcDbEntity
  8
0
100
AcDbLine
 62
7
  6
CONTINUOUS
 10
-8.5393933013
 20
9.9057543304
 11
-6.9562168914
 21
10.8412564551
  0
LINE
  5
319
100
AcDbEntity
  8
0
100
AcDbLine
 62
253
  6
CONTINUOUS
 10
-8.413240542
 20
9.8940423379
 11
-6.8304839388
 21
10.8292963979
  0
LINE
  5
31A
100
AcDbEntity
  8
0
100
AcDbLine
 62
7
  6
CONTINUOUS
 10
0.7329872885
 20
13.6821682686
 11
-4.9147616741
 21
10.416590459
  0
LINE
  5
31B
100
AcDbEntity
  8
0
100
AcDbLine
 62
7
  6
CONTINUOUS
 10
-6.9562132183
 20
10.8412586252
 11
-6.954758975
 21
10.842098287
  0
LINE
  5
31C
100
AcDbEntity
  8
ASSI
100
AcDbLine
 62
7
  6
CONTINUOUS
 10
9.3622506752
 20
19.444377831
 11
8.796578917
 21
19.1177660473
  0
LINE
  5
31D
100
AcDbEntity
  8
RACCORDO
100
AcDbLine
 62
253
  6
CONTINUOUS
 10
20.5438158031
 20
25.7370427263
 11
11.704670652
 21
20.6334396303
  0
LINE
  5
31E
100
AcDbEntity
  8
ASSI
100
AcDbLine
 62
253
  6
CONTINUOUS
 10
20.5438158031
 20
25.7370427263
 11
11.704670652
 21
20.6334396303
  0
LINE
  5
31F
100
AcDbEntity
  8
RACCORDO
100
AcDbLine
 62
253
  6
CONTINUOUS
 10
20.7559397602
 20
25.3696332556
 11
11.916794609
 21
20.2660301596
  0
LINE
  5
320
100
AcDbEntity
  8
ASSI
100
AcDbLine
 62
253
  6
CONTINUOUS
 10
20.7559397602
 20
25.3696332556
 11
11.916794609
 21
20.2660301596
  0
LINE
  5
321
100
AcDbEntity
  8
0
100
AcDbLine
 62
253
  6
CONTINUOUS
 10
-6.7347024716
 20
8.9248754931
 11
-4.605154509
 21
10.1544491085
  0
LINE
  5
322
100
AcDbEntity
  8
RACCORDO
100
AcDbLine
 62
253
  6
CONTINUOUS
 10
20.7559397602
 20
24.716438381
 11
13.3378526309
 21
20.4333350048
  0
LINE
  5
323
100
AcDbEntity
  8
ASSI
100
AcDbLine
 62
253
  6
CONTINUOUS
 10
20.7559397602
 20
24.716438381
 11
13.3378526309
 21
20.4333350048
  0
LINE
  5
324
100
AcDbEntity
  8
0
100
AcDbLine
 62
253
  6
CONTINUOUS
 10
-6.5579287679
 20
8.6186944572
 11
-4.4283808053
 21
9.8482680726
  0
LINE
  5
325
100
AcDbEntity
  8
RACCORDO
100
AcDbLine
 62
253
  6
CONTINUOUS
 10
20.9680637172
 20
24.3490289103
 11
13.5499765879
 21
20.0659255342
  0
LINE
  5
326
100
AcDbEntity
  8
ASSI
100
AcDbLine
 62
253
  6
CONTINUOUS
 10
20.9680637172
 20
24.3490289103
 11
13.5499765879
 21
20.0659255342
  0
LINE
  5
327
100
AcDbEntity
  8
RACCORDO
100
AcDbLine
 62
7
  6
CONTINUOUS
 10
11.916794609
 20
19.5271606294
 11
13.3378526309
 21
20.3334648067
  0
LINE
  5
328
100
AcDbEntity
  8
ASSI
100
AcDbLine
 62
7
  6
CONTINUOUS
 10
11.916794609
 20
19.5271606294
 11
13.3378526309
 21
20.3334648067
  0
LINE
  5
329
100
AcDbEntity
  8
0
100
AcDbLine
 62
7
  6
CONTINUOUS
 10
-6.9547552865
 20
10.8421003675
 11
-6.4198806878
 21
11.1437852937
  0
LINE
  5
32A
100
AcDbEntity
  8
0
100
AcDbLine
 62
253
  6
CONTINUOUS
 10
-6.8304839388
 20
10.8292963979
 11
-6.2960340601
 21
11.1307417697
  0
LWPOLYLINE
  5
32B
100
AcDbEntity
  8
0
100
AcDbPolyline
 62
253
  6
CONTINUOUS
 90
18
 70
0
 10
-8.5393933013
 20
9.9057543304
 10
-8.5356518223
 20
9.9078374162
 10
-8.5294229074
 20
9.9107795334
 10
-8.5229284839
 20
9.9132227179
 10
-8.5161832629
 20
9.9151614355
 10
-8.509202524
 20
9.9165912945
 10
-8.50200208
 20
9.917509056
 10
-8.4945982416
 20
9.917912641
 10
-8.4870077801
 20
9.9178011354
 10
-8.4792478897
 20
9.9171747916
 10
-8.4713361482
 20
9.9160350286
 10
-8.4632904775
 20
9.9143844281
 10
-8.4551291028
 20
9.9122267291
 10
-8.4468705115
 20
9.9095668194
 10
-8.4385334112
 20
9.9064107241
 10
-8.4301366872
 20
9.9027655925
 10
-8.42169936
 20
9.8986396818
 10
-8.413240542
 20
9.8940423379
  0
LWPOLYLINE
  5
32C
100
AcDbEntity
  8
0
100
AcDbPolyline
 62
253
  6
CONTINUOUS
 90
3
 70
0
 10
-6.4198806878
 20
11.1437852937
 10
-6.4175942264
 20
11.1450282706
 10
-6.4113718988
 20
11.1479665843
  0
LWPOLYLINE
  5
32D
100
AcDbEntity
  8
0
100
AcDbPolyline
 62
7
  6
CONTINUOUS
 90
18
 70
0
 10
-6.954758975
 20
10.842098287
 10
-6.9524721041
 20
10.8433414941
 10
-6.9462464323
 20
10.8462816857
 10
-6.9397584998
 20
10.8487210166
 10
-6.9330230109
 20
10.8506539574
 10
-6.9260552717
 20
10.8520761041
 10
-6.9188710147
 20
10.8529842654
 10
-6.911486499
 20
10.853376394
 10
-6.9039185447
 20
10.853251553
 10
-6.8961842232
 20
10.852610068
 10
-6.8883010172
 20
10.8514534151
 10
-6.8802869177
 20
10.8497841432
 10
-6.8721599874
 20
10.8476060879
 10
-6.8639385763
 20
10.8449242185
 10
-6.8556414796
 20
10.841744517
 10
-6.8472874863
 20
10.8380741924
 10
-6.8388953371
 20
10.8339216637
 10
-6.8304839388
 20
10.8292963979
  0
LWPOLYLINE
  5
32E
100
AcDbEntity
  8
RACCORDO
100
AcDbPolyline
 62
253
  6
CONTINUOUS
 90
10
 70
0
 10
11.704670652
 20
20.6334396303
 10
11.6917201667
 20
20.626595319
 10
11.6780142281
 20
20.620490316
 10
11.6635528362
 20
20.6151246215
 10
11.6482038119
 20
20.6104658149
 10
11.6320993343
 20
20.6065463167
 10
11.6156359405
 20
20.6034633887
 10
11.5989458095
 20
20.6012494514
 10
11.5818967624
 20
20.5998720842
 10
11.5644887991
 20
20.5993312872
  0
LWPOLYLINE
  5
32F
100
AcDbEntity
  8
ASSI
100
AcDbPolyline
 62
253
  6
CONTINUOUS
 90
10
 70
0
 10
11.704670652
 20
20.6334396303
 10
11.6917201667
 20
20.626595319
 10
11.6780142281
 20
20.620490316
 10
11.6635528362
 20
20.6151246215
 10
11.6482038119
 20
20.6104658149
 10
11.6320993343
 20
20.6065463167
 10
11.6156359405
 20
20.6034633887
 10
11.5989458095
 20
20.6012494514
 10
11.5818967624
 20
20.5998720842
 10
11.5644887991
 20
20.5993312872
  0
LWPOLYLINE
  5
330
100
AcDbEntity
  8
RACCORDO
100
AcDbPolyline
 62
253
  6
CONTINUOUS
 90
10
 70
0
 10
11.916794609
 20
20.2660301596
 10
11.8847529941
 20
20.249231829
 10
11.8503415836
 20
20.2340928784
 10
11.8138164871
 20
20.2207250753
 10
11.7754495389
 20
20.2092261823
 10
11.7355262927
 20
20.1996817547
 10
11.6943438974
 20
20.1921645075
 10
11.6522088621
 20
20.1867304184
 10
11.6094347728
 20
20.1834183207
 10
11.5663399768
 20
20.1822521375
  0
LWPOLYLINE
  5
331
100
AcDbEntity
  8
ASSI
100
AcDbPolyline
 62
253
  6
CONTINUOUS
 90
10
 70
0
 10
11.916794609
 20
20.2660301596
 10
11.8847529941
 20
20.249231829
 10
11.8503415836
 20
20.2340928784
 10
11.8138164871
 20
20.2207250753
 10
11.7754495389
 20
20.2092261823
 10
11.7355262927
 20
20.1996817547
 10
11.6943438974
 20
20.1921645075
 10
11.6522088621
 20
20.1867304184
 10
11.6094347728
 20
20.1834183207
 10
11.5663399768
 20
20.1822521375
  0
LWPOLYLINE
  5
332
100
AcDbEntity
  8
RACCORDO
100
AcDbPolyline
 62
7
  6
CONTINUOUS
 90
10
 70
0
 10
11.916794609
 20
19.5271606294
 10
11.8844724762
 20
19.5103742636
 10
11.8502330367
 20
19.4954225165
 10
11.8140762905
 20
19.4823053882
 10
11.7756515855
 20
19.4709396112
 10
11.7353095738
 20
19.4614084529
 10
11.6941022115
 20
19.4539617156
 10
11.6523801505
 20
19.4486826665
 10
11.609792739
 20
19.4454880383
 10
11.5663399768
 20
19.444377831
  0
LWPOLYLINE
  5
333
100
AcDbEntity
  8
ASSI
100
AcDbPolyline
 62
7
  6
CONTINUOUS
 90
10
 70
0
 10
11.916794609
 20
19.5271606294
 10
11.8844724762
 20
19.5103742636
 10
11.8502330367
 20
19.4954225165
 10
11.8140762905
 20
19.4823053882
 10
11.7756515855
 20
19.4709396112
 10
11.7353095738
 20
19.4614084529
 10
11.6941022115
 20
19.4539617156
 10
11.6523801505
 20
19.4486826665
 10
11.609792739
 20
19.4454880383
 10
11.5663399768
 20
19.444377831
  0
LINE
  5
334
100
AcDbEntity
  8
0
100
AcDbLine
 62
7
  6
CONTINUOUS
 10
-6.4198806878
 20
11.1437852937
 11
-6.3913373643
 21
11.157576192
  0
LWPOLYLINE
  5
335
100
AcDbEntity
  8
0
100
AcDbPolyline
 62
253
  6
CONTINUOUS
 90
16
 70
0
 10
-6.4113718988
 20
11.1479665843
 10
-6.4048906348
 20
11.1504021707
 10
-6.398165116
 20
11.1523295125
 10
-6.391210577
 20
11.153744244
 10
-6.3840427716
 20
11.1546431604
 10
-6.3766779364
 20
11.1550242254
 10
-6.3691327543
 20
11.154886576
 10
-6.361424317
 20
11.1542305239
 10
-6.3535700858
 20
11.1530575552
 10
-6.3455878522
 20
11.1513703269
 10
-6.3374956978
 20
11.149172661
 10
-6.3293119532
 20
11.1464695357
 10
-6.3210551563
 20
11.1432670742
 10
-6.3127440107
 20
11.1395725307
 10
-6.304397343
 20
11.1353942743
 10
-6.2960340601
 20
11.1307417697
  0
LWPOLYLINE
  5
336
100
AcDbEntity
  8
0
100
AcDbPolyline
 62
7
  6
CONTINUOUS
 90
7
 70
0
 10
-6.3913373643
 20
11.157576192
 10
-6.3608460341
 20
11.1677597352
 10
-6.3289618913
 20
11.1739903527
 10
-6.2962707849
 20
11.1760325555
 10
-6.2634849732
 20
11.1737686612
 10
-6.2313136097
 20
11.1672331078
 10
-6.2000794816
 20
11.1564557324
  0
LINE
  5
337
100
AcDbEntity
  8
0
100
AcDbLine
 62
253
  6
CONTINUOUS
 10
7.8419847624
 20
-17.2003290841
 11
7.3499384646
 21
-16.9162277185
  0
LINE
  5
338
100
AcDbEntity
  8
RACCORDO
100
AcDbLine
 62
253
  6
CONTINUOUS
 10
-25.4965316579
 20
2.4927979037
 11
-10.6642035366
 21
-6.0712024608
  0
LINE
  5
339
100
AcDbEntity
  8
ASSI
100
AcDbLine
 62
253
  6
CONTINUOUS
 10
-25.4965316579
 20
2.4927979037
 11
-10.6642035366
 21
-6.0712024608
  0
LWPOLYLINE
  5
33A
100
AcDbEntity
  8
RACCORDO
100
AcDbPolyline
 62
253
  6
CONTINUOUS
 90
9
 70
0
 10
-25.4965313625
 20
2.4928162179
 10
-25.5311852023
 20
2.5149559028
 10
-25.5616803376
 20
2.5389620736
 10
-25.5876900329
 20
2.5645775196
 10
-25.6089356111
 20
2.5915277881
 10
-25.6251894397
 20
2.6195241245
 10
-25.6362773696
 20
2.6482665661
 10
-25.6420806006
 20
2.6774471564
 10
-25.6429776824
 20
2.6971669191
  0
LWPOLYLINE
  5
33B
100
AcDbEntity
  8
ASSI
100
AcDbPolyline
 62
253
  6
CONTINUOUS
 90
9
 70
0
 10
-25.4965313625
 20
2.4928162179
 10
-25.5311852023
 20
2.5149559028
 10
-25.5616803376
 20
2.5389620736
 10
-25.5876900329
 20
2.5645775196
 10
-25.6089356111
 20
2.5915277881
 10
-25.6251894397
 20
2.6195241245
 10
-25.6362773696
 20
2.6482665661
 10
-25.6420806006
 20
2.6774471564
 10
-25.6429776824
 20
2.6971669191
  0
LWPOLYLINE
  5
33C
100
AcDbEntity
  8
0
100
AcDbPolyline
 62
253
  6
CONTINUOUS
 90
3
 70
0
 10
-8.6615281215
 20
9.3593315449
 10
-8.66212392
 20
9.3661682677
 10
-8.6622121027
 20
9.3700018668
  0
LWPOLYLINE
  5
33D
100
AcDbEntity
  8
0
100
AcDbPolyline
 62
7
  6
CONTINUOUS
 90
3
 70
0
 10
-9.1394577953
 20
18.0113985541
 10
-9.1394631016
 20
18.0114892706
 10
-9.1398591919
 20
18.0120761058
  0
LINE
  5
33E
100
AcDbEntity
  8
0
100
AcDbLine
 62
7
  6
CONTINUOUS
 10
-8.6605108487
 20
9.3408860078
 11
-8.6622121001
 21
9.3700225635
  0
LWPOLYLINE
  5
33F
100
AcDbEntity
  8
0
100
AcDbPolyline
 62
253
  6
CONTINUOUS
 90
18
 70
0
 10
-8.588988798
 20
9.2679332098
 10
-8.5888205021
 20
9.2591257445
 10
-8.5883159349
 20
9.2505293927
 10
-8.587476057
 20
9.2421605224
 10
-8.5863024713
 20
9.2340350896
 10
-8.5847974104
 20
9.2261685429
 10
-8.582963724
 20
9.2185758009
 10
-8.58080488
 20
9.2112712788
 10
-8.5783249925
 20
9.204268945
 10
-8.5755288128
 20
9.1975822214
 10
-8.5724216903
 20
9.1912238763
 10
-8.5690095282
 20
9.185205968
 10
-8.5652988002
 20
9.1795399117
 10
-8.5612965394
 20
9.1742364618
 10
-8.5570103903
 20
9.1693057623
 10
-8.5524485808
 20
9.1647572688
 10
-8.5476198513
 20
9.1605996637
 10
-8.5425333655
 20
9.1568408065
  0
LWPOLYLINE
  5
340
100
AcDbEntity
  8
RACCORDO
100
AcDbPolyline
 62
253
  6
CONTINUOUS
 90
9
 70
0
 10
-9.9633844809
 20
-21.5799313883
 10
-9.9890127643
 20
-19.8723162641
 10
-10.0082339766
 20
-18.1611131874
 10
-10.0210481176
 20
-16.4463221582
 10
-10.0274551871
 20
-14.7279328031
 10
-10.0274551853
 20
-13.0059554955
 10
-10.0210481137
 20
-11.2804213558
 10
-10.0082339727
 20
-9.5513407574
 10
-9.9890127617
 20
-7.818703327
  0
LWPOLYLINE
  5
341
100
AcDbEntity
  8
ASSI
100
AcDbPolyline
 62
253
  6
CONTINUOUS
 90
9
 70
0
 10
-9.9633844809
 20
-21.5799313883
 10
-9.9890127643
 20
-19.8723162641
 10
-10.0082339766
 20
-18.1611131874
 10
-10.0210481176
 20
-16.4463221582
 10
-10.0274551871
 20
-14.7279328031
 10
-10.0274551853
 20
-13.0059554955
 10
-10.0210481137
 20
-11.2804213558
 10
-10.0082339727
 20
-9.5513407574
 10
-9.9890127617
 20
-7.818703327
  0
LINE
  5
342
100
AcDbEntity
  8
DRAFT
100
AcDbLine
 62
253
  6
CONTINUOUS
 10
-9.5890973578
 20
14.6645436111
 11
-9.6027524837
 21
16.4791555508
  0
LINE
  5
343
100
AcDbEntity
  8
0
100
AcDbLine
 62
7
  6
CONTINUOUS
 10
-8.6118738644
 20
16.6266404122
 11
-8.6101876606
 21
16.0893640041
  0
LINE
  5
344
100
AcDbEntity
  8
0
100
AcDbLine
 62
253
  6
CONTINUOUS
 10
-8.6622120905
 20
9.6904770534
 11
-8.6622121027
 21
9.6905220524
  0
LINE
  5
345
100
AcDbEntity
  8
0
100
AcDbLine
 62
7
  6
CONTINUOUS
 10
-10.053987542
 20
9.6869115261
 11
-10.053987542
 21
11.0503229324
  0
LINE
  5
346
100
AcDbEntity
  8
0
100
AcDbLine
 62
7
  6
CONTINUOUS
 10
-9.1394577256
 20
16.8345547955
 11
-9.1394577256
 21
18.0109225204
  0
LINE
  5
347
100
AcDbEntity
  8
0
100
AcDbLine
 62
7
  6
CONTINUOUS
 10
-8.9871566298
 20
10.359944599
 11
-8.9871566298
 21
11.6662970419
  0
LINE
  5
348
100
AcDbEntity
  8
0
100
AcDbLine
 62
7
  6
CONTINUOUS
 10
-8.7396692564
 20
8.3694705428
 11
-8.7396692564
 21
8.4381111083
  0
LINE
  5
349
100
AcDbEntity
  8
0
100
AcDbLine
 62
7
  6
CONTINUOUS
 10
-8.6622121027
 20
9.690522031
 11
-8.6622121027
 21
9.3700018581
  0
LINE
  5
34A
100
AcDbEntity
  8
0
100
AcDbLine
 62
253
  6
CONTINUOUS
 10
-8.588988798
 20
9.5884533826
 11
-8.588988798
 21
9.2679332098
  0
LINE
  5
34B
100
AcDbEntity
  8
0
100
AcDbLine
 62
7
  6
CONTINUOUS
 10
-7.9592191484
 20
8.8197696192
 11
-7.9592191484
 21
8.5403600025
  0
LINE
  5
34C
100
AcDbEntity
  8
0
100
AcDbLine
 62
7
  6
CONTINUOUS
 10
-7.891141119
 20
8.3951441792
 11
-7.891141119
 21
8.4381156395
  0
LINE
  5
34D
100
AcDbEntity
  8
0
100
AcDbLine
 62
253
  6
CONTINUOUS
 10
-7.8859958437
 20
8.7774914008
 11
-7.8859958437
 21
8.4351402908
  0
LINE
  5
34E
100
AcDbEntity
  8
DRAFT
100
AcDbLine
 62
253
  6
CONTINUOUS
 10
-8.1665514126
 20
15.5326330456
 11
-8.1634934249
 21
15.9390050641
  0
LINE
  5
34F
100
AcDbEntity
  8
RACCORDO
100
AcDbLine
 62
253
  6
CONTINUOUS
 10
-9.9890127617
 20
-7.818703327
 11
-9.9633844809
 21
-6.0825090645
  0
LINE
  5
350
100
AcDbEntity
  8
ASSI
100
AcDbLine
 62
253
  6
CONTINUOUS
 10
-9.9890127617
 20
-7.818703327
 11
-9.9633844809
 21
-6.0825090645
  0
LWPOLYLINE
  5
351
100
AcDbEntity
  8
0
100
AcDbPolyline
 62
253
  6
CONTINUOUS
 90
34
 70
0
 10
-8.588988798
 20
9.5884533826
 10
-8.5887899952
 20
9.5982458643
 10
-8.5881940329
 20
9.6082459081
 10
-8.5872022497
 20
9.6184310227
 10
-8.5858168737
 20
9.628778307
 10
-8.5840410196
 20
9.639264482
 10
-8.5818786844
 20
9.6498659422
 10
-8.5793347338
 20
9.6605588366
 10
-8.5764148891
 20
9.6713191202
 10
-8.5731257191
 20
9.6821225873
 10
-8.5694746222
 20
9.6929449403
 10
-8.5654698116
 20
9.7037618356
 10
-8.5611202994
 20
9.7145489356
 10
-8.5564358707
 20
9.7252819764
 10
-8.5514270626
 20
9.7359368192
 10
-8.5461051441
 20
9.7464894965
 10
-8.5404820837
 20
9.7569162793
 10
-8.534570533
 20
9.7671937113
 10
-8.5283838012
 20
9.7772986593
 10
-8.5219358246
 20
9.7872083704
 10
-8.5152410914
 20
9.7969005871
 10
-8.5083146152
 20
9.8063535742
 10
-8.5011719047
 20
9.8155461536
 10
-8.4938290872
 20
9.8244575574
 10
-8.4863028406
 20
9.8330675577
 10
-8.4786102063
 20
9.8413566976
 10
-8.4707683937
 20
9.8493064718
 10
-8.4627948948
 20
9.8568991612
 10
-8.4547064173
 20
9.8641187468
 10
-8.446522346
 20
9.8709478191
 10
-8.4382646752
 20
9.8773683297
 10
-8.4299532546
 20
9.8833655489
 10
-8.4216056222
 20
9.8889275205
 10
-8.413240542
 20
9.8940423379
  0
LWPOLYLINE
  5
352
100
AcDbEntity
  8
RACCORDO
100
AcDbPolyline
 62
253
  6
CONTINUOUS
 90
10
 70
0
 10
-9.9633844809
 20
-6.0825090645
 10
-9.938818135
 20
-5.0078223018
 10
-9.9007053113
 20
-3.9265388568
 10
-9.8490460098
 20
-2.8386587296
 10
-9.7838233036
 20
-1.7439452928
 10
-9.7050541195
 20
-0.6426351738
 10
-9.6127892382
 20
0.464561745
 10
-9.5070455865
 20
1.5774088362
 10
-9.3878062374
 20
2.6961427271
 10
-9.2550711911
 20
3.8207634178
  0
LWPOLYLINE
  5
353
100
AcDbEntity
  8
ASSI
100
AcDbPolyline
 62
253
  6
CONTINUOUS
 90
10
 70
0
 10
-9.9633844809
 20
-6.0825090645
 10
-9.938818135
 20
-5.0078223018
 10
-9.9007053113
 20
-3.9265388568
 10
-9.8490460098
 20
-2.8386587296
 10
-9.7838233036
 20
-1.7439452928
 10
-9.7050541195
 20
-0.6426351738
 10
-9.6127892382
 20
0.464561745
 10
-9.5070455865
 20
1.5774088362
 10
-9.3878062374
 20
2.6961427271
 10
-9.2550711911
 20
3.8207634178
  0
LWPOLYLINE
  5
354
100
AcDbEntity
  8
RACCORDO
100
AcDbPolyline
 62
253
  6
CONTINUOUS
 90
19
 70
0
 10
-9.2550711911
 20
3.8207634178
 10
-9.2499361456
 20
3.8542237562
 10
-9.2428620518
 20
3.8879545048
 10
-9.2338489099
 20
3.9219556637
 10
-9.222821724
 20
3.9564436563
 10
-9.2098554898
 20
3.9912020592
 10
-9.1951751947
 20
4.0255816021
 10
-9.1787510362
 20
4.0595622307
 10
-9.1606128167
 20
4.0931639995
 10
-9.1410749306
 20
4.1257978015
 10
-9.1201103902
 20
4.1574467316
 10
-9.0977461831
 20
4.1881276951
 10
-9.0743776666
 20
4.2173023011
 10
-9.049976321
 20
4.2449481952
 10
-9.024570666
 20
4.2710877319
 10
-8.998641618
 20
4.2952495832
 10
-8.9723494824
 20
4.3172766396
 10
-8.9455339539
 20
4.3373260107
 10
-8.9181950323
 20
4.3553976963
  0
LWPOLYLINE
  5
355
100
AcDbEntity
  8
ASSI
100
AcDbPolyline
 62
253
  6
CONTINUOUS
 90
19
 70
0
 10
-9.2550711911
 20
3.8207634178
 10
-9.2499361456
 20
3.8542237562
 10
-9.2428620518
 20
3.8879545048
 10
-9.2338489099
 20
3.9219556637
 10
-9.222821724
 20
3.9564436563
 10
-9.2098554898
 20
3.9912020592
 10
-9.1951751947
 20
4.0255816021
 10
-9.1787510362
 20
4.0595622307
 10
-9.1606128167
 20
4.0931639995
 10
-9.1410749306
 20
4.1257978015
 10
-9.1201103902
 20
4.1574467316
 10
-9.0977461831
 20
4.1881276951
 10
-9.0743776666
 20
4.2173023011
 10
-9.049976321
 20
4.2449481952
 10
-9.024570666
 20
4.2710877319
 10
-8.998641618
 20
4.2952495832
 10
-8.9723494824
 20
4.3172766396
 10
-8.9455339539
 20
4.3373260107
 10
-8.9181950323
 20
4.3553976963
  0
LWPOLYLINE
  5
356
100
AcDbEntity
  8
0
100
AcDbPolyline
 62
253
  6
CONTINUOUS
 90
27
 70
0
 10
-6.5579287679
 20
8.2981742843
 10
-6.5623452553
 20
8.2874941591
 10
-6.5671488576
 20
8.2770670978
 10
-6.5723290018
 20
8.2669167815
 10
-6.5778746784
 20
8.2570655739
 10
-6.5837732425
 20
8.247536676
 10
-6.5900101841
 20
8.238353826
 10
-6.5965708807
 20
8.2295384506
 10
-6.6034410159
 20
8.2211096886
 10
-6.6106052309
 20
8.2130864062
 10
-6.6180474742
 20
8.2054866387
 10
-6.6257508693
 20
8.1983276766
 10
-6.6336978805
 20
8.1916258368
 10
-6.6418705075
 20
8.1853962917
 10
-6.6502503606
 20
8.1796530519
 10
-6.6588185427
 20
8.1744090704
 10
-6.6675557271
 20
8.1696761813
 10
-6.6764421799
 20
8.1654650795
 10
-6.685457823
 20
8.1617852815
 10
-6.6945822984
 20
8.1586450959
 10
-6.703795016
 20
8.1560516081
 10
-6.7130751802
 20
8.1540106725
 10
-6.7224018429
 20
8.152526896
 10
-6.7317539507
 20
8.1516036281
 10
-6.7411103927
 20
8.151242953
 10
-6.7504500594
 20
8.1514456853
 10
-6.7565973629
 20
8.1518881898
  0
LWPOLYLINE
  5
357
100
AcDbEntity
  8
0
100
AcDbPolyline
 62
7
  6
CONTINUOUS
 90
6
 70
0
 10
-4.4106808048
 20
9.4662789673
 10
-4.3922918749
 20
9.4926718195
 10
-4.3774738563
 20
9.5211397592
 10
-4.3664375731
 20
9.5512287204
 10
-4.3593315863
 20
9.5825433581
 10
-4.3562970198
 20
9.6145445693
  0
LINE
  5
358
100
AcDbEntity
  8
0
100
AcDbLine
 62
253
  6
CONTINUOUS
 10
-4.9566479771
 20
8.8578105057
 11
-4.4283808053
 21
9.5206227721
  0
LINE
  5
359
100
AcDbEntity
  8
0
100
AcDbLine
 62
7
  6
CONTINUOUS
 10
-4.9566479771
 20
8.7812586628
 11
-4.4106808048
 21
9.4662789673
  0
LWPOLYLINE
  5
35A
100
AcDbEntity
  8
0
100
AcDbPolyline
 62
7
  6
CONTINUOUS
 90
37
 70
0
 10
-5.8467081598
 20
8.2326842715
 10
-5.8524468431
 20
8.2257731442
 10
-5.8583725627
 20
8.2189476878
 10
-5.8644840443
 20
8.2122163368
 10
-5.8707826207
 20
8.205588088
 10
-5.8772636759
 20
8.1990709042
 10
-5.8839167035
 20
8.1926717542
 10
-5.8907395882
 20
8.1863992793
 10
-5.8977297905
 20
8.1802619717
 10
-5.9048759071
 20
8.1742666864
 10
-5.9121750915
 20
8.1684220937
 10
-5.9196241092
 20
8.1627366896
 10
-5.9272107177
 20
8.1572171791
 10
-5.9349313131
 20
8.1518721942
 10
-5.9427819486
 20
8.146710163
 10
-5.9507496085
 20
8.1417376025
 10
-5.9588299329
 20
8.1369630209
 10
-5.9670182197
 20
8.1323947222
 10
-5.9753006738
 20
8.1280390422
 10
-5.9836721519
 20
8.1239042886
 10
-5.992127175
 20
8.1199985563
 10
-6.0006511617
 20
8.1163279877
 10
-6.0092381618
 20
8.1129005972
 10
-6.0178818912
 20
8.1097241766
 10
-6.0265669595
 20
8.1068046469
 10
-6.0352865819
 20
8.104149621
 10
-6.0440336461
 20
8.1017664734
 10
-6.0527919279
 20
8.0996608442
 10
-6.0615537793
 20
8.0978398166
 10
-6.0703112462
 20
8.0963102066
 10
-6.0790472689
 20
8.0950772689
 10
-6.0877533075
 20
8.0941474026
 10
-6.0964205725
 20
8.0935266953
 10
-6.1050312224
 20
8.0932198553
 10
-6.1135757763
 20
8.0932324147
 10
-6.1220446712
 20
8.0935695324
 10
-6.1288276324
 20
8.0940824303
  0
LINE
  5
35B
100
AcDbEntity
  8
0
100
AcDbLine
 62
7
  6
CONTINUOUS
 10
-4.9566479771
 20
8.032779417
 11
-5.8467081598
 21
7.4712659353
  0
LINE
  5
35C
100
AcDbEntity
  8
RACCORDO
100
AcDbLine
 62
253
  6
CONTINUOUS
 10
-9.2840277723
 20
4.9600585346
 11
-5.6988409727
 21
7.1723044798
  0
LINE
  5
35D
100
AcDbEntity
  8
ASSI
100
AcDbLine
 62
253
  6
CONTINUOUS
 10
-9.2840277723
 20
4.9600585346
 11
-5.6988409727
 21
7.1723044798
  0
LINE
  5
35E
100
AcDbEntity
  8
0
100
AcDbLine
 62
253
  6
CONTINUOUS
 10
-4.6028254618
 20
7.8284867312
 11
-5.6819995258
 21
7.1625804394
  0
LINE
  5
35F
100
AcDbEntity
  8
RACCORDO
100
AcDbLine
 62
253
  6
CONTINUOUS
 10
-8.9181950323
 20
4.3553976963
 11
-5.3455567067
 21
6.559900583
  0
LINE
  5
360
100
AcDbEntity
  8
ASSI
100
AcDbLine
 62
253
  6
CONTINUOUS
 10
-8.9181950323
 20
4.3553976963
 11
-5.3455567067
 21
6.559900583
  0
LINE
  5
361
100
AcDbEntity
  8
0
100
AcDbLine
 62
253
  6
CONTINUOUS
 10
-4.2495411959
 20
7.2160828344
 11
-5.3287152598
 21
6.5501765426
  0
LINE
  5
362
100
AcDbEntity
  8
0
100
AcDbLine
 62
7
  6
CONTINUOUS
 10
1.7080425306
 20
12.4322833234
 11
-4.5640194351
 21
8.6178797192
  0
LINE
  5
363
100
AcDbEntity
  8
DRAFT
100
AcDbLine
 62
7
  6
CONTINUOUS
 10
-4.1218353163
 20
8.3625681509
 11
0.3305334445
 21
11.063440879
  0
LINE
  5
364
100
AcDbEntity
  8
0
100
AcDbLine
 62
7
  6
CONTINUOUS
 10
1.7080425306
 20
12.809514769
 11
-4.8982798937
 21
8.8198814612
  0
LINE
  5
365
100
AcDbEntity
  8
DRAFT
100
AcDbLine
 62
7
  6
CONTINUOUS
 10
1.4393291421
 20
12.0194456193
 11
0.7758486196
 21
11.6228706647
  0
LINE
  5
366
100
AcDbEntity
  8
0
100
AcDbLine
 62
253
  6
CONTINUOUS
 10
-3.9021541453
 20
8.235726996
 11
-4.6030900991
 21
7.8286395294
  0
LINE
  5
367
100
AcDbEntity
  8
0
100
AcDbLine
 62
253
  6
CONTINUOUS
 10
-3.5486052421
 20
7.6233709691
 11
-4.2495411959
 21
7.2162835025
  0
LINE
  5
368
100
AcDbEntity
  8
0
100
AcDbLine
 62
7
  6
CONTINUOUS
 10
0.3112975428
 20
11.0745474476
 11
1.018404324
 21
11.4828220409
  0
LWPOLYLINE
  5
369
100
AcDbEntity
  8
ASSI
100
AcDbPolyline
 62
7
  6
CONTINUOUS
 90
4
 70
0
 10
19.5981472514
 20
14.9740147692
 10
19.6349856145
 20
14.9866087683
 10
19.7478001006
 20
15.0359296771
 10
19.8628000426
 20
15.0967505442
  0
LWPOLYLINE
  5
36A
100
AcDbEntity
  8
RACCORDO
100
AcDbPolyline
 62
253
  6
CONTINUOUS
 90
16
 70
0
 10
-10.6642032198
 20
-6.0711841426
 10
-10.6257624306
 20
-6.0912483805
 10
-10.5839460985
 20
-6.1089939451
 10
-10.5392022584
 20
-6.1242307042
 10
-10.4920103115
 20
-6.1367954058
 10
-10.4428758887
 20
-6.1465534273
 10
-10.3923254334
 20
-6.1534002178
 10
-10.340900561
 20
-6.1572624184
 10
-10.2891522554
 20
-6.1580986483
 10
-10.2376349662
 20
-6.1558999476
 10
-10.1869006675
 20
-6.150689874
 10
-10.1374929445
 20
-6.1425242502
 10
-10.0899411688
 20
-6.1314905654
 10
-10.0447548266
 20
-6.1177070384
 10
-10.0024180604
 20
-6.1013213508
 10
-9.9633844809
 20
-6.0825090645
  0
LWPOLYLINE
  5
36B
100
AcDbEntity
  8
ASSI
100
AcDbPolyline
 62
253
  6
CONTINUOUS
 90
16
 70
0
 10
-10.6642032198
 20
-6.0711841426
 10
-10.6257624306
 20
-6.0912483805
 10
-10.5839460985
 20
-6.1089939451
 10
-10.5392022584
 20
-6.1242307042
 10
-10.4920103115
 20
-6.1367954058
 10
-10.4428758887
 20
-6.1465534273
 10
-10.3923254334
 20
-6.1534002178
 10
-10.340900561
 20
-6.1572624184
 10
-10.2891522554
 20
-6.1580986483
 10
-10.2376349662
 20
-6.1558999476
 10
-10.1869006675
 20
-6.150689874
 10
-10.1374929445
 20
-6.1425242502
 10
-10.0899411688
 20
-6.1314905654
 10
-10.0447548266
 20
-6.1177070384
 10
-10.0024180604
 20
-6.1013213508
 10
-9.9633844809
 20
-6.0825090645
  0
LWPOLYLINE
  5
36C
100
AcDbEntity
  8
0
100
AcDbPolyline
 62
253
  6
CONTINUOUS
 90
18
 70
0
 10
-6.9104507276
 20
-30.9581395949
 10
-6.9102519797
 20
-30.9677012009
 10
-6.9096561829
 20
-30.9770117978
 10
-6.9086646769
 20
-30.98605045
 10
-6.9072796913
 20
-30.9947968335
 10
-6.9055043401
 20
-31.0032312813
 10
-6.9033426156
 20
-31.011334828
 10
-6.9007993783
 20
-31.0190892521
 10
-6.8978803471
 20
-31.0264771172
 10
-6.8945920856
 20
-31.0334818111
 10
-6.8909419876
 20
-31.0400875833
 10
-6.8869382607
 20
-31.0462795801
 10
-6.8825899076
 20
-31.0520438784
 10
-6.8779067059
 20
-31.0573675168
 10
-6.8728991861
 20
-31.0622385246
 10
-6.8675786081
 20
-31.0666459489
 10
-6.8619569354
 20
-31.0705798795
 10
-6.8586800723
 20
-31.0725738102
  0
LWPOLYLINE
  5
36D
100
AcDbEntity
  8
0
100
AcDbPolyline
 62
253
  6
CONTINUOUS
 90
19
 70
0
 10
-6.9104507276
 20
8.298766365
 10
-6.9102828953
 20
8.2899709002
 10
-6.9097794886
 20
8.281383056
 10
-6.9089411216
 20
8.2730193736
 10
-6.907768895
 20
8.2648950878
 10
-6.9062647764
 20
8.2570268798
 10
-6.9044319733
 20
8.2494325442
 10
-6.9022742484
 20
8.2421273836
 10
-6.8997955143
 20
8.235124399
 10
-6.8970004569
 20
8.2284368491
 10
-6.89389436
 20
8.2220774256
 10
-6.8904831498
 20
8.2160583066
 10
-6.8867733654
 20
8.2103910415
 10
-6.8827721021
 20
8.2050864545
 10
-6.8784869563
 20
8.2001546018
 10
-6.8739260562
 20
8.1956048402
 10
-6.8690980502
 20
8.1914458118
 10
-6.864012157
 20
8.1876854721
 10
-6.8586812077
 20
8.1843328053
  0
LINE
  5
36E
100
AcDbEntity
  8
0
100
AcDbLine
 62
7
  6
CONTINUOUS
 10
-5.7675745137
 20
17.4308534453
 11
-5.7642670308
 21
16.9913263338
  0
LINE
  5
36F
100
AcDbEntity
  8
0
100
AcDbLine
 62
253
  6
CONTINUOUS
 10
-6.9104507276
 20
-30.9581395949
 11
-6.9104507276
 21
-30.637619422
  0
LINE
  5
370
100
AcDbEntity
  8
0
100
AcDbLine
 62
253
  6
CONTINUOUS
 10
-6.9104507276
 20
8.298766365
 11
-6.9104507276
 21
8.6192865378
  0
LINE
  5
371
100
AcDbEntity
  8
0
100
AcDbLine
 62
253
  6
CONTINUOUS
 10
-6.5579287679
 20
-30.9587316755
 11
-6.5579287679
 21
-30.6382115027
  0
LINE
  5
372
100
AcDbEntity
  8
0
100
AcDbLine
 62
253
  6
CONTINUOUS
 10
-6.5579287679
 20
8.2981742843
 11
-6.5579287679
 21
8.6186944572
  0
LINE
  5
373
100
AcDbEntity
  8
0
100
AcDbLine
 62
253
  6
CONTINUOUS
 10
-6.1992301195
 20
7.4612229018
 11
-6.1992301195
 21
8.100565172
  0
LINE
  5
374
100
AcDbEntity
  8
0
100
AcDbLine
 62
253
  6
CONTINUOUS
 10
-5.8467081598
 20
-29.7609228474
 11
-5.8467081598
 21
-29.5002989498
  0
LINE
  5
375
100
AcDbEntity
  8
0
100
AcDbLine
 62
253
  6
CONTINUOUS
 10
-5.8467081598
 20
7.4712659353
 11
-5.8467081598
 21
8.2326842715
  0
LINE
  5
376
100
AcDbEntity
  8
RACCORDO
100
AcDbLine
 62
7
  6
CONTINUOUS
 10
-5.3455567067
 20
-29.0727556565
 11
-5.3455567067
 21
-21.9930116766
  0
LINE
  5
377
100
AcDbEntity
  8
DRAFT
100
AcDbLine
 62
7
  6
CONTINUOUS
 10
-5.3455567067
 20
-21.9930116766
 11
-5.3455567067
 21
-0.5198433969
  0
LINE
  5
378
100
AcDbEntity
  8
RACCORDO
100
AcDbLine
 62
7
  6
CONTINUOUS
 10
-5.3455567067
 20
-0.5198433969
 11
-5.3455567067
 21
6.559900583
  0
LINE
  5
379
100
AcDbEntity
  8
ASSI
100
AcDbLine
 62
7
  6
CONTINUOUS
 10
-5.3455567067
 20
-29.0727556565
 11
-5.3455567067
 21
6.559900583
  0
LINE
  5
37A
100
AcDbEntity
  8
0
100
AcDbLine
 62
7
  6
CONTINUOUS
 10
-5.3287152598
 20
6.5501765426
 11
-5.3287152598
 21
-0.4673666109
  0
LINE
  5
37B
100
AcDbEntity
  8
0
100
AcDbLine
 62
7
  6
CONTINUOUS
 10
-5.3287152598
 20
-3.9392963985
 11
-5.3287152598
 21
-18.5930067557
  0
LINE
  5
37C
100
AcDbEntity
  8
0
100
AcDbLine
 62
7
  6
CONTINUOUS
 10
-5.3287152598
 20
-22.0649365433
 11
-5.3287152598
 21
-29.0824796969
  0
LWPOLYLINE
  5
37D
100
AcDbEntity
  8
0
100
AcDbPolyline
 62
253
  6
CONTINUOUS
 90
25
 70
0
 10
-6.9104507276
 20
-30.637619422
 10
-6.9102824317
 20
-30.6286176129
 10
-6.9097778645
 20
-30.6194385995
 10
-6.9089379866
 20
-30.6100998593
 10
-6.9077644009
 20
-30.6006191992
 10
-6.90625934
 20
-30.5910146459
 10
-6.9044256536
 20
-30.5813044087
 10
-6.9022668095
 20
-30.5715069076
 10
-6.8997869221
 20
-30.561640862
 10
-6.8969907424
 20
-30.5517251801
 10
-6.8938836199
 20
-30.5417788079
 10
-6.8904714577
 20
-30.5318206203
 10
-6.8867607298
 20
-30.5218695083
 10
-6.882758469
 20
-30.5119443481
 10
-6.8784723199
 20
-30.5020641109
 10
-6.8739105104
 20
-30.4922477541
 10
-6.8690817808
 20
-30.4825140532
 10
-6.8639952951
 20
-30.4728814497
 10
-6.8586606801
 20
-30.4633681648
 10
-6.8530874099
 20
-30.4539911948
 10
-6.847286724
 20
-30.4447695474
 10
-6.8412717988
 20
-30.4357239006
 10
-6.8350550339
 20
-30.4268722957
 10
-6.8286477714
 20
-30.4182302961
 10
-6.8220623799
 20
-30.4098140976
  0
LWPOLYLINE
  5
37E
100
AcDbEntity
  8
0
100
AcDbPolyline
 62
253
  6
CONTINUOUS
 90
34
 70
0
 10
-6.9104507276
 20
8.6192865378
 10
-6.9102519797
 20
8.6290776529
 10
-6.9096561829
 20
8.6390762609
 10
-6.9086646769
 20
8.6492598794
 10
-6.9072796913
 20
8.6596056096
 10
-6.9055043401
 20
8.6700901884
 10
-6.9033426156
 20
8.6806900405
 10
-6.9007993783
 20
8.6913813312
 10
-6.8978803471
 20
8.7021400204
 10
-6.8945920856
 20
8.7129419163
 10
-6.8909419876
 20
8.7237627301
 10
-6.8869382607
 20
8.7345781304
 10
-6.8825899076
 20
8.7453637979
 10
-6.8779067059
 20
8.7560954802
 10
-6.8728991861
 20
8.7667490463
 10
-6.8675786081
 20
8.7773005409
 10
-6.8619569354
 20
8.7877262381
 10
-6.8560468089
 20
8.798002695
 10
-6.849861518
 20
8.8081068041
 10
-6.8434149707
 20
8.8180158457
 10
-6.8367216626
 20
8.8277075385
 10
-6.8297966441
 20
8.8371600899
 10
-6.8226554867
 20
8.8463522453
 10
-6.8153142477
 20
8.8552633353
 10
-6.8077894345
 20
8.8638733227
 10
-6.8000979672
 20
8.8721628473
 10
-6.7922571407
 20
8.8801132695
 10
-6.7842845856
 20
8.8877067121
 10
-6.7761982289
 20
8.8949261007
 10
-6.7680162532
 20
8.9017552019
 10
-6.7597570565
 20
8.9081786601
 10
-6.7514392102
 20
8.9141820315
 10
-6.7430814175
 20
8.9197518172
 10
-6.7347024716
 20
8.9248754931
  0
LWPOLYLINE
  5
37F
100
AcDbEntity
  8
0
100
AcDbPolyline
 62
253
  6
CONTINUOUS
 90
18
 70
0
 10
-6.5579287679
 20
-30.9587316755
 10
-6.5581770978
 20
-30.9683567296
 10
-6.5588230782
 20
-30.9777273731
 10
-6.5598652469
 20
-30.9868223724
 10
-6.5613012449
 20
-30.9956211235
 10
-6.5631278196
 20
-31.004103683
 10
-6.5653408296
 20
-31.0122508156
 10
-6.5679352584
 20
-31.0200440576
 10
-6.5709052282
 20
-31.027465755
 10
-6.5742440076
 20
-31.0344990897
 10
-6.5779440312
 20
-31.0411281269
 10
-6.581996914
 20
-31.0473378459
 10
-6.5863934686
 20
-31.0531141732
 10
-6.5911237307
 20
-31.0584440217
 10
-6.5961769814
 20
-31.0633153178
 10
-6.6015417677
 20
-31.0677170246
 10
-6.6072059353
 20
-31.0716391732
 10
-6.6108131076
 20
-31.0737982723
  0
LWPOLYLINE
  5
380
100
AcDbEntity
  8
0
100
AcDbPolyline
 62
253
  6
CONTINUOUS
 90
17
 70
0
 10
-4.3562373712
 20
9.6190841312
 10
-4.3567657243
 20
9.6122455748
 10
-4.3578549963
 20
9.6054291958
 10
-4.3595027343
 20
9.5986503136
 10
-4.3617052345
 20
9.5919241583
 10
-4.3644575661
 20
9.5852658072
 10
-4.3677535251
 20
9.578690285
 10
-4.3715856165
 20
9.5722125087
 10
-4.3759451285
 20
9.5658471243
 10
-4.3808222743
 20
9.5596083507
 10
-4.3862061695
 20
9.5535100872
 10
-4.3920852045
 20
9.5475655709
 10
-4.3984457414
 20
9.5417886715
 10
-4.4052719011
 20
9.5361936085
 10
-4.4125474735
 20
9.5307932289
 10
-4.4202563071
 20
9.5255991091
 10
-4.4283808053
 20
9.5206227721
  0
LINE
  5
381
100
AcDbEntity
  8
0
100
AcDbLine
 62
7
  6
CONTINUOUS
 10
-3.5486052421
 20
4.8592335241
 11
-2.8476692883
 21
5.278196304
  0
LINE
  5
382
100
AcDbEntity
  8
RACCORDO
100
AcDbLine
 62
253
  6
CONTINUOUS
 10
1.6138711957
 20
8.840634693
 11
-3.2494781092
 21
5.9741495959
  0
LINE
  5
383
100
AcDbEntity
  8
RACCORDO
100
AcDbLine
 62
253
  6
CONTINUOUS
 10
2.0280216714
 20
7.447021921
 11
-2.8353276335
 21
4.5805368239
  0
LINE
  5
384
100
AcDbEntity
  8
RACCORDO
100
AcDbLine
 62
253
  6
CONTINUOUS
 10
17.1783614997
 20
17.9709415604
 11
24.5588548442
 21
22.2757511167
  0
LINE
  5
385
100
AcDbEntity
  8
ASSI
100
AcDbLine
 62
253
  6
CONTINUOUS
 10
17.1783614997
 20
17.9709415604
 11
24.5588548442
 21
22.2757511167
  0
LINE
  5
386
100
AcDbEntity
  8
RACCORDO
100
AcDbLine
 62
253
  6
CONTINUOUS
 10
17.6783424613
 20
17.4431293177
 11
25.0588358057
 21
21.747938874
  0
LINE
  5
387
100
AcDbEntity
  8
ASSI
100
AcDbLine
 62
253
  6
CONTINUOUS
 10
17.6783424613
 20
17.4431293177
 11
25.0588358057
 21
21.747938874
  0
LINE
  5
388
100
AcDbEntity
  8
ASSI
100
AcDbLine
 62
253
  6
CONTINUOUS
 10
17.2153274621
 20
17.931357489
 11
1.5780869646
 21
8.9026108064
  0
LINE
  5
389
100
AcDbEntity
  8
ASSI
100
AcDbLine
 62
253
  6
CONTINUOUS
 10
17.5703274621
 20
17.5565965269
 11
1.8046902945
 21
8.4537152162
  0
LINE
  5
38A
100
AcDbEntity
  8
ASSI
100
AcDbLine
 62
253
  6
CONTINUOUS
 10
18.1247639703
 20
16.5962843263
 11
2.0280216714
 21
7.3022270624
  0
LINE
  5
38B
100
AcDbEntity
  8
RACCORDO
100
AcDbLine
 62
253
  6
CONTINUOUS
 10
18.080501204
 20
16.7465699433
 11
25.4985883333
 21
20.9862651544
  0
LINE
  5
38C
100
AcDbEntity
  8
ASSI
100
AcDbLine
 62
253
  6
CONTINUOUS
 10
18.080501204
 20
16.7465699433
 11
25.4985883333
 21
20.9862651544
  0
LINE
  5
38D
100
AcDbEntity
  8
0
100
AcDbLine
 62
253
  6
CONTINUOUS
 10
11.3973040558
 20
-15.1246890288
 11
11.3775186683
 21
-15.1132651941
  0
LINE
  5
38E
100
AcDbEntity
  8
0
100
AcDbLine
 62
7
  6
CONTINUOUS
 10
-5.3287152598
 20
-3.9392963985
 11
-5.3455567067
 21
-3.9295723582
  0
LINE
  5
38F
100
AcDbEntity
  8
0
100
AcDbLine
 62
253
  6
CONTINUOUS
 10
11.4835846855
 20
-13.4374451373
 11
11.3775186683
 21
-13.3762039483
  0
LINE
  5
390
100
AcDbEntity
  8
0
100
AcDbLine
 62
7
  6
CONTINUOUS
 10
-4.9566479771
 20
-29.0750715174
 11
-4.9566479771
 21
-30.0555624497
  0
LINE
  5
391
100
AcDbEntity
  8
0
100
AcDbLine
 62
7
  6
CONTINUOUS
 10
-4.9566479771
 20
8.032779417
 11
-4.9566479771
 21
9.5432528834
  0
LINE
  5
392
100
AcDbEntity
  8
0
100
AcDbLine
 62
253
  6
CONTINUOUS
 10
-4.4283808053
 20
9.8482680726
 11
-4.4283808053
 21
9.5206227721
  0
LINE
  5
393
100
AcDbEntity
  8
0
100
AcDbLine
 62
253
  6
CONTINUOUS
 10
-4.4283808053
 20
-29.4157630149
 11
-4.4283808053
 21
-29.7434083154
  0
LINE
  5
394
100
AcDbEntity
  8
0
100
AcDbLine
 62
7
  6
CONTINUOUS
 10
-4.3561829483
 20
9.9497411857
 11
-4.3561829483
 21
9.6220958851
  0
LINE
  5
395
100
AcDbEntity
  8
0
100
AcDbLine
 62
7
  6
CONTINUOUS
 10
-4.3561829483
 20
-29.3142899019
 11
-4.3561829483
 21
-29.6419352024
  0
LINE
  5
396
100
AcDbEntity
  8
0
100
AcDbLine
 62
7
  6
CONTINUOUS
 10
-4.2495411959
 20
7.2162835025
 11
-4.2495411959
 21
0.1129782772
  0
LINE
  5
397
100
AcDbEntity
  8
0
100
AcDbLine
 62
7
  6
CONTINUOUS
 10
-4.2495411959
 20
-3.3161968853
 11
-4.2495411959
 21
-18.0126618676
  0
LINE
  5
398
100
AcDbEntity
  8
0
100
AcDbLine
 62
7
  6
CONTINUOUS
 10
-4.2495411959
 20
-21.4418370301
 11
-4.2495411959
 21
-28.5451422554
  0
LINE
  5
399
100
AcDbEntity
  8
RACCORDO
100
AcDbLine
 62
253
  6
CONTINUOUS
 10
-4.0465991468
 20
0.2363438904
 11
-4.0465991468
 21
-2.911941473
  0
LINE
  5
39A
100
AcDbEntity
  8
ASSI
100
AcDbLine
 62
253
  6
CONTINUOUS
 10
-4.0465991468
 20
0.2363438904
 11
-4.0465991468
 21
-2.911941473
  0
LINE
  5
39B
100
AcDbEntity
  8
RACCORDO
100
AcDbLine
 62
253
  6
CONTINUOUS
 10
-4.0465991468
 20
-17.8892962544
 11
-4.0465991468
 21
-21.0375816178
  0
LINE
  5
39C
100
AcDbEntity
  8
ASSI
100
AcDbLine
 62
253
  6
CONTINUOUS
 10
-4.0465991468
 20
-17.8892962544
 11
-4.0465991468
 21
-21.0375816178
  0
LINE
  5
39D
100
AcDbEntity
  8
RACCORDO
100
AcDbLine
 62
7
  6
CONTINUOUS
 10
-3.8237451082
 20
0.3718137214
 11
-3.8237451082
 21
-2.5400904418
  0
LINE
  5
39E
100
AcDbEntity
  8
ASSI
100
AcDbLine
 62
7
  6
CONTINUOUS
 10
-3.8237451082
 20
0.3718137214
 11
-3.8237451082
 21
-2.5400904418
  0
LINE
  5
39F
100
AcDbEntity
  8
RACCORDO
100
AcDbLine
 62
7
  6
CONTINUOUS
 10
-3.8237451082
 20
-17.7538264234
 11
-3.8237451082
 21
-20.6657305866
  0
LINE
  5
3A0
100
AcDbEntity
  8
ASSI
100
AcDbLine
 62
7
  6
CONTINUOUS
 10
-3.8237451082
 20
-17.7538264234
 11
-3.8237451082
 21
-20.6657305866
  0
LINE
  5
3A1
100
AcDbEntity
  8
RACCORDO
100
AcDbLine
 62
7
  6
CONTINUOUS
 10
-3.7706477952
 20
0.4040908301
 11
-3.7706477952
 21
-1.988108643
  0
LINE
  5
3A2
100
AcDbEntity
  8
RACCORDO
100
AcDbLine
 62
7
  6
CONTINUOUS
 10
-3.7706477952
 20
-17.7215493147
 11
-3.7706477952
 21
-20.1137487878
  0
LINE
  5
3A3
100
AcDbEntity
  8
0
100
AcDbLine
 62
253
  6
CONTINUOUS
 10
-3.6798459637
 20
13.4243227273
 11
-3.6798459637
 21
13.8641440396
  0
LINE
  5
3A4
100
AcDbEntity
  8
0
100
AcDbLine
 62
253
  6
CONTINUOUS
 10
-3.6798459637
 20
14.1999390486
 11
-3.6798459637
 21
14.7288907908
  0
LINE
  5
3A5
100
AcDbEntity
  8
0
100
AcDbLine
 62
7
  6
CONTINUOUS
 10
-3.5490111125
 20
13.6067027561
 11
-3.5490111125
 21
14.783167666
  0
LINE
  5
3A6
100
AcDbEntity
  8
0
100
AcDbLine
 62
7
  6
CONTINUOUS
 10
-3.5486052421
 20
7.6233709691
 11
-3.5486052421
 21
4.8592335241
  0
LINE
  5
3A7
100
AcDbEntity
  8
0
100
AcDbLine
 62
7
  6
CONTINUOUS
 10
-3.5486052421
 20
-25.3644171735
 11
-3.5486052421
 21
-28.1285546185
  0
LINE
  5
3A8
100
AcDbEntity
  8
0
100
AcDbLine
 62
7
  6
CONTINUOUS
 10
-2.8476692883
 20
5.278196304
 11
-2.8476692883
 21
0.9651564641
  0
LINE
  5
3A9
100
AcDbEntity
  8
0
100
AcDbLine
 62
7
  6
CONTINUOUS
 10
-2.8476692883
 20
-2.5210248652
 11
-2.8476692883
 21
-17.1604836807
  0
LINE
  5
3AA
100
AcDbEntity
  8
0
100
AcDbLine
 62
7
  6
CONTINUOUS
 10
-2.8476692883
 20
-20.64666501
 11
-2.8476692883
 21
-24.95970485
  0
LINE
  5
3AB
100
AcDbEntity
  8
RACCORDO
100
AcDbLine
 62
7
  6
CONTINUOUS
 10
-2.8353276335
 20
4.5805368239
 11
-2.8353276335
 21
-24.2762972035
  0
LINE
  5
3AC
100
AcDbEntity
  8
0
100
AcDbLine
 62
253
  6
CONTINUOUS
 10
-4.3561829483
 20
9.949741206
 11
-4.3561829568
 21
9.9497034968
  0
LINE
  5
3AD
100
AcDbEntity
  8
0
100
AcDbLine
 62
253
  6
CONTINUOUS
 10
-4.3561829483
 20
-29.3142899017
 11
-4.356182959
 21
-29.3143320893
  0
LWPOLYLINE
  5
3AE
100
AcDbEntity
  8
0
100
AcDbPolyline
 62
7
  6
CONTINUOUS
 90
21
 70
0
 10
-4.2495411959
 20
-28.5449415873
 10
-4.2496260981
 20
-28.5610994947
 10
-4.2503331835
 20
-28.5769262321
 10
-4.2516598293
 20
-28.592395564
 10
-4.2536097753
 20
-28.6074831491
 10
-4.2561711614
 20
-28.6221629474
 10
-4.2593174682
 20
-28.6364064889
 10
-4.2630392559
 20
-28.6501883001
 10
-4.2673344516
 20
-28.6634860587
 10
-4.2721875827
 20
-28.6762759242
 10
-4.2775926343
 20
-28.6885413576
 10
-4.283540272
 20
-28.7002540991
 10
-4.2900071172
 20
-28.7113758922
 10
-4.2969737814
 20
-28.7218798339
 10
-4.3044337636
 20
-28.7317602855
 10
-4.3123816231
 20
-28.7410124309
 10
-4.3208124537
 20
-28.7496270766
 10
-4.329706034
 20
-28.7575797616
 10
-4.3390326921
 20
-28.7648448559
 10
-4.3487655006
 20
-28.7714055327
 10
-4.3519987382
 20
-28.7733763564
  0
LINE
  5
3AF
100
AcDbEntity
  8
0
100
AcDbLine
 62
7
  6
CONTINUOUS
 10
-4.3562970198
 20
9.6145445693
 11
-4.3561829485
 21
9.6221016281
  0
LWPOLYLINE
  5
3B0
100
AcDbEntity
  8
0
100
AcDbPolyline
 62
253
  6
CONTINUOUS
 90
18
 70
0
 10
-4.4283808053
 20
-29.7434083154
 10
-4.4285335872
 20
-29.7529782013
 10
-4.4290888966
 20
-29.7622964924
 10
-4.4300454767
 20
-29.771342074
 10
-4.4314011625
 20
-29.7800944538
 10
-4.4331528833
 20
-29.7885337936
 10
-4.4352966674
 20
-29.796640956
 10
-4.4378276555
 20
-29.8043975681
 10
-4.4407401132
 20
-29.8117860588
 10
-4.4440274396
 20
-29.8187896852
 10
-4.4476821858
 20
-29.8253925798
 10
-4.4516960694
 20
-29.8315797811
 10
-4.4560599912
 20
-29.8373372667
 10
-4.4607640611
 20
-29.8426519922
 10
-4.4657976194
 20
-29.8475119181
 10
-4.4711492577
 20
-29.8519060334
 10
-4.4768068514
 20
-29.8558243862
 10
-4.4790003811
 20
-29.8571666931
  0
LWPOLYLINE
  5
3B1
100
AcDbEntity
  8
0
100
AcDbPolyline
 62
253
  6
CONTINUOUS
 90
18
 70
0
 10
-4.3561829568
 20
9.9497034968
 10
-4.3562365099
 20
9.9467533578
 10
-4.3567629373
 20
9.9399144294
 10
-4.3578503496
 20
9.9330975935
 10
-4.3594963042
 20
9.9263181792
 10
-4.3616971015
 20
9.9195914368
 10
-4.3644477943
 20
9.9129324954
 10
-4.3677421982
 20
9.9063563334
 10
-4.3715729026
 20
9.899877747
 10
-4.3759312923
 20
9.8935113092
 10
-4.3808075659
 20
9.8872713384
 10
-4.3861907553
 20
9.8811718718
 10
-4.3920687565
 20
9.8752266254
 10
-4.3984283467
 20
9.8694489747
 10
-4.4052552095
 20
9.8638519251
 10
-4.4125339836
 20
9.858448068
 10
-4.4202482997
 20
9.8532495533
 10
-4.4283808053
 20
9.8482680726
  0
LWPOLYLINE
  5
3B2
100
AcDbEntity
  8
0
100
AcDbPolyline
 62
253
  6
CONTINUOUS
 90
18
 70
0
 10
-4.356182959
 20
-29.3143320893
 10
-4.3562369627
 20
-29.3172903335
 10
-4.3567643381
 20
-29.3241285039
 10
-4.3578525733
 20
-29.3309445516
 10
-4.3594992216
 20
-29.3377231492
 10
-4.3617005804
 20
-29.3444490538
 10
-4.3644516992
 20
-29.3511071404
 10
-4.3677463922
 20
-29.3576824378
 10
-4.3715772527
 20
-29.3641601632
 10
-4.3759356714
 20
-29.370525756
 10
-4.3808118452
 20
-29.3767648957
 10
-4.3861947966
 20
-29.3828635381
 10
-4.39207241
 20
-29.3888079619
 10
-4.3984314731
 20
-29.3945848096
 10
-4.4052576967
 20
-29.4001811022
 10
-4.4125357357
 20
-29.4055842585
 10
-4.4202492202
 20
-29.4107821255
 10
-4.4283808053
 20
-29.4157630149
  0
LWPOLYLINE
  5
3B3
100
AcDbEntity
  8
0
100
AcDbPolyline
 62
7
  6
CONTINUOUS
 90
18
 70
0
 10
-4.9566479771
 20
-30.0555624497
 10
-4.9568483559
 20
-30.0651590866
 10
-4.9574485249
 20
-30.0745026635
 10
-4.9584472286
 20
-30.0835720744
 10
-4.9598423869
 20
-30.0923468809
 10
-4.9616308478
 20
-30.1008072079
 10
-4.9638083937
 20
-30.1089337887
 10
-4.9663701523
 20
-30.1167082483
 10
-4.9693104132
 20
-30.1241130274
 10
-4.9726223875
 20
-30.1311312725
 10
-4.9762986114
 20
-30.1377471063
 10
-4.9803308303
 20
-30.1439455831
 10
-4.9847098221
 20
-30.1497126063
 10
-4.9894256833
 20
-30.1550351203
 10
-4.9944677829
 20
-30.1599010971
 10
-4.9998246533
 20
-30.1642994851
 10
-5.0054841527
 20
-30.168220316
 10
-5.0076923732
 20
-30.1695718545
  0
LINE
  5
3B4
100
AcDbEntity
  8
0
100
AcDbLine
 62
7
  6
CONTINUOUS
 10
-4.3561829483
 20
-29.64193387
 11
-4.3564546236
 21
-29.6535869757
  0
LINE
  5
3B5
100
AcDbEntity
  8
RACCORDO
100
AcDbLine
 62
7
  6
CONTINUOUS
 10
-5.0612541724
 20
-0.3235346935
 11
-5.3455567067
 21
-0.5198433969
  0
LINE
  5
3B6
100
AcDbEntity
  8
ASSI
100
AcDbLine
 62
7
  6
CONTINUOUS
 10
-5.0612541724
 20
-0.3235346935
 11
-5.3455567067
 21
-0.5198433969
  0
LINE
  5
3B7
100
AcDbEntity
  8
RACCORDO
100
AcDbLine
 62
253
  6
CONTINUOUS
 10
21.1219939932
 20
17.5681144556
 11
21.2458348421
 21
17.6435664072
  0
LINE
  5
3B8
100
AcDbEntity
  8
ASSI
100
AcDbLine
 62
253
  6
CONTINUOUS
 10
21.1219939932
 20
17.5681144556
 11
21.2458348421
 21
17.6435664072
  0
LINE
  5
3B9
100
AcDbEntity
  8
RACCORDO
100
AcDbLine
 62
7
  6
CONTINUOUS
 10
21.1296791724
 20
17.4744801123
 11
21.1835590704
 21
17.5061516811
  0
LINE
  5
3BA
100
AcDbEntity
  8
ASSI
100
AcDbLine
 62
7
  6
CONTINUOUS
 10
21.1299838577
 20
17.4746592118
 11
21.1835583939
 21
17.5061512978
  0
LINE
  5
3BB
100
AcDbEntity
  8
ASSI
100
AcDbLine
 62
253
  6
CONTINUOUS
 10
18.2718097849
 20
16.1014764306
 11
2.0280216714
 21
6.7225167563
  0
LINE
  5
3BC
100
AcDbEntity
  8
RACCORDO
100
AcDbLine
 62
253
  6
CONTINUOUS
 10
18.2876000992
 20
16.0496839504
 11
25.7056872285
 21
20.2893791615
  0
LINE
  5
3BD
100
AcDbEntity
  8
ASSI
100
AcDbLine
 62
253
  6
CONTINUOUS
 10
18.2876000992
 20
16.0496839504
 11
25.7056872285
 21
20.2893791615
  0
LINE
  5
3BE
100
AcDbEntity
  8
RACCORDO
100
AcDbLine
 62
253
  6
CONTINUOUS
 10
21.2458348421
 20
17.6435664072
 11
25.7056872285
 21
20.1740736446
  0
LINE
  5
3BF
100
AcDbEntity
  8
ASSI
100
AcDbLine
 62
253
  6
CONTINUOUS
 10
21.2458348421
 20
17.6435664072
 11
25.7056872285
 21
20.1740736446
  0
LINE
  5
3C0
100
AcDbEntity
  8
RACCORDO
100
AcDbLine
 62
7
  6
CONTINUOUS
 10
21.1836100724
 20
17.5061881
 11
25.6428937201
 21
20.0363726368
  0
LINE
  5
3C1
100
AcDbEntity
  8
ASSI
100
AcDbLine
 62
7
  6
CONTINUOUS
 10
21.1836100724
 20
17.5061881
 11
25.6428937201
 21
20.0363726368
  0
LWPOLYLINE
  5
3C2
100
AcDbEntity
  8
RACCORDO
100
AcDbPolyline
 62
253
  6
CONTINUOUS
 90
13
 70
0
 10
21.0355620628
 20
14.011349695
 10
20.9273001938
 20
13.954449862
 10
20.8197638657
 20
13.9066355457
 10
20.7134773708
 20
13.8681019465
 10
20.6089549712
 20
13.8390005425
 10
20.5066970593
 20
13.8194259301
 10
20.4071889839
 20
13.8094206751
 10
20.3109133388
 20
13.8089923932
 10
20.2183069897
 20
13.8181008754
 10
20.1297652013
 20
13.8366663933
 10
20.0457050953
 20
13.8645722688
 10
19.9665131122
 20
13.9016592423
 10
19.9531529117
 20
13.9090957993
  0
LWPOLYLINE
  5
3C3
100
AcDbEntity
  8
ASSI
100
AcDbPolyline
 62
253
  6
CONTINUOUS
 90
13
 70
0
 10
21.0355620628
 20
14.011349695
 10
20.9273001938
 20
13.954449862
 10
20.8197638657
 20
13.9066355457
 10
20.7134773708
 20
13.8681019465
 10
20.6089549712
 20
13.8390005425
 10
20.5066970593
 20
13.8194259301
 10
20.4071889839
 20
13.8094206751
 10
20.3109133388
 20
13.8089923932
 10
20.2183069897
 20
13.8181008754
 10
20.1297652013
 20
13.8366663933
 10
20.0457050953
 20
13.8645722688
 10
19.9665131122
 20
13.9016592423
 10
19.953088992
 20
13.909132263
  0
LWPOLYLINE
  5
3C4
100
AcDbEntity
  8
ASSI
100
AcDbPolyline
 62
7
  6
CONTINUOUS
 90
4
 70
0
 10
19.5981472514
 20
10.8916633852
 10
19.6349856145
 20
10.9042573843
 10
19.7478001006
 20
10.9535782931
 10
19.8628000426
 20
11.0143991602
  0
LINE
  5
3C5
100
AcDbEntity
  8
0
100
AcDbLine
 62
7
  6
CONTINUOUS
 10
-4.4437522313
 20
-3.2040618675
 11
-4.2495411959
 21
-3.3161968853
  0
LINE
  5
3C6
100
AcDbEntity
  8
0
100
AcDbLine
 62
7
  6
CONTINUOUS
 10
-3.8237451082
 20
-1.9574509199
 11
-2.8476692883
 21
-2.5210248652
  0
LINE
  5
3C7
100
AcDbEntity
  8
0
100
AcDbLine
 62
253
  6
CONTINUOUS
 10
15.2666059649
 20
-12.9134458541
 11
14.774559667
 21
-12.6293444885
  0
LINE
  5
3C8
100
AcDbEntity
  8
0
100
AcDbLine
 62
7
  6
CONTINUOUS
 10
-5.3455567067
 20
-0.4576425706
 11
-5.3287152598
 21
-0.4673666109
  0
LWPOLYLINE
  5
3C9
100
AcDbEntity
  8
RACCORDO
100
AcDbPolyline
 62
253
  6
CONTINUOUS
 90
10
 70
0
 10
-24.8086319816
 20
12.4654857511
 10
-24.8433245293
 20
12.4872288603
 10
-24.8738986109
 20
12.5102498225
 10
-24.9000265641
 20
12.5343019224
 10
-24.9214283758
 20
12.5591273936
 10
-24.9378746827
 20
12.5844601816
 10
-24.9491892299
 20
12.6100287951
 10
-24.9552507593
 20
12.6355592153
 10
-24.9559943097
 20
12.6607778328
 10
-24.9555429084
 20
12.6654256326
  0
LWPOLYLINE
  5
3CA
100
AcDbEntity
  8
ASSI
100
AcDbPolyline
 62
253
  6
CONTINUOUS
 90
10
 70
0
 10
-24.8086319816
 20
12.4654857511
 10
-24.8433245293
 20
12.4872288603
 10
-24.8738986109
 20
12.5102498225
 10
-24.9000265641
 20
12.5343019224
 10
-24.9214283758
 20
12.5591273936
 10
-24.9378746827
 20
12.5844601816
 10
-24.9491892299
 20
12.6100287951
 10
-24.9552507593
 20
12.6355592153
 10
-24.9559943097
 20
12.6607778328
 10
-24.9555429084
 20
12.6654256326
  0
LWPOLYLINE
  5
3CB
100
AcDbEntity
  8
0
100
AcDbPolyline
 62
7
  6
CONTINUOUS
 90
6
 70
0
 10
7.1601741377
 20
-14.4865869328
 10
7.1957074996
 20
-14.5358323149
 10
7.2407811064
 20
-14.6029994074
 10
7.2837815532
 20
-14.6720490545
 10
7.3246756257
 20
-14.742879462
 10
7.3470100156
 20
-14.7847304109
  0
LWPOLYLINE
  5
3CC
100
AcDbEntity
  8
0
100
AcDbPolyline
 62
253
  6
CONTINUOUS
 90
15
 70
0
 10
-16.732038798
 20
16.624600696
 10
-16.7280660842
 20
16.618757478
 10
-16.7245036256
 20
16.6131564666
 10
-16.7213594623
 20
16.6078103029
 10
-16.7186406906
 20
16.602731053
 10
-16.7163534466
 20
16.5979301804
 10
-16.7145028924
 20
16.5934185205
 10
-16.7130932047
 20
16.5892062556
 10
-16.712127565
 20
16.5853028928
 10
-16.7116081527
 20
16.5817172416
 10
-16.7115361401
 20
16.5784573946
 10
-16.7119116897
 20
16.5755307092
 10
-16.7127339539
 20
16.5729437907
 10
-16.714001077
 20
16.5707024775
 10
-16.7143387974
 20
16.5702568912
  0
LWPOLYLINE
  5
3CD
100
AcDbEntity
  8
0
100
AcDbPolyline
 62
253
  6
CONTINUOUS
 90
20
 70
0
 10
-13.1102823759
 20
13.7639667473
 10
-13.1051123053
 20
13.7560085173
 10
-13.100148849
 20
13.747893746
 10
-13.0954032558
 20
13.7396408261
 10
-13.0908862869
 20
13.7312684761
 10
-13.0866081858
 20
13.7227956916
 10
-13.0825786296
 20
13.7142416468
 10
-13.0788067219
 20
13.7056256684
 10
-13.075300981
 20
13.696967201
 10
-13.0720693867
 20
13.6882859383
 10
-13.0691193197
 20
13.6796017246
 10
-13.0664574808
 20
13.670934345
 10
-13.0640898461
 20
13.6623033248
 10
-13.0620217297
 20
13.6537280628
 10
-13.0602575677
 20
13.6452266761
 10
-13.058801702
 20
13.6368197641
 10
-13.0576578736
 20
13.6285300571
 10
-13.0568283536
 20
13.620377365
 10
-13.0563144026
 20
13.6123786912
 10
-13.0561167583
 20
13.6045518946
  0
LWPOLYLINE
  5
3CE
100
AcDbEntity
  8
0
100
AcDbPolyline
 62
253
  6
CONTINUOUS
 90
17
 70
0
 10
-4.3562596425
 20
-29.6452235509
 10
-4.3567629373
 20
-29.6517619586
 10
-4.3578503496
 20
-29.6585787945
 10
-4.3594963042
 20
-29.6653582089
 10
-4.3616971015
 20
-29.6720849512
 10
-4.3644477943
 20
-29.6787438926
 10
-4.3677421982
 20
-29.6853200547
 10
-4.3715729026
 20
-29.691798641
 10
-4.3759312923
 20
-29.6981650789
 10
-4.3808075659
 20
-29.7044050496
 10
-4.3861907553
 20
-29.7105045163
 10
-4.3920687565
 20
-29.7164497626
 10
-4.3984283467
 20
-29.7222274133
 10
-4.4052552095
 20
-29.7278244629
 10
-4.4125339836
 20
-29.73322832
 10
-4.4202482997
 20
-29.7384268347
 10
-4.4283808053
 20
-29.7434083154
  0
LWPOLYLINE
  5
3CF
100
AcDbEntity
  8
0
100
AcDbPolyline
 62
7
  6
CONTINUOUS
 90
11
 70
0
 10
-4.3564546236
 20
-29.6535869757
 10
-4.3589690164
 20
-29.6791544431
 10
-4.3641085904
 20
-29.7043852244
 10
-4.3718510408
 20
-29.7290475271
 10
-4.3821489372
 20
-29.752880062
 10
-4.394916542
 20
-29.7756008507
 10
-4.4100442173
 20
-29.7969500345
 10
-4.4274021779
 20
-29.8166848408
 10
-4.4468156366
 20
-29.8345541525
 10
-4.468058736
 20
-29.8503139488
 10
-4.4790003811
 20
-29.8571666931
  0
LINE
  5
3D0
100
AcDbEntity
  8
RACCORDO
100
AcDbLine
 62
7
  6
CONTINUOUS
 10
-4.0465991468
 20
-2.911941473
 11
-5.3455567067
 21
-3.8673715318
  0
LINE
  5
3D1
100
AcDbEntity
  8
ASSI
100
AcDbLine
 62
7
  6
CONTINUOUS
 10
-4.0465991468
 20
-2.911941473
 11
-5.3455567067
 21
-3.8673715318
  0
LWPOLYLINE
  5
3D2
100
AcDbEntity
  8
ASSI
100
AcDbPolyline
 62
7
  6
CONTINUOUS
 90
20
 70
0
 10
19.8628000426
 20
15.0967505442
 10
19.9777999846
 20
15.1687287275
 10
20.0906144706
 20
15.2496831594
 10
20.2012435007
 20
15.3396138399
 10
20.3103732232
 20
15.4392174111
 10
20.4173174898
 20
15.5477972309
 10
20.5200178552
 20
15.6632633732
 10
20.6183921061
 20
15.7857492408
 10
20.7125224559
 20
15.9151214309
 10
20.8005970994
 20
16.0488898095
 10
20.8824987248
 20
16.1871395401
 10
20.9583446439
 20
16.3297854592
 10
21.0266749873
 20
16.4740819421
 10
21.0873441624
 20
16.6200609639
 10
21.1404977618
 20
16.7676905495
 10
21.185112694
 20
16.9141291497
 10
21.2210235469
 20
17.0593536925
 10
21.2483957326
 20
17.2033872498
 10
21.2667023958
 20
17.3434574881
 10
21.2757679182
 20
17.4794876294
  0
LWPOLYLINE
  5
3D3
100
AcDbEntity
  8
ASSI
100
AcDbPolyline
 62
7
  6
CONTINUOUS
 90
3
 70
0
 10
19.8628000426
 20
14.2802802674
 10
19.7478001006
 20
14.2083020841
 10
19.7087578402
 20
14.1802857883
  0
LINE
  5
3D4
100
AcDbEntity
  8
RACCORDO
100
AcDbLine
 62
253
  6
CONTINUOUS
 10
21.1219939932
 20
13.4857630717
 11
21.2458348421
 21
13.5612150232
  0
LINE
  5
3D5
100
AcDbEntity
  8
ASSI
100
AcDbLine
 62
253
  6
CONTINUOUS
 10
21.1219939932
 20
13.4857630717
 11
21.2458348421
 21
13.5612150232
  0
LINE
  5
3D6
100
AcDbEntity
  8
0
100
AcDbLine
 62
7
  6
CONTINUOUS
 10
-2.8476692883
 20
0.9651564641
 11
-4.2495411959
 21
0.1129782772
  0
LINE
  5
3D7
100
AcDbEntity
  8
RACCORDO
100
AcDbLine
 62
7
  6
CONTINUOUS
 10
21.1296791724
 20
13.3921287283
 11
21.1835590704
 21
13.4238002972
  0
LINE
  5
3D8
100
AcDbEntity
  8
ASSI
100
AcDbLine
 62
7
  6
CONTINUOUS
 10
21.1299838577
 20
13.3923078278
 11
21.1835583939
 21
13.4237999139
  0
LINE
  5
3D9
100
AcDbEntity
  8
DRAFT
100
AcDbLine
 62
7
  6
CONTINUOUS
 10
23.7872426782
 20
16.301172431
 11
20.4577968976
 21
14.3449440603
  0
LINE
  5
3DA
100
AcDbEntity
  8
ASSI
100
AcDbLine
 62
7
  6
CONTINUOUS
 10
23.7872426782
 20
16.301172431
 11
20.4577968976
 21
14.3449440603
  0
LINE
  5
3DB
100
AcDbEntity
  8
DRAFT
100
AcDbLine
 62
7
  6
CONTINUOUS
 10
23.7872426782
 20
16.301172431
 11
24.8479028499
 21
16.913584321
  0
LINE
  5
3DC
100
AcDbEntity
  8
ASSI
100
AcDbLine
 62
7
  6
CONTINUOUS
 10
23.7872426782
 20
16.301172431
 11
24.8479028499
 21
16.913584321
  0
LINE
  5
3DD
100
AcDbEntity
  8
RACCORDO
100
AcDbLine
 62
253
  6
CONTINUOUS
 10
25.4935471165
 20
16.5407974133
 11
21.0355620628
 21
14.011349695
  0
LINE
  5
3DE
100
AcDbEntity
  8
ASSI
100
AcDbLine
 62
253
  6
CONTINUOUS
 10
25.4935471165
 20
16.5407974133
 11
21.0355620628
 21
14.011349695
  0
LINE
  5
3DF
100
AcDbEntity
  8
RACCORDO
100
AcDbLine
 62
253
  6
CONTINUOUS
 10
25.7056872285
 20
16.1733692883
 11
21.2458348421
 21
13.6428620509
  0
LINE
  5
3E0
100
AcDbEntity
  8
ASSI
100
AcDbLine
 62
253
  6
CONTINUOUS
 10
25.7056872285
 20
16.1733692883
 11
21.2458348421
 21
13.6428620509
  0
LINE
  5
3E1
100
AcDbEntity
  8
RACCORDO
100
AcDbLine
 62
253
  6
CONTINUOUS
 10
21.2458348421
 20
13.5612150232
 11
25.7056872285
 21
16.0917222607
  0
LINE
  5
3E2
100
AcDbEntity
  8
ASSI
100
AcDbLine
 62
253
  6
CONTINUOUS
 10
21.2458348421
 20
13.5612150232
 11
25.7056872285
 21
16.0917222607
  0
LINE
  5
3E3
100
AcDbEntity
  8
RACCORDO
100
AcDbLine
 62
7
  6
CONTINUOUS
 10
21.1836100724
 20
13.4238367161
 11
25.6428937201
 21
15.9540212529
  0
LINE
  5
3E4
100
AcDbEntity
  8
ASSI
100
AcDbLine
 62
7
  6
CONTINUOUS
 10
21.1836100724
 20
13.4238367161
 11
25.6428937201
 21
15.9540212529
  0
LINE
  5
3E5
100
AcDbEntity
  8
0
100
AcDbLine
 62
7
  6
CONTINUOUS
 10
-4.2495411959
 20
0.1129782772
 11
-5.3287152598
 21
-0.4673666109
  0
LWPOLYLINE
  5
3E6
100
AcDbEntity
  8
RACCORDO
100
AcDbPolyline
 62
253
  6
CONTINUOUS
 90
45
 70
0
 10
21.2458348421
 20
13.6428620509
 10
21.1221348905
 20
13.5778390211
 10
21.0002943878
 20
13.5234553001
 10
20.8803133342
 20
13.4797108877
 10
20.7615957119
 20
13.4465229361
 10
20.6447375387
 20
13.4239742931
 10
20.5315268673
 20
13.4123135031
 10
20.422081856
 20
13.411710075
 10
20.3162843464
 20
13.4219944997
 10
20.2155679166
 20
13.4429067946
 10
20.1200050456
 20
13.4745748589
 10
20.0295232544
 20
13.5168707934
 10
19.9453386837
 20
13.5691509175
 10
19.8675286785
 20
13.6315316688
 10
19.7960158937
 20
13.7038966099
 10
19.7317844352
 20
13.7852527475
 10
19.6749165369
 20
13.8757328399
 10
19.6253299647
 20
13.9752041289
 10
19.5837621228
 20
14.0822753464
 10
19.5503250245
 20
14.1970682532
 10
19.5249066565
 20
14.3194610884
 10
19.5079083829
 20
14.4476973016
 10
19.4994639907
 20
14.5819010906
 10
19.499439693
 20
14.7219482576
 10
19.507835493
 20
14.865709658
 10
19.5247848426
 20
15.0132120066
 10
19.5501542899
 20
15.1644285887
 10
19.5835434821
 20
15.3171501161
 10
19.6250639682
 20
15.4713820057
 10
19.6746041992
 20
15.6271188406
 10
19.731429175
 20
15.7821350824
 10
19.7956205222
 20
15.9363913054
 10
19.8670966142
 20
16.0899269353
 10
19.9448775723
 20
16.2406347107
 10
20.0290417878
 20
16.3884881172
 10
20.1195108694
 20
16.5335136692
 10
20.2150697633
 20
16.6736836491
 10
20.315791625
 20
16.8089530762
 10
20.4216032991
 20
16.9393669313
 10
20.5310702655
 20
17.0630324388
 10
20.6443043258
 20
17.1799097191
 10
20.7611936784
 20
17.2900386519
 10
20.8799683988
 20
17.3916461007
 10
21.0000385121
 20
17.4841410201
 10
21.1219939932
 20
17.5681144556
  0
LWPOLYLINE
  5
3E7
100
AcDbEntity
  8
ASSI
100
AcDbPolyline
 62
253
  6
CONTINUOUS
 90
45
 70
0
 10
21.2458348421
 20
13.6428620509
 10
21.1221348905
 20
13.5778390211
 10
21.0002943878
 20
13.5234553001
 10
20.8803133342
 20
13.4797108877
 10
20.7615957119
 20
13.4465229361
 10
20.6447375387
 20
13.4239742931
 10
20.5315268673
 20
13.4123135031
 10
20.422081856
 20
13.411710075
 10
20.3162843464
 20
13.4219944997
 10
20.2155679166
 20
13.4429067946
 10
20.1200050456
 20
13.4745748589
 10
20.0295232544
 20
13.5168707934
 10
19.9453386837
 20
13.5691509175
 10
19.8675286785
 20
13.6315316688
 10
19.7960158937
 20
13.7038966099
 10
19.7317844352
 20
13.7852527475
 10
19.6749165369
 20
13.8757328399
 10
19.6253299647
 20
13.9752041289
 10
19.5837621228
 20
14.0822753464
 10
19.5503250245
 20
14.1970682532
 10
19.5249066565
 20
14.3194610884
 10
19.5079083829
 20
14.4476973016
 10
19.4994639907
 20
14.5819010906
 10
19.499439693
 20
14.7219482576
 10
19.507835493
 20
14.865709658
 10
19.5247848426
 20
15.0132120066
 10
19.5501542899
 20
15.1644285887
 10
19.5835434821
 20
15.3171501161
 10
19.6250639682
 20
15.4713820057
 10
19.6746041992
 20
15.6271188406
 10
19.731429175
 20
15.7821350824
 10
19.7956205222
 20
15.9363913054
 10
19.8670966142
 20
16.0899269353
 10
19.9448775723
 20
16.2406347107
 10
20.0290417878
 20
16.3884881172
 10
20.1195108694
 20
16.5335136692
 10
20.2150697633
 20
16.6736836491
 10
20.315791625
 20
16.8089530762
 10
20.4216032991
 20
16.9393669313
 10
20.5310702655
 20
17.0630324388
 10
20.6443043258
 20
17.1799097191
 10
20.7611936784
 20
17.2900386519
 10
20.8799683988
 20
17.3916461007
 10
21.0000385121
 20
17.4841410201
 10
21.1219939932
 20
17.5681144556
  0
LWPOLYLINE
  5
3E8
100
AcDbEntity
  8
ASSI
100
AcDbPolyline
 62
7
  6
CONTINUOUS
 90
4
 70
0
 10
19.5981472514
 20
6.8093120012
 10
19.6349856145
 20
6.8219060004
 10
19.7478001006
 20
6.8712269091
 10
19.8628000426
 20
6.9320477763
  0
LWPOLYLINE
  5
3E9
100
AcDbEntity
  8
RACCORDO
100
AcDbPolyline
 62
253
  6
CONTINUOUS
 90
16
 70
0
 10
-9.9519892801
 20
3.8874577041
 10
-9.9135789807
 20
3.8669920484
 10
-9.871833788
 20
3.8482565345
 10
-9.8272010741
 20
3.831451946
 10
-9.7801591562
 20
3.8167583733
 10
-9.7312121701
 20
3.8043332835
 10
-9.6808846678
 20
3.7943098325
 10
-9.629715996
 20
3.7867954391
 10
-9.5782545158
 20
3.781870633
 10
-9.5270517263
 20
3.7795881921
 10
-9.4766563545
 20
3.7799725767
 10
-9.4276084741
 20
3.7830196674
 10
-9.3804337185
 20
3.7886968093
 10
-9.3356376471
 20
3.7969431621
 10
-9.2937003276
 20
3.8076703518
 10
-9.2550711911
 20
3.8207634178
  0
LWPOLYLINE
  5
3EA
100
AcDbEntity
  8
ASSI
100
AcDbPolyline
 62
253
  6
CONTINUOUS
 90
16
 70
0
 10
-9.9519892801
 20
3.8874577041
 10
-9.9135789807
 20
3.8669920484
 10
-9.871833788
 20
3.8482565345
 10
-9.8272010741
 20
3.831451946
 10
-9.7801591562
 20
3.8167583733
 10
-9.7312121701
 20
3.8043332835
 10
-9.6808846678
 20
3.7943098325
 10
-9.629715996
 20
3.7867954391
 10
-9.5782545158
 20
3.781870633
 10
-9.5270517263
 20
3.7795881921
 10
-9.4766563545
 20
3.7799725767
 10
-9.4276084741
 20
3.7830196674
 10
-9.3804337185
 20
3.7886968093
 10
-9.3356376471
 20
3.7969431621
 10
-9.2937003276
 20
3.8076703518
 10
-9.2550711911
 20
3.8207634178
  0
LINE
  5
3EB
100
AcDbEntity
  8
RACCORDO
100
AcDbLine
 62
253
  6
CONTINUOUS
 10
-9.9520007956
 20
3.8874528896
 11
-24.80863202
 21
12.4654855613
  0
LINE
  5
3EC
100
AcDbEntity
  8
ASSI
100
AcDbLine
 62
253
  6
CONTINUOUS
 10
-9.9520007956
 20
3.8874528896
 11
-24.80863202
 21
12.4654855613
  0
LINE
  5
3ED
100
AcDbEntity
  8
RACCORDO
100
AcDbLine
 62
253
  6
CONTINUOUS
 10
-9.2840277723
 20
4.9600585346
 11
-24.1522176311
 21
13.5447650169
  0
LINE
  5
3EE
100
AcDbEntity
  8
ASSI
100
AcDbLine
 62
253
  6
CONTINUOUS
 10
-9.2840277723
 20
4.9600585346
 11
-24.1522176311
 21
13.5447650169
  0
LINE
  5
3EF
100
AcDbEntity
  8
0
100
AcDbLine
 62
253
  6
CONTINUOUS
 10
18.908205888
 20
-10.8876231531
 11
18.8021398708
 21
-10.8263819641
  0
LWPOLYLINE
  5
3F0
100
AcDbEntity
  8
RACCORDO
100
AcDbPolyline
 62
253
  6
CONTINUOUS
 90
16
 70
0
 10
-9.2840277723
 20
4.9600585346
 10
-9.2476399912
 20
4.9361536744
 10
-9.2114479263
 20
4.9081659416
 10
-9.1758476449
 20
4.8764016198
 10
-9.1412287381
 20
4.841208321
 10
-9.1079700573
 20
4.8029711826
 10
-9.0764355677
 20
4.7621086524
 10
-9.0469703664
 20
4.7190679089
 10
-9.0198969054
 20
4.6743199676
 10
-8.9955114627
 20
4.628354527
 10
-8.9740808999
 20
4.5816746089
 10
-8.955839742
 20
4.5347910544
 10
-8.9409876108
 20
4.4882169327
 10
-8.9296870403
 20
4.4424619269
 10
-8.9220616982
 20
4.3980267563
 10
-8.9181950323
 20
4.3553976963
  0
LWPOLYLINE
  5
3F1
100
AcDbEntity
  8
ASSI
100
AcDbPolyline
 62
253
  6
CONTINUOUS
 90
16
 70
0
 10
-9.2840277723
 20
4.9600585346
 10
-9.2476399912
 20
4.9361536744
 10
-9.2114479263
 20
4.9081659416
 10
-9.1758476449
 20
4.8764016198
 10
-9.1412287381
 20
4.841208321
 10
-9.1079700573
 20
4.8029711826
 10
-9.0764355677
 20
4.7621086524
 10
-9.0469703664
 20
4.7190679089
 10
-9.0198969054
 20
4.6743199676
 10
-8.9955114627
 20
4.628354527
 10
-8.9740808999
 20
4.5816746089
 10
-8.955839742
 20
4.5347910544
 10
-8.9409876108
 20
4.4882169327
 10
-8.9296870403
 20
4.4424619269
 10
-8.9220616982
 20
4.3980267563
 10
-8.9181950323
 20
4.3553976963
  0
LINE
  5
3F2
100
AcDbEntity
  8
0
100
AcDbLine
 62
7
  6
CONTINUOUS
 10
-4.9064943752
 20
8.8441859547
 11
-4.8817551319
 21
8.8013363284
  0
LINE
  5
3F3
100
AcDbEntity
  8
RACCORDO
100
AcDbLine
 62
7
  6
CONTINUOUS
 10
-3.5486052421
 20
6.4922529876
 11
-3.2494781092
 21
5.9741495959
  0
LINE
  5
3F4
100
AcDbEntity
  8
0
100
AcDbLine
 62
7
  6
CONTINUOUS
 10
-3.5486052421
 20
6.4922529876
 11
-2.8476692883
 21
5.278196304
  0
LINE
  5
3F5
100
AcDbEntity
  8
DRAFT
100
AcDbLine
 62
7
  6
CONTINUOUS
 10
1.018404324
 20
11.4828220409
 11
1.018404324
 21
9.872013568
  0
LINE
  5
3F6
100
AcDbEntity
  8
DRAFT
100
AcDbLine
 62
7
  6
CONTINUOUS
 10
1.4393291421
 20
12.2688631717
 11
1.4393291421
 21
12.0194456193
  0
LINE
  5
3F7
100
AcDbEntity
  8
0
100
AcDbLine
 62
253
  6
CONTINUOUS
 10
1.7080425306
 20
12.809514769
 11
1.7080425306
 21
12.4322833234
  0
LINE
  5
3F8
100
AcDbEntity
  8
0
100
AcDbLine
 62
253
  6
CONTINUOUS
 10
1.7080425306
 20
-22.1753301024
 11
1.7080425306
 21
-22.2231598358
  0
LINE
  5
3F9
100
AcDbEntity
  8
0
100
AcDbLine
 62
7
  6
CONTINUOUS
 10
1.8483726305
 20
13.126352765
 11
1.8483726305
 21
12.6352793904
  0
LINE
  5
3FA
100
AcDbEntity
  8
0
100
AcDbLine
 62
7
  6
CONTINUOUS
 10
1.8483726305
 20
-22.0180260994
 11
1.8483726305
 21
-22.1389107949
  0
LINE
  5
3FB
100
AcDbEntity
  8
RACCORDO
100
AcDbLine
 62
7
  6
CONTINUOUS
 10
2.0280216714
 20
7.447021921
 11
2.0280216714
 21
-21.3271675605
  0
LWPOLYLINE
  5
3FC
100
AcDbEntity
  8
ASSI
100
AcDbPolyline
 62
7
  6
CONTINUOUS
 90
20
 70
0
 10
19.8628000426
 20
11.0143991602
 10
19.9777999846
 20
11.0863773435
 10
20.0906144706
 20
11.1673317755
 10
20.2012435007
 20
11.257262456
 10
20.3103732232
 20
11.3568660271
 10
20.4173174898
 20
11.4654458469
 10
20.5200178552
 20
11.5809119892
 10
20.6183921061
 20
11.7033978568
 10
20.7125224559
 20
11.832770047
 10
20.8005970994
 20
11.9665384256
 10
20.8824987248
 20
12.1047881561
 10
20.9583446439
 20
12.2474340752
 10
21.0266749873
 20
12.3917305581
 10
21.0873441624
 20
12.5377095799
 10
21.1404977618
 20
12.6853391655
 10
21.185112694
 20
12.8317777657
 10
21.2210235469
 20
12.9770023085
 10
21.2483957326
 20
13.1210358659
 10
21.2667023958
 20
13.2611061042
 10
21.2757679182
 20
13.3971362454
  0
LWPOLYLINE
  5
3FD
100
AcDbEntity
  8
ASSI
100
AcDbPolyline
 62
7
  6
CONTINUOUS
 90
3
 70
0
 10
19.8628000426
 20
10.1979288834
 10
19.7478001006
 20
10.1259507001
 10
19.7087578402
 20
10.0979344043
  0
LINE
  5
3FE
100
AcDbEntity
  8
RACCORDO
100
AcDbLine
 62
253
  6
CONTINUOUS
 10
21.1219939932
 20
9.4034116877
 11
21.2458348421
 21
9.4788636393
  0
LINE
  5
3FF
100
AcDbEntity
  8
ASSI
100
AcDbLine
 62
253
  6
CONTINUOUS
 10
21.1219939932
 20
9.4034116877
 11
21.2458348421
 21
9.4788636393
  0
LINE
  5
400
100
AcDbEntity
  8
RACCORDO
100
AcDbLine
 62
7
  6
CONTINUOUS
 10
21.1296791724
 20
9.3097773444
 11
21.1835590704
 21
9.3414489132
  0
LINE
  5
401
100
AcDbEntity
  8
ASSI
100
AcDbLine
 62
7
  6
CONTINUOUS
 10
21.1299838577
 20
9.3099564438
 11
21.1835583939
 21
9.3414485299
  0
LINE
  5
402
100
AcDbEntity
  8
DRAFT
100
AcDbLine
 62
7
  6
CONTINUOUS
 10
23.7872426782
 20
12.218821047
 11
20.4577968976
 21
10.2625926763
  0
LINE
  5
403
100
AcDbEntity
  8
ASSI
100
AcDbLine
 62
7
  6
CONTINUOUS
 10
23.7872426782
 20
12.218821047
 11
20.4577968976
 21
10.2625926763
  0
LINE
  5
404
100
AcDbEntity
  8
0
100
AcDbLine
 62
7
  6
CONTINUOUS
 10
-4.2495411959
 20
-3.3161968853
 11
-5.3287152598
 21
-3.9392963985
  0
LINE
  5
405
100
AcDbEntity
  8
DRAFT
100
AcDbLine
 62
7
  6
CONTINUOUS
 10
23.7872426782
 20
12.218821047
 11
24.8479028499
 21
12.831232937
  0
LINE
  5
406
100
AcDbEntity
  8
ASSI
100
AcDbLine
 62
7
  6
CONTINUOUS
 10
23.7872426782
 20
12.218821047
 11
24.8479028499
 21
12.831232937
  0
LINE
  5
407
100
AcDbEntity
  8
RACCORDO
100
AcDbLine
 62
253
  6
CONTINUOUS
 10
25.4935471165
 20
12.4584460293
 11
21.0355620628
 21
9.928998311
  0
LINE
  5
408
100
AcDbEntity
  8
ASSI
100
AcDbLine
 62
253
  6
CONTINUOUS
 10
25.4935471165
 20
12.4584460293
 11
21.0355620628
 21
9.928998311
  0
LINE
  5
409
100
AcDbEntity
  8
RACCORDO
100
AcDbLine
 62
253
  6
CONTINUOUS
 10
25.7056872285
 20
12.0910179044
 11
21.2458348421
 21
9.5605106669
  0
LINE
  5
40A
100
AcDbEntity
  8
ASSI
100
AcDbLine
 62
253
  6
CONTINUOUS
 10
25.7056872285
 20
12.0910179044
 11
21.2458348421
 21
9.5605106669
  0
LINE
  5
40B
100
AcDbEntity
  8
RACCORDO
100
AcDbLine
 62
253
  6
CONTINUOUS
 10
21.2458348421
 20
9.4788636393
 11
25.7056872285
 21
12.0093708767
  0
LINE
  5
40C
100
AcDbEntity
  8
ASSI
100
AcDbLine
 62
253
  6
CONTINUOUS
 10
21.2458348421
 20
9.4788636393
 11
25.7056872285
 21
12.0093708767
  0
LINE
  5
40D
100
AcDbEntity
  8
RACCORDO
100
AcDbLine
 62
7
  6
CONTINUOUS
 10
21.1836100724
 20
9.3414853321
 11
25.6428937201
 21
11.8716698689
  0
LINE
  5
40E
100
AcDbEntity
  8
ASSI
100
AcDbLine
 62
7
  6
CONTINUOUS
 10
21.1836100724
 20
9.3414853321
 11
25.6428937201
 21
11.8716698689
  0
LINE
  5
40F
100
AcDbEntity
  8
0
100
AcDbLine
 62
7
  6
CONTINUOUS
 10
-2.8476692883
 20
-2.5210248652
 11
-4.2495411959
 21
-3.3161968853
  0
LWPOLYLINE
  5
410
100
AcDbEntity
  8
RACCORDO
100
AcDbPolyline
 62
253
  6
CONTINUOUS
 90
45
 70
0
 10
21.2458348421
 20
9.5605106669
 10
21.1221348905
 20
9.4954876371
 10
21.0002943878
 20
9.4411039161
 10
20.8803133342
 20
9.3973595038
 10
20.7615957119
 20
9.3641715521
 10
20.6447375387
 20
9.3416229092
 10
20.5315268673
 20
9.3299621191
 10
20.422081856
 20
9.329358691
 10
20.3162843464
 20
9.3396431158
 10
20.2155679166
 20
9.3605554107
 10
20.1200050456
 20
9.392223475
 10
20.0295232544
 20
9.4345194094
 10
19.9453386837
 20
9.4867995335
 10
19.8675286785
 20
9.5491802849
 10
19.7960158937
 20
9.6215452259
 10
19.7317844352
 20
9.7029013635
 10
19.6749165369
 20
9.793381456
 10
19.6253299647
 20
9.892852745
 10
19.5837621228
 20
9.9999239624
 10
19.5503250245
 20
10.1147168692
 10
19.5249066565
 20
10.2371097045
 10
19.5079083829
 20
10.3653459176
 10
19.4994639907
 20
10.4995497067
 10
19.499439693
 20
10.6395968736
 10
19.507835493
 20
10.7833582741
 10
19.5247848426
 20
10.9308606226
 10
19.5501542899
 20
11.0820772047
 10
19.5835434821
 20
11.2347987322
 10
19.6250639682
 20
11.3890306217
 10
19.6746041992
 20
11.5447674567
 10
19.731429175
 20
11.6997836985
 10
19.7956205222
 20
11.8540399214
 10
19.8670966142
 20
12.0075755513
 10
19.9448775723
 20
12.1582833267
 10
20.0290417878
 20
12.3061367332
 10
20.1195108694
 20
12.4511622852
 10
20.2150697633
 20
12.5913322651
 10
20.315791625
 20
12.7266016923
 10
20.4216032991
 20
12.8570155473
 10
20.5310702655
 20
12.9806810549
 10
20.6443043258
 20
13.0975583352
 10
20.7611936784
 20
13.2076872679
 10
20.8799683988
 20
13.3092947168
 10
21.0000385121
 20
13.4017896362
 10
21.1219939932
 20
13.4857630717
  0
LWPOLYLINE
  5
411
100
AcDbEntity
  8
ASSI
100
AcDbPolyline
 62
253
  6
CONTINUOUS
 90
45
 70
0
 10
21.2458348421
 20
9.5605106669
 10
21.1221348905
 20
9.4954876371
 10
21.0002943878
 20
9.4411039161
 10
20.8803133342
 20
9.3973595038
 10
20.7615957119
 20
9.3641715521
 10
20.6447375387
 20
9.3416229092
 10
20.5315268673
 20
9.3299621191
 10
20.422081856
 20
9.329358691
 10
20.3162843464
 20
9.3396431158
 10
20.2155679166
 20
9.3605554107
 10
20.1200050456
 20
9.392223475
 10
20.0295232544
 20
9.4345194094
 10
19.9453386837
 20
9.4867995335
 10
19.8675286785
 20
9.5491802849
 10
19.7960158937
 20
9.6215452259
 10
19.7317844352
 20
9.7029013635
 10
19.6749165369
 20
9.793381456
 10
19.6253299647
 20
9.892852745
 10
19.5837621228
 20
9.9999239624
 10
19.5503250245
 20
10.1147168692
 10
19.5249066565
 20
10.2371097045
 10
19.5079083829
 20
10.3653459176
 10
19.4994639907
 20
10.4995497067
 10
19.499439693
 20
10.6395968736
 10
19.507835493
 20
10.7833582741
 10
19.5247848426
 20
10.9308606226
 10
19.5501542899
 20
11.0820772047
 10
19.5835434821
 20
11.2347987322
 10
19.6250639682
 20
11.3890306217
 10
19.6746041992
 20
11.5447674567
 10
19.731429175
 20
11.6997836985
 10
19.7956205222
 20
11.8540399214
 10
19.8670966142
 20
12.0075755513
 10
19.9448775723
 20
12.1582833267
 10
20.0290417878
 20
12.3061367332
 10
20.1195108694
 20
12.4511622852
 10
20.2150697633
 20
12.5913322651
 10
20.315791625
 20
12.7266016923
 10
20.4216032991
 20
12.8570155473
 10
20.5310702655
 20
12.9806810549
 10
20.6443043258
 20
13.0975583352
 10
20.7611936784
 20
13.2076872679
 10
20.8799683988
 20
13.3092947168
 10
21.0000385121
 20
13.4017896362
 10
21.1219939932
 20
13.4857630717
  0
LWPOLYLINE
  5
412
100
AcDbEntity
  8
RACCORDO
100
AcDbPolyline
 62
253
  6
CONTINUOUS
 90
13
 70
0
 10
21.0355620628
 20
9.928998311
 10
20.9273001938
 20
9.8720984781
 10
20.8197638657
 20
9.8242841617
 10
20.7134773708
 20
9.7857505626
 10
20.6089549712
 20
9.7566491585
 10
20.5066970593
 20
9.7370745461
 10
20.4071889839
 20
9.7270692911
 10
20.3109133388
 20
9.7266410092
 10
20.2183069897
 20
9.7357494914
 10
20.1297652013
 20
9.7543150093
 10
20.0457050953
 20
9.7822208848
 10
19.9665131122
 20
9.8193078584
 10
19.9531529117
 20
9.8267444153
  0
LWPOLYLINE
  5
413
100
AcDbEntity
  8
ASSI
100
AcDbPolyline
 62
253
  6
CONTINUOUS
 90
13
 70
0
 10
21.0355620628
 20
9.928998311
 10
20.9273001938
 20
9.8720984781
 10
20.8197638657
 20
9.8242841617
 10
20.7134773708
 20
9.7857505626
 10
20.6089549712
 20
9.7566491585
 10
20.5066970593
 20
9.7370745461
 10
20.4071889839
 20
9.7270692911
 10
20.3109133388
 20
9.7266410092
 10
20.2183069897
 20
9.7357494914
 10
20.1297652013
 20
9.7543150093
 10
20.0457050953
 20
9.7822208848
 10
19.9665131122
 20
9.8193078584
 10
19.953088992
 20
9.8267808791
  0
LWPOLYLINE
  5
414
100
AcDbEntity
  8
RACCORDO
100
AcDbPolyline
 62
253
  6
CONTINUOUS
 90
9
 70
0
 10
-24.1522176311
 20
13.5447650169
 10
-24.1896893173
 20
13.5635055887
 10
-24.2265483431
 20
13.5776963985
 10
-24.2623913331
 20
13.5871821717
 10
-24.2968260511
 20
13.5918591272
 10
-24.3294756436
 20
13.591676105
 10
-24.3599827722
 20
13.5866351479
 10
-24.3880135915
 20
13.5767914756
 10
-24.4088434718
 20
13.5652700769
  0
LWPOLYLINE
  5
415
100
AcDbEntity
  8
ASSI
100
AcDbPolyline
 62
253
  6
CONTINUOUS
 90
9
 70
0
 10
-24.1522176311
 20
13.5447650169
 10
-24.1896893173
 20
13.5635055887
 10
-24.2265483431
 20
13.5776963985
 10
-24.2623913331
 20
13.5871821717
 10
-24.2968260511
 20
13.5918591272
 10
-24.3294756436
 20
13.591676105
 10
-24.3599827722
 20
13.5866351479
 10
-24.3880135915
 20
13.5767914756
 10
-24.4088434718
 20
13.5652700769
  0
LINE
  5
416
100
AcDbEntity
  8
0
100
AcDbLine
 62
253
  6
CONTINUOUS
 10
18.908205888
 20
-9.7222605499
 11
18.8021398708
 21
-9.6610193609
  0
LINE
  5
417
100
AcDbEntity
  8
0
100
AcDbLine
 62
7
  6
CONTINUOUS
 10
-18.5684535149
 20
14.001520461
 11
-16.7299758838
 21
12.9400065184
  0
LINE
  5
418
100
AcDbEntity
  8
ASSI
100
AcDbLine
 62
7
  6
CONTINUOUS
 10
-18.5684535149
 20
14.001520461
 11
-16.7299758838
 21
12.9400065184
  0
LINE
  5
419
100
AcDbEntity
  8
0
100
AcDbLine
 62
7
  6
CONTINUOUS
 10
-10.6488575656
 20
9.4288450158
 11
-8.8103799345
 21
8.3673310731
  0
LINE
  5
41A
100
AcDbEntity
  8
ASSI
100
AcDbLine
 62
7
  6
CONTINUOUS
 10
-10.6488575656
 20
9.4288450158
 11
-8.8103799345
 21
8.3673310731
  0
LINE
  5
41B
100
AcDbEntity
  8
0
100
AcDbLine
 62
7
  6
CONTINUOUS
 10
-8.7396692564
 20
8.4381111083
 11
-10.5781468875
 21
9.4996250509
  0
LINE
  5
41C
100
AcDbEntity
  8
0
100
AcDbLine
 62
7
  6
CONTINUOUS
 10
-16.6592652057
 20
13.0107865536
 11
-18.4977428368
 21
14.0723004962
  0
LWPOLYLINE
  5
41D
100
AcDbEntity
  8
0
100
AcDbPolyline
 62
7
  6
CONTINUOUS
 90
18
 70
0
 10
-7.8903837661
 20
8.4376738222
 10
-7.8984771818
 20
8.4429122796
 10
-7.9060593295
 20
8.448303644
 10
-7.9131302092
 20
8.4538479156
 10
-7.9196801018
 20
8.459541988
 10
-7.9257187264
 20
8.4653889674
 10
-7.9312752398
 20
8.4713981732
 10
-7.9363675596
 20
8.4775836074
 10
-7.9409777683
 20
8.4839312679
 10
-7.9450812707
 20
8.4904084677
 10
-7.9486781884
 20
8.497022577
 10
-7.9517683999
 20
8.5037662256
 10
-7.9543269453
 20
8.5105846165
 10
-7.9563479444
 20
8.5174699064
 10
-7.9578372773
 20
8.5244299387
 10
-7.9587876248
 20
8.5314334464
 10
-7.9591962757
 20
8.5384902757
 10
-7.9592142056
 20
8.5403377876
  0
LWPOLYLINE
  5
41E
100
AcDbEntity
  8
0
100
AcDbPolyline
 62
7
  6
CONTINUOUS
 90
11
 70
0
 10
-20.8408761353
 20
16.2574769184
 10
-20.8643123255
 20
16.2728212822
 10
-20.8860815585
 20
16.2908733873
 10
-20.9057902704
 20
16.3114057156
 10
-20.9230235794
 20
16.3340246846
 10
-20.9375828189
 20
16.3584659011
 10
-20.9493757385
 20
16.3846762848
 10
-20.9581569216
 20
16.4123592692
 10
-20.9636824492
 20
16.4409794191
 10
-20.965840948
 20
16.4701623445
 10
-20.9658700846
 20
16.4740219695
  0
LWPOLYLINE
  5
41F
100
AcDbEntity
  8
0
100
AcDbPolyline
 62
7
  6
CONTINUOUS
 90
8
 70
0
 10
-8.5729154178
 20
9.1784965675
 10
-8.5924069243
 20
9.1967106978
 10
-8.6098638571
 20
9.2169209759
 10
-8.6250902662
 20
9.2389183449
 10
-8.637956079
 20
9.2625790619
 10
-8.6482633009
 20
9.2876621408
 10
-8.6558237195
 20
9.3138469326
 10
-8.6605108487
 20
9.3408860078
  0
LINE
  5
420
100
AcDbEntity
  8
0
100
AcDbLine
 62
253
  6
CONTINUOUS
 10
15.2215120698
 20
-13.1275262782
 11
14.7714324537
 21
-12.6311501023
  0
LWPOLYLINE
  5
421
100
AcDbEntity
  8
0
100
AcDbPolyline
 62
253
  6
CONTINUOUS
 90
15
 70
0
 10
-4.4283808053
 20
9.5206227721
 10
-4.4244080916
 20
9.5147795541
 10
-4.4208456329
 20
9.5091785427
 10
-4.4177014697
 20
9.503832379
 10
-4.414982698
 20
9.4987531291
 10
-4.412695454
 20
9.4939522565
 10
-4.4108448998
 20
9.4894405966
 10
-4.4094352121
 20
9.4852283317
 10
-4.4084695723
 20
9.4813249689
 10
-4.40795016
 20
9.4777393177
 10
-4.4078781474
 20
9.4744794707
 10
-4.408253697
 20
9.4715527853
 10
-4.4090759613
 20
9.4689658668
 10
-4.4103430843
 20
9.4667245536
 10
-4.4106808048
 20
9.4662789673
  0
LWPOLYLINE
  5
422
100
AcDbEntity
  8
0
100
AcDbPolyline
 62
7
  6
CONTINUOUS
 90
3
 70
0
 10
-3.5490111823
 20
14.7835451863
 10
-3.5492480971
 20
14.7841035957
 10
-3.5494151953
 20
14.7842252283
  0
LINE
  5
423
100
AcDbEntity
  8
0
100
AcDbLine
 62
7
  6
CONTINUOUS
 10
3.9528974659
 20
-19.4458393474
 11
3.9528974659
 21
-16.3384282865
  0
LWPOLYLINE
  5
424
100
AcDbEntity
  8
0
100
AcDbPolyline
 62
7
  6
CONTINUOUS
 90
18
 70
0
 10
4.0589634831
 20
-19.461389613
 10
4.0578182103
 20
-19.5153378576
 10
4.0544586607
 20
-19.5676292172
 10
4.0488848344
 20
-19.6182636916
 10
4.0410766523
 20
-19.6673397096
 10
4.0310541935
 20
-19.7147588426
 10
4.0188776949
 20
-19.7602258042
 10
4.0045247844
 20
-19.8037477634
 10
3.9880178341
 20
-19.8453175513
 10
3.9694841968
 20
-19.8846183746
 10
3.9489238303
 20
-19.9216107237
 10
3.9263367769
 20
-19.9563341083
 10
3.9018505162
 20
-19.9885902642
 10
3.8754320166
 20
-20.0183857348
 10
3.8471143097
 20
-20.0457139767
 10
3.8171239704
 20
-20.0703570956
 10
3.7854753337
 20
-20.0922777833
 10
3.7690461706
 20
-20.1022182776
  0
LWPOLYLINE
  5
425
100
AcDbEntity
  8
RACCORDO
100
AcDbPolyline
 62
253
  6
CONTINUOUS
 90
13
 70
0
 10
6.3974411141
 20
21.7188903196
 10
6.3992359426
 20
21.751721897
 10
6.4045900022
 20
21.7860704009
 10
6.413412659
 20
21.8213545887
 10
6.4255545924
 20
21.8569774074
 10
6.44081031
 20
21.8923360579
 10
6.4589216152
 20
21.926832197
 10
6.4795820043
 20
21.9598821209
 10
6.5024418568
 20
21.9909266246
 10
6.5271143292
 20
22.0194404295
 10
6.5531819209
 20
22.0449411012
 10
6.5802035428
 20
22.066997208
 10
6.6077219708
 20
22.0852356072
  0
LWPOLYLINE
  5
426
100
AcDbEntity
  8
ASSI
100
AcDbPolyline
 62
253
  6
CONTINUOUS
 90
13
 70
0
 10
6.3974411141
 20
21.7188903196
 10
6.3992359426
 20
21.751721897
 10
6.4045900022
 20
21.7860704009
 10
6.413412659
 20
21.8213545887
 10
6.4255545924
 20
21.8569774074
 10
6.44081031
 20
21.8923360579
 10
6.4589216152
 20
21.926832197
 10
6.4795820043
 20
21.9598821209
 10
6.5024418568
 20
21.9909266246
 10
6.5271143292
 20
22.0194404295
 10
6.5531819209
 20
22.0449411012
 10
6.5802035428
 20
22.066997208
 10
6.6077219708
 20
22.0852356072
  0
LWPOLYLINE
  5
427
100
AcDbEntity
  8
RACCORDO
100
AcDbPolyline
 62
253
  6
CONTINUOUS
 90
10
 70
0
 10
6.549143327
 20
23.4951289058
 10
6.549921264
 20
23.5052716716
 10
6.5521386607
 20
23.5152126478
 10
6.5557955173
 20
23.5249518344
 10
6.5609463549
 20
23.5345664905
 10
6.5675366524
 20
23.5439793571
 10
6.5754028457
 20
23.5529586565
 10
6.5844904137
 20
23.5614271296
 10
6.5948538775
 20
23.5694620356
 10
6.6064932372
 20
23.5770633745
  0
LWPOLYLINE
  5
428
100
AcDbEntity
  8
ASSI
100
AcDbPolyline
 62
253
  6
CONTINUOUS
 90
10
 70
0
 10
6.549143327
 20
23.4951289058
 10
6.549921264
 20
23.5052716716
 10
6.5521386607
 20
23.5152126478
 10
6.5557955173
 20
23.5249518344
 10
6.5609463549
 20
23.5345664905
 10
6.5675366524
 20
23.5439793571
 10
6.5754028457
 20
23.5529586565
 10
6.5844904137
 20
23.5614271296
 10
6.5948538775
 20
23.5694620356
 10
6.6064932372
 20
23.5770633745
  0
LWPOLYLINE
  5
429
100
AcDbEntity
  8
RACCORDO
100
AcDbPolyline
 62
253
  6
CONTINUOUS
 90
13
 70
0
 10
6.2509945047
 20
23.2512659962
 10
6.2535410489
 20
23.2829733679
 10
6.2611374178
 20
23.3141423523
 10
6.2736546032
 20
23.3442438052
 10
6.2908800663
 20
23.372766723
 10
6.3125213308
 20
23.399226888
 10
6.338210936
 20
23.4231750964
 10
6.3675127113
 20
23.4442048226
 10
6.3999291854
 20
23.4619591032
 10
6.4349100033
 20
23.4761365759
 10
6.4718612957
 20
23.4864966127
 10
6.5101557663
 20
23.4928633981
 10
6.549143327
 20
23.4951289058
  0
LWPOLYLINE
  5
42A
100
AcDbEntity
  8
ASSI
100
AcDbPolyline
 62
253
  6
CONTINUOUS
 90
13
 70
0
 10
6.2509945047
 20
23.2512659962
 10
6.2535410489
 20
23.2829733679
 10
6.2611374178
 20
23.3141423523
 10
6.2736546032
 20
23.3442438052
 10
6.2908800663
 20
23.372766723
 10
6.3125213308
 20
23.399226888
 10
6.338210936
 20
23.4231750964
 10
6.3675127113
 20
23.4442048226
 10
6.3999291854
 20
23.4619591032
 10
6.4349100033
 20
23.4761365759
 10
6.4718612957
 20
23.4864966127
 10
6.5101557663
 20
23.4928633981
 10
6.549143327
 20
23.4951289058
  0
LWPOLYLINE
  5
42B
100
AcDbEntity
  8
RACCORDO
100
AcDbPolyline
 62
253
  6
CONTINUOUS
 90
13
 70
0
 10
6.2509945047
 20
21.9234450025
 10
6.2535409499
 20
21.9551517726
 10
6.2611370563
 20
21.9863202791
 10
6.27365387
 20
22.016421396
 10
6.2908789019
 20
22.0449441177
 10
6.3125197346
 20
22.0714042338
 10
6.3382089869
 20
22.0953525495
 10
6.3675105502
 20
22.1163825108
 10
6.3999269923
 20
22.1341371068
 10
6.4349080021
 20
22.1483149302
 10
6.4718597313
 20
22.158675294
 10
6.5101548762
 20
22.1650423174
 10
6.549143327
 20
22.1673079121
  0
LWPOLYLINE
  5
42C
100
AcDbEntity
  8
ASSI
100
AcDbPolyline
 62
253
  6
CONTINUOUS
 90
13
 70
0
 10
6.2509945047
 20
21.9234450025
 10
6.2535409499
 20
21.9551517726
 10
6.2611370563
 20
21.9863202791
 10
6.27365387
 20
22.016421396
 10
6.2908789019
 20
22.0449441177
 10
6.3125197346
 20
22.0714042338
 10
6.3382089869
 20
22.0953525495
 10
6.3675105502
 20
22.1163825108
 10
6.3999269923
 20
22.1341371068
 10
6.4349080021
 20
22.1483149302
 10
6.4718597313
 20
22.158675294
 10
6.5101548762
 20
22.1650423174
 10
6.549143327
 20
22.1673079121
  0
LWPOLYLINE
  5
42D
100
AcDbEntity
  8
ASSI
100
AcDbPolyline
 62
7
  6
CONTINUOUS
 90
20
 70
0
 10
19.8628000426
 20
6.9320477763
 10
19.9777999846
 20
7.0040259596
 10
20.0906144706
 20
7.0849803915
 10
20.2012435007
 20
7.174911072
 10
20.3103732232
 20
7.2745146432
 10
20.4173174898
 20
7.383094463
 10
20.5200178552
 20
7.4985606053
 10
20.6183921061
 20
7.6210464729
 10
20.7125224559
 20
7.750418663
 10
20.8005970994
 20
7.8841870416
 10
20.8824987248
 20
8.0224367722
 10
20.9583446439
 20
8.1650826912
 10
21.0266749873
 20
8.3093791742
 10
21.0873441624
 20
8.4553581959
 10
21.1404977618
 20
8.6029877816
 10
21.185112694
 20
8.7494263818
 10
21.2210235469
 20
8.8946509246
 10
21.2483957326
 20
9.0386844819
 10
21.2667023958
 20
9.1787547202
 10
21.2757679182
 20
9.3147848615
  0
LWPOLYLINE
  5
42E
100
AcDbEntity
  8
ASSI
100
AcDbPolyline
 62
7
  6
CONTINUOUS
 90
3
 70
0
 10
19.8628000426
 20
6.1155774995
 10
19.7478001006
 20
6.0435993161
 10
19.7087578402
 20
6.0155830204
  0
LINE
  5
42F
100
AcDbEntity
  8
DRAFT
100
AcDbLine
 62
7
  6
CONTINUOUS
 10
23.7872426782
 20
8.136469663
 11
20.4577968976
 21
6.1802412924
  0
LINE
  5
430
100
AcDbEntity
  8
ASSI
100
AcDbLine
 62
7
  6
CONTINUOUS
 10
23.7872426782
 20
8.136469663
 11
20.4577968976
 21
6.1802412924
  0
LINE
  5
431
100
AcDbEntity
  8
DRAFT
100
AcDbLine
 62
7
  6
CONTINUOUS
 10
23.7872426782
 20
8.136469663
 11
24.8479028499
 21
8.748881553
  0
LINE
  5
432
100
AcDbEntity
  8
ASSI
100
AcDbLine
 62
7
  6
CONTINUOUS
 10
23.7872426782
 20
8.136469663
 11
24.8479028499
 21
8.748881553
  0
LINE
  5
433
100
AcDbEntity
  8
RACCORDO
100
AcDbLine
 62
253
  6
CONTINUOUS
 10
25.4935471165
 20
8.3760946454
 11
21.0355620628
 21
5.8466469271
  0
LINE
  5
434
100
AcDbEntity
  8
ASSI
100
AcDbLine
 62
253
  6
CONTINUOUS
 10
25.4935471165
 20
8.3760946454
 11
21.0355620628
 21
5.8466469271
  0
LINE
  5
435
100
AcDbEntity
  8
RACCORDO
100
AcDbLine
 62
253
  6
CONTINUOUS
 10
25.7056872285
 20
8.0086665204
 11
21.2458348421
 21
5.478159283
  0
LINE
  5
436
100
AcDbEntity
  8
ASSI
100
AcDbLine
 62
253
  6
CONTINUOUS
 10
25.7056872285
 20
8.0086665204
 11
21.2458348421
 21
5.478159283
  0
LWPOLYLINE
  5
437
100
AcDbEntity
  8
RACCORDO
100
AcDbPolyline
 62
253
  6
CONTINUOUS
 90
45
 70
0
 10
21.2458348421
 20
5.478159283
 10
21.1221348905
 20
5.4131362532
 10
21.0002943878
 20
5.3587525321
 10
20.8803133342
 20
5.3150081198
 10
20.7615957119
 20
5.2818201681
 10
20.6447375387
 20
5.2592715252
 10
20.5315268673
 20
5.2476107352
 10
20.422081856
 20
5.247007307
 10
20.3162843464
 20
5.2572917318
 10
20.2155679166
 20
5.2782040267
 10
20.1200050456
 20
5.309872091
 10
20.0295232544
 20
5.3521680254
 10
19.9453386837
 20
5.4044481495
 10
19.8675286785
 20
5.4668289009
 10
19.7960158937
 20
5.539193842
 10
19.7317844352
 20
5.6205499796
 10
19.6749165369
 20
5.711030072
 10
19.6253299647
 20
5.810501361
 10
19.5837621228
 20
5.9175725785
 10
19.5503250245
 20
6.0323654852
 10
19.5249066565
 20
6.1547583205
 10
19.5079083829
 20
6.2829945337
 10
19.4994639907
 20
6.4171983227
 10
19.499439693
 20
6.5572454896
 10
19.507835493
 20
6.7010068901
 10
19.5247848426
 20
6.8485092387
 10
19.5501542899
 20
6.9997258208
 10
19.5835434821
 20
7.1524473482
 10
19.6250639682
 20
7.3066792378
 10
19.6746041992
 20
7.4624160727
 10
19.731429175
 20
7.6174323145
 10
19.7956205222
 20
7.7716885375
 10
19.8670966142
 20
7.9252241673
 10
19.9448775723
 20
8.0759319428
 10
20.0290417878
 20
8.2237853492
 10
20.1195108694
 20
8.3688109012
 10
20.2150697633
 20
8.5089808812
 10
20.315791625
 20
8.6442503083
 10
20.4216032991
 20
8.7746641634
 10
20.5310702655
 20
8.8983296709
 10
20.6443043258
 20
9.0152069512
 10
20.7611936784
 20
9.125335884
 10
20.8799683988
 20
9.2269433328
 10
21.0000385121
 20
9.3194382522
 10
21.1219939932
 20
9.4034116877
  0
LWPOLYLINE
  5
438
100
AcDbEntity
  8
ASSI
100
AcDbPolyline
 62
253
  6
CONTINUOUS
 90
45
 70
0
 10
21.2458348421
 20
5.478159283
 10
21.1221348905
 20
5.4131362532
 10
21.0002943878
 20
5.3587525321
 10
20.8803133342
 20
5.3150081198
 10
20.7615957119
 20
5.2818201681
 10
20.6447375387
 20
5.2592715252
 10
20.5315268673
 20
5.2476107352
 10
20.422081856
 20
5.247007307
 10
20.3162843464
 20
5.2572917318
 10
20.2155679166
 20
5.2782040267
 10
20.1200050456
 20
5.309872091
 10
20.0295232544
 20
5.3521680254
 10
19.9453386837
 20
5.4044481495
 10
19.8675286785
 20
5.4668289009
 10
19.7960158937
 20
5.539193842
 10
19.7317844352
 20
5.6205499796
 10
19.6749165369
 20
5.711030072
 10
19.6253299647
 20
5.810501361
 10
19.5837621228
 20
5.9175725785
 10
19.5503250245
 20
6.0323654852
 10
19.5249066565
 20
6.1547583205
 10
19.5079083829
 20
6.2829945337
 10
19.4994639907
 20
6.4171983227
 10
19.499439693
 20
6.5572454896
 10
19.507835493
 20
6.7010068901
 10
19.5247848426
 20
6.8485092387
 10
19.5501542899
 20
6.9997258208
 10
19.5835434821
 20
7.1524473482
 10
19.6250639682
 20
7.3066792378
 10
19.6746041992
 20
7.4624160727
 10
19.731429175
 20
7.6174323145
 10
19.7956205222
 20
7.7716885375
 10
19.8670966142
 20
7.9252241673
 10
19.9448775723
 20
8.0759319428
 10
20.0290417878
 20
8.2237853492
 10
20.1195108694
 20
8.3688109012
 10
20.2150697633
 20
8.5089808812
 10
20.315791625
 20
8.6442503083
 10
20.4216032991
 20
8.7746641634
 10
20.5310702655
 20
8.8983296709
 10
20.6443043258
 20
9.0152069512
 10
20.7611936784
 20
9.125335884
 10
20.8799683988
 20
9.2269433328
 10
21.0000385121
 20
9.3194382522
 10
21.1219939932
 20
9.4034116877
  0
LWPOLYLINE
  5
439
100
AcDbEntity
  8
RACCORDO
100
AcDbPolyline
 62
253
  6
CONTINUOUS
 90
13
 70
0
 10
21.0355620628
 20
5.8466469271
 10
20.9273001938
 20
5.7897470941
 10
20.8197638657
 20
5.7419327777
 10
20.7134773708
 20
5.7033991786
 10
20.6089549712
 20
5.6742977746
 10
20.5066970593
 20
5.6547231621
 10
20.4071889839
 20
5.6447179071
 10
20.3109133388
 20
5.6442896252
 10
20.2183069897
 20
5.6533981075
 10
20.1297652013
 20
5.6719636253
 10
20.0457050953
 20
5.6998695008
 10
19.9665131122
 20
5.7369564744
 10
19.9531529117
 20
5.7443930313
  0
LWPOLYLINE
  5
43A
100
AcDbEntity
  8
ASSI
100
AcDbPolyline
 62
253
  6
CONTINUOUS
 90
13
 70
0
 10
21.0355620628
 20
5.8466469271
 10
20.9273001938
 20
5.7897470941
 10
20.8197638657
 20
5.7419327777
 10
20.7134773708
 20
5.7033991786
 10
20.6089549712
 20
5.6742977746
 10
20.5066970593
 20
5.6547231621
 10
20.4071889839
 20
5.6447179071
 10
20.3109133388
 20
5.6442896252
 10
20.2183069897
 20
5.6533981075
 10
20.1297652013
 20
5.6719636253
 10
20.0457050953
 20
5.6998695008
 10
19.9665131122
 20
5.7369564744
 10
19.953088992
 20
5.7444294951
  0
LWPOLYLINE
  5
43B
100
AcDbEntity
  8
ASSI
100
AcDbPolyline
 62
7
  6
CONTINUOUS
 90
4
 70
0
 10
19.5981472514
 20
2.7269606173
 10
19.6349856145
 20
2.7395546164
 10
19.7478001006
 20
2.7888755252
 10
19.8628000426
 20
2.8496963923
  0
LWPOLYLINE
  5
43C
100
AcDbEntity
  8
ASSI
100
AcDbPolyline
 62
7
  6
CONTINUOUS
 90
6
 70
0
 10
20.4173174898
 20
6.3048736614
 10
20.3103732232
 20
6.2899569227
 10
20.2012435007
 20
6.2635402258
 10
20.0906144706
 20
6.2257192754
 10
19.9777999846
 20
6.1763983666
 10
19.8628000426
 20
6.1155774995
  0
LINE
  5
43D
100
AcDbEntity
  8
ASSI
100
AcDbLine
 62
7
  6
CONTINUOUS
 10
20.5200178552
 20
6.3080033267
 11
20.4173174898
 21
6.3048736614
  0
LWPOLYLINE
  5
43E
100
AcDbEntity
  8
0
100
AcDbPolyline
 62
7
  6
CONTINUOUS
 90
6
 70
0
 10
-6.8586812077
 20
8.1843328053
 10
-6.8484474864
 20
8.1787380655
 10
-6.8250482177
 20
8.1681318586
 10
-6.8006279371
 20
8.1599674675
 10
-6.775398535
 20
8.1543414721
 10
-6.7565981346
 20
8.1518882609
  0
LWPOLYLINE
  5
43F
100
AcDbEntity
  8
0
100
AcDbPolyline
 62
253
  6
CONTINUOUS
 90
31
 70
0
 10
-13.3377199674
 20
13.6052613499
 10
-13.3301679612
 20
13.6011222473
 10
-13.3222530932
 20
13.5972156952
 10
-13.313996817
 20
13.5935522825
 10
-13.3054215119
 20
13.5901419391
 10
-13.2965504219
 20
13.5869939091
 10
-13.2874075927
 20
13.5841167253
 10
-13.2780178064
 20
13.5815181866
 10
-13.2684065147
 20
13.5792053365
 10
-13.2585997697
 20
13.5771844441
 10
-13.2486241533
 20
13.5754609872
 10
-13.238506705
 20
13.5740396373
 10
-13.2282748487
 20
13.5729242471
 10
-13.2179563188
 20
13.5721178399
 10
-13.2075790842
 20
13.5716226015
 10
-13.1971712731
 20
13.5714398745
 10
-13.1867610966
 20
13.5715701539
 10
-13.1763767721
 20
13.5720130867
 10
-13.1660464472
 20
13.5727674723
 10
-13.1557981227
 20
13.5738312659
 10
-13.1456595776
 20
13.575201584
 10
-13.135658293
 20
13.5768747122
 10
-13.125821378
 20
13.5788461155
 10
-13.1161754963
 20
13.5811104502
 10
-13.1067467936
 20
13.5836615786
 10
-13.0975608272
 20
13.5864925858
 10
-13.0886424962
 20
13.5895957982
 10
-13.0800159743
 20
13.5929628042
 10
-13.0717046444
 20
13.5965844774
 10
-13.0637310347
 20
13.600451001
 10
-13.0561167583
 20
13.6045518946
  0
LWPOLYLINE
  5
440
100
AcDbEntity
  8
0
100
AcDbPolyline
 62
253
  6
CONTINUOUS
 90
34
 70
0
 10
-6.9104507276
 20
8.298766365
 10
-6.9018717357
 20
8.2940424717
 10
-6.8929145385
 20
8.2895587095
 10
-6.883599277
 20
8.2853251605
 10
-6.8739468973
 20
8.2813513441
 10
-6.8639791034
 20
8.2776461958
 10
-6.8537183087
 20
8.2742180469
 10
-6.8431875853
 20
8.2710746058
 10
-6.8324106124
 20
8.2682229408
 10
-6.8214116229
 20
8.2656694641
 10
-6.8102153487
 20
8.2634199174
 10
-6.7988469656
 20
8.2614793589
 10
-6.7873320362
 20
8.2598521522
 10
-6.7756964528
 20
8.258541956
 10
-6.7639663787
 20
8.2575517166
 10
-6.7521681901
 20
8.2568836606
 10
-6.7403284159
 20
8.25653929
 10
-6.7284736788
 20
8.2565193793
 10
-6.7166306351
 20
8.2568239732
 10
-6.7048259148
 20
8.2574523869
 10
-6.6930860616
 20
8.2584032072
 10
-6.6814374736
 20
8.2596742962
 10
-6.6699063434
 20
8.2612627958
 10
-6.6585185997
 20
8.2631651341
 10
-6.6472998487
 20
8.2653770335
 10
-6.6362753166
 20
8.2678935205
 10
-6.6254697928
 20
8.2707089364
 10
-6.6149075745
 20
8.2738169507
 10
-6.6046124116
 20
8.2772105747
 10
-6.5946074534
 20
8.2808821776
 10
-6.584915197
 20
8.2848235036
 10
-6.5755574361
 20
8.2890256902
 10
-6.5665552124
 20
8.2934792885
 10
-6.5579287679
 20
8.2981742843
  0
LWPOLYLINE
  5
441
100
AcDbEntity
  8
0
100
AcDbPolyline
 62
253
  6
CONTINUOUS
 90
34
 70
0
 10
-6.9104507276
 20
8.6192865378
 10
-6.9018857958
 20
8.6145700276
 10
-6.8929400125
 20
8.6100910369
 10
-6.8836329835
 20
8.6058599208
 10
-6.8739837985
 20
8.6018859621
 10
-6.8640150114
 20
8.5981790334
 10
-6.8537530199
 20
8.594749193
 10
-6.8432224584
 20
8.5916045924
 10
-6.8324455377
 20
8.5887517845
 10
-6.8214463003
 20
8.5861971428
 10
-6.8102493301
 20
8.5839464019
 10
-6.7988799374
 20
8.5820046738
 10
-6.7873639197
 20
8.5803763717
 10
-6.7757272833
 20
8.5790651654
 10
-6.7639960994
 20
8.5780739852
 10
-6.7521966769
 20
8.5774050544
 10
-6.7403555212
 20
8.5770598804
 10
-6.728499296
 20
8.5770392451
 10
-6.7166546877
 20
8.5773431977
 10
-6.7048483422
 20
8.577971056
 10
-6.6931068086
 20
8.5789214096
 10
-6.6814564998
 20
8.5801921223
 10
-6.6699236179
 20
8.5817803379
 10
-6.658534105
 20
8.5836824854
 10
-6.6473135872
 20
8.5858942861
 10
-6.6362873038
 20
8.5884107657
 10
-6.6254800537
 20
8.591226265
 10
-6.6149161482
 20
8.5943344511
 10
-6.6046193428
 20
8.5977283353
 10
-6.594612803
 20
8.6014002829
 10
-6.5849190533
 20
8.605342028
 10
-6.5755599012
 20
8.6095447009
 10
-6.5665563897
 20
8.6139988504
 10
-6.5579287679
 20
8.6186944572
  0
LWPOLYLINE
  5
442
100
AcDbEntity
  8
0
100
AcDbPolyline
 62
253
  6
CONTINUOUS
 90
34
 70
0
 10
-19.2141087202
 20
15.4027442889
 10
-19.2055290998
 20
15.3980200655
 10
-19.1965712213
 20
15.3935360085
 10
-19.1872552301
 20
15.3893022018
 10
-19.1776020884
 20
15.3853281716
 10
-19.1676334944
 20
15.3816228497
 10
-19.15737183
 20
15.3781945576
 10
-19.1468401447
 20
15.3750510011
 10
-19.1360621446
 20
15.3721992612
 10
-19.1250621054
 20
15.3696457629
 10
-19.1138647787
 20
15.3673962514
 10
-19.102495334
 20
15.3654557824
 10
-19.090979341
 20
15.3638287201
 10
-19.0793426988
 20
15.3625187236
 10
-19.0676115774
 20
15.361528739
 10
-19.055812359
 20
15.3608609926
 10
-19.0439715705
 20
15.360516986
 10
-19.03211585
 20
15.3604974935
 10
-19.0202718861
 20
15.360802558
 10
-19.008466332
 20
15.36143149
 10
-18.9967257199
 20
15.3623828733
 10
-18.9850764277
 20
15.3636545693
 10
-18.9735445684
 20
15.3652437311
 10
-18.9621561636
 20
15.3671467765
 10
-18.9509370487
 20
15.369359378
 10
-18.9399125898
 20
15.3718765056
 10
-18.9291074132
 20
15.3746925084
 10
-18.9185455914
 20
15.3778011021
 10
-18.9082500505
 20
15.3811955832
 10
-18.8982448118
 20
15.3848680775
 10
-18.8885545028
 20
15.3888094165
 10
-18.8792013735
 20
15.3930102409
 10
-18.8702054738
 20
15.3974612248
 10
-18.8615867605
 20
15.4021522082
  0
LWPOLYLINE
  5
443
100
AcDbEntity
  8
0
100
AcDbPolyline
 62
253
  6
CONTINUOUS
 90
34
 70
0
 10
-19.2141087202
 20
15.7232644617
 10
-19.2055285173
 20
15.7185399325
 10
-19.196569994
 20
15.7140555958
 10
-19.1872532982
 20
15.7098215388
 10
-19.1775993774
 20
15.7058472834
 10
-19.1676299496
 20
15.7021417726
 10
-19.1573674569
 20
15.6987133483
 10
-19.146834988
 20
15.6955697231
 10
-19.1360562276
 20
15.6927179655
 10
-19.1250554232
 20
15.6901644899
 10
-19.1138573165
 20
15.6879150388
 10
-19.1024870968
 20
15.6859746712
 10
-19.0909703473
 20
15.6843477521
 10
-19.0793329739
 20
15.6830379394
 10
-19.0676011501
 20
15.6820481773
 10
-19.0558012669
 20
15.6813806909
 10
-19.0439598588
 20
15.6810369794
 10
-19.0321035651
 20
15.6810178146
 10
-19.0202590746
 20
15.681323237
 10
-19.0084530599
 20
15.6819525538
 10
-18.9967120404
 20
15.6829043465
 10
-18.9850623463
 20
15.6841764802
 10
-18.9735300725
 20
15.6857661128
 10
-18.9621412679
 20
15.6876696613
 10
-18.9509217891
 20
15.6898827959
 10
-18.9398970067
 20
15.6924004859
 10
-18.9290915511
 20
15.6952170799
 10
-18.9185295132
 20
15.6983262883
 10
-18.9082331194
 20
15.7017216506
 10
-18.8982271386
 20
15.7053950831
 10
-18.8885381978
 20
15.7093365614
 10
-18.8791889776
 20
15.713536259
 10
-18.8701986009
 20
15.7179849648
 10
-18.8615867605
 20
15.7226723811
  0
LINE
  5
444
100
AcDbEntity
  8
RACCORDO
100
AcDbLine
 62
7
  6
CONTINUOUS
 10
-20.6900429831
 20
15.8280366367
 11
-18.5684535149
 21
14.6030574675
  0
LINE
  5
445
100
AcDbEntity
  8
ASSI
100
AcDbLine
 62
7
  6
CONTINUOUS
 10
-20.6900429831
 20
15.8280366367
 11
-18.5684535149
 21
14.6030574675
  0
LINE
  5
446
100
AcDbEntity
  8
0
100
AcDbLine
 62
7
  6
CONTINUOUS
 10
-15.7400263902
 20
12.9699590942
 11
-10.6488575656
 21
10.0303820223
  0
LINE
  5
447
100
AcDbEntity
  8
ASSI
100
AcDbLine
 62
7
  6
CONTINUOUS
 10
-15.7400263902
 20
12.9699590942
 11
-10.6488575656
 21
10.0303820223
  0
LINE
  5
448
100
AcDbEntity
  8
RACCORDO
100
AcDbLine
 62
7
  6
CONTINUOUS
 10
-7.8204304409
 20
8.3972836489
 11
-5.6988409727
 21
7.1723044798
  0
LINE
  5
449
100
AcDbEntity
  8
ASSI
100
AcDbLine
 62
7
  6
CONTINUOUS
 10
-7.8204304409
 20
8.3972836489
 11
-5.6988409727
 21
7.1723044798
  0
LINE
  5
44A
100
AcDbEntity
  8
0
100
AcDbLine
 62
7
  6
CONTINUOUS
 10
-5.6819995258
 20
7.1625804394
 11
-6.1992301195
 21
7.4612229018
  0
LINE
  5
44B
100
AcDbEntity
  8
0
100
AcDbLine
 62
7
  6
CONTINUOUS
 10
-15.8107370683
 20
13.0107865536
 11
-18.5028881121
 21
14.5652008257
  0
LINE
  5
44C
100
AcDbEntity
  8
0
100
AcDbLine
 62
7
  6
CONTINUOUS
 10
-20.1896538363
 20
15.5391182147
 11
-20.70688443
 21
15.8377606771
  0
LINE
  5
44D
100
AcDbEntity
  8
0
100
AcDbLine
 62
7
  6
CONTINUOUS
 10
-20.8408761353
 20
16.2574769184
 11
-19.1623380649
 21
15.2883100736
  0
LINE
  5
44E
100
AcDbEntity
  8
0
100
AcDbLine
 62
7
  6
CONTINUOUS
 10
-8.5372181427
 20
9.1534989945
 11
-6.8586800723
 21
8.1843321497
  0
LINE
  5
44F
100
AcDbEntity
  8
0
100
AcDbLine
 62
253
  6
CONTINUOUS
 10
-20.8926467906
 20
16.3719111337
 11
-19.2141087202
 21
15.4027442889
  0
LINE
  5
450
100
AcDbEntity
  8
0
100
AcDbLine
 62
253
  6
CONTINUOUS
 10
-8.588988798
 20
9.2679332098
 11
-6.9104507276
 21
8.298766365
  0
LINE
  5
451
100
AcDbEntity
  8
0
100
AcDbLine
 62
253
  6
CONTINUOUS
 10
22.6912271673
 20
-8.6265626242
 11
22.1991808695
 21
-8.3424612586
  0
LINE
  5
452
100
AcDbEntity
  8
0
100
AcDbLine
 62
253
  6
CONTINUOUS
 10
-6.9104507276
 20
8.6192865378
 11
-8.588988798
 21
9.5884533826
  0
LINE
  5
453
100
AcDbEntity
  8
0
100
AcDbLine
 62
253
  6
CONTINUOUS
 10
-19.2141087202
 20
15.7232644617
 11
-20.8926467906
 21
16.6924313066
  0
LINE
  5
454
100
AcDbEntity
  8
0
100
AcDbLine
 62
7
  6
CONTINUOUS
 10
-10.7133974163
 20
10.9269851039
 11
-11.636950426
 21
11.4602330368
  0
LINE
  5
455
100
AcDbEntity
  8
0
100
AcDbLine
 62
7
  6
CONTINUOUS
 10
-13.3377199674
 20
12.4422360544
 11
-14.9622089309
 21
13.3801956223
  0
LINE
  5
456
100
AcDbEntity
  8
0
100
AcDbLine
 62
253
  6
CONTINUOUS
 10
-6.7347024716
 20
8.9248754931
 11
-8.413240542
 21
9.8940423379
  0
LINE
  5
457
100
AcDbEntity
  8
0
100
AcDbLine
 62
253
  6
CONTINUOUS
 10
-19.0383604642
 20
16.028853417
 11
-20.7168985346
 21
16.9980202618
  0
LINE
  5
458
100
AcDbEntity
  8
0
100
AcDbLine
 62
7
  6
CONTINUOUS
 10
-12.8408885873
 20
12.5850411326
 11
-11.6955290697
 21
11.9237249019
  0
LINE
  5
459
100
AcDbEntity
  8
0
100
AcDbLine
 62
7
  6
CONTINUOUS
 10
-4.6030900991
 20
7.8286395294
 11
-4.9566479771
 21
8.032779417
  0
LINE
  5
45A
100
AcDbEntity
  8
0
100
AcDbLine
 62
7
  6
CONTINUOUS
 10
-8.3719199669
 20
10.0047146605
 11
-8.9871566298
 21
10.359944599
  0
LINE
  5
45B
100
AcDbEntity
  8
0
100
AcDbLine
 62
7
  6
CONTINUOUS
 10
-16.3348964138
 20
14.6024374615
 11
-17.2603059697
 21
15.1367573409
  0
LINE
  5
45C
100
AcDbEntity
  8
0
100
AcDbLine
 62
7
  6
CONTINUOUS
 10
-16.3348964138
 20
14.6768409967
 11
-15.6754865394
 21
14.2961059996
  0
LINE
  5
45D
100
AcDbEntity
  8
0
100
AcDbLine
 62
7
  6
CONTINUOUS
 10
-10.7133974163
 20
11.4310579295
 11
-10.053987542
 21
11.0503229324
  0
LINE
  5
45E
100
AcDbEntity
  8
0
100
AcDbLine
 62
253
  6
CONTINUOUS
 10
-10.1510159631
 20
11.7652983966
 11
-11.636950426
 21
12.6232583323
  0
LINE
  5
45F
100
AcDbEntity
  8
0
100
AcDbLine
 62
253
  6
CONTINUOUS
 10
-13.3377199674
 20
13.6052613499
 11
-14.9622089309
 21
14.5432209178
  0
LINE
  5
460
100
AcDbEntity
  8
0
100
AcDbLine
 62
7
  6
CONTINUOUS
 10
-11.6939213343
 20
12.7301455998
 11
-12.1442026818
 21
12.9901324065
  0
LINE
  5
461
100
AcDbEntity
  8
0
100
AcDbLine
 62
7
  6
CONTINUOUS
 10
-3.9021541453
 20
8.235726996
 11
-4.9220862245
 21
8.8246229958
  0
LINE
  5
462
100
AcDbEntity
  8
0
100
AcDbLine
 62
7
  6
CONTINUOUS
 10
-16.5573130154
 20
15.5426571213
 11
-17.2257442172
 21
15.9286009197
  0
LINE
  5
463
100
AcDbEntity
  8
0
100
AcDbLine
 62
253
  6
CONTINUOUS
 10
-9.8730898432
 20
11.9304783747
 11
-11.4963518212
 21
12.8677294965
  0
LINE
  5
464
100
AcDbEntity
  8
0
100
AcDbLine
 62
253
  6
CONTINUOUS
 10
-13.1971213627
 20
13.8497325141
 11
-14.8203833406
 21
14.786983636
  0
LINE
  5
465
100
AcDbEntity
  8
0
100
AcDbLine
 62
7
  6
CONTINUOUS
 10
-12.1461240625
 20
13.2454619831
 11
-11.5533530401
 21
12.9032034239
  0
LINE
  5
466
100
AcDbEntity
  8
0
100
AcDbLine
 62
7
  6
CONTINUOUS
 10
-15.2804069824
 20
15.2999409225
 11
-12.9823081486
 21
13.9730474578
  0
LINE
  5
467
100
AcDbEntity
  8
0
100
AcDbLine
 62
7
  6
CONTINUOUS
 10
-11.2852554636
 20
12.9931905066
 11
-8.9871566298
 21
11.6662970419
  0
LINE
  5
468
100
AcDbEntity
  8
0
100
AcDbLine
 62
253
  6
CONTINUOUS
 10
-19.1623899159
 20
15.2883400365
 11
-19.1623380649
 21
15.2883100736
  0
LINE
  5
469
100
AcDbEntity
  8
0
100
AcDbLine
 62
7
  6
CONTINUOUS
 10
-7.8859958437
 20
8.4351402908
 11
-10.5781468875
 21
9.9895545629
  0
LWPOLYLINE
  5
46A
100
AcDbEntity
  8
0
100
AcDbPolyline
 62
7
  6
CONTINUOUS
 90
37
 70
0
 10
-12.9823081486
 20
13.9730474578
 10
-12.9761394366
 20
13.9693305007
 10
-12.9699826518
 20
13.9653096978
 10
-12.9638494141
 20
13.9609927558
 10
-12.9577512143
 20
13.9563879936
 10
-12.9516996562
 20
13.9515041752
 10
-12.945706435
 20
13.9463504943
 10
-12.9397828865
 20
13.9409367987
 10
-12.9339401942
 20
13.9352734438
 10
-12.9281896329
 20
13.9293711225
 10
-12.9225420907
 20
13.9232411003
 10
-12.9170082382
 20
13.91689509
 10
-12.9115987359
 20
13.9103451009
 10
-12.9063238383
 20
13.9036036238
 10
-12.9011935198
 20
13.8966835282
 10
-12.8962176444
 20
13.8895979347
 10
-12.891405657
 20
13.8823603452
 10
-12.8867666648
 20
13.8749845661
 10
-12.8823095663
 20
13.8674846041
 10
-12.8780428345
 20
13.8598747412
 10
-12.8739745541
 20
13.8521694841
 10
-12.8701125046
 20
13.8443834857
 10
-12.8664640427
 20
13.8365315636
 10
-12.8630360914
 20
13.828628676
 10
-12.8598351783
 20
13.8206898708
 10
-12.8568674173
 20
13.8127302472
 10
-12.8541384518
 20
13.8047649592
 10
-12.851653445
 20
13.7968091911
 10
-12.8494171639
 20
13.7888780654
 10
-12.8474338752
 20
13.780986672
 10
-12.8457072901
 20
13.7731500717
 10
-12.8442407465
 20
13.765383151
 10
-12.843037062
 20
13.7577006777
 10
-12.8420984321
 20
13.7501173306
 10
-12.8414266473
 20
13.7426475414
 10
-12.8410230894
 20
13.7353054673
 10
-12.8408885873
 20
13.728105047
  0
LWPOLYLINE
  5
46B
100
AcDbEntity
  8
0
100
AcDbPolyline
 62
7
  6
CONTINUOUS
 90
34
 70
0
 10
-17.4370796734
 20
16.9534118432
 10
-17.428668598
 20
16.9483240235
 10
-17.4202763804
 20
16.9427854691
 10
-17.4119221326
 20
16.9368086648
 10
-17.4036249587
 20
16.9304070423
 10
-17.3954036603
 20
16.9235950974
 10
-17.3872766945
 20
16.9163883568
 10
-17.3792625291
 20
16.9088031094
 10
-17.3713794098
 20
16.9008564837
 10
-17.3636450676
 20
16.8925665561
 10
-17.35607706
 20
16.8839520824
 10
-17.3486926031
 20
16.8750325342
 10
-17.3415083405
 20
16.8658281697
 10
-17.3345405619
 20
16.8563598297
 10
-17.3278051027
 20
16.8466489323
 10
-17.3213171799
 20
16.8367175052
 10
-17.3150914833
 20
16.8265880495
 10
-17.3091421454
 20
16.8162834939
 10
-17.303482646
 20
16.8058271863
 10
-17.2981257756
 20
16.7952428299
 10
-17.2930836759
 20
16.784554397
 10
-17.2883678148
 20
16.7737860793
 10
-17.283988823
 20
16.7629622997
 10
-17.279956604
 20
16.7521075853
 10
-17.2762803801
 20
16.7412464788
 10
-17.2729684058
 20
16.730403625
 10
-17.2700281449
 20
16.7196036063
 10
-17.2674663863
 20
16.708870816
 10
-17.2652888404
 20
16.6982296189
 10
-17.2635003795
 20
16.6877041521
 10
-17.2621052212
 20
16.6773181626
 10
-17.2611065176
 20
16.6670951801
 10
-17.2605063486
 20
16.657058464
 10
-17.2603059697
 20
16.6472308073
  0
LWPOLYLINE
  5
46C
100
AcDbEntity
  8
0
100
AcDbPolyline
 62
253
  6
CONTINUOUS
 90
18
 70
0
 10
-20.8926467906
 20
16.3719111337
 10
-20.9008261595
 20
16.3768631855
 10
-20.9085903965
 20
16.382033868
 10
-20.9159219599
 20
16.3874116043
 10
-20.9228044314
 20
16.3929844812
 10
-20.9292220613
 20
16.398739884
 10
-20.9351599149
 20
16.4046644827
 10
-20.9406045132
 20
16.4107448049
 10
-20.9455437636
 20
16.4169673199
 10
-20.9499665684
 20
16.4233180497
 10
-20.9538629851
 20
16.4297827255
 10
-20.9572242407
 20
16.4363468003
 10
-20.9600427658
 20
16.4429954954
 10
-20.9623122215
 20
16.4497138523
 10
-20.964027509
 20
16.4564867708
 10
-20.9651847727
 20
16.4632990249
 10
-20.9657814106
 20
16.470135297
 10
-20.9658700953
 20
16.4739797819
  0
LWPOLYLINE
  5
46D
100
AcDbEntity
  8
0
100
AcDbPolyline
 62
253
  6
CONTINUOUS
 90
18
 70
0
 10
-20.8926467906
 20
16.6924313066
 10
-20.900829388
 20
16.6973854082
 10
-20.9085959867
 20
16.7025579473
 10
-20.9159291161
 20
16.7079372906
 10
-20.9228122849
 20
16.7135113435
 10
-20.9292300044
 20
16.7192675662
 10
-20.9351678268
 20
16.7251930008
 10
-20.9406123946
 20
16.7312743164
 10
-20.9455514655
 20
16.7374978376
 10
-20.94997393
 20
16.7438495642
 10
-20.9538698427
 20
16.7503152106
 10
-20.9572304413
 20
16.756880233
 10
-20.9600481663
 20
16.7635298598
 10
-20.9623166824
 20
16.7702491333
 10
-20.9640308901
 20
16.7770229414
 10
-20.9651869361
 20
16.783836046
 10
-20.9657822235
 20
16.7906731267
 10
-20.9658700832
 20
16.7944549773
  0
LWPOLYLINE
  5
46E
100
AcDbEntity
  8
0
100
AcDbPolyline
 62
253
  6
CONTINUOUS
 90
16
 70
0
 10
-8.588988798
 20
9.2679332098
 10
-8.5971708657
 20
9.2728869751
 10
-8.60493698
 20
9.2780591419
 10
-8.6122696757
 20
9.2834380784
 10
-8.6191524546
 20
9.2890116815
 10
-8.6255698469
 20
9.2947674227
 10
-8.6315074405
 20
9.3006923792
 10
-8.6369518893
 20
9.3067732422
 10
-8.6418909294
 20
9.3129963244
 10
-8.6463134332
 20
9.3193476092
 10
-8.6502094506
 20
9.3258128053
 10
-8.6535702249
 20
9.3323773802
 10
-8.6563881979
 20
9.3390265702
 10
-8.6586570322
 20
9.3457454215
 10
-8.6603716254
 20
9.352518824
 10
-8.6615281215
 20
9.3593315449
  0
LWPOLYLINE
  5
46F
100
AcDbEntity
  8
0
100
AcDbPolyline
 62
253
  6
CONTINUOUS
 90
18
 70
0
 10
-8.588988798
 20
9.5884533826
 10
-8.5971713953
 20
9.5934074843
 10
-8.604937994
 20
9.5985800233
 10
-8.6122711235
 20
9.6039593667
 10
-8.6191542923
 20
9.6095334196
 10
-8.6255720118
 20
9.6152896423
 10
-8.6315098342
 20
9.6212150769
 10
-8.6369544019
 20
9.6272963925
 10
-8.6418934728
 20
9.6335199137
 10
-8.6463159373
 20
9.6398716403
 10
-8.65021185
 20
9.6463372867
 10
-8.6535724486
 20
9.6529023091
 10
-8.6563901737
 20
9.6595519359
 10
-8.6586586897
 20
9.6662712094
 10
-8.6603728974
 20
9.6730450175
 10
-8.6615289434
 20
9.6798581221
 10
-8.6621242309
 20
9.6866952028
 10
-8.6622120905
 20
9.6904770534
  0
LWPOLYLINE
  5
470
100
AcDbEntity
  8
0
100
AcDbPolyline
 62
253
  6
CONTINUOUS
 90
16
 70
0
 10
-11.636950426
 20
12.6232583323
 10
-11.6441191001
 20
12.6276187661
 10
-11.650885011
 20
12.6321887117
 10
-11.6572298191
 20
12.6369557821
 10
-11.6631363265
 20
12.6419070558
 10
-11.6685885232
 20
12.6470291119
 10
-11.6735716307
 20
12.652308067
 10
-11.6780721417
 20
12.6577296119
 10
-11.6820778576
 20
12.6632790512
 10
-11.6855779204
 20
12.6689413429
 10
-11.6885628431
 20
12.6747011388
 10
-11.6910245347
 20
12.6805428267
 10
-11.6929563227
 20
12.6864505722
 10
-11.694352971
 20
12.6924083621
 10
-11.6952106936
 20
12.6984000473
 10
-11.6955290697
 20
12.704913251
  0
LWPOLYLINE
  5
471
100
AcDbEntity
  8
0
100
AcDbPolyline
 62
253
  6
CONTINUOUS
 90
34
 70
0
 10
-19.0383604642
 20
16.028853417
 10
-19.0299971814
 20
16.0237378907
 10
-19.0216505137
 20
16.0181729331
 10
-19.013339368
 20
16.0121711501
 10
-19.0050825712
 20
16.0057461371
 10
-18.9968988265
 20
15.9989124482
 10
-18.9888066722
 20
15.9916855632
 10
-18.9808244386
 20
15.9840818526
 10
-18.9729702073
 20
15.9761185406
 10
-18.96526177
 20
15.9678136658
 10
-18.957716588
 20
15.9591860406
 10
-18.9503517528
 20
15.9502552085
 10
-18.9431839473
 20
15.9410413999
 10
-18.9362294084
 20
15.9315654861
 10
-18.9295038895
 20
15.9218489321
 10
-18.9230226256
 20
15.9119137482
 10
-18.916800298
 20
15.9017824397
 10
-18.9108510018
 20
15.8914779564
 10
-18.9051882134
 20
15.8810236402
 10
-18.8998247604
 20
15.8704431725
 10
-18.8947727921
 20
15.8597605204
 10
-18.8900437524
 20
15.8489998824
 10
-18.8856483537
 20
15.838185634
 10
-18.8815965525
 20
15.8273422717
 10
-18.877897527
 20
15.8164943582
 10
-18.8745596563
 20
15.8056664664
 10
-18.8715905015
 20
15.794883124
 10
-18.8689967885
 20
15.7841687576
 10
-18.8667843924
 20
15.7735476377
 10
-18.8649583249
 20
15.7630438235
 10
-18.8635227225
 20
15.7526811085
 10
-18.8624808371
 20
15.7424829666
 10
-18.8618350288
 20
15.7324724988
 10
-18.8615867605
 20
15.7226723811
  0
LWPOLYLINE
  5
472
100
AcDbEntity
  8
0
100
AcDbPolyline
 62
253
  6
CONTINUOUS
 90
34
 70
0
 10
-6.7347024716
 20
8.9248754931
 10
-6.7263529361
 20
8.919768753
 10
-6.7180163546
 20
8.9142115567
 10
-6.7097115989
 20
8.9082158923
 10
-6.7014563327
 20
8.9017938183
 10
-6.693270522
 20
8.8949601684
 10
-6.6851762744
 20
8.8877330961
 10
-6.6771931157
 20
8.880130142
 10
-6.6693379165
 20
8.8721674809
 10
-6.6616283304
 20
8.8638629947
 10
-6.6540817334
 20
8.8552353622
 10
-6.6467153377
 20
8.8463042228
 10
-6.6395459958
 20
8.8370899965
 10
-6.6325900142
 20
8.8276136528
 10
-6.6258630838
 20
8.8178965805
 10
-6.619380403
 20
8.8079607328
 10
-6.6131566459
 20
8.7978285914
 10
-6.6072059353
 20
8.7875231389
 10
-6.6015417677
 20
8.777067743
 10
-6.5961769814
 20
8.7664860984
 10
-6.5911237307
 20
8.7558021755
 10
-6.5863934686
 20
8.745040185
 10
-6.581996914
 20
8.7342245101
 10
-6.5779440312
 20
8.7233796588
 10
-6.5742440076
 20
8.7125302123
 10
-6.5709052282
 20
8.7017007556
 10
-6.5679352584
 20
8.690915825
 10
-6.5653408296
 20
8.6801998614
 10
-6.5631278196
 20
8.6695771407
 10
-6.5613012449
 20
8.6590717379
 10
-6.5598652469
 20
8.6487074748
 10
-6.5588230782
 20
8.6385078407
 10
-6.5581770978
 20
8.6284959399
 10
-6.5579287679
 20
8.6186944572
  0
LWPOLYLINE
  5
473
100
AcDbEntity
  8
0
100
AcDbPolyline
 62
253
  6
CONTINUOUS
 90
15
 70
0
 10
-13.1971213627
 20
13.8497325141
 10
-13.1904495761
 20
13.8456281803
 10
-13.1837910336
 20
13.841164228
 10
-13.1771608224
 20
13.8363507702
 10
-13.1705739617
 20
13.831198709
 10
-13.1640453803
 20
13.8257197195
 10
-13.1575898827
 20
13.8199262257
 10
-13.1512220991
 20
13.8138313582
 10
-13.1449564546
 20
13.8074489247
 10
-13.1388071474
 20
13.8007933887
 10
-13.1327881095
 20
13.7938798299
 10
-13.1269129798
 20
13.7867239151
 10
-13.1211950749
 20
13.779341865
 10
-13.1156473509
 20
13.7717504091
 10
-13.1102823759
 20
13.7639667473
  0
LWPOLYLINE
  5
474
100
AcDbEntity
  8
0
100
AcDbPolyline
 62
7
  6
CONTINUOUS
 90
40
 70
0
 10
-4.6028254618
 20
7.8284867312
 10
-4.5888592097
 20
7.8198860171
 10
-4.5748813908
 20
7.8106419982
 10
-4.5609143748
 20
7.8007670637
 10
-4.5469748642
 20
7.7902711525
 10
-4.5330913829
 20
7.7791719693
 10
-4.5193039772
 20
7.7674970742
 10
-4.5056431565
 20
7.7552720428
 10
-4.4921229477
 20
7.7425098015
 10
-4.4787584892
 20
7.7292212213
 10
-4.4655626254
 20
7.7154162566
 10
-4.4525670391
 20
7.7011256096
 10
-4.4398141916
 20
7.6863937385
 10
-4.4273363842
 20
7.6712598667
 10
-4.415141332
 20
7.6557355208
 10
-4.4032340055
 20
7.6398250964
 10
-4.3916243011
 20
7.6235388406
 10
-4.3803427614
 20
7.6069165741
 10
-4.3694243961
 20
7.5900078044
 10
-4.3588967057
 20
7.5728574664
 10
-4.3487655006
 20
7.5554771352
 10
-4.3390326921
 20
7.5378669499
 10
-4.329706034
 20
7.5200366104
 10
-4.3208124537
 20
7.502032154
 10
-4.3123816231
 20
7.4839084258
 10
-4.3044337636
 20
7.465711936
 10
-4.2969737814
 20
7.4474549461
 10
-4.2900071172
 20
7.4291413769
 10
-4.283540272
 20
7.4107845059
 10
-4.2775926343
 20
7.3924296924
 10
-4.2721875827
 20
7.3741287846
 10
-4.2673344516
 20
7.3559221555
 10
-4.2630392559
 20
7.337827119
 10
-4.2593174682
 20
7.3198604573
 10
-4.2561711614
 20
7.3020542764
 10
-4.2536097753
 20
7.284432495
 10
-4.2516598293
 20
7.2669995236
 10
-4.2503331835
 20
7.2497751349
 10
-4.2496260981
 20
7.2327940533
 10
-4.2495411959
 20
7.2160828344
  0
LWPOLYLINE
  5
475
100
AcDbEntity
  8
0
100
AcDbPolyline
 62
7
  6
CONTINUOUS
 90
3
 70
0
 10
-8.5370509541
 20
9.1534027198
 10
-8.5517019351
 20
9.162535439
 10
-8.5729154178
 20
9.1784965675
  0
LWPOLYLINE
  5
476
100
AcDbEntity
  8
0
100
AcDbPolyline
 62
7
  6
CONTINUOUS
 90
9
 70
0
 10
-16.7848349009
 20
17.2702219732
 10
-16.7583220402
 20
17.2525698623
 10
-16.7339445775
 20
17.2313710387
 10
-16.7122921105
 20
17.2069328805
 10
-16.6938766242
 20
17.1796532005
 10
-16.679162565
 20
17.1500906525
 10
-16.6684788766
 20
17.1188678156
 10
-16.661971398
 20
17.0862865703
 10
-16.6598409495
 20
17.0536814207
  0
LWPOLYLINE
  5
477
100
AcDbEntity
  8
RACCORDO
100
AcDbPolyline
 62
7
  6
CONTINUOUS
 90
10
 70
0
 10
6.2509945047
 20
21.1970570641
 10
6.2530154237
 20
21.1715813502
 10
6.2586968182
 20
21.1466697746
 10
6.2680386882
 20
21.1223223374
 10
6.2811713588
 20
21.0983599589
 10
6.297964505
 20
21.0749617187
 10
6.3180271511
 20
21.0526648556
 10
6.3412289721
 20
21.0316484492
 10
6.3677002931
 20
21.0117334198
 10
6.3974411141
 20
20.9929197674
  0
LWPOLYLINE
  5
478
100
AcDbEntity
  8
ASSI
100
AcDbPolyline
 62
7
  6
CONTINUOUS
 90
10
 70
0
 10
6.2509945047
 20
21.1970570641
 10
6.2530154237
 20
21.1715813502
 10
6.2586968182
 20
21.1466697746
 10
6.2680386882
 20
21.1223223374
 10
6.2811713588
 20
21.0983599589
 10
6.297964505
 20
21.0749617187
 10
6.3180271511
 20
21.0526648556
 10
6.3412289721
 20
21.0316484492
 10
6.3677002931
 20
21.0117334198
 10
6.3974411141
 20
20.9929197674
  0
LWPOLYLINE
  5
479
100
AcDbEntity
  8
ASSI
100
AcDbPolyline
 62
7
  6
CONTINUOUS
 90
55
 70
0
 10
6.9581012859
 20
24.4171158209
 10
6.9578873998
 20
24.4341232574
 10
6.9572505878
 20
24.451332162
 10
6.95619085
 20
24.4687425348
 10
6.954706575
 20
24.4863694389
 10
6.9527993743
 20
24.5041978112
 10
6.9504740819
 20
24.5221824616
 10
6.9477296373
 20
24.5403237866
 10
6.9445671012
 20
24.5586213897
 10
6.9409944896
 20
24.5770288914
 10
6.9370107623
 20
24.5955465707
 10
6.9326169596
 20
24.6141741487
 10
6.9278242186
 20
24.6328644097
 10
6.9226315272
 20
24.6516175126
 10
6.9170398974
 20
24.6704332984
 10
6.9110635025
 20
24.6892640744
 10
6.9047013665
 20
24.7081098785
 10
6.8979544653
 20
24.7269706727
 10
6.8908399006
 20
24.7457986501
 10
6.8833567396
 20
24.7645937274
 10
6.8755059151
 20
24.7833559879
 10
6.8673073267
 20
24.8020378744
 10
6.8587600921
 20
24.8206391831
 10
6.8498650937
 20
24.8391601177
 10
6.8406448778
 20
24.857553733
 10
6.8310986193
 20
24.8758197058
 10
6.8212271433
 20
24.8939583592
 10
6.8110554713
 20
24.9119237166
 10
6.8005828417
 20
24.9297153385
 10
6.789810016
 20
24.9473336644
 10
6.7787643004
 20
24.9647340368
 10
6.7674450027
 20
24.9819159028
 10
6.7558528151
 20
24.9988798152
 10
6.7440171205
 20
25.0155827753
 10
6.7319373014
 20
25.032024121
 10
6.7196139753
 20
25.0482045143
 10
6.7070783786
 20
25.0640829423
 10
6.6943299727
 20
25.0796586392
 10
6.6813692962
 20
25.0949323708
 10
6.6682292008
 20
25.1098654224
 10
6.6549092313
 20
25.1244569299
 10
6.6414098429
 20
25.1387077575
 10
6.6277652528
 20
25.1525817832
 10
6.6139750926
 20
25.1660780512
 10
6.6000397308
 20
25.1791975174
 10
6.5859944896
 20
25.1919069275
 10
6.5718390903
 20
25.2042052412
 10
6.5575738116
 20
25.2160934989
 10
6.5432348121
 20
25.2275415671
 10
6.5288219047
 20
25.238548329
 10
6.5143352765
 20
25.2491149013
 10
6.4998116471
 20
25.2592145008
 10
6.4852632564
 20
25.2688381997
 10
6.4706778645
 20
25.2779949256
 10
6.4560554713
 20
25.2866846787
  0
LINE
  5
47A
100
AcDbEntity
  8
RACCORDO
100
AcDbLine
 62
7
  6
CONTINUOUS
 10
6.2509945047
 20
21.1970570641
 11
6.2509945047
 21
23.2512659962
  0
LINE
  5
47B
100
AcDbEntity
  8
ASSI
100
AcDbLine
 62
7
  6
CONTINUOUS
 10
6.2509945047
 20
21.1970570641
 11
6.2509945047
 21
23.2512659962
  0
LINE
  5
47C
100
AcDbEntity
  8
RACCORDO
100
AcDbLine
 62
253
  6
CONTINUOUS
 10
6.3974411141
 20
20.9929197674
 11
6.3974411141
 21
21.7188903196
  0
LINE
  5
47D
100
AcDbEntity
  8
ASSI
100
AcDbLine
 62
253
  6
CONTINUOUS
 10
6.3974411141
 20
20.9929197674
 11
6.3974411141
 21
21.7188903196
  0
LINE
  5
47E
100
AcDbEntity
  8
RACCORDO
100
AcDbLine
 62
253
  6
CONTINUOUS
 10
6.549143327
 20
22.1673079121
 11
6.549143327
 21
23.4951289058
  0
LINE
  5
47F
100
AcDbEntity
  8
ASSI
100
AcDbLine
 62
253
  6
CONTINUOUS
 10
6.549143327
 20
22.1673079121
 11
6.549143327
 21
23.4951289058
  0
LINE
  5
480
100
AcDbEntity
  8
0
100
AcDbLine
 62
7
  6
CONTINUOUS
 10
7.3470100156
 20
-14.7847304109
 11
7.3470100156
 21
-14.3787102385
  0
LINE
  5
481
100
AcDbEntity
  8
0
100
AcDbLine
 62
7
  6
CONTINUOUS
 10
7.8419847624
 20
-17.2003290841
 11
7.8419847624
 21
-14.0929180232
  0
LWPOLYLINE
  5
482
100
AcDbEntity
  8
RACCORDO
100
AcDbPolyline
 62
253
  6
CONTINUOUS
 90
13
 70
0
 10
8.9329750201
 20
20.25490482
 10
8.9347697589
 20
20.2877356959
 10
8.9401236064
 20
20.3220835611
 10
8.9489459704
 20
20.3573672169
 10
8.9610875681
 20
20.39298963
 10
8.9763429519
 20
20.4283480349
 10
8.9944539861
 20
20.4628441336
 10
9.0151142147
 20
20.495894219
 10
9.0379740468
 20
20.526939052
 10
9.0626466722
 20
20.5554533241
 10
9.0887146063
 20
20.5809545467
 10
9.1157367547
 20
20.6030112145
 10
9.1432558767
 20
20.6212501077
  0
LWPOLYLINE
  5
483
100
AcDbEntity
  8
ASSI
100
AcDbPolyline
 62
253
  6
CONTINUOUS
 90
13
 70
0
 10
8.9329750201
 20
20.25490482
 10
8.9347697589
 20
20.2877356959
 10
8.9401236064
 20
20.3220835611
 10
8.9489459704
 20
20.3573672169
 10
8.9610875681
 20
20.39298963
 10
8.9763429519
 20
20.4283480349
 10
8.9944539861
 20
20.4628441336
 10
9.0151142147
 20
20.495894219
 10
9.0379740468
 20
20.526939052
 10
9.0626466722
 20
20.5554533241
 10
9.0887146063
 20
20.5809545467
 10
9.1157367547
 20
20.6030112145
 10
9.1432558767
 20
20.6212501077
  0
LWPOLYLINE
  5
484
100
AcDbEntity
  8
0
100
AcDbPolyline
 62
253
  6
CONTINUOUS
 90
21
 70
0
 10
-4.4283808053
 20
-29.4157630149
 10
-4.4244080206
 20
-29.4048148766
 10
-4.4208455066
 20
-29.3936624211
 10
-4.417701304
 20
-29.3823308197
 10
-4.4149825107
 20
-29.3708456547
 10
-4.4126952613
 20
-29.359232842
 10
-4.4108447155
 20
-29.3475185724
 10
-4.4094350506
 20
-29.3357292697
 10
-4.4084694531
 20
-29.3238915576
 10
-4.4079501054
 20
-29.3120321805
 10
-4.4078781789
 20
-29.3001779158
 10
-4.4082538344
 20
-29.2883555089
 10
-4.4090762238
 20
-29.2765916384
 10
-4.410343491
 20
-29.2649128545
 10
-4.4120527755
 20
-29.253345518
 10
-4.4142002191
 20
-29.2419157367
 10
-4.4167809749
 20
-29.2306493084
 10
-4.4197892177
 20
-29.2195716613
 10
-4.4232181584
 20
-29.2087077967
 10
-4.4270600568
 20
-29.1980822365
 10
-4.4313062423
 20
-29.1877189611
  0
LWPOLYLINE
  5
485
100
AcDbEntity
  8
ASSI
100
AcDbPolyline
 62
7
  6
CONTINUOUS
 90
20
 70
0
 10
19.8628000426
 20
2.8496963923
 10
19.9777999846
 20
2.9216745756
 10
20.0906144706
 20
3.0026290075
 10
20.2012435007
 20
3.0925596881
 10
20.3103732232
 20
3.1921632592
 10
20.4173174898
 20
3.300743079
 10
20.5200178552
 20
3.4162092213
 10
20.6183921061
 20
3.5386950889
 10
20.7125224559
 20
3.668067279
 10
20.8005970994
 20
3.8018356576
 10
20.8824987248
 20
3.9400853882
 10
20.9583446439
 20
4.0827313073
 10
21.0266749873
 20
4.2270277902
 10
21.0873441624
 20
4.373006812
 10
21.1404977618
 20
4.5206363976
 10
21.185112694
 20
4.6670749978
 10
21.2210235469
 20
4.8122995406
 10
21.2483957326
 20
4.956333098
 10
21.2667023958
 20
5.0964033362
 10
21.2757679182
 20
5.2324334775
  0
LINE
  5
486
100
AcDbEntity
  8
RACCORDO
100
AcDbLine
 62
253
  6
CONTINUOUS
 10
21.1219939932
 20
5.3210603037
 11
21.2458348421
 21
5.3965122553
  0
LINE
  5
487
100
AcDbEntity
  8
ASSI
100
AcDbLine
 62
253
  6
CONTINUOUS
 10
21.1219939932
 20
5.3210603037
 11
21.2458348421
 21
5.3965122553
  0
LINE
  5
488
100
AcDbEntity
  8
RACCORDO
100
AcDbLine
 62
7
  6
CONTINUOUS
 10
21.1296791724
 20
5.2274259604
 11
21.1835590704
 21
5.2590975293
  0
LINE
  5
489
100
AcDbEntity
  8
ASSI
100
AcDbLine
 62
7
  6
CONTINUOUS
 10
21.1299838577
 20
5.2276050599
 11
21.1835583939
 21
5.2590971459
  0
LINE
  5
48A
100
AcDbEntity
  8
0
100
AcDbLine
 62
7
  6
CONTINUOUS
 10
19.6042477731
 20
2.2921764139
 11
22.6912271673
 21
4.0745596272
  0
LINE
  5
48B
100
AcDbEntity
  8
DRAFT
100
AcDbLine
 62
7
  6
CONTINUOUS
 10
23.7872426782
 20
4.0541182791
 11
24.8479028499
 21
4.6665301691
  0
LINE
  5
48C
100
AcDbEntity
  8
ASSI
100
AcDbLine
 62
7
  6
CONTINUOUS
 10
23.7872426782
 20
4.0541182791
 11
24.8479028499
 21
4.6665301691
  0
LINE
  5
48D
100
AcDbEntity
  8
RACCORDO
100
AcDbLine
 62
253
  6
CONTINUOUS
 10
21.2458348421
 20
5.3965122553
 11
25.7056872285
 21
7.9270194927
  0
LINE
  5
48E
100
AcDbEntity
  8
ASSI
100
AcDbLine
 62
253
  6
CONTINUOUS
 10
21.2458348421
 20
5.3965122553
 11
25.7056872285
 21
7.9270194927
  0
LINE
  5
48F
100
AcDbEntity
  8
RACCORDO
100
AcDbLine
 62
7
  6
CONTINUOUS
 10
21.1836100724
 20
5.2591339481
 11
25.6428937201
 21
7.7893184849
  0
LINE
  5
490
100
AcDbEntity
  8
ASSI
100
AcDbLine
 62
7
  6
CONTINUOUS
 10
21.1836100724
 20
5.2591339481
 11
25.6428937201
 21
7.7893184849
  0
LWPOLYLINE
  5
491
100
AcDbEntity
  8
RACCORDO
100
AcDbPolyline
 62
253
  6
CONTINUOUS
 90
13
 70
0
 10
21.0355620628
 20
1.7642955431
 10
20.9273001938
 20
1.7073957101
 10
20.8197638657
 20
1.6595813938
 10
20.7134773708
 20
1.6210477947
 10
20.6089549712
 20
1.5919463906
 10
20.5066970593
 20
1.5723717782
 10
20.4071889839
 20
1.5623665232
 10
20.3109133388
 20
1.5619382413
 10
20.2183069897
 20
1.5710467235
 10
20.1297652013
 20
1.5896122414
 10
20.0457050953
 20
1.6175181169
 10
19.9665131122
 20
1.6546050904
 10
19.9531529117
 20
1.6620416474
  0
LWPOLYLINE
  5
492
100
AcDbEntity
  8
ASSI
100
AcDbPolyline
 62
253
  6
CONTINUOUS
 90
13
 70
0
 10
21.0355620628
 20
1.7642955431
 10
20.9273001938
 20
1.7073957101
 10
20.8197638657
 20
1.6595813938
 10
20.7134773708
 20
1.6210477947
 10
20.6089549712
 20
1.5919463906
 10
20.5066970593
 20
1.5723717782
 10
20.4071889839
 20
1.5623665232
 10
20.3109133388
 20
1.5619382413
 10
20.2183069897
 20
1.5710467235
 10
20.1297652013
 20
1.5896122414
 10
20.0457050953
 20
1.6175181169
 10
19.9665131122
 20
1.6546050904
 10
19.953088992
 20
1.6620781111
  0
LWPOLYLINE
  5
493
100
AcDbEntity
  8
ASSI
100
AcDbPolyline
 62
7
  6
CONTINUOUS
 90
6
 70
0
 10
20.4173174898
 20
10.3872250453
 10
20.3103732232
 20
10.3723083067
 10
20.2012435007
 20
10.3458916097
 10
20.0906144706
 20
10.3080706593
 10
19.9777999846
 20
10.2587497506
 10
19.8628000426
 20
10.1979288834
  0
LINE
  5
494
100
AcDbEntity
  8
0
100
AcDbLine
 62
7
  6
CONTINUOUS
 10
-8.7396692564
 20
8.4381111083
 11
-7.891141119
 21
8.4381111083
  0
LINE
  5
495
100
AcDbEntity
  8
0
100
AcDbLine
 62
7
  6
CONTINUOUS
 10
-6.7565973427
 20
8.151888188
 11
-6.1288087008
 21
8.0940806867
  0
LINE
  5
496
100
AcDbEntity
  8
0
100
AcDbLine
 62
253
  6
CONTINUOUS
 10
-6.5579287679
 20
8.2981742843
 11
-5.8467081598
 21
8.2326842715
  0
LWPOLYLINE
  5
497
100
AcDbEntity
  8
0
100
AcDbPolyline
 62
253
  6
CONTINUOUS
 90
16
 70
0
 10
-6.1808908009
 20
11.1469626407
 10
-6.1873387775
 20
11.14942639
 10
-6.1940335108
 20
11.1513876966
 10
-6.200959987
 20
11.1528421626
 10
-6.2081026974
 20
11.153786519
 10
-6.2154455149
 20
11.1542186212
 10
-6.2229717616
 20
11.1541375004
 10
-6.2306643958
 20
11.1535433792
 10
-6.2385062084
 20
11.1524376248
 10
-6.2464797074
 20
11.1508227174
 10
-6.2545681848
 20
11.148701932
 10
-6.2627522561
 20
11.1460802439
 10
-6.2710099269
 20
11.1429650032
 10
-6.2793213476
 20
11.1393644022
 10
-6.2876689799
 20
11.1352867372
 10
-6.2960340601
 20
11.1307417697
  0
LINE
  5
498
100
AcDbEntity
  8
0
100
AcDbLine
 62
7
  6
CONTINUOUS
 10
-18.4757144521
 20
18.2465146343
 11
-18.5042061688
 21
18.2606296075
  0
LINE
  5
499
100
AcDbEntity
  8
0
100
AcDbLine
 62
7
  6
CONTINUOUS
 10
-6.2000794816
 20
11.1564557324
 11
-6.1720175984
 21
11.1425142586
  0
LWPOLYLINE
  5
49A
100
AcDbEntity
  8
0
100
AcDbPolyline
 62
253
  6
CONTINUOUS
 90
18
 70
0
 10
-11.4963518212
 20
12.8677294965
 10
-11.5031391959
 20
12.8713963137
 10
-11.5099093363
 20
12.8746859146
 10
-11.5166469025
 20
12.8775908439
 10
-11.5233366319
 20
12.8801045195
 10
-11.5299633626
 20
12.8822212424
 10
-11.5365120674
 20
12.8839362121
 10
-11.542967905
 20
12.8852455427
 10
-11.5493162509
 20
12.8861462691
 10
-11.5555427193
 20
12.8866363509
 10
-11.5616332037
 20
12.8867146785
 10
-11.567573903
 20
12.8863810752
 10
-11.5733513522
 20
12.8856362986
 10
-11.57895246
 20
12.8844820384
 10
-11.5843645378
 20
12.8829209118
 10
-11.5895753233
 20
12.8809564581
 10
-11.5945730144
 20
12.8785931285
 10
-11.5976746353
 20
12.8768617315
  0
LWPOLYLINE
  5
49B
100
AcDbEntity
  8
0
100
AcDbPolyline
 62
7
  6
CONTINUOUS
 90
19
 70
0
 10
-11.2852554636
 20
12.9931905066
 10
-11.291423861
 20
12.9965968418
 10
-11.2975807111
 20
12.9996857773
 10
-11.3037141981
 20
13.0024514885
 10
-11.3098124685
 20
13.0048888153
 10
-11.3158639107
 20
13.0069931176
 10
-11.3218571772
 20
13.0087602844
 10
-11.3277807898
 20
13.0101869912
 10
-11.3336233822
 20
13.0112705732
 10
-11.3393739793
 20
13.0120088766
 10
-11.345021578
 20
13.0124005272
 10
-11.3505553485
 20
13.0124448238
 10
-11.3559648763
 20
13.0121416071
 10
-11.3612398218
 20
13.0114914771
 10
-11.3663700775
 20
13.0104957085
 10
-11.3713459678
 20
13.0091561398
 10
-11.3761579938
 20
13.0074753351
 10
-11.3807969434
 20
13.0054565231
 10
-11.3845318159
 20
13.0035144281
  0
LWPOLYLINE
  5
49C
100
AcDbEntity
  8
0
100
AcDbPolyline
 62
253
  6
CONTINUOUS
 90
3
 70
0
 10
-6.172056478
 20
11.1425367211
 10
-6.1747040691
 20
11.1440019755
 10
-6.1808908009
 20
11.1469626407
  0
LWPOLYLINE
  5
49D
100
AcDbEntity
  8
0
100
AcDbPolyline
 62
253
  6
CONTINUOUS
 90
18
 70
0
 10
-4.4811769083
 20
10.1662440493
 10
-4.4838101717
 20
10.1677017096
 10
-4.4899954626
 20
10.1706631998
 10
-4.4964420099
 20
10.1731279302
 10
-4.503135318
 20
10.1750903586
 10
-4.5100603365
 20
10.1765460722
 10
-4.5172014939
 20
10.177491798
 10
-4.5245427329
 20
10.1779254092
 10
-4.5320675461
 20
10.177845931
 10
-4.5397590134
 20
10.177253542
 10
-4.5475998399
 20
10.1761495742
 10
-4.555572395
 20
10.17453651
 10
-4.5636587517
 20
10.1724179765
 10
-4.5718407273
 20
10.1697987374
 10
-4.580099924
 20
10.1666846823
 10
-4.5884177704
 20
10.1630828132
 10
-4.5967755631
 20
10.1590012294
 10
-4.605154509
 20
10.1544491085
  0
LWPOLYLINE
  5
49E
100
AcDbEntity
  8
0
100
AcDbPolyline
 62
253
  6
CONTINUOUS
 90
18
 70
0
 10
-16.7848349009
 20
17.2702219732
 10
-16.7874681643
 20
17.2716796335
 10
-16.7936534552
 20
17.2746411237
 10
-16.8001000025
 20
17.2771058541
 10
-16.8067933106
 20
17.2790682825
 10
-16.8137183291
 20
17.2805239962
 10
-16.8208594865
 20
17.2814697219
 10
-16.8282007255
 20
17.2819033331
 10
-16.8357255387
 20
17.2818238549
 10
-16.843417006
 20
17.2812314659
 10
-16.8512578325
 20
17.2801274981
 10
-16.8592303876
 20
17.2785144339
 10
-16.8673167444
 20
17.2763959004
 10
-16.87549872
 20
17.2737766613
 10
-16.8837579167
 20
17.2706626062
 10
-16.892075763
 20
17.2670607371
 10
-16.9004335557
 20
17.2629791533
 10
-16.9088125017
 20
17.2584270324
  0
LWPOLYLINE
  5
49F
100
AcDbEntity
  8
0
100
AcDbPolyline
 62
253
  6
CONTINUOUS
 90
3
 70
0
 10
-18.4757144521
 20
18.2465146343
 10
-18.4783477155
 20
18.2479722946
 10
-18.4845330064
 20
18.2509337849
  0
LINE
  5
4A0
100
AcDbEntity
  8
0
100
AcDbLine
 62
7
  6
CONTINUOUS
 10
-5.1334216807
 20
9.8494339193
 11
-6.8304839388
 21
10.8292963979
  0
LINE
  5
4A1
100
AcDbEntity
  8
0
100
AcDbLine
 62
7
  6
CONTINUOUS
 10
-17.4370796734
 20
16.9534118432
 11
-19.1341419315
 21
17.9332743218
  0
LINE
  5
4A2
100
AcDbEntity
  8
0
100
AcDbLine
 62
7
  6
CONTINUOUS
 10
-13.9403546076
 20
15.3217567027
 11
-12.2954063632
 21
14.3719842024
  0
LINE
  5
4A3
100
AcDbEntity
  8
0
100
AcDbLine
 62
7
  6
CONTINUOUS
 10
-10.5862591286
 20
13.3851440098
 11
-8.9413108842
 21
12.4353715096
  0
LINE
  5
4A4
100
AcDbEntity
  8
0
100
AcDbLine
 62
253
  6
CONTINUOUS
 10
-18.5996920528
 20
18.2347196936
 11
-16.9088125017
 21
17.2584270324
  0
LINE
  5
4A5
100
AcDbEntity
  8
0
100
AcDbLine
 62
253
  6
CONTINUOUS
 10
-6.2960340601
 20
11.1307417697
 11
-4.605154509
 21
10.1544491085
  0
LINE
  5
4A6
100
AcDbEntity
  8
0
100
AcDbLine
 62
7
  6
CONTINUOUS
 10
-18.4757144521
 20
18.2465146343
 11
-16.7848349009
 21
17.2702219732
  0
LINE
  5
4A7
100
AcDbEntity
  8
0
100
AcDbLine
 62
7
  6
CONTINUOUS
 10
-6.1720564594
 20
11.1425367104
 11
-4.4811769083
 21
10.1662440493
  0
LINE
  5
4A8
100
AcDbEntity
  8
DRAFT
100
AcDbLine
 62
7
  6
CONTINUOUS
 10
-9.9824540563
 20
14.3643364996
 11
-9.9105996737
 21
14.3228486796
  0
LINE
  5
4A9
100
AcDbEntity
  8
RACCORDO
100
AcDbLine
 62
7
  6
CONTINUOUS
 10
18.2693055791
 20
-1.2985016064
 11
18.3920450892
 21
-1.3693698612
  0
LINE
  5
4AA
100
AcDbEntity
  8
ASSI
100
AcDbLine
 62
7
  6
CONTINUOUS
 10
18.2693055791
 20
-1.2985016064
 11
18.3920450892
 21
-1.3693698612
  0
LINE
  5
4AB
100
AcDbEntity
  8
ASSI
100
AcDbLine
 62
253
  6
CONTINUOUS
 10
18.6253631755
 20
-1.4982623159
 11
18.428537732
 21
-1.3846177717
  0
LINE
  5
4AC
100
AcDbEntity
  8
RACCORDO
100
AcDbLine
 62
253
  6
CONTINUOUS
 10
18.2718097849
 20
-1.1308625279
 11
18.2876000992
 21
-1.1399796574
  0
LINE
  5
4AD
100
AcDbEntity
  8
ASSI
100
AcDbLine
 62
253
  6
CONTINUOUS
 10
18.2718097849
 20
-1.1308625279
 11
18.2876000992
 21
-1.1399796574
  0
LWPOLYLINE
  5
4AE
100
AcDbEntity
  8
0
100
AcDbPolyline
 62
253
  6
CONTINUOUS
 90
34
 70
0
 10
-16.9088125017
 20
17.2584270324
 10
-16.9003675842
 20
17.2533753647
 10
-16.8919404422
 20
17.2478704569
 10
-16.8835501586
 20
17.2419241753
 10
-16.875214586
 20
17.2355484692
 10
-16.8669538917
 20
17.2287580561
 10
-16.8587903888
 20
17.221570971
 10
-16.8507437689
 20
17.2140046585
 10
-16.8428310357
 20
17.2060752169
 10
-16.8350699723
 20
17.197800453
 10
-16.8274780709
 20
17.1891989787
 10
-16.8200726476
 20
17.1802903733
 10
-16.8128706443
 20
17.1710950053
 10
-16.8058884416
 20
17.1616338013
 10
-16.7991417895
 20
17.1519281161
 10
-16.7926459309
 20
17.1419998772
 10
-16.7864155697
 20
17.1318715489
 10
-16.780464844
 20
17.1215661051
 10
-16.7748072503
 20
17.1111069135
 10
-16.769455612
 20
17.1005176774
 10
-16.7644220538
 20
17.0898223843
 10
-16.7597179839
 20
17.0790452707
 10
-16.755354062
 20
17.0682107541
 10
-16.7513401784
 20
17.0573433852
 10
-16.7476854322
 20
17.0464677961
 10
-16.7443981058
 20
17.035608631
 10
-16.7414856482
 20
17.0247904937
 10
-16.73895466
 20
17.0140379001
 10
-16.7368108759
 20
17.0033752093
 10
-16.7350591551
 20
16.9928265868
 10
-16.7337034693
 20
16.9824159525
 10
-16.7327468892
 20
16.9721669006
 10
-16.7321915799
 20
16.9621026475
 10
-16.732038798
 20
16.9522459965
  0
LWPOLYLINE
  5
4AF
100
AcDbEntity
  8
0
100
AcDbPolyline
 62
253
  6
CONTINUOUS
 90
34
 70
0
 10
-4.605154509
 20
10.1544491085
 10
-4.5967095916
 20
10.1493974408
 10
-4.5882824496
 20
10.143892533
 10
-4.579892166
 20
10.1379462514
 10
-4.5715565933
 20
10.1315705453
 10
-4.563295899
 20
10.1247801322
 10
-4.5551323961
 20
10.1175930471
 10
-4.5470857763
 20
10.1100267346
 10
-4.539173043
 20
10.102097293
 10
-4.5314119796
 20
10.0938225291
 10
-4.5238200783
 20
10.0852210548
 10
-4.516414655
 20
10.0763124494
 10
-4.5092126517
 20
10.0671170814
 10
-4.5022304489
 20
10.0576558774
 10
-4.4954837969
 20
10.0479501922
 10
-4.4889879382
 20
10.0380219533
 10
-4.482757577
 20
10.027893625
 10
-4.4768068514
 20
10.0175881812
 10
-4.4711492577
 20
10.0071289896
 10
-4.4657976194
 20
9.9965397535
 10
-4.4607640611
 20
9.9858444604
 10
-4.4560599912
 20
9.9750673468
 10
-4.4516960694
 20
9.9642328302
 10
-4.4476821858
 20
9.9533654613
 10
-4.4440274396
 20
9.9424898722
 10
-4.4407401132
 20
9.9316307071
 10
-4.4378276555
 20
9.9208125698
 10
-4.4352966674
 20
9.9100599762
 10
-4.4331528833
 20
9.8993972854
 10
-4.4314011625
 20
9.8888486629
 10
-4.4300454767
 20
9.8784380286
 10
-4.4290888966
 20
9.8681889767
 10
-4.4285335872
 20
9.8581247236
 10
-4.4283808053
 20
9.8482680726
  0
LWPOLYLINE
  5
4B0
100
AcDbEntity
  8
0
100
AcDbPolyline
 62
7
  6
CONTINUOUS
 90
34
 70
0
 10
-5.1334216807
 20
9.8494339193
 10
-5.1250106053
 20
9.8443460996
 10
-5.1166183877
 20
9.8388075452
 10
-5.10826414
 20
9.8328307408
 10
-5.099966966
 20
9.8264291184
 10
-5.0917456676
 20
9.8196171735
 10
-5.0836187018
 20
9.8124104329
 10
-5.0756045365
 20
9.8048251855
 10
-5.0677214171
 20
9.7968785598
 10
-5.0599870749
 20
9.7885886322
 10
-5.0524190674
 20
9.7799741585
 10
-5.0450346104
 20
9.7710546103
 10
-5.0378503479
 20
9.7618502458
 10
-5.0308825692
 20
9.7523819058
 10
-5.02414711
 20
9.7426710084
 10
-5.0176591873
 20
9.7327395813
 10
-5.0114334907
 20
9.7226101256
 10
-5.0054841527
 20
9.71230557
 10
-4.9998246533
 20
9.7018492624
 10
-4.9944677829
 20
9.691264906
 10
-4.9894256833
 20
9.6805764731
 10
-4.9847098221
 20
9.6698081554
 10
-4.9803308303
 20
9.6589843758
 10
-4.9762986114
 20
9.6481296614
 10
-4.9726223875
 20
9.6372685549
 10
-4.9693104132
 20
9.6264257011
 10
-4.9663701523
 20
9.6156256824
 10
-4.9638083937
 20
9.6048928921
 10
-4.9616308478
 20
9.594251695
 10
-4.9598423869
 20
9.5837262282
 10
-4.9584472286
 20
9.5733402387
 10
-4.9574485249
 20
9.5631172561
 10
-4.9568483559
 20
9.5530805401
 10
-4.9566479771
 20
9.5432528834
  0
LWPOLYLINE
  5
4B1
100
AcDbEntity
  8
ASSI
100
AcDbPolyline
 62
7
  6
CONTINUOUS
 90
25
 70
0
 10
18.3753511194
 20
-1.5230329186
 10
18.367344522
 20
-1.5181046705
 10
18.3595893379
 20
-1.512706552
 10
18.3521144234
 20
-1.506851956
 10
18.3449125175
 20
-1.5005327013
 10
18.3379908812
 20
-1.493756969
 10
18.3313853368
 20
-1.4865541417
 10
18.3250988242
 20
-1.4789197888
 10
18.3191284037
 20
-1.4708583409
 10
18.3135010782
 20
-1.4624124718
 10
18.3082240073
 20
-1.4535901714
 10
18.3032900316
 20
-1.4443834499
 10
18.2987046758
 20
-1.4348110125
 10
18.2944670901
 20
-1.4248746505
 10
18.2905781244
 20
-1.4145725726
 10
18.2870458533
 20
-1.4039181096
 10
18.2838676855
 20
-1.3928987126
 10
18.2810462124
 20
-1.3815269304
 10
18.2785972822
 20
-1.3698537405
 10
18.2765242892
 20
-1.3578747473
 10
18.2748238391
 20
-1.3455943463
 10
18.2735015971
 20
-1.333076702
 10
18.2725594516
 20
-1.3203432027
 10
18.2719955142
 20
-1.3073724601
 10
18.2718097849
 20
-1.2941644742
  0
LWPOLYLINE
  5
4B2
100
AcDbEntity
  8
0
100
AcDbPolyline
 62
7
  6
CONTINUOUS
 90
9
 70
0
 10
-4.4811769083
 20
10.1662440493
 10
-4.4546640475
 20
10.1485919384
 10
-4.4302865849
 20
10.1273931148
 10
-4.4086341179
 20
10.1029549566
 10
-4.3902186316
 20
10.0756752766
 10
-4.3755045724
 20
10.0461127286
 10
-4.364820884
 20
10.0148898917
 10
-4.3583134054
 20
9.9823086464
 10
-4.3561829568
 20
9.9497034968
  0
LWPOLYLINE
  5
4B3
100
AcDbEntity
  8
0
100
AcDbPolyline
 62
7
  6
CONTINUOUS
 90
6
 70
0
 10
14.5847953401
 20
-10.1997037029
 10
14.620328702
 20
-10.248949085
 10
14.6654023089
 20
-10.3161161774
 10
14.7084027557
 20
-10.3851658246
 10
14.7492968282
 20
-10.4559962321
 10
14.771631218
 20
-10.497847181
  0
LINE
  5
4B4
100
AcDbEntity
  8
RACCORDO
100
AcDbLine
 62
7
  6
CONTINUOUS
 10
0.3305334445
 20
11.063440879
 11
1.6138711957
 21
8.840634693
  0
LINE
  5
4B5
100
AcDbEntity
  8
RACCORDO
100
AcDbLine
 62
253
  6
CONTINUOUS
 10
9.2865284107
 20
20.1707657694
 11
9.2856061534
 21
20.3158285775
  0
LINE
  5
4B6
100
AcDbEntity
  8
ASSI
100
AcDbLine
 62
253
  6
CONTINUOUS
 10
9.2865284107
 20
20.1707657694
 11
9.2856061534
 21
20.3158285775
  0
LINE
  5
4B7
100
AcDbEntity
  8
RACCORDO
100
AcDbLine
 62
253
  6
CONTINUOUS
 10
9.2856061534
 20
20.3158285775
 11
9.28492909
 21
20.4683754812
  0
LINE
  5
4B8
100
AcDbEntity
  8
ASSI
100
AcDbLine
 62
253
  6
CONTINUOUS
 10
9.2856061534
 20
20.3158285775
 11
9.28492909
 21
20.4683754812
  0
LINE
  5
4B9
100
AcDbEntity
  8
RACCORDO
100
AcDbLine
 62
253
  6
CONTINUOUS
 10
9.28492909
 20
20.4683754812
 11
9.2846772329
 21
20.5878449191
  0
LINE
  5
4BA
100
AcDbEntity
  8
ASSI
100
AcDbLine
 62
253
  6
CONTINUOUS
 10
9.28492909
 20
20.4683754812
 11
9.2846772329
 21
20.5878449191
  0
LINE
  5
4BB
100
AcDbEntity
  8
RACCORDO
100
AcDbLine
 62
253
  6
CONTINUOUS
 10
8.9329750201
 20
20.25490482
 11
8.9329750201
 21
19.5289342679
  0
LINE
  5
4BC
100
AcDbEntity
  8
ASSI
100
AcDbLine
 62
253
  6
CONTINUOUS
 10
8.9329750201
 20
20.25490482
 11
8.9329750201
 21
19.5289342679
  0
LINE
  5
4BD
100
AcDbEntity
  8
RACCORDO
100
AcDbLine
 62
253
  6
CONTINUOUS
 10
9.2865284107
 20
20.1707657694
 11
9.2865284107
 21
19.444377831
  0
LINE
  5
4BE
100
AcDbEntity
  8
ASSI
100
AcDbLine
 62
253
  6
CONTINUOUS
 10
9.2865284107
 20
20.1707657694
 11
9.2865284107
 21
19.444377831
  0
LWPOLYLINE
  5
4BF
100
AcDbEntity
  8
0
100
AcDbPolyline
 62
7
  6
CONTINUOUS
 90
15
 70
0
 10
7.5822739896
 20
-17.5903709208
 10
7.5766105583
 20
-17.625966743
 10
7.5665880995
 20
-17.6733858759
 10
7.5544116008
 20
-17.7188528375
 10
7.5400586904
 20
-17.7623747968
 10
7.52355174
 20
-17.8039445846
 10
7.5050181028
 20
-17.843245408
 10
7.4844577363
 20
-17.8802377571
 10
7.4618706829
 20
-17.9149611417
 10
7.4373844222
 20
-17.9472172976
 10
7.4109659225
 20
-17.9770127682
 10
7.3826482157
 20
-18.0043410101
 10
7.3526578764
 20
-18.028984129
 10
7.3210092397
 20
-18.0509048167
 10
7.3045800765
 20
-18.060845311
  0
LINE
  5
4C0
100
AcDbEntity
  8
DRAFT
100
AcDbLine
 62
7
  6
CONTINUOUS
 10
23.7872426782
 20
4.0541182791
 11
20.4577968976
 21
2.0978899084
  0
LINE
  5
4C1
100
AcDbEntity
  8
ASSI
100
AcDbLine
 62
7
  6
CONTINUOUS
 10
23.7872426782
 20
4.0541182791
 11
20.4577968976
 21
2.0978899084
  0
LINE
  5
4C2
100
AcDbEntity
  8
ASSI
100
AcDbLine
 62
7
  6
CONTINUOUS
 10
24.6357708156
 20
1.9720717273
 11
18.6253631755
 21
-1.4982623159
  0
LINE
  5
4C3
100
AcDbEntity
  8
RACCORDO
100
AcDbLine
 62
253
  6
CONTINUOUS
 10
25.4935471165
 20
4.2937432614
 11
21.0355620628
 21
1.7642955431
  0
LINE
  5
4C4
100
AcDbEntity
  8
ASSI
100
AcDbLine
 62
253
  6
CONTINUOUS
 10
25.4935471165
 20
4.2937432614
 11
21.0355620628
 21
1.7642955431
  0
LINE
  5
4C5
100
AcDbEntity
  8
RACCORDO
100
AcDbLine
 62
253
  6
CONTINUOUS
 10
25.7056872285
 20
3.9263151364
 11
21.2458348421
 21
1.395807899
  0
LINE
  5
4C6
100
AcDbEntity
  8
ASSI
100
AcDbLine
 62
253
  6
CONTINUOUS
 10
25.7056872285
 20
3.9263151364
 11
21.2458348421
 21
1.395807899
  0
LINE
  5
4C7
100
AcDbEntity
  8
RACCORDO
100
AcDbLine
 62
7
  6
CONTINUOUS
 10
24.6357708156
 20
2.053718755
 11
18.6442389035
 21
-1.3458589784
  0
LINE
  5
4C8
100
AcDbEntity
  8
ASSI
100
AcDbLine
 62
7
  6
CONTINUOUS
 10
24.6357708156
 20
2.053718755
 11
18.6442389035
 21
-1.3458589784
  0
LWPOLYLINE
  5
4C9
100
AcDbEntity
  8
ASSI
100
AcDbPolyline
 62
7
  6
CONTINUOUS
 90
25
 70
0
 10
18.6253631755
 20
-1.4982623159
 10
18.6138320469
 20
-1.5047058108
 10
18.60231726
 20
-1.5107032105
 10
18.5908188147
 20
-1.516254515
 10
18.5793172007
 20
-1.5213687933
 10
18.5678319284
 20
-1.5260369764
 10
18.5564215293
 20
-1.5302318577
 10
18.5450882685
 20
-1.5339482619
 10
18.5338298808
 20
-1.5371913643
 10
18.5226981024
 20
-1.539949484
 10
18.5117050053
 20
-1.5422186448
 10
18.5008385174
 20
-1.5440028229
 10
18.4901141581
 20
-1.5453022663
 10
18.4795306697
 20
-1.5461185987
 10
18.4690893099
 20
-1.5464501962
 10
18.4588093712
 20
-1.5462924352
 10
18.4486804195
 20
-1.5456430687
 10
18.4387128888
 20
-1.5445043436
 10
18.4289573741
 20
-1.5428783768
 10
18.4194163654
 20
-1.5407604388
 10
18.4100873728
 20
-1.5381552591
 10
18.4010135211
 20
-1.5350791421
 10
18.3922054888
 20
-1.5315343159
 10
18.3836525975
 20
-1.5275185525
 10
18.3753511194
 20
-1.5230329186
  0
LWPOLYLINE
  5
4CA
100
AcDbEntity
  8
RACCORDO
100
AcDbPolyline
 62
253
  6
CONTINUOUS
 90
45
 70
0
 10
21.2458348421
 20
1.395807899
 10
21.1221348905
 20
1.3307848692
 10
21.0002943878
 20
1.2764011482
 10
20.8803133342
 20
1.2326567358
 10
20.7615957119
 20
1.1994687842
 10
20.6447375387
 20
1.1769201412
 10
20.5315268673
 20
1.1652593512
 10
20.422081856
 20
1.1646559231
 10
20.3162843464
 20
1.1749403478
 10
20.2155679166
 20
1.1958526428
 10
20.1200050456
 20
1.227520707
 10
20.0295232544
 20
1.2698166415
 10
19.9453386837
 20
1.3220967656
 10
19.8675286785
 20
1.3844775169
 10
19.7960158937
 20
1.456842458
 10
19.7317844352
 20
1.5381985956
 10
19.6749165369
 20
1.628678688
 10
19.6253299647
 20
1.728149977
 10
19.5837621228
 20
1.8352211945
 10
19.5503250245
 20
1.9500141013
 10
19.5249066565
 20
2.0724069365
 10
19.5079083829
 20
2.2006431497
 10
19.4994639907
 20
2.3348469387
 10
19.499439693
 20
2.4748941057
 10
19.507835493
 20
2.6186555061
 10
19.5247848426
 20
2.7661578547
 10
19.5501542899
 20
2.9173744368
 10
19.5835434821
 20
3.0700959642
 10
19.6250639682
 20
3.2243278538
 10
19.6746041992
 20
3.3800646887
 10
19.731429175
 20
3.5350809305
 10
19.7956205222
 20
3.6893371535
 10
19.8670966142
 20
3.8428727834
 10
19.9448775723
 20
3.9935805588
 10
20.0290417878
 20
4.1414339653
 10
20.1195108694
 20
4.2864595173
 10
20.2150697633
 20
4.4266294972
 10
20.315791625
 20
4.5618989243
 10
20.4216032991
 20
4.6923127794
 10
20.5310702655
 20
4.8159782869
 10
20.6443043258
 20
4.9328555672
 10
20.7611936784
 20
5.0429845
 10
20.8799683988
 20
5.1445919488
 10
21.0000385121
 20
5.2370868682
 10
21.1219939932
 20
5.3210603037
  0
LWPOLYLINE
  5
4CB
100
AcDbEntity
  8
ASSI
100
AcDbPolyline
 62
253
  6
CONTINUOUS
 90
45
 70
0
 10
21.2458348421
 20
1.395807899
 10
21.1221348905
 20
1.3307848692
 10
21.0002943878
 20
1.2764011482
 10
20.8803133342
 20
1.2326567358
 10
20.7615957119
 20
1.1994687842
 10
20.6447375387
 20
1.1769201412
 10
20.5315268673
 20
1.1652593512
 10
20.422081856
 20
1.1646559231
 10
20.3162843464
 20
1.1749403478
 10
20.2155679166
 20
1.1958526428
 10
20.1200050456
 20
1.227520707
 10
20.0295232544
 20
1.2698166415
 10
19.9453386837
 20
1.3220967656
 10
19.8675286785
 20
1.3844775169
 10
19.7960158937
 20
1.456842458
 10
19.7317844352
 20
1.5381985956
 10
19.6749165369
 20
1.628678688
 10
19.6253299647
 20
1.728149977
 10
19.5837621228
 20
1.8352211945
 10
19.5503250245
 20
1.9500141013
 10
19.5249066565
 20
2.0724069365
 10
19.5079083829
 20
2.2006431497
 10
19.4994639907
 20
2.3348469387
 10
19.499439693
 20
2.4748941057
 10
19.507835493
 20
2.6186555061
 10
19.5247848426
 20
2.7661578547
 10
19.5501542899
 20
2.9173744368
 10
19.5835434821
 20
3.0700959642
 10
19.6250639682
 20
3.2243278538
 10
19.6746041992
 20
3.3800646887
 10
19.731429175
 20
3.5350809305
 10
19.7956205222
 20
3.6893371535
 10
19.8670966142
 20
3.8428727834
 10
19.9448775723
 20
3.9935805588
 10
20.0290417878
 20
4.1414339653
 10
20.1195108694
 20
4.2864595173
 10
20.2150697633
 20
4.4266294972
 10
20.315791625
 20
4.5618989243
 10
20.4216032991
 20
4.6923127794
 10
20.5310702655
 20
4.8159782869
 10
20.6443043258
 20
4.9328555672
 10
20.7611936784
 20
5.0429845
 10
20.8799683988
 20
5.1445919488
 10
21.0000385121
 20
5.2370868682
 10
21.1219939932
 20
5.3210603037
  0
LINE
  5
4CC
100
AcDbEntity
  8
ASSI
100
AcDbLine
 62
7
  6
CONTINUOUS
 10
20.5200178552
 20
10.3903547107
 11
20.4173174898
 21
10.3872250453
  0
LINE
  5
4CD
100
AcDbEntity
  8
0
100
AcDbLine
 62
7
  6
CONTINUOUS
 10
-8.8103799345
 20
8.3673310731
 11
-7.8204304409
 21
8.3972836489
  0
LINE
  5
4CE
100
AcDbEntity
  8
ASSI
100
AcDbLine
 62
7
  6
CONTINUOUS
 10
-8.8103799345
 20
8.3673310731
 11
-7.8204304409
 21
8.3972836489
  0
LWPOLYLINE
  5
4CF
100
AcDbEntity
  8
ASSI
100
AcDbPolyline
 62
7
  6
CONTINUOUS
 90
3
 70
0
 10
20.6487672213
 20
6.2924466231
 10
20.6183921061
 20
6.2991175783
 10
20.5200178552
 20
6.3080033267
  0
LWPOLYLINE
  5
4D0
100
AcDbEntity
  8
0
100
AcDbPolyline
 62
253
  6
CONTINUOUS
 90
16
 70
0
 10
-18.4845330064
 20
18.2509337849
 10
-18.4909795537
 20
18.2533985152
 10
-18.4976728618
 20
18.2553609436
 10
-18.5045978802
 20
18.2568166573
 10
-18.5117390377
 20
18.257762383
 10
-18.5190802767
 20
18.2581959943
 10
-18.5266050899
 20
18.258116516
 10
-18.5342965572
 20
18.257524127
 10
-18.5421373837
 20
18.2564201592
 10
-18.5501099388
 20
18.254807095
 10
-18.5581962955
 20
18.2526885616
 10
-18.5663782711
 20
18.2500693225
 10
-18.5746374678
 20
18.2469552673
 10
-18.5829553142
 20
18.2433533983
 10
-18.5913131069
 20
18.2392718144
 10
-18.5996920528
 20
18.2347196936
  0
LWPOLYLINE
  5
4D1
100
AcDbEntity
  8
RACCORDO
100
AcDbPolyline
 62
253
  6
CONTINUOUS
 90
6
 70
0
 10
-7.5786580059
 20
15.3990592175
 10
-7.5860420917
 20
15.4026311478
 10
-7.6058292267
 20
15.4075559632
 10
-7.6277254135
 20
15.4070495123
 10
-7.6510800824
 20
15.4011271267
 10
-7.6751992359
 20
15.3899650221
  0
LWPOLYLINE
  5
4D2
100
AcDbEntity
  8
RACCORDO
100
AcDbPolyline
 62
7
  6
CONTINUOUS
 90
3
 70
0
 10
-7.5777443208
 20
15.3985194709
 10
-7.6000123924
 20
15.4109109147
 10
-7.6848323494
 20
15.4506993686
  0
LINE
  5
4D3
100
AcDbEntity
  8
RACCORDO
100
AcDbLine
 62
7
  6
CONTINUOUS
 10
-8.9255668001
 20
15.0828411629
 11
-6.6274671289
 21
13.7559472147
  0
LINE
  5
4D4
100
AcDbEntity
  8
RACCORDO
100
AcDbLine
 62
7
  6
CONTINUOUS
 10
-8.6689850695
 20
15.2389292351
 11
-6.3624806186
 21
13.9071824685
  0
LINE
  5
4D5
100
AcDbEntity
  8
0
100
AcDbLine
 62
7
  6
CONTINUOUS
 10
-8.1634934249
 20
15.9390050641
 11
-5.4985080524
 21
14.4002759101
  0
LINE
  5
4D6
100
AcDbEntity
  8
DRAFT
100
AcDbLine
 62
7
  6
CONTINUOUS
 10
0.3112975428
 20
11.0745474476
 11
0.3305334445
 21
11.063440879
  0
LINE
  5
4D7
100
AcDbEntity
  8
DRAFT
100
AcDbLine
 62
7
  6
CONTINUOUS
 10
0.5713084544
 20
11.7409695926
 11
1.018404324
 21
11.4828220409
  0
LINE
  5
4D8
100
AcDbEntity
  8
0
100
AcDbLine
 62
7
  6
CONTINUOUS
 10
-7.5183046984
 20
16.719803542
 11
-4.4939729937
 21
14.9735923194
  0
LINE
  5
4D9
100
AcDbEntity
  8
0
100
AcDbLine
 62
253
  6
CONTINUOUS
 10
-3.7126645607
 20
14.7117261022
 11
-4.3291363854
 21
15.0676692076
  0
LINE
  5
4DA
100
AcDbEntity
  8
0
100
AcDbLine
 62
253
  6
CONTINUOUS
 10
-9.3277117517
 20
17.9537839772
 11
-9.9441835764
 21
18.3097270826
  0
LINE
  5
4DB
100
AcDbEntity
  8
0
100
AcDbLine
 62
7
  6
CONTINUOUS
 10
-3.5495357611
 20
14.7842936849
 11
-4.023370316
 21
15.0578732419
  0
LINE
  5
4DC
100
AcDbEntity
  8
0
100
AcDbLine
 62
7
  6
CONTINUOUS
 10
-9.1399198783
 20
18.0121114103
 11
-9.6114028018
 21
18.2843397412
  0
LWPOLYLINE
  5
4DD
100
AcDbEntity
  8
RACCORDO
100
AcDbPolyline
 62
253
  6
CONTINUOUS
 90
3
 70
0
 10
-7.2844434467
 20
15.1643405664
 10
-7.0261633186
 20
15.0152246347
 10
-6.6521618534
 20
14.7992800329
  0
LINE
  5
4DE
100
AcDbEntity
  8
RACCORDO
100
AcDbLine
 62
7
  6
CONTINUOUS
 10
-5.6747338379
 20
14.2996988982
 11
-6.2391460378
 21
14.6256252659
  0
LINE
  5
4DF
100
AcDbEntity
  8
RACCORDO
100
AcDbLine
 62
7
  6
CONTINUOUS
 10
-6.2391460378
 20
14.6256252659
 11
-7.5786580059
 21
15.3990592175
  0
LINE
  5
4E0
100
AcDbEntity
  8
RACCORDO
100
AcDbLine
 62
253
  6
CONTINUOUS
 10
-7.675199236
 20
15.3899650202
 11
-7.2844434467
 21
15.1643405664
  0
LWPOLYLINE
  5
4E1
100
AcDbEntity
  8
RACCORDO
100
AcDbPolyline
 62
253
  6
CONTINUOUS
 90
4
 70
0
 10
-6.6521618534
 20
14.7992800329
 10
-5.9614118403
 20
14.400440391
 10
-5.874020043
 20
14.3499393786
 10
-5.7312131169
 20
14.2674645853
  0
LWPOLYLINE
  5
4E2
100
AcDbEntity
  8
RACCORDO
100
AcDbPolyline
 62
253
  6
CONTINUOUS
 90
13
 70
0
 10
11.916794609
 20
20.2660301596
 10
11.9147521021
 20
20.2989178921
 10
11.9091469405
 20
20.3333566225
 10
11.9000750575
 20
20.3687571201
 10
11.8876916918
 20
20.4045137213
 10
11.8722087434
 20
20.4400146536
 10
11.8538911571
 20
20.474652504
 10
11.8330523623
 20
20.5078346701
 10
11.8100489075
 20
20.5389934813
 10
11.7852743822
 20
20.5675958763
 10
11.7591526616
 20
20.5931525524
 10
11.7321306512
 20
20.6152263325
 10
11.704670652
 20
20.6334396303
  0
LWPOLYLINE
  5
4E3
100
AcDbEntity
  8
ASSI
100
AcDbPolyline
 62
253
  6
CONTINUOUS
 90
13
 70
0
 10
11.916794609
 20
20.2660301596
 10
11.9147521021
 20
20.2989178921
 10
11.9091469405
 20
20.3333566225
 10
11.9000750575
 20
20.3687571201
 10
11.8876916918
 20
20.4045137213
 10
11.8722087434
 20
20.4400146536
 10
11.8538911571
 20
20.474652504
 10
11.8330523623
 20
20.5078346701
 10
11.8100489075
 20
20.5389934813
 10
11.7852743822
 20
20.5675958763
 10
11.7591526616
 20
20.5931525524
 10
11.7321306512
 20
20.6152263325
 10
11.704670652
 20
20.6334396303
  0
LINE
  5
4E4
100
AcDbEntity
  8
RACCORDO
100
AcDbLine
 62
253
  6
CONTINUOUS
 10
11.5663399768
 20
20.1822521375
 11
11.5654176705
 21
20.3273125325
  0
LINE
  5
4E5
100
AcDbEntity
  8
ASSI
100
AcDbLine
 62
253
  6
CONTINUOUS
 10
11.5663399768
 20
20.1822521375
 11
11.5654176705
 21
20.3273125325
  0
LINE
  5
4E6
100
AcDbEntity
  8
RACCORDO
100
AcDbLine
 62
253
  6
CONTINUOUS
 10
11.5654176705
 20
20.3273125325
 11
11.5647406008
 21
20.4798594534
  0
LINE
  5
4E7
100
AcDbEntity
  8
ASSI
100
AcDbLine
 62
253
  6
CONTINUOUS
 10
11.5654176705
 20
20.3273125325
 11
11.5647406008
 21
20.4798594534
  0
LINE
  5
4E8
100
AcDbEntity
  8
RACCORDO
100
AcDbLine
 62
253
  6
CONTINUOUS
 10
11.5647406008
 20
20.4798594534
 11
11.5644887991
 21
20.5993312872
  0
LINE
  5
4E9
100
AcDbEntity
  8
ASSI
100
AcDbLine
 62
253
  6
CONTINUOUS
 10
11.5647406008
 20
20.4798594534
 11
11.5644887991
 21
20.5993312872
  0
LINE
  5
4EA
100
AcDbEntity
  8
0
100
AcDbLine
 62
7
  6
CONTINUOUS
 10
11.3775186683
 20
-15.1589561174
 11
11.3775186683
 21
-12.0515450565
  0
LINE
  5
4EB
100
AcDbEntity
  8
RACCORDO
100
AcDbLine
 62
253
  6
CONTINUOUS
 10
11.5663399768
 20
19.444377831
 11
11.5663399768
 21
20.1822521375
  0
LINE
  5
4EC
100
AcDbEntity
  8
ASSI
100
AcDbLine
 62
253
  6
CONTINUOUS
 10
11.5663399768
 20
19.444377831
 11
11.5663399768
 21
20.1822521375
  0
LINE
  5
4ED
100
AcDbEntity
  8
RACCORDO
100
AcDbLine
 62
253
  6
CONTINUOUS
 10
11.916794609
 20
19.5271606294
 11
11.916794609
 21
20.2660301596
  0
LINE
  5
4EE
100
AcDbEntity
  8
ASSI
100
AcDbLine
 62
253
  6
CONTINUOUS
 10
11.916794609
 20
19.5271606294
 11
11.916794609
 21
20.2660301596
  0
LINE
  5
4EF
100
AcDbEntity
  8
RACCORDO
100
AcDbLine
 62
7
  6
CONTINUOUS
 10
13.3378526309
 20
20.4333350048
 11
13.3378526309
 21
20.3334648067
  0
LINE
  5
4F0
100
AcDbEntity
  8
ASSI
100
AcDbLine
 62
7
  6
CONTINUOUS
 10
13.3378526309
 20
20.4333350048
 11
13.3378526309
 21
20.3334648067
  0
LWPOLYLINE
  5
4F1
100
AcDbEntity
  8
0
100
AcDbPolyline
 62
7
  6
CONTINUOUS
 90
18
 70
0
 10
11.4835846855
 20
-15.1745063831
 10
11.4824394127
 20
-15.2284546277
 10
11.4790798631
 20
-15.2807459872
 10
11.4735060368
 20
-15.3313804616
 10
11.4656978548
 20
-15.3804564797
 10
11.455675396
 20
-15.4278756126
 10
11.4434988974
 20
-15.4733425742
 10
11.4291459869
 20
-15.5168645335
 10
11.4126390366
 20
-15.5584343213
 10
11.3941053993
 20
-15.5977351447
 10
11.3735450328
 20
-15.6347274938
 10
11.3509579794
 20
-15.6694508784
 10
11.3264717187
 20
-15.7017070343
 10
11.3000532191
 20
-15.7315025049
 10
11.2717355122
 20
-15.7588307468
 10
11.2417451729
 20
-15.7834738656
 10
11.2100965362
 20
-15.8053945534
 10
11.1936673731
 20
-15.8153350477
  0
LWPOLYLINE
  5
4F2
100
AcDbEntity
  8
0
100
AcDbPolyline
 62
7
  6
CONTINUOUS
 90
16
 70
0
 10
3.9078035708
 20
-19.6599197715
 10
3.913544562
 20
-19.6480976659
 10
3.9189025126
 20
-19.6358965338
 10
3.9238774228
 20
-19.6233163753
 10
3.9284727673
 20
-19.6103462603
 10
3.9326850713
 20
-19.5969971189
 10
3.9365039106
 20
-19.583301741
 10
3.9399282655
 20
-19.5692594068
 10
3.9429591558
 20
-19.5548708361
 10
3.9455892163
 20
-19.5401709781
 10
3.947817472
 20
-19.5251590879
 10
3.949644898
 20
-19.5098359105
 10
3.9510670544
 20
-19.4942386294
 10
3.9520824612
 20
-19.4783796391
 10
3.9526925983
 20
-19.4622465451
 10
3.9528974659
 20
-19.4458393474
  0
LINE
  5
4F3
100
AcDbEntity
  8
RACCORDO
100
AcDbLine
 62
7
  6
CONTINUOUS
 10
-5.0612541724
 20
-18.4491748383
 11
-5.3455567067
 21
-18.6454835417
  0
LINE
  5
4F4
100
AcDbEntity
  8
ASSI
100
AcDbLine
 62
7
  6
CONTINUOUS
 10
-5.0612541724
 20
-18.4491748383
 11
-5.3455567067
 21
-18.6454835417
  0
LINE
  5
4F5
100
AcDbEntity
  8
0
100
AcDbLine
 62
7
  6
CONTINUOUS
 10
-2.8476692883
 20
-17.1604836807
 11
-4.2495411959
 21
-18.0126618676
  0
LWPOLYLINE
  5
4F6
100
AcDbEntity
  8
ASSI
100
AcDbPolyline
 62
7
  6
CONTINUOUS
 90
6
 70
0
 10
20.4173174898
 20
14.4695764293
 10
20.3103732232
 20
14.4546596907
 10
20.2012435007
 20
14.4282429937
 10
20.0906144706
 20
14.3904220433
 10
19.9777999846
 20
14.3411011345
 10
19.8628000426
 20
14.2802802674
  0
LINE
  5
4F7
100
AcDbEntity
  8
0
100
AcDbLine
 62
7
  6
CONTINUOUS
 10
-16.7299758838
 20
12.9400065184
 11
-15.7400263902
 21
12.9699590942
  0
LINE
  5
4F8
100
AcDbEntity
  8
ASSI
100
AcDbLine
 62
7
  6
CONTINUOUS
 10
-16.7299758838
 20
12.9400065184
 11
-15.7400263902
 21
12.9699590942
  0
LINE
  5
4F9
100
AcDbEntity
  8
0
100
AcDbLine
 62
7
  6
CONTINUOUS
 10
-16.6592652057
 20
13.0107865536
 11
-15.8107370683
 21
13.0107865536
  0
LWPOLYLINE
  5
4FA
100
AcDbEntity
  8
0
100
AcDbPolyline
 62
7
  6
CONTINUOUS
 90
37
 70
0
 10
-18.4324851491
 20
15.1980593347
 10
-18.4255680203
 20
15.1975380357
 10
-18.4171018651
 20
15.1972093964
 10
-18.4085588437
 20
15.1972000626
 10
-18.3999521666
 20
15.1975097523
 10
-18.3912947137
 20
15.1981376298
 10
-18.3825966365
 20
15.1990686913
 10
-18.3738703578
 20
15.2003018727
 10
-18.3651279589
 20
15.2018357636
 10
-18.356378574
 20
15.2036547702
 10
-18.3476337662
 20
15.2057571799
 10
-18.3389048044
 20
15.2081410863
 10
-18.3301999058
 20
15.2107905943
 10
-18.3215297561
 20
15.2137034587
 10
-18.3129048002
 20
15.2168773435
 10
-18.3043324615
 20
15.2202962445
 10
-18.2958225539
 20
15.2239574794
 10
-18.2873846987
 20
15.2278583397
 10
-18.2790256449
 20
15.2319828294
 10
-18.270754352
 20
15.2363279041
 10
-18.2625796243
 20
15.2408905323
 10
-18.2545076341
 20
15.2456547932
 10
-18.246546509
 20
15.2506173366
 10
-18.2387042434
 20
15.255774854
 10
-18.2309864989
 20
15.261111539
 10
-18.2234005919
 20
15.2666237794
 10
-18.2159537134
 20
15.2723080319
 10
-18.2086510467
 20
15.2781486369
 10
-18.2014991172
 20
15.2841417523
 10
-18.1945043136
 20
15.2902836434
 10
-18.1876713358
 20
15.2965588438
 10
-18.1810059318
 20
15.3029633114
 10
-18.1745136913
 20
15.3094931609
 10
-18.168198802
 20
15.3161331864
 10
-18.1620659533
 20
15.3228756069
 10
-18.1561202494
 20
15.3297200057
 10
-18.1503661524
 20
15.3366621954
  0
LINE
  5
4FB
100
AcDbEntity
  8
0
100
AcDbLine
 62
7
  6
CONTINUOUS
 10
-19.0602553353
 20
15.2558661119
 11
-18.432469022
 21
15.198058825
  0
LINE
  5
4FC
100
AcDbEntity
  8
0
100
AcDbLine
 62
253
  6
CONTINUOUS
 10
-18.8615867605
 20
15.4021522082
 11
-18.1503661524
 21
15.3366621954
  0
LWPOLYLINE
  5
4FD
100
AcDbEntity
  8
0
100
AcDbPolyline
 62
7
  6
CONTINUOUS
 90
9
 70
0
 10
-19.0602553353
 20
15.2558661119
 10
-19.0736479495
 20
15.2574647189
 10
-19.0870190726
 20
15.2598003066
 10
-19.1003131998
 20
15.2628762273
 10
-19.1135249761
 20
15.2667065886
 10
-19.1265381339
 20
15.2712700717
 10
-19.1391498801
 20
15.2764861443
 10
-19.1512799586
 20
15.2822913343
 10
-19.1623899159
 20
15.2883400365
  0
LWPOLYLINE
  5
4FE
100
AcDbEntity
  8
RACCORDO
100
AcDbPolyline
 62
7
  6
CONTINUOUS
 90
7
 70
0
 10
-8.7293382331
 20
15.2531914656
 10
-8.7857148386
 20
15.2621139029
 10
-8.8373553707
 20
15.2653974563
 10
-8.8827477443
 20
15.2633583491
 10
-8.9219155909
 20
15.2554986548
 10
-8.9564418808
 20
15.2405314092
 10
-8.9607770648
 20
15.2379400009
  0
LINE
  5
4FF
100
AcDbEntity
  8
RACCORDO
100
AcDbLine
 62
7
  6
CONTINUOUS
 10
-8.6690124262
 20
15.2389123173
 11
-8.7293382331
 21
15.2531914656
  0
LWPOLYLINE
  5
500
100
AcDbEntity
  8
RACCORDO
100
AcDbPolyline
 62
7
  6
CONTINUOUS
 90
8
 70
0
 10
-7.7773557325
 20
15.4832267939
 10
-7.8771610639
 20
15.5081955857
 10
-7.9831078928
 20
15.5250449082
 10
-8.093077191
 20
15.5332026995
 10
-8.2059539944
 20
15.5323275529
 10
-8.3203539582
 20
15.5220230474
 10
-8.4336312859
 20
15.5021483148
 10
-8.5450091045
 20
15.4724178671
  0
LWPOLYLINE
  5
501
100
AcDbEntity
  8
0
100
AcDbPolyline
 62
7
  6
CONTINUOUS
 90
15
 70
0
 10
-3.5494151953
 20
14.7842252283
 10
-3.5502008071
 20
14.7844393731
 10
-3.5518488188
 20
14.7843696797
 10
-3.5541575996
 20
14.7839286303
 10
-3.5570911441
 20
14.7831267469
 10
-3.5606144061
 20
14.7819776784
 10
-3.5646989209
 20
14.7805185215
 10
-3.5693089803
 20
14.7787603324
 10
-3.5744147082
 20
14.7767089101
 10
-3.5800056091
 20
14.774393199
 10
-3.5860520505
 20
14.7718264276
 10
-3.5925311405
 20
14.7690083636
 10
-3.5994569587
 20
14.765949779
 10
-3.6068202183
 20
14.7626584261
 10
-3.6227842114
 20
14.7554055226
  0
LWPOLYLINE
  5
502
100
AcDbEntity
  8
RACCORDO
100
AcDbPolyline
 62
7
  6
CONTINUOUS
 90
3
 70
0
 10
-9.043311992
 20
15.1285102295
 10
-8.9853534011
 20
15.1113359575
 10
-8.9234043035
 20
15.0815925644
  0
LWPOLYLINE
  5
503
100
AcDbEntity
  8
0
100
AcDbPolyline
 62
7
  6
CONTINUOUS
 90
7
 70
0
 10
-18.5042061688
 20
18.2606296075
 10
-18.5346941292
 20
18.2711346844
 10
-18.5666210873
 20
18.2776753138
 10
-18.599395725
 20
18.2800082226
 10
-18.6323015874
 20
18.2780089936
 10
-18.6646269152
 20
18.2717057282
 10
-18.6960447208
 20
18.2611248199
  0
LINE
  5
504
100
AcDbEntity
  8
RACCORDO
100
AcDbLine
 62
7
  6
CONTINUOUS
 10
-7.6848323494
 20
15.4506993686
 11
-7.7773557325
 21
15.4832267939
  0
LWPOLYLINE
  5
505
100
AcDbEntity
  8
RACCORDO
100
AcDbPolyline
 62
253
  6
CONTINUOUS
 90
6
 70
0
 10
-7.7696621008
 20
15.433861309
 10
-7.7492271238
 20
15.4259085346
 10
-7.7295491885
 20
15.4175351875
 10
-7.7106754959
 20
15.4087657045
 10
-7.692558845
 20
15.3995756488
 10
-7.675199236
 20
15.3899650202
  0
LWPOLYLINE
  5
506
100
AcDbEntity
  8
0
100
AcDbPolyline
 62
7
  6
CONTINUOUS
 90
11
 70
0
 10
-9.1398591919
 20
18.0120761058
 10
-9.1399498628
 20
18.0121232735
 10
-9.1412038622
 20
18.0123105692
 10
-9.1431922434
 20
18.012077297
 10
-9.1458737714
 20
18.0114569834
 10
-9.1492046881
 20
18.0104578154
 10
-9.1531484063
 20
18.009096842
 10
-9.1576707547
 20
18.0074183512
 10
-9.1627365744
 20
18.0054428321
 10
-9.1683075817
 20
18.0031667292
 10
-9.1743473515
 20
18.0005964677
  0
LINE
  5
507
100
AcDbEntity
  8
RACCORDO
100
AcDbLine
 62
7
  6
CONTINUOUS
 10
19.9531529117
 20
1.6620416474
 11
19.9497856699
 21
1.6639741744
  0
LINE
  5
508
100
AcDbEntity
  8
ASSI
100
AcDbLine
 62
7
  6
CONTINUOUS
 10
19.953088992
 20
1.6620781111
 11
19.9497856699
 21
1.6639741744
  0
LINE
  5
509
100
AcDbEntity
  8
0
100
AcDbLine
 62
7
  6
CONTINUOUS
 10
-2.6114669622
 20
15.1709390881
 11
-5.7642670308
 21
16.9913263338
  0
LINE
  5
50A
100
AcDbEntity
  8
RACCORDO
100
AcDbLine
 62
253
  6
CONTINUOUS
 10
21.0355620628
 20
1.7642955431
 11
20.4577968976
 21
2.0978899084
  0
LINE
  5
50B
100
AcDbEntity
  8
ASSI
100
AcDbLine
 62
253
  6
CONTINUOUS
 10
21.0355620628
 20
1.7642955431
 11
20.4577968976
 21
2.0978899084
  0
LINE
  5
50C
100
AcDbEntity
  8
0
100
AcDbLine
 62
253
  6
CONTINUOUS
 10
-9.4359742001
 20
19.5535991851
 11
-6.4767382606
 21
17.8449734416
  0
LINE
  5
50D
100
AcDbEntity
  8
0
100
AcDbLine
 62
253
  6
CONTINUOUS
 10
-2.226248651
 20
15.3907940121
 11
0.7329872885
 21
13.6821682686
  0
LINE
  5
50E
100
AcDbEntity
  8
0
100
AcDbLine
 62
7
  6
CONTINUOUS
 10
-9.141327655
 20
19.7169861771
 11
-5.9790144414
 21
17.8911061607
  0
LINE
  5
50F
100
AcDbEntity
  8
0
100
AcDbLine
 62
7
  6
CONTINUOUS
 10
-1.7321516644
 20
15.439020819
 11
1.4301615492
 21
13.6131408025
  0
LINE
  5
510
100
AcDbEntity
  8
ASSI
100
AcDbLine
 62
7
  6
CONTINUOUS
 10
19.9530189606
 20
1.6621212799
 11
19.8986392258
 21
1.6975784988
  0
LWPOLYLINE
  5
511
100
AcDbEntity
  8
RACCORDO
100
AcDbPolyline
 62
7
  6
CONTINUOUS
 90
34
 70
0
 10
19.9530828672
 20
1.6620848332
 10
19.8970828676
 20
1.6987382055
 10
19.8401024855
 20
1.7477326788
 10
19.7887358372
 20
1.8050806154
 10
19.7422660003
 20
1.871689559
 10
19.7009386923
 20
1.9477778852
 10
19.6654862254
 20
2.0326064502
 10
19.6363392252
 20
2.125677073
 10
19.6138447882
 20
2.2262457744
 10
19.5982590959
 20
2.3335181854
 10
19.5897423122
 20
2.446938885
 10
19.5883831619
 20
2.5654419626
 10
19.5941821488
 20
2.6884312225
 10
19.6072717332
 20
2.8163611877
 10
19.6278308916
 20
2.9490226881
 10
19.6558561096
 20
3.0851918167
 10
19.6913062197
 20
3.2239822407
 10
19.734082371
 20
3.3646268397
 10
19.7840203952
 20
3.5063133313
 10
19.8408752356
 20
3.6481166139
 10
19.9043598726
 20
3.7892148744
 10
19.9741588587
 20
3.9288505819
 10
20.0499114411
 20
4.066227182
 10
20.1312156073
 20
4.2005881288
 10
20.217620594
 20
4.3311995519
 10
20.3086424918
 20
4.4573245922
 10
20.4038119681
 20
4.5783302155
 10
20.5025293156
 20
4.6935126866
 10
20.604045739
 20
4.8020724556
 10
20.7077841024
 20
4.9034967016
 10
20.8130878224
 20
4.9972841874
 10
20.9190052905
 20
5.0827599018
 10
21.024741945
 20
5.1595226481
 10
21.1296791724
 20
5.2274259604
  0
LINE
  5
512
100
AcDbEntity
  8
0
100
AcDbLine
 62
7
  6
CONTINUOUS
 10
14.771631218
 20
-10.497847181
 11
14.771631218
 21
-10.0918270086
  0
LINE
  5
513
100
AcDbEntity
  8
0
100
AcDbLine
 62
7
  6
CONTINUOUS
 10
15.2666059649
 20
-12.9134458541
 11
15.2666059649
 21
-9.8060347932
  0
LWPOLYLINE
  5
514
100
AcDbEntity
  8
0
100
AcDbPolyline
 62
7
  6
CONTINUOUS
 90
16
 70
0
 10
7.7968908673
 20
-17.4144095082
 10
7.8026318585
 20
-17.4025874025
 10
7.8079898092
 20
-17.3903862705
 10
7.8129647194
 20
-17.377806112
 10
7.8175600638
 20
-17.364835997
 10
7.8217723678
 20
-17.3514868556
 10
7.8255912071
 20
-17.3377914777
 10
7.829015562
 20
-17.3237491435
 10
7.8320464523
 20
-17.3093605728
 10
7.8346765128
 20
-17.2946607148
 10
7.8369047686
 20
-17.2796488246
 10
7.8387321946
 20
-17.2643256472
 10
7.8401543509
 20
-17.2487283661
 10
7.8411697577
 20
-17.2328693758
 10
7.8417798949
 20
-17.2167362818
 10
7.8419847624
 20
-17.2003290841
  0
LINE
  5
515
100
AcDbEntity
  8
0
100
AcDbLine
 62
253
  6
CONTINUOUS
 10
-6.2459238915
 20
-29.6991488638
 11
-6.8220623799
 21
-30.4098140976
  0
LINE
  5
516
100
AcDbEntity
  8
0
100
AcDbLine
 62
253
  6
CONTINUOUS
 10
-5.8467081598
 20
-29.7609228474
 11
-6.5579287679
 21
-30.6382115027
  0
LINE
  5
517
100
AcDbEntity
  8
RACCORDO
100
AcDbLine
 62
7
  6
CONTINUOUS
 10
-4.0465991468
 20
-21.0375816178
 11
-5.3455567067
 21
-21.9930116766
  0
LINE
  5
518
100
AcDbEntity
  8
ASSI
100
AcDbLine
 62
7
  6
CONTINUOUS
 10
-4.0465991468
 20
-21.0375816178
 11
-5.3455567067
 21
-21.9930116766
  0
LINE
  5
519
100
AcDbEntity
  8
0
100
AcDbLine
 62
7
  6
CONTINUOUS
 10
3.9528974659
 20
-16.3384282865
 11
7.8419847624
 21
-14.0929180232
  0
LINE
  5
51A
100
AcDbEntity
  8
0
100
AcDbLine
 62
7
  6
CONTINUOUS
 10
11.3775186683
 20
-12.0515450565
 11
15.2666059649
 21
-9.8060347932
  0
LINE
  5
51B
100
AcDbEntity
  8
0
100
AcDbLine
 62
7
  6
CONTINUOUS
 10
-4.2495411959
 20
-21.4418370301
 11
-5.3287152598
 21
-22.0649365433
  0
LINE
  5
51C
100
AcDbEntity
  8
0
100
AcDbLine
 62
7
  6
CONTINUOUS
 10
-4.2495411959
 20
-18.0126618676
 11
-5.3287152598
 21
-18.5930067557
  0
LWPOLYLINE
  5
51D
100
AcDbEntity
  8
RACCORDO
100
AcDbPolyline
 62
253
  6
CONTINUOUS
 90
5
 70
0
 10
-8.8153826142
 20
15.3190412439
 10
-8.7706980761
 20
15.3231614831
 10
-8.7217753021
 20
15.3216680293
 10
-8.6695932913
 20
15.3145907703
 10
-8.6151962666
 20
15.3020713303
  0
LINE
  5
51E
100
AcDbEntity
  8
ASSI
100
AcDbLine
 62
7
  6
CONTINUOUS
 10
20.5200178552
 20
14.4727060947
 11
20.4173174898
 21
14.4695764293
  0
LINE
  5
51F
100
AcDbEntity
  8
RACCORDO
100
AcDbLine
 62
7
  6
CONTINUOUS
 10
-9.0954255262
 20
15.132780705
 11
-9.043311992
 21
15.1285102295
  0
LWPOLYLINE
  5
520
100
AcDbEntity
  8
0
100
AcDbPolyline
 62
7
  6
CONTINUOUS
 90
16
 70
0
 10
-8.6101876606
 20
16.0893640041
 10
-8.5766924794
 20
16.0836442975
 10
-8.5436375976
 20
16.0772826508
 10
-8.5110230153
 20
16.0702790643
 10
-8.4788150588
 20
16.0626248552
 10
-8.4470474018
 20
16.0543287062
 10
-8.4158210654
 20
16.0454166648
 10
-8.3851296544
 20
16.0358839267
 10
-8.3549795639
 20
16.0257352962
 10
-8.3254910005
 20
16.0150112344
 10
-8.2966743542
 20
16.0037125866
 10
-8.2685192349
 20
15.9918385075
 10
-8.2411146787
 20
15.9794269232
 10
-8.2144903643
 20
15.9664904755
 10
-8.188616613
 20
15.9530165224
 10
-8.1634934249
 20
15.9390050641
  0
LWPOLYLINE
  5
521
100
AcDbEntity
  8
0
100
AcDbPolyline
 62
7
  6
CONTINUOUS
 90
10
 70
0
 10
-4.1763974354
 20
15.1148428251
 10
-4.1609888867
 20
15.1120549242
 10
-4.1451384074
 20
15.108429112
 10
-4.1288588659
 20
15.1039462901
 10
-4.1121577527
 20
15.0985920535
 10
-4.0950594928
 20
15.0923420509
 10
-4.0776061848
 20
15.0851637289
 10
-4.0598314555
 20
15.0770397823
 10
-4.0417480327
 20
15.0679532699
 10
-4.023370316
 20
15.0578732419
  0
LWPOLYLINE
  5
522
100
AcDbEntity
  8
ASSI
100
AcDbPolyline
 62
7
  6
CONTINUOUS
 90
3
 70
0
 10
20.6487672213
 20
10.3747980071
 10
20.6183921061
 20
10.3814689622
 10
20.5200178552
 20
10.3903547107
  0
LINE
  5
523
100
AcDbEntity
  8
RACCORDO
100
AcDbLine
 62
7
  6
CONTINUOUS
 10
19.9531529117
 20
5.7443930313
 11
19.9497856699
 21
5.7463255584
  0
LINE
  5
524
100
AcDbEntity
  8
ASSI
100
AcDbLine
 62
7
  6
CONTINUOUS
 10
19.953088992
 20
5.7444294951
 11
19.9497856699
 21
5.7463255584
  0
LINE
  5
525
100
AcDbEntity
  8
ASSI
100
AcDbLine
 62
7
  6
CONTINUOUS
 10
24.6357708156
 20
1.9720717273
 11
24.5644499477
 21
2.0132515026
  0
LINE
  5
526
100
AcDbEntity
  8
DRAFT
100
AcDbLine
 62
7
  6
CONTINUOUS
 10
22.6912271673
 20
4.1562382188
 11
23.3316783374
 21
3.78644974
  0
LINE
  5
527
100
AcDbEntity
  8
ASSI
100
AcDbLine
 62
7
  6
CONTINUOUS
 10
22.6912271673
 20
4.1562382188
 11
23.3316783374
 21
3.78644974
  0
LINE
  5
528
100
AcDbEntity
  8
RACCORDO
100
AcDbLine
 62
253
  6
CONTINUOUS
 10
21.0355620628
 20
5.8466469271
 11
20.4577968976
 21
6.1802412924
  0
LINE
  5
529
100
AcDbEntity
  8
ASSI
100
AcDbLine
 62
253
  6
CONTINUOUS
 10
21.0355620628
 20
5.8466469271
 11
20.4577968976
 21
6.1802412924
  0
LINE
  5
52A
100
AcDbEntity
  8
RACCORDO
100
AcDbLine
 62
7
  6
CONTINUOUS
 10
25.4935471165
 20
4.2937432614
 11
24.8479028499
 21
4.6665301691
  0
LINE
  5
52B
100
AcDbEntity
  8
ASSI
100
AcDbLine
 62
7
  6
CONTINUOUS
 10
25.4935471165
 20
4.2937432614
 11
24.8479028499
 21
4.6665301691
  0
LINE
  5
52C
100
AcDbEntity
  8
ASSI
100
AcDbLine
 62
7
  6
CONTINUOUS
 10
19.9530189606
 20
5.7444726639
 11
19.8986392258
 21
5.7799298827
  0
LWPOLYLINE
  5
52D
100
AcDbEntity
  8
RACCORDO
100
AcDbPolyline
 62
7
  6
CONTINUOUS
 90
34
 70
0
 10
19.9530828672
 20
5.7444362172
 10
19.8970828676
 20
5.7810895894
 10
19.8401024855
 20
5.8300840628
 10
19.7887358372
 20
5.8874319994
 10
19.7422660003
 20
5.954040943
 10
19.7009386923
 20
6.0301292692
 10
19.6654862254
 20
6.1149578341
 10
19.6363392252
 20
6.208028457
 10
19.6138447882
 20
6.3085971584
 10
19.5982590959
 20
6.4158695694
 10
19.5897423122
 20
6.529290269
 10
19.5883831619
 20
6.6477933465
 10
19.5941821488
 20
6.7707826065
 10
19.6072717332
 20
6.8987125716
 10
19.6278308916
 20
7.0313740721
 10
19.6558561096
 20
7.1675432007
 10
19.6913062197
 20
7.3063336247
 10
19.734082371
 20
7.4469782236
 10
19.7840203952
 20
7.5886647152
 10
19.8408752356
 20
7.7304679979
 10
19.9043598726
 20
7.8715662583
 10
19.9741588587
 20
8.0112019658
 10
20.0499114411
 20
8.148578566
 10
20.1312156073
 20
8.2829395127
 10
20.217620594
 20
8.4135509359
 10
20.3086424918
 20
8.5396759762
 10
20.4038119681
 20
8.6606815995
 10
20.5025293156
 20
8.7758640706
 10
20.604045739
 20
8.8844238395
 10
20.7077841024
 20
8.9858480856
 10
20.8130878224
 20
9.0796355714
 10
20.9190052905
 20
9.1651112857
 10
21.024741945
 20
9.2418740321
 10
21.1296791724
 20
9.3097773444
  0
LWPOLYLINE
  5
52E
100
AcDbEntity
  8
ASSI
100
AcDbPolyline
 62
7
  6
CONTINUOUS
 90
33
 70
0
 10
19.8986392258
 20
1.6975784988
 10
19.8415130003
 20
1.7463516786
 10
19.7899992439
 20
1.8034873537
 10
19.7433703153
 20
1.8699032039
 10
19.7018713732
 20
1.9458314046
 10
19.6662404465
 20
2.0305382461
 10
19.6369153369
 20
2.1235259828
 10
19.6142478699
 20
2.2240570102
 10
19.5984995025
 20
2.3313329108
 10
19.5898355856
 20
2.444776297
 10
19.5883450464
 20
2.563306101
 10
19.5940255989
 20
2.6863314792
 10
19.6070091142
 20
2.8143163202
 10
19.6274760897
 20
2.9470533734
 10
19.6554233422
 20
3.0833131684
 10
19.6908111144
 20
3.2222111094
 10
19.7335421964
 20
3.3629799856
 10
19.7834520863
 20
3.5048033373
 10
19.8402952926
 20
3.6467524228
 10
19.9037847199
 20
3.7880027853
 10
19.9736042971
 20
3.9277946544
 10
20.0493922469
 20
4.065328623
 10
20.1307457107
 20
4.1998455316
 10
20.2172127913
 20
4.3306093354
 10
20.3083082717
 20
4.4568809477
 10
20.4035615646
 20
4.578025172
 10
20.5023712976
 20
4.6933361277
 10
20.6039866674
 20
4.8020120342
 10
20.7078289492
 20
4.9035385703
 10
20.8132394584
 20
4.997412823
 10
20.9192634835
 20
5.0829576664
 10
21.0251038411
 20
5.1597709388
 10
21.1299838577
 20
5.2276050599
  0
LWPOLYLINE
  5
52F
100
AcDbEntity
  8
0
100
AcDbPolyline
 62
7
  6
CONTINUOUS
 90
8
 70
0
 10
22.1962524205
 20
-6.8655515773
 10
22.1895863807
 20
-6.8540056909
 10
22.1544136954
 20
-6.7975257776
 10
22.1175452461
 20
-6.7425857203
 10
22.078953865
 20
-6.6891022555
 10
22.0389567601
 20
-6.6375149991
 10
21.9974896435
 20
-6.587780467
 10
21.9886913474
 20
-6.5779631623
  0
LWPOLYLINE
  5
530
100
AcDbEntity
  8
0
100
AcDbPolyline
 62
7
  6
CONTINUOUS
 90
10
 70
0
 10
18.908205888
 20
-9.7222605499
 10
18.9067922185
 20
-9.666752236
 10
18.9026901718
 20
-9.6102552049
 10
18.895899748
 20
-9.5527694565
 10
18.8863844726
 20
-9.4941115937
 10
18.8741808201
 20
-9.4344650136
 10
18.8593982136
 20
-9.3743799082
 10
18.8419965737
 20
-9.3138078885
 10
18.8220159799
 20
-9.2527973435
 10
18.8021398708
 20
-9.198719711
  0
LWPOLYLINE
  5
531
100
AcDbEntity
  8
ASSI
100
AcDbPolyline
 62
7
  6
CONTINUOUS
 90
28
 70
0
 10
18.2718097849
 20
16.1014764306
 10
18.2715958987
 20
16.1184838671
 10
18.2709590868
 20
16.1356927717
 10
18.269899349
 20
16.1531031444
 10
18.268415074
 20
16.1707300486
 10
18.2665078732
 20
16.1885584209
 10
18.2641825809
 20
16.2065430713
 10
18.2614381363
 20
16.2246843963
 10
18.2582756002
 20
16.2429819993
 10
18.2547029886
 20
16.2613895011
 10
18.2507192613
 20
16.2799071804
 10
18.2463254586
 20
16.2985347584
 10
18.2415327176
 20
16.3172250193
 10
18.2363400262
 20
16.3359781222
 10
18.2307483964
 20
16.3547939081
 10
18.2247720015
 20
16.373624684
 10
18.2184098655
 20
16.3924704881
 10
18.2116629643
 20
16.4113312823
 10
18.2045483996
 20
16.4301592597
 10
18.1970652386
 20
16.448954337
 10
18.1892144141
 20
16.4677165975
 10
18.1810158257
 20
16.4863984841
 10
18.1724685911
 20
16.5049997927
 10
18.1635735927
 20
16.5235207274
 10
18.1543533768
 20
16.5419143426
 10
18.1448154588
 20
16.56016499
 10
18.1349523233
 20
16.5782883178
 10
18.1247639703
 20
16.5962843263
  0
LINE
  5
532
100
AcDbEntity
  8
ASSI
100
AcDbLine
 62
7
  6
CONTINUOUS
 10
18.2718097849
 20
16.1014764306
 11
18.2718097849
 21
-1.2941644742
  0
LINE
  5
533
100
AcDbEntity
  8
RACCORDO
100
AcDbLine
 62
7
  6
CONTINUOUS
 10
18.2876000992
 20
-1.1399796574
 11
18.2876000992
 21
16.0496839504
  0
LINE
  5
534
100
AcDbEntity
  8
ASSI
100
AcDbLine
 62
7
  6
CONTINUOUS
 10
18.2876000992
 20
-1.1399796574
 11
18.2876000992
 21
16.0496839504
  0
LINE
  5
535
100
AcDbEntity
  8
0
100
AcDbLine
 62
7
  6
CONTINUOUS
 10
18.8021398708
 20
-10.8720728875
 11
18.8021398708
 21
-8.417838048
  0
LINE
  5
536
100
AcDbEntity
  8
ASSI
100
AcDbLine
 62
7
  6
CONTINUOUS
 10
18.908205888
 20
-9.7222605499
 11
18.908205888
 21
-10.8876231531
  0
LWPOLYLINE
  5
537
100
AcDbEntity
  8
0
100
AcDbPolyline
 62
7
  6
CONTINUOUS
 90
18
 70
0
 10
18.908205888
 20
-10.8876231531
 10
18.9070606152
 20
-10.9415713978
 10
18.9037010656
 20
-10.9938627573
 10
18.8981272393
 20
-11.0444972317
 10
18.8903190573
 20
-11.0935732497
 10
18.8802965985
 20
-11.1409923827
 10
18.8681200998
 20
-11.1864593443
 10
18.8537671893
 20
-11.2299813035
 10
18.837260239
 20
-11.2715510914
 10
18.8187266017
 20
-11.3108519147
 10
18.7981662353
 20
-11.3478442638
 10
18.7755791818
 20
-11.3825676484
 10
18.7510929212
 20
-11.4148238043
 10
18.7246744215
 20
-11.4446192749
 10
18.6963567146
 20
-11.4719475169
 10
18.6663663753
 20
-11.4965906357
 10
18.6347177387
 20
-11.5185113235
 10
18.6182885755
 20
-11.5284518177
  0
LWPOLYLINE
  5
538
100
AcDbEntity
  8
0
100
AcDbPolyline
 62
7
  6
CONTINUOUS
 90
15
 70
0
 10
15.0068951921
 20
-13.3034876908
 10
15.0012317607
 20
-13.339083513
 10
14.9912093019
 20
-13.386502646
 10
14.9790328033
 20
-13.4319696076
 10
14.9646798928
 20
-13.4754915668
 10
14.9481729425
 20
-13.5170613547
 10
14.9296393052
 20
-13.556362178
 10
14.9090789387
 20
-13.5933545272
 10
14.8864918853
 20
-13.6280779117
 10
14.8620056246
 20
-13.6603340676
 10
14.835587125
 20
-13.6901295382
 10
14.8072694181
 20
-13.7174577802
 10
14.7772790788
 20
-13.742100899
 10
14.7456304421
 20
-13.7640215868
 10
14.729201279
 20
-13.773962081
  0
LWPOLYLINE
  5
539
100
AcDbEntity
  8
0
100
AcDbPolyline
 62
7
  6
CONTINUOUS
 90
16
 70
0
 10
11.3324247733
 20
-15.3730365415
 10
11.3381657644
 20
-15.3612144359
 10
11.3435237151
 20
-15.3490133038
 10
11.3484986253
 20
-15.3364331453
 10
11.3530939697
 20
-15.3234630304
 10
11.3573062737
 20
-15.310113889
 10
11.361125113
 20
-15.296418511
 10
11.364549468
 20
-15.2823761768
 10
11.3675803582
 20
-15.2679876061
 10
11.3702104188
 20
-15.2532877481
 10
11.3724386745
 20
-15.238275858
 10
11.3742661005
 20
-15.2229526805
 10
11.3756882569
 20
-15.2073553994
 10
11.3767036636
 20
-15.1914964091
 10
11.3773138008
 20
-15.1753633151
 10
11.3775186683
 20
-15.1589561174
  0
LWPOLYLINE
  5
53A
100
AcDbEntity
  8
0
100
AcDbPolyline
 62
7
  6
CONTINUOUS
 90
16
 70
0
 10
3.8058688363
 20
-19.7708324956
 10
3.8142411388
 20
-19.7657637532
 10
3.822412822
 20
-19.760344582
 10
3.8303667008
 20
-19.7545849086
 10
3.8381065489
 20
-19.7484813836
 10
3.8456285928
 20
-19.7420373564
 10
3.8529215111
 20
-19.7352628749
 10
3.8599854443
 20
-19.7281570609
 10
3.866820252
 20
-19.7207207925
 10
3.8734141921
 20
-19.7129667517
 10
3.8797667789
 20
-19.7048945315
 10
3.8858784981
 20
-19.6965045388
 10
3.8917390654
 20
-19.6878106762
 10
3.8973450525
 20
-19.6788175779
 10
3.9026998876
 20
-19.6695206097
 10
3.9078035708
 20
-19.6599197715
  0
LWPOLYLINE
  5
53B
100
AcDbEntity
  8
0
100
AcDbPolyline
 62
7
  6
CONTINUOUS
 90
16
 70
0
 10
7.6949561328
 20
-17.5253222323
 10
7.7033284353
 20
-17.5202534899
 10
7.7115001185
 20
-17.5148343187
 10
7.7194539973
 20
-17.5090746453
 10
7.7271938455
 20
-17.5029711203
 10
7.7347158893
 20
-17.4965270931
 10
7.7420088076
 20
-17.4897526115
 10
7.7490727408
 20
-17.4826467976
 10
7.7559075485
 20
-17.4752105292
 10
7.7625014887
 20
-17.4674564884
 10
7.7688540754
 20
-17.4593842682
 10
7.7749657947
 20
-17.4509942755
 10
7.7808263619
 20
-17.4423004129
 10
7.786432349
 20
-17.4333073146
 10
7.7917871842
 20
-17.4240103464
 10
7.7968908673
 20
-17.4144095082
  0
LWPOLYLINE
  5
53C
100
AcDbEntity
  8
0
100
AcDbPolyline
 62
7
  6
CONTINUOUS
 90
16
 70
0
 10
11.2304900388
 20
-15.4839492657
 10
11.2388623412
 20
-15.4788805233
 10
11.2470340244
 20
-15.4734613521
 10
11.2549879032
 20
-15.4677016786
 10
11.2627277514
 20
-15.4615981537
 10
11.2702497952
 20
-15.4551541265
 10
11.2775427135
 20
-15.4483796449
 10
11.2846066467
 20
-15.4412738309
 10
11.2914414544
 20
-15.4338375626
 10
11.2980353946
 20
-15.4260835217
 10
11.3043879814
 20
-15.4180113015
 10
11.3104997006
 20
-15.4096213089
 10
11.3163602679
 20
-15.4009274463
 10
11.321966255
 20
-15.391934348
 10
11.3273210901
 20
-15.3826373797
 10
11.3324247733
 20
-15.3730365415
  0
LWPOLYLINE
  5
53D
100
AcDbEntity
  8
0
100
AcDbPolyline
 62
7
  6
CONTINUOUS
 90
16
 70
0
 10
15.1195773353
 20
-13.2384390024
 10
15.1279496378
 20
-13.23337026
 10
15.1361213209
 20
-13.2279510888
 10
15.1440751998
 20
-13.2221914153
 10
15.1518150479
 20
-13.2160878904
 10
15.1593370917
 20
-13.2096438632
 10
15.1666300101
 20
-13.2028693816
 10
15.1736939432
 20
-13.1957635676
 10
15.1805287509
 20
-13.1883272993
 10
15.1871226911
 20
-13.1805732584
 10
15.1934752779
 20
-13.1725010382
 10
15.1995869971
 20
-13.1641110456
 10
15.2054475644
 20
-13.155417183
 10
15.2110535515
 20
-13.1464240847
 10
15.2164083866
 20
-13.1371271164
 10
15.2215120698
 20
-13.1275262782
  0
LINE
  5
53E
100
AcDbEntity
  8
0
100
AcDbLine
 62
7
  6
CONTINUOUS
 10
18.8021398708
 20
-8.417838048
 11
22.6912271673
 21
-6.1723277847
  0
LINE
  5
53F
100
AcDbEntity
  8
0
100
AcDbLine
 62
7
  6
CONTINUOUS
 10
22.1962524205
 20
-6.6212680722
 11
22.0788963084
 21
-6.6890280205
  0
LINE
  5
540
100
AcDbEntity
  8
0
100
AcDbLine
 62
253
  6
CONTINUOUS
 10
22.4437397939
 20
-7.6808875833
 11
18.908205888
 21
-9.7222605499
  0
LINE
  5
541
100
AcDbEntity
  8
0
100
AcDbLine
 62
253
  6
CONTINUOUS
 10
24.6357708156
 20
-7.5038074925
 11
22.6912271673
 21
-8.6265626242
  0
LINE
  5
542
100
AcDbEntity
  8
0
100
AcDbLine
 62
253
  6
CONTINUOUS
 10
18.8021398708
 20
-10.8720728875
 11
15.2666059649
 21
-12.9134458541
  0
LINE
  5
543
100
AcDbEntity
  8
0
100
AcDbLine
 62
253
  6
CONTINUOUS
 10
11.3775186683
 20
-15.1589561174
 11
7.8419847624
 21
-17.2003290841
  0
LINE
  5
544
100
AcDbEntity
  8
0
100
AcDbLine
 62
253
  6
CONTINUOUS
 10
3.9528974659
 20
-19.4458393474
 11
2.0280216714
 21
-20.5572385068
  0
LINE
  5
545
100
AcDbEntity
  8
0
100
AcDbLine
 62
253
  6
CONTINUOUS
 10
4.0589634831
 20
-19.461389613
 11
6.8542834925
 21
-17.8474068732
  0
LINE
  5
546
100
AcDbEntity
  8
0
100
AcDbLine
 62
253
  6
CONTINUOUS
 10
11.4835846855
 20
-15.1745063831
 11
14.2789046949
 21
-13.5605236432
  0
LINE
  5
547
100
AcDbEntity
  8
0
100
AcDbLine
 62
253
  6
CONTINUOUS
 10
18.908205888
 20
-10.8876231531
 11
21.7035258974
 21
-9.2736404133
  0
LINE
  5
548
100
AcDbEntity
  8
ASSI
100
AcDbLine
 62
7
  6
CONTINUOUS
 10
24.4887421546
 20
-7.8288006639
 11
22.5441985064
 21
-8.9515557956
  0
LINE
  5
549
100
AcDbEntity
  8
ASSI
100
AcDbLine
 62
7
  6
CONTINUOUS
 10
18.6551112099
 20
-11.1970660589
 11
15.1195773039
 21
-13.2384390255
  0
LINE
  5
54A
100
AcDbEntity
  8
ASSI
100
AcDbLine
 62
7
  6
CONTINUOUS
 10
11.2304900074
 20
-15.4839492888
 11
7.6949561015
 21
-17.5253222555
  0
LINE
  5
54B
100
AcDbEntity
  8
ASSI
100
AcDbLine
 62
7
  6
CONTINUOUS
 10
3.8058688049
 20
-19.7708325188
 11
2.0280216714
 21
-20.797339172
  0
LINE
  5
54C
100
AcDbEntity
  8
0
100
AcDbLine
 62
7
  6
CONTINUOUS
 10
3.8058516512
 20
-19.7708424221
 11
2.0280216714
 21
-20.7973391711
  0
LINE
  5
54D
100
AcDbEntity
  8
0
100
AcDbLine
 62
7
  6
CONTINUOUS
 10
24.4887250009
 20
-7.8288105673
 11
22.4315163945
 21
-9.0166044609
  0
LINE
  5
54E
100
AcDbEntity
  8
0
100
AcDbLine
 62
7
  6
CONTINUOUS
 10
18.6550940562
 20
-11.1970759623
 11
15.0068951921
 21
-13.3034876908
  0
LINE
  5
54F
100
AcDbEntity
  8
0
100
AcDbLine
 62
7
  6
CONTINUOUS
 10
11.2304728537
 20
-15.4839591922
 11
7.5822739896
 21
-17.5903709208
  0
LINE
  5
550
100
AcDbEntity
  8
RACCORDO
100
AcDbLine
 62
7
  6
CONTINUOUS
 10
25.4985883333
 20
-7.2608373585
 11
25.0588358057
 21
-7.5146958822
  0
LINE
  5
551
100
AcDbEntity
  8
ASSI
100
AcDbLine
 62
7
  6
CONTINUOUS
 10
25.4985883333
 20
-7.2608373585
 11
25.0588358057
 21
-7.5146958822
  0
LINE
  5
552
100
AcDbEntity
  8
RACCORDO
100
AcDbLine
 62
7
  6
CONTINUOUS
 10
25.0588358057
 20
-7.5146958822
 11
25.0557317966
 21
-7.5164644541
  0
LINE
  5
553
100
AcDbEntity
  8
ASSI
100
AcDbLine
 62
7
  6
CONTINUOUS
 10
25.0588358057
 20
-7.5146958822
 11
25.0557317966
 21
-7.5164644541
  0
LINE
  5
554
100
AcDbEntity
  8
0
100
AcDbLine
 62
7
  6
CONTINUOUS
 10
-2.8476692883
 20
-20.64666501
 11
-4.2495411959
 21
-21.4418370301
  0
LINE
  5
555
100
AcDbEntity
  8
RACCORDO
100
AcDbLine
 62
253
  6
CONTINUOUS
 10
25.7056872285
 20
-6.8031039787
 11
24.6357708156
 21
-7.4057443819
  0
LINE
  5
556
100
AcDbEntity
  8
ASSI
100
AcDbLine
 62
253
  6
CONTINUOUS
 10
25.7056872285
 20
-6.8031039787
 11
24.6357708156
 21
-7.4057443819
  0
LINE
  5
557
100
AcDbEntity
  8
RACCORDO
100
AcDbLine
 62
253
  6
CONTINUOUS
 10
25.4985883333
 20
-7.2608373585
 11
24.4891021834
 21
-7.8294398522
  0
LINE
  5
558
100
AcDbEntity
  8
ASSI
100
AcDbLine
 62
253
  6
CONTINUOUS
 10
25.4985883333
 20
-7.2608373585
 11
24.4891021834
 21
-7.8294398522
  0
LINE
  5
559
100
AcDbEntity
  8
RACCORDO
100
AcDbLine
 62
253
  6
CONTINUOUS
 10
25.0557538889
 20
-7.5164531974
 11
25.0588358057
 21
-7.5146958822
  0
LINE
  5
55A
100
AcDbEntity
  8
ASSI
100
AcDbLine
 62
253
  6
CONTINUOUS
 10
25.0557538889
 20
-7.5164531974
 11
25.0588358057
 21
-7.5146958822
  0
LINE
  5
55B
100
AcDbEntity
  8
RACCORDO
100
AcDbLine
 62
7
  6
CONTINUOUS
 10
24.491729464
 20
-7.8341049489
 11
25.0557538889
 21
-7.5164531974
  0
LINE
  5
55C
100
AcDbEntity
  8
ASSI
100
AcDbLine
 62
7
  6
CONTINUOUS
 10
24.4312973909
 20
-7.8681395634
 11
25.0557538889
 21
-7.5164531974
  0
LWPOLYLINE
  5
55D
100
AcDbEntity
  8
0
100
AcDbPolyline
 62
7
  6
CONTINUOUS
 90
15
 70
0
 10
18.6182885755
 20
-11.5284518177
 10
18.6013964696
 20
-11.5377468881
 10
18.5665861378
 20
-11.5541913593
 10
18.5302472644
 20
-11.5678384945
 10
18.4924193283
 20
-11.5786945363
 10
18.4534043361
 20
-11.5866722418
 10
18.4132244721
 20
-11.5917462794
 10
18.3718575519
 20
-11.5939419806
 10
18.3295390289
 20
-11.5932480972
 10
18.2862347068
 20
-11.5896448358
 10
18.2419787818
 20
-11.5831519898
 10
18.1971092963
 20
-11.5738176908
 10
18.1516436463
 20
-11.5616261508
 10
18.1055644357
 20
-11.5465931579
 10
18.0719489852
 20
-11.5337147452
  0
LINE
  5
55E
100
AcDbEntity
  8
0
100
AcDbLine
 62
7
  6
CONTINUOUS
 10
-5.7642670308
 20
16.9913263338
 11
-7.5183046984
 21
16.719803542
  0
LWPOLYLINE
  5
55F
100
AcDbEntity
  8
ASSI
100
AcDbPolyline
 62
7
  6
CONTINUOUS
 90
3
 70
0
 10
20.6487672213
 20
14.4571493911
 10
20.6183921061
 20
14.4638203462
 10
20.5200178552
 20
14.4727060947
  0
LINE
  5
560
100
AcDbEntity
  8
RACCORDO
100
AcDbLine
 62
7
  6
CONTINUOUS
 10
19.9531529117
 20
9.8267444153
 11
19.9497856699
 21
9.8286769423
  0
LINE
  5
561
100
AcDbEntity
  8
ASSI
100
AcDbLine
 62
7
  6
CONTINUOUS
 10
19.953088992
 20
9.8267808791
 11
19.9497856699
 21
9.8286769423
  0
LINE
  5
562
100
AcDbEntity
  8
RACCORDO
100
AcDbLine
 62
253
  6
CONTINUOUS
 10
21.0355620628
 20
9.928998311
 11
20.4577968976
 21
10.2625926763
  0
LINE
  5
563
100
AcDbEntity
  8
ASSI
100
AcDbLine
 62
253
  6
CONTINUOUS
 10
21.0355620628
 20
9.928998311
 11
20.4577968976
 21
10.2625926763
  0
LINE
  5
564
100
AcDbEntity
  8
ASSI
100
AcDbLine
 62
7
  6
CONTINUOUS
 10
19.9530189606
 20
9.8268240478
 11
19.8986392258
 21
9.8622812667
  0
LWPOLYLINE
  5
565
100
AcDbEntity
  8
RACCORDO
100
AcDbPolyline
 62
7
  6
CONTINUOUS
 90
34
 70
0
 10
19.9530828672
 20
9.8267876011
 10
19.8970828676
 20
9.8634409734
 10
19.8401024855
 20
9.9124354467
 10
19.7887358372
 20
9.9697833833
 10
19.7422660003
 20
10.0363923269
 10
19.7009386923
 20
10.1124806532
 10
19.6654862254
 20
10.1973092181
 10
19.6363392252
 20
10.2903798409
 10
19.6138447882
 20
10.3909485424
 10
19.5982590959
 20
10.4982209534
 10
19.5897423122
 20
10.6116416529
 10
19.5883831619
 20
10.7301447305
 10
19.5941821488
 20
10.8531339905
 10
19.6072717332
 20
10.9810639556
 10
19.6278308916
 20
11.113725456
 10
19.6558561096
 20
11.2498945846
 10
19.6913062197
 20
11.3886850086
 10
19.734082371
 20
11.5293296076
 10
19.7840203952
 20
11.6710160992
 10
19.8408752356
 20
11.8128193819
 10
19.9043598726
 20
11.9539176423
 10
19.9741588587
 20
12.0935533498
 10
20.0499114411
 20
12.2309299499
 10
20.1312156073
 20
12.3652908967
 10
20.217620594
 20
12.4959023199
 10
20.3086424918
 20
12.6220273602
 10
20.4038119681
 20
12.7430329834
 10
20.5025293156
 20
12.8582154545
 10
20.604045739
 20
12.9667752235
 10
20.7077841024
 20
13.0681994695
 10
20.8130878224
 20
13.1619869554
 10
20.9190052905
 20
13.2474626697
 10
21.024741945
 20
13.324225416
 10
21.1296791724
 20
13.3921287283
  0
LWPOLYLINE
  5
566
100
AcDbEntity
  8
ASSI
100
AcDbPolyline
 62
7
  6
CONTINUOUS
 90
33
 70
0
 10
19.8986392258
 20
5.7799298827
 10
19.8415130003
 20
5.8287030626
 10
19.7899992439
 20
5.8858387376
 10
19.7433703153
 20
5.9522545878
 10
19.7018713732
 20
6.0281827886
 10
19.6662404465
 20
6.1128896301
 10
19.6369153369
 20
6.2058773667
 10
19.6142478699
 20
6.3064083942
 10
19.5984995025
 20
6.4136842947
 10
19.5898355856
 20
6.527127681
 10
19.5883450464
 20
6.6456574849
 10
19.5940255989
 20
6.7686828632
 10
19.6070091142
 20
6.8966677041
 10
19.6274760897
 20
7.0294047574
 10
19.6554233422
 20
7.1656645523
 10
19.6908111144
 20
7.3045624934
 10
19.7335421964
 20
7.4453313695
 10
19.7834520863
 20
7.5871547212
 10
19.8402952926
 20
7.7291038068
 10
19.9037847199
 20
7.8703541693
 10
19.9736042971
 20
8.0101460384
 10
20.0493922469
 20
8.147680007
 10
20.1307457107
 20
8.2821969156
 10
20.2172127913
 20
8.4129607194
 10
20.3083082717
 20
8.5392323317
 10
20.4035615646
 20
8.6603765559
 10
20.5023712976
 20
8.7756875117
 10
20.6039866674
 20
8.8843634181
 10
20.7078289492
 20
8.9858899543
 10
20.8132394584
 20
9.079764207
 10
20.9192634835
 20
9.1653090503
 10
21.0251038411
 20
9.2421223228
 10
21.1299838577
 20
9.3099564438
  0
LWPOLYLINE
  5
567
100
AcDbEntity
  8
RACCORDO
100
AcDbPolyline
 62
253
  6
CONTINUOUS
 90
13
 70
0
 10
21.2458348421
 20
1.395807899
 10
21.2440357996
 20
1.4288373102
 10
21.2386695101
 20
1.4634153393
 10
21.2298278778
 20
1.4989502845
 10
21.2176622768
 20
1.5348340728
 10
21.2023809386
 20
1.5704527254
 10
21.1842453693
 20
1.6051968608
 10
21.1635659277
 20
1.6384720091
 10
21.1406964769
 20
1.6697088732
 10
21.1160282792
 20
1.6983731062
 10
21.0899833941
 20
1.72397432
 10
21.0630074719
 20
1.7460744947
 10
21.0355620648
 20
1.7642955442
  0
LWPOLYLINE
  5
568
100
AcDbEntity
  8
ASSI
100
AcDbPolyline
 62
253
  6
CONTINUOUS
 90
13
 70
0
 10
21.2458348421
 20
1.395807899
 10
21.2440357996
 20
1.4288373102
 10
21.2386695101
 20
1.4634153393
 10
21.2298278778
 20
1.4989502845
 10
21.2176622768
 20
1.5348340728
 10
21.2023809386
 20
1.5704527254
 10
21.1842453693
 20
1.6051968608
 10
21.1635659277
 20
1.6384720091
 10
21.1406964769
 20
1.6697088732
 10
21.1160282792
 20
1.6983731062
 10
21.0899833941
 20
1.72397432
 10
21.0630074719
 20
1.7460744947
 10
21.0355620648
 20
1.7642955442
  0
LWPOLYLINE
  5
569
100
AcDbEntity
  8
RACCORDO
100
AcDbPolyline
 62
253
  6
CONTINUOUS
 90
13
 70
0
 10
21.2458348421
 20
5.478159283
 10
21.2440357996
 20
5.5111886941
 10
21.2386695101
 20
5.5457667233
 10
21.2298278778
 20
5.5813016685
 10
21.2176622768
 20
5.6171854567
 10
21.2023809386
 20
5.6528041093
 10
21.1842453693
 20
5.6875482447
 10
21.1635659277
 20
5.7208233931
 10
21.1406964769
 20
5.7520602572
 10
21.1160282792
 20
5.7807244902
 10
21.0899833941
 20
5.806325704
 10
21.0630074719
 20
5.8284258787
 10
21.0355620648
 20
5.8466469282
  0
LWPOLYLINE
  5
56A
100
AcDbEntity
  8
ASSI
100
AcDbPolyline
 62
253
  6
CONTINUOUS
 90
13
 70
0
 10
21.2458348421
 20
5.478159283
 10
21.2440357996
 20
5.5111886941
 10
21.2386695101
 20
5.5457667233
 10
21.2298278778
 20
5.5813016685
 10
21.2176622768
 20
5.6171854567
 10
21.2023809386
 20
5.6528041093
 10
21.1842453693
 20
5.6875482447
 10
21.1635659277
 20
5.7208233931
 10
21.1406964769
 20
5.7520602572
 10
21.1160282792
 20
5.7807244902
 10
21.0899833941
 20
5.806325704
 10
21.0630074719
 20
5.8284258787
 10
21.0355620648
 20
5.8466469282
  0
LWPOLYLINE
  5
56B
100
AcDbEntity
  8
RACCORDO
100
AcDbPolyline
 62
253
  6
CONTINUOUS
 90
13
 70
0
 10
21.2458348421
 20
9.5605106669
 10
21.2440357996
 20
9.5935400781
 10
21.2386695101
 20
9.6281181072
 10
21.2298278778
 20
9.6636530524
 10
21.2176622768
 20
9.6995368407
 10
21.2023809386
 20
9.7351554933
 10
21.1842453693
 20
9.7698996287
 10
21.1635659277
 20
9.8031747771
 10
21.1406964769
 20
9.8344116412
 10
21.1160282792
 20
9.8630758741
 10
21.0899833941
 20
9.8886770879
 10
21.0630074719
 20
9.9107772626
 10
21.0355620648
 20
9.9289983121
  0
LWPOLYLINE
  5
56C
100
AcDbEntity
  8
ASSI
100
AcDbPolyline
 62
253
  6
CONTINUOUS
 90
13
 70
0
 10
21.2458348421
 20
9.5605106669
 10
21.2440357996
 20
9.5935400781
 10
21.2386695101
 20
9.6281181072
 10
21.2298278778
 20
9.6636530524
 10
21.2176622768
 20
9.6995368407
 10
21.2023809386
 20
9.7351554933
 10
21.1842453693
 20
9.7698996287
 10
21.1635659277
 20
9.8031747771
 10
21.1406964769
 20
9.8344116412
 10
21.1160282792
 20
9.8630758741
 10
21.0899833941
 20
9.8886770879
 10
21.0630074719
 20
9.9107772626
 10
21.0355620648
 20
9.9289983121
  0
LINE
  5
56D
100
AcDbEntity
  8
RACCORDO
100
AcDbLine
 62
7
  6
CONTINUOUS
 10
20.7559397602
 20
25.3696332556
 11
20.7559397602
 21
24.716438381
  0
LINE
  5
56E
100
AcDbEntity
  8
ASSI
100
AcDbLine
 62
7
  6
CONTINUOUS
 10
20.7559397602
 20
25.3696332556
 11
20.7559397602
 21
24.716438381
  0
LINE
  5
56F
100
AcDbEntity
  8
ASSI
100
AcDbLine
 62
7
  6
CONTINUOUS
 10
21.2757679182
 20
5.2324334775
 11
21.2757679182
 21
5.3114240411
  0
LINE
  5
570
100
AcDbEntity
  8
ASSI
100
AcDbLine
 62
7
  6
CONTINUOUS
 10
21.2757679182
 20
9.3147848615
 11
21.2757679182
 21
9.393775425
  0
LINE
  5
571
100
AcDbEntity
  8
ASSI
100
AcDbLine
 62
7
  6
CONTINUOUS
 10
21.2757679182
 20
13.3971362454
 11
21.2757679182
 21
13.476126809
  0
LINE
  5
572
100
AcDbEntity
  8
ASSI
100
AcDbLine
 62
7
  6
CONTINUOUS
 10
21.2757679182
 20
17.4794876294
 11
21.2757679182
 21
17.558478193
  0
LWPOLYLINE
  5
573
100
AcDbEntity
  8
RACCORDO
100
AcDbPolyline
 62
253
  6
CONTINUOUS
 90
7
 70
0
 10
21.2458348421
 20
17.6435664072
 10
21.2440359293
 20
17.6126521383
 10
21.2386699709
 20
17.584380737
 10
21.2298287799
 20
17.5592359348
 10
21.2176636315
 20
17.5376479664
 10
21.2023826748
 20
17.5199862077
 10
21.1836100724
 20
17.5061881
  0
LWPOLYLINE
  5
574
100
AcDbEntity
  8
ASSI
100
AcDbPolyline
 62
253
  6
CONTINUOUS
 90
7
 70
0
 10
21.2458348421
 20
17.6435664072
 10
21.2440359293
 20
17.6126521383
 10
21.2386699709
 20
17.584380737
 10
21.2298287799
 20
17.5592359348
 10
21.2176636315
 20
17.5376479664
 10
21.2023826748
 20
17.5199862077
 10
21.1836100724
 20
17.5061881
  0
LWPOLYLINE
  5
575
100
AcDbEntity
  8
RACCORDO
100
AcDbPolyline
 62
253
  6
CONTINUOUS
 90
7
 70
0
 10
21.2458348421
 20
13.5612150232
 10
21.2440359293
 20
13.5303007543
 10
21.2386699709
 20
13.502029353
 10
21.2298287799
 20
13.4768845509
 10
21.2176636315
 20
13.4552965824
 10
21.2023826748
 20
13.4376348238
 10
21.1836100724
 20
13.4238367161
  0
LWPOLYLINE
  5
576
100
AcDbEntity
  8
ASSI
100
AcDbPolyline
 62
253
  6
CONTINUOUS
 90
7
 70
0
 10
21.2458348421
 20
13.5612150232
 10
21.2440359293
 20
13.5303007543
 10
21.2386699709
 20
13.502029353
 10
21.2298287799
 20
13.4768845509
 10
21.2176636315
 20
13.4552965824
 10
21.2023826748
 20
13.4376348238
 10
21.1836100724
 20
13.4238367161
  0
LWPOLYLINE
  5
577
100
AcDbEntity
  8
RACCORDO
100
AcDbPolyline
 62
253
  6
CONTINUOUS
 90
7
 70
0
 10
21.2458348421
 20
9.4788636393
 10
21.2440359293
 20
9.4479493703
 10
21.2386699709
 20
9.419677969
 10
21.2298287799
 20
9.3945331669
 10
21.2176636315
 20
9.3729451984
 10
21.2023826748
 20
9.3552834398
 10
21.1836100724
 20
9.3414853321
  0
LWPOLYLINE
  5
578
100
AcDbEntity
  8
ASSI
100
AcDbPolyline
 62
253
  6
CONTINUOUS
 90
7
 70
0
 10
21.2458348421
 20
9.4788636393
 10
21.2440359293
 20
9.4479493703
 10
21.2386699709
 20
9.419677969
 10
21.2298287799
 20
9.3945331669
 10
21.2176636315
 20
9.3729451984
 10
21.2023826748
 20
9.3552834398
 10
21.1836100724
 20
9.3414853321
  0
LWPOLYLINE
  5
579
100
AcDbEntity
  8
RACCORDO
100
AcDbPolyline
 62
253
  6
CONTINUOUS
 90
7
 70
0
 10
21.2458348421
 20
5.3965122553
 10
21.2440359293
 20
5.3655979864
 10
21.2386699709
 20
5.3373265851
 10
21.2298287799
 20
5.3121817829
 10
21.2176636315
 20
5.2905938145
 10
21.2023826748
 20
5.2729320558
 10
21.1836100724
 20
5.2591339481
  0
LWPOLYLINE
  5
57A
100
AcDbEntity
  8
ASSI
100
AcDbPolyline
 62
253
  6
CONTINUOUS
 90
7
 70
0
 10
21.2458348421
 20
5.3965122553
 10
21.2440359293
 20
5.3655979864
 10
21.2386699709
 20
5.3373265851
 10
21.2298287799
 20
5.3121817829
 10
21.2176636315
 20
5.2905938145
 10
21.2023826748
 20
5.2729320558
 10
21.1836100724
 20
5.2591339481
  0
LWPOLYLINE
  5
57B
100
AcDbEntity
  8
0
100
AcDbPolyline
 62
7
  6
CONTINUOUS
 90
16
 70
0
 10
15.2215120698
 20
-13.1275262782
 10
15.2272530609
 20
-13.1157041726
 10
15.2326110116
 20
-13.1035030405
 10
15.2375859218
 20
-13.090922882
 10
15.2421812663
 20
-13.0779527671
 10
15.2463935702
 20
-13.0646036257
 10
15.2502124095
 20
-13.0509082477
 10
15.2536367645
 20
-13.0368659135
 10
15.2566676547
 20
-13.0224773428
 10
15.2592977153
 20
-13.0077774848
 10
15.261525971
 20
-12.9927655947
 10
15.263353397
 20
-12.9774424172
 10
15.2647755534
 20
-12.9618451361
 10
15.2657909602
 20
-12.9459861458
 10
15.2664010973
 20
-12.9298530518
 10
15.2666059649
 20
-12.9134458541
  0
LWPOLYLINE
  5
57C
100
AcDbEntity
  8
0
100
AcDbPolyline
 62
7
  6
CONTINUOUS
 90
16
 70
0
 10
18.7570459757
 20
-11.0861533116
 10
18.7627869669
 20
-11.074331206
 10
18.7681449175
 20
-11.0621300739
 10
18.7731198277
 20
-11.0495499154
 10
18.7777151722
 20
-11.0365798004
 10
18.7819274762
 20
-11.023230659
 10
18.7857463155
 20
-11.0095352811
 10
18.7891706704
 20
-10.9954929469
 10
18.7922015607
 20
-10.9811043762
 10
18.7948316212
 20
-10.9664045182
 10
18.7970598769
 20
-10.951392628
 10
18.7988873029
 20
-10.9360694506
 10
18.8003094593
 20
-10.9204721695
 10
18.8013248661
 20
-10.9046131792
 10
18.8019350033
 20
-10.8884800852
 10
18.8021398708
 20
-10.8720728875
  0
LINE
  5
57D
100
AcDbEntity
  8
RACCORDO
100
AcDbLine
 62
253
  6
CONTINUOUS
 10
-2.8353276335
 20
-24.2762972035
 11
2.0280216714
 21
-21.3271675605
  0
LINE
  5
57E
100
AcDbEntity
  8
RACCORDO
100
AcDbLine
 62
7
  6
CONTINUOUS
 10
-2.8527771022
 20
-24.9512816586
 11
1.6262842439
 21
-22.235183809
  0
LWPOLYLINE
  5
57F
100
AcDbEntity
  8
0
100
AcDbPolyline
 62
7
  6
CONTINUOUS
 90
16
 70
0
 10
18.6551112412
 20
-11.1970660357
 10
18.6634835437
 20
-11.1919972933
 10
18.6716552269
 20
-11.1865781221
 10
18.6796091057
 20
-11.1808184487
 10
18.6873489539
 20
-11.1747149237
 10
18.6948709977
 20
-11.1682708965
 10
18.702163916
 20
-11.161496415
 10
18.7092278492
 20
-11.154390601
 10
18.7160626569
 20
-11.1469543326
 10
18.722656597
 20
-11.1392002918
 10
18.7290091838
 20
-11.1311280716
 10
18.7351209031
 20
-11.1227380789
 10
18.7409814703
 20
-11.1140442164
 10
18.7465874574
 20
-11.105051118
 10
18.7519422926
 20
-11.0957541498
 10
18.7570459757
 20
-11.0861533116
  0
LWPOLYLINE
  5
580
100
AcDbEntity
  8
0
100
AcDbPolyline
 62
7
  6
CONTINUOUS
 90
16
 70
0
 10
22.5441985377
 20
-8.9515557724
 10
22.5525708402
 20
-8.94648703
 10
22.5607425234
 20
-8.9410678588
 10
22.5686964022
 20
-8.9353081854
 10
22.5764362504
 20
-8.9292046604
 10
22.5839582942
 20
-8.9227606332
 10
22.5912512125
 20
-8.9159861517
 10
22.5983151457
 20
-8.9088803377
 10
22.6051499534
 20
-8.9014440693
 10
22.6117438936
 20
-8.8936900285
 10
22.6180964803
 20
-8.8856178083
 10
22.6242081996
 20
-8.8772278156
 10
22.6300687668
 20
-8.8685339531
 10
22.635674754
 20
-8.8595408547
 10
22.6410295891
 20
-8.8502438865
 10
22.6461332722
 20
-8.8406430483
  0
LINE
  5
581
100
AcDbEntity
  8
0
100
AcDbLine
 62
7
  6
CONTINUOUS
 10
1.7080425306
 20
-22.2231598358
 11
-0.8808592256
 21
-23.7555128378
  0
LINE
  5
582
100
AcDbEntity
  8
0
100
AcDbLine
 62
7
  6
CONTINUOUS
 10
3.7690478136
 20
-20.1022212186
 11
7.3045817195
 21
-18.060848252
  0
LINE
  5
583
100
AcDbEntity
  8
0
100
AcDbLine
 62
7
  6
CONTINUOUS
 10
11.1936690161
 20
-15.8153379887
 11
14.729202922
 21
-13.773965022
  0
LINE
  5
584
100
AcDbEntity
  8
0
100
AcDbLine
 62
7
  6
CONTINUOUS
 10
18.6182902185
 20
-11.5284547587
 11
22.1538241244
 21
-9.4870817921
  0
LINE
  5
585
100
AcDbEntity
  8
0
100
AcDbLine
 62
7
  6
CONTINUOUS
 10
-3.5486052421
 20
-25.3644171735
 11
-2.8476692883
 21
-24.95970485
  0
LWPOLYLINE
  5
586
100
AcDbEntity
  8
0
100
AcDbPolyline
 62
7
  6
CONTINUOUS
 90
15
 70
0
 10
11.1936673731
 20
-15.8153350477
 10
11.1767752671
 20
-15.8246301181
 10
11.1419649353
 20
-15.8410745892
 10
11.1056260619
 20
-15.8547217245
 10
11.0677981259
 20
-15.8655777663
 10
11.0287831336
 20
-15.8735554717
 10
10.9886032696
 20
-15.8786295093
 10
10.9472363494
 20
-15.8808252106
 10
10.9049178265
 20
-15.8801313272
 10
10.8616135043
 20
-15.8765280658
 10
10.8173575793
 20
-15.8700352197
 10
10.7724880939
 20
-15.8607009207
 10
10.7270224438
 20
-15.8485093808
 10
10.6809432333
 20
-15.8334763879
 10
10.6473277827
 20
-15.8205979751
  0
LWPOLYLINE
  5
587
100
AcDbEntity
  8
0
100
AcDbPolyline
 62
7
  6
CONTINUOUS
 90
15
 70
0
 10
3.7690461706
 20
-20.1022182776
 10
3.7521540647
 20
-20.111513348
 10
3.7173437329
 20
-20.1279578192
 10
3.6810048595
 20
-20.1416049544
 10
3.6431769234
 20
-20.1524609962
 10
3.6041619311
 20
-20.1604387016
 10
3.5639820671
 20
-20.1655127392
 10
3.522615147
 20
-20.1677084405
 10
3.480296624
 20
-20.1670145571
 10
3.4369923018
 20
-20.1634112957
 10
3.3927363768
 20
-20.1569184497
 10
3.3478668914
 20
-20.1475841507
 10
3.3024012413
 20
-20.1353926107
 10
3.2563220308
 20
-20.1203596178
 10
3.2227065803
 20
-20.107481205
  0
LWPOLYLINE
  5
588
100
AcDbEntity
  8
0
100
AcDbPolyline
 62
7
  6
CONTINUOUS
 90
17
 70
0
 10
-9.8530033218
 20
18.3437264823
 10
-9.8403314353
 20
18.3453148728
 10
-9.827324449
 20
18.3462672985
 10
-9.813987274
 20
18.3465750832
 10
-9.8003010798
 20
18.3462170641
 10
-9.7862924691
 20
18.3451880376
 10
-9.7719583842
 20
18.343473112
 10
-9.7572313855
 20
18.3410302425
 10
-9.7421134837
 20
18.3378475106
 10
-9.7266251633
 20
18.3339064682
 10
-9.7107232483
 20
18.3291469961
 10
-9.6944108666
 20
18.3235477908
 10
-9.6777141104
 20
18.3170923199
 10
-9.6606247368
 20
18.309722349
 10
-9.6431591349
 20
18.3014134702
 10
-9.6253428003
 20
18.2921491485
 10
-9.6116300673
 20
18.284472115
  0
LINE
  5
589
100
AcDbEntity
  8
RACCORDO
100
AcDbLine
 62
253
  6
CONTINUOUS
 10
11.5663399768
 20
20.1822521375
 11
9.2865284107
 21
20.1707657694
  0
LINE
  5
58A
100
AcDbEntity
  8
ASSI
100
AcDbLine
 62
253
  6
CONTINUOUS
 10
11.5663399768
 20
20.1822521375
 11
9.2865284107
 21
20.1707657694
  0
LINE
  5
58B
100
AcDbEntity
  8
RACCORDO
100
AcDbLine
 62
253
  6
CONTINUOUS
 10
11.5644887991
 20
20.5993312872
 11
9.2846772329
 21
20.5878449191
  0
LINE
  5
58C
100
AcDbEntity
  8
ASSI
100
AcDbLine
 62
253
  6
CONTINUOUS
 10
11.5644887991
 20
20.5993312872
 11
9.2846772329
 21
20.5878449191
  0
LINE
  5
58D
100
AcDbEntity
  8
RACCORDO
100
AcDbLine
 62
7
  6
CONTINUOUS
 10
11.5663399768
 20
19.444377831
 11
9.2865284107
 21
19.444377831
  0
LINE
  5
58E
100
AcDbEntity
  8
ASSI
100
AcDbLine
 62
7
  6
CONTINUOUS
 10
11.5663399768
 20
19.444377831
 11
9.2865284107
 21
19.444377831
  0
LWPOLYLINE
  5
58F
100
AcDbEntity
  8
RACCORDO
100
AcDbPolyline
 62
253
  6
CONTINUOUS
 90
10
 70
0
 10
9.2846772329
 20
20.5878449191
 10
9.2670561612
 20
20.5882222264
 10
9.2498121037
 20
20.5894570605
 10
9.2329450604
 20
20.5915494214
 10
9.2163218543
 20
20.5945312182
 10
9.2000756624
 20
20.5983705418
 10
9.1846060157
 20
20.6029716652
 10
9.1700460909
 20
20.6083026795
 10
9.1562627113
 20
20.6143954937
 10
9.1432558767
 20
20.6212501077
  0
LWPOLYLINE
  5
590
100
AcDbEntity
  8
ASSI
100
AcDbPolyline
 62
253
  6
CONTINUOUS
 90
10
 70
0
 10
9.2846772329
 20
20.5878449191
 10
9.2670561612
 20
20.5882222264
 10
9.2498121037
 20
20.5894570605
 10
9.2329450604
 20
20.5915494214
 10
9.2163218543
 20
20.5945312182
 10
9.2000756624
 20
20.5983705418
 10
9.1846060157
 20
20.6029716652
 10
9.1700460909
 20
20.6083026795
 10
9.1562627113
 20
20.6143954937
 10
9.1432558767
 20
20.6212501077
  0
LWPOLYLINE
  5
591
100
AcDbEntity
  8
RACCORDO
100
AcDbPolyline
 62
253
  6
CONTINUOUS
 90
10
 70
0
 10
9.2865284107
 20
20.1707657694
 10
9.2429121693
 20
20.1717814116
 10
9.1996444679
 20
20.174997404
 10
9.1570543813
 20
20.1803862402
 10
9.1154735179
 20
20.1879019058
 10
9.0752080799
 20
20.197485718
 10
9.0365394377
 20
20.209070932
 10
8.9997555424
 20
20.2225738393
 10
8.9651457092
 20
20.2378902979
 10
8.9329750201
 20
20.25490482
  0
LWPOLYLINE
  5
592
100
AcDbEntity
  8
ASSI
100
AcDbPolyline
 62
253
  6
CONTINUOUS
 90
10
 70
0
 10
9.2865284107
 20
20.1707657694
 10
9.2429121693
 20
20.1717814116
 10
9.1996444679
 20
20.174997404
 10
9.1570543813
 20
20.1803862402
 10
9.1154735179
 20
20.1879019058
 10
9.0752080799
 20
20.197485718
 10
9.0365394377
 20
20.209070932
 10
8.9997555424
 20
20.2225738393
 10
8.9651457092
 20
20.2378902979
 10
8.9329750201
 20
20.25490482
  0
LWPOLYLINE
  5
593
100
AcDbEntity
  8
RACCORDO
100
AcDbPolyline
 62
7
  6
CONTINUOUS
 90
10
 70
0
 10
8.9329750201
 20
19.5289342679
 10
8.9655591224
 20
19.5117622905
 10
9.0000507429
 20
19.4964780816
 10
9.0364498816
 20
19.4830816409
 10
9.0750666933
 20
19.4714977205
 10
9.1155910231
 20
19.4618015683
 10
9.1570924062
 20
19.4542189289
 10
9.1992606877
 20
19.4488250502
 10
9.2424060225
 20
19.4455446843
 10
9.2865284107
 20
19.444377831
  0
LWPOLYLINE
  5
594
100
AcDbEntity
  8
ASSI
100
AcDbPolyline
 62
7
  6
CONTINUOUS
 90
10
 70
0
 10
8.9329750201
 20
19.5289342679
 10
8.9655591224
 20
19.5117622905
 10
9.0000507429
 20
19.4964780816
 10
9.0364498816
 20
19.4830816409
 10
9.0750666933
 20
19.4714977205
 10
9.1155910231
 20
19.4618015683
 10
9.1570924062
 20
19.4542189289
 10
9.1992606877
 20
19.4488250502
 10
9.2424060225
 20
19.4455446843
 10
9.2865284107
 20
19.444377831
  0
LINE
  5
595
100
AcDbEntity
  8
RACCORDO
100
AcDbLine
 62
7
  6
CONTINUOUS
 10
8.7911669599
 20
19.6108434806
 11
8.7880878649
 21
19.6125902954
  0
LINE
  5
596
100
AcDbEntity
  8
ASSI
100
AcDbLine
 62
7
  6
CONTINUOUS
 10
8.7911669599
 20
19.6108434806
 11
8.7880878649
 21
19.6125902954
  0
LINE
  5
597
100
AcDbEntity
  8
RACCORDO
100
AcDbLine
 62
7
  6
CONTINUOUS
 10
25.4935471165
 20
8.3760946454
 11
24.8479028499
 21
8.748881553
  0
LINE
  5
598
100
AcDbEntity
  8
ASSI
100
AcDbLine
 62
7
  6
CONTINUOUS
 10
25.4935471165
 20
8.3760946454
 11
24.8479028499
 21
8.748881553
  0
LINE
  5
599
100
AcDbEntity
  8
ASSI
100
AcDbLine
 62
7
  6
CONTINUOUS
 10
8.796578917
 20
19.1177660473
 11
5.826730436
 21
20.8325193393
  0
LINE
  5
59A
100
AcDbEntity
  8
RACCORDO
100
AcDbLine
 62
7
  6
CONTINUOUS
 10
6.3974411141
 20
20.9929197674
 11
8.7880878649
 21
19.6125902954
  0
LINE
  5
59B
100
AcDbEntity
  8
ASSI
100
AcDbLine
 62
7
  6
CONTINUOUS
 10
6.3974411141
 20
20.9929197674
 11
8.7880878649
 21
19.6125902954
  0
LINE
  5
59C
100
AcDbEntity
  8
RACCORDO
100
AcDbLine
 62
7
  6
CONTINUOUS
 10
8.7903970504
 20
19.6112918931
 11
8.9329750201
 21
19.5289342679
  0
LINE
  5
59D
100
AcDbEntity
  8
ASSI
100
AcDbLine
 62
7
  6
CONTINUOUS
 10
8.7903970504
 20
19.6112918931
 11
8.9329750201
 21
19.5289342679
  0
LWPOLYLINE
  5
59E
100
AcDbEntity
  8
RACCORDO
100
AcDbPolyline
 62
253
  6
CONTINUOUS
 90
10
 70
0
 10
6.3974411141
 20
21.7188903196
 10
6.3679629666
 20
21.7374710631
 10
6.3414077349
 20
21.7574705465
 10
6.3179754366
 20
21.7787357147
 10
6.297845834
 20
21.8010998703
 10
6.2811645103
 20
21.8243964045
 10
6.2680488807
 20
21.8484618084
 10
6.2586011858
 20
21.8731189351
 10
6.2529005141
 20
21.8981766677
 10
6.2509945047
 20
21.9234450025
  0
LWPOLYLINE
  5
59F
100
AcDbEntity
  8
ASSI
100
AcDbPolyline
 62
253
  6
CONTINUOUS
 90
10
 70
0
 10
6.3974411141
 20
21.7188903196
 10
6.3679629666
 20
21.7374710631
 10
6.3414077349
 20
21.7574705465
 10
6.3179754366
 20
21.7787357147
 10
6.297845834
 20
21.8010998703
 10
6.2811645103
 20
21.8243964045
 10
6.2680488807
 20
21.8484618084
 10
6.2586011858
 20
21.8731189351
 10
6.2529005141
 20
21.8981766677
 10
6.2509945047
 20
21.9234450025
  0
LWPOLYLINE
  5
5A0
100
AcDbEntity
  8
ASSI
100
AcDbPolyline
 62
7
  6
CONTINUOUS
 90
33
 70
0
 10
19.8986392258
 20
9.8622812667
 10
19.8415130003
 20
9.9110544465
 10
19.7899992439
 20
9.9681901216
 10
19.7433703153
 20
10.0346059718
 10
19.7018713732
 20
10.1105341725
 10
19.6662404465
 20
10.195241014
 10
19.6369153369
 20
10.2882287507
 10
19.6142478699
 20
10.3887597781
 10
19.5984995025
 20
10.4960356787
 10
19.5898355856
 20
10.6094790649
 10
19.5883450464
 20
10.7280088689
 10
19.5940255989
 20
10.8510342472
 10
19.6070091142
 20
10.9790190881
 10
19.6274760897
 20
11.1117561413
 10
19.6554233422
 20
11.2480159363
 10
19.6908111144
 20
11.3869138773
 10
19.7335421964
 20
11.5276827535
 10
19.7834520863
 20
11.6695061052
 10
19.8402952926
 20
11.8114551907
 10
19.9037847199
 20
11.9527055532
 10
19.9736042971
 20
12.0924974223
 10
20.0493922469
 20
12.2300313909
 10
20.1307457107
 20
12.3645482996
 10
20.2172127913
 20
12.4953121033
 10
20.3083082717
 20
12.6215837156
 10
20.4035615646
 20
12.7427279399
 10
20.5023712976
 20
12.8580388956
 10
20.6039866674
 20
12.9667148021
 10
20.7078289492
 20
13.0682413383
 10
20.8132394584
 20
13.162115591
 10
20.9192634835
 20
13.2476604343
 10
21.0251038411
 20
13.3244737068
 10
21.1299838577
 20
13.3923078278
  0
LWPOLYLINE
  5
5A1
100
AcDbEntity
  8
RACCORDO
100
AcDbPolyline
 62
253
  6
CONTINUOUS
 90
13
 70
0
 10
21.2458348421
 20
13.6428620509
 10
21.2440357996
 20
13.6758914621
 10
21.2386695101
 20
13.7104694912
 10
21.2298278778
 20
13.7460044364
 10
21.2176622768
 20
13.7818882246
 10
21.2023809386
 20
13.8175068773
 10
21.1842453693
 20
13.8522510127
 10
21.1635659277
 20
13.885526161
 10
21.1406964769
 20
13.9167630251
 10
21.1160282792
 20
13.9454272581
 10
21.0899833941
 20
13.9710284719
 10
21.0630074719
 20
13.9931286466
 10
21.0355620648
 20
14.0113496961
  0
LWPOLYLINE
  5
5A2
100
AcDbEntity
  8
ASSI
100
AcDbPolyline
 62
253
  6
CONTINUOUS
 90
13
 70
0
 10
21.2458348421
 20
13.6428620509
 10
21.2440357996
 20
13.6758914621
 10
21.2386695101
 20
13.7104694912
 10
21.2298278778
 20
13.7460044364
 10
21.2176622768
 20
13.7818882246
 10
21.2023809386
 20
13.8175068773
 10
21.1842453693
 20
13.8522510127
 10
21.1635659277
 20
13.885526161
 10
21.1406964769
 20
13.9167630251
 10
21.1160282792
 20
13.9454272581
 10
21.0899833941
 20
13.9710284719
 10
21.0630074719
 20
13.9931286466
 10
21.0355620648
 20
14.0113496961
  0
LINE
  5
5A3
100
AcDbEntity
  8
0
100
AcDbLine
 62
7
  6
CONTINUOUS
 10
22.1962524205
 20
-6.8655515773
 11
22.1962524205
 21
-6.4581200001
  0
LINE
  5
5A4
100
AcDbEntity
  8
0
100
AcDbLine
 62
7
  6
CONTINUOUS
 10
22.6912271673
 20
-8.6265626242
 11
22.6912271673
 21
-6.1723277847
  0
LINE
  5
5A5
100
AcDbEntity
  8
0
100
AcDbLine
 62
7
  6
CONTINUOUS
 10
22.6912271673
 20
4.0745596272
 11
22.6912271673
 21
6.114551491
  0
LINE
  5
5A6
100
AcDbEntity
  8
0
100
AcDbLine
 62
7
  6
CONTINUOUS
 10
22.6912271673
 20
7.492501634
 11
22.6912271673
 21
10.196902875
  0
LINE
  5
5A7
100
AcDbEntity
  8
0
100
AcDbLine
 62
7
  6
CONTINUOUS
 10
22.6912271673
 20
11.574853018
 11
22.6912271673
 21
14.2792542589
  0
LINE
  5
5A8
100
AcDbEntity
  8
0
100
AcDbLine
 62
7
  6
CONTINUOUS
 10
22.6912271673
 20
15.657204402
 11
22.6912271673
 21
18.3616056429
  0
LINE
  5
5A9
100
AcDbEntity
  8
DRAFT
100
AcDbLine
 62
7
  6
CONTINUOUS
 10
23.7872426782
 20
4.0541182791
 11
23.7872426782
 21
6.7364274955
  0
LINE
  5
5AA
100
AcDbEntity
  8
ASSI
100
AcDbLine
 62
7
  6
CONTINUOUS
 10
23.7872426782
 20
4.0541182791
 11
23.7872426782
 21
6.7364274955
  0
LINE
  5
5AB
100
AcDbEntity
  8
DRAFT
100
AcDbLine
 62
7
  6
CONTINUOUS
 10
23.7872426782
 20
8.136469663
 11
23.7872426782
 21
10.8187788794
  0
LINE
  5
5AC
100
AcDbEntity
  8
ASSI
100
AcDbLine
 62
7
  6
CONTINUOUS
 10
23.7872426782
 20
8.136469663
 11
23.7872426782
 21
10.8187788794
  0
LINE
  5
5AD
100
AcDbEntity
  8
DRAFT
100
AcDbLine
 62
7
  6
CONTINUOUS
 10
23.7872426782
 20
12.218821047
 11
23.7872426782
 21
14.9011302634
  0
LINE
  5
5AE
100
AcDbEntity
  8
ASSI
100
AcDbLine
 62
7
  6
CONTINUOUS
 10
23.7872426782
 20
12.218821047
 11
23.7872426782
 21
14.9011302634
  0
LINE
  5
5AF
100
AcDbEntity
  8
DRAFT
100
AcDbLine
 62
7
  6
CONTINUOUS
 10
23.7872426782
 20
16.301172431
 11
23.7872426782
 21
18.9834816474
  0
LINE
  5
5B0
100
AcDbEntity
  8
ASSI
100
AcDbLine
 62
7
  6
CONTINUOUS
 10
23.7872426782
 20
16.301172431
 11
23.7872426782
 21
18.9834816474
  0
LWPOLYLINE
  5
5B1
100
AcDbEntity
  8
0
100
AcDbPolyline
 62
7
  6
CONTINUOUS
 90
15
 70
0
 10
22.4315163945
 20
-9.0166044609
 10
22.4258529632
 20
-9.0522002831
 10
22.4158305044
 20
-9.0996194161
 10
22.4036540058
 20
-9.1450863777
 10
22.3893010953
 20
-9.1886083369
 10
22.372794145
 20
-9.2301781248
 10
22.3542605077
 20
-9.2694789481
 10
22.3337001412
 20
-9.3064712972
 10
22.3111130878
 20
-9.3411946818
 10
22.2866268271
 20
-9.3734508377
 10
22.2602083275
 20
-9.4032463083
 10
22.2318906206
 20
-9.4305745502
 10
22.2019002813
 20
-9.4552176691
 10
22.1702516446
 20
-9.4771383568
 10
22.1538224815
 20
-9.4870788511
  0
LWPOLYLINE
  5
5B2
100
AcDbEntity
  8
0
100
AcDbPolyline
 62
7
  6
CONTINUOUS
 90
16
 70
0
 10
22.6461332722
 20
-8.8406430483
 10
22.6518742634
 20
-8.8288209427
 10
22.6572322141
 20
-8.8166198106
 10
22.6622071243
 20
-8.8040396521
 10
22.6668024687
 20
-8.7910695371
 10
22.6710147727
 20
-8.7777203957
 10
22.674833612
 20
-8.7640250178
 10
22.6782579669
 20
-8.7499826836
 10
22.6812888572
 20
-8.7355941129
 10
22.6839189177
 20
-8.7208942549
 10
22.6861471735
 20
-8.7058823647
 10
22.6879745995
 20
-8.6905591873
 10
22.6893967558
 20
-8.6749619062
 10
22.6904121626
 20
-8.6591029159
 10
22.6910222998
 20
-8.6429698219
 10
22.6912271673
 20
-8.6265626242
  0
LWPOLYLINE
  5
5B3
100
AcDbEntity
  8
RACCORDO
100
AcDbPolyline
 62
253
  6
CONTINUOUS
 90
9
 70
0
 10
-9.0425973405
 20
-31.0921758176
 10
-9.019894271
 20
-31.078686124
 10
-8.9955091804
 20
-31.0583433723
 10
-8.9740790696
 20
-31.0334732267
 10
-8.9558384067
 20
-31.0043478977
 10
-8.9409867528
 20
-30.9712861379
 10
-8.9296865933
 20
-30.9346497776
 10
-8.9220615525
 20
-30.8948397742
 10
-8.9181950323
 20
-30.8522917999
  0
LWPOLYLINE
  5
5B4
100
AcDbEntity
  8
ASSI
100
AcDbPolyline
 62
253
  6
CONTINUOUS
 90
9
 70
0
 10
-9.0425973405
 20
-31.0921758176
 10
-9.019894271
 20
-31.078686124
 10
-8.9955091804
 20
-31.0583433723
 10
-8.9740790696
 20
-31.0334732267
 10
-8.9558384067
 20
-31.0043478977
 10
-8.9409867528
 20
-30.9712861379
 10
-8.9296865933
 20
-30.9346497776
 10
-8.9220615525
 20
-30.8948397742
 10
-8.9181950323
 20
-30.8522917999
  0
LINE
  5
5B5
100
AcDbEntity
  8
0
100
AcDbLine
 62
253
  6
CONTINUOUS
 10
-4.2495411959
 20
-28.5451422554
 11
-3.5486052421
 21
-28.1285546185
  0
LINE
  5
5B6
100
AcDbEntity
  8
0
100
AcDbLine
 62
7
  6
CONTINUOUS
 10
-4.3519826834
 20
-28.7733667975
 11
-3.6503263067
 21
-28.3563509913
  0
LINE
  5
5B7
100
AcDbEntity
  8
0
100
AcDbLine
 62
253
  6
CONTINUOUS
 10
-4.9566479771
 20
-30.0555624497
 11
-4.4283808053
 21
-29.7434083154
  0
LINE
  5
5B8
100
AcDbEntity
  8
0
100
AcDbLine
 62
7
  6
CONTINUOUS
 10
-5.0076887282
 20
-30.1695697007
 11
-4.4790017497
 21
-29.8571675018
  0
LINE
  5
5B9
100
AcDbEntity
  8
0
100
AcDbLine
 62
7
  6
CONTINUOUS
 10
-5.0076923732
 20
-30.1695718545
 11
-5.0091466165
 21
-30.1704115164
  0
LINE
  5
5BA
100
AcDbEntity
  8
0
100
AcDbLine
 62
253
  6
CONTINUOUS
 10
-6.6108131076
 20
-31.0737982723
 11
-6.6108558627
 21
-31.073822404
  0
LINE
  5
5BB
100
AcDbEntity
  8
0
100
AcDbLine
 62
253
  6
CONTINUOUS
 10
-6.5579287679
 20
-30.9587316755
 11
-4.9566479771
 21
-30.0555624497
  0
LINE
  5
5BC
100
AcDbEntity
  8
0
100
AcDbLine
 62
7
  6
CONTINUOUS
 10
-6.6108558439
 20
-31.0738223934
 11
-5.0091503331
 21
-30.170413613
  0
LWPOLYLINE
  5
5BD
100
AcDbEntity
  8
0
100
AcDbPolyline
 62
7
  6
CONTINUOUS
 90
3
 70
0
 10
-4.3519987382
 20
-28.7733763564
 10
-4.3588967057
 20
-28.7772604089
 10
-4.3629981962
 20
-28.7793737317
  0
LINE
  5
5BE
100
AcDbEntity
  8
RACCORDO
100
AcDbLine
 62
253
  6
CONTINUOUS
 10
-5.3455567067
 20
-29.0727556565
 11
-8.9181950323
 21
-30.8522917999
  0
LINE
  5
5BF
100
AcDbEntity
  8
ASSI
100
AcDbLine
 62
253
  6
CONTINUOUS
 10
-5.3455567067
 20
-29.0727556565
 11
-8.9181950323
 21
-30.8522917999
  0
LINE
  5
5C0
100
AcDbEntity
  8
0
100
AcDbLine
 62
253
  6
CONTINUOUS
 10
-5.3287152598
 20
-29.0824796969
 11
-4.2495411959
 21
-28.5449415873
  0
LINE
  5
5C1
100
AcDbEntity
  8
0
100
AcDbLine
 62
7
  6
CONTINUOUS
 10
-5.4413648476
 20
-29.3165096681
 11
-4.3630167782
 21
-28.7793829875
  0
LINE
  5
5C2
100
AcDbEntity
  8
RACCORDO
100
AcDbLine
 62
7
  6
CONTINUOUS
 10
-9.0430010418
 20
-31.0923762645
 11
-5.4583932062
 21
-29.3068787287
  0
LINE
  5
5C3
100
AcDbEntity
  8
ASSI
100
AcDbLine
 62
7
  6
CONTINUOUS
 10
-9.0430010418
 20
-31.0923762645
 11
-5.4583932062
 21
-29.3068787287
  0
LWPOLYLINE
  5
5C4
100
AcDbEntity
  8
RACCORDO
100
AcDbPolyline
 62
253
  6
CONTINUOUS
 90
19
 70
0
 10
-8.9181950323
 20
-30.8522917999
 10
-8.945528927
 20
-30.8647052981
 10
-8.9723400383
 20
-30.8745582828
 10
-8.998628366
 20
-30.8818507541
 10
-9.0245543491
 20
-30.8866043772
 10
-9.0499575488
 20
-30.8887974869
 10
-9.0743566478
 20
-30.8883650869
 10
-9.0977223404
 20
-30.8852536191
 10
-9.1200839323
 20
-30.8795166416
 10
-9.1410480239
 20
-30.8712498321
 10
-9.1605891975
 20
-30.860405449
 10
-9.1787328709
 20
-30.847031234
 10
-9.1951618975
 20
-30.8313660899
 10
-9.2098454876
 20
-30.8133569647
 10
-9.222814431
 20
-30.7930569105
 10
-9.2338439508
 20
-30.7708639856
 10
-9.2428591212
 20
-30.7469108761
 10
-9.249934868
 20
-30.7210648959
 10
-9.2550711911
 20
-30.693326045
  0
LWPOLYLINE
  5
5C5
100
AcDbEntity
  8
ASSI
100
AcDbPolyline
 62
253
  6
CONTINUOUS
 90
19
 70
0
 10
-8.9181950323
 20
-30.8522917999
 10
-8.945528927
 20
-30.8647052981
 10
-8.9723400383
 20
-30.8745582828
 10
-8.998628366
 20
-30.8818507541
 10
-9.0245543491
 20
-30.8866043772
 10
-9.0499575488
 20
-30.8887974869
 10
-9.0743566478
 20
-30.8883650869
 10
-9.0977223404
 20
-30.8852536191
 10
-9.1200839323
 20
-30.8795166416
 10
-9.1410480239
 20
-30.8712498321
 10
-9.1605891975
 20
-30.860405449
 10
-9.1787328709
 20
-30.847031234
 10
-9.1951618975
 20
-30.8313660899
 10
-9.2098454876
 20
-30.8133569647
 10
-9.222814431
 20
-30.7930569105
 10
-9.2338439508
 20
-30.7708639856
 10
-9.2428591212
 20
-30.7469108761
 10
-9.249934868
 20
-30.7210648959
 10
-9.2550711911
 20
-30.693326045
  0
LINE
  5
5C6
100
AcDbEntity
  8
RACCORDO
100
AcDbLine
 62
7
  6
CONTINUOUS
 10
19.9531529117
 20
13.9090957993
 11
19.9497856699
 21
13.9110283263
  0
LINE
  5
5C7
100
AcDbEntity
  8
ASSI
100
AcDbLine
 62
7
  6
CONTINUOUS
 10
19.953088992
 20
13.909132263
 11
19.9497856699
 21
13.9110283263
  0
LINE
  5
5C8
100
AcDbEntity
  8
RACCORDO
100
AcDbLine
 62
253
  6
CONTINUOUS
 10
8.9329750201
 20
20.25490482
 11
6.3974411141
 21
21.7188903196
  0
LINE
  5
5C9
100
AcDbEntity
  8
ASSI
100
AcDbLine
 62
253
  6
CONTINUOUS
 10
8.9329750201
 20
20.25490482
 11
6.3974411141
 21
21.7188903196
  0
LINE
  5
5CA
100
AcDbEntity
  8
RACCORDO
100
AcDbLine
 62
253
  6
CONTINUOUS
 10
9.1432558767
 20
20.6212501077
 11
6.6077219708
 21
22.0852356072
  0
LINE
  5
5CB
100
AcDbEntity
  8
ASSI
100
AcDbLine
 62
253
  6
CONTINUOUS
 10
9.1432558767
 20
20.6212501077
 11
6.6077219708
 21
22.0852356072
  0
LINE
  5
5CC
100
AcDbEntity
  8
RACCORDO
100
AcDbLine
 62
253
  6
CONTINUOUS
 10
21.0355620628
 20
14.011349695
 11
20.4577968976
 21
14.3449440603
  0
LINE
  5
5CD
100
AcDbEntity
  8
ASSI
100
AcDbLine
 62
253
  6
CONTINUOUS
 10
21.0355620628
 20
14.011349695
 11
20.4577968976
 21
14.3449440603
  0
LINE
  5
5CE
100
AcDbEntity
  8
RACCORDO
100
AcDbLine
 62
7
  6
CONTINUOUS
 10
25.4935471165
 20
12.4584460293
 11
24.8479028499
 21
12.831232937
  0
LINE
  5
5CF
100
AcDbEntity
  8
ASSI
100
AcDbLine
 62
7
  6
CONTINUOUS
 10
25.4935471165
 20
12.4584460293
 11
24.8479028499
 21
12.831232937
  0
LINE
  5
5D0
100
AcDbEntity
  8
ASSI
100
AcDbLine
 62
7
  6
CONTINUOUS
 10
13.1952040022
 20
20.2525263908
 11
17.2153274621
 21
17.931357489
  0
LINE
  5
5D1
100
AcDbEntity
  8
RACCORDO
100
AcDbLine
 62
7
  6
CONTINUOUS
 10
17.1783614997
 20
17.9709415604
 11
13.5499765879
 21
20.0659255342
  0
LINE
  5
5D2
100
AcDbEntity
  8
ASSI
100
AcDbLine
 62
7
  6
CONTINUOUS
 10
17.1783614997
 20
17.9709415604
 11
13.5499765879
 21
20.0659255342
  0
LWPOLYLINE
  5
5D3
100
AcDbEntity
  8
RACCORDO
100
AcDbPolyline
 62
253
  6
CONTINUOUS
 90
10
 70
0
 10
6.6077219708
 20
22.0852356072
 10
6.5958403777
 20
22.09275126
 10
6.5852600444
 20
22.1007257487
 10
6.5759809708
 20
22.1091590733
 10
6.5679472183
 20
22.1181285175
 10
6.5612147255
 20
22.1275567977
 10
6.5559513084
 20
22.1372120624
 10
6.5522129056
 20
22.1470170278
 10
6.5499435785
 20
22.1570489777
 10
6.549143327
 20
22.1673079121
  0
LWPOLYLINE
  5
5D4
100
AcDbEntity
  8
ASSI
100
AcDbPolyline
 62
253
  6
CONTINUOUS
 90
10
 70
0
 10
6.6077219708
 20
22.0852356072
 10
6.5958403777
 20
22.09275126
 10
6.5852600444
 20
22.1007257487
 10
6.5759809708
 20
22.1091590733
 10
6.5679472183
 20
22.1181285175
 10
6.5612147255
 20
22.1275567977
 10
6.5559513084
 20
22.1372120624
 10
6.5522129056
 20
22.1470170278
 10
6.5499435785
 20
22.1570489777
 10
6.549143327
 20
22.1673079121
  0
LINE
  5
5D5
100
AcDbEntity
  8
ASSI
100
AcDbLine
 62
7
  6
CONTINUOUS
 10
19.9530189606
 20
13.9091754318
 11
19.8986392258
 21
13.9446326507
  0
LWPOLYLINE
  5
5D6
100
AcDbEntity
  8
RACCORDO
100
AcDbPolyline
 62
7
  6
CONTINUOUS
 90
34
 70
0
 10
19.9530828672
 20
13.9091389851
 10
19.8970828676
 20
13.9457923574
 10
19.8401024855
 20
13.9947868307
 10
19.7887358372
 20
14.0521347673
 10
19.7422660003
 20
14.1187437109
 10
19.7009386923
 20
14.1948320371
 10
19.6654862254
 20
14.2796606021
 10
19.6363392252
 20
14.3727312249
 10
19.6138447882
 20
14.4732999263
 10
19.5982590959
 20
14.5805723373
 10
19.5897423122
 20
14.6939930369
 10
19.5883831619
 20
14.8124961145
 10
19.5941821488
 20
14.9354853744
 10
19.6072717332
 20
15.0634153396
 10
19.6278308916
 20
15.19607684
 10
19.6558561096
 20
15.3322459686
 10
19.6913062197
 20
15.4710363926
 10
19.734082371
 20
15.6116809916
 10
19.7840203952
 20
15.7533674831
 10
19.8408752356
 20
15.8951707658
 10
19.9043598726
 20
16.0362690262
 10
19.9741588587
 20
16.1759047337
 10
20.0499114411
 20
16.3132813339
 10
20.1312156073
 20
16.4476422807
 10
20.217620594
 20
16.5782537038
 10
20.3086424918
 20
16.7043787441
 10
20.4038119681
 20
16.8253843674
 10
20.5025293156
 20
16.9405668385
 10
20.604045739
 20
17.0491266074
 10
20.7077841024
 20
17.1505508535
 10
20.8130878224
 20
17.2443383393
 10
20.9190052905
 20
17.3298140536
 10
21.024741945
 20
17.4065768
 10
21.1296791724
 20
17.4744801123
  0
LWPOLYLINE
  5
5D7
100
AcDbEntity
  8
ASSI
100
AcDbPolyline
 62
7
  6
CONTINUOUS
 90
33
 70
0
 10
19.8986392258
 20
13.9446326507
 10
19.8415130003
 20
13.9934058305
 10
19.7899992439
 20
14.0505415056
 10
19.7433703153
 20
14.1169573558
 10
19.7018713732
 20
14.1928855565
 10
19.6662404465
 20
14.277592398
 10
19.6369153369
 20
14.3705801347
 10
19.6142478699
 20
14.4711111621
 10
19.5984995025
 20
14.5783870627
 10
19.5898355856
 20
14.6918304489
 10
19.5883450464
 20
14.8103602529
 10
19.5940255989
 20
14.9333856311
 10
19.6070091142
 20
15.0613704721
 10
19.6274760897
 20
15.1941075253
 10
19.6554233422
 20
15.3303673203
 10
19.6908111144
 20
15.4692652613
 10
19.7335421964
 20
15.6100341374
 10
19.7834520863
 20
15.7518574892
 10
19.8402952926
 20
15.8938065747
 10
19.9037847199
 20
16.0350569372
 10
19.9736042971
 20
16.1748488063
 10
20.0493922469
 20
16.3123827749
 10
20.1307457107
 20
16.4468996835
 10
20.2172127913
 20
16.5776634873
 10
20.3083082717
 20
16.7039350996
 10
20.4035615646
 20
16.8250793239
 10
20.5023712976
 20
16.9403902796
 10
20.6039866674
 20
17.0490661861
 10
20.7078289492
 20
17.1505927222
 10
20.8132394584
 20
17.2444669749
 10
20.9192634835
 20
17.3300118183
 10
21.0251038411
 20
17.4068250907
 10
21.1299838577
 20
17.4746592118
  0
LWPOLYLINE
  5
5D8
100
AcDbEntity
  8
ASSI
100
AcDbPolyline
 62
7
  6
CONTINUOUS
 90
28
 70
0
 10
17.5703274621
 20
17.5565965269
 10
17.5598366284
 20
17.5744179205
 10
17.5490729048
 20
17.5920213606
 10
17.5380362913
 20
17.6094068472
 10
17.5267169935
 20
17.6265887131
 10
17.5151248059
 20
17.6435526256
 10
17.5032891114
 20
17.6602555856
 10
17.4912092922
 20
17.6766969313
 10
17.4788859662
 20
17.6928773246
 10
17.4663503694
 20
17.7087557527
 10
17.4536019636
 20
17.7243314495
 10
17.4406412871
 20
17.7396051811
 10
17.4275011916
 20
17.7545382328
 10
17.4141812221
 20
17.7691297403
 10
17.4006818337
 20
17.7833805678
 10
17.3870372436
 20
17.7972545936
 10
17.3732470835
 20
17.8107508616
 10
17.3593117217
 20
17.8238703277
 10
17.3452664805
 20
17.8365797378
 10
17.3311110812
 20
17.8488780516
 10
17.3168458025
 20
17.8607663092
 10
17.3025068029
 20
17.8722143774
 10
17.2880938956
 20
17.8832211393
 10
17.2736072674
 20
17.8937877117
 10
17.259083638
 20
17.9038873112
 10
17.2445352473
 20
17.91351101
 10
17.2299498553
 20
17.9226677359
 10
17.2153274621
 20
17.931357489
  0
LINE
  5
5D9
100
AcDbEntity
  8
ASSI
100
AcDbLine
 62
7
  6
CONTINUOUS
 10
17.5703274621
 20
17.5565965269
 11
18.1247639703
 21
16.5962843263
  0
LINE
  5
5DA
100
AcDbEntity
  8
RACCORDO
100
AcDbLine
 62
7
  6
CONTINUOUS
 10
18.080501204
 20
16.7465699433
 11
17.6783424613
 21
17.4431293177
  0
LINE
  5
5DB
100
AcDbEntity
  8
ASSI
100
AcDbLine
 62
7
  6
CONTINUOUS
 10
18.080501204
 20
16.7465699433
 11
17.6783424613
 21
17.4431293177
  0
LINE
  5
5DC
100
AcDbEntity
  8
RACCORDO
100
AcDbLine
 62
7
  6
CONTINUOUS
 10
24.6357708156
 20
2.053718755
 11
24.6357708156
 21
-7.4057443819
  0
LINE
  5
5DD
100
AcDbEntity
  8
ASSI
100
AcDbLine
 62
7
  6
CONTINUOUS
 10
24.6357708156
 20
2.053718755
 11
24.6357708156
 21
1.9720717273
  0
LINE
  5
5DE
100
AcDbEntity
  8
ASSI
100
AcDbLine
 62
7
  6
CONTINUOUS
 10
24.6357708156
 20
1.9720717273
 11
24.6357708156
 21
-7.5038074925
  0
LINE
  5
5DF
100
AcDbEntity
  8
ASSI
100
AcDbLine
 62
7
  6
CONTINUOUS
 10
24.8479028499
 20
4.6665301691
 11
24.8479028499
 21
7.3382429837
  0
LINE
  5
5E0
100
AcDbEntity
  8
ASSI
100
AcDbLine
 62
7
  6
CONTINUOUS
 10
24.8479028499
 20
8.748881553
 11
24.8479028499
 21
11.4205943676
  0
LINE
  5
5E1
100
AcDbEntity
  8
ASSI
100
AcDbLine
 62
7
  6
CONTINUOUS
 10
24.8479028499
 20
12.831232937
 11
24.8479028499
 21
15.5029457516
  0
LINE
  5
5E2
100
AcDbEntity
  8
ASSI
100
AcDbLine
 62
7
  6
CONTINUOUS
 10
24.8479028499
 20
16.913584321
 11
24.8479028499
 21
19.5852971356
  0
LINE
  5
5E3
100
AcDbEntity
  8
RACCORDO
100
AcDbLine
 62
7
  6
CONTINUOUS
 10
25.7056872285
 20
20.2893791615
 11
25.7056872285
 21
20.1740736446
  0
LINE
  5
5E4
100
AcDbEntity
  8
ASSI
100
AcDbLine
 62
7
  6
CONTINUOUS
 10
25.7056872285
 20
20.2893791615
 11
25.7056872285
 21
20.1740736446
  0
LINE
  5
5E5
100
AcDbEntity
  8
RACCORDO
100
AcDbLine
 62
7
  6
CONTINUOUS
 10
25.7056872285
 20
16.1733692883
 11
25.7056872285
 21
16.0917222607
  0
LINE
  5
5E6
100
AcDbEntity
  8
ASSI
100
AcDbLine
 62
7
  6
CONTINUOUS
 10
25.7056872285
 20
16.1733692883
 11
25.7056872285
 21
16.0917222607
  0
LINE
  5
5E7
100
AcDbEntity
  8
RACCORDO
100
AcDbLine
 62
7
  6
CONTINUOUS
 10
25.7056872285
 20
12.0910179044
 11
25.7056872285
 21
12.0093708767
  0
LINE
  5
5E8
100
AcDbEntity
  8
ASSI
100
AcDbLine
 62
7
  6
CONTINUOUS
 10
25.7056872285
 20
12.0910179044
 11
25.7056872285
 21
12.0093708767
  0
LINE
  5
5E9
100
AcDbEntity
  8
RACCORDO
100
AcDbLine
 62
7
  6
CONTINUOUS
 10
25.7056872285
 20
8.0086665204
 11
25.7056872285
 21
7.9270194927
  0
LINE
  5
5EA
100
AcDbEntity
  8
ASSI
100
AcDbLine
 62
7
  6
CONTINUOUS
 10
25.7056872285
 20
8.0086665204
 11
25.7056872285
 21
7.9270194927
  0
LINE
  5
5EB
100
AcDbEntity
  8
RACCORDO
100
AcDbLine
 62
7
  6
CONTINUOUS
 10
25.7056872285
 20
3.9263151364
 11
25.7056872285
 21
-6.8031039787
  0
LINE
  5
5EC
100
AcDbEntity
  8
ASSI
100
AcDbLine
 62
7
  6
CONTINUOUS
 10
25.7056872285
 20
3.9263151364
 11
25.7056872285
 21
-6.8031039787
  0
LWPOLYLINE
  5
5ED
100
AcDbEntity
  8
ASSI
100
AcDbPolyline
 62
7
  6
CONTINUOUS
 90
28
 70
0
 10
24.6357708156
 20
-7.5038074925
 10
24.6355593658
 20
-7.5205383714
 10
24.6349239077
 20
-7.5369948063
 10
24.6338644411
 20
-7.5531767972
 10
24.6323785716
 20
-7.5691048867
 10
24.6304686936
 20
-7.5847585323
 10
24.6281419908
 20
-7.6000761061
 10
24.6253985441
 20
-7.6150458751
 10
24.6222382726
 20
-7.6296795724
 10
24.6186681171
 20
-7.6439507697
 10
24.6146880311
 20
-7.6578597281
 10
24.6102980611
 20
-7.6714061865
 10
24.6055052878
 20
-7.6845629336
 10
24.6003048296
 20
-7.6973369113
 10
24.5947015681
 20
-7.7097211777
 10
24.5887172293
 20
-7.7216676956
 10
24.5823543041
 20
-7.7331670728
 10
24.5756103016
 20
-7.7442287015
 10
24.5684994747
 20
-7.7548327213
 10
24.5610219978
 20
-7.7649789113
 10
24.5531776966
 20
-7.7746674925
 10
24.5449803003
 20
-7.7838792669
 10
24.5364226591
 20
-7.7926185025
 10
24.5275119229
 20
-7.8008809315
 10
24.5182832711
 20
-7.8086345526
 10
24.50874843
 20
-7.8158686987
 10
24.4988956733
 20
-7.822594037
 10
24.4887421788
 20
-7.8288006515
  0
LWPOLYLINE
  5
5EE
100
AcDbEntity
  8
ASSI
100
AcDbPolyline
 62
7
  6
CONTINUOUS
 90
28
 70
0
 10
3.7719429216
 20
26.836457625
 10
3.7573205284
 20
26.8446534451
 10
3.7427351365
 20
26.8523395642
 10
3.7281867457
 20
26.8595159823
 10
3.7136631163
 20
26.866187906
 10
3.6991764881
 20
26.8723501287
 10
3.6847635808
 20
26.877987031
 10
3.6704245813
 20
26.88309728
 10
3.6561593026
 20
26.8876822086
 10
3.6420039032
 20
26.8917301952
 10
3.6279586621
 20
26.8952398776
 10
3.6140233002
 20
26.8982126179
 10
3.6002331401
 20
26.9006408812
 10
3.58658855
 20
26.9025232861
 10
3.5730891616
 20
26.9038612139
 10
3.5597691921
 20
26.9046512733
 10
3.5466290967
 20
26.9048920745
 10
3.5336684201
 20
26.9045850072
 10
3.5209200143
 20
26.90373085
 10
3.5083844176
 20
26.9023282148
 10
3.4960610915
 20
26.9003784895
 10
3.4839812723
 20
26.8978866162
 10
3.4721455778
 20
26.8948512195
 10
3.4605533902
 20
26.8912736748
 10
3.4492340924
 20
26.8871630501
 10
3.4381974789
 20
26.8825223682
 10
3.4274337553
 20
26.8773486064
 10
3.4169429216
 20
26.8716417646
  0
LINE
  5
5EF
100
AcDbEntity
  8
ASSI
100
AcDbLine
 62
7
  6
CONTINUOUS
 10
3.7719429216
 20
26.836457625
 11
6.4560554713
 21
25.2866846787
  0
LINE
  5
5F0
100
AcDbEntity
  8
RACCORDO
100
AcDbLine
 62
7
  6
CONTINUOUS
 10
3.9503302402
 20
26.751699411
 11
8.002963066
 21
24.4117600088
  0
LINE
  5
5F1
100
AcDbEntity
  8
ASSI
100
AcDbLine
 62
7
  6
CONTINUOUS
 10
3.9503302402
 20
26.751699411
 11
8.002963066
 21
24.4117600088
  0
LINE
  5
5F2
100
AcDbEntity
  8
RACCORDO
100
AcDbLine
 62
7
  6
CONTINUOUS
 10
25.4935471165
 20
16.5407974133
 11
24.8479028499
 21
16.913584321
  0
LINE
  5
5F3
100
AcDbEntity
  8
ASSI
100
AcDbLine
 62
7
  6
CONTINUOUS
 10
25.4935471165
 20
16.5407974133
 11
24.8479028499
 21
16.913584321
  0
LINE
  5
5F4
100
AcDbEntity
  8
RACCORDO
100
AcDbLine
 62
7
  6
CONTINUOUS
 10
24.5588548442
 20
22.2757511167
 11
20.9680637172
 21
24.3490289103
  0
LINE
  5
5F5
100
AcDbEntity
  8
ASSI
100
AcDbLine
 62
7
  6
CONTINUOUS
 10
24.5588548442
 20
22.2757511167
 11
20.9680637172
 21
24.3490289103
  0
LINE
  5
5F6
100
AcDbEntity
  8
RACCORDO
100
AcDbLine
 62
7
  6
CONTINUOUS
 10
11.2776579444
 20
31.0872061417
 11
20.5438158031
 21
25.7370427263
  0
LINE
  5
5F7
100
AcDbEntity
  8
ASSI
100
AcDbLine
 62
7
  6
CONTINUOUS
 10
11.2776579444
 20
31.0872061417
 11
20.5438158031
 21
25.7370427263
  0
LINE
  5
5F8
100
AcDbEntity
  8
RACCORDO
100
AcDbLine
 62
7
  6
CONTINUOUS
 10
25.4985883333
 20
20.9862651544
 11
25.0588358057
 21
21.747938874
  0
LINE
  5
5F9
100
AcDbEntity
  8
ASSI
100
AcDbLine
 62
7
  6
CONTINUOUS
 10
25.4985883333
 20
20.9862651544
 11
25.0588358057
 21
21.747938874
  0
ELLIPSE
  5
5FA
100
AcDbEntity
  8
RACCORDO
100
AcDbEllipse
 62
7
  6
CONTINUOUS
 10
20.5437996481
 20
25.492101644
 30
0.0
 11
-0.1500072497
 21
0.2598034354
 31
0.0
 40
0.5773756362
 41
-2.3562047428
 42
-0.7854845684
  0
ELLIPSE
  5
5FB
100
AcDbEntity
  8
RACCORDO
100
AcDbEllipse
 62
7
  6
CONTINUOUS
 10
11.2776802498
 20
30.2706918962
 30
0.0
 11
-0.5000195414
 21
0.8660580892
 31
0.0
 40
0.5773134593
 41
-0.7853991688
 42
-0.0000325492
  0
ELLIPSE
  5
5FC
100
AcDbEntity
  8
RACCORDO
100
AcDbEllipse
 62
7
  6
CONTINUOUS
 10
24.9985535218
 20
-6.3947880838
 30
0.0
 11
-0.5000668544
 21
0.8660307748
 31
0.0
 40
0.5773134558
 41
-3.1416567412
 42
-2.3562901216
  0
ELLIPSE
  5
5FD
100
AcDbEntity
  8
RACCORDO
100
AcDbEllipse
 62
7
  6
CONTINUOUS
 10
25.4935471165
 20
4.0488021784
 30
0.0
 11
-0.1500186713
 21
0.2598034368
 31
0.0
 40
0.5773316664
 41
-2.3562808875
 42
-0.7854845607
  0
ELLIPSE
  5
5FE
100
AcDbEntity
  8
RACCORDO
100
AcDbEllipse
 62
7
  6
CONTINUOUS
 10
25.4935471165
 20
8.0495065347
 30
0.0
 11
-0.1500186713
 21
0.2598034368
 31
0.0
 40
0.5773316664
 41
-3.1459423927
 42
-2.3562808875
  0
ELLIPSE
  5
5FF
100
AcDbEntity
  8
RACCORDO
100
AcDbEllipse
 62
7
  6
CONTINUOUS
 10
25.4935471165
 20
8.1311535623
 30
0.0
 11
-0.1500186713
 21
0.2598034368
 31
0.0
 40
0.5773316664
 41
-2.3562808875
 42
-0.7854845607
  0
ELLIPSE
  5
600
100
AcDbEntity
  8
RACCORDO
100
AcDbEllipse
 62
7
  6
CONTINUOUS
 10
25.4935471165
 20
12.1318579186
 30
0.0
 11
-0.1500186713
 21
0.2598034368
 31
0.0
 40
0.5773316664
 41
-3.1459423927
 42
-2.3562808875
  0
ELLIPSE
  5
601
100
AcDbEntity
  8
RACCORDO
100
AcDbEllipse
 62
7
  6
CONTINUOUS
 10
25.4935471165
 20
12.2135049463
 30
0.0
 11
-0.1500186713
 21
0.2598034368
 31
0.0
 40
0.5773316664
 41
-2.3562808875
 42
-0.7854845607
  0
ELLIPSE
  5
602
100
AcDbEntity
  8
RACCORDO
100
AcDbEllipse
 62
7
  6
CONTINUOUS
 10
25.4935471165
 20
16.2142093026
 30
0.0
 11
-0.1500186713
 21
0.2598034368
 31
0.0
 40
0.5773316664
 41
-3.1459423927
 42
-2.3562808875
  0
ELLIPSE
  5
603
100
AcDbEntity
  8
RACCORDO
100
AcDbEllipse
 62
7
  6
CONTINUOUS
 10
25.4935471165
 20
16.2958563303
 30
0.0
 11
-0.1500186713
 21
0.2598034368
 31
0.0
 40
0.5773316664
 41
-2.3562808875
 42
-0.7854845607
  0
ELLIPSE
  5
604
100
AcDbEntity
  8
RACCORDO
100
AcDbEllipse
 62
7
  6
CONTINUOUS
 10
25.4935471165
 20
20.2965606866
 30
0.0
 11
-0.1500186713
 21
0.2598034368
 31
0.0
 40
0.5773316664
 41
-3.1459423927
 42
-2.3562808875
  0
ELLIPSE
  5
605
100
AcDbEntity
  8
RACCORDO
100
AcDbEllipse
 62
7
  6
CONTINUOUS
 10
24.9985535218
 20
20.6976435461
 30
0.0
 11
-0.500051088
 21
0.8660034525
 31
0.0
 40
0.5773498789
 41
-2.3562585873
 42
-1.5708919678
  0
ELLIPSE
  5
606
100
AcDbEntity
  8
RACCORDO
100
AcDbEllipse
 62
7
  6
CONTINUOUS
 10
24.5588325388
 20
21.4592626289
 30
0.0
 11
-0.5000037704
 21
0.8660307695
 31
0.0
 40
0.5773498824
 41
-1.5707973348
 42
-0.7854307152
  0
ELLIPSE
  5
607
100
AcDbEntity
  8
DRAFT
100
AcDbEllipse
 62
7
  6
CONTINUOUS
 10
20.4577968976
 20
3.8533010035
 30
0.0
 11
1.0610913518
 21
1.8699624759
 31
0.0
 40
0.5722717666
 41
-2.8628032189
 42
-2.3604340017
  0
ELLIPSE
  5
608
100
AcDbEntity
  8
DRAFT
100
AcDbEllipse
 62
7
  6
CONTINUOUS
 10
20.4577968976
 20
16.1003551554
 30
0.0
 11
1.0610913518
 21
1.8699624759
 31
0.0
 40
0.5722717666
 41
-2.8628032189
 42
-2.3604340017
  0
ELLIPSE
  5
609
100
AcDbEntity
  8
DRAFT
100
AcDbEllipse
 62
7
  6
CONTINUOUS
 10
20.4577968976
 20
12.0180037714
 30
0.0
 11
1.0610913518
 21
1.8699624759
 31
0.0
 40
0.5722717666
 41
-2.8628032189
 42
-2.3604340017
  0
ELLIPSE
  5
60A
100
AcDbEntity
  8
DRAFT
100
AcDbEllipse
 62
7
  6
CONTINUOUS
 10
20.4577968976
 20
7.9356523875
 30
0.0
 11
1.0610913518
 21
1.8699624759
 31
0.0
 40
0.5722717666
 41
-2.8628032189
 42
-2.3604340017
  0
ELLIPSE
  5
60B
100
AcDbEntity
  8
RACCORDO
100
AcDbEllipse
 62
7
  6
CONTINUOUS
 10
20.9680798722
 20
24.5939699926
 30
0.0
 11
-0.1500072497
 21
0.2598034354
 31
0.0
 40
0.5773756362
 41
0.7853879108
 42
2.3561080852
  0
ELLIPSE
  5
60C
100
AcDbEntity
  8
RACCORDO
100
AcDbEllipse
 62
7
  6
CONTINUOUS
 10
8.002979221
 20
24.1668002711
 30
0.0
 11
-0.1500186702
 21
0.2598232227
 31
0.0
 40
0.5772877058
 41
-0.7854084013
 42
0.0088311374
  0
ELLIPSE
  5
60D
100
AcDbEntity
  8
RACCORDO
100
AcDbEllipse
 62
7
  6
CONTINUOUS
 10
23.9286371089
 20
-6.997428487
 30
0.0
 11
-0.5000668544
 21
0.8660307748
 31
0.0
 40
0.5773134558
 41
-2.4217560886
 42
-2.3562901216
  0
ELLIPSE
  5
60E
100
AcDbEntity
  8
RACCORDO
100
AcDbEllipse
 62
7
  6
CONTINUOUS
 10
3.9503525456
 20
25.9351851655
 30
0.0
 11
-0.5000195414
 21
0.8660580892
 31
0.0
 40
0.5773134593
 41
5.4977861384
 42
5.707770874
  0
ELLIPSE
  5
60F
100
AcDbEntity
  8
RACCORDO
100
AcDbEllipse
 62
7
  6
CONTINUOUS
 10
17.1783391944
 20
17.1544530726
 30
0.0
 11
-0.5000037704
 21
0.8660307695
 31
0.0
 40
0.5773498824
 41
4.7123879724
 42
5.4977545919
  0
ELLIPSE
  5
610
100
AcDbEntity
  8
RACCORDO
100
AcDbEllipse
 62
7
  6
CONTINUOUS
 10
17.5804663926
 20
16.457948335
 30
0.0
 11
-0.500051088
 21
0.8660034525
 31
0.0
 40
0.5773498789
 41
3.9269267198
 42
4.7122933394
  0
ELLIPSE
  5
611
100
AcDbEntity
  8
RACCORDO
100
AcDbEllipse
 62
7
  6
CONTINUOUS
 10
13.5499927429
 20
20.3108666165
 30
0.0
 11
-0.1500072497
 21
0.2598034354
 31
0.0
 40
0.5773756362
 41
0.7853879108
 42
2.3561080852
  0
ELLIPSE
  5
612
100
AcDbEntity
  8
RACCORDO
100
AcDbEllipse
 62
7
  6
CONTINUOUS
 10
18.6442389035
 20
-0.93762384
 30
0.0
 11
0.2533110813
 21
0.431095234
 31
0.0
 40
0.5823475934
 41
2.3606829537
 42
3.9314792805
  0
ELLIPSE
  5
613
100
AcDbEntity
  8
ASSI
100
AcDbEllipse
 62
7
  6
CONTINUOUS
 10
20.5437996481
 20
25.492101644
 30
0.0
 11
-0.1500072497
 21
0.2598034354
 31
0.0
 40
0.5773756362
 41
-2.3562047428
 42
-0.7854845684
  0
ELLIPSE
  5
614
100
AcDbEntity
  8
ASSI
100
AcDbEllipse
 62
7
  6
CONTINUOUS
 10
11.2776802498
 20
30.2706918962
 30
0.0
 11
-0.5000195414
 21
0.8660580892
 31
0.0
 40
0.5773134593
 41
-0.7853991688
 42
-0.0000325492
  0
ELLIPSE
  5
615
100
AcDbEntity
  8
ASSI
100
AcDbEllipse
 62
7
  6
CONTINUOUS
 10
24.9985535218
 20
-6.3947880838
 30
0.0
 11
-0.5000668544
 21
0.8660307748
 31
0.0
 40
0.5773134558
 41
-3.1416567412
 42
-2.3562901216
  0
ELLIPSE
  5
616
100
AcDbEntity
  8
ASSI
100
AcDbEllipse
 62
7
  6
CONTINUOUS
 10
25.4935471165
 20
4.0488021784
 30
0.0
 11
-0.1500186713
 21
0.2598034368
 31
0.0
 40
0.5773316664
 41
-2.3562808875
 42
-0.7854845607
  0
ELLIPSE
  5
617
100
AcDbEntity
  8
ASSI
100
AcDbEllipse
 62
7
  6
CONTINUOUS
 10
25.4935471165
 20
8.0495065347
 30
0.0
 11
-0.1500186713
 21
0.2598034368
 31
0.0
 40
0.5773316664
 41
-3.1459423927
 42
-2.3562808875
  0
ELLIPSE
  5
618
100
AcDbEntity
  8
ASSI
100
AcDbEllipse
 62
7
  6
CONTINUOUS
 10
25.4935471165
 20
8.1311535623
 30
0.0
 11
-0.1500186713
 21
0.2598034368
 31
0.0
 40
0.5773316664
 41
-2.3562808875
 42
-0.7854845607
  0
ELLIPSE
  5
619
100
AcDbEntity
  8
ASSI
100
AcDbEllipse
 62
7
  6
CONTINUOUS
 10
25.4935471165
 20
12.1318579186
 30
0.0
 11
-0.1500186713
 21
0.2598034368
 31
0.0
 40
0.5773316664
 41
-3.1459423927
 42
-2.3562808875
  0
ELLIPSE
  5
61A
100
AcDbEntity
  8
ASSI
100
AcDbEllipse
 62
7
  6
CONTINUOUS
 10
25.4935471165
 20
12.2135049463
 30
0.0
 11
-0.1500186713
 21
0.2598034368
 31
0.0
 40
0.5773316664
 41
-2.3562808875
 42
-0.7854845607
  0
ELLIPSE
  5
61B
100
AcDbEntity
  8
ASSI
100
AcDbEllipse
 62
7
  6
CONTINUOUS
 10
25.4935471165
 20
16.2142093026
 30
0.0
 11
-0.1500186713
 21
0.2598034368
 31
0.0
 40
0.5773316664
 41
-3.1459423927
 42
-2.3562808875
  0
ELLIPSE
  5
61C
100
AcDbEntity
  8
ASSI
100
AcDbEllipse
 62
7
  6
CONTINUOUS
 10
25.4935471165
 20
16.2958563303
 30
0.0
 11
-0.1500186713
 21
0.2598034368
 31
0.0
 40
0.5773316664
 41
-2.3562808875
 42
-0.7854845607
  0
ELLIPSE
  5
61D
100
AcDbEntity
  8
ASSI
100
AcDbEllipse
 62
7
  6
CONTINUOUS
 10
25.4935471165
 20
20.2965606866
 30
0.0
 11
-0.1500186713
 21
0.2598034368
 31
0.0
 40
0.5773316664
 41
-3.1459423927
 42
-2.3562808875
  0
ELLIPSE
  5
61E
100
AcDbEntity
  8
ASSI
100
AcDbEllipse
 62
7
  6
CONTINUOUS
 10
24.9985535218
 20
20.6976435461
 30
0.0
 11
-0.500051088
 21
0.8660034525
 31
0.0
 40
0.5773498789
 41
-2.3562585873
 42
-1.5708919678
  0
ELLIPSE
  5
61F
100
AcDbEntity
  8
ASSI
100
AcDbEllipse
 62
7
  6
CONTINUOUS
 10
24.5588325388
 20
21.4592626289
 30
0.0
 11
-0.5000037704
 21
0.8660307695
 31
0.0
 40
0.5773498824
 41
-1.5707973348
 42
-0.7854307152
  0
ELLIPSE
  5
620
100
AcDbEntity
  8
ASSI
100
AcDbEllipse
 62
7
  6
CONTINUOUS
 10
20.9680798722
 20
24.5939699926
 30
0.0
 11
-0.1500072497
 21
0.2598034354
 31
0.0
 40
0.5773756362
 41
0.7853879108
 42
2.3561080852
  0
ELLIPSE
  5
621
100
AcDbEntity
  8
ASSI
100
AcDbEllipse
 62
7
  6
CONTINUOUS
 10
20.4577968976
 20
7.9356523875
 30
0.0
 11
1.0610913518
 21
1.8699624759
 31
0.0
 40
0.5722717666
 41
-2.8628032189
 42
-2.3604340017
  0
ELLIPSE
  5
622
100
AcDbEntity
  8
ASSI
100
AcDbEllipse
 62
7
  6
CONTINUOUS
 10
20.4577968976
 20
12.0180037714
 30
0.0
 11
1.0610913518
 21
1.8699624759
 31
0.0
 40
0.5722717666
 41
-2.8628032189
 42
-2.3604340017
  0
ELLIPSE
  5
623
100
AcDbEntity
  8
ASSI
100
AcDbEllipse
 62
7
  6
CONTINUOUS
 10
20.4577968976
 20
16.1003551554
 30
0.0
 11
1.0610913518
 21
1.8699624759
 31
0.0
 40
0.5722717666
 41
-2.8628032189
 42
-2.3604340017
  0
ELLIPSE
  5
624
100
AcDbEntity
  8
ASSI
100
AcDbEllipse
 62
7
  6
CONTINUOUS
 10
20.4577968976
 20
3.8533010035
 30
0.0
 11
1.0610913518
 21
1.8699624759
 31
0.0
 40
0.5722717666
 41
-2.8628032189
 42
-2.3604340017
  0
ELLIPSE
  5
625
100
AcDbEntity
  8
ASSI
100
AcDbEllipse
 62
7
  6
CONTINUOUS
 10
13.5499927429
 20
20.3108666165
 30
0.0
 11
-0.1500072497
 21
0.2598034354
 31
0.0
 40
0.5773756362
 41
0.7853879108
 42
2.3561080852
  0
ELLIPSE
  5
626
100
AcDbEntity
  8
ASSI
100
AcDbEllipse
 62
7
  6
CONTINUOUS
 10
3.9503525456
 20
25.9351851655
 30
0.0
 11
-0.5000195414
 21
0.8660580892
 31
0.0
 40
0.5773134593
 41
5.4977861384
 42
5.707770874
  0
ELLIPSE
  5
627
100
AcDbEntity
  8
ASSI
100
AcDbEllipse
 62
7
  6
CONTINUOUS
 10
17.1783391944
 20
17.1544530726
 30
0.0
 11
-0.5000037704
 21
0.8660307695
 31
0.0
 40
0.5773498824
 41
4.7123879724
 42
5.4977545919
  0
ELLIPSE
  5
628
100
AcDbEntity
  8
ASSI
100
AcDbEllipse
 62
7
  6
CONTINUOUS
 10
17.5804663926
 20
16.457948335
 30
0.0
 11
-0.500051088
 21
0.8660034525
 31
0.0
 40
0.5773498789
 41
3.9269267198
 42
4.7122933394
  0
ELLIPSE
  5
629
100
AcDbEntity
  8
ASSI
100
AcDbEllipse
 62
7
  6
CONTINUOUS
 10
8.002979221
 20
24.1668002711
 30
0.0
 11
-0.1500186702
 21
0.2598232227
 31
0.0
 40
0.5772877058
 41
-0.7854084013
 42
0.0088311374
  0
ELLIPSE
  5
62A
100
AcDbEntity
  8
ASSI
100
AcDbEllipse
 62
7
  6
CONTINUOUS
 10
18.6442389035
 20
-0.93762384
 30
0.0
 11
0.2533110813
 21
0.431095234
 31
0.0
 40
0.5823475934
 41
2.3606829537
 42
3.9314792805
  0
ELLIPSE
  5
62B
100
AcDbEntity
  8
ASSI
100
AcDbEllipse
 62
7
  6
CONTINUOUS
 10
23.9286371089
 20
-6.997428487
 30
0.0
 11
-0.5000668544
 21
0.8660307748
 31
0.0
 40
0.5773134558
 41
-2.4217560886
 42
-2.3562901216
  0
ELLIPSE
  5
62C
100
AcDbEntity
  8
RACCORDO
100
AcDbEllipse
 62
7
  6
CONTINUOUS
 10
0.6135926846
 20
-20.510287941
 30
0.0
 11
-1.000389877
 21
1.7321775001
 31
0.0
 40
0.5772588101
 41
-3.1289935798
 42
-2.3564320312
  0
ELLIPSE
  5
62D
100
AcDbEntity
  8
RACCORDO
100
AcDbEllipse
 62
7
  6
CONTINUOUS
 10
0.6135926846
 20
8.2634894415
 30
0.0
 11
-1.0002637881
 21
1.7319588718
 31
0.0
 40
0.5774045053
 41
-2.3563059395
 42
-1.5710339479
  0
ELLIPSE
  5
62E
100
AcDbEntity
  8
RACCORDO
100
AcDbEllipse
 62
7
  6
CONTINUOUS
 10
-4.2497566203
 20
-23.459417584
 30
0.0
 11
-1.000389877
 21
1.7321775001
 31
0.0
 40
0.5772588101
 41
-2.4806714519
 42
-2.3564320312
  0
ELLIPSE
  5
62F
100
AcDbEntity
  8
RACCORDO
100
AcDbEllipse
 62
7
  6
CONTINUOUS
 10
-4.2497566203
 20
5.3970043445
 30
0.0
 11
-1.0002637881
 21
1.7319588718
 31
0.0
 40
0.5774045053
 41
-2.3563059395
 42
-2.2320665187
  0
ELLIPSE
  5
630
100
AcDbEntity
  8
RACCORDO
100
AcDbEllipse
 62
7
  6
CONTINUOUS
 10
-4.8237451082
 20
-20.675709603
 30
0.0
 11
0.9999591619
 21
0.0153860996
 31
0.0
 40
0.5873737521
 41
-0.6897159224
 42
-0.0091799745
  0
ELLIPSE
  5
631
100
AcDbEntity
  8
RACCORDO
100
AcDbEllipse
 62
7
  6
CONTINUOUS
 10
-4.8237451082
 20
-2.5500694582
 30
0.0
 11
0.9999591619
 21
0.0153860996
 31
0.0
 40
0.5873737521
 41
-0.6897159224
 42
-0.0091799745
  0
ELLIPSE
  5
632
100
AcDbEntity
  8
RACCORDO
100
AcDbEllipse
 62
7
  6
CONTINUOUS
 10
-20.6897200024
 20
15.4190547734
 30
0.0
 11
-0.2498600223
 21
0.43379745
 31
0.0
 40
0.5768037941
 41
-0.7837728977
 42
0.035148171
  0
ELLIPSE
  5
633
100
AcDbEntity
  8
RACCORDO
100
AcDbEllipse
 62
7
  6
CONTINUOUS
 10
-5.6991639534
 20
6.7636955865
 30
0.0
 11
-0.2496303025
 21
0.4334023309
 31
0.0
 40
0.5778584463
 41
-2.3545649475
 42
-0.7846820092
  0
ELLIPSE
  5
634
100
AcDbEntity
  8
RACCORDO
100
AcDbEllipse
 62
7
  6
CONTINUOUS
 10
-5.6991639534
 20
-28.8682138751
 30
0.0
 11
-0.2498600223
 21
0.43379745
 31
0.0
 40
0.5768037941
 41
-3.176779391
 42
-2.355482613
  0
ELLIPSE
  5
635
100
AcDbEntity
  8
ASSI
100
AcDbEllipse
 62
7
  6
CONTINUOUS
 10
-5.6991639534
 20
6.7636955865
 30
0.0
 11
-0.2496303025
 21
0.4334023309
 31
0.0
 40
0.5778584463
 41
-2.3545649475
 42
-0.7846820092
  0
ELLIPSE
  5
636
100
AcDbEntity
  8
ASSI
100
AcDbEllipse
 62
7
  6
CONTINUOUS
 10
-5.6991639534
 20
-28.8682138751
 30
0.0
 11
-0.2498600223
 21
0.43379745
 31
0.0
 40
0.5768037941
 41
-3.176779391
 42
-2.355482613
  0
ELLIPSE
  5
637
100
AcDbEntity
  8
ASSI
100
AcDbEllipse
 62
7
  6
CONTINUOUS
 10
-4.8237451082
 20
-20.675709603
 30
0.0
 11
0.9999591619
 21
0.0153860996
 31
0.0
 40
0.5873737521
 41
-0.6897159224
 42
-0.0091799745
  0
ELLIPSE
  5
638
100
AcDbEntity
  8
ASSI
100
AcDbEllipse
 62
7
  6
CONTINUOUS
 10
-4.8237451082
 20
-2.5500694582
 30
0.0
 11
0.9999591619
 21
0.0153860996
 31
0.0
 40
0.5873737521
 41
-0.6897159224
 42
-0.0091799745
  0
ELLIPSE
  5
639
100
AcDbEntity
  8
ASSI
100
AcDbEllipse
 62
7
  6
CONTINUOUS
 10
-20.6897200024
 20
15.4190547734
 30
0.0
 11
-0.2498600223
 21
0.43379745
 31
0.0
 40
0.5768037941
 41
-0.7837728977
 42
0.035148171
  0
ELLIPSE
  5
63A
100
AcDbEntity
  8
CURVE
100
AcDbEllipse
 62
253
  6
CONTINUOUS
 10
51.5294271405
 20
17.3783828142
 30
0.0
 11
151.4881313189
 21
10.6670011481
 31
0.0
 40
0.2353638402
 41
-2.0881612893
 42
-2.0880475516
  0
ELLIPSE
  5
63B
100
AcDbEntity
  8
CURVE
100
AcDbEllipse
 62
253
  6
CONTINUOUS
 10
49.6935695776
 20
18.4383839623
 30
0.0
 11
127.1278901945
 21
28.0816351958
 31
0.0
 40
0.2018878868
 41
-2.2302726247
 42
-2.2063799552
  0
ELLIPSE
  5
63C
100
AcDbEntity
  8
CURVE
100
AcDbEllipse
 62
253
  6
CONTINUOUS
 10
48.1053540588
 20
19.3553996979
 30
0.0
 11
112.3413814183
 21
38.1487888386
 31
0.0
 40
0.1520626734
 41
-2.3150528878
 42
-2.3149047117
  0
ELLIPSE
  5
63D
100
AcDbEntity
  8
CURVE
100
AcDbEllipse
 62
253
  6
CONTINUOUS
 10
45.7688198406
 20
20.7044852718
 30
0.0
 11
92.5041427061
 21
50.5035718753
 31
0.0
 40
0.0232299098
 41
-2.4336097764
 42
-2.4334295967
  0
ELLIPSE
  5
63E
100
AcDbEntity
  8
CURVE
100
AcDbEllipse
 62
253
  6
CONTINUOUS
 10
44.0988974611
 20
21.6686775247
 30
0.0
 11
79.9830491685
 21
57.6125700632
 31
0.0
 40
0.1116324801
 41
2.4979736055
 42
2.4981823934
  0
ELLIPSE
  5
63F
100
AcDbEntity
  8
CURVE
100
AcDbEllipse
 62
253
  6
CONTINUOUS
 10
42.7896399241
 20
22.4246264177
 30
0.0
 11
70.8687985285
 21
62.676212779
 31
0.0
 40
0.2385289304
 41
2.5276610034
 42
2.5278937849
  0
ELLIPSE
  5
640
100
AcDbEntity
  8
CURVE
100
AcDbEllipse
 62
253
  6
CONTINUOUS
 10
42.0496042557
 20
22.8519137378
 30
0.0
 11
65.752858294
 21
65.585136621
 31
0.0
 40
0.3162001451
 41
-3.7500302845
 42
-3.7499542821
  0
ELLIPSE
  5
641
100
AcDbEntity
  8
CURVE
100
AcDbEllipse
 62
253
  6
CONTINUOUS
 10
41.3703473004
 20
23.2441081907
 30
0.0
 11
60.8618512666
 21
68.4504279572
 31
0.0
 40
0.3897997728
 41
-3.7547730037
 42
-3.7545190381
  0
ELLIPSE
  5
642
100
AcDbEntity
  8
CURVE
100
AcDbEllipse
 62
253
  6
CONTINUOUS
 10
40.4046731279
 20
23.8016763552
 30
0.0
 11
53.057385155
 21
73.1520838066
 31
0.0
 40
0.4947465019
 41
-3.7831103356
 42
-3.7828488032
  0
ELLIPSE
  5
643
100
AcDbEntity
  8
CURVE
100
AcDbEllipse
 62
253
  6
CONTINUOUS
 10
34.9241625114
 20
26.9660544982
 30
0.0
 11
-114.7807850596
 21
133.9060924333
 31
0.0
 40
0.4107608182
 41
-4.7052380122
 42
-4.7035653471
  0
ELLIPSE
  5
644
100
AcDbEntity
  8
CURVE
100
AcDbEllipse
 62
253
  6
CONTINUOUS
 10
34.4998984427
 20
27.2110192542
 30
0.0
 11
-114.7807850596
 21
133.9060924333
 31
0.0
 40
0.4107608182
 41
-4.7023407194
 42
-4.7006676356
  0
ELLIPSE
  5
645
100
AcDbEntity
  8
CURVE
100
AcDbEllipse
 62
253
  6
CONTINUOUS
 10
39.4776519004
 20
24.3369267936
 30
0.0
 11
43.5102807644
 21
78.7958371827
 31
0.0
 40
0.5896538345
 41
-3.8456483177
 42
-3.8453853514
  0
ELLIPSE
  5
646
100
AcDbEntity
  8
CURVE
100
AcDbEllipse
 62
253
  6
CONTINUOUS
 10
38.5430387536
 20
24.8765607112
 30
0.0
 11
29.8933045739
 21
85.831101474
 31
0.0
 40
0.6680334083
 41
-3.9608634207
 42
-3.9606041577
  0
ELLIPSE
  5
647
100
AcDbEntity
  8
CURVE
100
AcDbEllipse
 62
253
  6
CONTINUOUS
 10
37.4822914875
 20
25.4890228883
 30
0.0
 11
7.7426346079
 21
93.9901042821
 31
0.0
 40
0.7147483141
 41
-4.1595751764
 42
-4.159326805
  0
ELLIPSE
  5
648
100
AcDbEntity
  8
CURVE
100
AcDbEllipse
 62
253
  6
CONTINUOUS
 10
36.3611138165
 20
26.1363768239
 30
0.0
 11
-18.4603203327
 21
99.7423257534
 31
0.0
 40
0.7037541224
 41
-4.3746140611
 42
-4.3743833841
  0
ELLIPSE
  5
649
100
AcDbEntity
  8
CURVE
100
AcDbEllipse
 62
253
  6
CONTINUOUS
 10
35.0193298695
 20
26.9111060584
 30
0.0
 11
-43.9135980234
 21
104.5803008979
 31
0.0
 40
0.6448764009
 41
-4.5372692098
 42
-4.5370607573
  0
ELLIPSE
  5
64A
100
AcDbEntity
  8
CURVE
100
AcDbEllipse
 62
253
  6
CONTINUOUS
 10
33.2951337096
 20
27.9066353119
 30
0.0
 11
-68.5876778848
 21
112.0161090997
 31
0.0
 40
0.5593536117
 41
-4.6330472138
 42
-4.6328659383
  0
ELLIPSE
  5
64B
100
AcDbEntity
  8
CURVE
100
AcDbEllipse
 62
253
  6
CONTINUOUS
 10
52.6952105953
 20
16.7052740581
 30
0.0
 11
127.1529762512
 21
28.0640928517
 31
0.0
 40
0.2019486814
 41
-2.2273855069
 42
-2.2257124231
  0
ELLIPSE
  5
64C
100
AcDbEntity
  8
CURVE
100
AcDbEllipse
 62
253
  6
CONTINUOUS
 10
52.2709465266
 20
16.9502388141
 30
0.0
 11
127.1529762512
 21
28.0640928517
 31
0.0
 40
0.2019486814
 41
-2.2244877954
 42
-2.2228151303
  0
ELLIPSE
  5
64D
100
AcDbEntity
  8
CURVE
100
AcDbEllipse
 62
253
  6
CONTINUOUS
 10
29.880102667
 20
29.8784314354
 30
0.0
 11
-108.4421599389
 21
130.526830247
 31
0.0
 40
0.427973181
 41
-4.6915539882
 42
-4.6914160705
  0
ELLIPSE
  5
64E
100
AcDbEntity
  8
CURVE
100
AcDbEllipse
 62
253
  6
CONTINUOUS
 10
25.1695907024
 20
32.5982220072
 30
0.0
 11
-159.0245084432
 21
158.8010160556
 31
0.0
 40
0.3169303697
 41
-4.7031969721
 42
-4.7030965018
  0
ELLIPSE
  5
64F
100
AcDbEntity
  8
CURVE
100
AcDbEllipse
 62
253
  6
CONTINUOUS
 10
56.8669181493
 20
14.2965824002
 30
0.0
 11
166.7054112771
 21
-0.2990012915
 31
0.0
 40
0.2391755869
 41
-2.0562935906
 42
-2.0561934666
  0
ELLIPSE
  5
650
100
AcDbEntity
  8
CURVE
100
AcDbEllipse
 62
253
  6
CONTINUOUS
 10
52.1647836093
 20
17.011535952
 30
0.0
 11
121.8296695542
 21
31.7556711435
 31
0.0
 40
0.1874161698
 41
-2.2626402282
 42
-2.2625026692
  0
ELLIPSE
  5
651
100
AcDbEntity
  8
CURVE
100
AcDbEllipse
 62
253
  6
CONTINUOUS
 10
49.4054933142
 20
18.6047155864
 30
0.0
 11
98.0493710279
 21
47.199255772
 31
0.0
 40
0.0684318389
 41
-2.4036085962
 42
-2.4034372428
  0
ELLIPSE
  5
652
100
AcDbEntity
  8
CURVE
100
AcDbEllipse
 62
253
  6
CONTINUOUS
 10
47.5127928345
 20
19.6975371223
 30
0.0
 11
83.6776977478
 21
55.5530242025
 31
0.0
 40
0.0668364455
 41
2.4830639181
 42
2.483264889
  0
ELLIPSE
  5
653
100
AcDbEntity
  8
CURVE
100
AcDbEllipse
 62
253
  6
CONTINUOUS
 10
46.0724363734
 20
20.529180891
 30
0.0
 11
73.6885202871
 21
61.1016871757
 31
0.0
 40
0.1971370207
 41
2.522571177
 42
2.5227951004
  0
ELLIPSE
  5
654
100
AcDbEntity
  8
CURVE
100
AcDbEllipse
 62
253
  6
CONTINUOUS
 10
44.889175871
 20
21.2123806753
 30
0.0
 11
65.6511885906
 21
65.6438191367
 31
0.0
 40
0.3177533393
 41
-3.7488327647
 42
-3.7485914709
  0
ELLIPSE
  5
655
100
AcDbEntity
  8
CURVE
100
AcDbEllipse
 62
253
  6
CONTINUOUS
 10
43.8539677718
 20
21.8100968576
 30
0.0
 11
58.1220077245
 21
70.0895223571
 31
0.0
 40
0.428980888
 41
-3.7610993786
 42
-3.7608456413
  0
ELLIPSE
  5
656
100
AcDbEntity
  8
CURVE
100
AcDbEllipse
 62
253
  6
CONTINUOUS
 10
42.9007325256
 20
22.3604829419
 30
0.0
 11
49.8660750044
 21
75.0750584391
 31
0.0
 40
0.5307999947
 41
-3.8009945493
 42
-3.8007323755
  0
ELLIPSE
  5
657
100
AcDbEntity
  8
CURVE
100
AcDbEllipse
 62
253
  6
CONTINUOUS
 10
50.1208130269
 20
18.1916989493
 30
0.0
 11
127.1564997765
 21
28.0616287957
 31
0.0
 40
0.2019572149
 41
-2.2298939878
 42
-2.2105679101
  0
ELLIPSE
  5
658
100
AcDbEntity
  8
CURVE
100
AcDbEllipse
 62
253
  6
CONTINUOUS
 10
52.2709465266
 20
16.9502388141
 30
0.0
 11
127.1529762512
 21
28.0640928517
 31
0.0
 40
0.2019486814
 41
-2.2135638376
 42
-2.2118926229
  0
ELLIPSE
  5
659
100
AcDbEntity
  8
CURVE
100
AcDbEllipse
 62
253
  6
CONTINUOUS
 10
52.6952105953
 20
16.7052740581
 30
0.0
 11
127.1529762512
 21
28.0640928517
 31
0.0
 40
0.2019486814
 41
-2.2164589632
 42
-2.2147873838
  0
ELLIPSE
  5
65A
100
AcDbEntity
  8
CURVE
100
AcDbEllipse
 62
253
  6
CONTINUOUS
 10
42.0973042936
 20
22.8243723338
 30
0.0
 11
39.1851994403
 21
81.1899253807
 31
0.0
 40
0.6207015348
 41
-3.904409796
 42
-3.9041492609
  0
ELLIPSE
  5
65B
100
AcDbEntity
  8
CURVE
100
AcDbEllipse
 62
253
  6
CONTINUOUS
 10
41.3933390116
 20
23.2308330649
 30
0.0
 11
23.2150370515
 21
88.7091916292
 31
0.0
 40
0.6898577102
 41
-4.0456853707
 42
-4.0454305216
  0
ELLIPSE
  5
65C
100
AcDbEntity
  8
CURVE
100
AcDbEllipse
 62
253
  6
CONTINUOUS
 10
40.6370138338
 20
23.6675257435
 30
0.0
 11
-0.0578917572
 21
96.0267993334
 31
0.0
 40
0.7174415954
 41
-4.2521611924
 42
-4.2519176098
  0
ELLIPSE
  5
65D
100
AcDbEntity
  8
CURVE
100
AcDbEllipse
 62
253
  6
CONTINUOUS
 10
39.9396819247
 20
24.0701564482
 30
0.0
 11
-21.9782234412
 21
100.36059548
 31
0.0
 40
0.698216455
 41
-4.4259428762
 42
-4.4257939358
  0
ELLIPSE
  5
65E
100
AcDbEntity
  8
CURVE
100
AcDbEllipse
 62
253
  6
CONTINUOUS
 10
39.1311733059
 20
24.5369791917
 30
0.0
 11
-42.8591488911
 21
104.3407287344
 31
0.0
 40
0.648094568
 41
-4.557684848
 42
-4.5574742449
  0
ELLIPSE
  5
65F
100
AcDbEntity
  8
CURVE
100
AcDbEllipse
 62
253
  6
CONTINUOUS
 10
37.9071165594
 20
25.2437342161
 30
0.0
 11
-67.3928069736
 21
111.5711402409
 31
0.0
 40
0.5637032375
 41
-4.6560702604
 42
-4.6558881215
  0
ELLIPSE
  5
660
100
AcDbEntity
  8
CURVE
100
AcDbEllipse
 62
253
  6
CONTINUOUS
 10
34.4998984427
 20
27.2110192542
 30
0.0
 11
-114.7807850596
 21
133.9060924333
 31
0.0
 40
0.4107608182
 41
1.5699195485
 42
1.5715911279
  0
ELLIPSE
  5
661
100
AcDbEntity
  8
CURVE
100
AcDbEllipse
 62
253
  6
CONTINUOUS
 10
36.2040590835
 20
26.2270582584
 30
0.0
 11
-95.7572025478
 21
124.0280622828
 31
0.0
 40
0.4657011708
 41
-4.7077079479
 42
-4.707558301
  0
ELLIPSE
  5
662
100
AcDbEntity
  8
CURVE
100
AcDbEllipse
 62
253
  6
CONTINUOUS
 10
34.9241625114
 20
26.9660544982
 30
0.0
 11
-114.7807850596
 21
133.9060924333
 31
0.0
 40
0.4107608182
 41
1.5670247876
 42
1.5686960023
  0
ELLIPSE
  5
663
100
AcDbEntity
  8
CURVE
100
AcDbEllipse
 62
253
  6
CONTINUOUS
 10
32.0394338564
 20
28.6316606695
 30
0.0
 11
-158.7409251557
 21
158.6372350463
 31
0.0
 40
0.3174092597
 41
1.5530156921
 42
1.5531190385
  0
ELLIPSE
  5
664
100
AcDbEntity
  8
0
100
AcDbEllipse
 62
7
  6
CONTINUOUS
 10
-9.9462524217
 20
17.9003181462
 30
0.0
 11
0.2522054935
 21
0.4317367776
 31
0.0
 40
0.580680601
 41
0.689040114
 42
0.7825716451
  0
ELLIPSE
  5
665
100
AcDbEntity
  8
0
100
AcDbEllipse
 62
7
  6
CONTINUOUS
 10
-2.2365331312
 20
14.5755252188
 30
0.0
 11
0.5065076343
 21
0.8622573648
 31
0.0
 40
0.5722712839
 41
0.0042912371
 42
0.7839161321
  0
ELLIPSE
  5
666
100
AcDbEntity
  8
0
100
AcDbEllipse
 62
7
  6
CONTINUOUS
 10
-10.1472335426
 20
19.1430644919
 30
0.0
 11
1.0061852078
 21
0.5737549327
 31
0.0
 40
0.0052693892
 41
0.0033014555
 42
0.7827085602
  0
ELLIPSE
  5
667
100
AcDbEntity
  8
0
100
AcDbEllipse
 62
7
  6
CONTINUOUS
 10
-3.9021720954
 20
-27.9243888227
 30
0.0
 11
-0.2500332324
 21
0.4330240487
 31
0.0
 40
0.5773023583
 41
-3.1343344313
 42
-2.3562893423
  0
ELLIPSE
  5
668
100
AcDbEntity
  8
0
100
AcDbEllipse
 62
7
  6
CONTINUOUS
 10
-3.9021720954
 20
7.8274953131
 30
0.0
 11
-0.2500205442
 21
0.4330020622
 31
0.0
 40
0.577360979
 41
-2.3562385877
 42
-0.7854930296
  0
ELLIPSE
  5
669
100
AcDbEntity
  8
0
100
AcDbEllipse
 62
7
  6
CONTINUOUS
 10
-12.2941900654
 20
14.2094020971
 30
0.0
 11
-0.1012962577
 21
0.1724520852
 31
0.0
 40
0.5723440702
 41
-2.3605147734
 42
-0.7897692152
  0
ELLIPSE
  5
66A
100
AcDbEntity
  8
0
100
AcDbEllipse
 62
7
  6
CONTINUOUS
 10
-4.3342786256
 20
14.6600348109
 30
0.0
 11
0.2532538171
 21
0.4311286824
 31
0.0
 40
0.5722712839
 41
0.3355676411
 42
0.7839161321
  0
ELLIPSE
  5
66B
100
AcDbEntity
  8
0
100
AcDbEllipse
 62
7
  6
CONTINUOUS
 10
-10.5850069284
 20
13.2225411749
 30
0.0
 11
-0.1013087946
 21
0.1724741635
 31
0.0
 40
0.5721987997
 41
-0.7896401281
 42
-0.0114439327
  0
ELLIPSE
  5
66C
100
AcDbEntity
  8
0
100
AcDbEllipse
 62
7
  6
CONTINUOUS
 10
1.3483726305
 20
-22.43087721
 30
0.0
 11
0.4999975532
 21
0.2922382515
 31
0.0
 40
0.0053525714
 41
-0.7710733282
 42
-0.0034851881
  0
ELLIPSE
  5
66D
100
AcDbEntity
  8
0
100
AcDbEllipse
 62
7
  6
CONTINUOUS
 10
1.3483726305
 20
12.6327646657
 30
0.0
 11
0.4999950703
 21
0.0038122721
 31
0.0
 40
0.5824033911
 41
-0.7723854459
 42
-0.0044506832
  0
ELLIPSE
  5
66E
100
AcDbEntity
  8
0
100
AcDbEllipse
 62
7
  6
CONTINUOUS
 10
-9.3266832689
 20
17.5425866824
 30
0.0
 11
0.2467084665
 21
0.4349075021
 31
0.0
 40
0.5823480847
 41
0.3268405091
 42
0.7751890001
  0
ELLIPSE
  5
66F
100
AcDbEntity
  8
0
100
AcDbEllipse
 62
7
  6
CONTINUOUS
 10
-9.5925004355
 20
57.298268344
 30
0.0
 11
-0.318972894
 21
42.5712402323
 31
0.0
 40
0.0075572231
 41
3.4482617679
 42
3.5362573745
  0
ELLIPSE
  5
670
100
AcDbEntity
  8
0
100
AcDbEllipse
 62
7
  6
CONTINUOUS
 10
45.3882444567
 20
42.7354195441
 30
0.0
 11
60.4168506882
 21
35.2934066151
 31
0.0
 40
0.0050378458
 41
2.5166802681
 42
2.6876229173
  0
ELLIPSE
  5
671
100
AcDbEntity
  8
0
100
AcDbEllipse
 62
7
  6
CONTINUOUS
 10
-3.7147094728
 20
14.3023033471
 30
0.0
 11
0.247841934
 21
0.4342563559
 31
0.0
 40
0.5739631936
 41
0.6832219561
 42
0.7767534872
  0
ELLIPSE
  5
672
100
AcDbEntity
  8
0
100
AcDbEllipse
 62
7
  6
CONTINUOUS
 10
45.3882444567
 20
42.7354195441
 30
0.0
 11
60.4168506882
 21
35.2934066151
 31
0.0
 40
0.0050378458
 41
-2.6935087662
 42
-2.5225661169
  0
ELLIPSE
  5
673
100
AcDbEntity
  8
0
100
AcDbEllipse
 62
7
  6
CONTINUOUS
 10
-14.8195534091
 20
14.6241632448
 30
0.0
 11
0.1013244325
 21
0.1724380936
 31
0.0
 40
0.5823475934
 41
0.7957043911
 42
2.3606829537
  0
ELLIPSE
  5
674
100
AcDbEntity
  8
0
100
AcDbEllipse
 62
7
  6
CONTINUOUS
 10
-6.0224534242
 20
7.5739888986
 30
0.0
 11
0.249894357
 21
0.0119767658
 31
0.0
 40
0.6067642562
 41
-2.385266879
 42
-0.8202883164
  0
ELLIPSE
  5
675
100
AcDbEntity
  8
0
100
AcDbEllipse
 62
7
  6
CONTINUOUS
 10
-6.4746812949
 20
17.022578852
 30
0.0
 11
0.4934169331
 21
0.8698150042
 31
0.0
 40
0.5823480847
 41
5.4933957447
 42
7.0583743073
  0
ELLIPSE
  5
676
100
AcDbEntity
  8
0
100
AcDbEllipse
 62
7
  6
CONTINUOUS
 10
1.4360191165
 20
12.4550395788
 30
0.0
 11
-0.7006352283
 21
1.22850495
 31
0.0
 40
0.5737642108
 41
5.0913839874
 42
6.2865911274
  0
ELLIPSE
  5
677
100
AcDbEntity
  8
0
100
AcDbEllipse
 62
7
  6
CONTINUOUS
 10
-20.012877141
 20
15.6518842116
 30
0.0
 11
0.249894357
 21
0.0119767658
 31
0.0
 40
0.6067642562
 41
3.1125159911
 42
3.8979184282
  0
ELLIPSE
  5
678
100
AcDbEntity
  8
0
100
AcDbEllipse
 62
7
  6
CONTINUOUS
 10
-4.0020538225
 20
13.6082218635
 30
0.0
 11
0.4530408369
 21
-0.002269484
 31
0.0
 40
0.5740189913
 41
-0.7767048895
 42
0.0028518857
  0
ELLIPSE
  5
679
100
AcDbEntity
  8
0
100
AcDbEllipse
 62
7
  6
CONTINUOUS
 10
-5.6823225065
 20
-28.8779379155
 30
0.0
 11
-0.2498600223
 21
0.43379745
 31
0.0
 40
0.5768037941
 41
2.8808129251
 42
3.9277026942
  0
ELLIPSE
  5
67A
100
AcDbEntity
  8
0
100
AcDbEllipse
 62
7
  6
CONTINUOUS
 10
1.3483726305
 20
13.4183191801
 30
0.0
 11
-0.3567823072
 21
0.610519958
 31
0.0
 40
0.573764555
 41
-3.1333143349
 42
-2.1059759599
  0
ELLIPSE
  5
67B
100
AcDbEntity
  8
0
100
AcDbEllipse
 62
7
  6
CONTINUOUS
 10
-11.4955290697
 20
11.5504458343
 30
0.0
 11
0.1999154856
 21
0.0095814127
 31
0.0
 40
0.6067642562
 41
3.1125385608
 42
3.8979184282
  0
ELLIPSE
  5
67C
100
AcDbEntity
  8
0
100
AcDbEllipse
 62
7
  6
CONTINUOUS
 10
-13.1962986112
 20
12.5324488519
 30
0.0
 11
0.1999154856
 21
0.0095814127
 31
0.0
 40
0.6067642562
 41
-2.385266879
 42
-0.8231971985
  0
ELLIPSE
  5
67D
100
AcDbEntity
  8
0
100
AcDbEllipse
 62
7
  6
CONTINUOUS
 10
-8.8811272525
 20
16.0624561217
 30
0.0
 11
1.0205797881
 21
-0.0051125391
 31
0.0
 40
0.5740189913
 41
1.3066884979
 42
2.3590192272
  0
ELLIPSE
  5
67E
100
AcDbEntity
  8
0
100
AcDbEllipse
 62
7
  6
CONTINUOUS
 10
-9.5925004355
 20
16.8360756731
 30
0.0
 11
0.4530408369
 21
-0.002269484
 31
0.0
 40
0.5740189913
 41
-0.4801417832
 42
0.0028945789
  0
ELLIPSE
  5
67F
100
AcDbEntity
  8
0
100
AcDbEllipse
 62
7
  6
CONTINUOUS
 10
-5.6823225065
 20
6.7539715462
 30
0.0
 11
-0.2496303025
 21
0.4334023309
 31
0.0
 40
0.5778584463
 41
3.9286203597
 42
5.498503297
  0
ELLIPSE
  5
680
100
AcDbEntity
  8
0
100
AcDbEllipse
 62
7
  6
CONTINUOUS
 10
-20.7065614493
 20
15.4287788138
 30
0.0
 11
-0.2498600223
 21
0.43379745
 31
0.0
 40
0.5768037941
 41
-0.7837728968
 42
0.2991621863
  0
ENDSEC
  0
SECTION
  2
OBJECTS
  0
DICTIONARY
  5
C
100
AcDbDictionary
280
0
281
1
  3
ACAD_GROUP
350
D
  3
ACAD_MLINESTYLE
350
17
  3
ACAD_LAYOUT
350
1A
  3
ACAD_PLOTSETTINGS
350
19
  3
ACAD_PLOTSTYLENAME
350
E
  0
DICTIONARY
  5
D
102
{ACAD_REACTORS
330
C
102
}
100
AcDbDictionary
280
0
281
1
  0
ACDBDICTIONARYWDFLT
  5
E
102
{ACAD_REACTORS
330
C
102
}
100
AcDbDictionary
281
1
  3
Normal
350
F
100
AcDbDictionaryWithDefault
340
F
  0
DICTIONARY
  5
17
102
{ACAD_REACTORS
330
C
102
}
100
AcDbDictionary
280
0
281
1
  3
Standard
350
18
  0
DICTIONARY
  5
19
102
{ACAD_REACTORS
330
C
102
}
100
AcDbDictionary
281
1
  0
DICTIONARY
  5
1A
102
{ACAD_REACTORS
330
C
102
}
100
AcDbDictionary
281
1
  3
Model
350
681
  3
Layout1
350
682
  0
ACDBPLACEHOLDER
  5
F
102
{ACAD_REACTORS
330
E
102
}
  0
MLINESTYLE
  5
18
102
{ACAD_REACTORS
330
17
102
}
100
AcDbMlineStyle
  2
STANDARD
 70
0
  3

 62
256
 51
90.0
 52
90.0
 71
2
 49
0.5
 62
256
  6
BYLAYER
 49
-0.5
 62
256
  6
BYLAYER
  0
LAYOUT
  5
681
102
{ACAD_REACTORS
330
1A
102
}
100
AcDbPlotSettings
  1

  2
none_device
  4
ISO_A4_(297.00_x_210.00_MM)
  6

 40
0.0
 41
0.0
 42
0.0
 43
0.0
 44
297.0
 45
210.0
 46
0.0
 47
0.0
 48
0.0
 49
0.0
140
0.0
141
0.0
142
1.0
143
1.0
 70
1024
 72
1
 73
0
 74
0
  7

 75
0
147
1.0
148
0.0
149
0.0
100
AcDbLayout
  1
Model
 70
0
 71
0
 10
0.0
 20
0.0
 11
297.0
 21
210.0
 12
0.0
 22
0.0
 32
0.0
 14
0.0
 24
0.0
 34
0.0
 15
0.0
 25
0.0
 35
0.0
146
0.0
 13
0.0
 23
0.0
 33
0.0
 16
1.0
 26
0.0
 36
0.0
 17
0.0
 27
1.0
 37
0.0
 76
0
330
217
345
0
346
0
  0
LAYOUT
  5
682
102
{ACAD_REACTORS
330
1A
102
}
100
AcDbPlotSettings
  1

  2
none_device
  4
ISO_A4_(297.00_x_210.00_MM)
  6

 40
0.0
 41
0.0
 42
0.0
 43
0.0
 44
297.0
 45
210.0
 46
0.0
 47
0.0
 48
0.0
 49
0.0
140
0.0
141
0.0
142
1.0
143
1.0
 70
0
 72
1
 73
0
 74
0
  7

 75
0
147
1.0
148
0.0
149
0.0
100
AcDbLayout
  1
Layout1
 70
0
 71
1
 10
0.0
 20
0.0
 11
297.0
 21
210.0
 12
0.0
 22
0.0
 32
0.0
 14
0.0
 24
0.0
 34
0.0
 15
0.0
 25
0.0
 35
0.0
146
0.0
 13
0.0
 23
0.0
 33
0.0
 16
1.0
 26
0.0
 36
0.0
 17
0.0
 27
1.0
 37
0.0
 76
0
330
218
345
0
346
0
  0
ENDSEC
  0
EOF
